  0
SECTION
  2
HEADER
  9
$ACADVER
  1
AC1015
  9
$ACADMAINTVER
 70
     6
  9
$DWGCODEPAGE
  3
ANSI_1252
  9
$INSBASE
 10
0.0
 20
0.0
 30
0.0
  9
$EXTMIN
 10
0.0
 20
0.0
 30
0.0
  9
$EXTMAX
 10
3000.0
 20
4500.0
 30
0.0
  9
$LIMMIN
 10
0.0
 20
0.0
  9
$LIMMAX
 10
3000.0
 20
4500.0
  9
$ORTHOMODE
 70
     0
  9
$REGENMODE
 70
     1
  9
$FILLMODE
 70
     1
  9
$QTEXTMODE
 70
     0
  9
$MIRRTEXT
 70
     1
  9
$LTSCALE
 40
1.0
  9
$ATTMODE
 70
     1
  9
$TEXTSIZE
 40
2.5
  9
$TRACEWID
 40
1.0
  9
$TEXTSTYLE
  7
Standard
  9
$CLAYER
  8
0
  9
$CELTYPE
  6
ByLayer
  9
$CECOLOR
 62
   256
  9
$CELTSCALE
 40
1.0
  9
$DISPSILH
 70
     0
  9
$DIMSCALE
 40
1.0
  9
$DIMASZ
 40
2.5
  9
$DIMEXO
 40
0.625
  9
$DIMDLI
 40
3.75
  9
$DIMRND
 40
0.0
  9
$DIMDLE
 40
0.0
  9
$DIMEXE
 40
1.25
  9
$DIMTP
 40
0.0
  9
$DIMTM
 40
0.0
  9
$DIMTXT
 40
2.5
  9
$DIMCEN
 40
2.5
  9
$DIMTSZ
 40
0.0
  9
$DIMTOL
 70
     0
  9
$DIMLIM
 70
     0
  9
$DIMTIH
 70
     0
  9
$DIMTOH
 70
     0
  9
$DIMSE1
 70
     0
  9
$DIMSE2
 70
     0
  9
$DIMTAD
 70
     1
  9
$DIMZIN
 70
     8
  9
$DIMBLK
  1

  9
$DIMASO
 70
     1
  9
$DIMSHO
 70
     1
  9
$DIMPOST
  1

  9
$DIMAPOST
  1

  9
$DIMALT
 70
     0
  9
$DIMALTD
 70
     3
  9
$DIMALTF
 40
0.0393700787
  9
$DIMLFAC
 40
1.0
  9
$DIMTOFL
 70
     1
  9
$DIMTVP
 40
0.0
  9
$DIMTIX
 70
     0
  9
$DIMSOXD
 70
     0
  9
$DIMSAH
 70
     0
  9
$DIMBLK1
  1

  9
$DIMBLK2
  1

  9
$DIMSTYLE
  2
ISO-25
  9
$DIMCLRD
 70
     0
  9
$DIMCLRE
 70
     0
  9
$DIMCLRT
 70
     0
  9
$DIMTFAC
 40
1.0
  9
$DIMGAP
 40
0.625
  9
$DIMJUST
 70
     0
  9
$DIMSD1
 70
     0
  9
$DIMSD2
 70
     0
  9
$DIMTOLJ
 70
     0
  9
$DIMTZIN
 70
     8
  9
$DIMALTZ
 70
     0
  9
$DIMALTTZ
 70
     0
  9
$DIMUPT
 70
     0
  9
$DIMDEC
 70
     2
  9
$DIMTDEC
 70
     2
  9
$DIMALTU
 70
     2
  9
$DIMALTTD
 70
     3
  9
$DIMTXSTY
  7
Standard
  9
$DIMAUNIT
 70
     0
  9
$DIMADEC
 70
     0
  9
$DIMALTRND
 40
0.0
  9
$DIMAZIN
 70
     0
  9
$DIMDSEP
 70
    44
  9
$DIMATFIT
 70
     3
  9
$DIMFRAC
 70
     0
  9
$DIMLDRBLK
  1

  9
$DIMLUNIT
 70
     2
  9
$DIMLWD
 70
    -2
  9
$DIMLWE
 70
    -2
  9
$DIMTMOVE
 70
     0
  9
$LUNITS
 70
     2
  9
$LUPREC
 70
     4
  9
$SKETCHINC
 40
1.0
  9
$FILLETRAD
 40
10.0
  9
$AUNITS
 70
     0
  9
$AUPREC
 70
     0
  9
$MENU
  1
.
  9
$ELEVATION
 40
0.0
  9
$PELEVATION
 40
0.0
  9
$THICKNESS
 40
0.0
  9
$LIMCHECK
 70
     0
  9
$CHAMFERA
 40
10.0
  9
$CHAMFERB
 40
10.0
  9
$CHAMFERC
 40
20.0
  9
$CHAMFERD
 40
0.0
  9
$SKPOLY
 70
     0
  9
$TDCREATE
 40
2455980.638233333
  9
$TDUCREATE
 40
2455980.596566667
  9
$TDUPDATE
 40
2455980.638233345
  9
$TDUUPDATE
 40
2455980.596566678
  9
$TDINDWG
 40
0.0000000116
  9
$TDUSRTIMER
 40
0.0000000116
  9
$USRTIMER
 70
     1
  9
$ANGBASE
 50
0.0
  9
$ANGDIR
 70
     0
  9
$PDMODE
 70
     0
  9
$PDSIZE
 40
0.0
  9
$PLINEWID
 40
0.0
  9
$SPLFRAME
 70
     0
  9
$SPLINETYPE
 70
     6
  9
$SPLINESEGS
 70
     8
  9
$HANDSEED
  5
366
  9
$SURFTAB1
 70
     6
  9
$SURFTAB2
 70
     6
  9
$SURFTYPE
 70
     6
  9
$SURFU
 70
     6
  9
$SURFV
 70
     6
  9
$UCSBASE
  2

  9
$UCSNAME
  2

  9
$UCSORG
 10
0.0
 20
0.0
 30
0.0
  9
$UCSXDIR
 10
1.0
 20
0.0
 30
0.0
  9
$UCSYDIR
 10
0.0
 20
1.0
 30
0.0
  9
$UCSORTHOREF
  2

  9
$UCSORTHOVIEW
 70
     0
  9
$UCSORGTOP
 10
0.0
 20
0.0
 30
0.0
  9
$UCSORGBOTTOM
 10
0.0
 20
0.0
 30
0.0
  9
$UCSORGLEFT
 10
0.0
 20
0.0
 30
0.0
  9
$UCSORGRIGHT
 10
0.0
 20
0.0
 30
0.0
  9
$UCSORGFRONT
 10
0.0
 20
0.0
 30
0.0
  9
$UCSORGBACK
 10
0.0
 20
0.0
 30
0.0
  9
$PUCSBASE
  2

  9
$PUCSNAME
  2

  9
$PUCSORG
 10
0.0
 20
0.0
 30
0.0
  9
$PUCSXDIR
 10
1.0
 20
0.0
 30
0.0
  9
$PUCSYDIR
 10
0.0
 20
1.0
 30
0.0
  9
$PUCSORTHOREF
  2

  9
$PUCSORTHOVIEW
 70
     0
  9
$PUCSORGTOP
 10
0.0
 20
0.0
 30
0.0
  9
$PUCSORGBOTTOM
 10
0.0
 20
0.0
 30
0.0
  9
$PUCSORGLEFT
 10
0.0
 20
0.0
 30
0.0
  9
$PUCSORGRIGHT
 10
0.0
 20
0.0
 30
0.0
  9
$PUCSORGFRONT
 10
0.0
 20
0.0
 30
0.0
  9
$PUCSORGBACK
 10
0.0
 20
0.0
 30
0.0
  9
$USERI1
 70
     0
  9
$USERI2
 70
     0
  9
$USERI3
 70
     0
  9
$USERI4
 70
     0
  9
$USERI5
 70
     0
  9
$USERR1
 40
0.0
  9
$USERR2
 40
0.0
  9
$USERR3
 40
0.0
  9
$USERR4
 40
0.0
  9
$USERR5
 40
0.0
  9
$WORLDVIEW
 70
     1
  9
$SHADEDGE
 70
     3
  9
$SHADEDIF
 70
    70
  9
$TILEMODE
 70
     1
  9
$MAXACTVP
 70
    64
  9
$PINSBASE
 10
0.0
 20
0.0
 30
0.0
  9
$PLIMCHECK
 70
     0
  9
$PEXTMIN
 10
0.0
 20
0.0
 30
0.0
  9
$PEXTMAX
 10
3000.0
 20
4500.0
 30
0.0
  9
$PLIMMIN
 10
0.0
 20
0.0
  9
$PLIMMAX
 10
3000.0
 20
4500.0
  9
$UNITMODE
 70
     0
  9
$VISRETAIN
 70
     1
  9
$PLINEGEN
 70
     0
  9
$PSLTSCALE
 70
     1
  9
$TREEDEPTH
 70
  3020
  9
$CMLSTYLE
  2
Standard
  9
$CMLJUST
 70
     0
  9
$CMLSCALE
 40
20.0
  9
$PROXYGRAPHICS
 70
     1
  9
$MEASUREMENT
 70
     1
  9
$CELWEIGHT
370
    -1
  9
$ENDCAPS
280
     0
  9
$JOINSTYLE
280
     0
  9
$LWDISPLAY
290
     0
  9
$INSUNITS
 70
     4
  9
$HYPERLINKBASE
  1

  9
$STYLESHEET
  1

  9
$XEDIT
290
     1
  9
$CEPSNTYPE
380
     0
  9
$PSTYLEMODE
290
     1
  9
$FINGERPRINTGUID
  2
{EDB8EDE7-F300-4C61-AC38-03ABA355B42E}
  9
$VERSIONGUID
  2
{FAEB1C32-E019-11D5-929B-00C0DF256EC4}
  9
$EXTNAMES
290
     1
  9
$PSVPSCALE
 40
0.0
  9
$OLESTARTUP
290
     0
  0
ENDSEC
  0
SECTION
  2
CLASSES
  0
CLASS
  1
ACDBDICTIONARYWDFLT
  2
AcDbDictionaryWithDefault
  3
ObjectDBX Classes
 90
        0
280
     0
281
     0
  0
CLASS
  1
VISUALSTYLE
  2
AcDbVisualStyle
  3
ObjectDBX Classes
 90
     4095
280
     0
281
     0
  0
CLASS
  1
SCALE
  2
AcDbScale
  3
ObjectDBX Classes
 90
     1153
280
     0
281
     0
  0
CLASS
  1
DICTIONARYVAR
  2
AcDbDictionaryVar
  3
ObjectDBX Classes
 90
        0
280
     0
281
     0
  0
CLASS
  1
ACDBPLACEHOLDER
  2
AcDbPlaceHolder
  3
ObjectDBX Classes
 90
        0
280
     0
281
     0
  0
CLASS
  1
LAYOUT
  2
AcDbLayout
  3
ObjectDBX Classes
 90
        0
280
     0
281
     0
  0
ENDSEC
  0
SECTION
  2
TABLES
  0
TABLE
  2
VPORT
  5
8
330
0
100
AcDbSymbolTable
 70
     1
  0
VPORT
  5
29
330
8
100
AcDbSymbolTableRecord
100
AcDbViewportTableRecord
  2
*Active
 70
     0
 10
0.0
 20
0.0
 11
1.0
 21
1.0
 12
344.1869158879
 22
148.5
 13
0.0
 23
0.0
 14
10.0
 24
10.0
 15
10.0
 25
10.0
 16
0.0
 26
0.0
 36
1.0
 17
0.0
 27
0.0
 37
0.0
 40
297.0
 41
1.9729729729
 42
50.0
 43
0.0
 44
0.0
 50
0.0
 51
0.0
 71
     0
 72
   100
 73
     1
 74
     3
 75
     0
 76
     0
 77
     0
 78
     0
281
     0
 65
     1
110
0.0
120
0.0
130
0.0
111
1.0
121
0.0
131
0.0
112
0.0
122
1.0
132
0.0
 79
     0
146
0.0
  0
ENDTAB
  0
TABLE
  2
LTYPE
  5
5
330
0
100
AcDbSymbolTable
 70
     2
  0
LTYPE
  5
14
330
5
100
AcDbSymbolTableRecord
100
AcDbLinetypeTableRecord
  2
ByBlock
 70
     0
  3

 72
    65
 73
     0
 40
0.0
  0
LTYPE
  5
15
330
5
100
AcDbSymbolTableRecord
100
AcDbLinetypeTableRecord
  2
ByLayer
 70
     0
  3

 72
    65
 73
     0
 40
0.0
  0
LTYPE
  5
16
330
5
100
AcDbSymbolTableRecord
100
AcDbLinetypeTableRecord
  2
Continuous
 70
     0
  3
Solid line
 72
    65
 73
     0
 40
0.0
  0
LTYPE
  5
60
330
5
100
AcDbSymbolTableRecord
100
AcDbLinetypeTableRecord
  2
CENTER2
 70
     0
  3
Center (.5x) ___ _ ___ _ ___ _ ___ _ ___ _ ___
 72
    65
 73
     4
 40
28.575
 49
19.05
 74
     4
 75
     0
340
0
 46
0.0
 50
0.0
 44
0.0
 45
0.0
 49
-3.175
 74
     4
 75
     0
340
0
 46
0.0
 50
0.0
 44
0.0
 45
0.0
 49
3.175
 74
     4
 75
     0
340
0
 46
0.0
 50
0.0
 44
0.0
 45
0.0
 49
-3.175
 74
     4
 75
     0
340
0
 46
0.0
 50
0.0
 44
0.0
 45
0.0
  0
ENDTAB
  0
TABLE
  2
LAYER
  5
2
330
0
100
AcDbSymbolTable
 70
    10
  0
LAYER
  5
10
330
2
100
AcDbSymbolTableRecord
100
AcDbLayerTableRecord
  2
0
 70
     0
 62
     7
  6
Continuous
370
    -3
390
F
  0
LAYER
  5
5D
330
2
100
AcDbSymbolTableRecord
100
AcDbLayerTableRecord
  2
Default
 70
     0
 62
     7
  6
Continuous
370
    -3
390
F
  0
LAYER
  5
77
330
2
100
AcDbSymbolTableRecord
100
AcDbLayerTableRecord
  2
$DDT_AUDIT_GENERATED_(77)
 70
     0
 62
     7
  6
Continuous
370
    -3
390
F
  0
LAYER
  5
87
330
2
100
AcDbSymbolTableRecord
100
AcDbLayerTableRecord
  2
$DDT_AUDIT_GENERATED_(87)
 70
     0
 62
     7
  6
Continuous
370
    -3
390
F
  0
LAYER
  5
A2
330
2
100
AcDbSymbolTableRecord
100
AcDbLayerTableRecord
  2
$DDT_AUDIT_GENERATED_(A2)
 70
     0
 62
     7
  6
Continuous
370
    -3
390
F
  0
LAYER
  5
DA
330
2
100
AcDbSymbolTableRecord
100
AcDbLayerTableRecord
  2
$DDT_AUDIT_GENERATED_(DA)
 70
     0
 62
     7
  6
Continuous
370
    -3
390
F
  0
LAYER
  5
164
330
2
100
AcDbSymbolTableRecord
100
AcDbLayerTableRecord
  2
$DDT_AUDIT_GENERATED_(164)
 70
     0
 62
     7
  6
Continuous
370
    -3
390
F
  0
LAYER
  5
185
330
2
100
AcDbSymbolTableRecord
100
AcDbLayerTableRecord
  2
4220149_GEHÄUSE
 70
     0
 62
     7
  6
Continuous
370
    -3
390
F
  0
LAYER
  5
1BD
330
2
100
AcDbSymbolTableRecord
100
AcDbLayerTableRecord
  2
$DDT_AUDIT_GENERATED_(1BD)
 70
     0
 62
     7
  6
Continuous
370
    -3
390
F
  0
LAYER
  5
327
330
2
100
AcDbSymbolTableRecord
100
AcDbLayerTableRecord
  2
$DDT_AUDIT_GENERATED_(327)
 70
     0
 62
     7
  6
Continuous
370
    -3
390
F
  0
ENDTAB
  0
TABLE
  2
STYLE
  5
3
330
0
100
AcDbSymbolTable
 70
     2
  0
STYLE
  5
11
330
3
100
AcDbSymbolTableRecord
100
AcDbTextStyleTableRecord
  2
Standard
 70
     0
 40
0.0
 41
1.0
 50
0.0
 71
     0
 42
2.5
  3
txt
  4

  0
STYLE
  5
355
330
3
100
AcDbSymbolTableRecord
100
AcDbTextStyleTableRecord
  2
SEACAD_seiso_ttf
 70
     0
 40
0.0
 41
1.0
 50
0.0
 71
     0
 42
0.2
  3
seiso.ttf
  4

  0
ENDTAB
  0
TABLE
  2
VIEW
  5
6
330
0
100
AcDbSymbolTable
 70
     0
  0
ENDTAB
  0
TABLE
  2
UCS
  5
7
330
0
100
AcDbSymbolTable
 70
     0
  0
ENDTAB
  0
TABLE
  2
APPID
  5
9
330
0
100
AcDbSymbolTable
 70
     1
  0
APPID
  5
12
330
9
100
AcDbSymbolTableRecord
100
AcDbRegAppTableRecord
  2
ACAD
 70
     0
  0
ENDTAB
  0
TABLE
  2
DIMSTYLE
  5
A
330
0
100
AcDbSymbolTable
 70
     1
100
AcDbDimStyleTable
  0
DIMSTYLE
105
27
330
A
100
AcDbSymbolTableRecord
100
AcDbDimStyleTableRecord
  2
ISO-25
 70
     0
 41
2.5
 42
0.625
 43
3.75
 44
1.25
 73
     0
 74
     0
 77
     1
 78
     8
140
2.5
141
2.5
143
0.0393700787
147
0.625
171
     3
172
     1
271
     2
272
     2
274
     3
278
    44
283
     0
284
     8
340
11
  0
ENDTAB
  0
TABLE
  2
BLOCK_RECORD
  5
1
330
0
100
AcDbSymbolTable
 70
     7
  0
BLOCK_RECORD
  5
1F
330
1
100
AcDbSymbolTableRecord
100
AcDbBlockTableRecord
  2
*Model_Space
340
22
  0
BLOCK_RECORD
  5
1B
330
1
100
AcDbSymbolTableRecord
100
AcDbBlockTableRecord
  2
*Paper_Space
340
1E
  0
BLOCK_RECORD
  5
5E
330
1
100
AcDbSymbolTableRecord
100
AcDbBlockTableRecord
  2
SEANNOT_GROUP
340
0
102
{BLKREFS
331
5F
102
}
  0
BLOCK_RECORD
  5
65
330
1
100
AcDbSymbolTableRecord
100
AcDbBlockTableRecord
  2
SEANNOT_GROUP1
340
0
102
{BLKREFS
331
66
102
}
  0
BLOCK_RECORD
  5
6B
330
1
100
AcDbSymbolTableRecord
100
AcDbBlockTableRecord
  2
SEANNOT_GROUP2
340
0
102
{BLKREFS
331
6C
102
}
  0
BLOCK_RECORD
  5
75
330
1
100
AcDbSymbolTableRecord
100
AcDbBlockTableRecord
  2
SE
340
0
102
{BLKREFS
331
76
102
}
  0
BLOCK_RECORD
  5
E4
330
1
100
AcDbSymbolTableRecord
100
AcDbBlockTableRecord
  2
SE1
340
0
102
{BLKREFS
331
E5
102
}
  0
BLOCK_RECORD
  5
152
330
1
100
AcDbSymbolTableRecord
100
AcDbBlockTableRecord
  2
SE2
340
0
102
{BLKREFS
331
153
102
}
  0
ENDTAB
  0
ENDSEC
  0
SECTION
  2
BLOCKS
  0
BLOCK
  5
20
330
1F
100
AcDbEntity
  8
0
100
AcDbBlockBegin
  2
*Model_Space
 70
     0
 10
0.0
 20
0.0
 30
0.0
  3
*Model_Space
  1

  0
ENDBLK
  5
21
330
1F
100
AcDbEntity
  8
0
100
AcDbBlockEnd
  0
BLOCK
  5
1C
330
1B
100
AcDbEntity
 67
     1
  8
0
100
AcDbBlockBegin
  2
*Paper_Space
 70
     0
 10
0.0
 20
0.0
 30
0.0
  3
*Paper_Space
  1

  0
ENDBLK
  5
1D
330
1B
100
AcDbEntity
 67
     1
  8
0
100
AcDbBlockEnd
  0
BLOCK
  5
63
330
5E
100
AcDbEntity
  8
0
100
AcDbBlockBegin
  2
SEANNOT_GROUP
 70
     0
 10
0.0
 20
0.0
 30
0.0
  3
SEANNOT_GROUP
  1

  0
LINE
  5
61
330
5E
100
AcDbEntity
  8
Default
  6
CENTER2
 62
     7
100
AcDbLine
 10
207.4967045403
 20
299.0838986397
 30
0.0
 11
167.4967054343
 21
299.0838986397
 31
0.0
  0
LINE
  5
62
330
5E
100
AcDbEntity
  8
Default
  6
CENTER2
 62
     7
100
AcDbLine
 10
187.4967049873
 20
319.0838981927
 30
0.0
 11
187.4967049873
 21
279.0838990867
 31
0.0
  0
ENDBLK
  5
64
330
5E
100
AcDbEntity
  8
0
100
AcDbBlockEnd
  0
BLOCK
  5
69
330
65
100
AcDbEntity
  8
0
100
AcDbBlockBegin
  2
SEANNOT_GROUP1
 70
     0
 10
0.0
 20
0.0
 30
0.0
  3
SEANNOT_GROUP1
  1

  0
LINE
  5
67
330
65
100
AcDbEntity
  8
Default
  6
CENTER2
 62
     7
100
AcDbLine
 10
397.16097197
 20
299.0838986397
 30
0.0
 11
357.1609728641
 21
299.0838986397
 31
0.0
  0
LINE
  5
68
330
65
100
AcDbEntity
  8
Default
  6
CENTER2
 62
     7
100
AcDbLine
 10
377.160972417
 20
319.0838981927
 30
0.0
 11
377.160972417
 21
279.0838990867
 31
0.0
  0
ENDBLK
  5
6A
330
65
100
AcDbEntity
  8
0
100
AcDbBlockEnd
  0
BLOCK
  5
73
330
6B
100
AcDbEntity
  8
0
100
AcDbBlockBegin
  2
SEANNOT_GROUP2
 70
     0
 10
0.0
 20
0.0
 30
0.0
  3
SEANNOT_GROUP2
  1

  0
LINE
  5
6D
330
6B
100
AcDbEntity
  8
Default
  6
CENTER2
 62
     7
100
AcDbLine
 10
207.4967045403
 20
138.1906315817
 30
0.0
 11
167.4967054343
 21
138.1906315817
 31
0.0
  0
LINE
  5
6E
330
6B
100
AcDbEntity
  8
Default
  6
CENTER2
 62
     7
100
AcDbLine
 10
187.4967049873
 20
158.1906311346
 30
0.0
 11
187.4967049873
 21
118.1906320287
 31
0.0
  0
LINE
  5
6F
330
6B
100
AcDbEntity
  8
Default
  6
CENTER2
 62
     7
100
AcDbLine
 10
212.4967044285
 20
138.1906315817
 30
0.0
 11
196.9967049873
 21
138.1906315817
 31
0.0
  0
LINE
  5
70
330
6B
100
AcDbEntity
  8
Default
  6
CENTER2
 62
     7
100
AcDbLine
 10
187.4967049873
 20
163.1906310229
 30
0.0
 11
187.4967049873
 21
147.6906315817
 31
0.0
  0
LINE
  5
71
330
6B
100
AcDbEntity
  8
Default
  6
CENTER2
 62
     7
100
AcDbLine
 10
162.4967055461
 20
138.1906315817
 30
0.0
 11
177.9967049873
 21
138.1906315817
 31
0.0
  0
LINE
  5
72
330
6B
100
AcDbEntity
  8
Default
  6
CENTER2
 62
     7
100
AcDbLine
 10
187.4967049873
 20
113.1906321405
 30
0.0
 11
187.4967049873
 21
128.6906315817
 31
0.0
  0
ENDBLK
  5
74
330
6B
100
AcDbEntity
  8
0
100
AcDbBlockEnd
  0
BLOCK
  5
E2
330
75
100
AcDbEntity
  8
0
100
AcDbBlockBegin
  2
SE
 70
     0
 10
0.0
 20
0.0
 30
0.0
  3
SE
  1

  0
LINE
  5
78
330
75
100
AcDbEntity
  8
$DDT_AUDIT_GENERATED_(77)
  6
Continuous
 62
     7
100
AcDbLine
 10
111.2967049873
 20
247.1838986397
 30
0.0
 11
111.2967049873
 21
252.5838986397
 31
0.0
  0
LINE
  5
79
330
75
100
AcDbEntity
  8
$DDT_AUDIT_GENERATED_(77)
  6
Continuous
 62
     7
100
AcDbLine
 10
111.5967049873
 20
252.8838986397
 30
0.0
 11
263.3967049873
 21
252.8838986397
 31
0.0
  0
LINE
  5
7A
330
75
100
AcDbEntity
  8
$DDT_AUDIT_GENERATED_(77)
  6
Continuous
 62
     7
100
AcDbLine
 10
263.3967049873
 20
246.8838986397
 30
0.0
 11
111.5967049873
 21
246.8838986397
 31
0.0
  0
LINE
  5
7B
330
75
100
AcDbEntity
  8
$DDT_AUDIT_GENERATED_(77)
  6
Continuous
 62
     7
100
AcDbLine
 10
263.6967049873
 20
252.5838986397
 30
0.0
 11
263.6967049873
 21
247.1838986397
 31
0.0
  0
ARC
  5
7C
330
75
100
AcDbEntity
  8
$DDT_AUDIT_GENERATED_(77)
  6
Continuous
 62
     7
100
AcDbCircle
 10
263.3967049873
 20
247.1838986397
 30
0.0
 40
0.3000000000000017
100
AcDbArc
 50
270.0
 51
0.0
  0
ARC
  5
7D
330
75
100
AcDbEntity
  8
$DDT_AUDIT_GENERATED_(77)
  6
Continuous
 62
     7
100
AcDbCircle
 10
263.3967049873
 20
252.5838986397
 30
0.0
 40
0.2999999999999947
100
AcDbArc
 50
0.0
 51
90.0
  0
ARC
  5
7E
330
75
100
AcDbEntity
  8
$DDT_AUDIT_GENERATED_(77)
  6
Continuous
 62
     7
100
AcDbCircle
 10
111.5967049873
 20
247.1838986397
 30
0.0
 40
0.2999999999999947
100
AcDbArc
 50
180.0
 51
270.0
  0
ARC
  5
7F
330
75
100
AcDbEntity
  8
$DDT_AUDIT_GENERATED_(77)
  6
Continuous
 62
     7
100
AcDbCircle
 10
111.5967049873
 20
252.5838986397
 30
0.0
 40
0.2999999999999982
100
AcDbArc
 50
90.0
 51
180.0
  0
LINE
  5
80
330
75
100
AcDbEntity
  8
$DDT_AUDIT_GENERATED_(77)
  6
Continuous
 62
     7
100
AcDbLine
 10
257.4967049873
 20
246.5838986397
 30
0.0
 11
257.4967049873
 21
242.1838986397
 31
0.0
  0
LINE
  5
81
330
75
100
AcDbEntity
  8
$DDT_AUDIT_GENERATED_(77)
  6
Continuous
 62
     7
100
AcDbLine
 10
117.4967049873
 20
242.1838986397
 30
0.0
 11
117.4967049873
 21
246.5838986397
 31
0.0
  0
LINE
  5
82
330
75
100
AcDbEntity
  8
$DDT_AUDIT_GENERATED_(77)
  6
Continuous
 62
     7
100
AcDbLine
 10
257.1967049873
 20
241.8838986397
 30
0.0
 11
117.7967049873
 21
241.8838986397
 31
0.0
  0
ARC
  5
83
330
75
100
AcDbEntity
  8
$DDT_AUDIT_GENERATED_(77)
  6
Continuous
 62
     7
100
AcDbCircle
 10
257.1967049873
 20
242.1838986397
 30
0.0
 40
0.3000000000000017
100
AcDbArc
 50
270.0
 51
0.0
  0
ARC
  5
84
330
75
100
AcDbEntity
  8
$DDT_AUDIT_GENERATED_(77)
  6
Continuous
 62
     7
100
AcDbCircle
 10
117.7967049873
 20
242.1838986397
 30
0.0
 40
0.2999999999999947
100
AcDbArc
 50
180.0
 51
270.0
  0
ARC
  5
85
330
75
100
AcDbEntity
  8
$DDT_AUDIT_GENERATED_(77)
  6
Continuous
 62
     7
100
AcDbCircle
 10
257.7967049873
 20
246.5838986397
 30
0.0
 40
0.2999999999999947
100
AcDbArc
 50
90.0
 51
180.0
  0
ARC
  5
86
330
75
100
AcDbEntity
  8
$DDT_AUDIT_GENERATED_(77)
  6
Continuous
 62
     7
100
AcDbCircle
 10
117.1967049873
 20
246.5838986397
 30
0.0
 40
0.2999999999999982
100
AcDbArc
 50
0.0
 51
90.0
  0
LINE
  5
88
330
75
100
AcDbEntity
  8
$DDT_AUDIT_GENERATED_(87)
  6
Continuous
 62
     7
100
AcDbLine
 10
195.9967049873
 20
278.3738986397
 30
0.0
 11
178.9967049873
 21
278.3738986397
 31
0.0
  0
LINE
  5
89
330
75
100
AcDbEntity
  8
$DDT_AUDIT_GENERATED_(87)
  6
Continuous
 62
     7
100
AcDbLine
 10
173.9967049873
 20
299.0838986397
 30
0.0
 11
200.9967049873
 21
299.0838986397
 31
0.0
  0
LINE
  5
8A
330
75
100
AcDbEntity
  8
$DDT_AUDIT_GENERATED_(87)
  6
Continuous
 62
     7
100
AcDbLine
 10
195.9967049873
 20
278.3738986397
 30
0.0
 11
195.9967049873
 21
278.0738986397
 31
0.0
  0
LINE
  5
8B
330
75
100
AcDbEntity
  8
$DDT_AUDIT_GENERATED_(87)
  6
Continuous
 62
     7
100
AcDbLine
 10
178.9967049873
 20
278.3738986397
 30
0.0
 11
178.9967049873
 21
283.0335873324
 31
0.0
  0
LINE
  5
8C
330
75
100
AcDbEntity
  8
$DDT_AUDIT_GENERATED_(87)
  6
Continuous
 62
     7
100
AcDbLine
 10
178.9967049873
 20
284.4431262636
 30
0.0
 11
178.9967049873
 21
284.8738986397
 31
0.0
  0
LINE
  5
8D
330
75
100
AcDbEntity
  8
$DDT_AUDIT_GENERATED_(87)
  6
Continuous
 62
     7
100
AcDbLine
 10
195.9967049873
 20
283.0335873324
 30
0.0
 11
195.9967049873
 21
278.3738986397
 31
0.0
  0
LINE
  5
8E
330
75
100
AcDbEntity
  8
$DDT_AUDIT_GENERATED_(87)
  6
Continuous
 62
     7
100
AcDbLine
 10
195.9967049873
 20
283.0335873324
 30
0.0
 11
195.9967049873
 21
284.4431262636
 31
0.0
  0
LINE
  5
8F
330
75
100
AcDbEntity
  8
$DDT_AUDIT_GENERATED_(87)
  6
Continuous
 62
     7
100
AcDbLine
 10
178.9967049873
 20
284.4431262636
 30
0.0
 11
178.9967049873
 21
283.0335873324
 31
0.0
  0
LINE
  5
90
330
75
100
AcDbEntity
  8
$DDT_AUDIT_GENERATED_(87)
  6
Continuous
 62
     7
100
AcDbLine
 10
200.2909508584
 20
285.3738986397
 30
0.0
 11
196.4967049873
 21
285.3738986397
 31
0.0
  0
LINE
  5
91
330
75
100
AcDbEntity
  8
$DDT_AUDIT_GENERATED_(87)
  6
Continuous
 62
     7
100
AcDbLine
 10
195.9967049873
 20
284.8738986397
 30
0.0
 11
195.9967049873
 21
284.4431262636
 31
0.0
  0
ARC
  5
92
330
75
100
AcDbEntity
  8
$DDT_AUDIT_GENERATED_(87)
  6
Continuous
 62
     7
100
AcDbCircle
 10
196.4967049873
 20
284.8738986397
 30
0.0
 40
0.5000000000000002
100
AcDbArc
 50
90.0
 51
180.0
  0
LINE
  5
93
330
75
100
AcDbEntity
  8
$DDT_AUDIT_GENERATED_(87)
  6
Continuous
 62
     7
100
AcDbLine
 10
196.4967049873
 20
277.5738986397
 30
0.0
 11
197.5467049873
 21
277.5738986397
 31
0.0
  0
ARC
  5
94
330
75
100
AcDbEntity
  8
$DDT_AUDIT_GENERATED_(87)
  6
Continuous
 62
     7
100
AcDbCircle
 10
196.4967049873
 20
278.0738986397
 30
0.0
 40
0.5000000000003129
100
AcDbArc
 50
180.0
 51
270.0
  0
LINE
  5
95
330
75
100
AcDbEntity
  8
$DDT_AUDIT_GENERATED_(87)
  6
Continuous
 62
     7
100
AcDbLine
 10
178.9967049873
 20
278.0738986397
 30
0.0
 11
178.9967049873
 21
278.3738986397
 31
0.0
  0
LINE
  5
96
330
75
100
AcDbEntity
  8
$DDT_AUDIT_GENERATED_(87)
  6
Continuous
 62
     7
100
AcDbLine
 10
178.4967049873
 20
277.5738986397
 30
0.0
 11
177.4467049873
 21
277.5738986397
 31
0.0
  0
ARC
  5
97
330
75
100
AcDbEntity
  8
$DDT_AUDIT_GENERATED_(87)
  6
Continuous
 62
     7
100
AcDbCircle
 10
178.4967049873
 20
278.0738986397
 30
0.0
 40
0.5000000000000158
100
AcDbArc
 50
270.0
 51
0.0
  0
LINE
  5
98
330
75
100
AcDbEntity
  8
$DDT_AUDIT_GENERATED_(87)
  6
Continuous
 62
     7
100
AcDbLine
 10
178.4967049873
 20
285.3738986397
 30
0.0
 11
174.7024591162
 21
285.3738986397
 31
0.0
  0
ARC
  5
99
330
75
100
AcDbEntity
  8
$DDT_AUDIT_GENERATED_(87)
  6
Continuous
 62
     7
100
AcDbCircle
 10
178.4967049873
 20
284.8738986397
 30
0.0
 40
0.4999999999967339
100
AcDbArc
 50
0.0
 51
90.0000000004
  0
LINE
  5
9A
330
75
100
AcDbEntity
  8
$DDT_AUDIT_GENERATED_(87)
  6
Continuous
 62
     7
100
AcDbLine
 10
174.3256949156
 20
285.5110295941
 30
0.0
 11
174.7024591162
 21
285.3738986397
 31
0.0
  0
LINE
  5
9B
330
75
100
AcDbEntity
  8
$DDT_AUDIT_GENERATED_(87)
  6
Continuous
 62
     7
100
AcDbLine
 10
200.2909508584
 20
285.3738986397
 30
0.0
 11
200.667715059
 21
285.5110295941
 31
0.0
  0
LINE
  5
9C
330
75
100
AcDbEntity
  8
$DDT_AUDIT_GENERATED_(87)
  6
Continuous
 62
     7
100
AcDbLine
 10
197.7367049873
 20
277.3838986397
 30
0.0
 11
197.5467049873
 21
277.5738986397
 31
0.0
  0
LINE
  5
9D
330
75
100
AcDbEntity
  8
$DDT_AUDIT_GENERATED_(87)
  6
Continuous
 62
     7
100
AcDbLine
 10
177.4467049873
 20
277.5738986397
 30
0.0
 11
177.2567049873
 21
277.3838986397
 31
0.0
  0
ARC
  5
9E
330
75
100
AcDbEntity
  8
$DDT_AUDIT_GENERATED_(87)
  6
Continuous
 62
     7
100
AcDbCircle
 10
174.4967049873
 20
285.9808759045
 30
0.0
 40
0.5000000000000004
100
AcDbArc
 50
180.0
 51
250.0
  0
ARC
  5
9F
330
75
100
AcDbEntity
  8
$DDT_AUDIT_GENERATED_(87)
  6
Continuous
 62
     7
100
AcDbCircle
 10
200.4967049873
 20
285.9808759045
 30
0.0
 40
0.4999999999999997
100
AcDbArc
 50
290.0
 51
0.0
  0
LINE
  5
A0
330
75
100
AcDbEntity
  8
$DDT_AUDIT_GENERATED_(87)
  6
Continuous
 62
     7
100
AcDbLine
 10
200.9967049873
 20
285.9808759045
 30
0.0
 11
200.9967049873
 21
299.0838986397
 31
0.0
  0
LINE
  5
A1
330
75
100
AcDbEntity
  8
$DDT_AUDIT_GENERATED_(87)
  6
Continuous
 62
     7
100
AcDbLine
 10
173.9967049873
 20
299.0838986397
 30
0.0
 11
173.9967049873
 21
285.9808759045
 31
0.0
  0
LINE
  5
A3
330
75
100
AcDbEntity
  8
$DDT_AUDIT_GENERATED_(A2)
  6
Continuous
 62
     7
100
AcDbLine
 10
124.7467048878
 20
240.3838986397
 30
0.0
 11
127.2467048878
 21
240.3838986397
 31
0.0
  0
LINE
  5
A4
330
75
100
AcDbEntity
  8
$DDT_AUDIT_GENERATED_(A2)
  6
Continuous
 62
     7
100
AcDbLine
 10
247.7467048878
 20
240.3838986397
 30
0.0
 11
250.2467048878
 21
240.3838986397
 31
0.0
  0
LINE
  5
A5
330
75
100
AcDbEntity
  8
$DDT_AUDIT_GENERATED_(A2)
  6
Continuous
 62
     7
100
AcDbLine
 10
235.4467048878
 20
240.3838986397
 30
0.0
 11
237.9467048878
 21
240.3838986397
 31
0.0
  0
LINE
  5
A6
330
75
100
AcDbEntity
  8
$DDT_AUDIT_GENERATED_(A2)
  6
Continuous
 62
     7
100
AcDbLine
 10
223.1467048878
 20
240.3838986397
 30
0.0
 11
225.6467048878
 21
240.3838986397
 31
0.0
  0
LINE
  5
A7
330
75
100
AcDbEntity
  8
$DDT_AUDIT_GENERATED_(A2)
  6
Continuous
 62
     7
100
AcDbLine
 10
210.8467048878
 20
240.3838986397
 30
0.0
 11
213.3467048878
 21
240.3838986397
 31
0.0
  0
LINE
  5
A8
330
75
100
AcDbEntity
  8
$DDT_AUDIT_GENERATED_(A2)
  6
Continuous
 62
     7
100
AcDbLine
 10
198.5467048878
 20
240.3838986397
 30
0.0
 11
201.0467048878
 21
240.3838986397
 31
0.0
  0
LINE
  5
A9
330
75
100
AcDbEntity
  8
$DDT_AUDIT_GENERATED_(A2)
  6
Continuous
 62
     7
100
AcDbLine
 10
186.2467048878
 20
240.3838986397
 30
0.0
 11
188.7467048878
 21
240.3838986397
 31
0.0
  0
LINE
  5
AA
330
75
100
AcDbEntity
  8
$DDT_AUDIT_GENERATED_(A2)
  6
Continuous
 62
     7
100
AcDbLine
 10
173.9467048878
 20
240.3838986397
 30
0.0
 11
176.4467048878
 21
240.3838986397
 31
0.0
  0
LINE
  5
AB
330
75
100
AcDbEntity
  8
$DDT_AUDIT_GENERATED_(A2)
  6
Continuous
 62
     7
100
AcDbLine
 10
161.6467048878
 20
240.3838986397
 30
0.0
 11
164.1467048878
 21
240.3838986397
 31
0.0
  0
LINE
  5
AC
330
75
100
AcDbEntity
  8
$DDT_AUDIT_GENERATED_(A2)
  6
Continuous
 62
     7
100
AcDbLine
 10
149.3467048878
 20
240.3838986397
 30
0.0
 11
151.8467048878
 21
240.3838986397
 31
0.0
  0
LINE
  5
AD
330
75
100
AcDbEntity
  8
$DDT_AUDIT_GENERATED_(A2)
  6
Continuous
 62
     7
100
AcDbLine
 10
137.0467048878
 20
240.3838986397
 30
0.0
 11
139.5467048878
 21
240.3838986397
 31
0.0
  0
LINE
  5
AE
330
75
100
AcDbEntity
  8
$DDT_AUDIT_GENERATED_(A2)
  6
Continuous
 62
     7
100
AcDbLine
 10
124.2467048878
 20
241.8838986397
 30
0.0
 11
124.2467048878
 21
240.8838986397
 31
0.0
  0
LINE
  5
AF
330
75
100
AcDbEntity
  8
$DDT_AUDIT_GENERATED_(A2)
  6
Continuous
 62
     7
100
AcDbLine
 10
127.7467048878
 20
240.8838986397
 30
0.0
 11
127.7467048878
 21
241.8838986397
 31
0.0
  0
LINE
  5
B0
330
75
100
AcDbEntity
  8
$DDT_AUDIT_GENERATED_(A2)
  6
Continuous
 62
     7
100
AcDbLine
 10
136.5467048878
 20
241.8838986397
 30
0.0
 11
136.5467048878
 21
240.8838986397
 31
0.0
  0
LINE
  5
B1
330
75
100
AcDbEntity
  8
$DDT_AUDIT_GENERATED_(A2)
  6
Continuous
 62
     7
100
AcDbLine
 10
140.0467048878
 20
240.8838986397
 30
0.0
 11
140.0467048878
 21
241.8838986397
 31
0.0
  0
LINE
  5
B2
330
75
100
AcDbEntity
  8
$DDT_AUDIT_GENERATED_(A2)
  6
Continuous
 62
     7
100
AcDbLine
 10
148.8467048878
 20
241.8838986397
 30
0.0
 11
148.8467048878
 21
240.8838986397
 31
0.0
  0
LINE
  5
B3
330
75
100
AcDbEntity
  8
$DDT_AUDIT_GENERATED_(A2)
  6
Continuous
 62
     7
100
AcDbLine
 10
152.3467048878
 20
240.8838986397
 30
0.0
 11
152.3467048878
 21
241.8838986397
 31
0.0
  0
LINE
  5
B4
330
75
100
AcDbEntity
  8
$DDT_AUDIT_GENERATED_(A2)
  6
Continuous
 62
     7
100
AcDbLine
 10
161.1467048878
 20
241.8838986397
 30
0.0
 11
161.1467048878
 21
240.8838986397
 31
0.0
  0
LINE
  5
B5
330
75
100
AcDbEntity
  8
$DDT_AUDIT_GENERATED_(A2)
  6
Continuous
 62
     7
100
AcDbLine
 10
164.6467048878
 20
240.8838986397
 30
0.0
 11
164.6467048878
 21
241.8838986397
 31
0.0
  0
LINE
  5
B6
330
75
100
AcDbEntity
  8
$DDT_AUDIT_GENERATED_(A2)
  6
Continuous
 62
     7
100
AcDbLine
 10
173.4467048878
 20
241.8838986397
 30
0.0
 11
173.4467048878
 21
240.8838986397
 31
0.0
  0
LINE
  5
B7
330
75
100
AcDbEntity
  8
$DDT_AUDIT_GENERATED_(A2)
  6
Continuous
 62
     7
100
AcDbLine
 10
176.9467048878
 20
240.8838986397
 30
0.0
 11
176.9467048878
 21
241.8838986397
 31
0.0
  0
LINE
  5
B8
330
75
100
AcDbEntity
  8
$DDT_AUDIT_GENERATED_(A2)
  6
Continuous
 62
     7
100
AcDbLine
 10
185.7467048878
 20
241.8838986397
 30
0.0
 11
185.7467048878
 21
240.8838986397
 31
0.0
  0
LINE
  5
B9
330
75
100
AcDbEntity
  8
$DDT_AUDIT_GENERATED_(A2)
  6
Continuous
 62
     7
100
AcDbLine
 10
189.2467048878
 20
240.8838986397
 30
0.0
 11
189.2467048878
 21
241.8838986397
 31
0.0
  0
LINE
  5
BA
330
75
100
AcDbEntity
  8
$DDT_AUDIT_GENERATED_(A2)
  6
Continuous
 62
     7
100
AcDbLine
 10
198.0467048878
 20
241.8838986397
 30
0.0
 11
198.0467048878
 21
240.8838986397
 31
0.0
  0
LINE
  5
BB
330
75
100
AcDbEntity
  8
$DDT_AUDIT_GENERATED_(A2)
  6
Continuous
 62
     7
100
AcDbLine
 10
201.5467048878
 20
240.8838986397
 30
0.0
 11
201.5467048878
 21
241.8838986397
 31
0.0
  0
LINE
  5
BC
330
75
100
AcDbEntity
  8
$DDT_AUDIT_GENERATED_(A2)
  6
Continuous
 62
     7
100
AcDbLine
 10
210.3467048878
 20
241.8838986397
 30
0.0
 11
210.3467048878
 21
240.8838986397
 31
0.0
  0
LINE
  5
BD
330
75
100
AcDbEntity
  8
$DDT_AUDIT_GENERATED_(A2)
  6
Continuous
 62
     7
100
AcDbLine
 10
213.8467048878
 20
240.8838986397
 30
0.0
 11
213.8467048878
 21
241.8838986397
 31
0.0
  0
LINE
  5
BE
330
75
100
AcDbEntity
  8
$DDT_AUDIT_GENERATED_(A2)
  6
Continuous
 62
     7
100
AcDbLine
 10
222.6467048878
 20
241.8838986397
 30
0.0
 11
222.6467048878
 21
240.8838986397
 31
0.0
  0
LINE
  5
BF
330
75
100
AcDbEntity
  8
$DDT_AUDIT_GENERATED_(A2)
  6
Continuous
 62
     7
100
AcDbLine
 10
226.1467048878
 20
240.8838986397
 30
0.0
 11
226.1467048878
 21
241.8838986397
 31
0.0
  0
LINE
  5
C0
330
75
100
AcDbEntity
  8
$DDT_AUDIT_GENERATED_(A2)
  6
Continuous
 62
     7
100
AcDbLine
 10
234.9467048878
 20
241.8838986397
 30
0.0
 11
234.9467048878
 21
240.8838986397
 31
0.0
  0
LINE
  5
C1
330
75
100
AcDbEntity
  8
$DDT_AUDIT_GENERATED_(A2)
  6
Continuous
 62
     7
100
AcDbLine
 10
238.4467048878
 20
240.8838986397
 30
0.0
 11
238.4467048878
 21
241.8838986397
 31
0.0
  0
LINE
  5
C2
330
75
100
AcDbEntity
  8
$DDT_AUDIT_GENERATED_(A2)
  6
Continuous
 62
     7
100
AcDbLine
 10
247.2467048878
 20
241.8838986397
 30
0.0
 11
247.2467048878
 21
240.8838986397
 31
0.0
  0
LINE
  5
C3
330
75
100
AcDbEntity
  8
$DDT_AUDIT_GENERATED_(A2)
  6
Continuous
 62
     7
100
AcDbLine
 10
250.7467048878
 20
240.8838986397
 30
0.0
 11
250.7467048878
 21
241.8838986397
 31
0.0
  0
ARC
  5
C4
330
75
100
AcDbEntity
  8
$DDT_AUDIT_GENERATED_(A2)
  6
Continuous
 62
     7
100
AcDbCircle
 10
124.7467048878
 20
240.8838986397
 30
0.0
 40
0.5000000000000004
100
AcDbArc
 50
180.0
 51
270.0
  0
ARC
  5
C5
330
75
100
AcDbEntity
  8
$DDT_AUDIT_GENERATED_(A2)
  6
Continuous
 62
     7
100
AcDbCircle
 10
127.2467048878
 20
240.8838986397
 30
0.0
 40
0.5000000000000004
100
AcDbArc
 50
270.0
 51
0.0
  0
ARC
  5
C6
330
75
100
AcDbEntity
  8
$DDT_AUDIT_GENERATED_(A2)
  6
Continuous
 62
     7
100
AcDbCircle
 10
247.7467048878
 20
240.8838986397
 30
0.0
 40
0.5000000000000004
100
AcDbArc
 50
180.0
 51
270.0
  0
ARC
  5
C7
330
75
100
AcDbEntity
  8
$DDT_AUDIT_GENERATED_(A2)
  6
Continuous
 62
     7
100
AcDbCircle
 10
250.2467048878
 20
240.8838986397
 30
0.0
 40
0.5000000000000004
100
AcDbArc
 50
270.0
 51
0.0
  0
ARC
  5
C8
330
75
100
AcDbEntity
  8
$DDT_AUDIT_GENERATED_(A2)
  6
Continuous
 62
     7
100
AcDbCircle
 10
235.4467048878
 20
240.8838986397
 30
0.0
 40
0.5000000000000004
100
AcDbArc
 50
180.0
 51
270.0
  0
ARC
  5
C9
330
75
100
AcDbEntity
  8
$DDT_AUDIT_GENERATED_(A2)
  6
Continuous
 62
     7
100
AcDbCircle
 10
237.9467048878
 20
240.8838986397
 30
0.0
 40
0.499999999999997
100
AcDbArc
 50
270.0
 51
0.0
  0
ARC
  5
CA
330
75
100
AcDbEntity
  8
$DDT_AUDIT_GENERATED_(A2)
  6
Continuous
 62
     7
100
AcDbCircle
 10
223.1467048878
 20
240.8838986397
 30
0.0
 40
0.5000000000000004
100
AcDbArc
 50
180.0
 51
270.0
  0
ARC
  5
CB
330
75
100
AcDbEntity
  8
$DDT_AUDIT_GENERATED_(A2)
  6
Continuous
 62
     7
100
AcDbCircle
 10
225.6467048878
 20
240.8838986397
 30
0.0
 40
0.5000000000000004
100
AcDbArc
 50
270.0
 51
0.0
  0
ARC
  5
CC
330
75
100
AcDbEntity
  8
$DDT_AUDIT_GENERATED_(A2)
  6
Continuous
 62
     7
100
AcDbCircle
 10
210.8467048878
 20
240.8838986397
 30
0.0
 40
0.5000000000000004
100
AcDbArc
 50
180.0
 51
270.0
  0
ARC
  5
CD
330
75
100
AcDbEntity
  8
$DDT_AUDIT_GENERATED_(A2)
  6
Continuous
 62
     7
100
AcDbCircle
 10
213.3467048878
 20
240.8838986397
 30
0.0
 40
0.499999999999997
100
AcDbArc
 50
270.0
 51
0.0
  0
ARC
  5
CE
330
75
100
AcDbEntity
  8
$DDT_AUDIT_GENERATED_(A2)
  6
Continuous
 62
     7
100
AcDbCircle
 10
198.5467048878
 20
240.8838986397
 30
0.0
 40
0.5000000000000004
100
AcDbArc
 50
180.0
 51
270.0
  0
ARC
  5
CF
330
75
100
AcDbEntity
  8
$DDT_AUDIT_GENERATED_(A2)
  6
Continuous
 62
     7
100
AcDbCircle
 10
201.0467048878
 20
240.8838986397
 30
0.0
 40
0.5000000000000004
100
AcDbArc
 50
270.0
 51
0.0
  0
ARC
  5
D0
330
75
100
AcDbEntity
  8
$DDT_AUDIT_GENERATED_(A2)
  6
Continuous
 62
     7
100
AcDbCircle
 10
186.2467048878
 20
240.8838986397
 30
0.0
 40
0.5
100
AcDbArc
 50
180.0
 51
270.0
  0
ARC
  5
D1
330
75
100
AcDbEntity
  8
$DDT_AUDIT_GENERATED_(A2)
  6
Continuous
 62
     7
100
AcDbCircle
 10
188.7467048878
 20
240.8838986397
 30
0.0
 40
0.5000000000000039
100
AcDbArc
 50
270.0
 51
0.0
  0
ARC
  5
D2
330
75
100
AcDbEntity
  8
$DDT_AUDIT_GENERATED_(A2)
  6
Continuous
 62
     7
100
AcDbCircle
 10
173.9467048878
 20
240.8838986397
 30
0.0
 40
0.5000000000000004
100
AcDbArc
 50
180.0
 51
270.0
  0
ARC
  5
D3
330
75
100
AcDbEntity
  8
$DDT_AUDIT_GENERATED_(A2)
  6
Continuous
 62
     7
100
AcDbCircle
 10
176.4467048878
 20
240.8838986397
 30
0.0
 40
0.5000000000000004
100
AcDbArc
 50
270.0
 51
0.0
  0
ARC
  5
D4
330
75
100
AcDbEntity
  8
$DDT_AUDIT_GENERATED_(A2)
  6
Continuous
 62
     7
100
AcDbCircle
 10
161.6467048878
 20
240.8838986397
 30
0.0
 40
0.5000000000000004
100
AcDbArc
 50
180.0
 51
270.0
  0
ARC
  5
D5
330
75
100
AcDbEntity
  8
$DDT_AUDIT_GENERATED_(A2)
  6
Continuous
 62
     7
100
AcDbCircle
 10
164.1467048878
 20
240.8838986397
 30
0.0
 40
0.5000000000000039
100
AcDbArc
 50
270.0
 51
0.0
  0
ARC
  5
D6
330
75
100
AcDbEntity
  8
$DDT_AUDIT_GENERATED_(A2)
  6
Continuous
 62
     7
100
AcDbCircle
 10
149.3467048878
 20
240.8838986397
 30
0.0
 40
0.5000000000000004
100
AcDbArc
 50
180.0
 51
270.0
  0
ARC
  5
D7
330
75
100
AcDbEntity
  8
$DDT_AUDIT_GENERATED_(A2)
  6
Continuous
 62
     7
100
AcDbCircle
 10
151.8467048878
 20
240.8838986397
 30
0.0
 40
0.5000000000000004
100
AcDbArc
 50
270.0
 51
0.0
  0
ARC
  5
D8
330
75
100
AcDbEntity
  8
$DDT_AUDIT_GENERATED_(A2)
  6
Continuous
 62
     7
100
AcDbCircle
 10
137.0467048878
 20
240.8838986397
 30
0.0
 40
0.5000000000000004
100
AcDbArc
 50
180.0
 51
270.0
  0
ARC
  5
D9
330
75
100
AcDbEntity
  8
$DDT_AUDIT_GENERATED_(A2)
  6
Continuous
 62
     7
100
AcDbCircle
 10
139.5467048878
 20
240.8838986397
 30
0.0
 40
0.5000000000000004
100
AcDbArc
 50
270.0
 51
0.0
  0
LINE
  5
DB
330
75
100
AcDbEntity
  8
$DDT_AUDIT_GENERATED_(DA)
  6
Continuous
 62
     7
100
AcDbLine
 10
169.3946340213
 20
277.3838986397
 30
0.0
 11
205.5987757544
 21
277.3838986397
 31
0.0
  0
LINE
  5
DC
330
75
100
AcDbEntity
  8
$DDT_AUDIT_GENERATED_(DA)
  6
Continuous
 62
     7
100
AcDbLine
 10
208.482705672
 20
258.5698829023
 30
0.0
 11
207.5960348239
 21
275.4885705522
 31
0.0
  0
LINE
  5
DD
330
75
100
AcDbEntity
  8
$DDT_AUDIT_GENERATED_(DA)
  6
Continuous
 62
     7
100
AcDbLine
 10
167.3973749518
 20
275.4885705522
 30
0.0
 11
166.5107041036
 21
258.5698829023
 31
0.0
  0
ARC
  5
DE
330
75
100
AcDbEntity
  8
$DDT_AUDIT_GENERATED_(DA)
  6
Continuous
 62
     7
100
AcDbCircle
 10
214.4744828806
 20
258.8838986397
 30
0.0
 40
6.0
100
AcDbArc
 50
183.0
 51
270.0
  0
ARC
  5
DF
330
75
100
AcDbEntity
  8
$DDT_AUDIT_GENERATED_(DA)
  6
Continuous
 62
     7
100
AcDbCircle
 10
160.5189268951
 20
258.8838986397
 30
0.0
 40
6.000000000000001
100
AcDbArc
 50
270.0
 51
357.0
  0
ARC
  5
E0
330
75
100
AcDbEntity
  8
$DDT_AUDIT_GENERATED_(DA)
  6
Continuous
 62
     7
100
AcDbCircle
 10
205.5987757544
 20
275.3838986397
 30
0.0
 40
1.999999999999998
100
AcDbArc
 50
3.0
 51
90.0
  0
ARC
  5
E1
330
75
100
AcDbEntity
  8
$DDT_AUDIT_GENERATED_(DA)
  6
Continuous
 62
     7
100
AcDbCircle
 10
169.3946340213
 20
275.3838986397
 30
0.0
 40
2.000000000000002
100
AcDbArc
 50
90.0
 51
177.0
  0
ENDBLK
  5
E3
330
75
100
AcDbEntity
  8
0
100
AcDbBlockEnd
  0
BLOCK
  5
150
330
E4
100
AcDbEntity
  8
0
100
AcDbBlockBegin
  2
SE1
 70
     0
 10
0.0
 20
0.0
 30
0.0
  3
SE1
  1

  0
LINE
  5
E6
330
E4
100
AcDbEntity
  8
$DDT_AUDIT_GENERATED_(77)
  6
Continuous
 62
     7
100
AcDbLine
 10
453.360972417
 20
252.5838986397
 30
0.0
 11
453.360972417
 21
247.1838986397
 31
0.0
  0
LINE
  5
E7
330
E4
100
AcDbEntity
  8
$DDT_AUDIT_GENERATED_(77)
  6
Continuous
 62
     7
100
AcDbLine
 10
301.260972417
 20
252.8838986397
 30
0.0
 11
453.060972417
 21
252.8838986397
 31
0.0
  0
LINE
  5
E8
330
E4
100
AcDbEntity
  8
$DDT_AUDIT_GENERATED_(77)
  6
Continuous
 62
     7
100
AcDbLine
 10
453.060972417
 20
246.8838986397
 30
0.0
 11
301.260972417
 21
246.8838986397
 31
0.0
  0
LINE
  5
E9
330
E4
100
AcDbEntity
  8
$DDT_AUDIT_GENERATED_(77)
  6
Continuous
 62
     7
100
AcDbLine
 10
300.960972417
 20
247.1838986397
 30
0.0
 11
300.960972417
 21
252.5838986397
 31
0.0
  0
ARC
  5
EA
330
E4
100
AcDbEntity
  8
$DDT_AUDIT_GENERATED_(77)
  6
Continuous
 62
     7
100
AcDbCircle
 10
301.260972417
 20
247.1838986397
 30
0.0
 40
0.2999999999999947
100
AcDbArc
 50
180.0
 51
270.0
  0
ARC
  5
EB
330
E4
100
AcDbEntity
  8
$DDT_AUDIT_GENERATED_(77)
  6
Continuous
 62
     7
100
AcDbCircle
 10
301.260972417
 20
252.5838986397
 30
0.0
 40
0.3000000000000017
100
AcDbArc
 50
90.0
 51
180.0
  0
ARC
  5
EC
330
E4
100
AcDbEntity
  8
$DDT_AUDIT_GENERATED_(77)
  6
Continuous
 62
     7
100
AcDbCircle
 10
453.060972417
 20
247.1838986397
 30
0.0
 40
0.2999999999999982
100
AcDbArc
 50
270.0
 51
0.0
  0
ARC
  5
ED
330
E4
100
AcDbEntity
  8
$DDT_AUDIT_GENERATED_(77)
  6
Continuous
 62
     7
100
AcDbCircle
 10
453.060972417
 20
252.5838986397
 30
0.0
 40
0.2999999999999947
100
AcDbArc
 50
0.0
 51
90.0
  0
LINE
  5
EE
330
E4
100
AcDbEntity
  8
$DDT_AUDIT_GENERATED_(77)
  6
Continuous
 62
     7
100
AcDbLine
 10
447.160972417
 20
246.5838986397
 30
0.0
 11
447.160972417
 21
242.1838986397
 31
0.0
  0
LINE
  5
EF
330
E4
100
AcDbEntity
  8
$DDT_AUDIT_GENERATED_(77)
  6
Continuous
 62
     7
100
AcDbLine
 10
307.160972417
 20
242.1838986397
 30
0.0
 11
307.160972417
 21
246.5838986397
 31
0.0
  0
LINE
  5
F0
330
E4
100
AcDbEntity
  8
$DDT_AUDIT_GENERATED_(77)
  6
Continuous
 62
     7
100
AcDbLine
 10
446.860972417
 20
241.8838986397
 30
0.0
 11
307.460972417
 21
241.8838986397
 31
0.0
  0
ARC
  5
F1
330
E4
100
AcDbEntity
  8
$DDT_AUDIT_GENERATED_(77)
  6
Continuous
 62
     7
100
AcDbCircle
 10
307.460972417
 20
242.1838986397
 30
0.0
 40
0.2999999999999947
100
AcDbArc
 50
180.0
 51
270.0
  0
ARC
  5
F2
330
E4
100
AcDbEntity
  8
$DDT_AUDIT_GENERATED_(77)
  6
Continuous
 62
     7
100
AcDbCircle
 10
446.860972417
 20
242.1838986397
 30
0.0
 40
0.3000000000000017
100
AcDbArc
 50
270.0
 51
0.0
  0
ARC
  5
F3
330
E4
100
AcDbEntity
  8
$DDT_AUDIT_GENERATED_(77)
  6
Continuous
 62
     7
100
AcDbCircle
 10
306.860972417
 20
246.5838986397
 30
0.0
 40
0.2999999999999982
100
AcDbArc
 50
0.0
 51
90.0
  0
ARC
  5
F4
330
E4
100
AcDbEntity
  8
$DDT_AUDIT_GENERATED_(77)
  6
Continuous
 62
     7
100
AcDbCircle
 10
447.460972417
 20
246.5838986397
 30
0.0
 40
0.2999999999999982
100
AcDbArc
 50
90.0
 51
180.0
  0
LINE
  5
F5
330
E4
100
AcDbEntity
  8
$DDT_AUDIT_GENERATED_(87)
  6
Continuous
 62
     7
100
AcDbLine
 10
380.8096022969
 20
278.3738986397
 30
0.0
 11
386.410972417
 21
278.3738986397
 31
0.0
  0
LINE
  5
F6
330
E4
100
AcDbEntity
  8
$DDT_AUDIT_GENERATED_(87)
  6
Continuous
 62
     7
100
AcDbLine
 10
390.660972417
 20
299.0838986397
 30
0.0
 11
363.660972417
 21
299.0838986397
 31
0.0
  0
LINE
  5
F7
330
E4
100
AcDbEntity
  8
$DDT_AUDIT_GENERATED_(87)
  6
Continuous
 62
     7
100
AcDbLine
 10
367.910972417
 20
278.3738986397
 30
0.0
 11
373.5123425372
 21
278.3738986397
 31
0.0
  0
LINE
  5
F8
330
E4
100
AcDbEntity
  8
$DDT_AUDIT_GENERATED_(87)
  6
Continuous
 62
     7
100
AcDbLine
 10
373.5123425372
 20
278.3738986397
 30
0.0
 11
372.8075255068
 21
278.0738986397
 31
0.0
  0
LINE
  5
F9
330
E4
100
AcDbEntity
  8
$DDT_AUDIT_GENERATED_(87)
  6
Continuous
 62
     7
100
AcDbLine
 10
373.5123425372
 20
283.0335873324
 30
0.0
 11
373.5123425372
 21
278.3738986397
 31
0.0
  0
LINE
  5
FA
330
E4
100
AcDbEntity
  8
$DDT_AUDIT_GENERATED_(87)
  6
Continuous
 62
     7
100
AcDbLine
 10
380.8096022969
 20
278.3738986397
 30
0.0
 11
380.8096022969
 21
283.0335873324
 31
0.0
  0
LINE
  5
FB
330
E4
100
AcDbEntity
  8
$DDT_AUDIT_GENERATED_(87)
  6
Continuous
 62
     7
100
AcDbLine
 10
382.8658431762
 20
284.4431262636
 30
0.0
 11
384.7884217825
 21
284.8738986397
 31
0.0
  0
SPLINE
  5
FC
330
E4
100
AcDbEntity
  8
$DDT_AUDIT_GENERATED_(87)
  6
Continuous
 62
     7
100
AcDbSpline
210
0.0
220
0.0
230
1.0
 70
     8
 71
     3
 72
    18
 73
    14
 74
     0
 42
0.0000000037740582
 43
0.0000000001
 40
0.0
 40
0.0
 40
0.0
 40
0.0
 40
0.1250000000000002
 40
0.1250000000000002
 40
0.2500000000000005
 40
0.2500000000000005
 40
0.3750000000000008
 40
0.3750000000000008
 40
0.500000000000001
 40
0.500000000000001
 40
0.7500000000000004
 40
0.7500000000000004
 40
1.0
 40
1.0
 40
1.0
 40
1.0
 10
373.5123425372073
 20
283.0335873324051
 30
0.0
 10
373.512342537202
 20
283.1442617703692
 30
0.0
 10
373.4793521779919
 20
283.2539937552225
 30
0.0
 10
373.3743519082981
 20
283.4487963265066
 30
0.0
 10
373.3032218713686
 20
283.5362385718971
 30
0.0
 10
373.1473536743159
 20
283.6922323005202
 30
0.0
 10
373.0605881969001
 20
283.762730286275
 30
0.0
 10
372.8806065525129
 20
283.8905026669028
 30
0.0
 10
372.7870653055862
 20
283.9480526218214
 30
0.0
 10
372.4987841528379
 20
284.1070367512365
 30
0.0
 10
372.2949818170765
 20
284.1955436826643
 30
0.0
 10
371.8804372147719
 20
284.3419422713059
 30
0.0
 10
371.6698370513344
 20
284.3997735085207
 30
0.0
 10
371.4561016578295
 20
284.4431262635793
 30
0.0
  0
SPLINE
  5
FD
330
E4
100
AcDbEntity
  8
$DDT_AUDIT_GENERATED_(87)
  6
Continuous
 62
     7
100
AcDbSpline
210
0.0
220
0.0
230
1.0
 70
     8
 71
     3
 72
    18
 73
    14
 74
     0
 42
0.0000000037740558
 43
0.0000000001
 40
0.0
 40
0.0
 40
0.0
 40
0.0
 40
0.25
 40
0.25
 40
0.5
 40
0.5
 40
0.625
 40
0.625
 40
0.75
 40
0.75
 40
0.875
 40
0.875
 40
1.0
 40
1.0
 40
1.0
 40
1.0
 10
382.8658431762406
 20
284.4431262635793
 30
0.0
 10
382.6515931988656
 20
284.3996691335358
 30
0.0
 10
382.4412160869298
 20
284.3418051935123
 30
0.0
 10
382.0285136181305
 20
284.1961253032164
 30
0.0
 10
381.8243295624142
 20
284.1076479636084
 30
0.0
 10
381.5348827670392
 20
283.9480710638848
 30
0.0
 10
381.4411794352121
 20
283.8903941343629
 30
0.0
 10
381.2613890940465
 20
283.762749089557
 30
0.0
 10
381.1746179560833
 20
283.6923001739389
 30
0.0
 10
381.0181188407076
 20
283.5355927561559
 30
0.0
 10
380.9471307144145
 20
283.4479693931771
 30
0.0
 10
380.8429473468747
 20
283.2546211786116
 30
0.0
 10
380.8096022968667
 20
283.1449220512368
 30
0.0
 10
380.8096022968666
 20
283.0335873324005
 30
0.0
  0
LINE
  5
FE
330
E4
100
AcDbEntity
  8
$DDT_AUDIT_GENERATED_(87)
  6
Continuous
 62
     7
100
AcDbLine
 10
381.5144193272
 20
278.0738986397
 30
0.0
 11
380.8096022969
 21
278.3738986397
 31
0.0
  0
LINE
  5
FF
330
E4
100
AcDbEntity
  8
$DDT_AUDIT_GENERATED_(87)
  6
Continuous
 62
     7
100
AcDbLine
 10
372.6885569623
 20
277.5738986397
 30
0.0
 11
381.6333878718
 21
277.5738986397
 31
0.0
  0
SPLINE
  5
100
330
E4
100
AcDbEntity
  8
$DDT_AUDIT_GENERATED_(87)
  6
Continuous
 62
     7
100
AcDbSpline
210
0.0
220
0.0
230
1.0
 70
     8
 71
     3
 72
    32
 73
    28
 74
     0
 42
0.0000000096026531
 43
0.0000000001
 40
0.0
 40
0.0
 40
0.0
 40
0.0
 40
0.2457150044306599
 40
0.2457150044306599
 40
0.2457150044306599
 40
0.3668861418840115
 40
0.3668861418840115
 40
0.3668861418840115
 40
0.459421073180627
 40
0.459421073180627
 40
0.459421073180627
 40
0.516440377492427
 40
0.516440377492427
 40
0.516440377492427
 40
0.574288562527613
 40
0.574288562527613
 40
0.574288562527613
 40
0.6234423203803459
 40
0.6234423203803459
 40
0.6234423203803459
 40
0.6950837219671295
 40
0.6950837219671295
 40
0.6950837219671295
 40
0.8228470642994715
 40
0.8228470642994715
 40
0.8228470642994715
 40
1.0
 40
1.0
 40
1.0
 40
1.0
 10
381.5144193272431
 20
278.073898639715
 30
0.0
 10
381.6036788523604
 20
278.033208942979
 30
0.0
 10
381.6918567557187
 20
277.9879969822853
 30
0.0
 10
381.7736282510114
 20
277.935913337506
 30
0.0
 10
381.8140537823558
 20
277.9101646458986
 30
0.0
 10
381.8532435397373
 20
277.8824774394834
 30
0.0
 10
381.8883998222358
 20
277.8525247499376
 30
0.0
 10
381.9151829892945
 20
277.8297058444405
 30
0.0
 10
381.9400990455895
 20
277.8051232950282
 30
0.0
 10
381.9591979994571
 20
277.7795576383783
 30
0.0
 10
381.9710058087153
 20
277.7637518304071
 30
0.0
 10
381.9807000904129
 20
277.7472740079802
 30
0.0
 10
381.9865758599599
 20
277.7312011598181
 30
0.0
 10
381.9925026323253
 20
277.7149887962187
 30
0.0
 10
381.9945085177745
 20
277.6987567205892
 30
0.0
 10
381.9919748463429
 20
277.684397856697
 30
0.0
 10
381.9898068256563
 20
277.6721112146464
 30
0.0
 10
381.9843685500984
 20
277.6608668385355
 30
0.0
 10
381.9766249020853
 20
277.6511836690776
 30
0.0
 10
381.9653761726296
 20
277.6371175140405
 30
0.0
 10
381.9491303488701
 20
277.625867489346
 30
0.0
 10
381.9307880277954
 20
277.6169402117825
 30
0.0
 10
381.8981793528675
 20
277.6010694454343
 30
0.0
 10
381.8582462313209
 20
277.5916220177154
 30
0.0
 10
381.8167398947845
 20
277.5853482837186
 30
0.0
 10
381.7590504689366
 20
277.5766284557984
 30
0.0
 10
381.6967584177456
 20
277.573898639715
 30
0.0
 10
381.6333878717977
 20
277.573898639715
 30
0.0
  0
SPLINE
  5
101
330
E4
100
AcDbEntity
  8
$DDT_AUDIT_GENERATED_(87)
  6
Continuous
 62
     7
100
AcDbSpline
210
0.0
220
0.0
230
1.0
 70
     8
 71
     3
 72
    32
 73
    28
 74
     0
 42
0.0000000096020187
 43
0.0000000001
 40
0.0
 40
0.0
 40
0.0
 40
0.0
 40
0.2260141573536004
 40
0.2260141573536004
 40
0.2260141573536004
 40
0.3001225943311179
 40
0.3001225943311179
 40
0.3001225943311179
 40
0.3751841046580897
 40
0.3751841046580897
 40
0.3751841046580897
 40
0.426301408540837
 40
0.426301408540837
 40
0.426301408540837
 40
0.4777126382247236
 40
0.4777126382247236
 40
0.4777126382247236
 40
0.5262317731509183
 40
0.5262317731509183
 40
0.5262317731509183
 40
0.6113317281830943
 40
0.6113317281830943
 40
0.6113317281830943
 40
0.7754577494875327
 40
0.7754577494875327
 40
0.7754577494875327
 40
1.0
 40
1.0
 40
1.0
 40
1.0
 10
372.6885569622724
 20
277.573898639715
 30
0.0
 10
372.6079669874465
 20
277.573898639715
 30
0.0
 10
372.5283083323067
 20
277.5779431943427
 30
0.0
 10
372.4589823644715
 20
277.5940814087736
 30
0.0
 10
372.4360446909653
 20
277.59942101102
 30
0.0
 10
372.4141717218059
 20
277.6062228464343
 30
0.0
 10
372.3947821715822
 20
277.6152176460321
 30
0.0
 10
372.3752539448457
 20
277.624276777573
 30
0.0
 10
372.3578843049655
 20
277.635814423417
 30
0.0
 10
372.3459241387309
 20
277.6504366303734
 30
0.0
 10
372.3377513413262
 20
277.660428492754
 30
0.0
 10
372.3320415232025
 20
277.6721151528584
 30
0.0
 10
372.3298800550501
 20
277.6849188102499
 30
0.0
 10
372.3277102093852
 20
277.6977720926145
 30
0.0
 10
372.3291239803644
 20
277.7120808090984
 30
0.0
 10
372.3337529788129
 20
277.7264963964186
 30
0.0
 10
372.3381428020685
 20
277.7401671464016
 30
0.0
 10
372.3454137940201
 20
277.754223513194
 30
0.0
 10
372.3544951005039
 20
277.7678779433641
 30
0.0
 10
372.3703301893894
 20
277.7916871954592
 30
0.0
 10
372.3918754730893
 20
277.8148985751159
 30
0.0
 10
372.4154176430586
 20
277.8365093667574
 30
0.0
 10
372.4606614929604
 20
277.8780414521413
 30
0.0
 10
372.5144635759822
 20
277.9153866642356
 30
0.0
 10
372.5696876834468
 20
277.9492707905303
 30
0.0
 10
372.6454248084245
 20
277.9957411895239
 30
0.0
 10
372.7259437222604
 20
278.036708904851
 30
0.0
 10
372.807525506827
 20
278.073898639715
 30
0.0
  0
LINE
  5
102
330
E4
100
AcDbEntity
  8
$DDT_AUDIT_GENERATED_(87)
  6
Continuous
 62
     7
100
AcDbLine
 10
386.2545265852
 20
285.3738986397
 30
0.0
 11
368.0674182488
 21
285.3738986397
 31
0.0
  0
LINE
  5
103
330
E4
100
AcDbEntity
  8
$DDT_AUDIT_GENERATED_(87)
  6
Continuous
 62
     7
100
AcDbLine
 10
369.5335230516
 20
284.8738986397
 30
0.0
 11
371.4561016578
 21
284.4431262636
 31
0.0
  0
SPLINE
  5
104
330
E4
100
AcDbEntity
  8
$DDT_AUDIT_GENERATED_(87)
  6
Continuous
 62
     7
100
AcDbSpline
210
0.0
220
0.0
230
1.0
 70
     8
 71
     3
 72
    14
 73
    10
 74
     0
 42
0.0000000058756876
 43
0.0000000001
 40
0.0
 40
0.0
 40
0.0
 40
0.0
 40
0.1249999999999989
 40
0.1249999999999989
 40
0.2499999999999978
 40
0.2499999999999978
 40
0.4999999999999986
 40
0.4999999999999986
 40
1.0
 40
1.0
 40
1.0
 40
1.0
 10
386.2545265852395
 20
285.373898639715
 30
0.0
 10
386.3099679704292
 20
285.373898639715
 30
0.0
 10
386.3301480163347
 20
285.3564135912908
 30
0.0
 10
386.2419065637738
 20
285.3035806592071
 30
0.0
 10
386.1729648471605
 20
285.2766596099537
 30
0.0
 10
385.9709828236748
 20
285.2020662446037
 30
0.0
 10
385.8247673666106
 20
285.1561872984583
 30
0.0
 10
385.3863674773301
 20
285.0252983290984
 30
0.0
 10
385.0887098489538
 20
284.9468944417216
 30
0.0
 10
384.7884217825099
 20
284.873898639715
 30
0.0
  0
SPLINE
  5
105
330
E4
100
AcDbEntity
  8
$DDT_AUDIT_GENERATED_(87)
  6
Continuous
 62
     7
100
AcDbSpline
210
0.0
220
0.0
230
1.0
 70
     8
 71
     3
 72
    14
 73
    10
 74
     0
 42
0.0000000058733786
 43
0.0000000001
 40
0.0
 40
0.0
 40
0.0
 40
0.0
 40
0.4999999999999986
 40
0.4999999999999986
 40
0.749999999999998
 40
0.749999999999998
 40
0.874999999999999
 40
0.874999999999999
 40
1.0
 40
1.0
 40
1.0
 40
1.0
 10
369.5335230515602
 20
284.873898639715
 30
0.0
 10
369.2331583110061
 20
284.9469130801185
 30
0.0
 10
368.9352752270419
 20
285.0253656498114
 30
0.0
 10
368.4960425900243
 20
285.1565376202146
 30
0.0
 10
368.3491397018937
 20
285.2026851278348
 30
0.0
 10
368.1481797019419
 20
285.2769825613834
 30
0.0
 10
368.0803046197779
 20
285.3033985941134
 30
0.0
 10
367.9913618425734
 20
285.3566966607418
 30
0.0
 10
368.0120013436088
 20
285.373898639715
 30
0.0
 10
368.0674182488306
 20
285.373898639715
 30
0.0
  0
LINE
  5
106
330
E4
100
AcDbEntity
  8
$DDT_AUDIT_GENERATED_(87)
  6
Continuous
 62
     7
100
AcDbLine
 10
363.9899623454
 20
285.5110295941
 30
0.0
 11
366.924002632
 21
284.4431262636
 31
0.0
  0
LINE
  5
107
330
E4
100
AcDbEntity
  8
$DDT_AUDIT_GENERATED_(87)
  6
Continuous
 62
     7
100
AcDbLine
 10
387.397942202
 20
284.4431262636
 30
0.0
 11
390.3319824887
 21
285.5110295941
 31
0.0
  0
LINE
  5
108
330
E4
100
AcDbEntity
  8
$DDT_AUDIT_GENERATED_(87)
  6
Continuous
 62
     7
100
AcDbLine
 10
386.410972417
 20
278.3738986397
 30
0.0
 11
386.410972417
 21
283.0335873324
 31
0.0
  0
ARC
  5
109
330
E4
100
AcDbEntity
  8
$DDT_AUDIT_GENERATED_(87)
  6
Continuous
 62
     7
100
AcDbCircle
 10
387.910972417
 20
283.0335873324
 30
0.0
 40
1.5
100
AcDbArc
 50
110.0
 51
180.0
  0
LINE
  5
10A
330
E4
100
AcDbEntity
  8
$DDT_AUDIT_GENERATED_(87)
  6
Continuous
 62
     7
100
AcDbLine
 10
387.400972417
 20
277.3838986397
 30
0.0
 11
386.410972417
 21
278.3738986397
 31
0.0
  0
LINE
  5
10B
330
E4
100
AcDbEntity
  8
$DDT_AUDIT_GENERATED_(87)
  6
Continuous
 62
     7
100
AcDbLine
 10
367.910972417
 20
278.3738986397
 30
0.0
 11
366.920972417
 21
277.3838986397
 31
0.0
  0
ARC
  5
10C
330
E4
100
AcDbEntity
  8
$DDT_AUDIT_GENERATED_(87)
  6
Continuous
 62
     7
100
AcDbCircle
 10
364.160972417
 20
285.9808759045
 30
0.0
 40
0.5000000000000004
100
AcDbArc
 50
180.0
 51
250.0
  0
ARC
  5
10D
330
E4
100
AcDbEntity
  8
$DDT_AUDIT_GENERATED_(87)
  6
Continuous
 62
     7
100
AcDbCircle
 10
390.160972417
 20
285.9808759045
 30
0.0
 40
0.4999999999999998
100
AcDbArc
 50
290.0
 51
0.0
  0
LINE
  5
10E
330
E4
100
AcDbEntity
  8
$DDT_AUDIT_GENERATED_(87)
  6
Continuous
 62
     7
100
AcDbLine
 10
390.660972417
 20
285.9808759045
 30
0.0
 11
390.660972417
 21
299.0838986397
 31
0.0
  0
LINE
  5
10F
330
E4
100
AcDbEntity
  8
$DDT_AUDIT_GENERATED_(87)
  6
Continuous
 62
     7
100
AcDbLine
 10
363.660972417
 20
299.0838986397
 30
0.0
 11
363.660972417
 21
285.9808759045
 31
0.0
  0
ARC
  5
110
330
E4
100
AcDbEntity
  8
$DDT_AUDIT_GENERATED_(87)
  6
Continuous
 62
     7
100
AcDbCircle
 10
366.410972417
 20
283.0335873324
 30
0.0
 40
1.500000000000003
100
AcDbArc
 50
0.0
 51
70.0
  0
LINE
  5
111
330
E4
100
AcDbEntity
  8
$DDT_AUDIT_GENERATED_(87)
  6
Continuous
 62
     7
100
AcDbLine
 10
367.910972417
 20
283.0335873324
 30
0.0
 11
367.910972417
 21
278.3738986397
 31
0.0
  0
LINE
  5
112
330
E4
100
AcDbEntity
  8
$DDT_AUDIT_GENERATED_(A2)
  6
Continuous
 62
     7
100
AcDbLine
 10
437.410972417
 20
240.3838986397
 30
0.0
 11
439.910972417
 21
240.3838986397
 31
0.0
  0
LINE
  5
113
330
E4
100
AcDbEntity
  8
$DDT_AUDIT_GENERATED_(A2)
  6
Continuous
 62
     7
100
AcDbLine
 10
339.010972417
 20
240.3838986397
 30
0.0
 11
341.510972417
 21
240.3838986397
 31
0.0
  0
LINE
  5
114
330
E4
100
AcDbEntity
  8
$DDT_AUDIT_GENERATED_(A2)
  6
Continuous
 62
     7
100
AcDbLine
 10
326.710972417
 20
240.3838986397
 30
0.0
 11
329.210972417
 21
240.3838986397
 31
0.0
  0
LINE
  5
115
330
E4
100
AcDbEntity
  8
$DDT_AUDIT_GENERATED_(A2)
  6
Continuous
 62
     7
100
AcDbLine
 10
314.410972417
 20
240.3838986397
 30
0.0
 11
316.910972417
 21
240.3838986397
 31
0.0
  0
LINE
  5
116
330
E4
100
AcDbEntity
  8
$DDT_AUDIT_GENERATED_(A2)
  6
Continuous
 62
     7
100
AcDbLine
 10
351.310972417
 20
240.3838986397
 30
0.0
 11
353.810972417
 21
240.3838986397
 31
0.0
  0
LINE
  5
117
330
E4
100
AcDbEntity
  8
$DDT_AUDIT_GENERATED_(A2)
  6
Continuous
 62
     7
100
AcDbLine
 10
363.610972417
 20
240.3838986397
 30
0.0
 11
366.110972417
 21
240.3838986397
 31
0.0
  0
LINE
  5
118
330
E4
100
AcDbEntity
  8
$DDT_AUDIT_GENERATED_(A2)
  6
Continuous
 62
     7
100
AcDbLine
 10
375.910972417
 20
240.3838986397
 30
0.0
 11
378.410972417
 21
240.3838986397
 31
0.0
  0
LINE
  5
119
330
E4
100
AcDbEntity
  8
$DDT_AUDIT_GENERATED_(A2)
  6
Continuous
 62
     7
100
AcDbLine
 10
388.210972417
 20
240.3838986397
 30
0.0
 11
390.710972417
 21
240.3838986397
 31
0.0
  0
LINE
  5
11A
330
E4
100
AcDbEntity
  8
$DDT_AUDIT_GENERATED_(A2)
  6
Continuous
 62
     7
100
AcDbLine
 10
400.510972417
 20
240.3838986397
 30
0.0
 11
403.010972417
 21
240.3838986397
 31
0.0
  0
LINE
  5
11B
330
E4
100
AcDbEntity
  8
$DDT_AUDIT_GENERATED_(A2)
  6
Continuous
 62
     7
100
AcDbLine
 10
412.810972417
 20
240.3838986397
 30
0.0
 11
415.310972417
 21
240.3838986397
 31
0.0
  0
LINE
  5
11C
330
E4
100
AcDbEntity
  8
$DDT_AUDIT_GENERATED_(A2)
  6
Continuous
 62
     7
100
AcDbLine
 10
425.110972417
 20
240.3838986397
 30
0.0
 11
427.610972417
 21
240.3838986397
 31
0.0
  0
LINE
  5
11D
330
E4
100
AcDbEntity
  8
$DDT_AUDIT_GENERATED_(A2)
  6
Continuous
 62
     7
100
AcDbLine
 10
313.910972417
 20
241.8838986397
 30
0.0
 11
313.910972417
 21
240.8838986397
 31
0.0
  0
LINE
  5
11E
330
E4
100
AcDbEntity
  8
$DDT_AUDIT_GENERATED_(A2)
  6
Continuous
 62
     7
100
AcDbLine
 10
317.410972417
 20
240.8838986397
 30
0.0
 11
317.410972417
 21
241.8838986397
 31
0.0
  0
LINE
  5
11F
330
E4
100
AcDbEntity
  8
$DDT_AUDIT_GENERATED_(A2)
  6
Continuous
 62
     7
100
AcDbLine
 10
326.210972417
 20
241.8838986397
 30
0.0
 11
326.210972417
 21
240.8838986397
 31
0.0
  0
LINE
  5
120
330
E4
100
AcDbEntity
  8
$DDT_AUDIT_GENERATED_(A2)
  6
Continuous
 62
     7
100
AcDbLine
 10
329.710972417
 20
240.8838986397
 30
0.0
 11
329.710972417
 21
241.8838986397
 31
0.0
  0
LINE
  5
121
330
E4
100
AcDbEntity
  8
$DDT_AUDIT_GENERATED_(A2)
  6
Continuous
 62
     7
100
AcDbLine
 10
338.510972417
 20
241.8838986397
 30
0.0
 11
338.510972417
 21
240.8838986397
 31
0.0
  0
LINE
  5
122
330
E4
100
AcDbEntity
  8
$DDT_AUDIT_GENERATED_(A2)
  6
Continuous
 62
     7
100
AcDbLine
 10
342.010972417
 20
240.8838986397
 30
0.0
 11
342.010972417
 21
241.8838986397
 31
0.0
  0
LINE
  5
123
330
E4
100
AcDbEntity
  8
$DDT_AUDIT_GENERATED_(A2)
  6
Continuous
 62
     7
100
AcDbLine
 10
350.810972417
 20
241.8838986397
 30
0.0
 11
350.810972417
 21
240.8838986397
 31
0.0
  0
LINE
  5
124
330
E4
100
AcDbEntity
  8
$DDT_AUDIT_GENERATED_(A2)
  6
Continuous
 62
     7
100
AcDbLine
 10
354.310972417
 20
240.8838986397
 30
0.0
 11
354.310972417
 21
241.8838986397
 31
0.0
  0
LINE
  5
125
330
E4
100
AcDbEntity
  8
$DDT_AUDIT_GENERATED_(A2)
  6
Continuous
 62
     7
100
AcDbLine
 10
363.110972417
 20
241.8838986397
 30
0.0
 11
363.110972417
 21
240.8838986397
 31
0.0
  0
LINE
  5
126
330
E4
100
AcDbEntity
  8
$DDT_AUDIT_GENERATED_(A2)
  6
Continuous
 62
     7
100
AcDbLine
 10
366.610972417
 20
240.8838986397
 30
0.0
 11
366.610972417
 21
241.8838986397
 31
0.0
  0
LINE
  5
127
330
E4
100
AcDbEntity
  8
$DDT_AUDIT_GENERATED_(A2)
  6
Continuous
 62
     7
100
AcDbLine
 10
375.410972417
 20
241.8838986397
 30
0.0
 11
375.410972417
 21
240.8838986397
 31
0.0
  0
LINE
  5
128
330
E4
100
AcDbEntity
  8
$DDT_AUDIT_GENERATED_(A2)
  6
Continuous
 62
     7
100
AcDbLine
 10
378.910972417
 20
240.8838986397
 30
0.0
 11
378.910972417
 21
241.8838986397
 31
0.0
  0
LINE
  5
129
330
E4
100
AcDbEntity
  8
$DDT_AUDIT_GENERATED_(A2)
  6
Continuous
 62
     7
100
AcDbLine
 10
387.710972417
 20
241.8838986397
 30
0.0
 11
387.710972417
 21
240.8838986397
 31
0.0
  0
LINE
  5
12A
330
E4
100
AcDbEntity
  8
$DDT_AUDIT_GENERATED_(A2)
  6
Continuous
 62
     7
100
AcDbLine
 10
391.210972417
 20
240.8838986397
 30
0.0
 11
391.210972417
 21
241.8838986397
 31
0.0
  0
LINE
  5
12B
330
E4
100
AcDbEntity
  8
$DDT_AUDIT_GENERATED_(A2)
  6
Continuous
 62
     7
100
AcDbLine
 10
400.010972417
 20
241.8838986397
 30
0.0
 11
400.010972417
 21
240.8838986397
 31
0.0
  0
LINE
  5
12C
330
E4
100
AcDbEntity
  8
$DDT_AUDIT_GENERATED_(A2)
  6
Continuous
 62
     7
100
AcDbLine
 10
403.510972417
 20
240.8838986397
 30
0.0
 11
403.510972417
 21
241.8838986397
 31
0.0
  0
LINE
  5
12D
330
E4
100
AcDbEntity
  8
$DDT_AUDIT_GENERATED_(A2)
  6
Continuous
 62
     7
100
AcDbLine
 10
412.310972417
 20
241.8838986397
 30
0.0
 11
412.310972417
 21
240.8838986397
 31
0.0
  0
LINE
  5
12E
330
E4
100
AcDbEntity
  8
$DDT_AUDIT_GENERATED_(A2)
  6
Continuous
 62
     7
100
AcDbLine
 10
415.810972417
 20
240.8838986397
 30
0.0
 11
415.810972417
 21
241.8838986397
 31
0.0
  0
LINE
  5
12F
330
E4
100
AcDbEntity
  8
$DDT_AUDIT_GENERATED_(A2)
  6
Continuous
 62
     7
100
AcDbLine
 10
424.610972417
 20
241.8838986397
 30
0.0
 11
424.610972417
 21
240.8838986397
 31
0.0
  0
LINE
  5
130
330
E4
100
AcDbEntity
  8
$DDT_AUDIT_GENERATED_(A2)
  6
Continuous
 62
     7
100
AcDbLine
 10
428.110972417
 20
240.8838986397
 30
0.0
 11
428.110972417
 21
241.8838986397
 31
0.0
  0
LINE
  5
131
330
E4
100
AcDbEntity
  8
$DDT_AUDIT_GENERATED_(A2)
  6
Continuous
 62
     7
100
AcDbLine
 10
436.910972417
 20
241.8838986397
 30
0.0
 11
436.910972417
 21
240.8838986397
 31
0.0
  0
LINE
  5
132
330
E4
100
AcDbEntity
  8
$DDT_AUDIT_GENERATED_(A2)
  6
Continuous
 62
     7
100
AcDbLine
 10
440.410972417
 20
240.8838986397
 30
0.0
 11
440.410972417
 21
241.8838986397
 31
0.0
  0
ARC
  5
133
330
E4
100
AcDbEntity
  8
$DDT_AUDIT_GENERATED_(A2)
  6
Continuous
 62
     7
100
AcDbCircle
 10
437.410972417
 20
240.8838986397
 30
0.0
 40
0.5000000000000004
100
AcDbArc
 50
180.0
 51
270.0
  0
ARC
  5
134
330
E4
100
AcDbEntity
  8
$DDT_AUDIT_GENERATED_(A2)
  6
Continuous
 62
     7
100
AcDbCircle
 10
439.910972417
 20
240.8838986397
 30
0.0
 40
0.5000000000000004
100
AcDbArc
 50
270.0
 51
0.0
  0
ARC
  5
135
330
E4
100
AcDbEntity
  8
$DDT_AUDIT_GENERATED_(A2)
  6
Continuous
 62
     7
100
AcDbCircle
 10
339.010972417
 20
240.8838986397
 30
0.0
 40
0.5000000000000004
100
AcDbArc
 50
180.0
 51
270.0
  0
ARC
  5
136
330
E4
100
AcDbEntity
  8
$DDT_AUDIT_GENERATED_(A2)
  6
Continuous
 62
     7
100
AcDbCircle
 10
341.510972417
 20
240.8838986397
 30
0.0
 40
0.5000000000000004
100
AcDbArc
 50
270.0
 51
0.0
  0
ARC
  5
137
330
E4
100
AcDbEntity
  8
$DDT_AUDIT_GENERATED_(A2)
  6
Continuous
 62
     7
100
AcDbCircle
 10
326.710972417
 20
240.8838986397
 30
0.0
 40
0.5000000000000004
100
AcDbArc
 50
180.0
 51
270.0
  0
ARC
  5
138
330
E4
100
AcDbEntity
  8
$DDT_AUDIT_GENERATED_(A2)
  6
Continuous
 62
     7
100
AcDbCircle
 10
329.210972417
 20
240.8838986397
 30
0.0
 40
0.5000000000000004
100
AcDbArc
 50
270.0
 51
0.0
  0
ARC
  5
139
330
E4
100
AcDbEntity
  8
$DDT_AUDIT_GENERATED_(A2)
  6
Continuous
 62
     7
100
AcDbCircle
 10
314.410972417
 20
240.8838986397
 30
0.0
 40
0.5000000000000004
100
AcDbArc
 50
180.0
 51
270.0
  0
ARC
  5
13A
330
E4
100
AcDbEntity
  8
$DDT_AUDIT_GENERATED_(A2)
  6
Continuous
 62
     7
100
AcDbCircle
 10
316.910972417
 20
240.8838986397
 30
0.0
 40
0.5000000000000004
100
AcDbArc
 50
270.0
 51
0.0
  0
ARC
  5
13B
330
E4
100
AcDbEntity
  8
$DDT_AUDIT_GENERATED_(A2)
  6
Continuous
 62
     7
100
AcDbCircle
 10
351.310972417
 20
240.8838986397
 30
0.0
 40
0.5000000000000004
100
AcDbArc
 50
180.0
 51
270.0
  0
ARC
  5
13C
330
E4
100
AcDbEntity
  8
$DDT_AUDIT_GENERATED_(A2)
  6
Continuous
 62
     7
100
AcDbCircle
 10
353.810972417
 20
240.8838986397
 30
0.0
 40
0.5000000000000004
100
AcDbArc
 50
270.0
 51
0.0
  0
ARC
  5
13D
330
E4
100
AcDbEntity
  8
$DDT_AUDIT_GENERATED_(A2)
  6
Continuous
 62
     7
100
AcDbCircle
 10
363.610972417
 20
240.8838986397
 30
0.0
 40
0.5000000000000004
100
AcDbArc
 50
180.0
 51
270.0
  0
ARC
  5
13E
330
E4
100
AcDbEntity
  8
$DDT_AUDIT_GENERATED_(A2)
  6
Continuous
 62
     7
100
AcDbCircle
 10
366.110972417
 20
240.8838986397
 30
0.0
 40
0.5000000000000004
100
AcDbArc
 50
270.0
 51
0.0
  0
ARC
  5
13F
330
E4
100
AcDbEntity
  8
$DDT_AUDIT_GENERATED_(A2)
  6
Continuous
 62
     7
100
AcDbCircle
 10
375.910972417
 20
240.8838986397
 30
0.0
 40
0.5
100
AcDbArc
 50
180.0
 51
270.0
  0
ARC
  5
140
330
E4
100
AcDbEntity
  8
$DDT_AUDIT_GENERATED_(A2)
  6
Continuous
 62
     7
100
AcDbCircle
 10
378.410972417
 20
240.8838986397
 30
0.0
 40
0.5000000000000004
100
AcDbArc
 50
270.0
 51
0.0
  0
ARC
  5
141
330
E4
100
AcDbEntity
  8
$DDT_AUDIT_GENERATED_(A2)
  6
Continuous
 62
     7
100
AcDbCircle
 10
388.210972417
 20
240.8838986397
 30
0.0
 40
0.5000000000000004
100
AcDbArc
 50
180.0
 51
270.0
  0
ARC
  5
142
330
E4
100
AcDbEntity
  8
$DDT_AUDIT_GENERATED_(A2)
  6
Continuous
 62
     7
100
AcDbCircle
 10
390.710972417
 20
240.8838986397
 30
0.0
 40
0.5000000000000004
100
AcDbArc
 50
270.0
 51
0.0
  0
ARC
  5
143
330
E4
100
AcDbEntity
  8
$DDT_AUDIT_GENERATED_(A2)
  6
Continuous
 62
     7
100
AcDbCircle
 10
400.510972417
 20
240.8838986397
 30
0.0
 40
0.5000000000000004
100
AcDbArc
 50
180.0
 51
270.0
  0
ARC
  5
144
330
E4
100
AcDbEntity
  8
$DDT_AUDIT_GENERATED_(A2)
  6
Continuous
 62
     7
100
AcDbCircle
 10
403.010972417
 20
240.8838986397
 30
0.0
 40
0.5000000000000004
100
AcDbArc
 50
270.0
 51
0.0
  0
ARC
  5
145
330
E4
100
AcDbEntity
  8
$DDT_AUDIT_GENERATED_(A2)
  6
Continuous
 62
     7
100
AcDbCircle
 10
412.810972417
 20
240.8838986397
 30
0.0
 40
0.5000000000000004
100
AcDbArc
 50
180.0
 51
270.0
  0
ARC
  5
146
330
E4
100
AcDbEntity
  8
$DDT_AUDIT_GENERATED_(A2)
  6
Continuous
 62
     7
100
AcDbCircle
 10
415.310972417
 20
240.8838986397
 30
0.0
 40
0.5000000000000004
100
AcDbArc
 50
270.0
 51
0.0
  0
ARC
  5
147
330
E4
100
AcDbEntity
  8
$DDT_AUDIT_GENERATED_(A2)
  6
Continuous
 62
     7
100
AcDbCircle
 10
425.110972417
 20
240.8838986397
 30
0.0
 40
0.5000000000000004
100
AcDbArc
 50
180.0
 51
270.0
  0
ARC
  5
148
330
E4
100
AcDbEntity
  8
$DDT_AUDIT_GENERATED_(A2)
  6
Continuous
 62
     7
100
AcDbCircle
 10
427.610972417
 20
240.8838986397
 30
0.0
 40
0.5000000000000004
100
AcDbArc
 50
270.0
 51
0.0
  0
LINE
  5
149
330
E4
100
AcDbEntity
  8
$DDT_AUDIT_GENERATED_(DA)
  6
Continuous
 62
     7
100
AcDbLine
 10
359.0589015505
 20
277.3838986397
 30
0.0
 11
395.2630432836
 21
277.3838986397
 31
0.0
  0
LINE
  5
14A
330
E4
100
AcDbEntity
  8
$DDT_AUDIT_GENERATED_(DA)
  6
Continuous
 62
     7
100
AcDbLine
 10
398.1469732012
 20
258.5698829023
 30
0.0
 11
397.2603023531
 21
275.4885705522
 31
0.0
  0
LINE
  5
14B
330
E4
100
AcDbEntity
  8
$DDT_AUDIT_GENERATED_(DA)
  6
Continuous
 62
     7
100
AcDbLine
 10
357.061642481
 20
275.4885705522
 30
0.0
 11
356.1749716328
 21
258.5698829023
 31
0.0
  0
ARC
  5
14C
330
E4
100
AcDbEntity
  8
$DDT_AUDIT_GENERATED_(DA)
  6
Continuous
 62
     7
100
AcDbCircle
 10
404.1387504098
 20
258.8838986397
 30
0.0
 40
5.999999999999998
100
AcDbArc
 50
183.0
 51
270.0
  0
ARC
  5
14D
330
E4
100
AcDbEntity
  8
$DDT_AUDIT_GENERATED_(DA)
  6
Continuous
 62
     7
100
AcDbCircle
 10
350.1831944243
 20
258.8838986397
 30
0.0
 40
6.000000000000001
100
AcDbArc
 50
270.0
 51
357.0
  0
ARC
  5
14E
330
E4
100
AcDbEntity
  8
$DDT_AUDIT_GENERATED_(DA)
  6
Continuous
 62
     7
100
AcDbCircle
 10
395.2630432836
 20
275.3838986397
 30
0.0
 40
1.999999999999998
100
AcDbArc
 50
3.0
 51
90.0
  0
ARC
  5
14F
330
E4
100
AcDbEntity
  8
$DDT_AUDIT_GENERATED_(DA)
  6
Continuous
 62
     7
100
AcDbCircle
 10
359.0589015505
 20
275.3838986397
 30
0.0
 40
2.000000000000002
100
AcDbArc
 50
90.0
 51
177.0
  0
ENDBLK
  5
151
330
E4
100
AcDbEntity
  8
0
100
AcDbBlockEnd
  0
BLOCK
  5
353
330
152
100
AcDbEntity
  8
0
100
AcDbBlockBegin
  2
SE2
 70
     0
 10
0.0
 20
0.0
 30
0.0
  3
SE2
  1

  0
LINE
  5
154
330
152
100
AcDbEntity
  8
$DDT_AUDIT_GENERATED_(77)
  6
Continuous
 62
     7
100
AcDbLine
 10
111.2967049873
 20
62.2906315817
 30
0.0
 11
111.2967049873
 21
214.0906315817
 31
0.0
  0
LINE
  5
155
330
152
100
AcDbEntity
  8
$DDT_AUDIT_GENERATED_(77)
  6
Continuous
 62
     7
100
AcDbLine
 10
263.3967049873
 20
61.9906315817
 30
0.0
 11
111.5967049873
 21
61.9906315817
 31
0.0
  0
LINE
  5
156
330
152
100
AcDbEntity
  8
$DDT_AUDIT_GENERATED_(77)
  6
Continuous
 62
     7
100
AcDbLine
 10
263.6967049873
 20
214.0906315817
 30
0.0
 11
263.6967049873
 21
62.2906315817
 31
0.0
  0
LINE
  5
157
330
152
100
AcDbEntity
  8
$DDT_AUDIT_GENERATED_(77)
  6
Continuous
 62
     7
100
AcDbLine
 10
111.5967049873
 20
214.3906315817
 30
0.0
 11
263.3967049873
 21
214.3906315817
 31
0.0
  0
ARC
  5
158
330
152
100
AcDbEntity
  8
$DDT_AUDIT_GENERATED_(77)
  6
Continuous
 62
     7
100
AcDbCircle
 10
263.3967049873
 20
214.0906315817
 30
0.0
 40
0.2999999999999947
100
AcDbArc
 50
0.0
 51
90.0
  0
ARC
  5
159
330
152
100
AcDbEntity
  8
$DDT_AUDIT_GENERATED_(77)
  6
Continuous
 62
     7
100
AcDbCircle
 10
111.5967049873
 20
214.0906315817
 30
0.0
 40
0.2999999999999947
100
AcDbArc
 50
90.0
 51
180.0
  0
ARC
  5
15A
330
152
100
AcDbEntity
  8
$DDT_AUDIT_GENERATED_(77)
  6
Continuous
 62
     7
100
AcDbCircle
 10
263.3967049873
 20
62.2906315817
 30
0.0
 40
0.2999999999999947
100
AcDbArc
 50
270.0
 51
0.0
  0
ARC
  5
15B
330
152
100
AcDbEntity
  8
$DDT_AUDIT_GENERATED_(77)
  6
Continuous
 62
     7
100
AcDbCircle
 10
111.5967049873
 20
62.2906315817
 30
0.0
 40
0.2999999999999947
100
AcDbArc
 50
180.0
 51
270.0
  0
LINE
  5
15C
330
152
100
AcDbEntity
  8
$DDT_AUDIT_GENERATED_(77)
  6
Continuous
 62
     7
100
AcDbLine
 10
112.4966745263
 20
213.3906315817
 30
0.0
 11
262.4967354483
 21
213.3906315817
 31
0.0
  0
ELLIPSE
  5
15D
330
152
100
AcDbEntity
  8
$DDT_AUDIT_GENERATED_(77)
  6
Continuous
 62
     7
100
AcDbEllipse
 10
112.4967354529
 20
213.1906011161
 30
0.0
 11
0.1414644378339162
 21
-0.1414644378339161
 31
0.0
210
0.0
220
0.0
230
1.0
 40
0.9996954599
 41
2.356346783439974
 42
3.92683852373947
  0
LINE
  5
15E
330
152
100
AcDbEntity
  8
$DDT_AUDIT_GENERATED_(77)
  6
Continuous
 62
     7
100
AcDbLine
 10
112.2967049873
 20
63.1906011207
 30
0.0
 11
112.2967049873
 21
213.1906620427
 31
0.0
  0
ELLIPSE
  5
15F
330
152
100
AcDbEntity
  8
$DDT_AUDIT_GENERATED_(77)
  6
Continuous
 62
     7
100
AcDbEllipse
 10
112.4967354529
 20
63.1906620473
 30
0.0
 11
0.1414644378339161
 21
0.1414644378339162
 31
0.0
210
0.0
220
0.0
230
1.0
 40
0.9996954599
 41
2.356346783439974
 42
3.926838523739612
  0
LINE
  5
160
330
152
100
AcDbEntity
  8
$DDT_AUDIT_GENERATED_(77)
  6
Continuous
 62
     7
100
AcDbLine
 10
262.4967354483
 20
62.9906315817
 30
0.0
 11
112.4966745263
 21
62.9906315817
 31
0.0
  0
ELLIPSE
  5
161
330
152
100
AcDbEntity
  8
$DDT_AUDIT_GENERATED_(77)
  6
Continuous
 62
     7
100
AcDbEllipse
 10
262.4966745217
 20
63.1906620473
 30
0.0
 11
-0.1414644378339162
 21
0.1414644378339162
 31
0.0
210
0.0
220
0.0
230
1.0
 40
0.9996954599
 41
2.356346783440117
 42
3.926838523739754
  0
LINE
  5
162
330
152
100
AcDbEntity
  8
$DDT_AUDIT_GENERATED_(77)
  6
Continuous
 62
     7
100
AcDbLine
 10
262.6967049873
 20
213.1906620427
 30
0.0
 11
262.6967049873
 21
63.1906011207
 31
0.0
  0
ELLIPSE
  5
163
330
152
100
AcDbEntity
  8
$DDT_AUDIT_GENERATED_(77)
  6
Continuous
 62
     7
100
AcDbEllipse
 10
262.4966745217
 20
213.1906011161
 30
0.0
 11
-0.1414644378339161
 21
-0.1414644378339162
 31
0.0
210
0.0
220
0.0
230
1.0
 40
0.9996954599
 41
2.35634678343969
 42
3.92683852373947
  0
LINE
  5
165
330
152
100
AcDbEntity
  8
$DDT_AUDIT_GENERATED_(164)
  6
Continuous
 62
     7
100
AcDbLine
 10
189.0839736652
 20
124.2809019715
 30
0.0
 11
189.0839736652
 21
124.7842682365
 31
0.0
  0
LINE
  5
166
330
152
100
AcDbEntity
  8
$DDT_AUDIT_GENERATED_(164)
  6
Continuous
 62
     7
100
AcDbLine
 10
185.9094363094
 20
124.2809019488
 30
0.0
 11
185.9094363094
 21
124.7842682365
 31
0.0
  0
LINE
  5
167
330
152
100
AcDbEntity
  8
$DDT_AUDIT_GENERATED_(164)
  6
Continuous
 62
     7
100
AcDbLine
 10
185.9967049873
 20
124.2712206639
 30
0.0
 11
185.9967049873
 21
124.7742237167
 31
0.0
  0
LINE
  5
168
330
152
100
AcDbEntity
  8
$DDT_AUDIT_GENERATED_(164)
  6
Continuous
 62
     7
100
AcDbLine
 10
188.9967049873
 20
124.2712206853
 30
0.0
 11
188.9967049873
 21
124.7742237167
 31
0.0
  0
LINE
  5
169
330
152
100
AcDbEntity
  8
$DDT_AUDIT_GENERATED_(164)
  6
Continuous
 62
     7
100
AcDbLine
 10
198.4547375175
 20
129.4773359429
 30
0.0
 11
198.0988038655
 21
129.8332695949
 31
0.0
  0
LINE
  5
16A
330
152
100
AcDbEntity
  8
$DDT_AUDIT_GENERATED_(164)
  6
Continuous
 62
     7
100
AcDbLine
 10
198.3998749465
 20
129.408781966
 30
0.0
 11
198.0441981396
 21
129.764458773
 31
0.0
  0
LINE
  5
16B
330
152
100
AcDbEntity
  8
$DDT_AUDIT_GENERATED_(164)
  6
Continuous
 62
     7
100
AcDbLine
 10
196.2785546137
 20
127.2874616118
 30
0.0
 11
195.922877796
 21
127.6431384294
 31
0.0
  0
LINE
  5
16C
330
152
100
AcDbEntity
  8
$DDT_AUDIT_GENERATED_(164)
  6
Continuous
 62
     7
100
AcDbLine
 10
196.2100006374
 20
127.2325990402
 30
0.0
 11
195.854066974
 21
127.5885327035
 31
0.0
  0
LINE
  5
16D
330
152
100
AcDbEntity
  8
$DDT_AUDIT_GENERATED_(164)
  6
Continuous
 62
     7
100
AcDbLine
 10
201.4064345094
 20
139.7779002596
 30
0.0
 11
200.9030683325
 21
139.7779002596
 31
0.0
  0
LINE
  5
16E
330
152
100
AcDbEntity
  8
$DDT_AUDIT_GENERATED_(164)
  6
Continuous
 62
     7
100
AcDbLine
 10
201.4161157949
 20
139.6906315817
 30
0.0
 11
200.9131128523
 21
139.6906315817
 31
0.0
  0
LINE
  5
16F
330
152
100
AcDbEntity
  8
$DDT_AUDIT_GENERATED_(164)
  6
Continuous
 62
     7
100
AcDbLine
 10
201.4161157949
 20
136.6906315817
 30
0.0
 11
200.9131128523
 21
136.6906315817
 31
0.0
  0
LINE
  5
170
330
152
100
AcDbEntity
  8
$DDT_AUDIT_GENERATED_(164)
  6
Continuous
 62
     7
100
AcDbLine
 10
201.4064345094
 20
136.6033629038
 30
0.0
 11
200.9030683325
 21
136.6033629038
 31
0.0
  0
LINE
  5
171
330
152
100
AcDbEntity
  8
$DDT_AUDIT_GENERATED_(164)
  6
Continuous
 62
     7
100
AcDbLine
 10
196.2100006374
 20
149.1486641232
 30
0.0
 11
195.854066974
 21
148.7927304599
 31
0.0
  0
LINE
  5
172
330
152
100
AcDbEntity
  8
$DDT_AUDIT_GENERATED_(164)
  6
Continuous
 62
     7
100
AcDbLine
 10
196.2785546137
 20
149.0938015516
 30
0.0
 11
195.922877796
 21
148.738124734
 31
0.0
  0
LINE
  5
173
330
152
100
AcDbEntity
  8
$DDT_AUDIT_GENERATED_(164)
  6
Continuous
 62
     7
100
AcDbLine
 10
198.3998749465
 20
146.9724811973
 30
0.0
 11
198.0441981396
 21
146.6168043904
 31
0.0
  0
LINE
  5
174
330
152
100
AcDbEntity
  8
$DDT_AUDIT_GENERATED_(164)
  6
Continuous
 62
     7
100
AcDbLine
 10
198.4547375175
 20
146.9039272204
 30
0.0
 11
198.0988038655
 21
146.5479935684
 31
0.0
  0
LINE
  5
175
330
152
100
AcDbEntity
  8
$DDT_AUDIT_GENERATED_(164)
  6
Continuous
 62
     7
100
AcDbLine
 10
185.9094363094
 20
152.1003612146
 30
0.0
 11
185.9094363094
 21
151.5969949269
 31
0.0
  0
LINE
  5
176
330
152
100
AcDbEntity
  8
$DDT_AUDIT_GENERATED_(164)
  6
Continuous
 62
     7
100
AcDbLine
 10
185.9967049873
 20
152.1100424995
 30
0.0
 11
185.9967049873
 21
151.6070394467
 31
0.0
  0
LINE
  5
177
330
152
100
AcDbEntity
  8
$DDT_AUDIT_GENERATED_(164)
  6
Continuous
 62
     7
100
AcDbLine
 10
188.9967049873
 20
152.110042478
 30
0.0
 11
188.9967049873
 21
151.6070394467
 31
0.0
  0
LINE
  5
178
330
152
100
AcDbEntity
  8
$DDT_AUDIT_GENERATED_(164)
  6
Continuous
 62
     7
100
AcDbLine
 10
189.0839736652
 20
152.1003611919
 30
0.0
 11
189.0839736652
 21
151.5969949269
 31
0.0
  0
LINE
  5
179
330
152
100
AcDbEntity
  8
$DDT_AUDIT_GENERATED_(164)
  6
Continuous
 62
     7
100
AcDbLine
 10
176.5386723463
 20
146.9039273312
 30
0.0
 11
176.8946061091
 21
146.5479935684
 31
0.0
  0
LINE
  5
17A
330
152
100
AcDbEntity
  8
$DDT_AUDIT_GENERATED_(164)
  6
Continuous
 62
     7
100
AcDbLine
 10
176.5935349179
 20
146.9724813075
 30
0.0
 11
176.949211835
 21
146.6168043904
 31
0.0
  0
LINE
  5
17B
330
152
100
AcDbEntity
  8
$DDT_AUDIT_GENERATED_(164)
  6
Continuous
 62
     7
100
AcDbLine
 10
178.7148552722
 20
149.0938016403
 30
0.0
 11
179.0705321786
 21
148.738124734
 31
0.0
  0
LINE
  5
17C
330
152
100
AcDbEntity
  8
$DDT_AUDIT_GENERATED_(164)
  6
Continuous
 62
     7
100
AcDbLine
 10
178.7834092491
 20
149.1486642113
 30
0.0
 11
179.1393430005
 21
148.7927304599
 31
0.0
  0
LINE
  5
17D
330
152
100
AcDbEntity
  8
$DDT_AUDIT_GENERATED_(164)
  6
Continuous
 62
     7
100
AcDbLine
 10
173.5869752663
 20
136.6033629038
 30
0.0
 11
174.0903416421
 21
136.6033629038
 31
0.0
  0
LINE
  5
17E
330
152
100
AcDbEntity
  8
$DDT_AUDIT_GENERATED_(164)
  6
Continuous
 62
     7
100
AcDbLine
 10
173.5772939808
 20
136.6906315817
 30
0.0
 11
174.0802971223
 21
136.6906315817
 31
0.0
  0
LINE
  5
17F
330
152
100
AcDbEntity
  8
$DDT_AUDIT_GENERATED_(164)
  6
Continuous
 62
     7
100
AcDbLine
 10
173.5772939808
 20
139.6906315817
 30
0.0
 11
174.0802971223
 21
139.6906315817
 31
0.0
  0
LINE
  5
180
330
152
100
AcDbEntity
  8
$DDT_AUDIT_GENERATED_(164)
  6
Continuous
 62
     7
100
AcDbLine
 10
173.5869752663
 20
139.7779002596
 30
0.0
 11
174.0903416421
 21
139.7779002596
 31
0.0
  0
LINE
  5
181
330
152
100
AcDbEntity
  8
$DDT_AUDIT_GENERATED_(164)
  6
Continuous
 62
     7
100
AcDbLine
 10
178.7834092491
 20
127.2325989521
 30
0.0
 11
179.1393430005
 21
127.5885327035
 31
0.0
  0
LINE
  5
182
330
152
100
AcDbEntity
  8
$DDT_AUDIT_GENERATED_(164)
  6
Continuous
 62
     7
100
AcDbLine
 10
178.7148552722
 20
127.287461523
 30
0.0
 11
179.0705321786
 21
127.6431384294
 31
0.0
  0
LINE
  5
183
330
152
100
AcDbEntity
  8
$DDT_AUDIT_GENERATED_(164)
  6
Continuous
 62
     7
100
AcDbLine
 10
176.5935349179
 20
129.4087818559
 30
0.0
 11
176.949211835
 21
129.764458773
 31
0.0
  0
LINE
  5
184
330
152
100
AcDbEntity
  8
$DDT_AUDIT_GENERATED_(164)
  6
Continuous
 62
     7
100
AcDbLine
 10
176.5386723463
 20
129.4773358321
 30
0.0
 11
176.8946061091
 21
129.8332695949
 31
0.0
  0
ARC
  5
186
330
152
100
AcDbEntity
  8
4220149_GEHÄUSE
  6
Continuous
 62
     7
100
AcDbCircle
 10
187.4967049873
 20
138.1906315817
 30
0.0
 40
2.834119498088716
100
AcDbArc
 50
345.9086792298
 51
354.0523074901
  0
ARC
  5
187
330
152
100
AcDbEntity
  8
4220149_GEHÄUSE
  6
Continuous
 62
     7
100
AcDbCircle
 10
187.4967049873
 20
138.1906315817
 30
0.0
 40
2.834119498088716
100
AcDbArc
 50
325.8665849907
 51
334.0319524381
  0
ARC
  5
188
330
152
100
AcDbEntity
  8
4220149_GEHÄUSE
  6
Continuous
 62
     7
100
AcDbCircle
 10
187.4967049873
 20
138.1906315817
 30
0.0
 40
2.834119498088716
100
AcDbArc
 50
305.8370084159
 51
314.0461456427
  0
ARC
  5
189
330
152
100
AcDbEntity
  8
4220149_GEHÄUSE
  6
Continuous
 62
     7
100
AcDbCircle
 10
187.4967049873
 20
138.1906315817
 30
0.0
 40
2.834119498088716
100
AcDbArc
 50
285.8359064639
 51
294.1354149212
  0
ARC
  5
18A
330
152
100
AcDbEntity
  8
4220149_GEHÄUSE
  6
Continuous
 62
     7
100
AcDbCircle
 10
187.4967049873
 20
138.1906315817
 30
0.0
 40
2.834119498088716
100
AcDbArc
 50
265.8799499178
 51
274.1672662747
  0
ARC
  5
18B
330
152
100
AcDbEntity
  8
4220149_GEHÄUSE
  6
Continuous
 62
     7
100
AcDbCircle
 10
187.4967049873
 20
138.1906315817
 30
0.0
 40
2.834119498088716
100
AcDbArc
 50
245.9611731453
 51
254.1579851241
  0
ARC
  5
18C
330
152
100
AcDbEntity
  8
4220149_GEHÄUSE
  6
Continuous
 62
     7
100
AcDbCircle
 10
187.4967049873
 20
138.1906315817
 30
0.0
 40
2.834119498088716
100
AcDbArc
 50
225.9657645445
 51
234.1240404276
  0
ARC
  5
18D
330
152
100
AcDbEntity
  8
4220149_GEHÄUSE
  6
Continuous
 62
     7
100
AcDbCircle
 10
187.4967049873
 20
138.1906315817
 30
0.0
 40
2.834119498088716
100
AcDbArc
 50
205.9395985198
 51
214.0812736343
  0
ARC
  5
18E
330
152
100
AcDbEntity
  8
4220149_GEHÄUSE
  6
Continuous
 62
     7
100
AcDbCircle
 10
187.4967049873
 20
138.1906315817
 30
0.0
 40
2.834119498088716
100
AcDbArc
 50
185.8984608983
 51
194.0452483416
  0
ARC
  5
18F
330
152
100
AcDbEntity
  8
4220149_GEHÄUSE
  6
Continuous
 62
     7
100
AcDbCircle
 10
187.4967049873
 20
138.1906315817
 30
0.0
 40
2.834119498088716
100
AcDbArc
 50
165.8579040331
 51
174.0315852238
  0
ARC
  5
190
330
152
100
AcDbEntity
  8
4220149_GEHÄUSE
  6
Continuous
 62
     7
100
AcDbCircle
 10
187.4967049873
 20
138.1906315817
 30
0.0
 40
2.834119498088716
100
AcDbArc
 50
145.8335802201
 51
154.0725244238
  0
ARC
  5
191
330
152
100
AcDbEntity
  8
4220149_GEHÄUSE
  6
Continuous
 62
     7
100
AcDbCircle
 10
187.4967049873
 20
138.1906315817
 30
0.0
 40
2.834119498088716
100
AcDbArc
 50
125.8415815953
 51
134.1475310506
  0
ARC
  5
192
330
152
100
AcDbEntity
  8
4220149_GEHÄUSE
  6
Continuous
 62
     7
100
AcDbCircle
 10
187.4967049873
 20
138.1906315817
 30
0.0
 40
2.834119498088716
100
AcDbArc
 50
105.8988024053
 51
114.1681590622
  0
ARC
  5
193
330
152
100
AcDbEntity
  8
4220149_GEHÄUSE
  6
Continuous
 62
     7
100
AcDbCircle
 10
187.4967049873
 20
138.1906315817
 30
0.0
 40
2.834119498088716
100
AcDbArc
 50
85.9658792355
 51
94.1516116767
  0
ARC
  5
194
330
152
100
AcDbEntity
  8
4220149_GEHÄUSE
  6
Continuous
 62
     7
100
AcDbCircle
 10
187.4967049873
 20
138.1906315817
 30
0.0
 40
2.834119498088716
100
AcDbArc
 50
65.961775888
 51
74.1141771089
  0
ARC
  5
195
330
152
100
AcDbEntity
  8
4220149_GEHÄUSE
  6
Continuous
 62
     7
100
AcDbCircle
 10
187.4967049873
 20
138.1906315817
 30
0.0
 40
2.834119498088716
100
AcDbArc
 50
45.9306740839
 51
54.0716006446
  0
ARC
  5
196
330
152
100
AcDbEntity
  8
4220149_GEHÄUSE
  6
Continuous
 62
     7
100
AcDbCircle
 10
187.4967049873
 20
138.1906315817
 30
0.0
 40
2.834119498088716
100
AcDbArc
 50
25.8882743865
 51
34.0394293894
  0
ARC
  5
197
330
152
100
AcDbEntity
  8
4220149_GEHÄUSE
  6
Continuous
 62
     7
100
AcDbCircle
 10
187.4967049873
 20
138.1906315817
 30
0.0
 40
2.834119498088716
100
AcDbArc
 50
5.928692536
 51
14.0463058798
  0
ARC
  5
198
330
152
100
AcDbEntity
  8
4220149_GEHÄUSE
  6
Continuous
 62
     7
100
AcDbCircle
 10
187.4967049873
 20
138.1906315817
 30
0.0
 40
3.999999999999991
100
AcDbArc
 50
318.5462747791
 51
322.6974176459
  0
ARC
  5
199
330
152
100
AcDbEntity
  8
4220149_GEHÄUSE
  6
Continuous
 62
     7
100
AcDbCircle
 10
187.4967049873
 20
138.1906315817
 30
0.0
 40
3.999999999999991
100
AcDbArc
 50
307.1323132437
 51
312.9380200871
  0
ARC
  5
19A
330
152
100
AcDbEntity
  8
4220149_GEHÄUSE
  6
Continuous
 62
     7
100
AcDbCircle
 10
187.4967049873
 20
138.1906315817
 30
0.0
 40
3.999999999999991
100
AcDbArc
 50
227.0958453358
 51
232.8594084002
  0
ARC
  5
19B
330
152
100
AcDbEntity
  8
4220149_GEHÄUSE
  6
Continuous
 62
     7
100
AcDbCircle
 10
187.4967049873
 20
138.1906315817
 30
0.0
 40
3.999999999999991
100
AcDbArc
 50
217.1828409212
 51
221.578142043
  0
ARC
  5
19C
330
152
100
AcDbEntity
  8
4220149_GEHÄUSE
  6
Continuous
 62
     7
100
AcDbCircle
 10
187.4967049873
 20
138.1906315817
 30
0.0
 40
3.999999999999991
100
AcDbArc
 50
138.5462747791
 51
142.6974176459
  0
ARC
  5
19D
330
152
100
AcDbEntity
  8
4220149_GEHÄUSE
  6
Continuous
 62
     7
100
AcDbCircle
 10
187.4967049873
 20
138.1906315817
 30
0.0
 40
3.999999999999991
100
AcDbArc
 50
127.1323132437
 51
132.9380200871
  0
ARC
  5
19E
330
152
100
AcDbEntity
  8
4220149_GEHÄUSE
  6
Continuous
 62
     7
100
AcDbCircle
 10
187.4967049873
 20
138.1906315817
 30
0.0
 40
4.000000000000016
100
AcDbArc
 50
47.0958453358
 51
52.8594084002
  0
ARC
  5
19F
330
152
100
AcDbEntity
  8
4220149_GEHÄUSE
  6
Continuous
 62
     7
100
AcDbCircle
 10
187.4967049873
 20
138.1906315817
 30
0.0
 40
4.000000000000016
100
AcDbArc
 50
37.1828409212
 51
41.578142043
  0
LINE
  5
1A0
330
152
100
AcDbEntity
  8
4220149_GEHÄUSE
  6
Continuous
 62
     7
100
AcDbLine
 10
188.9466889341
 20
134.7906315817
 30
0.0
 11
188.520993288
 21
134.7906315817
 31
0.0
  0
LINE
  5
1A1
330
152
100
AcDbEntity
  8
4220149_GEHÄUSE
  6
Continuous
 62
     7
100
AcDbLine
 10
186.0467210405
 20
141.5906315817
 30
0.0
 11
186.4724166866
 21
141.5906315817
 31
0.0
  0
LINE
  5
1A2
330
152
100
AcDbEntity
  8
4220149_GEHÄUSE
  6
Continuous
 62
     7
100
AcDbLine
 10
184.1155963411
 20
136.0533191752
 30
0.0
 11
184.0967049873
 21
136.2906315817
 31
0.0
  0
LINE
  5
1A3
330
152
100
AcDbEntity
  8
4220149_GEHÄUSE
  6
Continuous
 62
     7
100
AcDbLine
 10
185.5967049873
 20
134.7906315817
 30
0.0
 11
185.3593925808
 21
134.8095229355
 31
0.0
  0
LINE
  5
1A4
330
152
100
AcDbEntity
  8
4220149_GEHÄUSE
  6
Continuous
 62
     7
100
AcDbLine
 10
189.6340173938
 20
134.8095229355
 30
0.0
 11
189.3967049873
 21
134.7906315817
 31
0.0
  0
LINE
  5
1A5
330
152
100
AcDbEntity
  8
4220149_GEHÄUSE
  6
Continuous
 62
     7
100
AcDbLine
 10
190.8967049873
 20
136.2906315817
 30
0.0
 11
190.8778136335
 21
136.0533191752
 31
0.0
  0
LINE
  5
1A6
330
152
100
AcDbEntity
  8
4220149_GEHÄUSE
  6
Continuous
 62
     7
100
AcDbLine
 10
190.8778136335
 20
140.3279439882
 30
0.0
 11
190.8967049873
 21
140.0906315817
 31
0.0
  0
LINE
  5
1A7
330
152
100
AcDbEntity
  8
4220149_GEHÄUSE
  6
Continuous
 62
     7
100
AcDbLine
 10
189.3967049873
 20
141.5906315817
 30
0.0
 11
189.6340173938
 21
141.5717402278
 31
0.0
  0
LINE
  5
1A8
330
152
100
AcDbEntity
  8
4220149_GEHÄUSE
  6
Continuous
 62
     7
100
AcDbLine
 10
185.3593925808
 20
141.5717402278
 30
0.0
 11
185.5967049873
 21
141.5906315817
 31
0.0
  0
LINE
  5
1A9
330
152
100
AcDbEntity
  8
4220149_GEHÄUSE
  6
Continuous
 62
     7
100
AcDbLine
 10
184.0967049873
 20
140.0906315817
 30
0.0
 11
184.1155963411
 21
140.3279439882
 31
0.0
  0
LINE
  5
1AA
330
152
100
AcDbEntity
  8
4220149_GEHÄUSE
  6
Continuous
 62
     7
100
AcDbLine
 10
186.4720417453
 20
134.7906315817
 30
0.0
 11
186.0463706363
 21
134.7906315817
 31
0.0
  0
LINE
  5
1AB
330
152
100
AcDbEntity
  8
4220149_GEHÄUSE
  6
Continuous
 62
     7
100
AcDbLine
 10
187.5503409424
 20
134.7906315817
 30
0.0
 11
187.4430690322
 21
134.7906315817
 31
0.0
  0
SPLINE
  5
1AC
330
152
100
AcDbEntity
  8
4220149_GEHÄUSE
  6
Continuous
 62
     7
100
AcDbSpline
210
0.0
220
0.0
230
1.0
 70
     8
 71
     3
 72
    17
 73
    13
 74
     0
 42
0.0000000034119287
 43
0.0000000001
 40
0.4307286728365723
 40
0.4307286728365723
 40
0.4307286728365723
 40
0.4307286728365723
 40
0.4558304606678523
 40
0.4558304606678523
 40
0.4558304606678523
 40
0.4873598893588749
 40
0.4873598893588749
 40
0.4873598893588749
 40
0.5140505158941381
 40
0.5140505158941381
 40
0.5140505158941381
 40
0.5684043455987424
 40
0.5684043455987424
 40
0.5684043455987424
 40
0.5684043455987424
 10
187.7000279044893
 20
135.3613201877828
 30
0.0
 10
187.6769721343354
 20
135.3603675330719
 30
0.0
 10
187.6532944396587
 20
135.3593833240116
 30
0.0
 10
187.6292202617715
 20
135.3585596509218
 30
0.0
 10
187.59860311496
 20
135.3575121169194
 30
0.0
 10
187.5670453743172
 20
135.3567031922154
 30
0.0
 10
187.5353717261785
 20
135.3563442304695
 30
0.0
 10
187.5085270403963
 20
135.3560399960084
 30
0.0
 10
187.4814106794362
 20
135.3560545456548
 30
0.0
 10
187.4545819066261
 20
135.3563851111558
 30
0.0
 10
187.4004801867062
 20
135.3570517149648
 30
0.0
 10
187.3466183426152
 20
135.3591116451416
 30
0.0
 10
187.2966892684977
 20
135.3611682664785
 30
0.0
  0
ARC
  5
1AD
330
152
100
AcDbEntity
  8
4220149_GEHÄUSE
  6
Continuous
 62
     7
100
AcDbCircle
 10
187.2485112731
 20
131.5701203239
 30
0.0
 40
3.226382724264251
100
AcDbArc
 50
86.5428449031
 51
89.1912370276
  0
ARC
  5
1AE
330
152
100
AcDbEntity
  8
4220149_GEHÄUSE
  6
Continuous
 62
     7
100
AcDbCircle
 10
187.7448987015
 20
132.2594716032
 30
0.0
 40
2.538626313245695
100
AcDbArc
 50
91.0729224291
 51
94.3954006677
  0
LINE
  5
1AF
330
152
100
AcDbEntity
  8
4220149_GEHÄUSE
  6
Continuous
 62
     7
100
AcDbLine
 10
188.5213682293
 20
141.5906315817
 30
0.0
 11
188.9470393383
 21
141.5906315817
 31
0.0
  0
LINE
  5
1B0
330
152
100
AcDbEntity
  8
4220149_GEHÄUSE
  6
Continuous
 62
     7
100
AcDbLine
 10
187.4430690322
 20
141.5906315817
 30
0.0
 11
187.5503409424
 21
141.5906315817
 31
0.0
  0
SPLINE
  5
1B1
330
152
100
AcDbEntity
  8
4220149_GEHÄUSE
  6
Continuous
 62
     7
100
AcDbSpline
210
0.0
220
0.0
230
1.0
 70
     8
 71
     3
 72
    17
 73
    13
 74
     0
 42
0.0000000034119287
 43
0.0000000001
 40
0.4307286728365709
 40
0.4307286728365709
 40
0.4307286728365709
 40
0.4307286728365709
 40
0.4558304606678523
 40
0.4558304606678523
 40
0.4558304606678523
 40
0.4873598893588749
 40
0.4873598893588749
 40
0.4873598893588749
 40
0.5140505158941381
 40
0.5140505158941381
 40
0.5140505158941381
 40
0.5684043455987411
 40
0.5684043455987411
 40
0.5684043455987411
 40
0.5684043455987411
 10
187.2933820700873
 20
141.0199429755809
 30
0.0
 10
187.3164378402412
 20
141.0208956302917
 30
0.0
 10
187.3401155349179
 20
141.021879839352
 30
0.0
 10
187.364189712805
 20
141.0227035124418
 30
0.0
 10
187.3948068596166
 20
141.0237510464442
 30
0.0
 10
187.4263646002593
 20
141.0245599711482
 30
0.0
 10
187.458038248398
 20
141.0249189328941
 30
0.0
 10
187.4848829341802
 20
141.0252231673552
 30
0.0
 10
187.5119992951403
 20
141.0252086177088
 30
0.0
 10
187.5388280679504
 20
141.0248780522078
 30
0.0
 10
187.5929297878703
 20
141.0242114483988
 30
0.0
 10
187.6467916319613
 20
141.022151518222
 30
0.0
 10
187.6967207060788
 20
141.0200948968851
 30
0.0
  0
ARC
  5
1B2
330
152
100
AcDbEntity
  8
4220149_GEHÄUSE
  6
Continuous
 62
     7
100
AcDbCircle
 10
187.7448987015
 20
144.8111428395
 30
0.0
 40
3.226382724263746
100
AcDbArc
 50
266.5428449031
 51
269.1912370276
  0
ARC
  5
1B3
330
152
100
AcDbEntity
  8
4220149_GEHÄUSE
  6
Continuous
 62
     7
100
AcDbCircle
 10
187.2485112731
 20
144.1217915602
 30
0.0
 40
2.538626313246022
100
AcDbArc
 50
271.0729224291
 51
274.3954006677
  0
LINE
  5
1B4
330
152
100
AcDbEntity
  8
4220149_GEHÄUSE
  6
Continuous
 62
     7
100
AcDbLine
 10
190.8967049873
 20
138.8878945605
 30
0.0
 11
190.8967049873
 21
138.633383055
 31
0.0
  0
LINE
  5
1B5
330
152
100
AcDbEntity
  8
4220149_GEHÄUSE
  6
Continuous
 62
     7
100
AcDbLine
 10
190.8967049873
 20
137.7478801083
 30
0.0
 11
190.8967049873
 21
137.4933686028
 31
0.0
  0
LINE
  5
1B6
330
152
100
AcDbEntity
  8
4220149_GEHÄUSE
  6
Continuous
 62
     7
100
AcDbLine
 10
184.0967049873
 20
137.4933686028
 30
0.0
 11
184.0967049873
 21
137.7478801083
 31
0.0
  0
LINE
  5
1B7
330
152
100
AcDbEntity
  8
4220149_GEHÄUSE
  6
Continuous
 62
     7
100
AcDbLine
 10
184.0967049873
 20
138.633383055
 30
0.0
 11
184.0967049873
 21
138.8878945605
 31
0.0
  0
CIRCLE
  5
1B8
330
152
100
AcDbEntity
  8
$DDT_AUDIT_GENERATED_(87)
  6
Continuous
 62
     7
100
AcDbCircle
 10
187.4967049873
 20
138.1906315817
 30
0.0
 40
10.6
  0
CIRCLE
  5
1B9
330
152
100
AcDbEntity
  8
$DDT_AUDIT_GENERATED_(87)
  6
Continuous
 62
     7
100
AcDbCircle
 10
187.4967049873
 20
138.1906315817
 30
0.0
 40
9.3155
  0
CIRCLE
  5
1BA
330
152
100
AcDbEntity
  8
$DDT_AUDIT_GENERATED_(87)
  6
Continuous
 62
     7
100
AcDbCircle
 10
187.4967049873
 20
138.1906315817
 30
0.0
 40
10.3155
  0
CIRCLE
  5
1BB
330
152
100
AcDbEntity
  8
$DDT_AUDIT_GENERATED_(87)
  6
Continuous
 62
     7
100
AcDbCircle
 10
187.4967049873
 20
138.1906315817
 30
0.0
 40
13.5
  0
ARC
  5
1BC
330
152
100
AcDbEntity
  8
$DDT_AUDIT_GENERATED_(87)
  6
Continuous
 62
     7
100
AcDbCircle
 10
187.4967049873
 20
138.1906315817
 30
0.0
 40
10.4775
100
AcDbArc
 50
255.0
 51
195.0
  0
LINE
  5
1BE
330
152
100
AcDbEntity
  8
$DDT_AUDIT_GENERATED_(1BD)
  6
Continuous
 62
     7
100
AcDbLine
 10
187.6967049873
 20
140.1887035181
 30
0.0
 11
187.6311312456
 21
139.8168163489
 31
0.0
  0
LINE
  5
1BF
330
152
100
AcDbEntity
  8
$DDT_AUDIT_GENERATED_(1BD)
  6
Continuous
 62
     7
100
AcDbLine
 10
187.6967049873
 20
140.7502581756
 30
0.0
 11
187.6967049873
 21
142.7460610698
 31
0.0
  0
LINE
  5
1C0
330
152
100
AcDbEntity
  8
$DDT_AUDIT_GENERATED_(1BD)
  6
Continuous
 62
     7
100
AcDbLine
 10
187.6967049873
 20
142.7460610698
 30
0.0
 11
187.6967049873
 21
143.2429302053
 31
0.0
  0
LINE
  5
1C1
330
152
100
AcDbEntity
  8
$DDT_AUDIT_GENERATED_(1BD)
  6
Continuous
 62
     7
100
AcDbLine
 10
187.6967049873
 20
140.7502581756
 30
0.0
 11
187.6967049873
 21
140.1887035181
 31
0.0
  0
LINE
  5
1C2
330
152
100
AcDbEntity
  8
$DDT_AUDIT_GENERATED_(1BD)
  6
Continuous
 62
     7
100
AcDbLine
 10
187.2967049873
 20
140.1887035181
 30
0.0
 11
187.2967049873
 21
140.7502581756
 31
0.0
  0
LINE
  5
1C3
330
152
100
AcDbEntity
  8
$DDT_AUDIT_GENERATED_(1BD)
  6
Continuous
 62
     7
100
AcDbLine
 10
187.2967049873
 20
142.7460610698
 30
0.0
 11
187.2967049873
 21
140.7502581756
 31
0.0
  0
LINE
  5
1C4
330
152
100
AcDbEntity
  8
$DDT_AUDIT_GENERATED_(1BD)
  6
Continuous
 62
     7
100
AcDbLine
 10
187.362278729
 20
139.8168163489
 30
0.0
 11
187.2967049873
 21
140.1887035181
 31
0.0
  0
ARC
  5
1C5
330
152
100
AcDbEntity
  8
$DDT_AUDIT_GENERATED_(1BD)
  6
Continuous
 62
     7
100
AcDbCircle
 10
187.4967049873
 20
139.8405193251
 30
0.0
 40
0.1365
100
AcDbArc
 50
190.0
 51
350.0
  0
LINE
  5
1C6
330
152
100
AcDbEntity
  8
$DDT_AUDIT_GENERATED_(1BD)
  6
Continuous
 62
     7
100
AcDbLine
 10
187.2967049873
 20
143.2429302053
 30
0.0
 11
187.2967049873
 21
142.7460610698
 31
0.0
  0
ARC
  5
1C7
330
152
100
AcDbEntity
  8
$DDT_AUDIT_GENERATED_(1BD)
  6
Continuous
 62
     7
100
AcDbCircle
 10
187.4967049873
 20
142.3075061726
 30
0.0
 40
0.9565657954198048
100
AcDbArc
 50
77.9314817075
 51
102.0685182925
  0
ARC
  5
1C8
330
152
100
AcDbEntity
  8
$DDT_AUDIT_GENERATED_(1BD)
  6
Continuous
 62
     7
100
AcDbCircle
 10
187.4967049873
 20
141.7273074895
 30
0.0
 40
0.9344490863226753
100
AcDbArc
 50
77.6413828909
 51
102.3586171091
  0
LINE
  5
1C9
330
152
100
AcDbEntity
  8
$DDT_AUDIT_GENERATED_(1BD)
  6
Continuous
 62
     7
100
AcDbLine
 10
188.3680243615
 20
139.9998010074
 30
0.0
 11
188.1792122974
 21
139.6727689193
 31
0.0
  0
LINE
  5
1CA
330
152
100
AcDbEntity
  8
$DDT_AUDIT_GENERATED_(1BD)
  6
Continuous
 62
     7
100
AcDbLine
 10
188.560087366
 20
140.5274897753
 30
0.0
 11
189.2426921579
 21
142.4029310275
 31
0.0
  0
LINE
  5
1CB
330
152
100
AcDbEntity
  8
$DDT_AUDIT_GENERATED_(1BD)
  6
Continuous
 62
     7
100
AcDbLine
 10
189.2426921579
 20
142.4029310275
 30
0.0
 11
189.4126314108
 21
142.8698352877
 31
0.0
  0
LINE
  5
1CC
330
152
100
AcDbEntity
  8
$DDT_AUDIT_GENERATED_(1BD)
  6
Continuous
 62
     7
100
AcDbLine
 10
188.560087366
 20
140.5274897753
 30
0.0
 11
188.3680243615
 21
139.9998010074
 31
0.0
  0
LINE
  5
1CD
330
152
100
AcDbEntity
  8
$DDT_AUDIT_GENERATED_(1BD)
  6
Continuous
 62
     7
100
AcDbLine
 10
187.9921473132
 20
140.1366090648
 30
0.0
 11
188.1842103176
 21
140.6642978326
 31
0.0
  0
LINE
  5
1CE
330
152
100
AcDbEntity
  8
$DDT_AUDIT_GENERATED_(1BD)
  6
Continuous
 62
     7
100
AcDbLine
 10
188.8668151096
 20
142.5397390849
 30
0.0
 11
188.1842103176
 21
140.6642978326
 31
0.0
  0
LINE
  5
1CF
330
152
100
AcDbEntity
  8
$DDT_AUDIT_GENERATED_(1BD)
  6
Continuous
 62
     7
100
AcDbLine
 10
187.9265735715
 20
139.7647218956
 30
0.0
 11
187.9921473132
 21
140.1366090648
 31
0.0
  0
ARC
  5
1D0
330
152
100
AcDbEntity
  8
$DDT_AUDIT_GENERATED_(1BD)
  6
Continuous
 62
     7
100
AcDbCircle
 10
188.0609998298
 20
139.7410189193
 30
0.0
 40
0.1365
100
AcDbArc
 50
170.0
 51
330.0
  0
LINE
  5
1D1
330
152
100
AcDbEntity
  8
$DDT_AUDIT_GENERATED_(1BD)
  6
Continuous
 62
     7
100
AcDbLine
 10
189.0367543625
 20
143.006643345
 30
0.0
 11
188.8668151096
 21
142.5397390849
 31
0.0
  0
ARC
  5
1D2
330
152
100
AcDbEntity
  8
$DDT_AUDIT_GENERATED_(1BD)
  6
Continuous
 62
     7
100
AcDbCircle
 10
188.9047590249
 20
142.0592282555
 30
0.0
 40
0.9565657954197955
100
AcDbArc
 50
57.9314817075
 51
82.0685182925
  0
ARC
  5
1D3
330
152
100
AcDbEntity
  8
$DDT_AUDIT_GENERATED_(1BD)
  6
Continuous
 62
     7
100
AcDbCircle
 10
188.7063193882
 20
141.5140198344
 30
0.0
 40
0.9344490863226467
100
AcDbArc
 50
57.6413828909
 51
82.3586171091
  0
LINE
  5
1D4
330
152
100
AcDbEntity
  8
$DDT_AUDIT_GENERATED_(1BD)
  6
Continuous
 62
     7
100
AcDbLine
 10
188.9342497599
 20
139.5926859636
 30
0.0
 11
188.6449728949
 21
139.3499538528
 31
0.0
  0
LINE
  5
1D5
330
152
100
AcDbEntity
  8
$DDT_AUDIT_GENERATED_(1BD)
  6
Continuous
 62
     7
100
AcDbLine
 10
189.2952101359
 20
140.0228617885
 30
0.0
 11
190.5780875077
 21
141.5517355052
 31
0.0
  0
LINE
  5
1D6
330
152
100
AcDbEntity
  8
$DDT_AUDIT_GENERATED_(1BD)
  6
Continuous
 62
     7
100
AcDbLine
 10
190.5780875077
 20
141.5517355052
 30
0.0
 11
190.8974688316
 21
141.9323593454
 31
0.0
  0
LINE
  5
1D7
330
152
100
AcDbEntity
  8
$DDT_AUDIT_GENERATED_(1BD)
  6
Continuous
 62
     7
100
AcDbLine
 10
189.2952101359
 20
140.0228617885
 30
0.0
 11
188.9342497599
 21
139.5926859636
 31
0.0
  0
LINE
  5
1D8
330
152
100
AcDbEntity
  8
$DDT_AUDIT_GENERATED_(1BD)
  6
Continuous
 62
     7
100
AcDbLine
 10
188.6278319826
 20
139.8498010074
 30
0.0
 11
188.9887923587
 21
140.2799768324
 31
0.0
  0
LINE
  5
1D9
330
152
100
AcDbEntity
  8
$DDT_AUDIT_GENERATED_(1BD)
  6
Continuous
 62
     7
100
AcDbLine
 10
190.2716697304
 20
141.808850549
 30
0.0
 11
188.9887923587
 21
140.2799768324
 31
0.0
  0
LINE
  5
1DA
330
152
100
AcDbEntity
  8
$DDT_AUDIT_GENERATED_(1BD)
  6
Continuous
 62
     7
100
AcDbLine
 10
188.4390199185
 20
139.5227689193
 30
0.0
 11
188.6278319826
 21
139.8498010074
 31
0.0
  0
ARC
  5
1DB
330
152
100
AcDbEntity
  8
$DDT_AUDIT_GENERATED_(1BD)
  6
Continuous
 62
     7
100
AcDbCircle
 10
188.5572323861
 20
139.4545189193
 30
0.0
 40
0.1365000000000002
100
AcDbArc
 50
150.0
 51
310.0
  0
LINE
  5
1DC
330
152
100
AcDbEntity
  8
$DDT_AUDIT_GENERATED_(1BD)
  6
Continuous
 62
     7
100
AcDbLine
 10
190.5910510544
 20
142.1894743892
 30
0.0
 11
190.2716697304
 21
141.808850549
 31
0.0
  0
ARC
  5
1DD
330
152
100
AcDbEntity
  8
$DDT_AUDIT_GENERATED_(1BD)
  6
Continuous
 62
     7
100
AcDbCircle
 10
190.142980965
 20
141.3443404851
 30
0.0
 40
0.9565657954197979
100
AcDbArc
 50
37.9314817075
 51
62.0685182925
  0
ARC
  5
1DE
330
152
100
AcDbEntity
  8
$DDT_AUDIT_GENERATED_(1BD)
  6
Continuous
 62
     7
100
AcDbCircle
 10
189.7700364403
 20
140.899882508
 30
0.0
 40
0.9344490863226638
100
AcDbArc
 50
37.6413828909
 51
62.3586171091
  0
LINE
  5
1DF
330
152
100
AcDbEntity
  8
$DDT_AUDIT_GENERATED_(1BD)
  6
Continuous
 62
     7
100
AcDbLine
 10
189.3270860428
 20
139.0164624691
 30
0.0
 11
188.972235436
 21
138.8873074107
 31
0.0
  0
LINE
  5
1E0
330
152
100
AcDbEntity
  8
$DDT_AUDIT_GENERATED_(1BD)
  6
Continuous
 62
     7
100
AcDbLine
 10
189.8134066418
 20
139.2972397979
 30
0.0
 11
191.5418226492
 21
140.295141245
 31
0.0
  0
LINE
  5
1E1
330
152
100
AcDbEntity
  8
$DDT_AUDIT_GENERATED_(1BD)
  6
Continuous
 62
     7
100
AcDbLine
 10
191.5418226492
 20
140.295141245
 30
0.0
 11
191.9721239429
 21
140.5435758128
 31
0.0
  0
LINE
  5
1E2
330
152
100
AcDbEntity
  8
$DDT_AUDIT_GENERATED_(1BD)
  6
Continuous
 62
     7
100
AcDbLine
 10
189.8134066418
 20
139.2972397979
 30
0.0
 11
189.3270860428
 21
139.0164624691
 31
0.0
  0
LINE
  5
1E3
330
152
100
AcDbEntity
  8
$DDT_AUDIT_GENERATED_(1BD)
  6
Continuous
 62
     7
100
AcDbLine
 10
189.1270860428
 20
139.3628726306
 30
0.0
 11
189.6134066418
 21
139.6436499594
 31
0.0
  0
LINE
  5
1E4
330
152
100
AcDbEntity
  8
$DDT_AUDIT_GENERATED_(1BD)
  6
Continuous
 62
     7
100
AcDbLine
 10
191.3418226492
 20
140.6415514065
 30
0.0
 11
189.6134066418
 21
139.6436499594
 31
0.0
  0
LINE
  5
1E5
330
152
100
AcDbEntity
  8
$DDT_AUDIT_GENERATED_(1BD)
  6
Continuous
 62
     7
100
AcDbLine
 10
188.8378091778
 20
139.1201405199
 30
0.0
 11
189.1270860428
 21
139.3628726306
 31
0.0
  0
ARC
  5
1E6
330
152
100
AcDbEntity
  8
$DDT_AUDIT_GENERATED_(1BD)
  6
Continuous
 62
     7
100
AcDbCircle
 10
188.9255496865
 20
139.0155754534
 30
0.0
 40
0.1365000000000001
100
AcDbArc
 50
130.0
 51
290.0
  0
LINE
  5
1E7
330
152
100
AcDbEntity
  8
$DDT_AUDIT_GENERATED_(1BD)
  6
Continuous
 62
     7
100
AcDbLine
 10
191.7721239429
 20
140.8899859743
 30
0.0
 11
191.3418226492
 21
140.6415514065
 31
0.0
  0
ARC
  5
1E8
330
152
100
AcDbEntity
  8
$DDT_AUDIT_GENERATED_(1BD)
  6
Continuous
 62
     7
100
AcDbCircle
 10
191.0620229672
 20
140.2490688772
 30
0.0
 40
0.9565657954198284
100
AcDbArc
 50
17.9314817075
 51
42.0685182925
  0
ARC
  5
1E9
330
152
100
AcDbEntity
  8
$DDT_AUDIT_GENERATED_(1BD)
  6
Continuous
 62
     7
100
AcDbCircle
 10
190.5595561684
 20
139.9589695356
 30
0.0
 40
0.9344490863226786
100
AcDbArc
 50
17.6413828909
 51
42.3586171091
  0
LINE
  5
1EA
330
152
100
AcDbEntity
  8
$DDT_AUDIT_GENERATED_(1BD)
  6
Continuous
 62
     7
100
AcDbLine
 10
189.4991513569
 20
138.3406315817
 30
0.0
 11
189.1215272286
 21
138.3406315817
 31
0.0
  0
LINE
  5
1EB
330
152
100
AcDbEntity
  8
$DDT_AUDIT_GENERATED_(1BD)
  6
Continuous
 62
     7
100
AcDbLine
 10
190.0521747373
 20
138.4381445246
 30
0.0
 11
192.017656901
 21
138.7847120602
 31
0.0
  0
LINE
  5
1EC
330
152
100
AcDbEntity
  8
$DDT_AUDIT_GENERATED_(1BD)
  6
Continuous
 62
     7
100
AcDbLine
 10
192.017656901
 20
138.7847120602
 30
0.0
 11
192.5069774779
 21
138.8709924801
 31
0.0
  0
LINE
  5
1ED
330
152
100
AcDbEntity
  8
$DDT_AUDIT_GENERATED_(1BD)
  6
Continuous
 62
     7
100
AcDbLine
 10
190.0521747373
 20
138.4381445246
 30
0.0
 11
189.4991513569
 21
138.3406315817
 31
0.0
  0
LINE
  5
1EE
330
152
100
AcDbEntity
  8
$DDT_AUDIT_GENERATED_(1BD)
  6
Continuous
 62
     7
100
AcDbLine
 10
189.4296920858
 20
138.7345546829
 30
0.0
 11
189.9827154663
 21
138.8320676258
 31
0.0
  0
LINE
  5
1EF
330
152
100
AcDbEntity
  8
$DDT_AUDIT_GENERATED_(1BD)
  6
Continuous
 62
     7
100
AcDbLine
 10
191.94819763
 20
139.1786351614
 30
0.0
 11
189.9827154663
 21
138.8320676258
 31
0.0
  0
LINE
  5
1F0
330
152
100
AcDbEntity
  8
$DDT_AUDIT_GENERATED_(1BD)
  6
Continuous
 62
     7
100
AcDbLine
 10
189.074841479
 20
138.6053996244
 30
0.0
 11
189.4296920858
 21
138.7345546829
 31
0.0
  0
ARC
  5
1F1
330
152
100
AcDbEntity
  8
$DDT_AUDIT_GENERATED_(1BD)
  6
Continuous
 62
     7
100
AcDbCircle
 10
189.1215272286
 20
138.4771315817
 30
0.0
 40
0.1365
100
AcDbArc
 50
110.0
 51
270.0
  0
LINE
  5
1F2
330
152
100
AcDbEntity
  8
$DDT_AUDIT_GENERATED_(1BD)
  6
Continuous
 62
     7
100
AcDbLine
 10
192.4375182069
 20
139.2649155813
 30
0.0
 11
191.94819763
 21
139.1786351614
 31
0.0
  0
ARC
  5
1F3
330
152
100
AcDbEntity
  8
$DDT_AUDIT_GENERATED_(1BD)
  6
Continuous
 62
     7
100
AcDbCircle
 10
191.5510350026
 20
138.9055193521
 30
0.0
 40
0.9565657954198333
100
AcDbArc
 50
357.9314817075
 51
22.0685182925
  0
ARC
  5
1F4
330
152
100
AcDbEntity
  8
$DDT_AUDIT_GENERATED_(1BD)
  6
Continuous
 62
     7
100
AcDbCircle
 10
190.9796508412
 20
138.8047689081
 30
0.0
 40
0.934449086322689
100
AcDbArc
 50
357.6413828909
 51
22.3586171091
  0
LINE
  5
1F5
330
152
100
AcDbEntity
  8
$DDT_AUDIT_GENERATED_(1BD)
  6
Continuous
 62
     7
100
AcDbLine
 10
189.4296920858
 20
137.6467084805
 30
0.0
 11
189.074841479
 21
137.7758635389
 31
0.0
  0
LINE
  5
1F6
330
152
100
AcDbEntity
  8
$DDT_AUDIT_GENERATED_(1BD)
  6
Continuous
 62
     7
100
AcDbLine
 10
189.9827154663
 20
137.5491955375
 30
0.0
 11
191.94819763
 21
137.202628002
 31
0.0
  0
LINE
  5
1F7
330
152
100
AcDbEntity
  8
$DDT_AUDIT_GENERATED_(1BD)
  6
Continuous
 62
     7
100
AcDbLine
 10
191.94819763
 20
137.202628002
 30
0.0
 11
192.4375182069
 21
137.1163475821
 31
0.0
  0
LINE
  5
1F8
330
152
100
AcDbEntity
  8
$DDT_AUDIT_GENERATED_(1BD)
  6
Continuous
 62
     7
100
AcDbLine
 10
189.9827154663
 20
137.5491955375
 30
0.0
 11
189.4296920858
 21
137.6467084805
 31
0.0
  0
LINE
  5
1F9
330
152
100
AcDbEntity
  8
$DDT_AUDIT_GENERATED_(1BD)
  6
Continuous
 62
     7
100
AcDbLine
 10
189.4991513569
 20
138.0406315817
 30
0.0
 11
190.0521747373
 21
137.9431186387
 31
0.0
  0
LINE
  5
1FA
330
152
100
AcDbEntity
  8
$DDT_AUDIT_GENERATED_(1BD)
  6
Continuous
 62
     7
100
AcDbLine
 10
192.017656901
 20
137.5965511032
 30
0.0
 11
190.0521747373
 21
137.9431186387
 31
0.0
  0
LINE
  5
1FB
330
152
100
AcDbEntity
  8
$DDT_AUDIT_GENERATED_(1BD)
  6
Continuous
 62
     7
100
AcDbLine
 10
189.1215272286
 20
138.0406315817
 30
0.0
 11
189.4991513569
 21
138.0406315817
 31
0.0
  0
ARC
  5
1FC
330
152
100
AcDbEntity
  8
$DDT_AUDIT_GENERATED_(1BD)
  6
Continuous
 62
     7
100
AcDbCircle
 10
189.1215272286
 20
137.9041315817
 30
0.0
 40
0.1365
100
AcDbArc
 50
90.0
 51
250.0
  0
LINE
  5
1FD
330
152
100
AcDbEntity
  8
$DDT_AUDIT_GENERATED_(1BD)
  6
Continuous
 62
     7
100
AcDbLine
 10
192.5069774779
 20
137.5102706833
 30
0.0
 11
192.017656901
 21
137.5965511032
 31
0.0
  0
ARC
  5
1FE
330
152
100
AcDbEntity
  8
$DDT_AUDIT_GENERATED_(1BD)
  6
Continuous
 62
     7
100
AcDbCircle
 10
191.5510350026
 20
137.4757438113
 30
0.0
 40
0.9565657954198239
100
AcDbArc
 50
337.9314817075
 51
2.0685182925
  0
ARC
  5
1FF
330
152
100
AcDbEntity
  8
$DDT_AUDIT_GENERATED_(1BD)
  6
Continuous
 62
     7
100
AcDbCircle
 10
190.9796508412
 20
137.5764942553
 30
0.0
 40
0.9344490863226873
100
AcDbArc
 50
337.6413828909
 51
2.3586171091
  0
LINE
  5
200
330
152
100
AcDbEntity
  8
$DDT_AUDIT_GENERATED_(1BD)
  6
Continuous
 62
     7
100
AcDbLine
 10
189.1270860428
 20
137.0183905327
 30
0.0
 11
188.8378091778
 21
137.2611226435
 31
0.0
  0
LINE
  5
201
330
152
100
AcDbEntity
  8
$DDT_AUDIT_GENERATED_(1BD)
  6
Continuous
 62
     7
100
AcDbLine
 10
189.6134066418
 20
136.737613204
 30
0.0
 11
191.3418226492
 21
135.7397117569
 31
0.0
  0
LINE
  5
202
330
152
100
AcDbEntity
  8
$DDT_AUDIT_GENERATED_(1BD)
  6
Continuous
 62
     7
100
AcDbLine
 10
191.3418226492
 20
135.7397117569
 30
0.0
 11
191.7721239429
 21
135.4912771891
 31
0.0
  0
LINE
  5
203
330
152
100
AcDbEntity
  8
$DDT_AUDIT_GENERATED_(1BD)
  6
Continuous
 62
     7
100
AcDbLine
 10
189.6134066418
 20
136.737613204
 30
0.0
 11
189.1270860428
 21
137.0183905327
 31
0.0
  0
LINE
  5
204
330
152
100
AcDbEntity
  8
$DDT_AUDIT_GENERATED_(1BD)
  6
Continuous
 62
     7
100
AcDbLine
 10
189.3270860428
 20
137.3648006942
 30
0.0
 11
189.8134066418
 21
137.0840233655
 31
0.0
  0
LINE
  5
205
330
152
100
AcDbEntity
  8
$DDT_AUDIT_GENERATED_(1BD)
  6
Continuous
 62
     7
100
AcDbLine
 10
191.5418226492
 20
136.0861219184
 30
0.0
 11
189.8134066418
 21
137.0840233655
 31
0.0
  0
LINE
  5
206
330
152
100
AcDbEntity
  8
$DDT_AUDIT_GENERATED_(1BD)
  6
Continuous
 62
     7
100
AcDbLine
 10
188.972235436
 20
137.4939557527
 30
0.0
 11
189.3270860428
 21
137.3648006942
 31
0.0
  0
ARC
  5
207
330
152
100
AcDbEntity
  8
$DDT_AUDIT_GENERATED_(1BD)
  6
Continuous
 62
     7
100
AcDbCircle
 10
188.9255496865
 20
137.36568771
 30
0.0
 40
0.1365
100
AcDbArc
 50
70.0
 51
230.0
  0
LINE
  5
208
330
152
100
AcDbEntity
  8
$DDT_AUDIT_GENERATED_(1BD)
  6
Continuous
 62
     7
100
AcDbLine
 10
191.9721239429
 20
135.8376873506
 30
0.0
 11
191.5418226492
 21
136.0861219184
 31
0.0
  0
ARC
  5
209
330
152
100
AcDbEntity
  8
$DDT_AUDIT_GENERATED_(1BD)
  6
Continuous
 62
     7
100
AcDbCircle
 10
191.0620229672
 20
136.1321942862
 30
0.0
 40
0.9565657954198111
100
AcDbArc
 50
317.9314817075
 51
342.0685182925
  0
ARC
  5
20A
330
152
100
AcDbEntity
  8
$DDT_AUDIT_GENERATED_(1BD)
  6
Continuous
 62
     7
100
AcDbCircle
 10
190.5595561684
 20
136.4222936278
 30
0.0
 40
0.9344490863226703
100
AcDbArc
 50
317.6413828909
 51
342.3586171091
  0
LINE
  5
20B
330
152
100
AcDbEntity
  8
$DDT_AUDIT_GENERATED_(1BD)
  6
Continuous
 62
     7
100
AcDbLine
 10
188.6278319826
 20
136.5314621559
 30
0.0
 11
188.4390199185
 21
136.8584942441
 31
0.0
  0
LINE
  5
20C
330
152
100
AcDbEntity
  8
$DDT_AUDIT_GENERATED_(1BD)
  6
Continuous
 62
     7
100
AcDbLine
 10
188.9887923587
 20
136.101286331
 30
0.0
 11
190.2716697304
 21
134.5724126143
 31
0.0
  0
LINE
  5
20D
330
152
100
AcDbEntity
  8
$DDT_AUDIT_GENERATED_(1BD)
  6
Continuous
 62
     7
100
AcDbLine
 10
190.2716697304
 20
134.5724126143
 30
0.0
 11
190.5910510544
 21
134.1917887741
 31
0.0
  0
LINE
  5
20E
330
152
100
AcDbEntity
  8
$DDT_AUDIT_GENERATED_(1BD)
  6
Continuous
 62
     7
100
AcDbLine
 10
188.9887923587
 20
136.101286331
 30
0.0
 11
188.6278319826
 21
136.5314621559
 31
0.0
  0
LINE
  5
20F
330
152
100
AcDbEntity
  8
$DDT_AUDIT_GENERATED_(1BD)
  6
Continuous
 62
     7
100
AcDbLine
 10
188.9342497599
 20
136.7885771998
 30
0.0
 11
189.2952101359
 21
136.3584013749
 31
0.0
  0
LINE
  5
210
330
152
100
AcDbEntity
  8
$DDT_AUDIT_GENERATED_(1BD)
  6
Continuous
 62
     7
100
AcDbLine
 10
190.5780875077
 20
134.8295276582
 30
0.0
 11
189.2952101359
 21
136.3584013749
 31
0.0
  0
LINE
  5
211
330
152
100
AcDbEntity
  8
$DDT_AUDIT_GENERATED_(1BD)
  6
Continuous
 62
     7
100
AcDbLine
 10
188.6449728949
 20
137.0313093106
 30
0.0
 11
188.9342497599
 21
136.7885771998
 31
0.0
  0
ARC
  5
212
330
152
100
AcDbEntity
  8
$DDT_AUDIT_GENERATED_(1BD)
  6
Continuous
 62
     7
100
AcDbCircle
 10
188.5572323861
 20
136.9267442441
 30
0.0
 40
0.1364999999999998
100
AcDbArc
 50
50.0
 51
210.0
  0
LINE
  5
213
330
152
100
AcDbEntity
  8
$DDT_AUDIT_GENERATED_(1BD)
  6
Continuous
 62
     7
100
AcDbLine
 10
190.8974688316
 20
134.448903818
 30
0.0
 11
190.5780875077
 21
134.8295276582
 31
0.0
  0
ARC
  5
214
330
152
100
AcDbEntity
  8
$DDT_AUDIT_GENERATED_(1BD)
  6
Continuous
 62
     7
100
AcDbCircle
 10
190.142980965
 20
135.0369226783
 30
0.0
 40
0.9565657954198209
100
AcDbArc
 50
297.9314817075
 51
322.0685182925
  0
ARC
  5
215
330
152
100
AcDbEntity
  8
$DDT_AUDIT_GENERATED_(1BD)
  6
Continuous
 62
     7
100
AcDbCircle
 10
189.7700364403
 20
135.4813806554
 30
0.0
 40
0.9344490863226851
100
AcDbArc
 50
297.6413828909
 51
322.3586171091
  0
LINE
  5
216
330
152
100
AcDbEntity
  8
$DDT_AUDIT_GENERATED_(1BD)
  6
Continuous
 62
     7
100
AcDbLine
 10
187.9921473132
 20
136.2446540986
 30
0.0
 11
187.9265735715
 21
136.6165412678
 31
0.0
  0
LINE
  5
217
330
152
100
AcDbEntity
  8
$DDT_AUDIT_GENERATED_(1BD)
  6
Continuous
 62
     7
100
AcDbLine
 10
188.1842103176
 20
135.7169653307
 30
0.0
 11
188.8668151096
 21
133.8415240785
 31
0.0
  0
LINE
  5
218
330
152
100
AcDbEntity
  8
$DDT_AUDIT_GENERATED_(1BD)
  6
Continuous
 62
     7
100
AcDbLine
 10
188.8668151096
 20
133.8415240785
 30
0.0
 11
189.0367543625
 21
133.3746198184
 31
0.0
  0
LINE
  5
219
330
152
100
AcDbEntity
  8
$DDT_AUDIT_GENERATED_(1BD)
  6
Continuous
 62
     7
100
AcDbLine
 10
188.1842103176
 20
135.7169653307
 30
0.0
 11
187.9921473132
 21
136.2446540986
 31
0.0
  0
LINE
  5
21A
330
152
100
AcDbEntity
  8
$DDT_AUDIT_GENERATED_(1BD)
  6
Continuous
 62
     7
100
AcDbLine
 10
188.3680243615
 20
136.3814621559
 30
0.0
 11
188.560087366
 21
135.8537733881
 31
0.0
  0
LINE
  5
21B
330
152
100
AcDbEntity
  8
$DDT_AUDIT_GENERATED_(1BD)
  6
Continuous
 62
     7
100
AcDbLine
 10
189.2426921579
 20
133.9783321358
 30
0.0
 11
188.560087366
 21
135.8537733881
 31
0.0
  0
LINE
  5
21C
330
152
100
AcDbEntity
  8
$DDT_AUDIT_GENERATED_(1BD)
  6
Continuous
 62
     7
100
AcDbLine
 10
188.1792122974
 20
136.7084942441
 30
0.0
 11
188.3680243615
 21
136.3814621559
 31
0.0
  0
ARC
  5
21D
330
152
100
AcDbEntity
  8
$DDT_AUDIT_GENERATED_(1BD)
  6
Continuous
 62
     7
100
AcDbCircle
 10
188.0609998298
 20
136.6402442441
 30
0.0
 40
0.1365
100
AcDbArc
 50
30.0
 51
190.0
  0
LINE
  5
21E
330
152
100
AcDbEntity
  8
$DDT_AUDIT_GENERATED_(1BD)
  6
Continuous
 62
     7
100
AcDbLine
 10
189.4126314108
 20
133.5114278757
 30
0.0
 11
189.2426921579
 21
133.9783321358
 31
0.0
  0
ARC
  5
21F
330
152
100
AcDbEntity
  8
$DDT_AUDIT_GENERATED_(1BD)
  6
Continuous
 62
     7
100
AcDbCircle
 10
188.9047590249
 20
134.3220349079
 30
0.0
 40
0.9565657954197716
100
AcDbArc
 50
277.9314817075
 51
302.0685182925
  0
ARC
  5
220
330
152
100
AcDbEntity
  8
$DDT_AUDIT_GENERATED_(1BD)
  6
Continuous
 62
     7
100
AcDbCircle
 10
188.7063193882
 20
134.867243329
 30
0.0
 40
0.9344490863226574
100
AcDbArc
 50
277.6413828909
 51
302.3586171091
  0
LINE
  5
221
330
152
100
AcDbEntity
  8
$DDT_AUDIT_GENERATED_(1BD)
  6
Continuous
 62
     7
100
AcDbLine
 10
187.2967049873
 20
136.1925596453
 30
0.0
 11
187.362278729
 21
136.5644468145
 31
0.0
  0
LINE
  5
222
330
152
100
AcDbEntity
  8
$DDT_AUDIT_GENERATED_(1BD)
  6
Continuous
 62
     7
100
AcDbLine
 10
187.2967049873
 20
135.6310049878
 30
0.0
 11
187.2967049873
 21
133.6352020935
 31
0.0
  0
LINE
  5
223
330
152
100
AcDbEntity
  8
$DDT_AUDIT_GENERATED_(1BD)
  6
Continuous
 62
     7
100
AcDbLine
 10
187.2967049873
 20
133.6352020935
 30
0.0
 11
187.2967049873
 21
133.138332958
 31
0.0
  0
LINE
  5
224
330
152
100
AcDbEntity
  8
$DDT_AUDIT_GENERATED_(1BD)
  6
Continuous
 62
     7
100
AcDbLine
 10
187.2967049873
 20
135.6310049878
 30
0.0
 11
187.2967049873
 21
136.1925596453
 31
0.0
  0
LINE
  5
225
330
152
100
AcDbEntity
  8
$DDT_AUDIT_GENERATED_(1BD)
  6
Continuous
 62
     7
100
AcDbLine
 10
187.6967049873
 20
136.1925596453
 30
0.0
 11
187.6967049873
 21
135.6310049878
 31
0.0
  0
LINE
  5
226
330
152
100
AcDbEntity
  8
$DDT_AUDIT_GENERATED_(1BD)
  6
Continuous
 62
     7
100
AcDbLine
 10
187.6967049873
 20
133.6352020935
 30
0.0
 11
187.6967049873
 21
135.6310049878
 31
0.0
  0
LINE
  5
227
330
152
100
AcDbEntity
  8
$DDT_AUDIT_GENERATED_(1BD)
  6
Continuous
 62
     7
100
AcDbLine
 10
187.6311312456
 20
136.5644468145
 30
0.0
 11
187.6967049873
 21
136.1925596453
 31
0.0
  0
ARC
  5
228
330
152
100
AcDbEntity
  8
$DDT_AUDIT_GENERATED_(1BD)
  6
Continuous
 62
     7
100
AcDbCircle
 10
187.4967049873
 20
136.5407438383
 30
0.0
 40
0.1365
100
AcDbArc
 50
10.0
 51
170.0
  0
LINE
  5
229
330
152
100
AcDbEntity
  8
$DDT_AUDIT_GENERATED_(1BD)
  6
Continuous
 62
     7
100
AcDbLine
 10
187.6967049873
 20
133.138332958
 30
0.0
 11
187.6967049873
 21
133.6352020935
 31
0.0
  0
ARC
  5
22A
330
152
100
AcDbEntity
  8
$DDT_AUDIT_GENERATED_(1BD)
  6
Continuous
 62
     7
100
AcDbCircle
 10
187.4967049873
 20
134.0737569907
 30
0.0
 40
0.9565657954198127
100
AcDbArc
 50
257.9314817075
 51
282.0685182925
  0
ARC
  5
22B
330
152
100
AcDbEntity
  8
$DDT_AUDIT_GENERATED_(1BD)
  6
Continuous
 62
     7
100
AcDbCircle
 10
187.4967049873
 20
134.6539556738
 30
0.0
 40
0.9344490863226742
100
AcDbArc
 50
257.6413828909
 51
282.3586171091
  0
LINE
  5
22C
330
152
100
AcDbEntity
  8
$DDT_AUDIT_GENERATED_(1BD)
  6
Continuous
 62
     7
100
AcDbLine
 10
186.6253856131
 20
136.3814621559
 30
0.0
 11
186.8141976772
 21
136.7084942441
 31
0.0
  0
LINE
  5
22D
330
152
100
AcDbEntity
  8
$DDT_AUDIT_GENERATED_(1BD)
  6
Continuous
 62
     7
100
AcDbLine
 10
186.4333226086
 20
135.8537733881
 30
0.0
 11
185.7507178167
 21
133.9783321358
 31
0.0
  0
LINE
  5
22E
330
152
100
AcDbEntity
  8
$DDT_AUDIT_GENERATED_(1BD)
  6
Continuous
 62
     7
100
AcDbLine
 10
185.7507178167
 20
133.9783321358
 30
0.0
 11
185.5807785637
 21
133.5114278757
 31
0.0
  0
LINE
  5
22F
330
152
100
AcDbEntity
  8
$DDT_AUDIT_GENERATED_(1BD)
  6
Continuous
 62
     7
100
AcDbLine
 10
186.4333226086
 20
135.8537733881
 30
0.0
 11
186.6253856131
 21
136.3814621559
 31
0.0
  0
LINE
  5
230
330
152
100
AcDbEntity
  8
$DDT_AUDIT_GENERATED_(1BD)
  6
Continuous
 62
     7
100
AcDbLine
 10
187.0012626614
 20
136.2446540986
 30
0.0
 11
186.8091996569
 21
135.7169653307
 31
0.0
  0
LINE
  5
231
330
152
100
AcDbEntity
  8
$DDT_AUDIT_GENERATED_(1BD)
  6
Continuous
 62
     7
100
AcDbLine
 10
186.126594865
 20
133.8415240785
 30
0.0
 11
186.8091996569
 21
135.7169653307
 31
0.0
  0
LINE
  5
232
330
152
100
AcDbEntity
  8
$DDT_AUDIT_GENERATED_(1BD)
  6
Continuous
 62
     7
100
AcDbLine
 10
187.0668364031
 20
136.6165412678
 30
0.0
 11
187.0012626614
 21
136.2446540986
 31
0.0
  0
ARC
  5
233
330
152
100
AcDbEntity
  8
$DDT_AUDIT_GENERATED_(1BD)
  6
Continuous
 62
     7
100
AcDbCircle
 10
186.9324101448
 20
136.6402442441
 30
0.0
 40
0.1364999999999999
100
AcDbArc
 50
350.0
 51
150.0
  0
LINE
  5
234
330
152
100
AcDbEntity
  8
$DDT_AUDIT_GENERATED_(1BD)
  6
Continuous
 62
     7
100
AcDbLine
 10
185.9566556121
 20
133.3746198184
 30
0.0
 11
186.126594865
 21
133.8415240785
 31
0.0
  0
ARC
  5
235
330
152
100
AcDbEntity
  8
$DDT_AUDIT_GENERATED_(1BD)
  6
Continuous
 62
     7
100
AcDbCircle
 10
186.0886509496
 20
134.3220349079
 30
0.0
 40
0.9565657954198109
100
AcDbArc
 50
237.9314817075
 51
262.0685182925
  0
ARC
  5
236
330
152
100
AcDbEntity
  8
$DDT_AUDIT_GENERATED_(1BD)
  6
Continuous
 62
     7
100
AcDbCircle
 10
186.2870905864
 20
134.867243329
 30
0.0
 40
0.9344490863227063
100
AcDbArc
 50
237.6413828909
 51
262.3586171091
  0
LINE
  5
237
330
152
100
AcDbEntity
  8
$DDT_AUDIT_GENERATED_(1BD)
  6
Continuous
 62
     7
100
AcDbLine
 10
186.0591602147
 20
136.7885771998
 30
0.0
 11
186.3484370797
 21
137.0313093106
 31
0.0
  0
LINE
  5
238
330
152
100
AcDbEntity
  8
$DDT_AUDIT_GENERATED_(1BD)
  6
Continuous
 62
     7
100
AcDbLine
 10
185.6981998387
 20
136.3584013749
 30
0.0
 11
184.4153224669
 21
134.8295276582
 31
0.0
  0
LINE
  5
239
330
152
100
AcDbEntity
  8
$DDT_AUDIT_GENERATED_(1BD)
  6
Continuous
 62
     7
100
AcDbLine
 10
184.4153224669
 20
134.8295276582
 30
0.0
 11
184.0959411429
 21
134.448903818
 31
0.0
  0
LINE
  5
23A
330
152
100
AcDbEntity
  8
$DDT_AUDIT_GENERATED_(1BD)
  6
Continuous
 62
     7
100
AcDbLine
 10
185.6981998387
 20
136.3584013749
 30
0.0
 11
186.0591602147
 21
136.7885771998
 31
0.0
  0
LINE
  5
23B
330
152
100
AcDbEntity
  8
$DDT_AUDIT_GENERATED_(1BD)
  6
Continuous
 62
     7
100
AcDbLine
 10
186.3655779919
 20
136.5314621559
 30
0.0
 11
186.0046176159
 21
136.101286331
 31
0.0
  0
LINE
  5
23C
330
152
100
AcDbEntity
  8
$DDT_AUDIT_GENERATED_(1BD)
  6
Continuous
 62
     7
100
AcDbLine
 10
184.7217402441
 20
134.5724126143
 30
0.0
 11
186.0046176159
 21
136.101286331
 31
0.0
  0
LINE
  5
23D
330
152
100
AcDbEntity
  8
$DDT_AUDIT_GENERATED_(1BD)
  6
Continuous
 62
     7
100
AcDbLine
 10
186.5543900561
 20
136.8584942441
 30
0.0
 11
186.3655779919
 21
136.5314621559
 31
0.0
  0
ARC
  5
23E
330
152
100
AcDbEntity
  8
$DDT_AUDIT_GENERATED_(1BD)
  6
Continuous
 62
     7
100
AcDbCircle
 10
186.4361775884
 20
136.9267442441
 30
0.0
 40
0.1364999999999999
100
AcDbArc
 50
330.0
 51
130.0
  0
LINE
  5
23F
330
152
100
AcDbEntity
  8
$DDT_AUDIT_GENERATED_(1BD)
  6
Continuous
 62
     7
100
AcDbLine
 10
184.4023589202
 20
134.1917887741
 30
0.0
 11
184.7217402441
 21
134.5724126143
 31
0.0
  0
ARC
  5
240
330
152
100
AcDbEntity
  8
$DDT_AUDIT_GENERATED_(1BD)
  6
Continuous
 62
     7
100
AcDbCircle
 10
184.8504290096
 20
135.0369226783
 30
0.0
 40
0.9565657954197977
100
AcDbArc
 50
217.9314817075
 51
242.0685182925
  0
ARC
  5
241
330
152
100
AcDbEntity
  8
$DDT_AUDIT_GENERATED_(1BD)
  6
Continuous
 62
     7
100
AcDbCircle
 10
185.2233735342
 20
135.4813806554
 30
0.0
 40
0.934449086322676
100
AcDbArc
 50
217.6413828909
 51
242.3586171091
  0
LINE
  5
242
330
152
100
AcDbEntity
  8
$DDT_AUDIT_GENERATED_(1BD)
  6
Continuous
 62
     7
100
AcDbLine
 10
185.6663239318
 20
137.3648006942
 30
0.0
 11
186.0211745385
 21
137.4939557527
 31
0.0
  0
LINE
  5
243
330
152
100
AcDbEntity
  8
$DDT_AUDIT_GENERATED_(1BD)
  6
Continuous
 62
     7
100
AcDbLine
 10
185.1800033327
 20
137.0840233655
 30
0.0
 11
183.4515873254
 21
136.0861219184
 31
0.0
  0
LINE
  5
244
330
152
100
AcDbEntity
  8
$DDT_AUDIT_GENERATED_(1BD)
  6
Continuous
 62
     7
100
AcDbLine
 10
183.4515873254
 20
136.0861219184
 30
0.0
 11
183.0212860317
 21
135.8376873506
 31
0.0
  0
LINE
  5
245
330
152
100
AcDbEntity
  8
$DDT_AUDIT_GENERATED_(1BD)
  6
Continuous
 62
     7
100
AcDbLine
 10
185.1800033327
 20
137.0840233655
 30
0.0
 11
185.6663239318
 21
137.3648006942
 31
0.0
  0
LINE
  5
246
330
152
100
AcDbEntity
  8
$DDT_AUDIT_GENERATED_(1BD)
  6
Continuous
 62
     7
100
AcDbLine
 10
185.8663239318
 20
137.0183905327
 30
0.0
 11
185.3800033327
 21
136.737613204
 31
0.0
  0
LINE
  5
247
330
152
100
AcDbEntity
  8
$DDT_AUDIT_GENERATED_(1BD)
  6
Continuous
 62
     7
100
AcDbLine
 10
183.6515873254
 20
135.7397117569
 30
0.0
 11
185.3800033327
 21
136.737613204
 31
0.0
  0
LINE
  5
248
330
152
100
AcDbEntity
  8
$DDT_AUDIT_GENERATED_(1BD)
  6
Continuous
 62
     7
100
AcDbLine
 10
186.1556007968
 20
137.2611226435
 30
0.0
 11
185.8663239318
 21
137.0183905327
 31
0.0
  0
ARC
  5
249
330
152
100
AcDbEntity
  8
$DDT_AUDIT_GENERATED_(1BD)
  6
Continuous
 62
     7
100
AcDbCircle
 10
186.0678602881
 20
137.36568771
 30
0.0
 40
0.1365000000000001
100
AcDbArc
 50
310.0
 51
110.0
  0
LINE
  5
24A
330
152
100
AcDbEntity
  8
$DDT_AUDIT_GENERATED_(1BD)
  6
Continuous
 62
     7
100
AcDbLine
 10
183.2212860317
 20
135.4912771891
 30
0.0
 11
183.6515873254
 21
135.7397117569
 31
0.0
  0
ARC
  5
24B
330
152
100
AcDbEntity
  8
$DDT_AUDIT_GENERATED_(1BD)
  6
Continuous
 62
     7
100
AcDbCircle
 10
183.9313870073
 20
136.1321942862
 30
0.0
 40
0.9565657954198271
100
AcDbArc
 50
197.9314817075
 51
222.0685182925
  0
ARC
  5
24C
330
152
100
AcDbEntity
  8
$DDT_AUDIT_GENERATED_(1BD)
  6
Continuous
 62
     7
100
AcDbCircle
 10
184.4338538061
 20
136.4222936278
 30
0.0
 40
0.9344490863226447
100
AcDbArc
 50
197.6413828909
 51
222.3586171091
  0
LINE
  5
24D
330
152
100
AcDbEntity
  8
$DDT_AUDIT_GENERATED_(1BD)
  6
Continuous
 62
     7
100
AcDbLine
 10
185.4942586177
 20
138.0406315817
 30
0.0
 11
185.871882746
 21
138.0406315817
 31
0.0
  0
LINE
  5
24E
330
152
100
AcDbEntity
  8
$DDT_AUDIT_GENERATED_(1BD)
  6
Continuous
 62
     7
100
AcDbLine
 10
184.9412352372
 20
137.9431186387
 30
0.0
 11
182.9757530735
 21
137.5965511032
 31
0.0
  0
LINE
  5
24F
330
152
100
AcDbEntity
  8
$DDT_AUDIT_GENERATED_(1BD)
  6
Continuous
 62
     7
100
AcDbLine
 10
182.9757530735
 20
137.5965511032
 30
0.0
 11
182.4864324966
 21
137.5102706833
 31
0.0
  0
LINE
  5
250
330
152
100
AcDbEntity
  8
$DDT_AUDIT_GENERATED_(1BD)
  6
Continuous
 62
     7
100
AcDbLine
 10
184.9412352372
 20
137.9431186387
 30
0.0
 11
185.4942586177
 21
138.0406315817
 31
0.0
  0
LINE
  5
251
330
152
100
AcDbEntity
  8
$DDT_AUDIT_GENERATED_(1BD)
  6
Continuous
 62
     7
100
AcDbLine
 10
185.5637178888
 20
137.6467084805
 30
0.0
 11
185.0106945083
 21
137.5491955375
 31
0.0
  0
LINE
  5
252
330
152
100
AcDbEntity
  8
$DDT_AUDIT_GENERATED_(1BD)
  6
Continuous
 62
     7
100
AcDbLine
 10
183.0452123446
 20
137.202628002
 30
0.0
 11
185.0106945083
 21
137.5491955375
 31
0.0
  0
LINE
  5
253
330
152
100
AcDbEntity
  8
$DDT_AUDIT_GENERATED_(1BD)
  6
Continuous
 62
     7
100
AcDbLine
 10
185.9185684955
 20
137.7758635389
 30
0.0
 11
185.5637178888
 21
137.6467084805
 31
0.0
  0
ARC
  5
254
330
152
100
AcDbEntity
  8
$DDT_AUDIT_GENERATED_(1BD)
  6
Continuous
 62
     7
100
AcDbCircle
 10
185.871882746
 20
137.9041315817
 30
0.0
 40
0.1364999999999999
100
AcDbArc
 50
290.0
 51
90.0
  0
LINE
  5
255
330
152
100
AcDbEntity
  8
$DDT_AUDIT_GENERATED_(1BD)
  6
Continuous
 62
     7
100
AcDbLine
 10
182.5558917677
 20
137.1163475821
 30
0.0
 11
183.0452123446
 21
137.202628002
 31
0.0
  0
ARC
  5
256
330
152
100
AcDbEntity
  8
$DDT_AUDIT_GENERATED_(1BD)
  6
Continuous
 62
     7
100
AcDbCircle
 10
183.4423749719
 20
137.4757438113
 30
0.0
 40
0.9565657954198314
100
AcDbArc
 50
177.9314817075
 51
202.0685182925
  0
ARC
  5
257
330
152
100
AcDbEntity
  8
$DDT_AUDIT_GENERATED_(1BD)
  6
Continuous
 62
     7
100
AcDbCircle
 10
184.0137591333
 20
137.5764942553
 30
0.0
 40
0.9344490863226881
100
AcDbArc
 50
177.6413828909
 51
202.3586171091
  0
LINE
  5
258
330
152
100
AcDbEntity
  8
$DDT_AUDIT_GENERATED_(1BD)
  6
Continuous
 62
     7
100
AcDbLine
 10
185.5637178888
 20
138.7345546829
 30
0.0
 11
185.9185684955
 21
138.6053996244
 31
0.0
  0
LINE
  5
259
330
152
100
AcDbEntity
  8
$DDT_AUDIT_GENERATED_(1BD)
  6
Continuous
 62
     7
100
AcDbLine
 10
185.0106945083
 20
138.8320676258
 30
0.0
 11
183.0452123446
 21
139.1786351614
 31
0.0
  0
LINE
  5
25A
330
152
100
AcDbEntity
  8
$DDT_AUDIT_GENERATED_(1BD)
  6
Continuous
 62
     7
100
AcDbLine
 10
183.0452123446
 20
139.1786351614
 30
0.0
 11
182.5558917677
 21
139.2649155813
 31
0.0
  0
LINE
  5
25B
330
152
100
AcDbEntity
  8
$DDT_AUDIT_GENERATED_(1BD)
  6
Continuous
 62
     7
100
AcDbLine
 10
185.0106945083
 20
138.8320676258
 30
0.0
 11
185.5637178888
 21
138.7345546829
 31
0.0
  0
LINE
  5
25C
330
152
100
AcDbEntity
  8
$DDT_AUDIT_GENERATED_(1BD)
  6
Continuous
 62
     7
100
AcDbLine
 10
185.4942586177
 20
138.3406315817
 30
0.0
 11
184.9412352372
 21
138.4381445246
 31
0.0
  0
LINE
  5
25D
330
152
100
AcDbEntity
  8
$DDT_AUDIT_GENERATED_(1BD)
  6
Continuous
 62
     7
100
AcDbLine
 10
182.9757530735
 20
138.7847120602
 30
0.0
 11
184.9412352372
 21
138.4381445246
 31
0.0
  0
LINE
  5
25E
330
152
100
AcDbEntity
  8
$DDT_AUDIT_GENERATED_(1BD)
  6
Continuous
 62
     7
100
AcDbLine
 10
185.871882746
 20
138.3406315817
 30
0.0
 11
185.4942586177
 21
138.3406315817
 31
0.0
  0
ARC
  5
25F
330
152
100
AcDbEntity
  8
$DDT_AUDIT_GENERATED_(1BD)
  6
Continuous
 62
     7
100
AcDbCircle
 10
185.871882746
 20
138.4771315817
 30
0.0
 40
0.1365
100
AcDbArc
 50
270.0
 51
70.0
  0
LINE
  5
260
330
152
100
AcDbEntity
  8
$DDT_AUDIT_GENERATED_(1BD)
  6
Continuous
 62
     7
100
AcDbLine
 10
182.4864324966
 20
138.8709924801
 30
0.0
 11
182.9757530735
 21
138.7847120602
 31
0.0
  0
ARC
  5
261
330
152
100
AcDbEntity
  8
$DDT_AUDIT_GENERATED_(1BD)
  6
Continuous
 62
     7
100
AcDbCircle
 10
183.4423749719
 20
138.9055193521
 30
0.0
 40
0.9565657954198088
100
AcDbArc
 50
157.9314817075
 51
182.0685182925
  0
ARC
  5
262
330
152
100
AcDbEntity
  8
$DDT_AUDIT_GENERATED_(1BD)
  6
Continuous
 62
     7
100
AcDbCircle
 10
184.0137591333
 20
138.8047689081
 30
0.0
 40
0.9344490863226649
100
AcDbArc
 50
157.6413828909
 51
182.3586171091
  0
LINE
  5
263
330
152
100
AcDbEntity
  8
$DDT_AUDIT_GENERATED_(1BD)
  6
Continuous
 62
     7
100
AcDbLine
 10
185.8663239318
 20
139.3628726306
 30
0.0
 11
186.1556007968
 21
139.1201405199
 31
0.0
  0
LINE
  5
264
330
152
100
AcDbEntity
  8
$DDT_AUDIT_GENERATED_(1BD)
  6
Continuous
 62
     7
100
AcDbLine
 10
185.3800033327
 20
139.6436499594
 30
0.0
 11
183.6515873254
 21
140.6415514065
 31
0.0
  0
LINE
  5
265
330
152
100
AcDbEntity
  8
$DDT_AUDIT_GENERATED_(1BD)
  6
Continuous
 62
     7
100
AcDbLine
 10
183.6515873254
 20
140.6415514065
 30
0.0
 11
183.2212860317
 21
140.8899859743
 31
0.0
  0
LINE
  5
266
330
152
100
AcDbEntity
  8
$DDT_AUDIT_GENERATED_(1BD)
  6
Continuous
 62
     7
100
AcDbLine
 10
185.3800033327
 20
139.6436499594
 30
0.0
 11
185.8663239318
 21
139.3628726306
 31
0.0
  0
LINE
  5
267
330
152
100
AcDbEntity
  8
$DDT_AUDIT_GENERATED_(1BD)
  6
Continuous
 62
     7
100
AcDbLine
 10
185.6663239318
 20
139.0164624691
 30
0.0
 11
185.1800033327
 21
139.2972397979
 31
0.0
  0
LINE
  5
268
330
152
100
AcDbEntity
  8
$DDT_AUDIT_GENERATED_(1BD)
  6
Continuous
 62
     7
100
AcDbLine
 10
183.4515873254
 20
140.295141245
 30
0.0
 11
185.1800033327
 21
139.2972397979
 31
0.0
  0
LINE
  5
269
330
152
100
AcDbEntity
  8
$DDT_AUDIT_GENERATED_(1BD)
  6
Continuous
 62
     7
100
AcDbLine
 10
186.0211745385
 20
138.8873074107
 30
0.0
 11
185.6663239318
 21
139.0164624691
 31
0.0
  0
ARC
  5
26A
330
152
100
AcDbEntity
  8
$DDT_AUDIT_GENERATED_(1BD)
  6
Continuous
 62
     7
100
AcDbCircle
 10
186.0678602881
 20
139.0155754534
 30
0.0
 40
0.1364999999999999
100
AcDbArc
 50
250.0
 51
50.0
  0
LINE
  5
26B
330
152
100
AcDbEntity
  8
$DDT_AUDIT_GENERATED_(1BD)
  6
Continuous
 62
     7
100
AcDbLine
 10
183.0212860317
 20
140.5435758128
 30
0.0
 11
183.4515873254
 21
140.295141245
 31
0.0
  0
ARC
  5
26C
330
152
100
AcDbEntity
  8
$DDT_AUDIT_GENERATED_(1BD)
  6
Continuous
 62
     7
100
AcDbCircle
 10
183.9313870073
 20
140.2490688772
 30
0.0
 40
0.9565657954198005
100
AcDbArc
 50
137.9314817075
 51
162.0685182925
  0
ARC
  5
26D
330
152
100
AcDbEntity
  8
$DDT_AUDIT_GENERATED_(1BD)
  6
Continuous
 62
     7
100
AcDbCircle
 10
184.4338538061
 20
139.9589695356
 30
0.0
 40
0.934449086322653
100
AcDbArc
 50
137.6413828909
 51
162.3586171091
  0
LINE
  5
26E
330
152
100
AcDbEntity
  8
$DDT_AUDIT_GENERATED_(1BD)
  6
Continuous
 62
     7
100
AcDbLine
 10
186.3655779919
 20
139.8498010074
 30
0.0
 11
186.5543900561
 21
139.5227689193
 31
0.0
  0
LINE
  5
26F
330
152
100
AcDbEntity
  8
$DDT_AUDIT_GENERATED_(1BD)
  6
Continuous
 62
     7
100
AcDbLine
 10
186.0046176159
 20
140.2799768324
 30
0.0
 11
184.7217402441
 21
141.808850549
 31
0.0
  0
LINE
  5
270
330
152
100
AcDbEntity
  8
$DDT_AUDIT_GENERATED_(1BD)
  6
Continuous
 62
     7
100
AcDbLine
 10
184.7217402441
 20
141.808850549
 30
0.0
 11
184.4023589202
 21
142.1894743892
 31
0.0
  0
LINE
  5
271
330
152
100
AcDbEntity
  8
$DDT_AUDIT_GENERATED_(1BD)
  6
Continuous
 62
     7
100
AcDbLine
 10
186.0046176159
 20
140.2799768324
 30
0.0
 11
186.3655779919
 21
139.8498010074
 31
0.0
  0
LINE
  5
272
330
152
100
AcDbEntity
  8
$DDT_AUDIT_GENERATED_(1BD)
  6
Continuous
 62
     7
100
AcDbLine
 10
186.0591602147
 20
139.5926859636
 30
0.0
 11
185.6981998387
 21
140.0228617885
 31
0.0
  0
LINE
  5
273
330
152
100
AcDbEntity
  8
$DDT_AUDIT_GENERATED_(1BD)
  6
Continuous
 62
     7
100
AcDbLine
 10
184.4153224669
 20
141.5517355052
 30
0.0
 11
185.6981998387
 21
140.0228617885
 31
0.0
  0
LINE
  5
274
330
152
100
AcDbEntity
  8
$DDT_AUDIT_GENERATED_(1BD)
  6
Continuous
 62
     7
100
AcDbLine
 10
186.3484370797
 20
139.3499538528
 30
0.0
 11
186.0591602147
 21
139.5926859636
 31
0.0
  0
ARC
  5
275
330
152
100
AcDbEntity
  8
$DDT_AUDIT_GENERATED_(1BD)
  6
Continuous
 62
     7
100
AcDbCircle
 10
186.4361775884
 20
139.4545189193
 30
0.0
 40
0.1365
100
AcDbArc
 50
230.0
 51
30.0
  0
LINE
  5
276
330
152
100
AcDbEntity
  8
$DDT_AUDIT_GENERATED_(1BD)
  6
Continuous
 62
     7
100
AcDbLine
 10
184.0959411429
 20
141.9323593454
 30
0.0
 11
184.4153224669
 21
141.5517355052
 31
0.0
  0
ARC
  5
277
330
152
100
AcDbEntity
  8
$DDT_AUDIT_GENERATED_(1BD)
  6
Continuous
 62
     7
100
AcDbCircle
 10
184.8504290096
 20
141.3443404851
 30
0.0
 40
0.9565657954198041
100
AcDbArc
 50
117.9314817075
 51
142.0685182925
  0
ARC
  5
278
330
152
100
AcDbEntity
  8
$DDT_AUDIT_GENERATED_(1BD)
  6
Continuous
 62
     7
100
AcDbCircle
 10
185.2233735342
 20
140.899882508
 30
0.0
 40
0.9344490863226651
100
AcDbArc
 50
117.6413828909
 51
142.3586171091
  0
LINE
  5
279
330
152
100
AcDbEntity
  8
$DDT_AUDIT_GENERATED_(1BD)
  6
Continuous
 62
     7
100
AcDbLine
 10
187.0012626614
 20
140.1366090648
 30
0.0
 11
187.0668364031
 21
139.7647218956
 31
0.0
  0
LINE
  5
27A
330
152
100
AcDbEntity
  8
$DDT_AUDIT_GENERATED_(1BD)
  6
Continuous
 62
     7
100
AcDbLine
 10
186.8091996569
 20
140.6642978326
 30
0.0
 11
186.126594865
 21
142.5397390849
 31
0.0
  0
LINE
  5
27B
330
152
100
AcDbEntity
  8
$DDT_AUDIT_GENERATED_(1BD)
  6
Continuous
 62
     7
100
AcDbLine
 10
186.126594865
 20
142.5397390849
 30
0.0
 11
185.9566556121
 21
143.006643345
 31
0.0
  0
LINE
  5
27C
330
152
100
AcDbEntity
  8
$DDT_AUDIT_GENERATED_(1BD)
  6
Continuous
 62
     7
100
AcDbLine
 10
186.8091996569
 20
140.6642978326
 30
0.0
 11
187.0012626614
 21
140.1366090648
 31
0.0
  0
LINE
  5
27D
330
152
100
AcDbEntity
  8
$DDT_AUDIT_GENERATED_(1BD)
  6
Continuous
 62
     7
100
AcDbLine
 10
186.6253856131
 20
139.9998010074
 30
0.0
 11
186.4333226086
 21
140.5274897753
 31
0.0
  0
LINE
  5
27E
330
152
100
AcDbEntity
  8
$DDT_AUDIT_GENERATED_(1BD)
  6
Continuous
 62
     7
100
AcDbLine
 10
185.7507178167
 20
142.4029310275
 30
0.0
 11
186.4333226086
 21
140.5274897753
 31
0.0
  0
LINE
  5
27F
330
152
100
AcDbEntity
  8
$DDT_AUDIT_GENERATED_(1BD)
  6
Continuous
 62
     7
100
AcDbLine
 10
186.8141976772
 20
139.6727689193
 30
0.0
 11
186.6253856131
 21
139.9998010074
 31
0.0
  0
ARC
  5
280
330
152
100
AcDbEntity
  8
$DDT_AUDIT_GENERATED_(1BD)
  6
Continuous
 62
     7
100
AcDbCircle
 10
186.9324101448
 20
139.7410189193
 30
0.0
 40
0.1365
100
AcDbArc
 50
210.0
 51
10.0
  0
LINE
  5
281
330
152
100
AcDbEntity
  8
$DDT_AUDIT_GENERATED_(1BD)
  6
Continuous
 62
     7
100
AcDbLine
 10
185.5807785637
 20
142.8698352877
 30
0.0
 11
185.7507178167
 21
142.4029310275
 31
0.0
  0
ARC
  5
282
330
152
100
AcDbEntity
  8
$DDT_AUDIT_GENERATED_(1BD)
  6
Continuous
 62
     7
100
AcDbCircle
 10
186.0886509496
 20
142.0592282555
 30
0.0
 40
0.9565657954197778
100
AcDbArc
 50
97.9314817075
 51
122.0685182925
  0
ARC
  5
283
330
152
100
AcDbEntity
  8
$DDT_AUDIT_GENERATED_(1BD)
  6
Continuous
 62
     7
100
AcDbCircle
 10
186.2870905864
 20
141.5140198344
 30
0.0
 40
0.9344490863226751
100
AcDbArc
 50
97.6413828909
 51
122.3586171091
  0
LINE
  5
284
330
152
100
AcDbEntity
  8
$DDT_AUDIT_GENERATED_(1BD)
  6
Continuous
 62
     7
100
AcDbLine
 10
188.3906280885
 20
134.2726958463
 30
0.0
 11
188.484708567
 21
133.739138939
 31
0.0
  0
LINE
  5
285
330
152
100
AcDbEntity
  8
$DDT_AUDIT_GENERATED_(1BD)
  6
Continuous
 62
     7
100
AcDbLine
 10
188.0907854658
 20
133.6696796679
 30
0.0
 11
187.9967049873
 21
134.2032365752
 31
0.0
  0
LINE
  5
286
330
152
100
AcDbEntity
  8
$DDT_AUDIT_GENERATED_(1BD)
  6
Continuous
 62
     7
100
AcDbLine
 10
188.484708567
 20
133.739138939
 30
0.0
 11
188.5709889869
 21
133.2498183621
 31
0.0
  0
LINE
  5
287
330
152
100
AcDbEntity
  8
$DDT_AUDIT_GENERATED_(1BD)
  6
Continuous
 62
     7
100
AcDbLine
 10
187.9967049873
 20
134.2032365752
 30
0.0
 11
187.9967049873
 21
134.7878624899
 31
0.0
  0
LINE
  5
288
330
152
100
AcDbEntity
  8
$DDT_AUDIT_GENERATED_(1BD)
  6
Continuous
 62
     7
100
AcDbLine
 10
188.1906742494
 20
134.8220645042
 30
0.0
 11
188.3906280885
 21
134.2726958463
 31
0.0
  0
ARC
  5
289
330
152
100
AcDbEntity
  8
$DDT_AUDIT_GENERATED_(1BD)
  6
Continuous
 62
     7
100
AcDbCircle
 10
188.0967049873
 20
134.7878624899
 30
0.0
 40
0.1
100
AcDbArc
 50
20.0000000012
 51
180.0
  0
LINE
  5
28A
330
152
100
AcDbEntity
  8
$DDT_AUDIT_GENERATED_(1BD)
  6
Continuous
 62
     7
100
AcDbLine
 10
188.1770658857
 20
133.180359091
 30
0.0
 11
188.0907854658
 21
133.6696796679
 31
0.0
  0
ARC
  5
28B
330
152
100
AcDbEntity
  8
$DDT_AUDIT_GENERATED_(1BD)
  6
Continuous
 62
     7
100
AcDbCircle
 10
188.2115927577
 20
134.1363015663
 30
0.0
 40
0.9565657954207923
100
AcDbArc
 50
267.9314817076
 51
292.0685182924
  0
ARC
  5
28C
330
152
100
AcDbEntity
  8
$DDT_AUDIT_GENERATED_(1BD)
  6
Continuous
 62
     7
100
AcDbCircle
 10
188.1108423137
 20
134.7076857277
 30
0.0
 40
0.93444908632158
100
AcDbArc
 50
267.6413828909
 51
292.3586171091
  0
LINE
  5
28D
330
152
100
AcDbEntity
  8
$DDT_AUDIT_GENERATED_(1BD)
  6
Continuous
 62
     7
100
AcDbLine
 10
186.9967049873
 20
134.2032365752
 30
0.0
 11
186.9026245088
 21
133.6696796679
 31
0.0
  0
LINE
  5
28E
330
152
100
AcDbEntity
  8
$DDT_AUDIT_GENERATED_(1BD)
  6
Continuous
 62
     7
100
AcDbLine
 10
186.5087014076
 20
133.739138939
 30
0.0
 11
186.6027818861
 21
134.2726958463
 31
0.0
  0
LINE
  5
28F
330
152
100
AcDbEntity
  8
$DDT_AUDIT_GENERATED_(1BD)
  6
Continuous
 62
     7
100
AcDbLine
 10
186.9026245088
 20
133.6696796679
 30
0.0
 11
186.8163440889
 21
133.180359091
 31
0.0
  0
LINE
  5
290
330
152
100
AcDbEntity
  8
$DDT_AUDIT_GENERATED_(1BD)
  6
Continuous
 62
     7
100
AcDbLine
 10
186.6027818861
 20
134.2726958463
 30
0.0
 11
186.8027357252
 21
134.8220645042
 31
0.0
  0
LINE
  5
291
330
152
100
AcDbEntity
  8
$DDT_AUDIT_GENERATED_(1BD)
  6
Continuous
 62
     7
100
AcDbLine
 10
186.9967049873
 20
134.7878624899
 30
0.0
 11
186.9967049873
 21
134.2032365752
 31
0.0
  0
ARC
  5
292
330
152
100
AcDbEntity
  8
$DDT_AUDIT_GENERATED_(1BD)
  6
Continuous
 62
     7
100
AcDbCircle
 10
186.8967049873
 20
134.7878624899
 30
0.0
 40
0.1
100
AcDbArc
 50
0.0
 51
160.0
  0
LINE
  5
293
330
152
100
AcDbEntity
  8
$DDT_AUDIT_GENERATED_(1BD)
  6
Continuous
 62
     7
100
AcDbLine
 10
186.4224209877
 20
133.2498183621
 30
0.0
 11
186.5087014076
 21
133.739138939
 31
0.0
  0
ARC
  5
294
330
152
100
AcDbEntity
  8
$DDT_AUDIT_GENERATED_(1BD)
  6
Continuous
 62
     7
100
AcDbCircle
 10
186.7818172169
 20
134.1363015663
 30
0.0
 40
0.9565657954207911
100
AcDbArc
 50
247.9314817076
 51
272.0685182924
  0
ARC
  5
295
330
152
100
AcDbEntity
  8
$DDT_AUDIT_GENERATED_(1BD)
  6
Continuous
 62
     7
100
AcDbCircle
 10
186.8825676609
 20
134.7076857277
 30
0.0
 40
0.9344490863215794
100
AcDbArc
 50
247.6413828909
 51
272.3586171091
  0
LINE
  5
296
330
152
100
AcDbEntity
  8
$DDT_AUDIT_GENERATED_(1BD)
  6
Continuous
 62
     7
100
AcDbLine
 10
185.6630892653
 20
134.6147159896
 30
0.0
 11
185.392195324
 21
134.1455139198
 31
0.0
  0
LINE
  5
297
330
152
100
AcDbEntity
  8
$DDT_AUDIT_GENERATED_(1BD)
  6
Continuous
 62
     7
100
AcDbLine
 10
185.0457851625
 20
134.3455139198
 30
0.0
 11
185.3166791038
 21
134.8147159896
 31
0.0
  0
LINE
  5
298
330
152
100
AcDbEntity
  8
$DDT_AUDIT_GENERATED_(1BD)
  6
Continuous
 62
     7
100
AcDbLine
 10
185.392195324
 20
134.1455139198
 30
0.0
 11
185.1437607562
 21
133.7152126261
 31
0.0
  0
LINE
  5
299
330
152
100
AcDbEntity
  8
$DDT_AUDIT_GENERATED_(1BD)
  6
Continuous
 62
     7
100
AcDbLine
 10
185.3166791038
 20
134.8147159896
 30
0.0
 11
185.692469398
 21
135.2625654229
 31
0.0
  0
LINE
  5
29A
330
152
100
AcDbEntity
  8
$DDT_AUDIT_GENERATED_(1BD)
  6
Continuous
 62
     7
100
AcDbLine
 10
185.8630431044
 20
135.1640846476
 30
0.0
 11
185.6630892653
 21
134.6147159896
 31
0.0
  0
ARC
  5
29B
330
152
100
AcDbEntity
  8
$DDT_AUDIT_GENERATED_(1BD)
  6
Continuous
 62
     7
100
AcDbCircle
 10
185.7690738423
 20
135.1982866619
 30
0.0
 40
0.0999999999999998
100
AcDbArc
 50
340.0000000012
 51
140.0
  0
LINE
  5
29C
330
152
100
AcDbEntity
  8
$DDT_AUDIT_GENERATED_(1BD)
  6
Continuous
 62
     7
100
AcDbLine
 10
184.7973505947
 20
133.9152126261
 30
0.0
 11
185.0457851625
 21
134.3455139198
 31
0.0
  0
ARC
  5
29D
330
152
100
AcDbEntity
  8
$DDT_AUDIT_GENERATED_(1BD)
  6
Continuous
 62
     7
100
AcDbCircle
 10
185.4382676918
 20
134.6253136017
 30
0.0
 40
0.9565657954207745
100
AcDbArc
 50
227.9314817076
 51
252.0685182924
  0
ARC
  5
29E
330
152
100
AcDbEntity
  8
$DDT_AUDIT_GENERATED_(1BD)
  6
Continuous
 62
     7
100
AcDbCircle
 10
185.7283670334
 20
135.1277804005
 30
0.0
 40
0.9344490863215823
100
AcDbArc
 50
227.6413828909
 51
252.3586171091
  0
LINE
  5
29F
330
152
100
AcDbEntity
  8
$DDT_AUDIT_GENERATED_(1BD)
  6
Continuous
 62
     7
100
AcDbLine
 10
184.5506346607
 20
135.4575035993
 30
0.0
 11
184.1356010638
 21
135.1092490613
 31
0.0
  0
LINE
  5
2A0
330
152
100
AcDbEntity
  8
$DDT_AUDIT_GENERATED_(1BD)
  6
Continuous
 62
     7
100
AcDbLine
 10
183.8784860199
 20
135.4156668385
 30
0.0
 11
184.2935196168
 21
135.7639213766
 31
0.0
  0
LINE
  5
2A1
330
152
100
AcDbEntity
  8
$DDT_AUDIT_GENERATED_(1BD)
  6
Continuous
 62
     7
100
AcDbLine
 10
184.1356010638
 20
135.1092490613
 30
0.0
 11
183.7549772236
 21
134.7898677373
 31
0.0
  0
LINE
  5
2A2
330
152
100
AcDbEntity
  8
$DDT_AUDIT_GENERATED_(1BD)
  6
Continuous
 62
     7
100
AcDbLine
 10
184.2935196168
 20
135.7639213766
 30
0.0
 11
184.7998205106
 21
136.0562343339
 31
0.0
  0
LINE
  5
2A3
330
152
100
AcDbEntity
  8
$DDT_AUDIT_GENERATED_(1BD)
  6
Continuous
 62
     7
100
AcDbLine
 10
184.9264249549
 20
135.9053530326
 30
0.0
 11
184.5506346607
 21
135.4575035993
 31
0.0
  0
ARC
  5
2A4
330
152
100
AcDbEntity
  8
$DDT_AUDIT_GENERATED_(1BD)
  6
Continuous
 62
     7
100
AcDbCircle
 10
184.8498205106
 20
135.9696317935
 30
0.0
 40
0.1000000000000001
100
AcDbArc
 50
320.0000000012
 51
120.0
  0
LINE
  5
2A5
330
152
100
AcDbEntity
  8
$DDT_AUDIT_GENERATED_(1BD)
  6
Continuous
 62
     7
100
AcDbLine
 10
183.4978621797
 20
135.0962855146
 30
0.0
 11
183.8784860199
 21
135.4156668385
 31
0.0
  0
ARC
  5
2A6
330
152
100
AcDbEntity
  8
$DDT_AUDIT_GENERATED_(1BD)
  6
Continuous
 62
     7
100
AcDbCircle
 10
184.3429960839
 20
135.544355604
 30
0.0
 40
0.9565657954207755
100
AcDbArc
 50
207.9314817076
 51
232.0685182924
  0
ARC
  5
2A7
330
152
100
AcDbEntity
  8
$DDT_AUDIT_GENERATED_(1BD)
  6
Continuous
 62
     7
100
AcDbCircle
 10
184.787454061
 20
135.9173001286
 30
0.0
 40
0.9344490863215822
100
AcDbArc
 50
207.6413828909
 51
232.3586171091
  0
LINE
  5
2A8
330
152
100
AcDbEntity
  8
$DDT_AUDIT_GENERATED_(1BD)
  6
Continuous
 62
     7
100
AcDbLine
 10
183.7935196168
 20
136.6299467804
 30
0.0
 11
183.2844055414
 21
136.4446444111
 31
0.0
  0
LINE
  5
2A9
330
152
100
AcDbEntity
  8
$DDT_AUDIT_GENERATED_(1BD)
  6
Continuous
 62
     7
100
AcDbLine
 10
183.1475974841
 20
136.8205214594
 30
0.0
 11
183.6567115595
 21
137.0058238287
 31
0.0
  0
LINE
  5
2AA
330
152
100
AcDbEntity
  8
$DDT_AUDIT_GENERATED_(1BD)
  6
Continuous
 62
     7
100
AcDbLine
 10
183.2844055414
 20
136.4446444111
 30
0.0
 11
182.8175012813
 21
136.2747051581
 31
0.0
  0
LINE
  5
2AB
330
152
100
AcDbEntity
  8
$DDT_AUDIT_GENERATED_(1BD)
  6
Continuous
 62
     7
100
AcDbLine
 10
183.6567115595
 20
137.0058238287
 30
0.0
 11
184.2324556928
 21
137.1073430534
 31
0.0
  0
LINE
  5
2AC
330
152
100
AcDbEntity
  8
$DDT_AUDIT_GENERATED_(1BD)
  6
Continuous
 62
     7
100
AcDbLine
 10
184.2998205106
 20
136.9222597377
 30
0.0
 11
183.7935196168
 21
136.6299467804
 31
0.0
  0
ARC
  5
2AD
330
152
100
AcDbEntity
  8
$DDT_AUDIT_GENERATED_(1BD)
  6
Continuous
 62
     7
100
AcDbCircle
 10
184.2498205106
 20
137.0088622781
 30
0.0
 40
0.1000000000000001
100
AcDbArc
 50
300.0000000012
 51
100.0
  0
LINE
  5
2AE
330
152
100
AcDbEntity
  8
$DDT_AUDIT_GENERATED_(1BD)
  6
Continuous
 62
     7
100
AcDbLine
 10
182.680693224
 20
136.6505822065
 30
0.0
 11
183.1475974841
 21
136.8205214594
 31
0.0
  0
ARC
  5
2AF
330
152
100
AcDbEntity
  8
$DDT_AUDIT_GENERATED_(1BD)
  6
Continuous
 62
     7
100
AcDbCircle
 10
183.6281083135
 20
136.782577544
 30
0.0
 40
0.9565657954207868
100
AcDbArc
 50
187.9314817076
 51
212.0685182924
  0
ARC
  5
2B0
330
152
100
AcDbEntity
  8
$DDT_AUDIT_GENERATED_(1BD)
  6
Continuous
 62
     7
100
AcDbCircle
 10
184.1733167346
 20
136.9810171808
 30
0.0
 40
0.9344490863216087
100
AcDbArc
 50
187.6413828909
 51
212.3586171091
  0
LINE
  5
2B1
330
152
100
AcDbEntity
  8
$DDT_AUDIT_GENERATED_(1BD)
  6
Continuous
 62
     7
100
AcDbLine
 10
183.4830633818
 20
137.9906315817
 30
0.0
 11
182.9412754991
 21
137.9906315817
 31
0.0
  0
LINE
  5
2B2
330
152
100
AcDbEntity
  8
$DDT_AUDIT_GENERATED_(1BD)
  6
Continuous
 62
     7
100
AcDbLine
 10
182.9412754991
 20
138.3906315817
 30
0.0
 11
183.4830633818
 21
138.3906315817
 31
0.0
  0
LINE
  5
2B3
330
152
100
AcDbEntity
  8
$DDT_AUDIT_GENERATED_(1BD)
  6
Continuous
 62
     7
100
AcDbLine
 10
182.9412754991
 20
137.9906315817
 30
0.0
 11
182.4444063636
 21
137.9906315817
 31
0.0
  0
LINE
  5
2B4
330
152
100
AcDbEntity
  8
$DDT_AUDIT_GENERATED_(1BD)
  6
Continuous
 62
     7
100
AcDbLine
 10
183.4830633818
 20
138.3906315817
 30
0.0
 11
184.0588075152
 21
138.289112357
 31
0.0
  0
LINE
  5
2B5
330
152
100
AcDbEntity
  8
$DDT_AUDIT_GENERATED_(1BD)
  6
Continuous
 62
     7
100
AcDbLine
 10
184.0588075152
 20
138.0921508064
 30
0.0
 11
183.4830633818
 21
137.9906315817
 31
0.0
  0
ARC
  5
2B6
330
152
100
AcDbEntity
  8
$DDT_AUDIT_GENERATED_(1BD)
  6
Continuous
 62
     7
100
AcDbCircle
 10
184.0414426974
 20
138.1906315817
 30
0.0
 40
0.0999999999999999
100
AcDbArc
 50
280.0000000012
 51
80.0
  0
LINE
  5
2B7
330
152
100
AcDbEntity
  8
$DDT_AUDIT_GENERATED_(1BD)
  6
Continuous
 62
     7
100
AcDbLine
 10
182.4444063636
 20
138.3906315817
 30
0.0
 11
182.9412754991
 21
138.3906315817
 31
0.0
  0
ARC
  5
2B8
330
152
100
AcDbEntity
  8
$DDT_AUDIT_GENERATED_(1BD)
  6
Continuous
 62
     7
100
AcDbCircle
 10
183.3798303963
 20
138.1906315817
 30
0.0
 40
0.9565657954207577
100
AcDbArc
 50
167.9314817076
 51
192.0685182924
  0
ARC
  5
2B9
330
152
100
AcDbEntity
  8
$DDT_AUDIT_GENERATED_(1BD)
  6
Continuous
 62
     7
100
AcDbCircle
 10
183.9600290794
 20
138.1906315817
 30
0.0
 40
0.9344490863215928
100
AcDbArc
 50
167.6413828909
 51
192.3586171091
  0
LINE
  5
2BA
330
152
100
AcDbEntity
  8
$DDT_AUDIT_GENERATED_(1BD)
  6
Continuous
 62
     7
100
AcDbLine
 10
183.6567115595
 20
139.3754393347
 30
0.0
 11
183.1475974841
 21
139.560741704
 31
0.0
  0
LINE
  5
2BB
330
152
100
AcDbEntity
  8
$DDT_AUDIT_GENERATED_(1BD)
  6
Continuous
 62
     7
100
AcDbLine
 10
183.2844055414
 20
139.9366187523
 30
0.0
 11
183.7935196168
 21
139.751316383
 31
0.0
  0
LINE
  5
2BC
330
152
100
AcDbEntity
  8
$DDT_AUDIT_GENERATED_(1BD)
  6
Continuous
 62
     7
100
AcDbLine
 10
183.1475974841
 20
139.560741704
 30
0.0
 11
182.680693224
 21
139.7306809569
 31
0.0
  0
LINE
  5
2BD
330
152
100
AcDbEntity
  8
$DDT_AUDIT_GENERATED_(1BD)
  6
Continuous
 62
     7
100
AcDbLine
 10
183.7935196168
 20
139.751316383
 30
0.0
 11
184.2998205106
 21
139.4590034257
 31
0.0
  0
LINE
  5
2BE
330
152
100
AcDbEntity
  8
$DDT_AUDIT_GENERATED_(1BD)
  6
Continuous
 62
     7
100
AcDbLine
 10
184.2324556928
 20
139.27392011
 30
0.0
 11
183.6567115595
 21
139.3754393347
 31
0.0
  0
ARC
  5
2BF
330
152
100
AcDbEntity
  8
$DDT_AUDIT_GENERATED_(1BD)
  6
Continuous
 62
     7
100
AcDbCircle
 10
184.2498205106
 20
139.3724008853
 30
0.0
 40
0.0999999999999999
100
AcDbArc
 50
260.0000000012
 51
60.0
  0
LINE
  5
2C0
330
152
100
AcDbEntity
  8
$DDT_AUDIT_GENERATED_(1BD)
  6
Continuous
 62
     7
100
AcDbLine
 10
182.8175012813
 20
140.1065580052
 30
0.0
 11
183.2844055414
 21
139.9366187523
 31
0.0
  0
ARC
  5
2C1
330
152
100
AcDbEntity
  8
$DDT_AUDIT_GENERATED_(1BD)
  6
Continuous
 62
     7
100
AcDbCircle
 10
183.6281083135
 20
139.5986856193
 30
0.0
 40
0.9565657954207907
100
AcDbArc
 50
147.9314817076
 51
172.0685182924
  0
ARC
  5
2C2
330
152
100
AcDbEntity
  8
$DDT_AUDIT_GENERATED_(1BD)
  6
Continuous
 62
     7
100
AcDbCircle
 10
184.1733167346
 20
139.4002459826
 30
0.0
 40
0.9344490863215847
100
AcDbArc
 50
147.6413828909
 51
172.3586171091
  0
LINE
  5
2C3
330
152
100
AcDbEntity
  8
$DDT_AUDIT_GENERATED_(1BD)
  6
Continuous
 62
     7
100
AcDbLine
 10
184.2935196168
 20
140.6173417868
 30
0.0
 11
183.8784860199
 21
140.9655963248
 31
0.0
  0
LINE
  5
2C4
330
152
100
AcDbEntity
  8
$DDT_AUDIT_GENERATED_(1BD)
  6
Continuous
 62
     7
100
AcDbLine
 10
184.1356010638
 20
141.2720141021
 30
0.0
 11
184.5506346607
 21
140.923759564
 31
0.0
  0
LINE
  5
2C5
330
152
100
AcDbEntity
  8
$DDT_AUDIT_GENERATED_(1BD)
  6
Continuous
 62
     7
100
AcDbLine
 10
183.8784860199
 20
140.9655963248
 30
0.0
 11
183.4978621797
 21
141.2849776488
 31
0.0
  0
LINE
  5
2C6
330
152
100
AcDbEntity
  8
$DDT_AUDIT_GENERATED_(1BD)
  6
Continuous
 62
     7
100
AcDbLine
 10
184.5506346607
 20
140.923759564
 30
0.0
 11
184.9264249549
 21
140.4759101308
 31
0.0
  0
LINE
  5
2C7
330
152
100
AcDbEntity
  8
$DDT_AUDIT_GENERATED_(1BD)
  6
Continuous
 62
     7
100
AcDbLine
 10
184.7998205106
 20
140.3250288295
 30
0.0
 11
184.2935196168
 21
140.6173417868
 31
0.0
  0
ARC
  5
2C8
330
152
100
AcDbEntity
  8
$DDT_AUDIT_GENERATED_(1BD)
  6
Continuous
 62
     7
100
AcDbCircle
 10
184.8498205106
 20
140.4116313698
 30
0.0
 40
0.0999999999999995
100
AcDbArc
 50
240.0000000012
 51
40.0
  0
LINE
  5
2C9
330
152
100
AcDbEntity
  8
$DDT_AUDIT_GENERATED_(1BD)
  6
Continuous
 62
     7
100
AcDbLine
 10
183.7549772236
 20
141.591395426
 30
0.0
 11
184.1356010638
 21
141.2720141021
 31
0.0
  0
ARC
  5
2CA
330
152
100
AcDbEntity
  8
$DDT_AUDIT_GENERATED_(1BD)
  6
Continuous
 62
     7
100
AcDbCircle
 10
184.3429960839
 20
140.8369075594
 30
0.0
 40
0.956565795420767
100
AcDbArc
 50
127.9314817076
 51
152.0685182924
  0
ARC
  5
2CB
330
152
100
AcDbEntity
  8
$DDT_AUDIT_GENERATED_(1BD)
  6
Continuous
 62
     7
100
AcDbCircle
 10
184.787454061
 20
140.4639630347
 30
0.0
 40
0.934449086321569
100
AcDbArc
 50
127.6413828909
 51
152.3586171091
  0
LINE
  5
2CC
330
152
100
AcDbEntity
  8
$DDT_AUDIT_GENERATED_(1BD)
  6
Continuous
 62
     7
100
AcDbLine
 10
185.6630892653
 20
141.7665471737
 30
0.0
 11
185.8630431044
 21
141.2171785158
 31
0.0
  0
LINE
  5
2CD
330
152
100
AcDbEntity
  8
$DDT_AUDIT_GENERATED_(1BD)
  6
Continuous
 62
     7
100
AcDbLine
 10
185.392195324
 20
142.2357492436
 30
0.0
 11
185.6630892653
 21
141.7665471737
 31
0.0
  0
LINE
  5
2CE
330
152
100
AcDbEntity
  8
$DDT_AUDIT_GENERATED_(1BD)
  6
Continuous
 62
     7
100
AcDbLine
 10
185.3166791038
 20
141.5665471737
 30
0.0
 11
185.0457851625
 21
142.0357492436
 31
0.0
  0
LINE
  5
2CF
330
152
100
AcDbEntity
  8
$DDT_AUDIT_GENERATED_(1BD)
  6
Continuous
 62
     7
100
AcDbLine
 10
185.0457851625
 20
142.0357492436
 30
0.0
 11
184.7973505947
 21
142.4660505373
 31
0.0
  0
LINE
  5
2D0
330
152
100
AcDbEntity
  8
$DDT_AUDIT_GENERATED_(1BD)
  6
Continuous
 62
     7
100
AcDbLine
 10
185.692469398
 20
141.1186977405
 30
0.0
 11
185.3166791038
 21
141.5665471737
 31
0.0
  0
ARC
  5
2D1
330
152
100
AcDbEntity
  8
$DDT_AUDIT_GENERATED_(1BD)
  6
Continuous
 62
     7
100
AcDbCircle
 10
185.7690738423
 20
141.1829765015
 30
0.0
 40
0.0999999999999998
100
AcDbArc
 50
220.0000000012
 51
20.0
  0
LINE
  5
2D2
330
152
100
AcDbEntity
  8
$DDT_AUDIT_GENERATED_(1BD)
  6
Continuous
 62
     7
100
AcDbLine
 10
185.1437607562
 20
142.6660505373
 30
0.0
 11
185.392195324
 21
142.2357492436
 31
0.0
  0
ARC
  5
2D3
330
152
100
AcDbEntity
  8
$DDT_AUDIT_GENERATED_(1BD)
  6
Continuous
 62
     7
100
AcDbCircle
 10
185.4382676918
 20
141.7559495616
 30
0.0
 40
0.9565657954207867
100
AcDbArc
 50
107.9314817076
 51
132.0685182924
  0
ARC
  5
2D4
330
152
100
AcDbEntity
  8
$DDT_AUDIT_GENERATED_(1BD)
  6
Continuous
 62
     7
100
AcDbCircle
 10
185.7283670334
 20
141.2534827628
 30
0.0
 40
0.9344490863215793
100
AcDbArc
 50
107.6413828909
 51
132.3586171091
  0
LINE
  5
2D5
330
152
100
AcDbEntity
  8
$DDT_AUDIT_GENERATED_(1BD)
  6
Continuous
 62
     7
100
AcDbLine
 10
186.9967049873
 20
142.1780265881
 30
0.0
 11
186.9967049873
 21
141.5934006735
 31
0.0
  0
LINE
  5
2D6
330
152
100
AcDbEntity
  8
$DDT_AUDIT_GENERATED_(1BD)
  6
Continuous
 62
     7
100
AcDbLine
 10
186.9026245088
 20
142.7115834954
 30
0.0
 11
186.9967049873
 21
142.1780265881
 31
0.0
  0
LINE
  5
2D7
330
152
100
AcDbEntity
  8
$DDT_AUDIT_GENERATED_(1BD)
  6
Continuous
 62
     7
100
AcDbLine
 10
186.6027818861
 20
142.1085673171
 30
0.0
 11
186.5087014076
 21
142.6421242244
 31
0.0
  0
LINE
  5
2D8
330
152
100
AcDbEntity
  8
$DDT_AUDIT_GENERATED_(1BD)
  6
Continuous
 62
     7
100
AcDbLine
 10
186.5087014076
 20
142.6421242244
 30
0.0
 11
186.4224209877
 21
143.1314448013
 31
0.0
  0
LINE
  5
2D9
330
152
100
AcDbEntity
  8
$DDT_AUDIT_GENERATED_(1BD)
  6
Continuous
 62
     7
100
AcDbLine
 10
186.8027357252
 20
141.5591986591
 30
0.0
 11
186.6027818861
 21
142.1085673171
 31
0.0
  0
ARC
  5
2DA
330
152
100
AcDbEntity
  8
$DDT_AUDIT_GENERATED_(1BD)
  6
Continuous
 62
     7
100
AcDbCircle
 10
186.8967049873
 20
141.5934006735
 30
0.0
 40
0.0999999999999999
100
AcDbArc
 50
200.0000000012
 51
0.0
  0
LINE
  5
2DB
330
152
100
AcDbEntity
  8
$DDT_AUDIT_GENERATED_(1BD)
  6
Continuous
 62
     7
100
AcDbLine
 10
186.8163440889
 20
143.2009040723
 30
0.0
 11
186.9026245088
 21
142.7115834954
 31
0.0
  0
ARC
  5
2DC
330
152
100
AcDbEntity
  8
$DDT_AUDIT_GENERATED_(1BD)
  6
Continuous
 62
     7
100
AcDbCircle
 10
186.7818172169
 20
142.244961597
 30
0.0
 40
0.9565657954207937
100
AcDbArc
 50
87.9314817076
 51
112.0685182924
  0
ARC
  5
2DD
330
152
100
AcDbEntity
  8
$DDT_AUDIT_GENERATED_(1BD)
  6
Continuous
 62
     7
100
AcDbCircle
 10
186.8825676609
 20
141.6735774356
 30
0.0
 40
0.9344490863215816
100
AcDbArc
 50
87.6413828909
 51
112.3586171091
  0
LINE
  5
2DE
330
152
100
AcDbEntity
  8
$DDT_AUDIT_GENERATED_(1BD)
  6
Continuous
 62
     7
100
AcDbLine
 10
187.9967049873
 20
142.1780265881
 30
0.0
 11
188.0907854658
 21
142.7115834954
 31
0.0
  0
LINE
  5
2DF
330
152
100
AcDbEntity
  8
$DDT_AUDIT_GENERATED_(1BD)
  6
Continuous
 62
     7
100
AcDbLine
 10
188.484708567
 20
142.6421242244
 30
0.0
 11
188.3906280885
 21
142.1085673171
 31
0.0
  0
LINE
  5
2E0
330
152
100
AcDbEntity
  8
$DDT_AUDIT_GENERATED_(1BD)
  6
Continuous
 62
     7
100
AcDbLine
 10
188.0907854658
 20
142.7115834954
 30
0.0
 11
188.1770658857
 21
143.2009040723
 31
0.0
  0
LINE
  5
2E1
330
152
100
AcDbEntity
  8
$DDT_AUDIT_GENERATED_(1BD)
  6
Continuous
 62
     7
100
AcDbLine
 10
188.3906280885
 20
142.1085673171
 30
0.0
 11
188.1906742494
 21
141.5591986591
 31
0.0
  0
LINE
  5
2E2
330
152
100
AcDbEntity
  8
$DDT_AUDIT_GENERATED_(1BD)
  6
Continuous
 62
     7
100
AcDbLine
 10
187.9967049873
 20
141.5934006735
 30
0.0
 11
187.9967049873
 21
142.1780265881
 31
0.0
  0
ARC
  5
2E3
330
152
100
AcDbEntity
  8
$DDT_AUDIT_GENERATED_(1BD)
  6
Continuous
 62
     7
100
AcDbCircle
 10
188.0967049873
 20
141.5934006735
 30
0.0
 40
0.0999999999999999
100
AcDbArc
 50
180.0
 51
340.0
  0
LINE
  5
2E4
330
152
100
AcDbEntity
  8
$DDT_AUDIT_GENERATED_(1BD)
  6
Continuous
 62
     7
100
AcDbLine
 10
188.5709889869
 20
143.1314448013
 30
0.0
 11
188.484708567
 21
142.6421242244
 31
0.0
  0
ARC
  5
2E5
330
152
100
AcDbEntity
  8
$DDT_AUDIT_GENERATED_(1BD)
  6
Continuous
 62
     7
100
AcDbCircle
 10
188.2115927577
 20
142.244961597
 30
0.0
 40
0.956565795420785
100
AcDbArc
 50
67.9314817076
 51
92.0685182924
  0
ARC
  5
2E6
330
152
100
AcDbEntity
  8
$DDT_AUDIT_GENERATED_(1BD)
  6
Continuous
 62
     7
100
AcDbCircle
 10
188.1108423137
 20
141.6735774356
 30
0.0
 40
0.934449086321558
100
AcDbArc
 50
67.6413828909
 51
92.3586171091
  0
LINE
  5
2E7
330
152
100
AcDbEntity
  8
$DDT_AUDIT_GENERATED_(1BD)
  6
Continuous
 62
     7
100
AcDbLine
 10
189.3303207093
 20
141.7665471737
 30
0.0
 11
189.6012146506
 21
142.2357492436
 31
0.0
  0
LINE
  5
2E8
330
152
100
AcDbEntity
  8
$DDT_AUDIT_GENERATED_(1BD)
  6
Continuous
 62
     7
100
AcDbLine
 10
189.9476248121
 20
142.0357492436
 30
0.0
 11
189.6767308708
 21
141.5665471737
 31
0.0
  0
LINE
  5
2E9
330
152
100
AcDbEntity
  8
$DDT_AUDIT_GENERATED_(1BD)
  6
Continuous
 62
     7
100
AcDbLine
 10
189.6012146506
 20
142.2357492436
 30
0.0
 11
189.8496492184
 21
142.6660505373
 31
0.0
  0
LINE
  5
2EA
330
152
100
AcDbEntity
  8
$DDT_AUDIT_GENERATED_(1BD)
  6
Continuous
 62
     7
100
AcDbLine
 10
189.6767308708
 20
141.5665471737
 30
0.0
 11
189.3009405765
 21
141.1186977405
 31
0.0
  0
LINE
  5
2EB
330
152
100
AcDbEntity
  8
$DDT_AUDIT_GENERATED_(1BD)
  6
Continuous
 62
     7
100
AcDbLine
 10
189.1303668702
 20
141.2171785158
 30
0.0
 11
189.3303207093
 21
141.7665471737
 31
0.0
  0
ARC
  5
2EC
330
152
100
AcDbEntity
  8
$DDT_AUDIT_GENERATED_(1BD)
  6
Continuous
 62
     7
100
AcDbCircle
 10
189.2243361322
 20
141.1829765015
 30
0.0
 40
0.0999999999999999
100
AcDbArc
 50
160.0000000012
 51
320.0
  0
LINE
  5
2ED
330
152
100
AcDbEntity
  8
$DDT_AUDIT_GENERATED_(1BD)
  6
Continuous
 62
     7
100
AcDbLine
 10
190.1960593799
 20
142.4660505373
 30
0.0
 11
189.9476248121
 21
142.0357492436
 31
0.0
  0
ARC
  5
2EE
330
152
100
AcDbEntity
  8
$DDT_AUDIT_GENERATED_(1BD)
  6
Continuous
 62
     7
100
AcDbCircle
 10
189.5551422828
 20
141.7559495616
 30
0.0
 40
0.9565657954207556
100
AcDbArc
 50
47.9314817076
 51
72.0685182924
  0
ARC
  5
2EF
330
152
100
AcDbEntity
  8
$DDT_AUDIT_GENERATED_(1BD)
  6
Continuous
 62
     7
100
AcDbCircle
 10
189.2650429412
 20
141.2534827628
 30
0.0
 40
0.9344490863215911
100
AcDbArc
 50
47.6413828909
 51
72.3586171091
  0
LINE
  5
2F0
330
152
100
AcDbEntity
  8
$DDT_AUDIT_GENERATED_(1BD)
  6
Continuous
 62
     7
100
AcDbLine
 10
190.4427753139
 20
140.923759564
 30
0.0
 11
190.8578089108
 21
141.2720141021
 31
0.0
  0
LINE
  5
2F1
330
152
100
AcDbEntity
  8
$DDT_AUDIT_GENERATED_(1BD)
  6
Continuous
 62
     7
100
AcDbLine
 10
191.1149239546
 20
140.9655963248
 30
0.0
 11
190.6998903578
 21
140.6173417868
 31
0.0
  0
LINE
  5
2F2
330
152
100
AcDbEntity
  8
$DDT_AUDIT_GENERATED_(1BD)
  6
Continuous
 62
     7
100
AcDbLine
 10
190.8578089108
 20
141.2720141021
 30
0.0
 11
191.238432751
 21
141.591395426
 31
0.0
  0
LINE
  5
2F3
330
152
100
AcDbEntity
  8
$DDT_AUDIT_GENERATED_(1BD)
  6
Continuous
 62
     7
100
AcDbLine
 10
190.6998903578
 20
140.6173417868
 30
0.0
 11
190.193589464
 21
140.3250288295
 31
0.0
  0
LINE
  5
2F4
330
152
100
AcDbEntity
  8
$DDT_AUDIT_GENERATED_(1BD)
  6
Continuous
 62
     7
100
AcDbLine
 10
190.0669850197
 20
140.4759101308
 30
0.0
 11
190.4427753139
 21
140.923759564
 31
0.0
  0
ARC
  5
2F5
330
152
100
AcDbEntity
  8
$DDT_AUDIT_GENERATED_(1BD)
  6
Continuous
 62
     7
100
AcDbCircle
 10
190.143589464
 20
140.4116313698
 30
0.0
 40
0.1000000000000001
100
AcDbArc
 50
140.0000000012
 51
300.0
  0
LINE
  5
2F6
330
152
100
AcDbEntity
  8
$DDT_AUDIT_GENERATED_(1BD)
  6
Continuous
 62
     7
100
AcDbLine
 10
191.4955477949
 20
141.2849776488
 30
0.0
 11
191.1149239546
 21
140.9655963248
 31
0.0
  0
ARC
  5
2F7
330
152
100
AcDbEntity
  8
$DDT_AUDIT_GENERATED_(1BD)
  6
Continuous
 62
     7
100
AcDbCircle
 10
190.6504138907
 20
140.8369075594
 30
0.0
 40
0.9565657954207825
100
AcDbArc
 50
27.9314817076
 51
52.0685182924
  0
ARC
  5
2F8
330
152
100
AcDbEntity
  8
$DDT_AUDIT_GENERATED_(1BD)
  6
Continuous
 62
     7
100
AcDbCircle
 10
190.2059559136
 20
140.4639630347
 30
0.0
 40
0.9344490863215822
100
AcDbArc
 50
27.6413828909
 51
52.3586171091
  0
LINE
  5
2F9
330
152
100
AcDbEntity
  8
$DDT_AUDIT_GENERATED_(1BD)
  6
Continuous
 62
     7
100
AcDbLine
 10
191.1998903578
 20
139.751316383
 30
0.0
 11
191.7090044331
 21
139.9366187523
 31
0.0
  0
LINE
  5
2FA
330
152
100
AcDbEntity
  8
$DDT_AUDIT_GENERATED_(1BD)
  6
Continuous
 62
     7
100
AcDbLine
 10
191.8458124905
 20
139.560741704
 30
0.0
 11
191.3366984151
 21
139.3754393347
 31
0.0
  0
LINE
  5
2FB
330
152
100
AcDbEntity
  8
$DDT_AUDIT_GENERATED_(1BD)
  6
Continuous
 62
     7
100
AcDbLine
 10
191.7090044331
 20
139.9366187523
 30
0.0
 11
192.1759086933
 21
140.1065580052
 31
0.0
  0
LINE
  5
2FC
330
152
100
AcDbEntity
  8
$DDT_AUDIT_GENERATED_(1BD)
  6
Continuous
 62
     7
100
AcDbLine
 10
191.3366984151
 20
139.3754393347
 30
0.0
 11
190.7609542817
 21
139.27392011
 31
0.0
  0
LINE
  5
2FD
330
152
100
AcDbEntity
  8
$DDT_AUDIT_GENERATED_(1BD)
  6
Continuous
 62
     7
100
AcDbLine
 10
190.693589464
 20
139.4590034257
 30
0.0
 11
191.1998903578
 21
139.751316383
 31
0.0
  0
ARC
  5
2FE
330
152
100
AcDbEntity
  8
$DDT_AUDIT_GENERATED_(1BD)
  6
Continuous
 62
     7
100
AcDbCircle
 10
190.743589464
 20
139.3724008853
 30
0.0
 40
0.0999999999999999
100
AcDbArc
 50
120.0000000012
 51
280.0
  0
LINE
  5
2FF
330
152
100
AcDbEntity
  8
$DDT_AUDIT_GENERATED_(1BD)
  6
Continuous
 62
     7
100
AcDbLine
 10
192.3127167506
 20
139.7306809569
 30
0.0
 11
191.8458124905
 21
139.560741704
 31
0.0
  0
ARC
  5
300
330
152
100
AcDbEntity
  8
$DDT_AUDIT_GENERATED_(1BD)
  6
Continuous
 62
     7
100
AcDbCircle
 10
191.3653016611
 20
139.5986856193
 30
0.0
 40
0.9565657954207921
100
AcDbArc
 50
7.9314817076
 51
32.0685182924
  0
ARC
  5
301
330
152
100
AcDbEntity
  8
$DDT_AUDIT_GENERATED_(1BD)
  6
Continuous
 62
     7
100
AcDbCircle
 10
190.82009324
 20
139.4002459826
 30
0.0
 40
0.9344490863215882
100
AcDbArc
 50
7.6413828909
 51
32.3586171091
  0
LINE
  5
302
330
152
100
AcDbEntity
  8
$DDT_AUDIT_GENERATED_(1BD)
  6
Continuous
 62
     7
100
AcDbLine
 10
191.5103465928
 20
138.3906315817
 30
0.0
 11
192.0521344754
 21
138.3906315817
 31
0.0
  0
LINE
  5
303
330
152
100
AcDbEntity
  8
$DDT_AUDIT_GENERATED_(1BD)
  6
Continuous
 62
     7
100
AcDbLine
 10
192.0521344754
 20
137.9906315817
 30
0.0
 11
191.5103465928
 21
137.9906315817
 31
0.0
  0
LINE
  5
304
330
152
100
AcDbEntity
  8
$DDT_AUDIT_GENERATED_(1BD)
  6
Continuous
 62
     7
100
AcDbLine
 10
192.0521344754
 20
138.3906315817
 30
0.0
 11
192.5490036109
 21
138.3906315817
 31
0.0
  0
LINE
  5
305
330
152
100
AcDbEntity
  8
$DDT_AUDIT_GENERATED_(1BD)
  6
Continuous
 62
     7
100
AcDbLine
 10
191.5103465928
 20
137.9906315817
 30
0.0
 11
190.9346024594
 21
138.0921508064
 31
0.0
  0
LINE
  5
306
330
152
100
AcDbEntity
  8
$DDT_AUDIT_GENERATED_(1BD)
  6
Continuous
 62
     7
100
AcDbLine
 10
190.9346024594
 20
138.289112357
 30
0.0
 11
191.5103465928
 21
138.3906315817
 31
0.0
  0
ARC
  5
307
330
152
100
AcDbEntity
  8
$DDT_AUDIT_GENERATED_(1BD)
  6
Continuous
 62
     7
100
AcDbCircle
 10
190.9519672772
 20
138.1906315817
 30
0.0
 40
0.0999999999999999
100
AcDbArc
 50
100.0000000012
 51
260.0
  0
LINE
  5
308
330
152
100
AcDbEntity
  8
$DDT_AUDIT_GENERATED_(1BD)
  6
Continuous
 62
     7
100
AcDbLine
 10
192.5490036109
 20
137.9906315817
 30
0.0
 11
192.0521344754
 21
137.9906315817
 31
0.0
  0
ARC
  5
309
330
152
100
AcDbEntity
  8
$DDT_AUDIT_GENERATED_(1BD)
  6
Continuous
 62
     7
100
AcDbCircle
 10
191.6135795782
 20
138.1906315817
 30
0.0
 40
0.9565657954207786
100
AcDbArc
 50
347.9314817076
 51
12.0685182924
  0
ARC
  5
30A
330
152
100
AcDbEntity
  8
$DDT_AUDIT_GENERATED_(1BD)
  6
Continuous
 62
     7
100
AcDbCircle
 10
191.0333808951
 20
138.1906315817
 30
0.0
 40
0.9344490863215905
100
AcDbArc
 50
347.6413828909
 51
12.3586171091
  0
LINE
  5
30B
330
152
100
AcDbEntity
  8
$DDT_AUDIT_GENERATED_(1BD)
  6
Continuous
 62
     7
100
AcDbLine
 10
191.3366984151
 20
137.0058238287
 30
0.0
 11
191.8458124905
 21
136.8205214594
 31
0.0
  0
LINE
  5
30C
330
152
100
AcDbEntity
  8
$DDT_AUDIT_GENERATED_(1BD)
  6
Continuous
 62
     7
100
AcDbLine
 10
191.7090044331
 20
136.4446444111
 30
0.0
 11
191.1998903578
 21
136.6299467804
 31
0.0
  0
LINE
  5
30D
330
152
100
AcDbEntity
  8
$DDT_AUDIT_GENERATED_(1BD)
  6
Continuous
 62
     7
100
AcDbLine
 10
191.8458124905
 20
136.8205214594
 30
0.0
 11
192.3127167506
 21
136.6505822065
 31
0.0
  0
LINE
  5
30E
330
152
100
AcDbEntity
  8
$DDT_AUDIT_GENERATED_(1BD)
  6
Continuous
 62
     7
100
AcDbLine
 10
191.1998903578
 20
136.6299467804
 30
0.0
 11
190.693589464
 21
136.9222597377
 31
0.0
  0
LINE
  5
30F
330
152
100
AcDbEntity
  8
$DDT_AUDIT_GENERATED_(1BD)
  6
Continuous
 62
     7
100
AcDbLine
 10
190.7609542817
 20
137.1073430534
 30
0.0
 11
191.3366984151
 21
137.0058238287
 31
0.0
  0
ARC
  5
310
330
152
100
AcDbEntity
  8
$DDT_AUDIT_GENERATED_(1BD)
  6
Continuous
 62
     7
100
AcDbCircle
 10
190.743589464
 20
137.0088622781
 30
0.0
 40
0.0999999999999998
100
AcDbArc
 50
80.0000000012
 51
240.0
  0
LINE
  5
311
330
152
100
AcDbEntity
  8
$DDT_AUDIT_GENERATED_(1BD)
  6
Continuous
 62
     7
100
AcDbLine
 10
192.1759086933
 20
136.2747051581
 30
0.0
 11
191.7090044331
 21
136.4446444111
 31
0.0
  0
ARC
  5
312
330
152
100
AcDbEntity
  8
$DDT_AUDIT_GENERATED_(1BD)
  6
Continuous
 62
     7
100
AcDbCircle
 10
191.3653016611
 20
136.782577544
 30
0.0
 40
0.9565657954207872
100
AcDbArc
 50
327.9314817076
 51
352.0685182924
  0
ARC
  5
313
330
152
100
AcDbEntity
  8
$DDT_AUDIT_GENERATED_(1BD)
  6
Continuous
 62
     7
100
AcDbCircle
 10
190.82009324
 20
136.9810171808
 30
0.0
 40
0.934449086321597
100
AcDbArc
 50
327.6413828909
 51
352.3586171091
  0
LINE
  5
314
330
152
100
AcDbEntity
  8
$DDT_AUDIT_GENERATED_(1BD)
  6
Continuous
 62
     7
100
AcDbLine
 10
190.6998903578
 20
135.7639213766
 30
0.0
 11
191.1149239546
 21
135.4156668385
 31
0.0
  0
LINE
  5
315
330
152
100
AcDbEntity
  8
$DDT_AUDIT_GENERATED_(1BD)
  6
Continuous
 62
     7
100
AcDbLine
 10
190.8578089108
 20
135.1092490613
 30
0.0
 11
190.4427753139
 21
135.4575035993
 31
0.0
  0
LINE
  5
316
330
152
100
AcDbEntity
  8
$DDT_AUDIT_GENERATED_(1BD)
  6
Continuous
 62
     7
100
AcDbLine
 10
191.1149239546
 20
135.4156668385
 30
0.0
 11
191.4955477949
 21
135.0962855146
 31
0.0
  0
LINE
  5
317
330
152
100
AcDbEntity
  8
$DDT_AUDIT_GENERATED_(1BD)
  6
Continuous
 62
     7
100
AcDbLine
 10
190.4427753139
 20
135.4575035993
 30
0.0
 11
190.0669850197
 21
135.9053530326
 31
0.0
  0
LINE
  5
318
330
152
100
AcDbEntity
  8
$DDT_AUDIT_GENERATED_(1BD)
  6
Continuous
 62
     7
100
AcDbLine
 10
190.193589464
 20
136.0562343339
 30
0.0
 11
190.6998903578
 21
135.7639213766
 31
0.0
  0
ARC
  5
319
330
152
100
AcDbEntity
  8
$DDT_AUDIT_GENERATED_(1BD)
  6
Continuous
 62
     7
100
AcDbCircle
 10
190.143589464
 20
135.9696317935
 30
0.0
 40
0.1000000000000001
100
AcDbArc
 50
60.0000000012
 51
220.0
  0
LINE
  5
31A
330
152
100
AcDbEntity
  8
$DDT_AUDIT_GENERATED_(1BD)
  6
Continuous
 62
     7
100
AcDbLine
 10
191.238432751
 20
134.7898677373
 30
0.0
 11
190.8578089108
 21
135.1092490613
 31
0.0
  0
ARC
  5
31B
330
152
100
AcDbEntity
  8
$DDT_AUDIT_GENERATED_(1BD)
  6
Continuous
 62
     7
100
AcDbCircle
 10
190.6504138907
 20
135.544355604
 30
0.0
 40
0.9565657954207881
100
AcDbArc
 50
307.9314817076
 51
332.0685182924
  0
ARC
  5
31C
330
152
100
AcDbEntity
  8
$DDT_AUDIT_GENERATED_(1BD)
  6
Continuous
 62
     7
100
AcDbCircle
 10
190.2059559136
 20
135.9173001286
 30
0.0
 40
0.9344490863215924
100
AcDbArc
 50
307.6413828909
 51
332.3586171091
  0
LINE
  5
31D
330
152
100
AcDbEntity
  8
$DDT_AUDIT_GENERATED_(1BD)
  6
Continuous
 62
     7
100
AcDbLine
 10
189.6767308708
 20
134.8147159896
 30
0.0
 11
189.9476248121
 21
134.3455139198
 31
0.0
  0
LINE
  5
31E
330
152
100
AcDbEntity
  8
$DDT_AUDIT_GENERATED_(1BD)
  6
Continuous
 62
     7
100
AcDbLine
 10
189.6012146506
 20
134.1455139198
 30
0.0
 11
189.3303207093
 21
134.6147159896
 31
0.0
  0
LINE
  5
31F
330
152
100
AcDbEntity
  8
$DDT_AUDIT_GENERATED_(1BD)
  6
Continuous
 62
     7
100
AcDbLine
 10
189.9476248121
 20
134.3455139198
 30
0.0
 11
190.1960593799
 21
133.9152126261
 31
0.0
  0
LINE
  5
320
330
152
100
AcDbEntity
  8
$DDT_AUDIT_GENERATED_(1BD)
  6
Continuous
 62
     7
100
AcDbLine
 10
189.3303207093
 20
134.6147159896
 30
0.0
 11
189.1303668702
 21
135.1640846476
 31
0.0
  0
LINE
  5
321
330
152
100
AcDbEntity
  8
$DDT_AUDIT_GENERATED_(1BD)
  6
Continuous
 62
     7
100
AcDbLine
 10
189.3009405765
 20
135.2625654229
 30
0.0
 11
189.6767308708
 21
134.8147159896
 31
0.0
  0
ARC
  5
322
330
152
100
AcDbEntity
  8
$DDT_AUDIT_GENERATED_(1BD)
  6
Continuous
 62
     7
100
AcDbCircle
 10
189.2243361322
 20
135.1982866619
 30
0.0
 40
0.1000000000000001
100
AcDbArc
 50
40.0000000012
 51
200.0
  0
LINE
  5
323
330
152
100
AcDbEntity
  8
$DDT_AUDIT_GENERATED_(1BD)
  6
Continuous
 62
     7
100
AcDbLine
 10
189.8496492184
 20
133.7152126261
 30
0.0
 11
189.6012146506
 21
134.1455139198
 31
0.0
  0
ARC
  5
324
330
152
100
AcDbEntity
  8
$DDT_AUDIT_GENERATED_(1BD)
  6
Continuous
 62
     7
100
AcDbCircle
 10
189.5551422828
 20
134.6253136017
 30
0.0
 40
0.9565657954207683
100
AcDbArc
 50
287.9314817076
 51
312.0685182924
  0
ARC
  5
325
330
152
100
AcDbEntity
  8
$DDT_AUDIT_GENERATED_(1BD)
  6
Continuous
 62
     7
100
AcDbCircle
 10
189.2650429412
 20
135.1277804005
 30
0.0
 40
0.9344490863216021
100
AcDbArc
 50
287.6413828909
 51
312.3586171091
  0
CIRCLE
  5
326
330
152
100
AcDbEntity
  8
$DDT_AUDIT_GENERATED_(1BD)
  6
Continuous
 62
     7
100
AcDbCircle
 10
187.4967049873
 20
138.1906315817
 30
0.0
 40
0.7500000000000001
  0
CIRCLE
  5
328
330
152
100
AcDbEntity
  8
$DDT_AUDIT_GENERATED_(327)
  6
Continuous
 62
     7
100
AcDbCircle
 10
187.4967049873
 20
138.1906315817
 30
0.0
 40
9.25
  0
CIRCLE
  5
329
330
152
100
AcDbEntity
  8
$DDT_AUDIT_GENERATED_(327)
  6
Continuous
 62
     7
100
AcDbCircle
 10
187.4967049873
 20
138.1906315817
 30
0.0
 40
6.0
  0
LINE
  5
32A
330
152
100
AcDbEntity
  8
$DDT_AUDIT_GENERATED_(164)
  6
Continuous
 62
     7
100
AcDbLine
 10
201.4064345094
 20
139.7779002596
 30
0.0
 11
200.9030683325
 21
139.7779002596
 31
0.0
  0
LINE
  5
32B
330
152
100
AcDbEntity
  8
$DDT_AUDIT_GENERATED_(164)
  6
Continuous
 62
     7
100
AcDbLine
 10
201.4064345094
 20
136.6033629038
 30
0.0
 11
200.9030683325
 21
136.6033629038
 31
0.0
  0
LINE
  5
32C
330
152
100
AcDbEntity
  8
$DDT_AUDIT_GENERATED_(164)
  6
Continuous
 62
     7
100
AcDbLine
 10
201.4161157949
 20
136.6906315817
 30
0.0
 11
200.9131128523
 21
136.6906315817
 31
0.0
  0
LINE
  5
32D
330
152
100
AcDbEntity
  8
$DDT_AUDIT_GENERATED_(164)
  6
Continuous
 62
     7
100
AcDbLine
 10
201.4161157949
 20
139.6906315817
 30
0.0
 11
200.9131128523
 21
139.6906315817
 31
0.0
  0
LINE
  5
32E
330
152
100
AcDbEntity
  8
$DDT_AUDIT_GENERATED_(164)
  6
Continuous
 62
     7
100
AcDbLine
 10
196.210000582
 20
149.1486641673
 30
0.0
 11
195.8540669184
 21
148.7927305037
 31
0.0
  0
LINE
  5
32F
330
152
100
AcDbEntity
  8
$DDT_AUDIT_GENERATED_(164)
  6
Continuous
 62
     7
100
AcDbLine
 10
196.2785545586
 20
149.093801596
 30
0.0
 11
195.9228777407
 21
148.7381247781
 31
0.0
  0
LINE
  5
330
330
152
100
AcDbEntity
  8
$DDT_AUDIT_GENERATED_(164)
  6
Continuous
 62
     7
100
AcDbLine
 10
198.3998749021
 20
146.9724812524
 30
0.0
 11
198.0441980954
 21
146.6168044457
 31
0.0
  0
LINE
  5
331
330
152
100
AcDbEntity
  8
$DDT_AUDIT_GENERATED_(164)
  6
Continuous
 62
     7
100
AcDbLine
 10
198.4547374734
 20
146.9039272758
 30
0.0
 11
198.0988038216
 21
146.547993624
 31
0.0
  0
LINE
  5
332
330
152
100
AcDbEntity
  8
$DDT_AUDIT_GENERATED_(164)
  6
Continuous
 62
     7
100
AcDbLine
 10
185.9094362099
 20
152.1003612032
 30
0.0
 11
185.9094362099
 21
151.5969949151
 31
0.0
  0
LINE
  5
333
330
152
100
AcDbEntity
  8
$DDT_AUDIT_GENERATED_(164)
  6
Continuous
 62
     7
100
AcDbLine
 10
185.9967048878
 20
152.1100424888
 30
0.0
 11
185.9967048878
 21
151.6070394356
 31
0.0
  0
LINE
  5
334
330
152
100
AcDbEntity
  8
$DDT_AUDIT_GENERATED_(164)
  6
Continuous
 62
     7
100
AcDbLine
 10
188.9967048878
 20
152.1100424888
 30
0.0
 11
188.9967048878
 21
151.6070394578
 31
0.0
  0
LINE
  5
335
330
152
100
AcDbEntity
  8
$DDT_AUDIT_GENERATED_(164)
  6
Continuous
 62
     7
100
AcDbLine
 10
189.0839735657
 20
152.1003612032
 30
0.0
 11
189.0839735657
 21
151.5969949387
 31
0.0
  0
LINE
  5
336
330
152
100
AcDbEntity
  8
$DDT_AUDIT_GENERATED_(164)
  6
Continuous
 62
     7
100
AcDbLine
 10
176.5386723023
 20
146.9039272758
 30
0.0
 11
176.8946060653
 21
146.5479935128
 31
0.0
  0
LINE
  5
337
330
152
100
AcDbEntity
  8
$DDT_AUDIT_GENERATED_(164)
  6
Continuous
 62
     7
100
AcDbLine
 10
176.5935348735
 20
146.9724812524
 30
0.0
 11
176.9492117908
 21
146.6168043351
 31
0.0
  0
LINE
  5
338
330
152
100
AcDbEntity
  8
$DDT_AUDIT_GENERATED_(164)
  6
Continuous
 62
     7
100
AcDbLine
 10
178.7148552171
 20
149.093801596
 30
0.0
 11
179.0705321233
 21
148.7381246898
 31
0.0
  0
LINE
  5
339
330
152
100
AcDbEntity
  8
$DDT_AUDIT_GENERATED_(164)
  6
Continuous
 62
     7
100
AcDbLine
 10
178.7834091937
 20
149.1486641673
 30
0.0
 11
179.1393429449
 21
148.792730416
 31
0.0
  0
LINE
  5
33A
330
152
100
AcDbEntity
  8
$DDT_AUDIT_GENERATED_(164)
  6
Continuous
 62
     7
100
AcDbLine
 10
173.5869752663
 20
136.6033629038
 30
0.0
 11
174.0903416421
 21
136.6033629038
 31
0.0
  0
LINE
  5
33B
330
152
100
AcDbEntity
  8
$DDT_AUDIT_GENERATED_(164)
  6
Continuous
 62
     7
100
AcDbLine
 10
173.5772939808
 20
136.6906315817
 30
0.0
 11
174.0802971223
 21
136.6906315817
 31
0.0
  0
LINE
  5
33C
330
152
100
AcDbEntity
  8
$DDT_AUDIT_GENERATED_(164)
  6
Continuous
 62
     7
100
AcDbLine
 10
173.5772939808
 20
139.6906315817
 30
0.0
 11
174.0802971223
 21
139.6906315817
 31
0.0
  0
LINE
  5
33D
330
152
100
AcDbEntity
  8
$DDT_AUDIT_GENERATED_(164)
  6
Continuous
 62
     7
100
AcDbLine
 10
173.5869752663
 20
139.7779002596
 30
0.0
 11
174.0903416421
 21
139.7779002596
 31
0.0
  0
LINE
  5
33E
330
152
100
AcDbEntity
  8
$DDT_AUDIT_GENERATED_(164)
  6
Continuous
 62
     7
100
AcDbLine
 10
178.7834091937
 20
127.2325989961
 30
0.0
 11
179.1393429449
 21
127.5885327474
 31
0.0
  0
LINE
  5
33F
330
152
100
AcDbEntity
  8
$DDT_AUDIT_GENERATED_(164)
  6
Continuous
 62
     7
100
AcDbLine
 10
178.7148552171
 20
127.2874615674
 30
0.0
 11
179.0705321233
 21
127.6431384736
 31
0.0
  0
LINE
  5
340
330
152
100
AcDbEntity
  8
$DDT_AUDIT_GENERATED_(164)
  6
Continuous
 62
     7
100
AcDbLine
 10
176.5935348735
 20
129.4087819109
 30
0.0
 11
176.9492117908
 21
129.7644588282
 31
0.0
  0
LINE
  5
341
330
152
100
AcDbEntity
  8
$DDT_AUDIT_GENERATED_(164)
  6
Continuous
 62
     7
100
AcDbLine
 10
176.5386723023
 20
129.4773358875
 30
0.0
 11
176.8946060653
 21
129.8332696506
 31
0.0
  0
LINE
  5
342
330
152
100
AcDbEntity
  8
$DDT_AUDIT_GENERATED_(164)
  6
Continuous
 62
     7
100
AcDbLine
 10
189.0839735657
 20
124.2809019601
 30
0.0
 11
189.0839735657
 21
124.7842682247
 31
0.0
  0
LINE
  5
343
330
152
100
AcDbEntity
  8
$DDT_AUDIT_GENERATED_(164)
  6
Continuous
 62
     7
100
AcDbLine
 10
188.9967048878
 20
124.2712206746
 30
0.0
 11
188.9967048878
 21
124.7742237056
 31
0.0
  0
LINE
  5
344
330
152
100
AcDbEntity
  8
$DDT_AUDIT_GENERATED_(164)
  6
Continuous
 62
     7
100
AcDbLine
 10
185.9967048878
 20
124.2712206746
 30
0.0
 11
185.9967048878
 21
124.7742237278
 31
0.0
  0
LINE
  5
345
330
152
100
AcDbEntity
  8
$DDT_AUDIT_GENERATED_(164)
  6
Continuous
 62
     7
100
AcDbLine
 10
185.9094362099
 20
124.2809019601
 30
0.0
 11
185.9094362099
 21
124.7842682482
 31
0.0
  0
LINE
  5
346
330
152
100
AcDbEntity
  8
$DDT_AUDIT_GENERATED_(164)
  6
Continuous
 62
     7
100
AcDbLine
 10
198.4547374734
 20
129.4773358875
 30
0.0
 11
198.0988038216
 21
129.8332695393
 31
0.0
  0
LINE
  5
347
330
152
100
AcDbEntity
  8
$DDT_AUDIT_GENERATED_(164)
  6
Continuous
 62
     7
100
AcDbLine
 10
198.3998749021
 20
129.4087819109
 30
0.0
 11
198.0441980954
 21
129.7644587177
 31
0.0
  0
LINE
  5
348
330
152
100
AcDbEntity
  8
$DDT_AUDIT_GENERATED_(164)
  6
Continuous
 62
     7
100
AcDbLine
 10
196.2785545586
 20
127.2874615674
 30
0.0
 11
195.9228777407
 21
127.6431383852
 31
0.0
  0
LINE
  5
349
330
152
100
AcDbEntity
  8
$DDT_AUDIT_GENERATED_(164)
  6
Continuous
 62
     7
100
AcDbLine
 10
196.210000582
 20
127.2325989961
 30
0.0
 11
195.8540669184
 21
127.5885326597
 31
0.0
  0
CIRCLE
  5
34A
330
152
100
AcDbEntity
  8
$DDT_AUDIT_GENERATED_(DA)
  6
Continuous
 62
     7
100
AcDbCircle
 10
187.4967048878
 20
138.1906315817
 30
0.0
 40
14.0
  0
LINE
  5
34B
330
152
100
AcDbEntity
  8
$DDT_AUDIT_GENERATED_(DA)
  6
Continuous
 62
     7
100
AcDbLine
 10
112.6967048878
 20
213.1906315817
 30
0.0
 11
262.2967048878
 21
213.1906315817
 31
0.0
  0
ARC
  5
34C
330
152
100
AcDbEntity
  8
$DDT_AUDIT_GENERATED_(DA)
  6
Continuous
 62
     7
100
AcDbCircle
 10
112.6967048878
 20
212.9906315817
 30
0.0
 40
0.2000000000000057
100
AcDbArc
 50
90.0
 51
180.0
  0
ARC
  5
34D
330
152
100
AcDbEntity
  8
$DDT_AUDIT_GENERATED_(DA)
  6
Continuous
 62
     7
100
AcDbCircle
 10
262.2967048878
 20
212.9906315817
 30
0.0
 40
0.2000000000000057
100
AcDbArc
 50
0.0
 51
90.0
  0
LINE
  5
34E
330
152
100
AcDbEntity
  8
$DDT_AUDIT_GENERATED_(DA)
  6
Continuous
 62
     7
100
AcDbLine
 10
112.4967048878
 20
63.3906315817
 30
0.0
 11
112.4967048878
 21
212.9906315817
 31
0.0
  0
LINE
  5
34F
330
152
100
AcDbEntity
  8
$DDT_AUDIT_GENERATED_(DA)
  6
Continuous
 62
     7
100
AcDbLine
 10
262.4967048878
 20
212.9906315817
 30
0.0
 11
262.4967048878
 21
63.3906315817
 31
0.0
  0
ARC
  5
350
330
152
100
AcDbEntity
  8
$DDT_AUDIT_GENERATED_(DA)
  6
Continuous
 62
     7
100
AcDbCircle
 10
112.6967048878
 20
63.3906315817
 30
0.0
 40
0.2000000000000057
100
AcDbArc
 50
180.0
 51
270.0
  0
ARC
  5
351
330
152
100
AcDbEntity
  8
$DDT_AUDIT_GENERATED_(DA)
  6
Continuous
 62
     7
100
AcDbCircle
 10
262.2967048878
 20
63.3906315817
 30
0.0
 40
0.2000000000000057
100
AcDbArc
 50
270.0
 51
0.0
  0
LINE
  5
352
330
152
100
AcDbEntity
  8
$DDT_AUDIT_GENERATED_(DA)
  6
Continuous
 62
     7
100
AcDbLine
 10
262.2967048878
 20
63.1906315817
 30
0.0
 11
112.6967048878
 21
63.1906315817
 31
0.0
  0
ENDBLK
  5
354
330
152
100
AcDbEntity
  8
0
100
AcDbBlockEnd
  0
ENDSEC
  0
SECTION
  2
ENTITIES
  0
INSERT
  5
5F
330
1F
100
AcDbEntity
  8
Default
100
AcDbBlockReference
  2
SEANNOT_GROUP
 10
0.0
 20
0.0
 30
0.0
  0
INSERT
  5
66
330
1F
100
AcDbEntity
  8
Default
100
AcDbBlockReference
  2
SEANNOT_GROUP1
 10
0.0
 20
0.0
 30
0.0
  0
INSERT
  5
6C
330
1F
100
AcDbEntity
  8
Default
100
AcDbBlockReference
  2
SEANNOT_GROUP2
 10
0.0
 20
0.0
 30
0.0
  0
INSERT
  5
76
330
1F
100
AcDbEntity
  8
Default
100
AcDbBlockReference
  2
SE
 10
0.0
 20
0.0
 30
0.0
  0
INSERT
  5
E5
330
1F
100
AcDbEntity
  8
Default
100
AcDbBlockReference
  2
SE1
 10
0.0
 20
0.0
 30
0.0
  0
INSERT
  5
153
330
1F
100
AcDbEntity
  8
Default
100
AcDbBlockReference
  2
SE2
 10
0.0
 20
0.0
 30
0.0
  0
TEXT
  5
356
330
1F
100
AcDbEntity
  8
Default
  6
Continuous
 62
     7
100
AcDbText
 10
5.9362635081
 20
53.4225120485
 30
0.0
 40
10.0
  1
Grohe AG^J
  7
SEACAD_seiso_ttf
 11
5.9362635081
 21
63.4225120485
 31
0.0
100
AcDbText
 73
     3
  0
TEXT
  5
357
330
1F
100
AcDbEntity
  8
Default
  6
Continuous
 62
     7
100
AcDbText
 10
5.9362635081
 20
37.0588756849
 30
0.0
 40
10.0
  1
 
  7
SEACAD_seiso_ttf
 11
5.9362635081
 21
47.0588756849
 31
0.0
100
AcDbText
 73
     3
  0
TEXT
  5
358
330
1F
100
AcDbEntity
  8
Default
  6
Continuous
 62
     7
100
AcDbText
 10
5.9362635081
 20
20.6952393213
 30
0.0
 40
10.0
  1
ecn:
  7
SEACAD_seiso_ttf
 11
5.9362635081
 21
30.6952393213
 31
0.0
100
AcDbText
 73
     3
  0
TEXT
  5
359
330
1F
100
AcDbEntity
  8
Default
  6
Continuous
 62
     7
100
AcDbText
 10
5.9362635081
 20
4.3316029576
 30
0.0
 40
10.0
  1
unit: mm
  7
SEACAD_seiso_ttf
 11
5.9362635081
 21
14.3316029576
 31
0.0
100
AcDbText
 73
     3
  0
LINE
  5
35A
330
1F
100
AcDbEntity
  8
Default
  6
Continuous
 62
     7
100
AcDbLine
 10
0.0
 20
0.0
 30
0.0
 11
100.0
 21
0.0
 31
0.0
  0
LINE
  5
35B
330
1F
100
AcDbEntity
  8
Default
  6
Continuous
 62
     7
100
AcDbLine
 10
0.0
 20
0.0
 30
0.0
 11
0.0
 21
100.0
 31
0.0
  0
TEXT
  5
35C
330
1F
100
AcDbEntity
  8
Default
  6
Continuous
 62
     7
100
AcDbText
 10
24.3923665681
 20
-18.2375342018
 30
0.0
 40
10.0
  1
100 mm
  7
SEACAD_seiso_ttf
 11
24.3923665681
 21
-8.2375342018
 31
0.0
100
AcDbText
 73
     3
  0
TEXT
  5
35D
330
1F
100
AcDbEntity
  8
Default
  6
Continuous
 62
     7
100
AcDbText
 10
-7.6150308803
 20
24.6231930421
 30
0.0
 40
10.0
  1
100 mm
 50
90.0
  7
SEACAD_seiso_ttf
 11
-17.6150308803
 21
24.6231930421
 31
0.0
100
AcDbText
 73
     3
  0
TEXT
  5
35E
330
1F
100
AcDbEntity
  8
Default
  6
Continuous
 62
     7
100
AcDbText
 10
28.4878128572
 20
20.0907663715
 30
0.0
 40
10.0
  1
223750
  7
SEACAD_seiso_ttf
 11
28.4878128572
 21
30.0907663715
 31
0.0
100
AcDbText
 73
     3
  0
TEXT
  5
35F
330
1F
100
AcDbEntity
  8
Default
  6
Continuous
 62
     7
100
AcDbText
 10
5.9012241913
 20
36.7242780188
 30
0.0
 40
10.0
  1
27780000
  7
SEACAD_seiso_ttf
 11
5.9012241913
 21
46.7242780188
 31
0.0
100
AcDbText
 73
     3
  0
ENDSEC
  0
SECTION
  2
OBJECTS
  0
DICTIONARY
  5
C
330
0
100
AcDbDictionary
281
     1
  3
ACAD_GROUP
350
D
  3
ACAD_LAYOUT
350
1A
  3
ACAD_MLEADERSTYLE
350
363
  3
ACAD_MLINESTYLE
350
17
  3
ACAD_PLOTSETTINGS
350
19
  3
ACAD_PLOTSTYLENAME
350
E
  3
ACAD_SCALELIST
350
3B
  3
ACAD_TABLESTYLE
350
362
  3
ACAD_VISUALSTYLE
350
2A
  3
AcDbVariableDictionary
350
360
  0
DICTIONARY
  5
D
102
{ACAD_REACTORS
330
C
102
}
330
C
100
AcDbDictionary
281
     1
  0
DICTIONARY
  5
1A
102
{ACAD_REACTORS
330
C
102
}
330
C
100
AcDbDictionary
281
     1
  3
Layout1
350
1E
  3
Model
350
22
  0
DICTIONARY
  5
363
102
{ACAD_REACTORS
330
C
102
}
330
C
100
AcDbDictionary
281
     1
  0
DICTIONARY
  5
17
102
{ACAD_REACTORS
330
C
102
}
330
C
100
AcDbDictionary
281
     1
  3
Standard
350
18
  0
DICTIONARY
  5
19
102
{ACAD_REACTORS
330
C
102
}
330
C
100
AcDbDictionary
281
     1
  0
ACDBDICTIONARYWDFLT
  5
E
102
{ACAD_REACTORS
330
C
102
}
330
C
100
AcDbDictionary
281
     1
  3
Normal
350
F
100
AcDbDictionaryWithDefault
340
F
  0
DICTIONARY
  5
3B
102
{ACAD_REACTORS
330
C
102
}
330
C
100
AcDbDictionary
281
     1
  3
A0
350
3C
  3
A1
350
3D
  3
A2
350
3E
  3
A3
350
3F
  3
A4
350
40
  3
A5
350
41
  3
A6
350
42
  3
A7
350
43
  3
A8
350
44
  3
A9
350
45
  3
B0
350
46
  3
B1
350
47
  3
B2
350
48
  3
B3
350
49
  3
B4
350
4A
  3
B5
350
4B
  3
B6
350
4C
  3
B7
350
4D
  3
B8
350
4E
  3
B9
350
4F
  3
C0
350
50
  3
C1
350
51
  3
C2
350
52
  3
C3
350
53
  3
C4
350
54
  3
C5
350
55
  3
C6
350
56
  3
C7
350
57
  3
C8
350
58
  3
C9
350
59
  3
D0
350
5A
  3
D1
350
5B
  3
D2
350
5C
  0
DICTIONARY
  5
362
102
{ACAD_REACTORS
330
C
102
}
330
C
100
AcDbDictionary
281
     1
  0
DICTIONARY
  5
2A
102
{ACAD_REACTORS
330
C
102
}
330
C
100
AcDbDictionary
281
     1
  3
2dWireframe
350
2F
  3
3D Hidden
350
31
  3
3dWireframe
350
30
  3
Basic
350
32
  3
Brighten
350
36
  3
ColorChange
350
3A
  3
Conceptual
350
34
  3
Dim
350
35
  3
Facepattern
350
39
  3
Flat
350
2B
  3
FlatWithEdges
350
2C
  3
Gouraud
350
2D
  3
GouraudWithEdges
350
2E
  3
Linepattern
350
38
  3
Realistic
350
33
  3
Thicken
350
37
  0
DICTIONARY
  5
360
102
{ACAD_REACTORS
330
C
102
}
330
C
100
AcDbDictionary
281
     1
  3
CANNOSCALE
350
361
  3
PSOLHEIGHT
350
365
  3
PSOLWIDTH
350
364
  0
LAYOUT
  5
1E
102
{ACAD_REACTORS
330
1A
102
}
330
1A
100
AcDbPlotSettings
  1

  2
none_device
  4

  6

 40
0.0
 41
0.0
 42
0.0
 43
0.0
 44
0.0
 45
0.0
 46
0.0
 47
0.0
 48
0.0
 49
0.0
140
0.0
141
0.0
142
1.0
143
1.0
 70
   688
 72
     0
 73
     0
 74
     5
  7

 75
    16
147
1.0
148
0.0
149
0.0
100
AcDbLayout
  1
Layout1
 70
     1
 71
     1
 10
0.0
 20
0.0
 11
3000.0
 21
4500.0
 12
0.0
 22
0.0
 32
0.0
 14
0.0
 24
0.0
 34
0.0
 15
3000.0
 25
4500.0
 35
0.0
146
0.0
 13
0.0
 23
0.0
 33
0.0
 16
1.0
 26
0.0
 36
0.0
 17
0.0
 27
1.0
 37
0.0
 76
     0
330
1B
  0
LAYOUT
  5
22
102
{ACAD_REACTORS
330
1A
102
}
330
1A
100
AcDbPlotSettings
  1

  2
none_device
  4

  6

 40
0.0
 41
0.0
 42
0.0
 43
0.0
 44
0.0
 45
0.0
 46
0.0
 47
0.0
 48
0.0
 49
0.0
140
0.0
141
0.0
142
1.0
143
1.0
 70
  1712
 72
     0
 73
     0
 74
     0
  7

 75
     0
147
1.0
148
0.0
149
0.0
100
AcDbLayout
  1
Model
 70
     1
 71
     0
 10
0.0
 20
0.0
 11
3000.0
 21
4500.0
 12
0.0
 22
0.0
 32
0.0
 14
0.0
 24
0.0
 34
0.0
 15
3000.0
 25
4500.0
 35
0.0
146
0.0
 13
0.0
 23
0.0
 33
0.0
 16
1.0
 26
0.0
 36
0.0
 17
0.0
 27
1.0
 37
0.0
 76
     0
330
1F
331
29
  0
MLINESTYLE
  5
18
102
{ACAD_REACTORS
330
17
102
}
330
17
100
AcDbMlineStyle
  2
Standard
 70
     0
  3

 62
   256
 51
90.0
 52
90.0
 71
     2
 49
0.5
 62
   256
  6
BYLAYER
 49
-0.5
 62
   256
  6
BYLAYER
  0
ACDBPLACEHOLDER
  5
F
102
{ACAD_REACTORS
330
E
102
}
330
E
  0
SCALE
  5
3C
102
{ACAD_REACTORS
330
3B
102
}
330
3B
100
AcDbScale
 70
     0
300
1:1
140
1.0
141
1.0
290
     1
  0
SCALE
  5
3D
102
{ACAD_REACTORS
330
3B
102
}
330
3B
100
AcDbScale
 70
     0
300
1:2
140
1.0
141
2.0
290
     0
  0
SCALE
  5
3E
102
{ACAD_REACTORS
330
3B
102
}
330
3B
100
AcDbScale
 70
     0
300
1:4
140
1.0
141
4.0
290
     0
  0
SCALE
  5
3F
102
{ACAD_REACTORS
330
3B
102
}
330
3B
100
AcDbScale
 70
     0
300
1:5
140
1.0
141
5.0
290
     0
  0
SCALE
  5
40
102
{ACAD_REACTORS
330
3B
102
}
330
3B
100
AcDbScale
 70
     0
300
1:8
140
1.0
141
8.0
290
     0
  0
SCALE
  5
41
102
{ACAD_REACTORS
330
3B
102
}
330
3B
100
AcDbScale
 70
     0
300
1:10
140
1.0
141
10.0
290
     0
  0
SCALE
  5
42
102
{ACAD_REACTORS
330
3B
102
}
330
3B
100
AcDbScale
 70
     0
300
1:16
140
1.0
141
16.0
290
     0
  0
SCALE
  5
43
102
{ACAD_REACTORS
330
3B
102
}
330
3B
100
AcDbScale
 70
     0
300
1:20
140
1.0
141
20.0
290
     0
  0
SCALE
  5
44
102
{ACAD_REACTORS
330
3B
102
}
330
3B
100
AcDbScale
 70
     0
300
1:30
140
1.0
141
30.0
290
     0
  0
SCALE
  5
45
102
{ACAD_REACTORS
330
3B
102
}
330
3B
100
AcDbScale
 70
     0
300
1:40
140
1.0
141
40.0
290
     0
  0
SCALE
  5
46
102
{ACAD_REACTORS
330
3B
102
}
330
3B
100
AcDbScale
 70
     0
300
1:50
140
1.0
141
50.0
290
     0
  0
SCALE
  5
47
102
{ACAD_REACTORS
330
3B
102
}
330
3B
100
AcDbScale
 70
     0
300
1:100
140
1.0
141
100.0
290
     0
  0
SCALE
  5
48
102
{ACAD_REACTORS
330
3B
102
}
330
3B
100
AcDbScale
 70
     0
300
2:1
140
2.0
141
1.0
290
     0
  0
SCALE
  5
49
102
{ACAD_REACTORS
330
3B
102
}
330
3B
100
AcDbScale
 70
     0
300
4:1
140
4.0
141
1.0
290
     0
  0
SCALE
  5
4A
102
{ACAD_REACTORS
330
3B
102
}
330
3B
100
AcDbScale
 70
     0
300
8:1
140
8.0
141
1.0
290
     0
  0
SCALE
  5
4B
102
{ACAD_REACTORS
330
3B
102
}
330
3B
100
AcDbScale
 70
     0
300
10:1
140
10.0
141
1.0
290
     0
  0
SCALE
  5
4C
102
{ACAD_REACTORS
330
3B
102
}
330
3B
100
AcDbScale
 70
     0
300
100:1
140
100.0
141
1.0
290
     0
  0
SCALE
  5
4D
102
{ACAD_REACTORS
330
3B
102
}
330
3B
100
AcDbScale
 70
     0
300
1/128" = 1'-0"
140
0.0078125
141
12.0
290
     0
  0
SCALE
  5
4E
102
{ACAD_REACTORS
330
3B
102
}
330
3B
100
AcDbScale
 70
     0
300
1/64" = 1'-0"
140
0.015625
141
12.0
290
     0
  0
SCALE
  5
4F
102
{ACAD_REACTORS
330
3B
102
}
330
3B
100
AcDbScale
 70
     0
300
1/32" = 1'-0"
140
0.03125
141
12.0
290
     0
  0
SCALE
  5
50
102
{ACAD_REACTORS
330
3B
102
}
330
3B
100
AcDbScale
 70
     0
300
1/16" = 1'-0"
140
0.0625
141
12.0
290
     0
  0
SCALE
  5
51
102
{ACAD_REACTORS
330
3B
102
}
330
3B
100
AcDbScale
 70
     0
300
3/32" = 1'-0"
140
0.09375
141
12.0
290
     0
  0
SCALE
  5
52
102
{ACAD_REACTORS
330
3B
102
}
330
3B
100
AcDbScale
 70
     0
300
1/8" = 1'-0"
140
0.125
141
12.0
290
     0
  0
SCALE
  5
53
102
{ACAD_REACTORS
330
3B
102
}
330
3B
100
AcDbScale
 70
     0
300
3/16" = 1'-0"
140
0.1875
141
12.0
290
     0
  0
SCALE
  5
54
102
{ACAD_REACTORS
330
3B
102
}
330
3B
100
AcDbScale
 70
     0
300
1/4" = 1'-0"
140
0.25
141
12.0
290
     0
  0
SCALE
  5
55
102
{ACAD_REACTORS
330
3B
102
}
330
3B
100
AcDbScale
 70
     0
300
3/8" = 1'-0"
140
0.375
141
12.0
290
     0
  0
SCALE
  5
56
102
{ACAD_REACTORS
330
3B
102
}
330
3B
100
AcDbScale
 70
     0
300
1/2" = 1'-0"
140
0.5
141
12.0
290
     0
  0
SCALE
  5
57
102
{ACAD_REACTORS
330
3B
102
}
330
3B
100
AcDbScale
 70
     0
300
3/4" = 1'-0"
140
0.75
141
12.0
290
     0
  0
SCALE
  5
58
102
{ACAD_REACTORS
330
3B
102
}
330
3B
100
AcDbScale
 70
     0
300
1" = 1'-0"
140
1.0
141
12.0
290
     0
  0
SCALE
  5
59
102
{ACAD_REACTORS
330
3B
102
}
330
3B
100
AcDbScale
 70
     0
300
1-1/2" = 1'-0"
140
1.5
141
12.0
290
     0
  0
SCALE
  5
5A
102
{ACAD_REACTORS
330
3B
102
}
330
3B
100
AcDbScale
 70
     0
300
3" = 1'-0"
140
3.0
141
12.0
290
     0
  0
SCALE
  5
5B
102
{ACAD_REACTORS
330
3B
102
}
330
3B
100
AcDbScale
 70
     0
300
6" = 1'-0"
140
6.0
141
12.0
290
     0
  0
SCALE
  5
5C
102
{ACAD_REACTORS
330
3B
102
}
330
3B
100
AcDbScale
 70
     0
300
1'-0" = 1'-0"
140
12.0
141
12.0
290
     0
  0
VISUALSTYLE
  5
2F
102
{ACAD_REACTORS
330
2A
102
}
330
2A
100
AcDbVisualStyle
  2
2dWireframe
 70
     4
 71
     0
 72
     2
 73
     0
 90
        0
 40
-0.6
 41
-30.0
 62
     5
 63
     7
 74
     1
 91
        4
 64
     7
 65
   257
 75
     1
175
     1
 42
1.0
 92
        0
 66
   257
 43
1.0
 76
     1
 77
     6
 78
     2
 67
     7
 79
     5
170
     0
171
     0
290
     0
174
     0
 93
        1
 44
0.0
173
     0
291
     0
 45
0.0
1001
ACAD
1000
AcDbSavedByObjectVersion
1070
     0
  0
VISUALSTYLE
  5
31
102
{ACAD_REACTORS
330
2A
102
}
330
2A
100
AcDbVisualStyle
  2
3D Hidden
 70
     6
 71
     1
 72
     2
 73
     2
 90
        0
 40
-0.6
 41
-30.0
 62
     5
 63
     7
 74
     2
 91
        2
 64
     7
 65
   257
 75
     2
175
     1
 42
40.0
 92
        0
 66
   257
 43
1.0
 76
     1
 77
     6
 78
     2
 67
     7
 79
     3
170
     0
171
     0
290
     0
174
     0
 93
        1
 44
0.0
173
     0
291
     0
 45
0.0
1001
ACAD
1000
AcDbSavedByObjectVersion
1070
     0
  0
VISUALSTYLE
  5
30
102
{ACAD_REACTORS
330
2A
102
}
330
2A
100
AcDbVisualStyle
  2
3dWireframe
 70
     5
 71
     0
 72
     2
 73
     0
 90
        0
 40
-0.6
 41
-30.0
 62
     5
 63
     7
 74
     1
 91
        4
 64
     7
 65
   257
 75
     1
175
     1
 42
1.0
 92
        0
 66
   257
 43
1.0
 76
     1
 77
     6
 78
     2
 67
     7
 79
     5
170
     0
171
     0
290
     0
174
     0
 93
        1
 44
0.0
173
     0
291
     0
 45
0.0
1001
ACAD
1000
AcDbSavedByObjectVersion
1070
     0
  0
VISUALSTYLE
  5
32
102
{ACAD_REACTORS
330
2A
102
}
330
2A
100
AcDbVisualStyle
  2
Basic
 70
     7
 71
     1
 72
     0
 73
     1
 90
        0
 40
-0.6
 41
-30.0
 62
     5
 63
     7
 74
     0
 91
        4
 64
     7
 65
   257
 75
     1
175
     1
 42
1.0
 92
        8
 66
     7
 43
1.0
 76
     1
 77
     6
 78
     2
 67
     7
 79
     5
170
     0
171
     0
290
     0
174
     0
 93
        1
 44
0.0
173
     0
291
     1
 45
0.0
1001
ACAD
1000
AcDbSavedByObjectVersion
1070
     0
  0
VISUALSTYLE
  5
36
102
{ACAD_REACTORS
330
2A
102
}
330
2A
100
AcDbVisualStyle
  2
Brighten
 70
    12
 71
     2
 72
     2
 73
     0
 90
        0
 40
-0.6
 41
-30.0
 62
     5
 63
     7
 74
     1
 91
        4
 64
     7
 65
   257
 75
     1
175
     1
 42
1.0
 92
        8
 66
     7
 43
1.0
 76
     1
 77
     6
 78
     2
 67
     7
 79
     5
170
     0
171
     0
290
     0
174
     0
 93
        1
 44
50.0
173
     0
291
     1
 45
0.0
1001
ACAD
1000
AcDbSavedByObjectVersion
1070
     0
  0
VISUALSTYLE
  5
3A
102
{ACAD_REACTORS
330
2A
102
}
330
2A
100
AcDbVisualStyle
  2
ColorChange
 70
    16
 71
     2
 72
     2
 73
     3
 90
        0
 40
-0.6
 41
-30.0
 62
     5
 63
     8
 74
     1
 91
        4
 64
     7
 65
   257
 75
     1
175
     1
 42
1.0
 92
        8
 66
     8
 43
1.0
 76
     1
 77
     6
 78
     2
 67
     7
 79
     5
170
     0
171
     0
290
     0
174
     0
 93
        1
 44
0.0
173
     0
291
     1
 45
0.0
1001
ACAD
1000
AcDbSavedByObjectVersion
1070
     0
  0
VISUALSTYLE
  5
34
102
{ACAD_REACTORS
330
2A
102
}
330
2A
100
AcDbVisualStyle
  2
Conceptual
 70
     9
 71
     3
 72
     2
 73
     0
 90
        0
 40
-0.6
 41
-30.0
 62
     5
 63
     7
 74
     2
 91
        2
 64
     7
 65
   257
 75
     1
175
     1
 42
40.0
 92
        8
 66
     7
 43
1.0
 76
     1
 77
     6
 78
     2
 67
     7
 79
     3
170
     0
171
     0
290
     0
174
     0
 93
        1
 44
0.0
173
     0
291
     0
 45
0.0
1001
ACAD
1000
AcDbSavedByObjectVersion
1070
     0
  0
VISUALSTYLE
  5
35
102
{ACAD_REACTORS
330
2A
102
}
330
2A
100
AcDbVisualStyle
  2
Dim
 70
    11
 71
     2
 72
     2
 73
     0
 90
        0
 40
-0.6
 41
-30.0
 62
     5
 63
     7
 74
     1
 91
        4
 64
     7
 65
   257
 75
     1
175
     1
 42
1.0
 92
        8
 66
     7
 43
1.0
 76
     1
 77
     6
 78
     2
 67
     7
 79
     5
170
     0
171
     0
290
     0
174
     0
 93
        1
 44
-50.0
173
     0
291
     1
 45
0.0
1001
ACAD
1000
AcDbSavedByObjectVersion
1070
     0
  0
VISUALSTYLE
  5
39
102
{ACAD_REACTORS
330
2A
102
}
330
2A
100
AcDbVisualStyle
  2
Facepattern
 70
    15
 71
     2
 72
     2
 73
     0
 90
        0
 40
-0.6
 41
-30.0
 62
     5
 63
     7
 74
     1
 91
        4
 64
     7
 65
   257
 75
     1
175
     1
 42
1.0
 92
        8
 66
     7
 43
1.0
 76
     1
 77
     6
 78
     2
 67
     7
 79
     5
170
     0
171
     0
290
     0
174
     0
 93
        1
 44
0.0
173
     0
291
     1
 45
0.0
1001
ACAD
1000
AcDbSavedByObjectVersion
1070
     0
  0
VISUALSTYLE
  5
2B
102
{ACAD_REACTORS
330
2A
102
}
330
2A
100
AcDbVisualStyle
  2
Flat
 70
     0
 71
     2
 72
     1
 73
     1
 90
        2
 40
-0.6
 41
30.0
 62
     5
 63
     7
 74
     0
 91
        4
 64
     7
 65
   257
 75
     1
175
     1
 42
1.0
 92
        8
 66
     7
 43
1.0
 76
     1
 77
     6
 78
     2
 67
     7
 79
     5
170
     0
171
     0
290
     0
174
     0
 93
       13
 44
0.0
173
     0
291
     1
 45
0.0
1001
ACAD
1000
AcDbSavedByObjectVersion
1070
     0
  0
VISUALSTYLE
  5
2C
102
{ACAD_REACTORS
330
2A
102
}
330
2A
100
AcDbVisualStyle
  2
FlatWithEdges
 70
     1
 71
     2
 72
     1
 73
     1
 90
        2
 40
-0.6
 41
30.0
 62
     5
 63
     7
 74
     1
 91
        4
 64
     7
 65
   257
 75
     1
175
     1
 42
1.0
 92
        0
 66
   257
 43
1.0
 76
     1
 77
     6
 78
     2
 67
     7
 79
     5
170
     0
171
     0
290
     0
174
     0
 93
       13
 44
0.0
173
     0
291
     1
 45
0.0
1001
ACAD
1000
AcDbSavedByObjectVersion
1070
     0
  0
VISUALSTYLE
  5
2D
102
{ACAD_REACTORS
330
2A
102
}
330
2A
100
AcDbVisualStyle
  2
Gouraud
 70
     2
 71
     2
 72
     2
 73
     1
 90
        2
 40
-0.6
 41
30.0
 62
     5
 63
     7
 74
     0
 91
        4
 64
     7
 65
   257
 75
     1
175
     1
 42
1.0
 92
        0
 66
     7
 43
1.0
 76
     1
 77
     6
 78
     2
 67
     7
 79
     5
170
     0
171
     0
290
     0
174
     0
 93
       13
 44
0.0
173
     0
291
     1
 45
0.0
1001
ACAD
1000
AcDbSavedByObjectVersion
1070
     0
  0
VISUALSTYLE
  5
2E
102
{ACAD_REACTORS
330
2A
102
}
330
2A
100
AcDbVisualStyle
  2
GouraudWithEdges
 70
     3
 71
     2
 72
     2
 73
     1
 90
        2
 40
-0.6
 41
30.0
 62
     5
 63
     7
 74
     1
 91
        4
 64
     7
 65
   257
 75
     1
175
     1
 42
1.0
 92
        0
 66
   257
 43
1.0
 76
     1
 77
     6
 78
     2
 67
     7
 79
     5
170
     0
171
     0
290
     0
174
     0
 93
       13
 44
0.0
173
     0
291
     1
 45
0.0
1001
ACAD
1000
AcDbSavedByObjectVersion
1070
     0
  0
VISUALSTYLE
  5
38
102
{ACAD_REACTORS
330
2A
102
}
330
2A
100
AcDbVisualStyle
  2
Linepattern
 70
    14
 71
     2
 72
     2
 73
     0
 90
        0
 40
-0.6
 41
-30.0
 62
     5
 63
     7
 74
     1
 91
        4
 64
     7
 65
   257
 75
     7
175
     7
 42
1.0
 92
        8
 66
     7
 43
1.0
 76
     1
 77
     6
 78
     2
 67
     7
 79
     5
170
     0
171
     0
290
     0
174
     0
 93
        1
 44
0.0
173
     0
291
     1
 45
0.0
1001
ACAD
1000
AcDbSavedByObjectVersion
1070
     0
  0
VISUALSTYLE
  5
33
102
{ACAD_REACTORS
330
2A
102
}
330
2A
100
AcDbVisualStyle
  2
Realistic
 70
     8
 71
     2
 72
     2
 73
     0
 90
        0
 40
-0.6
 41
-30.0
 62
     5
 63
     7
 74
     1
 91
        0
 64
     7
 65
   257
 75
     1
175
     1
 42
1.0
 92
        8
 66
     8
 43
1.0
 76
     1
 77
     6
 78
     2
 67
     7
 79
     5
170
     0
171
     0
290
     0
174
     0
 93
       13
 44
0.0
173
     0
291
     0
 45
0.0
1001
ACAD
1000
AcDbSavedByObjectVersion
1070
     0
  0
VISUALSTYLE
  5
37
102
{ACAD_REACTORS
330
2A
102
}
330
2A
100
AcDbVisualStyle
  2
Thicken
 70
    13
 71
     2
 72
     2
 73
     0
 90
        0
 40
-0.6
 41
-30.0
 62
     5
 63
     7
 74
     1
 91
        4
 64
     7
 65
   257
 75
     1
175
     1
 42
1.0
 92
       12
 66
     7
 43
1.0
 76
     1
 77
     6
 78
     2
 67
     7
 79
     5
170
     0
171
     0
290
     0
174
     0
 93
        1
 44
0.0
173
     0
291
     1
 45
0.0
1001
ACAD
1000
AcDbSavedByObjectVersion
1070
     0
  0
DICTIONARYVAR
  5
361
102
{ACAD_REACTORS
330
360
102
}
330
360
100
DictionaryVariables
280
     0
  1
1:1
  0
DICTIONARYVAR
  5
365
102
{ACAD_REACTORS
330
360
102
}
330
360
100
DictionaryVariables
280
     0
  1
80.000000
  0
DICTIONARYVAR
  5
364
102
{ACAD_REACTORS
330
360
102
}
330
360
100
DictionaryVariables
280
     0
  1
5.000000
  0
ENDSEC
  0
EOF
