  0
SECTION
  2
HEADER
  9
$ACADVER
  1
AC1015
  9
$ACADMAINTVER
 70
     6
  9
$DWGCODEPAGE
  3
ANSI_1252
  9
$INSBASE
 10
0.0
 20
0.0
 30
0.0
  9
$EXTMIN
 10
0.0
 20
0.0
 30
0.0
  9
$EXTMAX
 10
3000.0
 20
4500.0
 30
0.0
  9
$LIMMIN
 10
0.0
 20
0.0
  9
$LIMMAX
 10
3000.0
 20
4500.0
  9
$ORTHOMODE
 70
     0
  9
$REGENMODE
 70
     1
  9
$FILLMODE
 70
     1
  9
$QTEXTMODE
 70
     0
  9
$MIRRTEXT
 70
     1
  9
$LTSCALE
 40
1.0
  9
$ATTMODE
 70
     1
  9
$TEXTSIZE
 40
2.5
  9
$TRACEWID
 40
1.0
  9
$TEXTSTYLE
  7
Standard
  9
$CLAYER
  8
0
  9
$CELTYPE
  6
ByLayer
  9
$CECOLOR
 62
   256
  9
$CELTSCALE
 40
1.0
  9
$DISPSILH
 70
     0
  9
$DIMSCALE
 40
1.0
  9
$DIMASZ
 40
2.5
  9
$DIMEXO
 40
0.625
  9
$DIMDLI
 40
3.75
  9
$DIMRND
 40
0.0
  9
$DIMDLE
 40
0.0
  9
$DIMEXE
 40
1.25
  9
$DIMTP
 40
0.0
  9
$DIMTM
 40
0.0
  9
$DIMTXT
 40
2.5
  9
$DIMCEN
 40
2.5
  9
$DIMTSZ
 40
0.0
  9
$DIMTOL
 70
     0
  9
$DIMLIM
 70
     0
  9
$DIMTIH
 70
     0
  9
$DIMTOH
 70
     0
  9
$DIMSE1
 70
     0
  9
$DIMSE2
 70
     0
  9
$DIMTAD
 70
     1
  9
$DIMZIN
 70
     8
  9
$DIMBLK
  1

  9
$DIMASO
 70
     1
  9
$DIMSHO
 70
     1
  9
$DIMPOST
  1

  9
$DIMAPOST
  1

  9
$DIMALT
 70
     0
  9
$DIMALTD
 70
     3
  9
$DIMALTF
 40
0.0393700787
  9
$DIMLFAC
 40
1.0
  9
$DIMTOFL
 70
     1
  9
$DIMTVP
 40
0.0
  9
$DIMTIX
 70
     0
  9
$DIMSOXD
 70
     0
  9
$DIMSAH
 70
     0
  9
$DIMBLK1
  1

  9
$DIMBLK2
  1

  9
$DIMSTYLE
  2
ISO-25
  9
$DIMCLRD
 70
     0
  9
$DIMCLRE
 70
     0
  9
$DIMCLRT
 70
     0
  9
$DIMTFAC
 40
1.0
  9
$DIMGAP
 40
0.625
  9
$DIMJUST
 70
     0
  9
$DIMSD1
 70
     0
  9
$DIMSD2
 70
     0
  9
$DIMTOLJ
 70
     0
  9
$DIMTZIN
 70
     8
  9
$DIMALTZ
 70
     0
  9
$DIMALTTZ
 70
     0
  9
$DIMUPT
 70
     0
  9
$DIMDEC
 70
     2
  9
$DIMTDEC
 70
     2
  9
$DIMALTU
 70
     2
  9
$DIMALTTD
 70
     3
  9
$DIMTXSTY
  7
Standard
  9
$DIMAUNIT
 70
     0
  9
$DIMADEC
 70
     0
  9
$DIMALTRND
 40
0.0
  9
$DIMAZIN
 70
     0
  9
$DIMDSEP
 70
    44
  9
$DIMATFIT
 70
     3
  9
$DIMFRAC
 70
     0
  9
$DIMLDRBLK
  1

  9
$DIMLUNIT
 70
     2
  9
$DIMLWD
 70
    -2
  9
$DIMLWE
 70
    -2
  9
$DIMTMOVE
 70
     0
  9
$LUNITS
 70
     2
  9
$LUPREC
 70
     4
  9
$SKETCHINC
 40
1.0
  9
$FILLETRAD
 40
10.0
  9
$AUNITS
 70
     0
  9
$AUPREC
 70
     0
  9
$MENU
  1
.
  9
$ELEVATION
 40
0.0
  9
$PELEVATION
 40
0.0
  9
$THICKNESS
 40
0.0
  9
$LIMCHECK
 70
     0
  9
$CHAMFERA
 40
10.0
  9
$CHAMFERB
 40
10.0
  9
$CHAMFERC
 40
20.0
  9
$CHAMFERD
 40
0.0
  9
$SKPOLY
 70
     0
  9
$TDCREATE
 40
2455979.61613956
  9
$TDUCREATE
 40
2455979.574472893
  9
$TDUPDATE
 40
2455979.616139572
  9
$TDUUPDATE
 40
2455979.574472905
  9
$TDINDWG
 40
0.0000000116
  9
$TDUSRTIMER
 40
0.0000000116
  9
$USRTIMER
 70
     1
  9
$ANGBASE
 50
0.0
  9
$ANGDIR
 70
     0
  9
$PDMODE
 70
     0
  9
$PDSIZE
 40
0.0
  9
$PLINEWID
 40
0.0
  9
$SPLFRAME
 70
     0
  9
$SPLINETYPE
 70
     6
  9
$SPLINESEGS
 70
     8
  9
$HANDSEED
  5
121
  9
$SURFTAB1
 70
     6
  9
$SURFTAB2
 70
     6
  9
$SURFTYPE
 70
     6
  9
$SURFU
 70
     6
  9
$SURFV
 70
     6
  9
$UCSBASE
  2

  9
$UCSNAME
  2

  9
$UCSORG
 10
0.0
 20
0.0
 30
0.0
  9
$UCSXDIR
 10
1.0
 20
0.0
 30
0.0
  9
$UCSYDIR
 10
0.0
 20
1.0
 30
0.0
  9
$UCSORTHOREF
  2

  9
$UCSORTHOVIEW
 70
     0
  9
$UCSORGTOP
 10
0.0
 20
0.0
 30
0.0
  9
$UCSORGBOTTOM
 10
0.0
 20
0.0
 30
0.0
  9
$UCSORGLEFT
 10
0.0
 20
0.0
 30
0.0
  9
$UCSORGRIGHT
 10
0.0
 20
0.0
 30
0.0
  9
$UCSORGFRONT
 10
0.0
 20
0.0
 30
0.0
  9
$UCSORGBACK
 10
0.0
 20
0.0
 30
0.0
  9
$PUCSBASE
  2

  9
$PUCSNAME
  2

  9
$PUCSORG
 10
0.0
 20
0.0
 30
0.0
  9
$PUCSXDIR
 10
1.0
 20
0.0
 30
0.0
  9
$PUCSYDIR
 10
0.0
 20
1.0
 30
0.0
  9
$PUCSORTHOREF
  2

  9
$PUCSORTHOVIEW
 70
     0
  9
$PUCSORGTOP
 10
0.0
 20
0.0
 30
0.0
  9
$PUCSORGBOTTOM
 10
0.0
 20
0.0
 30
0.0
  9
$PUCSORGLEFT
 10
0.0
 20
0.0
 30
0.0
  9
$PUCSORGRIGHT
 10
0.0
 20
0.0
 30
0.0
  9
$PUCSORGFRONT
 10
0.0
 20
0.0
 30
0.0
  9
$PUCSORGBACK
 10
0.0
 20
0.0
 30
0.0
  9
$USERI1
 70
     0
  9
$USERI2
 70
     0
  9
$USERI3
 70
     0
  9
$USERI4
 70
     0
  9
$USERI5
 70
     0
  9
$USERR1
 40
0.0
  9
$USERR2
 40
0.0
  9
$USERR3
 40
0.0
  9
$USERR4
 40
0.0
  9
$USERR5
 40
0.0
  9
$WORLDVIEW
 70
     1
  9
$SHADEDGE
 70
     3
  9
$SHADEDIF
 70
    70
  9
$TILEMODE
 70
     1
  9
$MAXACTVP
 70
    64
  9
$PINSBASE
 10
0.0
 20
0.0
 30
0.0
  9
$PLIMCHECK
 70
     0
  9
$PEXTMIN
 10
0.0
 20
0.0
 30
0.0
  9
$PEXTMAX
 10
3000.0
 20
4500.0
 30
0.0
  9
$PLIMMIN
 10
0.0
 20
0.0
  9
$PLIMMAX
 10
3000.0
 20
4500.0
  9
$UNITMODE
 70
     0
  9
$VISRETAIN
 70
     1
  9
$PLINEGEN
 70
     0
  9
$PSLTSCALE
 70
     1
  9
$TREEDEPTH
 70
  3020
  9
$CMLSTYLE
  2
Standard
  9
$CMLJUST
 70
     0
  9
$CMLSCALE
 40
20.0
  9
$PROXYGRAPHICS
 70
     1
  9
$MEASUREMENT
 70
     1
  9
$CELWEIGHT
370
    -1
  9
$ENDCAPS
280
     0
  9
$JOINSTYLE
280
     0
  9
$LWDISPLAY
290
     0
  9
$INSUNITS
 70
     4
  9
$HYPERLINKBASE
  1

  9
$STYLESHEET
  1

  9
$XEDIT
290
     1
  9
$CEPSNTYPE
380
     0
  9
$PSTYLEMODE
290
     1
  9
$FINGERPRINTGUID
  2
{47637A3D-8AA9-4DD4-A1DE-C9679C01F5CA}
  9
$VERSIONGUID
  2
{FAEB1C32-E019-11D5-929B-00C0DF256EC4}
  9
$EXTNAMES
290
     1
  9
$PSVPSCALE
 40
0.0
  9
$OLESTARTUP
290
     0
  0
ENDSEC
  0
SECTION
  2
CLASSES
  0
CLASS
  1
ACDBDICTIONARYWDFLT
  2
AcDbDictionaryWithDefault
  3
ObjectDBX Classes
 90
        0
280
     0
281
     0
  0
CLASS
  1
VISUALSTYLE
  2
AcDbVisualStyle
  3
ObjectDBX Classes
 90
     4095
280
     0
281
     0
  0
CLASS
  1
SCALE
  2
AcDbScale
  3
ObjectDBX Classes
 90
     1153
280
     0
281
     0
  0
CLASS
  1
DICTIONARYVAR
  2
AcDbDictionaryVar
  3
ObjectDBX Classes
 90
        0
280
     0
281
     0
  0
CLASS
  1
ACDBPLACEHOLDER
  2
AcDbPlaceHolder
  3
ObjectDBX Classes
 90
        0
280
     0
281
     0
  0
CLASS
  1
LAYOUT
  2
AcDbLayout
  3
ObjectDBX Classes
 90
        0
280
     0
281
     0
  0
ENDSEC
  0
SECTION
  2
TABLES
  0
TABLE
  2
VPORT
  5
8
330
0
100
AcDbSymbolTable
 70
     1
  0
VPORT
  5
29
330
8
100
AcDbSymbolTableRecord
100
AcDbViewportTableRecord
  2
*Active
 70
     0
 10
0.0
 20
0.0
 11
1.0
 21
1.0
 12
344.1869158879
 22
148.5
 13
0.0
 23
0.0
 14
10.0
 24
10.0
 15
10.0
 25
10.0
 16
0.0
 26
0.0
 36
1.0
 17
0.0
 27
0.0
 37
0.0
 40
297.0
 41
1.9729729729
 42
50.0
 43
0.0
 44
0.0
 50
0.0
 51
0.0
 71
     0
 72
   100
 73
     1
 74
     3
 75
     0
 76
     0
 77
     0
 78
     0
281
     0
 65
     1
110
0.0
120
0.0
130
0.0
111
1.0
121
0.0
131
0.0
112
0.0
122
1.0
132
0.0
 79
     0
146
0.0
  0
ENDTAB
  0
TABLE
  2
LTYPE
  5
5
330
0
100
AcDbSymbolTable
 70
     2
  0
LTYPE
  5
14
330
5
100
AcDbSymbolTableRecord
100
AcDbLinetypeTableRecord
  2
ByBlock
 70
     0
  3

 72
    65
 73
     0
 40
0.0
  0
LTYPE
  5
15
330
5
100
AcDbSymbolTableRecord
100
AcDbLinetypeTableRecord
  2
ByLayer
 70
     0
  3

 72
    65
 73
     0
 40
0.0
  0
LTYPE
  5
16
330
5
100
AcDbSymbolTableRecord
100
AcDbLinetypeTableRecord
  2
Continuous
 70
     0
  3
Solid line
 72
    65
 73
     0
 40
0.0
  0
LTYPE
  5
60
330
5
100
AcDbSymbolTableRecord
100
AcDbLinetypeTableRecord
  2
CENTER2
 70
     0
  3
Center (.5x) ___ _ ___ _ ___ _ ___ _ ___ _ ___
 72
    65
 73
     4
 40
28.575
 49
19.05
 74
     4
 75
     0
340
0
 46
0.0
 50
0.0
 44
0.0
 45
0.0
 49
-3.175
 74
     4
 75
     0
340
0
 46
0.0
 50
0.0
 44
0.0
 45
0.0
 49
3.175
 74
     4
 75
     0
340
0
 46
0.0
 50
0.0
 44
0.0
 45
0.0
 49
-3.175
 74
     4
 75
     0
340
0
 46
0.0
 50
0.0
 44
0.0
 45
0.0
  0
ENDTAB
  0
TABLE
  2
LAYER
  5
2
330
0
100
AcDbSymbolTable
 70
     5
  0
LAYER
  5
10
330
2
100
AcDbSymbolTableRecord
100
AcDbLayerTableRecord
  2
0
 70
     0
 62
     7
  6
Continuous
370
    -3
390
F
  0
LAYER
  5
5D
330
2
100
AcDbSymbolTableRecord
100
AcDbLayerTableRecord
  2
Default
 70
     0
 62
     7
  6
Continuous
370
    -3
390
F
  0
LAYER
  5
77
330
2
100
AcDbSymbolTableRecord
100
AcDbLayerTableRecord
  2
DV1_Default
 70
     0
 62
     7
  6
Continuous
370
    -3
390
F
  0
LAYER
  5
A1
330
2
100
AcDbSymbolTableRecord
100
AcDbLayerTableRecord
  2
DV2_Default
 70
     0
 62
     7
  6
Continuous
370
    -3
390
F
  0
LAYER
  5
E0
330
2
100
AcDbSymbolTableRecord
100
AcDbLayerTableRecord
  2
DV3_Default
 70
     0
 62
     7
  6
Continuous
370
    -3
390
F
  0
ENDTAB
  0
TABLE
  2
STYLE
  5
3
330
0
100
AcDbSymbolTable
 70
     2
  0
STYLE
  5
11
330
3
100
AcDbSymbolTableRecord
100
AcDbTextStyleTableRecord
  2
Standard
 70
     0
 40
0.0
 41
1.0
 50
0.0
 71
     0
 42
2.5
  3
txt
  4

  0
STYLE
  5
110
330
3
100
AcDbSymbolTableRecord
100
AcDbTextStyleTableRecord
  2
SEACAD_seiso_ttf
 70
     0
 40
0.0
 41
1.0
 50
0.0
 71
     0
 42
0.2
  3
seiso.ttf
  4

  0
ENDTAB
  0
TABLE
  2
VIEW
  5
6
330
0
100
AcDbSymbolTable
 70
     0
  0
ENDTAB
  0
TABLE
  2
UCS
  5
7
330
0
100
AcDbSymbolTable
 70
     0
  0
ENDTAB
  0
TABLE
  2
APPID
  5
9
330
0
100
AcDbSymbolTable
 70
     1
  0
APPID
  5
12
330
9
100
AcDbSymbolTableRecord
100
AcDbRegAppTableRecord
  2
ACAD
 70
     0
  0
ENDTAB
  0
TABLE
  2
DIMSTYLE
  5
A
330
0
100
AcDbSymbolTable
 70
     1
100
AcDbDimStyleTable
  0
DIMSTYLE
105
27
330
A
100
AcDbSymbolTableRecord
100
AcDbDimStyleTableRecord
  2
ISO-25
 70
     0
 41
2.5
 42
0.625
 43
3.75
 44
1.25
 73
     0
 74
     0
 77
     1
 78
     8
140
2.5
141
2.5
143
0.0393700787
147
0.625
171
     3
172
     1
271
     2
272
     2
274
     3
278
    44
283
     0
284
     8
340
11
  0
ENDTAB
  0
TABLE
  2
BLOCK_RECORD
  5
1
330
0
100
AcDbSymbolTable
 70
     7
  0
BLOCK_RECORD
  5
1F
330
1
100
AcDbSymbolTableRecord
100
AcDbBlockTableRecord
  2
*Model_Space
340
22
  0
BLOCK_RECORD
  5
1B
330
1
100
AcDbSymbolTableRecord
100
AcDbBlockTableRecord
  2
*Paper_Space
340
1E
  0
BLOCK_RECORD
  5
5E
330
1
100
AcDbSymbolTableRecord
100
AcDbBlockTableRecord
  2
SEANNOT_GROUP
340
0
102
{BLKREFS
331
5F
102
}
  0
BLOCK_RECORD
  5
69
330
1
100
AcDbSymbolTableRecord
100
AcDbBlockTableRecord
  2
SEANNOT_GROUP1
340
0
102
{BLKREFS
331
6A
102
}
  0
BLOCK_RECORD
  5
6F
330
1
100
AcDbSymbolTableRecord
100
AcDbBlockTableRecord
  2
SEANNOT_GROUP2
340
0
102
{BLKREFS
331
70
102
}
  0
BLOCK_RECORD
  5
75
330
1
100
AcDbSymbolTableRecord
100
AcDbBlockTableRecord
  2
SE
340
0
102
{BLKREFS
331
76
102
}
  0
BLOCK_RECORD
  5
9F
330
1
100
AcDbSymbolTableRecord
100
AcDbBlockTableRecord
  2
SE1
340
0
102
{BLKREFS
331
A0
102
}
  0
BLOCK_RECORD
  5
DE
330
1
100
AcDbSymbolTableRecord
100
AcDbBlockTableRecord
  2
SE2
340
0
102
{BLKREFS
331
DF
102
}
  0
ENDTAB
  0
ENDSEC
  0
SECTION
  2
BLOCKS
  0
BLOCK
  5
20
330
1F
100
AcDbEntity
  8
0
100
AcDbBlockBegin
  2
*Model_Space
 70
     0
 10
0.0
 20
0.0
 30
0.0
  3
*Model_Space
  1

  0
ENDBLK
  5
21
330
1F
100
AcDbEntity
  8
0
100
AcDbBlockEnd
  0
BLOCK
  5
1C
330
1B
100
AcDbEntity
 67
     1
  8
0
100
AcDbBlockBegin
  2
*Paper_Space
 70
     0
 10
0.0
 20
0.0
 30
0.0
  3
*Paper_Space
  1

  0
ENDBLK
  5
1D
330
1B
100
AcDbEntity
 67
     1
  8
0
100
AcDbBlockEnd
  0
BLOCK
  5
67
330
5E
100
AcDbEntity
  8
0
100
AcDbBlockBegin
  2
SEANNOT_GROUP
 70
     0
 10
0.0
 20
0.0
 30
0.0
  3
SEANNOT_GROUP
  1

  0
LINE
  5
61
330
5E
100
AcDbEntity
  8
Default
  6
CENTER2
 62
     7
100
AcDbLine
 10
137.6683892426
 20
194.1898737162
 30
0.0
 11
97.6683901367
 21
194.1898737162
 31
0.0
  0
LINE
  5
62
330
5E
100
AcDbEntity
  8
Default
  6
CENTER2
 62
     7
100
AcDbLine
 10
117.6683896896
 20
214.1898732692
 30
0.0
 11
117.6683896896
 21
174.1898741633
 31
0.0
  0
LINE
  5
63
330
5E
100
AcDbEntity
  8
Default
  6
CENTER2
 62
     7
100
AcDbLine
 10
142.6683891308
 20
194.1898737162
 30
0.0
 11
137.3544362931
 21
194.1898737162
 31
0.0
  0
LINE
  5
64
330
5E
100
AcDbEntity
  8
Default
  6
CENTER2
 62
     7
100
AcDbLine
 10
117.6683896896
 20
219.1898731574
 30
0.0
 11
117.6683896896
 21
213.8759203197
 31
0.0
  0
LINE
  5
65
330
5E
100
AcDbEntity
  8
Default
  6
CENTER2
 62
     7
100
AcDbLine
 10
92.6683902484
 20
194.1898737162
 30
0.0
 11
97.9823430861
 21
194.1898737162
 31
0.0
  0
LINE
  5
66
330
5E
100
AcDbEntity
  8
Default
  6
CENTER2
 62
     7
100
AcDbLine
 10
117.6683896896
 20
169.189874275
 30
0.0
 11
117.6683896896
 21
174.5038271127
 31
0.0
  0
ENDBLK
  5
68
330
5E
100
AcDbEntity
  8
0
100
AcDbBlockEnd
  0
BLOCK
  5
6D
330
69
100
AcDbEntity
  8
0
100
AcDbBlockBegin
  2
SEANNOT_GROUP1
 70
     0
 10
0.0
 20
0.0
 30
0.0
  3
SEANNOT_GROUP1
  1

  0
LINE
  5
6B
330
69
100
AcDbEntity
  8
Default
  6
CENTER2
 62
     7
100
AcDbLine
 10
218.0412618304
 20
194.1898420247
 30
0.0
 11
178.0412627244
 21
194.1898420247
 31
0.0
  0
LINE
  5
6C
330
69
100
AcDbEntity
  8
Default
  6
CENTER2
 62
     7
100
AcDbLine
 10
198.0412622774
 20
214.1898415776
 30
0.0
 11
198.0412622774
 21
174.1898424717
 31
0.0
  0
ENDBLK
  5
6E
330
69
100
AcDbEntity
  8
0
100
AcDbBlockEnd
  0
BLOCK
  5
73
330
6F
100
AcDbEntity
  8
0
100
AcDbBlockBegin
  2
SEANNOT_GROUP2
 70
     0
 10
0.0
 20
0.0
 30
0.0
  3
SEANNOT_GROUP2
  1

  0
LINE
  5
71
330
6F
100
AcDbEntity
  8
Default
  6
CENTER2
 62
     7
100
AcDbLine
 10
137.6683681521
 20
109.639135865
 30
0.0
 11
97.6683690461
 21
109.639135865
 31
0.0
  0
LINE
  5
72
330
6F
100
AcDbEntity
  8
Default
  6
CENTER2
 62
     7
100
AcDbLine
 10
117.6683685991
 20
129.639135418
 30
0.0
 11
117.6683685991
 21
89.639136312
 31
0.0
  0
ENDBLK
  5
74
330
6F
100
AcDbEntity
  8
0
100
AcDbBlockEnd
  0
BLOCK
  5
9D
330
75
100
AcDbEntity
  8
0
100
AcDbBlockBegin
  2
SE
 70
     0
 10
0.0
 20
0.0
 30
0.0
  3
SE
  1

  0
SPLINE
  5
78
330
75
100
AcDbEntity
  8
DV1_Default
  6
Continuous
 62
     7
100
AcDbSpline
210
0.0
220
0.0
230
1.0
 70
     8
 71
     3
 72
    30
 73
    26
 74
     0
 42
0.0000000002917343
 43
0.0000000001
 40
0.0
 40
0.0
 40
0.0
 40
0.0
 40
0.1243898536328529
 40
0.1243898536328529
 40
0.2495530046919187
 40
0.2495530046919187
 40
0.3121345802214515
 40
0.3121345802214515
 40
0.3747161557509844
 40
0.3747161557509844
 40
0.4372977312805173
 40
0.4372977312805173
 40
0.4998793068100502
 40
0.4998793068100502
 40
0.5624608823395831
 40
0.5624608823395831
 40
0.625042457869116
 40
0.625042457869116
 40
0.687624033398649
 40
0.687624033398649
 40
0.7502056089281818
 40
0.7502056089281818
 40
0.8753687599872476
 40
0.8753687599872476
 40
1.0
 40
1.0
 40
1.0
 40
1.0
 10
134.8079900443396
 20
58.93601735705796
 30
0.0
 10
134.8022765661383
 20
58.93591720961267
 30
0.0
 10
134.3534264407773
 20
58.93581628365818
 30
0.0
 10
132.6509601827
 20
58.93563097288934
 30
0.0
 10
131.3744528569981
 20
58.93554477349443
 30
0.0
 10
129.0046508572837
 20
58.93543787923014
 30
0.0
 10
128.1232556439288
 20
58.93540525080843
 30
0.0
 10
126.2598330767372
 20
58.93534914308795
 30
0.0
 10
125.2756674666226
 20
58.93532540884948
 30
0.0
 10
123.2018434447165
 20
58.93528662771881
 30
0.0
 10
122.1125679773129
 20
58.93527174034982
 30
0.0
 10
119.9219425090073
 20
58.93525207868093
 30
0.0
 10
118.809046825778
 20
58.93524705643701
 30
0.0
 10
116.5467179654024
 20
58.93524700423434
 30
0.0
 10
115.4306792556952
 20
58.93525199410425
 30
0.0
 10
113.2403781541759
 20
58.93527156392489
 30
0.0
 10
112.152994566036
 20
58.935286368568
 30
0.0
 10
110.0756007010622
 20
58.93532511363502
 30
0.0
 10
109.090900399089
 20
58.93534882116007
 30
0.0
 10
107.2281571024939
 20
58.93540479894064
 30
0.0
 10
106.34548132878
 20
58.93543740483334
 30
0.0
 10
103.9719827795148
 20
58.93554427713302
 30
0.0
 10
102.6947190093882
 20
58.93563038760295
 30
0.0
 10
100.9869979800238
 20
58.93581581760111
 30
0.0
 10
100.5361807241869
 20
58.93591698410268
 30
0.0
 10
100.5302257846574
 20
58.93601726255262
 30
0.0
  0
SPLINE
  5
79
330
75
100
AcDbEntity
  8
DV1_Default
  6
Continuous
 62
     7
100
AcDbSpline
210
0.0
220
0.0
230
1.0
 70
     8
 71
     3
 72
    14
 73
    10
 74
     0
 42
0.0000000017496035
 43
0.0000000001
 40
0.0
 40
0.0
 40
0.0
 40
0.0
 40
0.2500000000000001
 40
0.2500000000000001
 40
0.5000000000000001
 40
0.5000000000000001
 40
0.75
 40
0.75
 40
1.0
 40
1.0
 40
1.0
 40
1.0
 10
115.7500391534932
 20
94.76149239912654
 30
0.0
 10
115.7499096406654
 20
95.23080230902828
 30
0.0
 10
115.9790997823248
 20
95.68788591769498
 30
0.0
 10
116.7309037329199
 20
96.23225361937479
 30
0.0
 10
117.208720988891
 20
96.33699530546176
 30
0.0
 10
118.1309385675775
 20
96.3365783507813
 30
0.0
 10
118.6078571116892
 20
96.23018491080171
 30
0.0
 10
119.3627872044697
 20
95.68437042388192
 30
0.0
 10
119.5871898768325
 20
95.22883420045346
 30
0.0
 10
119.5870609690764
 20
94.76148996110089
 30
0.0
  0
LINE
  5
7A
330
75
100
AcDbEntity
  8
DV1_Default
  6
Continuous
 62
     7
100
AcDbLine
 10
119.5870609691
 20
94.7614899611
 30
0.0
 11
119.5792680211
 21
66.766250455
 31
0.0
  0
SPLINE
  5
7B
330
75
100
AcDbEntity
  8
DV1_Default
  6
Continuous
 62
     7
100
AcDbSpline
210
0.0
220
0.0
230
1.0
 70
     8
 71
     3
 72
    14
 73
    10
 74
     0
 42
0.0000000017613005
 43
0.0000000001
 40
0.0
 40
0.0
 40
0.0
 40
0.0
 40
0.25
 40
0.25
 40
0.5
 40
0.5
 40
0.75
 40
0.75
 40
1.0
 40
1.0
 40
1.0
 40
1.0
 10
119.5792680210885
 20
66.76625045495469
 30
0.0
 10
119.5744627792148
 20
66.30043061700363
 30
0.0
 10
119.346882955604
 20
65.84964751608396
 30
0.0
 10
118.6019092158226
 20
65.3041874705623
 30
0.0
 10
118.1279741170227
 20
65.19923993017693
 30
0.0
 10
117.2106776424556
 20
65.19898243294514
 30
0.0
 10
116.7370637948701
 20
65.30629845173524
 30
0.0
 10
115.9895842370965
 20
65.84777842383704
 30
0.0
 10
115.7625695496559
 20
66.30071042559979
 30
0.0
 10
115.7578359098138
 20
66.7662053898658
 30
0.0
  0
LINE
  5
7C
330
75
100
AcDbEntity
  8
DV1_Default
  6
Continuous
 62
     7
100
AcDbLine
 10
115.7578359098
 20
66.7662053899
 30
0.0
 11
115.7500391535
 21
94.7614923991
 31
0.0
  0
ARC
  5
7D
330
75
100
AcDbEntity
  8
DV1_Default
  6
Continuous
 62
     7
100
AcDbCircle
 10
116.2708359064
 20
20.5280758289
 30
0.0
 40
46.24097527405014
100
AcDbArc
 50
90.0161088647
 51
90.6356556601
  0
SPLINE
  5
7E
330
75
100
AcDbEntity
  8
DV1_Default
  6
Continuous
 62
     7
100
AcDbSpline
210
0.0
220
0.0
230
1.0
 70
     8
 71
     3
 72
    10
 73
     6
 74
     0
 42
0.0000000199813976
 43
0.0000000001
 40
0.0
 40
0.0
 40
0.0
 40
0.0
 40
0.5
 40
0.5
 40
1.0
 40
1.0
 40
1.0
 40
1.0
 10
119.0792688155887
 20
66.76914875562424
 30
0.0
 10
119.2101683751848
 20
66.7686523076023
 30
0.0
 10
119.340261876407
 20
66.76815612794196
 30
0.0
 10
119.5253817332725
 20
66.7671848574812
 30
0.0
 10
119.5792681502148
 20
66.76671008693019
 30
0.0
 10
119.5792680210885
 20
66.76625045495469
 30
0.0
  0
ARC
  5
7F
330
75
100
AcDbEntity
  8
DV1_Default
  6
Continuous
 62
     7
100
AcDbCircle
 10
115.4841972696
 20
53.9342786516
 30
0.0
 40
12.83484405519634
100
AcDbArc
 50
88.7783624704
 51
90.7147134696
  0
ARC
  5
80
330
75
100
AcDbEntity
  8
DV1_Default
  6
Continuous
 62
     7
100
AcDbCircle
 10
119.8522675135
 20
53.9040307928
 30
0.0
 40
12.86511653112909
100
AcDbArc
 50
89.28398619
 51
91.2159153647
  0
LINE
  5
81
330
75
100
AcDbEntity
  8
DV1_Default
  6
Continuous
 62
     7
100
AcDbLine
 10
101.4820729564
 20
58.920150087
 30
0.0
 11
133.8532565586
 21
58.9201269109
 31
0.0
  0
LINE
  5
82
330
75
100
AcDbEntity
  8
DV1_Default
  6
Continuous
 62
     7
100
AcDbLine
 10
99.6878683084
 20
99.639135865
 30
0.0
 11
100.0387546003
 21
59.4315493267
 31
0.0
  0
LINE
  5
83
330
75
100
AcDbEntity
  8
DV1_Default
  6
Continuous
 62
     7
100
AcDbLine
 10
135.2994560227
 20
59.4314963548
 30
0.0
 11
135.6503427769
 21
99.639135865
 31
0.0
  0
ARC
  5
84
330
75
100
AcDbEntity
  8
DV1_Default
  6
Continuous
 62
     7
100
AcDbCircle
 10
117.6691055426
 20
1058.789135865
 30
0.0
 40
1000.0
100
AcDbArc
 50
269.0186267996
 51
269.0730471425
  0
ARC
  5
85
330
75
100
AcDbEntity
  8
DV1_Default
  6
Continuous
 62
     7
100
AcDbCircle
 10
117.6691055426
 20
1058.789135865
 30
0.0
 40
1000.0
100
AcDbArc
 50
270.9265467231
 51
270.9819017582
  0
ARC
  5
86
330
75
100
AcDbEntity
  8
DV1_Default
  6
Continuous
 62
     7
100
AcDbCircle
 10
134.7984746221
 20
59.4258080788
 30
0.0
 40
0.4882012744768626
100
AcDbArc
 50
277.6992675397
 51
0.7109116002
  0
ARC
  5
87
330
75
100
AcDbEntity
  8
DV1_Default
  6
Continuous
 62
     7
100
AcDbCircle
 10
100.5422091278
 20
59.4304422224
 30
0.0
 40
0.4939608328150627
100
AcDbArc
 50
179.9085025863
 51
263.0242510367
  0
LINE
  5
88
330
75
100
AcDbEntity
  8
DV1_Default
  6
Continuous
 62
     7
100
AcDbLine
 10
152.6683685991
 20
109.639135865
 30
0.0
 11
152.6683685991
 21
100.139135865
 31
0.0
  0
LINE
  5
89
330
75
100
AcDbEntity
  8
DV1_Default
  6
Continuous
 62
     7
100
AcDbLine
 10
151.1683685991
 20
109.639135865
 30
0.0
 11
84.1683685991
 21
109.639135865
 31
0.0
  0
LINE
  5
8A
330
75
100
AcDbEntity
  8
DV1_Default
  6
Continuous
 62
     7
100
AcDbLine
 10
151.1683685991
 20
109.639135865
 30
0.0
 11
152.6683685991
 21
109.639135865
 31
0.0
  0
LINE
  5
8B
330
75
100
AcDbEntity
  8
DV1_Default
  6
Continuous
 62
     7
100
AcDbLine
 10
117.6683685991
 20
99.639135865
 30
0.0
 11
151.1683685991
 21
99.639135865
 31
0.0
  0
LINE
  5
8C
330
75
100
AcDbEntity
  8
DV1_Default
  6
Continuous
 62
     7
100
AcDbLine
 10
151.1683685991
 20
99.639135865
 30
0.0
 11
152.1683686024
 21
99.639135865
 31
0.0
  0
LINE
  5
8D
330
75
100
AcDbEntity
  8
DV1_Default
  6
Continuous
 62
     7
100
AcDbLine
 10
152.6562202476
 20
100.139135865
 30
0.0
 11
152.6683685991
 21
100.139135865
 31
0.0
  0
SPLINE
  5
8E
330
75
100
AcDbEntity
  8
DV1_Default
  6
Continuous
 62
     7
100
AcDbSpline
210
0.0
220
0.0
230
1.0
 70
     8
 71
     5
 72
    12
 73
     6
 74
     0
 42
0.0000002530179063
 43
0.0000000001
 40
0.0
 40
0.0
 40
0.0
 40
0.0
 40
0.0
 40
0.0
 40
1.0
 40
1.0
 40
1.0
 40
1.0
 40
1.0
 40
1.0
 10
152.6680992715982
 20
100.0996150171807
 30
0.0
 10
152.6682570358809
 20
100.1075789074086
 30
0.0
 10
152.6683396971874
 20
100.1155021326823
 30
0.0
 10
152.6683685991113
 20
100.1233928887549
 30
0.0
 10
152.6683685991113
 20
100.1312643768783
 30
0.0
 10
152.6683685991113
 20
100.1391358650017
 30
0.0
  0
SPLINE
  5
8F
330
75
100
AcDbEntity
  8
DV1_Default
  6
Continuous
 62
     7
100
AcDbSpline
210
0.0
220
0.0
230
1.0
 70
     8
 71
     5
 72
    14
 73
     8
 74
     0
 42
0.0000000118336185
 43
0.0000000001
 40
0.0
 40
0.0
 40
0.0
 40
0.0
 40
0.0
 40
0.0
 40
0.5
 40
0.5
 40
1.0
 40
1.0
 40
1.0
 40
1.0
 40
1.0
 40
1.0
 10
152.1683686023889
 20
99.6391358650017
 30
0.0
 10
152.2433686018971
 20
99.6391358650017
 30
0.0
 10
152.3183686014056
 20
99.6391358650017
 30
0.0
 10
152.5017019335371
 20
99.68913586500169
 30
0.0
 10
152.6183685994389
 20
99.80580253166836
 30
0.0
 10
152.6683685991113
 20
99.9891358650017
 30
0.0
 10
152.6683685991113
 20
100.0641358650017
 30
0.0
 10
152.6683685991113
 20
100.1391358650017
 30
0.0
  0
LINE
  5
90
330
75
100
AcDbEntity
  8
DV1_Default
  6
Continuous
 62
     7
100
AcDbLine
 10
117.6683685991
 20
99.639135865
 30
0.0
 11
84.1683685991
 21
99.639135865
 31
0.0
  0
LINE
  5
91
330
75
100
AcDbEntity
  8
DV1_Default
  6
Continuous
 62
     7
100
AcDbLine
 10
84.1683685991
 20
99.639135865
 30
0.0
 11
83.1683685958
 21
99.639135865
 31
0.0
  0
LINE
  5
92
330
75
100
AcDbEntity
  8
DV1_Default
  6
Continuous
 62
     7
100
AcDbLine
 10
82.6807822965
 20
100.139135865
 30
0.0
 11
82.6683685991
 21
100.139135865
 31
0.0
  0
SPLINE
  5
93
330
75
100
AcDbEntity
  8
DV1_Default
  6
Continuous
 62
     7
100
AcDbSpline
210
0.0
220
0.0
230
1.0
 70
     8
 71
     5
 72
    14
 73
     8
 74
     0
 42
0.0000000118336185
 43
0.0000000001
 40
0.0
 40
0.0
 40
0.0
 40
0.0
 40
0.0
 40
0.0
 40
0.5
 40
0.5
 40
1.0
 40
1.0
 40
1.0
 40
1.0
 40
1.0
 40
1.0
 10
83.16836859583356
 20
99.6391358650017
 30
0.0
 10
83.09336859632536
 20
99.6391358650017
 30
0.0
 10
83.01836859681696
 20
99.6391358650017
 30
0.0
 10
82.83503526468547
 20
99.68913586500169
 30
0.0
 10
82.71836859878366
 20
99.80580253166836
 30
0.0
 10
82.66836859911125
 20
99.9891358650017
 30
0.0
 10
82.66836859911125
 20
100.0641358650017
 30
0.0
 10
82.66836859911125
 20
100.1391358650017
 30
0.0
  0
SPLINE
  5
94
330
75
100
AcDbEntity
  8
DV1_Default
  6
Continuous
 62
     7
100
AcDbSpline
210
0.0
220
0.0
230
1.0
 70
     8
 71
     5
 72
    12
 73
     6
 74
     0
 42
0.0000002632111838
 43
0.0000000001
 40
0.0
 40
0.0
 40
0.0
 40
0.0
 40
0.0
 40
0.0
 40
1.0
 40
1.0
 40
1.0
 40
1.0
 40
1.0
 40
1.0
 10
82.66860869874974
 20
100.1011452527245
 30
0.0
 10
82.6684679219786
 20
100.1087970346225
 30
0.0
 10
82.66839429419636
 20
100.1164121126735
 30
0.0
 10
82.66836859911125
 20
100.1239981168208
 30
0.0
 10
82.66836859911125
 20
100.1315669909112
 30
0.0
 10
82.66836859911125
 20
100.1391358650017
 30
0.0
  0
LINE
  5
95
330
75
100
AcDbEntity
  8
DV1_Default
  6
Continuous
 62
     7
100
AcDbLine
 10
84.1683685991
 20
109.639135865
 30
0.0
 11
82.6683685991
 21
109.639135865
 31
0.0
  0
LINE
  5
96
330
75
100
AcDbEntity
  8
DV1_Default
  6
Continuous
 62
     7
100
AcDbLine
 10
82.6683685991
 20
109.639135865
 30
0.0
 11
82.6683685991
 21
100.139135865
 31
0.0
  0
ARC
  5
97
330
75
100
AcDbEntity
  8
DV1_Default
  6
Continuous
 62
     7
100
AcDbCircle
 10
152.4412077304
 20
100.0700904879
 30
0.0
 40
0.2255794403462207
100
AcDbArc
 50
351.9105445305
 51
17.8231569544
  0
ARC
  5
98
330
75
100
AcDbEntity
  8
DV1_Default
  6
Continuous
 62
     7
100
AcDbCircle
 10
82.879723162
 20
100.071981016
 30
0.0
 40
0.2099750745717928
100
AcDbArc
 50
161.3477816627
 51
187.7469160592
  0
LINE
  5
99
330
75
100
AcDbEntity
  8
DV1_Default
  6
Continuous
 62
     7
100
AcDbLine
 10
115.767188612
 20
66.6454450895
 30
0.0
 11
115.7679747473
 21
66.6904827522
 31
0.0
  0
ARC
  5
9A
330
75
100
AcDbEntity
  8
DV1_Default
  6
Continuous
 62
     7
100
AcDbCircle
 10
117.6683894794
 20
1058.8528003096
 30
0.0
 40
1000.0
100
AcDbArc
 50
269.3624738198
 51
270.0
  0
ARC
  5
9B
330
75
100
AcDbEntity
  8
DV1_Default
  6
Continuous
 62
     7
100
AcDbCircle
 10
117.6683894794
 20
1058.8528003096
 30
0.0
 40
1000.0
100
AcDbArc
 50
270.0
 51
270.6324799063
  0
ARC
  5
9C
330
75
100
AcDbEntity
  8
DV1_Default
  6
Continuous
 62
     7
100
AcDbCircle
 10
117.6683894794
 20
1058.8528003096
 30
0.0
 40
1000.0
100
AcDbArc
 50
270.7498558803
 51
270.9106711269
  0
ENDBLK
  5
9E
330
75
100
AcDbEntity
  8
0
100
AcDbBlockEnd
  0
BLOCK
  5
DC
330
9F
100
AcDbEntity
  8
0
100
AcDbBlockBegin
  2
SE1
 70
     0
 10
0.0
 20
0.0
 30
0.0
  3
SE1
  1

  0
LINE
  5
A2
330
9F
100
AcDbEntity
  8
DV2_Default
  6
Continuous
 62
     7
100
AcDbLine
 10
248.2495874355
 20
211.775194827
 30
0.0
 11
248.2495874319
 21
211.7751139293
 31
0.0
  0
LINE
  5
A3
330
9F
100
AcDbEntity
  8
DV2_Default
  6
Continuous
 62
     7
100
AcDbLine
 10
248.2495874319
 20
211.7751139293
 30
0.0
 11
248.2480436777
 21
176.5144926079
 31
0.0
  0
LINE
  5
A4
330
9F
100
AcDbEntity
  8
DV2_Default
  6
Continuous
 62
     7
100
AcDbLine
 10
248.7451511121
 20
211.2837587387
 30
0.0
 11
248.7451511088
 21
211.283685891
 31
0.0
  0
LINE
  5
A5
330
9F
100
AcDbEntity
  8
DV2_Default
  6
Continuous
 62
     7
100
AcDbLine
 10
248.745151101
 20
211.2835137136
 30
0.0
 11
248.7436065821
 21
177.0058816333
 31
0.0
  0
LINE
  5
A6
330
9F
100
AcDbEntity
  8
DV2_Default
  6
Continuous
 62
     7
100
AcDbLine
 10
240.9141927525
 20
213.1895493689
 30
0.0
 11
240.9141927525
 21
212.1787393071
 31
0.0
  0
LINE
  5
A7
330
9F
100
AcDbEntity
  8
DV2_Default
  6
Continuous
 62
     7
100
AcDbLine
 10
212.9187702661
 20
213.6895493689
 30
0.0
 11
211.8436112248
 21
213.6895493689
 31
0.0
  0
LINE
  5
A8
330
9F
100
AcDbEntity
  8
DV2_Default
  6
Continuous
 62
     7
100
AcDbLine
 10
241.981286991
 20
213.6895493689
 30
0.0
 11
240.9113488671
 21
213.6895493689
 31
0.0
  0
LINE
  5
A9
330
9F
100
AcDbEntity
  8
DV2_Default
  6
Continuous
 62
     7
100
AcDbLine
 10
212.9187677611
 20
213.6895493689
 30
0.0
 11
240.9113488671
 21
213.6895493689
 31
0.0
  0
ARC
  5
AA
330
9F
100
AcDbEntity
  8
DV2_Default
  6
Continuous
 62
     7
100
AcDbCircle
 10
199.0261988481
 20
213.201308143
 30
0.0
 40
41.88799555486535
100
AcDbArc
 50
359.9839159614
 51
0.6678475473
  0
ARC
  5
AB
330
9F
100
AcDbEntity
  8
DV2_Default
  6
Continuous
 62
     7
100
AcDbCircle
 10
212.8535716711
 20
223.7298169592
 30
0.0
 40
11.80132623157917
100
AcDbArc
 50
260.1722795676
 51
270.2966977604
  0
LINE
  5
AC
330
9F
100
AcDbEntity
  8
DV2_Default
  6
Continuous
 62
     7
100
AcDbLine
 10
240.9122739944
 20
211.6831483743
 30
0.0
 11
212.9146804577
 21
211.9285059728
 31
0.0
  0
ARC
  5
AD
330
9F
100
AcDbEntity
  8
DV2_Default
  6
Continuous
 62
     7
100
AcDbCircle
 10
241.1644813998
 20
223.4308143702
 30
0.0
 40
11.75022930420596
100
AcDbArc
 50
268.7700157836
 51
278.8731506166
  0
LINE
  5
AE
330
9F
100
AcDbEntity
  8
DV2_Default
  6
Continuous
 62
     7
100
AcDbLine
 10
240.9141927525
 20
212.1787393071
 30
0.0
 11
240.9141925901
 21
212.1786992352
 31
0.0
  0
ELLIPSE
  5
AF
330
9F
100
AcDbEntity
  8
DV2_Default
  6
Continuous
 62
     7
100
AcDbEllipse
 10
212.9190437255
 20
212.4241653803
 30
0.0
 11
-0.004383048948805243
 21
-0.4999807885130609
 31
0.0
210
0.0
220
0.0
230
0.9999999999999999
 40
0.0002759538
 41
4.712391399515538
 42
6.151615894550509
  0
ARC
  5
B0
330
9F
100
AcDbEntity
  8
DV2_Default
  6
Continuous
 62
     7
100
AcDbCircle
 10
276.5293543748
 20
211.7930192448
 30
0.0
 40
35.61724984379158
100
AcDbArc
 50
179.3795627801
 51
180.1767443355
  0
ARC
  5
B1
330
9F
100
AcDbEntity
  8
DV2_Default
  6
Continuous
 62
     7
100
AcDbCircle
 10
241.1429123486
 20
162.7944218119
 30
0.0
 40
14.14913184516374
100
AcDbArc
 50
75.3525946239
 51
90.8932201118
  0
LINE
  5
B2
330
9F
100
AcDbEntity
  8
DV2_Default
  6
Continuous
 62
     7
100
AcDbLine
 10
212.9191383356
 20
176.6923535832
 30
0.0
 11
240.9223415262
 21
176.9418343133
 31
0.0
  0
ARC
  5
B3
330
9F
100
AcDbEntity
  8
DV2_Default
  6
Continuous
 62
     7
100
AcDbCircle
 10
212.9331198778
 20
162.3127367856
 30
0.0
 40
14.37936039804474
100
AcDbArc
 50
90.0557017508
 51
105.4438201215
  0
ELLIPSE
  5
B4
330
9F
100
AcDbEntity
  8
DV2_Default
  6
Continuous
 62
     7
100
AcDbEllipse
 10
240.9205833483
 20
177.4279527742
 30
0.0
 11
0.0
 21
0.4999665512929266
 31
0.0
210
0.0
220
0.0
230
1.0
 40
1.0
 41
3.144850996778739
 42
3.145209406325466
  0
ELLIPSE
  5
B5
330
9F
100
AcDbEntity
  8
DV2_Default
  6
Continuous
 62
     7
100
AcDbEllipse
 10
212.9147750679
 20
177.1787841184
 30
0.0
 11
0.0
 21
0.4999648455076843
 31
0.0
210
0.0
220
0.0
230
1.0
 40
1.0
 41
3.150483956432978
 42
3.150562383934282
  0
LINE
  5
B6
330
9F
100
AcDbEntity
  8
DV2_Default
  6
Continuous
 62
     7
100
AcDbLine
 10
248.760259645
 20
178.004243095
 30
0.0
 11
248.7602596548
 21
210.3746840316
 31
0.0
  0
LINE
  5
B7
330
9F
100
AcDbEntity
  8
DV2_Default
  6
Continuous
 62
     7
100
AcDbLine
 10
244.710337669
 20
176.4836194461
 30
0.0
 11
248.2481626003
 21
176.5144935766
 31
0.0
  0
LINE
  5
B8
330
9F
100
AcDbEntity
  8
DV2_Default
  6
Continuous
 62
     7
100
AcDbLine
 10
208.0412622774
 20
176.1636132732
 30
0.0
 11
209.1132670097
 21
176.1729685168
 31
0.0
  0
LINE
  5
B9
330
9F
100
AcDbEntity
  8
DV2_Default
  6
Continuous
 62
     7
100
AcDbLine
 10
210.8458231733
 20
212.1016127095
 30
0.0
 11
208.0412622774
 21
212.1260877417
 31
0.0
  0
LINE
  5
BA
330
9F
100
AcDbEntity
  8
DV2_Default
  6
Continuous
 62
     7
100
AcDbLine
 10
248.249724414
 20
211.7751938086
 30
0.0
 11
242.9689698398
 21
211.8212782556
 31
0.0
  0
ARC
  5
BB
330
9F
100
AcDbEntity
  8
DV2_Default
  6
Continuous
 62
     7
100
AcDbCircle
 10
-751.1087377226
 20
194.1898737162
 30
0.0
 40
1000.0
100
AcDbArc
 50
359.0160617878
 51
359.0730881447
  0
ARC
  5
BC
330
9F
100
AcDbEntity
  8
DV2_Default
  6
Continuous
 62
     7
100
AcDbCircle
 10
-751.1087377226
 20
194.1898737162
 30
0.0
 40
1000.0
100
AcDbArc
 50
0.9266016547
 51
0.9791669177
  0
ARC
  5
BD
330
9F
100
AcDbEntity
  8
DV2_Default
  6
Continuous
 62
     7
100
AcDbCircle
 10
248.2452241774
 20
211.275136126
 30
0.0
 40
0.4999976510359637
100
AcDbArc
 50
359.9795363347
 51
89.8345238891
  0
ARC
  5
BE
330
9F
100
AcDbEntity
  8
DV2_Default
  6
Continuous
 62
     7
100
AcDbCircle
 10
248.2436805574
 20
177.014641922
 30
0.0
 40
0.4999948442982149
100
AcDbArc
 50
270.7926565575
 51
0.0360969267
  0
LINE
  5
BF
330
9F
100
AcDbEntity
  8
DV2_Default
  6
Continuous
 62
     7
100
AcDbLine
 10
211.3436110194
 20
213.1895493689
 30
0.0
 11
211.3436110194
 21
212.6004045336
 31
0.0
  0
LINE
  5
C0
330
9F
100
AcDbEntity
  8
DV2_Default
  6
Continuous
 62
     7
100
AcDbLine
 10
242.4812870726
 20
212.3197143025
 30
0.0
 11
242.4812870726
 21
213.1895493689
 31
0.0
  0
ARC
  5
C1
330
9F
100
AcDbEntity
  8
DV2_Default
  6
Continuous
 62
     7
100
AcDbCircle
 10
241.9812793312
 20
213.1895493768
 30
0.0
 40
0.4999999921320663
100
AcDbArc
 50
0.1451137238
 51
89.952816713
  0
ARC
  5
C2
330
9F
100
AcDbEntity
  8
DV2_Default
  6
Continuous
 62
     7
100
AcDbCircle
 10
211.8436202237
 20
213.1895493578
 30
0.0
 40
0.4999982061807773
100
AcDbArc
 50
90.0544960824
 51
180.1767391287
  0
ARC
  5
C3
330
9F
100
AcDbEntity
  8
DV2_Default
  6
Continuous
 62
     7
100
AcDbCircle
 10
210.8481540299
 20
212.5923048734
 30
0.0
 40
0.4898766767346647
100
AcDbArc
 50
269.7032586151
 51
0.9603532314
  0
ARC
  5
C4
330
9F
100
AcDbEntity
  8
DV2_Default
  6
Continuous
 62
     7
100
AcDbCircle
 10
242.9795948021
 20
212.3178210627
 30
0.0
 40
0.4958125588760811
100
AcDbArc
 50
179.9024476801
 51
268.75260589
  0
SPLINE
  5
C5
330
9F
100
AcDbEntity
  8
DV2_Default
  6
Continuous
 62
     7
100
AcDbSpline
210
0.0
220
0.0
230
1.0
 70
     8
 71
     3
 72
    22
 73
    18
 74
     0
 42
0.0000000027068829
 43
0.0000000001
 40
0.0
 40
0.0
 40
0.0
 40
0.0
 40
0.0440103752075962
 40
0.1152209679425402
 40
0.186909787688722
 40
0.2578950590451979
 40
0.329071494016632
 40
0.4009208780729379
 40
0.4719241372375362
 40
0.5436781212411518
 40
0.6165838368714217
 40
0.6896232846923567
 40
0.7645611373189897
 40
0.8410995213396096
 40
0.920225862514791
 40
0.9862509917058216
 40
1.0
 40
1.0
 40
1.0
 40
1.0
 10
240.9241686224271
 20
176.9263151113019
 30
0.0
 10
241.0200662146147
 20
176.9271902538159
 30
0.0
 10
241.233257255571
 20
176.9288867346782
 30
0.0
 10
241.6094314341086
 20
176.9191533355892
 30
0.0
 10
242.0176096956641
 20
176.8992658819543
 30
0.0
 10
242.4128653340583
 20
176.8689251894703
 30
0.0
 10
242.7861915708445
 20
176.830775548062
 30
0.0
 10
243.1335729336656
 20
176.7868798796291
 30
0.0
 10
243.4492282990454
 20
176.7392059668335
 30
0.0
 10
243.731377108954
 20
176.690355384304
 30
0.0
 10
243.977333820637
 20
176.6426318131726
 30
0.0
 10
244.1840384071998
 20
176.5985079427265
 30
0.0
 10
244.3502866930911
 20
176.5601947808097
 30
0.0
 10
244.4768228263937
 20
176.5290751708314
 30
0.0
 10
244.5537193050559
 20
176.5096113651719
 30
0.0
 10
244.5820015251403
 20
176.5020719486532
 30
0.0
 10
244.5832103240313
 20
176.5018399087302
 30
0.0
 10
244.5833718665229
 20
176.5017885077757
 30
0.0
  0
ARC
  5
C6
330
9F
100
AcDbEntity
  8
DV2_Default
  6
Continuous
 62
     7
100
AcDbCircle
 10
241.2529501987
 20
163.2060379047
 30
0.0
 40
13.72452315428417
100
AcDbArc
 50
75.4087070982
 51
91.3808283509
  0
LINE
  5
C7
330
9F
100
AcDbEntity
  8
DV2_Default
  6
Continuous
 62
     7
100
AcDbLine
 10
212.919222515
 20
176.6788039884
 30
0.0
 11
240.9222763114
 21
176.927975921
 31
0.0
  0
SPLINE
  5
C8
330
9F
100
AcDbEntity
  8
DV2_Default
  6
Continuous
 62
     7
100
AcDbSpline
210
0.0
220
0.0
230
1.0
 70
     8
 71
     3
 72
     8
 73
     4
 74
     0
 42
0.0000000003570647
 43
0.0000000001
 40
0.0
 40
0.0
 40
0.0
 40
0.0
 40
1.0
 40
1.0
 40
1.0
 40
1.0
 10
212.9192247010052
 20
176.6785500339279
 30
0.0
 10
217.7958874456135
 20
176.7219173553328
 30
0.0
 10
227.1308934573867
 20
176.8049769073264
 30
0.0
 10
240.9242427363248
 20
176.9277286899088
 30
0.0
  0
ARC
  5
C9
330
9F
100
AcDbEntity
  8
DV2_Default
  6
Continuous
 62
     7
100
AcDbCircle
 10
212.8539945147
 20
162.5453682007
 30
0.0
 40
14.13282851930128
100
AcDbArc
 50
104.6307099681
 51
105.3489606324
  0
ARC
  5
CA
330
9F
100
AcDbEntity
  8
DV2_Default
  6
Continuous
 62
     7
100
AcDbCircle
 10
212.8539945147
 20
162.5453682007
 30
0.0
 40
14.13282851930128
100
AcDbArc
 50
89.7351557423
 51
90.064022208
  0
SPLINE
  5
CB
330
9F
100
AcDbEntity
  8
DV2_Default
  6
Continuous
 62
     7
100
AcDbSpline
210
0.0
220
0.0
230
1.0
 70
     8
 71
     3
 72
    22
 73
    18
 74
     0
 42
0.000000002687039
 43
0.0000000001
 40
0.0
 40
0.0
 40
0.0
 40
0.0
 40
0.0222265429778106
 40
0.076979254346287
 40
0.1527786220459747
 40
0.230731717194775
 40
0.3095714109635072
 40
0.3854686654390443
 40
0.4594109076643071
 40
0.5318071597689508
 40
0.6037268887421022
 40
0.6744609227507385
 40
0.7450847787281049
 40
0.8160087280838632
 40
0.8864428372649413
 40
0.9572873991775007
 40
1.0
 40
1.0
 40
1.0
 40
1.0
 10
209.2399976494268
 20
176.1930175200442
 30
0.0
 10
209.239955519919
 20
176.1930058639949
 30
0.0
 10
209.2447226124231
 20
176.1943616331137
 30
0.0
 10
209.2707440339297
 20
176.201590540065
 30
0.0
 10
209.3419942719164
 20
176.2208007584041
 30
0.0
 10
209.4671483841162
 20
176.2535678996143
 30
0.0
 10
209.6388171597385
 20
176.2958810769716
 30
0.0
 10
209.8543091844025
 20
176.3451359056925
 30
0.0
 10
210.1081936523357
 20
176.39808687624
 30
0.0
 10
210.3970486422139
 20
176.452219965069
 30
0.0
 10
210.7170797704472
 20
176.5050365543998
 30
0.0
 10
211.0667583379668
 20
176.5541378013414
 30
0.0
 10
211.4401328227194
 20
176.59768548068
 30
0.0
 10
211.83483563685
 20
176.6337473285806
 30
0.0
 10
212.2422795555472
 20
176.6597063318672
 30
0.0
 10
212.6146524423162
 20
176.6751216976004
 30
0.0
 10
212.8257776090168
 20
176.6767749128102
 30
0.0
 10
212.9192682197695
 20
176.6774013801239
 30
0.0
  0
LINE
  5
CC
330
9F
100
AcDbEntity
  8
DV2_Default
  6
Continuous
 62
     7
100
AcDbLine
 10
208.0412622774
 20
228.6898420247
 30
0.0
 11
208.0412622774
 21
227.6897847734
 31
0.0
  0
LINE
  5
CD
330
9F
100
AcDbEntity
  8
DV2_Default
  6
Continuous
 62
     7
100
AcDbLine
 10
208.0412622774
 20
227.6897847734
 30
0.0
 11
208.0412622774
 21
160.6898420247
 31
0.0
  0
LINE
  5
CE
330
9F
100
AcDbEntity
  8
DV2_Default
  6
Continuous
 62
     7
100
AcDbLine
 10
208.0412622774
 20
160.6898420247
 30
0.0
 11
208.0412622774
 21
159.6898420247
 31
0.0
  0
LINE
  5
CF
330
9F
100
AcDbEntity
  8
DV2_Default
  6
Continuous
 62
     7
100
AcDbLine
 10
198.0412622774
 20
160.6898420247
 30
0.0
 11
198.0412622774
 21
227.6898420247
 31
0.0
  0
SPLINE
  5
D0
330
9F
100
AcDbEntity
  8
DV2_Default
  6
Continuous
 62
     7
100
AcDbSpline
210
0.0
220
0.0
230
1.0
 70
     8
 71
     5
 72
    14
 73
     8
 74
     0
 42
0.000000013511757
 43
0.0000000001
 40
0.0
 40
0.0
 40
0.0
 40
0.0
 40
0.0
 40
0.0
 40
0.57125574393291
 40
0.57125574393291
 40
1.0
 40
1.0
 40
1.0
 40
1.0
 40
1.0
 40
1.0
 10
208.0412622773934
 20
159.6898420246685
 30
0.0
 10
208.0412622773934
 20
159.6148420246685
 30
0.0
 10
208.0412622773934
 20
159.539842024668
 30
0.0
 10
207.997499041285
 20
159.3793768256042
 30
0.0
 10
207.9026632495853
 20
159.2699841821318
 30
0.0
 10
207.7567549022941
 20
159.2116640942506
 30
0.0
 10
207.6953859834943
 20
159.1986921042868
 30
0.0
 10
207.6365135982635
 20
159.1931182264328
 30
0.0
  0
SPLINE
  5
D1
330
9F
100
AcDbEntity
  8
DV2_Default
  6
Continuous
 62
     7
100
AcDbSpline
210
0.0
220
0.0
230
1.0
 70
     8
 71
     5
 72
    14
 73
     8
 74
     0
 42
0.000000013511757
 43
0.0000000001
 40
0.0
 40
0.0
 40
0.0
 40
0.0
 40
0.0
 40
0.0
 40
0.5712557447966332
 40
0.5712557447966332
 40
1.0
 40
1.0
 40
1.0
 40
1.0
 40
1.0
 40
1.0
 10
208.0412622773934
 20
228.6898420246685
 30
0.0
 10
208.0412622773934
 20
228.7648420246685
 30
0.0
 10
208.0412622773934
 20
228.8398420246685
 30
0.0
 10
207.9974990413512
 20
229.00030722349
 30
0.0
 10
207.902663249872
 20
229.1096998668744
 30
0.0
 10
207.7567549029559
 20
229.1680199548226
 30
0.0
 10
207.6953859843599
 20
229.1809919448681
 30
0.0
 10
207.6365135993016
 20
229.1865658228068
 30
0.0
  0
LINE
  5
D2
330
9F
100
AcDbEntity
  8
DV2_Default
  6
Continuous
 62
     7
100
AcDbLine
 10
207.5412622774
 20
229.1898420247
 30
0.0
 11
207.5412622774
 21
229.1774278772
 31
0.0
  0
LINE
  5
D3
330
9F
100
AcDbEntity
  8
DV2_Default
  6
Continuous
 62
     7
100
AcDbLine
 10
207.5412622774
 20
159.202255719
 30
0.0
 11
207.5412622774
 21
159.1898420247
 31
0.0
  0
LINE
  5
D4
330
9F
100
AcDbEntity
  8
DV2_Default
  6
Continuous
 62
     7
100
AcDbLine
 10
198.0412622774
 20
160.6898420247
 30
0.0
 11
198.0412622774
 21
159.1898420247
 31
0.0
  0
LINE
  5
D5
330
9F
100
AcDbEntity
  8
DV2_Default
  6
Continuous
 62
     7
100
AcDbLine
 10
198.0412622774
 20
159.1898420247
 30
0.0
 11
207.5412622774
 21
159.1898420247
 31
0.0
  0
LINE
  5
D6
330
9F
100
AcDbEntity
  8
DV2_Default
  6
Continuous
 62
     7
100
AcDbLine
 10
207.5412622774
 20
229.1898420247
 30
0.0
 11
198.0412622774
 21
229.1898420247
 31
0.0
  0
LINE
  5
D7
330
9F
100
AcDbEntity
  8
DV2_Default
  6
Continuous
 62
     7
100
AcDbLine
 10
198.0412622774
 20
229.1898420247
 30
0.0
 11
198.0412622774
 21
227.6898420247
 31
0.0
  0
ARC
  5
D8
330
9F
100
AcDbEntity
  8
DV2_Default
  6
Continuous
 62
     7
100
AcDbCircle
 10
207.6084259226
 20
228.9785307782
 30
0.0
 40
0.2099309677977899
100
AcDbArc
 50
82.2538691653
 51
108.6588157065
  0
ARC
  5
D9
330
9F
100
AcDbEntity
  8
DV2_Default
  6
Continuous
 62
     7
100
AcDbCircle
 10
207.608425482
 20
159.4011585421
 30
0.0
 40
0.2099362499984599
100
AcDbArc
 50
251.3417980363
 51
277.7460561182
  0
ARC
  5
DA
330
9F
100
AcDbEntity
  8
DV2_Default
  6
Continuous
 62
     7
100
AcDbCircle
 10
-751.1724021672
 20
194.234903658
 30
0.0
 40
999.999999999999
100
AcDbArc
 50
359.3742625011
 51
0.0
  0
ARC
  5
DB
330
9F
100
AcDbEntity
  8
DV2_Default
  6
Continuous
 62
     7
100
AcDbCircle
 10
-751.1724021672
 20
194.234903658
 30
0.0
 40
1000.0
100
AcDbArc
 50
0.0
 51
0.6330943933
  0
ENDBLK
  5
DD
330
9F
100
AcDbEntity
  8
0
100
AcDbBlockEnd
  0
BLOCK
  5
10E
330
DE
100
AcDbEntity
  8
0
100
AcDbBlockBegin
  2
SE2
 70
     0
 10
0.0
 20
0.0
 30
0.0
  3
SE2
  1

  0
LINE
  5
E1
330
DE
100
AcDbEntity
  8
DV3_Default
  6
Continuous
 62
     7
100
AcDbLine
 10
119.5792680211
 20
213.1895493689
 30
0.0
 11
119.5792680211
 21
212.1788877049
 31
0.0
  0
LINE
  5
E2
330
DE
100
AcDbEntity
  8
DV3_Default
  6
Continuous
 62
     7
100
AcDbLine
 10
115.7578359098
 20
213.1895493689
 30
0.0
 11
115.7578359098
 21
212.1787393071
 31
0.0
  0
LINE
  5
E3
330
DE
100
AcDbEntity
  8
DV3_Default
  6
Continuous
 62
     7
100
AcDbLine
 10
116.2578351302
 20
213.6895493689
 30
0.0
 11
119.0792688156
 21
213.6895493689
 31
0.0
  0
ARC
  5
E4
330
DE
100
AcDbEntity
  8
DV3_Default
  6
Continuous
 62
     7
100
AcDbCircle
 10
116.2578352514
 20
213.1895500273
 30
0.0
 40
0.4999993415610921
100
AcDbArc
 50
90.0000138822
 51
180.0000754516
  0
ARC
  5
E5
330
DE
100
AcDbEntity
  8
DV3_Default
  6
Continuous
 62
     7
100
AcDbCircle
 10
119.0792686923
 20
213.1895500401
 30
0.0
 40
0.4999993288378841
100
AcDbArc
 50
0.0
 51
89.9999858665
  0
ARC
  5
E6
330
DE
100
AcDbEntity
  8
DV3_Default
  6
Continuous
 62
     7
100
AcDbCircle
 10
116.2500391345
 20
213.1895493689
 30
0.0
 40
0.4999999809609519
100
AcDbArc
 50
90.0
 51
180.0
  0
ARC
  5
E7
330
DE
100
AcDbEntity
  8
DV3_Default
  6
Continuous
 62
     7
100
AcDbCircle
 10
119.0870609881
 20
213.1895493689
 30
0.0
 40
0.4999999999999519
100
AcDbArc
 50
0.0
 51
90.0
  0
ARC
  5
E8
330
DE
100
AcDbEntity
  8
DV3_Default
  6
Continuous
 62
     7
100
AcDbCircle
 10
117.6690443754
 20
196.1553977352
 30
0.0
 40
15.94771089259538
100
AcDbArc
 50
98.2699841145
 51
98.4711081791
  0
ARC
  5
E9
330
DE
100
AcDbEntity
  8
DV3_Default
  6
Continuous
 62
     7
100
AcDbCircle
 10
117.6691819719
 20
191.6778009848
 30
0.0
 40
20.14232712047613
100
AcDbArc
 50
83.3268650786
 51
96.6625175532
  0
LINE
  5
EA
330
DE
100
AcDbEntity
  8
DV3_Default
  6
Continuous
 62
     7
100
AcDbLine
 10
115.7578359098
 20
212.1787393071
 30
0.0
 11
115.7578359082
 21
212.1786992352
 31
0.0
  0
LINE
  5
EB
330
DE
100
AcDbEntity
  8
DV3_Default
  6
Continuous
 62
     7
100
AcDbLine
 10
119.5792680228
 20
212.1788470862
 30
0.0
 11
119.5792680211
 21
212.1788877049
 31
0.0
  0
ELLIPSE
  5
EC
330
DE
100
AcDbEntity
  8
DV3_Default
  6
Continuous
 62
     7
100
AcDbEllipse
 10
115.2500391725
 20
212.4241653803
 30
0.0
 11
0.4997524417302014
 21
0.01573203693140332
 31
0.0
210
0.0
220
0.0
230
1.0
 40
0.9999615389
 41
4.81249033488598
 42
6.251714829904945
  0
ELLIPSE
  5
ED
330
DE
100
AcDbEntity
  8
DV3_Default
  6
Continuous
 62
     7
100
AcDbEllipse
 10
120.0870609501
 20
212.4243123488
 30
0.0
 11
-0.4997526797863765
 21
0.0157244727604193
 31
0.0
210
0.0
220
0.0
230
0.9999999999999999
 40
0.9999615393
 41
0.031455340850494
 42
0.206303404327025
  0
ARC
  5
EE
330
DE
100
AcDbEntity
  8
DV3_Default
  6
Continuous
 62
     7
100
AcDbCircle
 10
115.2578212744
 20
212.1787510383
 30
0.0
 40
0.5000146381328803
100
AcDbArc
 50
277.6169762981
 51
359.9940637939
  0
ARC
  5
EF
330
DE
100
AcDbEntity
  8
DV3_Default
  6
Continuous
 62
     7
100
AcDbCircle
 10
120.0792829241
 20
212.1788994377
 30
0.0
 40
0.5000149057384329
100
AcDbArc
 50
180.0059990475
 51
262.3865134607
  0
ARC
  5
F0
330
DE
100
AcDbEntity
  8
DV3_Default
  6
Continuous
 62
     7
100
AcDbCircle
 10
117.6690971406
 20
195.5079939476
 30
0.0
 40
19.02225774972176
100
AcDbArc
 50
257.4578660574
 51
282.5427535624
  0
ARC
  5
F1
330
DE
100
AcDbEntity
  8
DV3_Default
  6
Continuous
 62
     7
100
AcDbCircle
 10
117.6690665619
 20
192.9176465098
 30
0.0
 40
16.74711889798438
100
AcDbArc
 50
255.7339071441
 51
284.2788711444
  0
ARC
  5
F2
330
DE
100
AcDbEntity
  8
DV3_Default
  6
Continuous
 62
     7
100
AcDbCircle
 10
113.6455818283
 20
177.4279552183
 30
0.0
 40
0.5000001551488884
100
AcDbArc
 50
256.4655125939
 51
259.0886496453
  0
ARC
  5
F3
330
DE
100
AcDbEntity
  8
DV3_Default
  6
Continuous
 62
     7
100
AcDbCircle
 10
121.6915384164
 20
177.4276824483
 30
0.0
 40
0.4999737433885091
100
AcDbArc
 50
278.9636454411
 51
283.5328362548
  0
CIRCLE
  5
F4
330
DE
100
AcDbEntity
  8
DV3_Default
  6
Continuous
 62
     7
100
AcDbCircle
 10
117.6683896896
 20
194.1898737162
 30
0.0
 40
16.18604660350649
  0
CIRCLE
  5
F5
330
DE
100
AcDbEntity
  8
DV3_Default
  6
Continuous
 62
     7
100
AcDbCircle
 10
117.6683894874
 20
194.1898737162
 30
0.0
 40
16.15
  0
ARC
  5
F6
330
DE
100
AcDbEntity
  8
DV3_Default
  6
Continuous
 62
     7
100
AcDbCircle
 10
117.6691055426
 20
194.1448505074
 30
0.0
 40
17.9982470107647
100
AcDbArc
 50
0.0
 51
83.141994011
  0
ARC
  5
F7
330
DE
100
AcDbEntity
  8
DV3_Default
  6
Continuous
 62
     7
100
AcDbCircle
 10
117.6691055426
 20
194.1448505074
 30
0.0
 40
17.9982470107647
100
AcDbArc
 50
96.9401517007
 51
0.0
  0
ARC
  5
F8
330
DE
100
AcDbEntity
  8
DV3_Default
  6
Continuous
 62
     7
100
AcDbCircle
 10
120.0815804076
 20
212.4178541704
 30
0.0
 40
0.4916409698515534
100
AcDbArc
 50
189.3908418355
 51
255.1631037577
  0
ARC
  5
F9
330
DE
100
AcDbEntity
  8
DV3_Default
  6
Continuous
 62
     7
100
AcDbCircle
 10
115.2552050606
 20
212.4184570801
 30
0.0
 40
0.4925252124211272
100
AcDbArc
 50
285.8592337356
 51
0.7031090198
  0
SPLINE
  5
FA
330
DE
100
AcDbEntity
  8
DV3_Default
  6
Continuous
 62
     7
100
AcDbSpline
210
0.0
220
0.0
230
1.0
 70
     8
 71
     2
 72
    16
 73
    13
 74
     0
 42
0.000000004104569
 43
0.0000000001
 40
0.0
 40
0.0
 40
0.0
 40
0.125
 40
0.125
 40
0.25
 40
0.25
 40
0.5
 40
0.5
 40
0.75
 40
0.75
 40
0.875
 40
0.875
 40
1.0
 40
1.0
 40
1.0
 10
151.1683685991112
 20
229.1898420246685
 30
0.0
 10
151.3604295496729
 20
229.189841704136
 30
0.0
 10
151.4671905107993
 20
229.1777020916584
 30
0.0
 10
151.6198848891538
 20
229.1603394662084
 30
0.0
 10
151.7579148050276
 20
229.1121857263186
 30
0.0
 10
152.0418913931211
 20
229.0131163711629
 30
0.0
 10
152.2649381697703
 20
228.7913134536318
 30
0.0
 10
152.4867501933457
 20
228.5707384033592
 30
0.0
 10
152.5879987116543
 20
228.2870777001126
 30
0.0
 10
152.6374889044295
 20
228.1484245808287
 30
0.0
 10
152.6557127381913
 20
227.9931300014943
 30
0.0
 10
152.6683682656159
 20
227.8852857995919
 30
0.0
 10
152.6683685991113
 20
227.6898420246685
 30
0.0
  0
SPLINE
  5
FB
330
DE
100
AcDbEntity
  8
DV3_Default
  6
Continuous
 62
     7
100
AcDbSpline
210
0.0
220
0.0
230
1.0
 70
     8
 71
     2
 72
    16
 73
    13
 74
     0
 42
0.000000004104569
 43
0.0000000001
 40
0.0
 40
0.0
 40
0.0
 40
0.125
 40
0.125
 40
0.25
 40
0.25
 40
0.5
 40
0.5
 40
0.75
 40
0.75
 40
0.875
 40
0.875
 40
1.0
 40
1.0
 40
1.0
 10
152.6683685991113
 20
160.6898420246685
 30
0.0
 10
152.6683682785787
 20
160.4977810742519
 30
0.0
 10
152.6562286661013
 20
160.39102011298
 30
0.0
 10
152.6388660406815
 20
160.2383257346821
 30
0.0
 10
152.5907123007613
 20
160.1002958187517
 30
0.0
 10
152.4916429456041
 20
159.8163192307169
 30
0.0
 10
152.2698400280749
 20
159.5932724540093
 30
0.0
 10
152.0492649778233
 20
159.371460430395
 30
0.0
 10
151.7656042745556
 20
159.2702119121255
 30
0.0
 10
151.6269511553701
 20
159.2207217194084
 30
0.0
 10
151.4716565759373
 20
159.2024978855885
 30
0.0
 10
151.3638123743115
 20
159.1898423581641
 30
0.0
 10
151.1683685991112
 20
159.1898420246685
 30
0.0
  0
LINE
  5
FC
330
DE
100
AcDbEntity
  8
DV3_Default
  6
Continuous
 62
     7
100
AcDbLine
 10
117.6683685991
 20
229.1898420247
 30
0.0
 11
151.1683685991
 21
229.1898420247
 31
0.0
  0
SPLINE
  5
FD
330
DE
100
AcDbEntity
  8
DV3_Default
  6
Continuous
 62
     7
100
AcDbSpline
210
0.0
220
0.0
230
1.0
 70
     8
 71
     5
 72
    12
 73
     6
 74
     0
 42
0.0000000037811177
 43
0.0000000001
 40
0.0
 40
0.0
 40
0.0
 40
0.0
 40
0.0
 40
0.0
 40
1.0
 40
1.0
 40
1.0
 40
1.0
 40
1.0
 40
1.0
 10
151.1683685991112
 20
229.1898420246685
 30
0.0
 10
151.6151186634652
 20
229.1898420246695
 30
0.0
 10
152.0618687278191
 20
229.1898420246695
 30
0.0
 10
152.6683685991113
 20
228.5833421533748
 30
0.0
 10
152.6683685991113
 20
228.136592089021
 30
0.0
 10
152.6683685991113
 20
227.6898420246675
 30
0.0
  0
LINE
  5
FE
330
DE
100
AcDbEntity
  8
DV3_Default
  6
Continuous
 62
     7
100
AcDbLine
 10
152.6683685991
 20
227.6898420247
 30
0.0
 11
152.6683685991
 21
160.6898420247
 31
0.0
  0
SPLINE
  5
FF
330
DE
100
AcDbEntity
  8
DV3_Default
  6
Continuous
 62
     7
100
AcDbSpline
210
0.0
220
0.0
230
1.0
 70
     8
 71
     5
 72
    12
 73
     6
 74
     0
 42
0.0000000037811177
 43
0.0000000001
 40
0.0
 40
0.0
 40
0.0
 40
0.0
 40
0.0
 40
0.0
 40
1.0
 40
1.0
 40
1.0
 40
1.0
 40
1.0
 40
1.0
 10
152.6683685991113
 20
160.689842024668
 30
0.0
 10
152.6683685991114
 20
160.2430919603147
 30
0.0
 10
152.6683685991114
 20
159.7963418959613
 30
0.0
 10
152.0618687278182
 20
159.1898420246696
 30
0.0
 10
151.6151186634648
 20
159.1898420246696
 30
0.0
 10
151.1683685991112
 20
159.189842024669
 30
0.0
  0
LINE
  5
100
330
DE
100
AcDbEntity
  8
DV3_Default
  6
Continuous
 62
     7
100
AcDbLine
 10
151.1683685991
 20
159.1898420247
 30
0.0
 11
117.6683685991
 21
159.1898420247
 31
0.0
  0
ARC
  5
101
330
DE
100
AcDbEntity
  8
DV3_Default
  6
Continuous
 62
     7
100
AcDbCircle
 10
117.6683477109
 20
194.1898737162
 30
0.0
 40
18.49999999999979
100
AcDbArc
 50
270.0000646922
 51
84.0464681465
  0
LINE
  5
102
330
DE
100
AcDbEntity
  8
DV3_Default
  6
Continuous
 62
     7
100
AcDbLine
 10
117.6683685991
 20
229.1898420247
 30
0.0
 11
84.1683685991
 21
229.1898420247
 31
0.0
  0
LINE
  5
103
330
DE
100
AcDbEntity
  8
DV3_Default
  6
Continuous
 62
     7
100
AcDbLine
 10
84.1683685991
 20
159.1898420247
 30
0.0
 11
117.6683685991
 21
159.1898420247
 31
0.0
  0
ARC
  5
104
330
DE
100
AcDbEntity
  8
DV3_Default
  6
Continuous
 62
     7
100
AcDbCircle
 10
117.6683894874
 20
194.1898737162
 30
0.0
 40
18.49999999999979
100
AcDbArc
 50
95.9523955397
 51
269.9999353076
  0
SPLINE
  5
105
330
DE
100
AcDbEntity
  8
DV3_Default
  6
Continuous
 62
     7
100
AcDbSpline
210
0.0
220
0.0
230
1.0
 70
     8
 71
     3
 72
    18
 73
    14
 74
     0
 42
0.000000004124652
 43
0.0000000001
 40
0.0
 40
0.0
 40
0.0
 40
0.0
 40
0.1250029681634071
 40
0.1250029681634071
 40
0.2500059363268399
 40
0.2500059363268399
 40
0.5000118726539108
 40
0.5000118726539108
 40
0.7500178089809943
 40
0.7500178089809943
 40
0.8750207771444015
 40
0.8750207771444015
 40
1.0
 40
1.0
 40
1.0
 40
1.0
 10
84.16836859911126
 20
229.1898420246685
 30
0.0
 10
84.06790493687627
 20
229.1898420246695
 30
0.0
 10
83.96703513068276
 20
229.188975980701
 30
0.0
 10
83.76728224242476
 20
229.1658797737185
 30
0.0
 10
83.66841946836907
 20
229.1439225591045
 30
0.0
 10
83.38428424799905
 20
229.0433156621835
 30
0.0
 10
83.21158060107676
 20
228.9311055313285
 30
0.0
 10
82.92707771318706
 20
228.646593584649
 30
0.0
 10
82.81486971541767
 20
228.4738785048695
 30
0.0
 10
82.71427579552736
 20
228.189744785557
 30
0.0
 10
82.69232120513237
 20
228.0908758308629
 30
0.0
 10
82.6692340688848
 20
227.8911396504014
 30
0.0
 10
82.66836892746926
 20
227.7902860759236
 30
0.0
 10
82.66836859911125
 20
227.6898420246675
 30
0.0
  0
LINE
  5
106
330
DE
100
AcDbEntity
  8
DV3_Default
  6
Continuous
 62
     7
100
AcDbLine
 10
82.6683685991
 20
227.6898420247
 30
0.0
 11
82.6683685991
 21
160.6898420247
 31
0.0
  0
SPLINE
  5
107
330
DE
100
AcDbEntity
  8
DV3_Default
  6
Continuous
 62
     7
100
AcDbSpline
210
0.0
220
0.0
230
1.0
 70
     8
 71
     3
 72
    18
 73
    14
 74
     0
 42
0.0000000041246531
 43
0.0000000001
 40
0.0
 40
0.0
 40
0.0
 40
0.0
 40
0.1250000000000802
 40
0.1250000000000802
 40
0.2500000000001604
 40
0.2500000000001604
 40
0.5000000000001411
 40
0.5000000000001411
 40
0.7500000000000706
 40
0.7500000000000706
 40
0.8750000000001508
 40
0.8750000000001508
 40
1.0
 40
1.0
 40
1.0
 40
1.0
 10
82.66836859911125
 20
160.689842024668
 30
0.0
 10
82.66836859911125
 20
160.5893807467265
 30
0.0
 10
82.66923456254426
 20
160.48851334153
 30
0.0
 10
82.69232928667556
 20
160.288765100813
 30
0.0
 10
82.71428514471896
 20
160.189904511104
 30
0.0
 10
82.81488647963346
 20
159.9057748879405
 30
0.0
 10
82.92709109163115
 20
159.733073772633
 30
0.0
 10
83.21159053807617
 20
159.448571894152
 30
0.0
 10
83.38429845907966
 20
159.3363622184879
 30
0.0
 10
83.66842199585525
 20
159.2357611637244
 30
0.0
 10
83.76728771910786
 20
159.2138033817805
 30
0.0
 10
83.96703749195795
 20
159.1907080562315
 30
0.0
 10
84.06790792781956
 20
159.1898420246695
 30
0.0
 10
84.16836859911126
 20
159.189842024669
 30
0.0
  0
SPLINE
  5
108
330
DE
100
AcDbEntity
  8
DV3_Default
  6
Continuous
 62
     7
100
AcDbSpline
210
0.0
220
0.0
230
1.0
 70
     8
 71
     5
 72
    12
 73
     6
 74
     0
 42
0.0000000037811177
 43
0.0000000001
 40
0.0
 40
0.0
 40
0.0
 40
0.0
 40
0.0
 40
0.0
 40
1.0
 40
1.0
 40
1.0
 40
1.0
 40
1.0
 40
1.0
 10
82.66836859911125
 20
160.6898420246685
 30
0.0
 10
82.66836859911125
 20
160.2430919603145
 30
0.0
 10
82.66836859911125
 20
159.7963418959609
 30
0.0
 10
83.27486847040414
 20
159.1898420246685
 30
0.0
 10
83.72161853475765
 20
159.1898420246685
 30
0.0
 10
84.16836859911126
 20
159.1898420246685
 30
0.0
  0
SPLINE
  5
109
330
DE
100
AcDbEntity
  8
DV3_Default
  6
Continuous
 62
     7
100
AcDbSpline
210
0.0
220
0.0
230
1.0
 70
     8
 71
     5
 72
    12
 73
     6
 74
     0
 42
0.0000000037811177
 43
0.0000000001
 40
0.0
 40
0.0
 40
0.0
 40
0.0
 40
0.0
 40
0.0
 40
1.0
 40
1.0
 40
1.0
 40
1.0
 40
1.0
 40
1.0
 10
84.16836859911126
 20
229.1898420246685
 30
0.0
 10
83.72161853475765
 20
229.1898420246685
 30
0.0
 10
83.27486847040396
 20
229.1898420246685
 30
0.0
 10
82.66836859911128
 20
228.583342153375
 30
0.0
 10
82.66836859911128
 20
228.1365920890215
 30
0.0
 10
82.66836859911125
 20
227.6898420246685
 30
0.0
  0
ARC
  5
10A
330
DE
100
AcDbEntity
  8
DV3_Default
  6
Continuous
 62
     7
100
AcDbCircle
 10
117.6683894874
 20
194.1898737162
 30
0.0
 40
16.00000000000082
100
AcDbArc
 50
278.9082898481
 51
261.0917101528
  0
ARC
  5
10B
330
DE
100
AcDbEntity
  8
DV3_Default
  6
Continuous
 62
     7
100
AcDbCircle
 10
120.1305573993
 20
178.4816679252
 30
0.0
 40
0.1000000000000014
100
AcDbArc
 50
270.1389147494
 51
278.9082898481
  0
ARC
  5
10C
330
DE
100
AcDbEntity
  8
DV3_Default
  6
Continuous
 62
     7
100
AcDbCircle
 10
117.668389479
 20
1243.068629401
 30
0.0
 40
1064.689808712182
100
AcDbArc
 50
269.8674864309
 51
270.13251357
  0
ARC
  5
10D
330
DE
100
AcDbEntity
  8
DV3_Default
  6
Continuous
 62
     7
100
AcDbCircle
 10
115.2062215757
 20
178.4816679252
 30
0.0
 40
0.0999999999999984
100
AcDbArc
 50
261.0917101528
 51
269.8610852516
  0
ENDBLK
  5
10F
330
DE
100
AcDbEntity
  8
0
100
AcDbBlockEnd
  0
ENDSEC
  0
SECTION
  2
ENTITIES
  0
INSERT
  5
5F
330
1F
100
AcDbEntity
  8
Default
100
AcDbBlockReference
  2
SEANNOT_GROUP
 10
0.0
 20
0.0
 30
0.0
  0
INSERT
  5
6A
330
1F
100
AcDbEntity
  8
Default
100
AcDbBlockReference
  2
SEANNOT_GROUP1
 10
0.0
 20
0.0
 30
0.0
  0
INSERT
  5
70
330
1F
100
AcDbEntity
  8
Default
100
AcDbBlockReference
  2
SEANNOT_GROUP2
 10
0.0
 20
0.0
 30
0.0
  0
INSERT
  5
76
330
1F
100
AcDbEntity
  8
Default
100
AcDbBlockReference
  2
SE
 10
0.0
 20
0.0
 30
0.0
  0
INSERT
  5
A0
330
1F
100
AcDbEntity
  8
Default
100
AcDbBlockReference
  2
SE1
 10
0.0
 20
0.0
 30
0.0
  0
INSERT
  5
DF
330
1F
100
AcDbEntity
  8
Default
100
AcDbBlockReference
  2
SE2
 10
0.0
 20
0.0
 30
0.0
  0
TEXT
  5
111
330
1F
100
AcDbEntity
  8
Default
  6
Continuous
 62
     7
100
AcDbText
 10
5.9362635081
 20
53.4225120485
 30
0.0
 40
10.0
  1
Grohe AG^J
  7
SEACAD_seiso_ttf
 11
5.9362635081
 21
63.4225120485
 31
0.0
100
AcDbText
 73
     3
  0
TEXT
  5
112
330
1F
100
AcDbEntity
  8
Default
  6
Continuous
 62
     7
100
AcDbText
 10
5.9362635081
 20
37.0588756849
 30
0.0
 40
10.0
  1
 
  7
SEACAD_seiso_ttf
 11
5.9362635081
 21
47.0588756849
 31
0.0
100
AcDbText
 73
     3
  0
TEXT
  5
113
330
1F
100
AcDbEntity
  8
Default
  6
Continuous
 62
     7
100
AcDbText
 10
5.9362635081
 20
20.6952393213
 30
0.0
 40
10.0
  1
ecn:
  7
SEACAD_seiso_ttf
 11
5.9362635081
 21
30.6952393213
 31
0.0
100
AcDbText
 73
     3
  0
TEXT
  5
114
330
1F
100
AcDbEntity
  8
Default
  6
Continuous
 62
     7
100
AcDbText
 10
5.9362635081
 20
4.3316029576
 30
0.0
 40
10.0
  1
unit: mm
  7
SEACAD_seiso_ttf
 11
5.9362635081
 21
14.3316029576
 31
0.0
100
AcDbText
 73
     3
  0
LINE
  5
115
330
1F
100
AcDbEntity
  8
Default
  6
Continuous
 62
     7
100
AcDbLine
 10
0.0
 20
0.0
 30
0.0
 11
100.0
 21
0.0
 31
0.0
  0
LINE
  5
116
330
1F
100
AcDbEntity
  8
Default
  6
Continuous
 62
     7
100
AcDbLine
 10
0.0
 20
0.0
 30
0.0
 11
0.0
 21
100.0
 31
0.0
  0
TEXT
  5
117
330
1F
100
AcDbEntity
  8
Default
  6
Continuous
 62
     7
100
AcDbText
 10
24.3923665681
 20
-18.2375342018
 30
0.0
 40
10.0
  1
100 mm
  7
SEACAD_seiso_ttf
 11
24.3923665681
 21
-8.2375342018
 31
0.0
100
AcDbText
 73
     3
  0
TEXT
  5
118
330
1F
100
AcDbEntity
  8
Default
  6
Continuous
 62
     7
100
AcDbText
 10
-7.6150308803
 20
24.6231930421
 30
0.0
 40
10.0
  1
100 mm
 50
90.0
  7
SEACAD_seiso_ttf
 11
-17.6150308803
 21
24.6231930421
 31
0.0
100
AcDbText
 73
     3
  0
TEXT
  5
119
330
1F
100
AcDbEntity
  8
Default
  6
Continuous
 62
     7
100
AcDbText
 10
28.4878128572
 20
20.0907663715
 30
0.0
 40
10.0
  1
220233
  7
SEACAD_seiso_ttf
 11
28.4878128572
 21
30.0907663715
 31
0.0
100
AcDbText
 73
     3
  0
TEXT
  5
11A
330
1F
100
AcDbEntity
  8
Default
  6
Continuous
 62
     7
100
AcDbText
 10
5.9012241913
 20
36.7242780188
 30
0.0
 40
10.0
  1
27623000
  7
SEACAD_seiso_ttf
 11
5.9012241913
 21
46.7242780188
 31
0.0
100
AcDbText
 73
     3
  0
ENDSEC
  0
SECTION
  2
OBJECTS
  0
DICTIONARY
  5
C
330
0
100
AcDbDictionary
281
     1
  3
ACAD_GROUP
350
D
  3
ACAD_LAYOUT
350
1A
  3
ACAD_MLEADERSTYLE
350
11E
  3
ACAD_MLINESTYLE
350
17
  3
ACAD_PLOTSETTINGS
350
19
  3
ACAD_PLOTSTYLENAME
350
E
  3
ACAD_SCALELIST
350
3B
  3
ACAD_TABLESTYLE
350
11D
  3
ACAD_VISUALSTYLE
350
2A
  3
AcDbVariableDictionary
350
11B
  0
DICTIONARY
  5
D
102
{ACAD_REACTORS
330
C
102
}
330
C
100
AcDbDictionary
281
     1
  0
DICTIONARY
  5
1A
102
{ACAD_REACTORS
330
C
102
}
330
C
100
AcDbDictionary
281
     1
  3
Layout1
350
1E
  3
Model
350
22
  0
DICTIONARY
  5
11E
102
{ACAD_REACTORS
330
C
102
}
330
C
100
AcDbDictionary
281
     1
  0
DICTIONARY
  5
17
102
{ACAD_REACTORS
330
C
102
}
330
C
100
AcDbDictionary
281
     1
  3
Standard
350
18
  0
DICTIONARY
  5
19
102
{ACAD_REACTORS
330
C
102
}
330
C
100
AcDbDictionary
281
     1
  0
ACDBDICTIONARYWDFLT
  5
E
102
{ACAD_REACTORS
330
C
102
}
330
C
100
AcDbDictionary
281
     1
  3
Normal
350
F
100
AcDbDictionaryWithDefault
340
F
  0
DICTIONARY
  5
3B
102
{ACAD_REACTORS
330
C
102
}
330
C
100
AcDbDictionary
281
     1
  3
A0
350
3C
  3
A1
350
3D
  3
A2
350
3E
  3
A3
350
3F
  3
A4
350
40
  3
A5
350
41
  3
A6
350
42
  3
A7
350
43
  3
A8
350
44
  3
A9
350
45
  3
B0
350
46
  3
B1
350
47
  3
B2
350
48
  3
B3
350
49
  3
B4
350
4A
  3
B5
350
4B
  3
B6
350
4C
  3
B7
350
4D
  3
B8
350
4E
  3
B9
350
4F
  3
C0
350
50
  3
C1
350
51
  3
C2
350
52
  3
C3
350
53
  3
C4
350
54
  3
C5
350
55
  3
C6
350
56
  3
C7
350
57
  3
C8
350
58
  3
C9
350
59
  3
D0
350
5A
  3
D1
350
5B
  3
D2
350
5C
  0
DICTIONARY
  5
11D
102
{ACAD_REACTORS
330
C
102
}
330
C
100
AcDbDictionary
281
     1
  0
DICTIONARY
  5
2A
102
{ACAD_REACTORS
330
C
102
}
330
C
100
AcDbDictionary
281
     1
  3
2dWireframe
350
2F
  3
3D Hidden
350
31
  3
3dWireframe
350
30
  3
Basic
350
32
  3
Brighten
350
36
  3
ColorChange
350
3A
  3
Conceptual
350
34
  3
Dim
350
35
  3
Facepattern
350
39
  3
Flat
350
2B
  3
FlatWithEdges
350
2C
  3
Gouraud
350
2D
  3
GouraudWithEdges
350
2E
  3
Linepattern
350
38
  3
Realistic
350
33
  3
Thicken
350
37
  0
DICTIONARY
  5
11B
102
{ACAD_REACTORS
330
C
102
}
330
C
100
AcDbDictionary
281
     1
  3
CANNOSCALE
350
11C
  3
PSOLHEIGHT
350
120
  3
PSOLWIDTH
350
11F
  0
LAYOUT
  5
1E
102
{ACAD_REACTORS
330
1A
102
}
330
1A
100
AcDbPlotSettings
  1

  2
none_device
  4

  6

 40
0.0
 41
0.0
 42
0.0
 43
0.0
 44
0.0
 45
0.0
 46
0.0
 47
0.0
 48
0.0
 49
0.0
140
0.0
141
0.0
142
1.0
143
1.0
 70
   688
 72
     0
 73
     0
 74
     5
  7

 75
    16
147
1.0
148
0.0
149
0.0
100
AcDbLayout
  1
Layout1
 70
     1
 71
     1
 10
0.0
 20
0.0
 11
3000.0
 21
4500.0
 12
0.0
 22
0.0
 32
0.0
 14
0.0
 24
0.0
 34
0.0
 15
3000.0
 25
4500.0
 35
0.0
146
0.0
 13
0.0
 23
0.0
 33
0.0
 16
1.0
 26
0.0
 36
0.0
 17
0.0
 27
1.0
 37
0.0
 76
     0
330
1B
  0
LAYOUT
  5
22
102
{ACAD_REACTORS
330
1A
102
}
330
1A
100
AcDbPlotSettings
  1

  2
none_device
  4

  6

 40
0.0
 41
0.0
 42
0.0
 43
0.0
 44
0.0
 45
0.0
 46
0.0
 47
0.0
 48
0.0
 49
0.0
140
0.0
141
0.0
142
1.0
143
1.0
 70
  1712
 72
     0
 73
     0
 74
     0
  7

 75
     0
147
1.0
148
0.0
149
0.0
100
AcDbLayout
  1
Model
 70
     1
 71
     0
 10
0.0
 20
0.0
 11
3000.0
 21
4500.0
 12
0.0
 22
0.0
 32
0.0
 14
0.0
 24
0.0
 34
0.0
 15
3000.0
 25
4500.0
 35
0.0
146
0.0
 13
0.0
 23
0.0
 33
0.0
 16
1.0
 26
0.0
 36
0.0
 17
0.0
 27
1.0
 37
0.0
 76
     0
330
1F
331
29
  0
MLINESTYLE
  5
18
102
{ACAD_REACTORS
330
17
102
}
330
17
100
AcDbMlineStyle
  2
Standard
 70
     0
  3

 62
   256
 51
90.0
 52
90.0
 71
     2
 49
0.5
 62
   256
  6
BYLAYER
 49
-0.5
 62
   256
  6
BYLAYER
  0
ACDBPLACEHOLDER
  5
F
102
{ACAD_REACTORS
330
E
102
}
330
E
  0
SCALE
  5
3C
102
{ACAD_REACTORS
330
3B
102
}
330
3B
100
AcDbScale
 70
     0
300
1:1
140
1.0
141
1.0
290
     1
  0
SCALE
  5
3D
102
{ACAD_REACTORS
330
3B
102
}
330
3B
100
AcDbScale
 70
     0
300
1:2
140
1.0
141
2.0
290
     0
  0
SCALE
  5
3E
102
{ACAD_REACTORS
330
3B
102
}
330
3B
100
AcDbScale
 70
     0
300
1:4
140
1.0
141
4.0
290
     0
  0
SCALE
  5
3F
102
{ACAD_REACTORS
330
3B
102
}
330
3B
100
AcDbScale
 70
     0
300
1:5
140
1.0
141
5.0
290
     0
  0
SCALE
  5
40
102
{ACAD_REACTORS
330
3B
102
}
330
3B
100
AcDbScale
 70
     0
300
1:8
140
1.0
141
8.0
290
     0
  0
SCALE
  5
41
102
{ACAD_REACTORS
330
3B
102
}
330
3B
100
AcDbScale
 70
     0
300
1:10
140
1.0
141
10.0
290
     0
  0
SCALE
  5
42
102
{ACAD_REACTORS
330
3B
102
}
330
3B
100
AcDbScale
 70
     0
300
1:16
140
1.0
141
16.0
290
     0
  0
SCALE
  5
43
102
{ACAD_REACTORS
330
3B
102
}
330
3B
100
AcDbScale
 70
     0
300
1:20
140
1.0
141
20.0
290
     0
  0
SCALE
  5
44
102
{ACAD_REACTORS
330
3B
102
}
330
3B
100
AcDbScale
 70
     0
300
1:30
140
1.0
141
30.0
290
     0
  0
SCALE
  5
45
102
{ACAD_REACTORS
330
3B
102
}
330
3B
100
AcDbScale
 70
     0
300
1:40
140
1.0
141
40.0
290
     0
  0
SCALE
  5
46
102
{ACAD_REACTORS
330
3B
102
}
330
3B
100
AcDbScale
 70
     0
300
1:50
140
1.0
141
50.0
290
     0
  0
SCALE
  5
47
102
{ACAD_REACTORS
330
3B
102
}
330
3B
100
AcDbScale
 70
     0
300
1:100
140
1.0
141
100.0
290
     0
  0
SCALE
  5
48
102
{ACAD_REACTORS
330
3B
102
}
330
3B
100
AcDbScale
 70
     0
300
2:1
140
2.0
141
1.0
290
     0
  0
SCALE
  5
49
102
{ACAD_REACTORS
330
3B
102
}
330
3B
100
AcDbScale
 70
     0
300
4:1
140
4.0
141
1.0
290
     0
  0
SCALE
  5
4A
102
{ACAD_REACTORS
330
3B
102
}
330
3B
100
AcDbScale
 70
     0
300
8:1
140
8.0
141
1.0
290
     0
  0
SCALE
  5
4B
102
{ACAD_REACTORS
330
3B
102
}
330
3B
100
AcDbScale
 70
     0
300
10:1
140
10.0
141
1.0
290
     0
  0
SCALE
  5
4C
102
{ACAD_REACTORS
330
3B
102
}
330
3B
100
AcDbScale
 70
     0
300
100:1
140
100.0
141
1.0
290
     0
  0
SCALE
  5
4D
102
{ACAD_REACTORS
330
3B
102
}
330
3B
100
AcDbScale
 70
     0
300
1/128" = 1'-0"
140
0.0078125
141
12.0
290
     0
  0
SCALE
  5
4E
102
{ACAD_REACTORS
330
3B
102
}
330
3B
100
AcDbScale
 70
     0
300
1/64" = 1'-0"
140
0.015625
141
12.0
290
     0
  0
SCALE
  5
4F
102
{ACAD_REACTORS
330
3B
102
}
330
3B
100
AcDbScale
 70
     0
300
1/32" = 1'-0"
140
0.03125
141
12.0
290
     0
  0
SCALE
  5
50
102
{ACAD_REACTORS
330
3B
102
}
330
3B
100
AcDbScale
 70
     0
300
1/16" = 1'-0"
140
0.0625
141
12.0
290
     0
  0
SCALE
  5
51
102
{ACAD_REACTORS
330
3B
102
}
330
3B
100
AcDbScale
 70
     0
300
3/32" = 1'-0"
140
0.09375
141
12.0
290
     0
  0
SCALE
  5
52
102
{ACAD_REACTORS
330
3B
102
}
330
3B
100
AcDbScale
 70
     0
300
1/8" = 1'-0"
140
0.125
141
12.0
290
     0
  0
SCALE
  5
53
102
{ACAD_REACTORS
330
3B
102
}
330
3B
100
AcDbScale
 70
     0
300
3/16" = 1'-0"
140
0.1875
141
12.0
290
     0
  0
SCALE
  5
54
102
{ACAD_REACTORS
330
3B
102
}
330
3B
100
AcDbScale
 70
     0
300
1/4" = 1'-0"
140
0.25
141
12.0
290
     0
  0
SCALE
  5
55
102
{ACAD_REACTORS
330
3B
102
}
330
3B
100
AcDbScale
 70
     0
300
3/8" = 1'-0"
140
0.375
141
12.0
290
     0
  0
SCALE
  5
56
102
{ACAD_REACTORS
330
3B
102
}
330
3B
100
AcDbScale
 70
     0
300
1/2" = 1'-0"
140
0.5
141
12.0
290
     0
  0
SCALE
  5
57
102
{ACAD_REACTORS
330
3B
102
}
330
3B
100
AcDbScale
 70
     0
300
3/4" = 1'-0"
140
0.75
141
12.0
290
     0
  0
SCALE
  5
58
102
{ACAD_REACTORS
330
3B
102
}
330
3B
100
AcDbScale
 70
     0
300
1" = 1'-0"
140
1.0
141
12.0
290
     0
  0
SCALE
  5
59
102
{ACAD_REACTORS
330
3B
102
}
330
3B
100
AcDbScale
 70
     0
300
1-1/2" = 1'-0"
140
1.5
141
12.0
290
     0
  0
SCALE
  5
5A
102
{ACAD_REACTORS
330
3B
102
}
330
3B
100
AcDbScale
 70
     0
300
3" = 1'-0"
140
3.0
141
12.0
290
     0
  0
SCALE
  5
5B
102
{ACAD_REACTORS
330
3B
102
}
330
3B
100
AcDbScale
 70
     0
300
6" = 1'-0"
140
6.0
141
12.0
290
     0
  0
SCALE
  5
5C
102
{ACAD_REACTORS
330
3B
102
}
330
3B
100
AcDbScale
 70
     0
300
1'-0" = 1'-0"
140
12.0
141
12.0
290
     0
  0
VISUALSTYLE
  5
2F
102
{ACAD_REACTORS
330
2A
102
}
330
2A
100
AcDbVisualStyle
  2
2dWireframe
 70
     4
 71
     0
 72
     2
 73
     0
 90
        0
 40
-0.6
 41
-30.0
 62
     5
 63
     7
 74
     1
 91
        4
 64
     7
 65
   257
 75
     1
175
     1
 42
1.0
 92
        0
 66
   257
 43
1.0
 76
     1
 77
     6
 78
     2
 67
     7
 79
     5
170
     0
171
     0
290
     0
174
     0
 93
        1
 44
0.0
173
     0
291
     0
 45
0.0
1001
ACAD
1000
AcDbSavedByObjectVersion
1070
     0
  0
VISUALSTYLE
  5
31
102
{ACAD_REACTORS
330
2A
102
}
330
2A
100
AcDbVisualStyle
  2
3D Hidden
 70
     6
 71
     1
 72
     2
 73
     2
 90
        0
 40
-0.6
 41
-30.0
 62
     5
 63
     7
 74
     2
 91
        2
 64
     7
 65
   257
 75
     2
175
     1
 42
40.0
 92
        0
 66
   257
 43
1.0
 76
     1
 77
     6
 78
     2
 67
     7
 79
     3
170
     0
171
     0
290
     0
174
     0
 93
        1
 44
0.0
173
     0
291
     0
 45
0.0
1001
ACAD
1000
AcDbSavedByObjectVersion
1070
     0
  0
VISUALSTYLE
  5
30
102
{ACAD_REACTORS
330
2A
102
}
330
2A
100
AcDbVisualStyle
  2
3dWireframe
 70
     5
 71
     0
 72
     2
 73
     0
 90
        0
 40
-0.6
 41
-30.0
 62
     5
 63
     7
 74
     1
 91
        4
 64
     7
 65
   257
 75
     1
175
     1
 42
1.0
 92
        0
 66
   257
 43
1.0
 76
     1
 77
     6
 78
     2
 67
     7
 79
     5
170
     0
171
     0
290
     0
174
     0
 93
        1
 44
0.0
173
     0
291
     0
 45
0.0
1001
ACAD
1000
AcDbSavedByObjectVersion
1070
     0
  0
VISUALSTYLE
  5
32
102
{ACAD_REACTORS
330
2A
102
}
330
2A
100
AcDbVisualStyle
  2
Basic
 70
     7
 71
     1
 72
     0
 73
     1
 90
        0
 40
-0.6
 41
-30.0
 62
     5
 63
     7
 74
     0
 91
        4
 64
     7
 65
   257
 75
     1
175
     1
 42
1.0
 92
        8
 66
     7
 43
1.0
 76
     1
 77
     6
 78
     2
 67
     7
 79
     5
170
     0
171
     0
290
     0
174
     0
 93
        1
 44
0.0
173
     0
291
     1
 45
0.0
1001
ACAD
1000
AcDbSavedByObjectVersion
1070
     0
  0
VISUALSTYLE
  5
36
102
{ACAD_REACTORS
330
2A
102
}
330
2A
100
AcDbVisualStyle
  2
Brighten
 70
    12
 71
     2
 72
     2
 73
     0
 90
        0
 40
-0.6
 41
-30.0
 62
     5
 63
     7
 74
     1
 91
        4
 64
     7
 65
   257
 75
     1
175
     1
 42
1.0
 92
        8
 66
     7
 43
1.0
 76
     1
 77
     6
 78
     2
 67
     7
 79
     5
170
     0
171
     0
290
     0
174
     0
 93
        1
 44
50.0
173
     0
291
     1
 45
0.0
1001
ACAD
1000
AcDbSavedByObjectVersion
1070
     0
  0
VISUALSTYLE
  5
3A
102
{ACAD_REACTORS
330
2A
102
}
330
2A
100
AcDbVisualStyle
  2
ColorChange
 70
    16
 71
     2
 72
     2
 73
     3
 90
        0
 40
-0.6
 41
-30.0
 62
     5
 63
     8
 74
     1
 91
        4
 64
     7
 65
   257
 75
     1
175
     1
 42
1.0
 92
        8
 66
     8
 43
1.0
 76
     1
 77
     6
 78
     2
 67
     7
 79
     5
170
     0
171
     0
290
     0
174
     0
 93
        1
 44
0.0
173
     0
291
     1
 45
0.0
1001
ACAD
1000
AcDbSavedByObjectVersion
1070
     0
  0
VISUALSTYLE
  5
34
102
{ACAD_REACTORS
330
2A
102
}
330
2A
100
AcDbVisualStyle
  2
Conceptual
 70
     9
 71
     3
 72
     2
 73
     0
 90
        0
 40
-0.6
 41
-30.0
 62
     5
 63
     7
 74
     2
 91
        2
 64
     7
 65
   257
 75
     1
175
     1
 42
40.0
 92
        8
 66
     7
 43
1.0
 76
     1
 77
     6
 78
     2
 67
     7
 79
     3
170
     0
171
     0
290
     0
174
     0
 93
        1
 44
0.0
173
     0
291
     0
 45
0.0
1001
ACAD
1000
AcDbSavedByObjectVersion
1070
     0
  0
VISUALSTYLE
  5
35
102
{ACAD_REACTORS
330
2A
102
}
330
2A
100
AcDbVisualStyle
  2
Dim
 70
    11
 71
     2
 72
     2
 73
     0
 90
        0
 40
-0.6
 41
-30.0
 62
     5
 63
     7
 74
     1
 91
        4
 64
     7
 65
   257
 75
     1
175
     1
 42
1.0
 92
        8
 66
     7
 43
1.0
 76
     1
 77
     6
 78
     2
 67
     7
 79
     5
170
     0
171
     0
290
     0
174
     0
 93
        1
 44
-50.0
173
     0
291
     1
 45
0.0
1001
ACAD
1000
AcDbSavedByObjectVersion
1070
     0
  0
VISUALSTYLE
  5
39
102
{ACAD_REACTORS
330
2A
102
}
330
2A
100
AcDbVisualStyle
  2
Facepattern
 70
    15
 71
     2
 72
     2
 73
     0
 90
        0
 40
-0.6
 41
-30.0
 62
     5
 63
     7
 74
     1
 91
        4
 64
     7
 65
   257
 75
     1
175
     1
 42
1.0
 92
        8
 66
     7
 43
1.0
 76
     1
 77
     6
 78
     2
 67
     7
 79
     5
170
     0
171
     0
290
     0
174
     0
 93
        1
 44
0.0
173
     0
291
     1
 45
0.0
1001
ACAD
1000
AcDbSavedByObjectVersion
1070
     0
  0
VISUALSTYLE
  5
2B
102
{ACAD_REACTORS
330
2A
102
}
330
2A
100
AcDbVisualStyle
  2
Flat
 70
     0
 71
     2
 72
     1
 73
     1
 90
        2
 40
-0.6
 41
30.0
 62
     5
 63
     7
 74
     0
 91
        4
 64
     7
 65
   257
 75
     1
175
     1
 42
1.0
 92
        8
 66
     7
 43
1.0
 76
     1
 77
     6
 78
     2
 67
     7
 79
     5
170
     0
171
     0
290
     0
174
     0
 93
       13
 44
0.0
173
     0
291
     1
 45
0.0
1001
ACAD
1000
AcDbSavedByObjectVersion
1070
     0
  0
VISUALSTYLE
  5
2C
102
{ACAD_REACTORS
330
2A
102
}
330
2A
100
AcDbVisualStyle
  2
FlatWithEdges
 70
     1
 71
     2
 72
     1
 73
     1
 90
        2
 40
-0.6
 41
30.0
 62
     5
 63
     7
 74
     1
 91
        4
 64
     7
 65
   257
 75
     1
175
     1
 42
1.0
 92
        0
 66
   257
 43
1.0
 76
     1
 77
     6
 78
     2
 67
     7
 79
     5
170
     0
171
     0
290
     0
174
     0
 93
       13
 44
0.0
173
     0
291
     1
 45
0.0
1001
ACAD
1000
AcDbSavedByObjectVersion
1070
     0
  0
VISUALSTYLE
  5
2D
102
{ACAD_REACTORS
330
2A
102
}
330
2A
100
AcDbVisualStyle
  2
Gouraud
 70
     2
 71
     2
 72
     2
 73
     1
 90
        2
 40
-0.6
 41
30.0
 62
     5
 63
     7
 74
     0
 91
        4
 64
     7
 65
   257
 75
     1
175
     1
 42
1.0
 92
        0
 66
     7
 43
1.0
 76
     1
 77
     6
 78
     2
 67
     7
 79
     5
170
     0
171
     0
290
     0
174
     0
 93
       13
 44
0.0
173
     0
291
     1
 45
0.0
1001
ACAD
1000
AcDbSavedByObjectVersion
1070
     0
  0
VISUALSTYLE
  5
2E
102
{ACAD_REACTORS
330
2A
102
}
330
2A
100
AcDbVisualStyle
  2
GouraudWithEdges
 70
     3
 71
     2
 72
     2
 73
     1
 90
        2
 40
-0.6
 41
30.0
 62
     5
 63
     7
 74
     1
 91
        4
 64
     7
 65
   257
 75
     1
175
     1
 42
1.0
 92
        0
 66
   257
 43
1.0
 76
     1
 77
     6
 78
     2
 67
     7
 79
     5
170
     0
171
     0
290
     0
174
     0
 93
       13
 44
0.0
173
     0
291
     1
 45
0.0
1001
ACAD
1000
AcDbSavedByObjectVersion
1070
     0
  0
VISUALSTYLE
  5
38
102
{ACAD_REACTORS
330
2A
102
}
330
2A
100
AcDbVisualStyle
  2
Linepattern
 70
    14
 71
     2
 72
     2
 73
     0
 90
        0
 40
-0.6
 41
-30.0
 62
     5
 63
     7
 74
     1
 91
        4
 64
     7
 65
   257
 75
     7
175
     7
 42
1.0
 92
        8
 66
     7
 43
1.0
 76
     1
 77
     6
 78
     2
 67
     7
 79
     5
170
     0
171
     0
290
     0
174
     0
 93
        1
 44
0.0
173
     0
291
     1
 45
0.0
1001
ACAD
1000
AcDbSavedByObjectVersion
1070
     0
  0
VISUALSTYLE
  5
33
102
{ACAD_REACTORS
330
2A
102
}
330
2A
100
AcDbVisualStyle
  2
Realistic
 70
     8
 71
     2
 72
     2
 73
     0
 90
        0
 40
-0.6
 41
-30.0
 62
     5
 63
     7
 74
     1
 91
        0
 64
     7
 65
   257
 75
     1
175
     1
 42
1.0
 92
        8
 66
     8
 43
1.0
 76
     1
 77
     6
 78
     2
 67
     7
 79
     5
170
     0
171
     0
290
     0
174
     0
 93
       13
 44
0.0
173
     0
291
     0
 45
0.0
1001
ACAD
1000
AcDbSavedByObjectVersion
1070
     0
  0
VISUALSTYLE
  5
37
102
{ACAD_REACTORS
330
2A
102
}
330
2A
100
AcDbVisualStyle
  2
Thicken
 70
    13
 71
     2
 72
     2
 73
     0
 90
        0
 40
-0.6
 41
-30.0
 62
     5
 63
     7
 74
     1
 91
        4
 64
     7
 65
   257
 75
     1
175
     1
 42
1.0
 92
       12
 66
     7
 43
1.0
 76
     1
 77
     6
 78
     2
 67
     7
 79
     5
170
     0
171
     0
290
     0
174
     0
 93
        1
 44
0.0
173
     0
291
     1
 45
0.0
1001
ACAD
1000
AcDbSavedByObjectVersion
1070
     0
  0
DICTIONARYVAR
  5
11C
102
{ACAD_REACTORS
330
11B
102
}
330
11B
100
DictionaryVariables
280
     0
  1
1:1
  0
DICTIONARYVAR
  5
120
102
{ACAD_REACTORS
330
11B
102
}
330
11B
100
DictionaryVariables
280
     0
  1
80.000000
  0
DICTIONARYVAR
  5
11F
102
{ACAD_REACTORS
330
11B
102
}
330
11B
100
DictionaryVariables
280
     0
  1
5.000000
  0
ENDSEC
  0
EOF
