  0
SECTION
  2
HEADER
  9
$ACADVER
  1
AC1015
  9
$ACADMAINTVER
 70
     6
  9
$DWGCODEPAGE
  3
ANSI_1252
  9
$INSBASE
 10
0.0
 20
0.0
 30
0.0
  9
$EXTMIN
 10
0.0
 20
0.0
 30
0.0
  9
$EXTMAX
 10
1682.0
 20
2378.0
 30
0.0
  9
$LIMMIN
 10
0.0
 20
0.0
  9
$LIMMAX
 10
1682.0
 20
2378.0
  9
$ORTHOMODE
 70
     0
  9
$REGENMODE
 70
     1
  9
$FILLMODE
 70
     1
  9
$QTEXTMODE
 70
     0
  9
$MIRRTEXT
 70
     1
  9
$LTSCALE
 40
1.0
  9
$ATTMODE
 70
     1
  9
$TEXTSIZE
 40
2.5
  9
$TRACEWID
 40
1.0
  9
$TEXTSTYLE
  7
Standard
  9
$CLAYER
  8
0
  9
$CELTYPE
  6
ByLayer
  9
$CECOLOR
 62
   256
  9
$CELTSCALE
 40
1.0
  9
$DISPSILH
 70
     0
  9
$DIMSCALE
 40
1.0
  9
$DIMASZ
 40
2.5
  9
$DIMEXO
 40
0.625
  9
$DIMDLI
 40
3.75
  9
$DIMRND
 40
0.0
  9
$DIMDLE
 40
0.0
  9
$DIMEXE
 40
1.25
  9
$DIMTP
 40
0.0
  9
$DIMTM
 40
0.0
  9
$DIMTXT
 40
2.5
  9
$DIMCEN
 40
2.5
  9
$DIMTSZ
 40
0.0
  9
$DIMTOL
 70
     0
  9
$DIMLIM
 70
     0
  9
$DIMTIH
 70
     0
  9
$DIMTOH
 70
     0
  9
$DIMSE1
 70
     0
  9
$DIMSE2
 70
     0
  9
$DIMTAD
 70
     1
  9
$DIMZIN
 70
     8
  9
$DIMBLK
  1

  9
$DIMASO
 70
     1
  9
$DIMSHO
 70
     1
  9
$DIMPOST
  1

  9
$DIMAPOST
  1

  9
$DIMALT
 70
     0
  9
$DIMALTD
 70
     3
  9
$DIMALTF
 40
0.0393700787
  9
$DIMLFAC
 40
1.0
  9
$DIMTOFL
 70
     1
  9
$DIMTVP
 40
0.0
  9
$DIMTIX
 70
     0
  9
$DIMSOXD
 70
     0
  9
$DIMSAH
 70
     0
  9
$DIMBLK1
  1

  9
$DIMBLK2
  1

  9
$DIMSTYLE
  2
ISO-25
  9
$DIMCLRD
 70
     0
  9
$DIMCLRE
 70
     0
  9
$DIMCLRT
 70
     0
  9
$DIMTFAC
 40
1.0
  9
$DIMGAP
 40
0.625
  9
$DIMJUST
 70
     0
  9
$DIMSD1
 70
     0
  9
$DIMSD2
 70
     0
  9
$DIMTOLJ
 70
     0
  9
$DIMTZIN
 70
     8
  9
$DIMALTZ
 70
     0
  9
$DIMALTTZ
 70
     0
  9
$DIMUPT
 70
     0
  9
$DIMDEC
 70
     2
  9
$DIMTDEC
 70
     2
  9
$DIMALTU
 70
     2
  9
$DIMALTTD
 70
     3
  9
$DIMTXSTY
  7
Standard
  9
$DIMAUNIT
 70
     0
  9
$DIMADEC
 70
     0
  9
$DIMALTRND
 40
0.0
  9
$DIMAZIN
 70
     0
  9
$DIMDSEP
 70
    44
  9
$DIMATFIT
 70
     3
  9
$DIMFRAC
 70
     0
  9
$DIMLDRBLK
  1

  9
$DIMLUNIT
 70
     2
  9
$DIMLWD
 70
    -2
  9
$DIMLWE
 70
    -2
  9
$DIMTMOVE
 70
     0
  9
$LUNITS
 70
     2
  9
$LUPREC
 70
     4
  9
$SKETCHINC
 40
1.0
  9
$FILLETRAD
 40
10.0
  9
$AUNITS
 70
     0
  9
$AUPREC
 70
     0
  9
$MENU
  1
.
  9
$ELEVATION
 40
0.0
  9
$PELEVATION
 40
0.0
  9
$THICKNESS
 40
0.0
  9
$LIMCHECK
 70
     0
  9
$CHAMFERA
 40
10.0
  9
$CHAMFERB
 40
10.0
  9
$CHAMFERC
 40
20.0
  9
$CHAMFERD
 40
0.0
  9
$SKPOLY
 70
     0
  9
$TDCREATE
 40
2455974.593254097
  9
$TDUCREATE
 40
2455974.551587431
  9
$TDUPDATE
 40
2455974.593254109
  9
$TDUUPDATE
 40
2455974.551587442
  9
$TDINDWG
 40
0.0000000116
  9
$TDUSRTIMER
 40
0.0000000116
  9
$USRTIMER
 70
     1
  9
$ANGBASE
 50
0.0
  9
$ANGDIR
 70
     0
  9
$PDMODE
 70
     0
  9
$PDSIZE
 40
0.0
  9
$PLINEWID
 40
0.0
  9
$SPLFRAME
 70
     0
  9
$SPLINETYPE
 70
     6
  9
$SPLINESEGS
 70
     8
  9
$HANDSEED
  5
36A
  9
$SURFTAB1
 70
     6
  9
$SURFTAB2
 70
     6
  9
$SURFTYPE
 70
     6
  9
$SURFU
 70
     6
  9
$SURFV
 70
     6
  9
$UCSBASE
  2

  9
$UCSNAME
  2

  9
$UCSORG
 10
0.0
 20
0.0
 30
0.0
  9
$UCSXDIR
 10
1.0
 20
0.0
 30
0.0
  9
$UCSYDIR
 10
0.0
 20
1.0
 30
0.0
  9
$UCSORTHOREF
  2

  9
$UCSORTHOVIEW
 70
     0
  9
$UCSORGTOP
 10
0.0
 20
0.0
 30
0.0
  9
$UCSORGBOTTOM
 10
0.0
 20
0.0
 30
0.0
  9
$UCSORGLEFT
 10
0.0
 20
0.0
 30
0.0
  9
$UCSORGRIGHT
 10
0.0
 20
0.0
 30
0.0
  9
$UCSORGFRONT
 10
0.0
 20
0.0
 30
0.0
  9
$UCSORGBACK
 10
0.0
 20
0.0
 30
0.0
  9
$PUCSBASE
  2

  9
$PUCSNAME
  2

  9
$PUCSORG
 10
0.0
 20
0.0
 30
0.0
  9
$PUCSXDIR
 10
1.0
 20
0.0
 30
0.0
  9
$PUCSYDIR
 10
0.0
 20
1.0
 30
0.0
  9
$PUCSORTHOREF
  2

  9
$PUCSORTHOVIEW
 70
     0
  9
$PUCSORGTOP
 10
0.0
 20
0.0
 30
0.0
  9
$PUCSORGBOTTOM
 10
0.0
 20
0.0
 30
0.0
  9
$PUCSORGLEFT
 10
0.0
 20
0.0
 30
0.0
  9
$PUCSORGRIGHT
 10
0.0
 20
0.0
 30
0.0
  9
$PUCSORGFRONT
 10
0.0
 20
0.0
 30
0.0
  9
$PUCSORGBACK
 10
0.0
 20
0.0
 30
0.0
  9
$USERI1
 70
     0
  9
$USERI2
 70
     0
  9
$USERI3
 70
     0
  9
$USERI4
 70
     0
  9
$USERI5
 70
     0
  9
$USERR1
 40
0.0
  9
$USERR2
 40
0.0
  9
$USERR3
 40
0.0
  9
$USERR4
 40
0.0
  9
$USERR5
 40
0.0
  9
$WORLDVIEW
 70
     1
  9
$SHADEDGE
 70
     3
  9
$SHADEDIF
 70
    70
  9
$TILEMODE
 70
     1
  9
$MAXACTVP
 70
    64
  9
$PINSBASE
 10
0.0
 20
0.0
 30
0.0
  9
$PLIMCHECK
 70
     0
  9
$PEXTMIN
 10
0.0
 20
0.0
 30
0.0
  9
$PEXTMAX
 10
1682.0
 20
2378.0
 30
0.0
  9
$PLIMMIN
 10
0.0
 20
0.0
  9
$PLIMMAX
 10
1682.0
 20
2378.0
  9
$UNITMODE
 70
     0
  9
$VISRETAIN
 70
     1
  9
$PLINEGEN
 70
     0
  9
$PSLTSCALE
 70
     1
  9
$TREEDEPTH
 70
  3020
  9
$CMLSTYLE
  2
Standard
  9
$CMLJUST
 70
     0
  9
$CMLSCALE
 40
20.0
  9
$PROXYGRAPHICS
 70
     1
  9
$MEASUREMENT
 70
     1
  9
$CELWEIGHT
370
    -1
  9
$ENDCAPS
280
     0
  9
$JOINSTYLE
280
     0
  9
$LWDISPLAY
290
     0
  9
$INSUNITS
 70
     4
  9
$HYPERLINKBASE
  1

  9
$STYLESHEET
  1

  9
$XEDIT
290
     1
  9
$CEPSNTYPE
380
     0
  9
$PSTYLEMODE
290
     1
  9
$FINGERPRINTGUID
  2
{55EF90AD-E1F6-4C3E-A7DF-2B7580B630DF}
  9
$VERSIONGUID
  2
{FAEB1C32-E019-11D5-929B-00C0DF256EC4}
  9
$EXTNAMES
290
     1
  9
$PSVPSCALE
 40
0.0
  9
$OLESTARTUP
290
     0
  0
ENDSEC
  0
SECTION
  2
CLASSES
  0
CLASS
  1
ACDBDICTIONARYWDFLT
  2
AcDbDictionaryWithDefault
  3
ObjectDBX Classes
 90
        0
280
     0
281
     0
  0
CLASS
  1
VISUALSTYLE
  2
AcDbVisualStyle
  3
ObjectDBX Classes
 90
     4095
280
     0
281
     0
  0
CLASS
  1
SCALE
  2
AcDbScale
  3
ObjectDBX Classes
 90
     1153
280
     0
281
     0
  0
CLASS
  1
DICTIONARYVAR
  2
AcDbDictionaryVar
  3
ObjectDBX Classes
 90
        0
280
     0
281
     0
  0
CLASS
  1
ACDBPLACEHOLDER
  2
AcDbPlaceHolder
  3
ObjectDBX Classes
 90
        0
280
     0
281
     0
  0
CLASS
  1
LAYOUT
  2
AcDbLayout
  3
ObjectDBX Classes
 90
        0
280
     0
281
     0
  0
ENDSEC
  0
SECTION
  2
TABLES
  0
TABLE
  2
VPORT
  5
8
330
0
100
AcDbSymbolTable
 70
     1
  0
VPORT
  5
29
330
8
100
AcDbSymbolTableRecord
100
AcDbViewportTableRecord
  2
*Active
 70
     0
 10
0.0
 20
0.0
 11
1.0
 21
1.0
 12
344.1869158879
 22
148.5
 13
0.0
 23
0.0
 14
10.0
 24
10.0
 15
10.0
 25
10.0
 16
0.0
 26
0.0
 36
1.0
 17
0.0
 27
0.0
 37
0.0
 40
297.0
 41
1.9729729729
 42
50.0
 43
0.0
 44
0.0
 50
0.0
 51
0.0
 71
     0
 72
   100
 73
     1
 74
     3
 75
     0
 76
     0
 77
     0
 78
     0
281
     0
 65
     1
110
0.0
120
0.0
130
0.0
111
1.0
121
0.0
131
0.0
112
0.0
122
1.0
132
0.0
 79
     0
146
0.0
  0
ENDTAB
  0
TABLE
  2
LTYPE
  5
5
330
0
100
AcDbSymbolTable
 70
     2
  0
LTYPE
  5
14
330
5
100
AcDbSymbolTableRecord
100
AcDbLinetypeTableRecord
  2
ByBlock
 70
     0
  3

 72
    65
 73
     0
 40
0.0
  0
LTYPE
  5
15
330
5
100
AcDbSymbolTableRecord
100
AcDbLinetypeTableRecord
  2
ByLayer
 70
     0
  3

 72
    65
 73
     0
 40
0.0
  0
LTYPE
  5
16
330
5
100
AcDbSymbolTableRecord
100
AcDbLinetypeTableRecord
  2
Continuous
 70
     0
  3
Solid line
 72
    65
 73
     0
 40
0.0
  0
LTYPE
  5
60
330
5
100
AcDbSymbolTableRecord
100
AcDbLinetypeTableRecord
  2
CENTER2
 70
     0
  3
Center (.5x) ___ _ ___ _ ___ _ ___ _ ___ _ ___
 72
    65
 73
     4
 40
28.575
 49
19.05
 74
     4
 75
     0
340
0
 46
0.0
 50
0.0
 44
0.0
 45
0.0
 49
-3.175
 74
     4
 75
     0
340
0
 46
0.0
 50
0.0
 44
0.0
 45
0.0
 49
3.175
 74
     4
 75
     0
340
0
 46
0.0
 50
0.0
 44
0.0
 45
0.0
 49
-3.175
 74
     4
 75
     0
340
0
 46
0.0
 50
0.0
 44
0.0
 45
0.0
  0
ENDTAB
  0
TABLE
  2
LAYER
  5
2
330
0
100
AcDbSymbolTable
 70
    11
  0
LAYER
  5
10
330
2
100
AcDbSymbolTableRecord
100
AcDbLayerTableRecord
  2
0
 70
     0
 62
     7
  6
Continuous
370
    -3
390
F
  0
LAYER
  5
5D
330
2
100
AcDbSymbolTableRecord
100
AcDbLayerTableRecord
  2
Default
 70
     0
 62
     7
  6
Continuous
370
    -3
390
F
  0
LAYER
  5
75
330
2
100
AcDbSymbolTableRecord
100
AcDbLayerTableRecord
  2
$DDT_AUDIT_GENERATED_(75)
 70
     0
 62
     7
  6
Continuous
370
    -3
390
F
  0
LAYER
  5
97
330
2
100
AcDbSymbolTableRecord
100
AcDbLayerTableRecord
  2
$DDT_AUDIT_GENERATED_(97)
 70
     0
 62
     7
  6
Continuous
370
    -3
390
F
  0
LAYER
  5
99
330
2
100
AcDbSymbolTableRecord
100
AcDbLayerTableRecord
  2
$DDT_AUDIT_GENERATED_(99)
 70
     0
 62
     7
  6
Continuous
370
    -3
390
F
  0
LAYER
  5
A8
330
2
100
AcDbSymbolTableRecord
100
AcDbLayerTableRecord
  2
$DDT_AUDIT_GENERATED_(A8)
 70
     0
 62
     7
  6
Continuous
370
    -3
390
F
  0
LAYER
  5
B7
330
2
100
AcDbSymbolTableRecord
100
AcDbLayerTableRecord
  2
$DDT_AUDIT_GENERATED_(B7)
 70
     0
 62
     7
  6
Continuous
370
    -3
390
F
  0
LAYER
  5
29C
330
2
100
AcDbSymbolTableRecord
100
AcDbLayerTableRecord
  2
$DDT_AUDIT_GENERATED_(29C)
 70
     0
 62
     7
  6
Continuous
370
    -3
390
F
  0
LAYER
  5
2A0
330
2
100
AcDbSymbolTableRecord
100
AcDbLayerTableRecord
  2
$DDT_AUDIT_GENERATED_(2A0)
 70
     0
 62
     7
  6
Continuous
370
    -3
390
F
  0
LAYER
  5
2D1
330
2
100
AcDbSymbolTableRecord
100
AcDbLayerTableRecord
  2
$DDT_AUDIT_GENERATED_(2D1)
 70
     0
 62
     7
  6
Continuous
370
    -3
390
F
  0
LAYER
  5
2D4
330
2
100
AcDbSymbolTableRecord
100
AcDbLayerTableRecord
  2
$DDT_AUDIT_GENERATED_(2D4)
 70
     0
 62
     7
  6
Continuous
370
    -3
390
F
  0
ENDTAB
  0
TABLE
  2
STYLE
  5
3
330
0
100
AcDbSymbolTable
 70
     2
  0
STYLE
  5
11
330
3
100
AcDbSymbolTableRecord
100
AcDbTextStyleTableRecord
  2
Standard
 70
     0
 40
0.0
 41
1.0
 50
0.0
 71
     0
 42
2.5
  3
txt
  4

  0
STYLE
  5
359
330
3
100
AcDbSymbolTableRecord
100
AcDbTextStyleTableRecord
  2
SEACAD_seiso_ttf
 70
     0
 40
0.0
 41
1.0
 50
0.0
 71
     0
 42
0.2
  3
seiso.ttf
  4

  0
ENDTAB
  0
TABLE
  2
VIEW
  5
6
330
0
100
AcDbSymbolTable
 70
     0
  0
ENDTAB
  0
TABLE
  2
UCS
  5
7
330
0
100
AcDbSymbolTable
 70
     0
  0
ENDTAB
  0
TABLE
  2
APPID
  5
9
330
0
100
AcDbSymbolTable
 70
     1
  0
APPID
  5
12
330
9
100
AcDbSymbolTableRecord
100
AcDbRegAppTableRecord
  2
ACAD
 70
     0
  0
ENDTAB
  0
TABLE
  2
DIMSTYLE
  5
A
330
0
100
AcDbSymbolTable
 70
     1
100
AcDbDimStyleTable
  0
DIMSTYLE
105
27
330
A
100
AcDbSymbolTableRecord
100
AcDbDimStyleTableRecord
  2
ISO-25
 70
     0
 41
2.5
 42
0.625
 43
3.75
 44
1.25
 73
     0
 74
     0
 77
     1
 78
     8
140
2.5
141
2.5
143
0.0393700787
147
0.625
171
     3
172
     1
271
     2
272
     2
274
     3
278
    44
283
     0
284
     8
340
11
  0
ENDTAB
  0
TABLE
  2
BLOCK_RECORD
  5
1
330
0
100
AcDbSymbolTable
 70
     8
  0
BLOCK_RECORD
  5
1F
330
1
100
AcDbSymbolTableRecord
100
AcDbBlockTableRecord
  2
*Model_Space
340
22
  0
BLOCK_RECORD
  5
1B
330
1
100
AcDbSymbolTableRecord
100
AcDbBlockTableRecord
  2
*Paper_Space
340
1E
  0
BLOCK_RECORD
  5
5E
330
1
100
AcDbSymbolTableRecord
100
AcDbBlockTableRecord
  2
SEANNOT_GROUP
340
0
102
{BLKREFS
331
5F
102
}
  0
BLOCK_RECORD
  5
64
330
1
100
AcDbSymbolTableRecord
100
AcDbBlockTableRecord
  2
SEANNOT_GROUP1
340
0
102
{BLKREFS
331
65
102
}
  0
BLOCK_RECORD
  5
69
330
1
100
AcDbSymbolTableRecord
100
AcDbBlockTableRecord
  2
SEANNOT_GROUP2
340
0
102
{BLKREFS
331
6A
102
}
  0
BLOCK_RECORD
  5
6E
330
1
100
AcDbSymbolTableRecord
100
AcDbBlockTableRecord
  2
SEANNOT_GROUP3
340
0
102
{BLKREFS
331
6F
102
}
  0
BLOCK_RECORD
  5
73
330
1
100
AcDbSymbolTableRecord
100
AcDbBlockTableRecord
  2
SE
340
0
102
{BLKREFS
331
74
102
}
  0
BLOCK_RECORD
  5
2A9
330
1
100
AcDbSymbolTableRecord
100
AcDbBlockTableRecord
  2
SE1
340
0
102
{BLKREFS
331
2AA
102
}
  0
BLOCK_RECORD
  5
30F
330
1
100
AcDbSymbolTableRecord
100
AcDbBlockTableRecord
  2
SE2
340
0
102
{BLKREFS
331
310
102
}
  0
ENDTAB
  0
ENDSEC
  0
SECTION
  2
BLOCKS
  0
BLOCK
  5
20
330
1F
100
AcDbEntity
  8
0
100
AcDbBlockBegin
  2
*Model_Space
 70
     0
 10
0.0
 20
0.0
 30
0.0
  3
*Model_Space
  1

  0
ENDBLK
  5
21
330
1F
100
AcDbEntity
  8
0
100
AcDbBlockEnd
  0
BLOCK
  5
1C
330
1B
100
AcDbEntity
 67
     1
  8
0
100
AcDbBlockBegin
  2
*Paper_Space
 70
     0
 10
0.0
 20
0.0
 30
0.0
  3
*Paper_Space
  1

  0
ENDBLK
  5
1D
330
1B
100
AcDbEntity
 67
     1
  8
0
100
AcDbBlockEnd
  0
BLOCK
  5
62
330
5E
100
AcDbEntity
  8
0
100
AcDbBlockBegin
  2
SEANNOT_GROUP
 70
     0
 10
0.0
 20
0.0
 30
0.0
  3
SEANNOT_GROUP
  1

  0
LINE
  5
61
330
5E
100
AcDbEntity
  8
Default
  6
CENTER2
 62
     7
100
AcDbLine
 10
116.2133909107
 20
300.230626461
 30
0.0
 11
116.2133909107
 21
368.5937417598
 31
0.0
  0
ENDBLK
  5
63
330
5E
100
AcDbEntity
  8
0
100
AcDbBlockEnd
  0
BLOCK
  5
67
330
64
100
AcDbEntity
  8
0
100
AcDbBlockBegin
  2
SEANNOT_GROUP1
 70
     0
 10
0.0
 20
0.0
 30
0.0
  3
SEANNOT_GROUP1
  1

  0
LINE
  5
66
330
64
100
AcDbEntity
  8
Default
  6
CENTER2
 62
     7
100
AcDbLine
 10
116.3496422975
 20
449.1311547218
 30
0.0
 11
116.3496422975
 21
471.04691085
 31
0.0
  0
ENDBLK
  5
68
330
64
100
AcDbEntity
  8
0
100
AcDbBlockEnd
  0
BLOCK
  5
6C
330
69
100
AcDbEntity
  8
0
100
AcDbBlockBegin
  2
SEANNOT_GROUP2
 70
     0
 10
0.0
 20
0.0
 30
0.0
  3
SEANNOT_GROUP2
  1

  0
LINE
  5
6B
330
69
100
AcDbEntity
  8
Default
  6
CENTER2
 62
     7
100
AcDbLine
 10
116.3496422975
 20
456.1311547218
 30
0.0
 11
116.3496422975
 21
435.5248920849
 31
0.0
  0
ENDBLK
  5
6D
330
69
100
AcDbEntity
  8
0
100
AcDbBlockEnd
  0
BLOCK
  5
71
330
6E
100
AcDbEntity
  8
0
100
AcDbBlockBegin
  2
SEANNOT_GROUP3
 70
     0
 10
0.0
 20
0.0
 30
0.0
  3
SEANNOT_GROUP3
  1

  0
LINE
  5
70
330
6E
100
AcDbEntity
  8
Default
  6
CENTER2
 62
     7
100
AcDbLine
 10
306.7480500207
 20
467.5159339511
 30
0.0
 11
282.2159110262
 21
467.5159339511
 31
0.0
  0
ENDBLK
  5
72
330
6E
100
AcDbEntity
  8
0
100
AcDbBlockEnd
  0
BLOCK
  5
2A7
330
73
100
AcDbEntity
  8
0
100
AcDbBlockBegin
  2
SE
 70
     0
 10
0.0
 20
0.0
 30
0.0
  3
SE
  1

  0
LINE
  5
76
330
73
100
AcDbEntity
  8
$DDT_AUDIT_GENERATED_(75)
  6
Continuous
 62
     7
100
AcDbLine
 10
116.3504073732
 20
522.4830376776
 30
0.0
 11
141.350445128
 21
522.4830376776
 31
0.0
  0
LINE
  5
77
330
73
100
AcDbEntity
  8
$DDT_AUDIT_GENERATED_(75)
  6
Continuous
 62
     7
100
AcDbLine
 10
142.3504465171
 20
521.4830376776
 30
0.0
 11
116.3504072521
 21
521.4830376776
 31
0.0
  0
LINE
  5
78
330
73
100
AcDbEntity
  8
$DDT_AUDIT_GENERATED_(75)
  6
Continuous
 62
     7
100
AcDbLine
 10
116.3504104003
 20
522.4830376776
 30
0.0
 11
91.3503755161
 21
522.4830376776
 31
0.0
  0
ARC
  5
79
330
73
100
AcDbEntity
  8
$DDT_AUDIT_GENERATED_(75)
  6
Continuous
 62
     7
100
AcDbCircle
 10
162.9770140558
 20
10129.3051368399
 30
0.0
 40
9640.851563603
100
AcDbArc
 50
269.8871870057
 51
270.1686322322
  0
SPLINE
  5
7A
330
73
100
AcDbEntity
  8
$DDT_AUDIT_GENERATED_(75)
  6
Continuous
 62
     7
100
AcDbSpline
210
0.0
220
0.0
230
1.0
 70
    12
 71
     3
 72
    30
 73
    26
 74
     0
 42
0.0000000013375878
 43
0.0000000001
 40
0.7596284145331693
 40
0.7596284145331693
 40
0.7596284145331693
 40
0.7596284145331693
 40
0.7812499999999994
 40
0.7812499999999994
 40
0.8124999999999988
 40
0.8124999999999988
 40
0.8437500000000006
 40
0.8437500000000006
 40
0.8593750000000001
 40
0.8593750000000001
 40
0.8749999999999999
 40
0.8749999999999999
 40
0.9062499999999992
 40
0.9062499999999992
 40
0.9374999999999989
 40
0.9374999999999989
 40
0.9687500000000007
 40
0.9687500000000007
 40
0.9726562499999999
 40
0.9726562499999999
 40
0.9765624999999991
 40
0.9765624999999991
 40
0.9843750000000004
 40
0.9843750000000004
 40
1.0
 40
1.0
 40
1.0
 40
1.0
 10
90.35041007794986
 20
492.7491546065358
 30
0.0
 41
1.0
 10
90.35040625918934
 20
492.7109153849995
 30
0.0
 41
1.0
 10
90.35344415799108
 20
492.6725222730137
 30
0.0
 41
1.0
 10
90.36825421111841
 20
492.5782387154314
 30
0.0
 41
1.0
 10
90.3833134747913
 20
492.5221692150454
 30
0.0
 41
1.0
 10
90.4259602180373
 20
492.4093309242653
 30
0.0
 41
1.0
 10
90.45354768231941
 20
492.3525612310014
 30
0.0
 41
1.0
 10
90.50430453251431
 20
492.2669236260503
 30
0.0
 41
1.0
 10
90.52278651653731
 20
492.2382974457563
 30
0.0
 41
1.0
 10
90.5628788108174
 20
492.1809233804254
 30
0.0
 41
1.0
 10
90.58448911989231
 20
492.1521755381384
 30
0.0
 41
1.0
 10
90.65402159066329
 20
492.0658123670733
 30
0.0
 41
1.0
 10
90.70664333719841
 20
492.0080763232344
 30
0.0
 41
1.0
 10
90.8245149234373
 20
491.8926464506664
 30
0.0
 41
1.0
 10
90.88976465475231
 20
491.8349529143874
 30
0.0
 41
1.0
 10
91.03305058046041
 20
491.7200028318723
 30
0.0
 41
1.0
 10
91.11108662201441
 20
491.6627466155814
 30
0.0
 41
1.0
 10
91.20619679959641
 20
491.5988133550953
 30
0.0
 41
1.0
 10
91.2168663040393
 20
491.5917163357964
 30
0.0
 41
1.0
 10
91.2384092479364
 20
491.5775364769934
 30
0.0
 41
1.0
 10
91.2492852436303
 20
491.5704520119593
 30
0.0
 41
1.0
 10
91.28218956243241
 20
491.5492405805773
 30
0.0
 41
1.0
 10
91.3045001558044
 20
491.5351515237003
 30
0.0
 41
1.0
 10
91.37255080875332
 20
491.4930488592224
 30
0.0
 41
1.0
 10
91.4194096208213
 20
491.4651998050713
 30
0.0
 41
1.0
 10
91.46775021177712
 20
491.4375931341423
 30
0.0
 41
1.0
  0
ARC
  5
7B
330
73
100
AcDbEntity
  8
$DDT_AUDIT_GENERATED_(75)
  6
Continuous
 62
     7
100
AcDbCircle
 10
40.901591428
 20
467.5519982776
 30
0.0
 40
15.51204525307412
100
AcDbArc
 50
89.7087322201
 51
270.2577465531
  0
SPLINE
  5
7C
330
73
100
AcDbEntity
  8
$DDT_AUDIT_GENERATED_(75)
  6
Continuous
 62
     7
100
AcDbSpline
210
0.0
220
0.0
230
1.0
 70
     8
 71
     3
 72
    87
 73
    83
 74
     0
 42
0.00000000006312
 43
0.0000000001
 40
0.0
 40
0.0
 40
0.0
 40
0.0
 40
0.0178958853310217
 40
0.0268438323007615
 40
0.0357917904261232
 40
0.0492137208393346
 40
0.0626356628671691
 40
0.0782945910834734
 40
0.0861238790487835
 40
0.0900383885295885
 40
0.0939473912299144
 40
0.1015203174532612
 40
0.1096118825906868
 40
0.1252376919634369
 40
0.1407855430086042
 40
0.1564071270189095
 40
0.1668306863462752
 40
0.1720440148721278
 40
0.1798634248325851
 40
0.1876821497484274
 40
0.1955045306271629
 40
0.1994182245541212
 40
0.2033322270139138
 40
0.2189900968471239
 40
0.2503074432640219
 40
0.2816213780315671
 40
0.2972763774383228
 40
0.3129321277677205
 40
0.3442515179794649
 40
0.3599132965081039
 40
0.3755740491816509
 40
0.4068892926183236
 40
0.4225435622588519
 40
0.4303695917586501
 40
0.4342819980172929
 40
0.4381827743145628
 40
0.4431449432639442
 40
0.4504160816040579
 40
0.4597385023052565
 40
0.4690672644020568
 40
0.48457813750372
 40
0.4923563113260178
 40
0.5001354896816013
 40
0.5079106168883325
 40
0.5156819134586457
 40
0.5311851025540676
 40
0.5400671313038893
 40
0.5489447095315423
 40
0.5567981339500021
 40
0.5620512505690399
 40
0.5659539162425717
 40
0.5698645970279482
 40
0.5776869458939468
 40
0.5933337217389989
 40
0.6246338376169249
 40
0.6402869898615919
 40
0.6559410428703317
 40
0.6872435268270216
 40
0.7028912359710779
 40
0.718538134396246
 40
0.7364218428806502
 40
0.749835879728438
 40
0.7811370216644626
 40
0.7967867361262447
 40
0.8046103649397424
 40
0.8124285059351023
 40
0.820243111863985
 40
0.8280583991649055
 40
0.8436735038126653
 40
0.8592868351700251
 40
0.874826321439988
 40
0.8904438913412307
 40
0.898532465638668
 40
0.9061034424069457
 40
0.9139214523662007
 40
0.9217466736717385
 40
0.937397339379351
 40
0.9463405852408456
 40
0.9552838456920004
 40
0.973170319595837
 40
0.9865851888419751
 40
1.0
 40
1.0
 40
1.0
 40
1.0
 10
41.3490181588176
 20
452.0397155440863
 30
0.0
 10
43.53745378451976
 20
452.0465591345779
 30
0.0
 10
46.82010729578676
 20
452.0568245730179
 30
0.0
 10
51.1967493506736
 20
452.0932695211962
 30
0.0
 10
55.0263730530713
 20
452.1251297923325
 30
0.0
 10
59.40296506544325
 20
452.1501386565258
 30
0.0
 10
64.6011002641374
 20
452.182747877163
 30
0.0
 10
69.11182818499556
 20
452.2125742310573
 30
0.0
 10
72.47148469916
 20
452.2374275519887
 30
0.0
 10
74.37029196405622
 20
452.2398600809761
 30
0.0
 10
76.21619775941261
 20
452.2368852377624
 30
0.0
 10
78.49253363730197
 20
452.2471352823526
 30
0.0
 10
81.91229490750723
 20
452.3700248073369
 30
0.0
 10
85.86544469189369
 20
452.6165841955783
 30
0.0
 10
89.84831069091973
 20
452.9216710624189
 30
0.0
 10
92.649802420291
 20
453.2452779042845
 30
0.0
 10
94.22863438158338
 20
453.4947139884181
 30
0.0
 10
95.16783094862143
 20
453.703836386649
 30
0.0
 10
95.81693512169036
 20
453.8995125917726
 30
0.0
 10
96.29222602194415
 20
454.1033040010103
 30
0.0
 10
96.45179937256331
 20
454.2855032371683
 30
0.0
 10
96.53867364447
 20
454.427189606984
 30
0.0
 10
96.69545505124402
 20
454.6381348806725
 30
0.0
 10
97.01305168821413
 20
455.1153978496754
 30
0.0
 10
97.51736124947105
 20
455.8579358515052
 30
0.0
 10
98.01533952767524
 20
456.5811094899217
 30
0.0
 10
98.41533237857684
 20
457.1399717706249
 30
0.0
 10
98.81508391972253
 20
457.7053114836165
 30
0.0
 10
99.21456522587913
 20
458.3183888094301
 30
0.0
 10
99.61389205970578
 20
458.9711805619229
 30
0.0
 10
100.0131632376568
 20
459.6275199748875
 30
0.0
 10
100.4131802254405
 20
460.2650522227195
 30
0.0
 10
100.7622179357917
 20
460.8222339393657
 30
0.0
 10
100.9371624205085
 20
461.09758950287
 30
0.0
 10
101.0397832268454
 20
461.2635525557146
 30
0.0
 10
101.0987448011127
 20
461.4030539028944
 30
0.0
 10
101.2724290708752
 20
461.5596709446508
 30
0.0
 10
101.924187104073
 20
461.7417079601138
 30
0.0
 10
103.361447334341
 20
461.9548726551005
 30
0.0
 10
106.0959590141158
 20
462.1913060319401
 30
0.0
 10
109.6494548859615
 20
462.353129734281
 30
0.0
 10
113.4400032126435
 20
462.4226035639569
 30
0.0
 10
116.399325587894
 20
462.4357082267264
 30
0.0
 10
119.3560929542406
 20
462.4217147537643
 30
0.0
 10
123.1369959067912
 20
462.3502178486331
 30
0.0
 10
126.6264977546636
 20
462.1890946447539
 30
0.0
 10
129.2858155032801
 20
461.9592668961787
 30
0.0
 10
130.7352385483937
 20
461.7493489148457
 30
0.0
 10
131.4271388798946
 20
461.5647405026967
 30
0.0
 10
131.6047079830239
 20
461.3993710928765
 30
0.0
 10
131.6643854605411
 20
461.2562775221917
 30
0.0
 10
131.7686453745349
 20
461.0910747782757
 30
0.0
 10
131.9420823114324
 20
460.8156169760396
 30
0.0
 10
132.2920364244918
 20
460.2588161430001
 30
0.0
 10
132.6913255269251
 20
459.621461053513
 30
0.0
 10
133.0904870616403
 20
458.9653261961116
 30
0.0
 10
133.4895899772513
 20
458.31307614076
 30
0.0
 10
133.8888591631976
 20
457.7007150016324
 30
0.0
 10
134.2884371502608
 20
457.1359138078014
 30
0.0
 10
134.6024264990434
 20
456.6969034779467
 30
0.0
 10
134.9018570936734
 20
456.2676609644263
 30
0.0
 10
135.3018195410435
 20
455.6846071504104
 30
0.0
 10
135.6818689635654
 20
455.1115747330889
 30
0.0
 10
136.042981850284
 20
454.5992353884592
 30
0.0
 10
136.2239546297686
 20
454.3191520436062
 30
0.0
 10
136.4112207370526
 20
454.1009651176947
 30
0.0
 10
136.8914954052171
 20
453.8973277523823
 30
0.0
 10
137.8670171149103
 20
453.6023170220495
 30
0.0
 10
139.7154983664106
 20
453.2820259029226
 30
0.0
 10
142.8687390238662
 20
452.9206043392667
 30
0.0
 10
146.8530681389372
 20
452.6152877067611
 30
0.0
 10
150.8062905269454
 20
452.3691279876429
 30
0.0
 10
154.2255941086657
 20
452.2465630464
 30
0.0
 10
156.9575776129811
 20
452.235786379577
 30
0.0
 10
159.767634379608
 20
452.2417104760335
 30
0.0
 10
163.6032386815732
 20
452.2119817751181
 30
0.0
 10
167.565482989888
 20
452.1861516185868
 30
0.0
 10
171.666828627562
 20
452.160798617353
 30
0.0
 10
176.0412869879542
 20
452.134642380577
 30
0.0
 10
180.9624434745629
 20
452.098814821608
 30
0.0
 10
186.4304855907764
 20
452.0520591396331
 30
0.0
 10
189.7113646819487
 20
452.0438300367293
 30
0.0
 10
191.351821806217
 20
452.0397155739013
 30
0.0
  0
SPLINE
  5
7D
330
73
100
AcDbEntity
  8
$DDT_AUDIT_GENERATED_(75)
  6
Continuous
 62
     7
100
AcDbSpline
210
0.0
220
0.0
230
1.0
 70
     8
 71
     3
 72
    99
 73
    95
 74
     0
 42
0.0000000000632235
 43
0.0000000001
 40
0.0
 40
0.0
 40
0.0
 40
0.0
 40
0.0156960874542889
 40
0.023544149593142
 40
0.0313922094191367
 40
0.0470883121088449
 40
0.0627844375945991
 40
0.0784805776474335
 40
0.0863284952622226
 40
0.0902488409142125
 40
0.0941694545383539
 40
0.101763590290152
 40
0.1098738228479076
 40
0.1255373819953199
 40
0.1411234606877428
 40
0.1567831187965611
 40
0.1646307881634714
 40
0.1724790438028414
 40
0.1881377017614652
 40
0.195978283419472
 40
0.2038245237346969
 40
0.2195193718805628
 40
0.2352149596470042
 40
0.2509102186721335
 40
0.2822965230213836
 40
0.2979876960823533
 40
0.3136794853782487
 40
0.3450700602591528
 40
0.3607672531446369
 40
0.3764629705236516
 40
0.392155222576837
 40
0.4000002983378561
 40
0.4078452018133579
 40
0.4156904151824234
 40
0.4235357589522616
 40
0.4313804484063197
 40
0.4353050483874821
 40
0.4391788263513233
 40
0.4467949288206435
 40
0.4545879985094793
 40
0.462379765434673
 40
0.4701763293878505
 40
0.479094805799519
 40
0.4858024544126986
 40
0.4935980035340871
 40
0.5010391517533126
 40
0.5082481890629952
 40
0.5156542661317974
 40
0.5245861728390848
 40
0.531288000667591
 40
0.5390819753373028
 40
0.5468767113314282
 40
0.5546731482221441
 40
0.5622582756721194
 40
0.5661752826811194
 40
0.5700987053227855
 40
0.5779464675401244
 40
0.5857946964686112
 40
0.5936421363406643
 40
0.6014893570572112
 40
0.6093369287979137
 40
0.6250342910938758
 40
0.6407346228534067
 40
0.6564361560081472
 40
0.687500708894305
 40
0.7021429084292453
 40
0.7176146818502394
 40
0.7355534306685433
 40
0.7490089022528837
 40
0.7647081786708435
 40
0.7804076955822946
 40
0.7961064560385444
 40
0.8000307113369434
 40
0.8039545964848617
 40
0.8117970095645738
 40
0.819635850666676
 40
0.8235573106941798
 40
0.8274769867090999
 40
0.8353269436855671
 40
0.843176270612725
 40
0.8588395875406225
 40
0.874429486946702
 40
0.8900967950475488
 40
0.8982096226981279
 40
0.9058085368883472
 40
0.9097258756558548
 40
0.9136508743678224
 40
0.9215006828716669
 40
0.937200567244557
 40
0.9529004458881908
 40
0.9686003027729351
 40
0.976450233739909
 40
0.9843001576738247
 40
1.0
 40
1.0
 40
1.0
 40
1.0
 10
191.3518119495839
 20
483.0637901523741
 30
0.0
 10
189.4322668707721
 20
483.0575442543744
 30
0.0
 10
186.552955337888
 20
483.0481754075771
 30
0.0
 10
182.7138539104658
 20
483.0189135175822
 30
0.0
 10
178.8747449616321
 20
482.9865262921257
 30
0.0
 10
174.0761131080125
 20
482.9560268058649
 30
0.0
 10
168.3166389523199
 20
482.9191186724806
 30
0.0
 10
163.5203966342793
 20
482.8833195586115
 30
0.0
 10
160.1531255265318
 20
482.8556902969708
 30
0.0
 10
158.2508160709678
 20
482.8521207972577
 30
0.0
 10
156.4016216753307
 20
482.8534748727893
 30
0.0
 10
154.1237343411202
 20
482.8388228102446
 30
0.0
 10
150.7009837376884
 20
482.7077538353346
 30
0.0
 10
146.7485465901896
 20
482.4526973663604
 30
0.0
 10
142.7725059266823
 20
482.1363131469932
 30
0.0
 10
140.1566168356634
 20
481.8239708537275
 30
0.0
 10
138.5367898879132
 20
481.5778716620418
 30
0.0
 10
137.2447731122365
 20
481.3003872623756
 30
0.0
 10
136.4450688162841
 20
481.0194148618052
 30
0.0
 10
136.2163312610722
 20
480.7301986998457
 30
0.0
 10
136.0283298486863
 20
480.4474178590485
 30
0.0
 10
135.7723967446299
 20
480.0771147867951
 30
0.0
 10
135.4733050698862
 20
479.6297793876209
 30
0.0
 10
135.0723102962838
 20
479.0358811579317
 30
0.0
 10
134.6720605981578
 20
478.459599443151
 30
0.0
 10
134.2712510164431
 20
477.9023460247344
 30
0.0
 10
133.870504700927
 20
477.3385336207566
 30
0.0
 10
133.4700338151134
 20
476.7327755089855
 30
0.0
 10
133.0696717316179
 20
476.0884609440084
 30
0.0
 10
132.7693437529964
 20
475.6099470296331
 30
0.0
 10
132.5189850048095
 20
475.2402166907191
 30
0.0
 10
132.3185317294981
 20
474.9566130635752
 30
0.0
 10
132.1684736752732
 20
474.7442854825472
 30
0.0
 10
132.0172400092645
 20
474.5255079997009
 30
0.0
 10
131.869968138939
 20
474.2891425978278
 30
0.0
 10
131.738280331311
 20
474.0891913571811
 30
0.0
 10
131.6457358546995
 20
473.9206484066844
 30
0.0
 10
131.5673707164504
 20
473.7551836920905
 30
0.0
 10
131.2336788312824
 20
473.5845354362429
 30
0.0
 10
130.2352584450726
 20
473.4052604627004
 30
0.0
 10
128.719790433781
 20
473.2534825007029
 30
0.0
 10
126.6400697841347
 20
473.1265187386991
 30
0.0
 10
124.229919760047
 20
473.0243485061886
 30
0.0
 10
121.5348341275081
 20
472.9375176828499
 30
0.0
 10
118.8296192152098
 20
472.8867023830417
 30
0.0
 10
115.979168620629
 20
472.8753384450038
 30
0.0
 10
113.1905126639244
 20
472.8951529706157
 30
0.0
 10
110.3261289902661
 20
472.9605026298717
 30
0.0
 10
107.7484236458333
 20
473.0516987199342
 30
0.0
 10
105.4682848910861
 20
473.1597181300994
 30
0.0
 10
103.6547635652189
 20
473.2795218970268
 30
0.0
 10
102.2348633418442
 20
473.4382618668592
 30
0.0
 10
101.340552826395
 20
473.6202524794083
 30
0.0
 10
101.101781667865
 20
473.8001249698524
 30
0.0
 10
101.0339716951395
 20
473.9699597288205
 30
0.0
 10
100.9279071602939
 20
474.1344233910997
 30
0.0
 10
100.804486560352
 20
474.3355895206407
 30
0.0
 10
100.6541708601831
 20
474.5685819032673
 30
0.0
 10
100.5036697407909
 20
474.7851423586974
 30
0.0
 10
100.3533720978678
 20
474.9974508056348
 30
0.0
 10
100.152928635349
 20
475.2818363861127
 30
0.0
 10
99.90248042804555
 20
475.6556601917504
 30
0.0
 10
99.60208252720591
 20
476.1354717012779
 30
0.0
 10
99.20373619350741
 20
476.7750761560271
 30
0.0
 10
98.81200096732474
 20
477.3649498855595
 30
0.0
 10
98.4214200533461
 20
477.913189209219
 30
0.0
 10
98.11462095380882
 20
478.3404690633243
 30
0.0
 10
97.81552586867323
 20
478.766234011898
 30
0.0
 10
97.51502547112544
 20
479.203544794986
 30
0.0
 10
97.22945393038968
 20
479.6284422900169
 30
0.0
 10
96.92645744216739
 20
480.075591746403
 30
0.0
 10
96.70680270777746
 20
480.4088711808522
 30
0.0
 10
96.54964959358934
 20
480.6225910878748
 30
0.0
 10
96.4601120492961
 20
480.7641863453047
 30
0.0
 10
96.31449102548821
 20
480.9480925811263
 30
0.0
 10
95.93207222645859
 20
481.1179786095607
 30
0.0
 10
95.49821526169926
 20
481.2613118157624
 30
0.0
 10
94.97801812477397
 20
481.4042387489498
 30
0.0
 10
94.16968598923839
 20
481.5766533652578
 30
0.0
 10
92.55159505268864
 20
481.8230610509949
 30
0.0
 10
89.9367538850407
 20
482.1354644214118
 30
0.0
 10
85.96157827922276
 20
482.4520865085073
 30
0.0
 10
82.00919638857278
 20
482.7072439479882
 30
0.0
 10
78.58583560648019
 20
482.8385786409445
 30
0.0
 10
76.30794290936574
 20
482.8534837467336
 30
0.0
 10
74.45817124070825
 20
482.8519973273932
 30
0.0
 10
72.55557631825837
 20
482.85541272727
 30
0.0
 10
69.18707208891783
 20
482.8837065886559
 30
0.0
 10
64.38964752006535
 20
482.9188027036093
 30
0.0
 10
58.62881006626693
 20
482.9561568961543
 30
0.0
 10
53.82902762026778
 20
482.9864894324224
 30
0.0
 10
49.98900477416412
 20
483.019117192396
 30
0.0
 10
46.14898543626464
 20
483.0480975920457
 30
0.0
 10
43.26898758609375
 20
483.0575118709649
 30
0.0
 10
41.34898899194571
 20
483.0637898530677
 30
0.0
  0
ARC
  5
7E
330
73
100
AcDbEntity
  8
$DDT_AUDIT_GENERATED_(75)
  6
Continuous
 62
     7
100
AcDbCircle
 10
69.762921891
 20
10758.1776137331
 30
0.0
 40
10269.72165857897
100
AcDbArc
 50
269.8414758413
 51
270.1056783509
  0
ARC
  5
7F
330
73
100
AcDbEntity
  8
$DDT_AUDIT_GENERATED_(75)
  6
Continuous
 62
     7
100
AcDbCircle
 10
116.3502138846
 20
23881.7485930382
 30
0.0
 40
23435.259618316
100
AcDbArc
 50
269.8166327169
 51
269.9833058547
  0
ARC
  5
80
330
73
100
AcDbEntity
  8
$DDT_AUDIT_GENERATED_(75)
  6
Continuous
 62
     7
100
AcDbCircle
 10
116.3502138846
 20
23881.7485930382
 30
0.0
 40
23435.259618316
100
AcDbArc
 50
270.0161043166
 51
270.183368254
  0
ARC
  5
81
330
73
100
AcDbEntity
  8
$DDT_AUDIT_GENERATED_(75)
  6
Continuous
 62
     7
100
AcDbCircle
 10
191.799059292
 20
467.5520097992
 30
0.0
 40
15.5120346451479
100
AcDbArc
 50
269.7385083826
 51
90.2894510836
  0
ARC
  5
82
330
73
100
AcDbEntity
  8
$DDT_AUDIT_GENERATED_(75)
  6
Continuous
 62
     7
100
AcDbCircle
 10
41.3964371665
 20
467.5521264365
 30
0.0
 40
20.943189781536
100
AcDbArc
 50
90.1297346446
 51
269.8702448567
  0
ARC
  5
83
330
73
100
AcDbEntity
  8
$DDT_AUDIT_GENERATED_(75)
  6
Continuous
 62
     7
100
AcDbCircle
 10
306.069664845
 20
448.2373786494
 30
0.0
 40
114.7294469112801
100
AcDbArc
 50
180.8080943876
 51
180.8132436813
  0
SPLINE
  5
84
330
73
100
AcDbEntity
  8
$DDT_AUDIT_GENERATED_(75)
  6
Continuous
 62
     7
100
AcDbSpline
210
0.0
220
0.0
230
1.0
 70
     8
 71
     3
 72
    17
 73
    13
 74
     0
 42
0.0000000005924828
 43
0.0000000001
 40
0.0
 40
0.0
 40
0.0
 40
0.0
 40
0.0809945967398602
 40
0.1640434033432319
 40
0.2492057036884281
 40
0.3673220593965905
 40
0.499219455633662
 40
0.6252321532062205
 40
0.7510135966131353
 40
0.8756296020810523
 40
0.9384699899672876
 40
1.0
 40
1.0
 40
1.0
 40
1.0
 10
116.3504104003443
 20
492.0712193482017
 30
0.0
 10
116.8449937026609
 20
492.0670511689462
 30
0.0
 10
117.8467040810624
 20
492.0586090957916
 30
0.0
 10
119.3622513710671
 20
491.99220003158
 30
0.0
 10
121.0890987196681
 20
491.8743462017177
 30
0.0
 10
123.0806339433705
 20
491.6743765048048
 30
0.0
 10
125.2572876243663
 20
491.3899449374421
 30
0.0
 10
127.4002685961564
 20
491.054261722227
 30
0.0
 10
129.4180818511199
 20
490.7235361873453
 30
0.0
 10
131.018622711371
 20
490.4968331394143
 30
0.0
 10
132.2398149307808
 20
490.3601683334578
 30
0.0
 10
132.825279788139
 20
490.3123857750052
 30
0.0
 10
133.1149279612562
 20
490.2887462164754
 30
0.0
  0
SPLINE
  5
85
330
73
100
AcDbEntity
  8
$DDT_AUDIT_GENERATED_(75)
  6
Continuous
 62
     7
100
AcDbSpline
210
0.0
220
0.0
230
1.0
 70
     8
 71
     3
 72
    16
 73
    12
 74
     0
 42
0.0000000005924673
 43
0.0000000001
 40
0.0
 40
0.0
 40
0.0
 40
0.0
 40
0.0621553853831911
 40
0.125658849780547
 40
0.2505320255061048
 40
0.3752234288649759
 40
0.5005359414406958
 40
0.6325134183791643
 40
0.7506871302450262
 40
0.8776893355856925
 40
1.0
 40
1.0
 40
1.0
 40
1.0
 10
99.58591562948881
 20
490.2887439011313
 30
0.0
 10
99.87852255005389
 20
490.3126478569445
 30
0.0
 10
100.470082699689
 20
490.3609742179554
 30
0.0
 10
101.6993942147991
 20
490.498986809856
 30
0.0
 10
103.2999118618702
 20
490.726303226736
 30
0.0
 10
105.310056105243
 20
491.0558044520139
 30
0.0
 10
107.4433867124447
 20
491.3897470166558
 30
0.0
 10
109.6166009951041
 20
491.6743855357217
 30
0.0
 10
111.8571731294156
 20
491.8976050336088
 30
0.0
 10
114.0808278288776
 20
492.0422632912891
 30
0.0
 10
115.6034336167567
 20
492.061689180615
 30
0.0
 10
116.3504104003443
 20
492.0712193482017
 30
0.0
  0
SPLINE
  5
86
330
73
100
AcDbEntity
  8
$DDT_AUDIT_GENERATED_(75)
  6
Continuous
 62
     7
100
AcDbSpline
210
0.0
220
0.0
230
1.0
 70
    12
 71
     3
 72
    26
 73
    22
 74
     0
 42
0.0000000013365979
 43
0.0000000001
 40
0.0
 40
0.0
 40
0.0
 40
0.0
 40
0.0624999999999993
 40
0.0624999999999993
 40
0.0937499999999999
 40
0.0937499999999999
 40
0.1250000000000009
 40
0.1250000000000009
 40
0.1406250000000013
 40
0.1406250000000013
 40
0.1484375000000016
 40
0.1484375000000016
 40
0.1523437500000029
 40
0.1523437500000029
 40
0.1562499999999992
 40
0.1562499999999992
 40
0.1875
 40
0.1875
 40
0.2187500000000035
 40
0.2187500000000035
 40
0.2402670234699638
 40
0.2402670234699638
 40
0.2402670234699638
 40
0.2402670234699638
 10
141.2330309156621
 20
491.4375869563533
 30
0.0
 41
1.0
 10
141.4245060720894
 20
491.5469387646444
 30
0.0
 41
1.0
 10
141.5917443707383
 20
491.6595117809854
 30
0.0
 41
1.0
 10
141.8062004473424
 20
491.8308724692024
 30
0.0
 41
1.0
 10
141.8716116913404
 20
491.8884087693853
 30
0.0
 41
1.0
 10
141.9901893095404
 20
492.0039299804813
 30
0.0
 41
1.0
 10
142.0433557865233
 20
492.0619145413544
 30
0.0
 41
1.0
 10
142.1138028089323
 20
492.1489524875333
 30
0.0
 41
1.0
 10
142.1357342051214
 20
492.1779754862903
 30
0.0
 41
1.0
 10
142.1662853894764
 20
492.2214929930073
 30
0.0
 41
1.0
 10
142.1760780999863
 20
492.2359960113364
 30
0.0
 41
1.0
 10
142.1901779041804
 20
492.2577423916744
 30
0.0
 41
1.0
 10
142.1947807148673
 20
492.2649915928794
 30
0.0
 41
1.0
 10
142.2037839186693
 20
492.2794777195414
 30
0.0
 41
1.0
 10
142.2081835043054
 20
492.2867132524563
 30
0.0
 41
1.0
 10
142.2468637542394
 20
492.3517627381434
 30
0.0
 41
1.0
 10
142.2747349225173
 20
492.4090820417434
 30
0.0
 41
1.0
 10
142.3176572105473
 20
492.5226740670414
 30
0.0
 41
1.0
 10
142.3327081425304
 20
492.5789478594583
 30
0.0
 41
1.0
 10
142.3474175805018
 20
492.6731121916289
 30
0.0
 41
1.0
 10
142.3504100772131
 20
492.7112699038668
 30
0.0
 41
1.0
 10
142.3504107169417
 20
492.7491993988568
 30
0.0
 41
1.0
  0
SPLINE
  5
87
330
73
100
AcDbEntity
  8
$DDT_AUDIT_GENERATED_(75)
  6
Continuous
 62
     7
100
AcDbSpline
210
0.0
220
0.0
230
1.0
 70
     8
 71
     3
 72
    19
 73
    15
 74
     0
 42
0.0000000011754692
 43
0.0000000001
 40
0.0
 40
0.0
 40
0.0
 40
0.0
 40
0.0575665079978221
 40
0.1257208918656217
 40
0.1884549831591596
 40
0.2511080053287337
 40
0.3761363679304127
 40
0.5012730504544085
 40
0.626475180918236
 40
0.750689233387218
 40
0.8128315250928471
 40
0.8750781779155871
 40
0.9452583427048149
 40
1.0
 40
1.0
 40
1.0
 40
1.0
 10
91.46775021177712
 20
491.4375931341423
 30
0.0
 10
91.55330228083794
 20
491.3864997569671
 30
0.0
 10
91.7401415177018
 20
491.2749156923729
 30
0.0
 10
92.05760183170334
 20
491.0705991590846
 30
0.0
 10
92.41308445828066
 20
490.8479281755012
 30
0.0
 10
92.91371891492555
 20
490.5571676809684
 30
0.0
 10
93.6158748518268
 20
490.221063332848
 30
0.0
 10
94.58749746348131
 20
489.9477613340325
 30
0.0
 10
95.6818512745487
 20
489.8619410115949
 30
0.0
 10
96.68232682978031
 20
489.9386464374958
 30
0.0
 10
97.52799218628266
 20
490.0469568689839
 30
0.0
 10
98.21514682819152
 20
490.1417674873402
 30
0.0
 10
98.90012879121998
 20
490.2287814198125
 30
0.0
 10
99.37696326919637
 20
490.2704739354488
 30
0.0
 10
99.58591562948881
 20
490.2887439011313
 30
0.0
  0
SPLINE
  5
88
330
73
100
AcDbEntity
  8
$DDT_AUDIT_GENERATED_(75)
  6
Continuous
 62
     7
100
AcDbSpline
210
0.0
220
0.0
230
1.0
 70
     8
 71
     3
 72
    19
 73
    15
 74
     0
 42
0.0000000011754785
 43
0.0000000001
 40
0.0
 40
0.0
 40
0.0
 40
0.0
 40
0.0546596863931081
 40
0.1246720524204736
 40
0.1867557294809304
 40
0.2487002759419085
 40
0.3723845654437472
 40
0.4969005344262598
 40
0.6226548290552429
 40
0.7482064795804119
 40
0.8110691489029948
 40
0.8739844879979057
 40
0.9423143582227256
 40
1.0
 40
1.0
 40
1.0
 40
1.0
 10
133.1149279612562
 20
490.2887462164754
 30
0.0
 10
133.3235678782326
 20
490.270509999881
 30
0.0
 10
133.7994499840904
 20
490.228915422575
 30
0.0
 10
134.4829793516251
 20
490.1421308155676
 30
0.0
 10
135.1683910562822
 20
490.0475748851488
 30
0.0
 10
136.011279721389
 20
489.9394888004954
 30
0.0
 10
137.0077718604697
 20
489.862367063507
 30
0.0
 10
138.1017294454188
 20
489.9457204627876
 30
0.0
 10
139.0761149560082
 20
490.2173770125983
 30
0.0
 10
139.7820958668563
 20
490.554447333955
 30
0.0
 10
140.2849323134756
 20
490.8462228340513
 30
0.0
 10
140.6416425209409
 20
491.0695978194529
 30
0.0
 10
140.9600069933171
 20
491.2745114291839
 30
0.0
 10
141.1472962326941
 20
491.3863781520051
 30
0.0
 10
141.2330309156621
 20
491.4375869563533
 30
0.0
  0
LINE
  5
89
330
73
100
AcDbEntity
  8
$DDT_AUDIT_GENERATED_(75)
  6
Continuous
 62
     7
100
AcDbLine
 10
90.3503741207
 20
521.4830376776
 30
0.0
 11
116.3504104003
 21
521.4830376776
 31
0.0
  0
SPLINE
  5
8A
330
73
100
AcDbEntity
  8
$DDT_AUDIT_GENERATED_(75)
  6
Continuous
 62
     7
100
AcDbSpline
210
0.0
220
0.0
230
1.0
 70
     8
 71
     3
 72
    16
 73
    12
 74
     0
 42
0.0000000002238433
 43
0.0000000001
 40
0.0
 40
0.0
 40
0.0
 40
0.0
 40
0.0624999999999998
 40
0.0624999999999998
 40
0.1249999999999995
 40
0.1249999999999995
 40
0.1874999999999993
 40
0.1874999999999993
 40
0.249999999999999
 40
0.249999999999999
 40
0.2924900515653769
 40
0.2924900515653769
 40
0.2924900515653769
 40
0.2924900515653769
 10
116.3496422974766
 20
459.8288972077201
 30
0.0
 10
114.7292263376683
 20
459.8289083911365
 30
0.0
 10
113.1391620126715
 20
459.8124335929248
 30
0.0
 10
110.1703776285362
 20
459.7349116504068
 30
0.0
 10
108.8108879605091
 20
459.6734730407344
 30
0.0
 10
106.5516195636169
 20
459.5219062990402
 30
0.0
 10
105.6399313826685
 20
459.4328901986887
 30
0.0
 10
104.4201927908378
 20
459.2347366970682
 30
0.0
 10
104.0993867586801
 20
459.1217905198721
 30
0.0
 10
104.0998162863202
 20
458.8655165254611
 30
0.0
 10
104.2471734239858
 20
458.7419010993157
 30
0.0
 10
104.5348291569562
 20
458.6001876818635
 30
0.0
  0
SPLINE
  5
8B
330
73
100
AcDbEntity
  8
$DDT_AUDIT_GENERATED_(75)
  6
Continuous
 62
     7
100
AcDbSpline
210
0.0
220
0.0
230
1.0
 70
     8
 71
     3
 72
    16
 73
    12
 74
     0
 42
0.0000000002230912
 43
0.0000000001
 40
0.7091549975767769
 40
0.7091549975767769
 40
0.7091549975767769
 40
0.7091549975767769
 40
0.7499999999999992
 40
0.7499999999999992
 40
0.8124999999999994
 40
0.8124999999999994
 40
0.8749999999999996
 40
0.8749999999999996
 40
0.9374999999999998
 40
0.9374999999999998
 40
1.0
 40
1.0
 40
1.0
 40
1.0
 10
128.1918607938358
 20
458.6132546240307
 30
0.0
 10
128.4599590428203
 20
458.7481671382523
 30
0.0
 10
128.5979791348982
 20
458.8663226803906
 30
0.0
 10
128.602149551509
 20
459.12201797841
 30
0.0
 10
128.2848363182573
 20
459.2333565114594
 30
0.0
 10
127.0614074642485
 20
459.432665505391
 30
0.0
 10
126.152189107105
 20
459.5213661610164
 30
0.0
 10
123.8959955787965
 20
459.6729721458327
 30
0.0
 10
122.529262923852
 20
459.7347110871598
 30
0.0
 10
119.5801991808474
 20
459.811979654795
 30
0.0
 10
117.9700582572849
 20
459.8288860243036
 30
0.0
 10
116.3496422974766
 20
459.8288972077201
 30
0.0
  0
LINE
  5
8C
330
73
100
AcDbEntity
  8
$DDT_AUDIT_GENERATED_(75)
  6
Continuous
 62
     7
100
AcDbLine
 10
142.3504465172
 20
521.4830376776
 30
0.0
 11
141.3504451281
 21
522.4830376776
 31
0.0
  0
SPLINE
  5
8D
330
73
100
AcDbEntity
  8
$DDT_AUDIT_GENERATED_(75)
  6
Continuous
 62
     7
100
AcDbSpline
210
0.0
220
0.0
230
1.0
 70
     8
 71
     3
 72
    19
 73
    15
 74
     0
 42
0.00000000058242
 43
0.0000000001
 40
0.0
 40
0.0
 40
0.0
 40
0.0
 40
0.0422279027299499
 40
0.0785446197850721
 40
0.1078465788536088
 40
0.1294389287870206
 40
0.148392475125913
 40
0.1717616746890863
 40
0.2024347483402132
 40
0.2404408413288496
 40
0.279050795800918
 40
0.3150788373076807
 40
0.3650019077082937
 40
0.3723311641663584
 40
0.3723311641663584
 40
0.3723311641663584
 40
0.3723311641663584
 10
90.3504100813895
 20
492.7489818643608
 30
0.0
 10
90.33252618766174
 20
492.3390573801478
 30
0.0
 10
90.2975036091006
 20
491.6982388880556
 30
0.0
 10
90.05245109951797
 20
490.7524220677079
 30
0.0
 10
89.76983553392829
 20
490.0538116365039
 30
0.0
 10
89.48944139605669
 20
489.5287359131385
 30
0.0
 10
89.23562700038022
 20
489.1332701617555
 30
0.0
 10
88.96456993559438
 20
488.7689145370828
 30
0.0
 10
88.61670074990685
 20
488.3707073468373
 30
0.0
 10
88.19897816208221
 20
487.9820404541591
 30
0.0
 10
87.80164089659587
 20
487.6875691768043
 30
0.0
 10
87.46626921285264
 20
487.4877378545262
 30
0.0
 10
87.38017682707326
 20
487.4470904966309
 30
0.0
 10
87.37200205746083
 20
487.4403153710977
 30
0.0
 10
87.37164527532182
 20
487.4397203601128
 30
0.0
  0
ARC
  5
8E
330
73
100
AcDbEntity
  8
$DDT_AUDIT_GENERATED_(75)
  6
Continuous
 62
     7
100
AcDbCircle
 10
116.2133909107
 20
303.730626461
 30
0.0
 40
142.9801881133385
100
AcDbArc
 50
87.3046022879
 51
92.6824010074
  0
ARC
  5
8F
330
73
100
AcDbEntity
  8
$DDT_AUDIT_GENERATED_(75)
  6
Continuous
 62
     7
100
AcDbCircle
 10
41.3911049312
 20
467.552064091
 30
0.0
 40
20.93289650715197
100
AcDbArc
 50
90.1150512089
 51
269.9061726152
  0
ARC
  5
90
330
73
100
AcDbEntity
  8
$DDT_AUDIT_GENERATED_(75)
  6
Continuous
 62
     7
100
AcDbCircle
 10
191.3096914082
 20
467.5521044914
 30
0.0
 40
20.93293033731327
100
AcDbArc
 50
270.0921349904
 51
89.8848699498
  0
SPLINE
  5
91
330
73
100
AcDbEntity
  8
$DDT_AUDIT_GENERATED_(75)
  6
Continuous
 62
     7
100
AcDbSpline
210
0.0
220
0.0
230
1.0
 70
     8
 71
     3
 72
    17
 73
    13
 74
     0
 42
0.0000000005852988
 43
0.0000000001
 40
0.6244460267576631
 40
0.6244460267576631
 40
0.6244460267576631
 40
0.6244460267576631
 40
0.6593137856978676
 40
0.7052536391274321
 40
0.7491392556698472
 40
0.7884782539796523
 40
0.8064683102629109
 40
0.8271446913104243
 40
0.8574601108379782
 40
0.8971500268920714
 40
0.945209674548864
 40
1.0
 40
1.0
 40
1.0
 40
1.0
 10
145.3440074377429
 20
487.4333438260082
 30
0.0
 10
145.3443392190057
 20
487.4349912472509
 30
0.0
 10
145.3098625920493
 20
487.4530854024459
 30
0.0
 10
145.1090799723829
 20
487.5588714654259
 30
0.0
 10
144.7498475053835
 20
487.7925464464412
 30
0.0
 10
144.3676188348976
 20
488.1043195011487
 30
0.0
 10
144.0331703422571
 20
488.4340279529652
 30
0.0
 10
143.7036674581746
 20
488.8046564487154
 30
0.0
 10
143.2767478472554
 20
489.3925439480207
 30
0.0
 10
142.8187200179338
 20
490.2559198104835
 30
0.0
 10
142.4320391029842
 20
491.4381070828787
 30
0.0
 10
142.3777193563208
 20
492.2406617721589
 30
0.0
 10
142.3504107049144
 20
492.7493438439582
 30
0.0
  0
ARC
  5
92
330
73
100
AcDbEntity
  8
$DDT_AUDIT_GENERATED_(75)
  6
Continuous
 62
     7
100
AcDbCircle
 10
166.2566853629
 20
-8970.0215827492
 30
0.0
 40
9416.674101102355
100
AcDbArc
 50
90.2577517537
 51
90.2658616033
  0
ARC
  5
93
330
73
100
AcDbEntity
  8
$DDT_AUDIT_GENERATED_(75)
  6
Continuous
 62
     7
100
AcDbCircle
 10
66.2937744934
 20
-9122.4442760306
 30
0.0
 40
9569.09586735232
100
AcDbArc
 50
89.7374729431
 51
89.7467536365
  0
LINE
  5
94
330
73
100
AcDbEntity
  8
$DDT_AUDIT_GENERATED_(75)
  6
Continuous
 62
     7
100
AcDbLine
 10
90.3504104003
 20
521.4855376776
 30
0.0
 11
90.3504104003
 21
492.747150287
 31
0.0
  0
LINE
  5
95
330
73
100
AcDbEntity
  8
$DDT_AUDIT_GENERATED_(75)
  6
Continuous
 62
     7
100
AcDbLine
 10
142.3504104003
 20
492.746459472
 30
0.0
 11
142.3504104003
 21
521.4855376776
 31
0.0
  0
LINE
  5
96
330
73
100
AcDbEntity
  8
$DDT_AUDIT_GENERATED_(75)
  6
Continuous
 62
     7
100
AcDbLine
 10
91.350375516
 20
522.4830376776
 30
0.0
 11
90.3503741207
 21
521.4830376776
 31
0.0
  0
ARC
  5
98
330
73
100
AcDbEntity
  8
$DDT_AUDIT_GENERATED_(97)
  6
Continuous
 62
     7
100
AcDbCircle
 10
41.349642346
 20
467.5159339511
 30
0.0
 40
34.91206301938993
100
AcDbArc
 50
36.9059889964
 51
323.2567485668
  0
SPLINE
  5
9A
330
73
100
AcDbEntity
  8
$DDT_AUDIT_GENERATED_(99)
  6
Continuous
 62
     7
100
AcDbSpline
210
0.0
220
0.0
230
1.0
 70
     8
 71
     3
 72
    12
 73
     8
 74
     0
 42
0.0000000021417693
 43
0.0000000001
 40
0.0
 40
0.0
 40
0.0
 40
0.0
 40
0.0829540329513392
 40
0.1653740537771549
 40
0.2493626910709922
 40
0.3606353312767496
 40
0.4277704676167402
 40
0.4277704676167402
 40
0.4277704676167402
 40
0.4277704676167402
 10
130.8878644793538
 20
573.0794074209226
 30
0.0
 10
131.0111513170131
 20
573.0707999422635
 30
0.0
 10
131.2569313399461
 20
573.0536403951265
 30
0.0
 10
131.6006190000307
 20
573.219531076968
 30
0.0
 10
131.8462506104968
 20
573.5731120625569
 30
0.0
 10
131.9098613730832
 20
573.9914231131852
 30
0.0
 10
131.8817348794758
 20
574.2750164978245
 30
0.0
 10
131.862537505947
 20
574.3803299372157
 30
0.0
  0
SPLINE
  5
9B
330
73
100
AcDbEntity
  8
$DDT_AUDIT_GENERATED_(99)
  6
Continuous
 62
     7
100
AcDbSpline
210
0.0
220
0.0
230
1.0
 70
     8
 71
     3
 72
    11
 73
     7
 74
     0
 42
0.0000000021197694
 43
0.0000000001
 40
0.5695533360808934
 40
0.5695533360808934
 40
0.5695533360808934
 40
0.5695533360808934
 40
0.7496401927924824
 40
0.8492702783542408
 40
0.9095897635723833
 40
1.0
 40
1.0
 40
1.0
 40
1.0
 10
100.8393056788614
 20
574.3959860958826
 30
0.0
 10
100.7826237689072
 20
574.1046007208631
 30
0.0
 10
100.7918726490513
 20
573.6346924969573
 30
0.0
 10
101.1128601718808
 20
573.210606135982
 30
0.0
 10
101.4529305870684
 20
573.0579342524417
 30
0.0
 10
101.6770214303822
 20
573.0713647827723
 30
0.0
 10
101.8114349083882
 20
573.0794206420237
 30
0.0
  0
ARC
  5
9C
330
73
100
AcDbEntity
  8
$DDT_AUDIT_GENERATED_(99)
  6
Continuous
 62
     7
100
AcDbCircle
 10
116.3495297158
 20
309.2183862069
 30
0.0
 40
264.2612375922618
100
AcDbArc
 50
86.846279853
 51
93.1536680421
  0
SPLINE
  5
9D
330
73
100
AcDbEntity
  8
$DDT_AUDIT_GENERATED_(99)
  6
Continuous
 62
     7
100
AcDbSpline
210
0.0
220
0.0
230
1.0
 70
     8
 71
     3
 72
    18
 73
    14
 74
     0
 42
0.0000000004668963
 43
0.0000000001
 40
0.2319217011278368
 40
0.2319217011278368
 40
0.2319217011278368
 40
0.2319217011278368
 40
0.25
 40
0.25
 40
0.375
 40
0.375
 40
0.5
 40
0.5
 40
0.625
 40
0.625
 40
0.75
 40
0.75
 40
0.7624478191866495
 40
0.7624478191866495
 40
0.7624478191866495
 40
0.7624478191866495
 10
113.1143571344789
 20
536.4734327486478
 30
0.0
 10
113.1026443478088
 20
536.3486502767615
 30
0.0
 10
113.0978850593257
 20
536.2230600766
 30
0.0
 10
113.1169076307039
 20
535.2288364890369
 30
0.0
 10
113.4523353242177
 20
534.3694167759512
 30
0.0
 10
114.6298008720348
 20
533.0638423416456
 30
0.0
 10
115.4719887012895
 20
532.650414611189
 30
0.0
 10
117.2147861197784
 20
532.6465776496274
 30
0.0
 10
118.0655842673675
 20
533.061994630414
 30
0.0
 10
119.2416217626834
 20
534.3609376906135
 30
0.0
 10
119.5811039046664
 20
535.2213696422551
 30
0.0
 10
119.6006782557158
 20
536.1796587528776
 30
0.0
 10
119.5990664291721
 20
536.2663646758552
 30
0.0
 10
119.594134783929
 20
536.3527490146085
 30
0.0
  0
LINE
  5
9E
330
73
100
AcDbEntity
  8
$DDT_AUDIT_GENERATED_(99)
  6
Continuous
 62
     7
100
AcDbLine
 10
143.5984766813
 20
523.4830376776
 30
0.0
 11
89.1008079048
 21
523.4830376776
 31
0.0
  0
SPLINE
  5
9F
330
73
100
AcDbEntity
  8
$DDT_AUDIT_GENERATED_(99)
  6
Continuous
 62
     7
100
AcDbSpline
210
0.0
220
0.0
230
1.0
 70
     8
 71
     3
 72
     8
 73
     4
 74
     0
 42
0.0000003223100361
 43
0.0000000001
 40
0.361510365012853
 40
0.361510365012853
 40
0.361510365012853
 40
0.361510365012853
 40
0.3937413686223306
 40
0.3937413686223306
 40
0.3937413686223306
 40
0.3937413686223306
 10
88.7766901809486
 20
523.8135342839827
 30
0.0
 10
88.77666466371493
 20
523.8134743092202
 30
0.0
 10
88.77668097357996
 20
523.8134200861906
 30
0.0
 10
88.77673718507737
 20
523.8133725445879
 30
0.0
  0
SPLINE
  5
A0
330
73
100
AcDbEntity
  8
$DDT_AUDIT_GENERATED_(99)
  6
Continuous
 62
     7
100
AcDbSpline
210
0.0
220
0.0
230
1.0
 70
     8
 71
     3
 72
     8
 73
     4
 74
     0
 42
0.0000003106454066
 43
0.0000000001
 40
0.6075099492015126
 40
0.6075099492015126
 40
0.6075099492015126
 40
0.6075099492015126
 40
0.6385744898583161
 40
0.6385744898583161
 40
0.6385744898583161
 40
0.6385744898583161
 10
143.9225574674994
 20
523.8133780383786
 30
0.0
 10
143.9226089366065
 20
523.8134243426533
 30
0.0
 10
143.9226232966415
 20
523.8134768172723
 30
0.0
 10
143.9225988104041
 20
523.8135346308374
 30
0.0
  0
ARC
  5
A1
330
73
100
AcDbEntity
  8
$DDT_AUDIT_GENERATED_(99)
  6
Continuous
 62
     7
100
AcDbCircle
 10
136.5796140704
 20
574.9041609695
 30
0.0
 40
4.745084905293851
100
AcDbArc
 50
186.567835915
 51
194.3672847791
  0
ARC
  5
A2
330
73
100
AcDbEntity
  8
$DDT_AUDIT_GENERATED_(99)
  6
Continuous
 62
     7
100
AcDbCircle
 10
96.0933802311
 20
574.9067697227
 30
0.0
 40
4.771181144066154
100
AcDbArc
 50
345.6802392126
 51
353.4251813366
  0
SPLINE
  5
A3
330
73
100
AcDbEntity
  8
$DDT_AUDIT_GENERATED_(99)
  6
Continuous
 62
     7
100
AcDbSpline
210
0.0
220
0.0
230
1.0
 70
     8
 71
     3
 72
    47
 73
    43
 74
     0
 42
0.0000000002467212
 43
0.0000000001
 40
0.0
 40
0.0
 40
0.0
 40
0.0
 40
0.0325892618374006
 40
0.0675450137867122
 40
0.0962825323506183
 40
0.1188563677814463
 40
0.1358433636865637
 40
0.1525496552515103
 40
0.1741083299326563
 40
0.1950104444884768
 40
0.2116584917968753
 40
0.2266986559433019
 40
0.2423673801321211
 40
0.2628128126892948
 40
0.2843792482052342
 40
0.3088467996770868
 40
0.3367885401871809
 40
0.368147333605373
 40
0.4029891325208612
 40
0.4412528646395209
 40
0.4794207059579803
 40
0.5156833420155881
 40
0.5499506317939336
 40
0.5823196340015769
 40
0.6127802388645285
 40
0.640635698066879
 40
0.6657647808753324
 40
0.6883165432274099
 40
0.7128259100728018
 40
0.7362448120656709
 40
0.7628548537092115
 40
0.7868825021143674
 40
0.8062541691543565
 40
0.8214786906859776
 40
0.8294853078743006
 40
0.8385996611717484
 40
0.852945344925558
 40
0.8727239760583515
 40
0.8980461846898466
 40
0.929008819078227
 40
0.9659202359575727
 40
1.0
 40
1.0
 40
1.0
 40
1.0
 10
131.8619510309412
 20
574.3810077524113
 30
0.0
 10
131.8140403615325
 20
574.6602998349965
 30
0.0
 10
131.7298221022552
 20
575.1498831380495
 30
0.0
 10
131.5893591414247
 20
575.941444690322
 30
0.0
 10
131.4582166932573
 20
576.6584154536278
 30
0.0
 10
131.3524402900243
 20
577.2550810975122
 30
0.0
 10
131.1992957811065
 20
577.7909751931804
 30
0.0
 10
130.9719228131994
 20
578.3402525570474
 30
0.0
 10
130.6290305968991
 20
578.9365978812953
 30
0.0
 10
130.1811847468252
 20
579.513260875552
 30
0.0
 10
129.7358784063617
 20
579.9681305258401
 30
0.0
 10
129.3040934813233
 20
580.3408822406034
 30
0.0
 10
128.7920258892357
 20
580.7223296561463
 30
0.0
 10
128.1580437035638
 20
581.1218923658528
 30
0.0
 10
127.3546075988106
 20
581.5449640999755
 30
0.0
 10
126.3684783656719
 20
581.9749403809504
 30
0.0
 10
125.1380483145909
 20
582.4084580160734
 30
0.0
 10
123.6256299615411
 20
582.8235712132041
 30
0.0
 10
121.8122645016579
 20
583.1888162437514
 30
0.0
 10
119.7599816116782
 20
583.4588972237956
 30
0.0
 10
117.6028008616342
 20
583.6001692003821
 30
0.0
 10
115.4971364714624
 20
583.6097910475244
 30
0.0
 10
113.5222892002074
 20
583.5054991470623
 30
0.0
 10
111.7092737937289
 20
583.3075034522684
 30
0.0
 10
110.0871192671635
 20
583.0376928132451
 30
0.0
 10
108.6765520711747
 20
582.720041161024
 30
0.0
 10
107.4798211125461
 20
582.3778825709092
 30
0.0
 10
106.4178489539109
 20
582.0069756632054
 30
0.0
 10
105.4528363443077
 20
581.5987397809499
 30
0.0
 10
104.5246734691929
 20
581.1183024562228
 30
0.0
 10
103.7136731822063
 20
580.5969770450829
 30
0.0
 10
103.0532195457366
 20
580.0605420082667
 30
0.0
 10
102.5711494433057
 20
579.5699337456707
 30
0.0
 10
102.256384724668
 20
579.1798728744449
 30
0.0
 10
102.0297336579534
 20
578.8509819098831
 30
0.0
 10
101.8361119028594
 20
578.5311984798914
 30
0.0
 10
101.6367182146734
 20
578.1378307278
 30
0.0
 10
101.4461992203081
 20
577.6037371323038
 30
0.0
 10
101.3103154866336
 20
576.9372533698184
 30
0.0
 10
101.157729429612
 20
576.140072516571
 30
0.0
 10
100.9904330249274
 20
575.259496125872
 30
0.0
 10
100.894866654275
 20
574.7091254846458
 30
0.0
 10
100.8405667136912
 20
574.3962236258169
 30
0.0
  0
SPLINE
  5
A4
330
73
100
AcDbEntity
  8
$DDT_AUDIT_GENERATED_(99)
  6
Continuous
 62
     7
100
AcDbSpline
210
0.0
220
0.0
230
1.0
 70
     8
 71
     3
 72
    49
 73
    45
 74
     0
 42
0.0000000001938864
 43
0.0000000001
 40
0.0
 40
0.0
 40
0.0
 40
0.0
 40
0.0137367724670836
 40
0.0291093218870691
 40
0.0441588661192608
 40
0.0660653082644741
 40
0.0872018300521628
 40
0.1075726860629856
 40
0.1272476890990065
 40
0.1462480029518461
 40
0.1644725017502628
 40
0.181635510694513
 40
0.1975597901668769
 40
0.2120765579079848
 40
0.2253730287218824
 40
0.2403533502078082
 40
0.2535245399651173
 40
0.2665171065733369
 40
0.2799783888039984
 40
0.2941814103637262
 40
0.3149890270984086
 40
0.3383499250251606
 40
0.3621820306726383
 40
0.3927164064730692
 40
0.421610870193415
 40
0.4504500270181069
 40
0.480406092443447
 40
0.5314494473765285
 40
0.5831528168412704
 40
0.6335568324702007
 40
0.6826636059272595
 40
0.7306193221895535
 40
0.7454493431998179
 40
0.760167729203397
 40
0.7747828616760835
 40
0.7896843480390773
 40
0.8065693054481787
 40
0.8256046082433914
 40
0.8468147904407072
 40
0.8726363011117841
 40
0.9010266588355096
 40
0.9319985880712984
 40
0.9654953134830396
 40
1.0
 40
1.0
 40
1.0
 40
1.0
 10
143.9224894329898
 20
523.8134560280823
 30
0.0
 10
143.8370792503286
 20
524.6568174635537
 30
0.0
 10
143.6835840175933
 20
526.1650864655489
 30
0.0
 10
143.4218918625983
 20
528.6576163733206
 30
0.0
 10
143.1045579243157
 20
531.4872479668225
 30
0.0
 10
142.7072712382215
 20
534.5627757738822
 30
0.0
 10
142.1892628015354
 20
537.7777837099616
 30
0.0
 10
141.5929999928623
 20
540.7370289813172
 30
0.0
 10
140.9272588540299
 20
543.4223617082242
 30
0.0
 10
140.2276170714701
 20
545.7964686238299
 30
0.0
 10
139.5272694368537
 20
547.8193123833962
 30
0.0
 10
138.8570765863167
 20
549.5147548776836
 30
0.0
 10
138.2430479096789
 20
550.9338006978721
 30
0.0
 10
137.7129223380815
 20
552.1172367757642
 30
0.0
 10
137.2369283117499
 20
553.1764588112745
 30
0.0
 10
136.8283938410774
 20
554.106111027354
 30
0.0
 10
136.4890780030588
 20
554.9114261807763
 30
0.0
 10
136.2017983030475
 20
555.619095768724
 30
0.0
 10
135.9535662631835
 20
556.28922561486
 30
0.0
 10
135.7182544969778
 20
557.0159045708469
 30
0.0
 10
135.4910024837556
 20
557.8076422304339
 30
0.0
 10
135.269933834395
 20
558.6312638502276
 30
0.0
 10
135.0453958761616
 20
559.4577475420308
 30
0.0
 10
134.8331412728583
 20
560.2156105796846
 30
0.0
 10
134.6059232273319
 20
560.9310780747643
 30
0.0
 10
134.4627150973814
 20
561.5478992121463
 30
0.0
 10
134.2703688265803
 20
562.2988674119352
 30
0.0
 10
134.0251254359448
 20
563.2551213502867
 30
0.0
 10
133.7441160676148
 20
564.3668724903808
 30
0.0
 10
133.502111340531
 20
565.4527187644444
 30
0.0
 10
133.3318461621929
 20
566.4818620305438
 30
0.0
 10
133.2235361611461
 20
567.279839353823
 30
0.0
 10
133.1467744421774
 20
567.8436817848983
 30
0.0
 10
133.1015989195156
 20
568.1684563630721
 30
0.0
 10
133.0539971436199
 20
568.4975115952503
 30
0.0
 10
133.0004289470617
 20
568.8471145459625
 30
0.0
 10
132.9373910236963
 20
569.232278505343
 30
0.0
 10
132.8614828144265
 20
569.6680749164124
 30
0.0
 10
132.7675391176865
 20
570.1749838675311
 30
0.0
 10
132.6528704215831
 20
570.7567716416999
 30
0.0
 10
132.5144060520832
 20
571.4187076567988
 30
0.0
 10
132.3556001994323
 20
572.1393639202341
 30
0.0
 10
132.1734844381732
 20
572.9303086174516
 30
0.0
 10
132.05485445719
 20
573.4265200323051
 30
0.0
 10
131.9831187253568
 20
573.7256153213139
 30
0.0
  0
SPLINE
  5
A5
330
73
100
AcDbEntity
  8
$DDT_AUDIT_GENERATED_(99)
  6
Continuous
 62
     7
100
AcDbSpline
210
0.0
220
0.0
230
1.0
 70
     8
 71
     3
 72
    52
 73
    48
 74
     0
 42
0.0000000001938932
 43
0.0000000001
 40
0.0
 40
0.0
 40
0.0
 40
0.0
 40
0.0306772420453817
 40
0.0606712838931502
 40
0.0884454613101558
 40
0.1139766363635382
 40
0.1372460655723416
 40
0.1584865341365103
 40
0.1792101934810236
 40
0.2351745120419849
 40
0.2895504022494008
 40
0.3280981693456499
 40
0.366639036647504
 40
0.4052249549220218
 40
0.4447255925042301
 40
0.4859279452980531
 40
0.5130134433981492
 40
0.5407838527775427
 40
0.567587079082698
 40
0.5922619065399459
 40
0.6148882477564079
 40
0.6312440157390242
 40
0.6477482731158682
 40
0.665613991202731
 40
0.6848599757478779
 40
0.7044480804458758
 40
0.724389859835126
 40
0.7434631516892353
 40
0.7619310496866798
 40
0.7704525492062204
 40
0.7788595817254732
 40
0.7871425425211462
 40
0.7954571748018056
 40
0.8048404634180767
 40
0.8150078094330947
 40
0.826313764584716
 40
0.8387799702705819
 40
0.8524073693867672
 40
0.867185826775825
 40
0.883123181145058
 40
0.900054450925082
 40
0.9181351217877173
 40
0.9373795732498132
 40
0.9525588255939088
 40
0.9684012225570248
 40
0.9848659876073306
 40
1.0
 40
1.0
 40
1.0
 40
1.0
 10
100.7161955223745
 20
573.7257972918039
 30
0.0
 10
100.6526976996834
 20
573.4611472056718
 30
0.0
 10
100.5472329001312
 20
573.0203931807378
 30
0.0
 10
100.3837737318387
 20
572.3148275310568
 30
0.0
 10
100.2392195646522
 20
571.6676958762991
 30
0.0
 10
100.1113314566833
 20
571.0700432337935
 30
0.0
 10
100.0002666953607
 20
570.5253491164358
 30
0.0
 10
99.90211749228891
 20
570.017843867933
 30
0.0
 10
99.76461891366905
 20
569.2656157911313
 30
0.0
 10
99.6087773455479
 20
568.282495286285
 30
0.0
 10
99.4681347841844
 20
567.2075184309493
 30
0.0
 10
99.33366725929721
 20
566.2690972528216
 30
0.0
 10
99.19154163890816
 20
565.444041295335
 30
0.0
 10
99.01096037245178
 20
564.6125775981141
 30
0.0
 10
98.80344931009601
 20
563.7612832893989
 30
0.0
 10
98.60585664527258
 20
562.9916390389851
 30
0.0
 10
98.43219941988826
 20
562.3115199201474
 30
0.0
 10
98.28516814208632
 20
561.7363585853575
 30
0.0
 10
98.15565530333618
 20
561.1916194678039
 30
0.0
 10
97.9944516433166
 20
560.6159189688804
 30
0.0
 10
97.82798380718212
 20
560.0762462411258
 30
0.0
 10
97.68398599422758
 20
559.5643180342825
 30
0.0
 10
97.54548424081172
 20
559.059966762416
 30
0.0
 10
97.38899801881581
 20
558.4787378100547
 30
0.0
 10
97.20278130896467
 20
557.7880818413121
 30
0.0
 10
96.97295944923604
 20
556.9855730140208
 30
0.0
 10
96.6813335860959
 20
556.0915635272282
 30
0.0
 10
96.29311148699642
 20
555.1058929477804
 30
0.0
 10
95.9014470813313
 20
554.1781008697926
 30
0.0
 10
95.55794754420342
 20
553.3927638855114
 30
0.0
 10
95.29408261221235
 20
552.7997553037474
 30
0.0
 10
95.01556939888299
 20
552.1790431779804
 30
0.0
 10
94.7108314974745
 20
551.4994812107115
 30
0.0
 10
94.36677132058192
 20
550.7237610468534
 30
0.0
 10
93.97108460896666
 20
549.8070355674937
 30
0.0
 10
93.52972087210136
 20
548.7283619082998
 30
0.0
 10
93.04279737246829
 20
547.4449291303828
 30
0.0
 10
92.5184351017935
 20
545.9147921190134
 30
0.0
 10
91.96826758368019
 20
544.1020466168109
 30
0.0
 10
91.4105710655902
 20
541.9988133414273
 30
0.0
 10
90.87033032004442
 20
539.6148883331118
 30
0.0
 10
90.36926554458167
 20
536.9492498249109
 30
0.0
 10
89.95641942089114
 20
534.2654730242992
 30
0.0
 10
89.61165600988912
 20
531.6082265174646
 30
0.0
 10
89.3195839946685
 20
529.0514687470782
 30
0.0
 10
89.03763248886365
 20
526.3789361997154
 30
0.0
 10
88.87092038289047
 20
524.7425549284274
 30
0.0
 10
88.77685800689063
 20
523.8136327858033
 30
0.0
  0
ARC
  5
A6
330
73
100
AcDbEntity
  8
$DDT_AUDIT_GENERATED_(99)
  6
Continuous
 62
     7
100
AcDbCircle
 10
143.6243084954
 20
523.7830376776
 30
0.0
 40
0.2999999999754978
100
AcDbArc
 50
270.0000969267
 51
5.9102672976
  0
ARC
  5
A7
330
73
100
AcDbEntity
  8
$DDT_AUDIT_GENERATED_(99)
  6
Continuous
 62
     7
100
AcDbCircle
 10
89.0749760994
 20
523.7830376776
 30
0.0
 40
0.3000000000049551
100
AcDbArc
 50
174.1330735461
 51
269.9999030733
  0
ELLIPSE
  5
A9
330
73
100
AcDbEntity
  8
$DDT_AUDIT_GENERATED_(A8)
  6
Continuous
 62
     7
100
AcDbEllipse
 10
116.3496422975
 20
452.5319001067
 30
0.0
 11
10.02278736572428
 21
0.0
 31
0.0
210
0.0
220
0.0
230
1.0
 40
0.1218693434
 41
0.0
 42
6.283185307179586
  0
ELLIPSE
  5
AA
330
73
100
AcDbEntity
  8
$DDT_AUDIT_GENERATED_(A8)
  6
Continuous
 62
     7
100
AcDbEllipse
 10
116.3496422975
 20
452.5319001067
 30
0.0
 11
10.75000000000001
 21
-1.734723475976807E-15
 31
0.0
210
0.0
220
0.0
230
1.0
 40
0.1218693434
 41
0.0
 42
6.283185307179586
  0
LINE
  5
AB
330
73
100
AcDbEntity
  8
$DDT_AUDIT_GENERATED_(A8)
  6
Continuous
 62
     7
100
AcDbLine
 10
105.3496422975
 20
452.5309780715
 30
0.0
 11
105.3496422975
 21
453.1622913148
 31
0.0
  0
ELLIPSE
  5
AC
330
73
100
AcDbEntity
  8
$DDT_AUDIT_GENERATED_(A8)
  6
Continuous
 62
     7
100
AcDbEllipse
 10
116.3496422975
 20
455.5095385616
 30
0.0
 11
11.79999999999997
 21
-1.734723475976807E-15
 31
0.0
210
0.0
220
0.0
230
1.0
 40
0.1218693434
 41
2.771250021498081
 42
3.511935285681508
  0
LINE
  5
AD
330
73
100
AcDbEntity
  8
$DDT_AUDIT_GENERATED_(A8)
  6
Continuous
 62
     7
100
AcDbLine
 10
105.3496422975
 20
453.1622913148
 30
0.0
 11
105.3496422975
 21
454.2271294281
 31
0.0
  0
LINE
  5
AE
330
73
100
AcDbEntity
  8
$DDT_AUDIT_GENERATED_(A8)
  6
Continuous
 62
     7
100
AcDbLine
 10
105.3496422975
 20
454.2271294281
 30
0.0
 11
105.3496422975
 21
456.030021968
 31
0.0
  0
LINE
  5
AF
330
73
100
AcDbEntity
  8
$DDT_AUDIT_GENERATED_(A8)
  6
Continuous
 62
     7
100
AcDbLine
 10
127.3496422975
 20
452.5309721271
 30
0.0
 11
127.3496422975
 21
453.1622913148
 31
0.0
  0
ELLIPSE
  5
B0
330
73
100
AcDbEntity
  8
$DDT_AUDIT_GENERATED_(A8)
  6
Continuous
 62
     7
100
AcDbEllipse
 10
116.3496422975
 20
455.5095385616
 30
0.0
 11
-11.80000000000038
 21
-6.938893903907228E-15
 31
0.0
210
0.0
220
0.0
230
1.0
 40
0.1218693434
 41
2.771250021498079
 42
3.511935285681494
  0
LINE
  5
B1
330
73
100
AcDbEntity
  8
$DDT_AUDIT_GENERATED_(A8)
  6
Continuous
 62
     7
100
AcDbLine
 10
127.3496422975
 20
453.1622913148
 30
0.0
 11
127.3496422975
 21
454.2271294281
 31
0.0
  0
LINE
  5
B2
330
73
100
AcDbEntity
  8
$DDT_AUDIT_GENERATED_(A8)
  6
Continuous
 62
     7
100
AcDbLine
 10
127.3496422975
 20
454.2271294281
 30
0.0
 11
127.3496422975
 21
456.030021968
 31
0.0
  0
LINE
  5
B3
330
73
100
AcDbEntity
  8
$DDT_AUDIT_GENERATED_(A8)
  6
Continuous
 62
     7
100
AcDbLine
 10
105.3496422975
 20
452.530964355
 30
0.0
 11
105.8455563081
 21
452.253283291
 31
0.0
  0
LINE
  5
B4
330
73
100
AcDbEntity
  8
$DDT_AUDIT_GENERATED_(A8)
  6
Continuous
 62
     7
100
AcDbLine
 10
126.8537282868
 20
452.253283291
 30
0.0
 11
127.3496422975
 21
452.530964355
 31
0.0
  0
LINE
  5
B5
330
73
100
AcDbEntity
  8
$DDT_AUDIT_GENERATED_(A8)
  6
Continuous
 62
     7
100
AcDbLine
 10
104.5496422975
 20
459.2279617014
 30
0.0
 11
104.5496422975
 21
455.5095385616
 31
0.0
  0
LINE
  5
B6
330
73
100
AcDbEntity
  8
$DDT_AUDIT_GENERATED_(A8)
  6
Continuous
 62
     7
100
AcDbLine
 10
128.1496422975
 20
455.5095385616
 30
0.0
 11
128.1496422975
 21
459.2243170537
 31
0.0
  0
ELLIPSE
  5
B8
330
73
100
AcDbEntity
  8
$DDT_AUDIT_GENERATED_(B7)
  6
Continuous
 62
     7
100
AcDbEllipse
 10
116.3496422975
 20
452.6311547218
 30
0.0
 11
8.250000000000004
 21
0.0
 31
0.0
210
0.0
220
0.0
230
1.0
 40
0.1218693434
 41
0.0
 42
6.283185307179586
  0
ELLIPSE
  5
B9
330
73
100
AcDbEntity
  8
$DDT_AUDIT_GENERATED_(B7)
  6
Continuous
 62
     7
100
AcDbEllipse
 10
116.3496422975
 20
452.6311547218
 30
0.0
 11
9.400000000000002
 21
0.0
 31
0.0
210
0.0
220
0.0
230
1.0
 40
0.1218693434
 41
0.0
 42
0.8430832147746209
  0
ELLIPSE
  5
BA
330
73
100
AcDbEntity
  8
$DDT_AUDIT_GENERATED_(B7)
  6
Continuous
 62
     7
100
AcDbEllipse
 10
116.3496422975
 20
452.6311547218
 30
0.0
 11
9.400000000000002
 21
0.0
 31
0.0
210
0.0
220
0.0
230
1.0
 40
0.1218693434
 41
2.298509438815172
 42
6.283185307179586
  0
LINE
  5
BB
330
73
100
AcDbEntity
  8
$DDT_AUDIT_GENERATED_(B7)
  6
Continuous
 62
     7
100
AcDbLine
 10
116.8496422975
 20
453.0664931259
 30
0.0
 11
115.8496422975
 21
453.0664931259
 31
0.0
  0
LINE
  5
BC
330
73
100
AcDbEntity
  8
$DDT_AUDIT_GENERATED_(B7)
  6
Continuous
 62
     7
100
AcDbLine
 10
115.8496422975
 20
453.0664931259
 30
0.0
 11
115.8496422975
 21
453.1883624693
 31
0.0
  0
LINE
  5
BD
330
73
100
AcDbEntity
  8
$DDT_AUDIT_GENERATED_(B7)
  6
Continuous
 62
     7
100
AcDbLine
 10
115.6496422975
 20
453.0664931259
 30
0.0
 11
114.6496422975
 21
453.0664931259
 31
0.0
  0
LINE
  5
BE
330
73
100
AcDbEntity
  8
$DDT_AUDIT_GENERATED_(B7)
  6
Continuous
 62
     7
100
AcDbLine
 10
114.6496422975
 20
453.0664931259
 30
0.0
 11
114.6496422975
 21
453.1883624693
 31
0.0
  0
LINE
  5
BF
330
73
100
AcDbEntity
  8
$DDT_AUDIT_GENERATED_(B7)
  6
Continuous
 62
     7
100
AcDbLine
 10
115.6496422975
 20
453.1883624693
 30
0.0
 11
115.6496422975
 21
453.0664931259
 31
0.0
  0
LINE
  5
C0
330
73
100
AcDbEntity
  8
$DDT_AUDIT_GENERATED_(B7)
  6
Continuous
 62
     7
100
AcDbLine
 10
114.4496422975
 20
453.0664931259
 30
0.0
 11
113.4496422975
 21
453.0664931259
 31
0.0
  0
LINE
  5
C1
330
73
100
AcDbEntity
  8
$DDT_AUDIT_GENERATED_(B7)
  6
Continuous
 62
     7
100
AcDbLine
 10
113.4496422975
 20
453.0664931259
 30
0.0
 11
113.4496422975
 21
453.1883624693
 31
0.0
  0
LINE
  5
C2
330
73
100
AcDbEntity
  8
$DDT_AUDIT_GENERATED_(B7)
  6
Continuous
 62
     7
100
AcDbLine
 10
114.4496422975
 20
453.1883624693
 30
0.0
 11
114.4496422975
 21
453.0664931259
 31
0.0
  0
LINE
  5
C3
330
73
100
AcDbEntity
  8
$DDT_AUDIT_GENERATED_(B7)
  6
Continuous
 62
     7
100
AcDbLine
 10
113.2496422975
 20
453.0664931259
 30
0.0
 11
112.2496422975
 21
453.0664931259
 31
0.0
  0
LINE
  5
C4
330
73
100
AcDbEntity
  8
$DDT_AUDIT_GENERATED_(B7)
  6
Continuous
 62
     7
100
AcDbLine
 10
112.2496422975
 20
453.0664931259
 30
0.0
 11
112.2496422975
 21
453.1883624693
 31
0.0
  0
LINE
  5
C5
330
73
100
AcDbEntity
  8
$DDT_AUDIT_GENERATED_(B7)
  6
Continuous
 62
     7
100
AcDbLine
 10
113.2496422975
 20
453.1883624693
 30
0.0
 11
113.2496422975
 21
453.0664931259
 31
0.0
  0
LINE
  5
C6
330
73
100
AcDbEntity
  8
$DDT_AUDIT_GENERATED_(B7)
  6
Continuous
 62
     7
100
AcDbLine
 10
112.0496422975
 20
453.0664931259
 30
0.0
 11
111.0496422975
 21
453.0664931259
 31
0.0
  0
LINE
  5
C7
330
73
100
AcDbEntity
  8
$DDT_AUDIT_GENERATED_(B7)
  6
Continuous
 62
     7
100
AcDbLine
 10
111.0496422975
 20
453.0664931259
 30
0.0
 11
111.0496422975
 21
453.1883624693
 31
0.0
  0
LINE
  5
C8
330
73
100
AcDbEntity
  8
$DDT_AUDIT_GENERATED_(B7)
  6
Continuous
 62
     7
100
AcDbLine
 10
112.0496422975
 20
453.1883624693
 30
0.0
 11
112.0496422975
 21
453.0664931259
 31
0.0
  0
LINE
  5
C9
330
73
100
AcDbEntity
  8
$DDT_AUDIT_GENERATED_(B7)
  6
Continuous
 62
     7
100
AcDbLine
 10
110.8496422975
 20
453.0664931259
 30
0.0
 11
109.8496422975
 21
453.0664931259
 31
0.0
  0
LINE
  5
CA
330
73
100
AcDbEntity
  8
$DDT_AUDIT_GENERATED_(B7)
  6
Continuous
 62
     7
100
AcDbLine
 10
109.8496422975
 20
453.0664931259
 30
0.0
 11
109.8496422975
 21
453.1883624693
 31
0.0
  0
LINE
  5
CB
330
73
100
AcDbEntity
  8
$DDT_AUDIT_GENERATED_(B7)
  6
Continuous
 62
     7
100
AcDbLine
 10
110.8496422975
 20
453.1883624693
 30
0.0
 11
110.8496422975
 21
453.0664931259
 31
0.0
  0
LINE
  5
CC
330
73
100
AcDbEntity
  8
$DDT_AUDIT_GENERATED_(B7)
  6
Continuous
 62
     7
100
AcDbLine
 10
109.6496422975
 20
453.0664931259
 30
0.0
 11
108.913105568
 21
453.0664931259
 31
0.0
  0
LINE
  5
CD
330
73
100
AcDbEntity
  8
$DDT_AUDIT_GENERATED_(B7)
  6
Continuous
 62
     7
100
AcDbLine
 10
109.6496422975
 20
453.1883624693
 30
0.0
 11
109.6496422975
 21
453.0664931259
 31
0.0
  0
LINE
  5
CE
330
73
100
AcDbEntity
  8
$DDT_AUDIT_GENERATED_(B7)
  6
Continuous
 62
     7
100
AcDbLine
 10
116.8496422975
 20
452.9202499138
 30
0.0
 11
115.8496422975
 21
452.9202499138
 31
0.0
  0
LINE
  5
CF
330
73
100
AcDbEntity
  8
$DDT_AUDIT_GENERATED_(B7)
  6
Continuous
 62
     7
100
AcDbLine
 10
115.8496422975
 20
452.9202499138
 30
0.0
 11
115.8496422975
 21
453.0421192573
 31
0.0
  0
LINE
  5
D0
330
73
100
AcDbEntity
  8
$DDT_AUDIT_GENERATED_(B7)
  6
Continuous
 62
     7
100
AcDbLine
 10
115.8496422975
 20
453.0421192573
 30
0.0
 11
116.8496422975
 21
453.0421192573
 31
0.0
  0
LINE
  5
D1
330
73
100
AcDbEntity
  8
$DDT_AUDIT_GENERATED_(B7)
  6
Continuous
 62
     7
100
AcDbLine
 10
115.6496422975
 20
452.9202499138
 30
0.0
 11
114.6496422975
 21
452.9202499138
 31
0.0
  0
LINE
  5
D2
330
73
100
AcDbEntity
  8
$DDT_AUDIT_GENERATED_(B7)
  6
Continuous
 62
     7
100
AcDbLine
 10
114.6496422975
 20
452.9202499138
 30
0.0
 11
114.6496422975
 21
453.0421192573
 31
0.0
  0
LINE
  5
D3
330
73
100
AcDbEntity
  8
$DDT_AUDIT_GENERATED_(B7)
  6
Continuous
 62
     7
100
AcDbLine
 10
114.6496422975
 20
453.0421192573
 30
0.0
 11
115.6496422975
 21
453.0421192573
 31
0.0
  0
LINE
  5
D4
330
73
100
AcDbEntity
  8
$DDT_AUDIT_GENERATED_(B7)
  6
Continuous
 62
     7
100
AcDbLine
 10
115.6496422975
 20
453.0421192573
 30
0.0
 11
115.6496422975
 21
452.9202499138
 31
0.0
  0
LINE
  5
D5
330
73
100
AcDbEntity
  8
$DDT_AUDIT_GENERATED_(B7)
  6
Continuous
 62
     7
100
AcDbLine
 10
114.4496422975
 20
452.9202499138
 30
0.0
 11
113.4496422975
 21
452.9202499138
 31
0.0
  0
LINE
  5
D6
330
73
100
AcDbEntity
  8
$DDT_AUDIT_GENERATED_(B7)
  6
Continuous
 62
     7
100
AcDbLine
 10
113.4496422975
 20
452.9202499138
 30
0.0
 11
113.4496422975
 21
453.0421192573
 31
0.0
  0
LINE
  5
D7
330
73
100
AcDbEntity
  8
$DDT_AUDIT_GENERATED_(B7)
  6
Continuous
 62
     7
100
AcDbLine
 10
113.4496422975
 20
453.0421192573
 30
0.0
 11
114.4496422975
 21
453.0421192573
 31
0.0
  0
LINE
  5
D8
330
73
100
AcDbEntity
  8
$DDT_AUDIT_GENERATED_(B7)
  6
Continuous
 62
     7
100
AcDbLine
 10
114.4496422975
 20
453.0421192573
 30
0.0
 11
114.4496422975
 21
452.9202499138
 31
0.0
  0
LINE
  5
D9
330
73
100
AcDbEntity
  8
$DDT_AUDIT_GENERATED_(B7)
  6
Continuous
 62
     7
100
AcDbLine
 10
113.2496422975
 20
452.9202499138
 30
0.0
 11
112.2496422975
 21
452.9202499138
 31
0.0
  0
LINE
  5
DA
330
73
100
AcDbEntity
  8
$DDT_AUDIT_GENERATED_(B7)
  6
Continuous
 62
     7
100
AcDbLine
 10
112.2496422975
 20
452.9202499138
 30
0.0
 11
112.2496422975
 21
453.0421192573
 31
0.0
  0
LINE
  5
DB
330
73
100
AcDbEntity
  8
$DDT_AUDIT_GENERATED_(B7)
  6
Continuous
 62
     7
100
AcDbLine
 10
112.2496422975
 20
453.0421192573
 30
0.0
 11
113.2496422975
 21
453.0421192573
 31
0.0
  0
LINE
  5
DC
330
73
100
AcDbEntity
  8
$DDT_AUDIT_GENERATED_(B7)
  6
Continuous
 62
     7
100
AcDbLine
 10
113.2496422975
 20
453.0421192573
 30
0.0
 11
113.2496422975
 21
452.9202499138
 31
0.0
  0
LINE
  5
DD
330
73
100
AcDbEntity
  8
$DDT_AUDIT_GENERATED_(B7)
  6
Continuous
 62
     7
100
AcDbLine
 10
112.0496422975
 20
452.9202499138
 30
0.0
 11
111.0496422975
 21
452.9202499138
 31
0.0
  0
LINE
  5
DE
330
73
100
AcDbEntity
  8
$DDT_AUDIT_GENERATED_(B7)
  6
Continuous
 62
     7
100
AcDbLine
 10
111.0496422975
 20
452.9202499138
 30
0.0
 11
111.0496422975
 21
453.0421192573
 31
0.0
  0
LINE
  5
DF
330
73
100
AcDbEntity
  8
$DDT_AUDIT_GENERATED_(B7)
  6
Continuous
 62
     7
100
AcDbLine
 10
111.0496422975
 20
453.0421192573
 30
0.0
 11
112.0496422975
 21
453.0421192573
 31
0.0
  0
LINE
  5
E0
330
73
100
AcDbEntity
  8
$DDT_AUDIT_GENERATED_(B7)
  6
Continuous
 62
     7
100
AcDbLine
 10
112.0496422975
 20
453.0421192573
 30
0.0
 11
112.0496422975
 21
452.9202499138
 31
0.0
  0
LINE
  5
E1
330
73
100
AcDbEntity
  8
$DDT_AUDIT_GENERATED_(B7)
  6
Continuous
 62
     7
100
AcDbLine
 10
110.8496422975
 20
452.9202499138
 30
0.0
 11
109.8496422975
 21
452.9202499138
 31
0.0
  0
LINE
  5
E2
330
73
100
AcDbEntity
  8
$DDT_AUDIT_GENERATED_(B7)
  6
Continuous
 62
     7
100
AcDbLine
 10
109.8496422975
 20
452.9202499138
 30
0.0
 11
109.8496422975
 21
453.0421192573
 31
0.0
  0
LINE
  5
E3
330
73
100
AcDbEntity
  8
$DDT_AUDIT_GENERATED_(B7)
  6
Continuous
 62
     7
100
AcDbLine
 10
109.8496422975
 20
453.0421192573
 30
0.0
 11
110.8496422975
 21
453.0421192573
 31
0.0
  0
LINE
  5
E4
330
73
100
AcDbEntity
  8
$DDT_AUDIT_GENERATED_(B7)
  6
Continuous
 62
     7
100
AcDbLine
 10
110.8496422975
 20
453.0421192573
 30
0.0
 11
110.8496422975
 21
452.9202499138
 31
0.0
  0
LINE
  5
E5
330
73
100
AcDbEntity
  8
$DDT_AUDIT_GENERATED_(B7)
  6
Continuous
 62
     7
100
AcDbLine
 10
109.6496422975
 20
452.9202499138
 30
0.0
 11
108.6496422975
 21
452.9202499138
 31
0.0
  0
LINE
  5
E6
330
73
100
AcDbEntity
  8
$DDT_AUDIT_GENERATED_(B7)
  6
Continuous
 62
     7
100
AcDbLine
 10
108.6496422975
 20
452.9202499138
 30
0.0
 11
108.6496422975
 21
452.9921122964
 31
0.0
  0
LINE
  5
E7
330
73
100
AcDbEntity
  8
$DDT_AUDIT_GENERATED_(B7)
  6
Continuous
 62
     7
100
AcDbLine
 10
108.8203031621
 20
453.0421192573
 30
0.0
 11
109.6496422975
 21
453.0421192573
 31
0.0
  0
LINE
  5
E8
330
73
100
AcDbEntity
  8
$DDT_AUDIT_GENERATED_(B7)
  6
Continuous
 62
     7
100
AcDbLine
 10
109.6496422975
 20
453.0421192573
 30
0.0
 11
109.6496422975
 21
452.9202499138
 31
0.0
  0
LINE
  5
E9
330
73
100
AcDbEntity
  8
$DDT_AUDIT_GENERATED_(B7)
  6
Continuous
 62
     7
100
AcDbLine
 10
116.8496422975
 20
452.7740067018
 30
0.0
 11
115.8496422975
 21
452.7740067018
 31
0.0
  0
LINE
  5
EA
330
73
100
AcDbEntity
  8
$DDT_AUDIT_GENERATED_(B7)
  6
Continuous
 62
     7
100
AcDbLine
 10
115.8496422975
 20
452.7740067018
 30
0.0
 11
115.8496422975
 21
452.8958760452
 31
0.0
  0
LINE
  5
EB
330
73
100
AcDbEntity
  8
$DDT_AUDIT_GENERATED_(B7)
  6
Continuous
 62
     7
100
AcDbLine
 10
115.8496422975
 20
452.8958760452
 30
0.0
 11
116.8496422975
 21
452.8958760452
 31
0.0
  0
LINE
  5
EC
330
73
100
AcDbEntity
  8
$DDT_AUDIT_GENERATED_(B7)
  6
Continuous
 62
     7
100
AcDbLine
 10
115.6496422975
 20
452.7740067018
 30
0.0
 11
114.6496422975
 21
452.7740067018
 31
0.0
  0
LINE
  5
ED
330
73
100
AcDbEntity
  8
$DDT_AUDIT_GENERATED_(B7)
  6
Continuous
 62
     7
100
AcDbLine
 10
114.6496422975
 20
452.7740067018
 30
0.0
 11
114.6496422975
 21
452.8958760452
 31
0.0
  0
LINE
  5
EE
330
73
100
AcDbEntity
  8
$DDT_AUDIT_GENERATED_(B7)
  6
Continuous
 62
     7
100
AcDbLine
 10
114.6496422975
 20
452.8958760452
 30
0.0
 11
115.6496422975
 21
452.8958760452
 31
0.0
  0
LINE
  5
EF
330
73
100
AcDbEntity
  8
$DDT_AUDIT_GENERATED_(B7)
  6
Continuous
 62
     7
100
AcDbLine
 10
115.6496422975
 20
452.8958760452
 30
0.0
 11
115.6496422975
 21
452.7740067018
 31
0.0
  0
LINE
  5
F0
330
73
100
AcDbEntity
  8
$DDT_AUDIT_GENERATED_(B7)
  6
Continuous
 62
     7
100
AcDbLine
 10
114.4496422975
 20
452.7740067018
 30
0.0
 11
113.4496422975
 21
452.7740067018
 31
0.0
  0
LINE
  5
F1
330
73
100
AcDbEntity
  8
$DDT_AUDIT_GENERATED_(B7)
  6
Continuous
 62
     7
100
AcDbLine
 10
113.4496422975
 20
452.7740067018
 30
0.0
 11
113.4496422975
 21
452.8958760452
 31
0.0
  0
LINE
  5
F2
330
73
100
AcDbEntity
  8
$DDT_AUDIT_GENERATED_(B7)
  6
Continuous
 62
     7
100
AcDbLine
 10
113.4496422975
 20
452.8958760452
 30
0.0
 11
114.4496422975
 21
452.8958760452
 31
0.0
  0
LINE
  5
F3
330
73
100
AcDbEntity
  8
$DDT_AUDIT_GENERATED_(B7)
  6
Continuous
 62
     7
100
AcDbLine
 10
114.4496422975
 20
452.8958760452
 30
0.0
 11
114.4496422975
 21
452.7740067018
 31
0.0
  0
LINE
  5
F4
330
73
100
AcDbEntity
  8
$DDT_AUDIT_GENERATED_(B7)
  6
Continuous
 62
     7
100
AcDbLine
 10
113.2496422975
 20
452.7740067018
 30
0.0
 11
112.2496422975
 21
452.7740067018
 31
0.0
  0
LINE
  5
F5
330
73
100
AcDbEntity
  8
$DDT_AUDIT_GENERATED_(B7)
  6
Continuous
 62
     7
100
AcDbLine
 10
112.2496422975
 20
452.7740067018
 30
0.0
 11
112.2496422975
 21
452.8958760452
 31
0.0
  0
LINE
  5
F6
330
73
100
AcDbEntity
  8
$DDT_AUDIT_GENERATED_(B7)
  6
Continuous
 62
     7
100
AcDbLine
 10
112.2496422975
 20
452.8958760452
 30
0.0
 11
113.2496422975
 21
452.8958760452
 31
0.0
  0
LINE
  5
F7
330
73
100
AcDbEntity
  8
$DDT_AUDIT_GENERATED_(B7)
  6
Continuous
 62
     7
100
AcDbLine
 10
113.2496422975
 20
452.8958760452
 30
0.0
 11
113.2496422975
 21
452.7740067018
 31
0.0
  0
LINE
  5
F8
330
73
100
AcDbEntity
  8
$DDT_AUDIT_GENERATED_(B7)
  6
Continuous
 62
     7
100
AcDbLine
 10
112.0496422975
 20
452.7740067018
 30
0.0
 11
111.0496422975
 21
452.7740067018
 31
0.0
  0
LINE
  5
F9
330
73
100
AcDbEntity
  8
$DDT_AUDIT_GENERATED_(B7)
  6
Continuous
 62
     7
100
AcDbLine
 10
111.0496422975
 20
452.7740067018
 30
0.0
 11
111.0496422975
 21
452.8958760452
 31
0.0
  0
LINE
  5
FA
330
73
100
AcDbEntity
  8
$DDT_AUDIT_GENERATED_(B7)
  6
Continuous
 62
     7
100
AcDbLine
 10
111.0496422975
 20
452.8958760452
 30
0.0
 11
112.0496422975
 21
452.8958760452
 31
0.0
  0
LINE
  5
FB
330
73
100
AcDbEntity
  8
$DDT_AUDIT_GENERATED_(B7)
  6
Continuous
 62
     7
100
AcDbLine
 10
112.0496422975
 20
452.8958760452
 30
0.0
 11
112.0496422975
 21
452.7740067018
 31
0.0
  0
LINE
  5
FC
330
73
100
AcDbEntity
  8
$DDT_AUDIT_GENERATED_(B7)
  6
Continuous
 62
     7
100
AcDbLine
 10
110.8496422975
 20
452.7740067018
 30
0.0
 11
109.8496422975
 21
452.7740067018
 31
0.0
  0
LINE
  5
FD
330
73
100
AcDbEntity
  8
$DDT_AUDIT_GENERATED_(B7)
  6
Continuous
 62
     7
100
AcDbLine
 10
109.8496422975
 20
452.7740067018
 30
0.0
 11
109.8496422975
 21
452.8958760452
 31
0.0
  0
LINE
  5
FE
330
73
100
AcDbEntity
  8
$DDT_AUDIT_GENERATED_(B7)
  6
Continuous
 62
     7
100
AcDbLine
 10
109.8496422975
 20
452.8958760452
 30
0.0
 11
110.8496422975
 21
452.8958760452
 31
0.0
  0
LINE
  5
FF
330
73
100
AcDbEntity
  8
$DDT_AUDIT_GENERATED_(B7)
  6
Continuous
 62
     7
100
AcDbLine
 10
110.8496422975
 20
452.8958760452
 30
0.0
 11
110.8496422975
 21
452.7740067018
 31
0.0
  0
LINE
  5
100
330
73
100
AcDbEntity
  8
$DDT_AUDIT_GENERATED_(B7)
  6
Continuous
 62
     7
100
AcDbLine
 10
116.8496422975
 20
452.6277634897
 30
0.0
 11
115.8496422975
 21
452.6277634897
 31
0.0
  0
LINE
  5
101
330
73
100
AcDbEntity
  8
$DDT_AUDIT_GENERATED_(B7)
  6
Continuous
 62
     7
100
AcDbLine
 10
115.8496422975
 20
452.6277634897
 30
0.0
 11
115.8496422975
 21
452.7496328331
 31
0.0
  0
LINE
  5
102
330
73
100
AcDbEntity
  8
$DDT_AUDIT_GENERATED_(B7)
  6
Continuous
 62
     7
100
AcDbLine
 10
115.8496422975
 20
452.7496328331
 30
0.0
 11
116.8496422975
 21
452.7496328331
 31
0.0
  0
LINE
  5
103
330
73
100
AcDbEntity
  8
$DDT_AUDIT_GENERATED_(B7)
  6
Continuous
 62
     7
100
AcDbLine
 10
115.6496422975
 20
452.6277634897
 30
0.0
 11
114.6496422975
 21
452.6277634897
 31
0.0
  0
LINE
  5
104
330
73
100
AcDbEntity
  8
$DDT_AUDIT_GENERATED_(B7)
  6
Continuous
 62
     7
100
AcDbLine
 10
114.6496422975
 20
452.6277634897
 30
0.0
 11
114.6496422975
 21
452.7496328331
 31
0.0
  0
LINE
  5
105
330
73
100
AcDbEntity
  8
$DDT_AUDIT_GENERATED_(B7)
  6
Continuous
 62
     7
100
AcDbLine
 10
114.6496422975
 20
452.7496328331
 30
0.0
 11
115.6496422975
 21
452.7496328331
 31
0.0
  0
LINE
  5
106
330
73
100
AcDbEntity
  8
$DDT_AUDIT_GENERATED_(B7)
  6
Continuous
 62
     7
100
AcDbLine
 10
115.6496422975
 20
452.7496328331
 30
0.0
 11
115.6496422975
 21
452.6277634897
 31
0.0
  0
LINE
  5
107
330
73
100
AcDbEntity
  8
$DDT_AUDIT_GENERATED_(B7)
  6
Continuous
 62
     7
100
AcDbLine
 10
114.4496422975
 20
452.6277634897
 30
0.0
 11
113.4496422975
 21
452.6277634897
 31
0.0
  0
LINE
  5
108
330
73
100
AcDbEntity
  8
$DDT_AUDIT_GENERATED_(B7)
  6
Continuous
 62
     7
100
AcDbLine
 10
113.4496422975
 20
452.6277634897
 30
0.0
 11
113.4496422975
 21
452.7496328331
 31
0.0
  0
LINE
  5
109
330
73
100
AcDbEntity
  8
$DDT_AUDIT_GENERATED_(B7)
  6
Continuous
 62
     7
100
AcDbLine
 10
113.4496422975
 20
452.7496328331
 30
0.0
 11
114.4496422975
 21
452.7496328331
 31
0.0
  0
LINE
  5
10A
330
73
100
AcDbEntity
  8
$DDT_AUDIT_GENERATED_(B7)
  6
Continuous
 62
     7
100
AcDbLine
 10
114.4496422975
 20
452.7496328331
 30
0.0
 11
114.4496422975
 21
452.6277634897
 31
0.0
  0
LINE
  5
10B
330
73
100
AcDbEntity
  8
$DDT_AUDIT_GENERATED_(B7)
  6
Continuous
 62
     7
100
AcDbLine
 10
113.2496422975
 20
452.6277634897
 30
0.0
 11
112.2496422975
 21
452.6277634897
 31
0.0
  0
LINE
  5
10C
330
73
100
AcDbEntity
  8
$DDT_AUDIT_GENERATED_(B7)
  6
Continuous
 62
     7
100
AcDbLine
 10
112.2496422975
 20
452.6277634897
 30
0.0
 11
112.2496422975
 21
452.7496328331
 31
0.0
  0
LINE
  5
10D
330
73
100
AcDbEntity
  8
$DDT_AUDIT_GENERATED_(B7)
  6
Continuous
 62
     7
100
AcDbLine
 10
112.2496422975
 20
452.7496328331
 30
0.0
 11
113.2496422975
 21
452.7496328331
 31
0.0
  0
LINE
  5
10E
330
73
100
AcDbEntity
  8
$DDT_AUDIT_GENERATED_(B7)
  6
Continuous
 62
     7
100
AcDbLine
 10
113.2496422975
 20
452.7496328331
 30
0.0
 11
113.2496422975
 21
452.6277634897
 31
0.0
  0
LINE
  5
10F
330
73
100
AcDbEntity
  8
$DDT_AUDIT_GENERATED_(B7)
  6
Continuous
 62
     7
100
AcDbLine
 10
112.0496422975
 20
452.6277634897
 30
0.0
 11
111.0496422975
 21
452.6277634897
 31
0.0
  0
LINE
  5
110
330
73
100
AcDbEntity
  8
$DDT_AUDIT_GENERATED_(B7)
  6
Continuous
 62
     7
100
AcDbLine
 10
111.0496422975
 20
452.6277634897
 30
0.0
 11
111.0496422975
 21
452.7496328331
 31
0.0
  0
LINE
  5
111
330
73
100
AcDbEntity
  8
$DDT_AUDIT_GENERATED_(B7)
  6
Continuous
 62
     7
100
AcDbLine
 10
111.0496422975
 20
452.7496328331
 30
0.0
 11
112.0496422975
 21
452.7496328331
 31
0.0
  0
LINE
  5
112
330
73
100
AcDbEntity
  8
$DDT_AUDIT_GENERATED_(B7)
  6
Continuous
 62
     7
100
AcDbLine
 10
112.0496422975
 20
452.7496328331
 30
0.0
 11
112.0496422975
 21
452.6277634897
 31
0.0
  0
LINE
  5
113
330
73
100
AcDbEntity
  8
$DDT_AUDIT_GENERATED_(B7)
  6
Continuous
 62
     7
100
AcDbLine
 10
109.8496422975
 20
452.6277634897
 30
0.0
 11
109.8496422975
 21
452.7496328331
 31
0.0
  0
LINE
  5
114
330
73
100
AcDbEntity
  8
$DDT_AUDIT_GENERATED_(B7)
  6
Continuous
 62
     7
100
AcDbLine
 10
110.8496422975
 20
452.6277634897
 30
0.0
 11
109.8496422975
 21
452.6277634897
 31
0.0
  0
LINE
  5
115
330
73
100
AcDbEntity
  8
$DDT_AUDIT_GENERATED_(B7)
  6
Continuous
 62
     7
100
AcDbLine
 10
109.8496422975
 20
452.7496328331
 30
0.0
 11
110.8496422975
 21
452.7496328331
 31
0.0
  0
LINE
  5
116
330
73
100
AcDbEntity
  8
$DDT_AUDIT_GENERATED_(B7)
  6
Continuous
 62
     7
100
AcDbLine
 10
110.8496422975
 20
452.7496328331
 30
0.0
 11
110.8496422975
 21
452.6277634897
 31
0.0
  0
LINE
  5
117
330
73
100
AcDbEntity
  8
$DDT_AUDIT_GENERATED_(B7)
  6
Continuous
 62
     7
100
AcDbLine
 10
116.8496422975
 20
452.4815202776
 30
0.0
 11
115.8496422975
 21
452.4815202776
 31
0.0
  0
LINE
  5
118
330
73
100
AcDbEntity
  8
$DDT_AUDIT_GENERATED_(B7)
  6
Continuous
 62
     7
100
AcDbLine
 10
115.8496422975
 20
452.4815202776
 30
0.0
 11
115.8496422975
 21
452.603389621
 31
0.0
  0
LINE
  5
119
330
73
100
AcDbEntity
  8
$DDT_AUDIT_GENERATED_(B7)
  6
Continuous
 62
     7
100
AcDbLine
 10
115.8496422975
 20
452.603389621
 30
0.0
 11
116.8496422975
 21
452.603389621
 31
0.0
  0
LINE
  5
11A
330
73
100
AcDbEntity
  8
$DDT_AUDIT_GENERATED_(B7)
  6
Continuous
 62
     7
100
AcDbLine
 10
115.6496422975
 20
452.4815202776
 30
0.0
 11
114.6496422975
 21
452.4815202776
 31
0.0
  0
LINE
  5
11B
330
73
100
AcDbEntity
  8
$DDT_AUDIT_GENERATED_(B7)
  6
Continuous
 62
     7
100
AcDbLine
 10
114.6496422975
 20
452.4815202776
 30
0.0
 11
114.6496422975
 21
452.603389621
 31
0.0
  0
LINE
  5
11C
330
73
100
AcDbEntity
  8
$DDT_AUDIT_GENERATED_(B7)
  6
Continuous
 62
     7
100
AcDbLine
 10
114.6496422975
 20
452.603389621
 30
0.0
 11
115.6496422975
 21
452.603389621
 31
0.0
  0
LINE
  5
11D
330
73
100
AcDbEntity
  8
$DDT_AUDIT_GENERATED_(B7)
  6
Continuous
 62
     7
100
AcDbLine
 10
115.6496422975
 20
452.603389621
 30
0.0
 11
115.6496422975
 21
452.4815202776
 31
0.0
  0
LINE
  5
11E
330
73
100
AcDbEntity
  8
$DDT_AUDIT_GENERATED_(B7)
  6
Continuous
 62
     7
100
AcDbLine
 10
114.4496422975
 20
452.4815202776
 30
0.0
 11
113.4496422975
 21
452.4815202776
 31
0.0
  0
LINE
  5
11F
330
73
100
AcDbEntity
  8
$DDT_AUDIT_GENERATED_(B7)
  6
Continuous
 62
     7
100
AcDbLine
 10
113.4496422975
 20
452.4815202776
 30
0.0
 11
113.4496422975
 21
452.603389621
 31
0.0
  0
LINE
  5
120
330
73
100
AcDbEntity
  8
$DDT_AUDIT_GENERATED_(B7)
  6
Continuous
 62
     7
100
AcDbLine
 10
113.4496422975
 20
452.603389621
 30
0.0
 11
114.4496422975
 21
452.603389621
 31
0.0
  0
LINE
  5
121
330
73
100
AcDbEntity
  8
$DDT_AUDIT_GENERATED_(B7)
  6
Continuous
 62
     7
100
AcDbLine
 10
114.4496422975
 20
452.603389621
 30
0.0
 11
114.4496422975
 21
452.4815202776
 31
0.0
  0
LINE
  5
122
330
73
100
AcDbEntity
  8
$DDT_AUDIT_GENERATED_(B7)
  6
Continuous
 62
     7
100
AcDbLine
 10
113.2496422975
 20
452.4815202776
 30
0.0
 11
112.2496422975
 21
452.4815202776
 31
0.0
  0
LINE
  5
123
330
73
100
AcDbEntity
  8
$DDT_AUDIT_GENERATED_(B7)
  6
Continuous
 62
     7
100
AcDbLine
 10
112.2496422975
 20
452.4815202776
 30
0.0
 11
112.2496422975
 21
452.603389621
 31
0.0
  0
LINE
  5
124
330
73
100
AcDbEntity
  8
$DDT_AUDIT_GENERATED_(B7)
  6
Continuous
 62
     7
100
AcDbLine
 10
112.2496422975
 20
452.603389621
 30
0.0
 11
113.2496422975
 21
452.603389621
 31
0.0
  0
LINE
  5
125
330
73
100
AcDbEntity
  8
$DDT_AUDIT_GENERATED_(B7)
  6
Continuous
 62
     7
100
AcDbLine
 10
113.2496422975
 20
452.603389621
 30
0.0
 11
113.2496422975
 21
452.4815202776
 31
0.0
  0
LINE
  5
126
330
73
100
AcDbEntity
  8
$DDT_AUDIT_GENERATED_(B7)
  6
Continuous
 62
     7
100
AcDbLine
 10
112.0496422975
 20
452.4815202776
 30
0.0
 11
111.0496422975
 21
452.4815202776
 31
0.0
  0
LINE
  5
127
330
73
100
AcDbEntity
  8
$DDT_AUDIT_GENERATED_(B7)
  6
Continuous
 62
     7
100
AcDbLine
 10
111.0496422975
 20
452.4815202776
 30
0.0
 11
111.0496422975
 21
452.603389621
 31
0.0
  0
LINE
  5
128
330
73
100
AcDbEntity
  8
$DDT_AUDIT_GENERATED_(B7)
  6
Continuous
 62
     7
100
AcDbLine
 10
111.0496422975
 20
452.603389621
 30
0.0
 11
112.0496422975
 21
452.603389621
 31
0.0
  0
LINE
  5
129
330
73
100
AcDbEntity
  8
$DDT_AUDIT_GENERATED_(B7)
  6
Continuous
 62
     7
100
AcDbLine
 10
112.0496422975
 20
452.603389621
 30
0.0
 11
112.0496422975
 21
452.4815202776
 31
0.0
  0
LINE
  5
12A
330
73
100
AcDbEntity
  8
$DDT_AUDIT_GENERATED_(B7)
  6
Continuous
 62
     7
100
AcDbLine
 10
116.8496422975
 20
452.3352770655
 30
0.0
 11
115.8496422975
 21
452.3352770655
 31
0.0
  0
LINE
  5
12B
330
73
100
AcDbEntity
  8
$DDT_AUDIT_GENERATED_(B7)
  6
Continuous
 62
     7
100
AcDbLine
 10
115.8496422975
 20
452.3352770655
 30
0.0
 11
115.8496422975
 21
452.4571464089
 31
0.0
  0
LINE
  5
12C
330
73
100
AcDbEntity
  8
$DDT_AUDIT_GENERATED_(B7)
  6
Continuous
 62
     7
100
AcDbLine
 10
115.8496422975
 20
452.4571464089
 30
0.0
 11
116.8496422975
 21
452.4571464089
 31
0.0
  0
LINE
  5
12D
330
73
100
AcDbEntity
  8
$DDT_AUDIT_GENERATED_(B7)
  6
Continuous
 62
     7
100
AcDbLine
 10
115.6496422975
 20
452.3352770655
 30
0.0
 11
114.6496422975
 21
452.3352770655
 31
0.0
  0
LINE
  5
12E
330
73
100
AcDbEntity
  8
$DDT_AUDIT_GENERATED_(B7)
  6
Continuous
 62
     7
100
AcDbLine
 10
114.6496422975
 20
452.3352770655
 30
0.0
 11
114.6496422975
 21
452.4571464089
 31
0.0
  0
LINE
  5
12F
330
73
100
AcDbEntity
  8
$DDT_AUDIT_GENERATED_(B7)
  6
Continuous
 62
     7
100
AcDbLine
 10
114.6496422975
 20
452.4571464089
 30
0.0
 11
115.6496422975
 21
452.4571464089
 31
0.0
  0
LINE
  5
130
330
73
100
AcDbEntity
  8
$DDT_AUDIT_GENERATED_(B7)
  6
Continuous
 62
     7
100
AcDbLine
 10
115.6496422975
 20
452.4571464089
 30
0.0
 11
115.6496422975
 21
452.3352770655
 31
0.0
  0
LINE
  5
131
330
73
100
AcDbEntity
  8
$DDT_AUDIT_GENERATED_(B7)
  6
Continuous
 62
     7
100
AcDbLine
 10
114.4496422975
 20
452.3352770655
 30
0.0
 11
113.4496422975
 21
452.3352770655
 31
0.0
  0
LINE
  5
132
330
73
100
AcDbEntity
  8
$DDT_AUDIT_GENERATED_(B7)
  6
Continuous
 62
     7
100
AcDbLine
 10
113.4496422975
 20
452.3352770655
 30
0.0
 11
113.4496422975
 21
452.4571464089
 31
0.0
  0
LINE
  5
133
330
73
100
AcDbEntity
  8
$DDT_AUDIT_GENERATED_(B7)
  6
Continuous
 62
     7
100
AcDbLine
 10
113.4496422975
 20
452.4571464089
 30
0.0
 11
114.4496422975
 21
452.4571464089
 31
0.0
  0
LINE
  5
134
330
73
100
AcDbEntity
  8
$DDT_AUDIT_GENERATED_(B7)
  6
Continuous
 62
     7
100
AcDbLine
 10
114.4496422975
 20
452.4571464089
 30
0.0
 11
114.4496422975
 21
452.3352770655
 31
0.0
  0
LINE
  5
135
330
73
100
AcDbEntity
  8
$DDT_AUDIT_GENERATED_(B7)
  6
Continuous
 62
     7
100
AcDbLine
 10
113.2496422975
 20
452.3352770655
 30
0.0
 11
112.2496422975
 21
452.3352770655
 31
0.0
  0
LINE
  5
136
330
73
100
AcDbEntity
  8
$DDT_AUDIT_GENERATED_(B7)
  6
Continuous
 62
     7
100
AcDbLine
 10
112.2496422975
 20
452.3352770655
 30
0.0
 11
112.2496422975
 21
452.4571464089
 31
0.0
  0
LINE
  5
137
330
73
100
AcDbEntity
  8
$DDT_AUDIT_GENERATED_(B7)
  6
Continuous
 62
     7
100
AcDbLine
 10
112.2496422975
 20
452.4571464089
 30
0.0
 11
113.2496422975
 21
452.4571464089
 31
0.0
  0
LINE
  5
138
330
73
100
AcDbEntity
  8
$DDT_AUDIT_GENERATED_(B7)
  6
Continuous
 62
     7
100
AcDbLine
 10
113.2496422975
 20
452.4571464089
 30
0.0
 11
113.2496422975
 21
452.3352770655
 31
0.0
  0
LINE
  5
139
330
73
100
AcDbEntity
  8
$DDT_AUDIT_GENERATED_(B7)
  6
Continuous
 62
     7
100
AcDbLine
 10
116.8496422975
 20
452.1890338534
 30
0.0
 11
115.8496422975
 21
452.1890338534
 31
0.0
  0
LINE
  5
13A
330
73
100
AcDbEntity
  8
$DDT_AUDIT_GENERATED_(B7)
  6
Continuous
 62
     7
100
AcDbLine
 10
115.8496422975
 20
452.1890338534
 30
0.0
 11
115.8496422975
 21
452.3109031968
 31
0.0
  0
LINE
  5
13B
330
73
100
AcDbEntity
  8
$DDT_AUDIT_GENERATED_(B7)
  6
Continuous
 62
     7
100
AcDbLine
 10
115.8496422975
 20
452.3109031968
 30
0.0
 11
116.8496422975
 21
452.3109031968
 31
0.0
  0
LINE
  5
13C
330
73
100
AcDbEntity
  8
$DDT_AUDIT_GENERATED_(B7)
  6
Continuous
 62
     7
100
AcDbLine
 10
115.6496422975
 20
452.1890338534
 30
0.0
 11
114.6496422975
 21
452.1890338534
 31
0.0
  0
LINE
  5
13D
330
73
100
AcDbEntity
  8
$DDT_AUDIT_GENERATED_(B7)
  6
Continuous
 62
     7
100
AcDbLine
 10
114.6496422975
 20
452.1890338534
 30
0.0
 11
114.6496422975
 21
452.3109031968
 31
0.0
  0
LINE
  5
13E
330
73
100
AcDbEntity
  8
$DDT_AUDIT_GENERATED_(B7)
  6
Continuous
 62
     7
100
AcDbLine
 10
114.6496422975
 20
452.3109031968
 30
0.0
 11
115.6496422975
 21
452.3109031968
 31
0.0
  0
LINE
  5
13F
330
73
100
AcDbEntity
  8
$DDT_AUDIT_GENERATED_(B7)
  6
Continuous
 62
     7
100
AcDbLine
 10
115.6496422975
 20
452.3109031968
 30
0.0
 11
115.6496422975
 21
452.1890338534
 31
0.0
  0
LINE
  5
140
330
73
100
AcDbEntity
  8
$DDT_AUDIT_GENERATED_(B7)
  6
Continuous
 62
     7
100
AcDbLine
 10
114.4496422975
 20
452.1890338534
 30
0.0
 11
113.4496422975
 21
452.1890338534
 31
0.0
  0
LINE
  5
141
330
73
100
AcDbEntity
  8
$DDT_AUDIT_GENERATED_(B7)
  6
Continuous
 62
     7
100
AcDbLine
 10
113.4496422975
 20
452.1890338534
 30
0.0
 11
113.4496422975
 21
452.3109031968
 31
0.0
  0
LINE
  5
142
330
73
100
AcDbEntity
  8
$DDT_AUDIT_GENERATED_(B7)
  6
Continuous
 62
     7
100
AcDbLine
 10
113.4496422975
 20
452.3109031968
 30
0.0
 11
114.4496422975
 21
452.3109031968
 31
0.0
  0
LINE
  5
143
330
73
100
AcDbEntity
  8
$DDT_AUDIT_GENERATED_(B7)
  6
Continuous
 62
     7
100
AcDbLine
 10
114.4496422975
 20
452.3109031968
 30
0.0
 11
114.4496422975
 21
452.1890338534
 31
0.0
  0
LINE
  5
144
330
73
100
AcDbEntity
  8
$DDT_AUDIT_GENERATED_(B7)
  6
Continuous
 62
     7
100
AcDbLine
 10
115.8496422975
 20
452.1238539185
 30
0.0
 11
115.8496422975
 21
452.1646599847
 31
0.0
  0
LINE
  5
145
330
73
100
AcDbEntity
  8
$DDT_AUDIT_GENERATED_(B7)
  6
Continuous
 62
     7
100
AcDbLine
 10
115.8496422975
 20
452.1646599847
 30
0.0
 11
116.8496422975
 21
452.1646599847
 31
0.0
  0
ELLIPSE
  5
146
330
73
100
AcDbEntity
  8
$DDT_AUDIT_GENERATED_(B7)
  6
Continuous
 62
     7
100
AcDbEllipse
 10
116.3496423207
 20
453.1274278363
 30
0.0
 11
-8.250000159908669
 21
-2.862824560745381E-9
 31
0.0
210
0.0
220
0.0
230
1.0
 40
0.1218693457
 41
1.485845701695049
 42
1.510153101080675
  0
LINE
  5
147
330
73
100
AcDbEntity
  8
$DDT_AUDIT_GENERATED_(B7)
  6
Continuous
 62
     7
100
AcDbLine
 10
114.6496422975
 20
452.1435828456
 30
0.0
 11
114.6496422975
 21
452.1646599847
 31
0.0
  0
LINE
  5
148
330
73
100
AcDbEntity
  8
$DDT_AUDIT_GENERATED_(B7)
  6
Continuous
 62
     7
100
AcDbLine
 10
114.6496422975
 20
452.1646599847
 30
0.0
 11
115.6496422975
 21
452.1646599847
 31
0.0
  0
LINE
  5
149
330
73
100
AcDbEntity
  8
$DDT_AUDIT_GENERATED_(B7)
  6
Continuous
 62
     7
100
AcDbLine
 10
115.6496422975
 20
452.1646599847
 30
0.0
 11
115.6496422975
 21
452.1256314021
 31
0.0
  0
ELLIPSE
  5
14A
330
73
100
AcDbEntity
  8
$DDT_AUDIT_GENERATED_(B7)
  6
Continuous
 62
     7
100
AcDbEllipse
 10
116.3496423659
 20
453.1274278348
 30
0.0
 11
-8.250000163688769
 21
-8.253890626530591E-9
 31
0.0
210
0.0
220
0.0
230
1.0
 40
0.1218693455
 41
1.338407250371538
 42
1.363248871899271
  0
LINE
  5
14B
330
73
100
AcDbEntity
  8
$DDT_AUDIT_GENERATED_(B7)
  6
Continuous
 62
     7
100
AcDbLine
 10
113.9721436119
 20
452.1646599847
 30
0.0
 11
114.4496422975
 21
452.1646599847
 31
0.0
  0
LINE
  5
14C
330
73
100
AcDbEntity
  8
$DDT_AUDIT_GENERATED_(B7)
  6
Continuous
 62
     7
100
AcDbLine
 10
114.4496422975
 20
452.1646599847
 30
0.0
 11
114.4496422975
 21
452.1490325038
 31
0.0
  0
ELLIPSE
  5
14D
330
73
100
AcDbEntity
  8
$DDT_AUDIT_GENERATED_(B7)
  6
Continuous
 62
     7
100
AcDbEllipse
 10
116.3496422968
 20
453.1274277974
 30
0.0
 11
-8.249999998877541
 21
7.871481244592360E-11
 31
0.0
210
0.0
220
0.0
230
1.0
 40
0.1218693434
 41
1.18558220516711
 42
1.278468933687183
  0
LINE
  5
14E
330
73
100
AcDbEntity
  8
$DDT_AUDIT_GENERATED_(B7)
  6
Continuous
 62
     7
100
AcDbLine
 10
112.2496422975
 20
452.2549547926
 30
0.0
 11
112.2496422975
 21
452.3109031968
 31
0.0
  0
LINE
  5
14F
330
73
100
AcDbEntity
  8
$DDT_AUDIT_GENERATED_(B7)
  6
Continuous
 62
     7
100
AcDbLine
 10
112.2496422975
 20
452.3109031968
 30
0.0
 11
113.2496422975
 21
452.3109031968
 31
0.0
  0
LINE
  5
150
330
73
100
AcDbEntity
  8
$DDT_AUDIT_GENERATED_(B7)
  6
Continuous
 62
     7
100
AcDbLine
 10
113.2496422975
 20
452.3109031968
 30
0.0
 11
113.2496422975
 21
452.1956850596
 31
0.0
  0
ELLIPSE
  5
151
330
73
100
AcDbEntity
  8
$DDT_AUDIT_GENERATED_(B7)
  6
Continuous
 62
     7
100
AcDbEllipse
 10
116.3496423118
 20
453.1274278
 30
0.0
 11
-8.250000016218637
 21
-1.417286427107811E-9
 31
0.0
210
0.0
220
0.0
230
1.0
 40
0.1218693435
 41
0.9073568918704726
 42
0.9477783662262685
  0
LINE
  5
152
330
73
100
AcDbEntity
  8
$DDT_AUDIT_GENERATED_(B7)
  6
Continuous
 62
     7
100
AcDbLine
 10
111.0496422975
 20
452.356923391
 30
0.0
 11
111.0496422975
 21
452.4571464089
 31
0.0
  0
LINE
  5
153
330
73
100
AcDbEntity
  8
$DDT_AUDIT_GENERATED_(B7)
  6
Continuous
 62
     7
100
AcDbLine
 10
111.0496422975
 20
452.4571464089
 30
0.0
 11
112.0496422975
 21
452.4571464089
 31
0.0
  0
LINE
  5
154
330
73
100
AcDbEntity
  8
$DDT_AUDIT_GENERATED_(B7)
  6
Continuous
 62
     7
100
AcDbLine
 10
112.0496422975
 20
452.4571464089
 30
0.0
 11
112.0496422975
 21
452.3352770655
 31
0.0
  0
LINE
  5
155
330
73
100
AcDbEntity
  8
$DDT_AUDIT_GENERATED_(B7)
  6
Continuous
 62
     7
100
AcDbLine
 10
112.0496422975
 20
452.3352770655
 30
0.0
 11
111.2690419393
 21
452.3352770655
 31
0.0
  0
LINE
  5
156
330
73
100
AcDbEntity
  8
$DDT_AUDIT_GENERATED_(B7)
  6
Continuous
 62
     7
100
AcDbLine
 10
111.2690419393
 20
452.3352770655
 30
0.0
 11
111.2690419393
 21
452.4571464089
 31
0.0
  0
ELLIPSE
  5
157
330
73
100
AcDbEntity
  8
$DDT_AUDIT_GENERATED_(B7)
  6
Continuous
 62
     7
100
AcDbEllipse
 10
116.3496423082
 20
453.1274277999
 30
0.0
 11
-8.250000013327977
 21
-1.144131664410075E-9
 31
0.0
210
0.0
220
0.0
230
1.0
 40
0.1218693435
 41
1.022525692158662
 42
1.050693122941354
  0
LINE
  5
158
330
73
100
AcDbEntity
  8
$DDT_AUDIT_GENERATED_(B7)
  6
Continuous
 62
     7
100
AcDbLine
 10
111.5358600008
 20
452.3109031968
 30
0.0
 11
112.0496422975
 21
452.3109031968
 31
0.0
  0
LINE
  5
159
330
73
100
AcDbEntity
  8
$DDT_AUDIT_GENERATED_(B7)
  6
Continuous
 62
     7
100
AcDbLine
 10
112.0496422975
 20
452.3109031968
 30
0.0
 11
112.0496422975
 21
452.2693732804
 31
0.0
  0
ELLIPSE
  5
15A
330
73
100
AcDbEntity
  8
$DDT_AUDIT_GENERATED_(B7)
  6
Continuous
 62
     7
100
AcDbEllipse
 10
116.3496423992
 20
453.1274278084
 30
0.0
 11
-8.250000105726722
 21
-8.236807069739172E-9
 31
0.0
210
0.0
220
0.0
230
1.0
 40
0.1218693433
 41
0.697657448840439
 42
0.7297276519374062
  0
LINE
  5
15B
330
73
100
AcDbEntity
  8
$DDT_AUDIT_GENERATED_(B7)
  6
Continuous
 62
     7
100
AcDbLine
 10
109.8496422975
 20
452.5082583679
 30
0.0
 11
109.8496422975
 21
452.603389621
 31
0.0
  0
LINE
  5
15C
330
73
100
AcDbEntity
  8
$DDT_AUDIT_GENERATED_(B7)
  6
Continuous
 62
     7
100
AcDbLine
 10
109.8496422975
 20
452.603389621
 30
0.0
 11
110.8496422975
 21
452.603389621
 31
0.0
  0
LINE
  5
15D
330
73
100
AcDbEntity
  8
$DDT_AUDIT_GENERATED_(B7)
  6
Continuous
 62
     7
100
AcDbLine
 10
110.8496422975
 20
452.603389621
 30
0.0
 11
110.8496422975
 21
452.4815202776
 31
0.0
  0
LINE
  5
15E
330
73
100
AcDbEntity
  8
$DDT_AUDIT_GENERATED_(B7)
  6
Continuous
 62
     7
100
AcDbLine
 10
110.8496422975
 20
452.4815202776
 30
0.0
 11
110.0272614168
 21
452.4815202776
 31
0.0
  0
LINE
  5
15F
330
73
100
AcDbEntity
  8
$DDT_AUDIT_GENERATED_(B7)
  6
Continuous
 62
     7
100
AcDbLine
 10
110.0272614168
 20
452.4815202776
 30
0.0
 11
110.0272614168
 21
452.603389621
 31
0.0
  0
ELLIPSE
  5
160
330
73
100
AcDbEntity
  8
$DDT_AUDIT_GENERATED_(B7)
  6
Continuous
 62
     7
100
AcDbEllipse
 10
116.3496422306
 20
453.1274277882
 30
0.0
 11
-8.249999927085183
 21
6.249674389113835E-9
 31
0.0
210
0.0
220
0.0
230
1.0
 40
0.1218693433
 41
0.8410686736281144
 42
0.8731388771849056
  0
LINE
  5
161
330
73
100
AcDbEntity
  8
$DDT_AUDIT_GENERATED_(B7)
  6
Continuous
 62
     7
100
AcDbLine
 10
110.2004553594
 20
452.4571464089
 30
0.0
 11
110.8496422975
 21
452.4571464089
 31
0.0
  0
LINE
  5
162
330
73
100
AcDbEntity
  8
$DDT_AUDIT_GENERATED_(B7)
  6
Continuous
 62
     7
100
AcDbLine
 10
110.8496422975
 20
452.4571464089
 30
0.0
 11
110.8496422975
 21
452.378030423
 31
0.0
  0
LINE
  5
163
330
73
100
AcDbEntity
  8
$DDT_AUDIT_GENERATED_(B7)
  6
Continuous
 62
     7
100
AcDbLine
 10
109.6496422975
 20
452.7740067018
 30
0.0
 11
108.6496422975
 21
452.7740067018
 31
0.0
  0
LINE
  5
164
330
73
100
AcDbEntity
  8
$DDT_AUDIT_GENERATED_(B7)
  6
Continuous
 62
     7
100
AcDbLine
 10
108.6496422975
 20
452.7740067018
 30
0.0
 11
108.6496422975
 21
452.8958760452
 31
0.0
  0
LINE
  5
165
330
73
100
AcDbEntity
  8
$DDT_AUDIT_GENERATED_(B7)
  6
Continuous
 62
     7
100
AcDbLine
 10
108.6496422975
 20
452.8958760452
 30
0.0
 11
109.6496422975
 21
452.8958760452
 31
0.0
  0
LINE
  5
166
330
73
100
AcDbEntity
  8
$DDT_AUDIT_GENERATED_(B7)
  6
Continuous
 62
     7
100
AcDbLine
 10
109.6496422975
 20
452.8958760452
 30
0.0
 11
109.6496422975
 21
452.7740067018
 31
0.0
  0
ELLIPSE
  5
167
330
73
100
AcDbEntity
  8
$DDT_AUDIT_GENERATED_(B7)
  6
Continuous
 62
     7
100
AcDbEllipse
 10
116.3496424512
 20
453.1274278087
 30
0.0
 11
-8.250000155452469
 21
-9.675149570398389E-9
 31
0.0
210
0.0
220
0.0
230
1.0
 40
0.1218693428
 41
0.5201031985276405
 42
0.548270629041815
  0
LINE
  5
168
330
73
100
AcDbEntity
  8
$DDT_AUDIT_GENERATED_(B7)
  6
Continuous
 62
     7
100
AcDbLine
 10
108.7042188298
 20
452.7496328331
 30
0.0
 11
109.6496422975
 21
452.7496328331
 31
0.0
  0
LINE
  5
169
330
73
100
AcDbEntity
  8
$DDT_AUDIT_GENERATED_(B7)
  6
Continuous
 62
     7
100
AcDbLine
 10
109.6496422975
 20
452.7496328331
 30
0.0
 11
109.6496422975
 21
452.6277634897
 31
0.0
  0
LINE
  5
16A
330
73
100
AcDbEntity
  8
$DDT_AUDIT_GENERATED_(B7)
  6
Continuous
 62
     7
100
AcDbLine
 10
109.6496422975
 20
452.6277634897
 30
0.0
 11
109.1905571604
 21
452.6277634897
 31
0.0
  0
LINE
  5
16B
330
73
100
AcDbEntity
  8
$DDT_AUDIT_GENERATED_(B7)
  6
Continuous
 62
     7
100
AcDbLine
 10
109.1905571604
 20
452.6277634897
 30
0.0
 11
109.1905571604
 21
452.7496328331
 31
0.0
  0
ELLIPSE
  5
16C
330
73
100
AcDbEntity
  8
$DDT_AUDIT_GENERATED_(B7)
  6
Continuous
 62
     7
100
AcDbEllipse
 10
116.3496423165
 20
453.1274277994
 30
0.0
 11
-8.250000019517058
 21
-1.412481243079355E-9
 31
0.0
210
0.0
220
0.0
230
1.0
 40
0.1218693434
 41
0.6230179591392538
 42
0.6634394334951823
  0
LINE
  5
16D
330
73
100
AcDbEntity
  8
$DDT_AUDIT_GENERATED_(B7)
  6
Continuous
 62
     7
100
AcDbLine
 10
109.3088681923
 20
452.603389621
 30
0.0
 11
109.6496422975
 21
452.603389621
 31
0.0
  0
LINE
  5
16E
330
73
100
AcDbEntity
  8
$DDT_AUDIT_GENERATED_(B7)
  6
Continuous
 62
     7
100
AcDbLine
 10
109.6496422975
 20
452.603389621
 30
0.0
 11
109.6496422975
 21
452.5407753098
 31
0.0
  0
LINE
  5
16F
330
73
100
AcDbEntity
  8
$DDT_AUDIT_GENERATED_(B7)
  6
Continuous
 62
     7
100
AcDbLine
 10
108.4496422975
 20
452.9208989256
 30
0.0
 11
108.4496422975
 21
452.9202499138
 31
0.0
  0
LINE
  5
170
330
73
100
AcDbEntity
  8
$DDT_AUDIT_GENERATED_(B7)
  6
Continuous
 62
     7
100
AcDbLine
 10
108.4496422975
 20
452.9202499138
 30
0.0
 11
108.4480415582
 21
452.9202499138
 31
0.0
  0
ELLIPSE
  5
171
330
73
100
AcDbEntity
  8
$DDT_AUDIT_GENERATED_(B7)
  6
Continuous
 62
     7
100
AcDbEllipse
 10
116.349642298
 20
453.1274277977
 30
0.0
 11
-8.250000000513836
 21
-2.131454734932703E-11
 31
0.0
210
0.0
220
0.0
230
1.0
 40
0.1218693434
 41
0.2923273931443167
 42
0.3852141216499905
  0
LINE
  5
172
330
73
100
AcDbEntity
  8
$DDT_AUDIT_GENERATED_(B7)
  6
Continuous
 62
     7
100
AcDbLine
 10
108.3907376286
 20
452.8958760452
 30
0.0
 11
108.4496422975
 21
452.8958760452
 31
0.0
  0
LINE
  5
173
330
73
100
AcDbEntity
  8
$DDT_AUDIT_GENERATED_(B7)
  6
Continuous
 62
     7
100
AcDbLine
 10
108.4496422975
 20
452.8958760452
 30
0.0
 11
108.4496422975
 21
452.8376835939
 31
0.0
  0
LINE
  5
174
330
73
100
AcDbEntity
  8
$DDT_AUDIT_GENERATED_(B7)
  6
Continuous
 62
     7
100
AcDbLine
 10
115.8496422975
 20
453.1883624693
 30
0.0
 11
116.8496422975
 21
453.1883624693
 31
0.0
  0
LINE
  5
175
330
73
100
AcDbEntity
  8
$DDT_AUDIT_GENERATED_(B7)
  6
Continuous
 62
     7
100
AcDbLine
 10
115.8496422975
 20
453.212736338
 30
0.0
 11
115.8496422975
 21
453.3346056814
 31
0.0
  0
LINE
  5
176
330
73
100
AcDbEntity
  8
$DDT_AUDIT_GENERATED_(B7)
  6
Continuous
 62
     7
100
AcDbLine
 10
115.8496422975
 20
453.3346056814
 30
0.0
 11
116.8496422975
 21
453.3346056814
 31
0.0
  0
LINE
  5
177
330
73
100
AcDbEntity
  8
$DDT_AUDIT_GENERATED_(B7)
  6
Continuous
 62
     7
100
AcDbLine
 10
116.8496422975
 20
453.212736338
 30
0.0
 11
115.8496422975
 21
453.212736338
 31
0.0
  0
LINE
  5
178
330
73
100
AcDbEntity
  8
$DDT_AUDIT_GENERATED_(B7)
  6
Continuous
 62
     7
100
AcDbLine
 10
115.8496422975
 20
453.3589795501
 30
0.0
 11
115.8496422975
 21
453.4808488935
 31
0.0
  0
LINE
  5
179
330
73
100
AcDbEntity
  8
$DDT_AUDIT_GENERATED_(B7)
  6
Continuous
 62
     7
100
AcDbLine
 10
115.8496422975
 20
453.4808488935
 30
0.0
 11
116.8496422975
 21
453.4808488935
 31
0.0
  0
LINE
  5
17A
330
73
100
AcDbEntity
  8
$DDT_AUDIT_GENERATED_(B7)
  6
Continuous
 62
     7
100
AcDbLine
 10
116.8496422975
 20
453.3589795501
 30
0.0
 11
115.8496422975
 21
453.3589795501
 31
0.0
  0
LINE
  5
17B
330
73
100
AcDbEntity
  8
$DDT_AUDIT_GENERATED_(B7)
  6
Continuous
 62
     7
100
AcDbLine
 10
115.8496422975
 20
453.5052227622
 30
0.0
 11
115.8496422975
 21
453.6270921056
 31
0.0
  0
LINE
  5
17C
330
73
100
AcDbEntity
  8
$DDT_AUDIT_GENERATED_(B7)
  6
Continuous
 62
     7
100
AcDbLine
 10
115.8496422975
 20
453.6270921056
 30
0.0
 11
116.8496422975
 21
453.6270921056
 31
0.0
  0
LINE
  5
17D
330
73
100
AcDbEntity
  8
$DDT_AUDIT_GENERATED_(B7)
  6
Continuous
 62
     7
100
AcDbLine
 10
116.8496422975
 20
453.5052227622
 30
0.0
 11
115.8496422975
 21
453.5052227622
 31
0.0
  0
LINE
  5
17E
330
73
100
AcDbEntity
  8
$DDT_AUDIT_GENERATED_(B7)
  6
Continuous
 62
     7
100
AcDbLine
 10
114.6496422975
 20
453.1883624693
 30
0.0
 11
115.6496422975
 21
453.1883624693
 31
0.0
  0
LINE
  5
17F
330
73
100
AcDbEntity
  8
$DDT_AUDIT_GENERATED_(B7)
  6
Continuous
 62
     7
100
AcDbLine
 10
114.6496422975
 20
453.212736338
 30
0.0
 11
114.6496422975
 21
453.3346056814
 31
0.0
  0
LINE
  5
180
330
73
100
AcDbEntity
  8
$DDT_AUDIT_GENERATED_(B7)
  6
Continuous
 62
     7
100
AcDbLine
 10
114.6496422975
 20
453.3346056814
 30
0.0
 11
115.6496422975
 21
453.3346056814
 31
0.0
  0
LINE
  5
181
330
73
100
AcDbEntity
  8
$DDT_AUDIT_GENERATED_(B7)
  6
Continuous
 62
     7
100
AcDbLine
 10
115.6496422975
 20
453.3346056814
 30
0.0
 11
115.6496422975
 21
453.212736338
 31
0.0
  0
LINE
  5
182
330
73
100
AcDbEntity
  8
$DDT_AUDIT_GENERATED_(B7)
  6
Continuous
 62
     7
100
AcDbLine
 10
115.6496422975
 20
453.212736338
 30
0.0
 11
114.6496422975
 21
453.212736338
 31
0.0
  0
LINE
  5
183
330
73
100
AcDbEntity
  8
$DDT_AUDIT_GENERATED_(B7)
  6
Continuous
 62
     7
100
AcDbLine
 10
114.6496422975
 20
453.3589795501
 30
0.0
 11
114.6496422975
 21
453.4808488935
 31
0.0
  0
LINE
  5
184
330
73
100
AcDbEntity
  8
$DDT_AUDIT_GENERATED_(B7)
  6
Continuous
 62
     7
100
AcDbLine
 10
114.6496422975
 20
453.4808488935
 30
0.0
 11
115.6496422975
 21
453.4808488935
 31
0.0
  0
LINE
  5
185
330
73
100
AcDbEntity
  8
$DDT_AUDIT_GENERATED_(B7)
  6
Continuous
 62
     7
100
AcDbLine
 10
115.6496422975
 20
453.4808488935
 30
0.0
 11
115.6496422975
 21
453.3589795501
 31
0.0
  0
LINE
  5
186
330
73
100
AcDbEntity
  8
$DDT_AUDIT_GENERATED_(B7)
  6
Continuous
 62
     7
100
AcDbLine
 10
115.6496422975
 20
453.3589795501
 30
0.0
 11
114.6496422975
 21
453.3589795501
 31
0.0
  0
LINE
  5
187
330
73
100
AcDbEntity
  8
$DDT_AUDIT_GENERATED_(B7)
  6
Continuous
 62
     7
100
AcDbLine
 10
114.6496422975
 20
453.5052227622
 30
0.0
 11
114.6496422975
 21
453.6149996738
 31
0.0
  0
LINE
  5
188
330
73
100
AcDbEntity
  8
$DDT_AUDIT_GENERATED_(B7)
  6
Continuous
 62
     7
100
AcDbLine
 10
115.2191181002
 20
453.6270921056
 30
0.0
 11
115.6496422975
 21
453.6270921056
 31
0.0
  0
LINE
  5
189
330
73
100
AcDbEntity
  8
$DDT_AUDIT_GENERATED_(B7)
  6
Continuous
 62
     7
100
AcDbLine
 10
115.6496422975
 20
453.6270921056
 30
0.0
 11
115.6496422975
 21
453.5052227622
 31
0.0
  0
LINE
  5
18A
330
73
100
AcDbEntity
  8
$DDT_AUDIT_GENERATED_(B7)
  6
Continuous
 62
     7
100
AcDbLine
 10
115.6496422975
 20
453.5052227622
 30
0.0
 11
114.6496422975
 21
453.5052227622
 31
0.0
  0
LINE
  5
18B
330
73
100
AcDbEntity
  8
$DDT_AUDIT_GENERATED_(B7)
  6
Continuous
 62
     7
100
AcDbLine
 10
113.4496422975
 20
453.1883624693
 30
0.0
 11
114.4496422975
 21
453.1883624693
 31
0.0
  0
LINE
  5
18C
330
73
100
AcDbEntity
  8
$DDT_AUDIT_GENERATED_(B7)
  6
Continuous
 62
     7
100
AcDbLine
 10
113.4496422975
 20
453.212736338
 30
0.0
 11
113.4496422975
 21
453.3346056814
 31
0.0
  0
LINE
  5
18D
330
73
100
AcDbEntity
  8
$DDT_AUDIT_GENERATED_(B7)
  6
Continuous
 62
     7
100
AcDbLine
 10
113.4496422975
 20
453.3346056814
 30
0.0
 11
114.4496422975
 21
453.3346056814
 31
0.0
  0
LINE
  5
18E
330
73
100
AcDbEntity
  8
$DDT_AUDIT_GENERATED_(B7)
  6
Continuous
 62
     7
100
AcDbLine
 10
114.4496422975
 20
453.3346056814
 30
0.0
 11
114.4496422975
 21
453.212736338
 31
0.0
  0
LINE
  5
18F
330
73
100
AcDbEntity
  8
$DDT_AUDIT_GENERATED_(B7)
  6
Continuous
 62
     7
100
AcDbLine
 10
114.4496422975
 20
453.212736338
 30
0.0
 11
113.4496422975
 21
453.212736338
 31
0.0
  0
LINE
  5
190
330
73
100
AcDbEntity
  8
$DDT_AUDIT_GENERATED_(B7)
  6
Continuous
 62
     7
100
AcDbLine
 10
113.4496422975
 20
453.3589795501
 30
0.0
 11
113.4496422975
 21
453.4808488935
 31
0.0
  0
LINE
  5
191
330
73
100
AcDbEntity
  8
$DDT_AUDIT_GENERATED_(B7)
  6
Continuous
 62
     7
100
AcDbLine
 10
113.4496422975
 20
453.4808488935
 30
0.0
 11
114.4496422975
 21
453.4808488935
 31
0.0
  0
LINE
  5
192
330
73
100
AcDbEntity
  8
$DDT_AUDIT_GENERATED_(B7)
  6
Continuous
 62
     7
100
AcDbLine
 10
114.4496422975
 20
453.4808488935
 30
0.0
 11
114.4496422975
 21
453.3589795501
 31
0.0
  0
LINE
  5
193
330
73
100
AcDbEntity
  8
$DDT_AUDIT_GENERATED_(B7)
  6
Continuous
 62
     7
100
AcDbLine
 10
114.4496422975
 20
453.3589795501
 30
0.0
 11
113.4496422975
 21
453.3589795501
 31
0.0
  0
LINE
  5
194
330
73
100
AcDbEntity
  8
$DDT_AUDIT_GENERATED_(B7)
  6
Continuous
 62
     7
100
AcDbLine
 10
113.4496422975
 20
453.5052227622
 30
0.0
 11
113.4496422975
 21
453.5724129723
 31
0.0
  0
LINE
  5
195
330
73
100
AcDbEntity
  8
$DDT_AUDIT_GENERATED_(B7)
  6
Continuous
 62
     7
100
AcDbLine
 10
114.4496422975
 20
453.6095500157
 30
0.0
 11
114.4496422975
 21
453.5052227622
 31
0.0
  0
LINE
  5
196
330
73
100
AcDbEntity
  8
$DDT_AUDIT_GENERATED_(B7)
  6
Continuous
 62
     7
100
AcDbLine
 10
114.4496422975
 20
453.5052227622
 30
0.0
 11
113.4496422975
 21
453.5052227622
 31
0.0
  0
LINE
  5
197
330
73
100
AcDbEntity
  8
$DDT_AUDIT_GENERATED_(B7)
  6
Continuous
 62
     7
100
AcDbLine
 10
112.2496422975
 20
453.1883624693
 30
0.0
 11
113.2496422975
 21
453.1883624693
 31
0.0
  0
LINE
  5
198
330
73
100
AcDbEntity
  8
$DDT_AUDIT_GENERATED_(B7)
  6
Continuous
 62
     7
100
AcDbLine
 10
112.2496422975
 20
453.212736338
 30
0.0
 11
112.2496422975
 21
453.3346056814
 31
0.0
  0
LINE
  5
199
330
73
100
AcDbEntity
  8
$DDT_AUDIT_GENERATED_(B7)
  6
Continuous
 62
     7
100
AcDbLine
 10
112.2496422975
 20
453.3346056814
 30
0.0
 11
113.2496422975
 21
453.3346056814
 31
0.0
  0
LINE
  5
19A
330
73
100
AcDbEntity
  8
$DDT_AUDIT_GENERATED_(B7)
  6
Continuous
 62
     7
100
AcDbLine
 10
113.2496422975
 20
453.3346056814
 30
0.0
 11
113.2496422975
 21
453.212736338
 31
0.0
  0
LINE
  5
19B
330
73
100
AcDbEntity
  8
$DDT_AUDIT_GENERATED_(B7)
  6
Continuous
 62
     7
100
AcDbLine
 10
113.2496422975
 20
453.212736338
 30
0.0
 11
112.2496422975
 21
453.212736338
 31
0.0
  0
LINE
  5
19C
330
73
100
AcDbEntity
  8
$DDT_AUDIT_GENERATED_(B7)
  6
Continuous
 62
     7
100
AcDbLine
 10
112.2496422975
 20
453.3589795501
 30
0.0
 11
112.2496422975
 21
453.4808488935
 31
0.0
  0
LINE
  5
19D
330
73
100
AcDbEntity
  8
$DDT_AUDIT_GENERATED_(B7)
  6
Continuous
 62
     7
100
AcDbLine
 10
112.2496422975
 20
453.4808488935
 30
0.0
 11
113.2496422975
 21
453.4808488935
 31
0.0
  0
LINE
  5
19E
330
73
100
AcDbEntity
  8
$DDT_AUDIT_GENERATED_(B7)
  6
Continuous
 62
     7
100
AcDbLine
 10
113.2496422975
 20
453.4808488935
 30
0.0
 11
113.2496422975
 21
453.3589795501
 31
0.0
  0
LINE
  5
19F
330
73
100
AcDbEntity
  8
$DDT_AUDIT_GENERATED_(B7)
  6
Continuous
 62
     7
100
AcDbLine
 10
113.2496422975
 20
453.3589795501
 30
0.0
 11
112.2496422975
 21
453.3589795501
 31
0.0
  0
LINE
  5
1A0
330
73
100
AcDbEntity
  8
$DDT_AUDIT_GENERATED_(B7)
  6
Continuous
 62
     7
100
AcDbLine
 10
113.2496422975
 20
453.5628974599
 30
0.0
 11
113.2496422975
 21
453.5052227622
 31
0.0
  0
LINE
  5
1A1
330
73
100
AcDbEntity
  8
$DDT_AUDIT_GENERATED_(B7)
  6
Continuous
 62
     7
100
AcDbLine
 10
113.2496422975
 20
453.5052227622
 30
0.0
 11
112.2725806854
 21
453.5052227622
 31
0.0
  0
LINE
  5
1A2
330
73
100
AcDbEntity
  8
$DDT_AUDIT_GENERATED_(B7)
  6
Continuous
 62
     7
100
AcDbLine
 10
111.0496422975
 20
453.1883624693
 30
0.0
 11
112.0496422975
 21
453.1883624693
 31
0.0
  0
LINE
  5
1A3
330
73
100
AcDbEntity
  8
$DDT_AUDIT_GENERATED_(B7)
  6
Continuous
 62
     7
100
AcDbLine
 10
111.0496422975
 20
453.212736338
 30
0.0
 11
111.0496422975
 21
453.3346056814
 31
0.0
  0
LINE
  5
1A4
330
73
100
AcDbEntity
  8
$DDT_AUDIT_GENERATED_(B7)
  6
Continuous
 62
     7
100
AcDbLine
 10
111.0496422975
 20
453.3346056814
 30
0.0
 11
112.0496422975
 21
453.3346056814
 31
0.0
  0
LINE
  5
1A5
330
73
100
AcDbEntity
  8
$DDT_AUDIT_GENERATED_(B7)
  6
Continuous
 62
     7
100
AcDbLine
 10
112.0496422975
 20
453.3346056814
 30
0.0
 11
112.0496422975
 21
453.212736338
 31
0.0
  0
LINE
  5
1A6
330
73
100
AcDbEntity
  8
$DDT_AUDIT_GENERATED_(B7)
  6
Continuous
 62
     7
100
AcDbLine
 10
112.0496422975
 20
453.212736338
 30
0.0
 11
111.0496422975
 21
453.212736338
 31
0.0
  0
LINE
  5
1A7
330
73
100
AcDbEntity
  8
$DDT_AUDIT_GENERATED_(B7)
  6
Continuous
 62
     7
100
AcDbLine
 10
111.0496422975
 20
453.3589795501
 30
0.0
 11
111.0496422975
 21
453.4016591285
 31
0.0
  0
LINE
  5
1A8
330
73
100
AcDbEntity
  8
$DDT_AUDIT_GENERATED_(B7)
  6
Continuous
 62
     7
100
AcDbLine
 10
111.9392794242
 20
453.4808488935
 30
0.0
 11
112.0496422975
 21
453.4808488935
 31
0.0
  0
LINE
  5
1A9
330
73
100
AcDbEntity
  8
$DDT_AUDIT_GENERATED_(B7)
  6
Continuous
 62
     7
100
AcDbLine
 10
112.0496422975
 20
453.4808488935
 30
0.0
 11
112.0496422975
 21
453.3589795501
 31
0.0
  0
LINE
  5
1AA
330
73
100
AcDbEntity
  8
$DDT_AUDIT_GENERATED_(B7)
  6
Continuous
 62
     7
100
AcDbLine
 10
112.0496422975
 20
453.3589795501
 30
0.0
 11
111.0496422975
 21
453.3589795501
 31
0.0
  0
LINE
  5
1AB
330
73
100
AcDbEntity
  8
$DDT_AUDIT_GENERATED_(B7)
  6
Continuous
 62
     7
100
AcDbLine
 10
109.8496422975
 20
453.1883624693
 30
0.0
 11
110.8496422975
 21
453.1883624693
 31
0.0
  0
LINE
  5
1AC
330
73
100
AcDbEntity
  8
$DDT_AUDIT_GENERATED_(B7)
  6
Continuous
 62
     7
100
AcDbLine
 10
109.8496422975
 20
453.212736338
 30
0.0
 11
109.8496422975
 21
453.2503241516
 31
0.0
  0
LINE
  5
1AD
330
73
100
AcDbEntity
  8
$DDT_AUDIT_GENERATED_(B7)
  6
Continuous
 62
     7
100
AcDbLine
 10
110.4551943685
 20
453.3346056814
 30
0.0
 11
110.8496422975
 21
453.3346056814
 31
0.0
  0
LINE
  5
1AE
330
73
100
AcDbEntity
  8
$DDT_AUDIT_GENERATED_(B7)
  6
Continuous
 62
     7
100
AcDbLine
 10
110.8496422975
 20
453.3346056814
 30
0.0
 11
110.8496422975
 21
453.212736338
 31
0.0
  0
LINE
  5
1AF
330
73
100
AcDbEntity
  8
$DDT_AUDIT_GENERATED_(B7)
  6
Continuous
 62
     7
100
AcDbLine
 10
110.8496422975
 20
453.212736338
 30
0.0
 11
109.8496422975
 21
453.212736338
 31
0.0
  0
LINE
  5
1B0
330
73
100
AcDbEntity
  8
$DDT_AUDIT_GENERATED_(B7)
  6
Continuous
 62
     7
100
AcDbLine
 10
110.8496422975
 20
453.3805520964
 30
0.0
 11
110.8496422975
 21
453.3589795501
 31
0.0
  0
LINE
  5
1B1
330
73
100
AcDbEntity
  8
$DDT_AUDIT_GENERATED_(B7)
  6
Continuous
 62
     7
100
AcDbLine
 10
110.8496422975
 20
453.3589795501
 30
0.0
 11
110.6579248851
 21
453.3589795501
 31
0.0
  0
LINE
  5
1B2
330
73
100
AcDbEntity
  8
$DDT_AUDIT_GENERATED_(B7)
  6
Continuous
 62
     7
100
AcDbLine
 10
109.4824935368
 20
453.1883624693
 30
0.0
 11
109.6496422975
 21
453.1883624693
 31
0.0
  0
LINE
  5
1B3
330
73
100
AcDbEntity
  8
$DDT_AUDIT_GENERATED_(B7)
  6
Continuous
 62
     7
100
AcDbLine
 10
109.6496422975
 20
453.2178072096
 30
0.0
 11
109.6496422975
 21
453.212736338
 31
0.0
  0
LINE
  5
1B4
330
73
100
AcDbEntity
  8
$DDT_AUDIT_GENERATED_(B7)
  6
Continuous
 62
     7
100
AcDbLine
 10
109.6496422975
 20
453.212736338
 30
0.0
 11
109.6199422436
 21
453.212736338
 31
0.0
  0
LINE
  5
1B5
330
73
100
AcDbEntity
  8
$DDT_AUDIT_GENERATED_(B7)
  6
Continuous
 62
     7
100
AcDbLine
 10
116.8496422975
 20
453.1883624693
 30
0.0
 11
116.8496422975
 21
453.0664931259
 31
0.0
  0
LINE
  5
1B6
330
73
100
AcDbEntity
  8
$DDT_AUDIT_GENERATED_(B7)
  6
Continuous
 62
     7
100
AcDbLine
 10
117.0496422975
 20
453.1883624693
 30
0.0
 11
118.0496422975
 21
453.1883624693
 31
0.0
  0
LINE
  5
1B7
330
73
100
AcDbEntity
  8
$DDT_AUDIT_GENERATED_(B7)
  6
Continuous
 62
     7
100
AcDbLine
 10
118.0496422975
 20
453.1883624693
 30
0.0
 11
118.0496422975
 21
453.0664931259
 31
0.0
  0
LINE
  5
1B8
330
73
100
AcDbEntity
  8
$DDT_AUDIT_GENERATED_(B7)
  6
Continuous
 62
     7
100
AcDbLine
 10
117.0496422975
 20
453.0664931259
 30
0.0
 11
117.0496422975
 21
453.1883624693
 31
0.0
  0
LINE
  5
1B9
330
73
100
AcDbEntity
  8
$DDT_AUDIT_GENERATED_(B7)
  6
Continuous
 62
     7
100
AcDbLine
 10
118.2496422975
 20
453.1883624693
 30
0.0
 11
119.2496422975
 21
453.1883624693
 31
0.0
  0
LINE
  5
1BA
330
73
100
AcDbEntity
  8
$DDT_AUDIT_GENERATED_(B7)
  6
Continuous
 62
     7
100
AcDbLine
 10
119.2496422975
 20
453.1883624693
 30
0.0
 11
119.2496422975
 21
453.0664931259
 31
0.0
  0
LINE
  5
1BB
330
73
100
AcDbEntity
  8
$DDT_AUDIT_GENERATED_(B7)
  6
Continuous
 62
     7
100
AcDbLine
 10
118.2496422975
 20
453.0664931259
 30
0.0
 11
118.2496422975
 21
453.1883624693
 31
0.0
  0
LINE
  5
1BC
330
73
100
AcDbEntity
  8
$DDT_AUDIT_GENERATED_(B7)
  6
Continuous
 62
     7
100
AcDbLine
 10
119.4496422975
 20
453.1883624693
 30
0.0
 11
120.4496422975
 21
453.1883624693
 31
0.0
  0
LINE
  5
1BD
330
73
100
AcDbEntity
  8
$DDT_AUDIT_GENERATED_(B7)
  6
Continuous
 62
     7
100
AcDbLine
 10
120.4496422975
 20
453.1883624693
 30
0.0
 11
120.4496422975
 21
453.0664931259
 31
0.0
  0
LINE
  5
1BE
330
73
100
AcDbEntity
  8
$DDT_AUDIT_GENERATED_(B7)
  6
Continuous
 62
     7
100
AcDbLine
 10
119.4496422975
 20
453.0664931259
 30
0.0
 11
119.4496422975
 21
453.1883624693
 31
0.0
  0
LINE
  5
1BF
330
73
100
AcDbEntity
  8
$DDT_AUDIT_GENERATED_(B7)
  6
Continuous
 62
     7
100
AcDbLine
 10
120.6496422975
 20
453.1883624693
 30
0.0
 11
121.6496422975
 21
453.1883624693
 31
0.0
  0
LINE
  5
1C0
330
73
100
AcDbEntity
  8
$DDT_AUDIT_GENERATED_(B7)
  6
Continuous
 62
     7
100
AcDbLine
 10
121.6496422975
 20
453.1883624693
 30
0.0
 11
121.6496422975
 21
453.0664931259
 31
0.0
  0
LINE
  5
1C1
330
73
100
AcDbEntity
  8
$DDT_AUDIT_GENERATED_(B7)
  6
Continuous
 62
     7
100
AcDbLine
 10
120.6496422975
 20
453.0664931259
 30
0.0
 11
120.6496422975
 21
453.1883624693
 31
0.0
  0
LINE
  5
1C2
330
73
100
AcDbEntity
  8
$DDT_AUDIT_GENERATED_(B7)
  6
Continuous
 62
     7
100
AcDbLine
 10
121.8496422975
 20
453.1883624693
 30
0.0
 11
122.8496422975
 21
453.1883624693
 31
0.0
  0
LINE
  5
1C3
330
73
100
AcDbEntity
  8
$DDT_AUDIT_GENERATED_(B7)
  6
Continuous
 62
     7
100
AcDbLine
 10
122.8496422975
 20
453.1883624693
 30
0.0
 11
122.8496422975
 21
453.0664931259
 31
0.0
  0
LINE
  5
1C4
330
73
100
AcDbEntity
  8
$DDT_AUDIT_GENERATED_(B7)
  6
Continuous
 62
     7
100
AcDbLine
 10
121.8496422975
 20
453.0664931259
 30
0.0
 11
121.8496422975
 21
453.1883624693
 31
0.0
  0
LINE
  5
1C5
330
73
100
AcDbEntity
  8
$DDT_AUDIT_GENERATED_(B7)
  6
Continuous
 62
     7
100
AcDbLine
 10
123.0496422975
 20
453.1883624693
 30
0.0
 11
123.2167910582
 21
453.1883624693
 31
0.0
  0
LINE
  5
1C6
330
73
100
AcDbEntity
  8
$DDT_AUDIT_GENERATED_(B7)
  6
Continuous
 62
     7
100
AcDbLine
 10
123.0496422975
 20
453.0664931259
 30
0.0
 11
123.0496422975
 21
453.1883624693
 31
0.0
  0
LINE
  5
1C7
330
73
100
AcDbEntity
  8
$DDT_AUDIT_GENERATED_(B7)
  6
Continuous
 62
     7
100
AcDbLine
 10
116.8496422975
 20
453.3346056814
 30
0.0
 11
116.8496422975
 21
453.212736338
 31
0.0
  0
LINE
  5
1C8
330
73
100
AcDbEntity
  8
$DDT_AUDIT_GENERATED_(B7)
  6
Continuous
 62
     7
100
AcDbLine
 10
117.0496422975
 20
453.3346056814
 30
0.0
 11
118.0496422975
 21
453.3346056814
 31
0.0
  0
LINE
  5
1C9
330
73
100
AcDbEntity
  8
$DDT_AUDIT_GENERATED_(B7)
  6
Continuous
 62
     7
100
AcDbLine
 10
118.0496422975
 20
453.3346056814
 30
0.0
 11
118.0496422975
 21
453.212736338
 31
0.0
  0
LINE
  5
1CA
330
73
100
AcDbEntity
  8
$DDT_AUDIT_GENERATED_(B7)
  6
Continuous
 62
     7
100
AcDbLine
 10
118.0496422975
 20
453.212736338
 30
0.0
 11
117.0496422975
 21
453.212736338
 31
0.0
  0
LINE
  5
1CB
330
73
100
AcDbEntity
  8
$DDT_AUDIT_GENERATED_(B7)
  6
Continuous
 62
     7
100
AcDbLine
 10
117.0496422975
 20
453.212736338
 30
0.0
 11
117.0496422975
 21
453.3346056814
 31
0.0
  0
LINE
  5
1CC
330
73
100
AcDbEntity
  8
$DDT_AUDIT_GENERATED_(B7)
  6
Continuous
 62
     7
100
AcDbLine
 10
118.2496422975
 20
453.3346056814
 30
0.0
 11
119.2496422975
 21
453.3346056814
 31
0.0
  0
LINE
  5
1CD
330
73
100
AcDbEntity
  8
$DDT_AUDIT_GENERATED_(B7)
  6
Continuous
 62
     7
100
AcDbLine
 10
119.2496422975
 20
453.3346056814
 30
0.0
 11
119.2496422975
 21
453.212736338
 31
0.0
  0
LINE
  5
1CE
330
73
100
AcDbEntity
  8
$DDT_AUDIT_GENERATED_(B7)
  6
Continuous
 62
     7
100
AcDbLine
 10
119.2496422975
 20
453.212736338
 30
0.0
 11
118.2496422975
 21
453.212736338
 31
0.0
  0
LINE
  5
1CF
330
73
100
AcDbEntity
  8
$DDT_AUDIT_GENERATED_(B7)
  6
Continuous
 62
     7
100
AcDbLine
 10
118.2496422975
 20
453.212736338
 30
0.0
 11
118.2496422975
 21
453.3346056814
 31
0.0
  0
LINE
  5
1D0
330
73
100
AcDbEntity
  8
$DDT_AUDIT_GENERATED_(B7)
  6
Continuous
 62
     7
100
AcDbLine
 10
119.4496422975
 20
453.3346056814
 30
0.0
 11
120.4496422975
 21
453.3346056814
 31
0.0
  0
LINE
  5
1D1
330
73
100
AcDbEntity
  8
$DDT_AUDIT_GENERATED_(B7)
  6
Continuous
 62
     7
100
AcDbLine
 10
120.4496422975
 20
453.3346056814
 30
0.0
 11
120.4496422975
 21
453.212736338
 31
0.0
  0
LINE
  5
1D2
330
73
100
AcDbEntity
  8
$DDT_AUDIT_GENERATED_(B7)
  6
Continuous
 62
     7
100
AcDbLine
 10
120.4496422975
 20
453.212736338
 30
0.0
 11
119.4496422975
 21
453.212736338
 31
0.0
  0
LINE
  5
1D3
330
73
100
AcDbEntity
  8
$DDT_AUDIT_GENERATED_(B7)
  6
Continuous
 62
     7
100
AcDbLine
 10
119.4496422975
 20
453.212736338
 30
0.0
 11
119.4496422975
 21
453.3346056814
 31
0.0
  0
LINE
  5
1D4
330
73
100
AcDbEntity
  8
$DDT_AUDIT_GENERATED_(B7)
  6
Continuous
 62
     7
100
AcDbLine
 10
120.6496422975
 20
453.3346056814
 30
0.0
 11
121.6496422975
 21
453.3346056814
 31
0.0
  0
LINE
  5
1D5
330
73
100
AcDbEntity
  8
$DDT_AUDIT_GENERATED_(B7)
  6
Continuous
 62
     7
100
AcDbLine
 10
121.6496422975
 20
453.3346056814
 30
0.0
 11
121.6496422975
 21
453.212736338
 31
0.0
  0
LINE
  5
1D6
330
73
100
AcDbEntity
  8
$DDT_AUDIT_GENERATED_(B7)
  6
Continuous
 62
     7
100
AcDbLine
 10
121.6496422975
 20
453.212736338
 30
0.0
 11
120.6496422975
 21
453.212736338
 31
0.0
  0
LINE
  5
1D7
330
73
100
AcDbEntity
  8
$DDT_AUDIT_GENERATED_(B7)
  6
Continuous
 62
     7
100
AcDbLine
 10
120.6496422975
 20
453.212736338
 30
0.0
 11
120.6496422975
 21
453.3346056814
 31
0.0
  0
LINE
  5
1D8
330
73
100
AcDbEntity
  8
$DDT_AUDIT_GENERATED_(B7)
  6
Continuous
 62
     7
100
AcDbLine
 10
121.8496422975
 20
453.3346056814
 30
0.0
 11
122.2440902265
 21
453.3346056814
 31
0.0
  0
LINE
  5
1D9
330
73
100
AcDbEntity
  8
$DDT_AUDIT_GENERATED_(B7)
  6
Continuous
 62
     7
100
AcDbLine
 10
122.8496422975
 20
453.2503241516
 30
0.0
 11
122.8496422975
 21
453.212736338
 31
0.0
  0
LINE
  5
1DA
330
73
100
AcDbEntity
  8
$DDT_AUDIT_GENERATED_(B7)
  6
Continuous
 62
     7
100
AcDbLine
 10
122.8496422975
 20
453.212736338
 30
0.0
 11
121.8496422975
 21
453.212736338
 31
0.0
  0
LINE
  5
1DB
330
73
100
AcDbEntity
  8
$DDT_AUDIT_GENERATED_(B7)
  6
Continuous
 62
     7
100
AcDbLine
 10
121.8496422975
 20
453.212736338
 30
0.0
 11
121.8496422975
 21
453.3346056814
 31
0.0
  0
LINE
  5
1DC
330
73
100
AcDbEntity
  8
$DDT_AUDIT_GENERATED_(B7)
  6
Continuous
 62
     7
100
AcDbLine
 10
123.0793423514
 20
453.212736338
 30
0.0
 11
123.0496422975
 21
453.212736338
 31
0.0
  0
LINE
  5
1DD
330
73
100
AcDbEntity
  8
$DDT_AUDIT_GENERATED_(B7)
  6
Continuous
 62
     7
100
AcDbLine
 10
123.0496422975
 20
453.212736338
 30
0.0
 11
123.0496422975
 21
453.2178072096
 31
0.0
  0
LINE
  5
1DE
330
73
100
AcDbEntity
  8
$DDT_AUDIT_GENERATED_(B7)
  6
Continuous
 62
     7
100
AcDbLine
 10
116.8496422975
 20
453.4808488935
 30
0.0
 11
116.8496422975
 21
453.3589795501
 31
0.0
  0
LINE
  5
1DF
330
73
100
AcDbEntity
  8
$DDT_AUDIT_GENERATED_(B7)
  6
Continuous
 62
     7
100
AcDbLine
 10
117.0496422975
 20
453.4808488935
 30
0.0
 11
118.0496422975
 21
453.4808488935
 31
0.0
  0
LINE
  5
1E0
330
73
100
AcDbEntity
  8
$DDT_AUDIT_GENERATED_(B7)
  6
Continuous
 62
     7
100
AcDbLine
 10
118.0496422975
 20
453.4808488935
 30
0.0
 11
118.0496422975
 21
453.3589795501
 31
0.0
  0
LINE
  5
1E1
330
73
100
AcDbEntity
  8
$DDT_AUDIT_GENERATED_(B7)
  6
Continuous
 62
     7
100
AcDbLine
 10
118.0496422975
 20
453.3589795501
 30
0.0
 11
117.0496422975
 21
453.3589795501
 31
0.0
  0
LINE
  5
1E2
330
73
100
AcDbEntity
  8
$DDT_AUDIT_GENERATED_(B7)
  6
Continuous
 62
     7
100
AcDbLine
 10
117.0496422975
 20
453.3589795501
 30
0.0
 11
117.0496422975
 21
453.4808488935
 31
0.0
  0
LINE
  5
1E3
330
73
100
AcDbEntity
  8
$DDT_AUDIT_GENERATED_(B7)
  6
Continuous
 62
     7
100
AcDbLine
 10
118.2496422975
 20
453.4808488935
 30
0.0
 11
119.2496422975
 21
453.4808488935
 31
0.0
  0
LINE
  5
1E4
330
73
100
AcDbEntity
  8
$DDT_AUDIT_GENERATED_(B7)
  6
Continuous
 62
     7
100
AcDbLine
 10
119.2496422975
 20
453.4808488935
 30
0.0
 11
119.2496422975
 21
453.3589795501
 31
0.0
  0
LINE
  5
1E5
330
73
100
AcDbEntity
  8
$DDT_AUDIT_GENERATED_(B7)
  6
Continuous
 62
     7
100
AcDbLine
 10
119.2496422975
 20
453.3589795501
 30
0.0
 11
118.2496422975
 21
453.3589795501
 31
0.0
  0
LINE
  5
1E6
330
73
100
AcDbEntity
  8
$DDT_AUDIT_GENERATED_(B7)
  6
Continuous
 62
     7
100
AcDbLine
 10
118.2496422975
 20
453.3589795501
 30
0.0
 11
118.2496422975
 21
453.4808488935
 31
0.0
  0
LINE
  5
1E7
330
73
100
AcDbEntity
  8
$DDT_AUDIT_GENERATED_(B7)
  6
Continuous
 62
     7
100
AcDbLine
 10
119.4496422975
 20
453.4808488935
 30
0.0
 11
120.4496422975
 21
453.4808488935
 31
0.0
  0
LINE
  5
1E8
330
73
100
AcDbEntity
  8
$DDT_AUDIT_GENERATED_(B7)
  6
Continuous
 62
     7
100
AcDbLine
 10
120.4496422975
 20
453.4808488935
 30
0.0
 11
120.4496422975
 21
453.3589795501
 31
0.0
  0
LINE
  5
1E9
330
73
100
AcDbEntity
  8
$DDT_AUDIT_GENERATED_(B7)
  6
Continuous
 62
     7
100
AcDbLine
 10
120.4496422975
 20
453.3589795501
 30
0.0
 11
119.4496422975
 21
453.3589795501
 31
0.0
  0
LINE
  5
1EA
330
73
100
AcDbEntity
  8
$DDT_AUDIT_GENERATED_(B7)
  6
Continuous
 62
     7
100
AcDbLine
 10
119.4496422975
 20
453.3589795501
 30
0.0
 11
119.4496422975
 21
453.4808488935
 31
0.0
  0
LINE
  5
1EB
330
73
100
AcDbEntity
  8
$DDT_AUDIT_GENERATED_(B7)
  6
Continuous
 62
     7
100
AcDbLine
 10
120.6496422975
 20
453.4808488935
 30
0.0
 11
120.7600051708
 21
453.4808488935
 31
0.0
  0
LINE
  5
1EC
330
73
100
AcDbEntity
  8
$DDT_AUDIT_GENERATED_(B7)
  6
Continuous
 62
     7
100
AcDbLine
 10
121.6496422975
 20
453.4016591285
 30
0.0
 11
121.6496422975
 21
453.3589795501
 31
0.0
  0
LINE
  5
1ED
330
73
100
AcDbEntity
  8
$DDT_AUDIT_GENERATED_(B7)
  6
Continuous
 62
     7
100
AcDbLine
 10
121.6496422975
 20
453.3589795501
 30
0.0
 11
120.6496422975
 21
453.3589795501
 31
0.0
  0
LINE
  5
1EE
330
73
100
AcDbEntity
  8
$DDT_AUDIT_GENERATED_(B7)
  6
Continuous
 62
     7
100
AcDbLine
 10
120.6496422975
 20
453.3589795501
 30
0.0
 11
120.6496422975
 21
453.4808488935
 31
0.0
  0
LINE
  5
1EF
330
73
100
AcDbEntity
  8
$DDT_AUDIT_GENERATED_(B7)
  6
Continuous
 62
     7
100
AcDbLine
 10
122.0413597098
 20
453.3589795501
 30
0.0
 11
121.8496422975
 21
453.3589795501
 31
0.0
  0
LINE
  5
1F0
330
73
100
AcDbEntity
  8
$DDT_AUDIT_GENERATED_(B7)
  6
Continuous
 62
     7
100
AcDbLine
 10
121.8496422975
 20
453.3589795501
 30
0.0
 11
121.8496422975
 21
453.3805520964
 31
0.0
  0
LINE
  5
1F1
330
73
100
AcDbEntity
  8
$DDT_AUDIT_GENERATED_(B7)
  6
Continuous
 62
     7
100
AcDbLine
 10
116.8496422975
 20
453.6270921056
 30
0.0
 11
116.8496422975
 21
453.5052227622
 31
0.0
  0
LINE
  5
1F2
330
73
100
AcDbEntity
  8
$DDT_AUDIT_GENERATED_(B7)
  6
Continuous
 62
     7
100
AcDbLine
 10
117.0496422975
 20
453.6270921056
 30
0.0
 11
117.4801664947
 21
453.6270921056
 31
0.0
  0
LINE
  5
1F3
330
73
100
AcDbEntity
  8
$DDT_AUDIT_GENERATED_(B7)
  6
Continuous
 62
     7
100
AcDbLine
 10
118.0496422975
 20
453.6149996738
 30
0.0
 11
118.0496422975
 21
453.5052227622
 31
0.0
  0
LINE
  5
1F4
330
73
100
AcDbEntity
  8
$DDT_AUDIT_GENERATED_(B7)
  6
Continuous
 62
     7
100
AcDbLine
 10
118.0496422975
 20
453.5052227622
 30
0.0
 11
117.0496422975
 21
453.5052227622
 31
0.0
  0
LINE
  5
1F5
330
73
100
AcDbEntity
  8
$DDT_AUDIT_GENERATED_(B7)
  6
Continuous
 62
     7
100
AcDbLine
 10
117.0496422975
 20
453.5052227622
 30
0.0
 11
117.0496422975
 21
453.6270921056
 31
0.0
  0
LINE
  5
1F6
330
73
100
AcDbEntity
  8
$DDT_AUDIT_GENERATED_(B7)
  6
Continuous
 62
     7
100
AcDbLine
 10
119.2496422975
 20
453.5724129723
 30
0.0
 11
119.2496422975
 21
453.5052227622
 31
0.0
  0
LINE
  5
1F7
330
73
100
AcDbEntity
  8
$DDT_AUDIT_GENERATED_(B7)
  6
Continuous
 62
     7
100
AcDbLine
 10
119.2496422975
 20
453.5052227622
 30
0.0
 11
118.2496422975
 21
453.5052227622
 31
0.0
  0
LINE
  5
1F8
330
73
100
AcDbEntity
  8
$DDT_AUDIT_GENERATED_(B7)
  6
Continuous
 62
     7
100
AcDbLine
 10
118.2496422975
 20
453.5052227622
 30
0.0
 11
118.2496422975
 21
453.6095500157
 31
0.0
  0
LINE
  5
1F9
330
73
100
AcDbEntity
  8
$DDT_AUDIT_GENERATED_(B7)
  6
Continuous
 62
     7
100
AcDbLine
 10
120.4267039095
 20
453.5052227622
 30
0.0
 11
119.4496422975
 21
453.5052227622
 31
0.0
  0
LINE
  5
1FA
330
73
100
AcDbEntity
  8
$DDT_AUDIT_GENERATED_(B7)
  6
Continuous
 62
     7
100
AcDbLine
 10
119.4496422975
 20
453.5052227622
 30
0.0
 11
119.4496422975
 21
453.5628974599
 31
0.0
  0
LINE
  5
1FB
330
73
100
AcDbEntity
  8
$DDT_AUDIT_GENERATED_(B7)
  6
Continuous
 62
     7
100
AcDbLine
 10
116.8496422975
 20
453.0421192573
 30
0.0
 11
116.8496422975
 21
452.9202499138
 31
0.0
  0
LINE
  5
1FC
330
73
100
AcDbEntity
  8
$DDT_AUDIT_GENERATED_(B7)
  6
Continuous
 62
     7
100
AcDbLine
 10
116.8496422975
 20
452.8958760452
 30
0.0
 11
116.8496422975
 21
452.7740067018
 31
0.0
  0
LINE
  5
1FD
330
73
100
AcDbEntity
  8
$DDT_AUDIT_GENERATED_(B7)
  6
Continuous
 62
     7
100
AcDbLine
 10
116.8496422975
 20
452.7496328331
 30
0.0
 11
116.8496422975
 21
452.6277634897
 31
0.0
  0
LINE
  5
1FE
330
73
100
AcDbEntity
  8
$DDT_AUDIT_GENERATED_(B7)
  6
Continuous
 62
     7
100
AcDbLine
 10
116.8496422975
 20
452.603389621
 30
0.0
 11
116.8496422975
 21
452.4815202776
 31
0.0
  0
LINE
  5
1FF
330
73
100
AcDbEntity
  8
$DDT_AUDIT_GENERATED_(B7)
  6
Continuous
 62
     7
100
AcDbLine
 10
116.8496422975
 20
452.4571464089
 30
0.0
 11
116.8496422975
 21
452.3352770655
 31
0.0
  0
LINE
  5
200
330
73
100
AcDbEntity
  8
$DDT_AUDIT_GENERATED_(B7)
  6
Continuous
 62
     7
100
AcDbLine
 10
116.8496422975
 20
452.3109031968
 30
0.0
 11
116.8496422975
 21
452.1890338534
 31
0.0
  0
LINE
  5
201
330
73
100
AcDbEntity
  8
$DDT_AUDIT_GENERATED_(B7)
  6
Continuous
 62
     7
100
AcDbLine
 10
118.0496422975
 20
453.0664931259
 30
0.0
 11
117.0496422975
 21
453.0664931259
 31
0.0
  0
LINE
  5
202
330
73
100
AcDbEntity
  8
$DDT_AUDIT_GENERATED_(B7)
  6
Continuous
 62
     7
100
AcDbLine
 10
118.0496422975
 20
453.0421192573
 30
0.0
 11
118.0496422975
 21
452.9202499138
 31
0.0
  0
LINE
  5
203
330
73
100
AcDbEntity
  8
$DDT_AUDIT_GENERATED_(B7)
  6
Continuous
 62
     7
100
AcDbLine
 10
118.0496422975
 20
452.9202499138
 30
0.0
 11
117.0496422975
 21
452.9202499138
 31
0.0
  0
LINE
  5
204
330
73
100
AcDbEntity
  8
$DDT_AUDIT_GENERATED_(B7)
  6
Continuous
 62
     7
100
AcDbLine
 10
117.0496422975
 20
452.9202499138
 30
0.0
 11
117.0496422975
 21
453.0421192573
 31
0.0
  0
LINE
  5
205
330
73
100
AcDbEntity
  8
$DDT_AUDIT_GENERATED_(B7)
  6
Continuous
 62
     7
100
AcDbLine
 10
117.0496422975
 20
453.0421192573
 30
0.0
 11
118.0496422975
 21
453.0421192573
 31
0.0
  0
LINE
  5
206
330
73
100
AcDbEntity
  8
$DDT_AUDIT_GENERATED_(B7)
  6
Continuous
 62
     7
100
AcDbLine
 10
118.0496422975
 20
452.8958760452
 30
0.0
 11
118.0496422975
 21
452.7740067018
 31
0.0
  0
LINE
  5
207
330
73
100
AcDbEntity
  8
$DDT_AUDIT_GENERATED_(B7)
  6
Continuous
 62
     7
100
AcDbLine
 10
118.0496422975
 20
452.7740067018
 30
0.0
 11
117.0496422975
 21
452.7740067018
 31
0.0
  0
LINE
  5
208
330
73
100
AcDbEntity
  8
$DDT_AUDIT_GENERATED_(B7)
  6
Continuous
 62
     7
100
AcDbLine
 10
117.0496422975
 20
452.7740067018
 30
0.0
 11
117.0496422975
 21
452.8958760452
 31
0.0
  0
LINE
  5
209
330
73
100
AcDbEntity
  8
$DDT_AUDIT_GENERATED_(B7)
  6
Continuous
 62
     7
100
AcDbLine
 10
117.0496422975
 20
452.8958760452
 30
0.0
 11
118.0496422975
 21
452.8958760452
 31
0.0
  0
LINE
  5
20A
330
73
100
AcDbEntity
  8
$DDT_AUDIT_GENERATED_(B7)
  6
Continuous
 62
     7
100
AcDbLine
 10
118.0496422975
 20
452.7496328331
 30
0.0
 11
118.0496422975
 21
452.6277634897
 31
0.0
  0
LINE
  5
20B
330
73
100
AcDbEntity
  8
$DDT_AUDIT_GENERATED_(B7)
  6
Continuous
 62
     7
100
AcDbLine
 10
118.0496422975
 20
452.6277634897
 30
0.0
 11
117.0496422975
 21
452.6277634897
 31
0.0
  0
LINE
  5
20C
330
73
100
AcDbEntity
  8
$DDT_AUDIT_GENERATED_(B7)
  6
Continuous
 62
     7
100
AcDbLine
 10
117.0496422975
 20
452.6277634897
 30
0.0
 11
117.0496422975
 21
452.7496328331
 31
0.0
  0
LINE
  5
20D
330
73
100
AcDbEntity
  8
$DDT_AUDIT_GENERATED_(B7)
  6
Continuous
 62
     7
100
AcDbLine
 10
117.0496422975
 20
452.7496328331
 30
0.0
 11
118.0496422975
 21
452.7496328331
 31
0.0
  0
LINE
  5
20E
330
73
100
AcDbEntity
  8
$DDT_AUDIT_GENERATED_(B7)
  6
Continuous
 62
     7
100
AcDbLine
 10
118.0496422975
 20
452.603389621
 30
0.0
 11
118.0496422975
 21
452.4815202776
 31
0.0
  0
LINE
  5
20F
330
73
100
AcDbEntity
  8
$DDT_AUDIT_GENERATED_(B7)
  6
Continuous
 62
     7
100
AcDbLine
 10
118.0496422975
 20
452.4815202776
 30
0.0
 11
117.0496422975
 21
452.4815202776
 31
0.0
  0
LINE
  5
210
330
73
100
AcDbEntity
  8
$DDT_AUDIT_GENERATED_(B7)
  6
Continuous
 62
     7
100
AcDbLine
 10
117.0496422975
 20
452.4815202776
 30
0.0
 11
117.0496422975
 21
452.603389621
 31
0.0
  0
LINE
  5
211
330
73
100
AcDbEntity
  8
$DDT_AUDIT_GENERATED_(B7)
  6
Continuous
 62
     7
100
AcDbLine
 10
117.0496422975
 20
452.603389621
 30
0.0
 11
118.0496422975
 21
452.603389621
 31
0.0
  0
LINE
  5
212
330
73
100
AcDbEntity
  8
$DDT_AUDIT_GENERATED_(B7)
  6
Continuous
 62
     7
100
AcDbLine
 10
118.0496422975
 20
452.4571464089
 30
0.0
 11
118.0496422975
 21
452.3352770655
 31
0.0
  0
LINE
  5
213
330
73
100
AcDbEntity
  8
$DDT_AUDIT_GENERATED_(B7)
  6
Continuous
 62
     7
100
AcDbLine
 10
118.0496422975
 20
452.3352770655
 30
0.0
 11
117.0496422975
 21
452.3352770655
 31
0.0
  0
LINE
  5
214
330
73
100
AcDbEntity
  8
$DDT_AUDIT_GENERATED_(B7)
  6
Continuous
 62
     7
100
AcDbLine
 10
117.0496422975
 20
452.3352770655
 30
0.0
 11
117.0496422975
 21
452.4571464089
 31
0.0
  0
LINE
  5
215
330
73
100
AcDbEntity
  8
$DDT_AUDIT_GENERATED_(B7)
  6
Continuous
 62
     7
100
AcDbLine
 10
117.0496422975
 20
452.4571464089
 30
0.0
 11
118.0496422975
 21
452.4571464089
 31
0.0
  0
LINE
  5
216
330
73
100
AcDbEntity
  8
$DDT_AUDIT_GENERATED_(B7)
  6
Continuous
 62
     7
100
AcDbLine
 10
118.0496422975
 20
452.3109031968
 30
0.0
 11
118.0496422975
 21
452.1890338534
 31
0.0
  0
LINE
  5
217
330
73
100
AcDbEntity
  8
$DDT_AUDIT_GENERATED_(B7)
  6
Continuous
 62
     7
100
AcDbLine
 10
118.0496422975
 20
452.1890338534
 30
0.0
 11
117.0496422975
 21
452.1890338534
 31
0.0
  0
LINE
  5
218
330
73
100
AcDbEntity
  8
$DDT_AUDIT_GENERATED_(B7)
  6
Continuous
 62
     7
100
AcDbLine
 10
117.0496422975
 20
452.1890338534
 30
0.0
 11
117.0496422975
 21
452.3109031968
 31
0.0
  0
LINE
  5
219
330
73
100
AcDbEntity
  8
$DDT_AUDIT_GENERATED_(B7)
  6
Continuous
 62
     7
100
AcDbLine
 10
117.0496422975
 20
452.3109031968
 30
0.0
 11
118.0496422975
 21
452.3109031968
 31
0.0
  0
LINE
  5
21A
330
73
100
AcDbEntity
  8
$DDT_AUDIT_GENERATED_(B7)
  6
Continuous
 62
     7
100
AcDbLine
 10
119.2496422975
 20
453.0664931259
 30
0.0
 11
118.2496422975
 21
453.0664931259
 31
0.0
  0
LINE
  5
21B
330
73
100
AcDbEntity
  8
$DDT_AUDIT_GENERATED_(B7)
  6
Continuous
 62
     7
100
AcDbLine
 10
119.2496422975
 20
453.0421192573
 30
0.0
 11
119.2496422975
 21
452.9202499138
 31
0.0
  0
LINE
  5
21C
330
73
100
AcDbEntity
  8
$DDT_AUDIT_GENERATED_(B7)
  6
Continuous
 62
     7
100
AcDbLine
 10
119.2496422975
 20
452.9202499138
 30
0.0
 11
118.2496422975
 21
452.9202499138
 31
0.0
  0
LINE
  5
21D
330
73
100
AcDbEntity
  8
$DDT_AUDIT_GENERATED_(B7)
  6
Continuous
 62
     7
100
AcDbLine
 10
118.2496422975
 20
452.9202499138
 30
0.0
 11
118.2496422975
 21
453.0421192573
 31
0.0
  0
LINE
  5
21E
330
73
100
AcDbEntity
  8
$DDT_AUDIT_GENERATED_(B7)
  6
Continuous
 62
     7
100
AcDbLine
 10
118.2496422975
 20
453.0421192573
 30
0.0
 11
119.2496422975
 21
453.0421192573
 31
0.0
  0
LINE
  5
21F
330
73
100
AcDbEntity
  8
$DDT_AUDIT_GENERATED_(B7)
  6
Continuous
 62
     7
100
AcDbLine
 10
119.2496422975
 20
452.8958760452
 30
0.0
 11
119.2496422975
 21
452.7740067018
 31
0.0
  0
LINE
  5
220
330
73
100
AcDbEntity
  8
$DDT_AUDIT_GENERATED_(B7)
  6
Continuous
 62
     7
100
AcDbLine
 10
119.2496422975
 20
452.7740067018
 30
0.0
 11
118.2496422975
 21
452.7740067018
 31
0.0
  0
LINE
  5
221
330
73
100
AcDbEntity
  8
$DDT_AUDIT_GENERATED_(B7)
  6
Continuous
 62
     7
100
AcDbLine
 10
118.2496422975
 20
452.7740067018
 30
0.0
 11
118.2496422975
 21
452.8958760452
 31
0.0
  0
LINE
  5
222
330
73
100
AcDbEntity
  8
$DDT_AUDIT_GENERATED_(B7)
  6
Continuous
 62
     7
100
AcDbLine
 10
118.2496422975
 20
452.8958760452
 30
0.0
 11
119.2496422975
 21
452.8958760452
 31
0.0
  0
LINE
  5
223
330
73
100
AcDbEntity
  8
$DDT_AUDIT_GENERATED_(B7)
  6
Continuous
 62
     7
100
AcDbLine
 10
119.2496422975
 20
452.7496328331
 30
0.0
 11
119.2496422975
 21
452.6277634897
 31
0.0
  0
LINE
  5
224
330
73
100
AcDbEntity
  8
$DDT_AUDIT_GENERATED_(B7)
  6
Continuous
 62
     7
100
AcDbLine
 10
119.2496422975
 20
452.6277634897
 30
0.0
 11
118.2496422975
 21
452.6277634897
 31
0.0
  0
LINE
  5
225
330
73
100
AcDbEntity
  8
$DDT_AUDIT_GENERATED_(B7)
  6
Continuous
 62
     7
100
AcDbLine
 10
118.2496422975
 20
452.6277634897
 30
0.0
 11
118.2496422975
 21
452.7496328331
 31
0.0
  0
LINE
  5
226
330
73
100
AcDbEntity
  8
$DDT_AUDIT_GENERATED_(B7)
  6
Continuous
 62
     7
100
AcDbLine
 10
118.2496422975
 20
452.7496328331
 30
0.0
 11
119.2496422975
 21
452.7496328331
 31
0.0
  0
LINE
  5
227
330
73
100
AcDbEntity
  8
$DDT_AUDIT_GENERATED_(B7)
  6
Continuous
 62
     7
100
AcDbLine
 10
119.2496422975
 20
452.603389621
 30
0.0
 11
119.2496422975
 21
452.4815202776
 31
0.0
  0
LINE
  5
228
330
73
100
AcDbEntity
  8
$DDT_AUDIT_GENERATED_(B7)
  6
Continuous
 62
     7
100
AcDbLine
 10
119.2496422975
 20
452.4815202776
 30
0.0
 11
118.2496422975
 21
452.4815202776
 31
0.0
  0
LINE
  5
229
330
73
100
AcDbEntity
  8
$DDT_AUDIT_GENERATED_(B7)
  6
Continuous
 62
     7
100
AcDbLine
 10
118.2496422975
 20
452.4815202776
 30
0.0
 11
118.2496422975
 21
452.603389621
 31
0.0
  0
LINE
  5
22A
330
73
100
AcDbEntity
  8
$DDT_AUDIT_GENERATED_(B7)
  6
Continuous
 62
     7
100
AcDbLine
 10
118.2496422975
 20
452.603389621
 30
0.0
 11
119.2496422975
 21
452.603389621
 31
0.0
  0
LINE
  5
22B
330
73
100
AcDbEntity
  8
$DDT_AUDIT_GENERATED_(B7)
  6
Continuous
 62
     7
100
AcDbLine
 10
119.2496422975
 20
452.4571464089
 30
0.0
 11
119.2496422975
 21
452.3352770655
 31
0.0
  0
LINE
  5
22C
330
73
100
AcDbEntity
  8
$DDT_AUDIT_GENERATED_(B7)
  6
Continuous
 62
     7
100
AcDbLine
 10
119.2496422975
 20
452.3352770655
 30
0.0
 11
118.2496422975
 21
452.3352770655
 31
0.0
  0
LINE
  5
22D
330
73
100
AcDbEntity
  8
$DDT_AUDIT_GENERATED_(B7)
  6
Continuous
 62
     7
100
AcDbLine
 10
118.2496422975
 20
452.3352770655
 30
0.0
 11
118.2496422975
 21
452.4571464089
 31
0.0
  0
LINE
  5
22E
330
73
100
AcDbEntity
  8
$DDT_AUDIT_GENERATED_(B7)
  6
Continuous
 62
     7
100
AcDbLine
 10
118.2496422975
 20
452.4571464089
 30
0.0
 11
119.2496422975
 21
452.4571464089
 31
0.0
  0
LINE
  5
22F
330
73
100
AcDbEntity
  8
$DDT_AUDIT_GENERATED_(B7)
  6
Continuous
 62
     7
100
AcDbLine
 10
120.4496422975
 20
453.0664931259
 30
0.0
 11
119.4496422975
 21
453.0664931259
 31
0.0
  0
LINE
  5
230
330
73
100
AcDbEntity
  8
$DDT_AUDIT_GENERATED_(B7)
  6
Continuous
 62
     7
100
AcDbLine
 10
120.4496422975
 20
453.0421192573
 30
0.0
 11
120.4496422975
 21
452.9202499138
 31
0.0
  0
LINE
  5
231
330
73
100
AcDbEntity
  8
$DDT_AUDIT_GENERATED_(B7)
  6
Continuous
 62
     7
100
AcDbLine
 10
120.4496422975
 20
452.9202499138
 30
0.0
 11
119.4496422975
 21
452.9202499138
 31
0.0
  0
LINE
  5
232
330
73
100
AcDbEntity
  8
$DDT_AUDIT_GENERATED_(B7)
  6
Continuous
 62
     7
100
AcDbLine
 10
119.4496422975
 20
452.9202499138
 30
0.0
 11
119.4496422975
 21
453.0421192573
 31
0.0
  0
LINE
  5
233
330
73
100
AcDbEntity
  8
$DDT_AUDIT_GENERATED_(B7)
  6
Continuous
 62
     7
100
AcDbLine
 10
119.4496422975
 20
453.0421192573
 30
0.0
 11
120.4496422975
 21
453.0421192573
 31
0.0
  0
LINE
  5
234
330
73
100
AcDbEntity
  8
$DDT_AUDIT_GENERATED_(B7)
  6
Continuous
 62
     7
100
AcDbLine
 10
120.4496422975
 20
452.8958760452
 30
0.0
 11
120.4496422975
 21
452.7740067018
 31
0.0
  0
LINE
  5
235
330
73
100
AcDbEntity
  8
$DDT_AUDIT_GENERATED_(B7)
  6
Continuous
 62
     7
100
AcDbLine
 10
120.4496422975
 20
452.7740067018
 30
0.0
 11
119.4496422975
 21
452.7740067018
 31
0.0
  0
LINE
  5
236
330
73
100
AcDbEntity
  8
$DDT_AUDIT_GENERATED_(B7)
  6
Continuous
 62
     7
100
AcDbLine
 10
119.4496422975
 20
452.7740067018
 30
0.0
 11
119.4496422975
 21
452.8958760452
 31
0.0
  0
LINE
  5
237
330
73
100
AcDbEntity
  8
$DDT_AUDIT_GENERATED_(B7)
  6
Continuous
 62
     7
100
AcDbLine
 10
119.4496422975
 20
452.8958760452
 30
0.0
 11
120.4496422975
 21
452.8958760452
 31
0.0
  0
LINE
  5
238
330
73
100
AcDbEntity
  8
$DDT_AUDIT_GENERATED_(B7)
  6
Continuous
 62
     7
100
AcDbLine
 10
120.4496422975
 20
452.7496328331
 30
0.0
 11
120.4496422975
 21
452.6277634897
 31
0.0
  0
LINE
  5
239
330
73
100
AcDbEntity
  8
$DDT_AUDIT_GENERATED_(B7)
  6
Continuous
 62
     7
100
AcDbLine
 10
120.4496422975
 20
452.6277634897
 30
0.0
 11
119.4496422975
 21
452.6277634897
 31
0.0
  0
LINE
  5
23A
330
73
100
AcDbEntity
  8
$DDT_AUDIT_GENERATED_(B7)
  6
Continuous
 62
     7
100
AcDbLine
 10
119.4496422975
 20
452.6277634897
 30
0.0
 11
119.4496422975
 21
452.7496328331
 31
0.0
  0
LINE
  5
23B
330
73
100
AcDbEntity
  8
$DDT_AUDIT_GENERATED_(B7)
  6
Continuous
 62
     7
100
AcDbLine
 10
119.4496422975
 20
452.7496328331
 30
0.0
 11
120.4496422975
 21
452.7496328331
 31
0.0
  0
LINE
  5
23C
330
73
100
AcDbEntity
  8
$DDT_AUDIT_GENERATED_(B7)
  6
Continuous
 62
     7
100
AcDbLine
 10
120.4496422975
 20
452.603389621
 30
0.0
 11
120.4496422975
 21
452.4815202776
 31
0.0
  0
LINE
  5
23D
330
73
100
AcDbEntity
  8
$DDT_AUDIT_GENERATED_(B7)
  6
Continuous
 62
     7
100
AcDbLine
 10
120.4496422975
 20
452.4815202776
 30
0.0
 11
119.4496422975
 21
452.4815202776
 31
0.0
  0
LINE
  5
23E
330
73
100
AcDbEntity
  8
$DDT_AUDIT_GENERATED_(B7)
  6
Continuous
 62
     7
100
AcDbLine
 10
119.4496422975
 20
452.4815202776
 30
0.0
 11
119.4496422975
 21
452.603389621
 31
0.0
  0
LINE
  5
23F
330
73
100
AcDbEntity
  8
$DDT_AUDIT_GENERATED_(B7)
  6
Continuous
 62
     7
100
AcDbLine
 10
119.4496422975
 20
452.603389621
 30
0.0
 11
120.4496422975
 21
452.603389621
 31
0.0
  0
LINE
  5
240
330
73
100
AcDbEntity
  8
$DDT_AUDIT_GENERATED_(B7)
  6
Continuous
 62
     7
100
AcDbLine
 10
120.4496422975
 20
452.3352770655
 30
0.0
 11
119.4496422975
 21
452.3352770655
 31
0.0
  0
LINE
  5
241
330
73
100
AcDbEntity
  8
$DDT_AUDIT_GENERATED_(B7)
  6
Continuous
 62
     7
100
AcDbLine
 10
120.4496422975
 20
452.4571464089
 30
0.0
 11
120.4496422975
 21
452.3352770655
 31
0.0
  0
LINE
  5
242
330
73
100
AcDbEntity
  8
$DDT_AUDIT_GENERATED_(B7)
  6
Continuous
 62
     7
100
AcDbLine
 10
119.4496422975
 20
452.3352770655
 30
0.0
 11
119.4496422975
 21
452.4571464089
 31
0.0
  0
LINE
  5
243
330
73
100
AcDbEntity
  8
$DDT_AUDIT_GENERATED_(B7)
  6
Continuous
 62
     7
100
AcDbLine
 10
119.4496422975
 20
452.4571464089
 30
0.0
 11
120.4496422975
 21
452.4571464089
 31
0.0
  0
LINE
  5
244
330
73
100
AcDbEntity
  8
$DDT_AUDIT_GENERATED_(B7)
  6
Continuous
 62
     7
100
AcDbLine
 10
121.6496422975
 20
453.0664931259
 30
0.0
 11
120.6496422975
 21
453.0664931259
 31
0.0
  0
LINE
  5
245
330
73
100
AcDbEntity
  8
$DDT_AUDIT_GENERATED_(B7)
  6
Continuous
 62
     7
100
AcDbLine
 10
121.6496422975
 20
453.0421192573
 30
0.0
 11
121.6496422975
 21
452.9202499138
 31
0.0
  0
LINE
  5
246
330
73
100
AcDbEntity
  8
$DDT_AUDIT_GENERATED_(B7)
  6
Continuous
 62
     7
100
AcDbLine
 10
121.6496422975
 20
452.9202499138
 30
0.0
 11
120.6496422975
 21
452.9202499138
 31
0.0
  0
LINE
  5
247
330
73
100
AcDbEntity
  8
$DDT_AUDIT_GENERATED_(B7)
  6
Continuous
 62
     7
100
AcDbLine
 10
120.6496422975
 20
452.9202499138
 30
0.0
 11
120.6496422975
 21
453.0421192573
 31
0.0
  0
LINE
  5
248
330
73
100
AcDbEntity
  8
$DDT_AUDIT_GENERATED_(B7)
  6
Continuous
 62
     7
100
AcDbLine
 10
120.6496422975
 20
453.0421192573
 30
0.0
 11
121.6496422975
 21
453.0421192573
 31
0.0
  0
LINE
  5
249
330
73
100
AcDbEntity
  8
$DDT_AUDIT_GENERATED_(B7)
  6
Continuous
 62
     7
100
AcDbLine
 10
121.6496422975
 20
452.8958760452
 30
0.0
 11
121.6496422975
 21
452.7740067018
 31
0.0
  0
LINE
  5
24A
330
73
100
AcDbEntity
  8
$DDT_AUDIT_GENERATED_(B7)
  6
Continuous
 62
     7
100
AcDbLine
 10
121.6496422975
 20
452.7740067018
 30
0.0
 11
120.6496422975
 21
452.7740067018
 31
0.0
  0
LINE
  5
24B
330
73
100
AcDbEntity
  8
$DDT_AUDIT_GENERATED_(B7)
  6
Continuous
 62
     7
100
AcDbLine
 10
120.6496422975
 20
452.7740067018
 30
0.0
 11
120.6496422975
 21
452.8958760452
 31
0.0
  0
LINE
  5
24C
330
73
100
AcDbEntity
  8
$DDT_AUDIT_GENERATED_(B7)
  6
Continuous
 62
     7
100
AcDbLine
 10
120.6496422975
 20
452.8958760452
 30
0.0
 11
121.6496422975
 21
452.8958760452
 31
0.0
  0
LINE
  5
24D
330
73
100
AcDbEntity
  8
$DDT_AUDIT_GENERATED_(B7)
  6
Continuous
 62
     7
100
AcDbLine
 10
121.6496422975
 20
452.7496328331
 30
0.0
 11
121.6496422975
 21
452.6277634897
 31
0.0
  0
LINE
  5
24E
330
73
100
AcDbEntity
  8
$DDT_AUDIT_GENERATED_(B7)
  6
Continuous
 62
     7
100
AcDbLine
 10
121.6496422975
 20
452.6277634897
 30
0.0
 11
120.6496422975
 21
452.6277634897
 31
0.0
  0
LINE
  5
24F
330
73
100
AcDbEntity
  8
$DDT_AUDIT_GENERATED_(B7)
  6
Continuous
 62
     7
100
AcDbLine
 10
120.6496422975
 20
452.6277634897
 30
0.0
 11
120.6496422975
 21
452.7496328331
 31
0.0
  0
LINE
  5
250
330
73
100
AcDbEntity
  8
$DDT_AUDIT_GENERATED_(B7)
  6
Continuous
 62
     7
100
AcDbLine
 10
120.6496422975
 20
452.7496328331
 30
0.0
 11
121.6496422975
 21
452.7496328331
 31
0.0
  0
LINE
  5
251
330
73
100
AcDbEntity
  8
$DDT_AUDIT_GENERATED_(B7)
  6
Continuous
 62
     7
100
AcDbLine
 10
121.6496422975
 20
452.603389621
 30
0.0
 11
121.6496422975
 21
452.4815202776
 31
0.0
  0
LINE
  5
252
330
73
100
AcDbEntity
  8
$DDT_AUDIT_GENERATED_(B7)
  6
Continuous
 62
     7
100
AcDbLine
 10
121.6496422975
 20
452.4815202776
 30
0.0
 11
120.6496422975
 21
452.4815202776
 31
0.0
  0
LINE
  5
253
330
73
100
AcDbEntity
  8
$DDT_AUDIT_GENERATED_(B7)
  6
Continuous
 62
     7
100
AcDbLine
 10
120.6496422975
 20
452.4815202776
 30
0.0
 11
120.6496422975
 21
452.603389621
 31
0.0
  0
LINE
  5
254
330
73
100
AcDbEntity
  8
$DDT_AUDIT_GENERATED_(B7)
  6
Continuous
 62
     7
100
AcDbLine
 10
120.6496422975
 20
452.603389621
 30
0.0
 11
121.6496422975
 21
452.603389621
 31
0.0
  0
LINE
  5
255
330
73
100
AcDbEntity
  8
$DDT_AUDIT_GENERATED_(B7)
  6
Continuous
 62
     7
100
AcDbLine
 10
122.8496422975
 20
453.0664931259
 30
0.0
 11
121.8496422975
 21
453.0664931259
 31
0.0
  0
LINE
  5
256
330
73
100
AcDbEntity
  8
$DDT_AUDIT_GENERATED_(B7)
  6
Continuous
 62
     7
100
AcDbLine
 10
122.8496422975
 20
453.0421192573
 30
0.0
 11
122.8496422975
 21
452.9202499138
 31
0.0
  0
LINE
  5
257
330
73
100
AcDbEntity
  8
$DDT_AUDIT_GENERATED_(B7)
  6
Continuous
 62
     7
100
AcDbLine
 10
122.8496422975
 20
452.9202499138
 30
0.0
 11
121.8496422975
 21
452.9202499138
 31
0.0
  0
LINE
  5
258
330
73
100
AcDbEntity
  8
$DDT_AUDIT_GENERATED_(B7)
  6
Continuous
 62
     7
100
AcDbLine
 10
121.8496422975
 20
452.9202499138
 30
0.0
 11
121.8496422975
 21
453.0421192573
 31
0.0
  0
LINE
  5
259
330
73
100
AcDbEntity
  8
$DDT_AUDIT_GENERATED_(B7)
  6
Continuous
 62
     7
100
AcDbLine
 10
121.8496422975
 20
453.0421192573
 30
0.0
 11
122.8496422975
 21
453.0421192573
 31
0.0
  0
LINE
  5
25A
330
73
100
AcDbEntity
  8
$DDT_AUDIT_GENERATED_(B7)
  6
Continuous
 62
     7
100
AcDbLine
 10
122.8496422975
 20
452.8958760452
 30
0.0
 11
122.8496422975
 21
452.7740067018
 31
0.0
  0
LINE
  5
25B
330
73
100
AcDbEntity
  8
$DDT_AUDIT_GENERATED_(B7)
  6
Continuous
 62
     7
100
AcDbLine
 10
122.8496422975
 20
452.7740067018
 30
0.0
 11
121.8496422975
 21
452.7740067018
 31
0.0
  0
LINE
  5
25C
330
73
100
AcDbEntity
  8
$DDT_AUDIT_GENERATED_(B7)
  6
Continuous
 62
     7
100
AcDbLine
 10
121.8496422975
 20
452.7740067018
 30
0.0
 11
121.8496422975
 21
452.8958760452
 31
0.0
  0
LINE
  5
25D
330
73
100
AcDbEntity
  8
$DDT_AUDIT_GENERATED_(B7)
  6
Continuous
 62
     7
100
AcDbLine
 10
121.8496422975
 20
452.8958760452
 30
0.0
 11
122.8496422975
 21
452.8958760452
 31
0.0
  0
LINE
  5
25E
330
73
100
AcDbEntity
  8
$DDT_AUDIT_GENERATED_(B7)
  6
Continuous
 62
     7
100
AcDbLine
 10
122.8496422975
 20
452.7496328331
 30
0.0
 11
122.8496422975
 21
452.6277634897
 31
0.0
  0
LINE
  5
25F
330
73
100
AcDbEntity
  8
$DDT_AUDIT_GENERATED_(B7)
  6
Continuous
 62
     7
100
AcDbLine
 10
122.8496422975
 20
452.6277634897
 30
0.0
 11
121.8496422975
 21
452.6277634897
 31
0.0
  0
LINE
  5
260
330
73
100
AcDbEntity
  8
$DDT_AUDIT_GENERATED_(B7)
  6
Continuous
 62
     7
100
AcDbLine
 10
121.8496422975
 20
452.6277634897
 30
0.0
 11
121.8496422975
 21
452.7496328331
 31
0.0
  0
LINE
  5
261
330
73
100
AcDbEntity
  8
$DDT_AUDIT_GENERATED_(B7)
  6
Continuous
 62
     7
100
AcDbLine
 10
121.8496422975
 20
452.7496328331
 30
0.0
 11
122.8496422975
 21
452.7496328331
 31
0.0
  0
LINE
  5
262
330
73
100
AcDbEntity
  8
$DDT_AUDIT_GENERATED_(B7)
  6
Continuous
 62
     7
100
AcDbLine
 10
123.786179027
 20
453.0664931259
 30
0.0
 11
123.0496422975
 21
453.0664931259
 31
0.0
  0
LINE
  5
263
330
73
100
AcDbEntity
  8
$DDT_AUDIT_GENERATED_(B7)
  6
Continuous
 62
     7
100
AcDbLine
 10
124.0496422975
 20
452.9921122964
 30
0.0
 11
124.0496422975
 21
452.9202499138
 31
0.0
  0
LINE
  5
264
330
73
100
AcDbEntity
  8
$DDT_AUDIT_GENERATED_(B7)
  6
Continuous
 62
     7
100
AcDbLine
 10
124.0496422975
 20
452.9202499138
 30
0.0
 11
123.0496422975
 21
452.9202499138
 31
0.0
  0
LINE
  5
265
330
73
100
AcDbEntity
  8
$DDT_AUDIT_GENERATED_(B7)
  6
Continuous
 62
     7
100
AcDbLine
 10
123.0496422975
 20
452.9202499138
 30
0.0
 11
123.0496422975
 21
453.0421192573
 31
0.0
  0
LINE
  5
266
330
73
100
AcDbEntity
  8
$DDT_AUDIT_GENERATED_(B7)
  6
Continuous
 62
     7
100
AcDbLine
 10
123.0496422975
 20
453.0421192573
 30
0.0
 11
123.8789814328
 21
453.0421192573
 31
0.0
  0
LINE
  5
267
330
73
100
AcDbEntity
  8
$DDT_AUDIT_GENERATED_(B7)
  6
Continuous
 62
     7
100
AcDbLine
 10
124.0496422975
 20
452.8958760452
 30
0.0
 11
124.0496422975
 21
452.7740067018
 31
0.0
  0
LINE
  5
268
330
73
100
AcDbEntity
  8
$DDT_AUDIT_GENERATED_(B7)
  6
Continuous
 62
     7
100
AcDbLine
 10
124.0496422975
 20
452.7740067018
 30
0.0
 11
123.0496422975
 21
452.7740067018
 31
0.0
  0
LINE
  5
269
330
73
100
AcDbEntity
  8
$DDT_AUDIT_GENERATED_(B7)
  6
Continuous
 62
     7
100
AcDbLine
 10
123.0496422975
 20
452.7740067018
 30
0.0
 11
123.0496422975
 21
452.8958760452
 31
0.0
  0
LINE
  5
26A
330
73
100
AcDbEntity
  8
$DDT_AUDIT_GENERATED_(B7)
  6
Continuous
 62
     7
100
AcDbLine
 10
123.0496422975
 20
452.8958760452
 30
0.0
 11
124.0496422975
 21
452.8958760452
 31
0.0
  0
LINE
  5
26B
330
73
100
AcDbEntity
  8
$DDT_AUDIT_GENERATED_(B7)
  6
Continuous
 62
     7
100
AcDbLine
 10
124.2512430367
 20
452.9202499138
 30
0.0
 11
124.2496422975
 21
452.9202499138
 31
0.0
  0
LINE
  5
26C
330
73
100
AcDbEntity
  8
$DDT_AUDIT_GENERATED_(B7)
  6
Continuous
 62
     7
100
AcDbLine
 10
124.2496422975
 20
452.9202499138
 30
0.0
 11
124.2496422975
 21
452.9208989256
 31
0.0
  0
LINE
  5
26D
330
73
100
AcDbEntity
  8
$DDT_AUDIT_GENERATED_(B7)
  6
Continuous
 62
     7
100
AcDbLine
 10
124.2496422975
 20
452.8376835939
 30
0.0
 11
124.2496422975
 21
452.8958760452
 31
0.0
  0
LINE
  5
26E
330
73
100
AcDbEntity
  8
$DDT_AUDIT_GENERATED_(B7)
  6
Continuous
 62
     7
100
AcDbLine
 10
124.2496422975
 20
452.8958760452
 30
0.0
 11
124.3085469664
 21
452.8958760452
 31
0.0
  0
ELLIPSE
  5
26F
330
73
100
AcDbEntity
  8
$DDT_AUDIT_GENERATED_(B7)
  6
Continuous
 62
     7
100
AcDbEllipse
 10
116.3496422959
 20
453.1274277977
 30
0.0
 11
8.250000001555794
 21
-6.481967740334937E-11
 31
0.0
210
0.0
220
0.0
230
1.0
 40
0.1218693434
 41
-0.3852141216253235
 42
-0.2923273931258601
  0
LINE
  5
270
330
73
100
AcDbEntity
  8
$DDT_AUDIT_GENERATED_(B7)
  6
Continuous
 62
     7
100
AcDbLine
 10
123.5087274346
 20
452.6277634897
 30
0.0
 11
123.5087274346
 21
452.7496328331
 31
0.0
  0
LINE
  5
271
330
73
100
AcDbEntity
  8
$DDT_AUDIT_GENERATED_(B7)
  6
Continuous
 62
     7
100
AcDbLine
 10
123.5087274346
 20
452.6277634897
 30
0.0
 11
123.0496422975
 21
452.6277634897
 31
0.0
  0
LINE
  5
272
330
73
100
AcDbEntity
  8
$DDT_AUDIT_GENERATED_(B7)
  6
Continuous
 62
     7
100
AcDbLine
 10
123.0496422975
 20
452.6277634897
 30
0.0
 11
123.0496422975
 21
452.7496328331
 31
0.0
  0
LINE
  5
273
330
73
100
AcDbEntity
  8
$DDT_AUDIT_GENERATED_(B7)
  6
Continuous
 62
     7
100
AcDbLine
 10
123.0496422975
 20
452.7496328331
 30
0.0
 11
123.9950657651
 21
452.7496328331
 31
0.0
  0
ELLIPSE
  5
274
330
73
100
AcDbEntity
  8
$DDT_AUDIT_GENERATED_(B7)
  6
Continuous
 62
     7
100
AcDbEllipse
 10
116.3496423065
 20
453.1274277968
 30
0.0
 11
8.249999990757619
 21
6.745090597171099E-10
 31
0.0
210
0.0
220
0.0
230
1.0
 40
0.1218693434
 41
-0.6634394345870822
 42
-0.6230179601451766
  0
LINE
  5
275
330
73
100
AcDbEntity
  8
$DDT_AUDIT_GENERATED_(B7)
  6
Continuous
 62
     7
100
AcDbLine
 10
122.6720231781
 20
452.4815202776
 30
0.0
 11
122.6720231781
 21
452.603389621
 31
0.0
  0
LINE
  5
276
330
73
100
AcDbEntity
  8
$DDT_AUDIT_GENERATED_(B7)
  6
Continuous
 62
     7
100
AcDbLine
 10
122.6720231781
 20
452.4815202776
 30
0.0
 11
121.8496422975
 21
452.4815202776
 31
0.0
  0
LINE
  5
277
330
73
100
AcDbEntity
  8
$DDT_AUDIT_GENERATED_(B7)
  6
Continuous
 62
     7
100
AcDbLine
 10
121.8496422975
 20
452.4815202776
 30
0.0
 11
121.8496422975
 21
452.603389621
 31
0.0
  0
LINE
  5
278
330
73
100
AcDbEntity
  8
$DDT_AUDIT_GENERATED_(B7)
  6
Continuous
 62
     7
100
AcDbLine
 10
121.8496422975
 20
452.603389621
 30
0.0
 11
122.8496422975
 21
452.603389621
 31
0.0
  0
LINE
  5
279
330
73
100
AcDbEntity
  8
$DDT_AUDIT_GENERATED_(B7)
  6
Continuous
 62
     7
100
AcDbLine
 10
122.8496422975
 20
452.603389621
 30
0.0
 11
122.8496422975
 21
452.5082583679
 31
0.0
  0
ELLIPSE
  5
27A
330
73
100
AcDbEntity
  8
$DDT_AUDIT_GENERATED_(B7)
  6
Continuous
 62
     7
100
AcDbEllipse
 10
116.3496421451
 20
453.1274278086
 30
0.0
 11
8.250000154056233
 21
-9.602135059294525E-9
 31
0.0
210
0.0
220
0.0
230
1.0
 40
0.1218693428
 41
-0.5482706290912356
 42
-0.5201031985745281
  0
LINE
  5
27B
330
73
100
AcDbEntity
  8
$DDT_AUDIT_GENERATED_(B7)
  6
Continuous
 62
     7
100
AcDbLine
 10
123.0496422975
 20
452.5407753098
 30
0.0
 11
123.0496422975
 21
452.603389621
 31
0.0
  0
LINE
  5
27C
330
73
100
AcDbEntity
  8
$DDT_AUDIT_GENERATED_(B7)
  6
Continuous
 62
     7
100
AcDbLine
 10
123.0496422975
 20
452.603389621
 30
0.0
 11
123.3904164026
 21
452.603389621
 31
0.0
  0
ELLIPSE
  5
27D
330
73
100
AcDbEntity
  8
$DDT_AUDIT_GENERATED_(B7)
  6
Continuous
 62
     7
100
AcDbEllipse
 10
116.349642364
 20
453.1274277883
 30
0.0
 11
8.249999927436553
 21
6.225272033977269E-9
 31
0.0
210
0.0
220
0.0
230
1.0
 40
0.1218693433
 41
-0.8731388771585618
 42
-0.8410686736024564
  0
LINE
  5
27E
330
73
100
AcDbEntity
  8
$DDT_AUDIT_GENERATED_(B7)
  6
Continuous
 62
     7
100
AcDbLine
 10
121.4302426557
 20
452.3352770655
 30
0.0
 11
121.4302426557
 21
452.4571464089
 31
0.0
  0
LINE
  5
27F
330
73
100
AcDbEntity
  8
$DDT_AUDIT_GENERATED_(B7)
  6
Continuous
 62
     7
100
AcDbLine
 10
121.4302426557
 20
452.3352770655
 30
0.0
 11
120.6496422975
 21
452.3352770655
 31
0.0
  0
LINE
  5
280
330
73
100
AcDbEntity
  8
$DDT_AUDIT_GENERATED_(B7)
  6
Continuous
 62
     7
100
AcDbLine
 10
120.6496422975
 20
452.3352770655
 30
0.0
 11
120.6496422975
 21
452.4571464089
 31
0.0
  0
LINE
  5
281
330
73
100
AcDbEntity
  8
$DDT_AUDIT_GENERATED_(B7)
  6
Continuous
 62
     7
100
AcDbLine
 10
120.6496422975
 20
452.4571464089
 30
0.0
 11
121.6496422975
 21
452.4571464089
 31
0.0
  0
LINE
  5
282
330
73
100
AcDbEntity
  8
$DDT_AUDIT_GENERATED_(B7)
  6
Continuous
 62
     7
100
AcDbLine
 10
121.6496422975
 20
452.4571464089
 30
0.0
 11
121.6496422975
 21
452.356923391
 31
0.0
  0
ELLIPSE
  5
283
330
73
100
AcDbEntity
  8
$DDT_AUDIT_GENERATED_(B7)
  6
Continuous
 62
     7
100
AcDbEllipse
 10
116.3496423749
 20
453.1274277894
 30
0.0
 11
8.249999919543772
 21
6.278061404074720E-9
 31
0.0
210
0.0
220
0.0
230
1.0
 40
0.1218693435
 41
-0.7297276594879287
 42
-0.6976574559302646
  0
LINE
  5
284
330
73
100
AcDbEntity
  8
$DDT_AUDIT_GENERATED_(B7)
  6
Continuous
 62
     7
100
AcDbLine
 10
121.8496422975
 20
452.378030423
 30
0.0
 11
121.8496422975
 21
452.4571464089
 31
0.0
  0
LINE
  5
285
330
73
100
AcDbEntity
  8
$DDT_AUDIT_GENERATED_(B7)
  6
Continuous
 62
     7
100
AcDbLine
 10
121.8496422975
 20
452.4571464089
 30
0.0
 11
122.4988292356
 21
452.4571464089
 31
0.0
  0
LINE
  5
286
330
73
100
AcDbEntity
  8
$DDT_AUDIT_GENERATED_(B7)
  6
Continuous
 62
     7
100
AcDbLine
 10
119.2496422975
 20
452.3109031968
 30
0.0
 11
119.2496422975
 21
452.1890338534
 31
0.0
  0
LINE
  5
287
330
73
100
AcDbEntity
  8
$DDT_AUDIT_GENERATED_(B7)
  6
Continuous
 62
     7
100
AcDbLine
 10
119.2496422975
 20
452.1890338534
 30
0.0
 11
118.2496422975
 21
452.1890338534
 31
0.0
  0
LINE
  5
288
330
73
100
AcDbEntity
  8
$DDT_AUDIT_GENERATED_(B7)
  6
Continuous
 62
     7
100
AcDbLine
 10
118.2496422975
 20
452.1890338534
 30
0.0
 11
118.2496422975
 21
452.3109031968
 31
0.0
  0
LINE
  5
289
330
73
100
AcDbEntity
  8
$DDT_AUDIT_GENERATED_(B7)
  6
Continuous
 62
     7
100
AcDbLine
 10
118.2496422975
 20
452.3109031968
 30
0.0
 11
119.2496422975
 21
452.3109031968
 31
0.0
  0
ELLIPSE
  5
28A
330
73
100
AcDbEntity
  8
$DDT_AUDIT_GENERATED_(B7)
  6
Continuous
 62
     7
100
AcDbEllipse
 10
116.3496422866
 20
453.1274277999
 30
0.0
 11
8.250000013429398
 21
-1.157556689390660E-9
 31
0.0
210
0.0
220
0.0
230
1.0
 40
0.1218693435
 41
-1.050693122919287
 42
-1.022525692136588
  0
LINE
  5
28B
330
73
100
AcDbEntity
  8
$DDT_AUDIT_GENERATED_(B7)
  6
Continuous
 62
     7
100
AcDbLine
 10
119.4496422975
 20
452.1956850596
 30
0.0
 11
119.4496422975
 21
452.3109031968
 31
0.0
  0
LINE
  5
28C
330
73
100
AcDbEntity
  8
$DDT_AUDIT_GENERATED_(B7)
  6
Continuous
 62
     7
100
AcDbLine
 10
119.4496422975
 20
452.3109031968
 30
0.0
 11
120.4496422975
 21
452.3109031968
 31
0.0
  0
LINE
  5
28D
330
73
100
AcDbEntity
  8
$DDT_AUDIT_GENERATED_(B7)
  6
Continuous
 62
     7
100
AcDbLine
 10
120.4496422975
 20
452.3109031968
 30
0.0
 11
120.4496422975
 21
452.2549547926
 31
0.0
  0
ELLIPSE
  5
28E
330
73
100
AcDbEntity
  8
$DDT_AUDIT_GENERATED_(B7)
  6
Continuous
 62
     7
100
AcDbEllipse
 10
116.3496422834
 20
453.1274277999
 30
0.0
 11
8.250000015999246
 21
-1.397522722546007E-9
 31
0.0
210
0.0
220
0.0
230
1.0
 40
0.1218693435
 41
-0.9477783662372969
 42
-0.90735689188074
  0
LINE
  5
28F
330
73
100
AcDbEntity
  8
$DDT_AUDIT_GENERATED_(B7)
  6
Continuous
 62
     7
100
AcDbLine
 10
120.6496422975
 20
452.2693732804
 30
0.0
 11
120.6496422975
 21
452.3109031968
 31
0.0
  0
LINE
  5
290
330
73
100
AcDbEntity
  8
$DDT_AUDIT_GENERATED_(B7)
  6
Continuous
 62
     7
100
AcDbLine
 10
120.6496422975
 20
452.3109031968
 30
0.0
 11
121.1634245942
 21
452.3109031968
 31
0.0
  0
ELLIPSE
  5
291
330
73
100
AcDbEntity
  8
$DDT_AUDIT_GENERATED_(B7)
  6
Continuous
 62
     7
100
AcDbEllipse
 10
116.3496422752
 20
453.1274278349
 30
0.0
 11
8.250000154291103
 21
-2.743963042894926E-9
 31
0.0
210
0.0
220
0.0
230
1.0
 40
0.1218693456
 41
-1.510153101149932
 42
-1.485845701748032
  0
LINE
  5
292
330
73
100
AcDbEntity
  8
$DDT_AUDIT_GENERATED_(B7)
  6
Continuous
 62
     7
100
AcDbLine
 10
116.8496422975
 20
452.1646599847
 30
0.0
 11
116.8496422975
 21
452.1238539185
 31
0.0
  0
ELLIPSE
  5
293
330
73
100
AcDbEntity
  8
$DDT_AUDIT_GENERATED_(B7)
  6
Continuous
 62
     7
100
AcDbEllipse
 10
116.3496422311
 20
453.1274278339
 30
0.0
 11
8.250000159793473
 21
-8.018205890913954E-9
 31
0.0
210
0.0
220
0.0
230
1.0
 40
0.1218693454
 41
-1.363248872046317
 42
-1.338407250507509
  0
LINE
  5
294
330
73
100
AcDbEntity
  8
$DDT_AUDIT_GENERATED_(B7)
  6
Continuous
 62
     7
100
AcDbLine
 10
117.0496422975
 20
452.1256314021
 30
0.0
 11
117.0496422975
 21
452.1646599847
 31
0.0
  0
LINE
  5
295
330
73
100
AcDbEntity
  8
$DDT_AUDIT_GENERATED_(B7)
  6
Continuous
 62
     7
100
AcDbLine
 10
117.0496422975
 20
452.1646599847
 30
0.0
 11
118.0496422975
 21
452.1646599847
 31
0.0
  0
LINE
  5
296
330
73
100
AcDbEntity
  8
$DDT_AUDIT_GENERATED_(B7)
  6
Continuous
 62
     7
100
AcDbLine
 10
118.0496422975
 20
452.1646599847
 30
0.0
 11
118.0496422975
 21
452.1435828456
 31
0.0
  0
ELLIPSE
  5
297
330
73
100
AcDbEntity
  8
$DDT_AUDIT_GENERATED_(B7)
  6
Continuous
 62
     7
100
AcDbEllipse
 10
116.3496422982
 20
453.1274277974
 30
0.0
 11
8.249999998814889
 21
8.266824724767474E-11
 31
0.0
210
0.0
220
0.0
230
1.0
 40
0.1218693434
 41
-1.278468933689307
 42
-1.185582205168643
  0
LINE
  5
298
330
73
100
AcDbEntity
  8
$DDT_AUDIT_GENERATED_(B7)
  6
Continuous
 62
     7
100
AcDbLine
 10
118.2496422975
 20
452.1490325038
 30
0.0
 11
118.2496422975
 21
452.1646599847
 31
0.0
  0
LINE
  5
299
330
73
100
AcDbEntity
  8
$DDT_AUDIT_GENERATED_(B7)
  6
Continuous
 62
     7
100
AcDbLine
 10
118.2496422975
 20
452.1646599847
 30
0.0
 11
118.7271409831
 21
452.1646599847
 31
0.0
  0
LINE
  5
29A
330
73
100
AcDbEntity
  8
$DDT_AUDIT_GENERATED_(B7)
  6
Continuous
 62
     7
100
AcDbLine
 10
125.7496422975
 20
452.6311547218
 30
0.0
 11
125.7496422975
 21
452.9557578738
 31
0.0
  0
LINE
  5
29B
330
73
100
AcDbEntity
  8
$DDT_AUDIT_GENERATED_(B7)
  6
Continuous
 62
     7
100
AcDbLine
 10
106.9496422975
 20
452.9557578738
 30
0.0
 11
106.9496422975
 21
452.6311547218
 31
0.0
  0
LINE
  5
29D
330
73
100
AcDbEntity
  8
$DDT_AUDIT_GENERATED_(29C)
  6
Continuous
 62
     7
100
AcDbLine
 10
91.3280516206
 20
522.4830376776
 30
0.0
 11
141.3712329743
 21
522.4830376776
 31
0.0
  0
ARC
  5
29E
330
73
100
AcDbEntity
  8
$DDT_AUDIT_GENERATED_(29C)
  6
Continuous
 62
     7
100
AcDbCircle
 10
116.3496422975
 20
514.3830376776
 30
0.0
 40
26.29999999999999
100
AcDbArc
 50
17.9378265217
 51
20.2905679619
  0
ARC
  5
29F
330
73
100
AcDbEntity
  8
$DDT_AUDIT_GENERATED_(29C)
  6
Continuous
 62
     7
100
AcDbCircle
 10
116.3496422975
 20
514.3830376776
 30
0.0
 40
26.3
100
AcDbArc
 50
159.7523455866
 51
162.0621734783
  0
ELLIPSE
  5
2A1
330
73
100
AcDbEntity
  8
$DDT_AUDIT_GENERATED_(2A0)
  6
Continuous
 62
     7
100
AcDbEllipse
 10
116.349642294
 20
536.1336453687
 30
0.0
 11
0.0
 21
3.355587563849414
 31
0.0
210
0.0
220
0.0
230
1.0
 40
1.0
 41
3.956809157247695
 42
6.283185307179586
  0
ELLIPSE
  5
2A2
330
73
100
AcDbEntity
  8
$DDT_AUDIT_GENERATED_(2A0)
  6
Continuous
 62
     7
100
AcDbEllipse
 10
116.349642294
 20
536.1336453687
 30
0.0
 11
0.0
 21
3.361917017515793
 31
0.0
210
0.0
220
0.0
230
1.0
 40
1.0
 41
0.0
 42
2.312046055738223
  0
LINE
  5
2A3
330
73
100
AcDbEntity
  8
$DDT_AUDIT_GENERATED_(2A0)
  6
Continuous
 62
     7
100
AcDbLine
 10
112.999642294
 20
536.3333755159
 30
0.0
 11
112.999642294
 21
536.1336453687
 31
0.0
  0
LINE
  5
2A4
330
73
100
AcDbEntity
  8
$DDT_AUDIT_GENERATED_(2A0)
  6
Continuous
 62
     7
100
AcDbLine
 10
119.699642294
 20
536.1336453687
 30
0.0
 11
119.699642294
 21
536.3333755159
 31
0.0
  0
ARC
  5
2A5
330
73
100
AcDbEntity
  8
$DDT_AUDIT_GENERATED_(97)
  6
Continuous
 62
     7
100
AcDbCircle
 10
191.3496422489
 20
467.5159339511
 30
0.0
 40
34.91206301938993
100
AcDbArc
 50
0.0
 51
143.0838465415
  0
ARC
  5
2A6
330
73
100
AcDbEntity
  8
$DDT_AUDIT_GENERATED_(97)
  6
Continuous
 62
     7
100
AcDbCircle
 10
191.3496422489
 20
467.5159339511
 30
0.0
 40
34.91206301938993
100
AcDbArc
 50
216.7544466141
 51
0.0
  0
ENDBLK
  5
2A8
330
73
100
AcDbEntity
  8
0
100
AcDbBlockEnd
  0
BLOCK
  5
30D
330
2A9
100
AcDbEntity
  8
0
100
AcDbBlockBegin
  2
SE1
 70
     0
 10
0.0
 20
0.0
 30
0.0
  3
SE1
  1

  0
LINE
  5
2AB
330
2A9
100
AcDbEntity
  8
$DDT_AUDIT_GENERATED_(75)
  6
Continuous
 62
     7
100
AcDbLine
 10
355.5479662402
 20
521.4830376776
 30
0.0
 11
356.5479680484
 21
522.4830376776
 31
0.0
  0
LINE
  5
2AC
330
2A9
100
AcDbEntity
  8
$DDT_AUDIT_GENERATED_(75)
  6
Continuous
 62
     7
100
AcDbLine
 10
407.5480132517
 20
521.4830376776
 30
0.0
 11
406.5480132517
 21
522.4830376776
 31
0.0
  0
LINE
  5
2AD
330
2A9
100
AcDbEntity
  8
$DDT_AUDIT_GENERATED_(75)
  6
Continuous
 62
     7
100
AcDbLine
 10
406.5480132517
 20
522.4830376776
 30
0.0
 11
356.5479680484
 21
522.4830376776
 31
0.0
  0
ARC
  5
2AE
330
2A9
100
AcDbEntity
  8
$DDT_AUDIT_GENERATED_(75)
  6
Continuous
 62
     7
100
AcDbCircle
 10
334.9409575164
 20
212.4779930896
 30
0.0
 40
284.166102393262
100
AcDbArc
 50
79.0152579086
 51
84.8115021678
  0
SPLINE
  5
2AF
330
2A9
100
AcDbEntity
  8
$DDT_AUDIT_GENERATED_(75)
  6
Continuous
 62
     7
100
AcDbSpline
210
0.0
220
0.0
230
1.0
 70
     8
 71
     3
 72
    34
 73
    30
 74
     0
 42
0.000000000297604
 43
0.0000000001
 40
0.0
 40
0.0
 40
0.0
 40
0.0
 40
0.0069462332997586
 40
0.0135791944869564
 40
0.0291532870512503
 40
0.0604406044300396
 40
0.1229330965602433
 40
0.1542137692709621
 40
0.1854933104089546
 40
0.2169977177033292
 40
0.2485318395441144
 40
0.2801284251871988
 40
0.3117580579183739
 40
0.3432935352204584
 40
0.3748348304172305
 40
0.4373145766238897
 40
0.4997943586510413
 40
0.5622755853149375
 40
0.5935549501321575
 40
0.624835739545459
 40
0.6873227233228831
 40
0.7498193171401641
 40
0.8123184647038584
 40
0.8436097212569383
 40
0.8749010623135369
 40
0.9374116853959826
 40
0.9687020542402391
 40
0.984170227292559
 40
1.0
 40
1.0
 40
1.0
 40
1.0
 10
376.9737965522833
 20
483.0638430937274
 30
0.0
 10
376.9441087317909
 20
483.06337400519
 30
0.0
 10
376.8860719707171
 20
483.0624569842468
 30
0.0
 10
376.7615366302189
 20
483.0504273925465
 30
0.0
 10
376.5336800541493
 20
482.9988436142971
 30
0.0
 10
376.0708263156484
 20
482.7653616722673
 30
0.0
 10
375.5537222114173
 20
482.2109504596191
 30
0.0
 10
375.065103816512
 20
481.378511306899
 30
0.0
 10
374.7139340429016
 20
480.6216368154916
 30
0.0
 10
374.3829337042524
 20
479.7306839705987
 30
0.0
 10
374.0743497325381
 20
478.7172903643613
 30
0.0
 10
373.793366276292
 20
477.5861382569402
 30
0.0
 10
373.54225037552
 20
476.3534133119975
 30
0.0
 10
373.325295476971
 20
475.0271575979252
 30
0.0
 10
373.0844255365737
 20
473.1667917389489
 30
0.0
 10
372.8783362763563
 20
470.6801018268241
 30
0.0
 10
372.7942858315373
 20
467.5713096883707
 30
0.0
 10
372.8627395181419
 20
464.9767073268007
 30
0.0
 10
372.9989014230825
 20
462.9710461926095
 30
0.0
 10
373.186877444758
 20
461.0295146638667
 30
0.0
 10
373.5166919905975
 20
458.7584283407371
 30
0.0
 10
374.043328558198
 20
456.3967730964181
 30
0.0
 10
374.5733687330895
 20
454.7991177433045
 30
0.0
 10
375.0380140636288
 20
453.7770539243336
 30
0.0
 10
375.525768065619
 20
452.9332526785298
 30
0.0
 10
376.0417755487254
 20
452.3617905167233
 30
0.0
 10
376.5044616699772
 20
452.1177164271252
 30
0.0
 10
376.7699455275446
 20
452.0479038850193
 30
0.0
 10
376.9037256816501
 20
452.042744835246
 30
0.0
 10
376.9713885858556
 20
452.0401099808346
 30
0.0
  0
ARC
  5
2B0
330
2A9
100
AcDbEntity
  8
$DDT_AUDIT_GENERATED_(75)
  6
Continuous
 62
     7
100
AcDbCircle
 10
150.508859181
 20
4659.0432989199
 30
0.0
 40
4213.099821250298
100
AcDbArc
 50
273.0826207025
 51
275.0705930468
  0
SPLINE
  5
2B1
330
2A9
100
AcDbEntity
  8
$DDT_AUDIT_GENERATED_(75)
  6
Continuous
 62
     7
100
AcDbSpline
210
0.0
220
0.0
230
1.0
 70
     8
 71
     3
 72
    56
 73
    52
 74
     0
 42
0.0000000000342019
 43
0.0000000001
 40
0.500014260297271
 40
0.500014260297271
 40
0.500014260297271
 40
0.500014260297271
 40
0.5010391517533126
 40
0.5082481890629952
 40
0.5156542661317974
 40
0.5245861728390848
 40
0.531288000667591
 40
0.5390819753373028
 40
0.5468767113314282
 40
0.5546731482221441
 40
0.5622582756721194
 40
0.5661752826811194
 40
0.5700987053227855
 40
0.5779464675401244
 40
0.5857946964686112
 40
0.5936421363406643
 40
0.6014893570572112
 40
0.6093369287979137
 40
0.6250342910938758
 40
0.6407346228534067
 40
0.6564361560081472
 40
0.687500708894305
 40
0.7021429084292453
 40
0.7176146818502394
 40
0.7355534306685433
 40
0.7490089022528837
 40
0.7647081786708435
 40
0.7804076955822946
 40
0.7961064560385444
 40
0.8000307113369434
 40
0.8039545964848617
 40
0.8117970095645738
 40
0.819635850666676
 40
0.8235573106941798
 40
0.8274769867090999
 40
0.8353269436855671
 40
0.843176270612725
 40
0.8588395875406225
 40
0.874429486946702
 40
0.8900967950475488
 40
0.8982096226981279
 40
0.9058085368883472
 40
0.9097258756558548
 40
0.9136508743678224
 40
0.9215006828716669
 40
0.937200567244557
 40
0.9529004458881908
 40
0.9686003027729351
 40
0.976450233739909
 40
0.9843001576738247
 40
1.0
 40
1.0
 40
1.0
 40
1.0
 10
522.8876884459313
 20
472.8801983021145
 30
0.0
 10
522.8875572787235
 20
472.8802058926869
 30
0.0
 10
522.8735710459493
 20
472.8811025713331
 30
0.0
 10
522.6506743972434
 20
472.8951529706157
 30
0.0
 10
521.7713310527517
 20
472.9605026298717
 30
0.0
 10
520.3559144060345
 20
473.0516987199342
 30
0.0
 10
518.4442961814729
 20
473.1597181300994
 30
0.0
 10
516.2619528747637
 20
473.2795218970268
 30
0.0
 10
513.650563978983
 20
473.4382618668592
 30
0.0
 10
510.8395534974768
 20
473.6202524794083
 30
0.0
 10
508.4045364573414
 20
473.8001249698524
 30
0.0
 10
506.4616942522044
 20
473.9699597288205
 30
0.0
 10
504.4855420158585
 20
474.1344233910997
 30
0.0
 10
502.0138445933279
 20
474.3355895206407
 30
0.0
 10
499.0470115623248
 20
474.5685819032673
 30
0.0
 10
496.0790706710919
 20
474.7851423586974
 30
0.0
 10
493.1108912752889
 20
474.9974508056348
 30
0.0
 10
489.1530977413053
 20
475.2818363861127
 30
0.0
 10
484.2065288622539
 20
475.6556601917504
 30
0.0
 10
478.2724825280922
 20
476.1354717012779
 30
0.0
 10
470.4025937044099
 20
476.7750761560271
 30
0.0
 10
462.6628753178944
 20
477.3649498855595
 30
0.0
 10
454.9493061576827
 20
477.913189209219
 30
0.0
 10
448.8904433037811
 20
478.3404690633243
 30
0.0
 10
442.9818471677488
 20
478.766234011898
 30
0.0
 10
437.0452571329226
 20
479.203544794986
 30
0.0
 10
431.3915418281815
 20
479.6284422900169
 30
0.0
 10
425.4552805305606
 20
480.075591746403
 30
0.0
 10
421.0026890628646
 20
480.4088711808522
 30
0.0
 10
418.0342897057253
 20
480.6225910878748
 30
0.0
 10
416.0557369742783
 20
480.7641863453047
 30
0.0
 10
413.5838228030203
 20
480.9480925811263
 30
0.0
 10
411.133957215273
 20
481.1179786095607
 30
0.0
 10
409.2023215745734
 20
481.2613118157624
 30
0.0
 10
407.2905077473537
 20
481.4042387489498
 30
0.0
 10
404.945230971413
 20
481.5766533652578
 30
0.0
 10
401.324398511282
 20
481.8230610509949
 30
0.0
 10
397.1011474354659
 20
482.1354644214118
 30
0.0
 10
392.6597570032895
 20
482.4520865085073
 30
0.0
 10
389.5918772969792
 20
482.7072439479882
 30
0.0
 10
387.5714148132732
 20
482.8385786409445
 30
0.0
 10
386.5632102868997
 20
482.8534837467336
 30
0.0
 10
385.9309824533445
 20
482.8519973273932
 30
0.0
 10
385.3599793223277
 20
482.85541272727
 30
0.0
 10
384.4955403135448
 20
482.8837065886559
 30
0.0
 10
383.2080505631113
 20
482.9188027036093
 30
0.0
 10
381.6763818852671
 20
482.9561568961543
 30
0.0
 10
380.3968127585047
 20
482.9864894324224
 30
0.0
 10
379.3740906726474
 20
483.019117192396
 30
0.0
 10
378.3512456032187
 20
483.0480975920457
 30
0.0
 10
377.5837950454234
 20
483.0575118709649
 30
0.0
 10
377.0721623558401
 20
483.0637898530677
 30
0.0
  0
ARC
  5
2B2
330
2A9
100
AcDbEntity
  8
$DDT_AUDIT_GENERATED_(75)
  6
Continuous
 62
     7
100
AcDbCircle
 10
374.9804865636
 20
452.0182601492
 30
0.0
 40
1.991021917892096
100
AcDbArc
 50
287.5547514842
 51
0.6287867827
  0
LINE
  5
2B3
330
2A9
100
AcDbEntity
  8
$DDT_AUDIT_GENERATED_(75)
  6
Continuous
 62
     7
100
AcDbLine
 10
353.5480390562
 20
487.5142904214
 30
0.0
 11
353.5480331795
 21
487.4695563001
 31
0.0
  0
SPLINE
  5
2B4
330
2A9
100
AcDbEntity
  8
$DDT_AUDIT_GENERATED_(75)
  6
Continuous
 62
     7
100
AcDbSpline
210
0.0
220
0.0
230
1.0
 70
     8
 71
     3
 72
    11
 73
     7
 74
     0
 42
0.0000000242938176
 43
0.0000000001
 40
0.4562511091849181
 40
0.4562511091849181
 40
0.4562511091849181
 40
0.4562511091849181
 40
0.4687500324360913
 40
0.5000000000854794
 40
0.5312499676691582
 40
0.5438286640198091
 40
0.5438286640198091
 40
0.5438286640198091
 40
0.5438286640198091
 10
354.5488971643613
 20
446.552057888433
 30
0.0
 10
354.5472453095144
 20
446.5503987394757
 30
0.0
 10
354.5418446432932
 20
446.5449617949425
 30
0.0
 10
354.5363721805652
 20
446.5391305647644
 30
0.0
 10
354.5418515965075
 20
446.5449679983192
 30
0.0
 10
354.5472667332348
 20
446.5504185902873
 30
0.0
 10
354.5489306929365
 20
446.5520896910722
 30
0.0
  0
ARC
  5
2B5
330
2A9
100
AcDbEntity
  8
$DDT_AUDIT_GENERATED_(75)
  6
Continuous
 62
     7
100
AcDbCircle
 10
348.9874674017
 20
544.5823032723
 30
0.0
 40
98.13434979067506
100
AcDbArc
 50
273.2828359791
 51
285.7232575713
  0
LINE
  5
2B6
330
2A9
100
AcDbEntity
  8
$DDT_AUDIT_GENERATED_(75)
  6
Continuous
 62
     7
100
AcDbLine
 10
353.5480242262
 20
447.6071793757
 30
0.0
 11
353.5480287398
 21
487.4970062697
 31
0.0
  0
ARC
  5
2B7
330
2A9
100
AcDbEntity
  8
$DDT_AUDIT_GENERATED_(75)
  6
Continuous
 62
     7
100
AcDbCircle
 10
348.996555175
 20
390.5800851659
 30
0.0
 40
98.0757719216928
100
AcDbArc
 50
74.2725817882
 51
86.7206976978
  0
ARC
  5
2B8
330
2A9
100
AcDbEntity
  8
$DDT_AUDIT_GENERATED_(75)
  6
Continuous
 62
     7
100
AcDbCircle
 10
374.9817088077
 20
483.0842207149
 30
0.0
 40
1.99219196608203
100
AcDbArc
 50
359.413925933
 51
72.4906733591
  0
ARC
  5
2B9
330
2A9
100
AcDbEntity
  8
$DDT_AUDIT_GENERATED_(75)
  6
Continuous
 62
     7
100
AcDbCircle
 10
354.5480682058
 20
447.6072889717
 30
0.0
 40
1.000043985668624
100
AcDbArc
 50
190.8101369331
 51
273.3855991699
  0
ARC
  5
2BA
330
2A9
100
AcDbEntity
  8
$DDT_AUDIT_GENERATED_(75)
  6
Continuous
 62
     7
100
AcDbCircle
 10
399.8756584201
 20
507.0219095065
 30
0.0
 40
16.80440909018181
100
AcDbArc
 50
275.2777904065
 51
297.165865206
  0
SPLINE
  5
2BB
330
2A9
100
AcDbEntity
  8
$DDT_AUDIT_GENERATED_(75)
  6
Continuous
 62
     7
100
AcDbSpline
210
0.0
220
0.0
230
1.0
 70
     8
 71
     3
 72
    19
 73
    15
 74
     0
 42
0.0000000007982913
 43
0.0000000001
 40
0.0
 40
0.0
 40
0.0
 40
0.0
 40
0.0575665079978221
 40
0.1257208918656217
 40
0.1884549831591596
 40
0.2511080053287337
 40
0.3761363679304127
 40
0.5012730504544085
 40
0.626475180918236
 40
0.750689233387218
 40
0.8128315250928471
 40
0.8750781779155871
 40
0.9452583427048149
 40
1.0
 40
1.0
 40
1.0
 40
1.0
 10
389.088120806678
 20
491.4375931341423
 30
0.0
 10
389.3609142602784
 20
491.3864997569671
 30
0.0
 10
389.9566744943858
 20
491.2749156923729
 30
0.0
 10
390.8296761115325
 20
491.0705991590846
 30
0.0
 10
391.7113711662697
 20
490.8479281755012
 30
0.0
 10
392.8342388187752
 20
490.5571676809684
 30
0.0
 10
394.2089308453877
 20
490.221063332848
 30
0.0
 10
395.8156752507621
 20
489.9477613340325
 30
0.0
 10
397.359546196852
 20
489.8619410115949
 30
0.0
 10
398.5729107637849
 20
489.9386464374958
 30
0.0
 10
399.4927719491526
 20
490.0469568689839
 30
0.0
 10
400.1873108693073
 20
490.1417674873402
 30
0.0
 10
400.8318422052594
 20
490.2287814198125
 30
0.0
 10
401.2417714102207
 20
490.2704739354488
 30
0.0
 10
401.4214053899049
 20
490.2887439011313
 30
0.0
  0
ARC
  5
2BC
330
2A9
100
AcDbEntity
  8
$DDT_AUDIT_GENERATED_(75)
  6
Continuous
 62
     7
100
AcDbCircle
 10
360.4179034847
 20
489.7173298198
 30
0.0
 40
5.766650205821851
100
AcDbArc
 50
87.8041785778
 51
147.6175536254
  0
LINE
  5
2BD
330
2A9
100
AcDbEntity
  8
$DDT_AUDIT_GENERATED_(75)
  6
Continuous
 62
     7
100
AcDbLine
 10
355.5479662402
 20
521.4830376776
 30
0.0
 11
407.5480132517
 21
521.4830376776
 31
0.0
  0
ARC
  5
2BE
330
2A9
100
AcDbEntity
  8
$DDT_AUDIT_GENERATED_(75)
  6
Continuous
 62
     7
100
AcDbCircle
 10
517.4981024504
 20
367.1171252431
 30
0.0
 40
92.71178264825542
100
AcDbArc
 50
89.9724938225
 51
105.1586160333
  0
LINE
  5
2BF
330
2A9
100
AcDbEntity
  8
$DDT_AUDIT_GENERATED_(75)
  6
Continuous
 62
     7
100
AcDbLine
 10
522.8755877675
 20
462.4304821157
 30
0.0
 11
522.8876410932
 21
472.8805252471
 31
0.0
  0
ARC
  5
2C0
330
2A9
100
AcDbEntity
  8
$DDT_AUDIT_GENERATED_(75)
  6
Continuous
 62
     7
100
AcDbCircle
 10
520.875616318
 20
462.4334938549
 30
0.0
 40
1.999967754351906
100
AcDbArc
 50
280.3663845911
 51
359.9345302575
  0
SPLINE
  5
2C1
330
2A9
100
AcDbEntity
  8
$DDT_AUDIT_GENERATED_(75)
  6
Continuous
 62
     7
100
AcDbSpline
210
0.0
220
0.0
230
1.0
 70
     8
 71
     3
 72
    11
 73
     7
 74
     0
 42
0.0000000085088688
 43
0.0000000001
 40
0.0
 40
0.0
 40
0.0
 40
0.0
 40
0.3089947555506372
 40
0.6202918549628598
 40
0.9322646739209282
 40
0.9644389378332613
 40
0.9644389378332613
 40
0.9644389378332613
 40
0.9644389378332613
 10
354.6012746570228
 20
488.4998269843145
 30
0.0
 10
354.478445107095
 20
488.4971544096445
 30
0.0
 10
354.2719580854231
 20
488.4869056021494
 30
0.0
 10
353.9343544220923
 20
488.3160638737442
 30
0.0
 10
353.7316139922344
 20
488.1129210817341
 30
0.0
 10
353.6842833915854
 20
487.9958543729274
 30
0.0
 10
353.6799966664062
 20
487.9844249206873
 30
0.0
  0
SPLINE
  5
2C2
330
2A9
100
AcDbEntity
  8
$DDT_AUDIT_GENERATED_(75)
  6
Continuous
 62
     7
100
AcDbSpline
210
0.0
220
0.0
230
1.0
 70
     8
 71
     3
 72
    19
 73
    15
 74
     0
 42
0.0000000119640299
 43
0.0000000001
 40
0.0
 40
0.0
 40
0.0
 40
0.0
 40
0.0065474069441206
 40
0.0285805021648039
 40
0.0554118278744624
 40
0.0823162346719368
 40
0.1089640126383941
 40
0.1353566287819433
 40
0.1614956469760148
 40
0.2813892998215709
 40
0.3848504823941458
 40
0.4853889761045005
 40
0.6165354457872495
 40
0.7202775934761344
 40
0.7202775934761344
 40
0.7202775934761344
 40
0.7202775934761344
 10
353.8107774795212
 20
488.1843045339001
 30
0.0
 10
353.7854582229371
 20
488.1563493643507
 30
0.0
 10
353.6908327616857
 20
488.052503258994
 30
0.0
 10
353.656234098974
 20
487.9582998175372
 30
0.0
 10
353.6307941637879
 20
487.9163065665567
 30
0.0
 10
353.6098778208768
 20
487.8599408130283
 30
0.0
 10
353.594479248398
 20
487.8148730225979
 30
0.0
 10
353.5833716305977
 20
487.7758671762942
 30
0.0
 10
353.5662040447797
 20
487.7053576308874
 30
0.0
 10
353.5653383982066
 20
487.6876936601905
 30
0.0
 10
353.5658099190023
 20
487.6855896532001
 30
0.0
 10
353.5656688140577
 20
487.6759286092731
 30
0.0
 10
353.5667139048177
 20
487.6759548085859
 30
0.0
 10
353.564832489254
 20
487.6581196653398
 30
0.0
 10
353.5659505931056
 20
487.663010131023
 30
0.0
  0
LINE
  5
2C3
330
2A9
100
AcDbEntity
  8
$DDT_AUDIT_GENERATED_(75)
  6
Continuous
 62
     7
100
AcDbLine
 10
354.5543039142
 20
446.5515008578
 30
0.0
 11
354.8749664713
 21
446.5385528988
 31
0.0
  0
LINE
  5
2C4
330
2A9
100
AcDbEntity
  8
$DDT_AUDIT_GENERATED_(75)
  6
Continuous
 62
     7
100
AcDbLine
 10
517.5388606441
 20
459.850543179
 30
0.0
 11
521.091219562
 21
460.4568801701
 31
0.0
  0
ARC
  5
2C5
330
2A9
100
AcDbEntity
  8
$DDT_AUDIT_GENERATED_(75)
  6
Continuous
 62
     7
100
AcDbCircle
 10
301.0212600693
 20
2142.5895374189
 30
0.0
 40
1696.905761988589
100
AcDbArc
 50
271.8186683675
 51
276.5058916888
  0
SPLINE
  5
2C6
330
2A9
100
AcDbEntity
  8
$DDT_AUDIT_GENERATED_(75)
  6
Continuous
 62
     7
100
AcDbSpline
210
0.0
220
0.0
230
1.0
 70
     8
 71
     3
 72
    37
 73
    33
 74
     0
 42
0.000000000248355
 43
0.0000000001
 40
0.0
 40
0.0
 40
0.0
 40
0.0
 40
0.0421789788358025
 40
0.0821144557127024
 40
0.1201310521038479
 40
0.1565947605054261
 40
0.1909307300445082
 40
0.2233795037479964
 40
0.2542336573230122
 40
0.2830983483543957
 40
0.3185062870771581
 40
0.3508006683162914
 40
0.3798832293102665
 40
0.4054448698868798
 40
0.4276980020566594
 40
0.4504675864246248
 40
0.4769470731148333
 40
0.5067535605509154
 40
0.5400153876359276
 40
0.567459959901604
 40
0.5969436542256127
 40
0.6281833362930762
 40
0.6614628981973856
 40
0.6969904739128875
 40
0.7342101804134159
 40
0.7734690590988385
 40
0.8149448949276488
 40
0.858067417141201
 40
0.9035055436347065
 40
0.9347882974557313
 40
0.9668421376810543
 40
1.0
 40
1.0
 40
1.0
 40
1.0
 10
353.5657990278481
 20
487.6845218304878
 30
0.0
 10
353.5658286339981
 20
487.6507154696116
 30
0.0
 10
353.5658774143533
 20
487.5800649031476
 30
0.0
 10
353.5659596150405
 20
487.0672862373862
 30
0.0
 10
353.566036313402
 20
486.3142414950054
 30
0.0
 10
353.5661124710057
 20
485.3438712941467
 30
0.0
 10
353.5661804970775
 20
484.2114198402168
 30
0.0
 10
353.5662457636304
 20
482.9616840281482
 30
0.0
 10
353.5663021791334
 20
481.6354246353388
 30
0.0
 10
353.5663590882145
 20
480.1349554847178
 30
0.0
 10
353.566409365118
 20
478.4828343332257
 30
0.0
 10
353.5664555706717
 20
476.7102284809362
 30
0.0
 10
353.5664889485942
 20
475.0387286941952
 30
0.0
 10
353.5665143070751
 20
473.5090471432179
 30
0.0
 10
353.566531666354
 20
472.0726193440407
 30
0.0
 10
353.5665451211533
 20
470.5934707164776
 30
0.0
 10
353.5665549598892
 20
468.9382147336441
 30
0.0
 10
353.5665574276414
 20
467.0510423730841
 30
0.0
 10
353.5665501358856
 20
465.1471779128723
 30
0.0
 10
353.56653399074
 20
463.2734223255164
 30
0.0
 10
353.5665128325335
 20
461.4760223340372
 30
0.0
 10
353.5664799257382
 20
459.616500265025
 30
0.0
 10
353.5664389945167
 20
457.7205204387821
 30
0.0
 10
353.5663863528002
 20
455.8281231007057
 30
0.0
 10
353.5663233913879
 20
453.9854673423073
 30
0.0
 10
353.5662504800754
 20
452.2450021373048
 30
0.0
 10
353.5661690502793
 20
450.6673568471558
 30
0.0
 10
353.566081917699
 20
449.3166781217439
 30
0.0
 10
353.5659992636489
 20
448.38635601057
 30
0.0
 10
353.5659266342736
 20
447.8120906263892
 30
0.0
 10
353.5658613047034
 20
447.4851821042532
 30
0.0
 10
353.5658235178307
 20
447.4407137336837
 30
0.0
 10
353.5658007920409
 20
447.4195820748595
 30
0.0
  0
SPLINE
  5
2C7
330
2A9
100
AcDbEntity
  8
$DDT_AUDIT_GENERATED_(75)
  6
Continuous
 62
     7
100
AcDbSpline
210
0.0
220
0.0
230
1.0
 70
     8
 71
     3
 72
    42
 73
    38
 74
     0
 42
0.0000000000927073
 43
0.0000000001
 40
0.0
 40
0.0
 40
0.0
 40
0.0
 40
0.0236758587507633
 40
0.052969404834444
 40
0.0813033957085941
 40
0.108714857985303
 40
0.135215124102926
 40
0.1608095542113972
 40
0.1992061901173523
 40
0.2353800904819689
 40
0.2693345197781711
 40
0.3113354887212123
 40
0.3493612856060427
 40
0.3834134113740529
 40
0.413492734727324
 40
0.4358995144487872
 40
0.4554468046291972
 40
0.4721347678017436
 40
0.4859635170192879
 40
0.496933131950115
 40
0.505504999752758
 40
0.5198569056069395
 40
0.5361510609730935
 40
0.5543243503573915
 40
0.5916562738176678
 40
0.6317845425740378
 40
0.6490166083758676
 40
0.6690148928497117
 40
0.691845760230343
 40
0.7175092028576882
 40
0.7501105087401964
 40
0.7863696020298332
 40
0.8262865227636027
 40
0.8698613370750456
 40
0.917094142760621
 40
0.967985076869084
 40
1.0
 40
1.0
 40
1.0
 40
1.0
 10
521.3859133753137
 20
474.7788049734685
 30
0.0
 10
520.477075039112
 20
475.0042249799391
 30
0.0
 10
518.757615729634
 20
475.4295263010706
 30
0.0
 10
515.807176530556
 20
475.9042796524643
 30
0.0
 10
512.8007381582395
 20
476.3525943673192
 30
0.0
 10
509.8653824086371
 20
476.7470316507374
 30
0.0
 10
507.0304110002403
 20
477.1047830127625
 30
0.0
 10
503.7994486373944
 20
477.4905579492239
 30
0.0
 10
500.2209071242225
 20
477.8945658866896
 30
0.0
 10
496.3412058219003
 20
478.3111209159484
 30
0.0
 10
492.3309311561079
 20
478.7246865794888
 30
0.0
 10
488.2527963085635
 20
479.1291271787065
 30
0.0
 10
484.1698351416006
 20
479.5201666470715
 30
0.0
 10
480.5126674797831
 20
479.8609082441168
 30
0.0
 10
477.4140552506564
 20
480.1430714390787
 30
0.0
 10
474.8344454526185
 20
480.3739239635652
 30
0.0
 10
472.7341796549616
 20
480.5594050262985
 30
0.0
 10
470.940987287598
 20
480.7160573409459
 30
0.0
 10
469.4549311310287
 20
480.8447313559844
 30
0.0
 10
468.2595343401822
 20
480.9475102084134
 30
0.0
 10
467.0453486109491
 20
481.0513368410022
 30
0.0
 10
465.6403542752786
 20
481.1707243419349
 30
0.0
 10
463.8912841170122
 20
481.3181361293304
 30
0.0
 10
461.3187375439278
 20
481.5330032211465
 30
0.0
 10
457.8918892681147
 20
481.815186153944
 30
0.0
 10
454.4983461245738
 20
482.0894228614662
 30
0.0
 10
451.7257647570775
 20
482.3105250492866
 30
0.0
 10
449.5730179260928
 20
482.4807527187096
 30
0.0
 10
447.117929053291
 20
482.6730358726145
 30
0.0
 10
444.2108804194383
 20
482.8983038326911
 30
0.0
 10
440.8223290408575
 20
483.1576052563306
 30
0.0
 10
436.9219712055748
 20
483.4517524662831
 30
0.0
 10
432.6299664835292
 20
483.7703381139982
 30
0.0
 10
427.9348375682198
 20
484.1129298636018
 30
0.0
 10
422.8845968096401
 20
484.4744236308781
 30
0.0
 10
418.1051768941734
 20
484.8105297297431
 30
0.0
 10
415.3326231902291
 20
485.0001487241603
 30
0.0
 10
414.0693825575264
 20
485.0864544392348
 30
0.0
  0
ARC
  5
2C8
330
2A9
100
AcDbEntity
  8
$DDT_AUDIT_GENERATED_(75)
  6
Continuous
 62
     7
100
AcDbCircle
 10
520.8876210935
 20
472.8823173972
 30
0.0
 40
2.000015209196866
100
AcDbArc
 50
359.9341903978
 51
74.951360731
  0
ARC
  5
2C9
330
2A9
100
AcDbEntity
  8
$DDT_AUDIT_GENERATED_(75)
  6
Continuous
 62
     7
100
AcDbCircle
 10
414.5480132398
 20
492.071219335
 30
0.0
 40
6.999999988240227
100
AcDbArc
 50
179.999999882
 51
266.0824381523
  0
ARC
  5
2CA
330
2A9
100
AcDbEntity
  8
$DDT_AUDIT_GENERATED_(75)
  6
Continuous
 62
     7
100
AcDbCircle
 10
348.5480133231
 20
492.8057636478
 30
0.0
 40
6.999999928453531
100
AcDbArc
 50
318.5906578151
 51
0.0
  0
SPLINE
  5
2CB
330
2A9
100
AcDbEntity
  8
$DDT_AUDIT_GENERATED_(75)
  6
Continuous
 62
     7
100
AcDbSpline
210
0.0
220
0.0
230
1.0
 70
     8
 71
     3
 72
    20
 73
    16
 74
     0
 42
0.0000000047271819
 43
0.0000000001
 40
0.2556224450603405
 40
0.2556224450603405
 40
0.2556224450603405
 40
0.2556224450603405
 40
0.2717548970886237
 40
0.3474197189607218
 40
0.421306869049152
 40
0.4935998763602483
 40
0.5736295590585578
 40
0.6536583526775005
 40
0.7371723826100384
 40
0.8045768928451494
 40
0.8760326008537067
 40
0.9107077692807183
 40
0.9426274150147906
 40
0.9723211566798833
 40
1.0
 40
1.0
 40
1.0
 40
1.0
 10
353.5664393532036
 20
447.4337984095073
 30
0.0
 10
353.5662441799462
 20
447.4344835610226
 30
0.0
 10
353.5654864464494
 20
447.4366338474821
 30
0.0
 10
353.5660989046564
 20
447.428171764687
 30
0.0
 10
353.5657170992148
 20
447.4227842371015
 30
0.0
 10
353.5656455714091
 20
447.4144675439119
 30
0.0
 10
353.5653994715266
 20
447.4062054562643
 30
0.0
 10
353.5654362412719
 20
447.3949927939769
 30
0.0
 10
353.5644353241858
 20
447.3902323216833
 30
0.0
 10
353.5667794326662
 20
447.3645863747047
 30
0.0
 10
353.5587697025667
 20
447.4063883366975
 30
0.0
 10
353.5750720567326
 20
447.3003650895508
 30
0.0
 10
353.6532357547219
 20
447.0573926741656
 30
0.0
 10
353.9420329763804
 20
446.668442369963
 30
0.0
 10
354.31987520577
 20
446.5895956132434
 30
0.0
 10
354.538553769008
 20
446.5415612160773
 30
0.0
  0
ARC
  5
2CC
330
2A9
100
AcDbEntity
  8
$DDT_AUDIT_GENERATED_(75)
  6
Continuous
 62
     7
100
AcDbCircle
 10
354.5427057585
 20
447.5930999205
 30
0.0
 40
0.9922253577343404
100
AcDbArc
 50
190.0791063304
 51
196.7581837846
  0
ARC
  5
2CD
330
2A9
100
AcDbEntity
  8
$DDT_AUDIT_GENERATED_(75)
  6
Continuous
 62
     7
100
AcDbCircle
 10
354.5427057585
 20
447.5930999205
 30
0.0
 40
0.9922253577343404
100
AcDbArc
 50
251.2533045467
 51
273.4784101488
  0
LINE
  5
2CE
330
2A9
100
AcDbEntity
  8
$DDT_AUDIT_GENERATED_(75)
  6
Continuous
 62
     7
100
AcDbLine
 10
355.5480132517
 20
521.4855376776
 30
0.0
 11
355.5480132517
 21
492.8057636736
 31
0.0
  0
LINE
  5
2CF
330
2A9
100
AcDbEntity
  8
$DDT_AUDIT_GENERATED_(75)
  6
Continuous
 62
     7
100
AcDbLine
 10
407.5480132517
 20
492.0712193482
 30
0.0
 11
407.5480132517
 21
521.4855376776
 31
0.0
  0
LINE
  5
2D0
330
2A9
100
AcDbEntity
  8
$DDT_AUDIT_GENERATED_(75)
  6
Continuous
 62
     7
100
AcDbLine
 10
407.4227442242
 20
521.4830376776
 30
0.0
 11
406.4275622637
 21
522.4830376776
 31
0.0
  0
LINE
  5
2D2
330
2A9
100
AcDbEntity
  8
$DDT_AUDIT_GENERATED_(2D1)
  6
Continuous
 62
     7
100
AcDbLine
 10
353.5480500207
 20
478.0159339511
 30
0.0
 11
353.2480500207
 21
478.0159339511
 31
0.0
  0
LINE
  5
2D3
330
2A9
100
AcDbEntity
  8
$DDT_AUDIT_GENERATED_(2D1)
  6
Continuous
 62
     7
100
AcDbLine
 10
353.2480500207
 20
457.0159339511
 30
0.0
 11
353.5480500207
 21
457.0159339511
 31
0.0
  0
LINE
  5
2D5
330
2A9
100
AcDbEntity
  8
$DDT_AUDIT_GENERATED_(2D4)
  6
Continuous
 62
     7
100
AcDbLine
 10
353.2480500207
 20
448.4659339511
 30
0.0
 11
353.2480500207
 21
486.5659339511
 31
0.0
  0
LINE
  5
2D6
330
2A9
100
AcDbEntity
  8
$DDT_AUDIT_GENERATED_(2D4)
  6
Continuous
 62
     7
100
AcDbLine
 10
353.0480500207
 20
486.7659339511
 30
0.0
 11
336.2480500207
 21
486.7659339511
 31
0.0
  0
LINE
  5
2D7
330
2A9
100
AcDbEntity
  8
$DDT_AUDIT_GENERATED_(2D4)
  6
Continuous
 62
     7
100
AcDbLine
 10
336.2480500207
 20
448.2659339511
 30
0.0
 11
353.0480500207
 21
448.2659339511
 31
0.0
  0
ARC
  5
2D8
330
2A9
100
AcDbEntity
  8
$DDT_AUDIT_GENERATED_(2D4)
  6
Continuous
 62
     7
100
AcDbCircle
 10
353.0480500207
 20
448.4659339511
 30
0.0
 40
0.1999999999999988
100
AcDbArc
 50
270.0
 51
0.0
  0
ARC
  5
2D9
330
2A9
100
AcDbEntity
  8
$DDT_AUDIT_GENERATED_(2D4)
  6
Continuous
 62
     7
100
AcDbCircle
 10
353.0480500207
 20
486.5659339511
 30
0.0
 40
0.1999999999999988
100
AcDbArc
 50
0.0
 51
90.0
  0
LINE
  5
2DA
330
2A9
100
AcDbEntity
  8
$DDT_AUDIT_GENERATED_(97)
  6
Continuous
 62
     7
100
AcDbLine
 10
336.2480500207
 20
445.1021391083
 30
0.0
 11
336.2480500207
 21
489.9297287939
 31
0.0
  0
LINE
  5
2DB
330
2A9
100
AcDbEntity
  8
$DDT_AUDIT_GENERATED_(97)
  6
Continuous
 62
     7
100
AcDbLine
 10
303.2480500207
 20
501.9279969705
 30
0.0
 11
303.2480500207
 21
433.1038709317
 31
0.0
  0
ARC
  5
2DC
330
2A9
100
AcDbEntity
  8
$DDT_AUDIT_GENERATED_(97)
  6
Continuous
 62
     7
100
AcDbCircle
 10
271.4166363089
 20
629.9665888023
 30
0.0
 40
200.0
100
AcDbArc
 50
279.3266153984
 51
287.6531938422
  0
ARC
  5
2DD
330
2A9
100
AcDbEntity
  8
$DDT_AUDIT_GENERATED_(97)
  6
Continuous
 62
     7
100
AcDbCircle
 10
271.4166363089
 20
305.0652790999
 30
0.0
 40
200.0000000000001
100
AcDbArc
 50
72.3468061578
 51
80.6733846016
  0
ARC
  5
2DE
330
2A9
100
AcDbEntity
  8
$DDT_AUDIT_GENERATED_(97)
  6
Continuous
 62
     7
100
AcDbCircle
 10
303.7480500207
 20
501.9279969705
 30
0.0
 40
0.4999999999999994
100
AcDbArc
 50
80.6733846016
 51
180.0
  0
ARC
  5
2DF
330
2A9
100
AcDbEntity
  8
$DDT_AUDIT_GENERATED_(97)
  6
Continuous
 62
     7
100
AcDbCircle
 10
303.7480500207
 20
433.1038709317
 30
0.0
 40
0.5000000000000004
100
AcDbArc
 50
180.0
 51
279.3266153984
  0
ARC
  5
2E0
330
2A9
100
AcDbEntity
  8
$DDT_AUDIT_GENERATED_(97)
  6
Continuous
 62
     7
100
AcDbCircle
 10
330.2480500207
 20
489.9297287939
 30
0.0
 40
6.000000000000002
100
AcDbArc
 50
0.0
 51
72.3468061578
  0
ARC
  5
2E1
330
2A9
100
AcDbEntity
  8
$DDT_AUDIT_GENERATED_(97)
  6
Continuous
 62
     7
100
AcDbCircle
 10
330.2480500207
 20
445.1021391083
 30
0.0
 40
6.00000000000001
100
AcDbArc
 50
287.6531938422
 51
0.0
  0
SPLINE
  5
2E2
330
2A9
100
AcDbEntity
  8
$DDT_AUDIT_GENERATED_(99)
  6
Continuous
 62
     7
100
AcDbSpline
210
0.0
220
0.0
230
1.0
 70
     8
 71
     3
 72
     8
 73
     4
 74
     0
 42
0.0000000050498596
 43
0.0000000001
 40
0.957413666462967
 40
0.957413666462967
 40
0.957413666462967
 40
0.957413666462967
 40
1.0
 40
1.0
 40
1.0
 40
1.0
 10
530.4033347475292
 20
572.3649869197578
 30
0.0
 10
530.431195878121
 20
572.3673962659348
 30
0.0
 10
530.4586660201325
 20
572.3736962528018
 30
0.0
 10
530.4861361621438
 20
572.3799962396686
 30
0.0
  0
ARC
  5
2E3
330
2A9
100
AcDbEntity
  8
$DDT_AUDIT_GENERATED_(99)
  6
Continuous
 62
     7
100
AcDbCircle
 10
529.3228719637
 20
582.4429993727
 30
0.0
 40
10.13001360858633
100
AcDbArc
 50
283.230812828
 51
292.4309289331
  0
ARC
  5
2E4
330
2A9
100
AcDbEntity
  8
$DDT_AUDIT_GENERATED_(99)
  6
Continuous
 62
     7
100
AcDbCircle
 10
529.3228719637
 20
582.4429993727
 30
0.0
 40
10.13001360858633
100
AcDbArc
 50
276.5949070985
 51
283.230812828
  0
SPLINE
  5
2E5
330
2A9
100
AcDbEntity
  8
$DDT_AUDIT_GENERATED_(99)
  6
Continuous
 62
     7
100
AcDbSpline
210
0.0
220
0.0
230
1.0
 70
     8
 71
     3
 72
     9
 73
     5
 74
     0
 42
0.0000000049830426
 43
0.0000000001
 40
0.0424889196075195
 40
0.0424889196075195
 40
0.0424889196075195
 40
0.0424889196075195
 40
0.0593903650378046
 40
0.0711359571648232
 40
0.0711359571648232
 40
0.0711359571648232
 40
0.0711359571648232
 10
530.403879149706
 20
572.3635084886253
 30
0.0
 10
530.3928097316917
 20
572.3625093809468
 30
0.0
 10
530.3739042173105
 20
572.3620191761493
 30
0.0
 10
530.3546588492163
 20
572.3643796245622
 30
0.0
 10
530.3467195874701
 20
572.3658439971491
 30
0.0
  0
SPLINE
  5
2E6
330
2A9
100
AcDbEntity
  8
$DDT_AUDIT_GENERATED_(99)
  6
Continuous
 62
     7
100
AcDbSpline
210
0.0
220
0.0
230
1.0
 70
     8
 71
     3
 72
    20
 73
    16
 74
     0
 42
0.000000001860105
 43
0.0000000001
 40
0.0
 40
0.0
 40
0.0
 40
0.0
 40
0.0078259945534799
 40
0.0156541431815805
 40
0.0234834155740548
 40
0.0313127747406305
 40
0.0469674908714815
 40
0.0626099548029439
 40
0.0938400078406609
 40
0.1250508583543564
 40
0.1563144726905219
 40
0.1875994579993273
 40
0.2499997197912126
 40
0.3749888510589218
 40
0.499983464286446
 40
0.499983464286446
 40
0.499983464286446
 40
0.499983464286446
 10
533.1881751944029
 20
573.0794206420237
 30
0.0
 10
533.2163144395465
 20
573.0835832121458
 30
0.0
 10
533.2726006755918
 20
573.0919094983991
 30
0.0
 10
533.3552375329074
 20
573.1040761351679
 30
0.0
 10
533.436574519212
 20
573.1160138259072
 30
0.0
 10
533.543101021647
 20
573.1315968859874
 30
0.0
 10
533.6727154222251
 20
573.1504601473188
 30
0.0
 10
533.8724177627947
 20
573.179332258264
 30
0.0
 10
534.1079778068184
 20
573.2130295259145
 30
0.0
 10
534.3686434393285
 20
573.250256791474
 30
0.0
 10
534.6071629689459
 20
573.2865367414779
 30
0.0
 10
534.8967670111501
 20
573.3313395335389
 30
0.0
 10
535.3291010391006
 20
573.3993585626043
 30
0.0
 10
535.7374226659288
 20
573.4634783407815
 30
0.0
 10
535.8459580589156
 20
573.4804313529398
 30
0.0
 10
535.8459800183946
 20
573.4804375880809
 30
0.0
  0
SPLINE
  5
2E7
330
2A9
100
AcDbEntity
  8
$DDT_AUDIT_GENERATED_(99)
  6
Continuous
 62
     7
100
AcDbSpline
210
0.0
220
0.0
230
1.0
 70
     8
 71
     3
 72
     8
 73
     4
 74
     0
 42
0.0000000000608323
 43
0.0000000001
 40
0.6449372007972832
 40
0.6449372007972832
 40
0.6449372007972832
 40
0.6449372007972832
 40
0.645642216824576
 40
0.645642216824576
 40
0.645642216824576
 40
0.645642216824576
 10
422.977711472749
 20
558.1203735552916
 30
0.0
 10
422.9398146103704
 20
558.1128674993216
 30
0.0
 10
422.9019219340555
 20
558.1053477083143
 30
0.0
 10
422.8640333713633
 20
558.0978140695036
 30
0.0
  0
ARC
  5
2E8
330
2A9
100
AcDbEntity
  8
$DDT_AUDIT_GENERATED_(99)
  6
Continuous
 62
     7
100
AcDbCircle
 10
426.546505858
 20
534.2559713467
 30
0.0
 40
17.00545731096653
100
AcDbArc
 50
175.7863287497
 51
185.4241199858
  0
LINE
  5
2E9
330
2A9
100
AcDbEntity
  8
$DDT_AUDIT_GENERATED_(99)
  6
Continuous
 62
     7
100
AcDbLine
 10
381.7949462965
 20
523.4830376776
 30
0.0
 11
408.9739677759
 21
523.4830376776
 31
0.0
  0
LINE
  5
2EA
330
2A9
100
AcDbEntity
  8
$DDT_AUDIT_GENERATED_(99)
  6
Continuous
 62
     7
100
AcDbLine
 10
381.7949463227
 20
523.4830376776
 30
0.0
 11
380.820258425
 21
523.4830376776
 31
0.0
  0
LINE
  5
2EB
330
2A9
100
AcDbEntity
  8
$DDT_AUDIT_GENERATED_(99)
  6
Continuous
 62
     7
100
AcDbLine
 10
380.820258425
 20
523.4830376776
 30
0.0
 11
354.222134675
 21
523.4830376776
 31
0.0
  0
ARC
  5
2EC
330
2A9
100
AcDbEntity
  8
$DDT_AUDIT_GENERATED_(99)
  6
Continuous
 62
     7
100
AcDbCircle
 10
529.3253412213
 20
582.4571243158
 30
0.0
 40
10.14216969440104
100
AcDbArc
 50
275.7801560201
 51
283.8364753804
  0
ARC
  5
2ED
330
2A9
100
AcDbEntity
  8
$DDT_AUDIT_GENERATED_(99)
  6
Continuous
 62
     7
100
AcDbCircle
 10
534.8571539456
 20
575.6696632626
 30
0.0
 40
2.402209417423967
100
AcDbArc
 50
279.5795986201
 51
294.307680879
  0
ARC
  5
2EE
330
2A9
100
AcDbEntity
  8
$DDT_AUDIT_GENERATED_(99)
  6
Continuous
 62
     7
100
AcDbCircle
 10
531.9640134338
 20
586.4028714012
 30
0.0
 40
9.184607050806047
100
AcDbArc
 50
275.6455077694
 51
291.3939151575
  0
SPLINE
  5
2EF
330
2A9
100
AcDbEntity
  8
$DDT_AUDIT_GENERATED_(99)
  6
Continuous
 62
     7
100
AcDbSpline
210
0.0
220
0.0
230
1.0
 70
     8
 71
     3
 72
    19
 73
    15
 74
     0
 42
0.0000000021702362
 43
0.0000000001
 40
0.0
 40
0.0
 40
0.0
 40
0.0
 40
0.0828402429748193
 40
0.1579325325884143
 40
0.2252714183161991
 40
0.2850606530136393
 40
0.3814944520849985
 40
0.4521645229980729
 40
0.5422785154325629
 40
0.6634102889208606
 40
0.7358338773539589
 40
0.8161017769943397
 40
0.9041532234795636
 40
1.0
 40
1.0
 40
1.0
 40
1.0
 10
551.6327251514857
 20
580.9794492882731
 30
0.0
 10
551.7558359574477
 20
581.0426566132006
 30
0.0
 10
551.9528364217847
 20
581.1496581535471
 30
0.0
 10
552.2002738656503
 20
581.402281560051
 30
0.0
 10
552.3479350488556
 20
581.6741216855415
 30
0.0
 10
552.4317258125022
 20
582.0063999165233
 30
0.0
 10
552.4156027420328
 20
582.3578646389641
 30
0.0
 10
552.293002700452
 20
582.7315730450038
 30
0.0
 10
552.0641423372583
 20
583.0991765924505
 30
0.0
 10
551.7273640232142
 20
583.3843890278251
 30
0.0
 10
551.3421370346488
 20
583.5497475181115
 30
0.0
 10
550.9802963893668
 20
583.6147368631758
 30
0.0
 10
550.5683888573323
 20
583.5834207437199
 30
0.0
 10
550.3209731762583
 20
583.503447877387
 30
0.0
 10
550.1696720227499
 20
583.4510424043286
 30
0.0
  0
LINE
  5
2F0
330
2A9
100
AcDbEntity
  8
$DDT_AUDIT_GENERATED_(99)
  6
Continuous
 62
     7
100
AcDbLine
 10
535.8459743827
 20
573.4804349103
 30
0.0
 11
551.6327250147
 21
580.9794492297
 31
0.0
  0
LINE
  5
2F1
330
2A9
100
AcDbEntity
  8
$DDT_AUDIT_GENERATED_(99)
  6
Continuous
 62
     7
100
AcDbLine
 10
550.1696721012
 20
583.4510424379
 30
0.0
 11
535.3141915989
 21
577.8510838972
 31
0.0
  0
SPLINE
  5
2F2
330
2A9
100
AcDbEntity
  8
$DDT_AUDIT_GENERATED_(99)
  6
Continuous
 62
     7
100
AcDbSpline
210
0.0
220
0.0
230
1.0
 70
     8
 71
     3
 72
    15
 73
    11
 74
     0
 42
0.0000000000921298
 43
0.0000000001
 40
0.7821206685310838
 40
0.7821206685310838
 40
0.7821206685310838
 40
0.7821206685310838
 40
0.7824343599893927
 40
0.8012202862483461
 40
0.8242599936783035
 40
0.8515607018292463
 40
0.876489639434339
 40
0.90412582154468
 40
0.9344693332542864
 40
0.9584041409042641
 40
0.9584041409042641
 40
0.9584041409042641
 40
0.9584041409042641
 10
506.9708149418653
 20
569.3213122351864
 30
0.0
 10
506.9820614973679
 20
569.3227695758735
 30
0.0
 10
507.6668264164216
 20
569.4115022746955
 30
0.0
 10
509.17761575768
 20
569.6072893551918
 30
0.0
 10
511.6558623694113
 20
569.9284835821094
 30
0.0
 10
514.3546505708339
 20
570.2782618904247
 30
0.0
 10
517.2170389820758
 20
570.649211036232
 30
0.0
 10
520.1933644778338
 20
571.0348573359028
 30
0.0
 10
523.1150064554315
 20
571.4135341564471
 30
0.0
 10
525.0929247924289
 20
571.6700944049907
 30
0.0
 10
525.9463138276506
 20
571.7810197782773
 30
0.0
  0
SPLINE
  5
2F3
330
2A9
100
AcDbEntity
  8
$DDT_AUDIT_GENERATED_(99)
  6
Continuous
 62
     7
100
AcDbSpline
210
0.0
220
0.0
230
1.0
 70
     8
 71
     3
 72
     9
 73
     5
 74
     0
 42
0.00000000009245
 43
0.0000000001
 40
0.9628537859650008
 40
0.9628537859650008
 40
0.9628537859650008
 40
0.9628537859650008
 40
0.9676438547005431
 40
1.0
 40
1.0
 40
1.0
 40
1.0
 10
526.4201436875504
 20
571.8426349122216
 30
0.0
 10
526.5893466542924
 20
571.8646471825743
 30
0.0
 10
527.8940914915498
 20
572.0344719704016
 30
0.0
 10
529.1284757634664
 20
572.1959037076176
 30
0.0
 10
530.4043155948996
 20
572.3627661621872
 30
0.0
  0
SPLINE
  5
2F4
330
2A9
100
AcDbEntity
  8
$DDT_AUDIT_GENERATED_(99)
  6
Continuous
 62
     7
100
AcDbSpline
210
0.0
220
0.0
230
1.0
 70
     8
 71
     3
 72
    57
 73
    53
 74
     0
 42
0.0000000000509902
 43
0.0000000001
 40
0.0
 40
0.0
 40
0.0
 40
0.0
 40
0.0248868909672871
 40
0.0540834043808805
 40
0.081763440871542
 40
0.1079663105456987
 40
0.1326470572420265
 40
0.1556952077851542
 40
0.1806625370111634
 40
0.2031957026538631
 40
0.2233269633226086
 40
0.2412067743358642
 40
0.2569452213386775
 40
0.2705996651582719
 40
0.2828098349649734
 40
0.295380492872414
 40
0.3160390001556607
 40
0.3376922446064297
 40
0.3581384048768489
 40
0.3795025916937364
 40
0.4016880766477394
 40
0.4233394466602649
 40
0.4438275778277491
 40
0.4625207053418358
 40
0.4798166854115267
 40
0.4966214205005013
 40
0.5142989295772302
 40
0.5385162549548108
 40
0.5642617724691313
 40
0.5909387637292343
 40
0.6175640609834384
 40
0.644172022926089
 40
0.6719078582849395
 40
0.7006096683574604
 40
0.7287021884416889
 40
0.7443994296969368
 40
0.7598667539296506
 40
0.7750728709853344
 40
0.7900435522032869
 40
0.8047585776283076
 40
0.8192129252992468
 40
0.8345407938699565
 40
0.8494929873795106
 40
0.8668169345038825
 40
0.8855938231735401
 40
0.9058818493173869
 40
0.9202529787040756
 40
0.9352715416534113
 40
0.9509605267218904
 40
0.9673340091308806
 40
0.9843468128060463
 40
1.0
 40
1.0
 40
1.0
 40
1.0
 10
532.867532313666
 20
577.2627738425209
 30
0.0
 10
531.0886737005386
 20
577.0702137354762
 30
0.0
 10
527.8248659702414
 20
576.7169090032979
 30
0.0
 10
522.3991194453155
 20
576.1295760224436
 30
0.0
 10
517.0305308116324
 20
575.5484303410318
 30
0.0
 10
511.9181126228558
 20
574.9950149192324
 30
0.0
 10
507.1158467778244
 20
574.4751732562647
 30
0.0
 10
502.3916129663448
 20
573.963778500821
 30
0.0
 10
497.8075038071527
 20
573.4675521306898
 30
0.0
 10
493.4127781233557
 20
572.9918263746916
 30
0.0
 10
489.4786350365104
 20
572.5659583348136
 30
0.0
 10
485.9860026873366
 20
572.1878835054665
 30
0.0
 10
482.9142342270741
 20
571.8553668841271
 30
0.0
 10
480.2108772734857
 20
571.5627305401129
 30
0.0
 10
477.7133625849836
 20
571.2923764753499
 30
0.0
 10
474.7607255112896
 20
570.9727557623228
 30
0.0
 10
471.194479723591
 20
570.586712360078
 30
0.0
 10
467.1164856836854
 20
570.1452725634425
 30
0.0
 10
462.9926367750599
 20
569.6988688638188
 30
0.0
 10
458.834202982901
 20
569.2487215417208
 30
0.0
 10
454.5974550287964
 20
568.7900962676456
 30
0.0
 10
450.417632590198
 20
568.3376358264711
 30
0.0
 10
446.4647439186525
 20
567.909732105167
 30
0.0
 10
442.7948631271896
 20
567.512495130492
 30
0.0
 10
439.3643454917834
 20
567.1410405265914
 30
0.0
 10
435.9997692364693
 20
566.77711470909
 30
0.0
 10
432.1855011772231
 20
566.3644440673295
 30
0.0
 10
427.7908372808477
 20
565.8812675517277
 30
0.0
 10
422.8256621074432
 20
565.2169154382708
 30
0.0
 10
417.7106765417219
 20
564.4884840673064
 30
0.0
 10
412.5535988457754
 20
563.6597596749601
 30
0.0
 10
407.3473092923294
 20
562.707678726406
 30
0.0
 10
402.0371160548852
 20
561.5799936450151
 30
0.0
 10
396.6702111575405
 20
560.2638422462322
 30
0.0
 10
392.1193323215354
 20
558.9372304095166
 30
0.0
 10
388.4541271235415
 20
557.6832511905545
 30
0.0
 10
385.6248688326796
 20
556.5943480875063
 30
0.0
 10
382.8870167743402
 20
555.4070557824158
 30
0.0
 10
380.2490316757369
 20
554.1202265087303
 30
0.0
 10
377.7161648873525
 20
552.7368752158397
 30
0.0
 10
375.231365423566
 20
551.2234711351537
 30
0.0
 10
372.8128587312307
 20
549.5779911103384
 30
0.0
 10
370.3350930285014
 20
547.6938669895817
 30
0.0
 10
367.7980598703684
 20
545.5230156775168
 30
0.0
 10
365.1602680205851
 20
542.9449568412533
 30
0.0
 10
362.8404780100979
 20
540.3296839677474
 30
0.0
 10
360.8449981426712
 20
537.7661062045696
 30
0.0
 10
359.1693694624752
 20
535.3419243961677
 30
0.0
 10
357.5764131970736
 20
532.7013088471388
 30
0.0
 10
356.1217824274196
 20
529.8594956568782
 30
0.0
 10
354.8439604682836
 20
526.8430207885531
 30
0.0
 10
354.2705589524467
 20
524.9444657539278
 30
0.0
 10
353.9507709568006
 20
523.8654663945375
 30
0.0
  0
SPLINE
  5
2F5
330
2A9
100
AcDbEntity
  8
$DDT_AUDIT_GENERATED_(99)
  6
Continuous
 62
     7
100
AcDbSpline
210
0.0
220
0.0
230
1.0
 70
     8
 71
     3
 72
    50
 73
    46
 74
     0
 42
0.000000000092203
 43
0.0000000001
 40
0.0
 40
0.0
 40
0.0
 40
0.0
 40
0.0120801287226555
 40
0.0265967801738297
 40
0.0434955124581242
 40
0.061534305016494
 40
0.0763520663231255
 40
0.0876130033361458
 40
0.0949868784918193
 40
0.1016376442547054
 40
0.1099422292256375
 40
0.1199605587143611
 40
0.131835637564252
 40
0.1495512567259496
 40
0.1700169711904556
 40
0.1912626420665082
 40
0.2114848966977683
 40
0.2307582871163372
 40
0.2490183709007008
 40
0.2663394657698497
 40
0.2991855353923194
 40
0.3302222235131307
 40
0.3621939206190909
 40
0.3952019802089713
 40
0.4286615231909345
 40
0.462020163281332
 40
0.4999398149025324
 40
0.5378608190224485
 40
0.5757473276798032
 40
0.6141537237171679
 40
0.6548160211713169
 40
0.6981774492555666
 40
0.7224415585982411
 40
0.7433821873280632
 40
0.761045390847477
 40
0.7771772276134067
 40
0.792888449415232
 40
0.8044811820197871
 40
0.8202731726488154
 40
0.8402693816012601
 40
0.8644858753583414
 40
0.8929178260840435
 40
0.9255095692229672
 40
0.9624091616047613
 40
1.0
 40
1.0
 40
1.0
 40
1.0
 10
422.8978013991093
 20
558.1045245142572
 30
0.0
 10
423.3692194293899
 20
558.1979597100265
 30
0.0
 10
424.2461517336103
 20
558.3710432488004
 30
0.0
 10
425.8243867612688
 20
558.6647366109205
 30
0.0
 10
427.5749784365061
 20
558.9672175374429
 30
0.0
 10
429.3527765351035
 20
559.2541745073783
 30
0.0
 10
430.9278435260359
 20
559.4961979493671
 30
0.0
 10
432.124037253652
 20
559.6724595509213
 30
0.0
 10
433.0288611888191
 20
559.8015435861188
 30
0.0
 10
433.8283081708182
 20
559.9129705267283
 30
0.0
 10
434.7228421796323
 20
560.0346882606517
 30
0.0
 10
435.8051466261375
 20
560.1775499447384
 30
0.0
 10
437.2255999977923
 20
560.3585708907556
 30
0.0
 10
439.0217279932342
 20
560.5796126789
 30
0.0
 10
441.1538266280575
 20
560.8443848298385
 30
0.0
 10
443.3756591144062
 20
561.1220022837219
 30
0.0
 10
445.5544760098459
 20
561.3961661850825
 30
0.0
 10
447.6259792188058
 20
561.6584004484579
 30
0.0
 10
449.5932222292923
 20
561.9088210284094
 30
0.0
 10
452.0469947423711
 20
562.2226171336378
 30
0.0
 10
454.9585204119537
 20
562.5970831950067
 30
0.0
 10
458.3949435343254
 20
563.041170236635
 30
0.0
 10
461.837165549684
 20
563.4871085425049
 30
0.0
 10
465.3662544883954
 20
563.9447585219817
 30
0.0
 10
468.9452334256762
 20
564.4085733142854
 30
0.0
 10
472.7005875754215
 20
564.8943003122791
 30
0.0
 10
476.616172907886
 20
565.3999302400834
 30
0.0
 10
480.6942731567644
 20
565.926025290887
 30
0.0
 10
484.789918484735
 20
566.4541483933145
 30
0.0
 10
488.9838920618344
 20
566.9950222105443
 30
0.0
 10
493.3740480953292
 20
567.5617084369237
 30
0.0
 10
497.2569207540304
 20
568.0635881274226
 30
0.0
 10
500.4325366514081
 20
568.4744744964871
 30
0.0
 10
502.6866759899669
 20
568.7663067957254
 30
0.0
 10
504.6491905236305
 20
569.020494355753
 30
0.0
 10
506.4241770015046
 20
569.2504643966644
 30
0.0
 10
507.9814985120822
 20
569.4522821308263
 30
0.0
 10
509.5266093428125
 20
569.6525452681823
 30
0.0
 10
511.2252788383174
 20
569.8727245102699
 30
0.0
 10
513.3767087294611
 20
570.1515943709102
 30
0.0
 10
515.9803208312013
 20
570.4890544427329
 30
0.0
 10
519.040118514089
 20
570.8855652227428
 30
0.0
 10
522.5332960573883
 20
571.3382523865504
 30
0.0
 10
526.448351676278
 20
571.8457257753948
 30
0.0
 10
528.922158635452
 20
572.1690695760627
 30
0.0
 10
530.4044072354473
 20
572.3628100531918
 30
0.0
  0
SPLINE
  5
2F6
330
2A9
100
AcDbEntity
  8
$DDT_AUDIT_GENERATED_(99)
  6
Continuous
 62
     7
100
AcDbSpline
210
0.0
220
0.0
230
1.0
 70
     8
 71
     3
 72
    20
 73
    16
 74
     0
 42
0.0000000001262991
 43
0.0000000001
 40
0.8938274272600198
 40
0.8938274272600198
 40
0.8938274272600198
 40
0.8938274272600198
 40
0.8994434082384078
 40
0.9057814421798553
 40
0.9121901729168311
 40
0.9210242685049342
 40
0.9297302560904996
 40
0.9376832664516274
 40
0.9487578730354731
 40
0.9606166379957223
 40
0.9649071444902254
 40
0.9700468798716708
 40
0.976190187431735
 40
0.9871324045710483
 40
1.0
 40
1.0
 40
1.0
 40
1.0
 10
415.483375417019
 20
554.2562698936256
 30
0.0
 10
415.4836528569028
 20
554.2556770971951
 30
0.0
 10
415.5073859347256
 20
554.2840235110702
 30
0.0
 10
415.6225732165734
 20
554.4130207343582
 30
0.0
 10
415.8620786446871
 20
554.6513051624551
 30
0.0
 10
416.2809244205789
 20
555.0060260241825
 30
0.0
 10
416.8466532731987
 20
555.3889350219213
 30
0.0
 10
417.5289590979431
 20
555.7754890974096
 30
0.0
 10
418.4128317963597
 20
556.2281968265669
 30
0.0
 10
419.3538209110321
 20
556.6982920435665
 30
0.0
 10
420.1597917581457
 20
557.0619270483705
 30
0.0
 10
420.677600371481
 20
557.2861981892288
 30
0.0
 10
421.3274861499929
 20
557.5652527072526
 30
0.0
 10
422.1015145403359
 20
557.8944597441804
 30
0.0
 10
422.5767530642615
 20
558.0214493859654
 30
0.0
 10
422.8746658567816
 20
558.0999392261288
 30
0.0
  0
SPLINE
  5
2F7
330
2A9
100
AcDbEntity
  8
$DDT_AUDIT_GENERATED_(99)
  6
Continuous
 62
     7
100
AcDbSpline
210
0.0
220
0.0
230
1.0
 70
     8
 71
     3
 72
    23
 73
    19
 74
     0
 42
0.000000000385069
 43
0.0000000001
 40
0.0
 40
0.0
 40
0.0
 40
0.0
 40
0.0257495948682314
 40
0.0863434132037701
 40
0.144808169935107
 40
0.2010333378076004
 40
0.255092481986021
 40
0.3055533937890409
 40
0.3494483988781567
 40
0.3825383716231416
 40
0.4128531185269045
 40
0.4275085706012168
 40
0.4415004467135977
 40
0.4562345585370368
 40
0.4731820599501598
 40
0.5144995047359026
 40
0.5657392542237677
 40
0.6157161364962698
 40
0.6157161364962698
 40
0.6157161364962698
 40
0.6157161364962698
 10
410.3479449174027
 20
539.4019035965769
 30
0.0
 10
410.3954683791849
 20
539.7305859203578
 30
0.0
 10
410.5324686439835
 20
540.6688240931155
 30
0.0
 10
410.8604946723331
 20
542.3819563581009
 30
0.0
 10
411.3118736104573
 20
544.3724057705042
 30
0.0
 10
411.8352322398015
 20
546.2851270816069
 30
0.0
 10
412.4164907689183
 20
548.0774974414961
 30
0.0
 10
413.0369291991635
 20
549.7052556331021
 30
0.0
 10
413.6403205421062
 20
551.0672228437226
 30
0.0
 10
414.1849505138087
 20
552.1600791350633
 30
0.0
 10
414.6080240557357
 20
552.9191267870655
 30
0.0
 10
414.9151369879509
 20
553.4305591879277
 30
0.0
 10
415.0854487720189
 20
553.7037428436231
 30
0.0
 10
415.1686030983632
 20
553.831792044604
 30
0.0
 10
415.1967019015106
 20
553.8721909823008
 30
0.0
 10
415.2866411318212
 20
554.0029450765678
 30
0.0
 10
415.3797552471181
 20
554.1279040414863
 30
0.0
 10
415.4810997507296
 20
554.2567385854869
 30
0.0
 10
415.5734855392917
 20
554.357137737957
 30
0.0
  0
SPLINE
  5
2F8
330
2A9
100
AcDbEntity
  8
$DDT_AUDIT_GENERATED_(99)
  6
Continuous
 62
     7
100
AcDbSpline
210
0.0
220
0.0
230
1.0
 70
     8
 71
     3
 72
     8
 73
     4
 74
     0
 42
0.0000000005658409
 43
0.0000000001
 40
0.9963255008292595
 40
0.9963255008292595
 40
0.9963255008292595
 40
0.9963255008292595
 40
1.0
 40
1.0
 40
1.0
 40
1.0
 10
422.827158717943
 20
558.0876013697755
 30
0.0
 10
422.8479100401633
 20
558.0926944924277
 30
0.0
 10
422.868919180173
 20
558.0978261795979
 30
0.0
 10
422.8902391284234
 20
558.1030253399828
 30
0.0
  0
ARC
  5
2F9
330
2A9
100
AcDbEntity
  8
$DDT_AUDIT_GENERATED_(99)
  6
Continuous
 62
     7
100
AcDbCircle
 10
558.3556958148
 20
522.2287939203
 30
0.0
 40
149.0893432462191
100
AcDbArc
 50
175.9790893673
 51
179.40539253
  0
ARC
  5
2FA
330
2A9
100
AcDbEntity
  8
$DDT_AUDIT_GENERATED_(99)
  6
Continuous
 62
     7
100
AcDbCircle
 10
408.9739724143
 20
523.7830375294
 30
0.0
 40
0.2999979410126029
100
AcDbArc
 50
269.935372839
 51
357.8891733575
  0
ARC
  5
2FB
330
2A9
100
AcDbEntity
  8
$DDT_AUDIT_GENERATED_(99)
  6
Continuous
 62
     7
100
AcDbCircle
 10
354.2221352129
 20
523.7830376776
 30
0.0
 40
0.3000000000836895
100
AcDbArc
 50
163.3519304595
 51
269.9995975215
  0
LINE
  5
2FC
330
2A9
100
AcDbEntity
  8
$DDT_AUDIT_GENERATED_(A8)
  6
Continuous
 62
     7
100
AcDbLine
 10
495.4267029989
 20
451.221804665
 30
0.0
 11
516.7664452592
 21
453.8419955483
 31
0.0
  0
SPLINE
  5
2FD
330
2A9
100
AcDbEntity
  8
$DDT_AUDIT_GENERATED_(A8)
  6
Continuous
 62
     7
100
AcDbSpline
210
0.0
220
0.0
230
1.0
 70
     8
 71
     3
 72
    10
 73
     6
 74
     0
 42
0.0000000019260163
 43
0.0000000001
 40
0.0
 40
0.0
 40
0.0
 40
0.0
 40
0.5
 40
0.5
 40
1.0
 40
1.0
 40
1.0
 40
1.0
 10
503.4906513881155
 20
452.5318603650759
 30
0.0
 10
504.3617008976312
 20
452.5238310811893
 30
0.0
 10
505.228676630719
 20
452.5705083646029
 30
0.0
 10
506.9401597827859
 20
452.781151349314
 30
0.0
 10
507.7867821231225
 20
452.9450484842827
 30
0.0
 10
508.6250994419545
 20
453.1622913148453
 30
0.0
  0
LINE
  5
2FE
330
2A9
100
AcDbEntity
  8
$DDT_AUDIT_GENERATED_(A8)
  6
Continuous
 62
     7
100
AcDbLine
 10
501.4919689269
 20
454.9890551552
 30
0.0
 11
509.9699632708
 21
456.030021968
 31
0.0
  0
LINE
  5
2FF
330
2A9
100
AcDbEntity
  8
$DDT_AUDIT_GENERATED_(A8)
  6
Continuous
 62
     7
100
AcDbLine
 10
501.4919689269
 20
454.9890551552
 30
0.0
 11
501.7133362958
 21
453.1861626153
 31
0.0
  0
SPLINE
  5
300
330
2A9
100
AcDbEntity
  8
$DDT_AUDIT_GENERATED_(A8)
  6
Continuous
 62
     7
100
AcDbSpline
210
0.0
220
0.0
230
1.0
 70
     8
 71
     3
 72
    16
 73
    12
 74
     0
 42
0.0000000049361374
 43
0.0000000001
 40
0.0
 40
0.0
 40
0.0
 40
0.0
 40
0.1250000000000004
 40
0.1250000000000004
 40
0.2500000000000008
 40
0.2500000000000008
 40
0.5000000000000004
 40
0.5000000000000004
 40
0.7500000000000002
 40
0.7500000000000002
 40
1.0
 40
1.0
 40
1.0
 40
1.0
 10
501.7133362957729
 20
453.1861626152863
 30
0.0
 10
501.7238179886457
 20
453.100796077378
 30
0.0
 10
501.7654911575151
 20
453.0232046076457
 30
0.0
 10
501.8782923804216
 20
452.8959499581458
 30
0.0
 10
501.9475437799608
 20
452.845591544391
 30
0.0
 10
502.1686153335572
 20
452.7193532695575
 30
0.0
 10
502.3303698615811
 20
452.6682630857268
 30
0.0
 10
502.6597719286684
 20
452.5924544666436
 30
0.0
 10
502.8265086578025
 20
452.5695944050327
 30
0.0
 10
503.1584585897243
 20
452.5399672827845
 30
0.0
 10
503.3245265254038
 20
452.5333916944306
 30
0.0
 10
503.4906513881155
 20
452.5318603650759
 30
0.0
  0
SPLINE
  5
301
330
2A9
100
AcDbEntity
  8
$DDT_AUDIT_GENERATED_(A8)
  6
Continuous
 62
     7
100
AcDbSpline
210
0.0
220
0.0
230
1.0
 70
     8
 71
     3
 72
    18
 73
    14
 74
     0
 42
0.0000000049401278
 43
0.0000000001
 40
0.0
 40
0.0
 40
0.0
 40
0.0
 40
0.25
 40
0.25
 40
0.5
 40
0.5
 40
0.625
 40
0.625
 40
0.75
 40
0.75
 40
0.875
 40
0.875
 40
1.0
 40
1.0
 40
1.0
 40
1.0
 10
508.6250994419545
 20
453.1622913148453
 30
0.0
 10
508.7871287004377
 20
453.2042798243942
 30
0.0
 10
508.9477779291549
 20
453.2512013481591
 30
0.0
 10
509.2645709816364
 20
453.3611492850366
 30
0.0
 10
509.4215325118332
 20
453.4243263575633
 30
0.0
 10
509.6451495606521
 20
453.5384587508954
 30
0.0
 10
509.7178390659511
 20
453.5798027869752
 30
0.0
 10
509.8576643752492
 20
453.6723997954833
 30
0.0
 10
509.9256010309392
 20
453.7242386385719
 30
0.0
 10
510.0468590771399
 20
453.8405463658997
 30
0.0
 10
510.1012285893365
 20
453.905167907877
 30
0.0
 10
510.1803315953676
 20
454.0567211062015
 30
0.0
 10
510.2017655560915
 20
454.1421438535611
 30
0.0
 10
510.1913306396344
 20
454.2271294281347
 30
0.0
  0
LINE
  5
302
330
2A9
100
AcDbEntity
  8
$DDT_AUDIT_GENERATED_(A8)
  6
Continuous
 62
     7
100
AcDbLine
 10
510.1913306396
 20
454.2271294281
 30
0.0
 11
509.9699632708
 21
456.030021968
 31
0.0
  0
LINE
  5
303
330
2A9
100
AcDbEntity
  8
$DDT_AUDIT_GENERATED_(A8)
  6
Continuous
 62
     7
100
AcDbLine
 10
494.8421039015
 20
451.4699522595
 30
0.0
 11
495.4267029989
 21
451.221804665
 31
0.0
  0
LINE
  5
304
330
2A9
100
AcDbEntity
  8
$DDT_AUDIT_GENERATED_(A8)
  6
Continuous
 62
     7
100
AcDbLine
 10
516.7664452592
 20
453.8419955483
 30
0.0
 11
517.2736469286
 21
454.2241994204
 31
0.0
  0
ARC
  5
305
330
2A9
100
AcDbEntity
  8
$DDT_AUDIT_GENERATED_(A8)
  6
Continuous
 62
     7
100
AcDbCircle
 10
495.23283503
 20
452.3904571129
 30
0.0
 40
0.9999999999999996
100
AcDbArc
 50
187.0
 51
247.0
  0
LINE
  5
306
330
2A9
100
AcDbEntity
  8
$DDT_AUDIT_GENERATED_(A8)
  6
Continuous
 62
     7
100
AcDbLine
 10
493.6897961437
 20
456.7519913066
 30
0.0
 11
494.2402888783
 21
452.2685877695
 31
0.0
  0
LINE
  5
307
330
2A9
100
AcDbEntity
  8
$DDT_AUDIT_GENERATED_(A8)
  6
Continuous
 62
     7
100
AcDbLine
 10
517.6643780571
 20
455.1447042739
 30
0.0
 11
517.0923983711
 21
459.8031049865
 31
0.0
  0
ARC
  5
308
330
2A9
100
AcDbEntity
  8
$DDT_AUDIT_GENERATED_(A8)
  6
Continuous
 62
     7
100
AcDbCircle
 10
516.6718319054
 20
455.0228349305
 30
0.0
 40
0.9999999999999961
100
AcDbArc
 50
307.0
 51
7.0
  0
LINE
  5
309
330
2A9
100
AcDbEntity
  8
$DDT_AUDIT_GENERATED_(29C)
  6
Continuous
 62
     7
100
AcDbLine
 10
406.5696406976
 20
522.4830376776
 30
0.0
 11
356.5264593439
 21
522.4830376776
 31
0.0
  0
ARC
  5
30A
330
2A9
100
AcDbEntity
  8
$DDT_AUDIT_GENERATED_(29C)
  6
Continuous
 62
     7
100
AcDbCircle
 10
381.5480500207
 20
514.3830376776
 30
0.0
 40
26.3
100
AcDbArc
 50
17.9378265217
 51
20.2905679619
  0
ARC
  5
30B
330
2A9
100
AcDbEntity
  8
$DDT_AUDIT_GENERATED_(29C)
  6
Continuous
 62
     7
100
AcDbCircle
 10
381.5480500207
 20
514.3830376776
 30
0.0
 40
26.3
100
AcDbArc
 50
159.7523455866
 51
162.0621734783
  0
LINE
  5
30C
330
2A9
100
AcDbEntity
  8
$DDT_AUDIT_GENERATED_(2A0)
  6
Continuous
 62
     7
100
AcDbLine
 10
410.377911877
 20
539.4955623863
 30
0.0
 11
409.4453384011
 21
534.6978877657
 31
0.0
  0
ENDBLK
  5
30E
330
2A9
100
AcDbEntity
  8
0
100
AcDbBlockEnd
  0
BLOCK
  5
357
330
30F
100
AcDbEntity
  8
0
100
AcDbBlockBegin
  2
SE2
 70
     0
 10
0.0
 20
0.0
 30
0.0
  3
SE2
  1

  0
SPLINE
  5
311
330
30F
100
AcDbEntity
  8
$DDT_AUDIT_GENERATED_(75)
  6
Continuous
 62
     7
100
AcDbSpline
210
0.0
220
0.0
230
1.0
 70
     8
 71
     3
 72
    19
 73
    15
 74
     0
 42
0.0000000003565024
 43
0.0000000001
 40
0.0946869109390569
 40
0.0946869109390569
 40
0.0946869109390569
 40
0.0946869109390569
 40
0.1229330965602433
 40
0.1542137692709621
 40
0.1854933104089546
 40
0.2169977177033292
 40
0.2485318395441144
 40
0.2801284251871988
 40
0.3117580579183739
 40
0.3432935352204584
 40
0.3748348304172305
 40
0.4373145766238897
 40
0.4997943586510413
 40
0.504690287112978
 40
0.504690287112978
 40
0.504690287112978
 40
0.504690287112978
 10
36.48831114990065
 20
283.0614599462838
 30
0.0
 10
36.05287279103057
 20
283.1773429781242
 30
0.0
 10
35.14654685436727
 20
283.4185301197754
 30
0.0
 10
33.81383724997031
 20
283.7733379330793
 30
0.0
 10
32.49500457465926
 20
284.1245077066897
 30
0.0
 10
31.25204873625054
 20
284.4555080453389
 30
0.0
 10
30.0932355311833
 20
284.7640920170531
 30
0.0
 10
29.03809166312085
 20
285.0450754732993
 30
0.0
 10
28.09511835272178
 20
285.2961913740713
 30
0.0
 10
27.28043722742239
 20
285.5131462726203
 30
0.0
 10
26.37596574385687
 20
285.7540162130176
 30
0.0
 10
25.60211853993972
 20
285.960105473235
 30
0.0
 10
25.38349310479486
 20
286.0183340527316
 30
0.0
 10
25.39098698630976
 20
286.0163404604342
 30
0.0
 10
25.39216899916338
 20
286.0160258250349
 30
0.0
  0
SPLINE
  5
312
330
30F
100
AcDbEntity
  8
$DDT_AUDIT_GENERATED_(75)
  6
Continuous
 62
     7
100
AcDbSpline
210
0.0
220
0.0
230
1.0
 70
     8
 71
     3
 72
    12
 73
     8
 74
     0
 42
0.0000000002059347
 43
0.0000000001
 40
0.8719249246195498
 40
0.8719249246195498
 40
0.8719249246195498
 40
0.8719249246195498
 40
0.8749010623135369
 40
0.9374116853959826
 40
0.9687020542402391
 40
0.984170227292559
 40
1.0
 40
1.0
 40
1.0
 40
1.0
 10
34.96161077643423
 20
283.4674649521487
 30
0.0
 10
35.00587375257057
 20
283.4556794707889
 30
0.0
 10
35.98166481106252
 20
283.1958731057726
 30
0.0
 10
37.48213347294864
 20
282.7966662008658
 30
0.0
 10
39.2168724955764
 20
282.3339800796141
 30
0.0
 10
40.21710723601009
 20
282.0684962220467
 30
0.0
 10
40.71802162708347
 20
281.9347160679412
 30
0.0
 10
40.9713725313421
 20
281.8670531637356
 30
0.0
  0
LINE
  5
313
330
30F
100
AcDbEntity
  8
$DDT_AUDIT_GENERATED_(75)
  6
Continuous
 62
     7
100
AcDbLine
 10
40.9713467525
 20
281.8669564036
 30
0.0
 11
41.3490122265
 21
281.7662280829
 31
0.0
  0
LINE
  5
314
330
30F
100
AcDbEntity
  8
$DDT_AUDIT_GENERATED_(75)
  6
Continuous
 62
     7
100
AcDbLine
 10
41.3489641892
 20
281.7661870013
 30
0.0
 11
40.9804523352
 21
281.8646618102
 31
0.0
  0
SPLINE
  5
315
330
30F
100
AcDbEntity
  8
$DDT_AUDIT_GENERATED_(75)
  6
Continuous
 62
     7
100
AcDbSpline
210
0.0
220
0.0
230
1.0
 70
     8
 71
     3
 72
    10
 73
     6
 74
     0
 42
0.0000000000263411
 43
0.0000000001
 40
0.0
 40
0.0
 40
0.0
 40
0.0
 40
0.0178958853310217
 40
0.0268438323007615
 40
0.0316947086389241
 40
0.0316947086389241
 40
0.0316947086389241
 40
0.0316947086389241
 10
41.3490181588176
 20
281.7662230940136
 30
0.0
 10
43.53745378451976
 20
281.1835935108638
 30
0.0
 10
46.82010729578676
 20
280.3096491671481
 30
0.0
 10
50.69575568037429
 20
279.2774611364386
 30
0.0
 10
52.38310449234937
 20
278.8281600408193
 30
0.0
 10
52.97627892450464
 20
278.670204439611
 30
0.0
  0
SPLINE
  5
316
330
30F
100
AcDbEntity
  8
$DDT_AUDIT_GENERATED_(75)
  6
Continuous
 62
     7
100
AcDbSpline
210
0.0
220
0.0
230
1.0
 70
     8
 71
     3
 72
    33
 73
    29
 74
     0
 42
0.0000000000263527
 43
0.0000000001
 40
0.0
 40
0.0
 40
0.0
 40
0.0
 40
0.0156960874542889
 40
0.023544149593142
 40
0.0313922094191367
 40
0.0470883121088449
 40
0.0627844375945991
 40
0.0784805776474335
 40
0.0863284952622226
 40
0.0902488409142125
 40
0.0941694545383539
 40
0.101763590290152
 40
0.1098738228479076
 40
0.1255373819953199
 40
0.1411234606877428
 40
0.1567831187965611
 40
0.1646307881634714
 40
0.1724790438028414
 40
0.1881377017614652
 40
0.195978283419472
 40
0.2038245237346969
 40
0.2195193718805628
 40
0.2352149596470042
 40
0.2509102186721335
 40
0.2822965230213836
 40
0.2979876960823533
 40
0.3136794853782487
 40
0.3383806654562667
 40
0.3383806654562667
 40
0.3383806654562667
 40
0.3383806654562667
 10
191.3518119495839
 20
281.7662743194628
 30
0.0
 10
189.4322668707721
 20
281.2547630628416
 30
0.0
 10
186.552955337888
 20
280.4874962595363
 30
0.0
 10
182.7138539104658
 20
279.4648948679231
 30
0.0
 10
178.8747449616321
 20
278.4424164700783
 30
0.0
 10
174.0761131080125
 20
277.1631430049185
 30
0.0
 10
168.3166389523199
 20
275.6318817170315
 30
0.0
 10
163.5203966342793
 20
274.3445749078896
 30
0.0
 10
160.1531255265318
 20
273.4805726951918
 30
0.0
 10
158.2508160709678
 20
272.9100676751233
 30
0.0
 10
156.4016216753307
 20
272.2785748087497
 30
0.0
 10
154.1237343411202
 20
271.2716613413796
 30
0.0
 10
150.7009837376884
 20
269.2528722133904
 30
0.0
 10
146.7485465901896
 20
266.1872597862988
 30
0.0
 10
142.7725059266823
 20
261.7484210542173
 30
0.0
 10
140.1566168356634
 20
257.5275662663134
 30
0.0
 10
138.5367898879132
 20
253.9077928563307
 30
0.0
 10
137.2447731122365
 20
250.1623852723891
 30
0.0
 10
136.4450688162841
 20
246.2582578107385
 30
0.0
 10
136.2163312610722
 20
242.3066115996314
 30
0.0
 10
136.0283298486863
 20
238.3497899923551
 30
0.0
 10
135.7723967446299
 20
233.4041564225109
 30
0.0
 10
135.4733050698862
 20
227.4692999027939
 30
0.0
 10
135.0723102962838
 20
219.5564522322966
 30
0.0
 10
134.6720605981578
 20
211.6428382886047
 30
0.0
 10
134.2712510164431
 20
203.7283377301451
 30
0.0
 10
133.9132098030807
 20
196.6571626728049
 30
0.0
 10
133.6555143012465
 20
191.5660112603936
 30
0.0
 10
133.49796343814
 20
188.4533007171398
 30
0.0
  0
SPLINE
  5
317
330
30F
100
AcDbEntity
  8
$DDT_AUDIT_GENERATED_(75)
  6
Continuous
 62
     7
100
AcDbSpline
210
0.0
220
0.0
230
1.0
 70
     8
 71
     3
 72
    37
 73
    33
 74
     0
 42
0.0000000000263572
 43
0.0000000001
 40
0.6616360509904922
 40
0.6616360509904922
 40
0.6616360509904922
 40
0.6616360509904922
 40
0.687500708894305
 40
0.7021429084292453
 40
0.7176146818502394
 40
0.7355534306685433
 40
0.7490089022528837
 40
0.7647081786708435
 40
0.7804076955822946
 40
0.7961064560385444
 40
0.8000307113369434
 40
0.8039545964848617
 40
0.8117970095645738
 40
0.819635850666676
 40
0.8235573106941798
 40
0.8274769867090999
 40
0.8353269436855671
 40
0.843176270612725
 40
0.8588395875406225
 40
0.874429486946702
 40
0.8900967950475488
 40
0.8982096226981279
 40
0.9058085368883472
 40
0.9097258756558548
 40
0.9136508743678224
 40
0.9215006828716669
 40
0.937200567244557
 40
0.9529004458881908
 40
0.9686003027729351
 40
0.976450233739909
 40
0.9843001576738247
 40
1.0
 40
1.0
 40
1.0
 40
1.0
 10
99.20219946901376
 20
188.4662900558025
 30
0.0
 10
99.03722783865709
 20
191.7256086457629
 30
0.0
 10
98.77880337541087
 20
196.8311845431186
 30
0.0
 10
98.4214200533461
 20
203.8891355919085
 30
0.0
 10
98.11462095380882
 20
209.9479984458101
 30
0.0
 10
97.81552586867323
 20
215.8565945818425
 30
0.0
 10
97.51502547112544
 20
221.7931846166686
 30
0.0
 10
97.22945393038968
 20
227.4468999214098
 30
0.0
 10
96.92645744216739
 20
233.3831612190306
 30
0.0
 10
96.70680270777746
 20
237.8357526867266
 30
0.0
 10
96.54964959358934
 20
240.804152043866
 30
0.0
 10
96.4601120492961
 20
242.782704775313
 30
0.0
 10
96.31449102548821
 20
245.254618946571
 30
0.0
 10
95.93207222645859
 20
247.7044845343183
 30
0.0
 10
95.49821526169926
 20
249.6361201750179
 30
0.0
 10
94.97801812477397
 20
251.5479340022376
 30
0.0
 10
94.16968598923839
 20
253.8932107781783
 30
0.0
 10
92.55159505268864
 20
257.5140432383092
 30
0.0
 10
89.9367538850407
 20
261.7372943141253
 30
0.0
 10
85.96157827922276
 20
266.1786847463018
 30
0.0
 10
82.00919638857278
 20
269.2465644526121
 30
0.0
 10
78.58583560648019
 20
271.267026936318
 30
0.0
 10
76.30794290936574
 20
272.2752314626916
 30
0.0
 10
74.45817124070825
 20
272.9074592962467
 30
0.0
 10
72.55557631825837
 20
273.4784624272636
 30
0.0
 10
69.18707208891783
 20
274.3429014360465
 30
0.0
 10
64.38964752006535
 20
275.63039118648
 30
0.0
 10
58.62881006626693
 20
277.1620598643241
 30
0.0
 10
53.82902762026778
 20
278.4416289910866
 30
0.0
 10
49.98900477416412
 20
279.4643510769438
 30
0.0
 10
46.14898543626464
 20
280.4871961463725
 30
0.0
 10
43.26898758609375
 20
281.2546467041679
 30
0.0
 10
41.34898899194571
 20
281.7662793937512
 30
0.0
  0
SPLINE
  5
318
330
30F
100
AcDbEntity
  8
$DDT_AUDIT_GENERATED_(75)
  6
Continuous
 62
     7
100
AcDbSpline
210
0.0
220
0.0
230
1.0
 70
     8
 71
     3
 72
    11
 73
     7
 74
     0
 42
0.0000000002428507
 43
0.0000000001
 40
0.1404720643899598
 40
0.1404720643899598
 40
0.1404720643899598
 40
0.1404720643899598
 40
0.1564542009415671
 40
0.1877550891878925
 40
0.2193006434159943
 40
0.2502848059761798
 40
0.2502848059761798
 40
0.2502848059761798
 40
0.2502848059761798
 10
198.2864507009762
 20
283.6131858966521
 30
0.0
 10
198.5202198140125
 20
283.6754417655571
 30
0.0
 10
199.204250184603
 20
283.8576265005017
 30
0.0
 10
200.3046031118071
 20
284.1506966138642
 30
0.0
 10
201.5346635141578
 20
284.4783146975976
 30
0.0
 10
202.295788140432
 20
284.6810191237699
 30
0.0
 10
202.6559528599551
 20
284.7769382920312
 30
0.0
  0
SPLINE
  5
319
330
30F
100
AcDbEntity
  8
$DDT_AUDIT_GENERATED_(75)
  6
Continuous
 62
     7
100
AcDbSpline
210
0.0
220
0.0
230
1.0
 70
     8
 71
     3
 72
     8
 73
     4
 74
     0
 42
0.0000000109491653
 43
0.0000000001
 40
0.492591007989493
 40
0.492591007989493
 40
0.492591007989493
 40
0.492591007989493
 40
0.4963913777506908
 40
0.4963913777506908
 40
0.4963913777506908
 40
0.4963913777506908
 10
207.3059066768171
 20
286.0152859880085
 30
0.0
 10
207.3074086314048
 20
286.0156858843261
 30
0.0
 10
207.3085268115629
 20
286.0159835745446
 30
0.0
 10
207.309260769364
 20
286.0161789393387
 30
0.0
  0
SPLINE
  5
31A
330
30F
100
AcDbEntity
  8
$DDT_AUDIT_GENERATED_(75)
  6
Continuous
 62
     7
100
AcDbSpline
210
0.0
220
0.0
230
1.0
 70
     8
 71
     3
 72
     9
 73
     5
 74
     0
 42
0.0000000002012958
 43
0.0000000001
 40
0.984514964170638
 40
0.984514964170638
 40
0.984514964170638
 40
0.984514964170638
 40
0.9870224243713953
 40
1.0
 40
1.0
 40
1.0
 40
1.0
 10
192.4639439165233
 20
282.0631003454701
 30
0.0
 10
192.4238462288254
 20
282.0524074440277
 30
0.0
 10
192.1761870673272
 20
281.9863530988508
 30
0.0
 10
191.9283772263618
 20
281.9201808086399
 30
0.0
 10
191.7206947740818
 20
281.8647236748471
 30
0.0
  0
LINE
  5
31B
330
30F
100
AcDbEntity
  8
$DDT_AUDIT_GENERATED_(75)
  6
Continuous
 62
     7
100
AcDbLine
 10
191.7207102613
 20
281.8646654164
 30
0.0
 11
191.3518083658
 21
281.7662743721
 31
0.0
  0
LINE
  5
31C
330
30F
100
AcDbEntity
  8
$DDT_AUDIT_GENERATED_(75)
  6
Continuous
 62
     7
100
AcDbLine
 10
211.2517009773
 20
305.2903919059
 30
0.0
 11
191.3464665569
 21
305.2903968946
 31
0.0
  0
LINE
  5
31D
330
30F
100
AcDbEntity
  8
$DDT_AUDIT_GENERATED_(75)
  6
Continuous
 62
     7
100
AcDbLine
 10
180.8496361623
 20
305.2903983387
 30
0.0
 11
51.8496474259
 21
305.2904160806
 31
0.0
  0
LINE
  5
31E
330
30F
100
AcDbEntity
  8
$DDT_AUDIT_GENERATED_(75)
  6
Continuous
 62
     7
100
AcDbLine
 10
41.3544443043
 20
305.2904175235
 30
0.0
 11
21.4493183963
 21
305.2904180085
 31
0.0
  0
ARC
  5
31F
330
30F
100
AcDbEntity
  8
$DDT_AUDIT_GENERATED_(75)
  6
Continuous
 62
     7
100
AcDbCircle
 10
-22.0705162594
 20
225.9874142673
 30
0.0
 40
220.9727491218452
100
AcDbArc
 50
14.6473749619
 51
14.6535060618
  0
SPLINE
  5
320
330
30F
100
AcDbEntity
  8
$DDT_AUDIT_GENERATED_(75)
  6
Continuous
 62
     7
100
AcDbSpline
210
0.0
220
0.0
230
1.0
 70
     8
 71
     3
 72
     8
 73
     4
 74
     0
 42
0.0000000074632786
 43
0.0000000001
 40
0.0
 40
0.0
 40
0.0
 40
0.0
 40
1.0
 40
1.0
 40
1.0
 40
1.0
 10
192.3458635695348
 20
282.0315827183458
 30
0.0
 10
192.7636778061357
 20
282.1426117031898
 30
0.0
 10
193.1952742868616
 20
282.2575199658473
 30
0.0
 10
193.6406530117123
 20
282.3763075063183
 30
0.0
  0
SPLINE
  5
321
330
30F
100
AcDbEntity
  8
$DDT_AUDIT_GENERATED_(75)
  6
Continuous
 62
     7
100
AcDbSpline
210
0.0
220
0.0
230
1.0
 70
     8
 71
     3
 72
     8
 73
     4
 74
     0
 42
0.0000000093130148
 43
0.0000000001
 40
0.3908725525428088
 40
0.3908725525428088
 40
0.3908725525428088
 40
0.3908725525428088
 40
1.0
 40
1.0
 40
1.0
 40
1.0
 10
191.7206082377069
 20
281.8646036878952
 30
0.0
 10
191.9192710982921
 20
281.9175751443782
 30
0.0
 10
192.1299358700031
 20
281.9737279454823
 30
0.0
 10
192.3526025528399
 20
282.0330620912073
 30
0.0
  0
SPLINE
  5
322
330
30F
100
AcDbEntity
  8
$DDT_AUDIT_GENERATED_(75)
  6
Continuous
 62
     7
100
AcDbSpline
210
0.0
220
0.0
230
1.0
 70
     8
 71
     3
 72
     8
 73
     4
 74
     0
 42
0.000000001936642
 43
0.0000000001
 40
0.0
 40
0.0
 40
0.0
 40
0.0
 40
1.0
 40
1.0
 40
1.0
 40
1.0
 10
193.275346138084
 20
282.2789601250053
 30
0.0
 10
195.4978382922893
 20
282.8706145184935
 30
0.0
 10
197.1610837624674
 20
283.3134659245703
 30
0.0
 10
198.2650825486184
 20
283.6075143432357
 30
0.0
  0
ARC
  5
323
330
30F
100
AcDbEntity
  8
$DDT_AUDIT_GENERATED_(75)
  6
Continuous
 62
     7
100
AcDbCircle
 10
166.1200042619
 20
426.9693777711
 30
0.0
 40
146.7998519291151
100
AcDbArc
 50
284.5055807798
 51
286.4814930832
  0
ARC
  5
324
330
30F
100
AcDbEntity
  8
$DDT_AUDIT_GENERATED_(75)
  6
Continuous
 62
     7
100
AcDbCircle
 10
-289.3813322821
 20
2104.7478739814
 30
0.0
 40
1885.27777309496
100
AcDbArc
 50
284.7846011745
 51
285.2896671578
  0
SPLINE
  5
325
330
30F
100
AcDbEntity
  8
$DDT_AUDIT_GENERATED_(75)
  6
Continuous
 62
     7
100
AcDbSpline
210
0.0
220
0.0
230
1.0
 70
     8
 71
     3
 72
     8
 73
     4
 74
     0
 42
0.0000000594732316
 43
0.0000000001
 40
0.0
 40
0.0
 40
0.0
 40
0.0
 40
0.2510300449205409
 40
0.2510300449205409
 40
0.2510300449205409
 40
0.2510300449205409
 10
207.4616570610519
 20
286.1199617436553
 30
0.0
 10
207.481900039159
 20
286.1146451314769
 30
0.0
 10
207.4937867416305
 20
286.1084635749953
 30
0.0
 10
207.4973171684664
 20
286.1014170742105
 30
0.0
  0
ARC
  5
326
330
30F
100
AcDbEntity
  8
$DDT_AUDIT_GENERATED_(75)
  6
Continuous
 62
     7
100
AcDbCircle
 10
206.7956201711
 20
287.949317519
 30
0.0
 40
2.000228963633522
100
AcDbArc
 50
299.0324533476
 51
342.2755265098
  0
ARC
  5
327
330
30F
100
AcDbEntity
  8
$DDT_AUDIT_GENERATED_(75)
  6
Continuous
 62
     7
100
AcDbCircle
 10
99.6662634024
 20
312.0471203766
 30
0.0
 40
79.59790394960969
100
AcDbArc
 50
185.664748315
 51
198.168334733
  0
ARC
  5
328
330
30F
100
AcDbEntity
  8
$DDT_AUDIT_GENERATED_(75)
  6
Continuous
 62
     7
100
AcDbCircle
 10
133.1292420987
 20
312.0214331303
 30
0.0
 40
79.49995111044521
100
AcDbArc
 50
341.8282453423
 51
354.3468236019
  0
ARC
  5
329
330
30F
100
AcDbEntity
  8
$DDT_AUDIT_GENERATED_(75)
  6
Continuous
 62
     7
100
AcDbCircle
 10
25.9050776392
 20
287.9491391218
 30
0.0
 40
2.000000094096201
100
AcDbArc
 50
198.0595204958
 51
241.0577476924
  0
LINE
  5
32A
330
30F
100
AcDbEntity
  8
$DDT_AUDIT_GENERATED_(75)
  6
Continuous
 62
     7
100
AcDbLine
 10
35.8893981221
 20
283.2204272372
 30
0.0
 11
35.9829672173
 21
283.195457126
 31
0.0
  0
ARC
  5
32B
330
30F
100
AcDbEntity
  8
$DDT_AUDIT_GENERATED_(75)
  6
Continuous
 62
     7
100
AcDbCircle
 10
140.4738630891
 20
690.5594440265
 30
0.0
 40
420.5428576283252
100
AcDbArc
 50
254.0540455574
 51
254.1394932774
  0
ARC
  5
32C
330
30F
100
AcDbEntity
  8
$DDT_AUDIT_GENERATED_(75)
  6
Continuous
 62
     7
100
AcDbCircle
 10
517.2409279856
 20
2086.6438668291
 30
0.0
 40
1866.538036168788
100
AcDbArc
 50
254.7071505176
 51
255.2172812421
  0
LINE
  5
32D
330
30F
100
AcDbEntity
  8
$DDT_AUDIT_GENERATED_(2D1)
  6
Continuous
 62
     7
100
AcDbLine
 10
51.849642346
 20
305.2903917288
 30
0.0
 11
51.849642346
 21
305.5903917288
 31
0.0
  0
LINE
  5
32E
330
30F
100
AcDbEntity
  8
$DDT_AUDIT_GENERATED_(2D1)
  6
Continuous
 62
     7
100
AcDbLine
 10
30.849642346
 20
305.5903917288
 30
0.0
 11
30.849642346
 21
305.2903917288
 31
0.0
  0
LINE
  5
32F
330
30F
100
AcDbEntity
  8
$DDT_AUDIT_GENERATED_(2D4)
  6
Continuous
 62
     7
100
AcDbLine
 10
60.399642346
 20
305.5903917288
 30
0.0
 11
22.299642346
 21
305.5903917288
 31
0.0
  0
LINE
  5
330
330
30F
100
AcDbEntity
  8
$DDT_AUDIT_GENERATED_(2D4)
  6
Continuous
 62
     7
100
AcDbLine
 10
60.599642346
 20
305.7903917288
 30
0.0
 11
60.599642346
 21
322.5903917288
 31
0.0
  0
LINE
  5
331
330
30F
100
AcDbEntity
  8
$DDT_AUDIT_GENERATED_(2D4)
  6
Continuous
 62
     7
100
AcDbLine
 10
22.099642346
 20
322.5903917288
 30
0.0
 11
22.099642346
 21
305.7903917288
 31
0.0
  0
ARC
  5
332
330
30F
100
AcDbEntity
  8
$DDT_AUDIT_GENERATED_(2D4)
  6
Continuous
 62
     7
100
AcDbCircle
 10
22.299642346
 20
305.7903917288
 30
0.0
 40
0.1999999999999919
100
AcDbArc
 50
180.0
 51
270.0
  0
ARC
  5
333
330
30F
100
AcDbEntity
  8
$DDT_AUDIT_GENERATED_(2D4)
  6
Continuous
 62
     7
100
AcDbCircle
 10
60.399642346
 20
305.7903917288
 30
0.0
 40
0.1999999999999988
100
AcDbArc
 50
270.0
 51
0.0
  0
LINE
  5
334
330
30F
100
AcDbEntity
  8
$DDT_AUDIT_GENERATED_(97)
  6
Continuous
 62
     7
100
AcDbLine
 10
63.7634371888
 20
322.5903917288
 30
0.0
 11
18.9358475032
 21
322.5903917288
 31
0.0
  0
LINE
  5
335
330
30F
100
AcDbEntity
  8
$DDT_AUDIT_GENERATED_(97)
  6
Continuous
 62
     7
100
AcDbLine
 10
6.9375793266
 20
355.5903917288
 30
0.0
 11
75.7617053654
 21
355.5903917288
 31
0.0
  0
ARC
  5
336
330
30F
100
AcDbEntity
  8
$DDT_AUDIT_GENERATED_(97)
  6
Continuous
 62
     7
100
AcDbCircle
 10
203.8002971972
 20
387.4218054407
 30
0.0
 40
200.0
100
AcDbArc
 50
189.3266153984
 51
197.6531938422
  0
ARC
  5
337
330
30F
100
AcDbEntity
  8
$DDT_AUDIT_GENERATED_(97)
  6
Continuous
 62
     7
100
AcDbCircle
 10
-121.1010125052
 20
387.4218054407
 30
0.0
 40
200.0000000000001
100
AcDbArc
 50
342.3468061578
 51
350.6733846016
  0
ARC
  5
338
330
30F
100
AcDbEntity
  8
$DDT_AUDIT_GENERATED_(97)
  6
Continuous
 62
     7
100
AcDbCircle
 10
75.7617053654
 20
355.0903917288
 30
0.0
 40
0.4999999999999994
100
AcDbArc
 50
350.6733846016
 51
90.0
  0
ARC
  5
339
330
30F
100
AcDbEntity
  8
$DDT_AUDIT_GENERATED_(97)
  6
Continuous
 62
     7
100
AcDbCircle
 10
6.9375793266
 20
355.0903917288
 30
0.0
 40
0.5000000000000004
100
AcDbArc
 50
90.0
 51
189.3266153984
  0
ARC
  5
33A
330
30F
100
AcDbEntity
  8
$DDT_AUDIT_GENERATED_(97)
  6
Continuous
 62
     7
100
AcDbCircle
 10
63.7634371888
 20
328.5903917288
 30
0.0
 40
5.999999999999995
100
AcDbArc
 50
270.0
 51
342.3468061578
  0
ARC
  5
33B
330
30F
100
AcDbEntity
  8
$DDT_AUDIT_GENERATED_(97)
  6
Continuous
 62
     7
100
AcDbCircle
 10
18.9358475032
 20
328.5903917288
 30
0.0
 40
6.000000000000006
100
AcDbArc
 50
197.6531938422
 51
270.0
  0
SPLINE
  5
33C
330
30F
100
AcDbEntity
  8
$DDT_AUDIT_GENERATED_(99)
  6
Continuous
 62
     7
100
AcDbSpline
210
0.0
220
0.0
230
1.0
 70
     8
 71
     3
 72
     9
 73
     5
 74
     0
 42
0.0000000000884193
 43
0.0000000001
 40
0.8637431243641374
 40
0.8637431243641374
 40
0.8637431243641374
 40
0.8637431243641374
 40
0.8652022107849229
 40
0.8716387964382838
 40
0.8716387964382838
 40
0.8716387964382838
 40
0.8716387964382838
 10
140.3801445863791
 20
268.0618903656111
 30
0.0
 10
140.3979482801787
 20
268.1150781992644
 30
0.0
 10
140.4940895533217
 20
268.4018838855609
 30
0.0
 10
140.5891487105356
 20
268.6833259922562
 30
0.0
 10
140.6654076702401
 20
268.9080805074018
 30
0.0
  0
SPLINE
  5
33D
330
30F
100
AcDbEntity
  8
$DDT_AUDIT_GENERATED_(99)
  6
Continuous
 62
     7
100
AcDbSpline
210
0.0
220
0.0
230
1.0
 70
     8
 71
     3
 72
     8
 73
     4
 74
     0
 42
0.0000000000760342
 43
0.0000000001
 40
0.8945201773370718
 40
0.8945201773370718
 40
0.8945201773370718
 40
0.8945201773370718
 40
0.8970348998392399
 40
0.8970348998392399
 40
0.8970348998392399
 40
0.8970348998392399
 10
92.13960080612956
 20
268.5957930008126
 30
0.0
 10
92.10407979775233
 20
268.7009589720396
 30
0.0
 10
92.06866231733346
 20
268.8055600127447
 30
0.0
 10
92.03354323160404
 20
268.9090627467718
 30
0.0
  0
SPLINE
  5
33E
330
30F
100
AcDbEntity
  8
$DDT_AUDIT_GENERATED_(99)
  6
Continuous
 62
     7
100
AcDbSpline
210
0.0
220
0.0
230
1.0
 70
     8
 71
     3
 72
    34
 73
    30
 74
     0
 42
0.0000000001181347
 43
0.0000000001
 40
0.0
 40
0.0
 40
0.0
 40
0.0
 40
0.125
 40
0.125
 40
0.1875
 40
0.1875
 40
0.25
 40
0.25
 40
0.3125
 40
0.3125
 40
0.375
 40
0.375
 40
0.5000000000000001
 40
0.5000000000000001
 40
0.5625000000000001
 40
0.5625000000000001
 40
0.6250000000000001
 40
0.6250000000000001
 40
0.6875000000000001
 40
0.6875000000000001
 40
0.7500000000000001
 40
0.7500000000000001
 40
0.8125000000000001
 40
0.8125000000000001
 40
0.8750000000000001
 40
0.8750000000000001
 40
0.9375000000000001
 40
0.9375000000000001
 40
1.0
 40
1.0
 40
1.0
 40
1.0
 10
143.9032328460083
 20
278.0506860750621
 30
0.0
 10
143.5152004697286
 20
281.5716287868869
 30
0.0
 10
142.6408130515349
 20
285.0126102857069
 30
0.0
 10
140.4941315252794
 20
289.8324532930952
 30
0.0
 10
139.627642363499
 20
291.3936978140856
 30
0.0
 10
137.6481981114003
 20
294.2844511656119
 30
0.0
 10
136.5332709658547
 20
295.6322324233413
 30
0.0
 10
134.0481941706688
 20
298.1288523853479
 30
0.0
 10
132.6799787708576
 20
299.2684143654502
 30
0.0
 10
129.7915632097222
 20
301.2376827385618
 30
0.0
 10
128.2576885627643
 20
302.0797049179502
 30
0.0
 10
123.3764420139081
 20
304.1610414434783
 30
0.0
 10
119.8987359692779
 20
304.903762710916
 30
0.0
 10
114.595569518706
 20
304.9058833805922
 30
0.0
 10
112.8543590234432
 20
304.7209172766455
 30
0.0
 10
109.4207698652469
 20
304.008993615638
 30
0.0
 10
107.7138525925823
 20
303.4727166187329
 30
0.0
 10
104.4810225574621
 20
302.0985782032509
 30
0.0
 10
102.9423431043932
 20
301.2594803160067
 30
0.0
 10
100.0228503843328
 20
299.2725431823911
 30
0.0
 10
98.65904466455987
 20
298.1352689517695
 30
0.0
 10
96.1853195679187
 20
295.6534105134252
 30
0.0
 10
95.0574070484498
 20
294.2942732654355
 30
0.0
 10
93.05828452309278
 20
291.3735234291482
 30
0.0
 10
92.20932732806678
 20
289.8397290336975
 30
0.0
 10
90.78236323105996
 20
286.6400527364415
 30
0.0
 10
90.2015000148283
 20
284.9632484611785
 30
0.0
 10
89.30621195865372
 20
281.5465284647718
 30
0.0
 10
88.99007205406012
 20
279.8111573976464
 30
0.0
 10
88.79605174883498
 20
278.050686075062
 30
0.0
  0
ARC
  5
33F
330
30F
100
AcDbEntity
  8
$DDT_AUDIT_GENERATED_(99)
  6
Continuous
 62
     7
100
AcDbCircle
 10
95.0306371603
 20
277.5810527913
 30
0.0
 40
6.252248449529996
100
AcDbArc
 50
175.6922100968
 51
185.0703813332
  0
ARC
  5
340
330
30F
100
AcDbEntity
  8
$DDT_AUDIT_GENERATED_(99)
  6
Continuous
 62
     7
100
AcDbCircle
 10
137.6691583686
 20
277.5810493367
 30
0.0
 40
6.251739218447131
100
AcDbArc
 50
354.9292364905
 51
4.3081732047
  0
SPLINE
  5
341
330
30F
100
AcDbEntity
  8
$DDT_AUDIT_GENERATED_(99)
  6
Continuous
 62
     7
100
AcDbSpline
210
0.0
220
0.0
230
1.0
 70
     8
 71
     3
 72
    14
 73
    10
 74
     0
 42
0.0000000001162279
 43
0.0000000001
 40
0.0
 40
0.0
 40
0.0
 40
0.0
 40
0.0624999999999999
 40
0.0624999999999999
 40
0.1249999999999999
 40
0.1249999999999999
 40
0.1874999999999998
 40
0.1874999999999998
 40
0.2025186249936604
 40
0.2025186249936604
 40
0.2025186249936604
 40
0.2025186249936604
 10
88.80285447407144
 20
277.0284828978478
 30
0.0
 10
88.89423175408795
 20
275.2276329714617
 30
0.0
 10
89.139477170062
 20
273.4309480007726
 30
0.0
 10
89.93071470654559
 20
269.9473677412904
 30
0.0
 10
90.47498327983408
 20
268.2526169926961
 30
0.0
 10
91.87276009203468
 20
264.9609722626643
 30
0.0
 10
92.73381560595952
 20
263.3619821852465
 30
0.0
 10
93.95815867073732
 20
261.523902014367
 30
0.0
 10
94.20306205615468
 20
261.1735566956088
 30
0.0
 10
94.45574710517906
 20
260.8290434625217
 30
0.0
  0
SPLINE
  5
342
330
30F
100
AcDbEntity
  8
$DDT_AUDIT_GENERATED_(99)
  6
Continuous
 62
     7
100
AcDbSpline
210
0.0
220
0.0
230
1.0
 70
     8
 71
     3
 72
    14
 73
    10
 74
     0
 42
0.0000000001161602
 43
0.0000000001
 40
0.7974614540880008
 40
0.7974614540880008
 40
0.7974614540880008
 40
0.7974614540880008
 40
0.8125
 40
0.8125
 40
0.875
 40
0.875
 40
0.9374999999999999
 40
0.9374999999999999
 40
1.0
 40
1.0
 40
1.0
 40
1.0
 10
138.2361932583663
 20
260.8197110172493
 30
0.0
 10
138.4920783261637
 20
261.1679406195641
 30
0.0
 10
138.7399577840706
 20
261.5220370300379
 30
0.0
 10
139.9740552893075
 20
263.3747020050689
 30
0.0
 10
140.8174730923922
 20
264.9445060135015
 30
0.0
 10
142.2164255905155
 20
268.2295744309646
 30
0.0
 10
142.7715610584488
 20
269.9585748257848
 30
0.0
 10
143.5632513730158
 20
273.4523053921
 30
0.0
 10
143.8050370643444
 20
275.2276338694089
 30
0.0
 10
143.8964301308997
 20
277.0284829113567
 30
0.0
  0
ARC
  5
343
330
30F
100
AcDbEntity
  8
$DDT_AUDIT_GENERATED_(99)
  6
Continuous
 62
     7
100
AcDbCircle
 10
-27.1610612836
 20
135.6735967603
 30
0.0
 40
159.3365059083334
100
AcDbArc
 50
356.5867930015
 51
357.5868871332
  0
ARC
  5
344
330
30F
100
AcDbEntity
  8
$DDT_AUDIT_GENERATED_(99)
  6
Continuous
 62
     7
100
AcDbCircle
 10
258.9037817447
 20
135.6081785654
 30
0.0
 40
158.3780194922849
100
AcDbArc
 50
182.4041137334
 51
183.41014119
  0
SPLINE
  5
345
330
30F
100
AcDbEntity
  8
$DDT_AUDIT_GENERATED_(99)
  6
Continuous
 62
     7
100
AcDbSpline
210
0.0
220
0.0
230
1.0
 70
     8
 71
     3
 72
    33
 73
    29
 74
     0
 42
0.0000000001746136
 43
0.0000000001
 40
0.0
 40
0.0
 40
0.0
 40
0.0
 40
0.0487845631139099
 40
0.1013915612627199
 40
0.1506885731064418
 40
0.196882728602466
 40
0.2399421302231735
 40
0.2799418156386181
 40
0.316927473832453
 40
0.3510409286536272
 40
0.3821764470658595
 40
0.4106590566438363
 40
0.43626288258737
 40
0.4594766227995161
 40
0.5038604221166854
 40
0.5462538458060157
 40
0.586691728596837
 40
0.6255485833135248
 40
0.6640031689732188
 40
0.7021607798105762
 40
0.7226339661414617
 40
0.7479145741055924
 40
0.7781516470578416
 40
0.8134458926889254
 40
0.8539271294855479
 40
0.899543518653641
 40
0.9506863157470212
 40
1.0
 40
1.0
 40
1.0
 40
1.0
 10
100.8065217056696
 20
126.1840330035692
 30
0.0
 10
100.8759962465792
 20
125.1954436006033
 30
0.0
 10
101.0018822635381
 20
123.4624821726819
 30
0.0
 10
101.1814151078528
 20
120.6328318504263
 30
0.0
 10
101.438056358731
 20
117.9178231483242
 30
0.0
 10
102.2403888749397
 20
115.4531196046627
 30
0.0
 10
103.3701602395893
 20
113.3035794855862
 30
0.0
 10
104.7519075471582
 20
111.486317345753
 30
0.0
 10
106.2855281149782
 20
110.000254525273
 30
0.0
 10
107.889020055442
 20
108.8288312252736
 30
0.0
 10
109.4962529426284
 20
107.9400797424094
 30
0.0
 10
111.0506798649058
 20
107.299169000997
 30
0.0
 10
112.5201440165117
 20
106.8633627544998
 30
0.0
 10
114.3379641032523
 20
106.5020417944741
 30
0.0
 10
116.5365710018784
 20
106.3499999999999
 30
0.0
 10
119.0703055496324
 20
106.588027198059
 30
0.0
 10
121.4171441655638
 20
107.1868368023943
 30
0.0
 10
123.557758766548
 20
108.0916117278939
 30
0.0
 10
125.4834269790728
 20
109.26686573262
 30
0.0
 10
126.9228750198328
 20
110.4698189284923
 30
0.0
 10
128.0270152303361
 20
111.6311026821946
 30
0.0
 10
128.9236861240403
 20
112.7623899642202
 30
0.0
 10
129.834702513376
 20
114.2141089759321
 30
0.0
 10
130.6603659276594
 20
116.0191474947399
 30
0.0
 10
131.2968717490923
 20
118.1956417621836
 30
0.0
 10
131.5217959364261
 20
120.7155854265035
 30
0.0
 10
131.6966071488544
 20
123.4631701573204
 30
0.0
 10
131.8216803576044
 20
125.182393537095
 30
0.0
 10
131.8924693953994
 20
126.1836165966337
 30
0.0
  0
SPLINE
  5
346
330
30F
100
AcDbEntity
  8
$DDT_AUDIT_GENERATED_(99)
  6
Continuous
 62
     7
100
AcDbSpline
210
0.0
220
0.0
230
1.0
 70
     8
 71
     3
 72
    42
 73
    38
 74
     0
 42
0.0000000000711272
 43
0.0000000001
 40
0.0
 40
0.0
 40
0.0
 40
0.0
 40
0.0471348769440261
 40
0.0922750534691863
 40
0.1332367739254629
 40
0.1699631752132419
 40
0.2024315501992045
 40
0.2305993905587441
 40
0.2532251140440143
 40
0.2740542115349178
 40
0.2951673294058183
 40
0.3165905100535975
 40
0.3383259813569581
 40
0.4048292695557886
 40
0.473269613210858
 40
0.5431081791765419
 40
0.5759702605402962
 40
0.6064324934160747
 40
0.6345296483983888
 40
0.6620147138012041
 40
0.6908174866129656
 40
0.7214545475276065
 40
0.7549931189788243
 40
0.7802610522064392
 40
0.8059039809975002
 40
0.8297593925327916
 40
0.8518198252671482
 40
0.872405174403393
 40
0.8898894670498468
 40
0.907813313892697
 40
0.9248872002528338
 40
0.9327293674131562
 40
0.9405584636436191
 40
0.9509489382464285
 40
0.9643419976275844
 40
0.9807117944249745
 40
1.0
 40
1.0
 40
1.0
 40
1.0
 10
132.0338472888776
 20
128.9625030325517
 30
0.0
 10
132.1168349355379
 20
131.4600075802206
 30
0.0
 10
132.2529676858721
 20
135.5767036852915
 30
0.0
 10
132.4571073566108
 20
142.1209623850069
 30
0.0
 10
132.6291127239922
 20
148.0101516949606
 30
0.0
 10
132.772941068745
 20
153.325850659883
 30
0.0
 10
132.8895617722801
 20
158.017587425732
 30
0.0
 10
132.9808357765475
 20
162.0321196878751
 30
0.0
 10
133.0526753854227
 20
165.4856696376288
 30
0.0
 10
133.1120835839706
 20
168.5995223713469
 30
0.0
 10
133.1672527572261
 20
171.6555881390266
 30
0.0
 10
133.2217601773471
 20
174.7555125068023
 30
0.0
 10
133.3156265312796
 20
180.044703923013
 30
0.0
 10
133.459616100899
 20
187.6012507323586
 30
0.0
 10
133.7366887099458
 20
197.472835837309
 30
0.0
 10
134.0142646932201
 20
205.7209540468132
 30
0.0
 10
134.2303167286841
 20
212.1406565453097
 30
0.0
 10
134.3745436742118
 20
216.5491645694973
 30
0.0
 10
134.507781934622
 20
220.7004525300455
 30
0.0
 10
134.6284314812068
 20
224.7712079298678
 30
0.0
 10
134.8098006124132
 20
228.9536183830108
 30
0.0
 10
135.0163547253832
 20
233.4168922394589
 30
0.0
 10
135.2277449842362
 20
237.6921863439239
 30
0.0
 10
135.455152600141
 20
241.7028198972568
 30
0.0
 10
135.6948645781621
 20
245.2236680615315
 30
0.0
 10
135.9935000900298
 20
248.5457225631729
 30
0.0
 10
136.3795179675882
 20
251.5750760619405
 30
0.0
 10
136.811034532401
 20
254.2567995132952
 30
0.0
 10
137.2690720001823
 20
256.6878494923727
 30
0.0
 10
137.7515651721503
 20
258.9021841451957
 30
0.0
 10
138.1851984111853
 20
260.6591589343948
 30
0.0
 10
138.5327337139189
 20
261.967677008056
 30
0.0
 10
138.8151365549195
 20
262.9904411819249
 30
0.0
 10
139.1573192589974
 20
264.1804832410545
 30
0.0
 10
139.5894505047937
 20
265.6152815173087
 30
0.0
 10
140.1200534296357
 20
267.2882551285075
 30
0.0
 10
140.4515155856442
 20
268.2749624931674
 30
0.0
 10
140.6639908041298
 20
268.9039045232429
 30
0.0
  0
SPLINE
  5
347
330
30F
100
AcDbEntity
  8
$DDT_AUDIT_GENERATED_(99)
  6
Continuous
 62
     7
100
AcDbSpline
210
0.0
220
0.0
230
1.0
 70
     8
 71
     3
 72
    55
 73
    51
 74
     0
 42
0.0000000000711272
 43
0.0000000001
 40
0.0
 40
0.0
 40
0.0
 40
0.0
 40
0.0131214147592164
 40
0.0271393936376474
 40
0.042046929659485
 40
0.056702163168986
 40
0.0688041253724705
 40
0.0802906215637254
 40
0.0898350108909141
 40
0.0995635093853465
 40
0.1098977741908516
 40
0.1254325631577664
 40
0.1439476981194644
 40
0.1654680971334583
 40
0.1883815121922142
 40
0.2100630358009262
 40
0.2305715499434155
 40
0.253175925286639
 40
0.2742114321245951
 40
0.2961049094218675
 40
0.3198226348763095
 40
0.3401364578436911
 40
0.3617020901518788
 40
0.3845200672521258
 40
0.4062649620840702
 40
0.4248653034069277
 40
0.4401203488003178
 40
0.4523716908382828
 40
0.4628708379786753
 40
0.4744379036840111
 40
0.494664298065473
 40
0.5178685529671405
 40
0.544155968342573
 40
0.573525362493272
 40
0.6057581980021631
 40
0.6362328522652441
 40
0.6638514877644778
 40
0.6886081351646265
 40
0.7108117325819286
 40
0.740086175039146
 40
0.7717675158791836
 40
0.8030674135689309
 40
0.8320599984284293
 40
0.8454274966583811
 40
0.8623442982223307
 40
0.8829630104078625
 40
0.9072851149785051
 40
0.9352673752149603
 40
0.9669186169262833
 40
1.0
 40
1.0
 40
1.0
 40
1.0
 10
92.03529400391852
 20
268.9039038948371
 30
0.0
 10
92.17214387109333
 20
268.501131723973
 30
0.0
 10
92.41221407760271
 20
267.7913041937648
 30
0.0
 10
92.85846631779671
 20
266.4220564594451
 30
0.0
 10
93.33059995923057
 20
264.8967352999613
 30
0.0
 10
93.79267803930959
 20
263.3201315062402
 30
0.0
 10
94.20703027965791
 20
261.8258378428899
 30
0.0
 10
94.55458051164672
 20
260.4942473754543
 30
0.0
 10
94.86340115233006
 20
259.2306044357181
 30
0.0
 10
95.14729852871824
 20
257.9891012394766
 30
0.0
 10
95.47029824035098
 20
256.4688093279854
 30
0.0
 10
95.83879516165791
 20
254.5378961456123
 30
0.0
 10
96.24696255937305
 20
252.0672681966195
 30
0.0
 10
96.63329299789378
 20
249.2124554322365
 30
0.0
 10
96.9283590875032
 20
246.1591694789027
 30
0.0
 10
97.15295027940141
 20
243.1099928616499
 30
0.0
 10
97.3399860755296
 20
240.047837055234
 30
0.0
 10
97.50533312756546
 20
236.9964849885051
 30
0.0
 10
97.66083792580504
 20
233.8633860818156
 30
0.0
 10
97.80884081559056
 20
230.6671892280151
 30
0.0
 10
97.95726900651911
 20
227.4992612969559
 30
0.0
 10
98.08100703749074
 20
224.3409950031496
 30
0.0
 10
98.17623550085699
 20
221.220357743281
 30
0.0
 10
98.27736578700214
 20
218.0291741569621
 30
0.0
 10
98.37567083428989
 20
214.9824690339438
 30
0.0
 10
98.46418087080956
 20
212.300978838463
 30
0.0
 10
98.53851359498027
 20
210.0777259086465
 30
0.0
 10
98.60006640734801
 20
208.2453320630216
 30
0.0
 10
98.65567473387128
 20
206.590960392311
 30
0.0
 10
98.72405476386211
 20
204.5522974918151
 30
0.0
 10
98.8121311296642
 20
201.9014202321446
 30
0.0
 10
98.92085487930463
 20
198.5411282779868
 30
0.0
 10
99.03757059872564
 20
194.7399728812073
 30
0.0
 10
99.15659934141782
 20
190.5030655966876
 30
0.0
 10
99.26260485466132
 20
186.0631626478298
 30
0.0
 10
99.35150965302388
 20
181.70681183228
 30
0.0
 10
99.42532732886359
 20
177.7106541181457
 30
0.0
 10
99.48875526576586
 20
174.1133430875395
 30
0.0
 10
99.55366992845023
 20
170.436258408291
 30
0.0
 10
99.62737076419643
 20
166.4254181111014
 30
0.0
 10
99.71899317100844
 20
161.9765078944775
 30
0.0
 10
99.821148206385
 20
157.5420072990702
 30
0.0
 10
99.91027206172731
 20
153.9910515098198
 30
0.0
 10
99.98580342856778
 20
151.1338663228735
 30
0.0
 10
100.052901495315
 20
148.6803570157062
 30
0.0
 10
100.1375681240106
 20
145.7002611711755
 30
0.0
 10
100.2416273575112
 20
142.182046124846
 30
0.0
 10
100.3655814703043
 20
138.1569348244379
 30
0.0
 10
100.511135999163
 20
133.6029482706715
 30
0.0
 10
100.6070131033942
 20
130.7151234864175
 30
0.0
 10
100.6653754140959
 20
128.962249633388
 30
0.0
  0
LINE
  5
348
330
30F
100
AcDbEntity
  8
$DDT_AUDIT_GENERATED_(2D1)
  6
Continuous
 62
     7
100
AcDbLine
 10
201.8496422489
 20
305.2903917288
 30
0.0
 11
201.8496422489
 21
305.5903917288
 31
0.0
  0
LINE
  5
349
330
30F
100
AcDbEntity
  8
$DDT_AUDIT_GENERATED_(2D1)
  6
Continuous
 62
     7
100
AcDbLine
 10
180.8496422489
 20
305.5903917288
 30
0.0
 11
180.8496422489
 21
305.2903917288
 31
0.0
  0
LINE
  5
34A
330
30F
100
AcDbEntity
  8
$DDT_AUDIT_GENERATED_(2D4)
  6
Continuous
 62
     7
100
AcDbLine
 10
210.3996422489
 20
305.5903917288
 30
0.0
 11
172.2996422489
 21
305.5903917288
 31
0.0
  0
LINE
  5
34B
330
30F
100
AcDbEntity
  8
$DDT_AUDIT_GENERATED_(2D4)
  6
Continuous
 62
     7
100
AcDbLine
 10
210.5996422489
 20
305.7903917288
 30
0.0
 11
210.5996422489
 21
322.5903917288
 31
0.0
  0
LINE
  5
34C
330
30F
100
AcDbEntity
  8
$DDT_AUDIT_GENERATED_(2D4)
  6
Continuous
 62
     7
100
AcDbLine
 10
172.0996422489
 20
322.5903917288
 30
0.0
 11
172.0996422489
 21
305.7903917288
 31
0.0
  0
ARC
  5
34D
330
30F
100
AcDbEntity
  8
$DDT_AUDIT_GENERATED_(2D4)
  6
Continuous
 62
     7
100
AcDbCircle
 10
172.2996422489
 20
305.7903917288
 30
0.0
 40
0.2000000000000057
100
AcDbArc
 50
180.0
 51
270.0
  0
ARC
  5
34E
330
30F
100
AcDbEntity
  8
$DDT_AUDIT_GENERATED_(2D4)
  6
Continuous
 62
     7
100
AcDbCircle
 10
210.3996422489
 20
305.7903917288
 30
0.0
 40
0.1999999999999988
100
AcDbArc
 50
270.0
 51
0.0
  0
LINE
  5
34F
330
30F
100
AcDbEntity
  8
$DDT_AUDIT_GENERATED_(97)
  6
Continuous
 62
     7
100
AcDbLine
 10
213.7634370917
 20
322.5903917288
 30
0.0
 11
168.9358474061
 21
322.5903917288
 31
0.0
  0
LINE
  5
350
330
30F
100
AcDbEntity
  8
$DDT_AUDIT_GENERATED_(97)
  6
Continuous
 62
     7
100
AcDbLine
 10
156.9375792295
 20
355.5903917288
 30
0.0
 11
225.7617052683
 21
355.5903917288
 31
0.0
  0
ARC
  5
351
330
30F
100
AcDbEntity
  8
$DDT_AUDIT_GENERATED_(97)
  6
Continuous
 62
     7
100
AcDbCircle
 10
353.8002971001
 20
387.4218054407
 30
0.0
 40
200.0
100
AcDbArc
 50
189.3266153984
 51
197.6531938422
  0
ARC
  5
352
330
30F
100
AcDbEntity
  8
$DDT_AUDIT_GENERATED_(97)
  6
Continuous
 62
     7
100
AcDbCircle
 10
28.8989873977
 20
387.4218054407
 30
0.0
 40
200.0000000000001
100
AcDbArc
 50
342.3468061578
 51
350.6733846016
  0
ARC
  5
353
330
30F
100
AcDbEntity
  8
$DDT_AUDIT_GENERATED_(97)
  6
Continuous
 62
     7
100
AcDbCircle
 10
225.7617052683
 20
355.0903917288
 30
0.0
 40
0.4999999999999926
100
AcDbArc
 50
350.6733846016
 51
90.0
  0
ARC
  5
354
330
30F
100
AcDbEntity
  8
$DDT_AUDIT_GENERATED_(97)
  6
Continuous
 62
     7
100
AcDbCircle
 10
156.9375792295
 20
355.0903917288
 30
0.0
 40
0.5000000000000004
100
AcDbArc
 50
90.0
 51
189.3266153984
  0
ARC
  5
355
330
30F
100
AcDbEntity
  8
$DDT_AUDIT_GENERATED_(97)
  6
Continuous
 62
     7
100
AcDbCircle
 10
213.7634370917
 20
328.5903917288
 30
0.0
 40
6.000000000000002
100
AcDbArc
 50
270.0
 51
342.3468061578
  0
ARC
  5
356
330
30F
100
AcDbEntity
  8
$DDT_AUDIT_GENERATED_(97)
  6
Continuous
 62
     7
100
AcDbCircle
 10
168.9358474061
 20
328.5903917288
 30
0.0
 40
6.000000000000006
100
AcDbArc
 50
197.6531938422
 51
270.0
  0
ENDBLK
  5
358
330
30F
100
AcDbEntity
  8
0
100
AcDbBlockEnd
  0
ENDSEC
  0
SECTION
  2
ENTITIES
  0
INSERT
  5
5F
330
1F
100
AcDbEntity
  8
Default
100
AcDbBlockReference
  2
SEANNOT_GROUP
 10
0.0
 20
0.0
 30
0.0
  0
INSERT
  5
65
330
1F
100
AcDbEntity
  8
Default
100
AcDbBlockReference
  2
SEANNOT_GROUP1
 10
0.0
 20
0.0
 30
0.0
  0
INSERT
  5
6A
330
1F
100
AcDbEntity
  8
Default
100
AcDbBlockReference
  2
SEANNOT_GROUP2
 10
0.0
 20
0.0
 30
0.0
  0
INSERT
  5
6F
330
1F
100
AcDbEntity
  8
Default
100
AcDbBlockReference
  2
SEANNOT_GROUP3
 10
0.0
 20
0.0
 30
0.0
  0
INSERT
  5
74
330
1F
100
AcDbEntity
  8
Default
100
AcDbBlockReference
  2
SE
 10
0.0
 20
0.0
 30
0.0
  0
INSERT
  5
2AA
330
1F
100
AcDbEntity
  8
Default
100
AcDbBlockReference
  2
SE1
 10
0.0
 20
0.0
 30
0.0
  0
INSERT
  5
310
330
1F
100
AcDbEntity
  8
Default
100
AcDbBlockReference
  2
SE2
 10
0.0
 20
0.0
 30
0.0
  0
TEXT
  5
35A
330
1F
100
AcDbEntity
  8
Default
  6
Continuous
 62
     7
100
AcDbText
 10
5.9362635081
 20
53.4225120485
 30
0.0
 40
10.0
  1
Grohe AG^J
  7
SEACAD_seiso_ttf
 11
5.9362635081
 21
63.4225120485
 31
0.0
100
AcDbText
 73
     3
  0
TEXT
  5
35B
330
1F
100
AcDbEntity
  8
Default
  6
Continuous
 62
     7
100
AcDbText
 10
5.9362635081
 20
37.0588756849
 30
0.0
 40
10.0
  1
 
  7
SEACAD_seiso_ttf
 11
5.9362635081
 21
47.0588756849
 31
0.0
100
AcDbText
 73
     3
  0
TEXT
  5
35C
330
1F
100
AcDbEntity
  8
Default
  6
Continuous
 62
     7
100
AcDbText
 10
5.9362635081
 20
20.6952393213
 30
0.0
 40
10.0
  1
ecn: 
  7
SEACAD_seiso_ttf
 11
5.9362635081
 21
30.6952393213
 31
0.0
100
AcDbText
 73
     3
  0
TEXT
  5
35D
330
1F
100
AcDbEntity
  8
Default
  6
Continuous
 62
     7
100
AcDbText
 10
5.9362635081
 20
4.3316029576
 30
0.0
 40
10.0
  1
unit: mm
  7
SEACAD_seiso_ttf
 11
5.9362635081
 21
14.3316029576
 31
0.0
100
AcDbText
 73
     3
  0
LINE
  5
35E
330
1F
100
AcDbEntity
  8
Default
  6
Continuous
 62
     7
100
AcDbLine
 10
0.0
 20
0.0
 30
0.0
 11
100.0
 21
0.0
 31
0.0
  0
LINE
  5
35F
330
1F
100
AcDbEntity
  8
Default
  6
Continuous
 62
     7
100
AcDbLine
 10
0.0
 20
0.0
 30
0.0
 11
0.0
 21
100.0
 31
0.0
  0
TEXT
  5
360
330
1F
100
AcDbEntity
  8
Default
  6
Continuous
 62
     7
100
AcDbText
 10
24.3923665681
 20
-18.2375342018
 30
0.0
 40
10.0
  1
100 mm
  7
SEACAD_seiso_ttf
 11
24.3923665681
 21
-8.2375342018
 31
0.0
100
AcDbText
 73
     3
  0
TEXT
  5
361
330
1F
100
AcDbEntity
  8
Default
  6
Continuous
 62
     7
100
AcDbText
 10
-7.6150308803
 20
24.6231930421
 30
0.0
 40
10.0
  1
100 mm
 50
90.0
  7
SEACAD_seiso_ttf
 11
-17.6150308803
 21
24.6231930421
 31
0.0
100
AcDbText
 73
     3
  0
TEXT
  5
362
330
1F
100
AcDbEntity
  8
Default
  6
Continuous
 62
     7
100
AcDbText
 10
28.4878128572
 20
20.0907663715
 30
0.0
 40
10.0
  1
223895
  7
SEACAD_seiso_ttf
 11
28.4878128572
 21
30.0907663715
 31
0.0
100
AcDbText
 73
     3
  0
TEXT
  5
363
330
1F
100
AcDbEntity
  8
Default
  6
Continuous
 62
     7
100
AcDbText
 10
5.9012241913
 20
36.7242780188
 30
0.0
 40
10.0
  1
32778000
  7
SEACAD_seiso_ttf
 11
5.9012241913
 21
46.7242780188
 31
0.0
100
AcDbText
 73
     3
  0
ENDSEC
  0
SECTION
  2
OBJECTS
  0
DICTIONARY
  5
C
330
0
100
AcDbDictionary
281
     1
  3
ACAD_GROUP
350
D
  3
ACAD_LAYOUT
350
1A
  3
ACAD_MLEADERSTYLE
350
367
  3
ACAD_MLINESTYLE
350
17
  3
ACAD_PLOTSETTINGS
350
19
  3
ACAD_PLOTSTYLENAME
350
E
  3
ACAD_SCALELIST
350
3B
  3
ACAD_TABLESTYLE
350
366
  3
ACAD_VISUALSTYLE
350
2A
  3
AcDbVariableDictionary
350
364
  0
DICTIONARY
  5
D
102
{ACAD_REACTORS
330
C
102
}
330
C
100
AcDbDictionary
281
     1
  0
DICTIONARY
  5
1A
102
{ACAD_REACTORS
330
C
102
}
330
C
100
AcDbDictionary
281
     1
  3
Layout1
350
1E
  3
Model
350
22
  0
DICTIONARY
  5
367
102
{ACAD_REACTORS
330
C
102
}
330
C
100
AcDbDictionary
281
     1
  0
DICTIONARY
  5
17
102
{ACAD_REACTORS
330
C
102
}
330
C
100
AcDbDictionary
281
     1
  3
Standard
350
18
  0
DICTIONARY
  5
19
102
{ACAD_REACTORS
330
C
102
}
330
C
100
AcDbDictionary
281
     1
  0
ACDBDICTIONARYWDFLT
  5
E
102
{ACAD_REACTORS
330
C
102
}
330
C
100
AcDbDictionary
281
     1
  3
Normal
350
F
100
AcDbDictionaryWithDefault
340
F
  0
DICTIONARY
  5
3B
102
{ACAD_REACTORS
330
C
102
}
330
C
100
AcDbDictionary
281
     1
  3
A0
350
3C
  3
A1
350
3D
  3
A2
350
3E
  3
A3
350
3F
  3
A4
350
40
  3
A5
350
41
  3
A6
350
42
  3
A7
350
43
  3
A8
350
44
  3
A9
350
45
  3
B0
350
46
  3
B1
350
47
  3
B2
350
48
  3
B3
350
49
  3
B4
350
4A
  3
B5
350
4B
  3
B6
350
4C
  3
B7
350
4D
  3
B8
350
4E
  3
B9
350
4F
  3
C0
350
50
  3
C1
350
51
  3
C2
350
52
  3
C3
350
53
  3
C4
350
54
  3
C5
350
55
  3
C6
350
56
  3
C7
350
57
  3
C8
350
58
  3
C9
350
59
  3
D0
350
5A
  3
D1
350
5B
  3
D2
350
5C
  0
DICTIONARY
  5
366
102
{ACAD_REACTORS
330
C
102
}
330
C
100
AcDbDictionary
281
     1
  0
DICTIONARY
  5
2A
102
{ACAD_REACTORS
330
C
102
}
330
C
100
AcDbDictionary
281
     1
  3
2dWireframe
350
2F
  3
3D Hidden
350
31
  3
3dWireframe
350
30
  3
Basic
350
32
  3
Brighten
350
36
  3
ColorChange
350
3A
  3
Conceptual
350
34
  3
Dim
350
35
  3
Facepattern
350
39
  3
Flat
350
2B
  3
FlatWithEdges
350
2C
  3
Gouraud
350
2D
  3
GouraudWithEdges
350
2E
  3
Linepattern
350
38
  3
Realistic
350
33
  3
Thicken
350
37
  0
DICTIONARY
  5
364
102
{ACAD_REACTORS
330
C
102
}
330
C
100
AcDbDictionary
281
     1
  3
CANNOSCALE
350
365
  3
PSOLHEIGHT
350
369
  3
PSOLWIDTH
350
368
  0
LAYOUT
  5
1E
102
{ACAD_REACTORS
330
1A
102
}
330
1A
100
AcDbPlotSettings
  1

  2
none_device
  4

  6

 40
0.0
 41
0.0
 42
0.0
 43
0.0
 44
0.0
 45
0.0
 46
0.0
 47
0.0
 48
0.0
 49
0.0
140
0.0
141
0.0
142
1.0
143
1.0
 70
   688
 72
     0
 73
     0
 74
     5
  7

 75
    16
147
1.0
148
0.0
149
0.0
100
AcDbLayout
  1
Layout1
 70
     1
 71
     1
 10
0.0
 20
0.0
 11
1682.0
 21
2378.0
 12
0.0
 22
0.0
 32
0.0
 14
0.0
 24
0.0
 34
0.0
 15
1682.0
 25
2378.0
 35
0.0
146
0.0
 13
0.0
 23
0.0
 33
0.0
 16
1.0
 26
0.0
 36
0.0
 17
0.0
 27
1.0
 37
0.0
 76
     0
330
1B
  0
LAYOUT
  5
22
102
{ACAD_REACTORS
330
1A
102
}
330
1A
100
AcDbPlotSettings
  1

  2
none_device
  4

  6

 40
0.0
 41
0.0
 42
0.0
 43
0.0
 44
0.0
 45
0.0
 46
0.0
 47
0.0
 48
0.0
 49
0.0
140
0.0
141
0.0
142
1.0
143
1.0
 70
  1712
 72
     0
 73
     0
 74
     0
  7

 75
     0
147
1.0
148
0.0
149
0.0
100
AcDbLayout
  1
Model
 70
     1
 71
     0
 10
0.0
 20
0.0
 11
1682.0
 21
2378.0
 12
0.0
 22
0.0
 32
0.0
 14
0.0
 24
0.0
 34
0.0
 15
1682.0
 25
2378.0
 35
0.0
146
0.0
 13
0.0
 23
0.0
 33
0.0
 16
1.0
 26
0.0
 36
0.0
 17
0.0
 27
1.0
 37
0.0
 76
     0
330
1F
331
29
  0
MLINESTYLE
  5
18
102
{ACAD_REACTORS
330
17
102
}
330
17
100
AcDbMlineStyle
  2
Standard
 70
     0
  3

 62
   256
 51
90.0
 52
90.0
 71
     2
 49
0.5
 62
   256
  6
BYLAYER
 49
-0.5
 62
   256
  6
BYLAYER
  0
ACDBPLACEHOLDER
  5
F
102
{ACAD_REACTORS
330
E
102
}
330
E
  0
SCALE
  5
3C
102
{ACAD_REACTORS
330
3B
102
}
330
3B
100
AcDbScale
 70
     0
300
1:1
140
1.0
141
1.0
290
     1
  0
SCALE
  5
3D
102
{ACAD_REACTORS
330
3B
102
}
330
3B
100
AcDbScale
 70
     0
300
1:2
140
1.0
141
2.0
290
     0
  0
SCALE
  5
3E
102
{ACAD_REACTORS
330
3B
102
}
330
3B
100
AcDbScale
 70
     0
300
1:4
140
1.0
141
4.0
290
     0
  0
SCALE
  5
3F
102
{ACAD_REACTORS
330
3B
102
}
330
3B
100
AcDbScale
 70
     0
300
1:5
140
1.0
141
5.0
290
     0
  0
SCALE
  5
40
102
{ACAD_REACTORS
330
3B
102
}
330
3B
100
AcDbScale
 70
     0
300
1:8
140
1.0
141
8.0
290
     0
  0
SCALE
  5
41
102
{ACAD_REACTORS
330
3B
102
}
330
3B
100
AcDbScale
 70
     0
300
1:10
140
1.0
141
10.0
290
     0
  0
SCALE
  5
42
102
{ACAD_REACTORS
330
3B
102
}
330
3B
100
AcDbScale
 70
     0
300
1:16
140
1.0
141
16.0
290
     0
  0
SCALE
  5
43
102
{ACAD_REACTORS
330
3B
102
}
330
3B
100
AcDbScale
 70
     0
300
1:20
140
1.0
141
20.0
290
     0
  0
SCALE
  5
44
102
{ACAD_REACTORS
330
3B
102
}
330
3B
100
AcDbScale
 70
     0
300
1:30
140
1.0
141
30.0
290
     0
  0
SCALE
  5
45
102
{ACAD_REACTORS
330
3B
102
}
330
3B
100
AcDbScale
 70
     0
300
1:40
140
1.0
141
40.0
290
     0
  0
SCALE
  5
46
102
{ACAD_REACTORS
330
3B
102
}
330
3B
100
AcDbScale
 70
     0
300
1:50
140
1.0
141
50.0
290
     0
  0
SCALE
  5
47
102
{ACAD_REACTORS
330
3B
102
}
330
3B
100
AcDbScale
 70
     0
300
1:100
140
1.0
141
100.0
290
     0
  0
SCALE
  5
48
102
{ACAD_REACTORS
330
3B
102
}
330
3B
100
AcDbScale
 70
     0
300
2:1
140
2.0
141
1.0
290
     0
  0
SCALE
  5
49
102
{ACAD_REACTORS
330
3B
102
}
330
3B
100
AcDbScale
 70
     0
300
4:1
140
4.0
141
1.0
290
     0
  0
SCALE
  5
4A
102
{ACAD_REACTORS
330
3B
102
}
330
3B
100
AcDbScale
 70
     0
300
8:1
140
8.0
141
1.0
290
     0
  0
SCALE
  5
4B
102
{ACAD_REACTORS
330
3B
102
}
330
3B
100
AcDbScale
 70
     0
300
10:1
140
10.0
141
1.0
290
     0
  0
SCALE
  5
4C
102
{ACAD_REACTORS
330
3B
102
}
330
3B
100
AcDbScale
 70
     0
300
100:1
140
100.0
141
1.0
290
     0
  0
SCALE
  5
4D
102
{ACAD_REACTORS
330
3B
102
}
330
3B
100
AcDbScale
 70
     0
300
1/128" = 1'-0"
140
0.0078125
141
12.0
290
     0
  0
SCALE
  5
4E
102
{ACAD_REACTORS
330
3B
102
}
330
3B
100
AcDbScale
 70
     0
300
1/64" = 1'-0"
140
0.015625
141
12.0
290
     0
  0
SCALE
  5
4F
102
{ACAD_REACTORS
330
3B
102
}
330
3B
100
AcDbScale
 70
     0
300
1/32" = 1'-0"
140
0.03125
141
12.0
290
     0
  0
SCALE
  5
50
102
{ACAD_REACTORS
330
3B
102
}
330
3B
100
AcDbScale
 70
     0
300
1/16" = 1'-0"
140
0.0625
141
12.0
290
     0
  0
SCALE
  5
51
102
{ACAD_REACTORS
330
3B
102
}
330
3B
100
AcDbScale
 70
     0
300
3/32" = 1'-0"
140
0.09375
141
12.0
290
     0
  0
SCALE
  5
52
102
{ACAD_REACTORS
330
3B
102
}
330
3B
100
AcDbScale
 70
     0
300
1/8" = 1'-0"
140
0.125
141
12.0
290
     0
  0
SCALE
  5
53
102
{ACAD_REACTORS
330
3B
102
}
330
3B
100
AcDbScale
 70
     0
300
3/16" = 1'-0"
140
0.1875
141
12.0
290
     0
  0
SCALE
  5
54
102
{ACAD_REACTORS
330
3B
102
}
330
3B
100
AcDbScale
 70
     0
300
1/4" = 1'-0"
140
0.25
141
12.0
290
     0
  0
SCALE
  5
55
102
{ACAD_REACTORS
330
3B
102
}
330
3B
100
AcDbScale
 70
     0
300
3/8" = 1'-0"
140
0.375
141
12.0
290
     0
  0
SCALE
  5
56
102
{ACAD_REACTORS
330
3B
102
}
330
3B
100
AcDbScale
 70
     0
300
1/2" = 1'-0"
140
0.5
141
12.0
290
     0
  0
SCALE
  5
57
102
{ACAD_REACTORS
330
3B
102
}
330
3B
100
AcDbScale
 70
     0
300
3/4" = 1'-0"
140
0.75
141
12.0
290
     0
  0
SCALE
  5
58
102
{ACAD_REACTORS
330
3B
102
}
330
3B
100
AcDbScale
 70
     0
300
1" = 1'-0"
140
1.0
141
12.0
290
     0
  0
SCALE
  5
59
102
{ACAD_REACTORS
330
3B
102
}
330
3B
100
AcDbScale
 70
     0
300
1-1/2" = 1'-0"
140
1.5
141
12.0
290
     0
  0
SCALE
  5
5A
102
{ACAD_REACTORS
330
3B
102
}
330
3B
100
AcDbScale
 70
     0
300
3" = 1'-0"
140
3.0
141
12.0
290
     0
  0
SCALE
  5
5B
102
{ACAD_REACTORS
330
3B
102
}
330
3B
100
AcDbScale
 70
     0
300
6" = 1'-0"
140
6.0
141
12.0
290
     0
  0
SCALE
  5
5C
102
{ACAD_REACTORS
330
3B
102
}
330
3B
100
AcDbScale
 70
     0
300
1'-0" = 1'-0"
140
12.0
141
12.0
290
     0
  0
VISUALSTYLE
  5
2F
102
{ACAD_REACTORS
330
2A
102
}
330
2A
100
AcDbVisualStyle
  2
2dWireframe
 70
     4
 71
     0
 72
     2
 73
     0
 90
        0
 40
-0.6
 41
-30.0
 62
     5
 63
     7
 74
     1
 91
        4
 64
     7
 65
   257
 75
     1
175
     1
 42
1.0
 92
        0
 66
   257
 43
1.0
 76
     1
 77
     6
 78
     2
 67
     7
 79
     5
170
     0
171
     0
290
     0
174
     0
 93
        1
 44
0.0
173
     0
291
     0
 45
0.0
1001
ACAD
1000
AcDbSavedByObjectVersion
1070
     0
  0
VISUALSTYLE
  5
31
102
{ACAD_REACTORS
330
2A
102
}
330
2A
100
AcDbVisualStyle
  2
3D Hidden
 70
     6
 71
     1
 72
     2
 73
     2
 90
        0
 40
-0.6
 41
-30.0
 62
     5
 63
     7
 74
     2
 91
        2
 64
     7
 65
   257
 75
     2
175
     1
 42
40.0
 92
        0
 66
   257
 43
1.0
 76
     1
 77
     6
 78
     2
 67
     7
 79
     3
170
     0
171
     0
290
     0
174
     0
 93
        1
 44
0.0
173
     0
291
     0
 45
0.0
1001
ACAD
1000
AcDbSavedByObjectVersion
1070
     0
  0
VISUALSTYLE
  5
30
102
{ACAD_REACTORS
330
2A
102
}
330
2A
100
AcDbVisualStyle
  2
3dWireframe
 70
     5
 71
     0
 72
     2
 73
     0
 90
        0
 40
-0.6
 41
-30.0
 62
     5
 63
     7
 74
     1
 91
        4
 64
     7
 65
   257
 75
     1
175
     1
 42
1.0
 92
        0
 66
   257
 43
1.0
 76
     1
 77
     6
 78
     2
 67
     7
 79
     5
170
     0
171
     0
290
     0
174
     0
 93
        1
 44
0.0
173
     0
291
     0
 45
0.0
1001
ACAD
1000
AcDbSavedByObjectVersion
1070
     0
  0
VISUALSTYLE
  5
32
102
{ACAD_REACTORS
330
2A
102
}
330
2A
100
AcDbVisualStyle
  2
Basic
 70
     7
 71
     1
 72
     0
 73
     1
 90
        0
 40
-0.6
 41
-30.0
 62
     5
 63
     7
 74
     0
 91
        4
 64
     7
 65
   257
 75
     1
175
     1
 42
1.0
 92
        8
 66
     7
 43
1.0
 76
     1
 77
     6
 78
     2
 67
     7
 79
     5
170
     0
171
     0
290
     0
174
     0
 93
        1
 44
0.0
173
     0
291
     1
 45
0.0
1001
ACAD
1000
AcDbSavedByObjectVersion
1070
     0
  0
VISUALSTYLE
  5
36
102
{ACAD_REACTORS
330
2A
102
}
330
2A
100
AcDbVisualStyle
  2
Brighten
 70
    12
 71
     2
 72
     2
 73
     0
 90
        0
 40
-0.6
 41
-30.0
 62
     5
 63
     7
 74
     1
 91
        4
 64
     7
 65
   257
 75
     1
175
     1
 42
1.0
 92
        8
 66
     7
 43
1.0
 76
     1
 77
     6
 78
     2
 67
     7
 79
     5
170
     0
171
     0
290
     0
174
     0
 93
        1
 44
50.0
173
     0
291
     1
 45
0.0
1001
ACAD
1000
AcDbSavedByObjectVersion
1070
     0
  0
VISUALSTYLE
  5
3A
102
{ACAD_REACTORS
330
2A
102
}
330
2A
100
AcDbVisualStyle
  2
ColorChange
 70
    16
 71
     2
 72
     2
 73
     3
 90
        0
 40
-0.6
 41
-30.0
 62
     5
 63
     8
 74
     1
 91
        4
 64
     7
 65
   257
 75
     1
175
     1
 42
1.0
 92
        8
 66
     8
 43
1.0
 76
     1
 77
     6
 78
     2
 67
     7
 79
     5
170
     0
171
     0
290
     0
174
     0
 93
        1
 44
0.0
173
     0
291
     1
 45
0.0
1001
ACAD
1000
AcDbSavedByObjectVersion
1070
     0
  0
VISUALSTYLE
  5
34
102
{ACAD_REACTORS
330
2A
102
}
330
2A
100
AcDbVisualStyle
  2
Conceptual
 70
     9
 71
     3
 72
     2
 73
     0
 90
        0
 40
-0.6
 41
-30.0
 62
     5
 63
     7
 74
     2
 91
        2
 64
     7
 65
   257
 75
     1
175
     1
 42
40.0
 92
        8
 66
     7
 43
1.0
 76
     1
 77
     6
 78
     2
 67
     7
 79
     3
170
     0
171
     0
290
     0
174
     0
 93
        1
 44
0.0
173
     0
291
     0
 45
0.0
1001
ACAD
1000
AcDbSavedByObjectVersion
1070
     0
  0
VISUALSTYLE
  5
35
102
{ACAD_REACTORS
330
2A
102
}
330
2A
100
AcDbVisualStyle
  2
Dim
 70
    11
 71
     2
 72
     2
 73
     0
 90
        0
 40
-0.6
 41
-30.0
 62
     5
 63
     7
 74
     1
 91
        4
 64
     7
 65
   257
 75
     1
175
     1
 42
1.0
 92
        8
 66
     7
 43
1.0
 76
     1
 77
     6
 78
     2
 67
     7
 79
     5
170
     0
171
     0
290
     0
174
     0
 93
        1
 44
-50.0
173
     0
291
     1
 45
0.0
1001
ACAD
1000
AcDbSavedByObjectVersion
1070
     0
  0
VISUALSTYLE
  5
39
102
{ACAD_REACTORS
330
2A
102
}
330
2A
100
AcDbVisualStyle
  2
Facepattern
 70
    15
 71
     2
 72
     2
 73
     0
 90
        0
 40
-0.6
 41
-30.0
 62
     5
 63
     7
 74
     1
 91
        4
 64
     7
 65
   257
 75
     1
175
     1
 42
1.0
 92
        8
 66
     7
 43
1.0
 76
     1
 77
     6
 78
     2
 67
     7
 79
     5
170
     0
171
     0
290
     0
174
     0
 93
        1
 44
0.0
173
     0
291
     1
 45
0.0
1001
ACAD
1000
AcDbSavedByObjectVersion
1070
     0
  0
VISUALSTYLE
  5
2B
102
{ACAD_REACTORS
330
2A
102
}
330
2A
100
AcDbVisualStyle
  2
Flat
 70
     0
 71
     2
 72
     1
 73
     1
 90
        2
 40
-0.6
 41
30.0
 62
     5
 63
     7
 74
     0
 91
        4
 64
     7
 65
   257
 75
     1
175
     1
 42
1.0
 92
        8
 66
     7
 43
1.0
 76
     1
 77
     6
 78
     2
 67
     7
 79
     5
170
     0
171
     0
290
     0
174
     0
 93
       13
 44
0.0
173
     0
291
     1
 45
0.0
1001
ACAD
1000
AcDbSavedByObjectVersion
1070
     0
  0
VISUALSTYLE
  5
2C
102
{ACAD_REACTORS
330
2A
102
}
330
2A
100
AcDbVisualStyle
  2
FlatWithEdges
 70
     1
 71
     2
 72
     1
 73
     1
 90
        2
 40
-0.6
 41
30.0
 62
     5
 63
     7
 74
     1
 91
        4
 64
     7
 65
   257
 75
     1
175
     1
 42
1.0
 92
        0
 66
   257
 43
1.0
 76
     1
 77
     6
 78
     2
 67
     7
 79
     5
170
     0
171
     0
290
     0
174
     0
 93
       13
 44
0.0
173
     0
291
     1
 45
0.0
1001
ACAD
1000
AcDbSavedByObjectVersion
1070
     0
  0
VISUALSTYLE
  5
2D
102
{ACAD_REACTORS
330
2A
102
}
330
2A
100
AcDbVisualStyle
  2
Gouraud
 70
     2
 71
     2
 72
     2
 73
     1
 90
        2
 40
-0.6
 41
30.0
 62
     5
 63
     7
 74
     0
 91
        4
 64
     7
 65
   257
 75
     1
175
     1
 42
1.0
 92
        0
 66
     7
 43
1.0
 76
     1
 77
     6
 78
     2
 67
     7
 79
     5
170
     0
171
     0
290
     0
174
     0
 93
       13
 44
0.0
173
     0
291
     1
 45
0.0
1001
ACAD
1000
AcDbSavedByObjectVersion
1070
     0
  0
VISUALSTYLE
  5
2E
102
{ACAD_REACTORS
330
2A
102
}
330
2A
100
AcDbVisualStyle
  2
GouraudWithEdges
 70
     3
 71
     2
 72
     2
 73
     1
 90
        2
 40
-0.6
 41
30.0
 62
     5
 63
     7
 74
     1
 91
        4
 64
     7
 65
   257
 75
     1
175
     1
 42
1.0
 92
        0
 66
   257
 43
1.0
 76
     1
 77
     6
 78
     2
 67
     7
 79
     5
170
     0
171
     0
290
     0
174
     0
 93
       13
 44
0.0
173
     0
291
     1
 45
0.0
1001
ACAD
1000
AcDbSavedByObjectVersion
1070
     0
  0
VISUALSTYLE
  5
38
102
{ACAD_REACTORS
330
2A
102
}
330
2A
100
AcDbVisualStyle
  2
Linepattern
 70
    14
 71
     2
 72
     2
 73
     0
 90
        0
 40
-0.6
 41
-30.0
 62
     5
 63
     7
 74
     1
 91
        4
 64
     7
 65
   257
 75
     7
175
     7
 42
1.0
 92
        8
 66
     7
 43
1.0
 76
     1
 77
     6
 78
     2
 67
     7
 79
     5
170
     0
171
     0
290
     0
174
     0
 93
        1
 44
0.0
173
     0
291
     1
 45
0.0
1001
ACAD
1000
AcDbSavedByObjectVersion
1070
     0
  0
VISUALSTYLE
  5
33
102
{ACAD_REACTORS
330
2A
102
}
330
2A
100
AcDbVisualStyle
  2
Realistic
 70
     8
 71
     2
 72
     2
 73
     0
 90
        0
 40
-0.6
 41
-30.0
 62
     5
 63
     7
 74
     1
 91
        0
 64
     7
 65
   257
 75
     1
175
     1
 42
1.0
 92
        8
 66
     8
 43
1.0
 76
     1
 77
     6
 78
     2
 67
     7
 79
     5
170
     0
171
     0
290
     0
174
     0
 93
       13
 44
0.0
173
     0
291
     0
 45
0.0
1001
ACAD
1000
AcDbSavedByObjectVersion
1070
     0
  0
VISUALSTYLE
  5
37
102
{ACAD_REACTORS
330
2A
102
}
330
2A
100
AcDbVisualStyle
  2
Thicken
 70
    13
 71
     2
 72
     2
 73
     0
 90
        0
 40
-0.6
 41
-30.0
 62
     5
 63
     7
 74
     1
 91
        4
 64
     7
 65
   257
 75
     1
175
     1
 42
1.0
 92
       12
 66
     7
 43
1.0
 76
     1
 77
     6
 78
     2
 67
     7
 79
     5
170
     0
171
     0
290
     0
174
     0
 93
        1
 44
0.0
173
     0
291
     1
 45
0.0
1001
ACAD
1000
AcDbSavedByObjectVersion
1070
     0
  0
DICTIONARYVAR
  5
365
102
{ACAD_REACTORS
330
364
102
}
330
364
100
DictionaryVariables
280
     0
  1
1:1
  0
DICTIONARYVAR
  5
369
102
{ACAD_REACTORS
330
364
102
}
330
364
100
DictionaryVariables
280
     0
  1
80.000000
  0
DICTIONARYVAR
  5
368
102
{ACAD_REACTORS
330
364
102
}
330
364
100
DictionaryVariables
280
     0
  1
5.000000
  0
ENDSEC
  0
EOF
