  0
SECTION
  2
HEADER
  9
$ACADVER
  1
AC1009
  9
$DWGCODEPAGE
  3
ansi_1252
  9
$INSBASE
 10
0.0
 20
0.0
 30
0.0
  9
$EXTMIN
 10
1.000000000000000E+20
 20
1.000000000000000E+20
 30
1.000000000000000E+20
  9
$EXTMAX
 10
-1.000000000000000E+20
 20
-1.000000000000000E+20
 30
-1.000000000000000E+20
  9
$LIMMIN
 10
0.0
 20
0.0
  9
$LIMMAX
 10
12.0
 20
9.0
  9
$ORTHOMODE
 70
     0
  9
$REGENMODE
 70
     1
  9
$FILLMODE
 70
     1
  9
$QTEXTMODE
 70
     0
  9
$MIRRTEXT
 70
     1
  9
$DRAGMODE
 70
     2
  9
$LTSCALE
 40
1.0
  9
$OSMODE
 70
    37
  9
$ATTMODE
 70
     1
  9
$TEXTSIZE
 40
0.2
  9
$TRACEWID
 40
0.05
  9
$TEXTSTYLE
  7
STANDARD
  9
$CLAYER
  8
0
  9
$CELTYPE
  6
BYLAYER
  9
$CECOLOR
 62
   256
  9
$DIMSCALE
 40
1.0
  9
$DIMASZ
 40
0.18
  9
$DIMEXO
 40
0.0625
  9
$DIMDLI
 40
0.38
  9
$DIMRND
 40
0.0
  9
$DIMDLE
 40
0.0
  9
$DIMEXE
 40
0.18
  9
$DIMTP
 40
0.0
  9
$DIMTM
 40
0.0
  9
$DIMTXT
 40
0.18
  9
$DIMCEN
 40
0.09
  9
$DIMTSZ
 40
0.0
  9
$DIMTOL
 70
     0
  9
$DIMLIM
 70
     0
  9
$DIMTIH
 70
     1
  9
$DIMTOH
 70
     1
  9
$DIMSE1
 70
     0
  9
$DIMSE2
 70
     0
  9
$DIMTAD
 70
     0
  9
$DIMZIN
 70
     0
  9
$DIMBLK
  1

  9
$DIMASO
 70
     1
  9
$DIMSHO
 70
     1
  9
$DIMPOST
  1

  9
$DIMAPOST
  1

  9
$DIMALT
 70
     0
  9
$DIMALTD
 70
     2
  9
$DIMALTF
 40
25.4
  9
$DIMLFAC
 40
1.0
  9
$DIMTOFL
 70
     0
  9
$DIMTVP
 40
0.0
  9
$DIMTIX
 70
     0
  9
$DIMSOXD
 70
     0
  9
$DIMSAH
 70
     0
  9
$DIMBLK1
  1

  9
$DIMBLK2
  1

  9
$DIMSTYLE
  2
STANDARD
  9
$DIMCLRD
 70
     0
  9
$DIMCLRE
 70
     0
  9
$DIMCLRT
 70
     0
  9
$DIMTFAC
 40
1.0
  9
$DIMGAP
 40
0.09
  9
$LUNITS
 70
     2
  9
$LUPREC
 70
     4
  9
$SKETCHINC
 40
0.1
  9
$FILLETRAD
 40
0.5
  9
$AUNITS
 70
     0
  9
$AUPREC
 70
     0
  9
$MENU
  1
.
  9
$ELEVATION
 40
0.0
  9
$PELEVATION
 40
0.0
  9
$THICKNESS
 40
0.0
  9
$LIMCHECK
 70
     0
  9
$CHAMFERA
 40
0.5
  9
$CHAMFERB
 40
0.5
  9
$SKPOLY
 70
     0
  9
$TDCREATE
 40
2455947.539479201
  9
$TDUPDATE
 40
2455947.539479201
  9
$TDINDWG
 40
0.0000000116
  9
$TDUSRTIMER
 40
0.0000000116
  9
$USRTIMER
 70
     1
  9
$ANGBASE
 50
0.0
  9
$ANGDIR
 70
     0
  9
$PDMODE
 70
     0
  9
$PDSIZE
 40
0.0
  9
$PLINEWID
 40
0.0
  9
$COORDS
 70
     1
  9
$SPLFRAME
 70
     0
  9
$SPLINETYPE
 70
     6
  9
$SPLINESEGS
 70
     8
  9
$ATTDIA
 70
     0
  9
$ATTREQ
 70
     1
  9
$HANDLING
 70
     1
  9
$HANDSEED
  5
C29
  9
$SURFTAB1
 70
     6
  9
$SURFTAB2
 70
     6
  9
$SURFTYPE
 70
     6
  9
$SURFU
 70
     6
  9
$SURFV
 70
     6
  9
$UCSNAME
  2

  9
$UCSORG
 10
0.0
 20
0.0
 30
0.0
  9
$UCSXDIR
 10
1.0
 20
0.0
 30
0.0
  9
$UCSYDIR
 10
0.0
 20
1.0
 30
0.0
  9
$PUCSNAME
  2

  9
$PUCSORG
 10
0.0
 20
0.0
 30
0.0
  9
$PUCSXDIR
 10
1.0
 20
0.0
 30
0.0
  9
$PUCSYDIR
 10
0.0
 20
1.0
 30
0.0
  9
$USERI1
 70
     0
  9
$USERI2
 70
     0
  9
$USERI3
 70
     0
  9
$USERI4
 70
     0
  9
$USERI5
 70
     0
  9
$USERR1
 40
0.0
  9
$USERR2
 40
0.0
  9
$USERR3
 40
0.0
  9
$USERR4
 40
0.0
  9
$USERR5
 40
0.0
  9
$WORLDVIEW
 70
     1
  9
$SHADEDGE
 70
     3
  9
$SHADEDIF
 70
    70
  9
$TILEMODE
 70
     1
  9
$MAXACTVP
 70
    64
  9
$PLIMCHECK
 70
     0
  9
$PEXTMIN
 10
1.000000000000000E+20
 20
1.000000000000000E+20
 30
1.000000000000000E+20
  9
$PEXTMAX
 10
-1.000000000000000E+20
 20
-1.000000000000000E+20
 30
-1.000000000000000E+20
  9
$PLIMMIN
 10
0.0
 20
0.0
  9
$PLIMMAX
 10
12.0
 20
9.0
  9
$UNITMODE
 70
     0
  9
$VISRETAIN
 70
     1
  9
$PLINEGEN
 70
     0
  9
$PSLTSCALE
 70
     1
  0
ENDSEC
  0
SECTION
  2
TABLES
  0
TABLE
  2
VPORT
 70
     1
  0
VPORT
  2
*ACTIVE
 70
     0
 10
0.0
 20
0.0
 11
1.0
 21
1.0
 12
0.0
 22
0.0
 13
0.0
 23
0.0
 14
0.5
 24
0.5
 15
0.5
 25
0.5
 16
-308.5067443847656
 26
-127.7876739501953
 36
66.421875
 17
30.0
 27
-2.449996948242188
 37
-35.0
 40
138.1329889252711
 41
1.972972972850329
 42
50.0
 43
0.0
 44
0.0
 50
0.0
 51
0.0
 71
     0
 72
   100
 73
     1
 74
     3
 75
     0
 76
     0
 77
     0
 78
     0
  0
ENDTAB
  0
TABLE
  2
LTYPE
 70
     1
  0
LTYPE
  2
CONTINUOUS
 70
     0
  3
Solid line
 72
    65
 73
     0
 40
0.0
  0
ENDTAB
  0
TABLE
  2
LAYER
 70
     2
  0
LAYER
  2
0
 70
     0
 62
     7
  6
CONTINUOUS
  0
LAYER
  2
LAYER_1
 70
     0
 62
     7
  6
CONTINUOUS
  0
ENDTAB
  0
TABLE
  2
STYLE
 70
     1
  0
STYLE
  2
STANDARD
 70
     0
 40
0.0
 41
1.0
 50
0.0
 71
     0
 42
0.2
  3
txt
  4

  0
ENDTAB
  0
TABLE
  2
VIEW
 70
     0
  0
ENDTAB
  0
TABLE
  2
UCS
 70
     0
  0
ENDTAB
  0
TABLE
  2
APPID
 70
     1
  0
APPID
  2
ACAD
 70
     0
  0
ENDTAB
  0
TABLE
  2
DIMSTYLE
 70
     1
  0
DIMSTYLE
  2
STANDARD
 70
     0
  3

  4

  5

  6

  7

 40
1.0
 41
0.18
 42
0.0625
 43
0.38
 44
0.18
 45
0.0
 46
0.0
 47
0.0
 48
0.0
140
0.18
141
0.09
142
0.0
143
25.4
144
1.0
145
0.0
146
1.0
147
0.09
 71
     0
 72
     0
 73
     1
 74
     1
 75
     0
 76
     0
 77
     0
 78
     0
170
     0
171
     2
172
     0
173
     0
174
     0
175
     0
176
     0
177
     0
178
     0
  0
ENDTAB
  0
ENDSEC
  0
SECTION
  2
BLOCKS
  0
BLOCK
  8
0
  2
$MODEL_SPACE
 70
     0
 10
0.0
 20
0.0
 30
0.0
  3
$MODEL_SPACE
  1

  0
ENDBLK
  5
21
  8
0
  0
BLOCK
 67
     1
  8
0
  2
$PAPER_SPACE
 70
     0
 10
0.0
 20
0.0
 30
0.0
  3
$PAPER_SPACE
  1

  0
ENDBLK
  5
1D
 67
     1
  8
0
  0
BLOCK
  8
0
  2
5700-04
 70
     0
 10
0.0
 20
0.0
 30
0.0
  3
5700-04
  1

  0
POLYLINE
  5
3C
  8
0
 62
   123
 66
     1
 10
0.0
 20
0.0
 30
0.0
 70
    64
 71
   279
 72
   515
  0
VERTEX
  5
3D
  8
0
 10
1.51213800907135
 20
-1.13405978679657
 30
-9.057360649108887
 70
   192
  0
VERTEX
  5
3E
  8
0
 10
1.186480402946472
 20
-0.0000000000000003
 30
-9.083544731140137
 70
   192
  0
VERTEX
  5
3F
  8
0
 10
3.5
 20
0.0
 30
-6.770025730133057
 70
   192
  0
VERTEX
  5
40
  8
0
 10
2.358559608459473
 20
-1.943569421768188
 30
-9.031073570251465
 70
   192
  0
VERTEX
  5
41
  8
0
 10
3.500029802322388
 20
-2.235684394836426
 30
-9.004277229309082
 70
   192
  0
VERTEX
  5
42
  8
0
 10
4.593208312988281
 20
-1.918421864509583
 30
-8.978026390075684
 70
   192
  0
VERTEX
  5
43
  8
0
 10
5.65743350982666
 20
0.000574181729462
 30
-8.929027557373047
 70
   192
  0
VERTEX
  5
44
  8
0
 10
5.383370876312256
 20
-1.100973844528198
 30
-8.951624870300293
 70
   192
  0
VERTEX
  5
45
  8
0
 10
5.630888938903809
 20
1.197712659835815
 30
-9.216044425964355
 70
   192
  0
VERTEX
  5
46
  8
0
 10
5.972012996673584
 20
-0.0000000000000001
 30
-9.24203872680664
 70
   192
  0
VERTEX
  5
47
  8
0
 10
4.757985591888428
 20
2.067936420440674
 30
-9.190178871154785
 70
   192
  0
VERTEX
  5
48
  8
0
 10
3.563124179840088
 20
2.392973184585571
 30
-9.163951873779297
 70
   192
  0
VERTEX
  5
49
  8
0
 10
2.361303091049194
 20
2.074523687362671
 30
-9.137283325195312
 70
   192
  0
VERTEX
  5
4A
  8
0
 10
1.490151762962341
 20
1.200107336044312
 30
-9.110572814941406
 70
   192
  0
VERTEX
  5
4B
  8
0
 10
4.433334827423096
 20
-2.319317817687988
 30
-9.320377349853516
 70
   192
  0
VERTEX
  5
4C
  8
0
 10
3.499974250793457
 20
-2.497867345809937
 30
-9.35081958770752
 70
   192
  0
VERTEX
  5
4D
  8
0
 10
4.406019687652588
 20
-2.328139543533325
 30
-9.270025253295898
 70
   192
  0
VERTEX
  5
4E
  8
0
 10
3.5
 20
-2.5
 30
-9.270025253295898
 70
   192
  0
VERTEX
  5
4F
  8
0
 10
5.234031677246094
 20
-1.800987720489502
 30
-9.289800643920898
 70
   192
  0
VERTEX
  5
50
  8
0
 10
5.999882221221924
 20
0.0014521332923323
 30
-9.72584056854248
 70
   192
  0
VERTEX
  5
51
  8
0
 10
5.877918720245361
 20
-0.7716341614723206
 30
-9.750832557678223
 70
   192
  0
VERTEX
  5
52
  8
0
 10
5.975441932678223
 20
-0.3545613884925842
 30
-9.637219429016113
 70
   192
  0
VERTEX
  5
53
  8
0
 10
5.771364212036133
 20
-1.042390108108521
 30
-9.660301208496094
 70
   192
  0
VERTEX
  5
54
  8
0
 10
5.523211479187012
 20
-1.468467235565186
 30
-9.775824546813965
 70
   192
  0
VERTEX
  5
55
  8
0
 10
5.961194038391113
 20
0.3535404205322266
 30
-9.614686012268066
 70
   192
  0
VERTEX
  5
56
  8
0
 10
4.970800399780273
 20
-2.02144455909729
 30
-9.800817489624023
 70
   192
  0
VERTEX
  5
57
  8
0
 10
5.384003639221191
 20
-1.636262536048889
 30
-9.682827949523926
 70
   192
  0
VERTEX
  5
58
  8
0
 10
4.273834228515625
 20
-2.37714958190918
 30
-9.825809478759766
 70
   192
  0
VERTEX
  5
59
  8
0
 10
4.848133563995361
 20
-2.102429628372192
 30
-9.705657005310059
 70
   192
  0
VERTEX
  5
5A
  8
0
 10
3.49999737739563
 20
-2.499920606613159
 30
-9.850802421569824
 70
   192
  0
VERTEX
  5
5B
  8
0
 10
4.204131126403809
 20
-2.398799419403076
 30
-9.728189468383789
 70
   192
  0
VERTEX
  5
5C
  8
0
 10
3.5
 20
-2.5
 30
-9.750880241394043
 70
   192
  0
VERTEX
  5
5D
  8
0
 10
5.877058029174805
 20
0.7737264037132263
 30
-9.700847625732422
 70
   192
  0
VERTEX
  5
5E
  8
0
 10
5.77344799041748
 20
1.029622673988342
 30
-9.592117309570312
 70
   192
  0
VERTEX
  5
5F
  8
0
 10
5.522395610809326
 20
1.469534277915955
 30
-9.67585563659668
 70
   192
  0
VERTEX
  5
60
  8
0
 10
4.969677448272705
 20
2.022393703460693
 30
-9.650862693786621
 70
   192
  0
VERTEX
  5
61
  8
0
 10
5.387186050415039
 20
1.638045191764832
 30
-9.569077491760254
 70
   192
  0
VERTEX
  5
62
  8
0
 10
4.847504138946533
 20
2.09717583656311
 30
-9.546483993530273
 70
   192
  0
VERTEX
  5
63
  8
0
 10
4.271964550018311
 20
2.377707242965698
 30
-9.625869750976562
 70
   192
  0
VERTEX
  5
64
  8
0
 10
4.204777240753174
 20
2.39849328994751
 30
-9.523715019226074
 70
   192
  0
VERTEX
  5
65
  8
0
 10
3.500000238418579
 20
2.499812841415405
 30
-9.60087776184082
 70
   192
  0
VERTEX
  5
66
  8
0
 10
3.499994993209839
 20
2.499798059463501
 30
-9.501033782958984
 70
   192
  0
VERTEX
  5
67
  8
0
 10
5.999918460845947
 20
0.0011185093317181
 30
-10.22583675384521
 70
   192
  0
VERTEX
  5
68
  8
0
 10
5.877886772155762
 20
-0.7713813781738281
 30
-10.25084781646729
 70
   192
  0
VERTEX
  5
69
  8
0
 10
5.877134323120117
 20
-0.7738965749740601
 30
-10.15095138549805
 70
   192
  0
VERTEX
  5
6A
  8
0
 10
5.52338695526123
 20
-1.467946887016296
 30
-10.27585887908936
 70
   192
  0
VERTEX
  5
6B
  8
0
 10
5.521445751190186
 20
-1.470853447914124
 30
-10.17594909667969
 70
   192
  0
VERTEX
  5
6C
  8
0
 10
5.999855041503906
 20
-0.002422608435154
 30
-10.12595367431641
 70
   192
  0
VERTEX
  5
6D
  8
0
 10
4.970370292663574
 20
-2.02172327041626
 30
-10.30086898803711
 70
   192
  0
VERTEX
  5
6E
  8
0
 10
4.967707633972168
 20
-2.023684740066528
 30
-10.20094680786133
 70
   192
  0
VERTEX
  5
6F
  8
0
 10
4.271238327026367
 20
-2.378004550933838
 30
-10.22594547271729
 70
   192
  0
VERTEX
  5
70
  8
0
 10
4.272669792175293
 20
-2.377547264099121
 30
-10.32588005065918
 70
   192
  0
VERTEX
  5
71
  8
0
 10
3.500000238418579
 20
-2.499839067459106
 30
-10.35089015960693
 70
   192
  0
VERTEX
  5
72
  8
0
 10
3.5
 20
-2.5
 30
-10.25088024139404
 70
   192
  0
VERTEX
  5
73
  8
0
 10
5.877082824707031
 20
0.773969829082489
 30
-10.20082664489746
 70
   192
  0
VERTEX
  5
74
  8
0
 10
5.523433208465576
 20
1.468276262283325
 30
-10.07595634460449
 70
   192
  0
VERTEX
  5
75
  8
0
 10
5.878291606903076
 20
0.7703847289085388
 30
-10.10095500946045
 70
   192
  0
VERTEX
  5
76
  8
0
 10
5.521210670471191
 20
1.471074819564819
 30
-10.17581653594971
 70
   192
  0
VERTEX
  5
77
  8
0
 10
4.970961093902588
 20
2.021335124969482
 30
-10.05095863342285
 70
   192
  0
VERTEX
  5
78
  8
0
 10
4.275303840637207
 20
2.37654447555542
 30
-10.02596092224121
 70
   192
  0
VERTEX
  5
79
  8
0
 10
4.968087196350098
 20
2.023520231246948
 30
-10.15080547332764
 70
   192
  0
VERTEX
  5
7A
  8
0
 10
3.49999737739563
 20
2.49976110458374
 30
-10.00096225738525
 70
   192
  0
VERTEX
  5
7B
  8
0
 10
4.269981384277344
 20
2.37837815284729
 30
-10.12579536437988
 70
   192
  0
VERTEX
  5
7C
  8
0
 10
3.500002861022949
 20
2.499735116958618
 30
-10.10078430175781
 70
   192
  0
VERTEX
  5
7D
  8
0
 10
5.999912261962891
 20
0.0006632404983975
 30
-10.72586917877197
 70
   192
  0
VERTEX
  5
7E
  8
0
 10
5.877772331237793
 20
-0.7715238332748413
 30
-10.75087356567383
 70
   192
  0
VERTEX
  5
7F
  8
0
 10
5.877243518829346
 20
-0.7736111879348755
 30
-10.65091896057129
 70
   192
  0
VERTEX
  5
80
  8
0
 10
5.522987365722656
 20
-1.468547463417053
 30
-10.77587795257568
 70
   192
  0
VERTEX
  5
81
  8
0
 10
5.521166801452637
 20
-1.471131443977356
 30
-10.67592334747314
 70
   192
  0
VERTEX
  5
82
  8
0
 10
5.999917507171631
 20
-0.0005424279370345
 30
-10.62591457366943
 70
   192
  0
VERTEX
  5
83
  8
0
 10
4.969659805297852
 20
-2.022258758544922
 30
-10.80088233947754
 70
   192
  0
VERTEX
  5
84
  8
0
 10
4.967296600341797
 20
-2.023848533630371
 30
-10.700927734375
 70
   192
  0
VERTEX
  5
85
  8
0
 10
4.270509243011475
 20
-2.378135919570923
 30
-10.72593212127686
 70
   192
  0
VERTEX
  5
86
  8
0
 10
4.272943496704102
 20
-2.3773512840271
 30
-10.82588768005371
 70
   192
  0
VERTEX
  5
87
  8
0
 10
3.500000238418579
 20
-2.499743223190308
 30
-10.85089206695557
 70
   192
  0
VERTEX
  5
88
  8
0
 10
3.500001907348633
 20
-2.49979829788208
 30
-10.75093650817871
 70
   192
  0
VERTEX
  5
89
  8
0
 10
5.877261638641357
 20
0.7735950350761414
 30
-10.70086479187012
 70
   192
  0
VERTEX
  5
8A
  8
0
 10
5.523069858551025
 20
1.468530178070068
 30
-10.57590675354004
 70
   192
  0
VERTEX
  5
8B
  8
0
 10
5.877824783325195
 20
0.7714894413948059
 30
-10.60091114044189
 70
   192
  0
VERTEX
  5
8C
  8
0
 10
5.521162986755371
 20
1.471111178398132
 30
-10.67585945129395
 70
   192
  0
VERTEX
  5
8D
  8
0
 10
4.969728469848633
 20
2.022260904312134
 30
-10.55090236663818
 70
   192
  0
VERTEX
  5
8E
  8
0
 10
4.272808074951172
 20
2.377428531646729
 30
-10.52589893341064
 70
   192
  0
VERTEX
  5
8F
  8
0
 10
4.96727180480957
 20
2.023812770843506
 30
-10.65085506439209
 70
   192
  0
VERTEX
  5
90
  8
0
 10
3.499999523162842
 20
2.499808788299561
 30
-10.50089454650879
 70
   192
  0
VERTEX
  5
91
  8
0
 10
4.270534038543701
 20
2.378087759017944
 30
-10.62585067749023
 70
   192
  0
VERTEX
  5
92
  8
0
 10
3.500001192092896
 20
2.499793291091919
 30
-10.60084533691406
 70
   192
  0
VERTEX
  5
93
  8
0
 10
5.986611366271973
 20
-0.2777343690395355
 30
-11.13470554351807
 70
   192
  0
VERTEX
  5
94
  8
0
 10
5.962613105773926
 20
0.4210709631443024
 30
-11.11240673065186
 70
   192
  0
VERTEX
  5
95
  8
0
 10
5.963469982147217
 20
0.4250173270702362
 30
-11.21230316162109
 70
   192
  0
VERTEX
  5
96
  8
0
 10
5.749391555786133
 20
1.086466670036316
 30
-11.09012413024902
 70
   192
  0
VERTEX
  5
97
  8
0
 10
5.749685287475586
 20
1.089870095252991
 30
-11.19000816345215
 70
   192
  0
VERTEX
  5
98
  8
0
 10
5.362146377563477
 20
1.667944073677063
 30
-11.16771411895752
 70
   192
  0
VERTEX
  5
99
  8
0
 10
5.363085269927979
 20
1.66792893409729
 30
-11.06782722473145
 70
   192
  0
VERTEX
  5
9A
  8
0
 10
4.829338073730469
 20
2.119193077087402
 30
-11.04552555084229
 70
   192
  0
VERTEX
  5
9B
  8
0
 10
4.827134132385254
 20
2.118529796600342
 30
-11.14542007446289
 70
   192
  0
VERTEX
  5
9C
  8
0
 10
4.190464973449707
 20
2.401959896087646
 30
-11.02319812774658
 70
   192
  0
VERTEX
  5
9D
  8
0
 10
4.190279483795166
 20
2.402825832366943
 30
-11.12312507629395
 70
   192
  0
VERTEX
  5
9E
  8
0
 10
3.500000953674316
 20
2.49982762336731
 30
-11.00085067749023
 70
   192
  0
VERTEX
  5
9F
  8
0
 10
3.500001668930054
 20
2.499942064285278
 30
-11.10083103179932
 70
   192
  0
VERTEX
  5
A0
  8
0
 10
2.611801147460938
 20
-2.336766958236694
 30
-9.379788398742676
 70
   192
  0
VERTEX
  5
A1
  8
0
 10
1.944431185722351
 20
-1.956860423088074
 30
-9.404353141784668
 70
   192
  0
VERTEX
  5
A2
  8
0
 10
2.165099382400513
 20
-2.113322019577026
 30
-9.295734405517578
 70
   192
  0
VERTEX
  5
A3
  8
0
 10
2.904328346252441
 20
-2.427998304367065
 30
-9.270025253295898
 70
   192
  0
VERTEX
  5
A4
  8
0
 10
3.36253809928894
 20
-2.498055934906006
 30
-9.355213165283203
 70
   192
  0
VERTEX
  5
A5
  8
0
 10
1.001046657562256
 20
0.0683116838335991
 30
-9.478050231933594
 70
   192
  0
VERTEX
  5
A6
  8
0
 10
1.09807562828064
 20
0.6942033767700195
 30
-9.398399353027344
 70
   192
  0
VERTEX
  5
A7
  8
0
 10
1.002354502677917
 20
-0.101284496486187
 30
-9.372734069824219
 70
   192
  0
VERTEX
  5
A8
  8
0
 10
1.423195481300354
 20
-1.391522288322449
 30
-9.428918838500977
 70
   192
  0
VERTEX
  5
A9
  8
0
 10
1.098317503929138
 20
-0.6940377950668335
 30
-9.453484535217285
 70
   192
  0
VERTEX
  5
AA
  8
0
 10
1.162841558456421
 20
-0.8874474167823792
 30
-9.347066879272461
 70
   192
  0
VERTEX
  5
AB
  8
0
 10
1.501641750335693
 20
1.501968502998352
 30
-9.527180671691895
 70
   192
  0
VERTEX
  5
AC
  8
0
 10
1.997753977775574
 20
1.998211741447449
 30
-9.44973087310791
 70
   192
  0
VERTEX
  5
AD
  8
0
 10
1.442464828491211
 20
1.419800758361816
 30
-9.424063682556152
 70
   192
  0
VERTEX
  5
AE
  8
0
 10
1.139877676963806
 20
0.8241273760795593
 30
-9.502615928649902
 70
   192
  0
VERTEX
  5
AF
  8
0
 10
2.740650653839111
 20
2.381814479827881
 30
-9.576312065124512
 70
   192
  0
VERTEX
  5
B0
  8
0
 10
2.708442211151123
 20
2.371473550796509
 30
-9.475394248962402
 70
   192
  0
VERTEX
  5
B1
  8
0
 10
2.052681684494019
 20
2.038336515426636
 30
-9.551746368408203
 70
   192
  0
VERTEX
  5
B2
  8
0
 10
1.564393401145935
 20
-1.58196747303009
 30
-9.321401596069336
 70
   192
  0
VERTEX
  5
B3
  8
0
 10
2.729183673858643
 20
-2.378145217895508
 30
-9.875800132751465
 70
   192
  0
VERTEX
  5
B4
  8
0
 10
2.609789133071899
 20
-2.336083173751831
 30
-9.779855728149414
 70
   192
  0
VERTEX
  5
B5
  8
0
 10
3.362561702728271
 20
-2.497563123703003
 30
-9.755208969116211
 70
   192
  0
VERTEX
  5
B6
  8
0
 10
1.000131130218506
 20
-0.0023627616465092
 30
-9.97579288482666
 70
   192
  0
VERTEX
  5
B7
  8
0
 10
1.097833514213562
 20
-0.6921912431716919
 30
-9.853557586669922
 70
   192
  0
VERTEX
  5
B8
  8
0
 10
1.122937083244324
 20
-0.7741427421569824
 30
-9.95079517364502
 70
   192
  0
VERTEX
  5
B9
  8
0
 10
1.478895783424377
 20
-1.471309781074524
 30
-9.925796508789062
 70
   192
  0
VERTEX
  5
BA
  8
0
 10
1.941595792770386
 20
-1.954678058624268
 30
-9.804422378540039
 70
   192
  0
VERTEX
  5
BB
  8
0
 10
2.032731294631958
 20
-2.023985862731934
 30
-9.900798797607422
 70
   192
  0
VERTEX
  5
BC
  8
0
 10
1.476274132728577
 20
1.467868328094482
 30
-10.02578926086426
 70
   192
  0
VERTEX
  5
BD
  8
0
 10
1.140591382980347
 20
0.8263140916824341
 30
-9.902692794799805
 70
   192
  0
VERTEX
  5
BE
  8
0
 10
1.121657490730286
 20
0.7702502012252808
 30
-10.00079154968262
 70
   192
  0
VERTEX
  5
BF
  8
0
 10
1.001078248023987
 20
0.0703701600432396
 30
-9.878125190734863
 70
   192
  0
VERTEX
  5
C0
  8
0
 10
2.724589586257935
 20
2.37650728225708
 30
-10.07578659057617
 70
   192
  0
VERTEX
  5
C1
  8
0
 10
2.054734230041504
 20
2.039772033691406
 30
-9.951827049255371
 70
   192
  0
VERTEX
  5
C2
  8
0
 10
2.028978824615479
 20
2.021352767944336
 30
-10.05078792572021
 70
   192
  0
VERTEX
  5
C3
  8
0
 10
1.503484606742859
 20
1.504421949386597
 30
-9.92725944519043
 70
   192
  0
VERTEX
  5
C4
  8
0
 10
2.742921113967896
 20
2.382491827011108
 30
-9.976394653320312
 70
   192
  0
VERTEX
  5
C5
  8
0
 10
1.421351432800293
 20
-1.388634085655212
 30
-9.82898998260498
 70
   192
  0
VERTEX
  5
C6
  8
0
 10
2.728046417236328
 20
-2.377654790878296
 30
-10.37588596343994
 70
   192
  0
VERTEX
  5
C7
  8
0
 10
2.726617574691772
 20
-2.37730598449707
 30
-10.27593803405762
 70
   192
  0
VERTEX
  5
C8
  8
0
 10
1.122210383415222
 20
-0.772068202495575
 30
-10.35092353820801
 70
   192
  0
VERTEX
  5
C9
  8
0
 10
1.476790189743042
 20
-1.468388319015503
 30
-10.32592868804932
 70
   192
  0
VERTEX
  5
CA
  8
0
 10
1.123046636581421
 20
-0.7739797234535217
 30
-10.45087242126465
 70
   192
  0
VERTEX
  5
CB
  8
0
 10
2.029425621032715
 20
-2.021613121032715
 30
-10.30093288421631
 70
   192
  0
VERTEX
  5
CC
  8
0
 10
2.03119421005249
 20
-2.022820711135864
 30
-10.40088176727295
 70
   192
  0
VERTEX
  5
CD
  8
0
 10
1.477834820747375
 20
-1.469760537147522
 30
-10.42587757110596
 70
   192
  0
VERTEX
  5
CE
  8
0
 10
1.476991295814514
 20
1.468592643737793
 30
-10.52585887908936
 70
   192
  0
VERTEX
  5
CF
  8
0
 10
1.122805714607239
 20
0.7734094858169556
 30
-10.40091419219971
 70
   192
  0
VERTEX
  5
D0
  8
0
 10
1.12200129032135
 20
0.7709373831748962
 30
-10.50086307525635
 70
   192
  0
VERTEX
  5
D1
  8
0
 10
1.000092029571533
 20
0.0009730174788274
 30
-10.3759183883667
 70
   192
  0
VERTEX
  5
D2
  8
0
 10
1.000201940536499
 20
-0.0020049277227372
 30
-10.47586822509766
 70
   192
  0
VERTEX
  5
D3
  8
0
 10
2.725313901901245
 20
2.376789569854736
 30
-10.57584953308105
 70
   192
  0
VERTEX
  5
D4
  8
0
 10
2.03012752532959
 20
2.022324562072754
 30
-10.45090484619141
 70
   192
  0
VERTEX
  5
D5
  8
0
 10
2.029123544692993
 20
2.02127480506897
 30
-10.55085468292236
 70
   192
  0
VERTEX
  5
D6
  8
0
 10
1.477532029151917
 20
1.469450116157532
 30
-10.4259090423584
 70
   192
  0
VERTEX
  5
D7
  8
0
 10
2.728011846542358
 20
2.377738475799561
 30
-10.4758996963501
 70
   192
  0
VERTEX
  5
D8
  8
0
 10
2.728024959564209
 20
-2.377664566040039
 30
-10.87588596343994
 70
   192
  0
VERTEX
  5
D9
  8
0
 10
2.72524356842041
 20
-2.376766443252563
 30
-10.77592754364014
 70
   192
  0
VERTEX
  5
DA
  8
0
 10
1.121992468833923
 20
-0.7709319591522217
 30
-10.85090160369873
 70
   192
  0
VERTEX
  5
DB
  8
0
 10
1.476964592933655
 20
-1.468597292900085
 30
-10.8259105682373
 70
   192
  0
VERTEX
  5
DC
  8
0
 10
1.122760653495789
 20
-0.7732475399971008
 30
-10.95086765289307
 70
   192
  0
VERTEX
  5
DD
  8
0
 10
2.02911901473999
 20
-2.02129602432251
 30
-10.80091953277588
 70
   192
  0
VERTEX
  5
DE
  8
0
 10
2.030146837234497
 20
-2.022216081619263
 30
-10.90087985992432
 70
   192
  0
VERTEX
  5
DF
  8
0
 10
1.477555632591248
 20
-1.469385981559753
 30
-10.92587375640869
 70
   192
  0
VERTEX
  5
E0
  8
0
 10
1.476874470710754
 20
1.468407273292542
 30
-11.02584934234619
 70
   192
  0
VERTEX
  5
E1
  8
0
 10
1.12304151058197
 20
0.773971676826477
 30
-10.9008846282959
 70
   192
  0
VERTEX
  5
E2
  8
0
 10
1.122304320335388
 20
0.7721855640411377
 30
-11.00085544586182
 70
   192
  0
VERTEX
  5
E3
  8
0
 10
1.000202894210815
 20
0.002000831766054
 30
-10.87589263916016
 70
   192
  0
VERTEX
  5
E4
  8
0
 10
1.000113487243652
 20
-0.0007349298684858
 30
-10.97586250305176
 70
   192
  0
VERTEX
  5
E5
  8
0
 10
2.726848363876343
 20
2.377387762069702
 30
-11.07583713531494
 70
   192
  0
VERTEX
  5
E6
  8
0
 10
2.031201362609863
 20
2.022790193557739
 30
-10.95086765289307
 70
   192
  0
VERTEX
  5
E7
  8
0
 10
2.029567241668701
 20
2.021700382232666
 30
-11.05084323883057
 70
   192
  0
VERTEX
  5
E8
  8
0
 10
1.477845907211304
 20
1.469757914543152
 30
-10.92587566375732
 70
   192
  0
VERTEX
  5
E9
  8
0
 10
2.728042364120483
 20
2.377620220184326
 30
-10.97585868835449
 70
   192
  0
VERTEX
  5
EA
  8
0
 10
3.829543828964233
 20
2.127984046936035
 30
-9.313301086425781
 70
   192
  0
VERTEX
  5
EB
  8
0
 10
2.554460525512695
 20
1.934645891189575
 30
-9.264883995056152
 70
   192
  0
VERTEX
  5
EC
  8
0
 10
1.618378758430481
 20
1.046987771987915
 30
-9.21646785736084
 70
   192
  0
VERTEX
  5
ED
  8
0
 10
1.357348084449768
 20
-0.2168007493019104
 30
-9.168050765991211
 70
   192
  0
VERTEX
  5
EE
  8
0
 10
5.26873254776001
 20
-1.228132128715515
 30
-8.974385261535645
 70
   192
  0
VERTEX
  5
EF
  8
0
 10
4.881224632263184
 20
-1.883177399635315
 30
-9.105612754821777
 70
   192
  0
VERTEX
  5
F0
  8
0
 10
4.247493743896484
 20
-2.01963996887207
 30
-9.022801399230957
 70
   192
  0
VERTEX
  5
F1
  8
0
 10
5.494073867797852
 20
-1.032744765281677
 30
-9.019018173217773
 70
   192
  0
VERTEX
  5
F2
  8
0
 10
1.865074396133423
 20
-1.401756048202515
 30
-9.119634628295898
 70
   192
  0
VERTEX
  5
F3
  8
0
 10
2.960873603820801
 20
-2.084792852401733
 30
-9.07121753692627
 70
   192
  0
VERTEX
  5
F4
  8
0
 10
3.953935146331787
 20
-2.376238822937012
 30
-9.18917179107666
 70
   192
  0
VERTEX
  5
F5
  8
0
 10
4.987540245056152
 20
1.557452201843262
 30
-9.361717224121094
 70
   192
  0
VERTEX
  5
F6
  8
0
 10
5.610263824462891
 20
0.4287427365779877
 30
-9.410133361816406
 70
   192
  0
VERTEX
  5
F7
  8
0
 10
5.476174354553223
 20
-0.8557845950126648
 30
-9.458550453186035
 70
   192
  0
VERTEX
  5
F8
  8
0
 10
4.633607864379883
 20
-1.830777049064636
 30
-9.506966590881348
 70
   192
  0
VERTEX
  5
F9
  8
0
 10
3.381671190261841
 20
-2.150262594223022
 30
-9.555383682250977
 70
   192
  0
VERTEX
  5
FA
  8
0
 10
5.625091075897217
 20
-1.316810131072998
 30
-9.270025253295898
 70
   192
  0
VERTEX
  5
FB
  8
0
 10
3.304550886154175
 20
2.144688606262207
 30
-11.29370498657227
 70
   192
  0
VERTEX
  5
FC
  8
0
 10
4.531486034393311
 20
1.890377283096313
 30
-11.34068965911865
 70
   192
  0
VERTEX
  5
FD
  8
0
 10
5.640568256378174
 20
-0.2363159954547882
 30
-11.43460178375244
 70
   192
  0
VERTEX
  5
FE
  8
0
 10
5.409361839294434
 20
0.9959313869476318
 30
-11.38767337799072
 70
   192
  0
VERTEX
  5
FF
  8
0
 10
1.442191004753113
 20
0.6352477073669434
 30
-11.19973659515381
 70
   192
  0
VERTEX
  5
100
  8
0
 10
1.437239170074463
 20
-0.6184728741645813
 30
-11.15275192260742
 70
   192
  0
VERTEX
  5
101
  8
0
 10
2.143968820571899
 20
1.672952771186829
 30
-11.24672031402588
 70
   192
  0
VERTEX
  5
102
  8
0
 10
4.516697883605957
 20
-1.89848792552948
 30
-11.01179885864258
 70
   192
  0
VERTEX
  5
103
  8
0
 10
2.130916118621826
 20
-1.662278652191162
 30
-11.10576725006104
 70
   192
  0
VERTEX
  5
104
  8
0
 10
5.157672882080078
 20
1.374689817428589
 30
-10.87084579467773
 70
   192
  0
VERTEX
  5
105
  8
0
 10
5.401241779327393
 20
-1.011411905288696
 30
-10.96481418609619
 70
   192
  0
VERTEX
  5
106
  8
0
 10
5.642366409301758
 20
0.2188801914453506
 30
-10.91783046722412
 70
   192
  0
VERTEX
  5
107
  8
0
 10
1.354766726493835
 20
0.1885316967964172
 30
-10.6829080581665
 70
   192
  0
VERTEX
  5
108
  8
0
 10
1.823281168937683
 20
1.351436376571655
 30
-10.72989273071289
 70
   192
  0
VERTEX
  5
109
  8
0
 10
2.859048843383789
 20
2.05600380897522
 30
-10.77687740325928
 70
   192
  0
VERTEX
  5
10A
  8
0
 10
3.742212533950806
 20
-2.139842987060547
 30
-10.54195499420166
 70
   192
  0
VERTEX
  5
10B
  8
0
 10
1.613102197647095
 20
-1.037839293479919
 30
-10.63592433929443
 70
   192
  0
VERTEX
  5
10C
  8
0
 10
5.54861307144165
 20
0.6638668179512024
 30
-10.40100193023682
 70
   192
  0
VERTEX
  5
10D
  8
0
 10
5.571311473846436
 20
-0.5892021656036377
 30
-10.4479866027832
 70
   192
  0
VERTEX
  5
10E
  8
0
 10
4.892239093780518
 20
-1.643116116523743
 30
-10.49497127532959
 70
   192
  0
VERTEX
  5
10F
  8
0
 10
1.576719999313354
 20
0.9688077569007874
 30
-10.2130651473999
 70
   192
  0
VERTEX
  5
110
  8
0
 10
2.44218921661377
 20
1.875847101211548
 30
-10.26004886627197
 70
   192
  0
VERTEX
  5
111
  8
0
 10
3.665174961090088
 20
2.147214889526367
 30
-10.30703353881836
 70
   192
  0
VERTEX
  5
112
  8
0
 10
4.832304954528809
 20
1.69194769859314
 30
-10.35401821136475
 70
   192
  0
VERTEX
  5
113
  8
0
 10
2.933365345001221
 20
-2.077735424041748
 30
-10.07211208343506
 70
   192
  0
VERTEX
  5
114
  8
0
 10
1.362989187240601
 20
-0.2661529183387756
 30
-10.16608047485352
 70
   192
  0
VERTEX
  5
115
  8
0
 10
5.648861408233643
 20
-0.1411131620407104
 30
-9.931159019470215
 70
   192
  0
VERTEX
  5
116
  8
0
 10
5.206394195556641
 20
-1.313707590103149
 30
-9.978143692016602
 70
   192
  0
VERTEX
  5
117
  8
0
 10
4.185537815093994
 20
-2.041496992111206
 30
-10.02512741088867
 70
   192
  0
VERTEX
  5
118
  8
0
 10
4.447790622711182
 20
1.93373703956604
 30
-9.837190628051758
 70
   192
  0
VERTEX
  5
119
  8
0
 10
5.3637375831604
 20
1.079000473022461
 30
-9.884174346923828
 70
   192
  0
VERTEX
  5
11A
  8
0
 10
3.211227416992188
 20
2.134180307388306
 30
-9.790205955505371
 70
   192
  0
VERTEX
  5
11B
  8
0
 10
2.071591854095459
 20
1.611568212509155
 30
-9.743221282958984
 70
   192
  0
VERTEX
  5
11C
  8
0
 10
1.416180372238159
 20
0.5433350205421448
 30
-9.696237564086914
 70
   192
  0
VERTEX
  5
11D
  8
0
 10
1.466386437416077
 20
-0.7086811661720276
 30
-9.649252891540527
 70
   192
  0
VERTEX
  5
11E
  8
0
 10
2.204931735992432
 20
-1.720612645149231
 30
-9.60226821899414
 70
   192
  0
VERTEX
  5
11F
  8
0
 10
1.872886657714844
 20
-1.410682797431946
 30
-10.11909580230713
 70
   192
  0
VERTEX
  5
120
  8
0
 10
2.510190486907959
 20
-1.912620186805725
 30
-10.58893966674805
 70
   192
  0
VERTEX
  5
121
  8
0
 10
4.111847877502441
 20
2.064750194549561
 30
-10.82386112213135
 70
   192
  0
VERTEX
  5
122
  8
0
 10
3.288012742996216
 20
-2.143057823181152
 30
-11.05878353118896
 70
   192
  0
VERTEX
  5
123
  8
0
 10
5.424429893493652
 20
-1.598749756813049
 30
-11.2809886932373
 70
   192
  0
VERTEX
  5
124
  8
0
 10
1.232291579246521
 20
-1.034967303276062
 30
-11.44179630279541
 70
   192
  0
VERTEX
  5
125
  8
0
 10
3.5
 20
-2.5
 30
-11.35088062286377
 70
   192
  0
VERTEX
  5
126
  8
0
 10
2.795080661773682
 20
-2.397339344024658
 30
-11.3736047744751
 70
   192
  0
VERTEX
  5
127
  8
0
 10
1.609823346138
 20
1.638220071792603
 30
-11.53265953063965
 70
   192
  0
VERTEX
  5
128
  8
0
 10
1.227624654769897
 20
1.038342595100403
 30
-11.50993824005127
 70
   192
  0
VERTEX
  5
129
  8
0
 10
2.796722650527954
 20
2.398160696029663
 30
-11.5781364440918
 70
   192
  0
VERTEX
  5
12A
  8
0
 10
2.14830470085144
 20
2.104837417602539
 30
-11.55538558959961
 70
   192
  0
VERTEX
  5
12B
  8
0
 10
3.5
 20
2.5
 30
-11.60088062286377
 70
   192
  0
VERTEX
  5
12C
  8
0
 10
4.19126033782959
 20
2.401342391967773
 30
-11.6231517791748
 70
   192
  0
VERTEX
  5
12D
  8
0
 10
4.828248023986816
 20
2.11784839630127
 30
-11.64541816711426
 70
   192
  0
VERTEX
  5
12E
  8
0
 10
5.363422870635986
 20
1.669808506965637
 30
-11.66768455505371
 70
   192
  0
VERTEX
  5
12F
  8
0
 10
5.744374752044678
 20
1.086789608001709
 30
-11.68997573852539
 70
   192
  0
VERTEX
  5
130
  8
0
 10
5.964695930480957
 20
0.4265248775482178
 30
-11.71223735809326
 70
   192
  0
VERTEX
  5
131
  8
0
 10
5.983760356903076
 20
-0.2709925472736359
 30
-11.73451137542725
 70
   192
  0
VERTEX
  5
132
  8
0
 10
1.027056455612183
 20
0.355491578578949
 30
-11.48723220825195
 70
   192
  0
VERTEX
  5
133
  8
0
 10
1.02433168888092
 20
-0.3554335832595825
 30
-11.46451091766357
 70
   192
  0
VERTEX
  5
134
  8
0
 10
1.608323812484741
 20
-1.637980937957764
 30
-11.41904640197754
 70
   192
  0
VERTEX
  5
135
  8
0
 10
2.147811889648438
 20
-2.102195978164673
 30
-11.39632511138916
 70
   192
  0
VERTEX
  5
136
  8
0
 10
4.215807437896729
 20
-2.394460439682007
 30
-11.32773017883301
 70
   192
  0
VERTEX
  5
137
  8
0
 10
4.878953456878662
 20
-2.086412668228149
 30
-11.30434417724609
 70
   192
  0
VERTEX
  5
138
  8
0
 10
5.801946640014648
 20
-0.9773945212364197
 30
-11.25780200958252
 70
   192
  0
VERTEX
  5
139
  8
0
 10
3.5
 20
1.399999976158142
 30
-11.47002601623535
 70
   192
  0
VERTEX
  5
13A
  8
0
 10
2.287564516067505
 20
-0.699999988079071
 30
-11.47002601623535
 70
   192
  0
VERTEX
  5
13B
  8
0
 10
4.712435722351074
 20
0.699999988079071
 30
-11.47002601623535
 70
   192
  0
VERTEX
  5
13C
  8
0
 10
3.5
 20
-1.399999976158142
 30
-11.47002601623535
 70
   192
  0
VERTEX
  5
13D
  8
0
 10
4.712435722351074
 20
-0.699999988079071
 30
-11.47002601623535
 70
   192
  0
VERTEX
  5
13E
  8
0
 10
2.287564516067505
 20
0.699999988079071
 30
-11.47002601623535
 70
   192
  0
VERTEX
  5
13F
  8
0
 10
2.287564516067505
 20
0.699999988079071
 30
-12.7700252532959
 70
   192
  0
VERTEX
  5
140
  8
0
 10
3.5
 20
1.399999976158142
 30
-12.7700252532959
 70
   192
  0
VERTEX
  5
141
  8
0
 10
4.712435722351074
 20
0.699999988079071
 30
-12.7700252532959
 70
   192
  0
VERTEX
  5
142
  8
0
 10
4.712435722351074
 20
-0.699999988079071
 30
-12.7700252532959
 70
   192
  0
VERTEX
  5
143
  8
0
 10
3.5
 20
-1.399999976158142
 30
-12.7700252532959
 70
   192
  0
VERTEX
  5
144
  8
0
 10
2.287564516067505
 20
-0.699999988079071
 30
-12.7700252532959
 70
   192
  0
VERTEX
  5
145
  8
0
 10
4.316123008728027
 20
2.042924404144287
 30
-12.7700252532959
 70
   192
  0
VERTEX
  5
146
  8
0
 10
2.042009830474854
 20
1.647502660751343
 30
-12.7700252532959
 70
   192
  0
VERTEX
  5
147
  8
0
 10
2.685746192932129
 20
1.993725180625916
 30
-12.7700252532959
 70
   192
  0
VERTEX
  5
148
  8
0
 10
5.688096523284912
 20
-0.2282312512397766
 30
-12.7700252532959
 70
   192
  0
VERTEX
  5
149
  8
0
 10
5.5828857421875
 20
0.7080374360084534
 30
-12.7700252532959
 70
   192
  0
VERTEX
  5
14A
  8
0
 10
2.097704410552979
 20
-1.695177435874939
 30
-12.7700252532959
 70
   192
  0
VERTEX
  5
14B
  8
0
 10
2.93584680557251
 20
-2.126407623291016
 30
-12.7700252532959
 70
   192
  0
VERTEX
  5
14C
  8
0
 10
4.749024391174316
 20
-1.811033487319946
 30
-12.7700252532959
 70
   192
  0
VERTEX
  5
14D
  8
0
 10
3.876713991165161
 20
-2.167511701583862
 30
-12.7700252532959
 70
   192
  0
VERTEX
  5
14E
  8
0
 10
5.392031192779541
 20
-1.122548580169678
 30
-12.7700252532959
 70
   192
  0
VERTEX
  5
14F
  8
0
 10
1.517617583274841
 20
-0.9538816213607788
 30
-12.7700252532959
 70
   192
  0
VERTEX
  5
150
  8
0
 10
1.486337304115295
 20
0.885862410068512
 30
-12.7700252532959
 70
   192
  0
VERTEX
  5
151
  8
0
 10
1.300295948982239
 20
-0.0364767238497734
 30
-12.7700252532959
 70
   192
  0
VERTEX
  5
152
  8
0
 10
3.387807369232178
 20
2.197137355804443
 30
-12.7700252532959
 70
   192
  0
VERTEX
  5
153
  8
0
 10
5.096044063568115
 20
1.514100313186646
 30
-12.7700252532959
 70
   192
  0
VERTEX
  5
154
  8
0
 62
   123
 10
0.0
 20
0.0
 30
0.0
 70
   128
 71
     3
 72
     2
 73
     1
  0
VERTEX
  5
155
  8
0
 62
   123
 10
0.0
 20
0.0
 30
0.0
 70
   128
 71
     3
 72
     1
 73
     4
  0
VERTEX
  5
156
  8
0
 62
   123
 10
0.0
 20
0.0
 30
0.0
 70
   128
 71
     5
 72
     3
 73
     4
  0
VERTEX
  5
157
  8
0
 62
   123
 10
0.0
 20
0.0
 30
0.0
 70
   128
 71
     6
 72
     3
 73
     5
  0
VERTEX
  5
158
  8
0
 62
   123
 10
0.0
 20
0.0
 30
0.0
 70
   128
 71
     3
 72
     8
 73
     7
  0
VERTEX
  5
159
  8
0
 62
   123
 10
0.0
 20
0.0
 30
0.0
 70
   128
 71
     6
 72
     8
 73
     3
  0
VERTEX
  5
15A
  8
0
 62
   123
 10
0.0
 20
0.0
 30
0.0
 70
   128
 71
     3
 72
     7
 73
     9
  0
VERTEX
  5
15B
  8
0
 62
   123
 10
0.0
 20
0.0
 30
0.0
 70
   128
 71
     9
 72
     7
 73
    10
  0
VERTEX
  5
15C
  8
0
 62
   123
 10
0.0
 20
0.0
 30
0.0
 70
   128
 71
    11
 72
     3
 73
     9
  0
VERTEX
  5
15D
  8
0
 62
   123
 10
0.0
 20
0.0
 30
0.0
 70
   128
 71
    12
 72
     3
 73
    11
  0
VERTEX
  5
15E
  8
0
 62
   123
 10
0.0
 20
0.0
 30
0.0
 70
   128
 71
    12
 72
    13
 73
     3
  0
VERTEX
  5
15F
  8
0
 62
   123
 10
0.0
 20
0.0
 30
0.0
 70
   128
 71
     3
 72
    14
 73
     2
  0
VERTEX
  5
160
  8
0
 62
   123
 10
0.0
 20
0.0
 30
0.0
 70
   128
 71
    13
 72
    14
 73
     3
  0
VERTEX
  5
161
  8
0
 62
   123
 10
0.0
 20
0.0
 30
0.0
 70
   128
 71
    17
 72
    16
 73
    15
  0
VERTEX
  5
162
  8
0
 62
   123
 10
0.0
 20
0.0
 30
0.0
 70
   128
 71
    18
 72
    16
 73
    17
  0
VERTEX
  5
163
  8
0
 62
   123
 10
0.0
 20
0.0
 30
0.0
 70
   128
 71
    19
 72
    17
 73
    15
  0
VERTEX
  5
164
  8
0
 62
   123
 10
0.0
 20
0.0
 30
0.0
 70
   128
 71
    22
 72
    21
 73
    20
  0
VERTEX
  5
165
  8
0
 62
   123
 10
0.0
 20
0.0
 30
0.0
 70
   128
 71
    24
 72
    21
 73
    23
  0
VERTEX
  5
166
  8
0
 62
   123
 10
0.0
 20
0.0
 30
0.0
 70
   128
 71
    20
 72
    25
 73
    22
  0
VERTEX
  5
167
  8
0
 62
   123
 10
0.0
 20
0.0
 30
0.0
 70
   128
 71
    27
 72
    26
 73
    24
  0
VERTEX
  5
168
  8
0
 62
   123
 10
0.0
 20
0.0
 30
0.0
 70
   128
 71
    24
 72
    23
 73
    27
  0
VERTEX
  5
169
  8
0
 62
   123
 10
0.0
 20
0.0
 30
0.0
 70
   128
 71
    26
 72
    29
 73
    28
  0
VERTEX
  5
16A
  8
0
 62
   123
 10
0.0
 20
0.0
 30
0.0
 70
   128
 71
    29
 72
    26
 73
    27
  0
VERTEX
  5
16B
  8
0
 62
   123
 10
0.0
 20
0.0
 30
0.0
 70
   128
 71
    21
 72
    22
 73
    23
  0
VERTEX
  5
16C
  8
0
 62
   123
 10
0.0
 20
0.0
 30
0.0
 70
   128
 71
    31
 72
    30
 73
    28
  0
VERTEX
  5
16D
  8
0
 62
   123
 10
0.0
 20
0.0
 30
0.0
 70
   128
 71
    28
 72
    29
 73
    31
  0
VERTEX
  5
16E
  8
0
 62
   123
 10
0.0
 20
0.0
 30
0.0
 70
   128
 71
    32
 72
    30
 73
    31
  0
VERTEX
  5
16F
  8
0
 62
   123
 10
0.0
 20
0.0
 30
0.0
 70
   128
 71
    20
 72
    33
 73
    25
  0
VERTEX
  5
170
  8
0
 62
   123
 10
0.0
 20
0.0
 30
0.0
 70
   128
 71
    33
 72
    35
 73
    34
  0
VERTEX
  5
171
  8
0
 62
   123
 10
0.0
 20
0.0
 30
0.0
 70
   128
 71
    34
 72
    25
 73
    33
  0
VERTEX
  5
172
  8
0
 62
   123
 10
0.0
 20
0.0
 30
0.0
 70
   128
 71
    37
 72
    35
 73
    36
  0
VERTEX
  5
173
  8
0
 62
   123
 10
0.0
 20
0.0
 30
0.0
 70
   128
 71
    35
 72
    37
 73
    34
  0
VERTEX
  5
174
  8
0
 62
   123
 10
0.0
 20
0.0
 30
0.0
 70
   128
 71
    39
 72
    38
 73
    36
  0
VERTEX
  5
175
  8
0
 62
   123
 10
0.0
 20
0.0
 30
0.0
 70
   128
 71
    37
 72
    36
 73
    38
  0
VERTEX
  5
176
  8
0
 62
   123
 10
0.0
 20
0.0
 30
0.0
 70
   128
 71
    39
 72
    41
 73
    40
  0
VERTEX
  5
177
  8
0
 62
   123
 10
0.0
 20
0.0
 30
0.0
 70
   128
 71
    40
 72
    38
 73
    39
  0
VERTEX
  5
178
  8
0
 62
   123
 10
0.0
 20
0.0
 30
0.0
 70
   128
 71
    41
 72
    42
 73
    40
  0
VERTEX
  5
179
  8
0
 62
   123
 10
0.0
 20
0.0
 30
0.0
 70
   128
 71
    45
 72
    44
 73
    43
  0
VERTEX
  5
17A
  8
0
 62
   123
 10
0.0
 20
0.0
 30
0.0
 70
   128
 71
    47
 72
    46
 73
    45
  0
VERTEX
  5
17B
  8
0
 62
   123
 10
0.0
 20
0.0
 30
0.0
 70
   128
 71
    43
 72
    48
 73
    45
  0
VERTEX
  5
17C
  8
0
 62
   123
 10
0.0
 20
0.0
 30
0.0
 70
   128
 71
    47
 72
    50
 73
    49
  0
VERTEX
  5
17D
  8
0
 62
   123
 10
0.0
 20
0.0
 30
0.0
 70
   128
 71
    49
 72
    46
 73
    47
  0
VERTEX
  5
17E
  8
0
 62
   123
 10
0.0
 20
0.0
 30
0.0
 70
   128
 71
    52
 72
    50
 73
    51
  0
VERTEX
  5
17F
  8
0
 62
   123
 10
0.0
 20
0.0
 30
0.0
 70
   128
 71
    50
 72
    52
 73
    49
  0
VERTEX
  5
180
  8
0
 62
   123
 10
0.0
 20
0.0
 30
0.0
 70
   128
 71
    46
 72
    44
 73
    45
  0
VERTEX
  5
181
  8
0
 62
   123
 10
0.0
 20
0.0
 30
0.0
 70
   128
 71
    53
 72
    52
 73
    51
  0
VERTEX
  5
182
  8
0
 62
   123
 10
0.0
 20
0.0
 30
0.0
 70
   128
 71
    54
 72
    53
 73
    51
  0
VERTEX
  5
183
  8
0
 62
   123
 10
0.0
 20
0.0
 30
0.0
 70
   128
 71
    48
 72
    43
 73
    55
  0
VERTEX
  5
184
  8
0
 62
   123
 10
0.0
 20
0.0
 30
0.0
 70
   128
 71
    57
 72
    55
 73
    56
  0
VERTEX
  5
185
  8
0
 62
   123
 10
0.0
 20
0.0
 30
0.0
 70
   128
 71
    57
 72
    48
 73
    55
  0
VERTEX
  5
186
  8
0
 62
   123
 10
0.0
 20
0.0
 30
0.0
 70
   128
 71
    59
 72
    56
 73
    58
  0
VERTEX
  5
187
  8
0
 62
   123
 10
0.0
 20
0.0
 30
0.0
 70
   128
 71
    55
 72
    58
 73
    56
  0
VERTEX
  5
188
  8
0
 62
   123
 10
0.0
 20
0.0
 30
0.0
 70
   128
 71
    61
 72
    60
 73
    59
  0
VERTEX
  5
189
  8
0
 62
   123
 10
0.0
 20
0.0
 30
0.0
 70
   128
 71
    59
 72
    58
 73
    61
  0
VERTEX
  5
18A
  8
0
 62
   123
 10
0.0
 20
0.0
 30
0.0
 70
   128
 71
    60
 72
    63
 73
    62
  0
VERTEX
  5
18B
  8
0
 62
   123
 10
0.0
 20
0.0
 30
0.0
 70
   128
 71
    63
 72
    60
 73
    61
  0
VERTEX
  5
18C
  8
0
 62
   123
 10
0.0
 20
0.0
 30
0.0
 70
   128
 71
    63
 72
    64
 73
    62
  0
VERTEX
  5
18D
  8
0
 62
   123
 10
0.0
 20
0.0
 30
0.0
 70
   128
 71
    67
 72
    66
 73
    65
  0
VERTEX
  5
18E
  8
0
 62
   123
 10
0.0
 20
0.0
 30
0.0
 70
   128
 71
    69
 72
    68
 73
    67
  0
VERTEX
  5
18F
  8
0
 62
   123
 10
0.0
 20
0.0
 30
0.0
 70
   128
 71
    65
 72
    70
 73
    67
  0
VERTEX
  5
190
  8
0
 62
   123
 10
0.0
 20
0.0
 30
0.0
 70
   128
 71
    69
 72
    72
 73
    71
  0
VERTEX
  5
191
  8
0
 62
   123
 10
0.0
 20
0.0
 30
0.0
 70
   128
 71
    71
 72
    68
 73
    69
  0
VERTEX
  5
192
  8
0
 62
   123
 10
0.0
 20
0.0
 30
0.0
 70
   128
 71
    74
 72
    72
 73
    73
  0
VERTEX
  5
193
  8
0
 62
   123
 10
0.0
 20
0.0
 30
0.0
 70
   128
 71
    72
 72
    74
 73
    71
  0
VERTEX
  5
194
  8
0
 62
   123
 10
0.0
 20
0.0
 30
0.0
 70
   128
 71
    68
 72
    66
 73
    67
  0
VERTEX
  5
195
  8
0
 62
   123
 10
0.0
 20
0.0
 30
0.0
 70
   128
 71
    75
 72
    74
 73
    73
  0
VERTEX
  5
196
  8
0
 62
   123
 10
0.0
 20
0.0
 30
0.0
 70
   128
 71
    76
 72
    75
 73
    73
  0
VERTEX
  5
197
  8
0
 62
   123
 10
0.0
 20
0.0
 30
0.0
 70
   128
 71
    70
 72
    65
 73
    77
  0
VERTEX
  5
198
  8
0
 62
   123
 10
0.0
 20
0.0
 30
0.0
 70
   128
 71
    79
 72
    77
 73
    78
  0
VERTEX
  5
199
  8
0
 62
   123
 10
0.0
 20
0.0
 30
0.0
 70
   128
 71
    79
 72
    70
 73
    77
  0
VERTEX
  5
19A
  8
0
 62
   123
 10
0.0
 20
0.0
 30
0.0
 70
   128
 71
    81
 72
    78
 73
    80
  0
VERTEX
  5
19B
  8
0
 62
   123
 10
0.0
 20
0.0
 30
0.0
 70
   128
 71
    77
 72
    80
 73
    78
  0
VERTEX
  5
19C
  8
0
 62
   123
 10
0.0
 20
0.0
 30
0.0
 70
   128
 71
    83
 72
    82
 73
    81
  0
VERTEX
  5
19D
  8
0
 62
   123
 10
0.0
 20
0.0
 30
0.0
 70
   128
 71
    81
 72
    80
 73
    83
  0
VERTEX
  5
19E
  8
0
 62
   123
 10
0.0
 20
0.0
 30
0.0
 70
   128
 71
    82
 72
    85
 73
    84
  0
VERTEX
  5
19F
  8
0
 62
   123
 10
0.0
 20
0.0
 30
0.0
 70
   128
 71
    85
 72
    82
 73
    83
  0
VERTEX
  5
1A0
  8
0
 62
   123
 10
0.0
 20
0.0
 30
0.0
 70
   128
 71
    85
 72
    86
 73
    84
  0
VERTEX
  5
1A1
  8
0
 62
   123
 10
0.0
 20
0.0
 30
0.0
 70
   128
 71
    89
 72
    88
 73
    87
  0
VERTEX
  5
1A2
  8
0
 62
   123
 10
0.0
 20
0.0
 30
0.0
 70
   128
 71
    89
 72
    91
 73
    90
  0
VERTEX
  5
1A3
  8
0
 62
   123
 10
0.0
 20
0.0
 30
0.0
 70
   128
 71
    90
 72
    88
 73
    89
  0
VERTEX
  5
1A4
  8
0
 62
   123
 10
0.0
 20
0.0
 30
0.0
 70
   128
 71
    93
 72
    91
 73
    92
  0
VERTEX
  5
1A5
  8
0
 62
   123
 10
0.0
 20
0.0
 30
0.0
 70
   128
 71
    91
 72
    93
 73
    90
  0
VERTEX
  5
1A6
  8
0
 62
   123
 10
0.0
 20
0.0
 30
0.0
 70
   128
 71
    95
 72
    94
 73
    92
  0
VERTEX
  5
1A7
  8
0
 62
   123
 10
0.0
 20
0.0
 30
0.0
 70
   128
 71
    93
 72
    92
 73
    94
  0
VERTEX
  5
1A8
  8
0
 62
   123
 10
0.0
 20
0.0
 30
0.0
 70
   128
 71
    95
 72
    97
 73
    96
  0
VERTEX
  5
1A9
  8
0
 62
   123
 10
0.0
 20
0.0
 30
0.0
 70
   128
 71
    96
 72
    94
 73
    95
  0
VERTEX
  5
1AA
  8
0
 62
   123
 10
0.0
 20
0.0
 30
0.0
 70
   128
 71
    96
 72
    99
 73
    98
  0
VERTEX
  5
1AB
  8
0
 62
   123
 10
0.0
 20
0.0
 30
0.0
 70
   128
 71
    99
 72
    96
 73
    97
  0
VERTEX
  5
1AC
  8
0
 62
   123
 10
0.0
 20
0.0
 30
0.0
 70
   128
 71
   102
 72
   101
 73
   100
  0
VERTEX
  5
1AD
  8
0
 62
   123
 10
0.0
 20
0.0
 30
0.0
 70
   128
 71
   104
 72
    18
 73
   103
  0
VERTEX
  5
1AE
  8
0
 62
   123
 10
0.0
 20
0.0
 30
0.0
 70
   128
 71
   107
 72
   106
 73
   105
  0
VERTEX
  5
1AF
  8
0
 62
   123
 10
0.0
 20
0.0
 30
0.0
 70
   128
 71
   110
 72
   109
 73
   108
  0
VERTEX
  5
1B0
  8
0
 62
   123
 10
0.0
 20
0.0
 30
0.0
 70
   128
 71
   113
 72
   112
 73
   111
  0
VERTEX
  5
1B1
  8
0
 62
   123
 10
0.0
 20
0.0
 30
0.0
 70
   128
 71
   113
 72
   114
 73
   106
  0
VERTEX
  5
1B2
  8
0
 62
   123
 10
0.0
 20
0.0
 30
0.0
 70
   128
 71
   117
 72
   116
 73
   115
  0
VERTEX
  5
1B3
  8
0
 62
   123
 10
0.0
 20
0.0
 30
0.0
 70
   128
 71
   116
 72
   117
 73
   112
  0
VERTEX
  5
1B4
  8
0
 62
   123
 10
0.0
 20
0.0
 30
0.0
 70
   128
 71
    41
 72
   115
 73
    42
  0
VERTEX
  5
1B5
  8
0
 62
   123
 10
0.0
 20
0.0
 30
0.0
 70
   128
 71
   116
 72
    42
 73
   115
  0
VERTEX
  5
1B6
  8
0
 62
   123
 10
0.0
 20
0.0
 30
0.0
 70
   128
 71
   111
 72
   112
 73
   117
  0
VERTEX
  5
1B7
  8
0
 62
   123
 10
0.0
 20
0.0
 30
0.0
 70
   128
 71
   114
 72
   113
 73
   111
  0
VERTEX
  5
1B8
  8
0
 62
   123
 10
0.0
 20
0.0
 30
0.0
 70
   128
 71
   114
 72
   105
 73
   106
  0
VERTEX
  5
1B9
  8
0
 62
   123
 10
0.0
 20
0.0
 30
0.0
 70
   128
 71
   107
 72
   105
 73
   109
  0
VERTEX
  5
1BA
  8
0
 62
   123
 10
0.0
 20
0.0
 30
0.0
 70
   128
 71
   118
 72
   110
 73
   108
  0
VERTEX
  5
1BB
  8
0
 62
   123
 10
0.0
 20
0.0
 30
0.0
 70
   128
 71
   110
 72
   107
 73
   109
  0
VERTEX
  5
1BC
  8
0
 62
   123
 10
0.0
 20
0.0
 30
0.0
 70
   128
 71
   118
 72
   101
 73
   102
  0
VERTEX
  5
1BD
  8
0
 62
   123
 10
0.0
 20
0.0
 30
0.0
 70
   128
 71
   101
 72
   118
 73
   108
  0
VERTEX
  5
1BE
  8
0
 62
   123
 10
0.0
 20
0.0
 30
0.0
 70
   128
 71
   100
 72
   103
 73
   102
  0
VERTEX
  5
1BF
  8
0
 62
   123
 10
0.0
 20
0.0
 30
0.0
 70
   128
 71
   104
 72
    16
 73
    18
  0
VERTEX
  5
1C0
  8
0
 62
   123
 10
0.0
 20
0.0
 30
0.0
 70
   128
 71
   100
 72
   104
 73
   103
  0
VERTEX
  5
1C1
  8
0
 62
   123
 10
0.0
 20
0.0
 30
0.0
 70
   128
 71
   121
 72
   120
 73
   119
  0
VERTEX
  5
1C2
  8
0
 62
   123
 10
0.0
 20
0.0
 30
0.0
 70
   128
 71
   121
 72
    30
 73
    32
  0
VERTEX
  5
1C3
  8
0
 62
   123
 10
0.0
 20
0.0
 30
0.0
 70
   128
 71
   124
 72
   123
 73
   122
  0
VERTEX
  5
1C4
  8
0
 62
   123
 10
0.0
 20
0.0
 30
0.0
 70
   128
 71
   127
 72
   126
 73
   125
  0
VERTEX
  5
1C5
  8
0
 62
   123
 10
0.0
 20
0.0
 30
0.0
 70
   128
 71
   130
 72
   129
 73
   128
  0
VERTEX
  5
1C6
  8
0
 62
   123
 10
0.0
 20
0.0
 30
0.0
 70
   128
 71
   131
 72
   130
 73
   122
  0
VERTEX
  5
1C7
  8
0
 62
   123
 10
0.0
 20
0.0
 30
0.0
 70
   128
 71
   134
 72
   133
 73
   132
  0
VERTEX
  5
1C8
  8
0
 62
   123
 10
0.0
 20
0.0
 30
0.0
 70
   128
 71
   135
 72
   134
 73
   128
  0
VERTEX
  5
1C9
  8
0
 62
   123
 10
0.0
 20
0.0
 30
0.0
 70
   128
 71
    64
 72
   132
 73
   136
  0
VERTEX
  5
1CA
  8
0
 62
   123
 10
0.0
 20
0.0
 30
0.0
 70
   128
 71
   133
 72
   136
 73
   132
  0
VERTEX
  5
1CB
  8
0
 62
   123
 10
0.0
 20
0.0
 30
0.0
 70
   128
 71
    64
 72
   136
 73
    62
  0
VERTEX
  5
1CC
  8
0
 62
   123
 10
0.0
 20
0.0
 30
0.0
 70
   128
 71
   134
 72
   135
 73
   133
  0
VERTEX
  5
1CD
  8
0
 62
   123
 10
0.0
 20
0.0
 30
0.0
 70
   128
 71
   128
 72
   129
 73
   135
  0
VERTEX
  5
1CE
  8
0
 62
   123
 10
0.0
 20
0.0
 30
0.0
 70
   128
 71
   129
 72
   130
 73
   131
  0
VERTEX
  5
1CF
  8
0
 62
   123
 10
0.0
 20
0.0
 30
0.0
 70
   128
 71
   123
 72
   131
 73
   122
  0
VERTEX
  5
1D0
  8
0
 62
   123
 10
0.0
 20
0.0
 30
0.0
 70
   128
 71
   137
 72
   123
 73
   124
  0
VERTEX
  5
1D1
  8
0
 62
   123
 10
0.0
 20
0.0
 30
0.0
 70
   128
 71
   137
 72
   125
 73
   126
  0
VERTEX
  5
1D2
  8
0
 62
   123
 10
0.0
 20
0.0
 30
0.0
 70
   128
 71
   125
 72
   137
 73
   124
  0
VERTEX
  5
1D3
  8
0
 62
   123
 10
0.0
 20
0.0
 30
0.0
 70
   128
 71
   127
 72
   120
 73
   126
  0
VERTEX
  5
1D4
  8
0
 62
   123
 10
0.0
 20
0.0
 30
0.0
 70
   128
 71
   119
 72
    30
 73
   121
  0
VERTEX
  5
1D5
  8
0
 62
   123
 10
0.0
 20
0.0
 30
0.0
 70
   128
 71
   127
 72
   119
 73
   120
  0
VERTEX
  5
1D6
  8
0
 62
   123
 10
0.0
 20
0.0
 30
0.0
 70
   128
 71
    54
 72
   139
 73
   138
  0
VERTEX
  5
1D7
  8
0
 62
   123
 10
0.0
 20
0.0
 30
0.0
 70
   128
 71
   142
 72
   141
 73
   140
  0
VERTEX
  5
1D8
  8
0
 62
   123
 10
0.0
 20
0.0
 30
0.0
 70
   128
 71
   145
 72
   144
 73
   143
  0
VERTEX
  5
1D9
  8
0
 62
   123
 10
0.0
 20
0.0
 30
0.0
 70
   128
 71
   148
 72
   147
 73
   146
  0
VERTEX
  5
1DA
  8
0
 62
   123
 10
0.0
 20
0.0
 30
0.0
 70
   128
 71
   147
 72
   150
 73
   149
  0
VERTEX
  5
1DB
  8
0
 62
   123
 10
0.0
 20
0.0
 30
0.0
 70
   128
 71
   153
 72
   152
 73
   151
  0
VERTEX
  5
1DC
  8
0
 62
   123
 10
0.0
 20
0.0
 30
0.0
 70
   128
 71
   154
 72
   153
 73
   146
  0
VERTEX
  5
1DD
  8
0
 62
   123
 10
0.0
 20
0.0
 30
0.0
 70
   128
 71
    86
 72
   151
 73
   155
  0
VERTEX
  5
1DE
  8
0
 62
   123
 10
0.0
 20
0.0
 30
0.0
 70
   128
 71
   152
 72
   155
 73
   151
  0
VERTEX
  5
1DF
  8
0
 62
   123
 10
0.0
 20
0.0
 30
0.0
 70
   128
 71
    86
 72
   155
 73
    84
  0
VERTEX
  5
1E0
  8
0
 62
   123
 10
0.0
 20
0.0
 30
0.0
 70
   128
 71
   153
 72
   154
 73
   152
  0
VERTEX
  5
1E1
  8
0
 62
   123
 10
0.0
 20
0.0
 30
0.0
 70
   128
 71
   146
 72
   147
 73
   154
  0
VERTEX
  5
1E2
  8
0
 62
   123
 10
0.0
 20
0.0
 30
0.0
 70
   128
 71
   148
 72
   150
 73
   147
  0
VERTEX
  5
1E3
  8
0
 62
   123
 10
0.0
 20
0.0
 30
0.0
 70
   128
 71
   149
 72
   150
 73
   142
  0
VERTEX
  5
1E4
  8
0
 62
   123
 10
0.0
 20
0.0
 30
0.0
 70
   128
 71
   145
 72
   141
 73
   142
  0
VERTEX
  5
1E5
  8
0
 62
   123
 10
0.0
 20
0.0
 30
0.0
 70
   128
 71
   140
 72
   149
 73
   142
  0
VERTEX
  5
1E6
  8
0
 62
   123
 10
0.0
 20
0.0
 30
0.0
 70
   128
 71
   144
 72
   139
 73
   143
  0
VERTEX
  5
1E7
  8
0
 62
   123
 10
0.0
 20
0.0
 30
0.0
 70
   128
 71
   145
 72
   143
 73
   141
  0
VERTEX
  5
1E8
  8
0
 62
   123
 10
0.0
 20
0.0
 30
0.0
 70
   128
 71
   138
 72
    53
 73
    54
  0
VERTEX
  5
1E9
  8
0
 62
   123
 10
0.0
 20
0.0
 30
0.0
 70
   128
 71
   144
 72
   138
 73
   139
  0
VERTEX
  5
1EA
  8
0
 62
   123
 10
0.0
 20
0.0
 30
0.0
 70
   128
 71
    76
 72
   157
 73
   156
  0
VERTEX
  5
1EB
  8
0
 62
   123
 10
0.0
 20
0.0
 30
0.0
 70
   128
 71
   160
 72
   159
 73
   158
  0
VERTEX
  5
1EC
  8
0
 62
   123
 10
0.0
 20
0.0
 30
0.0
 70
   128
 71
   163
 72
   162
 73
   161
  0
VERTEX
  5
1ED
  8
0
 62
   123
 10
0.0
 20
0.0
 30
0.0
 70
   128
 71
   166
 72
   165
 73
   164
  0
VERTEX
  5
1EE
  8
0
 62
   123
 10
0.0
 20
0.0
 30
0.0
 70
   128
 71
   165
 72
   168
 73
   167
  0
VERTEX
  5
1EF
  8
0
 62
   123
 10
0.0
 20
0.0
 30
0.0
 70
   128
 71
   171
 72
   170
 73
   169
  0
VERTEX
  5
1F0
  8
0
 62
   123
 10
0.0
 20
0.0
 30
0.0
 70
   128
 71
   172
 72
   171
 73
   164
  0
VERTEX
  5
1F1
  8
0
 62
   123
 10
0.0
 20
0.0
 30
0.0
 70
   128
 71
    99
 72
   169
 73
   173
  0
VERTEX
  5
1F2
  8
0
 62
   123
 10
0.0
 20
0.0
 30
0.0
 70
   128
 71
   170
 72
   173
 73
   169
  0
VERTEX
  5
1F3
  8
0
 62
   123
 10
0.0
 20
0.0
 30
0.0
 70
   128
 71
    99
 72
   173
 73
    98
  0
VERTEX
  5
1F4
  8
0
 62
   123
 10
0.0
 20
0.0
 30
0.0
 70
   128
 71
   171
 72
   172
 73
   170
  0
VERTEX
  5
1F5
  8
0
 62
   123
 10
0.0
 20
0.0
 30
0.0
 70
   128
 71
   164
 72
   165
 73
   172
  0
VERTEX
  5
1F6
  8
0
 62
   123
 10
0.0
 20
0.0
 30
0.0
 70
   128
 71
   166
 72
   168
 73
   165
  0
VERTEX
  5
1F7
  8
0
 62
   123
 10
0.0
 20
0.0
 30
0.0
 70
   128
 71
   167
 72
   168
 73
   160
  0
VERTEX
  5
1F8
  8
0
 62
   123
 10
0.0
 20
0.0
 30
0.0
 70
   128
 71
   163
 72
   159
 73
   160
  0
VERTEX
  5
1F9
  8
0
 62
   123
 10
0.0
 20
0.0
 30
0.0
 70
   128
 71
   158
 72
   167
 73
   160
  0
VERTEX
  5
1FA
  8
0
 62
   123
 10
0.0
 20
0.0
 30
0.0
 70
   128
 71
   162
 72
   157
 73
   161
  0
VERTEX
  5
1FB
  8
0
 62
   123
 10
0.0
 20
0.0
 30
0.0
 70
   128
 71
   163
 72
   161
 73
   159
  0
VERTEX
  5
1FC
  8
0
 62
   123
 10
0.0
 20
0.0
 30
0.0
 70
   128
 71
   156
 72
    75
 73
    76
  0
VERTEX
  5
1FD
  8
0
 62
   123
 10
0.0
 20
0.0
 30
0.0
 70
   128
 71
   162
 72
   156
 73
   157
  0
VERTEX
  5
1FE
  8
0
 62
   123
 10
0.0
 20
0.0
 30
0.0
 70
   128
 71
    42
 72
   175
 73
   174
  0
VERTEX
  5
1FF
  8
0
 62
   123
 10
0.0
 20
0.0
 30
0.0
 70
   128
 71
   176
 72
   112
 73
   113
  0
VERTEX
  5
200
  8
0
 62
   123
 10
0.0
 20
0.0
 30
0.0
 70
   128
 71
   175
 72
    42
 73
   116
  0
VERTEX
  5
201
  8
0
 62
   123
 10
0.0
 20
0.0
 30
0.0
 70
   128
 71
   176
 72
   175
 73
   112
  0
VERTEX
  5
202
  8
0
 62
   123
 10
0.0
 20
0.0
 30
0.0
 70
   128
 71
   106
 72
   177
 73
   176
  0
VERTEX
  5
203
  8
0
 62
   123
 10
0.0
 20
0.0
 30
0.0
 70
   128
 71
   180
 72
   179
 73
   178
  0
VERTEX
  5
204
  8
0
 62
   123
 10
0.0
 20
0.0
 30
0.0
 70
   128
 71
   181
 72
   178
 73
   179
  0
VERTEX
  5
205
  8
0
 62
   123
 10
0.0
 20
0.0
 30
0.0
 70
   128
 71
   177
 72
   106
 73
   107
  0
VERTEX
  5
206
  8
0
 62
   123
 10
0.0
 20
0.0
 30
0.0
 70
   128
 71
   110
 72
   182
 73
   177
  0
VERTEX
  5
207
  8
0
 62
   123
 10
0.0
 20
0.0
 30
0.0
 70
   128
 71
   182
 72
   118
 73
   102
  0
VERTEX
  5
208
  8
0
 62
   123
 10
0.0
 20
0.0
 30
0.0
 70
   128
 71
   102
 72
   103
 73
   183
  0
VERTEX
  5
209
  8
0
 62
   123
 10
0.0
 20
0.0
 30
0.0
 70
   128
 71
   102
 72
   183
 73
   182
  0
VERTEX
  5
20A
  8
0
 62
   123
 10
0.0
 20
0.0
 30
0.0
 70
   128
 71
   103
 72
   184
 73
   183
  0
VERTEX
  5
20B
  8
0
 62
   123
 10
0.0
 20
0.0
 30
0.0
 70
   128
 71
   178
 72
   181
 73
     7
  0
VERTEX
  5
20C
  8
0
 62
   123
 10
0.0
 20
0.0
 30
0.0
 70
   128
 71
   184
 72
   179
 73
   180
  0
VERTEX
  5
20D
  8
0
 62
   123
 10
0.0
 20
0.0
 30
0.0
 70
   128
 71
   110
 72
   118
 73
   182
  0
VERTEX
  5
20E
  8
0
 62
   123
 10
0.0
 20
0.0
 30
0.0
 70
   128
 71
   177
 72
   107
 73
   110
  0
VERTEX
  5
20F
  8
0
 62
   123
 10
0.0
 20
0.0
 30
0.0
 70
   128
 71
   183
 72
   184
 73
   180
  0
VERTEX
  5
210
  8
0
 62
   123
 10
0.0
 20
0.0
 30
0.0
 70
   128
 71
   116
 72
   112
 73
   175
  0
VERTEX
  5
211
  8
0
 62
   123
 10
0.0
 20
0.0
 30
0.0
 70
   128
 71
   106
 72
   176
 73
   113
  0
VERTEX
  5
212
  8
0
 62
   123
 10
0.0
 20
0.0
 30
0.0
 70
   128
 71
   174
 72
    40
 73
    42
  0
VERTEX
  5
213
  8
0
 62
   123
 10
0.0
 20
0.0
 30
0.0
 70
   128
 71
   185
 72
    38
 73
   174
  0
VERTEX
  5
214
  8
0
 62
   123
 10
0.0
 20
0.0
 30
0.0
 70
   128
 71
    40
 72
   174
 73
    38
  0
VERTEX
  5
215
  8
0
 62
   123
 10
0.0
 20
0.0
 30
0.0
 70
   128
 71
   185
 72
    37
 73
    38
  0
VERTEX
  5
216
  8
0
 62
   123
 10
0.0
 20
0.0
 30
0.0
 70
   128
 71
   185
 72
   186
 73
    34
  0
VERTEX
  5
217
  8
0
 62
   123
 10
0.0
 20
0.0
 30
0.0
 70
   128
 71
    34
 72
    37
 73
   185
  0
VERTEX
  5
218
  8
0
 62
   123
 10
0.0
 20
0.0
 30
0.0
 70
   128
 71
    22
 72
    25
 73
   186
  0
VERTEX
  5
219
  8
0
 62
   123
 10
0.0
 20
0.0
 30
0.0
 70
   128
 71
   186
 72
    25
 73
    34
  0
VERTEX
  5
21A
  8
0
 62
   123
 10
0.0
 20
0.0
 30
0.0
 70
   128
 71
   187
 72
    23
 73
    22
  0
VERTEX
  5
21B
  8
0
 62
   123
 10
0.0
 20
0.0
 30
0.0
 70
   128
 71
    22
 72
   186
 73
   187
  0
VERTEX
  5
21C
  8
0
 62
   123
 10
0.0
 20
0.0
 30
0.0
 70
   128
 71
    27
 72
   187
 73
   188
  0
VERTEX
  5
21D
  8
0
 62
   123
 10
0.0
 20
0.0
 30
0.0
 70
   128
 71
   187
 72
    27
 73
    23
  0
VERTEX
  5
21E
  8
0
 62
   123
 10
0.0
 20
0.0
 30
0.0
 70
   128
 71
   188
 72
    31
 73
    29
  0
VERTEX
  5
21F
  8
0
 62
   123
 10
0.0
 20
0.0
 30
0.0
 70
   128
 71
    27
 72
   188
 73
    29
  0
VERTEX
  5
220
  8
0
 62
   123
 10
0.0
 20
0.0
 30
0.0
 70
   128
 71
   189
 72
    31
 73
   188
  0
VERTEX
  5
221
  8
0
 62
   123
 10
0.0
 20
0.0
 30
0.0
 70
   128
 71
   189
 72
    32
 73
    31
  0
VERTEX
  5
222
  8
0
 62
   123
 10
0.0
 20
0.0
 30
0.0
 70
   128
 71
   189
 72
   121
 73
    32
  0
VERTEX
  5
223
  8
0
 62
   123
 10
0.0
 20
0.0
 30
0.0
 70
   128
 71
    10
 72
     7
 73
   181
  0
VERTEX
  5
224
  8
0
 62
   123
 10
0.0
 20
0.0
 30
0.0
 70
   128
 71
   179
 72
    19
 73
   181
  0
VERTEX
  5
225
  8
0
 62
   123
 10
0.0
 20
0.0
 30
0.0
 70
   128
 71
    18
 72
   184
 73
   103
  0
VERTEX
  5
226
  8
0
 62
   123
 10
0.0
 20
0.0
 30
0.0
 70
   128
 71
    18
 72
    17
 73
   184
  0
VERTEX
  5
227
  8
0
 62
   123
 10
0.0
 20
0.0
 30
0.0
 70
   128
 71
    17
 72
    19
 73
   179
  0
VERTEX
  5
228
  8
0
 62
   123
 10
0.0
 20
0.0
 30
0.0
 70
   128
 71
   184
 72
    17
 73
   179
  0
VERTEX
  5
229
  8
0
 62
   123
 10
0.0
 20
0.0
 30
0.0
 70
   128
 71
   181
 72
    19
 73
   190
  0
VERTEX
  5
22A
  8
0
 62
   123
 10
0.0
 20
0.0
 30
0.0
 70
   128
 71
   190
 72
    10
 73
   181
  0
VERTEX
  5
22B
  8
0
 62
   123
 10
0.0
 20
0.0
 30
0.0
 70
   128
 71
    10
 72
   190
 73
   187
  0
VERTEX
  5
22C
  8
0
 62
   123
 10
0.0
 20
0.0
 30
0.0
 70
   128
 71
   188
 72
    15
 73
   189
  0
VERTEX
  5
22D
  8
0
 62
   123
 10
0.0
 20
0.0
 30
0.0
 70
   128
 71
   174
 72
    12
 73
    11
  0
VERTEX
  5
22E
  8
0
 62
   123
 10
0.0
 20
0.0
 30
0.0
 70
   128
 71
     9
 72
   186
 73
   185
  0
VERTEX
  5
22F
  8
0
 62
   123
 10
0.0
 20
0.0
 30
0.0
 70
   128
 71
   176
 72
     2
 73
    14
  0
VERTEX
  5
230
  8
0
 62
   123
 10
0.0
 20
0.0
 30
0.0
 70
   128
 71
    13
 72
    12
 73
   175
  0
VERTEX
  5
231
  8
0
 62
   123
 10
0.0
 20
0.0
 30
0.0
 70
   128
 71
   182
 72
     4
 73
     1
  0
VERTEX
  5
232
  8
0
 62
   123
 10
0.0
 20
0.0
 30
0.0
 70
   128
 71
     1
 72
     2
 73
   177
  0
VERTEX
  5
233
  8
0
 62
   123
 10
0.0
 20
0.0
 30
0.0
 70
   128
 71
   180
 72
     6
 73
     5
  0
VERTEX
  5
234
  8
0
 62
   123
 10
0.0
 20
0.0
 30
0.0
 70
   128
 71
     5
 72
     4
 73
   183
  0
VERTEX
  5
235
  8
0
 62
   123
 10
0.0
 20
0.0
 30
0.0
 70
   128
 71
     6
 72
   178
 73
     8
  0
VERTEX
  5
236
  8
0
 62
   123
 10
0.0
 20
0.0
 30
0.0
 70
   128
 71
   178
 72
     6
 73
   180
  0
VERTEX
  5
237
  8
0
 62
   123
 10
0.0
 20
0.0
 30
0.0
 70
   128
 71
   180
 72
     5
 73
   183
  0
VERTEX
  5
238
  8
0
 62
   123
 10
0.0
 20
0.0
 30
0.0
 70
   128
 71
   178
 72
     7
 73
     8
  0
VERTEX
  5
239
  8
0
 62
   123
 10
0.0
 20
0.0
 30
0.0
 70
   128
 71
     4
 72
   182
 73
   183
  0
VERTEX
  5
23A
  8
0
 62
   123
 10
0.0
 20
0.0
 30
0.0
 70
   128
 71
   177
 72
     2
 73
   176
  0
VERTEX
  5
23B
  8
0
 62
   123
 10
0.0
 20
0.0
 30
0.0
 70
   128
 71
     1
 72
   177
 73
   182
  0
VERTEX
  5
23C
  8
0
 62
   123
 10
0.0
 20
0.0
 30
0.0
 70
   128
 71
    13
 72
   176
 73
    14
  0
VERTEX
  5
23D
  8
0
 62
   123
 10
0.0
 20
0.0
 30
0.0
 70
   128
 71
   175
 72
    12
 73
   174
  0
VERTEX
  5
23E
  8
0
 62
   123
 10
0.0
 20
0.0
 30
0.0
 70
   128
 71
   176
 72
    13
 73
   175
  0
VERTEX
  5
23F
  8
0
 62
   123
 10
0.0
 20
0.0
 30
0.0
 70
   128
 71
     9
 72
   185
 73
    11
  0
VERTEX
  5
240
  8
0
 62
   123
 10
0.0
 20
0.0
 30
0.0
 70
   128
 71
    11
 72
   185
 73
   174
  0
VERTEX
  5
241
  8
0
 62
   123
 10
0.0
 20
0.0
 30
0.0
 70
   128
 71
    10
 72
   187
 73
   186
  0
VERTEX
  5
242
  8
0
 62
   123
 10
0.0
 20
0.0
 30
0.0
 70
   128
 71
     9
 72
    10
 73
   186
  0
VERTEX
  5
243
  8
0
 62
   123
 10
0.0
 20
0.0
 30
0.0
 70
   128
 71
   190
 72
    19
 73
   187
  0
VERTEX
  5
244
  8
0
 62
   123
 10
0.0
 20
0.0
 30
0.0
 70
   128
 71
   188
 72
    19
 73
    15
  0
VERTEX
  5
245
  8
0
 62
   123
 10
0.0
 20
0.0
 30
0.0
 70
   128
 71
    19
 72
   188
 73
   187
  0
VERTEX
  5
246
  8
0
 62
   123
 10
0.0
 20
0.0
 30
0.0
 70
   128
 71
   189
 72
    16
 73
   104
  0
VERTEX
  5
247
  8
0
 62
   123
 10
0.0
 20
0.0
 30
0.0
 70
   128
 71
    15
 72
    16
 73
   189
  0
VERTEX
  5
248
  8
0
 62
   123
 10
0.0
 20
0.0
 30
0.0
 70
   128
 71
    97
 72
   192
 73
   191
  0
VERTEX
  5
249
  8
0
 62
   123
 10
0.0
 20
0.0
 30
0.0
 70
   128
 71
   194
 72
    89
 73
   193
  0
VERTEX
  5
24A
  8
0
 62
   123
 10
0.0
 20
0.0
 30
0.0
 70
   128
 71
   196
 72
   168
 73
   195
  0
VERTEX
  5
24B
  8
0
 62
   123
 10
0.0
 20
0.0
 30
0.0
 70
   128
 71
   169
 72
   197
 73
   171
  0
VERTEX
  5
24C
  8
0
 62
   123
 10
0.0
 20
0.0
 30
0.0
 70
   128
 71
    74
 72
   198
 73
    71
  0
VERTEX
  5
24D
  8
0
 62
   123
 10
0.0
 20
0.0
 30
0.0
 70
   128
 71
   162
 72
   199
 73
   156
  0
VERTEX
  5
24E
  8
0
 62
   123
 10
0.0
 20
0.0
 30
0.0
 70
   128
 71
   200
 72
    83
 73
    80
  0
VERTEX
  5
24F
  8
0
 62
   123
 10
0.0
 20
0.0
 30
0.0
 70
   128
 71
   202
 72
    66
 73
   201
  0
VERTEX
  5
250
  8
0
 62
   123
 10
0.0
 20
0.0
 30
0.0
 70
   128
 71
   148
 72
   204
 73
   203
  0
VERTEX
  5
251
  8
0
 62
   123
 10
0.0
 20
0.0
 30
0.0
 70
   128
 71
    86
 72
   205
 73
   151
  0
VERTEX
  5
252
  8
0
 62
   123
 10
0.0
 20
0.0
 30
0.0
 70
   128
 71
   206
 72
    53
 73
   138
  0
VERTEX
  5
253
  8
0
 62
   123
 10
0.0
 20
0.0
 30
0.0
 70
   128
 71
   207
 72
   145
 73
   142
  0
VERTEX
  5
254
  8
0
 62
   123
 10
0.0
 20
0.0
 30
0.0
 70
   128
 71
    58
 72
    55
 73
   208
  0
VERTEX
  5
255
  8
0
 62
   123
 10
0.0
 20
0.0
 30
0.0
 70
   128
 71
    46
 72
   210
 73
   209
  0
VERTEX
  5
256
  8
0
 62
   123
 10
0.0
 20
0.0
 30
0.0
 70
   128
 71
   212
 72
   211
 73
   134
  0
VERTEX
  5
257
  8
0
 62
   123
 10
0.0
 20
0.0
 30
0.0
 70
   128
 71
   214
 72
   213
 73
    63
  0
VERTEX
  5
258
  8
0
 62
   123
 10
0.0
 20
0.0
 30
0.0
 70
   128
 71
   119
 72
   127
 73
   215
  0
VERTEX
  5
259
  8
0
 62
   123
 10
0.0
 20
0.0
 30
0.0
 70
   128
 71
   124
 72
   122
 73
   216
  0
VERTEX
  5
25A
  8
0
 62
   123
 10
0.0
 20
0.0
 30
0.0
 70
   128
 71
    21
 72
   217
 73
    20
  0
VERTEX
  5
25B
  8
0
 62
   123
 10
0.0
 20
0.0
 30
0.0
 70
   128
 71
   219
 72
   218
 73
    26
  0
VERTEX
  5
25C
  8
0
 62
   123
 10
0.0
 20
0.0
 30
0.0
 70
   128
 71
    36
 72
   221
 73
   220
  0
VERTEX
  5
25D
  8
0
 62
   123
 10
0.0
 20
0.0
 30
0.0
 70
   128
 71
   221
 72
    36
 73
    35
  0
VERTEX
  5
25E
  8
0
 62
   123
 10
0.0
 20
0.0
 30
0.0
 70
   128
 71
   222
 72
    39
 73
   220
  0
VERTEX
  5
25F
  8
0
 62
   123
 10
0.0
 20
0.0
 30
0.0
 70
   128
 71
    36
 72
   220
 73
    39
  0
VERTEX
  5
260
  8
0
 62
   123
 10
0.0
 20
0.0
 30
0.0
 70
   128
 71
    41
 72
   222
 73
   115
  0
VERTEX
  5
261
  8
0
 62
   123
 10
0.0
 20
0.0
 30
0.0
 70
   128
 71
    41
 72
    39
 73
   222
  0
VERTEX
  5
262
  8
0
 62
   123
 10
0.0
 20
0.0
 30
0.0
 70
   128
 71
   117
 72
   115
 73
   223
  0
VERTEX
  5
263
  8
0
 62
   123
 10
0.0
 20
0.0
 30
0.0
 70
   128
 71
   222
 72
   223
 73
   115
  0
VERTEX
  5
264
  8
0
 62
   123
 10
0.0
 20
0.0
 30
0.0
 70
   128
 71
   223
 72
   224
 73
   111
  0
VERTEX
  5
265
  8
0
 62
   123
 10
0.0
 20
0.0
 30
0.0
 70
   128
 71
   111
 72
   117
 73
   223
  0
VERTEX
  5
266
  8
0
 62
   123
 10
0.0
 20
0.0
 30
0.0
 70
   128
 71
   105
 72
   114
 73
   224
  0
VERTEX
  5
267
  8
0
 62
   123
 10
0.0
 20
0.0
 30
0.0
 70
   128
 71
   224
 72
   114
 73
   111
  0
VERTEX
  5
268
  8
0
 62
   123
 10
0.0
 20
0.0
 30
0.0
 70
   128
 71
   225
 72
   109
 73
   105
  0
VERTEX
  5
269
  8
0
 62
   123
 10
0.0
 20
0.0
 30
0.0
 70
   128
 71
   105
 72
   224
 73
   225
  0
VERTEX
  5
26A
  8
0
 62
   123
 10
0.0
 20
0.0
 30
0.0
 70
   128
 71
   108
 72
   225
 73
   226
  0
VERTEX
  5
26B
  8
0
 62
   123
 10
0.0
 20
0.0
 30
0.0
 70
   128
 71
   225
 72
   108
 73
   109
  0
VERTEX
  5
26C
  8
0
 62
   123
 10
0.0
 20
0.0
 30
0.0
 70
   128
 71
   226
 72
   100
 73
   101
  0
VERTEX
  5
26D
  8
0
 62
   123
 10
0.0
 20
0.0
 30
0.0
 70
   128
 71
   108
 72
   226
 73
   101
  0
VERTEX
  5
26E
  8
0
 62
   123
 10
0.0
 20
0.0
 30
0.0
 70
   128
 71
   100
 72
   189
 73
   104
  0
VERTEX
  5
26F
  8
0
 62
   123
 10
0.0
 20
0.0
 30
0.0
 70
   128
 71
   189
 72
   100
 73
   226
  0
VERTEX
  5
270
  8
0
 62
   123
 10
0.0
 20
0.0
 30
0.0
 70
   128
 71
   221
 72
    35
 73
    33
  0
VERTEX
  5
271
  8
0
 62
   123
 10
0.0
 20
0.0
 30
0.0
 70
   128
 71
   217
 72
   221
 73
    33
  0
VERTEX
  5
272
  8
0
 62
   123
 10
0.0
 20
0.0
 30
0.0
 70
   128
 71
   218
 72
   217
 73
    21
  0
VERTEX
  5
273
  8
0
 62
   123
 10
0.0
 20
0.0
 30
0.0
 70
   128
 71
    20
 72
   217
 73
    33
  0
VERTEX
  5
274
  8
0
 62
   123
 10
0.0
 20
0.0
 30
0.0
 70
   128
 71
    24
 72
    26
 73
   218
  0
VERTEX
  5
275
  8
0
 62
   123
 10
0.0
 20
0.0
 30
0.0
 70
   128
 71
    24
 72
   218
 73
    21
  0
VERTEX
  5
276
  8
0
 62
   123
 10
0.0
 20
0.0
 30
0.0
 70
   128
 71
    28
 72
    30
 73
   219
  0
VERTEX
  5
277
  8
0
 62
   123
 10
0.0
 20
0.0
 30
0.0
 70
   128
 71
   219
 72
    26
 73
    28
  0
VERTEX
  5
278
  8
0
 62
   123
 10
0.0
 20
0.0
 30
0.0
 70
   128
 71
   215
 72
    30
 73
   119
  0
VERTEX
  5
279
  8
0
 62
   123
 10
0.0
 20
0.0
 30
0.0
 70
   128
 71
    30
 72
   215
 73
   219
  0
VERTEX
  5
27A
  8
0
 62
   123
 10
0.0
 20
0.0
 30
0.0
 70
   128
 71
   227
 72
   127
 73
   125
  0
VERTEX
  5
27B
  8
0
 62
   123
 10
0.0
 20
0.0
 30
0.0
 70
   128
 71
   227
 72
   215
 73
   127
  0
VERTEX
  5
27C
  8
0
 62
   123
 10
0.0
 20
0.0
 30
0.0
 70
   128
 71
   216
 72
   227
 73
   124
  0
VERTEX
  5
27D
  8
0
 62
   123
 10
0.0
 20
0.0
 30
0.0
 70
   128
 71
   125
 72
   124
 73
   227
  0
VERTEX
  5
27E
  8
0
 62
   123
 10
0.0
 20
0.0
 30
0.0
 70
   128
 71
   211
 72
   216
 73
   130
  0
VERTEX
  5
27F
  8
0
 62
   123
 10
0.0
 20
0.0
 30
0.0
 70
   128
 71
   130
 72
   216
 73
   122
  0
VERTEX
  5
280
  8
0
 62
   123
 10
0.0
 20
0.0
 30
0.0
 70
   128
 71
   134
 72
   211
 73
   128
  0
VERTEX
  5
281
  8
0
 62
   123
 10
0.0
 20
0.0
 30
0.0
 70
   128
 71
   211
 72
   130
 73
   128
  0
VERTEX
  5
282
  8
0
 62
   123
 10
0.0
 20
0.0
 30
0.0
 70
   128
 71
   132
 72
   213
 73
   212
  0
VERTEX
  5
283
  8
0
 62
   123
 10
0.0
 20
0.0
 30
0.0
 70
   128
 71
   134
 72
   132
 73
   212
  0
VERTEX
  5
284
  8
0
 62
   123
 10
0.0
 20
0.0
 30
0.0
 70
   128
 71
   164
 72
   195
 73
   166
  0
VERTEX
  5
285
  8
0
 62
   123
 10
0.0
 20
0.0
 30
0.0
 70
   128
 71
   132
 72
    64
 73
   213
  0
VERTEX
  5
286
  8
0
 62
   123
 10
0.0
 20
0.0
 30
0.0
 70
   128
 71
    63
 72
    61
 73
   214
  0
VERTEX
  5
287
  8
0
 62
   123
 10
0.0
 20
0.0
 30
0.0
 70
   128
 71
    64
 72
    63
 73
   213
  0
VERTEX
  5
288
  8
0
 62
   123
 10
0.0
 20
0.0
 30
0.0
 70
   128
 71
   208
 72
   214
 73
    58
  0
VERTEX
  5
289
  8
0
 62
   123
 10
0.0
 20
0.0
 30
0.0
 70
   128
 71
    61
 72
    58
 73
   214
  0
VERTEX
  5
28A
  8
0
 62
   123
 10
0.0
 20
0.0
 30
0.0
 70
   128
 71
    55
 72
    43
 73
   208
  0
VERTEX
  5
28B
  8
0
 62
   123
 10
0.0
 20
0.0
 30
0.0
 70
   128
 71
    44
 72
   209
 73
    43
  0
VERTEX
  5
28C
  8
0
 62
   123
 10
0.0
 20
0.0
 30
0.0
 70
   128
 71
   208
 72
    43
 73
   209
  0
VERTEX
  5
28D
  8
0
 62
   123
 10
0.0
 20
0.0
 30
0.0
 70
   128
 71
   209
 72
    44
 73
    46
  0
VERTEX
  5
28E
  8
0
 62
   123
 10
0.0
 20
0.0
 30
0.0
 70
   128
 71
    52
 72
   210
 73
    49
  0
VERTEX
  5
28F
  8
0
 62
   123
 10
0.0
 20
0.0
 30
0.0
 70
   128
 71
   210
 72
    46
 73
    49
  0
VERTEX
  5
290
  8
0
 62
   123
 10
0.0
 20
0.0
 30
0.0
 70
   128
 71
    52
 72
    53
 73
   206
  0
VERTEX
  5
291
  8
0
 62
   123
 10
0.0
 20
0.0
 30
0.0
 70
   128
 71
   206
 72
   210
 73
    52
  0
VERTEX
  5
292
  8
0
 62
   123
 10
0.0
 20
0.0
 30
0.0
 70
   128
 71
   228
 72
   206
 73
   138
  0
VERTEX
  5
293
  8
0
 62
   123
 10
0.0
 20
0.0
 30
0.0
 70
   128
 71
   201
 72
    68
 73
    71
  0
VERTEX
  5
294
  8
0
 62
   123
 10
0.0
 20
0.0
 30
0.0
 70
   128
 71
   144
 72
   145
 73
   228
  0
VERTEX
  5
295
  8
0
 62
   123
 10
0.0
 20
0.0
 30
0.0
 70
   128
 71
   144
 72
   228
 73
   138
  0
VERTEX
  5
296
  8
0
 62
   123
 10
0.0
 20
0.0
 30
0.0
 70
   128
 71
   142
 72
   203
 73
   207
  0
VERTEX
  5
297
  8
0
 62
   123
 10
0.0
 20
0.0
 30
0.0
 70
   128
 71
   145
 72
   207
 73
   228
  0
VERTEX
  5
298
  8
0
 62
   123
 10
0.0
 20
0.0
 30
0.0
 70
   128
 71
   142
 72
   150
 73
   203
  0
VERTEX
  5
299
  8
0
 62
   123
 10
0.0
 20
0.0
 30
0.0
 70
   128
 71
   148
 72
   146
 73
   204
  0
VERTEX
  5
29A
  8
0
 62
   123
 10
0.0
 20
0.0
 30
0.0
 70
   128
 71
   150
 72
   148
 73
   203
  0
VERTEX
  5
29B
  8
0
 62
   123
 10
0.0
 20
0.0
 30
0.0
 70
   128
 71
   205
 72
   204
 73
   153
  0
VERTEX
  5
29C
  8
0
 62
   123
 10
0.0
 20
0.0
 30
0.0
 70
   128
 71
   146
 72
   153
 73
   204
  0
VERTEX
  5
29D
  8
0
 62
   123
 10
0.0
 20
0.0
 30
0.0
 70
   128
 71
   205
 72
    86
 73
   229
  0
VERTEX
  5
29E
  8
0
 62
   123
 10
0.0
 20
0.0
 30
0.0
 70
   128
 71
   205
 72
   153
 73
   151
  0
VERTEX
  5
29F
  8
0
 62
   123
 10
0.0
 20
0.0
 30
0.0
 70
   128
 71
    83
 72
   229
 73
    85
  0
VERTEX
  5
2A0
  8
0
 62
   123
 10
0.0
 20
0.0
 30
0.0
 70
   128
 71
   229
 72
    86
 73
    85
  0
VERTEX
  5
2A1
  8
0
 62
   123
 10
0.0
 20
0.0
 30
0.0
 70
   128
 71
   200
 72
    80
 73
    77
  0
VERTEX
  5
2A2
  8
0
 62
   123
 10
0.0
 20
0.0
 30
0.0
 70
   128
 71
   200
 72
   229
 73
    83
  0
VERTEX
  5
2A3
  8
0
 62
   123
 10
0.0
 20
0.0
 30
0.0
 70
   128
 71
   202
 72
    65
 73
    66
  0
VERTEX
  5
2A4
  8
0
 62
   123
 10
0.0
 20
0.0
 30
0.0
 70
   128
 71
    65
 72
   202
 73
    77
  0
VERTEX
  5
2A5
  8
0
 62
   123
 10
0.0
 20
0.0
 30
0.0
 70
   128
 71
   202
 72
   200
 73
    77
  0
VERTEX
  5
2A6
  8
0
 62
   123
 10
0.0
 20
0.0
 30
0.0
 70
   128
 71
    66
 72
    68
 73
   201
  0
VERTEX
  5
2A7
  8
0
 62
   123
 10
0.0
 20
0.0
 30
0.0
 70
   128
 71
   230
 72
   198
 73
    74
  0
VERTEX
  5
2A8
  8
0
 62
   123
 10
0.0
 20
0.0
 30
0.0
 70
   128
 71
   198
 72
   201
 73
    71
  0
VERTEX
  5
2A9
  8
0
 62
   123
 10
0.0
 20
0.0
 30
0.0
 70
   128
 71
    75
 72
   156
 73
   230
  0
VERTEX
  5
2AA
  8
0
 62
   123
 10
0.0
 20
0.0
 30
0.0
 70
   128
 71
    75
 72
   230
 73
    74
  0
VERTEX
  5
2AB
  8
0
 62
   123
 10
0.0
 20
0.0
 30
0.0
 70
   128
 71
   163
 72
   199
 73
   162
  0
VERTEX
  5
2AC
  8
0
 62
   123
 10
0.0
 20
0.0
 30
0.0
 70
   128
 71
   156
 72
   199
 73
   230
  0
VERTEX
  5
2AD
  8
0
 62
   123
 10
0.0
 20
0.0
 30
0.0
 70
   128
 71
   163
 72
   196
 73
   199
  0
VERTEX
  5
2AE
  8
0
 62
   123
 10
0.0
 20
0.0
 30
0.0
 70
   128
 71
   196
 72
   160
 73
   168
  0
VERTEX
  5
2AF
  8
0
 62
   123
 10
0.0
 20
0.0
 30
0.0
 70
   128
 71
   163
 72
   160
 73
   196
  0
VERTEX
  5
2B0
  8
0
 62
   123
 10
0.0
 20
0.0
 30
0.0
 70
   128
 71
   166
 72
   195
 73
   168
  0
VERTEX
  5
2B1
  8
0
 62
   123
 10
0.0
 20
0.0
 30
0.0
 70
   128
 71
   171
 72
   197
 73
   164
  0
VERTEX
  5
2B2
  8
0
 62
   123
 10
0.0
 20
0.0
 30
0.0
 70
   128
 71
   195
 72
   164
 73
   197
  0
VERTEX
  5
2B3
  8
0
 62
   123
 10
0.0
 20
0.0
 30
0.0
 70
   128
 71
    99
 72
   191
 73
   169
  0
VERTEX
  5
2B4
  8
0
 62
   123
 10
0.0
 20
0.0
 30
0.0
 70
   128
 71
   169
 72
   191
 73
   197
  0
VERTEX
  5
2B5
  8
0
 62
   123
 10
0.0
 20
0.0
 30
0.0
 70
   128
 71
   191
 72
    99
 73
    97
  0
VERTEX
  5
2B6
  8
0
 62
   123
 10
0.0
 20
0.0
 30
0.0
 70
   128
 71
    97
 72
    95
 73
   192
  0
VERTEX
  5
2B7
  8
0
 62
   123
 10
0.0
 20
0.0
 30
0.0
 70
   128
 71
    92
 72
   194
 73
   192
  0
VERTEX
  5
2B8
  8
0
 62
   123
 10
0.0
 20
0.0
 30
0.0
 70
   128
 71
    92
 72
   192
 73
    95
  0
VERTEX
  5
2B9
  8
0
 62
   123
 10
0.0
 20
0.0
 30
0.0
 70
   128
 71
   194
 72
    91
 73
    89
  0
VERTEX
  5
2BA
  8
0
 62
   123
 10
0.0
 20
0.0
 30
0.0
 70
   128
 71
    92
 72
    91
 73
   194
  0
VERTEX
  5
2BB
  8
0
 62
   123
 10
0.0
 20
0.0
 30
0.0
 70
   128
 71
    89
 72
    87
 73
   193
  0
VERTEX
  5
2BC
  8
0
 62
   123
 10
0.0
 20
0.0
 30
0.0
 70
   128
 71
   221
 72
    59
 73
   220
  0
VERTEX
  5
2BD
  8
0
 62
   123
 10
0.0
 20
0.0
 30
0.0
 70
   128
 71
    54
 72
   219
 73
   215
  0
VERTEX
  5
2BE
  8
0
 62
   123
 10
0.0
 20
0.0
 30
0.0
 70
   128
 71
    60
 72
   220
 73
    59
  0
VERTEX
  5
2BF
  8
0
 62
   123
 10
0.0
 20
0.0
 30
0.0
 70
   128
 71
   222
 72
   220
 73
    60
  0
VERTEX
  5
2C0
  8
0
 62
   123
 10
0.0
 20
0.0
 30
0.0
 70
   128
 71
   136
 72
   222
 73
    62
  0
VERTEX
  5
2C1
  8
0
 62
   123
 10
0.0
 20
0.0
 30
0.0
 70
   128
 71
    62
 72
   222
 73
    60
  0
VERTEX
  5
2C2
  8
0
 62
   123
 10
0.0
 20
0.0
 30
0.0
 70
   128
 71
    59
 72
   221
 73
    56
  0
VERTEX
  5
2C3
  8
0
 62
   123
 10
0.0
 20
0.0
 30
0.0
 70
   128
 71
   136
 72
   223
 73
   222
  0
VERTEX
  5
2C4
  8
0
 62
   123
 10
0.0
 20
0.0
 30
0.0
 70
   128
 71
   133
 72
   135
 73
   223
  0
VERTEX
  5
2C5
  8
0
 62
   123
 10
0.0
 20
0.0
 30
0.0
 70
   128
 71
   224
 72
   223
 73
   135
  0
VERTEX
  5
2C6
  8
0
 62
   123
 10
0.0
 20
0.0
 30
0.0
 70
   128
 71
   223
 72
   136
 73
   133
  0
VERTEX
  5
2C7
  8
0
 62
   123
 10
0.0
 20
0.0
 30
0.0
 70
   128
 71
   129
 72
   224
 73
   135
  0
VERTEX
  5
2C8
  8
0
 62
   123
 10
0.0
 20
0.0
 30
0.0
 70
   128
 71
   123
 72
   225
 73
   131
  0
VERTEX
  5
2C9
  8
0
 62
   123
 10
0.0
 20
0.0
 30
0.0
 70
   128
 71
   225
 72
   224
 73
   131
  0
VERTEX
  5
2CA
  8
0
 62
   123
 10
0.0
 20
0.0
 30
0.0
 70
   128
 71
   225
 72
   137
 73
   226
  0
VERTEX
  5
2CB
  8
0
 62
   123
 10
0.0
 20
0.0
 30
0.0
 70
   128
 71
   224
 72
   129
 73
   131
  0
VERTEX
  5
2CC
  8
0
 62
   123
 10
0.0
 20
0.0
 30
0.0
 70
   128
 71
   126
 72
   120
 73
   226
  0
VERTEX
  5
2CD
  8
0
 62
   123
 10
0.0
 20
0.0
 30
0.0
 70
   128
 71
   126
 72
   226
 73
   137
  0
VERTEX
  5
2CE
  8
0
 62
   123
 10
0.0
 20
0.0
 30
0.0
 70
   128
 71
   121
 72
   189
 73
   120
  0
VERTEX
  5
2CF
  8
0
 62
   123
 10
0.0
 20
0.0
 30
0.0
 70
   128
 71
   225
 72
   123
 73
   137
  0
VERTEX
  5
2D0
  8
0
 62
   123
 10
0.0
 20
0.0
 30
0.0
 70
   128
 71
   189
 72
   226
 73
   120
  0
VERTEX
  5
2D1
  8
0
 62
   123
 10
0.0
 20
0.0
 30
0.0
 70
   128
 71
    57
 72
   221
 73
   217
  0
VERTEX
  5
2D2
  8
0
 62
   123
 10
0.0
 20
0.0
 30
0.0
 70
   128
 71
   221
 72
    57
 73
    56
  0
VERTEX
  5
2D3
  8
0
 62
   123
 10
0.0
 20
0.0
 30
0.0
 70
   128
 71
   217
 72
    45
 73
    48
  0
VERTEX
  5
2D4
  8
0
 62
   123
 10
0.0
 20
0.0
 30
0.0
 70
   128
 71
    57
 72
   217
 73
    48
  0
VERTEX
  5
2D5
  8
0
 62
   123
 10
0.0
 20
0.0
 30
0.0
 70
   128
 71
    45
 72
   218
 73
    47
  0
VERTEX
  5
2D6
  8
0
 62
   123
 10
0.0
 20
0.0
 30
0.0
 70
   128
 71
   218
 72
    45
 73
   217
  0
VERTEX
  5
2D7
  8
0
 62
   123
 10
0.0
 20
0.0
 30
0.0
 70
   128
 71
   219
 72
    50
 73
   218
  0
VERTEX
  5
2D8
  8
0
 62
   123
 10
0.0
 20
0.0
 30
0.0
 70
   128
 71
    47
 72
   218
 73
    50
  0
VERTEX
  5
2D9
  8
0
 62
   123
 10
0.0
 20
0.0
 30
0.0
 70
   128
 71
    51
 72
   219
 73
    54
  0
VERTEX
  5
2DA
  8
0
 62
   123
 10
0.0
 20
0.0
 30
0.0
 70
   128
 71
    51
 72
    50
 73
   219
  0
VERTEX
  5
2DB
  8
0
 62
   123
 10
0.0
 20
0.0
 30
0.0
 70
   128
 71
   147
 72
   216
 73
   211
  0
VERTEX
  5
2DC
  8
0
 62
   123
 10
0.0
 20
0.0
 30
0.0
 70
   128
 71
   141
 72
   143
 73
   227
  0
VERTEX
  5
2DD
  8
0
 62
   123
 10
0.0
 20
0.0
 30
0.0
 70
   128
 71
   214
 72
    78
 73
    81
  0
VERTEX
  5
2DE
  8
0
 62
   123
 10
0.0
 20
0.0
 30
0.0
 70
   128
 71
   213
 72
   155
 73
   212
  0
VERTEX
  5
2DF
  8
0
 62
   123
 10
0.0
 20
0.0
 30
0.0
 70
   128
 71
    73
 72
    72
 73
   210
  0
VERTEX
  5
2E0
  8
0
 62
   123
 10
0.0
 20
0.0
 30
0.0
 70
   128
 71
    70
 72
   208
 73
   209
  0
VERTEX
  5
2E1
  8
0
 62
   123
 10
0.0
 20
0.0
 30
0.0
 70
   128
 71
   203
 72
   167
 73
   158
  0
VERTEX
  5
2E2
  8
0
 62
   123
 10
0.0
 20
0.0
 30
0.0
 70
   128
 71
   228
 72
   161
 73
   157
  0
VERTEX
  5
2E3
  8
0
 62
   123
 10
0.0
 20
0.0
 30
0.0
 70
   128
 71
    94
 72
    96
 73
   229
  0
VERTEX
  5
2E4
  8
0
 62
   123
 10
0.0
 20
0.0
 30
0.0
 70
   128
 71
   170
 72
   204
 73
   205
  0
VERTEX
  5
2E5
  8
0
 62
   123
 10
0.0
 20
0.0
 30
0.0
 70
   128
 71
   201
 72
   198
 73
   231
  0
VERTEX
  5
2E6
  8
0
 62
   123
 10
0.0
 20
0.0
 30
0.0
 70
   128
 71
   202
 72
    88
 73
    90
  0
VERTEX
  5
2E7
  8
0
 62
   123
 10
0.0
 20
0.0
 30
0.0
 70
   128
 71
   196
 72
   232
 73
   199
  0
VERTEX
  5
2E8
  8
0
 62
   123
 10
0.0
 20
0.0
 30
0.0
 70
   128
 71
   234
 72
   233
 73
   230
  0
VERTEX
  5
2E9
  8
0
 62
   123
 10
0.0
 20
0.0
 30
0.0
 70
   128
 71
   197
 72
   235
 73
   195
  0
VERTEX
  5
2EA
  8
0
 62
   123
 10
0.0
 20
0.0
 30
0.0
 70
   128
 71
   236
 72
   195
 73
   235
  0
VERTEX
  5
2EB
  8
0
 62
   123
 10
0.0
 20
0.0
 30
0.0
 70
   128
 71
   238
 72
   197
 73
   237
  0
VERTEX
  5
2EC
  8
0
 62
   123
 10
0.0
 20
0.0
 30
0.0
 70
   128
 71
   238
 72
   235
 73
   197
  0
VERTEX
  5
2ED
  8
0
 62
   123
 10
0.0
 20
0.0
 30
0.0
 70
   128
 71
   239
 72
   237
 73
   191
  0
VERTEX
  5
2EE
  8
0
 62
   123
 10
0.0
 20
0.0
 30
0.0
 70
   128
 71
   197
 72
   191
 73
   237
  0
VERTEX
  5
2EF
  8
0
 62
   123
 10
0.0
 20
0.0
 30
0.0
 70
   128
 71
   191
 72
   192
 73
   240
  0
VERTEX
  5
2F0
  8
0
 62
   123
 10
0.0
 20
0.0
 30
0.0
 70
   128
 71
   240
 72
   239
 73
   191
  0
VERTEX
  5
2F1
  8
0
 62
   123
 10
0.0
 20
0.0
 30
0.0
 70
   128
 71
   242
 72
   241
 73
   192
  0
VERTEX
  5
2F2
  8
0
 62
   123
 10
0.0
 20
0.0
 30
0.0
 70
   128
 71
   192
 72
   241
 73
   240
  0
VERTEX
  5
2F3
  8
0
 62
   123
 10
0.0
 20
0.0
 30
0.0
 70
   128
 71
   194
 72
   243
 73
   242
  0
VERTEX
  5
2F4
  8
0
 62
   123
 10
0.0
 20
0.0
 30
0.0
 70
   128
 71
   242
 72
   192
 73
   194
  0
VERTEX
  5
2F5
  8
0
 62
   123
 10
0.0
 20
0.0
 30
0.0
 70
   128
 71
   244
 72
   194
 73
   193
  0
VERTEX
  5
2F6
  8
0
 62
   123
 10
0.0
 20
0.0
 30
0.0
 70
   128
 71
   194
 72
   244
 73
   243
  0
VERTEX
  5
2F7
  8
0
 62
   123
 10
0.0
 20
0.0
 30
0.0
 70
   128
 71
   244
 72
   193
 73
   245
  0
VERTEX
  5
2F8
  8
0
 62
   123
 10
0.0
 20
0.0
 30
0.0
 70
   128
 71
   246
 72
   195
 73
   236
  0
VERTEX
  5
2F9
  8
0
 62
   123
 10
0.0
 20
0.0
 30
0.0
 70
   128
 71
   246
 72
   247
 73
   196
  0
VERTEX
  5
2FA
  8
0
 62
   123
 10
0.0
 20
0.0
 30
0.0
 70
   128
 71
   196
 72
   195
 73
   246
  0
VERTEX
  5
2FB
  8
0
 62
   123
 10
0.0
 20
0.0
 30
0.0
 70
   128
 71
   248
 72
   199
 73
   232
  0
VERTEX
  5
2FC
  8
0
 62
   123
 10
0.0
 20
0.0
 30
0.0
 70
   128
 71
   232
 72
   196
 73
   247
  0
VERTEX
  5
2FD
  8
0
 62
   123
 10
0.0
 20
0.0
 30
0.0
 70
   128
 71
   249
 72
   199
 73
   248
  0
VERTEX
  5
2FE
  8
0
 62
   123
 10
0.0
 20
0.0
 30
0.0
 70
   128
 71
   249
 72
   234
 73
   199
  0
VERTEX
  5
2FF
  8
0
 62
   123
 10
0.0
 20
0.0
 30
0.0
 70
   128
 71
    78
 72
   208
 73
    79
  0
VERTEX
  5
300
  8
0
 62
   123
 10
0.0
 20
0.0
 30
0.0
 70
   128
 71
   233
 72
   250
 73
   230
  0
VERTEX
  5
301
  8
0
 62
   123
 10
0.0
 20
0.0
 30
0.0
 70
   128
 71
   199
 72
   234
 73
   230
  0
VERTEX
  5
302
  8
0
 62
   123
 10
0.0
 20
0.0
 30
0.0
 70
   128
 71
   209
 72
    67
 73
    70
  0
VERTEX
  5
303
  8
0
 62
   123
 10
0.0
 20
0.0
 30
0.0
 70
   128
 71
   251
 72
   198
 73
   250
  0
VERTEX
  5
304
  8
0
 62
   123
 10
0.0
 20
0.0
 30
0.0
 70
   128
 71
   230
 72
   250
 73
   198
  0
VERTEX
  5
305
  8
0
 62
   123
 10
0.0
 20
0.0
 30
0.0
 70
   128
 71
   201
 72
   231
 73
   252
  0
VERTEX
  5
306
  8
0
 62
   123
 10
0.0
 20
0.0
 30
0.0
 70
   128
 71
   198
 72
   251
 73
   231
  0
VERTEX
  5
307
  8
0
 62
   123
 10
0.0
 20
0.0
 30
0.0
 70
   128
 71
    87
 72
   202
 73
   201
  0
VERTEX
  5
308
  8
0
 62
   123
 10
0.0
 20
0.0
 30
0.0
 70
   128
 71
   201
 72
   252
 73
    87
  0
VERTEX
  5
309
  8
0
 62
   123
 10
0.0
 20
0.0
 30
0.0
 70
   128
 71
    88
 72
   202
 73
    87
  0
VERTEX
  5
30A
  8
0
 62
   123
 10
0.0
 20
0.0
 30
0.0
 70
   128
 71
    90
 72
    93
 73
   200
  0
VERTEX
  5
30B
  8
0
 62
   123
 10
0.0
 20
0.0
 30
0.0
 70
   128
 71
   200
 72
   202
 73
    90
  0
VERTEX
  5
30C
  8
0
 62
   123
 10
0.0
 20
0.0
 30
0.0
 70
   128
 71
   200
 72
    94
 73
   229
  0
VERTEX
  5
30D
  8
0
 62
   123
 10
0.0
 20
0.0
 30
0.0
 70
   128
 71
    94
 72
   200
 73
    93
  0
VERTEX
  5
30E
  8
0
 62
   123
 10
0.0
 20
0.0
 30
0.0
 70
   128
 71
    98
 72
   229
 73
    96
  0
VERTEX
  5
30F
  8
0
 62
   123
 10
0.0
 20
0.0
 30
0.0
 70
   128
 71
   205
 72
    98
 73
   173
  0
VERTEX
  5
310
  8
0
 62
   123
 10
0.0
 20
0.0
 30
0.0
 70
   128
 71
    98
 72
   205
 73
   229
  0
VERTEX
  5
311
  8
0
 62
   123
 10
0.0
 20
0.0
 30
0.0
 70
   128
 71
   170
 72
   172
 73
   204
  0
VERTEX
  5
312
  8
0
 62
   123
 10
0.0
 20
0.0
 30
0.0
 70
   128
 71
   173
 72
   170
 73
   205
  0
VERTEX
  5
313
  8
0
 62
   123
 10
0.0
 20
0.0
 30
0.0
 70
   128
 71
   203
 72
   204
 73
   165
  0
VERTEX
  5
314
  8
0
 62
   123
 10
0.0
 20
0.0
 30
0.0
 70
   128
 71
   172
 72
   165
 73
   204
  0
VERTEX
  5
315
  8
0
 62
   123
 10
0.0
 20
0.0
 30
0.0
 70
   128
 71
   203
 72
   158
 73
   207
  0
VERTEX
  5
316
  8
0
 62
   123
 10
0.0
 20
0.0
 30
0.0
 70
   128
 71
   203
 72
   165
 73
   167
  0
VERTEX
  5
317
  8
0
 62
   123
 10
0.0
 20
0.0
 30
0.0
 70
   128
 71
   159
 72
   228
 73
   207
  0
VERTEX
  5
318
  8
0
 62
   123
 10
0.0
 20
0.0
 30
0.0
 70
   128
 71
   207
 72
   158
 73
   159
  0
VERTEX
  5
319
  8
0
 62
   123
 10
0.0
 20
0.0
 30
0.0
 70
   128
 71
   206
 72
   228
 73
   157
  0
VERTEX
  5
31A
  8
0
 62
   123
 10
0.0
 20
0.0
 30
0.0
 70
   128
 71
   161
 72
   228
 73
   159
  0
VERTEX
  5
31B
  8
0
 62
   123
 10
0.0
 20
0.0
 30
0.0
 70
   128
 71
    76
 72
    73
 73
   206
  0
VERTEX
  5
31C
  8
0
 62
   123
 10
0.0
 20
0.0
 30
0.0
 70
   128
 71
    76
 72
   206
 73
   157
  0
VERTEX
  5
31D
  8
0
 62
   123
 10
0.0
 20
0.0
 30
0.0
 70
   128
 71
    69
 72
   210
 73
    72
  0
VERTEX
  5
31E
  8
0
 62
   123
 10
0.0
 20
0.0
 30
0.0
 70
   128
 71
    73
 72
   210
 73
   206
  0
VERTEX
  5
31F
  8
0
 62
   123
 10
0.0
 20
0.0
 30
0.0
 70
   128
 71
    69
 72
    67
 73
   209
  0
VERTEX
  5
320
  8
0
 62
   123
 10
0.0
 20
0.0
 30
0.0
 70
   128
 71
    69
 72
   209
 73
   210
  0
VERTEX
  5
321
  8
0
 62
   123
 10
0.0
 20
0.0
 30
0.0
 70
   128
 71
   208
 72
    70
 73
    79
  0
VERTEX
  5
322
  8
0
 62
   123
 10
0.0
 20
0.0
 30
0.0
 70
   128
 71
    82
 72
   214
 73
    81
  0
VERTEX
  5
323
  8
0
 62
   123
 10
0.0
 20
0.0
 30
0.0
 70
   128
 71
    78
 72
   214
 73
   208
  0
VERTEX
  5
324
  8
0
 62
   123
 10
0.0
 20
0.0
 30
0.0
 70
   128
 71
   213
 72
    82
 73
    84
  0
VERTEX
  5
325
  8
0
 62
   123
 10
0.0
 20
0.0
 30
0.0
 70
   128
 71
    82
 72
   213
 73
   214
  0
VERTEX
  5
326
  8
0
 62
   123
 10
0.0
 20
0.0
 30
0.0
 70
   128
 71
   155
 72
   152
 73
   212
  0
VERTEX
  5
327
  8
0
 62
   123
 10
0.0
 20
0.0
 30
0.0
 70
   128
 71
    84
 72
   155
 73
   213
  0
VERTEX
  5
328
  8
0
 62
   123
 10
0.0
 20
0.0
 30
0.0
 70
   128
 71
   212
 72
   152
 73
   211
  0
VERTEX
  5
329
  8
0
 62
   123
 10
0.0
 20
0.0
 30
0.0
 70
   128
 71
   154
 72
   211
 73
   152
  0
VERTEX
  5
32A
  8
0
 62
   123
 10
0.0
 20
0.0
 30
0.0
 70
   128
 71
   149
 72
   216
 73
   147
  0
VERTEX
  5
32B
  8
0
 62
   123
 10
0.0
 20
0.0
 30
0.0
 70
   128
 71
   147
 72
   211
 73
   154
  0
VERTEX
  5
32C
  8
0
 62
   123
 10
0.0
 20
0.0
 30
0.0
 70
   128
 71
   140
 72
   216
 73
   149
  0
VERTEX
  5
32D
  8
0
 62
   123
 10
0.0
 20
0.0
 30
0.0
 70
   128
 71
   227
 72
   140
 73
   141
  0
VERTEX
  5
32E
  8
0
 62
   123
 10
0.0
 20
0.0
 30
0.0
 70
   128
 71
   140
 72
   227
 73
   216
  0
VERTEX
  5
32F
  8
0
 62
   123
 10
0.0
 20
0.0
 30
0.0
 70
   128
 71
   215
 72
   227
 73
   143
  0
VERTEX
  5
330
  8
0
 62
   123
 10
0.0
 20
0.0
 30
0.0
 70
   128
 71
   215
 72
   139
 73
    54
  0
VERTEX
  5
331
  8
0
 62
   123
 10
0.0
 20
0.0
 30
0.0
 70
   128
 71
   143
 72
   139
 73
   215
  0
VERTEX
  5
332
  8
0
 62
   123
 10
0.0
 20
0.0
 30
0.0
 70
   128
 71
   255
 72
   254
 73
   253
  0
VERTEX
  5
333
  8
0
 62
   123
 10
0.0
 20
0.0
 30
0.0
 70
   128
 71
   255
 72
   257
 73
   256
  0
VERTEX
  5
334
  8
0
 62
   123
 10
0.0
 20
0.0
 30
0.0
 70
   128
 71
   254
 72
   255
 73
   256
  0
VERTEX
  5
335
  8
0
 62
   123
 10
0.0
 20
0.0
 30
0.0
 70
   128
 71
   258
 72
   253
 73
   254
  0
VERTEX
  5
336
  8
0
 62
   123
 10
0.0
 20
0.0
 30
0.0
 70
   128
 71
   258
 72
   259
 73
   253
  0
VERTEX
  5
337
  8
0
 62
   123
 10
0.0
 20
0.0
 30
0.0
 70
   128
 71
   259
 72
   260
 73
   253
  0
VERTEX
  5
338
  8
0
 62
   123
 10
0.0
 20
0.0
 30
0.0
 70
   128
 71
   253
 72
   260
 73
   255
  0
VERTEX
  5
339
  8
0
 62
   123
 10
0.0
 20
0.0
 30
0.0
 70
   128
 71
   260
 72
   261
 73
   255
  0
VERTEX
  5
33A
  8
0
 62
   123
 10
0.0
 20
0.0
 30
0.0
 70
   128
 71
   257
 72
   255
 73
   262
  0
VERTEX
  5
33B
  8
0
 62
   123
 10
0.0
 20
0.0
 30
0.0
 70
   128
 71
   255
 72
   261
 73
   262
  0
VERTEX
  5
33C
  8
0
 62
   123
 10
0.0
 20
0.0
 30
0.0
 70
   128
 71
   257
 72
   262
 73
   256
  0
VERTEX
  5
33D
  8
0
 62
   123
 10
0.0
 20
0.0
 30
0.0
 70
   128
 71
   262
 72
   263
 73
   256
  0
VERTEX
  5
33E
  8
0
 62
   123
 10
0.0
 20
0.0
 30
0.0
 70
   128
 71
   256
 72
   263
 73
   254
  0
VERTEX
  5
33F
  8
0
 62
   123
 10
0.0
 20
0.0
 30
0.0
 70
   128
 71
   263
 72
   264
 73
   254
  0
VERTEX
  5
340
  8
0
 62
   123
 10
0.0
 20
0.0
 30
0.0
 70
   128
 71
   254
 72
   264
 73
   259
  0
VERTEX
  5
341
  8
0
 62
   123
 10
0.0
 20
0.0
 30
0.0
 70
   128
 71
   259
 72
   258
 73
   254
  0
VERTEX
  5
342
  8
0
 62
   123
 10
0.0
 20
0.0
 30
0.0
 70
   128
 71
   265
 72
   261
 73
   260
  0
VERTEX
  5
343
  8
0
 62
   123
 10
0.0
 20
0.0
 30
0.0
 70
   128
 71
   267
 72
   259
 73
   266
  0
VERTEX
  5
344
  8
0
 62
   123
 10
0.0
 20
0.0
 30
0.0
 70
   128
 71
   269
 72
   268
 73
   261
  0
VERTEX
  5
345
  8
0
 62
   123
 10
0.0
 20
0.0
 30
0.0
 70
   128
 71
   263
 72
   271
 73
   270
  0
VERTEX
  5
346
  8
0
 62
   123
 10
0.0
 20
0.0
 30
0.0
 70
   128
 71
   272
 72
   263
 73
   262
  0
VERTEX
  5
347
  8
0
 62
   123
 10
0.0
 20
0.0
 30
0.0
 70
   128
 71
   273
 72
   271
 73
   263
  0
VERTEX
  5
348
  8
0
 62
   123
 10
0.0
 20
0.0
 30
0.0
 70
   128
 71
   272
 72
   262
 73
   274
  0
VERTEX
  5
349
  8
0
 62
   123
 10
0.0
 20
0.0
 30
0.0
 70
   128
 71
   270
 72
   275
 73
   264
  0
VERTEX
  5
34A
  8
0
 62
   123
 10
0.0
 20
0.0
 30
0.0
 70
   128
 71
   259
 72
   277
 73
   276
  0
VERTEX
  5
34B
  8
0
 62
   123
 10
0.0
 20
0.0
 30
0.0
 70
   128
 71
   264
 72
   275
 73
   277
  0
VERTEX
  5
34C
  8
0
 62
   123
 10
0.0
 20
0.0
 30
0.0
 70
   128
 71
   260
 72
   259
 73
   267
  0
VERTEX
  5
34D
  8
0
 62
   123
 10
0.0
 20
0.0
 30
0.0
 70
   128
 71
   265
 72
   260
 73
   278
  0
VERTEX
  5
34E
  8
0
 62
   123
 10
0.0
 20
0.0
 30
0.0
 70
   128
 71
   264
 72
   263
 73
   270
  0
VERTEX
  5
34F
  8
0
 62
   123
 10
0.0
 20
0.0
 30
0.0
 70
   128
 71
   276
 72
   266
 73
   259
  0
VERTEX
  5
350
  8
0
 62
   123
 10
0.0
 20
0.0
 30
0.0
 70
   128
 71
   273
 72
   263
 73
   272
  0
VERTEX
  5
351
  8
0
 62
   123
 10
0.0
 20
0.0
 30
0.0
 70
   128
 71
   262
 72
   261
 73
   268
  0
VERTEX
  5
352
  8
0
 62
   123
 10
0.0
 20
0.0
 30
0.0
 70
   128
 71
   262
 72
   268
 73
   274
  0
VERTEX
  5
353
  8
0
 62
   123
 10
0.0
 20
0.0
 30
0.0
 70
   128
 71
   279
 72
   261
 73
   265
  0
VERTEX
  5
354
  8
0
 62
   123
 10
0.0
 20
0.0
 30
0.0
 70
   128
 71
   261
 72
   279
 73
   269
  0
VERTEX
  5
355
  8
0
 62
   123
 10
0.0
 20
0.0
 30
0.0
 70
   128
 71
   260
 72
   267
 73
   278
  0
VERTEX
  5
356
  8
0
 62
   123
 10
0.0
 20
0.0
 30
0.0
 70
   128
 71
   259
 72
   264
 73
   277
  0
SEQEND
  5
357
  8
0
 62
   123
  0
ENDBLK
  5
35B
  8
0
  0
BLOCK
  8
0
  2
5700-01
 70
     0
 10
0.0
 20
0.0
 30
0.0
  3
5700-01
  1

  0
POLYLINE
  5
35D
  8
0
 62
   123
 66
     1
 10
0.0
 20
0.0
 30
0.0
 70
    64
 71
   238
 72
   376
  0
VERTEX
  5
35E
  8
0
 10
2.0
 20
7.01507568359375
 30
-0.3353447616100311
 70
   192
  0
VERTEX
  5
35F
  8
0
 10
0.0
 20
7.01463794708252
 30
-0.3346996009349823
 70
   192
  0
VERTEX
  5
360
  8
0
 10
0.0
 20
7.695595264434814
 30
-0.7902532815933228
 70
   192
  0
VERTEX
  5
361
  8
0
 10
2.0
 20
6.547444343566895
 30
0.3765805959701538
 70
   192
  0
VERTEX
  5
362
  8
0
 10
2.0
 20
6.400000095367432
 30
1.149579524993896
 70
   192
  0
VERTEX
  5
363
  8
0
 10
0.0
 20
6.559934616088867
 30
0.3457589149475098
 70
   192
  0
VERTEX
  5
364
  8
0
 10
0.0
 20
6.400383949279785
 30
1.149579405784607
 70
   192
  0
VERTEX
  5
365
  8
0
 10
2.0
 20
7.727001190185547
 30
-0.8029759526252747
 70
   192
  0
VERTEX
  5
366
  8
0
 10
0.0
 20
8.5
 30
-0.9504204988479614
 70
   192
  0
VERTEX
  5
367
  8
0
 10
2.0
 20
8.5
 30
-0.9504204988479614
 70
   192
  0
VERTEX
  5
368
  8
0
 10
0.0
 20
-0.7839956879615784
 30
5.580626487731934
 70
   192
  0
VERTEX
  5
369
  8
0
 10
2.0
 20
-0.0000000000000001
 30
5.649579524993896
 70
   192
  0
VERTEX
  5
36A
  8
0
 10
0.0
 20
-0.0000000000000016
 30
5.649579524993896
 70
   192
  0
VERTEX
  5
36B
  8
0
 10
0.0
 20
0.7860656976699829
 30
5.580304622650146
 70
   192
  0
VERTEX
  5
36C
  8
0
 10
2.0
 20
0.7819215655326843
 30
5.580995559692383
 70
   192
  0
VERTEX
  5
36D
  8
0
 10
2.0
 20
1.539284825325012
 30
5.377861022949219
 70
   192
  0
VERTEX
  5
36E
  8
0
 10
0.0
 20
2.24833607673645
 30
5.047847747802734
 70
   192
  0
VERTEX
  5
36F
  8
0
 10
0.0
 20
1.541052103042603
 30
5.377431869506836
 70
   192
  0
VERTEX
  5
370
  8
0
 10
2.0
 20
2.249502897262573
 30
5.046534061431885
 70
   192
  0
VERTEX
  5
371
  8
0
 10
2.0
 20
2.892482995986938
 30
4.596508502960205
 70
   192
  0
VERTEX
  5
372
  8
0
 10
0.0
 20
2.892606973648071
 30
4.596555233001709
 70
   192
  0
VERTEX
  5
373
  8
0
 10
2.0
 20
3.445509672164917
 30
4.041304111480713
 70
   192
  0
VERTEX
  5
374
  8
0
 10
0.0
 20
3.45006537437439
 30
4.037957668304443
 70
   192
  0
VERTEX
  5
375
  8
0
 10
2.0
 20
4.431491374969482
 30
1.930465221405029
 70
   192
  0
VERTEX
  5
376
  8
0
 10
0.0
 20
4.228698253631592
 30
2.688590049743652
 70
   192
  0
VERTEX
  5
377
  8
0
 10
2.0
 20
4.226603507995605
 30
2.687548637390137
 70
   192
  0
VERTEX
  5
378
  8
0
 10
2.0
 20
3.894691228866577
 30
3.39828634262085
 70
   192
  0
VERTEX
  5
379
  8
0
 10
0.0
 20
3.899355411529541
 30
3.395290851593018
 70
   192
  0
VERTEX
  5
37A
  8
0
 10
0.0
 20
4.43072509765625
 30
1.935645222663879
 70
   192
  0
VERTEX
  5
37B
  8
0
 10
2.0
 20
4.5
 30
1.149579524993896
 70
   192
  0
VERTEX
  5
37C
  8
0
 10
0.0
 20
4.5
 30
1.149579524993896
 70
   192
  0
VERTEX
  5
37D
  8
0
 10
2.0
 20
-0.7807871699333191
 30
5.581332683563232
 70
   192
  0
VERTEX
  5
37E
  8
0
 10
0.0
 20
-1.539010643959045
 30
5.378277778625488
 70
   192
  0
VERTEX
  5
37F
  8
0
 10
2.0
 20
-1.538237929344177
 30
5.378568172454834
 70
   192
  0
VERTEX
  5
380
  8
0
 10
0.0
 20
-2.245711326599121
 30
5.048934936523438
 70
   192
  0
VERTEX
  5
381
  8
0
 10
2.0
 20
-2.249675750732422
 30
5.047147750854492
 70
   192
  0
VERTEX
  5
382
  8
0
 10
2.0
 20
-2.891831636428833
 30
4.597839832305908
 70
   192
  0
VERTEX
  5
383
  8
0
 10
0.0
 20
-2.888378143310547
 30
4.599645137786865
 70
   192
  0
VERTEX
  5
384
  8
0
 10
0.0
 20
-3.446975469589233
 30
4.042186260223389
 70
   192
  0
VERTEX
  5
385
  8
0
 10
2.0
 20
-3.446387529373169
 30
4.043483257293701
 70
   192
  0
VERTEX
  5
386
  8
0
 10
0.0
 20
-3.898268222808838
 30
3.397915363311768
 70
   192
  0
VERTEX
  5
387
  8
0
 10
2.0
 20
-3.88062310218811
 30
3.390377998352051
 70
   192
  0
VERTEX
  5
388
  8
0
 10
2.0
 20
-4.232133388519287
 30
2.691724300384521
 70
   192
  0
VERTEX
  5
389
  8
0
 10
0.0
 20
-4.227852344512939
 30
2.690631628036499
 70
   192
  0
VERTEX
  5
38A
  8
0
 10
0.0
 20
-4.43072509765625
 30
1.935645222663879
 70
   192
  0
VERTEX
  5
38B
  8
0
 10
2.0
 20
-4.431765556335449
 30
1.931761980056763
 70
   192
  0
VERTEX
  5
38C
  8
0
 10
0.0
 20
-4.5
 30
1.149579524993896
 70
   192
  0
VERTEX
  5
38D
  8
0
 10
2.0
 20
-4.5
 30
1.149579524993896
 70
   192
  0
VERTEX
  5
38E
  8
0
 10
5.5
 20
-16.0
 30
-7.433651924133301
 70
   192
  0
VERTEX
  5
38F
  8
0
 10
0.5
 20
-16.0
 30
7.382145881652832
 70
   192
  0
VERTEX
  5
390
  8
0
 10
5.5
 20
-16.0
 30
9.732810974121094
 70
   192
  0
VERTEX
  5
391
  8
0
 10
0.5
 20
-16.0
 30
-5.082986831665039
 70
   192
  0
VERTEX
  5
392
  8
0
 10
0.3930424749851227
 20
-15.93179130554199
 30
-5.310492038726807
 70
   192
  0
VERTEX
  5
393
  8
0
 10
5.5
 20
-15.85867881774902
 30
-7.818581104278564
 70
   192
  0
VERTEX
  5
394
  8
0
 10
0.3155100345611572
 20
-15.74864864349365
 30
-5.475407600402832
 70
   192
  0
VERTEX
  5
395
  8
0
 10
5.5
 20
-15.5
 30
-7.986151695251465
 70
   192
  0
VERTEX
  5
396
  8
0
 10
0.2872701585292816
 20
-15.5
 30
-5.535475730895996
 70
   192
  0
VERTEX
  5
397
  8
0
 10
2.0
 20
4.431765556335449
 30
0.3673970401287079
 70
   192
  0
VERTEX
  5
398
  8
0
 10
0.0
 20
4.43072509765625
 30
0.3635137677192688
 70
   192
  0
VERTEX
  5
399
  8
0
 10
0.0
 20
3.446975469589233
 30
-1.743027448654175
 70
   192
  0
VERTEX
  5
39A
  8
0
 10
0.0
 20
3.898268222808838
 30
-1.098756432533264
 70
   192
  0
VERTEX
  5
39B
  8
0
 10
2.0
 20
3.446387529373169
 30
-1.744324326515198
 70
   192
  0
VERTEX
  5
39C
  8
0
 10
2.0
 20
3.88062310218811
 30
-1.091218948364258
 70
   192
  0
VERTEX
  5
39D
  8
0
 10
0.0
 20
4.227852344512939
 30
-0.3914725780487061
 70
   192
  0
VERTEX
  5
39E
  8
0
 10
2.0
 20
4.232133388519287
 30
-0.3925653100013733
 70
   192
  0
VERTEX
  5
39F
  8
0
 10
2.0
 20
1.538237929344177
 30
-3.07940936088562
 70
   192
  0
VERTEX
  5
3A0
  8
0
 10
2.0
 20
0.7807871699333191
 30
-3.282173633575439
 70
   192
  0
VERTEX
  5
3A1
  8
0
 10
0.0
 20
1.539010643959045
 30
-3.079118728637695
 70
   192
  0
VERTEX
  5
3A2
  8
0
 10
0.0
 20
2.888378143310547
 30
-2.300486087799072
 70
   192
  0
VERTEX
  5
3A3
  8
0
 10
2.0
 20
2.249675750732422
 30
-2.747988939285278
 70
   192
  0
VERTEX
  5
3A4
  8
0
 10
0.0
 20
2.245711326599121
 30
-2.749775886535645
 70
   192
  0
VERTEX
  5
3A5
  8
0
 10
0.0
 20
-0.7860656976699829
 30
-3.281145572662354
 70
   192
  0
VERTEX
  5
3A6
  8
0
 10
2.0
 20
-0.7819215655326843
 30
-3.281836748123169
 70
   192
  0
VERTEX
  5
3A7
  8
0
 10
2.0
 20
-1.539284825325012
 30
-3.078702211380005
 70
   192
  0
VERTEX
  5
3A8
  8
0
 10
0.0
 20
-0.0000000000000002
 30
-3.350420475006104
 70
   192
  0
VERTEX
  5
3A9
  8
0
 10
2.0
 20
-0.0000000000000017
 30
-3.350420475006104
 70
   192
  0
VERTEX
  5
3AA
  8
0
 10
0.0
 20
-2.892606973648071
 30
-2.297396183013916
 70
   192
  0
VERTEX
  5
3AB
  8
0
 10
0.0
 20
-2.24833607673645
 30
-2.748688697814941
 70
   192
  0
VERTEX
  5
3AC
  8
0
 10
2.0
 20
-2.892482995986938
 30
-2.297349691390991
 70
   192
  0
VERTEX
  5
3AD
  8
0
 10
2.0
 20
-2.249502897262573
 30
-2.747375011444092
 70
   192
  0
VERTEX
  5
3AE
  8
0
 10
0.0
 20
-1.541052103042603
 30
-3.078273057937622
 70
   192
  0
VERTEX
  5
3AF
  8
0
 10
0.0
 20
-3.45006537437439
 30
-1.73879861831665
 70
   192
  0
VERTEX
  5
3B0
  8
0
 10
2.0
 20
-3.445509672164917
 30
-1.742145180702209
 70
   192
  0
VERTEX
  5
3B1
  8
0
 10
2.0
 20
-3.894691228866577
 30
-1.099127292633057
 70
   192
  0
VERTEX
  5
3B2
  8
0
 10
2.0
 20
-4.226603507995605
 30
-0.3883896172046661
 70
   192
  0
VERTEX
  5
3B3
  8
0
 10
0.0
 20
-3.899355411529541
 30
-1.096131801605225
 70
   192
  0
VERTEX
  5
3B4
  8
0
 10
2.0
 20
-4.431491374969482
 30
0.3686937093734741
 70
   192
  0
VERTEX
  5
3B5
  8
0
 10
0.0
 20
-4.228698253631592
 30
-0.3894311487674713
 70
   192
  0
VERTEX
  5
3B6
  8
0
 10
0.0
 20
-4.43072509765625
 30
0.3635137677192688
 70
   192
  0
VERTEX
  5
3B7
  8
0
 10
0.0
 20
0.7839956879615784
 30
-3.28146767616272
 70
   192
  0
VERTEX
  5
3B8
  8
0
 10
2.0
 20
2.891831636428833
 30
-2.298681020736694
 70
   192
  0
VERTEX
  5
3B9
  8
0
 10
0.0
 20
-0.0000000000000036
 30
7.382145881652832
 70
   192
  0
VERTEX
  5
3BA
  8
0
 10
0.0
 20
-9.0
 30
4.249579429626465
 70
   192
  0
VERTEX
  5
3BB
  8
0
 10
0.0
 20
-8.457268714904785
 30
4.178093433380127
 70
   192
  0
VERTEX
  5
3BC
  8
0
 10
0.0
 20
11.04439735412598
 30
-0.8797306418418884
 70
   192
  0
VERTEX
  5
3BD
  8
0
 10
0.0
 20
15.5
 30
-5.082986831665039
 70
   192
  0
VERTEX
  5
3BE
  8
0
 10
0.0
 20
11.55067348480225
 30
-0.6698476076126099
 70
   192
  0
VERTEX
  5
3BF
  8
0
 10
0.0
 20
-11.10000038146973
 30
2.149579524993896
 70
   192
  0
VERTEX
  5
3C0
  8
0
 10
0.0
 20
-11.02767944335938
 30
2.691450119018555
 70
   192
  0
VERTEX
  5
3C1
  8
0
 10
0.0
 20
-15.5
 30
7.382145881652832
 70
   192
  0
VERTEX
  5
3C2
  8
0
 10
0.0
 20
-7.950234413146973
 30
3.969273090362549
 70
   192
  0
VERTEX
  5
3C3
  8
0
 10
0.0000000000000001
 20
-7.513885974884033
 30
3.634868621826172
 70
   192
  0
VERTEX
  5
3C4
  8
0
 10
0.0
 20
-9.544970512390137
 30
4.17674732208252
 70
   192
  0
VERTEX
  5
3C5
  8
0
 10
0.0
 20
-10.48446369171143
 30
3.632657289505005
 70
   192
  0
VERTEX
  5
3C6
  8
0
 10
0.0
 20
-10.05074024200439
 30
3.965883016586304
 70
   192
  0
VERTEX
  5
3C7
  8
0
 10
0.0
 20
-10.81827354431152
 30
3.1972975730896
 70
   192
  0
VERTEX
  5
3C8
  8
0
 10
0.0
 20
-0.0000000000000036
 30
-5.082986831665039
 70
   192
  0
VERTEX
  5
3C9
  8
0
 10
0.0
 20
-9.0
 30
-1.950420498847961
 70
   192
  0
VERTEX
  5
3CA
  8
0
 10
0.0
 20
-15.5
 30
-5.082986831665039
 70
   192
  0
VERTEX
  5
3CB
  8
0
 10
0.0
 20
-11.10000038146973
 30
0.1495794802904129
 70
   192
  0
VERTEX
  5
3CC
  8
0
 10
0.0
 20
-10.81942749023438
 30
-0.9010939598083496
 70
   192
  0
VERTEX
  5
3CD
  8
0
 10
0.0
 20
-11.02931022644043
 30
-0.394817978143692
 70
   192
  0
VERTEX
  5
3CE
  8
0
 10
0.0
 20
-10.04976558685303
 30
-1.670114159584045
 70
   192
  0
VERTEX
  5
3CF
  8
0
 10
0.0000000000000001
 20
-10.48611354827881
 30
-1.335709691047668
 70
   192
  0
VERTEX
  5
3D0
  8
0
 10
0.0
 20
-9.542731285095215
 30
-1.878934383392334
 70
   192
  0
VERTEX
  5
3D1
  8
0
 10
0.0
 20
-7.949259757995605
 30
-1.6667240858078
 70
   192
  0
VERTEX
  5
3D2
  8
0
 10
0.0
 20
-8.455029487609863
 30
-1.877588510513306
 70
   192
  0
VERTEX
  5
3D3
  8
0
 10
0.0
 20
-7.181726932525635
 30
-0.8981385231018066
 70
   192
  0
VERTEX
  5
3D4
  8
0
 10
0.0
 20
-6.972320079803467
 30
-0.3922911882400513
 70
   192
  0
VERTEX
  5
3D5
  8
0
 10
0.0
 20
-7.515536308288574
 30
-1.333498358726501
 70
   192
  0
VERTEX
  5
3D6
  8
0
 10
0.0
 20
-6.900000095367432
 30
2.149579524993896
 70
   192
  0
VERTEX
  5
3D7
  8
0
 10
0.0
 20
-6.900000095367432
 30
0.1495794802904129
 70
   192
  0
VERTEX
  5
3D8
  8
0
 10
0.0
 20
15.5
 30
7.382145881652832
 70
   192
  0
VERTEX
  5
3D9
  8
0
 10
0.0
 20
8.5
 30
3.249579429626465
 70
   192
  0
VERTEX
  5
3DA
  8
0
 10
0.0
 20
10.5
 30
3.249579429626465
 70
   192
  0
VERTEX
  5
3DB
  8
0
 10
0.0
 20
7.697301387786865
 30
3.090080738067627
 70
   192
  0
VERTEX
  5
3DC
  8
0
 10
0.0
 20
6.559772968292236
 30
1.953024983406067
 70
   192
  0
VERTEX
  5
3DD
  8
0
 10
0.0
 20
7.015872955322266
 30
2.635000944137573
 70
   192
  0
VERTEX
  5
3DE
  8
0
 10
0.0
 20
10.5
 30
-0.9504204988479614
 70
   192
  0
VERTEX
  5
3DF
  8
0
 10
0.0
 20
12.52851390838623
 30
0.6068485975265503
 70
   192
  0
VERTEX
  5
3E0
  8
0
 10
0.0
 20
12.60000038146973
 30
1.149579524993896
 70
   192
  0
VERTEX
  5
3E1
  8
0
 10
0.0
 20
12.31969356536865
 30
0.0998136773705482
 70
   192
  0
VERTEX
  5
3E2
  8
0
 10
0.0000000000000001
 20
11.98528957366943
 30
-0.336534321308136
 70
   192
  0
VERTEX
  5
3E3
  8
0
 10
0.0
 20
12.52716827392578
 30
1.694550514221191
 70
   192
  0
VERTEX
  5
3E4
  8
0
 10
0.0
 20
11.98307800292969
 30
2.634042978286743
 70
   192
  0
VERTEX
  5
3E5
  8
0
 10
0.0
 20
12.31630325317383
 30
2.20032000541687
 70
   192
  0
VERTEX
  5
3E6
  8
0
 10
0.0
 20
11.04187107086182
 30
3.177259206771851
 70
   192
  0
VERTEX
  5
3E7
  8
0
 10
0.0
 20
11.5477180480957
 30
2.967852592468262
 70
   192
  0
VERTEX
  5
3E8
  8
0
 10
0.0
 20
-6.97068977355957
 30
2.693976879119873
 70
   192
  0
VERTEX
  5
3E9
  8
0
 10
0.0
 20
-7.180572986602783
 30
3.200253009796143
 70
   192
  0
VERTEX
  5
3EA
  8
0
 10
0.2529878318309784
 20
15.93424320220947
 30
-5.082986831665039
 70
   192
  0
VERTEX
  5
3EB
  8
0
 10
0.2513510584831238
 20
15.93362522125244
 30
7.382145881652832
 70
   192
  0
VERTEX
  5
3EC
  8
0
 10
0.0637488886713982
 20
15.74216461181641
 30
-5.082986831665039
 70
   192
  0
VERTEX
  5
3ED
  8
0
 10
0.5
 20
16.0
 30
7.382145881652832
 70
   192
  0
VERTEX
  5
3EE
  8
0
 10
0.5
 20
16.0
 30
-5.082986831665039
 70
   192
  0
VERTEX
  5
3EF
  8
0
 10
0.0682084336876869
 20
15.75139331817627
 30
7.382145881652832
 70
   192
  0
VERTEX
  5
3F0
  8
0
 10
0.1026345267891884
 20
15.72913551330566
 30
-5.272442817687988
 70
   192
  0
VERTEX
  5
3F1
  8
0
 10
0.2872701585292816
 20
15.5
 30
-5.535475730895996
 70
   192
  0
VERTEX
  5
3F2
  8
0
 10
0.1918606609106064
 20
15.6399097442627
 30
-5.445990085601807
 70
   192
  0
VERTEX
  5
3F3
  8
0
 10
0.1330674588680267
 20
15.5
 30
-5.421751499176025
 70
   192
  0
VERTEX
  5
3F4
  8
0
 10
0.0373107418417931
 20
15.5
 30
-5.270922183990479
 70
   192
  0
VERTEX
  5
3F5
  8
0
 10
0.3949062824249268
 20
15.93424320220947
 30
-5.306527614593506
 70
   192
  0
VERTEX
  5
3F6
  8
0
 10
0.2708645462989807
 20
15.89736557006836
 30
-5.272442817687988
 70
   192
  0
VERTEX
  5
3F7
  8
0
 10
0.3143927454948425
 20
15.74216461181641
 30
-5.477784156799316
 70
   192
  0
VERTEX
  5
3F8
  8
0
 10
0.0778833553195
 20
-15.5
 30
-5.350975036621094
 70
   192
  0
VERTEX
  5
3F9
  8
0
 10
0.2872701585292816
 20
0.0000000000000009
 30
-5.535475730895996
 70
   192
  0
VERTEX
  5
3FA
  8
0
 10
0.0778833553195
 20
-0.0000000000000024
 30
-5.350975036621094
 70
   192
  0
VERTEX
  5
3FB
  8
0
 10
0.1245702058076859
 20
-15.72856616973877
 30
-5.321334838867188
 70
   192
  0
VERTEX
  5
3FC
  8
0
 10
0.3105833232402802
 20
-15.94683361053467
 30
-5.203241348266602
 70
   192
  0
VERTEX
  5
3FD
  8
0
 10
0.2529878318309784
 20
-15.93424320220947
 30
-5.082986831665039
 70
   192
  0
VERTEX
  5
3FE
  8
0
 10
0.0637488886713982
 20
-15.74216461181641
 30
-5.082986831665039
 70
   192
  0
VERTEX
  5
3FF
  8
0
 10
0.0663750097155571
 20
-15.74864864349365
 30
7.382145881652832
 70
   192
  0
VERTEX
  5
400
  8
0
 10
0.2486071437597275
 20
-15.93179130554199
 30
7.382145881652832
 70
   192
  0
VERTEX
  5
401
  8
0
 10
0.1245702058076859
 20
-15.72856616973877
 30
7.62049388885498
 70
   192
  0
VERTEX
  5
402
  8
0
 10
0.3143927454948425
 20
-15.74216461181641
 30
7.776943206787109
 70
   192
  0
VERTEX
  5
403
  8
0
 10
0.3949062824249268
 20
-15.93424320220947
 30
7.605686187744141
 70
   192
  0
VERTEX
  5
404
  8
0
 10
0.3105833232402802
 20
-15.94683361053467
 30
7.502400398254395
 70
   192
  0
VERTEX
  5
405
  8
0
 10
0.0778833553195
 20
-15.5
 30
7.650134086608887
 70
   192
  0
VERTEX
  5
406
  8
0
 10
0.2872701585292816
 20
-15.5
 30
7.834634780883789
 70
   192
  0
VERTEX
  5
407
  8
0
 10
5.5
 20
-15.85867881774902
 30
10.1177396774292
 70
   192
  0
VERTEX
  5
408
  8
0
 10
5.5
 20
-15.5
 30
10.28531074523926
 70
   192
  0
VERTEX
  5
409
  8
0
 10
0.2872701585292816
 20
-0.0000000000000036
 30
7.834634780883789
 70
   192
  0
VERTEX
  5
40A
  8
0
 10
0.2872701585292816
 20
15.5
 30
7.834634780883789
 70
   192
  0
VERTEX
  5
40B
  8
0
 10
5.5
 20
15.5
 30
10.28531074523926
 70
   192
  0
VERTEX
  5
40C
  8
0
 10
0.0778833553195
 20
-0.0000000000000053
 30
7.650134086608887
 70
   192
  0
VERTEX
  5
40D
  8
0
 10
0.0373107418417931
 20
15.5
 30
7.570080757141113
 70
   192
  0
VERTEX
  5
40E
  8
0
 10
0.1330674588680267
 20
15.5
 30
7.720910549163818
 70
   192
  0
VERTEX
  5
40F
  8
0
 10
0.2310590147972107
 20
15.89736557006836
 30
7.508902549743652
 70
   192
  0
VERTEX
  5
410
  8
0
 10
0.1594839096069336
 20
15.72913551330566
 30
7.661147117614746
 70
   192
  0
VERTEX
  5
411
  8
0
 10
0.0403894037008286
 20
15.6399097442627
 30
7.506561756134033
 70
   192
  0
VERTEX
  5
412
  8
0
 10
0.3152469396591187
 20
15.7470121383667
 30
7.775126457214355
 70
   192
  0
VERTEX
  5
413
  8
0
 10
0.3969685137271881
 20
15.93625068664551
 30
7.60129976272583
 70
   192
  0
VERTEX
  5
414
  8
0
 10
5.5
 20
15.85867881774902
 30
10.1177396774292
 70
   192
  0
VERTEX
  5
415
  8
0
 10
5.5
 20
16.0
 30
9.732810974121094
 70
   192
  0
VERTEX
  5
416
  8
0
 10
5.5
 20
16.0
 30
-7.433651924133301
 70
   192
  0
VERTEX
  5
417
  8
0
 10
5.5
 20
15.85867881774902
 30
-7.818581104278564
 70
   192
  0
VERTEX
  5
418
  8
0
 10
5.5
 20
15.5
 30
-7.986151695251465
 70
   192
  0
VERTEX
  5
419
  8
0
 10
2.0
 20
11.04439735412598
 30
3.178889513015747
 70
   192
  0
VERTEX
  5
41A
  8
0
 10
2.0
 20
12.52851390838623
 30
1.692310333251953
 70
   192
  0
VERTEX
  5
41B
  8
0
 10
2.0
 20
12.31969356536865
 30
2.199345350265503
 70
   192
  0
VERTEX
  5
41C
  8
0
 10
2.0
 20
11.98528957366943
 30
2.635693311691284
 70
   192
  0
VERTEX
  5
41D
  8
0
 10
2.0
 20
11.55067348480225
 30
2.969006538391113
 70
   192
  0
VERTEX
  5
41E
  8
0
 10
2.0
 20
12.52716827392578
 30
0.6046084761619568
 70
   192
  0
VERTEX
  5
41F
  8
0
 10
2.0
 20
12.31630325317383
 30
0.0988390073180199
 70
   192
  0
VERTEX
  5
420
  8
0
 10
2.0
 20
12.60000038146973
 30
1.149579524993896
 70
   192
  0
VERTEX
  5
421
  8
0
 10
2.0
 20
11.98307800292969
 30
-0.3348840177059174
 70
   192
  0
VERTEX
  5
422
  8
0
 10
2.0
 20
11.5477180480957
 30
-0.6686936616897583
 70
   192
  0
VERTEX
  5
423
  8
0
 10
2.0
 20
11.04187107086182
 30
-0.8781003355979919
 70
   192
  0
VERTEX
  5
424
  8
0
 10
2.0
 20
10.5
 30
-0.9504204988479614
 70
   192
  0
VERTEX
  5
425
  8
0
 10
2.0
 20
10.5
 30
3.249579429626465
 70
   192
  0
VERTEX
  5
426
  8
0
 10
2.0
 20
6.547444343566895
 30
1.92257833480835
 70
   192
  0
VERTEX
  5
427
  8
0
 10
2.0
 20
7.727001190185547
 30
3.102134943008423
 70
   192
  0
VERTEX
  5
428
  8
0
 10
2.0
 20
8.5
 30
3.249579429626465
 70
   192
  0
VERTEX
  5
429
  8
0
 10
2.0
 20
7.01507568359375
 30
2.634503841400146
 70
   192
  0
VERTEX
  5
42A
  8
0
 10
2.0
 20
-6.900000095367432
 30
0.1495794802904129
 70
   192
  0
VERTEX
  5
42B
  8
0
 10
2.0
 20
-6.900000095367432
 30
2.149579524993896
 70
   192
  0
VERTEX
  5
42C
  8
0
 10
2.0
 20
-6.97068977355957
 30
-0.394817978143692
 70
   192
  0
VERTEX
  5
42D
  8
0
 10
2.0
 20
-8.457268714904785
 30
-1.878934383392334
 70
   192
  0
VERTEX
  5
42E
  8
0
 10
2.0
 20
-7.950234413146973
 30
-1.670114159584045
 70
   192
  0
VERTEX
  5
42F
  8
0
 10
2.0
 20
-7.513885974884033
 30
-1.335709691047668
 70
   192
  0
VERTEX
  5
430
  8
0
 10
2.0
 20
-7.180572986602783
 30
-0.9010939598083496
 70
   192
  0
VERTEX
  5
431
  8
0
 10
2.0
 20
-9.544970512390137
 30
-1.877588510513306
 70
   192
  0
VERTEX
  5
432
  8
0
 10
2.0
 20
-10.05074024200439
 30
-1.6667240858078
 70
   192
  0
VERTEX
  5
433
  8
0
 10
2.0
 20
-9.0
 30
-1.950420498847961
 70
   192
  0
VERTEX
  5
434
  8
0
 10
2.0
 20
-10.48446369171143
 30
-1.333498358726501
 70
   192
  0
VERTEX
  5
435
  8
0
 10
2.0
 20
-10.81827354431152
 30
-0.8981385231018066
 70
   192
  0
VERTEX
  5
436
  8
0
 10
2.0
 20
-11.02767944335938
 30
-0.3922911882400513
 70
   192
  0
VERTEX
  5
437
  8
0
 10
2.0
 20
-11.10000038146973
 30
0.1495794802904129
 70
   192
  0
VERTEX
  5
438
  8
0
 10
2.0
 20
-11.10000038146973
 30
2.149579524993896
 70
   192
  0
VERTEX
  5
439
  8
0
 10
2.0
 20
-11.02931022644043
 30
2.693976879119873
 70
   192
  0
VERTEX
  5
43A
  8
0
 10
2.0
 20
-9.542731285095215
 30
4.178093433380127
 70
   192
  0
VERTEX
  5
43B
  8
0
 10
2.0
 20
-10.04976558685303
 30
3.969273090362549
 70
   192
  0
VERTEX
  5
43C
  8
0
 10
2.0
 20
-10.48611354827881
 30
3.634868621826172
 70
   192
  0
VERTEX
  5
43D
  8
0
 10
2.0
 20
-10.81942749023438
 30
3.200253009796143
 70
   192
  0
VERTEX
  5
43E
  8
0
 10
2.0
 20
-8.455029487609863
 30
4.17674732208252
 70
   192
  0
VERTEX
  5
43F
  8
0
 10
2.0
 20
-7.949259757995605
 30
3.965883016586304
 70
   192
  0
VERTEX
  5
440
  8
0
 10
2.0
 20
-9.0
 30
4.249579429626465
 70
   192
  0
VERTEX
  5
441
  8
0
 10
2.0
 20
-7.515536308288574
 30
3.632657289505005
 70
   192
  0
VERTEX
  5
442
  8
0
 10
2.0
 20
-7.181726932525635
 30
3.1972975730896
 70
   192
  0
VERTEX
  5
443
  8
0
 10
2.0
 20
-6.972320079803467
 30
2.691450119018555
 70
   192
  0
VERTEX
  5
444
  8
0
 10
5.5
 20
-14.0
 30
-5.776151657104492
 70
   192
  0
VERTEX
  5
445
  8
0
 10
2.0
 20
14.0
 30
-4.130686283111572
 70
   192
  0
VERTEX
  5
446
  8
0
 10
5.5
 20
14.0
 30
-5.776151657104492
 70
   192
  0
VERTEX
  5
447
  8
0
 10
2.0
 20
-14.0
 30
-4.130686283111572
 70
   192
  0
VERTEX
  5
448
  8
0
 10
2.0
 20
14.0
 30
6.429845333099365
 70
   192
  0
VERTEX
  5
449
  8
0
 10
5.5
 20
14.0
 30
8.075310707092285
 70
   192
  0
VERTEX
  5
44A
  8
0
 10
2.0
 20
-14.0
 30
6.429845333099365
 70
   192
  0
VERTEX
  5
44B
  8
0
 10
5.5
 20
-14.0
 30
8.075310707092285
 70
   192
  0
VERTEX
  5
44C
  8
0
 62
   123
 10
0.0
 20
0.0
 30
0.0
 70
   128
 71
     3
 72
     2
 73
     1
  0
VERTEX
  5
44D
  8
0
 62
   123
 10
0.0
 20
0.0
 30
0.0
 70
   128
 71
     6
 72
     5
 73
     4
  0
VERTEX
  5
44E
  8
0
 62
   123
 10
0.0
 20
0.0
 30
0.0
 70
   128
 71
     2
 72
     6
 73
     4
  0
VERTEX
  5
44F
  8
0
 62
   123
 10
0.0
 20
0.0
 30
0.0
 70
   128
 71
     6
 72
     7
 73
     5
  0
VERTEX
  5
450
  8
0
 62
   123
 10
0.0
 20
0.0
 30
0.0
 70
   128
 71
     4
 72
     1
 73
     2
  0
VERTEX
  5
451
  8
0
 62
   123
 10
0.0
 20
0.0
 30
0.0
 70
   128
 71
     3
 72
     1
 73
     8
  0
VERTEX
  5
452
  8
0
 62
   123
 10
0.0
 20
0.0
 30
0.0
 70
   128
 71
     8
 72
    10
 73
     9
  0
VERTEX
  5
453
  8
0
 62
   123
 10
0.0
 20
0.0
 30
0.0
 70
   128
 71
     9
 72
     3
 73
     8
  0
VERTEX
  5
454
  8
0
 62
   123
 10
0.0
 20
0.0
 30
0.0
 70
   128
 71
    13
 72
    12
 73
    11
  0
VERTEX
  5
455
  8
0
 62
   123
 10
0.0
 20
0.0
 30
0.0
 70
   128
 71
    16
 72
    15
 73
    14
  0
VERTEX
  5
456
  8
0
 62
   123
 10
0.0
 20
0.0
 30
0.0
 70
   128
 71
    13
 72
    15
 73
    12
  0
VERTEX
  5
457
  8
0
 62
   123
 10
0.0
 20
0.0
 30
0.0
 70
   128
 71
    19
 72
    18
 73
    17
  0
VERTEX
  5
458
  8
0
 62
   123
 10
0.0
 20
0.0
 30
0.0
 70
   128
 71
    14
 72
    18
 73
    16
  0
VERTEX
  5
459
  8
0
 62
   123
 10
0.0
 20
0.0
 30
0.0
 70
   128
 71
    19
 72
    16
 73
    18
  0
VERTEX
  5
45A
  8
0
 62
   123
 10
0.0
 20
0.0
 30
0.0
 70
   128
 71
    14
 72
    15
 73
    13
  0
VERTEX
  5
45B
  8
0
 62
   123
 10
0.0
 20
0.0
 30
0.0
 70
   128
 71
    17
 72
    20
 73
    19
  0
VERTEX
  5
45C
  8
0
 62
   123
 10
0.0
 20
0.0
 30
0.0
 70
   128
 71
    23
 72
    22
 73
    21
  0
VERTEX
  5
45D
  8
0
 62
   123
 10
0.0
 20
0.0
 30
0.0
 70
   128
 71
    17
 72
    21
 73
    20
  0
VERTEX
  5
45E
  8
0
 62
   123
 10
0.0
 20
0.0
 30
0.0
 70
   128
 71
    26
 72
    25
 73
    24
  0
VERTEX
  5
45F
  8
0
 62
   123
 10
0.0
 20
0.0
 30
0.0
 70
   128
 71
    22
 72
    23
 73
    27
  0
VERTEX
  5
460
  8
0
 62
   123
 10
0.0
 20
0.0
 30
0.0
 70
   128
 71
    27
 72
    28
 73
    26
  0
VERTEX
  5
461
  8
0
 62
   123
 10
0.0
 20
0.0
 30
0.0
 70
   128
 71
    28
 72
    25
 73
    26
  0
VERTEX
  5
462
  8
0
 62
   123
 10
0.0
 20
0.0
 30
0.0
 70
   128
 71
    24
 72
    25
 73
    29
  0
VERTEX
  5
463
  8
0
 62
   123
 10
0.0
 20
0.0
 30
0.0
 70
   128
 71
    23
 72
    28
 73
    27
  0
VERTEX
  5
464
  8
0
 62
   123
 10
0.0
 20
0.0
 30
0.0
 70
   128
 71
    29
 72
    30
 73
    24
  0
VERTEX
  5
465
  8
0
 62
   123
 10
0.0
 20
0.0
 30
0.0
 70
   128
 71
    31
 72
    30
 73
    29
  0
VERTEX
  5
466
  8
0
 62
   123
 10
0.0
 20
0.0
 30
0.0
 70
   128
 71
    20
 72
    21
 73
    22
  0
VERTEX
  5
467
  8
0
 62
   123
 10
0.0
 20
0.0
 30
0.0
 70
   128
 71
    12
 72
    32
 73
    11
  0
VERTEX
  5
468
  8
0
 62
   123
 10
0.0
 20
0.0
 30
0.0
 70
   128
 71
    34
 72
    33
 73
    32
  0
VERTEX
  5
469
  8
0
 62
   123
 10
0.0
 20
0.0
 30
0.0
 70
   128
 71
    11
 72
    32
 73
    33
  0
VERTEX
  5
46A
  8
0
 62
   123
 10
0.0
 20
0.0
 30
0.0
 70
   128
 71
    34
 72
    36
 73
    35
  0
VERTEX
  5
46B
  8
0
 62
   123
 10
0.0
 20
0.0
 30
0.0
 70
   128
 71
    35
 72
    33
 73
    34
  0
VERTEX
  5
46C
  8
0
 62
   123
 10
0.0
 20
0.0
 30
0.0
 70
   128
 71
    38
 72
    36
 73
    37
  0
VERTEX
  5
46D
  8
0
 62
   123
 10
0.0
 20
0.0
 30
0.0
 70
   128
 71
    36
 72
    38
 73
    35
  0
VERTEX
  5
46E
  8
0
 62
   123
 10
0.0
 20
0.0
 30
0.0
 70
   128
 71
    40
 72
    39
 73
    37
  0
VERTEX
  5
46F
  8
0
 62
   123
 10
0.0
 20
0.0
 30
0.0
 70
   128
 71
    38
 72
    37
 73
    39
  0
VERTEX
  5
470
  8
0
 62
   123
 10
0.0
 20
0.0
 30
0.0
 70
   128
 71
    40
 72
    42
 73
    41
  0
VERTEX
  5
471
  8
0
 62
   123
 10
0.0
 20
0.0
 30
0.0
 70
   128
 71
    41
 72
    39
 73
    40
  0
VERTEX
  5
472
  8
0
 62
   123
 10
0.0
 20
0.0
 30
0.0
 70
   128
 71
    44
 72
    42
 73
    43
  0
VERTEX
  5
473
  8
0
 62
   123
 10
0.0
 20
0.0
 30
0.0
 70
   128
 71
    42
 72
    44
 73
    41
  0
VERTEX
  5
474
  8
0
 62
   123
 10
0.0
 20
0.0
 30
0.0
 70
   128
 71
    46
 72
    45
 73
    43
  0
VERTEX
  5
475
  8
0
 62
   123
 10
0.0
 20
0.0
 30
0.0
 70
   128
 71
    44
 72
    43
 73
    45
  0
VERTEX
  5
476
  8
0
 62
   123
 10
0.0
 20
0.0
 30
0.0
 70
   128
 71
    46
 72
    48
 73
    47
  0
VERTEX
  5
477
  8
0
 62
   123
 10
0.0
 20
0.0
 30
0.0
 70
   128
 71
    47
 72
    45
 73
    46
  0
VERTEX
  5
478
  8
0
 62
   123
 10
0.0
 20
0.0
 30
0.0
 70
   128
 71
    51
 72
    50
 73
    49
  0
VERTEX
  5
479
  8
0
 62
   123
 10
0.0
 20
0.0
 30
0.0
 70
   128
 71
    50
 72
    52
 73
    49
  0
VERTEX
  5
47A
  8
0
 62
   123
 10
0.0
 20
0.0
 30
0.0
 70
   128
 71
    55
 72
    54
 73
    53
  0
VERTEX
  5
47B
  8
0
 62
   123
 10
0.0
 20
0.0
 30
0.0
 70
   128
 71
    56
 72
    54
 73
    55
  0
VERTEX
  5
47C
  8
0
 62
   123
 10
0.0
 20
0.0
 30
0.0
 70
   128
 71
    57
 72
    56
 73
    55
  0
VERTEX
  5
47D
  8
0
 62
   123
 10
0.0
 20
0.0
 30
0.0
 70
   128
 71
    54
 72
    49
 73
    53
  0
VERTEX
  5
47E
  8
0
 62
   123
 10
0.0
 20
0.0
 30
0.0
 70
   128
 71
    49
 72
    52
 73
    53
  0
VERTEX
  5
47F
  8
0
 62
   123
 10
0.0
 20
0.0
 30
0.0
 70
   128
 71
    59
 72
    58
 73
    31
  0
VERTEX
  5
480
  8
0
 62
   123
 10
0.0
 20
0.0
 30
0.0
 70
   128
 71
    62
 72
    61
 73
    60
  0
VERTEX
  5
481
  8
0
 62
   123
 10
0.0
 20
0.0
 30
0.0
 70
   128
 71
    65
 72
    64
 73
    63
  0
VERTEX
  5
482
  8
0
 62
   123
 10
0.0
 20
0.0
 30
0.0
 70
   128
 71
    68
 72
    67
 73
    66
  0
VERTEX
  5
483
  8
0
 62
   123
 10
0.0
 20
0.0
 30
0.0
 70
   128
 71
    71
 72
    70
 73
    69
  0
VERTEX
  5
484
  8
0
 62
   123
 10
0.0
 20
0.0
 30
0.0
 70
   128
 71
    74
 72
    73
 73
    72
  0
VERTEX
  5
485
  8
0
 62
   123
 10
0.0
 20
0.0
 30
0.0
 70
   128
 71
    76
 72
    75
 73
    73
  0
VERTEX
  5
486
  8
0
 62
   123
 10
0.0
 20
0.0
 30
0.0
 70
   128
 71
    79
 72
    78
 73
    77
  0
VERTEX
  5
487
  8
0
 62
   123
 10
0.0
 20
0.0
 30
0.0
 70
   128
 71
    81
 72
    78
 73
    80
  0
VERTEX
  5
488
  8
0
 62
   123
 10
0.0
 20
0.0
 30
0.0
 70
   128
 71
    84
 72
    83
 73
    82
  0
VERTEX
  5
489
  8
0
 62
   123
 10
0.0
 20
0.0
 30
0.0
 70
   128
 71
    77
 72
    82
 73
    83
  0
VERTEX
  5
48A
  8
0
 62
   123
 10
0.0
 20
0.0
 30
0.0
 70
   128
 71
    86
 72
    85
 73
    84
  0
VERTEX
  5
48B
  8
0
 62
   123
 10
0.0
 20
0.0
 30
0.0
 70
   128
 71
    84
 72
    82
 73
    86
  0
VERTEX
  5
48C
  8
0
 62
   123
 10
0.0
 20
0.0
 30
0.0
 70
   128
 71
    85
 72
    88
 73
    87
  0
VERTEX
  5
48D
  8
0
 62
   123
 10
0.0
 20
0.0
 30
0.0
 70
   128
 71
    88
 72
    85
 73
    86
  0
VERTEX
  5
48E
  8
0
 62
   123
 10
0.0
 20
0.0
 30
0.0
 70
   128
 71
    48
 72
    87
 73
    89
  0
VERTEX
  5
48F
  8
0
 62
   123
 10
0.0
 20
0.0
 30
0.0
 70
   128
 71
    88
 72
    89
 73
    87
  0
VERTEX
  5
490
  8
0
 62
   123
 10
0.0
 20
0.0
 30
0.0
 70
   128
 71
    48
 72
    89
 73
    47
  0
VERTEX
  5
491
  8
0
 62
   123
 10
0.0
 20
0.0
 30
0.0
 70
   128
 71
    80
 72
    74
 73
    81
  0
VERTEX
  5
492
  8
0
 62
   123
 10
0.0
 20
0.0
 30
0.0
 70
   128
 71
    78
 72
    79
 73
    80
  0
VERTEX
  5
493
  8
0
 62
   123
 10
0.0
 20
0.0
 30
0.0
 70
   128
 71
    79
 72
    77
 73
    83
  0
VERTEX
  5
494
  8
0
 62
   123
 10
0.0
 20
0.0
 30
0.0
 70
   128
 71
    75
 72
    72
 73
    73
  0
VERTEX
  5
495
  8
0
 62
   123
 10
0.0
 20
0.0
 30
0.0
 70
   128
 71
    74
 72
    72
 73
    81
  0
VERTEX
  5
496
  8
0
 62
   123
 10
0.0
 20
0.0
 30
0.0
 70
   128
 71
    90
 72
    76
 73
    67
  0
VERTEX
  5
497
  8
0
 62
   123
 10
0.0
 20
0.0
 30
0.0
 70
   128
 71
    76
 72
    90
 73
    75
  0
VERTEX
  5
498
  8
0
 62
   123
 10
0.0
 20
0.0
 30
0.0
 70
   128
 71
    66
 72
    70
 73
    71
  0
VERTEX
  5
499
  8
0
 62
   123
 10
0.0
 20
0.0
 30
0.0
 70
   128
 71
    66
 72
    71
 73
    68
  0
VERTEX
  5
49A
  8
0
 62
   123
 10
0.0
 20
0.0
 30
0.0
 70
   128
 71
    90
 72
    67
 73
    68
  0
VERTEX
  5
49B
  8
0
 62
   123
 10
0.0
 20
0.0
 30
0.0
 70
   128
 71
    70
 72
    91
 73
    69
  0
VERTEX
  5
49C
  8
0
 62
   123
 10
0.0
 20
0.0
 30
0.0
 70
   128
 71
    62
 72
    63
 73
    61
  0
VERTEX
  5
49D
  8
0
 62
   123
 10
0.0
 20
0.0
 30
0.0
 70
   128
 71
    62
 72
    60
 73
    91
  0
VERTEX
  5
49E
  8
0
 62
   123
 10
0.0
 20
0.0
 30
0.0
 70
   128
 71
    60
 72
    69
 73
    91
  0
VERTEX
  5
49F
  8
0
 62
   123
 10
0.0
 20
0.0
 30
0.0
 70
   128
 71
    59
 72
    64
 73
    65
  0
VERTEX
  5
4A0
  8
0
 62
   123
 10
0.0
 20
0.0
 30
0.0
 70
   128
 71
    63
 72
    64
 73
    61
  0
VERTEX
  5
4A1
  8
0
 62
   123
 10
0.0
 20
0.0
 30
0.0
 70
   128
 71
    58
 72
    30
 73
    31
  0
VERTEX
  5
4A2
  8
0
 62
   123
 10
0.0
 20
0.0
 30
0.0
 70
   128
 71
    65
 72
    58
 73
    59
  0
VERTEX
  5
4A3
  8
0
 62
   123
 10
0.0
 20
0.0
 30
0.0
 70
   128
 71
    94
 72
    93
 73
    92
  0
VERTEX
  5
4A4
  8
0
 62
   123
 10
0.0
 20
0.0
 30
0.0
 70
   128
 71
     2
 72
    61
 73
    64
  0
VERTEX
  5
4A5
  8
0
 62
   123
 10
0.0
 20
0.0
 30
0.0
 70
   128
 71
    97
 72
    96
 73
    95
  0
VERTEX
  5
4A6
  8
0
 62
   123
 10
0.0
 20
0.0
 30
0.0
 70
   128
 71
   100
 72
    99
 73
    98
  0
VERTEX
  5
4A7
  8
0
 62
   123
 10
0.0
 20
0.0
 30
0.0
 70
   128
 71
    38
 72
   101
 73
    94
  0
VERTEX
  5
4A8
  8
0
 62
   123
 10
0.0
 20
0.0
 30
0.0
 70
   128
 71
   101
 72
    39
 73
   102
  0
VERTEX
  5
4A9
  8
0
 62
   123
 10
0.0
 20
0.0
 30
0.0
 70
   128
 71
    33
 72
    92
 73
    11
  0
VERTEX
  5
4AA
  8
0
 62
   123
 10
0.0
 20
0.0
 30
0.0
 70
   128
 71
    11
 72
    92
 73
    13
  0
VERTEX
  5
4AB
  8
0
 62
   123
 10
0.0
 20
0.0
 30
0.0
 70
   128
 71
    92
 72
    33
 73
    35
  0
VERTEX
  5
4AC
  8
0
 62
   123
 10
0.0
 20
0.0
 30
0.0
 70
   128
 71
   100
 72
    93
 73
   103
  0
VERTEX
  5
4AD
  8
0
 62
   123
 10
0.0
 20
0.0
 30
0.0
 70
   128
 71
    93
 72
   100
 73
    92
  0
VERTEX
  5
4AE
  8
0
 62
   123
 10
0.0
 20
0.0
 30
0.0
 70
   128
 71
   100
 72
   105
 73
   104
  0
VERTEX
  5
4AF
  8
0
 62
   123
 10
0.0
 20
0.0
 30
0.0
 70
   128
 71
   103
 72
   105
 73
   100
  0
VERTEX
  5
4B0
  8
0
 62
   123
 10
0.0
 20
0.0
 30
0.0
 70
   128
 71
   106
 72
    99
 73
   100
  0
VERTEX
  5
4B1
  8
0
 62
   123
 10
0.0
 20
0.0
 30
0.0
 70
   128
 71
   104
 72
   106
 73
   100
  0
VERTEX
  5
4B2
  8
0
 62
   123
 10
0.0
 20
0.0
 30
0.0
 70
   128
 71
   109
 72
   108
 73
   107
  0
VERTEX
  5
4B3
  8
0
 62
   123
 10
0.0
 20
0.0
 30
0.0
 70
   128
 71
   110
 72
   100
 73
    98
  0
VERTEX
  5
4B4
  8
0
 62
   123
 10
0.0
 20
0.0
 30
0.0
 70
   128
 71
   110
 72
   109
 73
   100
  0
VERTEX
  5
4B5
  8
0
 62
   123
 10
0.0
 20
0.0
 30
0.0
 70
   128
 71
   109
 72
   112
 73
   111
  0
VERTEX
  5
4B6
  8
0
 62
   123
 10
0.0
 20
0.0
 30
0.0
 70
   128
 71
   110
 72
   112
 73
   109
  0
VERTEX
  5
4B7
  8
0
 62
   123
 10
0.0
 20
0.0
 30
0.0
 70
   128
 71
   109
 72
   114
 73
   113
  0
VERTEX
  5
4B8
  8
0
 62
   123
 10
0.0
 20
0.0
 30
0.0
 70
   128
 71
   111
 72
   114
 73
   109
  0
VERTEX
  5
4B9
  8
0
 62
   123
 10
0.0
 20
0.0
 30
0.0
 70
   128
 71
   115
 72
   108
 73
   109
  0
VERTEX
  5
4BA
  8
0
 62
   123
 10
0.0
 20
0.0
 30
0.0
 70
   128
 71
   113
 72
   115
 73
   109
  0
VERTEX
  5
4BB
  8
0
 62
   123
 10
0.0
 20
0.0
 30
0.0
 70
   128
 71
   117
 72
   116
 73
    77
  0
VERTEX
  5
4BC
  8
0
 62
   123
 10
0.0
 20
0.0
 30
0.0
 70
   128
 71
   108
 72
   117
 73
   107
  0
VERTEX
  5
4BD
  8
0
 62
   123
 10
0.0
 20
0.0
 30
0.0
 70
   128
 71
   119
 72
    88
 73
   118
  0
VERTEX
  5
4BE
  8
0
 62
   123
 10
0.0
 20
0.0
 30
0.0
 70
   128
 71
    86
 72
    82
 73
   120
  0
VERTEX
  5
4BF
  8
0
 62
   123
 10
0.0
 20
0.0
 30
0.0
 70
   128
 71
   122
 72
   121
 73
    47
  0
VERTEX
  5
4C0
  8
0
 62
   123
 10
0.0
 20
0.0
 30
0.0
 70
   128
 71
    89
 72
   119
 73
   122
  0
VERTEX
  5
4C1
  8
0
 62
   123
 10
0.0
 20
0.0
 30
0.0
 70
   128
 71
    47
 72
    89
 73
   122
  0
VERTEX
  5
4C2
  8
0
 62
   123
 10
0.0
 20
0.0
 30
0.0
 70
   128
 71
     2
 72
    64
 73
     6
  0
VERTEX
  5
4C3
  8
0
 62
   123
 10
0.0
 20
0.0
 30
0.0
 70
   128
 71
   125
 72
   124
 73
   123
  0
VERTEX
  5
4C4
  8
0
 62
   123
 10
0.0
 20
0.0
 30
0.0
 70
   128
 71
   126
 72
    23
 73
    21
  0
VERTEX
  5
4C5
  8
0
 62
   123
 10
0.0
 20
0.0
 30
0.0
 70
   128
 71
    17
 72
   123
 73
   124
  0
VERTEX
  5
4C6
  8
0
 62
   123
 10
0.0
 20
0.0
 30
0.0
 70
   128
 71
    29
 72
   127
 73
     7
  0
VERTEX
  5
4C7
  8
0
 62
   123
 10
0.0
 20
0.0
 30
0.0
 70
   128
 71
    25
 72
    28
 73
   128
  0
VERTEX
  5
4C8
  8
0
 62
   123
 10
0.0
 20
0.0
 30
0.0
 70
   128
 71
    78
 72
   107
 73
   117
  0
VERTEX
  5
4C9
  8
0
 62
   123
 10
0.0
 20
0.0
 30
0.0
 70
   128
 71
    61
 72
     2
 73
     3
  0
VERTEX
  5
4CA
  8
0
 62
   123
 10
0.0
 20
0.0
 30
0.0
 70
   128
 71
   107
 72
    68
 73
    71
  0
VERTEX
  5
4CB
  8
0
 62
   123
 10
0.0
 20
0.0
 30
0.0
 70
   128
 71
    96
 72
   107
 73
    71
  0
VERTEX
  5
4CC
  8
0
 62
   123
 10
0.0
 20
0.0
 30
0.0
 70
   128
 71
     9
 72
   129
 73
    96
  0
VERTEX
  5
4CD
  8
0
 62
   123
 10
0.0
 20
0.0
 30
0.0
 70
   128
 71
   131
 72
    96
 73
   130
  0
VERTEX
  5
4CE
  8
0
 62
   123
 10
0.0
 20
0.0
 30
0.0
 70
   128
 71
   129
 72
    95
 73
    96
  0
VERTEX
  5
4CF
  8
0
 62
   123
 10
0.0
 20
0.0
 30
0.0
 70
   128
 71
    96
 72
   133
 73
   132
  0
VERTEX
  5
4D0
  8
0
 62
   123
 10
0.0
 20
0.0
 30
0.0
 70
   128
 71
    97
 72
   133
 73
    96
  0
VERTEX
  5
4D1
  8
0
 62
   123
 10
0.0
 20
0.0
 30
0.0
 70
   128
 71
   132
 72
   130
 73
    96
  0
VERTEX
  5
4D2
  8
0
 62
   123
 10
0.0
 20
0.0
 30
0.0
 70
   128
 71
   123
 72
   131
 73
   134
  0
VERTEX
  5
4D3
  8
0
 62
   123
 10
0.0
 20
0.0
 30
0.0
 70
   128
 71
   131
 72
   123
 73
    96
  0
VERTEX
  5
4D4
  8
0
 62
   123
 10
0.0
 20
0.0
 30
0.0
 70
   128
 71
   123
 72
   136
 73
   135
  0
VERTEX
  5
4D5
  8
0
 62
   123
 10
0.0
 20
0.0
 30
0.0
 70
   128
 71
   134
 72
   136
 73
   123
  0
VERTEX
  5
4D6
  8
0
 62
   123
 10
0.0
 20
0.0
 30
0.0
 70
   128
 71
   123
 72
   138
 73
   137
  0
VERTEX
  5
4D7
  8
0
 62
   123
 10
0.0
 20
0.0
 30
0.0
 70
   128
 71
   135
 72
   138
 73
   123
  0
VERTEX
  5
4D8
  8
0
 62
   123
 10
0.0
 20
0.0
 30
0.0
 70
   128
 71
   123
 72
   137
 73
   125
  0
VERTEX
  5
4D9
  8
0
 62
   123
 10
0.0
 20
0.0
 30
0.0
 70
   128
 71
    92
 72
   123
 73
    17
  0
VERTEX
  5
4DA
  8
0
 62
   123
 10
0.0
 20
0.0
 30
0.0
 70
   128
 71
   140
 72
    44
 73
   139
  0
VERTEX
  5
4DB
  8
0
 62
   123
 10
0.0
 20
0.0
 30
0.0
 70
   128
 71
    86
 72
   118
 73
    88
  0
VERTEX
  5
4DC
  8
0
 62
   123
 10
0.0
 20
0.0
 30
0.0
 70
   128
 71
    88
 72
   119
 73
    89
  0
VERTEX
  5
4DD
  8
0
 62
   123
 10
0.0
 20
0.0
 30
0.0
 70
   128
 71
    82
 72
   116
 73
   120
  0
VERTEX
  5
4DE
  8
0
 62
   123
 10
0.0
 20
0.0
 30
0.0
 70
   128
 71
    86
 72
   120
 73
   118
  0
VERTEX
  5
4DF
  8
0
 62
   123
 10
0.0
 20
0.0
 30
0.0
 70
   128
 71
    78
 72
   117
 73
    77
  0
VERTEX
  5
4E0
  8
0
 62
   123
 10
0.0
 20
0.0
 30
0.0
 70
   128
 71
    82
 72
    77
 73
   116
  0
VERTEX
  5
4E1
  8
0
 62
   123
 10
0.0
 20
0.0
 30
0.0
 70
   128
 71
   107
 72
    81
 73
    72
  0
VERTEX
  5
4E2
  8
0
 62
   123
 10
0.0
 20
0.0
 30
0.0
 70
   128
 71
    78
 72
    81
 73
   107
  0
VERTEX
  5
4E3
  8
0
 62
   123
 10
0.0
 20
0.0
 30
0.0
 70
   128
 71
     3
 72
    69
 73
    60
  0
VERTEX
  5
4E4
  8
0
 62
   123
 10
0.0
 20
0.0
 30
0.0
 70
   128
 71
   107
 72
    75
 73
    90
  0
VERTEX
  5
4E5
  8
0
 62
   123
 10
0.0
 20
0.0
 30
0.0
 70
   128
 71
    72
 72
    75
 73
   107
  0
VERTEX
  5
4E6
  8
0
 62
   123
 10
0.0
 20
0.0
 30
0.0
 70
   128
 71
     9
 72
    71
 73
    69
  0
VERTEX
  5
4E7
  8
0
 62
   123
 10
0.0
 20
0.0
 30
0.0
 70
   128
 71
    96
 72
    71
 73
     9
  0
VERTEX
  5
4E8
  8
0
 62
   123
 10
0.0
 20
0.0
 30
0.0
 70
   128
 71
    90
 72
    68
 73
   107
  0
VERTEX
  5
4E9
  8
0
 62
   123
 10
0.0
 20
0.0
 30
0.0
 70
   128
 71
    69
 72
     3
 73
     9
  0
VERTEX
  5
4EA
  8
0
 62
   123
 10
0.0
 20
0.0
 30
0.0
 70
   128
 71
    61
 72
     3
 73
    60
  0
VERTEX
  5
4EB
  8
0
 62
   123
 10
0.0
 20
0.0
 30
0.0
 70
   128
 71
     6
 72
    64
 73
    59
  0
VERTEX
  5
4EC
  8
0
 62
   123
 10
0.0
 20
0.0
 30
0.0
 70
   128
 71
    59
 72
    31
 73
     7
  0
VERTEX
  5
4ED
  8
0
 62
   123
 10
0.0
 20
0.0
 30
0.0
 70
   128
 71
     7
 72
     6
 73
    59
  0
VERTEX
  5
4EE
  8
0
 62
   123
 10
0.0
 20
0.0
 30
0.0
 70
   128
 71
    31
 72
    29
 73
     7
  0
VERTEX
  5
4EF
  8
0
 62
   123
 10
0.0
 20
0.0
 30
0.0
 70
   128
 71
    25
 72
   127
 73
    29
  0
VERTEX
  5
4F0
  8
0
 62
   123
 10
0.0
 20
0.0
 30
0.0
 70
   128
 71
    28
 72
   126
 73
   128
  0
VERTEX
  5
4F1
  8
0
 62
   123
 10
0.0
 20
0.0
 30
0.0
 70
   128
 71
    25
 72
   128
 73
   127
  0
VERTEX
  5
4F2
  8
0
 62
   123
 10
0.0
 20
0.0
 30
0.0
 70
   128
 71
    21
 72
   124
 73
   126
  0
VERTEX
  5
4F3
  8
0
 62
   123
 10
0.0
 20
0.0
 30
0.0
 70
   128
 71
    28
 72
    23
 73
   126
  0
VERTEX
  5
4F4
  8
0
 62
   123
 10
0.0
 20
0.0
 30
0.0
 70
   128
 71
    21
 72
    17
 73
   124
  0
VERTEX
  5
4F5
  8
0
 62
   123
 10
0.0
 20
0.0
 30
0.0
 70
   128
 71
    92
 72
    18
 73
    14
  0
VERTEX
  5
4F6
  8
0
 62
   123
 10
0.0
 20
0.0
 30
0.0
 70
   128
 71
    17
 72
    18
 73
    92
  0
VERTEX
  5
4F7
  8
0
 62
   123
 10
0.0
 20
0.0
 30
0.0
 70
   128
 71
    39
 72
   101
 73
    38
  0
VERTEX
  5
4F8
  8
0
 62
   123
 10
0.0
 20
0.0
 30
0.0
 70
   128
 71
    14
 72
    13
 73
    92
  0
VERTEX
  5
4F9
  8
0
 62
   123
 10
0.0
 20
0.0
 30
0.0
 70
   128
 71
    92
 72
    35
 73
    94
  0
VERTEX
  5
4FA
  8
0
 62
   123
 10
0.0
 20
0.0
 30
0.0
 70
   128
 71
    38
 72
    94
 73
    35
  0
VERTEX
  5
4FB
  8
0
 62
   123
 10
0.0
 20
0.0
 30
0.0
 70
   128
 71
   102
 72
    39
 73
    41
  0
VERTEX
  5
4FC
  8
0
 62
   123
 10
0.0
 20
0.0
 30
0.0
 70
   128
 71
    41
 72
    44
 73
   140
  0
VERTEX
  5
4FD
  8
0
 62
   123
 10
0.0
 20
0.0
 30
0.0
 70
   128
 71
   140
 72
   102
 73
    41
  0
VERTEX
  5
4FE
  8
0
 62
   123
 10
0.0
 20
0.0
 30
0.0
 70
   128
 71
    45
 72
   139
 73
    44
  0
VERTEX
  5
4FF
  8
0
 62
   123
 10
0.0
 20
0.0
 30
0.0
 70
   128
 71
   121
 72
    45
 73
    47
  0
VERTEX
  5
500
  8
0
 62
   123
 10
0.0
 20
0.0
 30
0.0
 70
   128
 71
    45
 72
   121
 73
   139
  0
VERTEX
  5
501
  8
0
 62
   123
 10
0.0
 20
0.0
 30
0.0
 70
   128
 71
   143
 72
   142
 73
   141
  0
VERTEX
  5
502
  8
0
 62
   123
 10
0.0
 20
0.0
 30
0.0
 70
   128
 71
   145
 72
   141
 73
   144
  0
VERTEX
  5
503
  8
0
 62
   123
 10
0.0
 20
0.0
 30
0.0
 70
   128
 71
   142
 72
   144
 73
   141
  0
VERTEX
  5
504
  8
0
 62
   123
 10
0.0
 20
0.0
 30
0.0
 70
   128
 71
   143
 72
   146
 73
   142
  0
VERTEX
  5
505
  8
0
 62
   123
 10
0.0
 20
0.0
 30
0.0
 70
   128
 71
    96
 72
   146
 73
   143
  0
VERTEX
  5
506
  8
0
 62
   123
 10
0.0
 20
0.0
 30
0.0
 70
   128
 71
    96
 72
   123
 73
   146
  0
VERTEX
  5
507
  8
0
 62
   123
 10
0.0
 20
0.0
 30
0.0
 70
   128
 71
   147
 72
    96
 73
   143
  0
VERTEX
  5
508
  8
0
 62
   123
 10
0.0
 20
0.0
 30
0.0
 70
   128
 71
   150
 72
   149
 73
   148
  0
VERTEX
  5
509
  8
0
 62
   123
 10
0.0
 20
0.0
 30
0.0
 70
   128
 71
   147
 72
   149
 73
   151
  0
VERTEX
  5
50A
  8
0
 62
   123
 10
0.0
 20
0.0
 30
0.0
 70
   128
 71
    96
 72
   147
 73
   151
  0
VERTEX
  5
50B
  8
0
 62
   123
 10
0.0
 20
0.0
 30
0.0
 70
   128
 71
   154
 72
   153
 73
   152
  0
VERTEX
  5
50C
  8
0
 62
   123
 10
0.0
 20
0.0
 30
0.0
 70
   128
 71
   147
 72
   153
 73
   154
  0
VERTEX
  5
50D
  8
0
 62
   123
 10
0.0
 20
0.0
 30
0.0
 70
   128
 71
   153
 72
   145
 73
   152
  0
VERTEX
  5
50E
  8
0
 62
   123
 10
0.0
 20
0.0
 30
0.0
 70
   128
 71
   141
 72
   153
 73
   143
  0
VERTEX
  5
50F
  8
0
 62
   123
 10
0.0
 20
0.0
 30
0.0
 70
   128
 71
   149
 72
   150
 73
   151
  0
VERTEX
  5
510
  8
0
 62
   123
 10
0.0
 20
0.0
 30
0.0
 70
   128
 71
   154
 72
   149
 73
   147
  0
VERTEX
  5
511
  8
0
 62
   123
 10
0.0
 20
0.0
 30
0.0
 70
   128
 71
   149
 72
   154
 73
   148
  0
VERTEX
  5
512
  8
0
 62
   123
 10
0.0
 20
0.0
 30
0.0
 70
   128
 71
   153
 72
   147
 73
   143
  0
VERTEX
  5
513
  8
0
 62
   123
 10
0.0
 20
0.0
 30
0.0
 70
   128
 71
   153
 72
   141
 73
   145
  0
VERTEX
  5
514
  8
0
 62
   123
 10
0.0
 20
0.0
 30
0.0
 70
   128
 71
   156
 72
    57
 73
   155
  0
VERTEX
  5
515
  8
0
 62
   123
 10
0.0
 20
0.0
 30
0.0
 70
   128
 71
   157
 72
   109
 73
   107
  0
VERTEX
  5
516
  8
0
 62
   123
 10
0.0
 20
0.0
 30
0.0
 70
   128
 71
   156
 72
   157
 73
   150
  0
VERTEX
  5
517
  8
0
 62
   123
 10
0.0
 20
0.0
 30
0.0
 70
   128
 71
   157
 72
   156
 73
   155
  0
VERTEX
  5
518
  8
0
 62
   123
 10
0.0
 20
0.0
 30
0.0
 70
   128
 71
   148
 72
   156
 73
   150
  0
VERTEX
  5
519
  8
0
 62
   123
 10
0.0
 20
0.0
 30
0.0
 70
   128
 71
   150
 72
   157
 73
   151
  0
VERTEX
  5
51A
  8
0
 62
   123
 10
0.0
 20
0.0
 30
0.0
 70
   128
 71
   151
 72
   107
 73
    96
  0
VERTEX
  5
51B
  8
0
 62
   123
 10
0.0
 20
0.0
 30
0.0
 70
   128
 71
   157
 72
   107
 73
   151
  0
VERTEX
  5
51C
  8
0
 62
   123
 10
0.0
 20
0.0
 30
0.0
 70
   128
 71
   157
 72
   155
 73
   109
  0
VERTEX
  5
51D
  8
0
 62
   123
 10
0.0
 20
0.0
 30
0.0
 70
   128
 71
    57
 72
    55
 73
   158
  0
VERTEX
  5
51E
  8
0
 62
   123
 10
0.0
 20
0.0
 30
0.0
 70
   128
 71
   160
 72
   159
 73
    52
  0
VERTEX
  5
51F
  8
0
 62
   123
 10
0.0
 20
0.0
 30
0.0
 70
   128
 71
   160
 72
   158
 73
   159
  0
VERTEX
  5
520
  8
0
 62
   123
 10
0.0
 20
0.0
 30
0.0
 70
   128
 71
   160
 72
   161
 73
   158
  0
VERTEX
  5
521
  8
0
 62
   123
 10
0.0
 20
0.0
 30
0.0
 70
   128
 71
    57
 72
   158
 73
   155
  0
VERTEX
  5
522
  8
0
 62
   123
 10
0.0
 20
0.0
 30
0.0
 70
   128
 71
   155
 72
   158
 73
   109
  0
VERTEX
  5
523
  8
0
 62
   123
 10
0.0
 20
0.0
 30
0.0
 70
   128
 71
    55
 72
    53
 73
   158
  0
VERTEX
  5
524
  8
0
 62
   123
 10
0.0
 20
0.0
 30
0.0
 70
   128
 71
   158
 72
   161
 73
   109
  0
VERTEX
  5
525
  8
0
 62
   123
 10
0.0
 20
0.0
 30
0.0
 70
   128
 71
    53
 72
   159
 73
   158
  0
VERTEX
  5
526
  8
0
 62
   123
 10
0.0
 20
0.0
 30
0.0
 70
   128
 71
   159
 72
    53
 73
    52
  0
VERTEX
  5
527
  8
0
 62
   123
 10
0.0
 20
0.0
 30
0.0
 70
   128
 71
   161
 72
   160
 73
   162
  0
VERTEX
  5
528
  8
0
 62
   123
 10
0.0
 20
0.0
 30
0.0
 70
   128
 71
   161
 72
   162
 73
   100
  0
VERTEX
  5
529
  8
0
 62
   123
 10
0.0
 20
0.0
 30
0.0
 70
   128
 71
   109
 72
   161
 73
   100
  0
VERTEX
  5
52A
  8
0
 62
   123
 10
0.0
 20
0.0
 30
0.0
 70
   128
 71
   160
 72
   163
 73
   162
  0
VERTEX
  5
52B
  8
0
 62
   123
 10
0.0
 20
0.0
 30
0.0
 70
   128
 71
    52
 72
   163
 73
   160
  0
VERTEX
  5
52C
  8
0
 62
   123
 10
0.0
 20
0.0
 30
0.0
 70
   128
 71
    52
 72
    50
 73
   163
  0
VERTEX
  5
52D
  8
0
 62
   123
 10
0.0
 20
0.0
 30
0.0
 70
   128
 71
   166
 72
   165
 73
   164
  0
VERTEX
  5
52E
  8
0
 62
   123
 10
0.0
 20
0.0
 30
0.0
 70
   128
 71
   166
 72
   167
 73
    50
  0
VERTEX
  5
52F
  8
0
 62
   123
 10
0.0
 20
0.0
 30
0.0
 70
   128
 71
   164
 72
   163
 73
   167
  0
VERTEX
  5
530
  8
0
 62
   123
 10
0.0
 20
0.0
 30
0.0
 70
   128
 71
   162
 72
   164
 73
   100
  0
VERTEX
  5
531
  8
0
 62
   123
 10
0.0
 20
0.0
 30
0.0
 70
   128
 71
   163
 72
   164
 73
   162
  0
VERTEX
  5
532
  8
0
 62
   123
 10
0.0
 20
0.0
 30
0.0
 70
   128
 71
   169
 72
   168
 73
   164
  0
VERTEX
  5
533
  8
0
 62
   123
 10
0.0
 20
0.0
 30
0.0
 70
   128
 71
   164
 72
   165
 73
   169
  0
VERTEX
  5
534
  8
0
 62
   123
 10
0.0
 20
0.0
 30
0.0
 70
   128
 71
   164
 72
   168
 73
   100
  0
VERTEX
  5
535
  8
0
 62
   123
 10
0.0
 20
0.0
 30
0.0
 70
   128
 71
   167
 72
   163
 73
    50
  0
VERTEX
  5
536
  8
0
 62
   123
 10
0.0
 20
0.0
 30
0.0
 70
   128
 71
   164
 72
   167
 73
   166
  0
VERTEX
  5
537
  8
0
 62
   123
 10
0.0
 20
0.0
 30
0.0
 70
   128
 71
   170
 72
   165
 73
   166
  0
VERTEX
  5
538
  8
0
 62
   123
 10
0.0
 20
0.0
 30
0.0
 70
   128
 71
    50
 72
    51
 73
   166
  0
VERTEX
  5
539
  8
0
 62
   123
 10
0.0
 20
0.0
 30
0.0
 70
   128
 71
   170
 72
   166
 73
    51
  0
VERTEX
  5
53A
  8
0
 62
   123
 10
0.0
 20
0.0
 30
0.0
 70
   128
 71
   170
 72
   171
 73
   165
  0
VERTEX
  5
53B
  8
0
 62
   123
 10
0.0
 20
0.0
 30
0.0
 70
   128
 71
   171
 72
   169
 73
   165
  0
VERTEX
  5
53C
  8
0
 62
   123
 10
0.0
 20
0.0
 30
0.0
 70
   128
 71
   174
 72
   173
 73
   172
  0
VERTEX
  5
53D
  8
0
 62
   123
 10
0.0
 20
0.0
 30
0.0
 70
   128
 71
   171
 72
   174
 73
   172
  0
VERTEX
  5
53E
  8
0
 62
   123
 10
0.0
 20
0.0
 30
0.0
 70
   128
 71
   172
 72
   169
 73
   171
  0
VERTEX
  5
53F
  8
0
 62
   123
 10
0.0
 20
0.0
 30
0.0
 70
   128
 71
    92
 72
   100
 73
   168
  0
VERTEX
  5
540
  8
0
 62
   123
 10
0.0
 20
0.0
 30
0.0
 70
   128
 71
   175
 72
   169
 73
   172
  0
VERTEX
  5
541
  8
0
 62
   123
 10
0.0
 20
0.0
 30
0.0
 70
   128
 71
    92
 72
   175
 73
   176
  0
VERTEX
  5
542
  8
0
 62
   123
 10
0.0
 20
0.0
 30
0.0
 70
   128
 71
   175
 72
    92
 73
   168
  0
VERTEX
  5
543
  8
0
 62
   123
 10
0.0
 20
0.0
 30
0.0
 70
   128
 71
   123
 72
    92
 73
   176
  0
VERTEX
  5
544
  8
0
 62
   123
 10
0.0
 20
0.0
 30
0.0
 70
   128
 71
   176
 72
   175
 73
   177
  0
VERTEX
  5
545
  8
0
 62
   123
 10
0.0
 20
0.0
 30
0.0
 70
   128
 71
   177
 72
   172
 73
   173
  0
VERTEX
  5
546
  8
0
 62
   123
 10
0.0
 20
0.0
 30
0.0
 70
   128
 71
   175
 72
   172
 73
   177
  0
VERTEX
  5
547
  8
0
 62
   123
 10
0.0
 20
0.0
 30
0.0
 70
   128
 71
   175
 72
   168
 73
   169
  0
VERTEX
  5
548
  8
0
 62
   123
 10
0.0
 20
0.0
 30
0.0
 70
   128
 71
   146
 72
   179
 73
   178
  0
VERTEX
  5
549
  8
0
 62
   123
 10
0.0
 20
0.0
 30
0.0
 70
   128
 71
   176
 72
   180
 73
   123
  0
VERTEX
  5
54A
  8
0
 62
   123
 10
0.0
 20
0.0
 30
0.0
 70
   128
 71
   146
 72
   178
 73
   142
  0
VERTEX
  5
54B
  8
0
 62
   123
 10
0.0
 20
0.0
 30
0.0
 70
   128
 71
   177
 72
   179
 73
   180
  0
VERTEX
  5
54C
  8
0
 62
   123
 10
0.0
 20
0.0
 30
0.0
 70
   128
 71
   142
 72
   178
 73
   144
  0
VERTEX
  5
54D
  8
0
 62
   123
 10
0.0
 20
0.0
 30
0.0
 70
   128
 71
   180
 72
   179
 73
   146
  0
VERTEX
  5
54E
  8
0
 62
   123
 10
0.0
 20
0.0
 30
0.0
 70
   128
 71
   173
 72
   181
 73
   179
  0
VERTEX
  5
54F
  8
0
 62
   123
 10
0.0
 20
0.0
 30
0.0
 70
   128
 71
   179
 72
   177
 73
   173
  0
VERTEX
  5
550
  8
0
 62
   123
 10
0.0
 20
0.0
 30
0.0
 70
   128
 71
   182
 72
   178
 73
   181
  0
VERTEX
  5
551
  8
0
 62
   123
 10
0.0
 20
0.0
 30
0.0
 70
   128
 71
   180
 72
   146
 73
   123
  0
VERTEX
  5
552
  8
0
 62
   123
 10
0.0
 20
0.0
 30
0.0
 70
   128
 71
   180
 72
   176
 73
   177
  0
VERTEX
  5
553
  8
0
 62
   123
 10
0.0
 20
0.0
 30
0.0
 70
   128
 71
   178
 72
   179
 73
   181
  0
VERTEX
  5
554
  8
0
 62
   123
 10
0.0
 20
0.0
 30
0.0
 70
   128
 71
   178
 72
   182
 73
   144
  0
VERTEX
  5
555
  8
0
 62
   123
 10
0.0
 20
0.0
 30
0.0
 70
   128
 71
   181
 72
   183
 73
   182
  0
VERTEX
  5
556
  8
0
 62
   123
 10
0.0
 20
0.0
 30
0.0
 70
   128
 71
   174
 72
   183
 73
   181
  0
VERTEX
  5
557
  8
0
 62
   123
 10
0.0
 20
0.0
 30
0.0
 70
   128
 71
   173
 72
   174
 73
   181
  0
VERTEX
  5
558
  8
0
 62
   123
 10
0.0
 20
0.0
 30
0.0
 70
   128
 71
   183
 72
   184
 73
   182
  0
VERTEX
  5
559
  8
0
 62
   123
 10
0.0
 20
0.0
 30
0.0
 70
   128
 71
   184
 72
   144
 73
   182
  0
VERTEX
  5
55A
  8
0
 62
   123
 10
0.0
 20
0.0
 30
0.0
 70
   128
 71
   144
 72
   184
 73
   185
  0
VERTEX
  5
55B
  8
0
 62
   123
 10
0.0
 20
0.0
 30
0.0
 70
   128
 71
   144
 72
   185
 73
   145
  0
VERTEX
  5
55C
  8
0
 62
   123
 10
0.0
 20
0.0
 30
0.0
 70
   128
 71
   186
 72
   154
 73
   152
  0
VERTEX
  5
55D
  8
0
 62
   123
 10
0.0
 20
0.0
 30
0.0
 70
   128
 71
   145
 72
   185
 73
   152
  0
VERTEX
  5
55E
  8
0
 62
   123
 10
0.0
 20
0.0
 30
0.0
 70
   128
 71
   186
 72
   152
 73
   185
  0
VERTEX
  5
55F
  8
0
 62
   123
 10
0.0
 20
0.0
 30
0.0
 70
   128
 71
   186
 72
   187
 73
   154
  0
VERTEX
  5
560
  8
0
 62
   123
 10
0.0
 20
0.0
 30
0.0
 70
   128
 71
   187
 72
   148
 73
   154
  0
VERTEX
  5
561
  8
0
 62
   123
 10
0.0
 20
0.0
 30
0.0
 70
   128
 71
   148
 72
   187
 73
   156
  0
VERTEX
  5
562
  8
0
 62
   123
 10
0.0
 20
0.0
 30
0.0
 70
   128
 71
   187
 72
    56
 73
   156
  0
VERTEX
  5
563
  8
0
 62
   123
 10
0.0
 20
0.0
 30
0.0
 70
   128
 71
    56
 72
    57
 73
   156
  0
VERTEX
  5
564
  8
0
 62
   123
 10
0.0
 20
0.0
 30
0.0
 70
   128
 71
   137
 72
   188
 73
   125
  0
VERTEX
  5
565
  8
0
 62
   123
 10
0.0
 20
0.0
 30
0.0
 70
   128
 71
   190
 72
   136
 73
   189
  0
VERTEX
  5
566
  8
0
 62
   123
 10
0.0
 20
0.0
 30
0.0
 70
   128
 71
   192
 72
   138
 73
   191
  0
VERTEX
  5
567
  8
0
 62
   123
 10
0.0
 20
0.0
 30
0.0
 70
   128
 71
   130
 72
   194
 73
   193
  0
VERTEX
  5
568
  8
0
 62
   123
 10
0.0
 20
0.0
 30
0.0
 70
   128
 71
   131
 72
   195
 73
   134
  0
VERTEX
  5
569
  8
0
 62
   123
 10
0.0
 20
0.0
 30
0.0
 70
   128
 71
   133
 72
   197
 73
   196
  0
VERTEX
  5
56A
  8
0
 62
   123
 10
0.0
 20
0.0
 30
0.0
 70
   128
 71
   196
 72
   194
 73
   132
  0
VERTEX
  5
56B
  8
0
 62
   123
 10
0.0
 20
0.0
 30
0.0
 70
   128
 71
   197
 72
    97
 73
   198
  0
VERTEX
  5
56C
  8
0
 62
   123
 10
0.0
 20
0.0
 30
0.0
 70
   128
 71
    97
 72
   197
 73
   133
  0
VERTEX
  5
56D
  8
0
 62
   123
 10
0.0
 20
0.0
 30
0.0
 70
   128
 71
   199
 72
   198
 73
    95
  0
VERTEX
  5
56E
  8
0
 62
   123
 10
0.0
 20
0.0
 30
0.0
 70
   128
 71
    97
 72
    95
 73
   198
  0
VERTEX
  5
56F
  8
0
 62
   123
 10
0.0
 20
0.0
 30
0.0
 70
   128
 71
   199
 72
    95
 73
   129
  0
VERTEX
  5
570
  8
0
 62
   123
 10
0.0
 20
0.0
 30
0.0
 70
   128
 71
   133
 72
   196
 73
   132
  0
VERTEX
  5
571
  8
0
 62
   123
 10
0.0
 20
0.0
 30
0.0
 70
   128
 71
   193
 72
   195
 73
   131
  0
VERTEX
  5
572
  8
0
 62
   123
 10
0.0
 20
0.0
 30
0.0
 70
   128
 71
   194
 72
   130
 73
   132
  0
VERTEX
  5
573
  8
0
 62
   123
 10
0.0
 20
0.0
 30
0.0
 70
   128
 71
   193
 72
   131
 73
   130
  0
VERTEX
  5
574
  8
0
 62
   123
 10
0.0
 20
0.0
 30
0.0
 70
   128
 71
   190
 72
   135
 73
   136
  0
VERTEX
  5
575
  8
0
 62
   123
 10
0.0
 20
0.0
 30
0.0
 70
   128
 71
   195
 72
   189
 73
   134
  0
VERTEX
  5
576
  8
0
 62
   123
 10
0.0
 20
0.0
 30
0.0
 70
   128
 71
   136
 72
   134
 73
   189
  0
VERTEX
  5
577
  8
0
 62
   123
 10
0.0
 20
0.0
 30
0.0
 70
   128
 71
   191
 72
   135
 73
   190
  0
VERTEX
  5
578
  8
0
 62
   123
 10
0.0
 20
0.0
 30
0.0
 70
   128
 71
   191
 72
   138
 73
   135
  0
VERTEX
  5
579
  8
0
 62
   123
 10
0.0
 20
0.0
 30
0.0
 70
   128
 71
   200
 72
   125
 73
   188
  0
VERTEX
  5
57A
  8
0
 62
   123
 10
0.0
 20
0.0
 30
0.0
 70
   128
 71
   192
 72
   188
 73
   137
  0
VERTEX
  5
57B
  8
0
 62
   123
 10
0.0
 20
0.0
 30
0.0
 70
   128
 71
   192
 72
   137
 73
   138
  0
VERTEX
  5
57C
  8
0
 62
   123
 10
0.0
 20
0.0
 30
0.0
 70
   128
 71
   129
 72
     9
 73
   199
  0
VERTEX
  5
57D
  8
0
 62
   123
 10
0.0
 20
0.0
 30
0.0
 70
   128
 71
     9
 72
    10
 73
   199
  0
VERTEX
  5
57E
  8
0
 62
   123
 10
0.0
 20
0.0
 30
0.0
 70
   128
 71
   127
 72
   201
 73
     7
  0
VERTEX
  5
57F
  8
0
 62
   123
 10
0.0
 20
0.0
 30
0.0
 70
   128
 71
   203
 72
   202
 73
   126
  0
VERTEX
  5
580
  8
0
 62
   123
 10
0.0
 20
0.0
 30
0.0
 70
   128
 71
   204
 72
   128
 73
   202
  0
VERTEX
  5
581
  8
0
 62
   123
 10
0.0
 20
0.0
 30
0.0
 70
   128
 71
   203
 72
   126
 73
   124
  0
VERTEX
  5
582
  8
0
 62
   123
 10
0.0
 20
0.0
 30
0.0
 70
   128
 71
   204
 72
   201
 73
   127
  0
VERTEX
  5
583
  8
0
 62
   123
 10
0.0
 20
0.0
 30
0.0
 70
   128
 71
   127
 72
   128
 73
   204
  0
VERTEX
  5
584
  8
0
 62
   123
 10
0.0
 20
0.0
 30
0.0
 70
   128
 71
   202
 72
   128
 73
   126
  0
VERTEX
  5
585
  8
0
 62
   123
 10
0.0
 20
0.0
 30
0.0
 70
   128
 71
     5
 72
     7
 73
   201
  0
VERTEX
  5
586
  8
0
 62
   123
 10
0.0
 20
0.0
 30
0.0
 70
   128
 71
   125
 72
   200
 73
   203
  0
VERTEX
  5
587
  8
0
 62
   123
 10
0.0
 20
0.0
 30
0.0
 70
   128
 71
   203
 72
   124
 73
   125
  0
VERTEX
  5
588
  8
0
 62
   123
 10
0.0
 20
0.0
 30
0.0
 70
   128
 71
   122
 72
   205
 73
   121
  0
VERTEX
  5
589
  8
0
 62
   123
 10
0.0
 20
0.0
 30
0.0
 70
   128
 71
   205
 72
   206
 73
   121
  0
VERTEX
  5
58A
  8
0
 62
   123
 10
0.0
 20
0.0
 30
0.0
 70
   128
 71
   119
 72
   207
 73
   122
  0
VERTEX
  5
58B
  8
0
 62
   123
 10
0.0
 20
0.0
 30
0.0
 70
   128
 71
   209
 72
   116
 73
   208
  0
VERTEX
  5
58C
  8
0
 62
   123
 10
0.0
 20
0.0
 30
0.0
 70
   128
 71
   211
 72
   118
 73
   210
  0
VERTEX
  5
58D
  8
0
 62
   123
 10
0.0
 20
0.0
 30
0.0
 70
   128
 71
   115
 72
   213
 73
   212
  0
VERTEX
  5
58E
  8
0
 62
   123
 10
0.0
 20
0.0
 30
0.0
 70
   128
 71
   108
 72
   214
 73
   117
  0
VERTEX
  5
58F
  8
0
 62
   123
 10
0.0
 20
0.0
 30
0.0
 70
   128
 71
   114
 72
   216
 73
   215
  0
VERTEX
  5
590
  8
0
 62
   123
 10
0.0
 20
0.0
 30
0.0
 70
   128
 71
   215
 72
   213
 73
   113
  0
VERTEX
  5
591
  8
0
 62
   123
 10
0.0
 20
0.0
 30
0.0
 70
   128
 71
   216
 72
   111
 73
   217
  0
VERTEX
  5
592
  8
0
 62
   123
 10
0.0
 20
0.0
 30
0.0
 70
   128
 71
   111
 72
   216
 73
   114
  0
VERTEX
  5
593
  8
0
 62
   123
 10
0.0
 20
0.0
 30
0.0
 70
   128
 71
   218
 72
   217
 73
   112
  0
VERTEX
  5
594
  8
0
 62
   123
 10
0.0
 20
0.0
 30
0.0
 70
   128
 71
   111
 72
   112
 73
   217
  0
VERTEX
  5
595
  8
0
 62
   123
 10
0.0
 20
0.0
 30
0.0
 70
   128
 71
   218
 72
   112
 73
   110
  0
VERTEX
  5
596
  8
0
 62
   123
 10
0.0
 20
0.0
 30
0.0
 70
   128
 71
   114
 72
   215
 73
   113
  0
VERTEX
  5
597
  8
0
 62
   123
 10
0.0
 20
0.0
 30
0.0
 70
   128
 71
   212
 72
   214
 73
   108
  0
VERTEX
  5
598
  8
0
 62
   123
 10
0.0
 20
0.0
 30
0.0
 70
   128
 71
   213
 72
   115
 73
   113
  0
VERTEX
  5
599
  8
0
 62
   123
 10
0.0
 20
0.0
 30
0.0
 70
   128
 71
   212
 72
   108
 73
   115
  0
VERTEX
  5
59A
  8
0
 62
   123
 10
0.0
 20
0.0
 30
0.0
 70
   128
 71
   209
 72
   120
 73
   116
  0
VERTEX
  5
59B
  8
0
 62
   123
 10
0.0
 20
0.0
 30
0.0
 70
   128
 71
   214
 72
   208
 73
   117
  0
VERTEX
  5
59C
  8
0
 62
   123
 10
0.0
 20
0.0
 30
0.0
 70
   128
 71
   116
 72
   117
 73
   208
  0
VERTEX
  5
59D
  8
0
 62
   123
 10
0.0
 20
0.0
 30
0.0
 70
   128
 71
   210
 72
   120
 73
   209
  0
VERTEX
  5
59E
  8
0
 62
   123
 10
0.0
 20
0.0
 30
0.0
 70
   128
 71
   210
 72
   118
 73
   120
  0
VERTEX
  5
59F
  8
0
 62
   123
 10
0.0
 20
0.0
 30
0.0
 70
   128
 71
   205
 72
   122
 73
   207
  0
VERTEX
  5
5A0
  8
0
 62
   123
 10
0.0
 20
0.0
 30
0.0
 70
   128
 71
   211
 72
   207
 73
   119
  0
VERTEX
  5
5A1
  8
0
 62
   123
 10
0.0
 20
0.0
 30
0.0
 70
   128
 71
   211
 72
   119
 73
   118
  0
VERTEX
  5
5A2
  8
0
 62
   123
 10
0.0
 20
0.0
 30
0.0
 70
   128
 71
    98
 72
   219
 73
   110
  0
VERTEX
  5
5A3
  8
0
 62
   123
 10
0.0
 20
0.0
 30
0.0
 70
   128
 71
   219
 72
   218
 73
   110
  0
VERTEX
  5
5A4
  8
0
 62
   123
 10
0.0
 20
0.0
 30
0.0
 70
   128
 71
    99
 72
   220
 73
    98
  0
VERTEX
  5
5A5
  8
0
 62
   123
 10
0.0
 20
0.0
 30
0.0
 70
   128
 71
   222
 72
   105
 73
   221
  0
VERTEX
  5
5A6
  8
0
 62
   123
 10
0.0
 20
0.0
 30
0.0
 70
   128
 71
   224
 72
   106
 73
   223
  0
VERTEX
  5
5A7
  8
0
 62
   123
 10
0.0
 20
0.0
 30
0.0
 70
   128
 71
    94
 72
   226
 73
   225
  0
VERTEX
  5
5A8
  8
0
 62
   123
 10
0.0
 20
0.0
 30
0.0
 70
   128
 71
    93
 72
   227
 73
   103
  0
VERTEX
  5
5A9
  8
0
 62
   123
 10
0.0
 20
0.0
 30
0.0
 70
   128
 71
   102
 72
   229
 73
   228
  0
VERTEX
  5
5AA
  8
0
 62
   123
 10
0.0
 20
0.0
 30
0.0
 70
   128
 71
   228
 72
   226
 73
   101
  0
VERTEX
  5
5AB
  8
0
 62
   123
 10
0.0
 20
0.0
 30
0.0
 70
   128
 71
   229
 72
   140
 73
   230
  0
VERTEX
  5
5AC
  8
0
 62
   123
 10
0.0
 20
0.0
 30
0.0
 70
   128
 71
   140
 72
   229
 73
   102
  0
VERTEX
  5
5AD
  8
0
 62
   123
 10
0.0
 20
0.0
 30
0.0
 70
   128
 71
   206
 72
   230
 73
   139
  0
VERTEX
  5
5AE
  8
0
 62
   123
 10
0.0
 20
0.0
 30
0.0
 70
   128
 71
   140
 72
   139
 73
   230
  0
VERTEX
  5
5AF
  8
0
 62
   123
 10
0.0
 20
0.0
 30
0.0
 70
   128
 71
   206
 72
   139
 73
   121
  0
VERTEX
  5
5B0
  8
0
 62
   123
 10
0.0
 20
0.0
 30
0.0
 70
   128
 71
   102
 72
   228
 73
   101
  0
VERTEX
  5
5B1
  8
0
 62
   123
 10
0.0
 20
0.0
 30
0.0
 70
   128
 71
   225
 72
   227
 73
    93
  0
VERTEX
  5
5B2
  8
0
 62
   123
 10
0.0
 20
0.0
 30
0.0
 70
   128
 71
   226
 72
    94
 73
   101
  0
VERTEX
  5
5B3
  8
0
 62
   123
 10
0.0
 20
0.0
 30
0.0
 70
   128
 71
   225
 72
    93
 73
    94
  0
VERTEX
  5
5B4
  8
0
 62
   123
 10
0.0
 20
0.0
 30
0.0
 70
   128
 71
   222
 72
   104
 73
   105
  0
VERTEX
  5
5B5
  8
0
 62
   123
 10
0.0
 20
0.0
 30
0.0
 70
   128
 71
   227
 72
   221
 73
   103
  0
VERTEX
  5
5B6
  8
0
 62
   123
 10
0.0
 20
0.0
 30
0.0
 70
   128
 71
   105
 72
   103
 73
   221
  0
VERTEX
  5
5B7
  8
0
 62
   123
 10
0.0
 20
0.0
 30
0.0
 70
   128
 71
   223
 72
   104
 73
   222
  0
VERTEX
  5
5B8
  8
0
 62
   123
 10
0.0
 20
0.0
 30
0.0
 70
   128
 71
   223
 72
   106
 73
   104
  0
VERTEX
  5
5B9
  8
0
 62
   123
 10
0.0
 20
0.0
 30
0.0
 70
   128
 71
   219
 72
    98
 73
   220
  0
VERTEX
  5
5BA
  8
0
 62
   123
 10
0.0
 20
0.0
 30
0.0
 70
   128
 71
   224
 72
   220
 73
    99
  0
VERTEX
  5
5BB
  8
0
 62
   123
 10
0.0
 20
0.0
 30
0.0
 70
   128
 71
   224
 72
    99
 73
   106
  0
VERTEX
  5
5BC
  8
0
 62
   123
 10
0.0
 20
0.0
 30
0.0
 70
   128
 71
   233
 72
   232
 73
   231
  0
VERTEX
  5
5BD
  8
0
 62
   123
 10
0.0
 20
0.0
 30
0.0
 70
   128
 71
   232
 72
   234
 73
   231
  0
VERTEX
  5
5BE
  8
0
 62
   123
 10
0.0
 20
0.0
 30
0.0
 70
   128
 71
   233
 72
   236
 73
   235
  0
VERTEX
  5
5BF
  8
0
 62
   123
 10
0.0
 20
0.0
 30
0.0
 70
   128
 71
   232
 72
   233
 73
   235
  0
VERTEX
  5
5C0
  8
0
 62
   123
 10
0.0
 20
0.0
 30
0.0
 70
   128
 71
   234
 72
   237
 73
   231
  0
VERTEX
  5
5C1
  8
0
 62
   123
 10
0.0
 20
0.0
 30
0.0
 70
   128
 71
   238
 72
   231
 73
   237
  0
VERTEX
  5
5C2
  8
0
 62
   123
 10
0.0
 20
0.0
 30
0.0
 70
   128
 71
   235
 72
   236
 73
   237
  0
VERTEX
  5
5C3
  8
0
 62
   123
 10
0.0
 20
0.0
 30
0.0
 70
   128
 71
   236
 72
   238
 73
   237
  0
SEQEND
  5
5C4
  8
0
 62
   123
  0
ENDBLK
  5
5C7
  8
0
  0
BLOCK
  8
0
  2
5700-08
 70
     0
 10
0.0
 20
0.0
 30
0.0
  3
5700-08
  1

  0
POLYLINE
  5
5C9
  8
0
 62
   123
 66
     1
 10
0.0
 20
0.0
 30
0.0
 70
    64
 71
   144
 72
   266
  0
VERTEX
  5
5CA
  8
0
 10
3.746065139770508
 20
2.901007175445557
 30
0.0000000000001398
 70
   192
  0
VERTEX
  5
5CB
  8
0
 10
3.58678412437439
 20
2.690657138824463
 30
-0.4706223011016846
 70
   192
  0
VERTEX
  5
5CC
  8
0
 10
4.451859951019287
 20
3.383382558822632
 30
-0.5917867422103882
 70
   192
  0
VERTEX
  5
5CD
  8
0
 10
5.465516567230225
 20
0.6661314964294434
 30
-3.808428764343262
 70
   192
  0
VERTEX
  5
5CE
  8
0
 10
4.451859951019287
 20
0.5917867422103882
 30
-3.383382558822632
 70
   192
  0
VERTEX
  5
5CF
  8
0
 10
4.589907169342041
 20
-0.0000000000003376
 30
-3.514476537704468
 70
   192
  0
VERTEX
  5
5D0
  8
0
 10
3.58678412437439
 20
1.241773009300232
 30
-2.432924509048462
 70
   192
  0
VERTEX
  5
5D1
  8
0
 10
2.957313776016235
 20
1.316698908805847
 30
-1.316698908805847
 70
   192
  0
VERTEX
  5
5D2
  8
0
 10
2.957313776016235
 20
0.8465285301208496
 30
-1.658547878265381
 70
   192
  0
VERTEX
  5
5D3
  8
0
 10
4.451859951019287
 20
1.561474680900574
 30
-3.059294939041138
 70
   192
  0
VERTEX
  5
5D4
  8
0
 10
3.58678412437439
 20
1.931465983390808
 30
-1.931465983390808
 70
   192
  0
VERTEX
  5
5D5
  8
0
 10
6.5
 20
0.0000000000007712
 30
-4.0
 70
   192
  0
VERTEX
  5
5D6
  8
0
 10
5.540808200836182
 20
-0.00000000000056
 30
-3.883291244506836
 70
   192
  0
VERTEX
  5
5D7
  8
0
 10
3.095591068267822
 20
0.0000000000000003
 30
-2.099999904632568
 70
   192
  0
VERTEX
  5
5D8
  8
0
 10
3.58678412437439
 20
0.4706223011016846
 30
-2.690657138824463
 70
   192
  0
VERTEX
  5
5D9
  8
0
 10
3.132508277893066
 20
0.5
 30
-2.099999904632568
 70
   192
  0
VERTEX
  5
5DA
  8
0
 10
2.605877161026001
 20
0.6442089080810547
 30
-0.6486985683441162
 70
   192
  0
VERTEX
  5
5DB
  8
0
 10
2.659427165985107
 20
1.0
 30
-0.5
 70
   192
  0
VERTEX
  5
5DC
  8
0
 10
3.58678412437439
 20
2.432924509048462
 30
-1.241773009300232
 70
   192
  0
VERTEX
  5
5DD
  8
0
 10
3.132508277893066
 20
2.099999904632568
 30
-0.5
 70
   192
  0
VERTEX
  5
5DE
  8
0
 10
4.589879989624023
 20
3.514461755752563
 30
0.0000000000003392
 70
   192
  0
VERTEX
  5
5DF
  8
0
 10
4.451859951019287
 20
2.428733110427856
 30
-2.428733110427856
 70
   192
  0
VERTEX
  5
5E0
  8
0
 10
3.095591068267822
 20
2.099999904632568
 30
0.0000000000000002
 70
   192
  0
VERTEX
  5
5E1
  8
0
 10
6.5
 20
3.822455167770386
 30
-1.172567248344421
 70
   192
  0
VERTEX
  5
5E2
  8
0
 10
5.465516567230225
 20
3.443626880645752
 30
-1.757638931274414
 70
   192
  0
VERTEX
  5
5E3
  8
0
 10
6.5
 20
3.255941867828369
 30
-2.322906494140625
 70
   192
  0
VERTEX
  5
5E4
  8
0
 10
5.465516567230225
 20
3.808428764343262
 30
-0.6661314964294434
 70
   192
  0
VERTEX
  5
5E5
  8
0
 10
6.5
 20
4.0
 30
-0.0000000000007695
 70
   192
  0
VERTEX
  5
5E6
  8
0
 10
2.659427165985107
 20
0.5
 30
-1.0
 70
   192
  0
VERTEX
  5
5E7
  8
0
 10
4.451859951019287
 20
3.059294939041138
 30
-1.561474680900574
 70
   192
  0
VERTEX
  5
5E8
  8
0
 10
3.746081829071045
 20
-0.0000000000001391
 30
-2.901022911071777
 70
   192
  0
VERTEX
  5
5E9
  8
0
 10
5.540786743164062
 20
3.883285999298096
 30
0.0000000000005618
 70
   192
  0
VERTEX
  5
5EA
  8
0
 10
5.465516567230225
 20
2.733849048614502
 30
-2.733849048614502
 70
   192
  0
VERTEX
  5
5EB
  8
0
 10
5.465516567230225
 20
1.757638931274414
 30
-3.443626880645752
 70
   192
  0
VERTEX
  5
5EC
  8
0
 10
6.5
 20
2.326359272003174
 30
-3.253673791885376
 70
   192
  0
VERTEX
  5
5ED
  8
0
 10
6.5
 20
1.177936196327209
 30
-3.823632955551147
 70
   192
  0
VERTEX
  5
5EE
  8
0
 10
3.746068716049194
 20
-0.0000000000001394
 30
2.901010751724243
 70
   192
  0
VERTEX
  5
5EF
  8
0
 10
3.58686900138855
 20
0.4706381559371948
 30
2.690747737884521
 70
   192
  0
VERTEX
  5
5F0
  8
0
 10
4.451928615570068
 20
0.5917938351631165
 30
3.383423089981079
 70
   192
  0
VERTEX
  5
5F1
  8
0
 10
5.465551853179932
 20
3.808437824249268
 30
0.6661331057548523
 70
   192
  0
VERTEX
  5
5F2
  8
0
 10
4.451928615570068
 20
3.383423089981079
 30
0.5917938351631165
 70
   192
  0
VERTEX
  5
5F3
  8
0
 10
4.451928615570068
 20
3.059331655502319
 30
1.561493396759033
 70
   192
  0
VERTEX
  5
5F4
  8
0
 10
3.58686900138855
 20
2.433006525039673
 30
1.241814732551575
 70
   192
  0
VERTEX
  5
5F5
  8
0
 10
2.957391262054443
 20
1.316802620887756
 30
1.316802620887756
 70
   192
  0
VERTEX
  5
5F6
  8
0
 10
2.957391262054443
 20
1.658678531646729
 30
0.8465952277183533
 70
   192
  0
VERTEX
  5
5F7
  8
0
 10
3.58686900138855
 20
1.931531071662903
 30
1.931531071662903
 70
   192
  0
VERTEX
  5
5F8
  8
0
 10
3.58686900138855
 20
2.690747737884521
 30
0.4706381559371948
 70
   192
  0
VERTEX
  5
5F9
  8
0
 10
3.132508277893066
 20
2.099999904632568
 30
0.5
 70
   192
  0
VERTEX
  5
5FA
  8
0
 10
2.605872392654419
 20
0.646440327167511
 30
0.646440327167511
 70
   192
  0
VERTEX
  5
5FB
  8
0
 10
2.659427165985107
 20
0.5
 30
1.0
 70
   192
  0
VERTEX
  5
5FC
  8
0
 10
3.58686900138855
 20
1.241814732551575
 30
2.433006525039673
 70
   192
  0
VERTEX
  5
5FD
  8
0
 10
3.132508277893066
 20
0.5
 30
2.099999904632568
 70
   192
  0
VERTEX
  5
5FE
  8
0
 10
4.58988618850708
 20
-0.0000000000003381
 30
3.514465093612671
 70
   192
  0
VERTEX
  5
5FF
  8
0
 10
4.451928615570068
 20
2.428762197494507
 30
2.428762197494507
 70
   192
  0
VERTEX
  5
600
  8
0
 10
3.095591068267822
 20
-0.0000000000000001
 30
2.099999904632568
 70
   192
  0
VERTEX
  5
601
  8
0
 10
6.5
 20
1.172567248344421
 30
3.822455167770386
 70
   192
  0
VERTEX
  5
602
  8
0
 10
5.465551853179932
 20
1.757643103599548
 30
3.443635225296021
 70
   192
  0
VERTEX
  5
603
  8
0
 10
6.5
 20
2.322906494140625
 30
3.255941867828369
 70
   192
  0
VERTEX
  5
604
  8
0
 10
5.465551853179932
 20
0.6661331057548523
 30
3.808437824249268
 70
   192
  0
VERTEX
  5
605
  8
0
 10
6.5
 20
0.0000000000007698
 30
4.0
 70
   192
  0
VERTEX
  5
606
  8
0
 10
2.659427165985107
 20
1.0
 30
0.5
 70
   192
  0
VERTEX
  5
607
  8
0
 10
4.451928615570068
 20
1.561493396759033
 30
3.059331655502319
 70
   192
  0
VERTEX
  5
608
  8
0
 10
5.540791511535645
 20
-0.0000000000005607
 30
3.883287191390991
 70
   192
  0
VERTEX
  5
609
  8
0
 10
5.465551853179932
 20
2.733855485916138
 30
2.733855485916138
 70
   192
  0
VERTEX
  5
60A
  8
0
 10
5.465551853179932
 20
3.443635225296021
 30
1.757643103599548
 70
   192
  0
VERTEX
  5
60B
  8
0
 10
6.5
 20
3.253673791885376
 30
2.326359272003174
 70
   192
  0
VERTEX
  5
60C
  8
0
 10
6.5
 20
3.823632955551147
 30
1.177936196327209
 70
   192
  0
VERTEX
  5
60D
  8
0
 10
3.746081829071045
 20
-2.901022911071777
 30
-0.0000000000001396
 70
   192
  0
VERTEX
  5
60E
  8
0
 10
3.58678412437439
 20
-2.690657138824463
 30
0.4706223011016846
 70
   192
  0
VERTEX
  5
60F
  8
0
 10
4.451859951019287
 20
-3.383382558822632
 30
0.5917867422103882
 70
   192
  0
VERTEX
  5
610
  8
0
 10
5.465516567230225
 20
-0.6661314964294434
 30
3.808428764343262
 70
   192
  0
VERTEX
  5
611
  8
0
 10
4.451859951019287
 20
-0.5917867422103882
 30
3.383382558822632
 70
   192
  0
VERTEX
  5
612
  8
0
 10
3.58678412437439
 20
-1.241773009300232
 30
2.432924509048462
 70
   192
  0
VERTEX
  5
613
  8
0
 10
2.957313776016235
 20
-1.316698908805847
 30
1.316698908805847
 70
   192
  0
VERTEX
  5
614
  8
0
 10
2.957313776016235
 20
-0.8465285301208496
 30
1.658547878265381
 70
   192
  0
VERTEX
  5
615
  8
0
 10
4.451859951019287
 20
-1.561474680900574
 30
3.059294939041138
 70
   192
  0
VERTEX
  5
616
  8
0
 10
3.58678412437439
 20
-1.931465983390808
 30
1.931465983390808
 70
   192
  0
VERTEX
  5
617
  8
0
 10
3.58678412437439
 20
-0.4706223011016846
 30
2.690657138824463
 70
   192
  0
VERTEX
  5
618
  8
0
 10
3.132508277893066
 20
-0.5
 30
2.099999904632568
 70
   192
  0
VERTEX
  5
619
  8
0
 10
2.605877161026001
 20
-0.6442089080810547
 30
0.6486985683441162
 70
   192
  0
VERTEX
  5
61A
  8
0
 10
2.659427165985107
 20
-1.0
 30
0.5
 70
   192
  0
VERTEX
  5
61B
  8
0
 10
3.58678412437439
 20
-2.432924509048462
 30
1.241773009300232
 70
   192
  0
VERTEX
  5
61C
  8
0
 10
3.132508277893066
 20
-2.099999904632568
 30
0.5
 70
   192
  0
VERTEX
  5
61D
  8
0
 10
4.589907169342041
 20
-3.514476537704468
 30
-0.0000000000003383
 70
   192
  0
VERTEX
  5
61E
  8
0
 10
4.451859951019287
 20
-2.428733110427856
 30
2.428733110427856
 70
   192
  0
VERTEX
  5
61F
  8
0
 10
3.095591068267822
 20
-2.099999904632568
 30
0.0
 70
   192
  0
VERTEX
  5
620
  8
0
 10
6.5
 20
-3.822455167770386
 30
1.172567248344421
 70
   192
  0
VERTEX
  5
621
  8
0
 10
5.465516567230225
 20
-3.443626880645752
 30
1.757638931274414
 70
   192
  0
VERTEX
  5
622
  8
0
 10
6.5
 20
-3.255941867828369
 30
2.322906494140625
 70
   192
  0
VERTEX
  5
623
  8
0
 10
5.465516567230225
 20
-3.808428764343262
 30
0.6661314964294434
 70
   192
  0
VERTEX
  5
624
  8
0
 10
6.5
 20
-4.0
 30
0.0000000000007701
 70
   192
  0
VERTEX
  5
625
  8
0
 10
2.659427165985107
 20
-0.5
 30
1.0
 70
   192
  0
VERTEX
  5
626
  8
0
 10
4.451859951019287
 20
-3.059294939041138
 30
1.561474680900574
 70
   192
  0
VERTEX
  5
627
  8
0
 10
5.540808200836182
 20
-3.883291244506836
 30
-0.0000000000005609
 70
   192
  0
VERTEX
  5
628
  8
0
 10
5.465516567230225
 20
-2.733849048614502
 30
2.733849048614502
 70
   192
  0
VERTEX
  5
629
  8
0
 10
5.465516567230225
 20
-1.757638931274414
 30
3.443626880645752
 70
   192
  0
VERTEX
  5
62A
  8
0
 10
6.5
 20
-2.326359272003174
 30
3.253673791885376
 70
   192
  0
VERTEX
  5
62B
  8
0
 10
6.5
 20
-1.177936196327209
 30
3.823632955551147
 70
   192
  0
VERTEX
  5
62C
  8
0
 10
4.5
 20
0.6464465856552124
 30
0.6464465856552124
 70
   192
  0
VERTEX
  5
62D
  8
0
 10
4.5
 20
1.0
 30
0.5
 70
   192
  0
VERTEX
  5
62E
  8
0
 10
4.5
 20
0.5
 30
1.0
 70
   192
  0
VERTEX
  5
62F
  8
0
 10
4.5
 20
2.099999904632568
 30
0.5
 70
   192
  0
VERTEX
  5
630
  8
0
 10
4.5
 20
0.5
 30
2.099999904632568
 70
   192
  0
VERTEX
  5
631
  8
0
 10
4.5
 20
-0.5
 30
2.099999904632568
 70
   192
  0
VERTEX
  5
632
  8
0
 10
4.5
 20
-1.0
 30
-0.5
 70
   192
  0
VERTEX
  5
633
  8
0
 10
4.5
 20
-2.099999904632568
 30
0.5
 70
   192
  0
VERTEX
  5
634
  8
0
 10
4.5
 20
-2.099999904632568
 30
-0.5
 70
   192
  0
VERTEX
  5
635
  8
0
 10
4.5
 20
1.0
 30
-0.5
 70
   192
  0
VERTEX
  5
636
  8
0
 10
4.5
 20
2.099999904632568
 30
-0.5
 70
   192
  0
VERTEX
  5
637
  8
0
 10
4.5
 20
0.6464465856552124
 30
-0.6464465856552124
 70
   192
  0
VERTEX
  5
638
  8
0
 10
4.5
 20
0.5
 30
-1.0
 70
   192
  0
VERTEX
  5
639
  8
0
 10
4.5
 20
-0.6464465856552124
 30
-0.6464465856552124
 70
   192
  0
VERTEX
  5
63A
  8
0
 10
4.5
 20
-0.5
 30
-1.0
 70
   192
  0
VERTEX
  5
63B
  8
0
 10
4.5
 20
0.5
 30
-2.099999904632568
 70
   192
  0
VERTEX
  5
63C
  8
0
 10
4.5
 20
-0.5
 30
-2.099999904632568
 70
   192
  0
VERTEX
  5
63D
  8
0
 10
4.5
 20
-0.6464465856552124
 30
0.6464465856552124
 70
   192
  0
VERTEX
  5
63E
  8
0
 10
4.5
 20
-1.0
 30
0.5
 70
   192
  0
VERTEX
  5
63F
  8
0
 10
4.5
 20
-0.5
 30
1.0
 70
   192
  0
VERTEX
  5
640
  8
0
 10
3.132508277893066
 20
-0.5
 30
-2.099999904632568
 70
   192
  0
VERTEX
  5
641
  8
0
 10
2.659427165985107
 20
-0.5
 30
-1.0
 70
   192
  0
VERTEX
  5
642
  8
0
 10
2.605048894882202
 20
-0.6635648608207703
 30
-0.6262803077697754
 70
   192
  0
VERTEX
  5
643
  8
0
 10
2.659427165985107
 20
-1.0
 30
-0.5
 70
   192
  0
VERTEX
  5
644
  8
0
 10
3.132508277893066
 20
-2.099999904632568
 30
-0.5
 70
   192
  0
VERTEX
  5
645
  8
0
 10
3.58649206161499
 20
-1.241629123687744
 30
-2.432642698287964
 70
   192
  0
VERTEX
  5
646
  8
0
 10
3.58649206161499
 20
-1.931242227554321
 30
-1.931242227554321
 70
   192
  0
VERTEX
  5
647
  8
0
 10
4.45162296295166
 20
-2.428632736206055
 30
-2.428632736206055
 70
   192
  0
VERTEX
  5
648
  8
0
 10
3.58649206161499
 20
-2.432642698287964
 30
-1.241629123687744
 70
   192
  0
VERTEX
  5
649
  8
0
 10
4.45162296295166
 20
-3.059168577194214
 30
-1.561410188674927
 70
   192
  0
VERTEX
  5
64A
  8
0
 10
6.5
 20
-2.322906494140625
 30
-3.255941867828369
 70
   192
  0
VERTEX
  5
64B
  8
0
 10
6.5
 20
-1.172567248344421
 30
-3.822455167770386
 70
   192
  0
VERTEX
  5
64C
  8
0
 10
5.465394020080566
 20
-1.757624626159668
 30
-3.443598985671997
 70
   192
  0
VERTEX
  5
64D
  8
0
 10
5.465394020080566
 20
-0.6661260724067688
 30
-3.808397769927979
 70
   192
  0
VERTEX
  5
64E
  8
0
 10
3.58649206161499
 20
-0.4705677926540375
 30
-2.690345525741577
 70
   192
  0
VERTEX
  5
64F
  8
0
 10
4.45162296295166
 20
-0.5917623043060303
 30
-3.383242845535278
 70
   192
  0
VERTEX
  5
650
  8
0
 10
5.465394020080566
 20
-3.808397769927979
 30
-0.6661260724067688
 70
   192
  0
VERTEX
  5
651
  8
0
 10
4.45162296295166
 20
-3.383242845535278
 30
-0.5917623043060303
 70
   192
  0
VERTEX
  5
652
  8
0
 10
2.9570472240448
 20
-1.316342115402222
 30
-1.316342115402222
 70
   192
  0
VERTEX
  5
653
  8
0
 10
2.9570472240448
 20
-1.658098578453064
 30
-0.8462991714477539
 70
   192
  0
VERTEX
  5
654
  8
0
 10
3.58649206161499
 20
-2.690345525741577
 30
-0.4705677926540375
 70
   192
  0
VERTEX
  5
655
  8
0
 10
4.45162296295166
 20
-1.561410188674927
 30
-3.059168577194214
 70
   192
  0
VERTEX
  5
656
  8
0
 10
5.465394020080566
 20
-2.733826875686646
 30
-2.733826875686646
 70
   192
  0
VERTEX
  5
657
  8
0
 10
5.465394020080566
 20
-3.443598985671997
 30
-1.757624626159668
 70
   192
  0
VERTEX
  5
658
  8
0
 10
6.5
 20
-3.253673791885376
 30
-2.326359272003174
 70
   192
  0
VERTEX
  5
659
  8
0
 10
6.5
 20
-3.823632955551147
 30
-1.177936196327209
 70
   192
  0
VERTEX
  5
65A
  8
0
 62
   123
 10
0.0
 20
0.0
 30
0.0
 70
   128
 71
     3
 72
     2
 73
     1
  0
VERTEX
  5
65B
  8
0
 62
   123
 10
0.0
 20
0.0
 30
0.0
 70
   128
 71
     6
 72
     5
 73
     4
  0
VERTEX
  5
65C
  8
0
 62
   123
 10
0.0
 20
0.0
 30
0.0
 70
   128
 71
     9
 72
     8
 73
     7
  0
VERTEX
  5
65D
  8
0
 62
   123
 10
0.0
 20
0.0
 30
0.0
 70
   128
 71
     7
 72
    11
 73
    10
  0
VERTEX
  5
65E
  8
0
 62
   123
 10
0.0
 20
0.0
 30
0.0
 70
   128
 71
    13
 72
     4
 73
    12
  0
VERTEX
  5
65F
  8
0
 62
   123
 10
0.0
 20
0.0
 30
0.0
 70
   128
 71
    16
 72
    15
 73
    14
  0
VERTEX
  5
660
  8
0
 62
   123
 10
0.0
 20
0.0
 30
0.0
 70
   128
 71
    10
 72
     5
 73
     7
  0
VERTEX
  5
661
  8
0
 62
   123
 10
0.0
 20
0.0
 30
0.0
 70
   128
 71
    18
 72
     8
 73
    17
  0
VERTEX
  5
662
  8
0
 62
   123
 10
0.0
 20
0.0
 30
0.0
 70
   128
 71
    11
 72
     7
 73
     8
  0
VERTEX
  5
663
  8
0
 62
   123
 10
0.0
 20
0.0
 30
0.0
 70
   128
 71
    20
 72
    19
 73
    18
  0
VERTEX
  5
664
  8
0
 62
   123
 10
0.0
 20
0.0
 30
0.0
 70
   128
 71
     1
 72
    21
 73
     3
  0
VERTEX
  5
665
  8
0
 62
   123
 10
0.0
 20
0.0
 30
0.0
 70
   128
 71
    11
 72
    19
 73
    22
  0
VERTEX
  5
666
  8
0
 62
   123
 10
0.0
 20
0.0
 30
0.0
 70
   128
 71
     2
 72
    23
 73
     1
  0
VERTEX
  5
667
  8
0
 62
   123
 10
0.0
 20
0.0
 30
0.0
 70
   128
 71
    26
 72
    25
 73
    24
  0
VERTEX
  5
668
  8
0
 62
   123
 10
0.0
 20
0.0
 30
0.0
 70
   128
 71
    27
 72
    24
 73
    25
  0
VERTEX
  5
669
  8
0
 62
   123
 10
0.0
 20
0.0
 30
0.0
 70
   128
 71
    27
 72
    28
 73
    24
  0
VERTEX
  5
66A
  8
0
 62
   123
 10
0.0
 20
0.0
 30
0.0
 70
   128
 71
    19
 72
    20
 73
     2
  0
VERTEX
  5
66B
  8
0
 62
   123
 10
0.0
 20
0.0
 30
0.0
 70
   128
 71
     9
 72
    17
 73
     8
  0
VERTEX
  5
66C
  8
0
 62
   123
 10
0.0
 20
0.0
 30
0.0
 70
   128
 71
    19
 72
     8
 73
    18
  0
VERTEX
  5
66D
  8
0
 62
   123
 10
0.0
 20
0.0
 30
0.0
 70
   128
 71
    29
 72
     9
 73
    16
  0
VERTEX
  5
66E
  8
0
 62
   123
 10
0.0
 20
0.0
 30
0.0
 70
   128
 71
     9
 72
    29
 73
    17
  0
VERTEX
  5
66F
  8
0
 62
   123
 10
0.0
 20
0.0
 30
0.0
 70
   128
 71
    20
 72
    23
 73
     2
  0
VERTEX
  5
670
  8
0
 62
   123
 10
0.0
 20
0.0
 30
0.0
 70
   128
 71
    25
 72
     3
 73
    27
  0
VERTEX
  5
671
  8
0
 62
   123
 10
0.0
 20
0.0
 30
0.0
 70
   128
 71
     4
 72
     5
 73
    10
  0
VERTEX
  5
672
  8
0
 62
   123
 10
0.0
 20
0.0
 30
0.0
 70
   128
 71
     8
 72
    19
 73
    11
  0
VERTEX
  5
673
  8
0
 62
   123
 10
0.0
 20
0.0
 30
0.0
 70
   128
 71
    22
 72
    19
 73
    30
  0
VERTEX
  5
674
  8
0
 62
   123
 10
0.0
 20
0.0
 30
0.0
 70
   128
 71
     7
 72
    16
 73
     9
  0
VERTEX
  5
675
  8
0
 62
   123
 10
0.0
 20
0.0
 30
0.0
 70
   128
 71
    10
 72
    11
 73
    22
  0
VERTEX
  5
676
  8
0
 62
   123
 10
0.0
 20
0.0
 30
0.0
 70
   128
 71
    31
 72
    15
 73
     5
  0
VERTEX
  5
677
  8
0
 62
   123
 10
0.0
 20
0.0
 30
0.0
 70
   128
 71
    15
 72
    31
 73
    14
  0
VERTEX
  5
678
  8
0
 62
   123
 10
0.0
 20
0.0
 30
0.0
 70
   128
 71
     7
 72
    15
 73
    16
  0
VERTEX
  5
679
  8
0
 62
   123
 10
0.0
 20
0.0
 30
0.0
 70
   128
 71
    30
 72
     2
 73
     3
  0
VERTEX
  5
67A
  8
0
 62
   123
 10
0.0
 20
0.0
 30
0.0
 70
   128
 71
    32
 72
    27
 73
    21
  0
VERTEX
  5
67B
  8
0
 62
   123
 10
0.0
 20
0.0
 30
0.0
 70
   128
 71
    30
 72
    33
 73
    22
  0
VERTEX
  5
67C
  8
0
 62
   123
 10
0.0
 20
0.0
 30
0.0
 70
   128
 71
    30
 72
    19
 73
     2
  0
VERTEX
  5
67D
  8
0
 62
   123
 10
0.0
 20
0.0
 30
0.0
 70
   128
 71
    25
 72
    33
 73
    30
  0
VERTEX
  5
67E
  8
0
 62
   123
 10
0.0
 20
0.0
 30
0.0
 70
   128
 71
    22
 72
    34
 73
    10
  0
VERTEX
  5
67F
  8
0
 62
   123
 10
0.0
 20
0.0
 30
0.0
 70
   128
 71
    22
 72
    33
 73
    34
  0
VERTEX
  5
680
  8
0
 62
   123
 10
0.0
 20
0.0
 30
0.0
 70
   128
 71
     5
 72
    15
 73
     7
  0
VERTEX
  5
681
  8
0
 62
   123
 10
0.0
 20
0.0
 30
0.0
 70
   128
 71
    34
 72
     4
 73
    10
  0
VERTEX
  5
682
  8
0
 62
   123
 10
0.0
 20
0.0
 30
0.0
 70
   128
 71
     5
 72
     6
 73
    31
  0
VERTEX
  5
683
  8
0
 62
   123
 10
0.0
 20
0.0
 30
0.0
 70
   128
 71
    27
 72
     3
 73
    21
  0
VERTEX
  5
684
  8
0
 62
   123
 10
0.0
 20
0.0
 30
0.0
 70
   128
 71
    27
 72
    32
 73
    28
  0
VERTEX
  5
685
  8
0
 62
   123
 10
0.0
 20
0.0
 30
0.0
 70
   128
 71
    35
 72
    33
 73
    26
  0
VERTEX
  5
686
  8
0
 62
   123
 10
0.0
 20
0.0
 30
0.0
 70
   128
 71
    25
 72
    30
 73
     3
  0
VERTEX
  5
687
  8
0
 62
   123
 10
0.0
 20
0.0
 30
0.0
 70
   128
 71
    33
 72
    25
 73
    26
  0
VERTEX
  5
688
  8
0
 62
   123
 10
0.0
 20
0.0
 30
0.0
 70
   128
 71
    36
 72
    34
 73
    35
  0
VERTEX
  5
689
  8
0
 62
   123
 10
0.0
 20
0.0
 30
0.0
 70
   128
 71
    34
 72
    33
 73
    35
  0
VERTEX
  5
68A
  8
0
 62
   123
 10
0.0
 20
0.0
 30
0.0
 70
   128
 71
    12
 72
     4
 73
    36
  0
VERTEX
  5
68B
  8
0
 62
   123
 10
0.0
 20
0.0
 30
0.0
 70
   128
 71
     4
 72
    34
 73
    36
  0
VERTEX
  5
68C
  8
0
 62
   123
 10
0.0
 20
0.0
 30
0.0
 70
   128
 71
     4
 72
    13
 73
     6
  0
VERTEX
  5
68D
  8
0
 62
   123
 10
0.0
 20
0.0
 30
0.0
 70
   128
 71
    39
 72
    38
 73
    37
  0
VERTEX
  5
68E
  8
0
 62
   123
 10
0.0
 20
0.0
 30
0.0
 70
   128
 71
    41
 72
    40
 73
    21
  0
VERTEX
  5
68F
  8
0
 62
   123
 10
0.0
 20
0.0
 30
0.0
 70
   128
 71
    43
 72
    42
 73
    41
  0
VERTEX
  5
690
  8
0
 62
   123
 10
0.0
 20
0.0
 30
0.0
 70
   128
 71
    45
 72
    44
 73
    43
  0
VERTEX
  5
691
  8
0
 62
   123
 10
0.0
 20
0.0
 30
0.0
 70
   128
 71
    42
 72
    43
 73
    46
  0
VERTEX
  5
692
  8
0
 62
   123
 10
0.0
 20
0.0
 30
0.0
 70
   128
 71
    48
 72
    47
 73
    23
  0
VERTEX
  5
693
  8
0
 62
   123
 10
0.0
 20
0.0
 30
0.0
 70
   128
 71
    32
 72
    40
 73
    28
  0
VERTEX
  5
694
  8
0
 62
   123
 10
0.0
 20
0.0
 30
0.0
 70
   128
 71
    50
 72
    44
 73
    49
  0
VERTEX
  5
695
  8
0
 62
   123
 10
0.0
 20
0.0
 30
0.0
 70
   128
 71
    46
 72
    43
 73
    44
  0
VERTEX
  5
696
  8
0
 62
   123
 10
0.0
 20
0.0
 30
0.0
 70
   128
 71
    52
 72
    51
 73
    50
  0
VERTEX
  5
697
  8
0
 62
   123
 10
0.0
 20
0.0
 30
0.0
 70
   128
 71
    39
 72
    37
 73
    53
  0
VERTEX
  5
698
  8
0
 62
   123
 10
0.0
 20
0.0
 30
0.0
 70
   128
 71
    46
 72
    51
 73
    54
  0
VERTEX
  5
699
  8
0
 62
   123
 10
0.0
 20
0.0
 30
0.0
 70
   128
 71
    38
 72
    55
 73
    37
  0
VERTEX
  5
69A
  8
0
 62
   123
 10
0.0
 20
0.0
 30
0.0
 70
   128
 71
    58
 72
    57
 73
    56
  0
VERTEX
  5
69B
  8
0
 62
   123
 10
0.0
 20
0.0
 30
0.0
 70
   128
 71
    59
 72
    56
 73
    57
  0
VERTEX
  5
69C
  8
0
 62
   123
 10
0.0
 20
0.0
 30
0.0
 70
   128
 71
    59
 72
    60
 73
    56
  0
VERTEX
  5
69D
  8
0
 62
   123
 10
0.0
 20
0.0
 30
0.0
 70
   128
 71
    51
 72
    52
 73
    38
  0
VERTEX
  5
69E
  8
0
 62
   123
 10
0.0
 20
0.0
 30
0.0
 70
   128
 71
    45
 72
    49
 73
    44
  0
VERTEX
  5
69F
  8
0
 62
   123
 10
0.0
 20
0.0
 30
0.0
 70
   128
 71
    51
 72
    44
 73
    50
  0
VERTEX
  5
6A0
  8
0
 62
   123
 10
0.0
 20
0.0
 30
0.0
 70
   128
 71
    61
 72
    45
 73
    48
  0
VERTEX
  5
6A1
  8
0
 62
   123
 10
0.0
 20
0.0
 30
0.0
 70
   128
 71
    45
 72
    61
 73
    49
  0
VERTEX
  5
6A2
  8
0
 62
   123
 10
0.0
 20
0.0
 30
0.0
 70
   128
 71
    52
 72
    55
 73
    38
  0
VERTEX
  5
6A3
  8
0
 62
   123
 10
0.0
 20
0.0
 30
0.0
 70
   128
 71
    57
 72
    39
 73
    59
  0
VERTEX
  5
6A4
  8
0
 62
   123
 10
0.0
 20
0.0
 30
0.0
 70
   128
 71
    40
 72
    41
 73
    42
  0
VERTEX
  5
6A5
  8
0
 62
   123
 10
0.0
 20
0.0
 30
0.0
 70
   128
 71
    44
 72
    51
 73
    46
  0
VERTEX
  5
6A6
  8
0
 62
   123
 10
0.0
 20
0.0
 30
0.0
 70
   128
 71
    54
 72
    51
 73
    62
  0
VERTEX
  5
6A7
  8
0
 62
   123
 10
0.0
 20
0.0
 30
0.0
 70
   128
 71
    43
 72
    48
 73
    45
  0
VERTEX
  5
6A8
  8
0
 62
   123
 10
0.0
 20
0.0
 30
0.0
 70
   128
 71
    42
 72
    46
 73
    54
  0
VERTEX
  5
6A9
  8
0
 62
   123
 10
0.0
 20
0.0
 30
0.0
 70
   128
 71
     1
 72
    47
 73
    41
  0
VERTEX
  5
6AA
  8
0
 62
   123
 10
0.0
 20
0.0
 30
0.0
 70
   128
 71
    47
 72
     1
 73
    23
  0
VERTEX
  5
6AB
  8
0
 62
   123
 10
0.0
 20
0.0
 30
0.0
 70
   128
 71
    43
 72
    47
 73
    48
  0
VERTEX
  5
6AC
  8
0
 62
   123
 10
0.0
 20
0.0
 30
0.0
 70
   128
 71
    62
 72
    38
 73
    39
  0
VERTEX
  5
6AD
  8
0
 62
   123
 10
0.0
 20
0.0
 30
0.0
 70
   128
 71
    63
 72
    59
 73
    53
  0
VERTEX
  5
6AE
  8
0
 62
   123
 10
0.0
 20
0.0
 30
0.0
 70
   128
 71
    62
 72
    64
 73
    54
  0
VERTEX
  5
6AF
  8
0
 62
   123
 10
0.0
 20
0.0
 30
0.0
 70
   128
 71
    62
 72
    51
 73
    38
  0
VERTEX
  5
6B0
  8
0
 62
   123
 10
0.0
 20
0.0
 30
0.0
 70
   128
 71
    57
 72
    64
 73
    62
  0
VERTEX
  5
6B1
  8
0
 62
   123
 10
0.0
 20
0.0
 30
0.0
 70
   128
 71
    54
 72
    65
 73
    42
  0
VERTEX
  5
6B2
  8
0
 62
   123
 10
0.0
 20
0.0
 30
0.0
 70
   128
 71
    54
 72
    64
 73
    65
  0
VERTEX
  5
6B3
  8
0
 62
   123
 10
0.0
 20
0.0
 30
0.0
 70
   128
 71
    41
 72
    47
 73
    43
  0
VERTEX
  5
6B4
  8
0
 62
   123
 10
0.0
 20
0.0
 30
0.0
 70
   128
 71
    65
 72
    40
 73
    42
  0
VERTEX
  5
6B5
  8
0
 62
   123
 10
0.0
 20
0.0
 30
0.0
 70
   128
 71
    41
 72
    21
 73
     1
  0
VERTEX
  5
6B6
  8
0
 62
   123
 10
0.0
 20
0.0
 30
0.0
 70
   128
 71
    59
 72
    39
 73
    53
  0
VERTEX
  5
6B7
  8
0
 62
   123
 10
0.0
 20
0.0
 30
0.0
 70
   128
 71
    59
 72
    63
 73
    60
  0
VERTEX
  5
6B8
  8
0
 62
   123
 10
0.0
 20
0.0
 30
0.0
 70
   128
 71
    66
 72
    64
 73
    58
  0
VERTEX
  5
6B9
  8
0
 62
   123
 10
0.0
 20
0.0
 30
0.0
 70
   128
 71
    57
 72
    62
 73
    39
  0
VERTEX
  5
6BA
  8
0
 62
   123
 10
0.0
 20
0.0
 30
0.0
 70
   128
 71
    64
 72
    57
 73
    58
  0
VERTEX
  5
6BB
  8
0
 62
   123
 10
0.0
 20
0.0
 30
0.0
 70
   128
 71
    67
 72
    65
 73
    66
  0
VERTEX
  5
6BC
  8
0
 62
   123
 10
0.0
 20
0.0
 30
0.0
 70
   128
 71
    65
 72
    64
 73
    66
  0
VERTEX
  5
6BD
  8
0
 62
   123
 10
0.0
 20
0.0
 30
0.0
 70
   128
 71
    28
 72
    40
 73
    67
  0
VERTEX
  5
6BE
  8
0
 62
   123
 10
0.0
 20
0.0
 30
0.0
 70
   128
 71
    40
 72
    65
 73
    67
  0
VERTEX
  5
6BF
  8
0
 62
   123
 10
0.0
 20
0.0
 30
0.0
 70
   128
 71
    40
 72
    32
 73
    21
  0
VERTEX
  5
6C0
  8
0
 62
   123
 10
0.0
 20
0.0
 30
0.0
 70
   128
 71
    70
 72
    69
 73
    68
  0
VERTEX
  5
6C1
  8
0
 62
   123
 10
0.0
 20
0.0
 30
0.0
 70
   128
 71
    53
 72
    72
 73
    71
  0
VERTEX
  5
6C2
  8
0
 62
   123
 10
0.0
 20
0.0
 30
0.0
 70
   128
 71
    75
 72
    74
 73
    73
  0
VERTEX
  5
6C3
  8
0
 62
   123
 10
0.0
 20
0.0
 30
0.0
 70
   128
 71
    73
 72
    77
 73
    76
  0
VERTEX
  5
6C4
  8
0
 62
   123
 10
0.0
 20
0.0
 30
0.0
 70
   128
 71
    63
 72
    71
 73
    60
  0
VERTEX
  5
6C5
  8
0
 62
   123
 10
0.0
 20
0.0
 30
0.0
 70
   128
 71
    79
 72
    78
 73
    55
  0
VERTEX
  5
6C6
  8
0
 62
   123
 10
0.0
 20
0.0
 30
0.0
 70
   128
 71
    76
 72
    72
 73
    73
  0
VERTEX
  5
6C7
  8
0
 62
   123
 10
0.0
 20
0.0
 30
0.0
 70
   128
 71
    81
 72
    74
 73
    80
  0
VERTEX
  5
6C8
  8
0
 62
   123
 10
0.0
 20
0.0
 30
0.0
 70
   128
 71
    77
 72
    73
 73
    74
  0
VERTEX
  5
6C9
  8
0
 62
   123
 10
0.0
 20
0.0
 30
0.0
 70
   128
 71
    83
 72
    82
 73
    81
  0
VERTEX
  5
6CA
  8
0
 62
   123
 10
0.0
 20
0.0
 30
0.0
 70
   128
 71
    68
 72
    84
 73
    70
  0
VERTEX
  5
6CB
  8
0
 62
   123
 10
0.0
 20
0.0
 30
0.0
 70
   128
 71
    77
 72
    82
 73
    85
  0
VERTEX
  5
6CC
  8
0
 62
   123
 10
0.0
 20
0.0
 30
0.0
 70
   128
 71
    69
 72
    86
 73
    68
  0
VERTEX
  5
6CD
  8
0
 62
   123
 10
0.0
 20
0.0
 30
0.0
 70
   128
 71
    89
 72
    88
 73
    87
  0
VERTEX
  5
6CE
  8
0
 62
   123
 10
0.0
 20
0.0
 30
0.0
 70
   128
 71
    90
 72
    87
 73
    88
  0
VERTEX
  5
6CF
  8
0
 62
   123
 10
0.0
 20
0.0
 30
0.0
 70
   128
 71
    90
 72
    91
 73
    87
  0
VERTEX
  5
6D0
  8
0
 62
   123
 10
0.0
 20
0.0
 30
0.0
 70
   128
 71
    82
 72
    83
 73
    69
  0
VERTEX
  5
6D1
  8
0
 62
   123
 10
0.0
 20
0.0
 30
0.0
 70
   128
 71
    75
 72
    80
 73
    74
  0
VERTEX
  5
6D2
  8
0
 62
   123
 10
0.0
 20
0.0
 30
0.0
 70
   128
 71
    82
 72
    74
 73
    81
  0
VERTEX
  5
6D3
  8
0
 62
   123
 10
0.0
 20
0.0
 30
0.0
 70
   128
 71
    92
 72
    75
 73
    79
  0
VERTEX
  5
6D4
  8
0
 62
   123
 10
0.0
 20
0.0
 30
0.0
 70
   128
 71
    75
 72
    92
 73
    80
  0
VERTEX
  5
6D5
  8
0
 62
   123
 10
0.0
 20
0.0
 30
0.0
 70
   128
 71
    83
 72
    86
 73
    69
  0
VERTEX
  5
6D6
  8
0
 62
   123
 10
0.0
 20
0.0
 30
0.0
 70
   128
 71
    88
 72
    70
 73
    90
  0
VERTEX
  5
6D7
  8
0
 62
   123
 10
0.0
 20
0.0
 30
0.0
 70
   128
 71
    71
 72
    72
 73
    76
  0
VERTEX
  5
6D8
  8
0
 62
   123
 10
0.0
 20
0.0
 30
0.0
 70
   128
 71
    74
 72
    82
 73
    77
  0
VERTEX
  5
6D9
  8
0
 62
   123
 10
0.0
 20
0.0
 30
0.0
 70
   128
 71
    85
 72
    82
 73
    93
  0
VERTEX
  5
6DA
  8
0
 62
   123
 10
0.0
 20
0.0
 30
0.0
 70
   128
 71
    73
 72
    79
 73
    75
  0
VERTEX
  5
6DB
  8
0
 62
   123
 10
0.0
 20
0.0
 30
0.0
 70
   128
 71
    76
 72
    77
 73
    85
  0
VERTEX
  5
6DC
  8
0
 62
   123
 10
0.0
 20
0.0
 30
0.0
 70
   128
 71
    37
 72
    78
 73
    72
  0
VERTEX
  5
6DD
  8
0
 62
   123
 10
0.0
 20
0.0
 30
0.0
 70
   128
 71
    78
 72
    37
 73
    55
  0
VERTEX
  5
6DE
  8
0
 62
   123
 10
0.0
 20
0.0
 30
0.0
 70
   128
 71
    73
 72
    78
 73
    79
  0
VERTEX
  5
6DF
  8
0
 62
   123
 10
0.0
 20
0.0
 30
0.0
 70
   128
 71
    93
 72
    69
 73
    70
  0
VERTEX
  5
6E0
  8
0
 62
   123
 10
0.0
 20
0.0
 30
0.0
 70
   128
 71
    94
 72
    90
 73
    84
  0
VERTEX
  5
6E1
  8
0
 62
   123
 10
0.0
 20
0.0
 30
0.0
 70
   128
 71
    93
 72
    95
 73
    85
  0
VERTEX
  5
6E2
  8
0
 62
   123
 10
0.0
 20
0.0
 30
0.0
 70
   128
 71
    93
 72
    82
 73
    69
  0
VERTEX
  5
6E3
  8
0
 62
   123
 10
0.0
 20
0.0
 30
0.0
 70
   128
 71
    88
 72
    95
 73
    93
  0
VERTEX
  5
6E4
  8
0
 62
   123
 10
0.0
 20
0.0
 30
0.0
 70
   128
 71
    85
 72
    96
 73
    76
  0
VERTEX
  5
6E5
  8
0
 62
   123
 10
0.0
 20
0.0
 30
0.0
 70
   128
 71
    85
 72
    95
 73
    96
  0
VERTEX
  5
6E6
  8
0
 62
   123
 10
0.0
 20
0.0
 30
0.0
 70
   128
 71
    72
 72
    78
 73
    73
  0
VERTEX
  5
6E7
  8
0
 62
   123
 10
0.0
 20
0.0
 30
0.0
 70
   128
 71
    96
 72
    71
 73
    76
  0
VERTEX
  5
6E8
  8
0
 62
   123
 10
0.0
 20
0.0
 30
0.0
 70
   128
 71
    72
 72
    53
 73
    37
  0
VERTEX
  5
6E9
  8
0
 62
   123
 10
0.0
 20
0.0
 30
0.0
 70
   128
 71
    90
 72
    70
 73
    84
  0
VERTEX
  5
6EA
  8
0
 62
   123
 10
0.0
 20
0.0
 30
0.0
 70
   128
 71
    90
 72
    94
 73
    91
  0
VERTEX
  5
6EB
  8
0
 62
   123
 10
0.0
 20
0.0
 30
0.0
 70
   128
 71
    97
 72
    95
 73
    89
  0
VERTEX
  5
6EC
  8
0
 62
   123
 10
0.0
 20
0.0
 30
0.0
 70
   128
 71
    88
 72
    93
 73
    70
  0
VERTEX
  5
6ED
  8
0
 62
   123
 10
0.0
 20
0.0
 30
0.0
 70
   128
 71
    95
 72
    88
 73
    89
  0
VERTEX
  5
6EE
  8
0
 62
   123
 10
0.0
 20
0.0
 30
0.0
 70
   128
 71
    98
 72
    96
 73
    97
  0
VERTEX
  5
6EF
  8
0
 62
   123
 10
0.0
 20
0.0
 30
0.0
 70
   128
 71
    96
 72
    95
 73
    97
  0
VERTEX
  5
6F0
  8
0
 62
   123
 10
0.0
 20
0.0
 30
0.0
 70
   128
 71
    60
 72
    71
 73
    98
  0
VERTEX
  5
6F1
  8
0
 62
   123
 10
0.0
 20
0.0
 30
0.0
 70
   128
 71
    71
 72
    96
 73
    98
  0
VERTEX
  5
6F2
  8
0
 62
   123
 10
0.0
 20
0.0
 30
0.0
 70
   128
 71
    71
 72
    63
 73
    53
  0
VERTEX
  5
6F3
  8
0
 62
   123
 10
0.0
 20
0.0
 30
0.0
 70
   128
 71
    99
 72
    49
 73
    61
  0
VERTEX
  5
6F4
  8
0
 62
   123
 10
0.0
 20
0.0
 30
0.0
 70
   128
 71
    61
 72
   100
 73
    99
  0
VERTEX
  5
6F5
  8
0
 62
   123
 10
0.0
 20
0.0
 30
0.0
 70
   128
 71
    50
 72
    49
 73
    99
  0
VERTEX
  5
6F6
  8
0
 62
   123
 10
0.0
 20
0.0
 30
0.0
 70
   128
 71
    99
 72
   101
 73
    50
  0
VERTEX
  5
6F7
  8
0
 62
   123
 10
0.0
 20
0.0
 30
0.0
 70
   128
 71
   102
 72
   100
 73
    48
  0
VERTEX
  5
6F8
  8
0
 62
   123
 10
0.0
 20
0.0
 30
0.0
 70
   128
 71
   100
 72
    61
 73
    48
  0
VERTEX
  5
6F9
  8
0
 62
   123
 10
0.0
 20
0.0
 30
0.0
 70
   128
 71
   104
 72
   103
 73
   101
  0
VERTEX
  5
6FA
  8
0
 62
   123
 10
0.0
 20
0.0
 30
0.0
 70
   128
 71
   107
 72
   106
 73
   105
  0
VERTEX
  5
6FB
  8
0
 62
   123
 10
0.0
 20
0.0
 30
0.0
 70
   128
 71
   109
 72
   108
 73
   100
  0
VERTEX
  5
6FC
  8
0
 62
   123
 10
0.0
 20
0.0
 30
0.0
 70
   128
 71
   108
 72
   110
 73
    99
  0
VERTEX
  5
6FD
  8
0
 62
   123
 10
0.0
 20
0.0
 30
0.0
 70
   128
 71
   100
 72
   108
 73
    99
  0
VERTEX
  5
6FE
  8
0
 62
   123
 10
0.0
 20
0.0
 30
0.0
 70
   128
 71
   102
 72
   109
 73
   100
  0
VERTEX
  5
6FF
  8
0
 62
   123
 10
0.0
 20
0.0
 30
0.0
 70
   128
 71
   112
 72
   110
 73
   111
  0
VERTEX
  5
700
  8
0
 62
   123
 10
0.0
 20
0.0
 30
0.0
 70
   128
 71
   112
 72
   111
 73
   113
  0
VERTEX
  5
701
  8
0
 62
   123
 10
0.0
 20
0.0
 30
0.0
 70
   128
 71
   111
 72
   114
 73
   113
  0
VERTEX
  5
702
  8
0
 62
   123
 10
0.0
 20
0.0
 30
0.0
 70
   128
 71
   115
 72
   113
 73
   114
  0
VERTEX
  5
703
  8
0
 62
   123
 10
0.0
 20
0.0
 30
0.0
 70
   128
 71
   117
 72
   116
 73
   112
  0
VERTEX
  5
704
  8
0
 62
   123
 10
0.0
 20
0.0
 30
0.0
 70
   128
 71
   116
 72
   110
 73
   112
  0
VERTEX
  5
705
  8
0
 62
   123
 10
0.0
 20
0.0
 30
0.0
 70
   128
 71
   118
 72
    99
 73
   116
  0
VERTEX
  5
706
  8
0
 62
   123
 10
0.0
 20
0.0
 30
0.0
 70
   128
 71
   105
 72
   117
 73
   112
  0
VERTEX
  5
707
  8
0
 62
   123
 10
0.0
 20
0.0
 30
0.0
 70
   128
 71
   116
 72
    99
 73
   110
  0
VERTEX
  5
708
  8
0
 62
   123
 10
0.0
 20
0.0
 30
0.0
 70
   128
 71
   106
 72
   117
 73
   105
  0
VERTEX
  5
709
  8
0
 62
   123
 10
0.0
 20
0.0
 30
0.0
 70
   128
 71
   118
 72
   104
 73
   101
  0
VERTEX
  5
70A
  8
0
 62
   123
 10
0.0
 20
0.0
 30
0.0
 70
   128
 71
   101
 72
    99
 73
   118
  0
VERTEX
  5
70B
  8
0
 62
   123
 10
0.0
 20
0.0
 30
0.0
 70
   128
 71
    20
 72
    18
 73
   108
  0
VERTEX
  5
70C
  8
0
 62
   123
 10
0.0
 20
0.0
 30
0.0
 70
   128
 71
   108
 72
   109
 73
    20
  0
VERTEX
  5
70D
  8
0
 62
   123
 10
0.0
 20
0.0
 30
0.0
 70
   128
 71
   111
 72
   110
 73
    17
  0
VERTEX
  5
70E
  8
0
 62
   123
 10
0.0
 20
0.0
 30
0.0
 70
   128
 71
   108
 72
    18
 73
   110
  0
VERTEX
  5
70F
  8
0
 62
   123
 10
0.0
 20
0.0
 30
0.0
 70
   128
 71
   110
 72
    18
 73
    17
  0
VERTEX
  5
710
  8
0
 62
   123
 10
0.0
 20
0.0
 30
0.0
 70
   128
 71
    29
 72
   111
 73
    17
  0
VERTEX
  5
711
  8
0
 62
   123
 10
0.0
 20
0.0
 30
0.0
 70
   128
 71
    16
 72
   114
 73
   111
  0
VERTEX
  5
712
  8
0
 62
   123
 10
0.0
 20
0.0
 30
0.0
 70
   128
 71
    16
 72
   111
 73
    29
  0
VERTEX
  5
713
  8
0
 62
   123
 10
0.0
 20
0.0
 30
0.0
 70
   128
 71
    16
 72
    14
 73
   114
  0
VERTEX
  5
714
  8
0
 62
   123
 10
0.0
 20
0.0
 30
0.0
 70
   128
 71
   115
 72
   114
 73
    14
  0
VERTEX
  5
715
  8
0
 62
   123
 10
0.0
 20
0.0
 30
0.0
 70
   128
 71
   119
 72
   115
 73
    14
  0
VERTEX
  5
716
  8
0
 62
   123
 10
0.0
 20
0.0
 30
0.0
 70
   128
 71
   113
 72
   115
 73
   119
  0
VERTEX
  5
717
  8
0
 62
   123
 10
0.0
 20
0.0
 30
0.0
 70
   128
 71
   119
 72
   120
 73
   113
  0
VERTEX
  5
718
  8
0
 62
   123
 10
0.0
 20
0.0
 30
0.0
 70
   128
 71
   105
 72
   112
 73
   121
  0
VERTEX
  5
719
  8
0
 62
   123
 10
0.0
 20
0.0
 30
0.0
 70
   128
 71
   113
 72
   120
 73
   112
  0
VERTEX
  5
71A
  8
0
 62
   123
 10
0.0
 20
0.0
 30
0.0
 70
   128
 71
   112
 72
   120
 73
   121
  0
VERTEX
  5
71B
  8
0
 62
   123
 10
0.0
 20
0.0
 30
0.0
 70
   128
 71
   122
 72
   105
 73
   121
  0
VERTEX
  5
71C
  8
0
 62
   123
 10
0.0
 20
0.0
 30
0.0
 70
   128
 71
   105
 72
   122
 73
   123
  0
VERTEX
  5
71D
  8
0
 62
   123
 10
0.0
 20
0.0
 30
0.0
 70
   128
 71
   123
 72
   107
 73
   105
  0
VERTEX
  5
71E
  8
0
 62
   123
 10
0.0
 20
0.0
 30
0.0
 70
   128
 71
   107
 72
   123
 73
    86
  0
VERTEX
  5
71F
  8
0
 62
   123
 10
0.0
 20
0.0
 30
0.0
 70
   128
 71
   106
 72
   107
 73
    86
  0
VERTEX
  5
720
  8
0
 62
   123
 10
0.0
 20
0.0
 30
0.0
 70
   128
 71
    86
 72
    83
 73
   106
  0
VERTEX
  5
721
  8
0
 62
   123
 10
0.0
 20
0.0
 30
0.0
 70
   128
 71
   106
 72
    83
 73
   117
  0
VERTEX
  5
722
  8
0
 62
   123
 10
0.0
 20
0.0
 30
0.0
 70
   128
 71
    83
 72
    81
 73
   117
  0
VERTEX
  5
723
  8
0
 62
   123
 10
0.0
 20
0.0
 30
0.0
 70
   128
 71
   118
 72
   116
 73
    80
  0
VERTEX
  5
724
  8
0
 62
   123
 10
0.0
 20
0.0
 30
0.0
 70
   128
 71
   117
 72
    81
 73
   116
  0
VERTEX
  5
725
  8
0
 62
   123
 10
0.0
 20
0.0
 30
0.0
 70
   128
 71
   116
 72
    81
 73
    80
  0
VERTEX
  5
726
  8
0
 62
   123
 10
0.0
 20
0.0
 30
0.0
 70
   128
 71
    92
 72
   118
 73
    80
  0
VERTEX
  5
727
  8
0
 62
   123
 10
0.0
 20
0.0
 30
0.0
 70
   128
 71
    79
 72
   104
 73
   118
  0
VERTEX
  5
728
  8
0
 62
   123
 10
0.0
 20
0.0
 30
0.0
 70
   128
 71
    79
 72
   118
 73
    92
  0
VERTEX
  5
729
  8
0
 62
   123
 10
0.0
 20
0.0
 30
0.0
 70
   128
 71
   104
 72
    55
 73
   103
  0
VERTEX
  5
72A
  8
0
 62
   123
 10
0.0
 20
0.0
 30
0.0
 70
   128
 71
    79
 72
    55
 73
   104
  0
VERTEX
  5
72B
  8
0
 62
   123
 10
0.0
 20
0.0
 30
0.0
 70
   128
 71
    52
 72
   103
 73
    55
  0
VERTEX
  5
72C
  8
0
 62
   123
 10
0.0
 20
0.0
 30
0.0
 70
   128
 71
   101
 72
   103
 73
    52
  0
VERTEX
  5
72D
  8
0
 62
   123
 10
0.0
 20
0.0
 30
0.0
 70
   128
 71
    52
 72
    50
 73
   101
  0
VERTEX
  5
72E
  8
0
 62
   123
 10
0.0
 20
0.0
 30
0.0
 70
   128
 71
    20
 72
   109
 73
    23
  0
VERTEX
  5
72F
  8
0
 62
   123
 10
0.0
 20
0.0
 30
0.0
 70
   128
 71
   102
 72
    23
 73
   109
  0
VERTEX
  5
730
  8
0
 62
   123
 10
0.0
 20
0.0
 30
0.0
 70
   128
 71
   102
 72
    48
 73
    23
  0
VERTEX
  5
731
  8
0
 62
   123
 10
0.0
 20
0.0
 30
0.0
 70
   128
 71
   126
 72
   125
 73
   124
  0
VERTEX
  5
732
  8
0
 62
   123
 10
0.0
 20
0.0
 30
0.0
 70
   128
 71
   125
 72
   128
 73
   127
  0
VERTEX
  5
733
  8
0
 62
   123
 10
0.0
 20
0.0
 30
0.0
 70
   128
 71
   131
 72
   130
 73
   129
  0
VERTEX
  5
734
  8
0
 62
   123
 10
0.0
 20
0.0
 30
0.0
 70
   128
 71
   130
 72
   131
 73
   132
  0
VERTEX
  5
735
  8
0
 62
   123
 10
0.0
 20
0.0
 30
0.0
 70
   128
 71
   134
 72
   133
 73
    31
  0
VERTEX
  5
736
  8
0
 62
   123
 10
0.0
 20
0.0
 30
0.0
 70
   128
 71
   130
 72
   132
 73
    12
  0
VERTEX
  5
737
  8
0
 62
   123
 10
0.0
 20
0.0
 30
0.0
 70
   128
 71
   135
 72
    91
 73
    94
  0
VERTEX
  5
738
  8
0
 62
   123
 10
0.0
 20
0.0
 30
0.0
 70
   128
 71
   135
 72
    84
 73
   136
  0
VERTEX
  5
739
  8
0
 62
   123
 10
0.0
 20
0.0
 30
0.0
 70
   128
 71
   138
 72
   137
 73
   127
  0
VERTEX
  5
73A
  8
0
 62
   123
 10
0.0
 20
0.0
 30
0.0
 70
   128
 71
   128
 72
   136
 73
   127
  0
VERTEX
  5
73B
  8
0
 62
   123
 10
0.0
 20
0.0
 30
0.0
 70
   128
 71
   124
 72
   120
 73
   119
  0
VERTEX
  5
73C
  8
0
 62
   123
 10
0.0
 20
0.0
 30
0.0
 70
   128
 71
   123
 72
   139
 73
    86
  0
VERTEX
  5
73D
  8
0
 62
   123
 10
0.0
 20
0.0
 30
0.0
 70
   128
 71
   138
 72
   121
 73
   137
  0
VERTEX
  5
73E
  8
0
 62
   123
 10
0.0
 20
0.0
 30
0.0
 70
   128
 71
    31
 72
   133
 73
    14
  0
VERTEX
  5
73F
  8
0
 62
   123
 10
0.0
 20
0.0
 30
0.0
 70
   128
 71
   134
 72
    31
 73
     6
  0
VERTEX
  5
740
  8
0
 62
   123
 10
0.0
 20
0.0
 30
0.0
 70
   128
 71
   137
 72
   125
 73
   127
  0
VERTEX
  5
741
  8
0
 62
   123
 10
0.0
 20
0.0
 30
0.0
 70
   128
 71
   124
 72
   119
 73
   133
  0
VERTEX
  5
742
  8
0
 62
   123
 10
0.0
 20
0.0
 30
0.0
 70
   128
 71
   138
 72
   122
 73
   121
  0
VERTEX
  5
743
  8
0
 62
   123
 10
0.0
 20
0.0
 30
0.0
 70
   128
 71
   137
 72
   121
 73
   120
  0
VERTEX
  5
744
  8
0
 62
   123
 10
0.0
 20
0.0
 30
0.0
 70
   128
 71
   120
 72
   124
 73
   137
  0
VERTEX
  5
745
  8
0
 62
   123
 10
0.0
 20
0.0
 30
0.0
 70
   128
 71
   122
 72
   138
 73
   123
  0
VERTEX
  5
746
  8
0
 62
   123
 10
0.0
 20
0.0
 30
0.0
 70
   128
 71
   119
 72
    14
 73
   133
  0
VERTEX
  5
747
  8
0
 62
   123
 10
0.0
 20
0.0
 30
0.0
 70
   128
 71
   131
 72
   134
 73
   132
  0
VERTEX
  5
748
  8
0
 62
   123
 10
0.0
 20
0.0
 30
0.0
 70
   128
 71
   135
 72
   136
 73
   128
  0
VERTEX
  5
749
  8
0
 62
   123
 10
0.0
 20
0.0
 30
0.0
 70
   128
 71
   137
 72
   124
 73
   125
  0
VERTEX
  5
74A
  8
0
 62
   123
 10
0.0
 20
0.0
 30
0.0
 70
   128
 71
   126
 72
   124
 73
   140
  0
VERTEX
  5
74B
  8
0
 62
   123
 10
0.0
 20
0.0
 30
0.0
 70
   128
 71
   127
 72
   123
 73
   138
  0
VERTEX
  5
74C
  8
0
 62
   123
 10
0.0
 20
0.0
 30
0.0
 70
   128
 71
   128
 72
   125
 73
   126
  0
VERTEX
  5
74D
  8
0
 62
   123
 10
0.0
 20
0.0
 30
0.0
 70
   128
 71
    68
 72
   139
 73
   136
  0
VERTEX
  5
74E
  8
0
 62
   123
 10
0.0
 20
0.0
 30
0.0
 70
   128
 71
   139
 72
    68
 73
    86
  0
VERTEX
  5
74F
  8
0
 62
   123
 10
0.0
 20
0.0
 30
0.0
 70
   128
 71
   127
 72
   139
 73
   123
  0
VERTEX
  5
750
  8
0
 62
   123
 10
0.0
 20
0.0
 30
0.0
 70
   128
 71
   140
 72
   133
 73
   134
  0
VERTEX
  5
751
  8
0
 62
   123
 10
0.0
 20
0.0
 30
0.0
 70
   128
 71
    13
 72
   132
 73
     6
  0
VERTEX
  5
752
  8
0
 62
   123
 10
0.0
 20
0.0
 30
0.0
 70
   128
 71
   140
 72
   141
 73
   126
  0
VERTEX
  5
753
  8
0
 62
   123
 10
0.0
 20
0.0
 30
0.0
 70
   128
 71
   140
 72
   124
 73
   133
  0
VERTEX
  5
754
  8
0
 62
   123
 10
0.0
 20
0.0
 30
0.0
 70
   128
 71
   131
 72
   141
 73
   140
  0
VERTEX
  5
755
  8
0
 62
   123
 10
0.0
 20
0.0
 30
0.0
 70
   128
 71
   126
 72
   142
 73
   128
  0
VERTEX
  5
756
  8
0
 62
   123
 10
0.0
 20
0.0
 30
0.0
 70
   128
 71
   126
 72
   141
 73
   142
  0
VERTEX
  5
757
  8
0
 62
   123
 10
0.0
 20
0.0
 30
0.0
 70
   128
 71
   136
 72
   139
 73
   127
  0
VERTEX
  5
758
  8
0
 62
   123
 10
0.0
 20
0.0
 30
0.0
 70
   128
 71
   142
 72
   135
 73
   128
  0
VERTEX
  5
759
  8
0
 62
   123
 10
0.0
 20
0.0
 30
0.0
 70
   128
 71
   136
 72
    84
 73
    68
  0
VERTEX
  5
75A
  8
0
 62
   123
 10
0.0
 20
0.0
 30
0.0
 70
   128
 71
   132
 72
   134
 73
     6
  0
VERTEX
  5
75B
  8
0
 62
   123
 10
0.0
 20
0.0
 30
0.0
 70
   128
 71
   132
 72
    13
 73
    12
  0
VERTEX
  5
75C
  8
0
 62
   123
 10
0.0
 20
0.0
 30
0.0
 70
   128
 71
   143
 72
   141
 73
   129
  0
VERTEX
  5
75D
  8
0
 62
   123
 10
0.0
 20
0.0
 30
0.0
 70
   128
 71
   131
 72
   140
 73
   134
  0
VERTEX
  5
75E
  8
0
 62
   123
 10
0.0
 20
0.0
 30
0.0
 70
   128
 71
   141
 72
   131
 73
   129
  0
VERTEX
  5
75F
  8
0
 62
   123
 10
0.0
 20
0.0
 30
0.0
 70
   128
 71
   144
 72
   142
 73
   143
  0
VERTEX
  5
760
  8
0
 62
   123
 10
0.0
 20
0.0
 30
0.0
 70
   128
 71
   142
 72
   141
 73
   143
  0
VERTEX
  5
761
  8
0
 62
   123
 10
0.0
 20
0.0
 30
0.0
 70
   128
 71
    91
 72
   135
 73
   144
  0
VERTEX
  5
762
  8
0
 62
   123
 10
0.0
 20
0.0
 30
0.0
 70
   128
 71
   135
 72
   142
 73
   144
  0
VERTEX
  5
763
  8
0
 62
   123
 10
0.0
 20
0.0
 30
0.0
 70
   128
 71
   135
 72
    94
 73
    84
  0
SEQEND
  5
764
  8
0
 62
   123
  0
ENDBLK
  5
767
  8
0
  0
BLOCK
  8
0
  2
5700-05
 70
     0
 10
0.0
 20
0.0
 30
0.0
  3
5700-05
  1

  0
POLYLINE
  5
769
  8
0
 62
   123
 66
     1
 10
0.0
 20
0.0
 30
0.0
 70
    64
 71
    36
 72
    28
  0
VERTEX
  5
76A
  8
0
 10
6.545825958251953
 20
3.250416040420532
 30
2.331199407577515
 70
   192
  0
VERTEX
  5
76B
  8
0
 10
6.593268871307373
 20
3.619157075881958
 30
1.703438282012939
 70
   192
  0
VERTEX
  5
76C
  8
0
 10
7.116328239440918
 20
3.614406108856201
 30
1.71349573135376
 70
   192
  0
VERTEX
  5
76D
  8
0
 10
6.383671760559082
 20
2.210444450378418
 30
3.333756923675537
 70
   192
  0
VERTEX
  5
76E
  8
0
 10
6.954488277435303
 20
2.770011901855469
 30
2.885193586349487
 70
   192
  0
VERTEX
  5
76F
  8
0
 10
6.906733512878418
 20
2.201157808303833
 30
3.339895725250244
 70
   192
  0
VERTEX
  5
770
  8
0
 10
6.448144435882568
 20
2.777575731277466
 30
2.878443956375122
 70
   192
  0
VERTEX
  5
771
  8
0
 10
7.051889896392822
 20
3.244764089584351
 30
2.33930230140686
 70
   192
  0
VERTEX
  5
772
  8
0
 10
6.564759731292725
 20
3.999651908874512
 30
0.0222612433135509
 70
   192
  0
VERTEX
  5
773
  8
0
 10
6.593268871307373
 20
3.965576887130737
 30
-0.523640513420105
 70
   192
  0
VERTEX
  5
774
  8
0
 10
7.116328239440918
 20
3.967017650604248
 30
-0.5126112103462219
 70
   192
  0
VERTEX
  5
775
  8
0
 10
6.383671760559082
 20
3.661909341812134
 30
1.609478354454041
 70
   192
  0
VERTEX
  5
776
  8
0
 10
6.425606250762939
 20
3.846505403518677
 30
1.095544457435608
 70
   192
  0
VERTEX
  5
777
  8
0
 10
6.935197830200195
 20
3.843886613845825
 30
1.105515360832214
 70
   192
  0
VERTEX
  5
778
  8
0
 10
6.498220443725586
 20
3.959632396697998
 30
0.5644766092300415
 70
   192
  0
VERTEX
  5
779
  8
0
 10
7.001640796661377
 20
3.958593130111694
 30
0.573959469795227
 70
   192
  0
VERTEX
  5
77A
  8
0
 10
6.906733512878418
 20
3.657415866851807
 30
1.61966335773468
 70
   192
  0
VERTEX
  5
77B
  8
0
 10
7.073959827423096
 20
3.998057126998901
 30
0.0324442312121391
 70
   192
  0
VERTEX
  5
77C
  8
0
 10
6.545942783355713
 20
-2.770450115203857
 30
2.885441303253174
 70
   192
  0
VERTEX
  5
77D
  8
0
 10
6.593268871307373
 20
-2.201159477233887
 30
3.339894771575928
 70
   192
  0
VERTEX
  5
77E
  8
0
 10
7.116328239440918
 20
-2.21043848991394
 30
3.333760976791382
 70
   192
  0
VERTEX
  5
77F
  8
0
 10
6.383671760559082
 20
-3.614403247833252
 30
1.713502168655396
 70
   192
  0
VERTEX
  5
780
  8
0
 10
6.954430103302002
 20
-3.250325918197632
 30
2.331151723861694
 70
   192
  0
VERTEX
  5
781
  8
0
 10
6.906733512878418
 20
-3.619158029556274
 30
1.703436493873596
 70
   192
  0
VERTEX
  5
782
  8
0
 10
6.448140144348145
 20
-3.244699478149414
 30
2.339371919631958
 70
   192
  0
VERTEX
  5
783
  8
0
 10
7.052112579345703
 20
-2.77714729309082
 30
2.879055738449097
 70
   192
  0
VERTEX
  5
784
  8
0
 10
7.073965072631836
 20
-3.845261812210083
 30
1.095255374908447
 70
   192
  0
VERTEX
  5
785
  8
0
 10
7.001646995544434
 20
-3.95995044708252
 30
0.5645561814308167
 70
   192
  0
VERTEX
  5
786
  8
0
 10
6.498359680175781
 20
-3.958592891693115
 30
0.5739620923995972
 70
   192
  0
VERTEX
  5
787
  8
0
 10
6.383671760559082
 20
-3.967018604278564
 30
-0.5126041769981384
 70
   192
  0
VERTEX
  5
788
  8
0
 10
6.935199737548828
 20
-3.999639272689819
 30
0.0222135689109564
 70
   192
  0
VERTEX
  5
789
  8
0
 10
6.906733512878418
 20
-3.965576648712158
 30
-0.5236425399780273
 70
   192
  0
VERTEX
  5
78A
  8
0
 10
6.593268871307373
 20
-3.657416582107544
 30
1.619661569595337
 70
   192
  0
VERTEX
  5
78B
  8
0
 10
7.116328239440918
 20
-3.661906480789185
 30
1.609484910964966
 70
   192
  0
VERTEX
  5
78C
  8
0
 10
6.564802646636963
 20
-3.843886375427246
 30
1.105515718460083
 70
   192
  0
VERTEX
  5
78D
  8
0
 10
6.426041126251221
 20
-3.99805736541748
 30
0.0324490144848824
 70
   192
  0
VERTEX
  5
78E
  8
0
 62
   123
 10
0.0
 20
0.0
 30
0.0
 70
   128
 71
     3
 72
     2
 73
     1
  0
VERTEX
  5
78F
  8
0
 62
   123
 10
0.0
 20
0.0
 30
0.0
 70
   128
 71
     6
 72
     5
 73
     4
  0
VERTEX
  5
790
  8
0
 62
   123
 10
0.0
 20
0.0
 30
0.0
 70
   128
 71
     5
 72
     7
 73
     4
  0
VERTEX
  5
791
  8
0
 62
   123
 10
0.0
 20
0.0
 30
0.0
 70
   128
 71
     5
 72
     8
 73
     7
  0
VERTEX
  5
792
  8
0
 62
   123
 10
0.0
 20
0.0
 30
0.0
 70
   128
 71
     3
 72
     1
 73
     8
  0
VERTEX
  5
793
  8
0
 62
   123
 10
0.0
 20
0.0
 30
0.0
 70
   128
 71
     8
 72
     1
 73
     7
  0
VERTEX
  5
794
  8
0
 62
   123
 10
0.0
 20
0.0
 30
0.0
 70
   128
 71
    11
 72
    10
 73
     9
  0
VERTEX
  5
795
  8
0
 62
   123
 10
0.0
 20
0.0
 30
0.0
 70
   128
 71
    14
 72
    13
 73
    12
  0
VERTEX
  5
796
  8
0
 62
   123
 10
0.0
 20
0.0
 30
0.0
 70
   128
 71
    16
 72
    15
 73
    13
  0
VERTEX
  5
797
  8
0
 62
   123
 10
0.0
 20
0.0
 30
0.0
 70
   128
 71
    14
 72
    12
 73
    17
  0
VERTEX
  5
798
  8
0
 62
   123
 10
0.0
 20
0.0
 30
0.0
 70
   128
 71
    14
 72
    16
 73
    13
  0
VERTEX
  5
799
  8
0
 62
   123
 10
0.0
 20
0.0
 30
0.0
 70
   128
 71
    11
 72
     9
 73
    18
  0
VERTEX
  5
79A
  8
0
 62
   123
 10
0.0
 20
0.0
 30
0.0
 70
   128
 71
    18
 72
     9
 73
    15
  0
VERTEX
  5
79B
  8
0
 62
   123
 10
0.0
 20
0.0
 30
0.0
 70
   128
 71
    15
 72
    16
 73
    18
  0
VERTEX
  5
79C
  8
0
 62
   123
 10
0.0
 20
0.0
 30
0.0
 70
   128
 71
    21
 72
    20
 73
    19
  0
VERTEX
  5
79D
  8
0
 62
   123
 10
0.0
 20
0.0
 30
0.0
 70
   128
 71
    24
 72
    23
 73
    22
  0
VERTEX
  5
79E
  8
0
 62
   123
 10
0.0
 20
0.0
 30
0.0
 70
   128
 71
    23
 72
    25
 73
    22
  0
VERTEX
  5
79F
  8
0
 62
   123
 10
0.0
 20
0.0
 30
0.0
 70
   128
 71
    23
 72
    26
 73
    25
  0
VERTEX
  5
7A0
  8
0
 62
   123
 10
0.0
 20
0.0
 30
0.0
 70
   128
 71
    21
 72
    19
 73
    26
  0
VERTEX
  5
7A1
  8
0
 62
   123
 10
0.0
 20
0.0
 30
0.0
 70
   128
 71
    26
 72
    19
 73
    25
  0
VERTEX
  5
7A2
  8
0
 62
   123
 10
0.0
 20
0.0
 30
0.0
 70
   128
 71
    29
 72
    28
 73
    27
  0
VERTEX
  5
7A3
  8
0
 62
   123
 10
0.0
 20
0.0
 30
0.0
 70
   128
 71
    32
 72
    31
 73
    30
  0
VERTEX
  5
7A4
  8
0
 62
   123
 10
0.0
 20
0.0
 30
0.0
 70
   128
 71
    35
 72
    34
 73
    33
  0
VERTEX
  5
7A5
  8
0
 62
   123
 10
0.0
 20
0.0
 30
0.0
 70
   128
 71
    35
 72
    27
 73
    34
  0
VERTEX
  5
7A6
  8
0
 62
   123
 10
0.0
 20
0.0
 30
0.0
 70
   128
 71
    29
 72
    27
 73
    35
  0
VERTEX
  5
7A7
  8
0
 62
   123
 10
0.0
 20
0.0
 30
0.0
 70
   128
 71
    30
 72
    31
 73
    36
  0
VERTEX
  5
7A8
  8
0
 62
   123
 10
0.0
 20
0.0
 30
0.0
 70
   128
 71
    36
 72
    31
 73
    28
  0
VERTEX
  5
7A9
  8
0
 62
   123
 10
0.0
 20
0.0
 30
0.0
 70
   128
 71
    28
 72
    29
 73
    36
  0
SEQEND
  5
7AA
  8
0
 62
   123
  0
ENDBLK
  5
7AD
  8
0
  0
BLOCK
  8
0
  2
5751-02
 70
     0
 10
0.0
 20
0.0
 30
0.0
  3
5751-02
  1

  0
POLYLINE
  5
7AF
  8
0
 62
   123
 66
     1
 10
0.0
 20
0.0
 30
0.0
 70
    64
 71
   312
 72
   618
  0
VERTEX
  5
7B0
  8
0
 10
54.06267929077148
 20
-30.59591865539551
 30
3.49000883102417
 70
   192
  0
VERTEX
  5
7B1
  8
0
 10
52.86424255371094
 20
46.29999923706055
 30
2.485275745391846
 70
   192
  0
VERTEX
  5
7B2
  8
0
 10
54.24985122680664
 20
46.29999923706055
 30
3.613649606704712
 70
   192
  0
VERTEX
  5
7B3
  8
0
 10
56.0
 20
-30.59591865539551
 30
4.0
 70
   192
  0
VERTEX
  5
7B4
  8
0
 10
56.0
 20
46.29999923706055
 30
4.0
 70
   192
  0
VERTEX
  5
7B5
  8
0
 10
52.52605438232422
 20
-30.59591865539551
 30
1.976097345352173
 70
   192
  0
VERTEX
  5
7B6
  8
0
 10
52.0
 20
-30.59591865539551
 30
0.0000000000000018
 70
   192
  0
VERTEX
  5
7B7
  8
0
 10
52.34633255004883
 20
-0.006217060610652
 30
1.62540864944458
 70
   192
  0
VERTEX
  5
7B8
  8
0
 10
52.0
 20
1.649999976158142
 30
-0.0000000000000066
 70
   192
  0
VERTEX
  5
7B9
  8
0
 10
52.10048294067383
 20
46.29999923706055
 30
0.874386191368103
 70
   192
  0
VERTEX
  5
7BA
  8
0
 10
52.90110397338867
 20
46.29999923706055
 30
-2.497731447219849
 70
   192
  0
VERTEX
  5
7BB
  8
0
 10
54.02390289306641
 20
-30.59591865539551
 30
-3.473947048187256
 70
   192
  0
VERTEX
  5
7BC
  8
0
 10
54.28448104858398
 20
46.29999923706055
 30
-3.595399379730225
 70
   192
  0
VERTEX
  5
7BD
  8
0
 10
52.34590911865234
 20
0.006475895177573
 30
-1.624393582344055
 70
   192
  0
VERTEX
  5
7BE
  8
0
 10
52.50999069213867
 20
-30.59591865539551
 30
-1.937320590019226
 70
   192
  0
VERTEX
  5
7BF
  8
0
 10
56.0
 20
46.29999923706055
 30
-4.0
 70
   192
  0
VERTEX
  5
7C0
  8
0
 10
56.0
 20
-30.59591865539551
 30
-4.0
 70
   192
  0
VERTEX
  5
7C1
  8
0
 10
52.0
 20
-1.649999976158142
 30
-0.0000000000000066
 70
   192
  0
VERTEX
  5
7C2
  8
0
 10
52.11312103271484
 20
46.29999923706055
 30
-0.907623291015625
 70
   192
  0
VERTEX
  5
7C3
  8
0
 10
56.0
 20
-31.0
 30
0.0000000000000007
 70
   192
  0
VERTEX
  5
7C4
  8
0
 10
57.97245025634766
 20
-30.59591865539551
 30
3.458369970321655
 70
   192
  0
VERTEX
  5
7C5
  8
0
 10
59.43632888793945
 20
-30.59591865539551
 30
2.011287689208984
 70
   192
  0
VERTEX
  5
7C6
  8
0
 10
60.0
 20
-30.59591865539551
 30
0.0000000000000009
 70
   192
  0
VERTEX
  5
7C7
  8
0
 10
59.46115112304688
 20
-30.59591865539551
 30
-1.989756226539612
 70
   192
  0
VERTEX
  5
7C8
  8
0
 10
58.02053070068359
 20
-30.59591865539551
 30
-3.468202829360962
 70
   192
  0
VERTEX
  5
7C9
  8
0
 10
52.02482604980469
 20
61.7050895690918
 30
-11.89721870422363
 70
   192
  0
VERTEX
  5
7CA
  8
0
 10
52.31042098999023
 20
63.82881546020508
 30
-16.0
 70
   192
  0
VERTEX
  5
7CB
  8
0
 10
52.76076507568359
 20
64.0375747680664
 30
-11.27601528167725
 70
   192
  0
VERTEX
  5
7CC
  8
0
 10
53.19352722167969
 20
59.47782135009766
 30
-16.0
 70
   192
  0
VERTEX
  5
7CD
  8
0
 10
52.83870315551758
 20
59.43883514404297
 30
-12.50078201293945
 70
   192
  0
VERTEX
  5
7CE
  8
0
 10
54.47053909301758
 20
58.20259857177734
 30
-12.83002471923828
 70
   192
  0
VERTEX
  5
7CF
  8
0
 10
53.16325759887695
 20
65.13623046875
 30
-16.0
 70
   192
  0
VERTEX
  5
7D0
  8
0
 10
54.43276214599609
 20
65.33419036865234
 30
-10.93069362640381
 70
   192
  0
VERTEX
  5
7D1
  8
0
 10
52.76076507568359
 20
62.18272399902344
 30
-6.798000335693359
 70
   192
  0
VERTEX
  5
7D2
  8
0
 10
54.43276214599609
 20
63.34374618530273
 30
-6.125336647033691
 70
   192
  0
VERTEX
  5
7D3
  8
0
 10
56.0
 20
65.6266860961914
 30
-10.86423683166504
 70
   192
  0
VERTEX
  5
7D4
  8
0
 10
54.46286392211914
 20
66.01242065429688
 30
-16.0
 70
   192
  0
VERTEX
  5
7D5
  8
0
 10
56.0
 20
66.30000305175781
 30
-16.0
 70
   192
  0
VERTEX
  5
7D6
  8
0
 10
56.0
 20
63.61172103881836
 30
-5.986685752868652
 70
   192
  0
VERTEX
  5
7D7
  8
0
 10
54.48261260986328
 20
60.219482421875
 30
-2.080516815185547
 70
   192
  0
VERTEX
  5
7D8
  8
0
 10
52.02482604980469
 20
60.09414672851562
 30
-8.008061408996582
 70
   192
  0
VERTEX
  5
7D9
  8
0
 10
56.0
 20
60.44213485717773
 30
-1.857864379882812
 70
   192
  0
VERTEX
  5
7DA
  8
0
 10
52.0
 20
57.61370849609375
 30
-4.686291694641113
 70
   192
  0
VERTEX
  5
7DB
  8
0
 10
52.31760025024414
 20
58.69923400878906
 30
-3.600765943527222
 70
   192
  0
VERTEX
  5
7DC
  8
0
 10
52.83870315551758
 20
58.06488037109375
 30
-9.183761596679688
 70
   192
  0
VERTEX
  5
7DD
  8
0
 10
52.31760025024414
 20
60.76483535766602
 30
-16.0
 70
   192
  0
VERTEX
  5
7DE
  8
0
 10
53.16325759887695
 20
55.60818862915039
 30
-6.691810131072998
 70
   192
  0
VERTEX
  5
7DF
  8
0
 10
52.31042098999023
 20
56.53267288208008
 30
-5.767326831817627
 70
   192
  0
VERTEX
  5
7E0
  8
0
 10
54.47053909301758
 20
56.95791625976562
 30
-9.825103759765625
 70
   192
  0
VERTEX
  5
7E1
  8
0
 10
56.0
 20
56.67853927612305
 30
-9.979300498962402
 70
   192
  0
VERTEX
  5
7E2
  8
0
 10
56.0
 20
57.89302825927734
 30
-12.90354919433594
 70
   192
  0
VERTEX
  5
7E3
  8
0
 10
56.0
 20
58.29999923706055
 30
-16.0
 70
   192
  0
VERTEX
  5
7E4
  8
0
 10
54.48261260986328
 20
58.6148796081543
 30
-16.0
 70
   192
  0
VERTEX
  5
7E5
  8
0
 10
54.46286392211914
 20
54.98863220214844
 30
-7.311366558074951
 70
   192
  0
VERTEX
  5
7E6
  8
0
 10
56.0
 20
54.78528213500977
 30
-7.514718532562256
 70
   192
  0
VERTEX
  5
7E7
  8
0
 10
53.19352722167969
 20
59.60928726196289
 30
-2.69071102142334
 70
   192
  0
VERTEX
  5
7E8
  8
0
 10
52.0
 20
62.29999923706055
 30
-16.0
 70
   192
  0
VERTEX
  5
7E9
  8
0
 10
54.43276214599609
 20
56.17466354370117
 30
1.043744683265686
 70
   192
  0
VERTEX
  5
7EA
  8
0
 10
52.76076507568359
 20
55.50199890136719
 30
-0.117277517914772
 70
   192
  0
VERTEX
  5
7EB
  8
0
 10
52.83870315551758
 20
53.11623764038086
 30
-4.23512077331543
 70
   192
  0
VERTEX
  5
7EC
  8
0
 10
54.47053909301758
 20
52.47489547729492
 30
-5.342082023620605
 70
   192
  0
VERTEX
  5
7ED
  8
0
 10
54.43276214599609
 20
51.36930465698242
 30
3.034188747406006
 70
   192
  0
VERTEX
  5
7EE
  8
0
 10
52.76076507568359
 20
51.02398300170898
 30
1.737577199935913
 70
   192
  0
VERTEX
  5
7EF
  8
0
 10
56.0
 20
51.46075057983398
 30
3.321716785430908
 70
   192
  0
VERTEX
  5
7F0
  8
0
 10
56.0
 20
56.33449935913086
 30
1.29756486415863
 70
   192
  0
VERTEX
  5
7F1
  8
0
 10
52.02482604980469
 20
54.29193878173828
 30
-2.205853223800659
 70
   192
  0
VERTEX
  5
7F2
  8
0
 10
52.02482604980469
 20
50.40278244018555
 30
-0.5949115753173828
 70
   192
  0
VERTEX
  5
7F3
  8
0
 10
52.83870315551758
 20
49.79921722412109
 30
-2.861166000366211
 70
   192
  0
VERTEX
  5
7F4
  8
0
 10
54.47053909301758
 20
49.46997451782227
 30
-4.097403049468994
 70
   192
  0
VERTEX
  5
7F5
  8
0
 10
56.0
 20
49.3814582824707
 30
-4.403987407684326
 70
   192
  0
VERTEX
  5
7F6
  8
0
 10
56.0
 20
52.30798721313477
 30
-5.612968444824219
 70
   192
  0
VERTEX
  5
7F7
  8
0
 10
59.97517395019531
 20
50.43259811401367
 30
-0.4829520881175995
 70
   192
  0
VERTEX
  5
7F8
  8
0
 10
59.68239974975586
 20
46.29999923706055
 30
-1.535165071487427
 70
   192
  0
VERTEX
  5
7F9
  8
0
 10
60.0
 20
46.29999923706055
 30
0.0000000000000017
 70
   192
  0
VERTEX
  5
7FA
  8
0
 10
57.52946090698242
 20
51.36540603637695
 30
3.019539356231689
 70
   192
  0
VERTEX
  5
7FB
  8
0
 10
58.83674240112305
 20
46.29999923706055
 30
2.836231708526611
 70
   192
  0
VERTEX
  5
7FC
  8
0
 10
57.53713607788086
 20
46.29999923706055
 30
3.712417125701904
 70
   192
  0
VERTEX
  5
7FD
  8
0
 10
59.23923492431641
 20
49.81139755249023
 30
-2.815440893173218
 70
   192
  0
VERTEX
  5
7FE
  8
0
 10
57.51738739013672
 20
46.29999923706055
 30
-3.685122013092041
 70
   192
  0
VERTEX
  5
7FF
  8
0
 10
57.56723785400391
 20
49.46607208251953
 30
-4.112052440643311
 70
   192
  0
VERTEX
  5
800
  8
0
 10
59.97517395019531
 20
54.35002136230469
 30
-2.10560154914856
 70
   192
  0
VERTEX
  5
801
  8
0
 10
59.16129684448242
 20
55.52572250366211
 30
-0.0763339102268219
 70
   192
  0
VERTEX
  5
802
  8
0
 10
59.23923492431641
 20
53.13996124267578
 30
-4.194177150726318
 70
   192
  0
VERTEX
  5
803
  8
0
 10
57.56723785400391
 20
52.4672966003418
 30
-5.355199337005615
 70
   192
  0
VERTEX
  5
804
  8
0
 10
58.83674240112305
 20
55.60818862915039
 30
-6.691810131072998
 70
   192
  0
VERTEX
  5
805
  8
0
 10
57.53713607788086
 20
54.98863220214844
 30
-7.311366558074951
 70
   192
  0
VERTEX
  5
806
  8
0
 10
59.68957901000977
 20
56.53267288208008
 30
-5.767326831817627
 70
   192
  0
VERTEX
  5
807
  8
0
 10
59.16129684448242
 20
51.03616333007812
 30
1.783302307128906
 70
   192
  0
VERTEX
  5
808
  8
0
 10
57.52946090698242
 20
56.16706466674805
 30
1.030627250671387
 70
   192
  0
VERTEX
  5
809
  8
0
 10
59.68239974975586
 20
58.69923400878906
 30
-3.600765943527222
 70
   192
  0
VERTEX
  5
80A
  8
0
 10
59.68957901000977
 20
46.29999923706055
 30
1.528815150260925
 70
   192
  0
VERTEX
  5
80B
  8
0
 10
58.80647277832031
 20
59.60928726196289
 30
-2.69071102142334
 70
   192
  0
VERTEX
  5
80C
  8
0
 10
57.51738739013672
 20
60.219482421875
 30
-2.080516815185547
 70
   192
  0
VERTEX
  5
80D
  8
0
 10
58.80647277832031
 20
46.29999923706055
 30
-2.822177171707153
 70
   192
  0
VERTEX
  5
80E
  8
0
 10
60.0
 20
57.61370849609375
 30
-4.686291694641113
 70
   192
  0
VERTEX
  5
80F
  8
0
 10
52.11312103271484
 20
61.39237594604492
 30
-64.0
 70
   192
  0
VERTEX
  5
810
  8
0
 10
52.10048294067383
 20
63.17438507080078
 30
-64.0
 70
   192
  0
VERTEX
  5
811
  8
0
 10
52.86424255371094
 20
64.7852783203125
 30
-64.0
 70
   192
  0
VERTEX
  5
812
  8
0
 10
54.24985122680664
 20
65.91365051269531
 30
-64.0
 70
   192
  0
VERTEX
  5
813
  8
0
 10
56.0
 20
66.30000305175781
 30
-64.0
 70
   192
  0
VERTEX
  5
814
  8
0
 10
52.90110397338867
 20
59.80226898193359
 30
-64.0
 70
   192
  0
VERTEX
  5
815
  8
0
 10
54.28448104858398
 20
58.7046012878418
 30
-64.0
 70
   192
  0
VERTEX
  5
816
  8
0
 10
56.0
 20
58.29999923706055
 30
-64.0
 70
   192
  0
VERTEX
  5
817
  8
0
 10
52.02482604980469
 20
50.40278244018555
 30
-79.40509033203125
 70
   192
  0
VERTEX
  5
818
  8
0
 10
52.31042098999023
 20
46.29999923706055
 30
-81.52881622314453
 70
   192
  0
VERTEX
  5
819
  8
0
 10
52.76076507568359
 20
51.02398300170898
 30
-81.73757934570312
 70
   192
  0
VERTEX
  5
81A
  8
0
 10
53.19352722167969
 20
46.29999923706055
 30
-77.17782592773438
 70
   192
  0
VERTEX
  5
81B
  8
0
 10
52.83870315551758
 20
49.79921722412109
 30
-77.13883209228516
 70
   192
  0
VERTEX
  5
81C
  8
0
 10
54.47053909301758
 20
49.46997451782227
 30
-75.90259552001953
 70
   192
  0
VERTEX
  5
81D
  8
0
 10
53.16325759887695
 20
46.29999923706055
 30
-82.83623504638672
 70
   192
  0
VERTEX
  5
81E
  8
0
 10
54.43276214599609
 20
51.36930465698242
 30
-83.03418731689453
 70
   192
  0
VERTEX
  5
81F
  8
0
 10
52.76076507568359
 20
55.50199890136719
 30
-79.88272094726562
 70
   192
  0
VERTEX
  5
820
  8
0
 10
54.43276214599609
 20
56.17466354370117
 30
-81.04374694824219
 70
   192
  0
VERTEX
  5
821
  8
0
 10
56.0
 20
51.43576431274414
 30
-83.32669067382812
 70
   192
  0
VERTEX
  5
822
  8
0
 10
54.46286392211914
 20
46.29999923706055
 30
-83.71241760253906
 70
   192
  0
VERTEX
  5
823
  8
0
 10
56.0
 20
46.29999923706055
 30
-84.0
 70
   192
  0
VERTEX
  5
824
  8
0
 10
56.0
 20
56.31331253051758
 30
-81.31172180175781
 70
   192
  0
VERTEX
  5
825
  8
0
 10
54.48261260986328
 20
60.219482421875
 30
-77.91948699951172
 70
   192
  0
VERTEX
  5
826
  8
0
 10
52.02482604980469
 20
54.29193878173828
 30
-77.79414367675781
 70
   192
  0
VERTEX
  5
827
  8
0
 10
56.0
 20
60.44213485717773
 30
-78.14213562011719
 70
   192
  0
VERTEX
  5
828
  8
0
 10
52.0
 20
57.61370849609375
 30
-75.31370544433594
 70
   192
  0
VERTEX
  5
829
  8
0
 10
52.31760025024414
 20
58.69923400878906
 30
-76.39923095703125
 70
   192
  0
VERTEX
  5
82A
  8
0
 10
52.83870315551758
 20
53.11623764038086
 30
-75.76487731933594
 70
   192
  0
VERTEX
  5
82B
  8
0
 10
52.31760025024414
 20
46.29999923706055
 30
-78.46483612060547
 70
   192
  0
VERTEX
  5
82C
  8
0
 10
53.16325759887695
 20
55.60818862915039
 30
-73.30818939208984
 70
   192
  0
VERTEX
  5
82D
  8
0
 10
52.31042098999023
 20
56.53267288208008
 30
-74.23267364501953
 70
   192
  0
VERTEX
  5
82E
  8
0
 10
54.47053909301758
 20
52.47489547729492
 30
-74.65792083740234
 70
   192
  0
VERTEX
  5
82F
  8
0
 10
56.0
 20
52.32069778442383
 30
-74.3785400390625
 70
   192
  0
VERTEX
  5
830
  8
0
 10
56.0
 20
49.39645004272461
 30
-75.59303283691406
 70
   192
  0
VERTEX
  5
831
  8
0
 10
56.0
 20
46.29999923706055
 30
-76.0
 70
   192
  0
VERTEX
  5
832
  8
0
 10
54.48261260986328
 20
46.29999923706055
 30
-76.31488037109375
 70
   192
  0
VERTEX
  5
833
  8
0
 10
54.46286392211914
 20
54.98863220214844
 30
-72.68863677978516
 70
   192
  0
VERTEX
  5
834
  8
0
 10
56.0
 20
54.78528213500977
 30
-72.48528289794922
 70
   192
  0
VERTEX
  5
835
  8
0
 10
53.19352722167969
 20
59.60928726196289
 30
-77.30928802490234
 70
   192
  0
VERTEX
  5
836
  8
0
 10
52.0
 20
46.29999923706055
 30
-80.0
 70
   192
  0
VERTEX
  5
837
  8
0
 10
54.43276214599609
 20
63.34374618530273
 30
-73.87466430664062
 70
   192
  0
VERTEX
  5
838
  8
0
 10
52.76076507568359
 20
62.18272399902344
 30
-73.2020034790039
 70
   192
  0
VERTEX
  5
839
  8
0
 10
52.83870315551758
 20
58.06488037109375
 30
-70.81623840332031
 70
   192
  0
VERTEX
  5
83A
  8
0
 10
54.47053909301758
 20
56.95791625976562
 30
-70.17489624023438
 70
   192
  0
VERTEX
  5
83B
  8
0
 10
54.43276214599609
 20
65.33419036865234
 30
-69.06930541992188
 70
   192
  0
VERTEX
  5
83C
  8
0
 10
52.76076507568359
 20
64.0375747680664
 30
-68.72398376464844
 70
   192
  0
VERTEX
  5
83D
  8
0
 10
56.0
 20
65.62171936035156
 30
-69.16075134277344
 70
   192
  0
VERTEX
  5
83E
  8
0
 10
56.0
 20
63.59756469726562
 30
-74.03450012207031
 70
   192
  0
VERTEX
  5
83F
  8
0
 10
52.02482604980469
 20
60.09414672851562
 30
-71.99193572998047
 70
   192
  0
VERTEX
  5
840
  8
0
 10
52.02482604980469
 20
61.7050895690918
 30
-68.102783203125
 70
   192
  0
VERTEX
  5
841
  8
0
 10
52.83870315551758
 20
59.43883514404297
 30
-67.49921417236328
 70
   192
  0
VERTEX
  5
842
  8
0
 10
54.47053909301758
 20
58.20259857177734
 30
-67.16997528076172
 70
   192
  0
VERTEX
  5
843
  8
0
 10
56.0
 20
57.89601135253906
 30
-67.08145904541016
 70
   192
  0
VERTEX
  5
844
  8
0
 10
56.0
 20
56.68703079223633
 30
-70.00798797607422
 70
   192
  0
VERTEX
  5
845
  8
0
 10
59.97517395019531
 20
61.81704711914062
 30
-68.13259887695312
 70
   192
  0
VERTEX
  5
846
  8
0
 10
59.68239974975586
 20
60.76483535766602
 30
-64.0
 70
   192
  0
VERTEX
  5
847
  8
0
 10
60.0
 20
62.29999923706055
 30
-64.0
 70
   192
  0
VERTEX
  5
848
  8
0
 10
57.52946090698242
 20
65.31954193115234
 30
-69.0654067993164
 70
   192
  0
VERTEX
  5
849
  8
0
 10
58.83674240112305
 20
65.13623046875
 30
-64.0
 70
   192
  0
VERTEX
  5
84A
  8
0
 10
57.53713607788086
 20
66.01242065429688
 30
-64.0
 70
   192
  0
VERTEX
  5
84B
  8
0
 10
59.23923492431641
 20
59.48455810546875
 30
-67.51139831542969
 70
   192
  0
VERTEX
  5
84C
  8
0
 10
57.51738739013672
 20
58.6148796081543
 30
-64.0
 70
   192
  0
VERTEX
  5
84D
  8
0
 10
57.56723785400391
 20
58.18794631958008
 30
-67.16607666015625
 70
   192
  0
VERTEX
  5
84E
  8
0
 10
59.97517395019531
 20
60.19439697265625
 30
-72.05001831054688
 70
   192
  0
VERTEX
  5
84F
  8
0
 10
59.16129684448242
 20
62.22366714477539
 30
-73.22572326660156
 70
   192
  0
VERTEX
  5
850
  8
0
 10
59.23923492431641
 20
58.1058235168457
 30
-70.83995819091797
 70
   192
  0
VERTEX
  5
851
  8
0
 10
57.56723785400391
 20
56.94480133056641
 30
-70.16729736328125
 70
   192
  0
VERTEX
  5
852
  8
0
 10
58.83674240112305
 20
55.60818862915039
 30
-73.30818939208984
 70
   192
  0
VERTEX
  5
853
  8
0
 10
57.53713607788086
 20
54.98863220214844
 30
-72.68863677978516
 70
   192
  0
VERTEX
  5
854
  8
0
 10
59.68957901000977
 20
56.53267288208008
 30
-74.23267364501953
 70
   192
  0
VERTEX
  5
855
  8
0
 10
59.16129684448242
 20
64.08330535888672
 30
-68.73616027832031
 70
   192
  0
VERTEX
  5
856
  8
0
 10
57.52946090698242
 20
63.33062744140625
 30
-73.8670654296875
 70
   192
  0
VERTEX
  5
857
  8
0
 10
59.68239974975586
 20
58.69923400878906
 30
-76.39923095703125
 70
   192
  0
VERTEX
  5
858
  8
0
 10
59.68957901000977
 20
63.82881546020508
 30
-64.0
 70
   192
  0
VERTEX
  5
859
  8
0
 10
58.80647277832031
 20
59.60928726196289
 30
-77.30928802490234
 70
   192
  0
VERTEX
  5
85A
  8
0
 10
57.51738739013672
 20
60.219482421875
 30
-77.91948699951172
 70
   192
  0
VERTEX
  5
85B
  8
0
 10
58.80647277832031
 20
59.47782135009766
 30
-64.0
 70
   192
  0
VERTEX
  5
85C
  8
0
 10
60.0
 20
57.61370849609375
 30
-75.31370544433594
 70
   192
  0
VERTEX
  5
85D
  8
0
 10
52.11312103271484
 20
-51.20000076293945
 30
-79.09237670898438
 70
   192
  0
VERTEX
  5
85E
  8
0
 10
52.10048294067383
 20
-51.20000076293945
 30
-80.8743896484375
 70
   192
  0
VERTEX
  5
85F
  8
0
 10
52.86424255371094
 20
-51.20000076293945
 30
-82.48527526855469
 70
   192
  0
VERTEX
  5
860
  8
0
 10
54.24985122680664
 20
-51.20000076293945
 30
-83.6136474609375
 70
   192
  0
VERTEX
  5
861
  8
0
 10
56.0
 20
-51.20000076293945
 30
-84.0
 70
   192
  0
VERTEX
  5
862
  8
0
 10
52.90110397338867
 20
-51.20000076293945
 30
-77.50226593017578
 70
   192
  0
VERTEX
  5
863
  8
0
 10
54.28448104858398
 20
-51.20000076293945
 30
-76.40460205078125
 70
   192
  0
VERTEX
  5
864
  8
0
 10
56.0
 20
-51.20000076293945
 30
-76.0
 70
   192
  0
VERTEX
  5
865
  8
0
 10
52.02482604980469
 20
-66.60508728027344
 30
-68.102783203125
 70
   192
  0
VERTEX
  5
866
  8
0
 10
52.31042098999023
 20
-68.72881317138672
 30
-64.0
 70
   192
  0
VERTEX
  5
867
  8
0
 10
52.76076507568359
 20
-68.93757629394531
 30
-68.72398376464844
 70
   192
  0
VERTEX
  5
868
  8
0
 10
53.19352722167969
 20
-64.37782287597656
 30
-64.0
 70
   192
  0
VERTEX
  5
869
  8
0
 10
52.83870315551758
 20
-64.33883666992188
 30
-67.49921417236328
 70
   192
  0
VERTEX
  5
86A
  8
0
 10
54.47053909301758
 20
-63.10259628295898
 30
-67.16997528076172
 70
   192
  0
VERTEX
  5
86B
  8
0
 10
53.16325759887695
 20
-70.0362319946289
 30
-64.0
 70
   192
  0
VERTEX
  5
86C
  8
0
 10
54.43276214599609
 20
-70.23419189453125
 30
-69.06930541992188
 70
   192
  0
VERTEX
  5
86D
  8
0
 10
52.76076507568359
 20
-67.08272552490234
 30
-73.2020034790039
 70
   192
  0
VERTEX
  5
86E
  8
0
 10
54.43276214599609
 20
-68.24374389648438
 30
-73.87466430664062
 70
   192
  0
VERTEX
  5
86F
  8
0
 10
56.0
 20
-70.52668762207031
 30
-69.1357650756836
 70
   192
  0
VERTEX
  5
870
  8
0
 10
54.46286392211914
 20
-70.91241455078125
 30
-64.0
 70
   192
  0
VERTEX
  5
871
  8
0
 10
56.0
 20
-71.19999694824219
 30
-64.0
 70
   192
  0
VERTEX
  5
872
  8
0
 10
56.0
 20
-68.51171875
 30
-74.01331329345703
 70
   192
  0
VERTEX
  5
873
  8
0
 10
54.48261260986328
 20
-65.1194839477539
 30
-77.91948699951172
 70
   192
  0
VERTEX
  5
874
  8
0
 10
52.02482604980469
 20
-64.99414825439453
 30
-71.99193572998047
 70
   192
  0
VERTEX
  5
875
  8
0
 10
56.0
 20
-65.34213256835938
 30
-78.14213562011719
 70
   192
  0
VERTEX
  5
876
  8
0
 10
52.0
 20
-62.51371002197266
 30
-75.31370544433594
 70
   192
  0
VERTEX
  5
877
  8
0
 10
52.31760025024414
 20
-63.59923553466797
 30
-76.39923095703125
 70
   192
  0
VERTEX
  5
878
  8
0
 10
52.83870315551758
 20
-62.96487808227539
 30
-70.81623840332031
 70
   192
  0
VERTEX
  5
879
  8
0
 10
52.31760025024414
 20
-65.66483306884766
 30
-64.0
 70
   192
  0
VERTEX
  5
87A
  8
0
 10
53.16325759887695
 20
-60.5081901550293
 30
-73.30818939208984
 70
   192
  0
VERTEX
  5
87B
  8
0
 10
52.31042098999023
 20
-61.43267440795898
 30
-74.23267364501953
 70
   192
  0
VERTEX
  5
87C
  8
0
 10
54.47053909301758
 20
-61.85791778564453
 30
-70.17489624023438
 70
   192
  0
VERTEX
  5
87D
  8
0
 10
56.0
 20
-61.57854080200195
 30
-70.02069854736328
 70
   192
  0
VERTEX
  5
87E
  8
0
 10
56.0
 20
-62.79302978515625
 30
-67.09645080566406
 70
   192
  0
VERTEX
  5
87F
  8
0
 10
56.0
 20
-63.20000076293945
 30
-64.0
 70
   192
  0
VERTEX
  5
880
  8
0
 10
54.48261260986328
 20
-63.51487731933594
 30
-64.0
 70
   192
  0
VERTEX
  5
881
  8
0
 10
54.46286392211914
 20
-59.88863372802734
 30
-72.68863677978516
 70
   192
  0
VERTEX
  5
882
  8
0
 10
56.0
 20
-59.68527984619141
 30
-72.48528289794922
 70
   192
  0
VERTEX
  5
883
  8
0
 10
53.19352722167969
 20
-64.50929260253906
 30
-77.30928802490234
 70
   192
  0
VERTEX
  5
884
  8
0
 10
52.0
 20
-67.19999694824219
 30
-64.0
 70
   192
  0
VERTEX
  5
885
  8
0
 10
54.43276214599609
 20
-61.07466125488281
 30
-81.04374694824219
 70
   192
  0
VERTEX
  5
886
  8
0
 10
52.76076507568359
 20
-60.40200042724609
 30
-79.88272094726562
 70
   192
  0
VERTEX
  5
887
  8
0
 10
52.83870315551758
 20
-58.01623916625977
 30
-75.76487731933594
 70
   192
  0
VERTEX
  5
888
  8
0
 10
54.47053909301758
 20
-57.37489700317383
 30
-74.65792083740234
 70
   192
  0
VERTEX
  5
889
  8
0
 10
54.43276214599609
 20
-56.26930618286133
 30
-83.03418731689453
 70
   192
  0
VERTEX
  5
88A
  8
0
 10
52.76076507568359
 20
-55.92398452758789
 30
-81.73757934570312
 70
   192
  0
VERTEX
  5
88B
  8
0
 10
56.0
 20
-56.36075210571289
 30
-83.32171630859375
 70
   192
  0
VERTEX
  5
88C
  8
0
 10
56.0
 20
-61.2344970703125
 30
-81.29756164550781
 70
   192
  0
VERTEX
  5
88D
  8
0
 10
52.02482604980469
 20
-59.19193649291992
 30
-77.79414367675781
 70
   192
  0
VERTEX
  5
88E
  8
0
 10
52.02482604980469
 20
-55.30278015136719
 30
-79.40509033203125
 70
   192
  0
VERTEX
  5
88F
  8
0
 10
52.83870315551758
 20
-54.69921875
 30
-77.13883209228516
 70
   192
  0
VERTEX
  5
890
  8
0
 10
54.47053909301758
 20
-54.36997604370117
 30
-75.90259552001953
 70
   192
  0
VERTEX
  5
891
  8
0
 10
56.0
 20
-54.28145980834961
 30
-75.59601593017578
 70
   192
  0
VERTEX
  5
892
  8
0
 10
56.0
 20
-57.20798873901367
 30
-74.38703155517578
 70
   192
  0
VERTEX
  5
893
  8
0
 10
59.97517395019531
 20
-55.33259963989258
 30
-79.51705169677734
 70
   192
  0
VERTEX
  5
894
  8
0
 10
59.68239974975586
 20
-51.20000076293945
 30
-78.46483612060547
 70
   192
  0
VERTEX
  5
895
  8
0
 10
60.0
 20
-51.20000076293945
 30
-80.0
 70
   192
  0
VERTEX
  5
896
  8
0
 10
57.52946090698242
 20
-56.26540374755859
 30
-83.01953887939453
 70
   192
  0
VERTEX
  5
897
  8
0
 10
58.83674240112305
 20
-51.20000076293945
 30
-82.83623504638672
 70
   192
  0
VERTEX
  5
898
  8
0
 10
57.53713607788086
 20
-51.20000076293945
 30
-83.71241760253906
 70
   192
  0
VERTEX
  5
899
  8
0
 10
59.23923492431641
 20
-54.71139526367188
 30
-77.18456268310547
 70
   192
  0
VERTEX
  5
89A
  8
0
 10
57.51738739013672
 20
-51.20000076293945
 30
-76.31488037109375
 70
   192
  0
VERTEX
  5
89B
  8
0
 10
57.56723785400391
 20
-54.36607360839844
 30
-75.88794708251953
 70
   192
  0
VERTEX
  5
89C
  8
0
 10
59.97517395019531
 20
-59.25002288818359
 30
-77.89440155029297
 70
   192
  0
VERTEX
  5
89D
  8
0
 10
59.16129684448242
 20
-60.42572021484375
 30
-79.92366790771484
 70
   192
  0
VERTEX
  5
89E
  8
0
 10
59.23923492431641
 20
-58.03995895385742
 30
-75.80582427978516
 70
   192
  0
VERTEX
  5
89F
  8
0
 10
57.56723785400391
 20
-57.36729431152344
 30
-74.6447982788086
 70
   192
  0
VERTEX
  5
8A0
  8
0
 10
58.83674240112305
 20
-60.5081901550293
 30
-73.30818939208984
 70
   192
  0
VERTEX
  5
8A1
  8
0
 10
57.53713607788086
 20
-59.88863372802734
 30
-72.68863677978516
 70
   192
  0
VERTEX
  5
8A2
  8
0
 10
59.68957901000977
 20
-61.43267440795898
 30
-74.23267364501953
 70
   192
  0
VERTEX
  5
8A3
  8
0
 10
59.16129684448242
 20
-55.93616104125977
 30
-81.7833023071289
 70
   192
  0
VERTEX
  5
8A4
  8
0
 10
57.52946090698242
 20
-61.06706237792969
 30
-81.03062438964844
 70
   192
  0
VERTEX
  5
8A5
  8
0
 10
59.68239974975586
 20
-63.59923553466797
 30
-76.39923095703125
 70
   192
  0
VERTEX
  5
8A6
  8
0
 10
59.68957901000977
 20
-51.20000076293945
 30
-81.52881622314453
 70
   192
  0
VERTEX
  5
8A7
  8
0
 10
58.80647277832031
 20
-64.50929260253906
 30
-77.30928802490234
 70
   192
  0
VERTEX
  5
8A8
  8
0
 10
57.51738739013672
 20
-65.1194839477539
 30
-77.91948699951172
 70
   192
  0
VERTEX
  5
8A9
  8
0
 10
58.80647277832031
 20
-51.20000076293945
 30
-77.17782592773438
 70
   192
  0
VERTEX
  5
8AA
  8
0
 10
60.0
 20
-62.51371002197266
 30
-75.31370544433594
 70
   192
  0
VERTEX
  5
8AB
  8
0
 10
52.0
 20
-67.19999694824219
 30
-53.50408172607422
 70
   192
  0
VERTEX
  5
8AC
  8
0
 10
52.50999069213867
 20
-69.13732147216797
 30
-53.50408172607422
 70
   192
  0
VERTEX
  5
8AD
  8
0
 10
54.02390289306641
 20
-70.6739501953125
 30
-53.50408172607422
 70
   192
  0
VERTEX
  5
8AE
  8
0
 10
56.0
 20
-71.19999694824219
 30
-53.50408172607422
 70
   192
  0
VERTEX
  5
8AF
  8
0
 10
52.52605438232422
 20
-65.2238998413086
 30
-53.50408172607422
 70
   192
  0
VERTEX
  5
8B0
  8
0
 10
54.06267929077148
 20
-63.70999145507812
 30
-53.50408172607422
 70
   192
  0
VERTEX
  5
8B1
  8
0
 10
56.0
 20
-63.20000076293945
 30
-53.50408172607422
 70
   192
  0
VERTEX
  5
8B2
  8
0
 10
56.0
 20
-67.19999694824219
 30
-53.09999847412109
 70
   192
  0
VERTEX
  5
8B3
  8
0
 10
57.97245025634766
 20
-63.74163055419922
 30
-53.50408172607422
 70
   192
  0
VERTEX
  5
8B4
  8
0
 10
59.43632888793945
 20
-65.18871307373047
 30
-53.50408172607422
 70
   192
  0
VERTEX
  5
8B5
  8
0
 10
60.0
 20
-67.19999694824219
 30
-53.50408172607422
 70
   192
  0
VERTEX
  5
8B6
  8
0
 10
59.46115112304688
 20
-69.18975830078125
 30
-53.50408172607422
 70
   192
  0
VERTEX
  5
8B7
  8
0
 10
58.02053070068359
 20
-70.66820526123047
 30
-53.50408172607422
 70
   192
  0
VERTEX
  5
8B8
  8
0
 10
57.75014877319336
 20
-70.81365203857422
 30
-64.0
 70
   192
  0
VERTEX
  5
8B9
  8
0
 10
59.88687896728516
 20
-66.29237365722656
 30
-64.0
 70
   192
  0
VERTEX
  5
8BA
  8
0
 10
59.89951705932617
 20
-68.07438659667969
 30
-64.0
 70
   192
  0
VERTEX
  5
8BB
  8
0
 10
59.13575744628906
 20
-69.68527221679688
 30
-64.0
 70
   192
  0
VERTEX
  5
8BC
  8
0
 10
57.71551895141602
 20
-63.60459899902344
 30
-64.0
 70
   192
  0
VERTEX
  5
8BD
  8
0
 10
59.09889602661133
 20
-64.7022705078125
 30
-64.0
 70
   192
  0
VERTEX
  5
8BE
  8
0
 10
59.97517395019531
 20
-65.09439849853516
 30
-72.05001831054688
 70
   192
  0
VERTEX
  5
8BF
  8
0
 10
57.52946090698242
 20
-68.23062896728516
 30
-73.8670654296875
 70
   192
  0
VERTEX
  5
8C0
  8
0
 10
59.16129684448242
 20
-68.9832992553711
 30
-68.73616027832031
 70
   192
  0
VERTEX
  5
8C1
  8
0
 10
59.97517395019531
 20
-66.71704864501953
 30
-68.13259887695312
 70
   192
  0
VERTEX
  5
8C2
  8
0
 10
57.56723785400391
 20
-61.84479904174805
 30
-70.16729736328125
 70
   192
  0
VERTEX
  5
8C3
  8
0
 10
57.56723785400391
 20
-63.08794784545898
 30
-67.16607666015625
 70
   192
  0
VERTEX
  5
8C4
  8
0
 10
59.23923492431641
 20
-63.00582122802734
 30
-70.83995819091797
 70
   192
  0
VERTEX
  5
8C5
  8
0
 10
59.23923492431641
 20
-64.38455963134766
 30
-67.51139831542969
 70
   192
  0
VERTEX
  5
8C6
  8
0
 10
57.52946090698242
 20
-70.21953582763672
 30
-69.0654067993164
 70
   192
  0
VERTEX
  5
8C7
  8
0
 10
59.16129684448242
 20
-67.12366485595703
 30
-73.22572326660156
 70
   192
  0
VERTEX
  5
8C8
  8
0
 10
57.75014877319336
 20
46.29999923706055
 30
-83.6136474609375
 70
   192
  0
VERTEX
  5
8C9
  8
0
 10
59.88687896728516
 20
46.29999923706055
 30
-79.09237670898438
 70
   192
  0
VERTEX
  5
8CA
  8
0
 10
59.89951705932617
 20
46.29999923706055
 30
-80.8743896484375
 70
   192
  0
VERTEX
  5
8CB
  8
0
 10
59.13575744628906
 20
46.29999923706055
 30
-82.48527526855469
 70
   192
  0
VERTEX
  5
8CC
  8
0
 10
57.71551895141602
 20
46.29999923706055
 30
-76.40460205078125
 70
   192
  0
VERTEX
  5
8CD
  8
0
 10
59.09889602661133
 20
46.29999923706055
 30
-77.50226593017578
 70
   192
  0
VERTEX
  5
8CE
  8
0
 10
59.97517395019531
 20
54.35002136230469
 30
-77.89440155029297
 70
   192
  0
VERTEX
  5
8CF
  8
0
 10
57.52946090698242
 20
56.16706466674805
 30
-81.03062438964844
 70
   192
  0
VERTEX
  5
8D0
  8
0
 10
59.16129684448242
 20
51.03616333007812
 30
-81.7833023071289
 70
   192
  0
VERTEX
  5
8D1
  8
0
 10
59.97517395019531
 20
50.43259811401367
 30
-79.51705169677734
 70
   192
  0
VERTEX
  5
8D2
  8
0
 10
57.56723785400391
 20
52.4672966003418
 30
-74.6447982788086
 70
   192
  0
VERTEX
  5
8D3
  8
0
 10
57.56723785400391
 20
49.46607208251953
 30
-75.88794708251953
 70
   192
  0
VERTEX
  5
8D4
  8
0
 10
59.23923492431641
 20
53.13996124267578
 30
-75.80582427978516
 70
   192
  0
VERTEX
  5
8D5
  8
0
 10
59.23923492431641
 20
49.81139755249023
 30
-77.18456268310547
 70
   192
  0
VERTEX
  5
8D6
  8
0
 10
57.52946090698242
 20
51.36540603637695
 30
-83.01953887939453
 70
   192
  0
VERTEX
  5
8D7
  8
0
 10
59.16129684448242
 20
55.52572250366211
 30
-79.92366790771484
 70
   192
  0
VERTEX
  5
8D8
  8
0
 10
57.75014877319336
 20
65.91365051269531
 30
-16.0
 70
   192
  0
VERTEX
  5
8D9
  8
0
 10
59.88687896728516
 20
61.39237594604492
 30
-16.0
 70
   192
  0
VERTEX
  5
8DA
  8
0
 10
59.89951705932617
 20
63.17438507080078
 30
-16.0
 70
   192
  0
VERTEX
  5
8DB
  8
0
 10
59.13575744628906
 20
64.7852783203125
 30
-16.0
 70
   192
  0
VERTEX
  5
8DC
  8
0
 10
57.71551895141602
 20
58.7046012878418
 30
-16.0
 70
   192
  0
VERTEX
  5
8DD
  8
0
 10
59.09889602661133
 20
59.80226898193359
 30
-16.0
 70
   192
  0
VERTEX
  5
8DE
  8
0
 10
59.97517395019531
 20
60.19439697265625
 30
-7.949978828430176
 70
   192
  0
VERTEX
  5
8DF
  8
0
 10
57.52946090698242
 20
63.33062744140625
 30
-6.132936954498291
 70
   192
  0
VERTEX
  5
8E0
  8
0
 10
59.16129684448242
 20
64.08330535888672
 30
-11.26383781433105
 70
   192
  0
VERTEX
  5
8E1
  8
0
 10
59.97517395019531
 20
61.81704711914062
 30
-11.86740112304688
 70
   192
  0
VERTEX
  5
8E2
  8
0
 10
57.56723785400391
 20
56.94480133056641
 30
-9.832703590393066
 70
   192
  0
VERTEX
  5
8E3
  8
0
 10
57.56723785400391
 20
58.18794631958008
 30
-12.8339262008667
 70
   192
  0
VERTEX
  5
8E4
  8
0
 10
59.23923492431641
 20
58.1058235168457
 30
-9.160040855407715
 70
   192
  0
VERTEX
  5
8E5
  8
0
 10
59.23923492431641
 20
59.48455810546875
 30
-12.48860454559326
 70
   192
  0
VERTEX
  5
8E6
  8
0
 10
57.52946090698242
 20
65.31954193115234
 30
-10.93459510803223
 70
   192
  0
VERTEX
  5
8E7
  8
0
 10
59.16129684448242
 20
62.22366714477539
 30
-6.77427864074707
 70
   192
  0
VERTEX
  5
8E8
  8
0
 62
   123
 10
0.0
 20
0.0
 30
0.0
 70
   128
 71
     3
 72
     2
 73
     1
  0
VERTEX
  5
8E9
  8
0
 62
   123
 10
0.0
 20
0.0
 30
0.0
 70
   128
 71
     3
 72
     1
 73
     4
  0
VERTEX
  5
8EA
  8
0
 62
   123
 10
0.0
 20
0.0
 30
0.0
 70
   128
 71
     5
 72
     3
 73
     4
  0
VERTEX
  5
8EB
  8
0
 62
   123
 10
0.0
 20
0.0
 30
0.0
 70
   128
 71
     2
 72
     6
 73
     1
  0
VERTEX
  5
8EC
  8
0
 62
   123
 10
0.0
 20
0.0
 30
0.0
 70
   128
 71
     8
 72
     7
 73
     6
  0
VERTEX
  5
8ED
  8
0
 62
   123
 10
0.0
 20
0.0
 30
0.0
 70
   128
 71
     8
 72
    10
 73
     9
  0
VERTEX
  5
8EE
  8
0
 62
   123
 10
0.0
 20
0.0
 30
0.0
 70
   128
 71
    13
 72
    12
 73
    11
  0
VERTEX
  5
8EF
  8
0
 62
   123
 10
0.0
 20
0.0
 30
0.0
 70
   128
 71
    15
 72
     7
 73
    14
  0
VERTEX
  5
8F0
  8
0
 62
   123
 10
0.0
 20
0.0
 30
0.0
 70
   128
 71
    17
 72
    13
 73
    16
  0
VERTEX
  5
8F1
  8
0
 62
   123
 10
0.0
 20
0.0
 30
0.0
 70
   128
 71
    15
 72
    11
 73
    12
  0
VERTEX
  5
8F2
  8
0
 62
   123
 10
0.0
 20
0.0
 30
0.0
 70
   128
 71
    17
 72
    12
 73
    13
  0
VERTEX
  5
8F3
  8
0
 62
   123
 10
0.0
 20
0.0
 30
0.0
 70
   128
 71
    18
 72
    14
 73
     7
  0
VERTEX
  5
8F4
  8
0
 62
   123
 10
0.0
 20
0.0
 30
0.0
 70
   128
 71
    19
 72
     9
 73
    10
  0
VERTEX
  5
8F5
  8
0
 62
   123
 10
0.0
 20
0.0
 30
0.0
 70
   128
 71
     2
 72
     8
 73
     6
  0
VERTEX
  5
8F6
  8
0
 62
   123
 10
0.0
 20
0.0
 30
0.0
 70
   128
 71
    10
 72
     8
 73
     2
  0
VERTEX
  5
8F7
  8
0
 62
   123
 10
0.0
 20
0.0
 30
0.0
 70
   128
 71
    18
 72
     7
 73
     8
  0
VERTEX
  5
8F8
  8
0
 62
   123
 10
0.0
 20
0.0
 30
0.0
 70
   128
 71
    14
 72
     9
 73
    19
  0
VERTEX
  5
8F9
  8
0
 62
   123
 10
0.0
 20
0.0
 30
0.0
 70
   128
 71
    11
 72
    14
 73
    19
  0
VERTEX
  5
8FA
  8
0
 62
   123
 10
0.0
 20
0.0
 30
0.0
 70
   128
 71
    15
 72
    14
 73
    11
  0
VERTEX
  5
8FB
  8
0
 62
   123
 10
0.0
 20
0.0
 30
0.0
 70
   128
 71
     7
 72
    20
 73
     6
  0
VERTEX
  5
8FC
  8
0
 62
   123
 10
0.0
 20
0.0
 30
0.0
 70
   128
 71
    20
 72
     1
 73
     6
  0
VERTEX
  5
8FD
  8
0
 62
   123
 10
0.0
 20
0.0
 30
0.0
 70
   128
 71
    20
 72
     4
 73
     1
  0
VERTEX
  5
8FE
  8
0
 62
   123
 10
0.0
 20
0.0
 30
0.0
 70
   128
 71
     4
 72
    20
 73
    21
  0
VERTEX
  5
8FF
  8
0
 62
   123
 10
0.0
 20
0.0
 30
0.0
 70
   128
 71
    20
 72
    22
 73
    21
  0
VERTEX
  5
900
  8
0
 62
   123
 10
0.0
 20
0.0
 30
0.0
 70
   128
 71
    20
 72
    23
 73
    22
  0
VERTEX
  5
901
  8
0
 62
   123
 10
0.0
 20
0.0
 30
0.0
 70
   128
 71
    23
 72
    20
 73
    24
  0
VERTEX
  5
902
  8
0
 62
   123
 10
0.0
 20
0.0
 30
0.0
 70
   128
 71
    20
 72
    25
 73
    24
  0
VERTEX
  5
903
  8
0
 62
   123
 10
0.0
 20
0.0
 30
0.0
 70
   128
 71
    20
 72
    17
 73
    25
  0
VERTEX
  5
904
  8
0
 62
   123
 10
0.0
 20
0.0
 30
0.0
 70
   128
 71
    28
 72
    27
 73
    26
  0
VERTEX
  5
905
  8
0
 62
   123
 10
0.0
 20
0.0
 30
0.0
 70
   128
 71
    31
 72
    30
 73
    29
  0
VERTEX
  5
906
  8
0
 62
   123
 10
0.0
 20
0.0
 30
0.0
 70
   128
 71
    33
 72
    32
 73
    28
  0
VERTEX
  5
907
  8
0
 62
   123
 10
0.0
 20
0.0
 30
0.0
 70
   128
 71
    35
 72
    33
 73
    34
  0
VERTEX
  5
908
  8
0
 62
   123
 10
0.0
 20
0.0
 30
0.0
 70
   128
 71
    36
 72
    33
 73
    35
  0
VERTEX
  5
909
  8
0
 62
   123
 10
0.0
 20
0.0
 30
0.0
 70
   128
 71
    33
 72
    38
 73
    37
  0
VERTEX
  5
90A
  8
0
 62
   123
 10
0.0
 20
0.0
 30
0.0
 70
   128
 71
    40
 72
    39
 73
    35
  0
VERTEX
  5
90B
  8
0
 62
   123
 10
0.0
 20
0.0
 30
0.0
 70
   128
 71
    36
 72
    35
 73
    39
  0
VERTEX
  5
90C
  8
0
 62
   123
 10
0.0
 20
0.0
 30
0.0
 70
   128
 71
    28
 72
    41
 73
    34
  0
VERTEX
  5
90D
  8
0
 62
   123
 10
0.0
 20
0.0
 30
0.0
 70
   128
 71
    42
 72
    39
 73
    40
  0
VERTEX
  5
90E
  8
0
 62
   123
 10
0.0
 20
0.0
 30
0.0
 70
   128
 71
    44
 72
    41
 73
    43
  0
VERTEX
  5
90F
  8
0
 62
   123
 10
0.0
 20
0.0
 30
0.0
 70
   128
 71
    45
 72
    26
 73
    30
  0
VERTEX
  5
910
  8
0
 62
   123
 10
0.0
 20
0.0
 30
0.0
 70
   128
 71
    26
 72
    45
 73
    41
  0
VERTEX
  5
911
  8
0
 62
   123
 10
0.0
 20
0.0
 30
0.0
 70
   128
 71
    26
 72
    46
 73
    30
  0
VERTEX
  5
912
  8
0
 62
   123
 10
0.0
 20
0.0
 30
0.0
 70
   128
 71
    48
 72
    45
 73
    47
  0
VERTEX
  5
913
  8
0
 62
   123
 10
0.0
 20
0.0
 30
0.0
 70
   128
 71
    50
 72
    49
 73
    31
  0
VERTEX
  5
914
  8
0
 62
   123
 10
0.0
 20
0.0
 30
0.0
 70
   128
 71
    50
 72
    31
 73
    51
  0
VERTEX
  5
915
  8
0
 62
   123
 10
0.0
 20
0.0
 30
0.0
 70
   128
 71
    51
 72
    53
 73
    52
  0
VERTEX
  5
916
  8
0
 62
   123
 10
0.0
 20
0.0
 30
0.0
 70
   128
 71
    30
 72
    49
 73
    45
  0
VERTEX
  5
917
  8
0
 62
   123
 10
0.0
 20
0.0
 30
0.0
 70
   128
 71
    49
 72
    55
 73
    54
  0
VERTEX
  5
918
  8
0
 62
   123
 10
0.0
 20
0.0
 30
0.0
 70
   128
 71
    49
 72
    50
 73
    55
  0
VERTEX
  5
919
  8
0
 62
   123
 10
0.0
 20
0.0
 30
0.0
 70
   128
 71
    49
 72
    54
 73
    47
  0
VERTEX
  5
91A
  8
0
 62
   123
 10
0.0
 20
0.0
 30
0.0
 70
   128
 71
    53
 72
    31
 73
    29
  0
VERTEX
  5
91B
  8
0
 62
   123
 10
0.0
 20
0.0
 30
0.0
 70
   128
 71
    31
 72
    53
 73
    51
  0
VERTEX
  5
91C
  8
0
 62
   123
 10
0.0
 20
0.0
 30
0.0
 70
   128
 71
    45
 72
    49
 73
    47
  0
VERTEX
  5
91D
  8
0
 62
   123
 10
0.0
 20
0.0
 30
0.0
 70
   128
 71
    43
 72
    41
 73
    48
  0
VERTEX
  5
91E
  8
0
 62
   123
 10
0.0
 20
0.0
 30
0.0
 70
   128
 71
    30
 72
    46
 73
    29
  0
VERTEX
  5
91F
  8
0
 62
   123
 10
0.0
 20
0.0
 30
0.0
 70
   128
 71
    30
 72
    31
 73
    49
  0
VERTEX
  5
920
  8
0
 62
   123
 10
0.0
 20
0.0
 30
0.0
 70
   128
 71
    45
 72
    48
 73
    41
  0
VERTEX
  5
921
  8
0
 62
   123
 10
0.0
 20
0.0
 30
0.0
 70
   128
 71
    56
 72
    34
 73
    44
  0
VERTEX
  5
922
  8
0
 62
   123
 10
0.0
 20
0.0
 30
0.0
 70
   128
 71
    57
 72
    26
 73
    27
  0
VERTEX
  5
923
  8
0
 62
   123
 10
0.0
 20
0.0
 30
0.0
 70
   128
 71
    57
 72
    46
 73
    26
  0
VERTEX
  5
924
  8
0
 62
   123
 10
0.0
 20
0.0
 30
0.0
 70
   128
 71
    34
 72
    41
 73
    44
  0
VERTEX
  5
925
  8
0
 62
   123
 10
0.0
 20
0.0
 30
0.0
 70
   128
 71
    56
 72
    40
 73
    35
  0
VERTEX
  5
926
  8
0
 62
   123
 10
0.0
 20
0.0
 30
0.0
 70
   128
 71
    28
 72
    32
 73
    27
  0
VERTEX
  5
927
  8
0
 62
   123
 10
0.0
 20
0.0
 30
0.0
 70
   128
 71
    28
 72
    26
 73
    41
  0
VERTEX
  5
928
  8
0
 62
   123
 10
0.0
 20
0.0
 30
0.0
 70
   128
 71
    35
 72
    34
 73
    56
  0
VERTEX
  5
929
  8
0
 62
   123
 10
0.0
 20
0.0
 30
0.0
 70
   128
 71
    33
 72
    36
 73
    38
  0
VERTEX
  5
92A
  8
0
 62
   123
 10
0.0
 20
0.0
 30
0.0
 70
   128
 71
    33
 72
    37
 73
    32
  0
VERTEX
  5
92B
  8
0
 62
   123
 10
0.0
 20
0.0
 30
0.0
 70
   128
 71
    33
 72
    28
 73
    34
  0
VERTEX
  5
92C
  8
0
 62
   123
 10
0.0
 20
0.0
 30
0.0
 70
   128
 71
    56
 72
    59
 73
    58
  0
VERTEX
  5
92D
  8
0
 62
   123
 10
0.0
 20
0.0
 30
0.0
 70
   128
 71
    61
 72
    60
 73
    47
  0
VERTEX
  5
92E
  8
0
 62
   123
 10
0.0
 20
0.0
 30
0.0
 70
   128
 71
    40
 72
    58
 73
    42
  0
VERTEX
  5
92F
  8
0
 62
   123
 10
0.0
 20
0.0
 30
0.0
 70
   128
 71
    58
 72
    63
 73
    62
  0
VERTEX
  5
930
  8
0
 62
   123
 10
0.0
 20
0.0
 30
0.0
 70
   128
 71
    62
 72
     3
 73
    64
  0
VERTEX
  5
931
  8
0
 62
   123
 10
0.0
 20
0.0
 30
0.0
 70
   128
 71
    58
 72
    62
 73
    65
  0
VERTEX
  5
932
  8
0
 62
   123
 10
0.0
 20
0.0
 30
0.0
 70
   128
 71
    65
 72
    62
 73
    64
  0
VERTEX
  5
933
  8
0
 62
   123
 10
0.0
 20
0.0
 30
0.0
 70
   128
 71
    59
 72
    44
 73
    66
  0
VERTEX
  5
934
  8
0
 62
   123
 10
0.0
 20
0.0
 30
0.0
 70
   128
 71
     5
 72
    64
 73
     3
  0
VERTEX
  5
935
  8
0
 62
   123
 10
0.0
 20
0.0
 30
0.0
 70
   128
 71
    63
 72
    59
 73
    67
  0
VERTEX
  5
936
  8
0
 62
   123
 10
0.0
 20
0.0
 30
0.0
 70
   128
 71
    68
 72
    66
 73
    60
  0
VERTEX
  5
937
  8
0
 62
   123
 10
0.0
 20
0.0
 30
0.0
 70
   128
 71
    66
 72
    68
 73
    67
  0
VERTEX
  5
938
  8
0
 62
   123
 10
0.0
 20
0.0
 30
0.0
 70
   128
 71
    66
 72
    48
 73
    60
  0
VERTEX
  5
939
  8
0
 62
   123
 10
0.0
 20
0.0
 30
0.0
 70
   128
 71
    19
 72
    68
 73
    11
  0
VERTEX
  5
93A
  8
0
 62
   123
 10
0.0
 20
0.0
 30
0.0
 70
   128
 71
    70
 72
    69
 73
    61
  0
VERTEX
  5
93B
  8
0
 62
   123
 10
0.0
 20
0.0
 30
0.0
 70
   128
 71
    70
 72
    61
 73
    71
  0
VERTEX
  5
93C
  8
0
 62
   123
 10
0.0
 20
0.0
 30
0.0
 70
   128
 71
    71
 72
    54
 73
    55
  0
VERTEX
  5
93D
  8
0
 62
   123
 10
0.0
 20
0.0
 30
0.0
 70
   128
 71
    60
 72
    69
 73
    68
  0
VERTEX
  5
93E
  8
0
 62
   123
 10
0.0
 20
0.0
 30
0.0
 70
   128
 71
    69
 72
    16
 73
    13
  0
VERTEX
  5
93F
  8
0
 62
   123
 10
0.0
 20
0.0
 30
0.0
 70
   128
 71
    69
 72
    70
 73
    16
  0
VERTEX
  5
940
  8
0
 62
   123
 10
0.0
 20
0.0
 30
0.0
 70
   128
 71
    13
 72
    11
 73
    68
  0
VERTEX
  5
941
  8
0
 62
   123
 10
0.0
 20
0.0
 30
0.0
 70
   128
 71
    54
 72
    61
 73
    47
  0
VERTEX
  5
942
  8
0
 62
   123
 10
0.0
 20
0.0
 30
0.0
 70
   128
 71
    61
 72
    54
 73
    71
  0
VERTEX
  5
943
  8
0
 62
   123
 10
0.0
 20
0.0
 30
0.0
 70
   128
 71
    69
 72
    13
 73
    68
  0
VERTEX
  5
944
  8
0
 62
   123
 10
0.0
 20
0.0
 30
0.0
 70
   128
 71
    10
 72
    67
 73
    19
  0
VERTEX
  5
945
  8
0
 62
   123
 10
0.0
 20
0.0
 30
0.0
 70
   128
 71
    60
 72
    48
 73
    47
  0
VERTEX
  5
946
  8
0
 62
   123
 10
0.0
 20
0.0
 30
0.0
 70
   128
 71
    60
 72
    61
 73
    69
  0
VERTEX
  5
947
  8
0
 62
   123
 10
0.0
 20
0.0
 30
0.0
 70
   128
 71
    67
 72
    68
 73
    19
  0
VERTEX
  5
948
  8
0
 62
   123
 10
0.0
 20
0.0
 30
0.0
 70
   128
 71
     2
 72
    63
 73
    10
  0
VERTEX
  5
949
  8
0
 62
   123
 10
0.0
 20
0.0
 30
0.0
 70
   128
 71
    43
 72
    66
 73
    44
  0
VERTEX
  5
94A
  8
0
 62
   123
 10
0.0
 20
0.0
 30
0.0
 70
   128
 71
    43
 72
    48
 73
    66
  0
VERTEX
  5
94B
  8
0
 62
   123
 10
0.0
 20
0.0
 30
0.0
 70
   128
 71
    63
 72
    67
 73
    10
  0
VERTEX
  5
94C
  8
0
 62
   123
 10
0.0
 20
0.0
 30
0.0
 70
   128
 71
     3
 72
    62
 73
     2
  0
VERTEX
  5
94D
  8
0
 62
   123
 10
0.0
 20
0.0
 30
0.0
 70
   128
 71
    59
 72
    56
 73
    44
  0
VERTEX
  5
94E
  8
0
 62
   123
 10
0.0
 20
0.0
 30
0.0
 70
   128
 71
    59
 72
    66
 73
    67
  0
VERTEX
  5
94F
  8
0
 62
   123
 10
0.0
 20
0.0
 30
0.0
 70
   128
 71
    62
 72
    63
 73
     2
  0
VERTEX
  5
950
  8
0
 62
   123
 10
0.0
 20
0.0
 30
0.0
 70
   128
 71
    58
 72
    65
 73
    42
  0
VERTEX
  5
951
  8
0
 62
   123
 10
0.0
 20
0.0
 30
0.0
 70
   128
 71
    58
 72
    40
 73
    56
  0
VERTEX
  5
952
  8
0
 62
   123
 10
0.0
 20
0.0
 30
0.0
 70
   128
 71
    58
 72
    59
 73
    63
  0
VERTEX
  5
953
  8
0
 62
   123
 10
0.0
 20
0.0
 30
0.0
 70
   128
 71
    74
 72
    73
 73
    72
  0
VERTEX
  5
954
  8
0
 62
   123
 10
0.0
 20
0.0
 30
0.0
 70
   128
 71
    77
 72
    76
 73
    75
  0
VERTEX
  5
955
  8
0
 62
   123
 10
0.0
 20
0.0
 30
0.0
 70
   128
 71
    64
 72
    77
 73
    75
  0
VERTEX
  5
956
  8
0
 62
   123
 10
0.0
 20
0.0
 30
0.0
 70
   128
 71
    78
 72
    72
 73
    73
  0
VERTEX
  5
957
  8
0
 62
   123
 10
0.0
 20
0.0
 30
0.0
 70
   128
 71
     5
 72
    77
 73
    64
  0
VERTEX
  5
958
  8
0
 62
   123
 10
0.0
 20
0.0
 30
0.0
 70
   128
 71
    16
 72
    80
 73
    79
  0
VERTEX
  5
959
  8
0
 62
   123
 10
0.0
 20
0.0
 30
0.0
 70
   128
 71
    82
 72
    72
 73
    81
  0
VERTEX
  5
95A
  8
0
 62
   123
 10
0.0
 20
0.0
 30
0.0
 70
   128
 71
    84
 72
    83
 73
    80
  0
VERTEX
  5
95B
  8
0
 62
   123
 10
0.0
 20
0.0
 30
0.0
 70
   128
 71
    85
 72
    83
 73
    84
  0
VERTEX
  5
95C
  8
0
 62
   123
 10
0.0
 20
0.0
 30
0.0
 70
   128
 71
    80
 72
    16
 73
    70
  0
VERTEX
  5
95D
  8
0
 62
   123
 10
0.0
 20
0.0
 30
0.0
 70
   128
 71
    86
 72
    71
 73
    55
  0
VERTEX
  5
95E
  8
0
 62
   123
 10
0.0
 20
0.0
 30
0.0
 70
   128
 71
    85
 72
    84
 73
    86
  0
VERTEX
  5
95F
  8
0
 62
   123
 10
0.0
 20
0.0
 30
0.0
 70
   128
 71
    81
 72
    72
 73
    78
  0
VERTEX
  5
960
  8
0
 62
   123
 10
0.0
 20
0.0
 30
0.0
 70
   128
 71
    81
 72
    83
 73
    87
  0
VERTEX
  5
961
  8
0
 62
   123
 10
0.0
 20
0.0
 30
0.0
 70
   128
 71
    89
 72
    88
 73
    82
  0
VERTEX
  5
962
  8
0
 62
   123
 10
0.0
 20
0.0
 30
0.0
 70
   128
 71
    82
 72
    81
 73
    90
  0
VERTEX
  5
963
  8
0
 62
   123
 10
0.0
 20
0.0
 30
0.0
 70
   128
 71
    75
 72
    76
 73
    88
  0
VERTEX
  5
964
  8
0
 62
   123
 10
0.0
 20
0.0
 30
0.0
 70
   128
 71
    75
 72
    88
 73
    89
  0
VERTEX
  5
965
  8
0
 62
   123
 10
0.0
 20
0.0
 30
0.0
 70
   128
 71
    89
 72
    42
 73
    65
  0
VERTEX
  5
966
  8
0
 62
   123
 10
0.0
 20
0.0
 30
0.0
 70
   128
 71
    91
 72
    88
 73
    76
  0
VERTEX
  5
967
  8
0
 62
   123
 10
0.0
 20
0.0
 30
0.0
 70
   128
 71
    75
 72
    89
 73
    65
  0
VERTEX
  5
968
  8
0
 62
   123
 10
0.0
 20
0.0
 30
0.0
 70
   128
 71
    75
 72
    65
 73
    64
  0
VERTEX
  5
969
  8
0
 62
   123
 10
0.0
 20
0.0
 30
0.0
 70
   128
 71
    93
 72
    89
 73
    92
  0
VERTEX
  5
96A
  8
0
 62
   123
 10
0.0
 20
0.0
 30
0.0
 70
   128
 71
    93
 72
    42
 73
    89
  0
VERTEX
  5
96B
  8
0
 62
   123
 10
0.0
 20
0.0
 30
0.0
 70
   128
 71
    91
 72
    74
 73
    72
  0
VERTEX
  5
96C
  8
0
 62
   123
 10
0.0
 20
0.0
 30
0.0
 70
   128
 71
    82
 72
    92
 73
    89
  0
VERTEX
  5
96D
  8
0
 62
   123
 10
0.0
 20
0.0
 30
0.0
 70
   128
 71
    88
 72
    91
 73
    72
  0
VERTEX
  5
96E
  8
0
 62
   123
 10
0.0
 20
0.0
 30
0.0
 70
   128
 71
    92
 72
    82
 73
    90
  0
VERTEX
  5
96F
  8
0
 62
   123
 10
0.0
 20
0.0
 30
0.0
 70
   128
 71
    72
 72
    82
 73
    88
  0
VERTEX
  5
970
  8
0
 62
   123
 10
0.0
 20
0.0
 30
0.0
 70
   128
 71
    73
 72
    94
 73
    78
  0
VERTEX
  5
971
  8
0
 62
   123
 10
0.0
 20
0.0
 30
0.0
 70
   128
 71
    95
 72
    81
 73
    87
  0
VERTEX
  5
972
  8
0
 62
   123
 10
0.0
 20
0.0
 30
0.0
 70
   128
 71
    95
 72
    90
 73
    81
  0
VERTEX
  5
973
  8
0
 62
   123
 10
0.0
 20
0.0
 30
0.0
 70
   128
 71
    94
 72
    79
 73
    80
  0
VERTEX
  5
974
  8
0
 62
   123
 10
0.0
 20
0.0
 30
0.0
 70
   128
 71
    70
 72
    71
 73
    84
  0
VERTEX
  5
975
  8
0
 62
   123
 10
0.0
 20
0.0
 30
0.0
 70
   128
 71
    83
 72
    85
 73
    87
  0
VERTEX
  5
976
  8
0
 62
   123
 10
0.0
 20
0.0
 30
0.0
 70
   128
 71
    78
 72
    83
 73
    81
  0
VERTEX
  5
977
  8
0
 62
   123
 10
0.0
 20
0.0
 30
0.0
 70
   128
 71
    80
 72
    78
 73
    94
  0
VERTEX
  5
978
  8
0
 62
   123
 10
0.0
 20
0.0
 30
0.0
 70
   128
 71
    78
 72
    80
 73
    83
  0
VERTEX
  5
979
  8
0
 62
   123
 10
0.0
 20
0.0
 30
0.0
 70
   128
 71
    86
 72
    84
 73
    71
  0
VERTEX
  5
97A
  8
0
 62
   123
 10
0.0
 20
0.0
 30
0.0
 70
   128
 71
    84
 72
    80
 73
    70
  0
VERTEX
  5
97B
  8
0
 62
   123
 10
0.0
 20
0.0
 30
0.0
 70
   128
 71
    57
 72
    97
 73
    96
  0
VERTEX
  5
97C
  8
0
 62
   123
 10
0.0
 20
0.0
 30
0.0
 70
   128
 71
    97
 72
    27
 73
    98
  0
VERTEX
  5
97D
  8
0
 62
   123
 10
0.0
 20
0.0
 30
0.0
 70
   128
 71
    27
 72
    97
 73
    57
  0
VERTEX
  5
97E
  8
0
 62
   123
 10
0.0
 20
0.0
 30
0.0
 70
   128
 71
    99
 72
    98
 73
    32
  0
VERTEX
  5
97F
  8
0
 62
   123
 10
0.0
 20
0.0
 30
0.0
 70
   128
 71
    27
 72
    32
 73
    98
  0
VERTEX
  5
980
  8
0
 62
   123
 10
0.0
 20
0.0
 30
0.0
 70
   128
 71
    37
 72
   100
 73
    99
  0
VERTEX
  5
981
  8
0
 62
   123
 10
0.0
 20
0.0
 30
0.0
 70
   128
 71
    99
 72
    32
 73
    37
  0
VERTEX
  5
982
  8
0
 62
   123
 10
0.0
 20
0.0
 30
0.0
 70
   128
 71
    38
 72
   100
 73
    37
  0
VERTEX
  5
983
  8
0
 62
   123
 10
0.0
 20
0.0
 30
0.0
 70
   128
 71
    46
 72
    57
 73
    96
  0
VERTEX
  5
984
  8
0
 62
   123
 10
0.0
 20
0.0
 30
0.0
 70
   128
 71
    29
 72
    46
 73
   101
  0
VERTEX
  5
985
  8
0
 62
   123
 10
0.0
 20
0.0
 30
0.0
 70
   128
 71
    96
 72
   101
 73
    46
  0
VERTEX
  5
986
  8
0
 62
   123
 10
0.0
 20
0.0
 30
0.0
 70
   128
 71
   102
 72
    53
 73
    29
  0
VERTEX
  5
987
  8
0
 62
   123
 10
0.0
 20
0.0
 30
0.0
 70
   128
 71
    29
 72
   101
 73
   102
  0
VERTEX
  5
988
  8
0
 62
   123
 10
0.0
 20
0.0
 30
0.0
 70
   128
 71
   103
 72
    53
 73
   102
  0
VERTEX
  5
989
  8
0
 62
   123
 10
0.0
 20
0.0
 30
0.0
 70
   128
 71
   103
 72
    52
 73
    53
  0
VERTEX
  5
98A
  8
0
 62
   123
 10
0.0
 20
0.0
 30
0.0
 70
   128
 71
   106
 72
   105
 73
   104
  0
VERTEX
  5
98B
  8
0
 62
   123
 10
0.0
 20
0.0
 30
0.0
 70
   128
 71
   109
 72
   108
 73
   107
  0
VERTEX
  5
98C
  8
0
 62
   123
 10
0.0
 20
0.0
 30
0.0
 70
   128
 71
   111
 72
   110
 73
   106
  0
VERTEX
  5
98D
  8
0
 62
   123
 10
0.0
 20
0.0
 30
0.0
 70
   128
 71
   113
 72
   111
 73
   112
  0
VERTEX
  5
98E
  8
0
 62
   123
 10
0.0
 20
0.0
 30
0.0
 70
   128
 71
   114
 72
   111
 73
   113
  0
VERTEX
  5
98F
  8
0
 62
   123
 10
0.0
 20
0.0
 30
0.0
 70
   128
 71
   111
 72
   116
 73
   115
  0
VERTEX
  5
990
  8
0
 62
   123
 10
0.0
 20
0.0
 30
0.0
 70
   128
 71
   118
 72
   117
 73
   113
  0
VERTEX
  5
991
  8
0
 62
   123
 10
0.0
 20
0.0
 30
0.0
 70
   128
 71
   114
 72
   113
 73
   117
  0
VERTEX
  5
992
  8
0
 62
   123
 10
0.0
 20
0.0
 30
0.0
 70
   128
 71
   106
 72
   119
 73
   112
  0
VERTEX
  5
993
  8
0
 62
   123
 10
0.0
 20
0.0
 30
0.0
 70
   128
 71
   120
 72
   117
 73
   118
  0
VERTEX
  5
994
  8
0
 62
   123
 10
0.0
 20
0.0
 30
0.0
 70
   128
 71
   122
 72
   119
 73
   121
  0
VERTEX
  5
995
  8
0
 62
   123
 10
0.0
 20
0.0
 30
0.0
 70
   128
 71
   123
 72
   104
 73
   108
  0
VERTEX
  5
996
  8
0
 62
   123
 10
0.0
 20
0.0
 30
0.0
 70
   128
 71
   104
 72
   123
 73
   119
  0
VERTEX
  5
997
  8
0
 62
   123
 10
0.0
 20
0.0
 30
0.0
 70
   128
 71
   104
 72
   124
 73
   108
  0
VERTEX
  5
998
  8
0
 62
   123
 10
0.0
 20
0.0
 30
0.0
 70
   128
 71
   126
 72
   123
 73
   125
  0
VERTEX
  5
999
  8
0
 62
   123
 10
0.0
 20
0.0
 30
0.0
 70
   128
 71
   128
 72
   127
 73
   109
  0
VERTEX
  5
99A
  8
0
 62
   123
 10
0.0
 20
0.0
 30
0.0
 70
   128
 71
   128
 72
   109
 73
   129
  0
VERTEX
  5
99B
  8
0
 62
   123
 10
0.0
 20
0.0
 30
0.0
 70
   128
 71
   129
 72
   131
 73
   130
  0
VERTEX
  5
99C
  8
0
 62
   123
 10
0.0
 20
0.0
 30
0.0
 70
   128
 71
   108
 72
   127
 73
   123
  0
VERTEX
  5
99D
  8
0
 62
   123
 10
0.0
 20
0.0
 30
0.0
 70
   128
 71
   127
 72
   133
 73
   132
  0
VERTEX
  5
99E
  8
0
 62
   123
 10
0.0
 20
0.0
 30
0.0
 70
   128
 71
   127
 72
   128
 73
   133
  0
VERTEX
  5
99F
  8
0
 62
   123
 10
0.0
 20
0.0
 30
0.0
 70
   128
 71
   127
 72
   132
 73
   125
  0
VERTEX
  5
9A0
  8
0
 62
   123
 10
0.0
 20
0.0
 30
0.0
 70
   128
 71
   131
 72
   109
 73
   107
  0
VERTEX
  5
9A1
  8
0
 62
   123
 10
0.0
 20
0.0
 30
0.0
 70
   128
 71
   109
 72
   131
 73
   129
  0
VERTEX
  5
9A2
  8
0
 62
   123
 10
0.0
 20
0.0
 30
0.0
 70
   128
 71
   123
 72
   127
 73
   125
  0
VERTEX
  5
9A3
  8
0
 62
   123
 10
0.0
 20
0.0
 30
0.0
 70
   128
 71
   121
 72
   119
 73
   126
  0
VERTEX
  5
9A4
  8
0
 62
   123
 10
0.0
 20
0.0
 30
0.0
 70
   128
 71
   108
 72
   124
 73
   107
  0
VERTEX
  5
9A5
  8
0
 62
   123
 10
0.0
 20
0.0
 30
0.0
 70
   128
 71
   108
 72
   109
 73
   127
  0
VERTEX
  5
9A6
  8
0
 62
   123
 10
0.0
 20
0.0
 30
0.0
 70
   128
 71
   123
 72
   126
 73
   119
  0
VERTEX
  5
9A7
  8
0
 62
   123
 10
0.0
 20
0.0
 30
0.0
 70
   128
 71
   134
 72
   112
 73
   122
  0
VERTEX
  5
9A8
  8
0
 62
   123
 10
0.0
 20
0.0
 30
0.0
 70
   128
 71
   135
 72
   104
 73
   105
  0
VERTEX
  5
9A9
  8
0
 62
   123
 10
0.0
 20
0.0
 30
0.0
 70
   128
 71
   135
 72
   124
 73
   104
  0
VERTEX
  5
9AA
  8
0
 62
   123
 10
0.0
 20
0.0
 30
0.0
 70
   128
 71
   112
 72
   119
 73
   122
  0
VERTEX
  5
9AB
  8
0
 62
   123
 10
0.0
 20
0.0
 30
0.0
 70
   128
 71
   134
 72
   118
 73
   113
  0
VERTEX
  5
9AC
  8
0
 62
   123
 10
0.0
 20
0.0
 30
0.0
 70
   128
 71
   106
 72
   110
 73
   105
  0
VERTEX
  5
9AD
  8
0
 62
   123
 10
0.0
 20
0.0
 30
0.0
 70
   128
 71
   106
 72
   104
 73
   119
  0
VERTEX
  5
9AE
  8
0
 62
   123
 10
0.0
 20
0.0
 30
0.0
 70
   128
 71
   113
 72
   112
 73
   134
  0
VERTEX
  5
9AF
  8
0
 62
   123
 10
0.0
 20
0.0
 30
0.0
 70
   128
 71
   111
 72
   114
 73
   116
  0
VERTEX
  5
9B0
  8
0
 62
   123
 10
0.0
 20
0.0
 30
0.0
 70
   128
 71
   111
 72
   115
 73
   110
  0
VERTEX
  5
9B1
  8
0
 62
   123
 10
0.0
 20
0.0
 30
0.0
 70
   128
 71
   111
 72
   106
 73
   112
  0
VERTEX
  5
9B2
  8
0
 62
   123
 10
0.0
 20
0.0
 30
0.0
 70
   128
 71
   134
 72
   137
 73
   136
  0
VERTEX
  5
9B3
  8
0
 62
   123
 10
0.0
 20
0.0
 30
0.0
 70
   128
 71
   139
 72
   138
 73
   125
  0
VERTEX
  5
9B4
  8
0
 62
   123
 10
0.0
 20
0.0
 30
0.0
 70
   128
 71
   118
 72
   136
 73
   120
  0
VERTEX
  5
9B5
  8
0
 62
   123
 10
0.0
 20
0.0
 30
0.0
 70
   128
 71
   136
 72
   141
 73
   140
  0
VERTEX
  5
9B6
  8
0
 62
   123
 10
0.0
 20
0.0
 30
0.0
 70
   128
 71
   140
 72
    99
 73
   142
  0
VERTEX
  5
9B7
  8
0
 62
   123
 10
0.0
 20
0.0
 30
0.0
 70
   128
 71
   136
 72
   140
 73
   143
  0
VERTEX
  5
9B8
  8
0
 62
   123
 10
0.0
 20
0.0
 30
0.0
 70
   128
 71
   143
 72
   140
 73
   142
  0
VERTEX
  5
9B9
  8
0
 62
   123
 10
0.0
 20
0.0
 30
0.0
 70
   128
 71
   137
 72
   122
 73
   144
  0
VERTEX
  5
9BA
  8
0
 62
   123
 10
0.0
 20
0.0
 30
0.0
 70
   128
 71
   100
 72
   142
 73
    99
  0
VERTEX
  5
9BB
  8
0
 62
   123
 10
0.0
 20
0.0
 30
0.0
 70
   128
 71
   141
 72
   137
 73
   145
  0
VERTEX
  5
9BC
  8
0
 62
   123
 10
0.0
 20
0.0
 30
0.0
 70
   128
 71
   146
 72
   144
 73
   138
  0
VERTEX
  5
9BD
  8
0
 62
   123
 10
0.0
 20
0.0
 30
0.0
 70
   128
 71
   144
 72
   146
 73
   145
  0
VERTEX
  5
9BE
  8
0
 62
   123
 10
0.0
 20
0.0
 30
0.0
 70
   128
 71
   144
 72
   126
 73
   138
  0
VERTEX
  5
9BF
  8
0
 62
   123
 10
0.0
 20
0.0
 30
0.0
 70
   128
 71
    96
 72
   146
 73
   101
  0
VERTEX
  5
9C0
  8
0
 62
   123
 10
0.0
 20
0.0
 30
0.0
 70
   128
 71
   148
 72
   147
 73
   139
  0
VERTEX
  5
9C1
  8
0
 62
   123
 10
0.0
 20
0.0
 30
0.0
 70
   128
 71
   148
 72
   139
 73
   149
  0
VERTEX
  5
9C2
  8
0
 62
   123
 10
0.0
 20
0.0
 30
0.0
 70
   128
 71
   149
 72
   132
 73
   133
  0
VERTEX
  5
9C3
  8
0
 62
   123
 10
0.0
 20
0.0
 30
0.0
 70
   128
 71
   138
 72
   147
 73
   146
  0
VERTEX
  5
9C4
  8
0
 62
   123
 10
0.0
 20
0.0
 30
0.0
 70
   128
 71
   147
 72
   103
 73
   102
  0
VERTEX
  5
9C5
  8
0
 62
   123
 10
0.0
 20
0.0
 30
0.0
 70
   128
 71
   147
 72
   148
 73
   103
  0
VERTEX
  5
9C6
  8
0
 62
   123
 10
0.0
 20
0.0
 30
0.0
 70
   128
 71
   102
 72
   101
 73
   146
  0
VERTEX
  5
9C7
  8
0
 62
   123
 10
0.0
 20
0.0
 30
0.0
 70
   128
 71
   132
 72
   139
 73
   125
  0
VERTEX
  5
9C8
  8
0
 62
   123
 10
0.0
 20
0.0
 30
0.0
 70
   128
 71
   139
 72
   132
 73
   149
  0
VERTEX
  5
9C9
  8
0
 62
   123
 10
0.0
 20
0.0
 30
0.0
 70
   128
 71
   147
 72
   102
 73
   146
  0
VERTEX
  5
9CA
  8
0
 62
   123
 10
0.0
 20
0.0
 30
0.0
 70
   128
 71
    97
 72
   145
 73
    96
  0
VERTEX
  5
9CB
  8
0
 62
   123
 10
0.0
 20
0.0
 30
0.0
 70
   128
 71
   138
 72
   126
 73
   125
  0
VERTEX
  5
9CC
  8
0
 62
   123
 10
0.0
 20
0.0
 30
0.0
 70
   128
 71
   138
 72
   139
 73
   147
  0
VERTEX
  5
9CD
  8
0
 62
   123
 10
0.0
 20
0.0
 30
0.0
 70
   128
 71
   145
 72
   146
 73
    96
  0
VERTEX
  5
9CE
  8
0
 62
   123
 10
0.0
 20
0.0
 30
0.0
 70
   128
 71
    98
 72
   141
 73
    97
  0
VERTEX
  5
9CF
  8
0
 62
   123
 10
0.0
 20
0.0
 30
0.0
 70
   128
 71
   121
 72
   144
 73
   122
  0
VERTEX
  5
9D0
  8
0
 62
   123
 10
0.0
 20
0.0
 30
0.0
 70
   128
 71
   121
 72
   126
 73
   144
  0
VERTEX
  5
9D1
  8
0
 62
   123
 10
0.0
 20
0.0
 30
0.0
 70
   128
 71
   141
 72
   145
 73
    97
  0
VERTEX
  5
9D2
  8
0
 62
   123
 10
0.0
 20
0.0
 30
0.0
 70
   128
 71
    99
 72
   140
 73
    98
  0
VERTEX
  5
9D3
  8
0
 62
   123
 10
0.0
 20
0.0
 30
0.0
 70
   128
 71
   137
 72
   134
 73
   122
  0
VERTEX
  5
9D4
  8
0
 62
   123
 10
0.0
 20
0.0
 30
0.0
 70
   128
 71
   137
 72
   144
 73
   145
  0
VERTEX
  5
9D5
  8
0
 62
   123
 10
0.0
 20
0.0
 30
0.0
 70
   128
 71
   140
 72
   141
 73
    98
  0
VERTEX
  5
9D6
  8
0
 62
   123
 10
0.0
 20
0.0
 30
0.0
 70
   128
 71
   136
 72
   143
 73
   120
  0
VERTEX
  5
9D7
  8
0
 62
   123
 10
0.0
 20
0.0
 30
0.0
 70
   128
 71
   136
 72
   118
 73
   134
  0
VERTEX
  5
9D8
  8
0
 62
   123
 10
0.0
 20
0.0
 30
0.0
 70
   128
 71
   136
 72
   137
 73
   141
  0
VERTEX
  5
9D9
  8
0
 62
   123
 10
0.0
 20
0.0
 30
0.0
 70
   128
 71
   152
 72
   151
 73
   150
  0
VERTEX
  5
9DA
  8
0
 62
   123
 10
0.0
 20
0.0
 30
0.0
 70
   128
 71
   155
 72
   154
 73
   153
  0
VERTEX
  5
9DB
  8
0
 62
   123
 10
0.0
 20
0.0
 30
0.0
 70
   128
 71
   142
 72
   155
 73
   153
  0
VERTEX
  5
9DC
  8
0
 62
   123
 10
0.0
 20
0.0
 30
0.0
 70
   128
 71
   156
 72
   150
 73
   151
  0
VERTEX
  5
9DD
  8
0
 62
   123
 10
0.0
 20
0.0
 30
0.0
 70
   128
 71
   100
 72
   155
 73
   142
  0
VERTEX
  5
9DE
  8
0
 62
   123
 10
0.0
 20
0.0
 30
0.0
 70
   128
 71
   103
 72
   158
 73
   157
  0
VERTEX
  5
9DF
  8
0
 62
   123
 10
0.0
 20
0.0
 30
0.0
 70
   128
 71
   160
 72
   150
 73
   159
  0
VERTEX
  5
9E0
  8
0
 62
   123
 10
0.0
 20
0.0
 30
0.0
 70
   128
 71
   162
 72
   161
 73
   158
  0
VERTEX
  5
9E1
  8
0
 62
   123
 10
0.0
 20
0.0
 30
0.0
 70
   128
 71
   163
 72
   161
 73
   162
  0
VERTEX
  5
9E2
  8
0
 62
   123
 10
0.0
 20
0.0
 30
0.0
 70
   128
 71
   158
 72
   103
 73
   148
  0
VERTEX
  5
9E3
  8
0
 62
   123
 10
0.0
 20
0.0
 30
0.0
 70
   128
 71
   164
 72
   149
 73
   133
  0
VERTEX
  5
9E4
  8
0
 62
   123
 10
0.0
 20
0.0
 30
0.0
 70
   128
 71
   163
 72
   162
 73
   164
  0
VERTEX
  5
9E5
  8
0
 62
   123
 10
0.0
 20
0.0
 30
0.0
 70
   128
 71
   159
 72
   150
 73
   156
  0
VERTEX
  5
9E6
  8
0
 62
   123
 10
0.0
 20
0.0
 30
0.0
 70
   128
 71
   159
 72
   161
 73
   165
  0
VERTEX
  5
9E7
  8
0
 62
   123
 10
0.0
 20
0.0
 30
0.0
 70
   128
 71
   167
 72
   166
 73
   160
  0
VERTEX
  5
9E8
  8
0
 62
   123
 10
0.0
 20
0.0
 30
0.0
 70
   128
 71
   160
 72
   159
 73
   168
  0
VERTEX
  5
9E9
  8
0
 62
   123
 10
0.0
 20
0.0
 30
0.0
 70
   128
 71
   153
 72
   154
 73
   166
  0
VERTEX
  5
9EA
  8
0
 62
   123
 10
0.0
 20
0.0
 30
0.0
 70
   128
 71
   153
 72
   166
 73
   167
  0
VERTEX
  5
9EB
  8
0
 62
   123
 10
0.0
 20
0.0
 30
0.0
 70
   128
 71
   167
 72
   120
 73
   143
  0
VERTEX
  5
9EC
  8
0
 62
   123
 10
0.0
 20
0.0
 30
0.0
 70
   128
 71
   169
 72
   166
 73
   154
  0
VERTEX
  5
9ED
  8
0
 62
   123
 10
0.0
 20
0.0
 30
0.0
 70
   128
 71
   153
 72
   167
 73
   143
  0
VERTEX
  5
9EE
  8
0
 62
   123
 10
0.0
 20
0.0
 30
0.0
 70
   128
 71
   153
 72
   143
 73
   142
  0
VERTEX
  5
9EF
  8
0
 62
   123
 10
0.0
 20
0.0
 30
0.0
 70
   128
 71
   171
 72
   167
 73
   170
  0
VERTEX
  5
9F0
  8
0
 62
   123
 10
0.0
 20
0.0
 30
0.0
 70
   128
 71
   171
 72
   120
 73
   167
  0
VERTEX
  5
9F1
  8
0
 62
   123
 10
0.0
 20
0.0
 30
0.0
 70
   128
 71
   169
 72
   152
 73
   150
  0
VERTEX
  5
9F2
  8
0
 62
   123
 10
0.0
 20
0.0
 30
0.0
 70
   128
 71
   160
 72
   170
 73
   167
  0
VERTEX
  5
9F3
  8
0
 62
   123
 10
0.0
 20
0.0
 30
0.0
 70
   128
 71
   166
 72
   169
 73
   150
  0
VERTEX
  5
9F4
  8
0
 62
   123
 10
0.0
 20
0.0
 30
0.0
 70
   128
 71
   170
 72
   160
 73
   168
  0
VERTEX
  5
9F5
  8
0
 62
   123
 10
0.0
 20
0.0
 30
0.0
 70
   128
 71
   150
 72
   160
 73
   166
  0
VERTEX
  5
9F6
  8
0
 62
   123
 10
0.0
 20
0.0
 30
0.0
 70
   128
 71
   151
 72
   172
 73
   156
  0
VERTEX
  5
9F7
  8
0
 62
   123
 10
0.0
 20
0.0
 30
0.0
 70
   128
 71
   173
 72
   159
 73
   165
  0
VERTEX
  5
9F8
  8
0
 62
   123
 10
0.0
 20
0.0
 30
0.0
 70
   128
 71
   173
 72
   168
 73
   159
  0
VERTEX
  5
9F9
  8
0
 62
   123
 10
0.0
 20
0.0
 30
0.0
 70
   128
 71
   172
 72
   157
 73
   158
  0
VERTEX
  5
9FA
  8
0
 62
   123
 10
0.0
 20
0.0
 30
0.0
 70
   128
 71
   148
 72
   149
 73
   162
  0
VERTEX
  5
9FB
  8
0
 62
   123
 10
0.0
 20
0.0
 30
0.0
 70
   128
 71
   161
 72
   163
 73
   165
  0
VERTEX
  5
9FC
  8
0
 62
   123
 10
0.0
 20
0.0
 30
0.0
 70
   128
 71
   156
 72
   161
 73
   159
  0
VERTEX
  5
9FD
  8
0
 62
   123
 10
0.0
 20
0.0
 30
0.0
 70
   128
 71
   158
 72
   156
 73
   172
  0
VERTEX
  5
9FE
  8
0
 62
   123
 10
0.0
 20
0.0
 30
0.0
 70
   128
 71
   156
 72
   158
 73
   161
  0
VERTEX
  5
9FF
  8
0
 62
   123
 10
0.0
 20
0.0
 30
0.0
 70
   128
 71
   164
 72
   162
 73
   149
  0
VERTEX
  5
A00
  8
0
 62
   123
 10
0.0
 20
0.0
 30
0.0
 70
   128
 71
   162
 72
   158
 73
   148
  0
VERTEX
  5
A01
  8
0
 62
   123
 10
0.0
 20
0.0
 30
0.0
 70
   128
 71
   135
 72
   175
 73
   174
  0
VERTEX
  5
A02
  8
0
 62
   123
 10
0.0
 20
0.0
 30
0.0
 70
   128
 71
   175
 72
   105
 73
   176
  0
VERTEX
  5
A03
  8
0
 62
   123
 10
0.0
 20
0.0
 30
0.0
 70
   128
 71
   105
 72
   175
 73
   135
  0
VERTEX
  5
A04
  8
0
 62
   123
 10
0.0
 20
0.0
 30
0.0
 70
   128
 71
   177
 72
   176
 73
   110
  0
VERTEX
  5
A05
  8
0
 62
   123
 10
0.0
 20
0.0
 30
0.0
 70
   128
 71
   105
 72
   110
 73
   176
  0
VERTEX
  5
A06
  8
0
 62
   123
 10
0.0
 20
0.0
 30
0.0
 70
   128
 71
   115
 72
   178
 73
   177
  0
VERTEX
  5
A07
  8
0
 62
   123
 10
0.0
 20
0.0
 30
0.0
 70
   128
 71
   177
 72
   110
 73
   115
  0
VERTEX
  5
A08
  8
0
 62
   123
 10
0.0
 20
0.0
 30
0.0
 70
   128
 71
   116
 72
   178
 73
   115
  0
VERTEX
  5
A09
  8
0
 62
   123
 10
0.0
 20
0.0
 30
0.0
 70
   128
 71
   124
 72
   135
 73
   174
  0
VERTEX
  5
A0A
  8
0
 62
   123
 10
0.0
 20
0.0
 30
0.0
 70
   128
 71
   107
 72
   124
 73
   179
  0
VERTEX
  5
A0B
  8
0
 62
   123
 10
0.0
 20
0.0
 30
0.0
 70
   128
 71
   174
 72
   179
 73
   124
  0
VERTEX
  5
A0C
  8
0
 62
   123
 10
0.0
 20
0.0
 30
0.0
 70
   128
 71
   180
 72
   131
 73
   107
  0
VERTEX
  5
A0D
  8
0
 62
   123
 10
0.0
 20
0.0
 30
0.0
 70
   128
 71
   107
 72
   179
 73
   180
  0
VERTEX
  5
A0E
  8
0
 62
   123
 10
0.0
 20
0.0
 30
0.0
 70
   128
 71
   181
 72
   131
 73
   180
  0
VERTEX
  5
A0F
  8
0
 62
   123
 10
0.0
 20
0.0
 30
0.0
 70
   128
 71
   181
 72
   130
 73
   131
  0
VERTEX
  5
A10
  8
0
 62
   123
 10
0.0
 20
0.0
 30
0.0
 70
   128
 71
   184
 72
   183
 73
   182
  0
VERTEX
  5
A11
  8
0
 62
   123
 10
0.0
 20
0.0
 30
0.0
 70
   128
 71
   187
 72
   186
 73
   185
  0
VERTEX
  5
A12
  8
0
 62
   123
 10
0.0
 20
0.0
 30
0.0
 70
   128
 71
   189
 72
   188
 73
   184
  0
VERTEX
  5
A13
  8
0
 62
   123
 10
0.0
 20
0.0
 30
0.0
 70
   128
 71
   191
 72
   189
 73
   190
  0
VERTEX
  5
A14
  8
0
 62
   123
 10
0.0
 20
0.0
 30
0.0
 70
   128
 71
   192
 72
   189
 73
   191
  0
VERTEX
  5
A15
  8
0
 62
   123
 10
0.0
 20
0.0
 30
0.0
 70
   128
 71
   189
 72
   194
 73
   193
  0
VERTEX
  5
A16
  8
0
 62
   123
 10
0.0
 20
0.0
 30
0.0
 70
   128
 71
   196
 72
   195
 73
   191
  0
VERTEX
  5
A17
  8
0
 62
   123
 10
0.0
 20
0.0
 30
0.0
 70
   128
 71
   192
 72
   191
 73
   195
  0
VERTEX
  5
A18
  8
0
 62
   123
 10
0.0
 20
0.0
 30
0.0
 70
   128
 71
   184
 72
   197
 73
   190
  0
VERTEX
  5
A19
  8
0
 62
   123
 10
0.0
 20
0.0
 30
0.0
 70
   128
 71
   198
 72
   195
 73
   196
  0
VERTEX
  5
A1A
  8
0
 62
   123
 10
0.0
 20
0.0
 30
0.0
 70
   128
 71
   200
 72
   197
 73
   199
  0
VERTEX
  5
A1B
  8
0
 62
   123
 10
0.0
 20
0.0
 30
0.0
 70
   128
 71
   201
 72
   182
 73
   186
  0
VERTEX
  5
A1C
  8
0
 62
   123
 10
0.0
 20
0.0
 30
0.0
 70
   128
 71
   182
 72
   201
 73
   197
  0
VERTEX
  5
A1D
  8
0
 62
   123
 10
0.0
 20
0.0
 30
0.0
 70
   128
 71
   182
 72
   202
 73
   186
  0
VERTEX
  5
A1E
  8
0
 62
   123
 10
0.0
 20
0.0
 30
0.0
 70
   128
 71
   204
 72
   201
 73
   203
  0
VERTEX
  5
A1F
  8
0
 62
   123
 10
0.0
 20
0.0
 30
0.0
 70
   128
 71
   206
 72
   205
 73
   187
  0
VERTEX
  5
A20
  8
0
 62
   123
 10
0.0
 20
0.0
 30
0.0
 70
   128
 71
   206
 72
   187
 73
   207
  0
VERTEX
  5
A21
  8
0
 62
   123
 10
0.0
 20
0.0
 30
0.0
 70
   128
 71
   207
 72
   209
 73
   208
  0
VERTEX
  5
A22
  8
0
 62
   123
 10
0.0
 20
0.0
 30
0.0
 70
   128
 71
   186
 72
   205
 73
   201
  0
VERTEX
  5
A23
  8
0
 62
   123
 10
0.0
 20
0.0
 30
0.0
 70
   128
 71
   205
 72
   211
 73
   210
  0
VERTEX
  5
A24
  8
0
 62
   123
 10
0.0
 20
0.0
 30
0.0
 70
   128
 71
   205
 72
   206
 73
   211
  0
VERTEX
  5
A25
  8
0
 62
   123
 10
0.0
 20
0.0
 30
0.0
 70
   128
 71
   205
 72
   210
 73
   203
  0
VERTEX
  5
A26
  8
0
 62
   123
 10
0.0
 20
0.0
 30
0.0
 70
   128
 71
   209
 72
   187
 73
   185
  0
VERTEX
  5
A27
  8
0
 62
   123
 10
0.0
 20
0.0
 30
0.0
 70
   128
 71
   187
 72
   209
 73
   207
  0
VERTEX
  5
A28
  8
0
 62
   123
 10
0.0
 20
0.0
 30
0.0
 70
   128
 71
   201
 72
   205
 73
   203
  0
VERTEX
  5
A29
  8
0
 62
   123
 10
0.0
 20
0.0
 30
0.0
 70
   128
 71
   199
 72
   197
 73
   204
  0
VERTEX
  5
A2A
  8
0
 62
   123
 10
0.0
 20
0.0
 30
0.0
 70
   128
 71
   186
 72
   202
 73
   185
  0
VERTEX
  5
A2B
  8
0
 62
   123
 10
0.0
 20
0.0
 30
0.0
 70
   128
 71
   186
 72
   187
 73
   205
  0
VERTEX
  5
A2C
  8
0
 62
   123
 10
0.0
 20
0.0
 30
0.0
 70
   128
 71
   201
 72
   204
 73
   197
  0
VERTEX
  5
A2D
  8
0
 62
   123
 10
0.0
 20
0.0
 30
0.0
 70
   128
 71
   212
 72
   190
 73
   200
  0
VERTEX
  5
A2E
  8
0
 62
   123
 10
0.0
 20
0.0
 30
0.0
 70
   128
 71
   213
 72
   182
 73
   183
  0
VERTEX
  5
A2F
  8
0
 62
   123
 10
0.0
 20
0.0
 30
0.0
 70
   128
 71
   213
 72
   202
 73
   182
  0
VERTEX
  5
A30
  8
0
 62
   123
 10
0.0
 20
0.0
 30
0.0
 70
   128
 71
   190
 72
   197
 73
   200
  0
VERTEX
  5
A31
  8
0
 62
   123
 10
0.0
 20
0.0
 30
0.0
 70
   128
 71
   212
 72
   196
 73
   191
  0
VERTEX
  5
A32
  8
0
 62
   123
 10
0.0
 20
0.0
 30
0.0
 70
   128
 71
   184
 72
   188
 73
   183
  0
VERTEX
  5
A33
  8
0
 62
   123
 10
0.0
 20
0.0
 30
0.0
 70
   128
 71
   184
 72
   182
 73
   197
  0
VERTEX
  5
A34
  8
0
 62
   123
 10
0.0
 20
0.0
 30
0.0
 70
   128
 71
   191
 72
   190
 73
   212
  0
VERTEX
  5
A35
  8
0
 62
   123
 10
0.0
 20
0.0
 30
0.0
 70
   128
 71
   189
 72
   192
 73
   194
  0
VERTEX
  5
A36
  8
0
 62
   123
 10
0.0
 20
0.0
 30
0.0
 70
   128
 71
   189
 72
   193
 73
   188
  0
VERTEX
  5
A37
  8
0
 62
   123
 10
0.0
 20
0.0
 30
0.0
 70
   128
 71
   189
 72
   184
 73
   190
  0
VERTEX
  5
A38
  8
0
 62
   123
 10
0.0
 20
0.0
 30
0.0
 70
   128
 71
   212
 72
   215
 73
   214
  0
VERTEX
  5
A39
  8
0
 62
   123
 10
0.0
 20
0.0
 30
0.0
 70
   128
 71
   217
 72
   216
 73
   203
  0
VERTEX
  5
A3A
  8
0
 62
   123
 10
0.0
 20
0.0
 30
0.0
 70
   128
 71
   196
 72
   214
 73
   198
  0
VERTEX
  5
A3B
  8
0
 62
   123
 10
0.0
 20
0.0
 30
0.0
 70
   128
 71
   214
 72
   219
 73
   218
  0
VERTEX
  5
A3C
  8
0
 62
   123
 10
0.0
 20
0.0
 30
0.0
 70
   128
 71
   218
 72
   177
 73
   220
  0
VERTEX
  5
A3D
  8
0
 62
   123
 10
0.0
 20
0.0
 30
0.0
 70
   128
 71
   214
 72
   218
 73
   221
  0
VERTEX
  5
A3E
  8
0
 62
   123
 10
0.0
 20
0.0
 30
0.0
 70
   128
 71
   221
 72
   218
 73
   220
  0
VERTEX
  5
A3F
  8
0
 62
   123
 10
0.0
 20
0.0
 30
0.0
 70
   128
 71
   215
 72
   200
 73
   222
  0
VERTEX
  5
A40
  8
0
 62
   123
 10
0.0
 20
0.0
 30
0.0
 70
   128
 71
   178
 72
   220
 73
   177
  0
VERTEX
  5
A41
  8
0
 62
   123
 10
0.0
 20
0.0
 30
0.0
 70
   128
 71
   219
 72
   215
 73
   223
  0
VERTEX
  5
A42
  8
0
 62
   123
 10
0.0
 20
0.0
 30
0.0
 70
   128
 71
   224
 72
   222
 73
   216
  0
VERTEX
  5
A43
  8
0
 62
   123
 10
0.0
 20
0.0
 30
0.0
 70
   128
 71
   222
 72
   224
 73
   223
  0
VERTEX
  5
A44
  8
0
 62
   123
 10
0.0
 20
0.0
 30
0.0
 70
   128
 71
   222
 72
   204
 73
   216
  0
VERTEX
  5
A45
  8
0
 62
   123
 10
0.0
 20
0.0
 30
0.0
 70
   128
 71
   174
 72
   224
 73
   179
  0
VERTEX
  5
A46
  8
0
 62
   123
 10
0.0
 20
0.0
 30
0.0
 70
   128
 71
   226
 72
   225
 73
   217
  0
VERTEX
  5
A47
  8
0
 62
   123
 10
0.0
 20
0.0
 30
0.0
 70
   128
 71
   226
 72
   217
 73
   227
  0
VERTEX
  5
A48
  8
0
 62
   123
 10
0.0
 20
0.0
 30
0.0
 70
   128
 71
   227
 72
   210
 73
   211
  0
VERTEX
  5
A49
  8
0
 62
   123
 10
0.0
 20
0.0
 30
0.0
 70
   128
 71
   216
 72
   225
 73
   224
  0
VERTEX
  5
A4A
  8
0
 62
   123
 10
0.0
 20
0.0
 30
0.0
 70
   128
 71
   225
 72
   181
 73
   180
  0
VERTEX
  5
A4B
  8
0
 62
   123
 10
0.0
 20
0.0
 30
0.0
 70
   128
 71
   225
 72
   226
 73
   181
  0
VERTEX
  5
A4C
  8
0
 62
   123
 10
0.0
 20
0.0
 30
0.0
 70
   128
 71
   180
 72
   179
 73
   224
  0
VERTEX
  5
A4D
  8
0
 62
   123
 10
0.0
 20
0.0
 30
0.0
 70
   128
 71
   210
 72
   217
 73
   203
  0
VERTEX
  5
A4E
  8
0
 62
   123
 10
0.0
 20
0.0
 30
0.0
 70
   128
 71
   217
 72
   210
 73
   227
  0
VERTEX
  5
A4F
  8
0
 62
   123
 10
0.0
 20
0.0
 30
0.0
 70
   128
 71
   225
 72
   180
 73
   224
  0
VERTEX
  5
A50
  8
0
 62
   123
 10
0.0
 20
0.0
 30
0.0
 70
   128
 71
   175
 72
   223
 73
   174
  0
VERTEX
  5
A51
  8
0
 62
   123
 10
0.0
 20
0.0
 30
0.0
 70
   128
 71
   216
 72
   204
 73
   203
  0
VERTEX
  5
A52
  8
0
 62
   123
 10
0.0
 20
0.0
 30
0.0
 70
   128
 71
   216
 72
   217
 73
   225
  0
VERTEX
  5
A53
  8
0
 62
   123
 10
0.0
 20
0.0
 30
0.0
 70
   128
 71
   223
 72
   224
 73
   174
  0
VERTEX
  5
A54
  8
0
 62
   123
 10
0.0
 20
0.0
 30
0.0
 70
   128
 71
   176
 72
   219
 73
   175
  0
VERTEX
  5
A55
  8
0
 62
   123
 10
0.0
 20
0.0
 30
0.0
 70
   128
 71
   199
 72
   222
 73
   200
  0
VERTEX
  5
A56
  8
0
 62
   123
 10
0.0
 20
0.0
 30
0.0
 70
   128
 71
   199
 72
   204
 73
   222
  0
VERTEX
  5
A57
  8
0
 62
   123
 10
0.0
 20
0.0
 30
0.0
 70
   128
 71
   219
 72
   223
 73
   175
  0
VERTEX
  5
A58
  8
0
 62
   123
 10
0.0
 20
0.0
 30
0.0
 70
   128
 71
   177
 72
   218
 73
   176
  0
VERTEX
  5
A59
  8
0
 62
   123
 10
0.0
 20
0.0
 30
0.0
 70
   128
 71
   215
 72
   212
 73
   200
  0
VERTEX
  5
A5A
  8
0
 62
   123
 10
0.0
 20
0.0
 30
0.0
 70
   128
 71
   215
 72
   222
 73
   223
  0
VERTEX
  5
A5B
  8
0
 62
   123
 10
0.0
 20
0.0
 30
0.0
 70
   128
 71
   218
 72
   219
 73
   176
  0
VERTEX
  5
A5C
  8
0
 62
   123
 10
0.0
 20
0.0
 30
0.0
 70
   128
 71
   214
 72
   221
 73
   198
  0
VERTEX
  5
A5D
  8
0
 62
   123
 10
0.0
 20
0.0
 30
0.0
 70
   128
 71
   214
 72
   196
 73
   212
  0
VERTEX
  5
A5E
  8
0
 62
   123
 10
0.0
 20
0.0
 30
0.0
 70
   128
 71
   214
 72
   215
 73
   219
  0
VERTEX
  5
A5F
  8
0
 62
   123
 10
0.0
 20
0.0
 30
0.0
 70
   128
 71
   230
 72
   229
 73
   228
  0
VERTEX
  5
A60
  8
0
 62
   123
 10
0.0
 20
0.0
 30
0.0
 70
   128
 71
   233
 72
   232
 73
   231
  0
VERTEX
  5
A61
  8
0
 62
   123
 10
0.0
 20
0.0
 30
0.0
 70
   128
 71
   220
 72
   233
 73
   231
  0
VERTEX
  5
A62
  8
0
 62
   123
 10
0.0
 20
0.0
 30
0.0
 70
   128
 71
   234
 72
   228
 73
   229
  0
VERTEX
  5
A63
  8
0
 62
   123
 10
0.0
 20
0.0
 30
0.0
 70
   128
 71
   178
 72
   233
 73
   220
  0
VERTEX
  5
A64
  8
0
 62
   123
 10
0.0
 20
0.0
 30
0.0
 70
   128
 71
   181
 72
   236
 73
   235
  0
VERTEX
  5
A65
  8
0
 62
   123
 10
0.0
 20
0.0
 30
0.0
 70
   128
 71
   238
 72
   228
 73
   237
  0
VERTEX
  5
A66
  8
0
 62
   123
 10
0.0
 20
0.0
 30
0.0
 70
   128
 71
   240
 72
   239
 73
   236
  0
VERTEX
  5
A67
  8
0
 62
   123
 10
0.0
 20
0.0
 30
0.0
 70
   128
 71
   241
 72
   239
 73
   240
  0
VERTEX
  5
A68
  8
0
 62
   123
 10
0.0
 20
0.0
 30
0.0
 70
   128
 71
   236
 72
   181
 73
   226
  0
VERTEX
  5
A69
  8
0
 62
   123
 10
0.0
 20
0.0
 30
0.0
 70
   128
 71
   242
 72
   227
 73
   211
  0
VERTEX
  5
A6A
  8
0
 62
   123
 10
0.0
 20
0.0
 30
0.0
 70
   128
 71
   241
 72
   240
 73
   242
  0
VERTEX
  5
A6B
  8
0
 62
   123
 10
0.0
 20
0.0
 30
0.0
 70
   128
 71
   237
 72
   228
 73
   234
  0
VERTEX
  5
A6C
  8
0
 62
   123
 10
0.0
 20
0.0
 30
0.0
 70
   128
 71
   237
 72
   239
 73
   243
  0
VERTEX
  5
A6D
  8
0
 62
   123
 10
0.0
 20
0.0
 30
0.0
 70
   128
 71
   245
 72
   244
 73
   238
  0
VERTEX
  5
A6E
  8
0
 62
   123
 10
0.0
 20
0.0
 30
0.0
 70
   128
 71
   238
 72
   237
 73
   246
  0
VERTEX
  5
A6F
  8
0
 62
   123
 10
0.0
 20
0.0
 30
0.0
 70
   128
 71
   231
 72
   232
 73
   244
  0
VERTEX
  5
A70
  8
0
 62
   123
 10
0.0
 20
0.0
 30
0.0
 70
   128
 71
   231
 72
   244
 73
   245
  0
VERTEX
  5
A71
  8
0
 62
   123
 10
0.0
 20
0.0
 30
0.0
 70
   128
 71
   245
 72
   198
 73
   221
  0
VERTEX
  5
A72
  8
0
 62
   123
 10
0.0
 20
0.0
 30
0.0
 70
   128
 71
   247
 72
   244
 73
   232
  0
VERTEX
  5
A73
  8
0
 62
   123
 10
0.0
 20
0.0
 30
0.0
 70
   128
 71
   231
 72
   245
 73
   221
  0
VERTEX
  5
A74
  8
0
 62
   123
 10
0.0
 20
0.0
 30
0.0
 70
   128
 71
   231
 72
   221
 73
   220
  0
VERTEX
  5
A75
  8
0
 62
   123
 10
0.0
 20
0.0
 30
0.0
 70
   128
 71
   249
 72
   245
 73
   248
  0
VERTEX
  5
A76
  8
0
 62
   123
 10
0.0
 20
0.0
 30
0.0
 70
   128
 71
   249
 72
   198
 73
   245
  0
VERTEX
  5
A77
  8
0
 62
   123
 10
0.0
 20
0.0
 30
0.0
 70
   128
 71
   247
 72
   230
 73
   228
  0
VERTEX
  5
A78
  8
0
 62
   123
 10
0.0
 20
0.0
 30
0.0
 70
   128
 71
   238
 72
   248
 73
   245
  0
VERTEX
  5
A79
  8
0
 62
   123
 10
0.0
 20
0.0
 30
0.0
 70
   128
 71
   244
 72
   247
 73
   228
  0
VERTEX
  5
A7A
  8
0
 62
   123
 10
0.0
 20
0.0
 30
0.0
 70
   128
 71
   248
 72
   238
 73
   246
  0
VERTEX
  5
A7B
  8
0
 62
   123
 10
0.0
 20
0.0
 30
0.0
 70
   128
 71
   228
 72
   238
 73
   244
  0
VERTEX
  5
A7C
  8
0
 62
   123
 10
0.0
 20
0.0
 30
0.0
 70
   128
 71
   229
 72
   250
 73
   234
  0
VERTEX
  5
A7D
  8
0
 62
   123
 10
0.0
 20
0.0
 30
0.0
 70
   128
 71
   251
 72
   237
 73
   243
  0
VERTEX
  5
A7E
  8
0
 62
   123
 10
0.0
 20
0.0
 30
0.0
 70
   128
 71
   251
 72
   246
 73
   237
  0
VERTEX
  5
A7F
  8
0
 62
   123
 10
0.0
 20
0.0
 30
0.0
 70
   128
 71
   250
 72
   235
 73
   236
  0
VERTEX
  5
A80
  8
0
 62
   123
 10
0.0
 20
0.0
 30
0.0
 70
   128
 71
   226
 72
   227
 73
   240
  0
VERTEX
  5
A81
  8
0
 62
   123
 10
0.0
 20
0.0
 30
0.0
 70
   128
 71
   239
 72
   241
 73
   243
  0
VERTEX
  5
A82
  8
0
 62
   123
 10
0.0
 20
0.0
 30
0.0
 70
   128
 71
   234
 72
   239
 73
   237
  0
VERTEX
  5
A83
  8
0
 62
   123
 10
0.0
 20
0.0
 30
0.0
 70
   128
 71
   236
 72
   234
 73
   250
  0
VERTEX
  5
A84
  8
0
 62
   123
 10
0.0
 20
0.0
 30
0.0
 70
   128
 71
   234
 72
   236
 73
   239
  0
VERTEX
  5
A85
  8
0
 62
   123
 10
0.0
 20
0.0
 30
0.0
 70
   128
 71
   242
 72
   240
 73
   227
  0
VERTEX
  5
A86
  8
0
 62
   123
 10
0.0
 20
0.0
 30
0.0
 70
   128
 71
   240
 72
   236
 73
   226
  0
VERTEX
  5
A87
  8
0
 62
   123
 10
0.0
 20
0.0
 30
0.0
 70
   128
 71
   202
 72
   213
 73
   252
  0
VERTEX
  5
A88
  8
0
 62
   123
 10
0.0
 20
0.0
 30
0.0
 70
   128
 71
   252
 72
   183
 73
   253
  0
VERTEX
  5
A89
  8
0
 62
   123
 10
0.0
 20
0.0
 30
0.0
 70
   128
 71
   183
 72
   252
 73
   213
  0
VERTEX
  5
A8A
  8
0
 62
   123
 10
0.0
 20
0.0
 30
0.0
 70
   128
 71
   254
 72
   253
 73
   188
  0
VERTEX
  5
A8B
  8
0
 62
   123
 10
0.0
 20
0.0
 30
0.0
 70
   128
 71
   183
 72
   188
 73
   253
  0
VERTEX
  5
A8C
  8
0
 62
   123
 10
0.0
 20
0.0
 30
0.0
 70
   128
 71
   193
 72
   255
 73
   254
  0
VERTEX
  5
A8D
  8
0
 62
   123
 10
0.0
 20
0.0
 30
0.0
 70
   128
 71
   254
 72
   188
 73
   193
  0
VERTEX
  5
A8E
  8
0
 62
   123
 10
0.0
 20
0.0
 30
0.0
 70
   128
 71
   194
 72
   255
 73
   193
  0
VERTEX
  5
A8F
  8
0
 62
   123
 10
0.0
 20
0.0
 30
0.0
 70
   128
 71
   256
 72
   202
 73
   252
  0
VERTEX
  5
A90
  8
0
 62
   123
 10
0.0
 20
0.0
 30
0.0
 70
   128
 71
   202
 72
   256
 73
   185
  0
VERTEX
  5
A91
  8
0
 62
   123
 10
0.0
 20
0.0
 30
0.0
 70
   128
 71
   257
 72
   209
 73
   185
  0
VERTEX
  5
A92
  8
0
 62
   123
 10
0.0
 20
0.0
 30
0.0
 70
   128
 71
   185
 72
   256
 73
   257
  0
VERTEX
  5
A93
  8
0
 62
   123
 10
0.0
 20
0.0
 30
0.0
 70
   128
 71
   258
 72
   209
 73
   257
  0
VERTEX
  5
A94
  8
0
 62
   123
 10
0.0
 20
0.0
 30
0.0
 70
   128
 71
   258
 72
   208
 73
   209
  0
VERTEX
  5
A95
  8
0
 62
   123
 10
0.0
 20
0.0
 30
0.0
 70
   128
 71
   252
 72
   259
 73
   256
  0
VERTEX
  5
A96
  8
0
 62
   123
 10
0.0
 20
0.0
 30
0.0
 70
   128
 71
   259
 72
   257
 73
   256
  0
VERTEX
  5
A97
  8
0
 62
   123
 10
0.0
 20
0.0
 30
0.0
 70
   128
 71
   259
 72
   258
 73
   257
  0
VERTEX
  5
A98
  8
0
 62
   123
 10
0.0
 20
0.0
 30
0.0
 70
   128
 71
   258
 72
   259
 73
   260
  0
VERTEX
  5
A99
  8
0
 62
   123
 10
0.0
 20
0.0
 30
0.0
 70
   128
 71
   259
 72
   261
 73
   260
  0
VERTEX
  5
A9A
  8
0
 62
   123
 10
0.0
 20
0.0
 30
0.0
 70
   128
 71
   259
 72
   262
 73
   261
  0
VERTEX
  5
A9B
  8
0
 62
   123
 10
0.0
 20
0.0
 30
0.0
 70
   128
 71
   262
 72
   259
 73
   263
  0
VERTEX
  5
A9C
  8
0
 62
   123
 10
0.0
 20
0.0
 30
0.0
 70
   128
 71
   259
 72
   264
 73
   263
  0
VERTEX
  5
A9D
  8
0
 62
   123
 10
0.0
 20
0.0
 30
0.0
 70
   128
 71
   259
 72
   255
 73
   264
  0
VERTEX
  5
A9E
  8
0
 62
   123
 10
0.0
 20
0.0
 30
0.0
 70
   128
 71
   253
 72
   254
 73
   259
  0
VERTEX
  5
A9F
  8
0
 62
   123
 10
0.0
 20
0.0
 30
0.0
 70
   128
 71
   259
 72
   254
 73
   255
  0
VERTEX
  5
AA0
  8
0
 62
   123
 10
0.0
 20
0.0
 30
0.0
 70
   128
 71
   252
 72
   253
 73
   259
  0
VERTEX
  5
AA1
  8
0
 62
   123
 10
0.0
 20
0.0
 30
0.0
 70
   128
 71
   255
 72
   194
 73
   265
  0
VERTEX
  5
AA2
  8
0
 62
   123
 10
0.0
 20
0.0
 30
0.0
 70
   128
 71
   262
 72
   267
 73
   266
  0
VERTEX
  5
AA3
  8
0
 62
   123
 10
0.0
 20
0.0
 30
0.0
 70
   128
 71
   263
 72
   268
 73
   267
  0
VERTEX
  5
AA4
  8
0
 62
   123
 10
0.0
 20
0.0
 30
0.0
 70
   128
 71
   260
 72
   270
 73
   269
  0
VERTEX
  5
AA5
  8
0
 62
   123
 10
0.0
 20
0.0
 30
0.0
 70
   128
 71
   270
 72
   260
 73
   261
  0
VERTEX
  5
AA6
  8
0
 62
   123
 10
0.0
 20
0.0
 30
0.0
 70
   128
 71
   208
 72
   258
 73
   269
  0
VERTEX
  5
AA7
  8
0
 62
   123
 10
0.0
 20
0.0
 30
0.0
 70
   128
 71
   260
 72
   269
 73
   258
  0
VERTEX
  5
AA8
  8
0
 62
   123
 10
0.0
 20
0.0
 30
0.0
 70
   128
 71
   266
 72
   261
 73
   262
  0
VERTEX
  5
AA9
  8
0
 62
   123
 10
0.0
 20
0.0
 30
0.0
 70
   128
 71
   266
 72
   270
 73
   261
  0
VERTEX
  5
AAA
  8
0
 62
   123
 10
0.0
 20
0.0
 30
0.0
 70
   128
 71
   263
 72
   267
 73
   262
  0
VERTEX
  5
AAB
  8
0
 62
   123
 10
0.0
 20
0.0
 30
0.0
 70
   128
 71
   264
 72
   265
 73
   268
  0
VERTEX
  5
AAC
  8
0
 62
   123
 10
0.0
 20
0.0
 30
0.0
 70
   128
 71
   264
 72
   268
 73
   263
  0
VERTEX
  5
AAD
  8
0
 62
   123
 10
0.0
 20
0.0
 30
0.0
 70
   128
 71
   265
 72
   264
 73
   255
  0
VERTEX
  5
AAE
  8
0
 62
   123
 10
0.0
 20
0.0
 30
0.0
 70
   128
 71
   251
 72
   243
 73
   271
  0
VERTEX
  5
AAF
  8
0
 62
   123
 10
0.0
 20
0.0
 30
0.0
 70
   128
 71
   249
 72
   248
 73
   272
  0
VERTEX
  5
AB0
  8
0
 62
   123
 10
0.0
 20
0.0
 30
0.0
 70
   128
 71
   195
 72
   249
 73
   272
  0
VERTEX
  5
AB1
  8
0
 62
   123
 10
0.0
 20
0.0
 30
0.0
 70
   128
 71
   271
 72
   274
 73
   273
  0
VERTEX
  5
AB2
  8
0
 62
   123
 10
0.0
 20
0.0
 30
0.0
 70
   128
 71
   198
 72
   249
 73
   195
  0
VERTEX
  5
AB3
  8
0
 62
   123
 10
0.0
 20
0.0
 30
0.0
 70
   128
 71
   206
 72
   276
 73
   275
  0
VERTEX
  5
AB4
  8
0
 62
   123
 10
0.0
 20
0.0
 30
0.0
 70
   128
 71
   271
 72
   243
 73
   277
  0
VERTEX
  5
AB5
  8
0
 62
   123
 10
0.0
 20
0.0
 30
0.0
 70
   128
 71
   275
 72
   242
 73
   211
  0
VERTEX
  5
AB6
  8
0
 62
   123
 10
0.0
 20
0.0
 30
0.0
 70
   128
 71
   278
 72
   275
 73
   276
  0
VERTEX
  5
AB7
  8
0
 62
   123
 10
0.0
 20
0.0
 30
0.0
 70
   128
 71
   275
 72
   211
 73
   206
  0
VERTEX
  5
AB8
  8
0
 62
   123
 10
0.0
 20
0.0
 30
0.0
 70
   128
 71
   269
 72
   207
 73
   208
  0
VERTEX
  5
AB9
  8
0
 62
   123
 10
0.0
 20
0.0
 30
0.0
 70
   128
 71
   276
 72
   270
 73
   278
  0
VERTEX
  5
ABA
  8
0
 62
   123
 10
0.0
 20
0.0
 30
0.0
 70
   128
 71
   274
 72
   271
 73
   277
  0
VERTEX
  5
ABB
  8
0
 62
   123
 10
0.0
 20
0.0
 30
0.0
 70
   128
 71
   274
 72
   278
 73
   266
  0
VERTEX
  5
ABC
  8
0
 62
   123
 10
0.0
 20
0.0
 30
0.0
 70
   128
 71
   280
 72
   279
 73
   272
  0
VERTEX
  5
ABD
  8
0
 62
   123
 10
0.0
 20
0.0
 30
0.0
 70
   128
 71
   280
 72
   273
 73
   279
  0
VERTEX
  5
ABE
  8
0
 62
   123
 10
0.0
 20
0.0
 30
0.0
 70
   128
 71
   248
 72
   246
 73
   280
  0
VERTEX
  5
ABF
  8
0
 62
   123
 10
0.0
 20
0.0
 30
0.0
 70
   128
 71
   265
 72
   279
 73
   273
  0
VERTEX
  5
AC0
  8
0
 62
   123
 10
0.0
 20
0.0
 30
0.0
 70
   128
 71
   279
 72
   194
 73
   192
  0
VERTEX
  5
AC1
  8
0
 62
   123
 10
0.0
 20
0.0
 30
0.0
 70
   128
 71
   272
 72
   248
 73
   280
  0
VERTEX
  5
AC2
  8
0
 62
   123
 10
0.0
 20
0.0
 30
0.0
 70
   128
 71
   272
 72
   192
 73
   195
  0
VERTEX
  5
AC3
  8
0
 62
   123
 10
0.0
 20
0.0
 30
0.0
 70
   128
 71
   279
 72
   265
 73
   194
  0
VERTEX
  5
AC4
  8
0
 62
   123
 10
0.0
 20
0.0
 30
0.0
 70
   128
 71
   272
 72
   279
 73
   192
  0
VERTEX
  5
AC5
  8
0
 62
   123
 10
0.0
 20
0.0
 30
0.0
 70
   128
 71
   246
 72
   251
 73
   271
  0
VERTEX
  5
AC6
  8
0
 62
   123
 10
0.0
 20
0.0
 30
0.0
 70
   128
 71
   268
 72
   265
 73
   273
  0
VERTEX
  5
AC7
  8
0
 62
   123
 10
0.0
 20
0.0
 30
0.0
 70
   128
 71
   280
 72
   246
 73
   271
  0
VERTEX
  5
AC8
  8
0
 62
   123
 10
0.0
 20
0.0
 30
0.0
 70
   128
 71
   268
 72
   273
 73
   267
  0
VERTEX
  5
AC9
  8
0
 62
   123
 10
0.0
 20
0.0
 30
0.0
 70
   128
 71
   271
 72
   273
 73
   280
  0
VERTEX
  5
ACA
  8
0
 62
   123
 10
0.0
 20
0.0
 30
0.0
 70
   128
 71
   243
 72
   241
 73
   277
  0
VERTEX
  5
ACB
  8
0
 62
   123
 10
0.0
 20
0.0
 30
0.0
 70
   128
 71
   267
 72
   274
 73
   266
  0
VERTEX
  5
ACC
  8
0
 62
   123
 10
0.0
 20
0.0
 30
0.0
 70
   128
 71
   274
 72
   267
 73
   273
  0
VERTEX
  5
ACD
  8
0
 62
   123
 10
0.0
 20
0.0
 30
0.0
 70
   128
 71
   242
 72
   275
 73
   241
  0
VERTEX
  5
ACE
  8
0
 62
   123
 10
0.0
 20
0.0
 30
0.0
 70
   128
 71
   206
 72
   207
 73
   276
  0
VERTEX
  5
ACF
  8
0
 62
   123
 10
0.0
 20
0.0
 30
0.0
 70
   128
 71
   278
 72
   270
 73
   266
  0
VERTEX
  5
AD0
  8
0
 62
   123
 10
0.0
 20
0.0
 30
0.0
 70
   128
 71
   277
 72
   278
 73
   274
  0
VERTEX
  5
AD1
  8
0
 62
   123
 10
0.0
 20
0.0
 30
0.0
 70
   128
 71
   275
 72
   277
 73
   241
  0
VERTEX
  5
AD2
  8
0
 62
   123
 10
0.0
 20
0.0
 30
0.0
 70
   128
 71
   277
 72
   275
 73
   278
  0
VERTEX
  5
AD3
  8
0
 62
   123
 10
0.0
 20
0.0
 30
0.0
 70
   128
 71
   269
 72
   276
 73
   207
  0
VERTEX
  5
AD4
  8
0
 62
   123
 10
0.0
 20
0.0
 30
0.0
 70
   128
 71
   269
 72
   270
 73
   276
  0
VERTEX
  5
AD5
  8
0
 62
   123
 10
0.0
 20
0.0
 30
0.0
 70
   128
 71
   116
 72
   281
 73
   233
  0
VERTEX
  5
AD6
  8
0
 62
   123
 10
0.0
 20
0.0
 30
0.0
 70
   128
 71
   230
 72
   282
 73
   229
  0
VERTEX
  5
AD7
  8
0
 62
   123
 10
0.0
 20
0.0
 30
0.0
 70
   128
 71
   247
 72
   284
 73
   283
  0
VERTEX
  5
AD8
  8
0
 62
   123
 10
0.0
 20
0.0
 30
0.0
 70
   128
 71
   250
 72
   285
 73
   235
  0
VERTEX
  5
AD9
  8
0
 62
   123
 10
0.0
 20
0.0
 30
0.0
 70
   128
 71
   285
 72
   250
 73
   286
  0
VERTEX
  5
ADA
  8
0
 62
   123
 10
0.0
 20
0.0
 30
0.0
 70
   128
 71
   181
 72
   235
 73
   130
  0
VERTEX
  5
ADB
  8
0
 62
   123
 10
0.0
 20
0.0
 30
0.0
 70
   128
 71
   285
 72
   130
 73
   235
  0
VERTEX
  5
ADC
  8
0
 62
   123
 10
0.0
 20
0.0
 30
0.0
 70
   128
 71
   286
 72
   229
 73
   282
  0
VERTEX
  5
ADD
  8
0
 62
   123
 10
0.0
 20
0.0
 30
0.0
 70
   128
 71
   286
 72
   250
 73
   229
  0
VERTEX
  5
ADE
  8
0
 62
   123
 10
0.0
 20
0.0
 30
0.0
 70
   128
 71
   247
 72
   283
 73
   230
  0
VERTEX
  5
ADF
  8
0
 62
   123
 10
0.0
 20
0.0
 30
0.0
 70
   128
 71
   283
 72
   282
 73
   230
  0
VERTEX
  5
AE0
  8
0
 62
   123
 10
0.0
 20
0.0
 30
0.0
 70
   128
 71
   232
 72
   281
 73
   284
  0
VERTEX
  5
AE1
  8
0
 62
   123
 10
0.0
 20
0.0
 30
0.0
 70
   128
 71
   232
 72
   284
 73
   247
  0
VERTEX
  5
AE2
  8
0
 62
   123
 10
0.0
 20
0.0
 30
0.0
 70
   128
 71
   233
 72
   178
 73
   116
  0
VERTEX
  5
AE3
  8
0
 62
   123
 10
0.0
 20
0.0
 30
0.0
 70
   128
 71
   232
 72
   233
 73
   281
  0
VERTEX
  5
AE4
  8
0
 62
   123
 10
0.0
 20
0.0
 30
0.0
 70
   128
 71
   173
 72
   165
 73
   287
  0
VERTEX
  5
AE5
  8
0
 62
   123
 10
0.0
 20
0.0
 30
0.0
 70
   128
 71
   171
 72
   170
 73
   288
  0
VERTEX
  5
AE6
  8
0
 62
   123
 10
0.0
 20
0.0
 30
0.0
 70
   128
 71
   117
 72
   171
 73
   288
  0
VERTEX
  5
AE7
  8
0
 62
   123
 10
0.0
 20
0.0
 30
0.0
 70
   128
 71
   287
 72
   290
 73
   289
  0
VERTEX
  5
AE8
  8
0
 62
   123
 10
0.0
 20
0.0
 30
0.0
 70
   128
 71
   120
 72
   171
 73
   117
  0
VERTEX
  5
AE9
  8
0
 62
   123
 10
0.0
 20
0.0
 30
0.0
 70
   128
 71
   128
 72
   292
 73
   291
  0
VERTEX
  5
AEA
  8
0
 62
   123
 10
0.0
 20
0.0
 30
0.0
 70
   128
 71
   287
 72
   165
 73
   293
  0
VERTEX
  5
AEB
  8
0
 62
   123
 10
0.0
 20
0.0
 30
0.0
 70
   128
 71
   291
 72
   164
 73
   133
  0
VERTEX
  5
AEC
  8
0
 62
   123
 10
0.0
 20
0.0
 30
0.0
 70
   128
 71
   294
 72
   291
 73
   292
  0
VERTEX
  5
AED
  8
0
 62
   123
 10
0.0
 20
0.0
 30
0.0
 70
   128
 71
   291
 72
   133
 73
   128
  0
VERTEX
  5
AEE
  8
0
 62
   123
 10
0.0
 20
0.0
 30
0.0
 70
   128
 71
   285
 72
   129
 73
   130
  0
VERTEX
  5
AEF
  8
0
 62
   123
 10
0.0
 20
0.0
 30
0.0
 70
   128
 71
   292
 72
   286
 73
   294
  0
VERTEX
  5
AF0
  8
0
 62
   123
 10
0.0
 20
0.0
 30
0.0
 70
   128
 71
   290
 72
   287
 73
   293
  0
VERTEX
  5
AF1
  8
0
 62
   123
 10
0.0
 20
0.0
 30
0.0
 70
   128
 71
   290
 72
   294
 73
   282
  0
VERTEX
  5
AF2
  8
0
 62
   123
 10
0.0
 20
0.0
 30
0.0
 70
   128
 71
   296
 72
   295
 73
   288
  0
VERTEX
  5
AF3
  8
0
 62
   123
 10
0.0
 20
0.0
 30
0.0
 70
   128
 71
   296
 72
   289
 73
   295
  0
VERTEX
  5
AF4
  8
0
 62
   123
 10
0.0
 20
0.0
 30
0.0
 70
   128
 71
   170
 72
   168
 73
   296
  0
VERTEX
  5
AF5
  8
0
 62
   123
 10
0.0
 20
0.0
 30
0.0
 70
   128
 71
   281
 72
   295
 73
   289
  0
VERTEX
  5
AF6
  8
0
 62
   123
 10
0.0
 20
0.0
 30
0.0
 70
   128
 71
   295
 72
   116
 73
   114
  0
VERTEX
  5
AF7
  8
0
 62
   123
 10
0.0
 20
0.0
 30
0.0
 70
   128
 71
   288
 72
   170
 73
   296
  0
VERTEX
  5
AF8
  8
0
 62
   123
 10
0.0
 20
0.0
 30
0.0
 70
   128
 71
   288
 72
   114
 73
   117
  0
VERTEX
  5
AF9
  8
0
 62
   123
 10
0.0
 20
0.0
 30
0.0
 70
   128
 71
   295
 72
   281
 73
   116
  0
VERTEX
  5
AFA
  8
0
 62
   123
 10
0.0
 20
0.0
 30
0.0
 70
   128
 71
   288
 72
   295
 73
   114
  0
VERTEX
  5
AFB
  8
0
 62
   123
 10
0.0
 20
0.0
 30
0.0
 70
   128
 71
   168
 72
   173
 73
   287
  0
VERTEX
  5
AFC
  8
0
 62
   123
 10
0.0
 20
0.0
 30
0.0
 70
   128
 71
   284
 72
   281
 73
   289
  0
VERTEX
  5
AFD
  8
0
 62
   123
 10
0.0
 20
0.0
 30
0.0
 70
   128
 71
   296
 72
   168
 73
   287
  0
VERTEX
  5
AFE
  8
0
 62
   123
 10
0.0
 20
0.0
 30
0.0
 70
   128
 71
   284
 72
   289
 73
   283
  0
VERTEX
  5
AFF
  8
0
 62
   123
 10
0.0
 20
0.0
 30
0.0
 70
   128
 71
   287
 72
   289
 73
   296
  0
VERTEX
  5
B00
  8
0
 62
   123
 10
0.0
 20
0.0
 30
0.0
 70
   128
 71
   165
 72
   163
 73
   293
  0
VERTEX
  5
B01
  8
0
 62
   123
 10
0.0
 20
0.0
 30
0.0
 70
   128
 71
   283
 72
   290
 73
   282
  0
VERTEX
  5
B02
  8
0
 62
   123
 10
0.0
 20
0.0
 30
0.0
 70
   128
 71
   290
 72
   283
 73
   289
  0
VERTEX
  5
B03
  8
0
 62
   123
 10
0.0
 20
0.0
 30
0.0
 70
   128
 71
   164
 72
   291
 73
   163
  0
VERTEX
  5
B04
  8
0
 62
   123
 10
0.0
 20
0.0
 30
0.0
 70
   128
 71
   128
 72
   129
 73
   292
  0
VERTEX
  5
B05
  8
0
 62
   123
 10
0.0
 20
0.0
 30
0.0
 70
   128
 71
   294
 72
   286
 73
   282
  0
VERTEX
  5
B06
  8
0
 62
   123
 10
0.0
 20
0.0
 30
0.0
 70
   128
 71
   293
 72
   294
 73
   290
  0
VERTEX
  5
B07
  8
0
 62
   123
 10
0.0
 20
0.0
 30
0.0
 70
   128
 71
   291
 72
   293
 73
   163
  0
VERTEX
  5
B08
  8
0
 62
   123
 10
0.0
 20
0.0
 30
0.0
 70
   128
 71
   293
 72
   291
 73
   294
  0
VERTEX
  5
B09
  8
0
 62
   123
 10
0.0
 20
0.0
 30
0.0
 70
   128
 71
   285
 72
   292
 73
   129
  0
VERTEX
  5
B0A
  8
0
 62
   123
 10
0.0
 20
0.0
 30
0.0
 70
   128
 71
   285
 72
   286
 73
   292
  0
VERTEX
  5
B0B
  8
0
 62
   123
 10
0.0
 20
0.0
 30
0.0
 70
   128
 71
    38
 72
   297
 73
   155
  0
VERTEX
  5
B0C
  8
0
 62
   123
 10
0.0
 20
0.0
 30
0.0
 70
   128
 71
   152
 72
   298
 73
   151
  0
VERTEX
  5
B0D
  8
0
 62
   123
 10
0.0
 20
0.0
 30
0.0
 70
   128
 71
   169
 72
   300
 73
   299
  0
VERTEX
  5
B0E
  8
0
 62
   123
 10
0.0
 20
0.0
 30
0.0
 70
   128
 71
   172
 72
   301
 73
   157
  0
VERTEX
  5
B0F
  8
0
 62
   123
 10
0.0
 20
0.0
 30
0.0
 70
   128
 71
   301
 72
   172
 73
   302
  0
VERTEX
  5
B10
  8
0
 62
   123
 10
0.0
 20
0.0
 30
0.0
 70
   128
 71
   103
 72
   157
 73
    52
  0
VERTEX
  5
B11
  8
0
 62
   123
 10
0.0
 20
0.0
 30
0.0
 70
   128
 71
   301
 72
    52
 73
   157
  0
VERTEX
  5
B12
  8
0
 62
   123
 10
0.0
 20
0.0
 30
0.0
 70
   128
 71
   302
 72
   151
 73
   298
  0
VERTEX
  5
B13
  8
0
 62
   123
 10
0.0
 20
0.0
 30
0.0
 70
   128
 71
   302
 72
   172
 73
   151
  0
VERTEX
  5
B14
  8
0
 62
   123
 10
0.0
 20
0.0
 30
0.0
 70
   128
 71
   169
 72
   299
 73
   152
  0
VERTEX
  5
B15
  8
0
 62
   123
 10
0.0
 20
0.0
 30
0.0
 70
   128
 71
   299
 72
   298
 73
   152
  0
VERTEX
  5
B16
  8
0
 62
   123
 10
0.0
 20
0.0
 30
0.0
 70
   128
 71
   154
 72
   297
 73
   300
  0
VERTEX
  5
B17
  8
0
 62
   123
 10
0.0
 20
0.0
 30
0.0
 70
   128
 71
   154
 72
   300
 73
   169
  0
VERTEX
  5
B18
  8
0
 62
   123
 10
0.0
 20
0.0
 30
0.0
 70
   128
 71
   155
 72
   100
 73
    38
  0
VERTEX
  5
B19
  8
0
 62
   123
 10
0.0
 20
0.0
 30
0.0
 70
   128
 71
   154
 72
   155
 73
   297
  0
VERTEX
  5
B1A
  8
0
 62
   123
 10
0.0
 20
0.0
 30
0.0
 70
   128
 71
    95
 72
    87
 73
   303
  0
VERTEX
  5
B1B
  8
0
 62
   123
 10
0.0
 20
0.0
 30
0.0
 70
   128
 71
    93
 72
    92
 73
   304
  0
VERTEX
  5
B1C
  8
0
 62
   123
 10
0.0
 20
0.0
 30
0.0
 70
   128
 71
    39
 72
    93
 73
   304
  0
VERTEX
  5
B1D
  8
0
 62
   123
 10
0.0
 20
0.0
 30
0.0
 70
   128
 71
   303
 72
   306
 73
   305
  0
VERTEX
  5
B1E
  8
0
 62
   123
 10
0.0
 20
0.0
 30
0.0
 70
   128
 71
    42
 72
    93
 73
    39
  0
VERTEX
  5
B1F
  8
0
 62
   123
 10
0.0
 20
0.0
 30
0.0
 70
   128
 71
    50
 72
   308
 73
   307
  0
VERTEX
  5
B20
  8
0
 62
   123
 10
0.0
 20
0.0
 30
0.0
 70
   128
 71
   303
 72
    87
 73
   309
  0
VERTEX
  5
B21
  8
0
 62
   123
 10
0.0
 20
0.0
 30
0.0
 70
   128
 71
   307
 72
    86
 73
    55
  0
VERTEX
  5
B22
  8
0
 62
   123
 10
0.0
 20
0.0
 30
0.0
 70
   128
 71
   310
 72
   307
 73
   308
  0
VERTEX
  5
B23
  8
0
 62
   123
 10
0.0
 20
0.0
 30
0.0
 70
   128
 71
   307
 72
    55
 73
    50
  0
VERTEX
  5
B24
  8
0
 62
   123
 10
0.0
 20
0.0
 30
0.0
 70
   128
 71
   301
 72
    51
 73
    52
  0
VERTEX
  5
B25
  8
0
 62
   123
 10
0.0
 20
0.0
 30
0.0
 70
   128
 71
   308
 72
   302
 73
   310
  0
VERTEX
  5
B26
  8
0
 62
   123
 10
0.0
 20
0.0
 30
0.0
 70
   128
 71
   306
 72
   303
 73
   309
  0
VERTEX
  5
B27
  8
0
 62
   123
 10
0.0
 20
0.0
 30
0.0
 70
   128
 71
   306
 72
   310
 73
   298
  0
VERTEX
  5
B28
  8
0
 62
   123
 10
0.0
 20
0.0
 30
0.0
 70
   128
 71
   312
 72
   311
 73
   304
  0
VERTEX
  5
B29
  8
0
 62
   123
 10
0.0
 20
0.0
 30
0.0
 70
   128
 71
   312
 72
   305
 73
   311
  0
VERTEX
  5
B2A
  8
0
 62
   123
 10
0.0
 20
0.0
 30
0.0
 70
   128
 71
    92
 72
    90
 73
   312
  0
VERTEX
  5
B2B
  8
0
 62
   123
 10
0.0
 20
0.0
 30
0.0
 70
   128
 71
   297
 72
   311
 73
   305
  0
VERTEX
  5
B2C
  8
0
 62
   123
 10
0.0
 20
0.0
 30
0.0
 70
   128
 71
   311
 72
    38
 73
    36
  0
VERTEX
  5
B2D
  8
0
 62
   123
 10
0.0
 20
0.0
 30
0.0
 70
   128
 71
   304
 72
    92
 73
   312
  0
VERTEX
  5
B2E
  8
0
 62
   123
 10
0.0
 20
0.0
 30
0.0
 70
   128
 71
   304
 72
    36
 73
    39
  0
VERTEX
  5
B2F
  8
0
 62
   123
 10
0.0
 20
0.0
 30
0.0
 70
   128
 71
   311
 72
   297
 73
    38
  0
VERTEX
  5
B30
  8
0
 62
   123
 10
0.0
 20
0.0
 30
0.0
 70
   128
 71
   304
 72
   311
 73
    36
  0
VERTEX
  5
B31
  8
0
 62
   123
 10
0.0
 20
0.0
 30
0.0
 70
   128
 71
    90
 72
    95
 73
   303
  0
VERTEX
  5
B32
  8
0
 62
   123
 10
0.0
 20
0.0
 30
0.0
 70
   128
 71
   300
 72
   297
 73
   305
  0
VERTEX
  5
B33
  8
0
 62
   123
 10
0.0
 20
0.0
 30
0.0
 70
   128
 71
   312
 72
    90
 73
   303
  0
VERTEX
  5
B34
  8
0
 62
   123
 10
0.0
 20
0.0
 30
0.0
 70
   128
 71
   300
 72
   305
 73
   299
  0
VERTEX
  5
B35
  8
0
 62
   123
 10
0.0
 20
0.0
 30
0.0
 70
   128
 71
   303
 72
   305
 73
   312
  0
VERTEX
  5
B36
  8
0
 62
   123
 10
0.0
 20
0.0
 30
0.0
 70
   128
 71
    87
 72
    85
 73
   309
  0
VERTEX
  5
B37
  8
0
 62
   123
 10
0.0
 20
0.0
 30
0.0
 70
   128
 71
   299
 72
   306
 73
   298
  0
VERTEX
  5
B38
  8
0
 62
   123
 10
0.0
 20
0.0
 30
0.0
 70
   128
 71
   306
 72
   299
 73
   305
  0
VERTEX
  5
B39
  8
0
 62
   123
 10
0.0
 20
0.0
 30
0.0
 70
   128
 71
    86
 72
   307
 73
    85
  0
VERTEX
  5
B3A
  8
0
 62
   123
 10
0.0
 20
0.0
 30
0.0
 70
   128
 71
    50
 72
    51
 73
   308
  0
VERTEX
  5
B3B
  8
0
 62
   123
 10
0.0
 20
0.0
 30
0.0
 70
   128
 71
   310
 72
   302
 73
   298
  0
VERTEX
  5
B3C
  8
0
 62
   123
 10
0.0
 20
0.0
 30
0.0
 70
   128
 71
   309
 72
   310
 73
   306
  0
VERTEX
  5
B3D
  8
0
 62
   123
 10
0.0
 20
0.0
 30
0.0
 70
   128
 71
   307
 72
   309
 73
    85
  0
VERTEX
  5
B3E
  8
0
 62
   123
 10
0.0
 20
0.0
 30
0.0
 70
   128
 71
   309
 72
   307
 73
   310
  0
VERTEX
  5
B3F
  8
0
 62
   123
 10
0.0
 20
0.0
 30
0.0
 70
   128
 71
   301
 72
   308
 73
    51
  0
VERTEX
  5
B40
  8
0
 62
   123
 10
0.0
 20
0.0
 30
0.0
 70
   128
 71
   301
 72
   302
 73
   308
  0
VERTEX
  5
B41
  8
0
 62
   123
 10
0.0
 20
0.0
 30
0.0
 70
   128
 71
    15
 72
    12
 73
    20
  0
VERTEX
  5
B42
  8
0
 62
   123
 10
0.0
 20
0.0
 30
0.0
 70
   128
 71
    20
 72
    12
 73
    17
  0
VERTEX
  5
B43
  8
0
 62
   123
 10
0.0
 20
0.0
 30
0.0
 70
   128
 71
     7
 72
    15
 73
    20
  0
VERTEX
  5
B44
  8
0
 62
   123
 10
0.0
 20
0.0
 30
0.0
 70
   128
 71
     4
 72
    21
 73
    77
  0
VERTEX
  5
B45
  8
0
 62
   123
 10
0.0
 20
0.0
 30
0.0
 70
   128
 71
    73
 72
    24
 73
    94
  0
VERTEX
  5
B46
  8
0
 62
   123
 10
0.0
 20
0.0
 30
0.0
 70
   128
 71
    91
 72
    22
 73
    23
  0
VERTEX
  5
B47
  8
0
 62
   123
 10
0.0
 20
0.0
 30
0.0
 70
   128
 71
    79
 72
    25
 73
    17
  0
VERTEX
  5
B48
  8
0
 62
   123
 10
0.0
 20
0.0
 30
0.0
 70
   128
 71
    25
 72
    79
 73
    94
  0
VERTEX
  5
B49
  8
0
 62
   123
 10
0.0
 20
0.0
 30
0.0
 70
   128
 71
    79
 72
    17
 73
    16
  0
VERTEX
  5
B4A
  8
0
 62
   123
 10
0.0
 20
0.0
 30
0.0
 70
   128
 71
    24
 72
    73
 73
    23
  0
VERTEX
  5
B4B
  8
0
 62
   123
 10
0.0
 20
0.0
 30
0.0
 70
   128
 71
    24
 72
    25
 73
    94
  0
VERTEX
  5
B4C
  8
0
 62
   123
 10
0.0
 20
0.0
 30
0.0
 70
   128
 71
    74
 72
    91
 73
    23
  0
VERTEX
  5
B4D
  8
0
 62
   123
 10
0.0
 20
0.0
 30
0.0
 70
   128
 71
    74
 72
    23
 73
    73
  0
VERTEX
  5
B4E
  8
0
 62
   123
 10
0.0
 20
0.0
 30
0.0
 70
   128
 71
    76
 72
    21
 73
    22
  0
VERTEX
  5
B4F
  8
0
 62
   123
 10
0.0
 20
0.0
 30
0.0
 70
   128
 71
    76
 72
    22
 73
    91
  0
VERTEX
  5
B50
  8
0
 62
   123
 10
0.0
 20
0.0
 30
0.0
 70
   128
 71
    77
 72
     5
 73
     4
  0
VERTEX
  5
B51
  8
0
 62
   123
 10
0.0
 20
0.0
 30
0.0
 70
   128
 71
    76
 72
    77
 73
    21
  0
SEQEND
  5
B52
  8
0
 62
   123
  0
ENDBLK
  5
B55
  8
0
  0
BLOCK
  8
0
  2
5751-01
 70
     0
 10
0.0
 20
0.0
 30
0.0
  3
5751-01
  1

  0
POLYLINE
  5
B57
  8
0
 62
   123
 66
     1
 10
0.0
 20
0.0
 30
0.0
 70
    64
 71
    18
 72
    22
  0
VERTEX
  5
B58
  8
0
 10
56.0
 20
7.0
 30
-7.0
 70
   192
  0
VERTEX
  5
B59
  8
0
 10
10.0
 20
7.0
 30
-7.0
 70
   192
  0
VERTEX
  5
B5A
  8
0
 10
10.0
 20
-7.0
 30
-7.0
 70
   192
  0
VERTEX
  5
B5B
  8
0
 10
56.0
 20
-7.0
 30
-7.0
 70
   192
  0
VERTEX
  5
B5C
  8
0
 10
10.0
 20
-7.0
 30
7.0
 70
   192
  0
VERTEX
  5
B5D
  8
0
 10
52.0
 20
-7.0
 30
0.0000000000000009
 70
   192
  0
VERTEX
  5
B5E
  8
0
 10
53.17157363891602
 20
-7.0
 30
-2.828427076339722
 70
   192
  0
VERTEX
  5
B5F
  8
0
 10
56.0
 20
-7.0
 30
-4.0
 70
   192
  0
VERTEX
  5
B60
  8
0
 10
56.0
 20
-7.0
 30
7.0
 70
   192
  0
VERTEX
  5
B61
  8
0
 10
56.0
 20
-7.0
 30
4.0
 70
   192
  0
VERTEX
  5
B62
  8
0
 10
53.17157363891602
 20
-7.0
 30
2.828427076339722
 70
   192
  0
VERTEX
  5
B63
  8
0
 10
10.0
 20
7.0
 30
7.0
 70
   192
  0
VERTEX
  5
B64
  8
0
 10
56.0
 20
7.0
 30
7.0
 70
   192
  0
VERTEX
  5
B65
  8
0
 10
52.0
 20
7.0
 30
0.0000000000000009
 70
   192
  0
VERTEX
  5
B66
  8
0
 10
53.17157363891602
 20
7.0
 30
2.828427076339722
 70
   192
  0
VERTEX
  5
B67
  8
0
 10
56.0
 20
7.0
 30
4.0
 70
   192
  0
VERTEX
  5
B68
  8
0
 10
56.0
 20
7.0
 30
-4.0
 70
   192
  0
VERTEX
  5
B69
  8
0
 10
53.17157363891602
 20
7.0
 30
-2.828427076339722
 70
   192
  0
VERTEX
  5
B6A
  8
0
 62
   123
 10
0.0
 20
0.0
 30
0.0
 70
   128
 71
     3
 72
     2
 73
     1
  0
VERTEX
  5
B6B
  8
0
 62
   123
 10
0.0
 20
0.0
 30
0.0
 70
   128
 71
     1
 72
     4
 73
     3
  0
VERTEX
  5
B6C
  8
0
 62
   123
 10
0.0
 20
0.0
 30
0.0
 70
   128
 71
     3
 72
     6
 73
     5
  0
VERTEX
  5
B6D
  8
0
 62
   123
 10
0.0
 20
0.0
 30
0.0
 70
   128
 71
     4
 72
     8
 73
     7
  0
VERTEX
  5
B6E
  8
0
 62
   123
 10
0.0
 20
0.0
 30
0.0
 70
   128
 71
     7
 72
     6
 73
     3
  0
VERTEX
  5
B6F
  8
0
 62
   123
 10
0.0
 20
0.0
 30
0.0
 70
   128
 71
     4
 72
     7
 73
     3
  0
VERTEX
  5
B70
  8
0
 62
   123
 10
0.0
 20
0.0
 30
0.0
 70
   128
 71
    11
 72
    10
 73
     9
  0
VERTEX
  5
B71
  8
0
 62
   123
 10
0.0
 20
0.0
 30
0.0
 70
   128
 71
     5
 72
    11
 73
     9
  0
VERTEX
  5
B72
  8
0
 62
   123
 10
0.0
 20
0.0
 30
0.0
 70
   128
 71
     6
 72
    11
 73
     5
  0
VERTEX
  5
B73
  8
0
 62
   123
 10
0.0
 20
0.0
 30
0.0
 70
   128
 71
     5
 72
     9
 73
    12
  0
VERTEX
  5
B74
  8
0
 62
   123
 10
0.0
 20
0.0
 30
0.0
 70
   128
 71
     9
 72
    13
 73
    12
  0
VERTEX
  5
B75
  8
0
 62
   123
 10
0.0
 20
0.0
 30
0.0
 70
   128
 71
    12
 72
    14
 73
     2
  0
VERTEX
  5
B76
  8
0
 62
   123
 10
0.0
 20
0.0
 30
0.0
 70
   128
 71
    13
 72
    16
 73
    15
  0
VERTEX
  5
B77
  8
0
 62
   123
 10
0.0
 20
0.0
 30
0.0
 70
   128
 71
    15
 72
    14
 73
    12
  0
VERTEX
  5
B78
  8
0
 62
   123
 10
0.0
 20
0.0
 30
0.0
 70
   128
 71
    13
 72
    15
 73
    12
  0
VERTEX
  5
B79
  8
0
 62
   123
 10
0.0
 20
0.0
 30
0.0
 70
   128
 71
    18
 72
    17
 73
     1
  0
VERTEX
  5
B7A
  8
0
 62
   123
 10
0.0
 20
0.0
 30
0.0
 70
   128
 71
     2
 72
    18
 73
     1
  0
VERTEX
  5
B7B
  8
0
 62
   123
 10
0.0
 20
0.0
 30
0.0
 70
   128
 71
    14
 72
    18
 73
     2
  0
VERTEX
  5
B7C
  8
0
 62
   123
 10
0.0
 20
0.0
 30
0.0
 70
   128
 71
    16
 72
     9
 73
    10
  0
VERTEX
  5
B7D
  8
0
 62
   123
 10
0.0
 20
0.0
 30
0.0
 70
   128
 71
     9
 72
    16
 73
    13
  0
VERTEX
  5
B7E
  8
0
 62
   123
 10
0.0
 20
0.0
 30
0.0
 70
   128
 71
     1
 72
    17
 73
     8
  0
VERTEX
  5
B7F
  8
0
 62
   123
 10
0.0
 20
0.0
 30
0.0
 70
   128
 71
     4
 72
     1
 73
     8
  0
SEQEND
  5
B80
  8
0
 62
   123
  0
ENDBLK
  5
B83
  8
0
  0
BLOCK
  8
0
  2
5700-02
 70
     0
 10
0.0
 20
0.0
 30
0.0
  3
5700-02
  1

  0
POLYLINE
  5
B85
  8
0
 62
   123
 66
     1
 10
0.0
 20
0.0
 30
0.0
 70
    64
 71
    54
 72
   102
  0
VERTEX
  5
B86
  8
0
 10
0.0
 20
18.0
 30
11.0
 70
   192
  0
VERTEX
  5
B87
  8
0
 10
7.0
 20
18.0
 30
11.0
 70
   192
  0
VERTEX
  5
B88
  8
0
 10
7.0
 20
18.0
 30
-11.0
 70
   192
  0
VERTEX
  5
B89
  8
0
 10
0.0
 20
18.0
 30
-11.0
 70
   192
  0
VERTEX
  5
B8A
  8
0
 10
3.5
 20
-2.099999904632568
 30
-10.0
 70
   192
  0
VERTEX
  5
B8B
  8
0
 10
4.98492431640625
 20
-1.48492419719696
 30
-14.0
 70
   192
  0
VERTEX
  5
B8C
  8
0
 10
4.98492431640625
 20
-1.48492419719696
 30
-10.0
 70
   192
  0
VERTEX
  5
B8D
  8
0
 10
4.98492431640625
 20
1.48492419719696
 30
-10.0
 70
   192
  0
VERTEX
  5
B8E
  8
0
 10
4.98492431640625
 20
1.48492419719696
 30
-14.0
 70
   192
  0
VERTEX
  5
B8F
  8
0
 10
3.5
 20
2.099999904632568
 30
-14.0
 70
   192
  0
VERTEX
  5
B90
  8
0
 10
5.599999904632568
 20
0.0000000000000002
 30
-10.0
 70
   192
  0
VERTEX
  5
B91
  8
0
 10
5.599999904632568
 20
0.0
 30
-14.0
 70
   192
  0
VERTEX
  5
B92
  8
0
 10
3.5
 20
2.099999904632568
 30
-10.0
 70
   192
  0
VERTEX
  5
B93
  8
0
 10
3.5
 20
-2.099999904632568
 30
-14.0
 70
   192
  0
VERTEX
  5
B94
  8
0
 10
2.01507568359375
 20
1.48492419719696
 30
-14.0
 70
   192
  0
VERTEX
  5
B95
  8
0
 10
2.01507568359375
 20
1.48492419719696
 30
-10.0
 70
   192
  0
VERTEX
  5
B96
  8
0
 10
2.01507568359375
 20
-1.48492419719696
 30
-10.0
 70
   192
  0
VERTEX
  5
B97
  8
0
 10
2.01507568359375
 20
-1.48492419719696
 30
-14.0
 70
   192
  0
VERTEX
  5
B98
  8
0
 10
1.399999976158142
 20
0.0
 30
-10.0
 70
   192
  0
VERTEX
  5
B99
  8
0
 10
1.399999976158142
 20
0.0
 30
-14.0
 70
   192
  0
VERTEX
  5
B9A
  8
0
 10
0.5
 20
-4.0
 30
-10.0
 70
   192
  0
VERTEX
  5
B9B
  8
0
 10
0.5
 20
4.0
 30
-11.0
 70
   192
  0
VERTEX
  5
B9C
  8
0
 10
0.5
 20
4.0
 30
-10.0
 70
   192
  0
VERTEX
  5
B9D
  8
0
 10
0.5
 20
-4.0
 30
-11.0
 70
   192
  0
VERTEX
  5
B9E
  8
0
 10
7.0
 20
4.0
 30
-10.0
 70
   192
  0
VERTEX
  5
B9F
  8
0
 10
7.0
 20
-4.0
 30
-10.0
 70
   192
  0
VERTEX
  5
BA0
  8
0
 10
0.5
 20
4.0
 30
11.0
 70
   192
  0
VERTEX
  5
BA1
  8
0
 10
0.5
 20
4.0
 30
7.969000339508057
 70
   192
  0
VERTEX
  5
BA2
  8
0
 10
7.0
 20
4.0
 30
11.0
 70
   192
  0
VERTEX
  5
BA3
  8
0
 10
7.0
 20
4.0
 30
-11.0
 70
   192
  0
VERTEX
  5
BA4
  8
0
 10
0.5
 20
-4.0
 30
11.0
 70
   192
  0
VERTEX
  5
BA5
  8
0
 10
0.5
 20
-4.0
 30
7.969000339508057
 70
   192
  0
VERTEX
  5
BA6
  8
0
 10
7.0
 20
-18.0
 30
11.0
 70
   192
  0
VERTEX
  5
BA7
  8
0
 10
0.0
 20
-18.0
 30
11.0
 70
   192
  0
VERTEX
  5
BA8
  8
0
 10
7.0
 20
-4.0
 30
11.0
 70
   192
  0
VERTEX
  5
BA9
  8
0
 10
0.0
 20
-18.0
 30
-11.0
 70
   192
  0
VERTEX
  5
BAA
  8
0
 10
7.0
 20
-18.0
 30
-11.0
 70
   192
  0
VERTEX
  5
BAB
  8
0
 10
7.0
 20
-4.0
 30
-11.0
 70
   192
  0
VERTEX
  5
BAC
  8
0
 10
7.0
 20
-3.0
 30
3.0
 70
   192
  0
VERTEX
  5
BAD
  8
0
 10
7.0
 20
-3.0
 30
-3.0
 70
   192
  0
VERTEX
  5
BAE
  8
0
 10
7.0
 20
3.0
 30
3.0
 70
   192
  0
VERTEX
  5
BAF
  8
0
 10
7.0
 20
3.0
 30
-3.0
 70
   192
  0
VERTEX
  5
BB0
  8
0
 10
10.0
 20
21.0
 30
14.0
 70
   192
  0
VERTEX
  5
BB1
  8
0
 10
10.0
 20
-3.0
 30
3.0
 70
   192
  0
VERTEX
  5
BB2
  8
0
 10
10.0
 20
-21.0
 30
14.0
 70
   192
  0
VERTEX
  5
BB3
  8
0
 10
10.0
 20
3.0
 30
-3.0
 70
   192
  0
VERTEX
  5
BB4
  8
0
 10
10.0
 20
3.0
 30
3.0
 70
   192
  0
VERTEX
  5
BB5
  8
0
 10
10.0
 20
-3.0
 30
-3.0
 70
   192
  0
VERTEX
  5
BB6
  8
0
 10
10.0
 20
-21.0
 30
-14.0
 70
   192
  0
VERTEX
  5
BB7
  8
0
 10
10.0
 20
21.0
 30
-14.0
 70
   192
  0
VERTEX
  5
BB8
  8
0
 10
0.0
 20
-21.0
 30
-14.0
 70
   192
  0
VERTEX
  5
BB9
  8
0
 10
0.0
 20
21.0
 30
-14.0
 70
   192
  0
VERTEX
  5
BBA
  8
0
 10
0.0
 20
21.0
 30
14.0
 70
   192
  0
VERTEX
  5
BBB
  8
0
 10
0.0
 20
-21.0
 30
14.0
 70
   192
  0
VERTEX
  5
BBC
  8
0
 62
   123
 10
0.0
 20
0.0
 30
0.0
 70
   128
 71
     3
 72
     2
 73
     1
  0
VERTEX
  5
BBD
  8
0
 62
   123
 10
0.0
 20
0.0
 30
0.0
 70
   128
 71
     1
 72
     4
 73
     3
  0
VERTEX
  5
BBE
  8
0
 62
   123
 10
0.0
 20
0.0
 30
0.0
 70
   128
 71
     7
 72
     6
 73
     5
  0
VERTEX
  5
BBF
  8
0
 62
   123
 10
0.0
 20
0.0
 30
0.0
 70
   128
 71
    10
 72
     9
 73
     8
  0
VERTEX
  5
BC0
  8
0
 62
   123
 10
0.0
 20
0.0
 30
0.0
 70
   128
 71
    12
 72
    11
 73
     9
  0
VERTEX
  5
BC1
  8
0
 62
   123
 10
0.0
 20
0.0
 30
0.0
 70
   128
 71
    10
 72
     8
 73
    13
  0
VERTEX
  5
BC2
  8
0
 62
   123
 10
0.0
 20
0.0
 30
0.0
 70
   128
 71
     8
 72
     9
 73
    11
  0
VERTEX
  5
BC3
  8
0
 62
   123
 10
0.0
 20
0.0
 30
0.0
 70
   128
 71
     7
 72
    11
 73
    12
  0
VERTEX
  5
BC4
  8
0
 62
   123
 10
0.0
 20
0.0
 30
0.0
 70
   128
 71
     6
 72
    14
 73
     5
  0
VERTEX
  5
BC5
  8
0
 62
   123
 10
0.0
 20
0.0
 30
0.0
 70
   128
 71
    12
 72
     6
 73
     7
  0
VERTEX
  5
BC6
  8
0
 62
   123
 10
0.0
 20
0.0
 30
0.0
 70
   128
 71
    16
 72
    15
 73
    13
  0
VERTEX
  5
BC7
  8
0
 62
   123
 10
0.0
 20
0.0
 30
0.0
 70
   128
 71
    14
 72
    18
 73
    17
  0
VERTEX
  5
BC8
  8
0
 62
   123
 10
0.0
 20
0.0
 30
0.0
 70
   128
 71
    20
 72
    19
 73
    18
  0
VERTEX
  5
BC9
  8
0
 62
   123
 10
0.0
 20
0.0
 30
0.0
 70
   128
 71
    14
 72
    17
 73
     5
  0
VERTEX
  5
BCA
  8
0
 62
   123
 10
0.0
 20
0.0
 30
0.0
 70
   128
 71
    17
 72
    18
 73
    19
  0
VERTEX
  5
BCB
  8
0
 62
   123
 10
0.0
 20
0.0
 30
0.0
 70
   128
 71
    16
 72
    19
 73
    20
  0
VERTEX
  5
BCC
  8
0
 62
   123
 10
0.0
 20
0.0
 30
0.0
 70
   128
 71
    15
 72
    10
 73
    13
  0
VERTEX
  5
BCD
  8
0
 62
   123
 10
0.0
 20
0.0
 30
0.0
 70
   128
 71
    20
 72
    15
 73
    16
  0
VERTEX
  5
BCE
  8
0
 62
   123
 10
0.0
 20
0.0
 30
0.0
 70
   128
 71
    23
 72
    22
 73
    21
  0
VERTEX
  5
BCF
  8
0
 62
   123
 10
0.0
 20
0.0
 30
0.0
 70
   128
 71
    22
 72
    24
 73
    21
  0
VERTEX
  5
BD0
  8
0
 62
   123
 10
0.0
 20
0.0
 30
0.0
 70
   128
 71
    25
 72
    13
 73
     8
  0
VERTEX
  5
BD1
  8
0
 62
   123
 10
0.0
 20
0.0
 30
0.0
 70
   128
 71
    23
 72
    13
 73
    25
  0
VERTEX
  5
BD2
  8
0
 62
   123
 10
0.0
 20
0.0
 30
0.0
 70
   128
 71
    26
 72
     5
 73
    21
  0
VERTEX
  5
BD3
  8
0
 62
   123
 10
0.0
 20
0.0
 30
0.0
 70
   128
 71
    25
 72
    11
 73
    26
  0
VERTEX
  5
BD4
  8
0
 62
   123
 10
0.0
 20
0.0
 30
0.0
 70
   128
 71
     8
 72
    11
 73
    25
  0
VERTEX
  5
BD5
  8
0
 62
   123
 10
0.0
 20
0.0
 30
0.0
 70
   128
 71
     7
 72
     5
 73
    26
  0
VERTEX
  5
BD6
  8
0
 62
   123
 10
0.0
 20
0.0
 30
0.0
 70
   128
 71
    11
 72
     7
 73
    26
  0
VERTEX
  5
BD7
  8
0
 62
   123
 10
0.0
 20
0.0
 30
0.0
 70
   128
 71
    23
 72
    19
 73
    16
  0
VERTEX
  5
BD8
  8
0
 62
   123
 10
0.0
 20
0.0
 30
0.0
 70
   128
 71
    21
 72
    17
 73
    19
  0
VERTEX
  5
BD9
  8
0
 62
   123
 10
0.0
 20
0.0
 30
0.0
 70
   128
 71
     5
 72
    17
 73
    21
  0
VERTEX
  5
BDA
  8
0
 62
   123
 10
0.0
 20
0.0
 30
0.0
 70
   128
 71
    21
 72
    19
 73
    23
  0
VERTEX
  5
BDB
  8
0
 62
   123
 10
0.0
 20
0.0
 30
0.0
 70
   128
 71
    23
 72
    16
 73
    13
  0
VERTEX
  5
BDC
  8
0
 62
   123
 10
0.0
 20
0.0
 30
0.0
 70
   128
 71
    29
 72
    28
 73
    27
  0
VERTEX
  5
BDD
  8
0
 62
   123
 10
0.0
 20
0.0
 30
0.0
 70
   128
 71
    23
 72
    25
 73
    30
  0
VERTEX
  5
BDE
  8
0
 62
   123
 10
0.0
 20
0.0
 30
0.0
 70
   128
 71
    30
 72
    22
 73
    23
  0
VERTEX
  5
BDF
  8
0
 62
   123
 10
0.0
 20
0.0
 30
0.0
 70
   128
 71
    28
 72
    32
 73
    31
  0
VERTEX
  5
BE0
  8
0
 62
   123
 10
0.0
 20
0.0
 30
0.0
 70
   128
 71
    31
 72
    27
 73
    28
  0
VERTEX
  5
BE1
  8
0
 62
   123
 10
0.0
 20
0.0
 30
0.0
 70
   128
 71
    34
 72
    31
 73
    33
  0
VERTEX
  5
BE2
  8
0
 62
   123
 10
0.0
 20
0.0
 30
0.0
 70
   128
 71
    27
 72
     2
 73
    29
  0
VERTEX
  5
BE3
  8
0
 62
   123
 10
0.0
 20
0.0
 30
0.0
 70
   128
 71
    27
 72
     1
 73
     2
  0
VERTEX
  5
BE4
  8
0
 62
   123
 10
0.0
 20
0.0
 30
0.0
 70
   128
 71
    27
 72
    31
 73
     1
  0
VERTEX
  5
BE5
  8
0
 62
   123
 10
0.0
 20
0.0
 30
0.0
 70
   128
 71
    31
 72
    35
 73
    33
  0
VERTEX
  5
BE6
  8
0
 62
   123
 10
0.0
 20
0.0
 30
0.0
 70
   128
 71
    31
 72
    34
 73
     1
  0
VERTEX
  5
BE7
  8
0
 62
   123
 10
0.0
 20
0.0
 30
0.0
 70
   128
 71
    33
 72
    37
 73
    36
  0
VERTEX
  5
BE8
  8
0
 62
   123
 10
0.0
 20
0.0
 30
0.0
 70
   128
 71
    36
 72
    34
 73
    33
  0
VERTEX
  5
BE9
  8
0
 62
   123
 10
0.0
 20
0.0
 30
0.0
 70
   128
 71
    22
 72
     4
 73
    36
  0
VERTEX
  5
BEA
  8
0
 62
   123
 10
0.0
 20
0.0
 30
0.0
 70
   128
 71
    22
 72
    36
 73
    24
  0
VERTEX
  5
BEB
  8
0
 62
   123
 10
0.0
 20
0.0
 30
0.0
 70
   128
 71
    37
 72
    24
 73
    36
  0
VERTEX
  5
BEC
  8
0
 62
   123
 10
0.0
 20
0.0
 30
0.0
 70
   128
 71
    22
 72
    30
 73
     3
  0
VERTEX
  5
BED
  8
0
 62
   123
 10
0.0
 20
0.0
 30
0.0
 70
   128
 71
     3
 72
     4
 73
    22
  0
VERTEX
  5
BEE
  8
0
 62
   123
 10
0.0
 20
0.0
 30
0.0
 70
   128
 71
    37
 72
    38
 73
    24
  0
VERTEX
  5
BEF
  8
0
 62
   123
 10
0.0
 20
0.0
 30
0.0
 70
   128
 71
    35
 72
    31
 73
    32
  0
VERTEX
  5
BF0
  8
0
 62
   123
 10
0.0
 20
0.0
 30
0.0
 70
   128
 71
    24
 72
    38
 73
    21
  0
VERTEX
  5
BF1
  8
0
 62
   123
 10
0.0
 20
0.0
 30
0.0
 70
   128
 71
    38
 72
    26
 73
    21
  0
VERTEX
  5
BF2
  8
0
 62
   123
 10
0.0
 20
0.0
 30
0.0
 70
   128
 71
    35
 72
    39
 73
    33
  0
VERTEX
  5
BF3
  8
0
 62
   123
 10
0.0
 20
0.0
 30
0.0
 70
   128
 71
    40
 72
    33
 73
    39
  0
VERTEX
  5
BF4
  8
0
 62
   123
 10
0.0
 20
0.0
 30
0.0
 70
   128
 71
     3
 72
    41
 73
     2
  0
VERTEX
  5
BF5
  8
0
 62
   123
 10
0.0
 20
0.0
 30
0.0
 70
   128
 71
    42
 72
     3
 73
    25
  0
VERTEX
  5
BF6
  8
0
 62
   123
 10
0.0
 20
0.0
 30
0.0
 70
   128
 71
    42
 72
    41
 73
     3
  0
VERTEX
  5
BF7
  8
0
 62
   123
 10
0.0
 20
0.0
 30
0.0
 70
   128
 71
    41
 72
    35
 73
    29
  0
VERTEX
  5
BF8
  8
0
 62
   123
 10
0.0
 20
0.0
 30
0.0
 70
   128
 71
    30
 72
    25
 73
     3
  0
VERTEX
  5
BF9
  8
0
 62
   123
 10
0.0
 20
0.0
 30
0.0
 70
   128
 71
    26
 72
    38
 73
    37
  0
VERTEX
  5
BFA
  8
0
 62
   123
 10
0.0
 20
0.0
 30
0.0
 70
   128
 71
    33
 72
    40
 73
    37
  0
VERTEX
  5
BFB
  8
0
 62
   123
 10
0.0
 20
0.0
 30
0.0
 70
   128
 71
    26
 72
    40
 73
    25
  0
VERTEX
  5
BFC
  8
0
 62
   123
 10
0.0
 20
0.0
 30
0.0
 70
   128
 71
    40
 72
    26
 73
    37
  0
VERTEX
  5
BFD
  8
0
 62
   123
 10
0.0
 20
0.0
 30
0.0
 70
   128
 71
    42
 72
    25
 73
    40
  0
VERTEX
  5
BFE
  8
0
 62
   123
 10
0.0
 20
0.0
 30
0.0
 70
   128
 71
     2
 72
    41
 73
    29
  0
VERTEX
  5
BFF
  8
0
 62
   123
 10
0.0
 20
0.0
 30
0.0
 70
   128
 71
    41
 72
    39
 73
    35
  0
VERTEX
  5
C00
  8
0
 62
   123
 10
0.0
 20
0.0
 30
0.0
 70
   128
 71
    45
 72
    44
 73
    43
  0
VERTEX
  5
C01
  8
0
 62
   123
 10
0.0
 20
0.0
 30
0.0
 70
   128
 71
    43
 72
    47
 73
    46
  0
VERTEX
  5
C02
  8
0
 62
   123
 10
0.0
 20
0.0
 30
0.0
 70
   128
 71
    44
 72
    49
 73
    48
  0
VERTEX
  5
C03
  8
0
 62
   123
 10
0.0
 20
0.0
 30
0.0
 70
   128
 71
    44
 72
    47
 73
    43
  0
VERTEX
  5
C04
  8
0
 62
   123
 10
0.0
 20
0.0
 30
0.0
 70
   128
 71
    50
 72
    46
 73
    49
  0
VERTEX
  5
C05
  8
0
 62
   123
 10
0.0
 20
0.0
 30
0.0
 70
   128
 71
    46
 72
    50
 73
    43
  0
VERTEX
  5
C06
  8
0
 62
   123
 10
0.0
 20
0.0
 30
0.0
 70
   128
 71
    46
 72
    48
 73
    49
  0
VERTEX
  5
C07
  8
0
 62
   123
 10
0.0
 20
0.0
 30
0.0
 70
   128
 71
    44
 72
    45
 73
    49
  0
VERTEX
  5
C08
  8
0
 62
   123
 10
0.0
 20
0.0
 30
0.0
 70
   128
 71
    51
 72
    14
 73
    49
  0
VERTEX
  5
C09
  8
0
 62
   123
 10
0.0
 20
0.0
 30
0.0
 70
   128
 71
    10
 72
    50
 73
     9
  0
VERTEX
  5
C0A
  8
0
 62
   123
 10
0.0
 20
0.0
 30
0.0
 70
   128
 71
    50
 72
    12
 73
     9
  0
VERTEX
  5
C0B
  8
0
 62
   123
 10
0.0
 20
0.0
 30
0.0
 70
   128
 71
    49
 72
     6
 73
    12
  0
VERTEX
  5
C0C
  8
0
 62
   123
 10
0.0
 20
0.0
 30
0.0
 70
   128
 71
    14
 72
     6
 73
    49
  0
VERTEX
  5
C0D
  8
0
 62
   123
 10
0.0
 20
0.0
 30
0.0
 70
   128
 71
    49
 72
    12
 73
    50
  0
VERTEX
  5
C0E
  8
0
 62
   123
 10
0.0
 20
0.0
 30
0.0
 70
   128
 71
    51
 72
    20
 73
    18
  0
VERTEX
  5
C0F
  8
0
 62
   123
 10
0.0
 20
0.0
 30
0.0
 70
   128
 71
    10
 72
    52
 73
    50
  0
VERTEX
  5
C10
  8
0
 62
   123
 10
0.0
 20
0.0
 30
0.0
 70
   128
 71
    52
 72
    15
 73
    20
  0
VERTEX
  5
C11
  8
0
 62
   123
 10
0.0
 20
0.0
 30
0.0
 70
   128
 71
    10
 72
    15
 73
    52
  0
VERTEX
  5
C12
  8
0
 62
   123
 10
0.0
 20
0.0
 30
0.0
 70
   128
 71
    52
 72
    20
 73
    51
  0
VERTEX
  5
C13
  8
0
 62
   123
 10
0.0
 20
0.0
 30
0.0
 70
   128
 71
    51
 72
    18
 73
    14
  0
VERTEX
  5
C14
  8
0
 62
   123
 10
0.0
 20
0.0
 30
0.0
 70
   128
 71
    50
 72
    52
 73
    53
  0
VERTEX
  5
C15
  8
0
 62
   123
 10
0.0
 20
0.0
 30
0.0
 70
   128
 71
    43
 72
    50
 73
    53
  0
VERTEX
  5
C16
  8
0
 62
   123
 10
0.0
 20
0.0
 30
0.0
 70
   128
 71
    45
 72
    43
 73
    53
  0
VERTEX
  5
C17
  8
0
 62
   123
 10
0.0
 20
0.0
 30
0.0
 70
   128
 71
    53
 72
    54
 73
    45
  0
VERTEX
  5
C18
  8
0
 62
   123
 10
0.0
 20
0.0
 30
0.0
 70
   128
 71
    45
 72
    54
 73
    51
  0
VERTEX
  5
C19
  8
0
 62
   123
 10
0.0
 20
0.0
 30
0.0
 70
   128
 71
    49
 72
    45
 73
    51
  0
VERTEX
  5
C1A
  8
0
 62
   123
 10
0.0
 20
0.0
 30
0.0
 70
   128
 71
    36
 72
     4
 73
    51
  0
VERTEX
  5
C1B
  8
0
 62
   123
 10
0.0
 20
0.0
 30
0.0
 70
   128
 71
    52
 72
    51
 73
     4
  0
VERTEX
  5
C1C
  8
0
 62
   123
 10
0.0
 20
0.0
 30
0.0
 70
   128
 71
    54
 72
    34
 73
    51
  0
VERTEX
  5
C1D
  8
0
 62
   123
 10
0.0
 20
0.0
 30
0.0
 70
   128
 71
    53
 72
    34
 73
    54
  0
VERTEX
  5
C1E
  8
0
 62
   123
 10
0.0
 20
0.0
 30
0.0
 70
   128
 71
    34
 72
    36
 73
    51
  0
VERTEX
  5
C1F
  8
0
 62
   123
 10
0.0
 20
0.0
 30
0.0
 70
   128
 71
    52
 72
     4
 73
    53
  0
VERTEX
  5
C20
  8
0
 62
   123
 10
0.0
 20
0.0
 30
0.0
 70
   128
 71
    53
 72
     1
 73
    34
  0
VERTEX
  5
C21
  8
0
 62
   123
 10
0.0
 20
0.0
 30
0.0
 70
   128
 71
     4
 72
     1
 73
    53
  0
SEQEND
  5
C22
  8
0
 62
   123
  0
ENDBLK
  5
C25
  8
0
  0
ENDSEC
  0
SECTION
  2
ENTITIES
  0
INSERT
  5
358
  8
LAYER_1
  2
5700-04
 10
0.0
 20
0.0
 30
0.0
  0
INSERT
  5
5C5
  8
LAYER_1
  2
5700-01
 10
0.0
 20
0.0
 30
0.0
  0
INSERT
  5
765
  8
LAYER_1
  2
5700-08
 10
0.0
 20
0.0
 30
0.0
  0
INSERT
  5
7AB
  8
LAYER_1
  2
5700-05
 10
0.0
 20
0.0
 30
0.0
  0
INSERT
  5
B53
  8
LAYER_1
  2
5751-02
 10
0.0
 20
0.0
 30
0.0
  0
INSERT
  5
B81
  8
LAYER_1
  2
5751-01
 10
0.0
 20
0.0
 30
0.0
  0
INSERT
  5
C23
  8
LAYER_1
  2
5700-02
 10
0.0
 20
0.0
 30
0.0
  0
ENDSEC
  0
EOF
