  0
SECTION
  2
HEADER
  9
$ACADVER
  1
AC1015
  9
$ACADMAINTVER
 70
     6
  9
$DWGCODEPAGE
  3
ANSI_1252
  9
$INSBASE
 10
0.0
 20
0.0
 30
0.0
  9
$EXTMIN
 10
0.0
 20
0.0
 30
0.0
  9
$EXTMAX
 10
1682.0
 20
2378.0
 30
0.0
  9
$LIMMIN
 10
0.0
 20
0.0
  9
$LIMMAX
 10
1682.0
 20
2378.0
  9
$ORTHOMODE
 70
     0
  9
$REGENMODE
 70
     1
  9
$FILLMODE
 70
     1
  9
$QTEXTMODE
 70
     0
  9
$MIRRTEXT
 70
     1
  9
$LTSCALE
 40
1.0
  9
$ATTMODE
 70
     1
  9
$TEXTSIZE
 40
2.5
  9
$TRACEWID
 40
1.0
  9
$TEXTSTYLE
  7
Standard
  9
$CLAYER
  8
0
  9
$CELTYPE
  6
ByLayer
  9
$CECOLOR
 62
   256
  9
$CELTSCALE
 40
1.0
  9
$DISPSILH
 70
     0
  9
$DIMSCALE
 40
1.0
  9
$DIMASZ
 40
2.5
  9
$DIMEXO
 40
0.625
  9
$DIMDLI
 40
3.75
  9
$DIMRND
 40
0.0
  9
$DIMDLE
 40
0.0
  9
$DIMEXE
 40
1.25
  9
$DIMTP
 40
0.0
  9
$DIMTM
 40
0.0
  9
$DIMTXT
 40
2.5
  9
$DIMCEN
 40
2.5
  9
$DIMTSZ
 40
0.0
  9
$DIMTOL
 70
     0
  9
$DIMLIM
 70
     0
  9
$DIMTIH
 70
     0
  9
$DIMTOH
 70
     0
  9
$DIMSE1
 70
     0
  9
$DIMSE2
 70
     0
  9
$DIMTAD
 70
     1
  9
$DIMZIN
 70
     8
  9
$DIMBLK
  1

  9
$DIMASO
 70
     1
  9
$DIMSHO
 70
     1
  9
$DIMPOST
  1

  9
$DIMAPOST
  1

  9
$DIMALT
 70
     0
  9
$DIMALTD
 70
     3
  9
$DIMALTF
 40
0.0393700787
  9
$DIMLFAC
 40
1.0
  9
$DIMTOFL
 70
     1
  9
$DIMTVP
 40
0.0
  9
$DIMTIX
 70
     0
  9
$DIMSOXD
 70
     0
  9
$DIMSAH
 70
     0
  9
$DIMBLK1
  1

  9
$DIMBLK2
  1

  9
$DIMSTYLE
  2
ISO-25
  9
$DIMCLRD
 70
     0
  9
$DIMCLRE
 70
     0
  9
$DIMCLRT
 70
     0
  9
$DIMTFAC
 40
1.0
  9
$DIMGAP
 40
0.625
  9
$DIMJUST
 70
     0
  9
$DIMSD1
 70
     0
  9
$DIMSD2
 70
     0
  9
$DIMTOLJ
 70
     0
  9
$DIMTZIN
 70
     8
  9
$DIMALTZ
 70
     0
  9
$DIMALTTZ
 70
     0
  9
$DIMUPT
 70
     0
  9
$DIMDEC
 70
     2
  9
$DIMTDEC
 70
     2
  9
$DIMALTU
 70
     2
  9
$DIMALTTD
 70
     3
  9
$DIMTXSTY
  7
Standard
  9
$DIMAUNIT
 70
     0
  9
$DIMADEC
 70
     0
  9
$DIMALTRND
 40
0.0
  9
$DIMAZIN
 70
     0
  9
$DIMDSEP
 70
    44
  9
$DIMATFIT
 70
     3
  9
$DIMFRAC
 70
     0
  9
$DIMLDRBLK
  1

  9
$DIMLUNIT
 70
     2
  9
$DIMLWD
 70
    -2
  9
$DIMLWE
 70
    -2
  9
$DIMTMOVE
 70
     0
  9
$LUNITS
 70
     2
  9
$LUPREC
 70
     4
  9
$SKETCHINC
 40
1.0
  9
$FILLETRAD
 40
10.0
  9
$AUNITS
 70
     0
  9
$AUPREC
 70
     0
  9
$MENU
  1
.
  9
$ELEVATION
 40
0.0
  9
$PELEVATION
 40
0.0
  9
$THICKNESS
 40
0.0
  9
$LIMCHECK
 70
     0
  9
$CHAMFERA
 40
10.0
  9
$CHAMFERB
 40
10.0
  9
$CHAMFERC
 40
20.0
  9
$CHAMFERD
 40
0.0
  9
$SKPOLY
 70
     0
  9
$TDCREATE
 40
2455946.472240278
  9
$TDUCREATE
 40
2455946.430573611
  9
$TDUPDATE
 40
2455946.472240289
  9
$TDUUPDATE
 40
2455946.430573623
  9
$TDINDWG
 40
0.0000000116
  9
$TDUSRTIMER
 40
0.0000000116
  9
$USRTIMER
 70
     1
  9
$ANGBASE
 50
0.0
  9
$ANGDIR
 70
     0
  9
$PDMODE
 70
     0
  9
$PDSIZE
 40
0.0
  9
$PLINEWID
 40
0.0
  9
$SPLFRAME
 70
     0
  9
$SPLINETYPE
 70
     6
  9
$SPLINESEGS
 70
     8
  9
$HANDSEED
  5
236
  9
$SURFTAB1
 70
     6
  9
$SURFTAB2
 70
     6
  9
$SURFTYPE
 70
     6
  9
$SURFU
 70
     6
  9
$SURFV
 70
     6
  9
$UCSBASE
  2

  9
$UCSNAME
  2

  9
$UCSORG
 10
0.0
 20
0.0
 30
0.0
  9
$UCSXDIR
 10
1.0
 20
0.0
 30
0.0
  9
$UCSYDIR
 10
0.0
 20
1.0
 30
0.0
  9
$UCSORTHOREF
  2

  9
$UCSORTHOVIEW
 70
     0
  9
$UCSORGTOP
 10
0.0
 20
0.0
 30
0.0
  9
$UCSORGBOTTOM
 10
0.0
 20
0.0
 30
0.0
  9
$UCSORGLEFT
 10
0.0
 20
0.0
 30
0.0
  9
$UCSORGRIGHT
 10
0.0
 20
0.0
 30
0.0
  9
$UCSORGFRONT
 10
0.0
 20
0.0
 30
0.0
  9
$UCSORGBACK
 10
0.0
 20
0.0
 30
0.0
  9
$PUCSBASE
  2

  9
$PUCSNAME
  2

  9
$PUCSORG
 10
0.0
 20
0.0
 30
0.0
  9
$PUCSXDIR
 10
1.0
 20
0.0
 30
0.0
  9
$PUCSYDIR
 10
0.0
 20
1.0
 30
0.0
  9
$PUCSORTHOREF
  2

  9
$PUCSORTHOVIEW
 70
     0
  9
$PUCSORGTOP
 10
0.0
 20
0.0
 30
0.0
  9
$PUCSORGBOTTOM
 10
0.0
 20
0.0
 30
0.0
  9
$PUCSORGLEFT
 10
0.0
 20
0.0
 30
0.0
  9
$PUCSORGRIGHT
 10
0.0
 20
0.0
 30
0.0
  9
$PUCSORGFRONT
 10
0.0
 20
0.0
 30
0.0
  9
$PUCSORGBACK
 10
0.0
 20
0.0
 30
0.0
  9
$USERI1
 70
     0
  9
$USERI2
 70
     0
  9
$USERI3
 70
     0
  9
$USERI4
 70
     0
  9
$USERI5
 70
     0
  9
$USERR1
 40
0.0
  9
$USERR2
 40
0.0
  9
$USERR3
 40
0.0
  9
$USERR4
 40
0.0
  9
$USERR5
 40
0.0
  9
$WORLDVIEW
 70
     1
  9
$SHADEDGE
 70
     3
  9
$SHADEDIF
 70
    70
  9
$TILEMODE
 70
     1
  9
$MAXACTVP
 70
    64
  9
$PINSBASE
 10
0.0
 20
0.0
 30
0.0
  9
$PLIMCHECK
 70
     0
  9
$PEXTMIN
 10
0.0
 20
0.0
 30
0.0
  9
$PEXTMAX
 10
1682.0
 20
2378.0
 30
0.0
  9
$PLIMMIN
 10
0.0
 20
0.0
  9
$PLIMMAX
 10
1682.0
 20
2378.0
  9
$UNITMODE
 70
     0
  9
$VISRETAIN
 70
     1
  9
$PLINEGEN
 70
     0
  9
$PSLTSCALE
 70
     1
  9
$TREEDEPTH
 70
  3020
  9
$CMLSTYLE
  2
Standard
  9
$CMLJUST
 70
     0
  9
$CMLSCALE
 40
20.0
  9
$PROXYGRAPHICS
 70
     1
  9
$MEASUREMENT
 70
     1
  9
$CELWEIGHT
370
    -1
  9
$ENDCAPS
280
     0
  9
$JOINSTYLE
280
     0
  9
$LWDISPLAY
290
     0
  9
$INSUNITS
 70
     4
  9
$HYPERLINKBASE
  1

  9
$STYLESHEET
  1

  9
$XEDIT
290
     1
  9
$CEPSNTYPE
380
     0
  9
$PSTYLEMODE
290
     1
  9
$FINGERPRINTGUID
  2
{998DB980-011C-4E38-B421-99FB8ED3AB1C}
  9
$VERSIONGUID
  2
{FAEB1C32-E019-11D5-929B-00C0DF256EC4}
  9
$EXTNAMES
290
     1
  9
$PSVPSCALE
 40
0.0
  9
$OLESTARTUP
290
     0
  0
ENDSEC
  0
SECTION
  2
CLASSES
  0
CLASS
  1
ACDBDICTIONARYWDFLT
  2
AcDbDictionaryWithDefault
  3
ObjectDBX Classes
 90
        0
280
     0
281
     0
  0
CLASS
  1
VISUALSTYLE
  2
AcDbVisualStyle
  3
ObjectDBX Classes
 90
     4095
280
     0
281
     0
  0
CLASS
  1
SCALE
  2
AcDbScale
  3
ObjectDBX Classes
 90
     1153
280
     0
281
     0
  0
CLASS
  1
DICTIONARYVAR
  2
AcDbDictionaryVar
  3
ObjectDBX Classes
 90
        0
280
     0
281
     0
  0
CLASS
  1
ACDBPLACEHOLDER
  2
AcDbPlaceHolder
  3
ObjectDBX Classes
 90
        0
280
     0
281
     0
  0
CLASS
  1
LAYOUT
  2
AcDbLayout
  3
ObjectDBX Classes
 90
        0
280
     0
281
     0
  0
ENDSEC
  0
SECTION
  2
TABLES
  0
TABLE
  2
VPORT
  5
8
330
0
100
AcDbSymbolTable
 70
     1
  0
VPORT
  5
29
330
8
100
AcDbSymbolTableRecord
100
AcDbViewportTableRecord
  2
*Active
 70
     0
 10
0.0
 20
0.0
 11
1.0
 21
1.0
 12
344.1869158879
 22
148.5
 13
0.0
 23
0.0
 14
10.0
 24
10.0
 15
10.0
 25
10.0
 16
0.0
 26
0.0
 36
1.0
 17
0.0
 27
0.0
 37
0.0
 40
297.0
 41
1.9729729729
 42
50.0
 43
0.0
 44
0.0
 50
0.0
 51
0.0
 71
     0
 72
   100
 73
     1
 74
     3
 75
     0
 76
     0
 77
     0
 78
     0
281
     0
 65
     1
110
0.0
120
0.0
130
0.0
111
1.0
121
0.0
131
0.0
112
0.0
122
1.0
132
0.0
 79
     0
146
0.0
  0
ENDTAB
  0
TABLE
  2
LTYPE
  5
5
330
0
100
AcDbSymbolTable
 70
     2
  0
LTYPE
  5
14
330
5
100
AcDbSymbolTableRecord
100
AcDbLinetypeTableRecord
  2
ByBlock
 70
     0
  3

 72
    65
 73
     0
 40
0.0
  0
LTYPE
  5
15
330
5
100
AcDbSymbolTableRecord
100
AcDbLinetypeTableRecord
  2
ByLayer
 70
     0
  3

 72
    65
 73
     0
 40
0.0
  0
LTYPE
  5
16
330
5
100
AcDbSymbolTableRecord
100
AcDbLinetypeTableRecord
  2
Continuous
 70
     0
  3
Solid line
 72
    65
 73
     0
 40
0.0
  0
LTYPE
  5
61
330
5
100
AcDbSymbolTableRecord
100
AcDbLinetypeTableRecord
  2
CENTER2
 70
     0
  3
Center (.5x) ___ _ ___ _ ___ _ ___ _ ___ _ ___
 72
    65
 73
     4
 40
28.575
 49
19.05
 74
     4
 75
     0
340
0
 46
0.0
 50
0.0
 44
0.0
 45
0.0
 49
-3.175
 74
     4
 75
     0
340
0
 46
0.0
 50
0.0
 44
0.0
 45
0.0
 49
3.175
 74
     4
 75
     0
340
0
 46
0.0
 50
0.0
 44
0.0
 45
0.0
 49
-3.175
 74
     4
 75
     0
340
0
 46
0.0
 50
0.0
 44
0.0
 45
0.0
  0
ENDTAB
  0
TABLE
  2
LAYER
  5
2
330
0
100
AcDbSymbolTable
 70
    10
  0
LAYER
  5
10
330
2
100
AcDbSymbolTableRecord
100
AcDbLayerTableRecord
  2
0
 70
     0
 62
     7
  6
Continuous
370
    -3
390
F
  0
LAYER
  5
5D
330
2
100
AcDbSymbolTableRecord
100
AcDbLayerTableRecord
  2
Default
 70
     0
 62
     7
  6
Continuous
370
    -3
390
F
  0
LAYER
  5
78
330
2
100
AcDbSymbolTableRecord
100
AcDbLayerTableRecord
  2
$DDT_AUDIT_GENERATED_(78)
 70
     0
 62
     7
  6
Continuous
370
    -3
390
F
  0
LAYER
  5
9B
330
2
100
AcDbSymbolTableRecord
100
AcDbLayerTableRecord
  2
$DDT_AUDIT_GENERATED_(9B)
 70
     0
 62
     7
  6
Continuous
370
    -3
390
F
  0
LAYER
  5
9F
330
2
100
AcDbSymbolTableRecord
100
AcDbLayerTableRecord
  2
$DDT_AUDIT_GENERATED_(9F)
 70
     0
 62
     7
  6
Continuous
370
    -3
390
F
  0
LAYER
  5
CA
330
2
100
AcDbSymbolTableRecord
100
AcDbLayerTableRecord
  2
02636038_GEHÄUSE
 70
     0
 62
     7
  6
Continuous
370
    -3
390
F
  0
LAYER
  5
E0
330
2
100
AcDbSymbolTableRecord
100
AcDbLayerTableRecord
  2
$DDT_AUDIT_GENERATED_(E0)
 70
     0
 62
     7
  6
Continuous
370
    -3
390
F
  0
LAYER
  5
198
330
2
100
AcDbSymbolTableRecord
100
AcDbLayerTableRecord
  2
$DDT_AUDIT_GENERATED_(198)
 70
     0
 62
     7
  6
Continuous
370
    -3
390
F
  0
LAYER
  5
19A
330
2
100
AcDbSymbolTableRecord
100
AcDbLayerTableRecord
  2
$DDT_AUDIT_GENERATED_(19A)
 70
     0
 62
     7
  6
Continuous
370
    -3
390
F
  0
LAYER
  5
1E7
330
2
100
AcDbSymbolTableRecord
100
AcDbLayerTableRecord
  2
$DDT_AUDIT_GENERATED_(1E7)
 70
     0
 62
     7
  6
Continuous
370
    -3
390
F
  0
ENDTAB
  0
TABLE
  2
STYLE
  5
3
330
0
100
AcDbSymbolTable
 70
     2
  0
STYLE
  5
11
330
3
100
AcDbSymbolTableRecord
100
AcDbTextStyleTableRecord
  2
Standard
 70
     0
 40
0.0
 41
1.0
 50
0.0
 71
     0
 42
2.5
  3
txt
  4

  0
STYLE
  5
225
330
3
100
AcDbSymbolTableRecord
100
AcDbTextStyleTableRecord
  2
SEACAD_seiso_ttf
 70
     0
 40
0.0
 41
1.0
 50
0.0
 71
     0
 42
0.2
  3
seiso.ttf
  4

  0
ENDTAB
  0
TABLE
  2
VIEW
  5
6
330
0
100
AcDbSymbolTable
 70
     0
  0
ENDTAB
  0
TABLE
  2
UCS
  5
7
330
0
100
AcDbSymbolTable
 70
     0
  0
ENDTAB
  0
TABLE
  2
APPID
  5
9
330
0
100
AcDbSymbolTable
 70
     1
  0
APPID
  5
12
330
9
100
AcDbSymbolTableRecord
100
AcDbRegAppTableRecord
  2
ACAD
 70
     0
  0
ENDTAB
  0
TABLE
  2
DIMSTYLE
  5
A
330
0
100
AcDbSymbolTable
 70
     1
100
AcDbDimStyleTable
  0
DIMSTYLE
105
27
330
A
100
AcDbSymbolTableRecord
100
AcDbDimStyleTableRecord
  2
ISO-25
 70
     0
 41
2.5
 42
0.625
 43
3.75
 44
1.25
 73
     0
 74
     0
 77
     1
 78
     8
140
2.5
141
2.5
143
0.0393700787
147
0.625
171
     3
172
     1
271
     2
272
     2
274
     3
278
    44
283
     0
284
     8
340
11
  0
ENDTAB
  0
TABLE
  2
BLOCK_RECORD
  5
1
330
0
100
AcDbSymbolTable
 70
     7
  0
BLOCK_RECORD
  5
1F
330
1
100
AcDbSymbolTableRecord
100
AcDbBlockTableRecord
  2
*Model_Space
340
22
  0
BLOCK_RECORD
  5
1B
330
1
100
AcDbSymbolTableRecord
100
AcDbBlockTableRecord
  2
*Paper_Space
340
1E
  0
BLOCK_RECORD
  5
5F
330
1
100
AcDbSymbolTableRecord
100
AcDbBlockTableRecord
  2
SEANNOT_GROUP
340
0
102
{BLKREFS
331
60
102
}
  0
BLOCK_RECORD
  5
6A
330
1
100
AcDbSymbolTableRecord
100
AcDbBlockTableRecord
  2
SEANNOT_GROUP1
340
0
102
{BLKREFS
331
6B
102
}
  0
BLOCK_RECORD
  5
70
330
1
100
AcDbSymbolTableRecord
100
AcDbBlockTableRecord
  2
SEANNOT_GROUP2
340
0
102
{BLKREFS
331
71
102
}
  0
BLOCK_RECORD
  5
76
330
1
100
AcDbSymbolTableRecord
100
AcDbBlockTableRecord
  2
SE
340
0
102
{BLKREFS
331
77
102
}
  0
BLOCK_RECORD
  5
1A3
330
1
100
AcDbSymbolTableRecord
100
AcDbBlockTableRecord
  2
SE1
340
0
102
{BLKREFS
331
1A4
102
}
  0
BLOCK_RECORD
  5
1F7
330
1
100
AcDbSymbolTableRecord
100
AcDbBlockTableRecord
  2
SE2
340
0
102
{BLKREFS
331
1F8
102
}
  0
ENDTAB
  0
ENDSEC
  0
SECTION
  2
BLOCKS
  0
BLOCK
  5
20
330
1F
100
AcDbEntity
  8
0
100
AcDbBlockBegin
  2
*Model_Space
 70
     0
 10
0.0
 20
0.0
 30
0.0
  3
*Model_Space
  1

  0
ENDBLK
  5
21
330
1F
100
AcDbEntity
  8
0
100
AcDbBlockEnd
  0
BLOCK
  5
1C
330
1B
100
AcDbEntity
 67
     1
  8
0
100
AcDbBlockBegin
  2
*Paper_Space
 70
     0
 10
0.0
 20
0.0
 30
0.0
  3
*Paper_Space
  1

  0
ENDBLK
  5
1D
330
1B
100
AcDbEntity
 67
     1
  8
0
100
AcDbBlockEnd
  0
BLOCK
  5
68
330
5F
100
AcDbEntity
  8
0
100
AcDbBlockBegin
  2
SEANNOT_GROUP
 70
     0
 10
0.0
 20
0.0
 30
0.0
  3
SEANNOT_GROUP
  1

  0
LINE
  5
62
330
5F
100
AcDbEntity
  8
Default
  6
CENTER2
 62
     7
100
AcDbLine
 10
113.0870800077
 20
223.3853535646
 30
0.0
 11
73.0870809018
 21
223.3853535646
 31
0.0
  0
LINE
  5
63
330
5F
100
AcDbEntity
  8
Default
  6
CENTER2
 62
     7
100
AcDbLine
 10
93.0870804548
 20
243.3853531175
 30
0.0
 11
93.0870804548
 21
203.3853540116
 31
0.0
  0
LINE
  5
64
330
5F
100
AcDbEntity
  8
Default
  6
CENTER2
 62
     7
100
AcDbLine
 10
118.087079896
 20
223.3853535646
 30
0.0
 11
118.0966149281
 21
223.3853535646
 31
0.0
  0
LINE
  5
65
330
5F
100
AcDbEntity
  8
Default
  6
CENTER2
 62
     7
100
AcDbLine
 10
93.0870804548
 20
248.3853530058
 30
0.0
 11
93.0870804548
 21
248.3948880379
 31
0.0
  0
LINE
  5
66
330
5F
100
AcDbEntity
  8
Default
  6
CENTER2
 62
     7
100
AcDbLine
 10
68.0870810136
 20
223.3853535646
 30
0.0
 11
68.0775459815
 21
223.3853535646
 31
0.0
  0
LINE
  5
67
330
5F
100
AcDbEntity
  8
Default
  6
CENTER2
 62
     7
100
AcDbLine
 10
93.0870804548
 20
198.3853541234
 30
0.0
 11
93.0870804548
 21
198.3758190913
 31
0.0
  0
ENDBLK
  5
69
330
5F
100
AcDbEntity
  8
0
100
AcDbBlockEnd
  0
BLOCK
  5
6E
330
6A
100
AcDbEntity
  8
0
100
AcDbBlockBegin
  2
SEANNOT_GROUP1
 70
     0
 10
0.0
 20
0.0
 30
0.0
  3
SEANNOT_GROUP1
  1

  0
LINE
  5
6C
330
6A
100
AcDbEntity
  8
Default
  6
CENTER2
 62
     7
100
AcDbLine
 10
113.0782600936
 20
424.219394872
 30
0.0
 11
73.0782609877
 21
424.219394872
 31
0.0
  0
LINE
  5
6D
330
6A
100
AcDbEntity
  8
Default
  6
CENTER2
 62
     7
100
AcDbLine
 10
93.0782605406
 20
444.219394425
 30
0.0
 11
93.0782605406
 21
404.2193953191
 31
0.0
  0
ENDBLK
  5
6F
330
6A
100
AcDbEntity
  8
0
100
AcDbBlockEnd
  0
BLOCK
  5
74
330
70
100
AcDbEntity
  8
0
100
AcDbBlockBegin
  2
SEANNOT_GROUP2
 70
     0
 10
0.0
 20
0.0
 30
0.0
  3
SEANNOT_GROUP2
  1

  0
LINE
  5
72
330
70
100
AcDbEntity
  8
Default
  6
CENTER2
 62
     7
100
AcDbLine
 10
247.6151733743
 20
424.219394872
 30
0.0
 11
207.6151742683
 21
424.219394872
 31
0.0
  0
LINE
  5
73
330
70
100
AcDbEntity
  8
Default
  6
CENTER2
 62
     7
100
AcDbLine
 10
227.6151738213
 20
444.219394425
 30
0.0
 11
227.6151738213
 21
404.2193953191
 31
0.0
  0
ENDBLK
  5
75
330
70
100
AcDbEntity
  8
0
100
AcDbBlockEnd
  0
BLOCK
  5
1A1
330
76
100
AcDbEntity
  8
0
100
AcDbBlockBegin
  2
SE
 70
     0
 10
0.0
 20
0.0
 30
0.0
  3
SE
  1

  0
SPLINE
  5
79
330
76
100
AcDbEntity
  8
$DDT_AUDIT_GENERATED_(78)
  6
Continuous
 62
     7
100
AcDbSpline
210
0.0
220
0.0
230
1.0
 70
     8
 71
     3
 72
    21
 73
    17
 74
     0
 42
0.0000000001365968
 43
0.0000000001
 40
0.0
 40
0.0
 40
0.0
 40
0.0
 40
0.0121751285315901
 40
0.0234250888378468
 40
0.0339927006599427
 40
0.0509199760664117
 40
0.0677783349078325
 40
0.0849350166310213
 40
0.1017961403904197
 40
0.1353803615340733
 40
0.155887789782513
 40
0.1787116204782397
 40
0.2033253938468328
 40
0.2099189845268569
 40
0.2172920072870679
 40
0.2261933741922247
 40
0.2261933741922247
 40
0.2261933741922247
 40
0.2261933741922247
 10
93.0782605406491
 20
525.5357152073716
 30
0.0
 10
92.63931586169157
 20
525.5373164829656
 30
0.0
 10
91.7947857122721
 20
525.540397355804
 30
0.0
 10
90.57747896810895
 20
525.5666753099151
 30
0.0
 10
89.20638631407392
 20
525.6173594656839
 30
0.0
 10
87.67290069006114
 20
525.6805949895778
 30
0.0
 10
85.97656581416348
 20
525.7828132440981
 30
0.0
 10
84.38099653692804
 20
525.9551167898834
 30
0.0
 10
82.41253591835857
 20
526.2923942831587
 30
0.0
 10
80.60295874276959
 20
526.5708704353929
 30
0.0
 10
79.02870803093093
 20
526.8938242761312
 30
0.0
 10
77.9341145576253
 20
527.1760657222818
 30
0.0
 10
77.3017104880394
 20
527.4124556920368
 30
0.0
 10
77.04323367477109
 20
527.6236666011569
 30
0.0
 10
76.95247677388812
 20
527.7206615424519
 30
0.0
 10
76.91920785374143
 20
527.8019665446426
 30
0.0
 10
76.90511695206483
 20
527.8519886805234
 30
0.0
  0
SPLINE
  5
7A
330
76
100
AcDbEntity
  8
$DDT_AUDIT_GENERATED_(78)
  6
Continuous
 62
     7
100
AcDbSpline
210
0.0
220
0.0
230
1.0
 70
     8
 71
     3
 72
     9
 73
     5
 74
     0
 42
0.0000000005252458
 43
0.0000000001
 40
0.2265991623214531
 40
0.2265991623214531
 40
0.2265991623214531
 40
0.2265991623214531
 40
0.2281852506122312
 40
0.236463570425591
 40
0.236463570425591
 40
0.236463570425591
 40
0.236463570425591
 10
76.9032149577451
 20
527.8588645752604
 30
0.0
 10
76.90076892498935
 20
527.8678686512468
 30
0.0
 10
76.8863195788721
 20
527.9249811925481
 30
0.0
 10
76.8754658214739
 20
527.9894283784342
 30
0.0
 10
76.86723040105437
 20
528.0430075518015
 30
0.0
  0
ARC
  5
7B
330
76
100
AcDbEntity
  8
$DDT_AUDIT_GENERATED_(78)
  6
Continuous
 62
     7
100
AcDbCircle
 10
77.7651836955
 20
533.9652711833
 30
0.0
 40
1.360604228441318
100
AcDbArc
 50
179.7071205495
 51
199.0805161361
  0
SPLINE
  5
7C
330
76
100
AcDbEntity
  8
$DDT_AUDIT_GENERATED_(78)
  6
Continuous
 62
     7
100
AcDbSpline
210
0.0
220
0.0
230
1.0
 70
     8
 71
     3
 72
    21
 73
    17
 74
     0
 42
0.0000000001368873
 43
0.0000000001
 40
0.7732249940622133
 40
0.7732249940622133
 40
0.7732249940622133
 40
0.7732249940622133
 40
0.7778052431393669
 40
0.7820906069612292
 40
0.7864063333013983
 40
0.7951813538426546
 40
0.8197603384073401
 40
0.8427608888467542
 40
0.8636604898606275
 40
0.8973782055395445
 40
0.9143440267116717
 40
0.9316397171802204
 40
0.9486976122531836
 40
0.965802035165781
 40
0.9819874857583004
 40
1.0
 40
1.0
 40
1.0
 40
1.0
 10
109.253076770951
 20
527.8584410803506
 30
0.0
 10
109.2454897089208
 20
527.8300538158514
 30
0.0
 10
109.2290794447977
 20
527.7786907195232
 30
0.0
 10
109.2000368371274
 20
527.727030508329
 30
0.0
 10
109.144007937128
 20
527.6612167723453
 30
0.0
 10
108.9234100651408
 20
527.4443761581648
 30
0.0
 10
108.2861865933578
 20
527.1987132957297
 30
0.0
 10
107.200163437562
 20
526.9137678750109
 30
0.0
 10
105.6284815878002
 20
526.5806204883905
 30
0.0
 10
103.8137684121533
 20
526.3059225970333
 30
0.0
 10
101.8414638836432
 20
525.9643179353019
 30
0.0
 10
100.2362570255295
 20
525.7869812514691
 30
0.0
 10
98.52488372059757
 20
525.682286538067
 30
0.0
 10
96.78522146253228
 20
525.610405087881
 30
0.0
 10
94.96126840333808
 20
525.5451184364579
 30
0.0
 10
93.7278961465842
 20
525.5389593032158
 30
0.0
 10
93.0782605406491
 20
525.5357152073716
 30
0.0
  0
ARC
  5
7D
330
76
100
AcDbEntity
  8
$DDT_AUDIT_GENERATED_(78)
  6
Continuous
 62
     7
100
AcDbCircle
 10
108.3891903765
 20
533.9652921782
 30
0.0
 40
1.362710047812798
100
AcDbArc
 50
340.9637046728
 51
0.2987521751
  0
LINE
  5
7E
330
76
100
AcDbEntity
  8
$DDT_AUDIT_GENERATED_(78)
  6
Continuous
 62
     7
100
AcDbLine
 10
109.7519724844
 20
533.9720459059
 30
0.0
 11
109.7519801236
 21
540.2225920659
 31
0.0
  0
ARC
  5
7F
330
76
100
AcDbEntity
  8
$DDT_AUDIT_GENERATED_(78)
  6
Continuous
 62
     7
100
AcDbCircle
 10
75.6134239873
 20
506.2907452247
 30
0.0
 40
34.45604104253093
100
AcDbArc
 50
87.8994945155
 51
90.8113646207
  0
ARC
  5
80
330
76
100
AcDbEntity
  8
$DDT_AUDIT_GENERATED_(78)
  6
Continuous
 62
     7
100
AcDbCircle
 10
82.3335172776
 20
1599.0965757756
 30
0.0
 40
1058.388265449395
100
AcDbArc
 50
269.4448406744
 51
269.6097880563
  0
ARC
  5
81
330
76
100
AcDbEntity
  8
$DDT_AUDIT_GENERATED_(78)
  6
Continuous
 62
     7
100
AcDbCircle
 10
103.8224244222
 20
1595.6494604333
 30
0.0
 40
1054.941322425881
100
AcDbArc
 50
270.391518466
 51
270.5570025772
  0
ARC
  5
82
330
76
100
AcDbEntity
  8
$DDT_AUDIT_GENERATED_(78)
  6
Continuous
 62
     7
100
AcDbCircle
 10
110.7323959653
 20
490.0560395961
 30
0.0
 40
50.68817155210638
100
AcDbArc
 50
89.6624547627
 51
91.6511655544
  0
SPLINE
  5
83
330
76
100
AcDbEntity
  8
$DDT_AUDIT_GENERATED_(78)
  6
Continuous
 62
     7
100
AcDbSpline
210
0.0
220
0.0
230
1.0
 70
     8
 71
     3
 72
    30
 73
    26
 74
     0
 42
0.0000000004348719
 43
0.0000000001
 40
0.0
 40
0.0
 40
0.0
 40
0.0
 40
0.1250000000000001
 40
0.1250000000000001
 40
0.2500000000000001
 40
0.2500000000000001
 40
0.5000000000000001
 40
0.5000000000000001
 40
0.6250000000000001
 40
0.6250000000000001
 40
0.7500000000000001
 40
0.7500000000000001
 40
0.7812500000000001
 40
0.7812500000000001
 40
0.8125000000000001
 40
0.8125000000000001
 40
0.8437500000000003
 40
0.8437500000000003
 40
0.8750000000000003
 40
0.8750000000000003
 40
0.9375000000000001
 40
0.9375000000000001
 40
0.9687500000000001
 40
0.9687500000000001
 40
1.0
 40
1.0
 40
1.0
 40
1.0
 10
109.7519801235527
 20
540.2225920658926
 30
0.0
 10
109.7501681362206
 20
540.2023246592053
 30
0.0
 10
109.7460040879693
 20
540.1714619102991
 30
0.0
 10
109.7314290834055
 20
539.99885280443
 30
0.0
 10
109.7211209139291
 20
539.8487739034326
 30
0.0
 10
109.681922014356
 20
539.2511939382092
 30
0.0
 10
109.6454510641538
 20
538.6423317604143
 30
0.0
 10
109.5749699463088
 20
537.354379040441
 30
0.0
 10
109.548997290209
 20
536.8623826780198
 30
0.0
 10
109.4861715575553
 20
535.7413996305671
 30
0.0
 10
109.4648872089589
 20
535.1116027752215
 30
0.0
 10
109.3610308185051
 20
534.2319441776439
 30
0.0
 10
109.3516376382825
 20
534.0487840479129
 30
0.0
 10
109.1845228932376
 20
533.6901856679527
 30
0.0
 10
108.9039274589141
 20
533.5161816121205
 30
0.0
 10
108.1461030956881
 20
533.1639732754052
 30
0.0
 10
107.6642267390861
 20
532.9872542474351
 30
0.0
 10
106.5191482675753
 20
532.6498793404959
 30
0.0
 10
105.8557389370786
 20
532.4888514612236
 30
0.0
 10
103.5764386193942
 20
532.0338932420292
 30
0.0
 10
101.7305820488368
 20
531.7799408954045
 30
0.0
 10
98.62986295717695
 20
531.5140623792721
 30
0.0
 10
97.56241421053635
 20
531.4463093508837
 30
0.0
 10
95.36026841118985
 20
531.3540951777564
 30
0.0
 10
94.2189862374365
 20
531.3299380561741
 30
0.0
 10
93.07826054064908
 20
531.3299383250526
 30
0.0
  0
LINE
  5
84
330
76
100
AcDbEntity
  8
$DDT_AUDIT_GENERATED_(78)
  6
Continuous
 62
     7
100
AcDbLine
 10
76.4045409577
 20
540.2225920659
 30
0.0
 11
76.4045485969
 21
533.9720449655
 31
0.0
  0
SPLINE
  5
85
330
76
100
AcDbEntity
  8
$DDT_AUDIT_GENERATED_(78)
  6
Continuous
 62
     7
100
AcDbSpline
210
0.0
220
0.0
230
1.0
 70
     8
 71
     3
 72
    30
 73
    26
 74
     0
 42
0.0000000004348916
 43
0.0000000001
 40
0.0
 40
0.0
 40
0.0
 40
0.0
 40
0.0312500000000001
 40
0.0312500000000001
 40
0.0625000000000002
 40
0.0625000000000002
 40
0.1250000000000004
 40
0.1250000000000004
 40
0.1562500000000004
 40
0.1562500000000004
 40
0.1875000000000004
 40
0.1875000000000004
 40
0.2187500000000004
 40
0.2187500000000004
 40
0.2500000000000003
 40
0.2500000000000003
 40
0.3750000000000003
 40
0.3750000000000003
 40
0.5000000000000002
 40
0.5000000000000002
 40
0.7500000000000001
 40
0.7500000000000001
 40
0.8750000000000001
 40
0.8750000000000001
 40
1.0
 40
1.0
 40
1.0
 40
1.0
 10
93.07826054064908
 20
531.3299383250526
 30
0.0
 10
91.93280901294064
 20
531.3299380550602
 30
0.0
 10
90.8063936911677
 20
531.3537151246885
 30
0.0
 10
88.59025211397905
 20
531.4464262949139
 30
0.0
 10
87.49480356021535
 20
531.5163684029905
 30
0.0
 10
84.4058054694099
 20
531.7825356912284
 30
0.0
 10
82.53255211356512
 20
532.041660897636
 30
0.0
 10
80.27264575618639
 20
532.4953573253928
 30
0.0
 10
79.59724176920336
 20
532.6602231029977
 30
0.0
 10
78.4567712922493
 20
532.9993016891424
 30
0.0
 10
77.98499949062293
 20
533.1738087522803
 30
0.0
 10
77.23045443059581
 20
533.528577044631
 30
0.0
 10
76.95907795923362
 20
533.7043143337498
 30
0.0
 10
76.80478994991084
 20
534.0637520029527
 30
0.0
 10
76.79347340881432
 20
534.2462275651989
 30
0.0
 10
76.69155440113673
 20
535.1240549570003
 30
0.0
 10
76.66970980689884
 20
535.7523637517919
 30
0.0
 10
76.60708272113358
 20
536.8707106054868
 30
0.0
 10
76.58116311837458
 20
537.3615683989574
 30
0.0
 10
76.5108050210353
 20
538.6469743228963
 30
0.0
 10
76.47441739959714
 20
539.254087709022
 30
0.0
 10
76.43532499097661
 20
539.8498574141098
 30
0.0
 10
76.42504874464538
 20
539.9994180764445
 30
0.0
 10
76.41050891455431
 20
540.1715043664625
 30
0.0
 10
76.40635113616592
 20
540.2023448922104
 30
0.0
 10
76.40454095774545
 20
540.2225920658925
 30
0.0
  0
ARC
  5
86
330
76
100
AcDbEntity
  8
$DDT_AUDIT_GENERATED_(78)
  6
Continuous
 62
     7
100
AcDbCircle
 10
109.2519792864
 20
540.2225917996
 30
0.0
 40
0.4999959752236319
100
AcDbArc
 50
0.0000305139
 51
15.2204402574
  0
SPLINE
  5
87
330
76
100
AcDbEntity
  8
$DDT_AUDIT_GENERATED_(78)
  6
Continuous
 62
     7
100
AcDbSpline
210
0.0
220
0.0
230
1.0
 70
     8
 71
     3
 72
    32
 73
    28
 74
     0
 42
0.0000000001262685
 43
0.0000000001
 40
0.5002611817145147
 40
0.5002611817145147
 40
0.5002611817145147
 40
0.5002611817145147
 40
0.5312499999999999
 40
0.5312499999999999
 40
0.5624999999999999
 40
0.5624999999999999
 40
0.6249999999999999
 40
0.6249999999999999
 40
0.6562499999999999
 40
0.6562499999999999
 40
0.6874999999999999
 40
0.6874999999999999
 40
0.7187499999999999
 40
0.7187499999999999
 40
0.7499999999999999
 40
0.7499999999999999
 40
0.8125
 40
0.8125
 40
0.84375
 40
0.84375
 40
0.875
 40
0.875
 40
0.90625
 40
0.90625
 40
0.9375
 40
0.9375
 40
1.0
 40
1.0
 40
1.0
 40
1.0
 10
73.29039285173407
 20
540.7579959028992
 30
0.0
 10
73.29087663504032
 20
540.7570973872448
 30
0.0
 10
73.41459462950885
 20
540.7560065110993
 30
0.0
 10
73.9151953925791
 20
540.7532717317567
 30
0.0
 10
74.29420878614096
 20
540.7516298760165
 30
0.0
 10
75.76929753746117
 20
540.7458978093247
 30
0.0
 10
77.24182046164141
 20
540.7407716259079
 30
0.0
 10
79.9747871373248
 20
540.7322014193556
 30
0.0
 10
80.99094034936005
 20
540.7291645075154
 30
0.0
 10
83.14292116279513
 20
540.7233432583072
 30
0.0
 10
84.27875098256928
 20
540.720555344974
 30
0.0
 10
86.67005605710018
 20
540.7156908649226
 30
0.0
 10
87.92841080113244
 20
540.7136313429961
 30
0.0
 10
90.45737557650789
 20
540.7108434914558
 30
0.0
 10
91.74125030742954
 20
540.7100860015128
 30
0.0
 10
95.65300299771658
 20
540.7100484980314
 30
0.0
 10
98.22199808475435
 20
540.7131504635289
 30
0.0
 10
101.8251746373038
 20
540.7204330107262
 30
0.0
 10
102.9629685627924
 20
540.7232157325383
 30
0.0
 10
105.1141193603207
 20
540.7290163028051
 30
0.0
 10
106.1346412955987
 20
540.7320586947582
 30
0.0
 10
107.9652683819682
 20
540.7377896118659
 30
0.0
 10
108.7855527270584
 20
540.7405039478854
 30
0.0
 10
110.2331934384128
 20
540.7454763388233
 30
0.0
 10
110.852463891303
 20
540.7477110444647
 30
0.0
 10
112.3384691644996
 20
540.7534698400068
 30
0.0
 10
112.8650687392226
 20
540.7561612430814
 30
0.0
 10
112.8661278842873
 20
540.757995736146
 30
0.0
  0
SPLINE
  5
88
330
76
100
AcDbEntity
  8
$DDT_AUDIT_GENERATED_(78)
  6
Continuous
 62
     7
100
AcDbSpline
210
0.0
220
0.0
230
1.0
 70
     8
 71
     3
 72
     8
 73
     4
 74
     0
 42
0.0000000011460633
 43
0.0000000001
 40
0.4529815177669072
 40
0.4529815177669072
 40
0.4529815177669072
 40
0.4529815177669072
 40
0.4766792881191004
 40
0.4766792881191004
 40
0.4766792881191004
 40
0.4766792881191004
 10
80.06134925043897
 20
519.1456607596936
 30
0.0
 10
80.01340192296581
 20
519.208847095404
 30
0.0
 10
79.97776816873454
 20
519.2675362763619
 30
0.0
 10
79.95473603083887
 20
519.3216341487667
 30
0.0
  0
SPLINE
  5
89
330
76
100
AcDbEntity
  8
$DDT_AUDIT_GENERATED_(78)
  6
Continuous
 62
     7
100
AcDbSpline
210
0.0
220
0.0
230
1.0
 70
     8
 71
     3
 72
    20
 73
    16
 74
     0
 42
0.0000000003856246
 43
0.0000000001
 40
0.4766792881191004
 40
0.4766792881191004
 40
0.4766792881191004
 40
0.4766792881191004
 40
0.5000000000000011
 40
0.5000000000000011
 40
0.5625000000000013
 40
0.5625000000000013
 40
0.6250000000000014
 40
0.6250000000000014
 40
0.7500000000000017
 40
0.7500000000000017
 40
0.8125000000000014
 40
0.8125000000000014
 40
0.8750000000000011
 40
0.8750000000000011
 40
1.0
 40
1.0
 40
1.0
 40
1.0
 10
79.95473603083887
 20
519.3216341487667
 30
0.0
 10
79.93207036044528
 20
519.3748712625111
 30
0.0
 10
79.92160848457789
 20
519.4236620112262
 30
0.0
 10
79.92902898982524
 20
519.5865200683538
 30
0.0
 10
80.02278234941264
 20
519.6761543137524
 30
0.0
 10
80.37072083788561
 20
519.8389705634401
 30
0.0
 10
80.62350521096042
 20
519.9155008190977
 30
0.0
 10
81.62347531550573
 20
520.1734815828345
 30
0.0
 10
82.58373480290834
 20
520.3553891001553
 30
0.0
 10
84.40568700419792
 20
520.5322170782903
 30
0.0
 10
85.0649094329954
 20
520.576041174757
 30
0.0
 10
86.4859959275891
 20
520.6547657894242
 30
0.0
 10
87.25605337403078
 20
520.6903577206194
 30
0.0
 10
89.62985419258689
 20
520.794152938876
 30
0.0
 10
91.34515896447677
 20
520.8792771314061
 30
0.0
 10
93.07826053376353
 20
520.8792762679608
 30
0.0
  0
SPLINE
  5
8A
330
76
100
AcDbEntity
  8
$DDT_AUDIT_GENERATED_(78)
  6
Continuous
 62
     7
100
AcDbSpline
210
0.0
220
0.0
230
1.0
 70
     8
 71
     3
 72
     8
 73
     4
 74
     0
 42
0.0000000010082054
 43
0.0000000001
 40
0.4138163930267619
 40
0.4138163930267619
 40
0.4138163930267619
 40
0.4138163930267619
 40
0.4826296963833461
 40
0.4826296963833461
 40
0.4826296963833461
 40
0.4826296963833461
 10
104.8876545160383
 20
519.143773814124
 30
0.0
 10
105.1216838094438
 20
519.3486031792055
 30
0.0
 10
105.2645610082786
 20
519.5207335668284
 30
0.0
 10
105.311293866181
 20
519.6609762263928
 30
0.0
  0
SPLINE
  5
8B
330
76
100
AcDbEntity
  8
$DDT_AUDIT_GENERATED_(78)
  6
Continuous
 62
     7
100
AcDbSpline
210
0.0
220
0.0
230
1.0
 70
     8
 71
     3
 72
    10
 73
     6
 74
     0
 42
0.0000000010166174
 43
0.0000000001
 40
0.5177508838340217
 40
0.5177508838340217
 40
0.5177508838340217
 40
0.5177508838340217
 40
0.5624999999999997
 40
0.5624999999999997
 40
0.5878652929440737
 40
0.5878652929440737
 40
0.5878652929440737
 40
0.5878652929440737
 10
80.84426106413076
 20
519.663644885451
 30
0.0
 10
80.87364102339059
 20
519.5728283436516
 30
0.0
 10
80.94338761831044
 20
519.4686296008966
 30
0.0
 10
81.1145818580087
 20
519.2856047363965
 30
0.0
 10
81.18894303762126
 20
519.2145148768695
 30
0.0
 10
81.2758382112768
 20
519.1386394811256
 30
0.0
  0
SPLINE
  5
8C
330
76
100
AcDbEntity
  8
$DDT_AUDIT_GENERATED_(78)
  6
Continuous
 62
     7
100
AcDbSpline
210
0.0
220
0.0
230
1.0
 70
     8
 71
     3
 72
    18
 73
    14
 74
     0
 42
0.0000000003946273
 43
0.0000000001
 40
0.0
 40
0.0
 40
0.0
 40
0.0
 40
0.1249999999999993
 40
0.1249999999999993
 40
0.1874999999999989
 40
0.1874999999999989
 40
0.2499999999999986
 40
0.2499999999999986
 40
0.3749999999999987
 40
0.3749999999999987
 40
0.4999999999999988
 40
0.4999999999999988
 40
0.5449263929520701
 40
0.5449263929520701
 40
0.5449263929520701
 40
0.5449263929520701
 10
93.07826053376353
 20
520.8792762679608
 30
0.0
 10
94.81042534953015
 20
520.8792771315179
 30
0.0
 10
96.51085206604772
 20
520.7948062347831
 30
0.0
 10
98.89447031362621
 20
520.6906388980487
 30
0.0
 10
99.64706567948315
 20
520.6559053378141
 30
0.0
 10
101.0701357048608
 20
520.5773859474169
 30
0.0
 10
101.7445613309922
 20
520.5326320884383
 30
0.0
 10
103.5580734231635
 20
520.3572002756911
 30
0.0
 10
104.5319922481908
 20
520.1732873176479
 30
0.0
 10
105.851967658593
 20
519.8336755727224
 30
0.0
 10
106.2165928353719
 20
519.7077062814233
 30
0.0
 10
106.238338339685
 20
519.3890744025457
 30
0.0
 10
106.1988654837084
 20
519.2882992118388
 30
0.0
 10
106.1145401372405
 20
519.1714905988225
 30
0.0
  0
ARC
  5
8D
330
76
100
AcDbEntity
  8
$DDT_AUDIT_GENERATED_(78)
  6
Continuous
 62
     7
100
AcDbCircle
 10
102.4913090771
 20
532.2186718588
 30
0.0
 40
25.96284227584927
100
AcDbArc
 50
189.3027108712
 51
209.7860243693
  0
LINE
  5
8E
330
76
100
AcDbEntity
  8
$DDT_AUDIT_GENERATED_(78)
  6
Continuous
 62
     7
100
AcDbLine
 10
71.5782605406
 20
540.2579638908
 30
0.0
 11
71.5782605406
 21
430.2193948711
 31
0.0
  0
LINE
  5
8F
330
76
100
AcDbEntity
  8
$DDT_AUDIT_GENERATED_(78)
  6
Continuous
 62
     7
100
AcDbLine
 10
114.5782605406
 20
430.2193948711
 30
0.0
 11
114.5782605406
 21
540.2579873594
 31
0.0
  0
SPLINE
  5
90
330
76
100
AcDbEntity
  8
$DDT_AUDIT_GENERATED_(78)
  6
Continuous
 62
     7
100
AcDbSpline
210
0.0
220
0.0
230
1.0
 70
     8
 71
     3
 72
    22
 73
    18
 74
     0
 42
0.0000000010539921
 43
0.0000000001
 40
0.0
 40
0.0
 40
0.0
 40
0.0
 40
0.0406392438111114
 40
0.0962784238746084
 40
0.1597391721210842
 40
0.2296256866767015
 40
0.3006042343338794
 40
0.3810944134008533
 40
0.4625551522819383
 40
0.5471614121410885
 40
0.6365014757020093
 40
0.6855210943915581
 40
0.7391729557104035
 40
0.8025616162908189
 40
0.8760202948435851
 40
0.9597015000747833
 40
0.9791968232106134
 40
0.9791968232106134
 40
0.9791968232106134
 40
0.9791968232106134
 10
106.1027814781001
 20
519.1640224320308
 30
0.0
 10
106.1868983394225
 20
519.2794713896285
 30
0.0
 10
106.3553662100114
 20
519.5123805207674
 30
0.0
 10
106.641403945244
 20
519.9880376994789
 30
0.0
 10
106.9455346996815
 20
520.5621242773594
 30
0.0
 10
107.2430870642785
 20
521.2140529547662
 30
0.0
 10
107.5292281639034
 20
521.9303040044078
 30
0.0
 10
107.799776575013
 20
522.6944541028739
 30
0.0
 10
108.0610602115959
 20
523.5151624978713
 30
0.0
 10
108.2949967913367
 20
524.3130977945028
 30
0.0
 10
108.4714820225266
 20
524.9525272982378
 30
0.0
 10
108.6059561415111
 20
525.4547445548883
 30
0.0
 10
108.7173532580099
 20
525.8772369991046
 30
0.0
 10
108.8519206017008
 20
526.3918243038477
 30
0.0
 10
109.0107177870164
 20
526.9983990973665
 30
0.0
 10
109.1459944820782
 20
527.512902291086
 30
0.0
 10
109.2232898657064
 20
527.797751022677
 30
0.0
 10
109.2384668521376
 20
527.8534930085541
 30
0.0
  0
SPLINE
  5
91
330
76
100
AcDbEntity
  8
$DDT_AUDIT_GENERATED_(78)
  6
Continuous
 62
     7
100
AcDbSpline
210
0.0
220
0.0
230
1.0
 70
     8
 71
     3
 72
    22
 73
    18
 74
     0
 42
0.000000000663036
 43
0.0000000001
 40
0.0009473174989837
 40
0.0009473174989837
 40
0.0009473174989837
 40
0.0009473174989837
 40
0.0156928315997404
 40
0.0219423196166219
 40
0.0221597094542647
 40
0.0222530246251315
 40
0.0244211671016653
 40
0.0297527385823042
 40
0.0311217009467758
 40
0.0311405914291964
 40
0.0311491666260276
 40
0.0312585504618355
 40
0.0361751637585754
 40
0.0532064047311857
 40
0.0805281491754919
 40
0.1201605033774767
 40
0.1380613602932201
 40
0.1380613602932201
 40
0.1380613602932201
 40
0.1380613602932201
 10
109.2578699923286
 20
527.8782991415057
 30
0.0
 10
109.283672107457
 20
527.9818747122555
 30
0.0
 10
109.3079548380873
 20
528.1193081323323
 30
0.0
 10
109.3329763728768
 20
528.281387089208
 30
0.0
 10
109.3454681838434
 20
528.3617245831596
 30
0.0
 10
109.3502603359508
 20
528.3901820889973
 30
0.0
 10
109.3459506121159
 20
528.3576294699415
 30
0.0
 10
109.3443499258192
 20
528.3430489183025
 30
0.0
 10
109.3394689229366
 20
528.3093349563286
 30
0.0
 10
109.3400047102192
 20
528.3139387023548
 30
0.0
 10
109.3405565628319
 20
528.3184365082067
 30
0.0
 10
109.3456779628336
 20
528.3579491691311
 30
0.0
 10
109.3630915215515
 20
528.4897440404911
 30
0.0
 10
109.391002029871
 20
528.7406963367921
 30
0.0
 10
109.4243073577
 20
529.1183409795912
 30
0.0
 10
109.4503460975367
 20
529.4745733915984
 30
0.0
 10
109.465009798981
 20
529.7000880488259
 30
0.0
 10
109.4694092519264
 20
529.7691538160593
 30
0.0
  0
SPLINE
  5
92
330
76
100
AcDbEntity
  8
$DDT_AUDIT_GENERATED_(78)
  6
Continuous
 62
     7
100
AcDbSpline
210
0.0
220
0.0
230
1.0
 70
     8
 71
     3
 72
    35
 73
    31
 74
     0
 42
0.0000000012710967
 43
0.0000000001
 40
0.1827136851047034
 40
0.1827136851047034
 40
0.1827136851047034
 40
0.1827136851047034
 40
0.1862393509217116
 40
0.1988569769094923
 40
0.2240127763780573
 40
0.2653862382465229
 40
0.2862792100752421
 40
0.2913300127257918
 40
0.291526414540937
 40
0.2915282316924319
 40
0.2915291122031137
 40
0.2916116209934745
 40
0.2975630689000872
 40
0.3163567036891194
 40
0.3453199941228847
 40
0.3849015077428574
 40
0.4373053034979546
 40
0.488242184192928
 40
0.5375541109243404
 40
0.5766718118945093
 40
0.6050659351083219
 40
0.6453402172860387
 40
0.6995695542247558
 40
0.7432500756564349
 40
0.7874378385793948
 40
0.8294052182647418
 40
0.8653765251402465
 40
0.8993891828750742
 40
0.9321771089669725
 40
0.9361376879508908
 40
0.9361376879508908
 40
0.9361376879508908
 40
0.9361376879508908
 10
109.5008421538314
 20
530.2845015620017
 30
0.0
 10
109.5004164070057
 20
530.2751603597256
 30
0.0
 10
109.4974822564564
 20
530.2203658221731
 30
0.0
 10
109.4892055029784
 20
530.077037543433
 30
0.0
 10
109.4716311885195
 20
529.8006974679813
 30
0.0
 10
109.449587864901
 20
529.468490224927
 30
0.0
 10
109.4279169746598
 20
529.1961976415892
 30
0.0
 10
109.4186063413534
 20
529.0891843933081
 30
0.0
 10
109.416755540611
 20
529.0694353798408
 30
0.0
 10
109.4167120913235
 20
529.0693940984659
 30
0.0
 10
109.4167666699227
 20
529.0706192661721
 30
0.0
 10
109.419132911996
 20
529.0986199370212
 30
0.0
 10
109.4281954622001
 20
529.2106455623242
 30
0.0
 10
109.4459888921277
 20
529.4325212982285
 30
0.0
 10
109.4697723468905
 20
529.790283187189
 30
0.0
 10
109.4981700497559
 20
530.2151800758113
 30
0.0
 10
109.527240512838
 20
530.7744200739444
 30
0.0
 10
109.5550577608148
 20
531.3930750756487
 30
0.0
 10
109.578370577119
 20
531.8754258946818
 30
0.0
 10
109.5964336801305
 20
532.2429141081495
 30
0.0
 10
109.6120072052551
 20
532.5377791059578
 30
0.0
 10
109.6288280165028
 20
532.8365209941903
 30
0.0
 10
109.6464204749998
 20
533.1160773994405
 30
0.0
 10
109.662675481891
 20
533.3453956740194
 30
0.0
 10
109.6759861809512
 20
533.5113673390364
 30
0.0
 10
109.6869223547263
 20
533.630005898105
 30
0.0
 10
109.6952792254343
 20
533.708910502885
 30
0.0
 10
109.7010894985128
 20
533.7548443639259
 30
0.0
 10
109.7030854311362
 20
533.7688068397437
 30
0.0
 10
109.7032797707867
 20
533.7692822156412
 30
0.0
 10
109.7032882667353
 20
533.7692508828966
 30
0.0
  0
LINE
  5
93
330
76
100
AcDbEntity
  8
$DDT_AUDIT_GENERATED_(78)
  6
Continuous
 62
     7
100
AcDbLine
 10
109.2491625531
 20
527.8433788706
 30
0.0
 11
109.2527863692
 21
527.8582444876
 31
0.0
  0
ARC
  5
94
330
76
100
AcDbEntity
  8
$DDT_AUDIT_GENERATED_(78)
  6
Continuous
 62
     7
100
AcDbCircle
 10
131.2613413774
 20
534.9925054991
 30
0.0
 40
54.82203114243512
100
AcDbArc
 50
181.2778498752
 51
187.4935516826
  0
ARC
  5
95
330
76
100
AcDbEntity
  8
$DDT_AUDIT_GENERATED_(78)
  6
Continuous
 62
     7
100
AcDbCircle
 10
72.0778702338
 20
540.2598943273
 30
0.0
 40
0.4981497065211047
100
AcDbArc
 50
92.011306005
 51
180.4976677911
  0
ARC
  5
96
330
76
100
AcDbEntity
  8
$DDT_AUDIT_GENERATED_(78)
  6
Continuous
 62
     7
100
AcDbCircle
 10
114.0813678084
 20
540.265532736
 30
0.0
 40
0.4924693887203464
100
AcDbArc
 50
359.1192547341
 51
88.3042363614
  0
ARC
  5
97
330
76
100
AcDbEntity
  8
$DDT_AUDIT_GENERATED_(78)
  6
Continuous
 62
     7
100
AcDbCircle
 10
95.0481800078
 20
476.3385107991
 30
0.0
 40
44.48933611932698
100
AcDbArc
 50
76.5724347281
 51
92.53772866
  0
ARC
  5
98
330
76
100
AcDbEntity
  8
$DDT_AUDIT_GENERATED_(78)
  6
Continuous
 62
     7
100
AcDbCircle
 10
94.6687820757
 20
533.5796087474
 30
0.0
 40
18.39955745502052
100
AcDbArc
 50
303.4269072254
 51
308.4464763504
  0
ARC
  5
99
330
76
100
AcDbEntity
  8
$DDT_AUDIT_GENERATED_(78)
  6
Continuous
 62
     7
100
AcDbCircle
 10
91.1413079601
 20
476.0137402015
 30
0.0
 40
44.81275537227523
100
AcDbArc
 50
87.5227860816
 51
103.3721577379
  0
ARC
  5
9A
330
76
100
AcDbEntity
  8
$DDT_AUDIT_GENERATED_(78)
  6
Continuous
 62
     7
100
AcDbCircle
 10
91.4748231055
 20
533.5244678224
 30
0.0
 40
18.34558550897452
100
AcDbArc
 50
231.4390867463
 51
236.4991281766
  0
LINE
  5
9C
330
76
100
AcDbEntity
  8
$DDT_AUDIT_GENERATED_(9B)
  6
Continuous
 62
     7
100
AcDbLine
 10
112.5282605406
 20
540.7593948711
 30
0.0
 11
73.6282605406
 21
540.7593948711
 31
0.0
  0
ARC
  5
9D
330
76
100
AcDbEntity
  8
$DDT_AUDIT_GENERATED_(9B)
  6
Continuous
 62
     7
100
AcDbCircle
 10
93.0782605406
 20
532.3593948711
 30
0.0
 40
20.50000000000001
100
AcDbArc
 50
149.6304337683
 51
155.810485846
  0
ARC
  5
9E
330
76
100
AcDbEntity
  8
$DDT_AUDIT_GENERATED_(9B)
  6
Continuous
 62
     7
100
AcDbCircle
 10
93.0782605406
 20
532.3593948711
 30
0.0
 40
20.5
100
AcDbArc
 50
24.189514154
 51
30.3628592576
  0
SPLINE
  5
A0
330
76
100
AcDbEntity
  8
$DDT_AUDIT_GENERATED_(9F)
  6
Continuous
 62
     7
100
AcDbSpline
210
0.0
220
0.0
230
1.0
 70
     8
 71
     3
 72
    41
 73
    37
 74
     0
 42
0.000000000300684
 43
0.0000000001
 40
0.0
 40
0.0
 40
0.0
 40
0.0
 40
0.0422756560022529
 40
0.09976661711864
 40
0.1928791876720412
 40
0.2493805810837505
 40
0.3153683738017071
 40
0.3482580942102697
 40
0.3645168436855616
 40
0.3739925203595644
 40
0.3810276216581406
 40
0.3897040177118505
 40
0.4053665838760833
 40
0.4212019538496219
 40
0.4366752709402347
 40
0.452454106911245
 40
0.468216420874469
 40
0.484010710600274
 40
0.4997933140458308
 40
0.515577221553584
 40
0.5314259157248988
 40
0.5472107588522133
 40
0.5630068114161775
 40
0.5784864287639624
 40
0.5943480962682092
 40
0.6099497145787274
 40
0.6187713227317153
 40
0.6257158245727604
 40
0.6351715907471636
 40
0.6513773764127446
 40
0.6842203502701749
 40
0.7504541835029015
 40
0.8054047093464116
 40
0.8930708098994459
 40
0.9565471720493075
 40
1.0
 40
1.0
 40
1.0
 40
1.0
 10
105.1959247770338
 20
573.6540940185861
 30
0.0
 10
105.194413787244
 20
573.9131669879889
 30
0.0
 10
105.190847991841
 20
574.524555105605
 30
0.0
 10
105.1808193674176
 20
575.5733889290013
 30
0.0
 10
105.1673053727358
 20
576.5525970465497
 30
0.0
 10
105.1684280960881
 20
577.3479455412901
 30
0.0
 10
105.172084646272
 20
577.7933339962069
 30
0.0
 10
105.223297712647
 20
578.0131130699393
 30
0.0
 10
105.2536359817049
 20
578.0681092419371
 30
0.0
 10
105.212846801259
 20
578.0930551212415
 30
0.0
 10
105.158691755158
 20
578.1250296447122
 30
0.0
 10
104.9890721002754
 20
578.1720414193336
 30
0.0
 10
104.4749616537904
 20
578.2242773884136
 30
0.0
 10
103.3202348201136
 20
578.2310914881446
 30
0.0
 10
101.7866372071538
 20
578.2244688323793
 30
0.0
 10
99.93257836722738
 20
578.2064562600128
 30
0.0
 10
97.82188035999586
 20
578.1926085472779
 30
0.0
 10
95.5207981392014
 20
578.1889354589636
 30
0.0
 10
93.10994490886753
 20
578.192821482543
 30
0.0
 10
90.69448123670496
 20
578.1891035895629
 30
0.0
 10
88.3863439540672
 20
578.1923002048759
 30
0.0
 10
86.26526759764837
 20
578.2063474387794
 30
0.0
 10
84.40514786102449
 20
578.2240819474803
 30
0.0
 10
82.86283901048162
 20
578.231010112964
 30
0.0
 10
81.69987441107169
 20
578.2248639777267
 30
0.0
 10
81.17449551649952
 20
578.17342419119
 30
0.0
 10
81.00055202347018
 20
578.126241413885
 30
0.0
 10
80.94501696798032
 20
578.093834664724
 30
0.0
 10
80.90224457694356
 20
578.0687712839667
 30
0.0
 10
80.93181045332463
 20
578.0148052293046
 30
0.0
 10
80.98481836796323
 20
577.7958565828455
 30
0.0
 10
80.9877931150053
 20
577.354848732635
 30
0.0
 10
80.98965844909965
 20
576.587365320935
 30
0.0
 10
80.97629327799224
 20
575.6242883075257
 30
0.0
 10
80.96611315743877
 20
574.5748571730343
 30
0.0
 10
80.96219134511615
 20
573.920163741164
 30
0.0
 10
80.96059763776701
 20
573.6541158918465
 30
0.0
  0
LINE
  5
A1
330
76
100
AcDbEntity
  8
$DDT_AUDIT_GENERATED_(9F)
  6
Continuous
 62
     7
100
AcDbLine
 10
106.215105911
 20
574.7462978586
 30
0.0
 11
106.2149445449
 21
577.052564347
 31
0.0
  0
SPLINE
  5
A2
330
76
100
AcDbEntity
  8
$DDT_AUDIT_GENERATED_(9F)
  6
Continuous
 62
     7
100
AcDbSpline
210
0.0
220
0.0
230
1.0
 70
     8
 71
     3
 72
    12
 73
     8
 74
     0
 42
0.0000000006498031
 43
0.0000000001
 40
0.0
 40
0.0
 40
0.0
 40
0.0
 40
0.0399632094069899
 40
0.0807764202211721
 40
0.1224429491806107
 40
0.1849226883620294
 40
0.2186825637752444
 40
0.2186825637752444
 40
0.2186825637752444
 40
0.2186825637752444
 10
79.94141564910272
 20
574.7463188827498
 30
0.0
 10
79.942805360747
 20
574.9969401732131
 30
0.0
 10
79.94561434264388
 20
575.5035133683031
 30
0.0
 10
79.95216023382953
 20
576.1966924604494
 30
0.0
 10
79.96093588707542
 20
576.9577789216427
 30
0.0
 10
79.96928382891753
 20
577.600287810669
 30
0.0
 10
79.97194049357057
 20
577.9846006554181
 30
0.0
 10
79.97204723469243
 20
578.1115287021797
 30
0.0
  0
SPLINE
  5
A3
330
76
100
AcDbEntity
  8
$DDT_AUDIT_GENERATED_(9F)
  6
Continuous
 62
     7
100
AcDbSpline
210
0.0
220
0.0
230
1.0
 70
     8
 71
     3
 72
     8
 73
     4
 74
     0
 42
0.0000000009107812
 43
0.0000000001
 40
0.2186825637752444
 40
0.2186825637752444
 40
0.2186825637752444
 40
0.2186825637752444
 40
0.2331209888034929
 40
0.2331209888034929
 40
0.2331209888034929
 40
0.2331209888034929
 10
79.97204723469243
 20
578.1115287021797
 30
0.0
 10
79.9720928857402
 20
578.1658132949017
 30
0.0
 10
79.97198760114914
 20
578.2186556441526
 30
0.0
 10
79.97169733444694
 20
578.2700556802454
 30
0.0
  0
SPLINE
  5
A4
330
76
100
AcDbEntity
  8
$DDT_AUDIT_GENERATED_(9F)
  6
Continuous
 62
     7
100
AcDbSpline
210
0.0
220
0.0
230
1.0
 70
     8
 71
     3
 72
     8
 73
     4
 74
     0
 42
0.0000000019002125
 43
0.0000000001
 40
0.3302835838168627
 40
0.3302835838168627
 40
0.3302835838168627
 40
0.3302835838168627
 40
0.3367966732239173
 40
0.3367966732239173
 40
0.3367966732239173
 40
0.3367966732239173
 10
79.92778047705225
 20
579.0786020235798
 30
0.0
 10
79.92620263439314
 20
579.0904451726218
 30
0.0
 10
79.92472183062264
 20
579.1017828585371
 30
0.0
 10
79.92339008083242
 20
579.1125949618558
 30
0.0
  0
SPLINE
  5
A5
330
76
100
AcDbEntity
  8
$DDT_AUDIT_GENERATED_(9F)
  6
Continuous
 62
     7
100
AcDbSpline
210
0.0
220
0.0
230
1.0
 70
     8
 71
     3
 72
    23
 73
    19
 74
     0
 42
0.0000000001152647
 43
0.0000000001
 40
0.347507688544954
 40
0.347507688544954
 40
0.347507688544954
 40
0.347507688544954
 40
0.3522609147129653
 40
0.3677319877962228
 40
0.3862656076059194
 40
0.405499583078444
 40
0.4282973680237592
 40
0.4434727038314195
 40
0.4719684754646145
 40
0.5002788418463675
 40
0.5333913467306903
 40
0.5663428488250952
 40
0.5760528376785645
 40
0.5996253840977589
 40
0.6161347295704365
 40
0.632564834328995
 40
0.6481227149852842
 40
0.6525035467468029
 40
0.6525035467468029
 40
0.6525035467468029
 40
0.6525035467468029
 10
79.91944613198983
 20
579.1607053642671
 30
0.0
 10
79.91946084632984
 20
579.1669048462834
 30
0.0
 10
79.92104858931087
 20
579.1912806187954
 30
0.0
 10
79.94082380248454
 20
579.2187340012769
 30
0.0
 10
80.1441788984538
 20
579.3190394754907
 30
0.0
 10
81.13701318025242
 20
579.390507684968
 30
0.0
 10
82.8464155536637
 20
579.4047386846133
 30
0.0
 10
85.36676744849524
 20
579.3831271871421
 30
0.0
 10
88.67635959690759
 20
579.3853706857603
 30
0.0
 10
93.36221364427995
 20
579.3984172234398
 30
0.0
 10
98.28193326804364
 20
579.3734202071169
 30
0.0
 10
101.6079173467732
 20
579.3870055095898
 30
0.0
 10
103.9167479244085
 20
579.4061305012976
 30
0.0
 10
105.28153455488
 20
579.3796735430748
 30
0.0
 10
106.0487350801559
 20
579.3105650404095
 30
0.0
 10
106.2180275664396
 20
579.2166207531362
 30
0.0
 10
106.2356797443748
 20
579.1842292222015
 30
0.0
 10
106.2370830052632
 20
579.1615866192994
 30
0.0
 10
106.2370878363256
 20
579.156341813311
 30
0.0
  0
SPLINE
  5
A6
330
76
100
AcDbEntity
  8
$DDT_AUDIT_GENERATED_(9F)
  6
Continuous
 62
     7
100
AcDbSpline
210
0.0
220
0.0
230
1.0
 70
     8
 71
     3
 72
     9
 73
     5
 74
     0
 42
0.0000000022029713
 43
0.0000000001
 40
0.6525035467468029
 40
0.6525035467468029
 40
0.6525035467468029
 40
0.6525035467468029
 40
0.6634629940211381
 40
0.671217874640304
 40
0.671217874640304
 40
0.671217874640304
 40
0.671217874640304
 10
106.2370878363256
 20
579.156341813311
 30
0.0
 10
106.2370999221066
 20
579.1432209774009
 30
0.0
 10
106.2338772477537
 20
579.1179316008794
 30
0.0
 10
106.2294968174413
 20
579.0861604140227
 30
0.0
 10
106.2275674670032
 20
579.0720275717447
 30
0.0
  0
SPLINE
  5
A7
330
76
100
AcDbEntity
  8
$DDT_AUDIT_GENERATED_(9F)
  6
Continuous
 62
     7
100
AcDbSpline
210
0.0
220
0.0
230
1.0
 70
     8
 71
     3
 72
     8
 73
     4
 74
     0
 42
0.0000000009029145
 43
0.0000000001
 40
0.7731691816563333
 40
0.7731691816563333
 40
0.7731691816563333
 40
0.7731691816563333
 40
0.7786041200900323
 40
0.7786041200900323
 40
0.7786041200900323
 40
0.7786041200900323
 10
106.1843537762416
 20
578.2020563525583
 30
0.0
 10
106.1842811391825
 20
578.1822023050646
 30
0.0
 10
106.1842322668353
 20
578.162137287247
 30
0.0
 10
106.1842058011143
 20
578.1418632824768
 30
0.0
  0
ELLIPSE
  5
A8
330
76
100
AcDbEntity
  8
$DDT_AUDIT_GENERATED_(9F)
  6
Continuous
 62
     7
100
AcDbEllipse
 10
105.11127772
 20
574.7462219057
 30
0.0
 11
1.103816856205954
 21
0.005040999262573287
 31
0.0
210
0.0
220
0.0
230
1.0
 40
0.9923273233
 41
4.784617522816363
 42
6.278652489018305
  0
ELLIPSE
  5
A9
330
76
100
AcDbEntity
  8
$DDT_AUDIT_GENERATED_(9F)
  6
Continuous
 62
     7
100
AcDbEllipse
 10
81.0452429111
 20
574.7462430218
 30
0.0
 11
-1.103815955263503
 21
0.005034742349835364
 31
0.0
210
0.0
220
0.0
230
0.9999999999999998
 40
0.9923273458
 41
0.0045271935640764
 42
1.498563719335274
  0
SPLINE
  5
AA
330
76
100
AcDbEntity
  8
$DDT_AUDIT_GENERATED_(9F)
  6
Continuous
 62
     7
100
AcDbSpline
210
0.0
220
0.0
230
1.0
 70
     8
 71
     3
 72
    32
 73
    28
 74
     0
 42
0.0000000000930636
 43
0.0000000001
 40
0.3932544101353599
 40
0.3932544101353599
 40
0.3932544101353599
 40
0.3932544101353599
 40
0.4062499999999958
 40
0.4062499999999958
 40
0.4218749999999959
 40
0.4218749999999959
 40
0.4374999999999959
 40
0.4374999999999959
 40
0.468749999999996
 40
0.468749999999996
 40
0.4843749999999961
 40
0.4843749999999961
 40
0.4999999999999962
 40
0.4999999999999962
 40
0.5156249999999963
 40
0.5156249999999963
 40
0.5312499999999966
 40
0.5312499999999966
 40
0.5624999999999967
 40
0.5624999999999967
 40
0.5937499999999969
 40
0.5937499999999969
 40
0.6093749999999971
 40
0.6093749999999971
 40
0.6249999999999972
 40
0.6249999999999972
 40
0.6255205781372505
 40
0.6255205781372505
 40
0.6255205781372505
 40
0.6255205781372505
 10
80.62883012077003
 20
581.9953609992439
 30
0.0
 10
80.71745958450535
 20
581.9999249492403
 30
0.0
 10
80.84864796148149
 20
582.0027851032071
 30
0.0
 10
81.28322120028413
 20
582.0053252092151
 30
0.0
 10
81.61737643503422
 20
582.0041568856715
 30
0.0
 10
82.41898098056168
 20
581.9979907290216
 30
0.0
 10
82.88945919707535
 20
581.9930378022418
 30
0.0
 10
84.4958717496987
 20
581.9745297505352
 30
0.0
 10
85.7798274358652
 20
581.957847222915
 30
0.0
 10
87.93163908491313
 20
581.9360588991374
 30
0.0
 10
88.67470206615083
 20
581.9294712207864
 30
0.0
 10
90.21426402070313
 20
581.9189338766362
 30
0.0
 10
91.02126781600975
 20
581.9149717765788
 30
0.0
 10
92.63783904381745
 20
581.9109935261912
 30
0.0
 10
93.4449969355759
 20
581.9109362457435
 30
0.0
 10
95.05707520738366
 20
581.9146663097546
 30
0.0
 10
95.86747874675807
 20
581.9185179849202
 30
0.0
 10
98.19153217307925
 20
581.9341493540127
 30
0.0
 10
99.65445425350504
 20
581.950297099543
 30
0.0
 10
102.1924027467434
 20
581.9803716023195
 30
0.0
 10
103.2963812450279
 20
581.9944455351396
 30
0.0
 10
104.5084773616362
 20
582.0039921138713
 30
0.0
 10
104.8458714407199
 20
582.005315707805
 30
0.0
 10
105.3365584999955
 20
582.002774170659
 30
0.0
 10
105.4871920610825
 20
581.998964065647
 30
0.0
 10
105.579429019607
 20
581.9921803535901
 30
0.0
 10
105.5823486181587
 20
581.9919585909142
 30
0.0
 10
105.5852148247373
 20
581.9917337943714
 30
0.0
  0
SPLINE
  5
AB
330
76
100
AcDbEntity
  8
$DDT_AUDIT_GENERATED_(9F)
  6
Continuous
 62
     7
100
AcDbSpline
210
0.0
220
0.0
230
1.0
 70
     8
 71
     3
 72
     8
 73
     4
 74
     0
 42
0.00000000053295
 43
0.0000000001
 40
0.0
 40
0.0
 40
0.0
 40
0.0
 40
0.0923845049861294
 40
0.0923845049861294
 40
0.0923845049861294
 40
0.0923845049861294
 10
106.2149445449404
 20
577.0525643469791
 30
0.0
 10
106.2121522833378
 20
577.6885340551207
 30
0.0
 10
106.2056053558062
 20
578.2691429460884
 30
0.0
 10
106.1991957350278
 20
578.7859369293541
 30
0.0
  0
SPLINE
  5
AC
330
76
100
AcDbEntity
  8
$DDT_AUDIT_GENERATED_(9F)
  6
Continuous
 62
     7
100
AcDbSpline
210
0.0
220
0.0
230
1.0
 70
     8
 71
     3
 72
     8
 73
     4
 74
     0
 42
0.0000000030588922
 43
0.0000000001
 40
0.3461544484925106
 40
0.3461544484925106
 40
0.3461544484925106
 40
0.3461544484925106
 40
0.3468691647560384
 40
0.3468691647560384
 40
0.3468691647560384
 40
0.3468691647560384
 10
106.2375643499912
 20
581.4223958306654
 30
0.0
 10
106.2376423418901
 20
581.42317598925
 30
0.0
 10
106.2377209490866
 20
581.4239509055598
 30
0.0
 10
106.2377980709022
 20
581.4247206312778
 30
0.0
  0
SPLINE
  5
AD
330
76
100
AcDbEntity
  8
$DDT_AUDIT_GENERATED_(9F)
  6
Continuous
 62
     7
100
AcDbSpline
210
0.0
220
0.0
230
1.0
 70
     8
 71
     3
 72
     8
 73
     4
 74
     0
 42
0.0000000030907925
 43
0.0000000001
 40
0.6513688606574132
 40
0.6513688606574132
 40
0.6513688606574132
 40
0.6513688606574132
 40
0.6529645224544944
 40
0.6529645224544944
 40
0.6529645224544944
 40
0.6529645224544944
 10
79.91802733541844
 20
581.4275193376817
 30
0.0
 10
79.91820832321272
 20
581.4258358700727
 30
0.0
 10
79.91841789317816
 20
581.4241271550679
 30
0.0
 10
79.91863397372997
 20
581.4223926196887
 30
0.0
  0
SPLINE
  5
AE
330
76
100
AcDbEntity
  8
$DDT_AUDIT_GENERATED_(9F)
  6
Continuous
 62
     7
100
AcDbSpline
210
0.0
220
0.0
230
1.0
 70
     8
 71
     3
 72
     8
 73
     4
 74
     0
 42
0.0000000007539253
 43
0.0000000001
 40
0.7796342969887595
 40
0.7796342969887595
 40
0.7796342969887595
 40
0.7796342969887595
 40
0.8883612271478449
 40
0.8883612271478449
 40
0.8883612271478449
 40
0.8883612271478449
 10
79.97280944130996
 20
580.5376536336153
 30
0.0
 10
79.97438792013425
 20
580.156344591827
 30
0.0
 10
79.96841985836073
 20
579.6710683027344
 30
0.0
 10
79.96117135784651
 20
579.095594731949
 30
0.0
  0
SPLINE
  5
AF
330
76
100
AcDbEntity
  8
$DDT_AUDIT_GENERATED_(9F)
  6
Continuous
 62
     7
100
AcDbSpline
210
0.0
220
0.0
230
1.0
 70
     8
 71
     3
 72
     8
 73
     4
 74
     0
 42
0.0000000005323102
 43
0.0000000001
 40
0.910961552071883
 40
0.910961552071883
 40
0.910961552071883
 40
0.910961552071883
 40
1.0
 40
1.0
 40
1.0
 40
1.0
 10
79.95654157361284
 20
578.7251676226219
 30
0.0
 10
79.95039143948458
 20
578.2236818521504
 30
0.0
 10
79.94425609474756
 20
577.6636268808029
 30
0.0
 10
79.94157680992681
 20
577.0525650141187
 30
0.0
  0
SPLINE
  5
B0
330
76
100
AcDbEntity
  8
$DDT_AUDIT_GENERATED_(9F)
  6
Continuous
 62
     7
100
AcDbSpline
210
0.0
220
0.0
230
1.0
 70
     8
 71
     3
 72
     8
 73
     4
 74
     0
 42
0.0000000006415631
 43
0.0000000001
 40
0.0
 40
0.0
 40
0.0
 40
0.0
 40
0.0378821403275361
 40
0.0378821403275361
 40
0.0378821403275361
 40
0.0378821403275361
 10
114.5428490154196
 20
543.2677743747548
 30
0.0
 10
114.5694239525013
 20
543.4636004910085
 30
0.0
 10
114.5824823682019
 20
543.6598569056808
 30
0.0
 10
114.5823083075131
 20
543.8560116486157
 30
0.0
  0
LINE
  5
B1
330
76
100
AcDbEntity
  8
$DDT_AUDIT_GENERATED_(9F)
  6
Continuous
 62
     7
100
AcDbLine
 10
93.0782605406
 20
542.7148054005
 30
0.0
 11
72.0161622503
 21
542.7148054005
 31
0.0
  0
LINE
  5
B2
330
76
100
AcDbEntity
  8
$DDT_AUDIT_GENERATED_(9F)
  6
Continuous
 62
     7
100
AcDbLine
 10
114.140358831
 20
542.7148054005
 30
0.0
 11
93.0782605406
 21
542.7148054005
 31
0.0
  0
SPLINE
  5
B3
330
76
100
AcDbEntity
  8
$DDT_AUDIT_GENERATED_(9F)
  6
Continuous
 62
     7
100
AcDbSpline
210
0.0
220
0.0
230
1.0
 70
     8
 71
     3
 72
     8
 73
     4
 74
     0
 42
0.0000000006441095
 43
0.0000000001
 40
0.9619919561452258
 40
0.9619919561452258
 40
0.9619919561452258
 40
0.9619919561452258
 40
0.9966452777253417
 40
0.9966452777253417
 40
0.9966452777253417
 40
0.9966452777253417
 10
71.5742082154158
 20
543.856005748546
 30
0.0
 10
71.57402299936024
 20
543.6772961688453
 30
0.0
 10
71.58486448129159
 20
543.4984516453686
 30
0.0
 10
71.60694360823216
 20
543.3196889188914
 30
0.0
  0
ELLIPSE
  5
B4
330
76
100
AcDbEntity
  8
$DDT_AUDIT_GENERATED_(9F)
  6
Continuous
 62
     7
100
AcDbEllipse
 10
71.9130903028
 20
543.2677743755
 30
0.0
 11
0.2973521930045922
 21
0.03977025666729306
 31
0.0
210
0.0
220
0.0
230
1.0
 40
0.90486342
 41
2.994845069969934
 42
3.141469358961528
  0
ELLIPSE
  5
B5
330
76
100
AcDbEntity
  8
$DDT_AUDIT_GENERATED_(9F)
  6
Continuous
 62
     7
100
AcDbEllipse
 10
114.2434307785
 20
543.2677743755
 30
0.0
 11
-0.2973521930045541
 21
0.03977025666730694
 31
0.0
210
0.0
220
0.0
230
1.0
 40
0.90486342
 41
3.139846810265637
 42
3.288340237209543
  0
ARC
  5
B6
330
76
100
AcDbEntity
  8
$DDT_AUDIT_GENERATED_(9F)
  6
Continuous
 62
     7
100
AcDbCircle
 10
117.0495165112
 20
-10104.4924906779
 30
0.0
 40
10678.19444117224
100
AcDbArc
 50
90.1286222004
 51
90.1936411218
  0
ARC
  5
B7
330
76
100
AcDbEntity
  8
$DDT_AUDIT_GENERATED_(9F)
  6
Continuous
 62
     7
100
AcDbCircle
 10
68.1177866208
 20
-10460.2624923305
 30
0.0
 40
11033.96576870231
100
AcDbArc
 50
89.8074659603
 51
89.8703882951
  0
SPLINE
  5
B8
330
76
100
AcDbEntity
  8
$DDT_AUDIT_GENERATED_(9F)
  6
Continuous
 62
     7
100
AcDbSpline
210
0.0
220
0.0
230
1.0
 70
     8
 71
     3
 72
    12
 73
     8
 74
     0
 42
0.0000000008653242
 43
0.0000000001
 40
0.0
 40
0.0
 40
0.0
 40
0.0
 40
0.25
 40
0.25
 40
0.5
 40
0.5
 40
0.5808716668110638
 40
0.5808716668110638
 40
0.5808716668110638
 40
0.5808716668110638
 10
93.07826054064905
 20
560.8489077950421
 30
0.0
 10
94.01735534005196
 20
560.8489071860891
 30
0.0
 10
94.96092756170175
 20
560.4431375008245
 30
0.0
 10
96.23972904203711
 20
559.075564719801
 30
0.0
 10
96.57989901984088
 20
558.1214288076501
 30
0.0
 10
96.5546119800852
 20
556.8709128422338
 30
0.0
 10
96.51346468575727
 20
556.5672947038589
 30
0.0
 10
96.43931672620401
 20
556.2723734896414
 30
0.0
  0
SPLINE
  5
B9
330
76
100
AcDbEntity
  8
$DDT_AUDIT_GENERATED_(9F)
  6
Continuous
 62
     7
100
AcDbSpline
210
0.0
220
0.0
230
1.0
 70
     8
 71
     3
 72
    12
 73
     8
 74
     0
 42
0.0000000008647785
 43
0.0000000001
 40
0.4353533158564131
 40
0.4353533158564131
 40
0.4353533158564131
 40
0.4353533158564131
 40
0.5
 40
0.5
 40
0.75
 40
0.75
 40
1.0
 40
1.0
 40
1.0
 40
1.0
 10
89.67720193139337
 20
556.4520622059529
 30
0.0
 10
89.62817910566012
 20
556.6907702187766
 30
0.0
 10
89.6005711952631
 20
556.9339064983991
 30
0.0
 10
89.57689861365874
 20
558.1200429968825
 30
0.0
 10
89.90759418034712
 20
559.0646187048201
 30
0.0
 10
91.20104042385871
 20
560.4500689669829
 30
0.0
 10
92.13964494084992
 20
560.8489071864218
 30
0.0
 10
93.07826054064905
 20
560.8489077950421
 30
0.0
  0
LINE
  5
BA
330
76
100
AcDbEntity
  8
$DDT_AUDIT_GENERATED_(9F)
  6
Continuous
 62
     7
100
AcDbLine
 10
114.5828697041
 20
543.8559743494
 30
0.0
 11
114.5828697041
 21
574.1088234281
 31
0.0
  0
LINE
  5
BB
330
76
100
AcDbEntity
  8
$DDT_AUDIT_GENERATED_(9F)
  6
Continuous
 62
     7
100
AcDbLine
 10
71.5736513772
 20
574.1087719831
 30
0.0
 11
71.5736513772
 21
543.8559184746
 31
0.0
  0
LINE
  5
BC
330
76
100
AcDbEntity
  8
$DDT_AUDIT_GENERATED_(9F)
  6
Continuous
 62
     7
100
AcDbLine
 10
104.8842164806
 20
582.0045295862
 30
0.0
 11
81.2783594415
 21
582.0045295862
 31
0.0
  0
LINE
  5
BD
330
76
100
AcDbEntity
  8
$DDT_AUDIT_GENERATED_(9F)
  6
Continuous
 62
     7
100
AcDbLine
 10
79.9193696877
 20
581.4214868885
 30
0.0
 11
79.9193696852
 21
579.1577656831
 31
0.0
  0
LINE
  5
BE
330
76
100
AcDbEntity
  8
$DDT_AUDIT_GENERATED_(9F)
  6
Continuous
 62
     7
100
AcDbLine
 10
106.2371384696
 20
579.156105159
 30
0.0
 11
106.2371384721
 21
581.4132197588
 31
0.0
  0
ARC
  5
BF
330
76
100
AcDbEntity
  8
$DDT_AUDIT_GENERATED_(9F)
  6
Continuous
 62
     7
100
AcDbCircle
 10
112.3660614589
 20
578.3018473461
 30
0.0
 40
6.18355845602882
100
AcDbArc
 50
173.1333568869
 51
181.2268946938
  0
ARC
  5
C0
330
76
100
AcDbEntity
  8
$DDT_AUDIT_GENERATED_(9F)
  6
Continuous
 62
     7
100
AcDbCircle
 10
74.7694708557
 20
578.3678030945
 30
0.0
 40
5.20284205907417
100
AcDbArc
 50
358.48813288
 51
7.4145550501
  0
SPLINE
  5
C1
330
76
100
AcDbEntity
  8
$DDT_AUDIT_GENERATED_(9F)
  6
Continuous
 62
     7
100
AcDbSpline
210
0.0
220
0.0
230
1.0
 70
     8
 71
     3
 72
    15
 73
    11
 74
     0
 42
0.0000000038789821
 43
0.0000000001
 40
0.3815608996346038
 40
0.3815608996346038
 40
0.3815608996346038
 40
0.3815608996346038
 40
0.4077118075619876
 40
0.4829919002534244
 40
0.5631921459380621
 40
0.6472467487353579
 40
0.7332192911276367
 40
0.8213338405809376
 40
0.9109495341986646
 40
1.0
 40
1.0
 40
1.0
 40
1.0
 10
79.9464634040372
 20
577.2489276011406
 30
0.0
 10
79.93686594962635
 20
577.2447097063573
 30
0.0
 10
79.89702790451742
 20
577.2277919076647
 30
0.0
 10
79.80845633142519
 20
577.1946714400733
 30
0.0
 10
79.66116007740985
 20
577.1485953311028
 30
0.0
 10
79.47608591288378
 20
577.0996404856951
 30
0.0
 10
79.25429137669153
 20
577.0494690921892
 30
0.0
 10
78.99993682093255
 20
576.999866557171
 30
0.0
 10
78.70809498825405
 20
576.9503535830506
 30
0.0
 10
78.51084299955666
 20
576.9221502810914
 30
0.0
 10
78.39359425449871
 20
576.9055465940685
 30
0.0
  0
SPLINE
  5
C2
330
76
100
AcDbEntity
  8
$DDT_AUDIT_GENERATED_(9F)
  6
Continuous
 62
     7
100
AcDbSpline
210
0.0
220
0.0
230
1.0
 70
     8
 71
     3
 72
    28
 73
    24
 74
     0
 42
0.0000000012866682
 43
0.0000000001
 40
0.0
 40
0.0
 40
0.0
 40
0.0
 40
0.0266887460301658
 40
0.0773007291751801
 40
0.1277704918718259
 40
0.1779129158354528
 40
0.2282000614539514
 40
0.2796245356323064
 40
0.3315215228953309
 40
0.383883144870114
 40
0.4367027739071808
 40
0.489983840717624
 40
0.5437459228354387
 40
0.5980300268841942
 40
0.6528955567428958
 40
0.7083822294483866
 40
0.7645255929715261
 40
0.8137880416996934
 40
0.8588264188911788
 40
0.8996075593506077
 40
0.9371576828668012
 40
0.9726515461299512
 40
1.0
 40
1.0
 40
1.0
 40
1.0
 10
78.39906584908398
 20
576.9046883464936
 30
0.0
 10
78.27749167059014
 20
576.8882537613218
 30
0.0
 10
77.97884634167515
 20
576.847725467164
 30
0.0
 10
77.46442219224042
 20
576.7696509533864
 30
0.0
 10
76.89758480645989
 20
576.6764511491955
 30
0.0
 10
76.35590593807045
 20
576.5782708939458
 30
0.0
 10
75.83964310314849
 20
576.4756642847069
 30
0.0
 10
75.34585693081696
 20
576.3677401348934
 30
0.0
 10
74.87533525137724
 20
576.2542873227347
 30
0.0
 10
74.43117181756223
 20
576.1356869254823
 30
0.0
 10
74.01437953863574
 20
576.0118142611678
 30
0.0
 10
73.62578878345747
 20
575.8824062261201
 30
0.0
 10
73.26604290472284
 20
575.7469802291157
 30
0.0
 10
72.93558317363775
 20
575.6047170378151
 30
0.0
 10
72.63468272993954
 20
575.4542078114829
 30
0.0
 10
72.36362154291281
 20
575.2933401070509
 30
0.0
 10
72.13313787222889
 20
575.1255879610287
 30
0.0
 10
71.94661769901828
 20
574.954351777625
 30
0.0
 10
71.80323544954572
 20
574.7843908553748
 30
0.0
 10
71.695213164627
 20
574.6110004858256
 30
0.0
 10
71.62167801673745
 20
574.4356784731965
 30
0.0
 10
71.57899390958579
 20
574.2630342708512
 30
0.0
 10
71.57761220577427
 20
574.1614718010279
 30
0.0
 10
71.57732859240834
 20
574.1089815177488
 30
0.0
  0
SPLINE
  5
C3
330
76
100
AcDbEntity
  8
$DDT_AUDIT_GENERATED_(9F)
  6
Continuous
 62
     7
100
AcDbSpline
210
0.0
220
0.0
230
1.0
 70
     8
 71
     3
 72
    17
 73
    13
 74
     0
 42
0.0000000098608823
 43
0.0000000001
 40
0.0
 40
0.0
 40
0.0
 40
0.0
 40
0.0458296411789643
 40
0.2048392629121799
 40
0.4288506782260716
 40
0.5415911519324801
 40
0.6339757817994822
 40
0.7200542797437336
 40
0.8123906118411588
 40
0.9024111869621478
 40
0.9907356363131946
 40
1.0
 40
1.0
 40
1.0
 40
1.0
 10
80.60644905845481
 20
581.9944574002909
 30
0.0
 10
80.59225220856462
 20
581.9938481794418
 30
0.0
 10
80.53796966196916
 20
581.9914207290365
 30
0.0
 10
80.4441177434163
 20
581.9826857549681
 30
0.0
 10
80.33662438492004
 20
581.9629865914919
 30
0.0
 10
80.23003681972183
 20
581.9235326445797
 30
0.0
 10
80.14028359464768
 20
581.8734075924725
 30
0.0
 10
80.04857897416029
 20
581.7965485521879
 30
0.0
 10
79.96596113323353
 20
581.6829245892548
 30
0.0
 10
79.91836874846535
 20
581.5525126913101
 30
0.0
 10
79.90731200500304
 20
581.4605610341677
 30
0.0
 10
79.90950659970483
 20
581.430032955035
 30
0.0
 10
79.90976388197141
 20
581.4266640411255
 30
0.0
  0
SPLINE
  5
C4
330
76
100
AcDbEntity
  8
$DDT_AUDIT_GENERATED_(9F)
  6
Continuous
 62
     7
100
AcDbSpline
210
0.0
220
0.0
230
1.0
 70
     8
 71
     3
 72
    16
 73
    12
 74
     0
 42
0.0000000105089794
 43
0.0000000001
 40
0.0
 40
0.0
 40
0.0
 40
0.0
 40
0.0523856286768725
 40
0.1552767922713427
 40
0.255631528975947
 40
0.3559470394344714
 40
0.4555638520194456
 40
0.5587125131325473
 40
0.6760889839641774
 40
0.8228390113417726
 40
1.0
 40
1.0
 40
1.0
 40
1.0
 10
106.2445175301119
 20
581.4156611493083
 30
0.0
 10
106.2455137172113
 20
581.4336011280795
 30
0.0
 10
106.2471421609113
 20
581.4788026181781
 30
0.0
 10
106.2272946596257
 20
581.5912427349048
 30
0.0
 10
106.1667203911167
 20
581.7204791917397
 30
0.0
 10
106.0787358913831
 20
581.8236002612153
 30
0.0
 10
105.987784957775
 20
581.89065099739
 30
0.0
 10
105.9025512644828
 20
581.9328436528108
 30
0.0
 10
105.8255159464264
 20
581.9593718518518
 30
0.0
 10
105.7253108554706
 20
581.9812372729392
 30
0.0
 10
105.6627896811168
 20
581.986420647687
 30
0.0
 10
105.6218624599221
 20
581.9893669948515
 30
0.0
  0
SPLINE
  5
C5
330
76
100
AcDbEntity
  8
$DDT_AUDIT_GENERATED_(9F)
  6
Continuous
 62
     7
100
AcDbSpline
210
0.0
220
0.0
230
1.0
 70
     8
 71
     3
 72
    28
 73
    24
 74
     0
 42
0.0000000012866531
 43
0.0000000001
 40
0.0
 40
0.0
 40
0.0
 40
0.0
 40
0.0222399519880784
 40
0.0592680208147209
 40
0.0966099041627301
 40
0.1361777151191459
 40
0.1791784982687231
 40
0.2264846454923105
 40
0.2779349959243523
 40
0.3319680499598031
 40
0.3878766878644282
 40
0.4434236231892998
 40
0.4983647190966308
 40
0.5527021751691555
 40
0.6064899337874021
 40
0.6597704600974756
 40
0.7125656695390182
 40
0.7648812519570802
 40
0.8167129269226193
 40
0.8680680690549875
 40
0.9185623479349422
 40
0.968992197234573
 40
1.0
 40
1.0
 40
1.0
 40
1.0
 10
114.5782450731058
 20
574.1088516310002
 30
0.0
 10
114.5790103939564
 20
574.1514074250277
 30
0.0
 10
114.5800706906503
 20
574.2472391052117
 30
0.0
 10
114.5413540188613
 20
574.4153499836797
 30
0.0
 10
114.470750222055
 20
574.5923069349428
 30
0.0
 10
114.3683463133218
 20
574.7628629234894
 30
0.0
 10
114.2337396277152
 20
574.928678033713
 30
0.0
 10
114.0621233469348
 20
575.0926368378299
 30
0.0
 10
113.8497146861769
 20
575.254721337134
 30
0.0
 10
113.5949529441901
 20
575.4135759782515
 30
0.0
 10
113.3013496140472
 20
575.5669001351984
 30
0.0
 10
112.9720735219034
 20
575.7137696115605
 30
0.0
 10
112.6120610614559
 20
575.8533313492998
 30
0.0
 10
112.2224860724206
 20
575.9863213414453
 30
0.0
 10
111.8040826502592
 20
576.1133425500404
 30
0.0
 10
111.3575395303921
 20
576.2347950339315
 30
0.0
 10
110.8837135079133
 20
576.3508935396216
 30
0.0
 10
110.3834950363003
 20
576.4617638027493
 30
0.0
 10
109.8583020353581
 20
576.5673529878738
 30
0.0
 10
109.3093331519504
 20
576.6677397926435
 30
0.0
 10
108.7406855692209
 20
576.7620039394006
 30
0.0
 10
108.2116442102623
 20
576.8427683682162
 30
0.0
 10
107.8984615134506
 20
576.8855473510426
 30
0.0
 10
107.7575733823572
 20
576.904706213029
 30
0.0
  0
SPLINE
  5
C6
330
76
100
AcDbEntity
  8
$DDT_AUDIT_GENERATED_(9F)
  6
Continuous
 62
     7
100
AcDbSpline
210
0.0
220
0.0
230
1.0
 70
     8
 71
     3
 72
    15
 73
    11
 74
     0
 42
0.0000000038717467
 43
0.0000000001
 40
0.0
 40
0.0
 40
0.0
 40
0.0
 40
0.0827255075120253
 40
0.1740043594294781
 40
0.2647251655318915
 40
0.3544823768758885
 40
0.4427272712831778
 40
0.5286976620979426
 40
0.6110573298357589
 40
0.6166997303276733
 40
0.6166997303276733
 40
0.6166997303276733
 40
0.6166997303276733
 10
107.7642057152748
 20
576.9056978333939
 30
0.0
 10
107.6547450157663
 20
576.9210587270762
 30
0.0
 10
107.4613847339392
 20
576.9484418267166
 30
0.0
 10
107.1701551288523
 20
576.9975034495711
 30
0.0
 10
106.9068019152295
 20
577.0485368934728
 30
0.0
 10
106.6756610351797
 20
577.1007766849245
 30
0.0
 10
106.4816530437205
 20
577.1524336569753
 30
0.0
 10
106.3272435744322
 20
577.2016278265954
 30
0.0
 10
106.2475162199603
 20
577.2327135790061
 30
0.0
 10
106.2147093767718
 20
577.2469964340135
 30
0.0
 10
106.2126372060225
 20
577.2479057930873
 30
0.0
  0
SPLINE
  5
C7
330
76
100
AcDbEntity
  8
$DDT_AUDIT_GENERATED_(9F)
  6
Continuous
 62
     7
100
AcDbSpline
210
0.0
220
0.0
230
1.0
 70
     8
 71
     3
 72
    14
 73
    10
 74
     0
 42
0.0000000140166315
 43
0.0000000001
 40
0.0
 40
0.0
 40
0.0
 40
0.0
 40
0.2278282183310761
 40
0.4548789513842859
 40
0.5971634728449531
 40
0.7118414962351551
 40
0.8199662893616267
 40
0.9256377630297947
 40
0.9692475137177312
 40
0.9692475137177312
 40
0.9692475137177312
 40
0.9692475137177312
 10
71.6163852624697
 20
543.2296001375222
 30
0.0
 10
71.62359239194366
 20
543.1774859666507
 30
0.0
 10
71.63719947465044
 20
543.0892860815002
 30
0.0
 10
71.66790409867116
 20
542.9827549469526
 30
0.0
 10
71.71018978178802
 20
542.893263523366
 30
0.0
 10
71.76602549890856
 20
542.8186080305587
 30
0.0
 10
71.84188052216996
 20
542.7579665097453
 30
0.0
 10
71.9231646404824
 20
542.7229567073306
 30
0.0
 10
71.96959427610982
 20
542.7195327396214
 30
0.0
 10
71.98398830298132
 20
542.7191861955158
 30
0.0
  0
LINE
  5
C8
330
76
100
AcDbEntity
  8
$DDT_AUDIT_GENERATED_(9F)
  6
Continuous
 62
     7
100
AcDbLine
 10
114.5360076779
 20
543.2283045125
 30
0.0
 11
114.5438646152
 21
543.286629339
 31
0.0
  0
SPLINE
  5
C9
330
76
100
AcDbEntity
  8
$DDT_AUDIT_GENERATED_(9F)
  6
Continuous
 62
     7
100
AcDbSpline
210
0.0
220
0.0
230
1.0
 70
     8
 71
     3
 72
    15
 73
    11
 74
     0
 42
0.0000000138372038
 43
0.0000000001
 40
0.0
 40
0.0
 40
0.0
 40
0.0
 40
0.0026415662517821
 40
0.1167792991216079
 40
0.2210131341120192
 40
0.3234517558708266
 40
0.4342005329593856
 40
0.5668678570991434
 40
0.7461223553185031
 40
1.0
 40
1.0
 40
1.0
 40
1.0
 10
114.141944758958
 20
542.7151821245237
 30
0.0
 10
114.1428739162788
 20
542.7150498480571
 30
0.0
 10
114.1783051690079
 20
542.7100200831463
 30
0.0
 10
114.2577524511785
 20
542.7313088082628
 30
0.0
 10
114.3458891676677
 20
542.779111216034
 30
0.0
 10
114.4098434275022
 20
542.8420557853436
 30
0.0
 10
114.4545900541714
 20
542.9094607848906
 30
0.0
 10
114.4891007680092
 20
542.9866467805862
 30
0.0
 10
114.5192602984435
 20
543.0891026567768
 30
0.0
 10
114.5321938062314
 20
543.171566562573
 30
0.0
 10
114.5403560341979
 20
543.2289743184274
 30
0.0
  0
ELLIPSE
  5
CB
330
76
100
AcDbEntity
  8
02636038_GEHÄUSE
  6
Continuous
 62
     7
100
AcDbEllipse
 10
93.0782605406
 20
513.2932905172
 30
0.0
 11
-10.05000000000001
 21
-1.387778780781446E-14
 31
0.0
210
0.0
220
0.0
230
1.0
 40
0.2756373558
 41
2.242460063939399
 42
6.283185307179581
  0
ELLIPSE
  5
CC
330
76
100
AcDbEntity
  8
02636038_GEHÄUSE
  6
Continuous
 62
     7
100
AcDbEllipse
 10
93.0782605406
 20
513.2932905172
 30
0.0
 11
-10.05000000000001
 21
-1.387778780781446E-14
 31
0.0
210
0.0
220
0.0
230
1.0
 40
0.2756373558
 41
0.0
 42
0.8991325896503932
  0
ELLIPSE
  5
CD
330
76
100
AcDbEntity
  8
02636038_GEHÄUSE
  6
Continuous
 62
     7
100
AcDbEllipse
 10
93.0782605406
 20
513.2932905172
 30
0.0
 11
-10.75000000000001
 21
-1.387778780781446E-14
 31
0.0
210
0.0
220
0.0
230
1.0
 40
0.2756373558
 41
0.0
 42
6.283185307179586
  0
LINE
  5
CE
330
76
100
AcDbEntity
  8
02636038_GEHÄUSE
  6
Continuous
 62
     7
100
AcDbLine
 10
82.0782605406
 20
514.3114690682
 30
0.0
 11
82.0782605406
 21
512.885595135
 31
0.0
  0
ELLIPSE
  5
CF
330
76
100
AcDbEntity
  8
02636038_GEHÄUSE
  6
Continuous
 62
     7
100
AcDbEllipse
 10
93.0782605406
 20
516.177075605
 30
0.0
 11
11.79999999999957
 21
0.0
 31
0.0
210
0.0
220
0.0
230
1.0
 40
0.2756373558
 41
2.771250021498062
 42
3.511935285681524
  0
LINE
  5
D0
330
76
100
AcDbEntity
  8
02636038_GEHÄUSE
  6
Continuous
 62
     7
100
AcDbLine
 10
82.0782605406
 20
517.3542762519
 30
0.0
 11
82.0782605406
 21
515.6082097969
 31
0.0
  0
LINE
  5
D1
330
76
100
AcDbEntity
  8
02636038_GEHÄUSE
  6
Continuous
 62
     7
100
AcDbLine
 10
82.0782605406
 20
515.6082097969
 30
0.0
 11
82.0782605406
 21
514.3114690682
 31
0.0
  0
LINE
  5
D2
330
76
100
AcDbEntity
  8
02636038_GEHÄUSE
  6
Continuous
 62
     7
100
AcDbLine
 10
82.0782605406
 20
512.8199331667
 30
0.0
 11
82.0782605406
 21
512.885595135
 31
0.0
  0
ELLIPSE
  5
D3
330
76
100
AcDbEntity
  8
02636038_GEHÄUSE
  6
Continuous
 62
     7
100
AcDbEllipse
 10
93.0782605406
 20
513.5985321016
 30
0.0
 11
11.29999999999999
 21
2.775557561562892E-14
 31
0.0
210
0.0
220
0.0
230
1.0
 40
0.2756373558
 41
3.661336212451741
 42
3.664621748769432
  0
LINE
  5
D4
330
76
100
AcDbEntity
  8
02636038_GEHÄUSE
  6
Continuous
 62
     7
100
AcDbLine
 10
104.0782605406
 20
512.885595135
 30
0.0
 11
104.0782605406
 21
514.3114690682
 31
0.0
  0
ELLIPSE
  5
D5
330
76
100
AcDbEntity
  8
02636038_GEHÄUSE
  6
Continuous
 62
     7
100
AcDbEllipse
 10
93.0782605406
 20
516.177075605
 30
0.0
 11
-11.79999999999989
 21
-4.163336342344337E-14
 31
0.0
210
0.0
220
0.0
230
1.0
 40
0.2756373558
 41
2.771250021498082
 42
3.511935285681515
  0
LINE
  5
D6
330
76
100
AcDbEntity
  8
02636038_GEHÄUSE
  6
Continuous
 62
     7
100
AcDbLine
 10
104.0782605406
 20
512.885595135
 30
0.0
 11
104.0782605406
 21
512.8195584174
 31
0.0
  0
LINE
  5
D7
330
76
100
AcDbEntity
  8
02636038_GEHÄUSE
  6
Continuous
 62
     7
100
AcDbLine
 10
104.0782605406
 20
514.3114690682
 30
0.0
 11
104.0782605406
 21
515.6082097969
 31
0.0
  0
LINE
  5
D8
330
76
100
AcDbEntity
  8
02636038_GEHÄUSE
  6
Continuous
 62
     7
100
AcDbLine
 10
104.0782605406
 20
515.6082097969
 30
0.0
 11
104.0782605406
 21
517.3542762519
 31
0.0
  0
LINE
  5
D9
330
76
100
AcDbEntity
  8
02636038_GEHÄUSE
  6
Continuous
 62
     7
100
AcDbLine
 10
83.270464281
 20
512.0515916934
 30
0.0
 11
83.7478348954
 21
511.8216436686
 31
0.0
  0
LINE
  5
DA
330
76
100
AcDbEntity
  8
02636038_GEHÄUSE
  6
Continuous
 62
     7
100
AcDbLine
 10
102.4086861859
 20
511.8216436686
 30
0.0
 11
102.8860568003
 21
512.0515916934
 31
0.0
  0
ARC
  5
DB
330
76
100
AcDbEntity
  8
02636038_GEHÄUSE
  6
Continuous
 62
     7
100
AcDbCircle
 10
100.8343716586
 20
516.5168370231
 30
0.0
 40
4.914448983561589
100
AcDbArc
 50
293.1315895249
 51
297.7606833166
  0
ARC
  5
DC
330
76
100
AcDbEntity
  8
02636038_GEHÄUSE
  6
Continuous
 62
     7
100
AcDbCircle
 10
100.8343716586
 20
516.5168370231
 30
0.0
 40
4.914448983561589
100
AcDbArc
 50
298.6645726131
 51
311.283390559
  0
ARC
  5
DD
330
76
100
AcDbEntity
  8
02636038_GEHÄUSE
  6
Continuous
 62
     7
100
AcDbCircle
 10
85.3393896345
 20
516.5742905635
 30
0.0
 40
4.972512161465446
100
AcDbArc
 50
228.9868255083
 51
245.6956558406
  0
LINE
  5
DE
330
76
100
AcDbEntity
  8
02636038_GEHÄUSE
  6
Continuous
 62
     7
100
AcDbLine
 10
81.2782605406
 20
519.8168362247
 30
0.0
 11
81.2782605406
 21
516.177075605
 31
0.0
  0
LINE
  5
DF
330
76
100
AcDbEntity
  8
02636038_GEHÄUSE
  6
Continuous
 62
     7
100
AcDbLine
 10
104.8782605406
 20
516.177075605
 30
0.0
 11
104.8782605406
 21
519.8172257939
 31
0.0
  0
ELLIPSE
  5
E1
330
76
100
AcDbEntity
  8
$DDT_AUDIT_GENERATED_(E0)
  6
Continuous
 62
     7
100
AcDbEllipse
 10
93.0782605406
 20
512.9087858388
 30
0.0
 11
-9.000000000000005
 21
-1.387778780781446E-14
 31
0.0
210
0.0
220
0.0
230
1.0
 40
0.2756373558
 41
0.0
 42
6.283185307179586
  0
ELLIPSE
  5
E2
330
76
100
AcDbEntity
  8
$DDT_AUDIT_GENERATED_(E0)
  6
Continuous
 62
     7
100
AcDbEllipse
 10
93.0782605406
 20
512.9087858388
 30
0.0
 11
-5.250000000000004
 21
-1.387778780781446E-14
 31
0.0
210
0.0
220
0.0
230
1.0
 40
0.2756373558
 41
0.0
 42
6.283185307179586
  0
ELLIPSE
  5
E3
330
76
100
AcDbEntity
  8
$DDT_AUDIT_GENERATED_(E0)
  6
Continuous
 62
     7
100
AcDbEllipse
 10
93.0782605406
 20
512.9087858388
 30
0.0
 11
-6.250000000000001
 21
-1.387778780781446E-14
 31
0.0
210
0.0
220
0.0
230
1.0
 40
0.2756373558
 41
0.0
 42
6.283185307179586
  0
ELLIPSE
  5
E4
330
76
100
AcDbEntity
  8
$DDT_AUDIT_GENERATED_(E0)
  6
Continuous
 62
     7
100
AcDbEllipse
 10
93.0782605406
 20
512.9087858388
 30
0.0
 11
-2.750000000000003
 21
-1.387778780781446E-14
 31
0.0
210
0.0
220
0.0
230
1.0
 40
0.2756373558
 41
0.0
 42
6.283185307179586
  0
ELLIPSE
  5
E5
330
76
100
AcDbEntity
  8
$DDT_AUDIT_GENERATED_(E0)
  6
Continuous
 62
     7
100
AcDbEllipse
 10
93.0782605406
 20
512.9087858388
 30
0.0
 11
-2.15
 21
0.0
 31
0.0
210
0.0
220
0.0
230
1.0
 40
0.2756373558
 41
0.0
 42
6.283185307179586
  0
ELLIPSE
  5
E6
330
76
100
AcDbEntity
  8
$DDT_AUDIT_GENERATED_(E0)
  6
Continuous
 62
     7
100
AcDbEllipse
 10
93.0782605406
 20
513.101038178
 30
0.0
 11
0.5196299438963563
 21
0.0
 31
0.0
210
0.0
220
0.0
230
1.0
 40
0.2756373558
 41
0.0
 42
6.283185307179586
  0
ELLIPSE
  5
E7
330
76
100
AcDbEntity
  8
$DDT_AUDIT_GENERATED_(E0)
  6
Continuous
 62
     7
100
AcDbEllipse
 10
93.0782605406
 20
512.9087858388
 30
0.0
 11
-8.700000000000003
 21
-1.387778780781446E-14
 31
0.0
210
0.0
220
0.0
230
1.0
 40
0.2756373558
 41
0.0
 42
6.283185307179586
  0
ARC
  5
E8
330
76
100
AcDbEntity
  8
$DDT_AUDIT_GENERATED_(E0)
  6
Continuous
 62
     7
100
AcDbCircle
 10
100.9319213869
 20
513.101038178
 30
0.0
 40
0.6463389063446071
100
AcDbArc
 50
357.5558259067
 51
2.4441740933
  0
ARC
  5
E9
330
76
100
AcDbEntity
  8
$DDT_AUDIT_GENERATED_(E0)
  6
Continuous
 62
     7
100
AcDbCircle
 10
98.8526715746
 20
513.101038178
 30
0.0
 40
0.4755883442561138
100
AcDbArc
 50
0.0
 51
3.3225608219
  0
ELLIPSE
  5
EA
330
76
100
AcDbEntity
  8
$DDT_AUDIT_GENERATED_(E0)
  6
Continuous
 62
     7
100
AcDbEllipse
 10
93.0782605406
 20
513.101038178
 30
0.0
 11
8.499999999999503
 21
7.077671781985373E-13
 31
0.0
210
0.0
220
0.0
230
1.0
 40
0.2756373558
 41
0.0117649772880742
 42
0.2500344105110631
  0
LINE
  5
EB
330
76
100
AcDbEntity
  8
$DDT_AUDIT_GENERATED_(E0)
  6
Continuous
 62
     7
100
AcDbLine
 10
99.3282605406
 20
513.0734744425
 30
0.0
 11
101.577672285
 21
513.0734744425
 31
0.0
  0
LINE
  5
EC
330
76
100
AcDbEntity
  8
$DDT_AUDIT_GENERATED_(E0)
  6
Continuous
 62
     7
100
AcDbLine
 10
99.3274604894
 20
513.1286019136
 30
0.0
 11
101.577672285
 21
513.1286019136
 31
0.0
  0
LINE
  5
ED
330
76
100
AcDbEntity
  8
$DDT_AUDIT_GENERATED_(E0)
  6
Continuous
 62
     7
100
AcDbLine
 10
99.3274604894
 20
513.1286019136
 30
0.0
 11
99.3274604894
 21
513.534048053
 31
0.0
  0
ELLIPSE
  5
EE
330
76
100
AcDbEntity
  8
$DDT_AUDIT_GENERATED_(E0)
  6
Continuous
 62
     7
100
AcDbEllipse
 10
93.0782605406
 20
513.3387563048
 30
0.0
 11
-0.5196299438963583
 21
2.775557561562891E-14
 31
0.0
210
0.0
220
0.0
230
1.0
 40
0.2756373558
 41
3.141592653589793
 42
3.643514934614001
  0
LINE
  5
EF
330
76
100
AcDbEntity
  8
$DDT_AUDIT_GENERATED_(E0)
  6
Continuous
 62
     7
100
AcDbLine
 10
93.5337989897
 20
513.4076656438
 30
0.0
 11
93.5337989897
 21
513.4879513307
 31
0.0
  0
LINE
  5
F0
330
76
100
AcDbEntity
  8
$DDT_AUDIT_GENERATED_(E0)
  6
Continuous
 62
     7
100
AcDbLine
 10
94.2387400458
 20
513.4076656438
 30
0.0
 11
93.5337989897
 21
513.4076656438
 31
0.0
  0
LINE
  5
F1
330
76
100
AcDbEntity
  8
$DDT_AUDIT_GENERATED_(E0)
  6
Continuous
 62
     7
100
AcDbLine
 10
94.7831436169
 20
513.2698469659
 30
0.0
 11
93.5978904845
 21
513.2698469659
 31
0.0
  0
LINE
  5
F2
330
76
100
AcDbEntity
  8
$DDT_AUDIT_GENERATED_(E0)
  6
Continuous
 62
     7
100
AcDbLine
 10
92.2270590664
 20
512.7945588026
 30
0.0
 11
92.677819698
 21
513.0097599988
 31
0.0
  0
LINE
  5
F3
330
76
100
AcDbEntity
  8
$DDT_AUDIT_GENERATED_(E0)
  6
Continuous
 62
     7
100
AcDbLine
 10
91.7940463645
 20
512.8634681415
 30
0.0
 11
92.5586305968
 21
513.2284943437
 31
0.0
  0
ELLIPSE
  5
F4
330
76
100
AcDbEntity
  8
$DDT_AUDIT_GENERATED_(E0)
  6
Continuous
 62
     7
100
AcDbEllipse
 10
93.0782605406
 20
513.3387563048
 30
0.0
 11
-2.149999999992526
 21
1.193489751472043E-12
 31
0.0
210
0.0
220
0.0
230
1.0
 40
0.2756373558
 41
0.9306548427483374
 42
1.163740259647641
  0
LINE
  5
F5
330
76
100
AcDbEntity
  8
$DDT_AUDIT_GENERATED_(E0)
  6
Continuous
 62
     7
100
AcDbLine
 10
91.7940463645
 20
513.3840740022
 30
0.0
 11
91.7940463645
 21
512.8634681415
 31
0.0
  0
ELLIPSE
  5
F6
330
76
100
AcDbEntity
  8
$DDT_AUDIT_GENERATED_(E0)
  6
Continuous
 62
     7
100
AcDbEllipse
 10
93.0782605406
 20
513.3387563048
 30
0.0
 11
-0.519629943896363
 21
0.0
 31
0.0
210
0.0
220
0.0
230
1.0
 40
0.2756373558
 41
4.734065474958702
 42
5.737910037007135
  0
LINE
  5
F7
330
76
100
AcDbEntity
  8
$DDT_AUDIT_GENERATED_(E0)
  6
Continuous
 62
     7
100
AcDbLine
 10
92.4953857879
 20
513.4792124701
 30
0.0
 11
92.6339849652
 21
513.4130427413
 31
0.0
  0
LINE
  5
F8
330
76
100
AcDbEntity
  8
$DDT_AUDIT_GENERATED_(E0)
  6
Continuous
 62
     7
100
AcDbLine
 10
93.0266074292
 20
513.501235103
 30
0.0
 11
93.0669976671
 21
513.4819520803
 31
0.0
  0
LINE
  5
F9
330
76
100
AcDbEntity
  8
$DDT_AUDIT_GENERATED_(E0)
  6
Continuous
 62
     7
100
AcDbLine
 10
93.0669976671
 20
513.4819520803
 30
0.0
 11
93.0669976671
 21
513.5013980223
 31
0.0
  0
ELLIPSE
  5
FA
330
76
100
AcDbEntity
  8
$DDT_AUDIT_GENERATED_(E0)
  6
Continuous
 62
     7
100
AcDbEllipse
 10
93.0782610295
 20
513.1010381419
 30
0.0
 11
8.49999951085702
 21
3.775203760714163E-8
 31
0.0
210
0.0
220
0.0
230
1.0
 40
0.2756373629
 41
-0.2735643741043079
 42
-0.2500344188276014
  0
ELLIPSE
  5
FB
330
76
100
AcDbEntity
  8
$DDT_AUDIT_GENERATED_(E0)
  6
Continuous
 62
     7
100
AcDbEllipse
 10
93.0782605406
 20
513.101038178
 30
0.0
 11
8.50000000003295
 21
-9.853229343548264E-13
 31
0.0
210
0.0
220
0.0
230
1.0
 40
0.2756373558
 41
6.033150896669035
 42
6.271420329891465
  0
LINE
  5
FC
330
76
100
AcDbEntity
  8
$DDT_AUDIT_GENERATED_(E0)
  6
Continuous
 62
     7
100
AcDbLine
 10
101.3139437573
 20
512.5213129919
 30
0.0
 11
101.3139437573
 21
513.0734744425
 31
0.0
  0
LINE
  5
FD
330
76
100
AcDbEntity
  8
$DDT_AUDIT_GENERATED_(E0)
  6
Continuous
 62
     7
100
AcDbLine
 10
99.2382971377
 20
512.6175414657
 30
0.0
 11
101.2621799483
 21
512.4680639438
 31
0.0
  0
LINE
  5
FE
330
76
100
AcDbEntity
  8
$DDT_AUDIT_GENERATED_(E0)
  6
Continuous
 62
     7
100
AcDbLine
 10
99.2691118182
 20
512.6723377496
 30
0.0
 11
101.3139437573
 21
512.5213129919
 31
0.0
  0
ELLIPSE
  5
FF
330
76
100
AcDbEntity
  8
$DDT_AUDIT_GENERATED_(E0)
  6
Continuous
 62
     7
100
AcDbEllipse
 10
93.0782609492
 20
513.101038113
 30
0.0
 11
8.499999587208256
 21
6.099311333773727E-8
 31
0.0
210
0.0
220
0.0
230
1.0
 40
0.2756373596
 41
-0.5353637672079827
 42
-0.511833811978831
  0
ELLIPSE
  5
100
330
76
100
AcDbEntity
  8
$DDT_AUDIT_GENERATED_(E0)
  6
Continuous
 62
     7
100
AcDbEllipse
 10
93.0782605406
 20
513.101038178
 30
0.0
 11
8.500000000004272
 21
-1.665334536937735E-13
 31
0.0
210
0.0
220
0.0
230
1.0
 40
0.2756373558
 41
-0.5118337983100778
 42
-0.2735643650871786
  0
LINE
  5
101
330
76
100
AcDbEntity
  8
$DDT_AUDIT_GENERATED_(E0)
  6
Continuous
 62
     7
100
AcDbLine
 10
100.4889670285
 20
511.9535313837
 30
0.0
 11
100.4889670285
 21
512.5251709811
 31
0.0
  0
LINE
  5
102
330
76
100
AcDbEntity
  8
$DDT_AUDIT_GENERATED_(E0)
  6
Continuous
 62
     7
100
AcDbLine
 10
98.7253081605
 20
512.1705431035
 30
0.0
 11
100.3889670285
 21
511.9057895932
 31
0.0
  0
LINE
  5
103
330
76
100
AcDbEntity
  8
$DDT_AUDIT_GENERATED_(E0)
  6
Continuous
 62
     7
100
AcDbLine
 10
98.8084876475
 20
512.2209616987
 30
0.0
 11
100.4889670285
 21
511.9535313837
 31
0.0
  0
ELLIPSE
  5
104
330
76
100
AcDbEntity
  8
$DDT_AUDIT_GENERATED_(E0)
  6
Continuous
 62
     7
100
AcDbEllipse
 10
93.0782608504
 20
513.1010380927
 30
0.0
 11
8.499999671475322
 21
6.528763640822888E-8
 31
0.0
210
0.0
220
0.0
230
1.0
 40
0.2756373558
 41
-0.7971631559932559
 42
-0.7736332008108571
  0
ELLIPSE
  5
105
330
76
100
AcDbEntity
  8
$DDT_AUDIT_GENERATED_(E0)
  6
Continuous
 62
     7
100
AcDbEllipse
 10
93.0782605407
 20
513.101038178
 30
0.0
 11
8.499999999989468
 21
1.706967900361178E-12
 31
0.0
210
0.0
220
0.0
230
1.0
 40
0.2756373558
 41
-0.773633186109878
 42
-0.5353637528867328
  0
LINE
  5
106
330
76
100
AcDbEntity
  8
$DDT_AUDIT_GENERATED_(E0)
  6
Continuous
 62
     7
100
AcDbLine
 10
99.1589628993
 20
511.4639504671
 30
0.0
 11
99.1589628993
 21
512.1015315912
 31
0.0
  0
LINE
  5
107
330
76
100
AcDbEntity
  8
$DDT_AUDIT_GENERATED_(E0)
  6
Continuous
 62
     7
100
AcDbLine
 10
97.7669543969
 20
511.7696779926
 30
0.0
 11
99.0175415431
 21
511.4249694584
 31
0.0
  0
LINE
  5
108
330
76
100
AcDbEntity
  8
$DDT_AUDIT_GENERATED_(E0)
  6
Continuous
 62
     7
100
AcDbLine
 10
97.8971796669
 20
511.8117450609
 30
0.0
 11
99.1589628993
 21
511.4639504671
 31
0.0
  0
ELLIPSE
  5
109
330
76
100
AcDbEntity
  8
$DDT_AUDIT_GENERATED_(E0)
  6
Continuous
 62
     7
100
AcDbEllipse
 10
93.0782607758
 20
513.1010380657
 30
0.0
 11
8.499999706047513
 21
6.077610636978648E-8
 31
0.0
210
0.0
220
0.0
230
1.0
 40
0.275637352
 41
-1.058962542763313
 42
-1.035432587536126
  0
ELLIPSE
  5
10A
330
76
100
AcDbEntity
  8
$DDT_AUDIT_GENERATED_(E0)
  6
Continuous
 62
     7
100
AcDbEllipse
 10
93.0782605406
 20
513.101038178
 30
0.0
 11
8.500000000004206
 21
-9.298117831235686E-13
 31
0.0
210
0.0
220
0.0
230
1.0
 40
0.2756373558
 41
-1.035432573908255
 42
-0.7971631406853739
  0
LINE
  5
10B
330
76
100
AcDbEntity
  8
$DDT_AUDIT_GENERATED_(E0)
  6
Continuous
 62
     7
100
AcDbLine
 10
97.4145689532
 20
511.0859343726
 30
0.0
 11
97.4145689532
 21
511.6681442942
 31
0.0
  0
LINE
  5
10C
330
76
100
AcDbEntity
  8
$DDT_AUDIT_GENERATED_(E0)
  6
Continuous
 62
     7
100
AcDbLine
 10
96.4162010774
 20
511.4523181297
 30
0.0
 11
97.2413638724
 21
511.058370637
 31
0.0
  0
LINE
  5
10D
330
76
100
AcDbEntity
  8
$DDT_AUDIT_GENERATED_(E0)
  6
Continuous
 62
     7
100
AcDbLine
 10
96.5838168684
 20
511.4825502923
 30
0.0
 11
97.4145689532
 21
511.0859343726
 31
0.0
  0
ELLIPSE
  5
10E
330
76
100
AcDbEntity
  8
$DDT_AUDIT_GENERATED_(E0)
  6
Continuous
 62
     7
100
AcDbEllipse
 10
93.0782606583
 20
513.1010380571
 30
0.0
 11
8.499999757651519
 21
3.386893543400049E-8
 31
0.0
210
0.0
220
0.0
230
1.0
 40
0.2756373494
 41
-1.320761924382239
 42
-1.297231969177299
  0
ELLIPSE
  5
10F
330
76
100
AcDbEntity
  8
$DDT_AUDIT_GENERATED_(E0)
  6
Continuous
 62
     7
100
AcDbEllipse
 10
93.0782605406
 20
513.101038178
 30
0.0
 11
8.500000000008866
 21
-1.498801083243961E-12
 31
0.0
210
0.0
220
0.0
230
1.0
 40
0.2756373558
 41
-1.297231961707188
 42
-1.05896252848444
  0
LINE
  5
110
330
76
100
AcDbEntity
  8
$DDT_AUDIT_GENERATED_(E0)
  6
Continuous
 62
     7
100
AcDbLine
 10
95.3746627549
 20
510.8452442723
 30
0.0
 11
95.3746627549
 21
511.3065516984
 31
0.0
  0
LINE
  5
111
330
76
100
AcDbEntity
  8
$DDT_AUDIT_GENERATED_(E0)
  6
Continuous
 62
     7
100
AcDbLine
 10
94.7735234567
 20
511.2506356372
 30
0.0
 11
95.1814775896
 21
510.8309762329
 31
0.0
  0
LINE
  5
112
330
76
100
AcDbEntity
  8
$DDT_AUDIT_GENERATED_(E0)
  6
Continuous
 62
     7
100
AcDbLine
 10
94.9652126863
 20
511.2664425346
 30
0.0
 11
95.3746627549
 21
510.8452442723
 31
0.0
  0
ARC
  5
113
330
76
100
AcDbEntity
  8
$DDT_AUDIT_GENERATED_(E0)
  6
Continuous
 62
     7
100
AcDbCircle
 10
93.0782605406
 20
541.5937685014
 30
0.0
 40
30.83564785298003
100
AcDbArc
 50
269.8141894725
 51
270.1858105275
  0
ELLIPSE
  5
114
330
76
100
AcDbEntity
  8
$DDT_AUDIT_GENERATED_(E0)
  6
Continuous
 62
     7
100
AcDbEllipse
 10
93.0782605406
 20
513.101038178
 30
0.0
 11
8.500000000009091
 21
-5.828670879282072E-13
 31
0.0
210
0.0
220
0.0
230
1.0
 40
0.2756373558
 41
4.724153957673034
 42
4.962423390895762
  0
LINE
  5
115
330
76
100
AcDbEntity
  8
$DDT_AUDIT_GENERATED_(E0)
  6
Continuous
 62
     7
100
AcDbLine
 10
92.9782605406
 20
511.186272889
 30
0.0
 11
92.9782605406
 21
510.7582827988
 31
0.0
  0
LINE
  5
116
330
76
100
AcDbEntity
  8
$DDT_AUDIT_GENERATED_(E0)
  6
Continuous
 62
     7
100
AcDbLine
 10
93.1782605406
 20
511.186272889
 30
0.0
 11
93.1782605406
 21
510.7582827988
 31
0.0
  0
ELLIPSE
  5
117
330
76
100
AcDbEntity
  8
$DDT_AUDIT_GENERATED_(E0)
  6
Continuous
 62
     7
100
AcDbEllipse
 10
93.0782604183
 20
513.1010380522
 30
0.0
 11
-8.499999747871374
 21
3.525391090164476E-8
 31
0.0
210
0.0
220
0.0
230
1.0
 40
0.2756373492
 41
1.297231969476898
 42
1.320761924707203
  0
ELLIPSE
  5
118
330
76
100
AcDbEntity
  8
$DDT_AUDIT_GENERATED_(E0)
  6
Continuous
 62
     7
100
AcDbEllipse
 10
93.0782605406
 20
513.101038178
 30
0.0
 11
-8.499999999996586
 21
4.024558464266192E-13
 31
0.0
210
0.0
220
0.0
230
1.0
 40
0.2756373558
 41
1.320761916283832
 42
1.559031349506911
  0
LINE
  5
119
330
76
100
AcDbEntity
  8
$DDT_AUDIT_GENERATED_(E0)
  6
Continuous
 62
     7
100
AcDbLine
 10
90.7818583264
 20
510.8452442723
 30
0.0
 11
90.7818583264
 21
511.3065516984
 31
0.0
  0
LINE
  5
11A
330
76
100
AcDbEntity
  8
$DDT_AUDIT_GENERATED_(E0)
  6
Continuous
 62
     7
100
AcDbLine
 10
91.191308395
 20
511.2664425346
 30
0.0
 11
90.7818583264
 21
510.8452442723
 31
0.0
  0
LINE
  5
11B
330
76
100
AcDbEntity
  8
$DDT_AUDIT_GENERATED_(E0)
  6
Continuous
 62
     7
100
AcDbLine
 10
91.3829976246
 20
511.2506356372
 30
0.0
 11
90.9750434917
 21
510.8309762329
 31
0.0
  0
ELLIPSE
  5
11C
330
76
100
AcDbEntity
  8
$DDT_AUDIT_GENERATED_(E0)
  6
Continuous
 62
     7
100
AcDbEllipse
 10
93.0782603221
 20
513.1010380736
 30
0.0
 11
-8.499999726745036
 21
5.648763401477908E-8
 31
0.0
210
0.0
220
0.0
230
1.0
 40
0.2756373523
 41
1.035432586570338
 42
1.058962541751754
  0
ELLIPSE
  5
11D
330
76
100
AcDbEntity
  8
$DDT_AUDIT_GENERATED_(E0)
  6
Continuous
 62
     7
100
AcDbEllipse
 10
93.0782605407
 20
513.101038178
 30
0.0
 11
-8.500000000018462
 21
-3.608224830031759E-12
 31
0.0
210
0.0
220
0.0
230
1.0
 40
0.2756373558
 41
1.058962528484104
 42
1.297231961706625
  0
LINE
  5
11E
330
76
100
AcDbEntity
  8
$DDT_AUDIT_GENERATED_(E0)
  6
Continuous
 62
     7
100
AcDbLine
 10
88.7419521281
 20
511.0859343726
 30
0.0
 11
88.7419521281
 21
511.6681442942
 31
0.0
  0
LINE
  5
11F
330
76
100
AcDbEntity
  8
$DDT_AUDIT_GENERATED_(E0)
  6
Continuous
 62
     7
100
AcDbLine
 10
89.5727042129
 20
511.4825502923
 30
0.0
 11
88.7419521281
 21
511.0859343726
 31
0.0
  0
LINE
  5
120
330
76
100
AcDbEntity
  8
$DDT_AUDIT_GENERATED_(E0)
  6
Continuous
 62
     7
100
AcDbLine
 10
89.7403200039
 20
511.4523181297
 30
0.0
 11
88.9151572089
 21
511.058370637
 31
0.0
  0
ELLIPSE
  5
121
330
76
100
AcDbEntity
  8
$DDT_AUDIT_GENERATED_(E0)
  6
Continuous
 62
     7
100
AcDbEllipse
 10
93.0782602557
 20
513.1010380994
 30
0.0
 11
-8.499999697761105
 21
6.012186581916268E-8
 31
0.0
210
0.0
220
0.0
230
1.0
 40
0.2756373558
 41
0.7736331996256292
 42
0.7971631547597872
  0
ELLIPSE
  5
122
330
76
100
AcDbEntity
  8
$DDT_AUDIT_GENERATED_(E0)
  6
Continuous
 62
     7
100
AcDbEllipse
 10
93.0782605406
 20
513.101038178
 30
0.0
 11
-8.499999999991486
 21
1.776356839400250E-12
 31
0.0
210
0.0
220
0.0
230
1.0
 40
0.2756373558
 41
0.7971631406858833
 42
1.035432573909014
  0
LINE
  5
123
330
76
100
AcDbEntity
  8
$DDT_AUDIT_GENERATED_(E0)
  6
Continuous
 62
     7
100
AcDbLine
 10
86.997558182
 20
511.4639504671
 30
0.0
 11
86.997558182
 21
512.1015315912
 31
0.0
  0
LINE
  5
124
330
76
100
AcDbEntity
  8
$DDT_AUDIT_GENERATED_(E0)
  6
Continuous
 62
     7
100
AcDbLine
 10
88.2593414144
 20
511.8117450609
 30
0.0
 11
86.997558182
 21
511.4639504671
 31
0.0
  0
LINE
  5
125
330
76
100
AcDbEntity
  8
$DDT_AUDIT_GENERATED_(E0)
  6
Continuous
 62
     7
100
AcDbLine
 10
88.3895666844
 20
511.7696779926
 30
0.0
 11
87.1389795382
 21
511.4249694584
 31
0.0
  0
ELLIPSE
  5
126
330
76
100
AcDbEntity
  8
$DDT_AUDIT_GENERATED_(E0)
  6
Continuous
 62
     7
100
AcDbEllipse
 10
93.0782601614
 20
513.1010381176
 30
0.0
 11
-8.499999616850323
 21
5.661636437448436E-8
 31
0.0
210
0.0
220
0.0
230
1.0
 40
0.2756373594
 41
0.511833810995894
 42
0.5353637661782036
  0
ELLIPSE
  5
127
330
76
100
AcDbEntity
  8
$DDT_AUDIT_GENERATED_(E0)
  6
Continuous
 62
     7
100
AcDbEllipse
 10
93.0782605406
 20
513.101038178
 30
0.0
 11
-8.499999999989766
 21
1.651456749129920E-12
 31
0.0
210
0.0
220
0.0
230
1.0
 40
0.2756373558
 41
0.5353637528867186
 42
0.7736331861098668
  0
LINE
  5
128
330
76
100
AcDbEntity
  8
$DDT_AUDIT_GENERATED_(E0)
  6
Continuous
 62
     7
100
AcDbLine
 10
85.6675540528
 20
511.9535313837
 30
0.0
 11
85.6675540528
 21
512.5251709811
 31
0.0
  0
LINE
  5
129
330
76
100
AcDbEntity
  8
$DDT_AUDIT_GENERATED_(E0)
  6
Continuous
 62
     7
100
AcDbLine
 10
87.3480334338
 20
512.2209616987
 30
0.0
 11
85.6675540528
 21
511.9535313837
 31
0.0
  0
LINE
  5
12A
330
76
100
AcDbEntity
  8
$DDT_AUDIT_GENERATED_(E0)
  6
Continuous
 62
     7
100
AcDbLine
 10
87.4312129208
 20
512.1705431035
 30
0.0
 11
85.7675540528
 21
511.9057895932
 31
0.0
  0
ELLIPSE
  5
12B
330
76
100
AcDbEntity
  8
$DDT_AUDIT_GENERATED_(E0)
  6
Continuous
 62
     7
100
AcDbEllipse
 10
93.0782601173
 20
513.1010381468
 30
0.0
 11
-8.499999576446973
 21
3.269061410460239E-8
 31
0.0
210
0.0
220
0.0
230
1.0
 40
0.275637362
 41
0.2500344177126712
 42
0.2735643728954124
  0
ELLIPSE
  5
12C
330
76
100
AcDbEntity
  8
$DDT_AUDIT_GENERATED_(E0)
  6
Continuous
 62
     7
100
AcDbEllipse
 10
93.0782605406
 20
513.101038178
 30
0.0
 11
-8.49999999999676
 21
-2.775557561562891E-13
 31
0.0
210
0.0
220
0.0
230
1.0
 40
0.2756373558
 41
0.2735643650872798
 42
0.511833798310293
  0
LINE
  5
12D
330
76
100
AcDbEntity
  8
$DDT_AUDIT_GENERATED_(E0)
  6
Continuous
 62
     7
100
AcDbLine
 10
84.842577324
 20
512.5213129919
 30
0.0
 11
84.842577324
 21
513.0734744425
 31
0.0
  0
LINE
  5
12E
330
76
100
AcDbEntity
  8
$DDT_AUDIT_GENERATED_(E0)
  6
Continuous
 62
     7
100
AcDbLine
 10
86.8874092631
 20
512.6723377496
 30
0.0
 11
84.842577324
 21
512.5213129919
 31
0.0
  0
LINE
  5
12F
330
76
100
AcDbEntity
  8
$DDT_AUDIT_GENERATED_(E0)
  6
Continuous
 62
     7
100
AcDbLine
 10
86.9182239436
 20
512.6175414657
 30
0.0
 11
84.894341133
 21
512.4680639438
 31
0.0
  0
ARC
  5
130
330
76
100
AcDbEntity
  8
$DDT_AUDIT_GENERATED_(E0)
  6
Continuous
 62
     7
100
AcDbCircle
 10
85.2245996944
 20
513.101038178
 30
0.0
 40
0.6463389063446071
100
AcDbArc
 50
177.5558259067
 51
182.4441740933
  0
ELLIPSE
  5
131
330
76
100
AcDbEntity
  8
$DDT_AUDIT_GENERATED_(E0)
  6
Continuous
 62
     7
100
AcDbEllipse
 10
93.0782605407
 20
513.101038178
 30
0.0
 11
-8.500000000027002
 21
-1.290634266126744E-12
 31
0.0
210
0.0
220
0.0
230
1.0
 40
0.2756373558
 41
0.0117649772880365
 42
0.2500344105106109
  0
ARC
  5
132
330
76
100
AcDbEntity
  8
$DDT_AUDIT_GENERATED_(E0)
  6
Continuous
 62
     7
100
AcDbCircle
 10
87.3038495067
 20
513.101038178
 30
0.0
 40
0.475588344256371
100
AcDbArc
 50
176.6774391781
 51
180.0
  0
LINE
  5
133
330
76
100
AcDbEntity
  8
$DDT_AUDIT_GENERATED_(E0)
  6
Continuous
 62
     7
100
AcDbLine
 10
86.8290605919
 20
513.1286019136
 30
0.0
 11
86.8290605919
 21
513.534048053
 31
0.0
  0
LINE
  5
134
330
76
100
AcDbEntity
  8
$DDT_AUDIT_GENERATED_(E0)
  6
Continuous
 62
     7
100
AcDbLine
 10
86.8290605919
 20
513.1286019136
 30
0.0
 11
84.5788487963
 21
513.1286019136
 31
0.0
  0
LINE
  5
135
330
76
100
AcDbEntity
  8
$DDT_AUDIT_GENERATED_(E0)
  6
Continuous
 62
     7
100
AcDbLine
 10
86.8282605406
 20
513.0734744425
 30
0.0
 11
84.5788487963
 21
513.0734744425
 31
0.0
  0
ELLIPSE
  5
136
330
76
100
AcDbEntity
  8
$DDT_AUDIT_GENERATED_(E0)
  6
Continuous
 62
     7
100
AcDbEllipse
 10
93.0782605407
 20
513.101038178
 30
0.0
 11
-8.500000000033079
 21
9.853229343548264E-13
 31
0.0
210
0.0
220
0.0
230
1.0
 40
0.2756373558
 41
6.033150896669044
 42
6.271420329891729
  0
ELLIPSE
  5
137
330
76
100
AcDbEntity
  8
$DDT_AUDIT_GENERATED_(E0)
  6
Continuous
 62
     7
100
AcDbEllipse
 10
93.0782604811
 20
513.1010381824
 30
0.0
 11
-6.249999940457111
 21
-4.582223489535409E-9
 31
0.0
210
0.0
220
0.0
230
1.0
 40
0.275637357
 41
-0.277800072057941
 42
-0.2457987064096088
  0
LINE
  5
138
330
76
100
AcDbEntity
  8
$DDT_AUDIT_GENERATED_(E0)
  6
Continuous
 62
     7
100
AcDbLine
 10
87.067878821
 20
513.573481859
 30
0.0
 11
87.067878821
 21
514.0256982668
 31
0.0
  0
LINE
  5
139
330
76
100
AcDbEntity
  8
$DDT_AUDIT_GENERATED_(E0)
  6
Continuous
 62
     7
100
AcDbLine
 10
87.067878821
 20
513.573481859
 30
0.0
 11
84.9082566042
 21
513.73298466
 31
0.0
  0
LINE
  5
13A
330
76
100
AcDbEntity
  8
$DDT_AUDIT_GENERATED_(E0)
  6
Continuous
 62
     7
100
AcDbLine
 10
87.016115012
 20
513.5202328108
 30
0.0
 11
84.842577324
 21
513.6807633641
 31
0.0
  0
ELLIPSE
  5
13B
330
76
100
AcDbEntity
  8
$DDT_AUDIT_GENERATED_(E0)
  6
Continuous
 62
     7
100
AcDbEllipse
 10
93.0782605909
 20
513.10103817
 30
0.0
 11
-6.250000050775497
 21
7.496461784661790E-9
 31
0.0
210
0.0
220
0.0
230
1.0
 40
0.2756373552
 41
-0.5395994559281112
 42
-0.5075980905860149
  0
LINE
  5
13C
330
76
100
AcDbEntity
  8
$DDT_AUDIT_GENERATED_(E0)
  6
Continuous
 62
     7
100
AcDbLine
 10
87.7162946317
 20
513.9861655482
 30
0.0
 11
87.7162946317
 21
514.5400152745
 31
0.0
  0
LINE
  5
13D
330
76
100
AcDbEntity
  8
$DDT_AUDIT_GENERATED_(E0)
  6
Continuous
 62
     7
100
AcDbLine
 10
87.7162946317
 20
513.9861655482
 30
0.0
 11
85.920569245
 21
514.2719360321
 31
0.0
  0
LINE
  5
13E
330
76
100
AcDbEntity
  8
$DDT_AUDIT_GENERATED_(E0)
  6
Continuous
 62
     7
100
AcDbLine
 10
87.6162946317
 20
513.9384237577
 30
0.0
 11
85.8085137842
 21
514.2261127392
 31
0.0
  0
ELLIPSE
  5
13F
330
76
100
AcDbEntity
  8
$DDT_AUDIT_GENERATED_(E0)
  6
Continuous
 62
     7
100
AcDbEllipse
 10
93.0782605911
 20
513.1010381642
 30
0.0
 11
-6.250000053471494
 21
1.062974708254671E-8
 31
0.0
210
0.0
220
0.0
230
1.0
 40
0.2756373558
 41
-0.801398842727453
 42
-0.7693974774192389
  0
LINE
  5
140
330
76
100
AcDbEntity
  8
$DDT_AUDIT_GENERATED_(E0)
  6
Continuous
 62
     7
100
AcDbLine
 10
88.730119558
 20
514.3385292699
 30
0.0
 11
88.730119558
 21
514.9858494829
 31
0.0
  0
LINE
  5
141
330
76
100
AcDbEntity
  8
$DDT_AUDIT_GENERATED_(E0)
  6
Continuous
 62
     7
100
AcDbLine
 10
88.730119558
 20
514.3385292699
 30
0.0
 11
87.3602001445
 21
514.7161302347
 31
0.0
  0
LINE
  5
142
330
76
100
AcDbEntity
  8
$DDT_AUDIT_GENERATED_(E0)
  6
Continuous
 62
     7
100
AcDbLine
 10
88.5886982017
 20
514.2995482612
 30
0.0
 11
87.2107482965
 21
514.6793627295
 31
0.0
  0
ELLIPSE
  5
143
330
76
100
AcDbEntity
  8
$DDT_AUDIT_GENERATED_(E0)
  6
Continuous
 62
     7
100
AcDbEllipse
 10
93.0782605096
 20
513.1010381929
 30
0.0
 11
-6.24999996120843
 21
-8.032269294133698E-9
 31
0.0
210
0.0
220
0.0
230
1.0
 40
0.2756373551
 41
-1.063198236530937
 42
-1.031196870881465
  0
LINE
  5
144
330
76
100
AcDbEntity
  8
$DDT_AUDIT_GENERATED_(E0)
  6
Continuous
 62
     7
100
AcDbLine
 10
90.0402631066
 20
514.6065600187
 30
0.0
 11
90.0402631066
 21
515.1558739973
 31
0.0
  0
LINE
  5
145
330
76
100
AcDbEntity
  8
$DDT_AUDIT_GENERATED_(E0)
  6
Continuous
 62
     7
100
AcDbLine
 10
90.0402631066
 20
514.6065600187
 30
0.0
 11
89.1226723472
 21
515.0446342765
 31
0.0
  0
LINE
  5
146
330
76
100
AcDbEntity
  8
$DDT_AUDIT_GENERATED_(E0)
  6
Continuous
 62
     7
100
AcDbLine
 10
89.8670580259
 20
514.5789962832
 30
0.0
 11
88.9454552538
 21
515.0189859476
 31
0.0
  0
ELLIPSE
  5
147
330
76
100
AcDbEntity
  8
$DDT_AUDIT_GENERATED_(E0)
  6
Continuous
 62
     7
100
AcDbEllipse
 10
93.0782605557
 20
513.1010381626
 30
0.0
 11
-6.250000030966818
 21
4.331299208182315E-9
 31
0.0
210
0.0
220
0.0
230
1.0
 40
0.2756373569
 41
-1.324997620313695
 42
-1.29299625497167
  0
LINE
  5
148
330
76
100
AcDbEntity
  8
$DDT_AUDIT_GENERATED_(E0)
  6
Continuous
 62
     7
100
AcDbLine
 10
91.5574411599
 20
514.7719919421
 30
0.0
 11
91.5574411599
 21
515.2699075343
 31
0.0
  0
LINE
  5
149
330
76
100
AcDbEntity
  8
$DDT_AUDIT_GENERATED_(E0)
  6
Continuous
 62
     7
100
AcDbLine
 10
91.5574411599
 20
514.7719919421
 30
0.0
 11
91.0986689816
 21
515.2439274945
 31
0.0
  0
LINE
  5
14A
330
76
100
AcDbEntity
  8
$DDT_AUDIT_GENERATED_(E0)
  6
Continuous
 62
     7
100
AcDbLine
 10
91.3642559946
 20
514.7577239027
 30
0.0
 11
90.9044094337
 21
515.2307646645
 31
0.0
  0
ARC
  5
14B
330
76
100
AcDbEntity
  8
$DDT_AUDIT_GENERATED_(E0)
  6
Continuous
 62
     7
100
AcDbCircle
 10
93.0782605406
 20
492.151733187
 30
0.0
 40
22.67203847794714
100
AcDbArc
 50
89.7472835742
 51
90.2527164258
  0
LINE
  5
14C
330
76
100
AcDbEntity
  8
$DDT_AUDIT_GENERATED_(E0)
  6
Continuous
 62
     7
100
AcDbLine
 10
93.1782605406
 20
514.8235511279
 30
0.0
 11
93.1782605406
 21
515.3066724169
 31
0.0
  0
LINE
  5
14D
330
76
100
AcDbEntity
  8
$DDT_AUDIT_GENERATED_(E0)
  6
Continuous
 62
     7
100
AcDbLine
 10
92.9782605406
 20
514.8235511279
 30
0.0
 11
92.9782605406
 21
515.3066724169
 31
0.0
  0
ELLIPSE
  5
14E
330
76
100
AcDbEntity
  8
$DDT_AUDIT_GENERATED_(E0)
  6
Continuous
 62
     7
100
AcDbEllipse
 10
93.0782605257
 20
513.1010381627
 30
0.0
 11
6.250000030732717
 21
4.296174527240737E-9
 31
0.0
210
0.0
220
0.0
230
1.0
 40
0.2756373569
 41
1.292996254983569
 42
1.324997620326676
  0
LINE
  5
14F
330
76
100
AcDbEntity
  8
$DDT_AUDIT_GENERATED_(E0)
  6
Continuous
 62
     7
100
AcDbLine
 10
94.7922650867
 20
514.7577239027
 30
0.0
 11
95.2521116476
 21
515.2307646645
 31
0.0
  0
LINE
  5
150
330
76
100
AcDbEntity
  8
$DDT_AUDIT_GENERATED_(E0)
  6
Continuous
 62
     7
100
AcDbLine
 10
94.5990799214
 20
514.7719919421
 30
0.0
 11
95.0578520996
 21
515.2439274945
 31
0.0
  0
LINE
  5
151
330
76
100
AcDbEntity
  8
$DDT_AUDIT_GENERATED_(E0)
  6
Continuous
 62
     7
100
AcDbLine
 10
94.5990799214
 20
514.7719919421
 30
0.0
 11
94.5990799214
 21
515.2699075343
 31
0.0
  0
ELLIPSE
  5
152
330
76
100
AcDbEntity
  8
$DDT_AUDIT_GENERATED_(E0)
  6
Continuous
 62
     7
100
AcDbEllipse
 10
93.0782605712
 20
513.1010381927
 30
0.0
 11
6.249999961775335
 21
-7.901623799710933E-9
 31
0.0
210
0.0
220
0.0
230
1.0
 40
0.2756373551
 41
1.031196870835968
 42
1.063198236483306
  0
LINE
  5
153
330
76
100
AcDbEntity
  8
$DDT_AUDIT_GENERATED_(E0)
  6
Continuous
 62
     7
100
AcDbLine
 10
96.2894630554
 20
514.5789962832
 30
0.0
 11
97.2110658275
 21
515.0189859476
 31
0.0
  0
LINE
  5
154
330
76
100
AcDbEntity
  8
$DDT_AUDIT_GENERATED_(E0)
  6
Continuous
 62
     7
100
AcDbLine
 10
96.1162579747
 20
514.6065600187
 30
0.0
 11
97.0338487341
 21
515.0446342765
 31
0.0
  0
LINE
  5
155
330
76
100
AcDbEntity
  8
$DDT_AUDIT_GENERATED_(E0)
  6
Continuous
 62
     7
100
AcDbLine
 10
96.1162579747
 20
514.6065600187
 30
0.0
 11
96.1162579747
 21
515.1558739973
 31
0.0
  0
ELLIPSE
  5
156
330
76
100
AcDbEntity
  8
$DDT_AUDIT_GENERATED_(E0)
  6
Continuous
 62
     7
100
AcDbEllipse
 10
93.0782604901
 20
513.101038164
 30
0.0
 11
6.250000053653115
 21
1.070114830081792E-8
 31
0.0
210
0.0
220
0.0
230
1.0
 40
0.2756373558
 41
0.7693974774129771
 42
0.801398842720365
  0
LINE
  5
157
330
76
100
AcDbEntity
  8
$DDT_AUDIT_GENERATED_(E0)
  6
Continuous
 62
     7
100
AcDbLine
 10
97.5678228796
 20
514.2995482612
 30
0.0
 11
98.9457727848
 21
514.6793627295
 31
0.0
  0
LINE
  5
158
330
76
100
AcDbEntity
  8
$DDT_AUDIT_GENERATED_(E0)
  6
Continuous
 62
     7
100
AcDbLine
 10
97.4264015233
 20
514.3385292699
 30
0.0
 11
98.7963209368
 21
514.7161302347
 31
0.0
  0
LINE
  5
159
330
76
100
AcDbEntity
  8
$DDT_AUDIT_GENERATED_(E0)
  6
Continuous
 62
     7
100
AcDbLine
 10
97.4264015233
 20
514.3385292699
 30
0.0
 11
97.4264015233
 21
514.9858494829
 31
0.0
  0
ELLIPSE
  5
15A
330
76
100
AcDbEntity
  8
$DDT_AUDIT_GENERATED_(E0)
  6
Continuous
 62
     7
100
AcDbEllipse
 10
93.078260582
 20
513.1010381846
 30
0.0
 11
6.249999958263517
 21
-6.162237387030700E-9
 31
0.0
210
0.0
220
0.0
230
1.0
 40
0.2756373563
 41
0.5075980947163774
 42
0.5395994603291381
  0
LINE
  5
15B
330
76
100
AcDbEntity
  8
$DDT_AUDIT_GENERATED_(E0)
  6
Continuous
 62
     7
100
AcDbLine
 10
98.5402264496
 20
513.9384237577
 30
0.0
 11
100.3480072971
 21
514.2261127392
 31
0.0
  0
LINE
  5
15C
330
76
100
AcDbEntity
  8
$DDT_AUDIT_GENERATED_(E0)
  6
Continuous
 62
     7
100
AcDbLine
 10
98.4402264496
 20
513.9861655482
 30
0.0
 11
100.2359518363
 21
514.2719360321
 31
0.0
  0
LINE
  5
15D
330
76
100
AcDbEntity
  8
$DDT_AUDIT_GENERATED_(E0)
  6
Continuous
 62
     7
100
AcDbLine
 10
98.4402264496
 20
513.9861655482
 30
0.0
 11
98.4402264496
 21
514.5400152745
 31
0.0
  0
ELLIPSE
  5
15E
330
76
100
AcDbEntity
  8
$DDT_AUDIT_GENERATED_(E0)
  6
Continuous
 62
     7
100
AcDbEllipse
 10
93.0782604848
 20
513.1010381739
 30
0.0
 11
6.250000055865938
 21
4.323888469492942E-9
 31
0.0
210
0.0
220
0.0
230
1.0
 40
0.2756373547
 41
0.2457987037809896
 42
0.2778000691236581
  0
LINE
  5
15F
330
76
100
AcDbEntity
  8
$DDT_AUDIT_GENERATED_(E0)
  6
Continuous
 62
     7
100
AcDbLine
 10
99.1404060693
 20
513.5202328108
 30
0.0
 11
101.3139437573
 21
513.6807633641
 31
0.0
  0
LINE
  5
160
330
76
100
AcDbEntity
  8
$DDT_AUDIT_GENERATED_(E0)
  6
Continuous
 62
     7
100
AcDbLine
 10
99.0886422603
 20
513.573481859
 30
0.0
 11
101.2482644771
 21
513.73298466
 31
0.0
  0
LINE
  5
161
330
76
100
AcDbEntity
  8
$DDT_AUDIT_GENERATED_(E0)
  6
Continuous
 62
     7
100
AcDbLine
 10
99.0886422603
 20
513.573481859
 30
0.0
 11
99.0886422603
 21
514.0256982668
 31
0.0
  0
ELLIPSE
  5
162
330
76
100
AcDbEntity
  8
$DDT_AUDIT_GENERATED_(E0)
  6
Continuous
 62
     7
100
AcDbEllipse
 10
93.0782605406
 20
513.101038178
 30
0.0
 11
-2.750000000002617
 21
0.0
 31
0.0
210
0.0
220
0.0
230
1.0
 40
0.2756373558
 41
3.141592653589793
 42
3.205272045846768
  0
LINE
  5
163
330
76
100
AcDbEntity
  8
$DDT_AUDIT_GENERATED_(E0)
  6
Continuous
 62
     7
100
AcDbLine
 10
95.8226867102
 20
513.4820854863
 30
0.0
 11
95.8226867102
 21
513.1492747153
 31
0.0
  0
LINE
  5
164
330
76
100
AcDbEntity
  8
$DDT_AUDIT_GENERATED_(E0)
  6
Continuous
 62
     7
100
AcDbLine
 10
95.8282605406
 20
513.0528016408
 30
0.0
 11
98.3021969521
 21
513.0528016408
 31
0.0
  0
LINE
  5
165
330
76
100
AcDbEntity
  8
$DDT_AUDIT_GENERATED_(E0)
  6
Continuous
 62
     7
100
AcDbLine
 10
95.8226867102
 20
513.1492747153
 30
0.0
 11
98.2552551909
 21
513.1492747153
 31
0.0
  0
ELLIPSE
  5
166
330
76
100
AcDbEntity
  8
$DDT_AUDIT_GENERATED_(E0)
  6
Continuous
 62
     7
100
AcDbEllipse
 10
93.078260539
 20
513.1010381783
 30
0.0
 11
5.25000000161597
 21
-2.380734498430570E-10
 31
0.0
210
0.0
220
0.0
230
1.0
 40
0.2756373558
 41
-0.5569382847649136
 42
-0.4902592662540179
  0
LINE
  5
167
330
76
100
AcDbEntity
  8
$DDT_AUDIT_GENERATED_(E0)
  6
Continuous
 62
     7
100
AcDbLine
 10
95.6451867388
 20
512.6368405801
 30
0.0
 11
97.5348673011
 21
512.3361181352
 31
0.0
  0
LINE
  5
168
330
76
100
AcDbEntity
  8
$DDT_AUDIT_GENERATED_(E0)
  6
Continuous
 62
     7
100
AcDbLine
 10
95.7517891148
 20
512.7312734635
 30
0.0
 11
97.7098673011
 21
512.4196662685
 31
0.0
  0
LINE
  5
169
330
76
100
AcDbEntity
  8
$DDT_AUDIT_GENERATED_(E0)
  6
Continuous
 62
     7
100
AcDbLine
 10
97.7098673011
 20
513.0528016408
 30
0.0
 11
97.7098673011
 21
512.4196662685
 31
0.0
  0
ELLIPSE
  5
16A
330
76
100
AcDbEntity
  8
$DDT_AUDIT_GENERATED_(E0)
  6
Continuous
 62
     7
100
AcDbEllipse
 10
93.0782605414
 20
513.1010381777
 30
0.0
 11
5.249999999030674
 21
2.039757251992569E-10
 31
0.0
210
0.0
220
0.0
230
1.0
 40
0.2756373558
 41
-1.080537060537837
 42
-1.013858042005403
  0
LINE
  5
16B
330
76
100
AcDbEntity
  8
$DDT_AUDIT_GENERATED_(E0)
  6
Continuous
 62
     7
100
AcDbLine
 10
94.6009781114
 20
512.2775924714
 30
0.0
 11
95.5502473563
 21
511.8243943374
 31
0.0
  0
LINE
  5
16C
330
76
100
AcDbEntity
  8
$DDT_AUDIT_GENERATED_(E0)
  6
Continuous
 62
     7
100
AcDbLine
 10
94.8816667872
 20
512.3365328209
 30
0.0
 11
95.8533562477
 21
511.8726308747
 31
0.0
  0
LINE
  5
16D
330
76
100
AcDbEntity
  8
$DDT_AUDIT_GENERATED_(E0)
  6
Continuous
 62
     7
100
AcDbLine
 10
95.8533562477
 20
512.6037126299
 30
0.0
 11
95.8533562477
 21
511.8726308747
 31
0.0
  0
ARC
  5
16E
330
76
100
AcDbEntity
  8
$DDT_AUDIT_GENERATED_(E0)
  6
Continuous
 62
     7
100
AcDbCircle
 10
93.0782605406
 20
530.6909269609
 30
0.0
 40
19.03698510749277
100
AcDbArc
 50
269.4732935609
 51
270.5267064391
  0
LINE
  5
16F
330
76
100
AcDbEntity
  8
$DDT_AUDIT_GENERATED_(E0)
  6
Continuous
 62
     7
100
AcDbLine
 10
92.9032605406
 20
512.1523194662
 30
0.0
 11
92.9032605406
 21
511.6547462257
 31
0.0
  0
LINE
  5
170
330
76
100
AcDbEntity
  8
$DDT_AUDIT_GENERATED_(E0)
  6
Continuous
 62
     7
100
AcDbLine
 10
93.2532605406
 20
512.1523194662
 30
0.0
 11
93.2532605406
 21
511.6547462257
 31
0.0
  0
ELLIPSE
  5
171
330
76
100
AcDbEntity
  8
$DDT_AUDIT_GENERATED_(E0)
  6
Continuous
 62
     7
100
AcDbEllipse
 10
93.0782605409
 20
513.1010381781
 30
0.0
 11
-5.250000000265366
 21
-5.288824933558089E-11
 31
0.0
210
0.0
220
0.0
230
1.0
 40
0.2756373558
 41
1.013858041915326
 42
1.080537060435264
  0
LINE
  5
172
330
76
100
AcDbEntity
  8
$DDT_AUDIT_GENERATED_(E0)
  6
Continuous
 62
     7
100
AcDbLine
 10
91.2748542941
 20
512.3365328209
 30
0.0
 11
90.3031648336
 21
511.8726308747
 31
0.0
  0
LINE
  5
173
330
76
100
AcDbEntity
  8
$DDT_AUDIT_GENERATED_(E0)
  6
Continuous
 62
     7
100
AcDbLine
 10
91.5555429699
 20
512.2775924714
 30
0.0
 11
90.606273725
 21
511.8243943374
 31
0.0
  0
LINE
  5
174
330
76
100
AcDbEntity
  8
$DDT_AUDIT_GENERATED_(E0)
  6
Continuous
 62
     7
100
AcDbLine
 10
90.3031648336
 20
512.6037126299
 30
0.0
 11
90.3031648336
 21
511.8726308747
 31
0.0
  0
ELLIPSE
  5
175
330
76
100
AcDbEntity
  8
$DDT_AUDIT_GENERATED_(E0)
  6
Continuous
 62
     7
100
AcDbEllipse
 10
93.0782605386
 20
513.1010381777
 30
0.0
 11
-5.249999997961377
 21
3.018418848199644E-10
 31
0.0
210
0.0
220
0.0
230
1.0
 40
0.2756373558
 41
0.4902592664416548
 42
0.5569382849790396
  0
LINE
  5
176
330
76
100
AcDbEntity
  8
$DDT_AUDIT_GENERATED_(E0)
  6
Continuous
 62
     7
100
AcDbLine
 10
90.4047319665
 20
512.7312734635
 30
0.0
 11
88.4466537802
 21
512.4196662685
 31
0.0
  0
LINE
  5
177
330
76
100
AcDbEntity
  8
$DDT_AUDIT_GENERATED_(E0)
  6
Continuous
 62
     7
100
AcDbLine
 10
90.5113343425
 20
512.6368405801
 30
0.0
 11
88.6216537802
 21
512.3361181352
 31
0.0
  0
LINE
  5
178
330
76
100
AcDbEntity
  8
$DDT_AUDIT_GENERATED_(E0)
  6
Continuous
 62
     7
100
AcDbLine
 10
88.4466537802
 20
513.0528016408
 30
0.0
 11
88.4466537802
 21
512.4196662685
 31
0.0
  0
LINE
  5
179
330
76
100
AcDbEntity
  8
$DDT_AUDIT_GENERATED_(E0)
  6
Continuous
 62
     7
100
AcDbLine
 10
90.3338343711
 20
513.4820854863
 30
0.0
 11
90.3338343711
 21
513.1492747153
 31
0.0
  0
ELLIPSE
  5
17A
330
76
100
AcDbEntity
  8
$DDT_AUDIT_GENERATED_(E0)
  6
Continuous
 62
     7
100
AcDbEllipse
 10
93.0782605406
 20
513.101038178
 30
0.0
 11
2.749999999995351
 21
0.0
 31
0.0
210
0.0
220
0.0
230
1.0
 40
0.2756373558
 41
3.077913261332675
 42
3.141592653589793
  0
LINE
  5
17B
330
76
100
AcDbEntity
  8
$DDT_AUDIT_GENERATED_(E0)
  6
Continuous
 62
     7
100
AcDbLine
 10
90.3338343711
 20
513.1492747153
 30
0.0
 11
87.9012658904
 21
513.1492747153
 31
0.0
  0
LINE
  5
17C
330
76
100
AcDbEntity
  8
$DDT_AUDIT_GENERATED_(E0)
  6
Continuous
 62
     7
100
AcDbLine
 10
90.3282605406
 20
513.0528016408
 30
0.0
 11
87.8543241292
 21
513.0528016408
 31
0.0
  0
LINE
  5
17D
330
76
100
AcDbEntity
  8
$DDT_AUDIT_GENERATED_(E0)
  6
Continuous
 62
     7
100
AcDbLine
 10
90.789017759
 20
514.0974905957
 30
0.0
 11
90.789017759
 21
513.521045431
 31
0.0
  0
ELLIPSE
  5
17E
330
76
100
AcDbEntity
  8
$DDT_AUDIT_GENERATED_(E0)
  6
Continuous
 62
     7
100
AcDbEllipse
 10
93.0782605406
 20
513.101038178
 30
0.0
 11
-2.749999999989959
 21
-2.248201624865942E-12
 31
0.0
210
0.0
220
0.0
230
1.0
 40
0.2756373558
 41
-0.5872781678565557
 42
-0.4599193833422586
  0
LINE
  5
17F
330
76
100
AcDbEntity
  8
$DDT_AUDIT_GENERATED_(E0)
  6
Continuous
 62
     7
100
AcDbLine
 10
90.789017759
 20
513.521045431
 30
0.0
 11
88.9714810174
 21
513.8102869587
 31
0.0
  0
LINE
  5
180
330
76
100
AcDbEntity
  8
$DDT_AUDIT_GENERATED_(E0)
  6
Continuous
 62
     7
100
AcDbLine
 10
90.614017759
 20
513.4374972977
 30
0.0
 11
88.7613536821
 21
513.7323289649
 31
0.0
  0
LINE
  5
181
330
76
100
AcDbEntity
  8
$DDT_AUDIT_GENERATED_(E0)
  6
Continuous
 62
     7
100
AcDbLine
 10
91.8576019015
 20
514.3162240917
 30
0.0
 11
91.8576019015
 21
513.7802755425
 31
0.0
  0
ELLIPSE
  5
182
330
76
100
AcDbEntity
  8
$DDT_AUDIT_GENERATED_(E0)
  6
Continuous
 62
     7
100
AcDbEllipse
 10
93.0782605407
 20
513.101038178
 30
0.0
 11
-2.750000000067254
 21
1.369737656631287E-11
 31
0.0
210
0.0
220
0.0
230
1.0
 40
0.2756373558
 41
-1.110876943442473
 42
-0.9835181589309183
  0
LINE
  5
183
330
76
100
AcDbEntity
  8
$DDT_AUDIT_GENERATED_(E0)
  6
Continuous
 62
     7
100
AcDbLine
 10
91.8576019015
 20
513.7802755425
 30
0.0
 11
90.9199287459
 21
514.2279374958
 31
0.0
  0
LINE
  5
184
330
76
100
AcDbEntity
  8
$DDT_AUDIT_GENERATED_(E0)
  6
Continuous
 62
     7
100
AcDbLine
 10
91.5544930102
 20
513.7320390052
 30
0.0
 11
90.6051628718
 21
514.1852662108
 31
0.0
  0
ARC
  5
185
330
76
100
AcDbEntity
  8
$DDT_AUDIT_GENERATED_(E0)
  6
Continuous
 62
     7
100
AcDbCircle
 10
93.0782605406
 20
503.9008491423
 30
0.0
 40
9.958193205617885
100
AcDbArc
 50
88.9930625598
 51
91.0069374402
  0
LINE
  5
186
330
76
100
AcDbEntity
  8
$DDT_AUDIT_GENERATED_(E0)
  6
Continuous
 62
     7
100
AcDbLine
 10
93.2532605406
 20
513.8575045506
 30
0.0
 11
93.2532605406
 21
514.3550777912
 31
0.0
  0
LINE
  5
187
330
76
100
AcDbEntity
  8
$DDT_AUDIT_GENERATED_(E0)
  6
Continuous
 62
     7
100
AcDbLine
 10
92.9032605406
 20
513.8575045506
 30
0.0
 11
92.9032605406
 21
514.3550777912
 31
0.0
  0
ELLIPSE
  5
188
330
76
100
AcDbEntity
  8
$DDT_AUDIT_GENERATED_(E0)
  6
Continuous
 62
     7
100
AcDbEllipse
 10
93.0782605406
 20
513.101038178
 30
0.0
 11
2.75000000001115
 21
2.040034807748725E-12
 31
0.0
210
0.0
220
0.0
230
1.0
 40
0.2756373558
 41
0.9835181589381543
 42
1.110876943451776
  0
LINE
  5
189
330
76
100
AcDbEntity
  8
$DDT_AUDIT_GENERATED_(E0)
  6
Continuous
 62
     7
100
AcDbLine
 10
94.2989191798
 20
514.3162240917
 30
0.0
 11
94.2989191798
 21
513.7802755425
 31
0.0
  0
LINE
  5
18A
330
76
100
AcDbEntity
  8
$DDT_AUDIT_GENERATED_(E0)
  6
Continuous
 62
     7
100
AcDbLine
 10
94.6020280711
 20
513.7320390052
 30
0.0
 11
95.5513582095
 21
514.1852662108
 31
0.0
  0
LINE
  5
18B
330
76
100
AcDbEntity
  8
$DDT_AUDIT_GENERATED_(E0)
  6
Continuous
 62
     7
100
AcDbLine
 10
94.2989191798
 20
513.7802755425
 30
0.0
 11
95.2365923354
 21
514.2279374958
 31
0.0
  0
ELLIPSE
  5
18C
330
76
100
AcDbEntity
  8
$DDT_AUDIT_GENERATED_(E0)
  6
Continuous
 62
     7
100
AcDbEllipse
 10
93.0782605407
 20
513.101038178
 30
0.0
 11
2.749999999991641
 21
-1.998401444325282E-12
 31
0.0
210
0.0
220
0.0
230
1.0
 40
0.2756373558
 41
0.4599193833421645
 42
0.5872781678564049
  0
LINE
  5
18D
330
76
100
AcDbEntity
  8
$DDT_AUDIT_GENERATED_(E0)
  6
Continuous
 62
     7
100
AcDbLine
 10
95.3675033223
 20
514.0974905957
 30
0.0
 11
95.3675033223
 21
513.521045431
 31
0.0
  0
LINE
  5
18E
330
76
100
AcDbEntity
  8
$DDT_AUDIT_GENERATED_(E0)
  6
Continuous
 62
     7
100
AcDbLine
 10
95.5425033223
 20
513.4374972977
 30
0.0
 11
97.3951673992
 21
513.7323289649
 31
0.0
  0
LINE
  5
18F
330
76
100
AcDbEntity
  8
$DDT_AUDIT_GENERATED_(E0)
  6
Continuous
 62
     7
100
AcDbLine
 10
95.3675033223
 20
513.521045431
 30
0.0
 11
97.1850400639
 21
513.8102869587
 31
0.0
  0
LINE
  5
190
330
76
100
AcDbEntity
  8
$DDT_AUDIT_GENERATED_(E0)
  6
Continuous
 62
     7
100
AcDbLine
 10
84.0782605406
 20
514.5260552873
 30
0.0
 11
84.0782605406
 21
512.9087858388
 31
0.0
  0
LINE
  5
191
330
76
100
AcDbEntity
  8
$DDT_AUDIT_GENERATED_(E0)
  6
Continuous
 62
     7
100
AcDbLine
 10
102.0782605406
 20
512.9087858388
 30
0.0
 11
102.0782605406
 21
514.5260552873
 31
0.0
  0
LINE
  5
192
330
76
100
AcDbEntity
  8
$DDT_AUDIT_GENERATED_(E0)
  6
Continuous
 62
     7
100
AcDbLine
 10
86.8282605406
 20
513.101038178
 30
0.0
 11
86.8282605406
 21
512.9087858388
 31
0.0
  0
LINE
  5
193
330
76
100
AcDbEntity
  8
$DDT_AUDIT_GENERATED_(E0)
  6
Continuous
 62
     7
100
AcDbLine
 10
99.3282605406
 20
512.9087858388
 30
0.0
 11
99.3282605406
 21
513.101038178
 31
0.0
  0
LINE
  5
194
330
76
100
AcDbEntity
  8
$DDT_AUDIT_GENERATED_(E0)
  6
Continuous
 62
     7
100
AcDbLine
 10
90.3282605406
 20
513.101038178
 30
0.0
 11
90.3282605406
 21
512.9087858388
 31
0.0
  0
LINE
  5
195
330
76
100
AcDbEntity
  8
$DDT_AUDIT_GENERATED_(E0)
  6
Continuous
 62
     7
100
AcDbLine
 10
95.8282605406
 20
512.9087858388
 30
0.0
 11
95.8282605406
 21
513.101038178
 31
0.0
  0
LINE
  5
196
330
76
100
AcDbEntity
  8
$DDT_AUDIT_GENERATED_(E0)
  6
Continuous
 62
     7
100
AcDbLine
 10
92.5586305968
 20
513.449018266
 30
0.0
 11
92.5586305968
 21
513.101038178
 31
0.0
  0
LINE
  5
197
330
76
100
AcDbEntity
  8
$DDT_AUDIT_GENERATED_(E0)
  6
Continuous
 62
     7
100
AcDbLine
 10
93.5978904845
 20
513.101038178
 30
0.0
 11
93.5978904845
 21
513.3387563048
 31
0.0
  0
ELLIPSE
  5
199
330
76
100
AcDbEntity
  8
$DDT_AUDIT_GENERATED_(198)
  6
Continuous
 62
     7
100
AcDbEllipse
 10
93.0782605406
 20
557.0979686513
 30
0.0
 11
0.0
 21
3.450000000000003
 31
0.0
210
0.0
220
0.0
230
1.0
 40
1.0
 41
1.570796326794897
 42
4.71238898038469
  0
LINE
  5
19B
330
76
100
AcDbEntity
  8
$DDT_AUDIT_GENERATED_(19A)
  6
Continuous
 62
     7
100
AcDbLine
 10
120.5782605406
 20
424.219394872
 30
0.0
 11
65.5782605406
 21
424.219394872
 31
0.0
  0
LINE
  5
19C
330
76
100
AcDbEntity
  8
$DDT_AUDIT_GENERATED_(19A)
  6
Continuous
 62
     7
100
AcDbLine
 10
66.5782605406
 20
430.219394872
 30
0.0
 11
119.5782605406
 21
430.219394872
 31
0.0
  0
LINE
  5
19D
330
76
100
AcDbEntity
  8
$DDT_AUDIT_GENERATED_(19A)
  6
Continuous
 62
     7
100
AcDbLine
 10
120.5782605406
 20
424.219394872
 30
0.0
 11
120.5782605406
 21
429.219394872
 31
0.0
  0
LINE
  5
19E
330
76
100
AcDbEntity
  8
$DDT_AUDIT_GENERATED_(19A)
  6
Continuous
 62
     7
100
AcDbLine
 10
65.5782605406
 20
429.219394872
 30
0.0
 11
65.5782605406
 21
424.219394872
 31
0.0
  0
ARC
  5
19F
330
76
100
AcDbEntity
  8
$DDT_AUDIT_GENERATED_(19A)
  6
Continuous
 62
     7
100
AcDbCircle
 10
119.5782605406
 20
429.219394872
 30
0.0
 40
1.000000000000001
100
AcDbArc
 50
0.0
 51
90.0
  0
ARC
  5
1A0
330
76
100
AcDbEntity
  8
$DDT_AUDIT_GENERATED_(19A)
  6
Continuous
 62
     7
100
AcDbCircle
 10
66.5782605406
 20
429.219394872
 30
0.0
 40
1.000000000000001
100
AcDbArc
 50
90.0
 51
180.0
  0
ENDBLK
  5
1A2
330
76
100
AcDbEntity
  8
0
100
AcDbBlockEnd
  0
BLOCK
  5
1F5
330
1A3
100
AcDbEntity
  8
0
100
AcDbBlockBegin
  2
SE1
 70
     0
 10
0.0
 20
0.0
 30
0.0
  3
SE1
  1

  0
LINE
  5
1A5
330
1A3
100
AcDbEntity
  8
$DDT_AUDIT_GENERATED_(78)
  6
Continuous
 62
     7
100
AcDbLine
 10
206.1151712464
 20
430.2193948711
 30
0.0
 11
206.1151712464
 21
455.1716067161
 31
0.0
  0
LINE
  5
1A6
330
1A3
100
AcDbEntity
  8
$DDT_AUDIT_GENERATED_(78)
  6
Continuous
 62
     7
100
AcDbLine
 10
344.6805569445
 20
525.9985695307
 30
0.0
 11
344.680557555
 21
531.3299383251
 31
0.0
  0
ARC
  5
1A7
330
1A3
100
AcDbEntity
  8
$DDT_AUDIT_GENERATED_(78)
  6
Continuous
 62
     7
100
AcDbCircle
 10
256.2651436065
 20
46.8703456641
 30
0.0
 40
486.7282764221951
100
AcDbArc
 50
79.5566094658
 51
91.2003693384
  0
SPLINE
  5
1A8
330
1A3
100
AcDbEntity
  8
$DDT_AUDIT_GENERATED_(78)
  6
Continuous
 62
     7
100
AcDbSpline
210
0.0
220
0.0
230
1.0
 70
    12
 71
     2
 72
     6
 73
     3
 74
     0
 42
0.0000000185141738
 43
0.0000000001
 40
0.0
 40
0.0
 40
0.0
 40
1.0
 40
1.0
 40
1.0
 10
344.6805569445311
 20
525.9985695306528
 30
0.0
 41
1.0
 10
344.6805569136076
 20
525.7285061697635
 30
0.0
 41
0.9257086898746284
 10
344.4914382637521
 20
525.5357152073716
 30
0.0
 41
1.0
  0
LINE
  5
1A9
330
1A3
100
AcDbEntity
  8
$DDT_AUDIT_GENERATED_(78)
  6
Continuous
 62
     7
100
AcDbLine
 10
249.1151712464
 20
503.6220062907
 30
0.0
 11
249.1151712464
 21
430.2193948711
 31
0.0
  0
SPLINE
  5
1AA
330
1A3
100
AcDbEntity
  8
$DDT_AUDIT_GENERATED_(78)
  6
Continuous
 62
     7
100
AcDbSpline
210
0.0
220
0.0
230
1.0
 70
     8
 71
     3
 72
    10
 73
     6
 74
     0
 42
0.0000000001876668
 43
0.0000000001
 40
0.0
 40
0.0
 40
0.0
 40
0.0
 40
0.6182274173270543
 40
0.761283491523669
 40
1.0
 40
1.0
 40
1.0
 40
1.0
 10
260.1030996772957
 20
515.5792514223468
 30
0.0
 10
273.5339210440766
 20
516.7160477583551
 30
0.0
 10
289.6226104943869
 20
517.0961724273602
 30
0.0
 10
308.2554319293583
 20
516.9437893750381
 30
0.0
 10
311.074861515067
 20
515.800044000222
 30
0.0
 10
313.0448249908955
 20
515.2783083327515
 30
0.0
  0
SPLINE
  5
1AB
330
1A3
100
AcDbEntity
  8
$DDT_AUDIT_GENERATED_(78)
  6
Continuous
 62
     7
100
AcDbSpline
210
0.0
220
0.0
230
1.0
 70
     8
 71
     3
 72
    14
 73
    10
 74
     0
 42
0.0000000005574607
 43
0.0000000001
 40
0.0
 40
0.0
 40
0.0
 40
0.0
 40
0.25
 40
0.25
 40
0.5
 40
0.5
 40
0.75
 40
0.75
 40
1.0
 40
1.0
 40
1.0
 40
1.0
 10
260.1030996772957
 20
515.5792514223468
 30
0.0
 10
258.6220387040395
 20
515.4538931406884
 30
0.0
 10
257.1650004720047
 20
515.0502785642317
 30
0.0
 10
254.496073250464
 20
513.7411365905517
 30
0.0
 10
253.2850267824508
 20
512.8360224605923
 30
0.0
 10
251.2735948643036
 20
510.6471490380779
 30
0.0
 10
250.4738443788881
 20
509.3640807246134
 30
0.0
 10
249.3944622013339
 20
506.5942505247798
 30
0.0
 10
249.115171246356
 20
505.1083630127497
 30
0.0
 10
249.115171246356
 20
503.6220062906662
 30
0.0
  0
ARC
  5
1AC
330
1A3
100
AcDbEntity
  8
$DDT_AUDIT_GENERATED_(78)
  6
Continuous
 62
     7
100
AcDbCircle
 10
232.1205948475
 20
-2422.0512668505
 30
0.0
 40
2962.801416396719
100
AcDbArc
 50
89.7528615841
 51
89.8770820101
  0
ARC
  5
1AD
330
1A3
100
AcDbEntity
  8
$DDT_AUDIT_GENERATED_(78)
  6
Continuous
 62
     7
100
AcDbCircle
 10
250.1691267141
 20
40.4018261653
 30
0.0
 40
500.3485042009368
100
AcDbArc
 50
79.1586212101
 51
90.6033604605
  0
ARC
  5
1AE
330
1A3
100
AcDbEntity
  8
$DDT_AUDIT_GENERATED_(78)
  6
Continuous
 62
     7
100
AcDbCircle
 10
213.4521813051
 20
-14302.2693856946
 30
0.0
 40
14843.03381230169
100
AcDbArc
 50
89.9034022748
 51
90.0263916055
  0
SPLINE
  5
1AF
330
1A3
100
AcDbEntity
  8
$DDT_AUDIT_GENERATED_(78)
  6
Continuous
 62
     7
100
AcDbSpline
210
0.0
220
0.0
230
1.0
 70
     8
 71
     3
 72
    10
 73
     6
 74
     0
 42
0.0000000124188142
 43
0.0000000001
 40
0.0
 40
0.0
 40
0.0
 40
0.0
 40
0.5
 40
0.5
 40
1.0
 40
1.0
 40
1.0
 40
1.0
 10
206.115171246356
 20
540.2628519752959
 30
0.0
 10
206.115171246356
 20
540.393752663391
 30
0.0
 10
206.1690586484228
 20
540.5238472628185
 30
0.0
 10
206.3541812811294
 20
540.7089676869614
 30
0.0
 10
206.4842765234431
 20
540.7628535369507
 30
0.0
 10
206.6151772115288
 20
540.7628519752603
 30
0.0
  0
ARC
  5
1B0
330
1A3
100
AcDbEntity
  8
$DDT_AUDIT_GENERATED_(78)
  6
Continuous
 62
     7
100
AcDbCircle
 10
344.180557555
 20
531.3299383823
 30
0.0
 40
0.4999999999998674
100
AcDbArc
 50
0.0
 51
78.4971393871
  0
SPLINE
  5
1B1
330
1A3
100
AcDbEntity
  8
$DDT_AUDIT_GENERATED_(78)
  6
Continuous
 62
     7
100
AcDbSpline
210
0.0
220
0.0
230
1.0
 70
     8
 71
     3
 72
    14
 73
    10
 74
     0
 42
0.0000000013216632
 43
0.0000000001
 40
0.0
 40
0.0
 40
0.0
 40
0.0
 40
0.25
 40
0.25
 40
0.5
 40
0.5
 40
0.75
 40
0.75
 40
1.0
 40
1.0
 40
1.0
 40
1.0
 10
338.500681865105
 20
520.9355275811802
 30
0.0
 10
339.0239900355815
 20
521.2889126498426
 30
0.0
 10
339.5439993518534
 20
521.6464029019193
 30
0.0
 10
340.5781116866328
 20
522.3687333627915
 30
0.0
 10
341.0934823402448
 20
522.7319960921706
 30
0.0
 10
342.1091556672898
 20
523.4772725530916
 30
0.0
 10
342.6090043355142
 20
523.8598512609971
 30
0.0
 10
343.578091045629
 20
524.663101368317
 30
0.0
 10
344.0476782563094
 20
525.0833382526429
 30
0.0
 10
344.4914382637521
 20
525.5357152073716
 30
0.0
  0
LINE
  5
1B2
330
1A3
100
AcDbEntity
  8
$DDT_AUDIT_GENERATED_(78)
  6
Continuous
 62
     7
100
AcDbLine
 10
338.4753353975
 20
520.9184162687
 30
0.0
 11
338.4173036247
 21
520.879276268
 31
0.0
  0
LINE
  5
1B3
330
1A3
100
AcDbEntity
  8
$DDT_AUDIT_GENERATED_(78)
  6
Continuous
 62
     7
100
AcDbLine
 10
338.4753353975
 20
520.9184162687
 30
0.0
 11
338.5006818651
 21
520.9355275812
 31
0.0
  0
LINE
  5
1B4
330
1A3
100
AcDbEntity
  8
$DDT_AUDIT_GENERATED_(78)
  6
Continuous
 62
     7
100
AcDbLine
 10
206.1151712464
 20
475.8509517961
 30
0.0
 11
206.1151712464
 21
540.2628519753
 31
0.0
  0
ARC
  5
1B5
330
1A3
100
AcDbEntity
  8
$DDT_AUDIT_GENERATED_(78)
  6
Continuous
 62
     7
100
AcDbCircle
 10
-58.0350331727
 20
465.5112792561
 30
0.0
 40
264.3524906689335
100
AcDbArc
 50
357.7584067692
 51
2.2415932308
  0
LINE
  5
1B6
330
1A3
100
AcDbEntity
  8
$DDT_AUDIT_GENERATED_(78)
  6
Continuous
 62
     7
100
AcDbLine
 10
313.0710033453
 20
515.2713898139
 30
0.0
 11
313.0448249909
 21
515.2783083328
 31
0.0
  0
ARC
  5
1B7
330
1A3
100
AcDbEntity
  8
$DDT_AUDIT_GENERATED_(78)
  6
Continuous
 62
     7
100
AcDbCircle
 10
344.1931659272
 20
531.3519935947
 30
0.0
 40
0.4755609905530132
100
AcDbArc
 50
357.3950506372
 51
71.5247321576
  0
ARC
  5
1B8
330
1A3
100
AcDbEntity
  8
$DDT_AUDIT_GENERATED_(78)
  6
Continuous
 62
     7
100
AcDbCircle
 10
344.1932081103
 20
531.3520003064
 30
0.0
 40
0.4755269621392021
100
AcDbArc
 50
357.3767155538
 51
11.1176197877
  0
ARC
  5
1B9
330
1A3
100
AcDbEntity
  8
$DDT_AUDIT_GENERATED_(78)
  6
Continuous
 62
     7
100
AcDbCircle
 10
344.1932081103
 20
531.3520003064
 30
0.0
 40
0.4755269621392021
100
AcDbArc
 50
56.5299600819
 51
71.4786274065
  0
SPLINE
  5
1BA
330
1A3
100
AcDbEntity
  8
$DDT_AUDIT_GENERATED_(78)
  6
Continuous
 62
     7
100
AcDbSpline
210
0.0
220
0.0
230
1.0
 70
     8
 71
     3
 72
    50
 73
    46
 74
     0
 42
0.00000000038155
 43
0.0000000001
 40
0.0
 40
0.0
 40
0.0
 40
0.0
 40
0.0006171605237816
 40
0.0033364648264085
 40
0.0055751833966039
 40
0.0076404389552095
 40
0.0103662822521347
 40
0.0155156045960034
 40
0.0256147684196183
 40
0.0494791347270945
 40
0.0800377119591699
 40
0.1123869660449887
 40
0.1440696964204972
 40
0.1753787847233268
 40
0.2063377774046803
 40
0.2370769708094826
 40
0.2689058804138722
 40
0.3006688528697835
 40
0.33203853371609
 40
0.362692516619016
 40
0.3924548776864297
 40
0.4219470994024265
 40
0.4518342236905363
 40
0.4819300319983781
 40
0.512141080327828
 40
0.5424467573926604
 40
0.5733085149486117
 40
0.6047246282332245
 40
0.6365775429001169
 40
0.6687018079144911
 40
0.7008904443264825
 40
0.732884469470665
 40
0.7645143502342941
 40
0.7956664660105682
 40
0.8263164239848284
 40
0.8568470674087728
 40
0.8876204518547596
 40
0.9188677184302502
 40
0.9505085691965202
 40
0.9825831689899652
 40
0.9913306329276738
 40
0.9947125001675308
 40
0.9963352424799742
 40
0.9983412398405133
 40
1.0
 40
1.0
 40
1.0
 40
1.0
 10
313.0596493244789
 20
515.2424127967023
 30
0.0
 10
313.067642412892
 20
515.2386205996615
 30
0.0
 10
313.104681197552
 20
515.2210807846371
 30
0.0
 10
313.1765917553212
 20
515.2114293926991
 30
0.0
 10
313.2493096834135
 20
515.2092401719606
 30
0.0
 10
313.3001232008751
 20
515.2144257714203
 30
0.0
 10
313.3428478593227
 20
515.2220177652428
 30
0.0
 10
313.3826558612216
 20
515.2323346628584
 30
0.0
 10
313.4366125719706
 20
515.2490265704334
 30
0.0
 10
313.5393495872394
 20
515.285473900874
 30
0.0
 10
313.7600879569345
 20
515.3702503361632
 30
0.0
 10
314.1070481085866
 20
515.511172807041
 30
0.0
 10
314.5655208454692
 20
515.7054699699133
 30
0.0
 10
315.1193093544736
 20
515.9483880986495
 30
0.0
 10
315.7646889854179
 20
516.2419878809259
 30
0.0
 10
316.4973190860325
 20
516.5806196142757
 30
0.0
 10
317.3200791778521
 20
516.9515642070991
 30
0.0
 10
318.2308057614738
 20
517.3411271802934
 30
0.0
 10
319.2083474309069
 20
517.7269627621753
 30
0.0
 10
320.2356673360791
 20
518.0914857443131
 30
0.0
 10
321.3073561562265
 20
518.4141517019515
 30
0.0
 10
322.4191928170842
 20
518.7010097955838
 30
0.0
 10
323.5723127433474
 20
518.9533306100358
 30
0.0
 10
324.7597903106074
 20
519.1713004766804
 30
0.0
 10
325.965998212387
 20
519.3476613285962
 30
0.0
 10
327.1776421628085
 20
519.5158486481778
 30
0.0
 10
328.3891200525666
 20
519.6739583814034
 30
0.0
 10
329.5929501040656
 20
519.8227244385652
 30
0.0
 10
330.7735827405353
 20
519.9611835128959
 30
0.0
 10
331.9130944470228
 20
520.0885105823379
 30
0.0
 10
332.9925037065614
 20
520.203905585544
 30
0.0
 10
333.9937618562566
 20
520.3067779798337
 30
0.0
 10
334.9015593319002
 20
520.3970893403969
 30
0.0
 10
335.7031471828719
 20
520.4743141988804
 30
0.0
 10
336.3958420456884
 20
520.5415548368433
 30
0.0
 10
336.9776810358766
 20
520.6028163451919
 30
0.0
 10
337.4531730145513
 20
520.6559329821337
 30
0.0
 10
337.8196163326227
 20
520.6997314385026
 30
0.0
 10
338.0733961003219
 20
520.7326791898123
 30
0.0
 10
338.1750410712243
 20
520.747354367124
 30
0.0
 10
338.2187236904313
 20
520.7555053186445
 30
0.0
 10
338.264139379225
 20
520.7655555138224
 30
0.0
 10
338.3194024010177
 20
520.7852608273673
 30
0.0
 10
338.3792733700389
 20
520.8119557431692
 30
0.0
 10
338.4137922179752
 20
520.8412333909415
 30
0.0
 10
338.4321823781797
 20
520.8568121727243
 30
0.0
  0
LINE
  5
1BB
330
1A3
100
AcDbEntity
  8
$DDT_AUDIT_GENERATED_(9B)
  6
Continuous
 62
     7
100
AcDbLine
 10
247.0651738213
 20
540.7593948711
 30
0.0
 11
227.6151738213
 21
540.7593948711
 31
0.0
  0
LINE
  5
1BC
330
1A3
100
AcDbEntity
  8
$DDT_AUDIT_GENERATED_(9B)
  6
Continuous
 62
     7
100
AcDbLine
 10
215.1151738213
 20
548.6074716804
 30
0.0
 11
216.6876147769
 21
548.6074716804
 31
0.0
  0
ARC
  5
1BD
330
1A3
100
AcDbEntity
  8
$DDT_AUDIT_GENERATED_(9B)
  6
Continuous
 62
     7
100
AcDbCircle
 10
227.6151738213
 20
532.3593948711
 30
0.0
 40
20.5
100
AcDbArc
 50
24.189514154
 51
30.3407775683
  0
ARC
  5
1BE
330
1A3
100
AcDbEntity
  8
$DDT_AUDIT_GENERATED_(9B)
  6
Continuous
 62
     7
100
AcDbCircle
 10
227.6151738213
 20
532.3593948711
 30
0.0
 40
20.50000000000001
100
AcDbArc
 50
127.5718693197
 51
155.810485846
  0
ARC
  5
1BF
330
1A3
100
AcDbEntity
  8
$DDT_AUDIT_GENERATED_(9F)
  6
Continuous
 62
     7
100
AcDbCircle
 10
315.2452100177
 20
70.9117995699
 30
0.0
 40
507.2819846037756
100
AcDbArc
 50
89.8301672194
 51
97.6709725067
  0
ARC
  5
1C0
330
1A3
100
AcDbEntity
  8
$DDT_AUDIT_GENERATED_(9F)
  6
Continuous
 62
     7
100
AcDbCircle
 10
318.0093879749
 20
40.4720950458
 30
0.0
 40
538.9204277568177
100
AcDbArc
 50
90.0384443915
 51
97.5290110579
  0
ARC
  5
1C1
330
1A3
100
AcDbEntity
  8
$DDT_AUDIT_GENERATED_(9F)
  6
Continuous
 62
     7
100
AcDbCircle
 10
241.3411469018
 20
615.6965164986
 30
0.0
 40
41.39535522172852
100
AcDbArc
 50
272.4184072004
 51
278.4102457302
  0
ARC
  5
1C2
330
1A3
100
AcDbEntity
  8
$DDT_AUDIT_GENERATED_(9F)
  6
Continuous
 62
     7
100
AcDbCircle
 10
373.8716054062
 20
-333.5024491921
 30
0.0
 40
919.8144856991839
100
AcDbArc
 50
98.2012861012
 51
100.4810931483
  0
ARC
  5
1C3
330
1A3
100
AcDbEntity
  8
$DDT_AUDIT_GENERATED_(9F)
  6
Continuous
 62
     7
100
AcDbCircle
 10
332.0260401348
 20
-54.9168044721
 30
0.0
 40
638.1108139826246
100
AcDbArc
 50
97.6274076626
 51
98.0507041937
  0
ARC
  5
1C4
330
1A3
100
AcDbEntity
  8
$DDT_AUDIT_GENERATED_(9F)
  6
Continuous
 62
     7
100
AcDbCircle
 10
309.3543473465
 20
145.4225553875
 30
0.0
 40
436.5542410080823
100
AcDbArc
 50
89.0085964319
 51
98.1681546145
  0
SPLINE
  5
1C5
330
1A3
100
AcDbEntity
  8
$DDT_AUDIT_GENERATED_(9F)
  6
Continuous
 62
     7
100
AcDbSpline
210
0.0
220
0.0
230
1.0
 70
     8
 71
     3
 72
    10
 73
     6
 74
     0
 42
0.0000000140782437
 43
0.0000000001
 40
0.0
 40
0.0
 40
0.0
 40
0.0
 40
0.5
 40
0.5
 40
1.0
 40
1.0
 40
1.0
 40
1.0
 10
206.1356726213457
 20
570.472814825179
 30
0.0
 10
206.1356726213457
 20
570.5888880579903
 30
0.0
 10
206.1776471984329
 20
570.7045165889634
 30
0.0
 10
206.3265669065947
 20
570.8826033712409
 30
0.0
 10
206.4329414938295
 20
570.9443793332913
 30
0.0
 10
206.5471824389722
 20
570.9649220163717
 30
0.0
  0
LINE
  5
1C6
330
1A3
100
AcDbEntity
  8
$DDT_AUDIT_GENERATED_(9F)
  6
Continuous
 62
     7
100
AcDbLine
 10
206.1356726213
 20
553.7438239589
 30
0.0
 11
206.1356726213
 21
570.4728148252
 31
0.0
  0
LINE
  5
1C7
330
1A3
100
AcDbEntity
  8
$DDT_AUDIT_GENERATED_(9F)
  6
Continuous
 62
     7
100
AcDbLine
 10
248.8462142011
 20
542.7148054005
 30
0.0
 11
230.0427027594
 21
542.7148054005
 31
0.0
  0
LINE
  5
1C8
330
1A3
100
AcDbEntity
  8
$DDT_AUDIT_GENERATED_(9F)
  6
Continuous
 62
     7
100
AcDbLine
 10
228.7748479741
 20
542.9958820394
 30
0.0
 11
206.3088871428
 21
553.4719316228
 31
0.0
  0
ARC
  5
1C9
330
1A3
100
AcDbEntity
  8
$DDT_AUDIT_GENERATED_(9F)
  6
Continuous
 62
     7
100
AcDbCircle
 10
230.0427027594
 20
545.7148054005
 30
0.0
 40
2.999999999998922
100
AcDbArc
 50
245.0
 51
270.0
  0
SPLINE
  5
1CA
330
1A3
100
AcDbEntity
  8
$DDT_AUDIT_GENERATED_(9F)
  6
Continuous
 62
     7
100
AcDbSpline
210
0.0
220
0.0
230
1.0
 70
     8
 71
     3
 72
    10
 73
     6
 74
     0
 42
0.0000000289973401
 43
0.0000000001
 40
0.0
 40
0.0
 40
0.0
 40
0.0
 40
0.5
 40
0.5
 40
1.0
 40
1.0
 40
1.0
 40
1.0
 10
206.3088871428235
 20
553.4719316228111
 30
0.0
 10
206.2574784643327
 20
553.4959038832869
 30
0.0
 10
206.2131325411167
 20
553.534794214177
 30
0.0
 10
206.152177834087
 20
553.630473938659
 30
0.0
 10
206.1356726213457
 20
553.6871007582322
 30
0.0
 10
206.1356726213457
 20
553.7438239589221
 30
0.0
  0
SPLINE
  5
1CB
330
1A3
100
AcDbEntity
  8
$DDT_AUDIT_GENERATED_(9F)
  6
Continuous
 62
     7
100
AcDbSpline
210
0.0
220
0.0
230
1.0
 70
     8
 71
     3
 72
    10
 73
     6
 74
     0
 42
0.0000000207030041
 43
0.0000000001
 40
0.0
 40
0.0
 40
0.0
 40
0.0
 40
0.5
 40
0.5
 40
1.0
 40
1.0
 40
1.0
 40
1.0
 10
249.1462141829128
 20
543.0147008400695
 30
0.0
 10
249.1461868151382
 20
542.9361784552326
 30
0.0
 10
249.1138426538772
 20
542.8581504390022
 30
0.0
 10
249.0027758752929
 20
542.7471223642965
 30
0.0
 10
248.9247365907405
 20
542.7148054004682
 30
0.0
 10
248.8462142011342
 20
542.7148054004682
 30
0.0
  0
ARC
  5
1CC
330
1A3
100
AcDbEntity
  8
$DDT_AUDIT_GENERATED_(9F)
  6
Continuous
 62
     7
100
AcDbCircle
 10
247.415863513
 20
587.4252949244
 30
0.0
 40
13.78433225365118
100
AcDbArc
 50
251.700895141
 51
270.0415449312
  0
LINE
  5
1CD
330
1A3
100
AcDbEntity
  8
$DDT_AUDIT_GENERATED_(9F)
  6
Continuous
 62
     7
100
AcDbLine
 10
249.1562083053
 20
571.689386092
 30
0.0
 11
249.1524300226
 21
560.848907795
 31
0.0
  0
ARC
  5
1CE
330
1A3
100
AcDbEntity
  8
$DDT_AUDIT_GENERATED_(9F)
  6
Continuous
 62
     7
100
AcDbCircle
 10
251.1562081838
 20
571.6886890227
 30
0.0
 40
1.999999999999571
100
AcDbArc
 50
96.696596928
 51
179.9800304344
  0
LINE
  5
1CF
330
1A3
100
AcDbEntity
  8
$DDT_AUDIT_GENERATED_(9F)
  6
Continuous
 62
     7
100
AcDbLine
 10
249.1498182052
 20
553.3551991743
 30
0.0
 11
249.1462141829
 21
543.0147008401
 31
0.0
  0
ARC
  5
1D0
330
1A3
100
AcDbEntity
  8
$DDT_AUDIT_GENERATED_(9F)
  6
Continuous
 62
     7
100
AcDbCircle
 10
272.2931530973
 20
557.1333384789
 30
0.0
 40
23.43711841852393
100
AcDbArc
 50
170.8782121986
 51
189.0818486703
  0
LINE
  5
1D1
330
1A3
100
AcDbEntity
  8
$DDT_AUDIT_GENERATED_(9F)
  6
Continuous
 62
     7
100
AcDbLine
 10
317.647747431
 20
579.3925653607
 30
0.0
 11
317.3918474399
 21
581.4767741727
 31
0.0
  0
SPLINE
  5
1D2
330
1A3
100
AcDbEntity
  8
$DDT_AUDIT_GENERATED_(9F)
  6
Continuous
 62
     7
100
AcDbSpline
210
0.0
220
0.0
230
1.0
 70
     8
 71
     3
 72
    36
 73
    32
 74
     0
 42
0.0000000001514184
 43
0.0000000001
 40
0.0
 40
0.0
 40
0.0
 40
0.0
 40
0.0189561741213241
 40
0.1011697761144387
 40
0.1772828148374706
 40
0.246185742828318
 40
0.3078716874031751
 40
0.3630868740016517
 40
0.4125312142437492
 40
0.4637647128770054
 40
0.5089046558785439
 40
0.5487416003511758
 40
0.5838620291249338
 40
0.6146931844174919
 40
0.6416323080763797
 40
0.6693458138216919
 40
0.6925925076031185
 40
0.7121926045189866
 40
0.7348874869014005
 40
0.7608422548398298
 40
0.7832987749715625
 40
0.8070118694872268
 40
0.8349301696911126
 40
0.851606986042928
 40
0.8709119521351303
 40
0.8936796249768268
 40
0.9095380057582299
 40
0.9278287337251786
 40
0.9494252027225926
 40
0.9753376403631805
 40
1.0
 40
1.0
 40
1.0
 40
1.0
 10
250.9235433535153
 20
573.6705438781737
 30
0.0
 10
251.3792446900244
 20
573.7256454630071
 30
0.0
 10
253.4612343933418
 20
573.9771333882761
 30
0.0
 10
257.4608116333856
 20
574.4142084586523
 30
0.0
 10
262.3962305879227
 20
574.9286297490669
 30
0.0
 10
266.9344882056484
 20
575.3686646787465
 30
0.0
 10
271.0059377188578
 20
575.7373839203909
 30
0.0
 10
274.6554096358767
 20
576.0441951284199
 30
0.0
 10
278.0767268264578
 20
576.310396977983
 30
0.0
 10
281.2785903320681
 20
576.5389637501617
 30
0.0
 10
284.270768505257
 20
576.7332046047462
 30
0.0
 10
286.9099062376985
 20
576.8897089067897
 30
0.0
 10
289.2352978706628
 20
577.0153801702098
 30
0.0
 10
291.2777699659428
 20
577.1141748175279
 30
0.0
 10
293.1578908726067
 20
577.1938194306197
 30
0.0
 10
294.8716717558157
 20
577.254486143473
 30
0.0
 10
296.4244053018182
 20
577.296353633204
 30
0.0
 10
297.8670034778963
 20
577.321854657665
 30
0.0
 10
299.3694568617155
 20
577.3293272002882
 30
0.0
 10
300.9347374775938
 20
577.3076968892613
 30
0.0
 10
302.5215832473842
 20
577.2542633589735
 30
0.0
 10
304.1512478346626
 20
577.1893385795335
 30
0.0
 10
305.6552019811461
 20
577.1719428772426
 30
0.0
 10
307.0617446489677
 20
577.1969307728939
 30
0.0
 10
308.3540936088133
 20
577.2478582143907
 30
0.0
 10
309.6272355711589
 20
577.3250440716016
 30
0.0
 10
310.8761590717554
 20
577.4212460000736
 30
0.0
 10
312.099234786483
 20
577.5391468226985
 30
0.0
 10
313.5306154319995
 20
577.7082434565092
 30
0.0
 10
315.1367741752236
 20
577.9316037440301
 30
0.0
 10
316.1557544296147
 20
578.0973429721344
 30
0.0
 10
316.7450468702245
 20
578.1941736049353
 30
0.0
  0
ARC
  5
1D3
330
1A3
100
AcDbEntity
  8
$DDT_AUDIT_GENERATED_(9F)
  6
Continuous
 62
     7
100
AcDbCircle
 10
316.572598561
 20
579.2603631643
 30
0.0
 40
1.083244136084744
100
AcDbArc
 50
279.3645169185
 51
6.9997326442
  0
ARC
  5
1D4
330
1A3
100
AcDbEntity
  8
$DDT_AUDIT_GENERATED_(9F)
  6
Continuous
 62
     7
100
AcDbCircle
 10
316.9037714269
 20
581.4228294538
 30
0.0
 40
0.4870927145312982
100
AcDbArc
 50
6.7401935457
 51
75.0652731845
  0
LINE
  5
1D5
330
1A3
100
AcDbEntity
  8
02636038_GEHÄUSE
  6
Continuous
 62
     7
100
AcDbLine
 10
316.8346021825
 20
510.3301889422
 30
0.0
 11
337.5017286452
 21
516.2563920923
 31
0.0
  0
SPLINE
  5
1D6
330
1A3
100
AcDbEntity
  8
02636038_GEHÄUSE
  6
Continuous
 62
     7
100
AcDbSpline
210
0.0
220
0.0
230
1.0
 70
     8
 71
     3
 72
    10
 73
     6
 74
     0
 42
0.0000000019260148
 43
0.0000000001
 40
0.0
 40
0.0
 40
0.0
 40
0.0
 40
0.5
 40
0.5
 40
1.0
 40
1.0
 40
1.0
 40
1.0
 10
329.5669454728989
 20
514.3114690682319
 30
0.0
 10
328.7697178881454
 20
513.9643590715248
 30
0.0
 10
327.9573615092162
 20
513.6697536680323
 30
0.0
 10
326.29982932622
 20
513.1944429211834
 30
0.0
 10
325.4546530800617
 20
513.0137391121086
 30
0.0
 10
324.5943321231023
 20
512.8855951350151
 30
0.0
  0
LINE
  5
1D7
330
1A3
100
AcDbEntity
  8
02636038_GEHÄUSE
  6
Continuous
 62
     7
100
AcDbLine
 10
330.4466398857
 20
517.3542762519
 30
0.0
 11
322.2358668071
 21
514.9998749581
 31
0.0
  0
LINE
  5
1D8
330
1A3
100
AcDbEntity
  8
02636038_GEHÄUSE
  6
Continuous
 62
     7
100
AcDbLine
 10
330.4466398857
 20
517.3542762519
 30
0.0
 11
330.9473163849
 21
515.6082097969
 31
0.0
  0
SPLINE
  5
1D9
330
1A3
100
AcDbEntity
  8
02636038_GEHÄUSE
  6
Continuous
 62
     7
100
AcDbSpline
210
0.0
220
0.0
230
1.0
 70
     8
 71
     3
 72
    14
 73
    10
 74
     0
 42
0.0000000049321089
 43
0.0000000001
 40
0.0
 40
0.0
 40
0.0
 40
0.0
 40
0.1250000000000004
 40
0.1250000000000004
 40
0.2500000000000009
 40
0.2500000000000009
 40
0.5000000000000008
 40
0.5000000000000008
 40
1.0
 40
1.0
 40
1.0
 40
1.0
 10
330.9473163849166
 20
515.6082097968875
 30
0.0
 10
330.970536433803
 20
515.5272318630143
 30
0.0
 10
330.9628410323031
 20
515.4374973039602
 30
0.0
 10
330.9091226110358
 20
515.2772862963859
 30
0.0
 10
330.864708024026
 20
515.2031569281118
 30
0.0
 10
330.7118897853309
 20
515.0021260071824
 30
0.0
 10
330.5816247564998
 20
514.8904908203444
 30
0.0
 10
330.176331908604
 20
514.5959966510986
 30
0.0
 10
329.8737994587121
 20
514.4450721798679
 30
0.0
 10
329.5669454728989
 20
514.3114690682319
 30
0.0
  0
SPLINE
  5
1DA
330
1A3
100
AcDbEntity
  8
02636038_GEHÄUSE
  6
Continuous
 62
     7
100
AcDbSpline
210
0.0
220
0.0
230
1.0
 70
     8
 71
     3
 72
    18
 73
    14
 74
     0
 42
0.0000000049401632
 43
0.0000000001
 40
0.0
 40
0.0
 40
0.0
 40
0.0
 40
0.2499999999999998
 40
0.2499999999999998
 40
0.4999999999999997
 40
0.4999999999999997
 40
0.6249999999999992
 40
0.6249999999999992
 40
0.7499999999999989
 40
0.7499999999999989
 40
0.8749999999999994
 40
0.8749999999999994
 40
1.0
 40
1.0
 40
1.0
 40
1.0
 10
324.5943321231023
 20
512.8855951350151
 30
0.0
 10
324.4283240855476
 20
512.8608683978713
 30
0.0
 10
324.2617220778155
 20
512.841261375806
 30
0.0
 10
323.9265829667035
 20
512.8187268532145
 30
0.0
 10
323.758141180745
 20
512.8156308983195
 30
0.0
 10
323.5081055846331
 20
512.8333269155372
 30
0.0
 10
323.4250591563802
 20
512.842978758663
 30
0.0
 10
323.259873204425
 20
512.8736750293996
 30
0.0
 10
323.1772627244992
 20
512.8948611892716
 30
0.0
 10
323.0207900691022
 20
512.9543342140515
 30
0.0
 10
322.9448110610312
 20
512.9929985171818
 30
0.0
 10
322.8134320699716
 20
513.1011330575482
 30
0.0
 10
322.7601794806204
 20
513.1713793675312
 30
0.0
 10
322.7365433063455
 20
513.2538085030944
 30
0.0
  0
LINE
  5
1DB
330
1A3
100
AcDbEntity
  8
02636038_GEHÄUSE
  6
Continuous
 62
     7
100
AcDbLine
 10
322.7365433063
 20
513.2538085031
 30
0.0
 11
322.2358668071
 21
514.9998749581
 31
0.0
  0
LINE
  5
1DC
330
1A3
100
AcDbEntity
  8
02636038_GEHÄUSE
  6
Continuous
 62
     7
100
AcDbLine
 10
316.2183816339
 20
510.4838299809
 30
0.0
 11
316.8346021825
 21
510.3301889422
 31
0.0
  0
LINE
  5
1DD
330
1A3
100
AcDbEntity
  8
02636038_GEHÄUSE
  6
Continuous
 62
     7
100
AcDbLine
 10
337.5017286452
 20
516.2563920923
 30
0.0
 11
337.9428959621
 21
516.7132342224
 31
0.0
  0
ARC
  5
1DE
330
1A3
100
AcDbEntity
  8
02636038_GEHÄUSE
  6
Continuous
 62
     7
100
AcDbCircle
 10
316.4603035295
 20
511.4541257072
 30
0.0
 40
0.9999999999999925
100
AcDbArc
 50
196.0
 51
256.0
  0
ARC
  5
1DF
330
1A3
100
AcDbEntity
  8
02636038_GEHÄUSE
  6
Continuous
 62
     7
100
AcDbCircle
 10
337.2235561618
 20
517.4078925928
 30
0.0
 40
1.000000000000004
100
AcDbArc
 50
316.0
 51
16.0
  0
LINE
  5
1E0
330
1A3
100
AcDbEntity
  8
02636038_GEHÄUSE
  6
Continuous
 62
     7
100
AcDbLine
 10
314.2401699926
 20
515.5686961923
 30
0.0
 11
315.4990418336
 21
511.1784883514
 31
0.0
  0
LINE
  5
1E1
330
1A3
100
AcDbEntity
  8
02636038_GEHÄUSE
  6
Continuous
 62
     7
100
AcDbLine
 10
338.1848178577
 20
517.6835299486
 30
0.0
 11
337.3361018431
 21
520.6433544366
 31
0.0
  0
LINE
  5
1E2
330
1A3
100
AcDbEntity
  8
$DDT_AUDIT_GENERATED_(E0)
  6
Continuous
 62
     7
100
AcDbLine
 10
318.6270650928
 20
510.4280496365
 30
0.0
 11
335.9297756196
 21
515.3895220412
 31
0.0
  0
LINE
  5
1E3
330
1A3
100
AcDbEntity
  8
$DDT_AUDIT_GENERATED_(E0)
  6
Continuous
 62
     7
100
AcDbLine
 10
318.5168101504
 20
510.8125543149
 30
0.0
 11
318.6270650928
 21
510.4280496365
 31
0.0
  0
LINE
  5
1E4
330
1A3
100
AcDbEntity
  8
$DDT_AUDIT_GENERATED_(E0)
  6
Continuous
 62
     7
100
AcDbLine
 10
335.9297756196
 20
515.3895220412
 30
0.0
 11
335.8195206773
 21
515.7740267196
 31
0.0
  0
LINE
  5
1E5
330
1A3
100
AcDbEntity
  8
$DDT_AUDIT_GENERATED_(198)
  6
Continuous
 62
     7
100
AcDbLine
 10
248.9005890107
 20
559.1435855785
 30
0.0
 11
249.3627459648
 21
553.2713246993
 31
0.0
  0
LINE
  5
1E6
330
1A3
100
AcDbEntity
  8
$DDT_AUDIT_GENERATED_(198)
  6
Continuous
 62
     7
100
AcDbLine
 10
249.1498182052
 20
553.3551991743
 30
0.0
 11
249.3627459648
 21
553.2713246993
 31
0.0
  0
LINE
  5
1E8
330
1A3
100
AcDbEntity
  8
$DDT_AUDIT_GENERATED_(1E7)
  6
Continuous
 62
     7
100
AcDbLine
 10
199.629683798
 20
483.5479779708
 30
0.0
 11
188.2662379056
 21
483.9447982442
 31
0.0
  0
LINE
  5
1E9
330
1A3
100
AcDbEntity
  8
$DDT_AUDIT_GENERATED_(1E7)
  6
Continuous
 62
     7
100
AcDbLine
 10
188.1266399192
 20
479.9472349362
 30
0.0
 11
199.4900858116
 21
479.5504146627
 31
0.0
  0
ARC
  5
1EA
330
1A3
100
AcDbEntity
  8
$DDT_AUDIT_GENERATED_(1E7)
  6
Continuous
 62
     7
100
AcDbCircle
 10
199.455186315
 20
478.5510238357
 30
0.0
 40
1.000000000000002
100
AcDbArc
 50
16.0000000061
 51
88.0000000061
  0
ARC
  5
1EB
330
1A3
100
AcDbEntity
  8
$DDT_AUDIT_GENERATED_(1E7)
  6
Continuous
 62
     7
100
AcDbCircle
 10
199.455186315
 20
478.5510238357
 30
0.0
 40
5.000000000000008
100
AcDbArc
 50
16.0000000061
 51
88.0000000061
  0
LINE
  5
1EC
330
1A3
100
AcDbEntity
  8
$DDT_AUDIT_GENERATED_(1E7)
  6
Continuous
 62
     7
100
AcDbLine
 10
206.1975567941
 20
473.1773600367
 30
0.0
 11
204.2614947945
 21
479.9292106153
 31
0.0
  0
LINE
  5
1ED
330
1A3
100
AcDbEntity
  8
$DDT_AUDIT_GENERATED_(1E7)
  6
Continuous
 62
     7
100
AcDbLine
 10
200.4164480109
 20
478.8266611916
 30
0.0
 11
206.2347437726
 21
458.535852522
 31
0.0
  0
ARC
  5
1EE
330
1A3
100
AcDbEntity
  8
$DDT_AUDIT_GENERATED_(1E7)
  6
Continuous
 62
     7
100
AcDbCircle
 10
188.1964389124
 20
481.9460165902
 30
0.0
 40
2.000000000000005
100
AcDbArc
 50
88.0000000061
 51
268.0000000061
  0
LINE
  5
1EF
330
1A3
100
AcDbEntity
  8
$DDT_AUDIT_GENERATED_(19A)
  6
Continuous
 62
     7
100
AcDbLine
 10
255.1151738213
 20
424.219394872
 30
0.0
 11
200.1151738213
 21
424.219394872
 31
0.0
  0
LINE
  5
1F0
330
1A3
100
AcDbEntity
  8
$DDT_AUDIT_GENERATED_(19A)
  6
Continuous
 62
     7
100
AcDbLine
 10
254.1151738213
 20
430.219394872
 30
0.0
 11
201.1151738213
 21
430.219394872
 31
0.0
  0
LINE
  5
1F1
330
1A3
100
AcDbEntity
  8
$DDT_AUDIT_GENERATED_(19A)
  6
Continuous
 62
     7
100
AcDbLine
 10
255.1151738213
 20
424.219394872
 30
0.0
 11
255.1151738213
 21
429.219394872
 31
0.0
  0
LINE
  5
1F2
330
1A3
100
AcDbEntity
  8
$DDT_AUDIT_GENERATED_(19A)
  6
Continuous
 62
     7
100
AcDbLine
 10
200.1151738213
 20
429.219394872
 30
0.0
 11
200.1151738213
 21
424.219394872
 31
0.0
  0
ARC
  5
1F3
330
1A3
100
AcDbEntity
  8
$DDT_AUDIT_GENERATED_(19A)
  6
Continuous
 62
     7
100
AcDbCircle
 10
254.1151738213
 20
429.219394872
 30
0.0
 40
1.000000000000001
100
AcDbArc
 50
0.0
 51
90.0
  0
ARC
  5
1F4
330
1A3
100
AcDbEntity
  8
$DDT_AUDIT_GENERATED_(19A)
  6
Continuous
 62
     7
100
AcDbCircle
 10
201.1151738213
 20
429.219394872
 30
0.0
 40
1.000000000000001
100
AcDbArc
 50
90.0
 51
180.0
  0
ENDBLK
  5
1F6
330
1A3
100
AcDbEntity
  8
0
100
AcDbBlockEnd
  0
BLOCK
  5
223
330
1F7
100
AcDbEntity
  8
0
100
AcDbBlockBegin
  2
SE2
 70
     0
 10
0.0
 20
0.0
 30
0.0
  3
SE2
  1

  0
SPLINE
  5
1F9
330
1F7
100
AcDbEntity
  8
$DDT_AUDIT_GENERATED_(78)
  6
Continuous
 62
     7
100
AcDbSpline
210
0.0
220
0.0
230
1.0
 70
     8
 71
     3
 72
    15
 73
    11
 74
     0
 42
0.0000000000918209
 43
0.0000000001
 40
0.0935662472680318
 40
0.0935662472680318
 40
0.0935662472680318
 40
0.0935662472680318
 40
0.1019798652805329
 40
0.1172307406834395
 40
0.1357722499325999
 40
0.1527443394028168
 40
0.1696122960270348
 40
0.1882867793996126
 40
0.2036404404765354
 40
0.2125399161367696
 40
0.2125399161367696
 40
0.2125399161367696
 40
0.2125399161367696
 10
102.6462659355421
 20
109.4667924695344
 30
0.0
 10
102.8929542856481
 20
109.6460931673837
 30
0.0
 10
103.5724924481622
 20
110.1696255020911
 30
0.0
 10
104.7083592587515
 20
111.1963474653602
 30
0.0
 10
105.9310059725257
 20
112.5819743567191
 30
0.0
 10
107.0126874625527
 20
114.1477924492629
 30
0.0
 10
107.9187661413782
 20
115.825235756931
 30
0.0
 10
108.616289399726
 20
117.5392634071331
 30
0.0
 10
109.0522038732035
 20
119.0332895061891
 30
0.0
 10
109.193341080666
 20
119.898258054563
 30
0.0
 10
109.2290694386429
 20
120.218711724821
 30
0.0
  0
SPLINE
  5
1FA
330
1F7
100
AcDbEntity
  8
$DDT_AUDIT_GENERATED_(78)
  6
Continuous
 62
     7
100
AcDbSpline
210
0.0
220
0.0
230
1.0
 70
     8
 71
     3
 72
    17
 73
    13
 74
     0
 42
0.0000000000918471
 43
0.0000000001
 40
0.7875107850189447
 40
0.7875107850189447
 40
0.7875107850189447
 40
0.7875107850189447
 40
0.7890200517665142
 40
0.7979032145929619
 40
0.8142258243585362
 40
0.8316212787988757
 40
0.8477123708009611
 40
0.8652488225889137
 40
0.8735837593701904
 40
0.8821277438805238
 40
0.8989199279828887
 40
0.9064801113276963
 40
0.9064801113276963
 40
0.9064801113276963
 40
0.9064801113276963
 10
76.92750225941266
 20
120.2187056496622
 30
0.0
 10
76.93344424653819
 20
120.1643393290559
 30
0.0
 10
76.97738799490462
 20
119.7904467182444
 30
0.0
 10
77.15135014871144
 20
118.8401098144932
 30
0.0
 10
77.60409610780025
 20
117.3629930387319
 30
0.0
 10
78.30456024239534
 20
115.6936132713603
 30
0.0
 10
79.1935398210754
 20
114.0678148658588
 30
0.0
 10
80.06603798345519
 20
112.8174233283786
 30
0.0
 10
80.86556990776174
 20
111.859154653556
 30
0.0
 10
81.70134273311511
 20
110.9651312078801
 30
0.0
 10
82.5863080626866
 20
110.1657145051262
 30
0.0
 10
83.28805127495511
 20
109.6284459867631
 30
0.0
 10
83.510103179747
 20
109.4671223445578
 30
0.0
  0
ARC
  5
1FB
330
1F7
100
AcDbEntity
  8
$DDT_AUDIT_GENERATED_(78)
  6
Continuous
 62
     7
100
AcDbCircle
 10
121.7519793984
 20
206.1275837136
 30
0.0
 40
12.0000002150891
100
AcDbArc
 50
149.0567885778
 51
179.977319298
  0
SPLINE
  5
1FC
330
1F7
100
AcDbEntity
  8
$DDT_AUDIT_GENERATED_(78)
  6
Continuous
 62
     7
100
AcDbSpline
210
0.0
220
0.0
230
1.0
 70
     8
 71
     3
 72
    30
 73
    26
 74
     0
 42
0.0000000000915994
 43
0.0000000001
 40
0.0
 40
0.0
 40
0.0
 40
0.0
 40
0.1250000000000001
 40
0.1250000000000001
 40
0.2500000000000001
 40
0.2500000000000001
 40
0.5000000000000001
 40
0.5000000000000001
 40
0.6250000000000001
 40
0.6250000000000001
 40
0.7500000000000001
 40
0.7500000000000001
 40
0.7812500000000001
 40
0.7812500000000001
 40
0.8125000000000001
 40
0.8125000000000001
 40
0.8437500000000003
 40
0.8437500000000003
 40
0.8750000000000003
 40
0.8750000000000003
 40
0.9375000000000001
 40
0.9375000000000001
 40
0.9687500000000001
 40
0.9687500000000001
 40
1.0
 40
1.0
 40
1.0
 40
1.0
 10
109.7519801235527
 20
206.1323339486856
 30
0.0
 10
109.7501681362206
 20
201.5549137110351
 30
0.0
 10
109.7460040879693
 20
196.9776463094397
 30
0.0
 10
109.7314290834055
 20
187.8246885147823
 30
0.0
 10
109.7211209139291
 20
183.2487890835659
 30
0.0
 10
109.681922014356
 20
169.5337908818982
 30
0.0
 10
109.6454510641538
 20
160.4042779045389
 30
0.0
 10
109.5749699463088
 20
146.7345972441953
 30
0.0
 10
109.548997290209
 20
142.1819913432739
 30
0.0
 10
109.4861715575553
 20
133.0953438327452
 30
0.0
 10
109.4648872089589
 20
128.559755787269
 30
0.0
 10
109.3610308185051
 20
122.9058514502126
 30
0.0
 10
109.3516376382825
 20
121.774438406026
 30
0.0
 10
109.1845228932376
 20
119.5213611037945
 30
0.0
 10
108.9039274589141
 20
118.4255912784918
 30
0.0
 10
108.1461030956881
 20
116.3283145367135
 30
0.0
 10
107.6642267390861
 20
115.303649228759
 30
0.0
 10
106.5191482675753
 20
113.3830102160072
 30
0.0
 10
105.8557389370786
 20
112.4857677144691
 30
0.0
 10
103.5764386193942
 20
109.9940284416157
 30
0.0
 10
101.7305820488368
 20
108.6636563087249
 30
0.0
 10
98.62986295717695
 20
107.2883381762232
 30
0.0
 10
97.56241421053635
 20
106.9421410206007
 30
0.0
 10
95.36026841118985
 20
106.472202675993
 30
0.0
 10
94.2189862374365
 20
106.3500000053466
 30
0.0
 10
93.07826054064908
 20
106.350001295914
 30
0.0
  0
ARC
  5
1FD
330
1F7
100
AcDbEntity
  8
$DDT_AUDIT_GENERATED_(78)
  6
Continuous
 62
     7
100
AcDbCircle
 10
93.0856206151
 20
223.4230023979
 30
0.0
 40
21.49238646690993
100
AcDbArc
 50
90.0196209581
 51
147.2962573202
  0
SPLINE
  5
1FE
330
1F7
100
AcDbEntity
  8
$DDT_AUDIT_GENERATED_(78)
  6
Continuous
 62
     7
100
AcDbSpline
210
0.0
220
0.0
230
1.0
 70
     8
 71
     3
 72
    30
 73
    26
 74
     0
 42
0.0000000000915999
 43
0.0000000001
 40
0.0
 40
0.0
 40
0.0
 40
0.0
 40
0.0312500000000001
 40
0.0312500000000001
 40
0.0625000000000002
 40
0.0625000000000002
 40
0.1250000000000004
 40
0.1250000000000004
 40
0.1562500000000004
 40
0.1562500000000004
 40
0.1875000000000004
 40
0.1875000000000004
 40
0.2187500000000004
 40
0.2187500000000004
 40
0.2500000000000003
 40
0.2500000000000003
 40
0.3750000000000003
 40
0.3750000000000003
 40
0.5000000000000002
 40
0.5000000000000002
 40
0.7500000000000001
 40
0.7500000000000001
 40
0.8750000000000001
 40
0.8750000000000001
 40
1.0
 40
1.0
 40
1.0
 40
1.0
 10
93.07826054064908
 20
106.350001295914
 30
0.0
 10
91.93280901294064
 20
106.35
 30
0.0
 10
90.8063936911677
 20
106.4702681232963
 30
0.0
 10
88.59025211397905
 20
106.9427347334793
 30
0.0
 10
87.49480356021535
 20
107.3001856965884
 30
0.0
 10
84.4058054694099
 20
108.6772436634182
 30
0.0
 10
82.53255211356512
 20
110.0356557921168
 30
0.0
 10
80.27264575618639
 20
112.5218727491469
 30
0.0
 10
79.59724176920336
 20
113.4410609124377
 30
0.0
 10
78.4567712922493
 20
115.3731262771887
 30
0.0
 10
77.98499949062293
 20
116.3856711120456
 30
0.0
 10
77.23045443059581
 20
118.5006899880386
 30
0.0
 10
76.95907795923362
 20
119.6126031171049
 30
0.0
 10
76.80478994991084
 20
121.8657990635379
 30
0.0
 10
76.79347340881432
 20
122.9961644963899
 30
0.0
 10
76.69155440113673
 20
128.6460653411481
 30
0.0
 10
76.66970980689884
 20
133.177794970963
 30
0.0
 10
76.60708272113358
 20
142.2560325512173
 30
0.0
 10
76.58116311837458
 20
146.8043549214794
 30
0.0
 10
76.5108050210353
 20
160.4667911192215
 30
0.0
 10
76.47441739959714
 20
169.5865213540683
 30
0.0
 10
76.43532499097661
 20
183.2805423677431
 30
0.0
 10
76.42504874464538
 20
187.8474630596157
 30
0.0
 10
76.41050891455431
 20
196.9871232751667
 30
0.0
 10
76.40635113616592
 20
201.5594833616221
 30
0.0
 10
76.40454095774545
 20
206.1323339486856
 30
0.0
  0
ARC
  5
1FF
330
1F7
100
AcDbEntity
  8
$DDT_AUDIT_GENERATED_(78)
  6
Continuous
 62
     7
100
AcDbCircle
 10
64.4045416925
 20
206.1275837163
 30
0.0
 40
12.00000020545631
100
AcDbArc
 50
0.0226806893
 51
30.9432114349
  0
ARC
  5
200
330
1F7
100
AcDbEntity
  8
$DDT_AUDIT_GENERATED_(78)
  6
Continuous
 62
     7
100
AcDbCircle
 10
93.0873723742
 20
224.1111560479
 30
0.0
 40
20.80423355211763
100
AcDbArc
 50
97.9742198518
 51
97.9775191471
  0
ARC
  5
201
330
1F7
100
AcDbEntity
  8
$DDT_AUDIT_GENERATED_(78)
  6
Continuous
 62
     7
100
AcDbCircle
 10
93.0691372353
 20
224.1110818159
 30
0.0
 40
20.80430778906399
100
AcDbArc
 50
82.0224669394
 51
82.0264153567
  0
ARC
  5
202
330
1F7
100
AcDbEntity
  8
$DDT_AUDIT_GENERATED_(9F)
  6
Continuous
 62
     7
100
AcDbCircle
 10
112.2152824118
 20
203.6315348909
 30
0.0
 40
6.000177464043838
100
AcDbArc
 50
156.656720038
 51
179.9675337541
  0
SPLINE
  5
203
330
1F7
100
AcDbEntity
  8
$DDT_AUDIT_GENERATED_(9F)
  6
Continuous
 62
     7
100
AcDbSpline
210
0.0
220
0.0
230
1.0
 70
     8
 71
     3
 72
     8
 73
     4
 74
     0
 42
0.000000000064414
 43
0.0000000001
 40
0.2072069376769659
 40
0.2072069376769659
 40
0.2072069376769659
 40
0.2072069376769659
 40
0.2213157126969859
 40
0.2213157126969859
 40
0.2213157126969859
 40
0.2213157126969859
 10
79.9716694389675
 20
171.5448552401197
 30
0.0
 10
79.97192748021912
 20
170.8148507539801
 30
0.0
 10
79.97206723782989
 20
170.0847405861862
 30
0.0
 10
79.9720569444798
 20
169.3545283151539
 30
0.0
  0
SPLINE
  5
204
330
1F7
100
AcDbEntity
  8
$DDT_AUDIT_GENERATED_(9F)
  6
Continuous
 62
     7
100
AcDbSpline
210
0.0
220
0.0
230
1.0
 70
     8
 71
     3
 72
    23
 73
    19
 74
     0
 42
0.0000000000634582
 43
0.0000000001
 40
0.3475076746209694
 40
0.3475076746209694
 40
0.3475076746209694
 40
0.3475076746209694
 40
0.3522609147129653
 40
0.3677319877962228
 40
0.3862656076059194
 40
0.405499583078444
 40
0.4282973680237592
 40
0.4434727038314195
 40
0.4719684754646145
 40
0.5002788418463675
 40
0.5333913467306903
 40
0.5663428488250952
 40
0.5760528376785645
 40
0.5996253840977589
 40
0.6161347295704365
 40
0.632564834328995
 40
0.6481227149852842
 40
0.6525035320431251
 40
0.6525035320431251
 40
0.6525035320431251
 40
0.6525035320431251
 10
79.91944613186052
 20
149.7384065276777
 30
0.0
 10
79.9194608441436
 20
149.4918529977728
 30
0.0
 10
79.92104858220652
 20
148.4428413777672
 30
0.0
 10
79.94082380248454
 20
146.4331747458441
 30
0.0
 10
80.1441788984538
 20
143.6673030002183
 30
0.0
 10
81.13701318025242
 20
140.6456466934759
 30
0.0
 10
82.8464155536637
 20
138.1655170215682
 30
0.0
 10
85.36676744849524
 20
135.7959851179095
 30
0.0
 10
88.67635959690759
 20
133.9182719898379
 30
0.0
 10
93.36221364427995
 20
133.0634377437318
 30
0.0
 10
98.28193326804364
 20
134.1461188456722
 30
0.0
 10
101.6079173467732
 20
136.4245869183528
 30
0.0
 10
103.9167479244085
 20
138.9714982547144
 30
0.0
 10
105.28153455488
 20
141.2209797823307
 30
0.0
 10
106.0487350801559
 20
144.0753597734029
 30
0.0
 10
106.2180275664396
 20
146.59175594101
 30
0.0
 10
106.2356797372381
 20
148.4779553148548
 30
0.0
 10
106.2370830031936
 20
149.5122434370905
 30
0.0
 10
106.2370878362769
 20
149.7394944303865
 30
0.0
  0
SPLINE
  5
205
330
1F7
100
AcDbEntity
  8
$DDT_AUDIT_GENERATED_(9F)
  6
Continuous
 62
     7
100
AcDbSpline
210
0.0
220
0.0
230
1.0
 70
     8
 71
     3
 72
     8
 73
     4
 74
     0
 42
0.0000000000644104
 43
0.0000000001
 40
0.7786044447874939
 40
0.7786044447874939
 40
0.7786044447874939
 40
0.7786044447874939
 40
0.7892918167707105
 40
0.7892918167707105
 40
0.7892918167707105
 40
0.7892918167707105
 10
106.1842057963711
 20
169.34158073082
 30
0.0
 10
106.1841537589108
 20
169.8947253811548
 30
0.0
 10
106.184188363255
 20
170.4478128870823
 30
0.0
 10
106.1842992828337
 20
171.0008419671005
 30
0.0
  0
ARC
  5
206
330
1F7
100
AcDbEntity
  8
$DDT_AUDIT_GENERATED_(9F)
  6
Continuous
 62
     7
100
AcDbCircle
 10
73.9412398008
 20
203.6315347068
 30
0.0
 40
6.000176809109933
100
AcDbArc
 50
0.032423695
 51
23.3208316703
  0
ELLIPSE
  5
207
330
1F7
100
AcDbEntity
  8
$DDT_AUDIT_GENERATED_(9F)
  6
Continuous
 62
     7
100
AcDbEllipse
 10
105.11127772
 20
203.6355534661
 30
0.0
 11
-1.103828188276
 21
0.0006280806417319206
 31
0.0
210
0.0
220
0.0
230
1.0
 40
0.1236372296
 41
2.966371194778172
 42
3.14166199404879
  0
ELLIPSE
  5
208
330
1F7
100
AcDbEntity
  8
$DDT_AUDIT_GENERATED_(9F)
  6
Continuous
 62
     7
100
AcDbEllipse
 10
81.0452429111
 20
203.6355480565
 30
0.0
 11
1.103827259230068
 21
0.0006273001384136945
 31
0.0
210
0.0
220
0.0
230
1.0
 40
0.1236370522
 41
3.141523396788475
 42
3.316814320186547
  0
ARC
  5
209
330
1F7
100
AcDbEntity
  8
$DDT_AUDIT_GENERATED_(9F)
  6
Continuous
 62
     7
100
AcDbCircle
 10
112.2243774397
 20
203.6272612839
 30
0.0
 40
6.009437464653304
100
AcDbArc
 50
134.1069279802
 51
179.9293401729
  0
SPLINE
  5
20A
330
1F7
100
AcDbEntity
  8
$DDT_AUDIT_GENERATED_(9F)
  6
Continuous
 62
     7
100
AcDbSpline
210
0.0
220
0.0
230
1.0
 70
     8
 71
     3
 72
     8
 73
     4
 74
     0
 42
0.000000000064649
 43
0.0000000001
 40
0.0
 40
0.0
 40
0.0
 40
0.0
 40
0.2415080326946176
 40
0.2415080326946176
 40
0.2415080326946176
 40
0.2415080326946176
 10
106.2149445449404
 20
203.6346724004968
 30
0.0
 10
106.2076451216603
 20
191.2164212082132
 30
0.0
 10
106.1746869073414
 20
178.7681503847884
 30
0.0
 10
106.185599083273
 20
166.2778911039742
 30
0.0
  0
SPLINE
  5
20B
330
1F7
100
AcDbEntity
  8
$DDT_AUDIT_GENERATED_(9F)
  6
Continuous
 62
     7
100
AcDbSpline
210
0.0
220
0.0
230
1.0
 70
     8
 71
     3
 72
    16
 73
    12
 74
     0
 42
0.0000000000642494
 43
0.0000000001
 40
0.3273624315496378
 40
0.3273624315496378
 40
0.3273624315496378
 40
0.3273624315496378
 40
0.3437499999999971
 40
0.3437499999999971
 40
0.3749999999999969
 40
0.3749999999999969
 40
0.3906249999999969
 40
0.3906249999999969
 40
0.4062499999999969
 40
0.4062499999999969
 40
0.4253701446345619
 40
0.4253701446345619
 40
0.4253701446345619
 40
0.4253701446345619
 10
106.2277464236154
 20
152.9407141809101
 30
0.0
 10
106.2320913227249
 20
152.0910360696006
 30
0.0
 10
106.2357298855114
 20
151.2411434034589
 30
0.0
 10
106.2390676242983
 20
148.7699368510062
 30
0.0
 10
106.2559440471625
 20
147.1433500554352
 30
0.0
 10
106.0398986193536
 20
144.7289428561216
 30
0.0
 10
105.9167617286584
 20
143.9276065007112
 30
0.0
 10
105.4910292537296
 20
142.3505369409414
 30
0.0
 10
105.19699238382
 20
141.5994744348055
 30
0.0
 10
104.3772038935053
 20
140.0059506168676
 30
0.0
 10
103.8158173616148
 20
139.1819723400497
 30
0.0
 10
103.1701678417927
 20
138.4277655683377
 30
0.0
  0
SPLINE
  5
20C
330
1F7
100
AcDbEntity
  8
$DDT_AUDIT_GENERATED_(9F)
  6
Continuous
 62
     7
100
AcDbSpline
210
0.0
220
0.0
230
1.0
 70
     8
 71
     3
 72
    22
 73
    18
 74
     0
 42
0.0000000000646522
 43
0.0000000001
 40
0.5765207971888883
 40
0.5765207971888883
 40
0.5765207971888883
 40
0.5765207971888883
 40
0.5781249999999973
 40
0.5781249999999973
 40
0.5937499999999973
 40
0.5937499999999973
 40
0.6093749999999974
 40
0.6093749999999974
 40
0.6249999999999976
 40
0.6249999999999976
 40
0.6562499999999976
 40
0.6562499999999976
 40
0.6874999999999977
 40
0.6874999999999977
 40
0.7499999999999981
 40
0.7499999999999981
 40
1.0
 40
1.0
 40
1.0
 40
1.0
 10
82.70345991875628
 20
138.7694112804289
 30
0.0
 10
82.651778551423
 20
138.8340102581845
 30
0.0
 10
82.60066956496394
 20
138.899119990807
 30
0.0
 10
82.057935728482
 20
139.6039146763116
 30
0.0
 10
81.61693580431498
 20
140.3006071903784
 30
0.0
 10
80.89813738191587
 20
141.7443363644997
 30
0.0
 10
80.61713684773935
 20
142.4954238752041
 30
0.0
 10
80.2158758941888
 20
144.0575171416969
 30
0.0
 10
80.09857682970652
 20
144.8722015695404
 30
0.0
 10
79.89907685757599
 20
147.293705038691
 30
0.0
 10
79.91693453794285
 20
148.9101520089686
 30
0.0
 10
79.92278315349652
 20
152.1420438626124
 30
0.0
 10
79.93372448226118
 20
153.757848884473
 30
0.0
 10
79.95735061042748
 20
158.6043440894375
 30
0.0
 10
79.96617039567617
 20
161.8346735223603
 30
0.0
 10
79.9838686833055
 20
177.9663350117891
 30
0.0
 10
79.94909964102703
 20
190.8190599196324
 30
0.0
 10
79.94157680992681
 20
203.6346674579621
 30
0.0
  0
ARC
  5
20D
330
1F7
100
AcDbEntity
  8
$DDT_AUDIT_GENERATED_(9F)
  6
Continuous
 62
     7
100
AcDbCircle
 10
93.0673636969
 20
223.3845125344
 30
0.0
 40
21.51037645525454
100
AcDbArc
 50
314.1189244492
 51
89.9709747906
  0
ARC
  5
20E
330
1F7
100
AcDbEntity
  8
$DDT_AUDIT_GENERATED_(9F)
  6
Continuous
 62
     7
100
AcDbCircle
 10
73.9412984685
 20
203.6311434812
 30
0.0
 40
6.000279376197674
100
AcDbArc
 50
0.033649934
 51
45.9300374254
  0
ARC
  5
20F
330
1F7
100
AcDbEntity
  8
$DDT_AUDIT_GENERATED_(9F)
  6
Continuous
 62
     7
100
AcDbCircle
 10
93.0870804548
 20
223.3853535646
 30
0.0
 40
21.50953447330249
100
AcDbArc
 50
90.0234939473
 51
225.8866077602
  0
ARC
  5
210
330
1F7
100
AcDbEntity
  8
$DDT_AUDIT_GENERATED_(9F)
  6
Continuous
 62
     7
100
AcDbCircle
 10
93.6112249055
 20
223.4174274531
 30
0.0
 40
20.9724008447511
100
AcDbArc
 50
353.250651415
 51
356.4265297502
  0
ARC
  5
211
330
1F7
100
AcDbEntity
  8
$DDT_AUDIT_GENERATED_(9F)
  6
Continuous
 62
     7
100
AcDbCircle
 10
93.0648022377
 20
223.3971606129
 30
0.0
 40
21.51282015464513
100
AcDbArc
 50
314.0818001145
 51
353.4752915577
  0
ARC
  5
212
330
1F7
100
AcDbEntity
  8
$DDT_AUDIT_GENERATED_(9F)
  6
Continuous
 62
     7
100
AcDbCircle
 10
92.5449344199
 20
223.4173947764
 30
0.0
 40
20.97203775551148
100
AcDbArc
 50
183.5734427507
 51
186.7493760841
  0
ARC
  5
213
330
1F7
100
AcDbEntity
  8
$DDT_AUDIT_GENERATED_(9F)
  6
Continuous
 62
     7
100
AcDbCircle
 10
93.1046746731
 20
223.4116735544
 30
0.0
 40
21.52734509154959
100
AcDbArc
 50
186.559166665
 51
225.9073364736
  0
LINE
  5
214
330
1F7
100
AcDbEntity
  8
$DDT_AUDIT_GENERATED_(9F)
  6
Continuous
 62
     7
100
AcDbLine
 10
79.9193696877
 20
150.0162757425
 30
0.0
 11
79.9193696852
 21
149.7383351461
 31
0.0
  0
LINE
  5
215
330
1F7
100
AcDbEntity
  8
$DDT_AUDIT_GENERATED_(9F)
  6
Continuous
 62
     7
100
AcDbLine
 10
106.2371384696
 20
149.7394850025
 30
0.0
 11
106.2371384721
 21
150.016614436
 31
0.0
  0
ARC
  5
216
330
1F7
100
AcDbEntity
  8
$DDT_AUDIT_GENERATED_(9F)
  6
Continuous
 62
     7
100
AcDbCircle
 10
7469.3481291857
 20
184.0745288567
 30
0.0
 40
7363.175856742902
100
AcDbArc
 50
179.8479777027
 51
180.1017505504
  0
SPLINE
  5
217
330
1F7
100
AcDbEntity
  8
$DDT_AUDIT_GENERATED_(9F)
  6
Continuous
 62
     7
100
AcDbSpline
210
0.0
220
0.0
230
1.0
 70
     8
 71
     3
 72
    56
 73
    52
 74
     0
 42
0.0000000002112555
 43
0.0000000001
 40
0.0
 40
0.0
 40
0.0
 40
0.0
 40
0.0058962798061447
 40
0.0140058053374967
 40
0.0244338283017922
 40
0.037257640754837
 40
0.0516420970161425
 40
0.0663664165286803
 40
0.0814973124465509
 40
0.097048499613908
 40
0.1184195928089854
 40
0.1404958237616978
 40
0.163221894997821
 40
0.1864687334797316
 40
0.2098438920693353
 40
0.2331740468825459
 40
0.2561964714543111
 40
0.2790077908920739
 40
0.3015777760741767
 40
0.3237943594414379
 40
0.3457022678818651
 40
0.3673454076162507
 40
0.3887648675564589
 40
0.4100031661732532
 40
0.4310449582782687
 40
0.4518484169813716
 40
0.4726052426482253
 40
0.4933759247232042
 40
0.5141745007121414
 40
0.5350777864762344
 40
0.5560692881282895
 40
0.5771047293027503
 40
0.598123465509965
 40
0.6190721760717008
 40
0.640077639570566
 40
0.6611710829278505
 40
0.6823968165996153
 40
0.7039370345160885
 40
0.7257983744603498
 40
0.7479817320542771
 40
0.770509248058273
 40
0.7934269163232219
 40
0.8168103279945247
 40
0.8407445368850772
 40
0.8650224364337626
 40
0.8892355767367061
 40
0.9171650092398069
 40
0.9420503688211178
 40
0.9640292461395076
 40
0.9833041056148908
 40
1.0
 40
1.0
 40
1.0
 40
1.0
 10
79.91610551117085
 20
149.596337356322
 30
0.0
 10
79.91699919765536
 20
149.4987605105563
 30
0.0
 10
79.9187597151301
 20
149.3017358387177
 30
0.0
 10
79.92683896981518
 20
148.9090409473756
 30
0.0
 10
79.93504100910911
 20
148.4186524168617
 30
0.0
 10
79.94445130972134
 20
147.8236288018577
 30
0.0
 10
79.9586460588294
 20
147.1630729275445
 30
0.0
 10
79.98222261411175
 20
146.4657310785471
 30
0.0
 10
80.01865937729721
 20
145.7507210644054
 30
0.0
 10
80.08534660726376
 20
144.9326563789638
 30
0.0
 10
80.20478262414372
 20
144.009564668172
 30
0.0
 10
80.42019521480702
 20
142.9875101109182
 30
0.0
 10
80.73441904239637
 20
141.9598675011991
 30
0.0
 10
81.15594389639539
 20
140.9488706071592
 30
0.0
 10
81.67346561729792
 20
139.9728257583473
 30
0.0
 10
82.27593104196943
 20
139.0510596431069
 30
0.0
 10
82.95019690252789
 20
138.1919838796873
 30
0.0
 10
83.6832367021904
 20
137.3990203172139
 30
0.0
 10
84.4639160172102
 20
136.6715576648388
 30
0.0
 10
85.28593002296708
 20
136.0137099343229
 30
0.0
 10
86.1426808614056
 20
135.4273409825868
 30
0.0
 10
87.0298080731299
 20
134.9126950835968
 30
0.0
 10
87.94280661303647
 20
134.4691681072846
 30
0.0
 10
88.87765371599801
 20
134.0985983384826
 30
0.0
 10
89.82904433522799
 20
133.8042236174956
 30
0.0
 10
90.7925239397603
 20
133.5842923978151
 30
0.0
 10
91.76584092075363
 20
133.4395146215587
 30
0.0
 10
92.74753879229955
 20
133.3716516817265
 30
0.0
 10
93.73386524023262
 20
133.385117256212
 30
0.0
 10
94.71915897627274
 20
133.4796942694657
 30
0.0
 10
95.69761640357115
 20
133.6518589075146
 30
0.0
 10
96.66170037981172
 20
133.8990531466253
 30
0.0
 10
97.6037377531466
 20
134.2181626142807
 30
0.0
 10
98.51800702903219
 20
134.6085038612975
 30
0.0
 10
99.4023339186792
 20
135.0649998795613
 30
0.0
 10
100.2554092727016
 20
135.5859409139006
 30
0.0
 10
101.0760327999238
 20
136.1712735652149
 30
0.0
 10
101.8619572550814
 20
136.8216650915298
 30
0.0
 10
102.6092108627516
 20
137.5381900051087
 30
0.0
 10
103.3119514988506
 20
138.3196242306578
 30
0.0
 10
103.9608911121558
 20
139.1675987097865
 30
0.0
 10
104.546073974498
 20
140.083530887342
 30
0.0
 10
105.05676959226
 20
141.068232315549
 30
0.0
 10
105.4789720178105
 20
142.117459823454
 30
0.0
 10
105.7949492874667
 20
143.2168277173928
 30
0.0
 10
106.016751476254
 20
144.4027519225438
 30
0.0
 10
106.1361247051385
 20
145.6118464260057
 30
0.0
 10
106.192100766263
 20
146.7923157434937
 30
0.0
 10
106.2224333732386
 20
147.8288053850972
 30
0.0
 10
106.2378993178757
 20
148.7608186282406
 30
0.0
 10
106.2395948479438
 20
149.2862380819131
 30
0.0
 10
106.2402926767742
 20
149.5750235270395
 30
0.0
  0
ARC
  5
218
330
1F7
100
AcDbEntity
  8
$DDT_AUDIT_GENERATED_(9F)
  6
Continuous
 62
     7
100
AcDbCircle
 10
3025.087234395
 20
168.2805686343
 30
0.0
 40
2918.899365347739
100
AcDbArc
 50
180.0393199509
 51
180.3011010914
  0
LINE
  5
219
330
1F7
100
AcDbEntity
  8
$DDT_AUDIT_GENERATED_(1E7)
  6
Continuous
 62
     7
100
AcDbLine
 10
95.0782605406
 20
251.4706740461
 30
0.0
 11
95.0782605406
 21
262.8341199385
 31
0.0
  0
LINE
  5
21A
330
1F7
100
AcDbEntity
  8
$DDT_AUDIT_GENERATED_(1E7)
  6
Continuous
 62
     7
100
AcDbLine
 10
91.0782605406
 20
262.8341199385
 30
0.0
 11
91.0782605406
 21
251.4706740461
 31
0.0
  0
LINE
  5
21B
330
1F7
100
AcDbEntity
  8
$DDT_AUDIT_GENERATED_(1E7)
  6
Continuous
 62
     7
100
AcDbLine
 10
91.0782605406
 20
251.4706740461
 30
0.0
 11
91.0782605406
 21
248.6915874482
 31
0.0
  0
LINE
  5
21C
330
1F7
100
AcDbEntity
  8
$DDT_AUDIT_GENERATED_(1E7)
  6
Continuous
 62
     7
100
AcDbLine
 10
95.0782605406
 20
248.6915874482
 30
0.0
 11
95.0782605406
 21
251.4706740461
 31
0.0
  0
LINE
  5
21D
330
1F7
100
AcDbEntity
  8
$DDT_AUDIT_GENERATED_(1E7)
  6
Continuous
 62
     7
100
AcDbLine
 10
95.0782605406
 20
244.8097938942
 30
0.0
 11
95.0782605406
 21
248.6915874482
 31
0.0
  0
LINE
  5
21E
330
1F7
100
AcDbEntity
  8
$DDT_AUDIT_GENERATED_(1E7)
  6
Continuous
 62
     7
100
AcDbLine
 10
91.0782605406
 20
248.6915874482
 30
0.0
 11
91.0782605406
 21
244.8117290887
 31
0.0
  0
ARC
  5
21F
330
1F7
100
AcDbEntity
  8
$DDT_AUDIT_GENERATED_(1E7)
  6
Continuous
 62
     7
100
AcDbCircle
 10
93.0782605406
 20
262.8341199385
 30
0.0
 40
2.000000000000002
100
AcDbArc
 50
0.0
 51
180.0
  0
ARC
  5
220
330
1F7
100
AcDbEntity
  8
$DDT_AUDIT_GENERATED_(19A)
  6
Continuous
 62
     7
100
AcDbCircle
 10
93.0782605406
 20
223.4153850296
 30
0.0
 40
27.50000000000001
100
AcDbArc
 50
307.3492325843
 51
360.0
  0
ARC
  5
221
330
1F7
100
AcDbEntity
  8
$DDT_AUDIT_GENERATED_(19A)
  6
Continuous
 62
     7
100
AcDbCircle
 10
93.0782605406
 20
223.4153850296
 30
0.0
 40
27.50000000000001
100
AcDbArc
 50
94.1706479119
 51
232.6610582904
  0
ARC
  5
222
330
1F7
100
AcDbEntity
  8
$DDT_AUDIT_GENERATED_(19A)
  6
Continuous
 62
     7
100
AcDbCircle
 10
93.0782605406
 20
223.4153850296
 30
0.0
 40
27.50000000000001
100
AcDbArc
 50
0.0
 51
85.8293520881
  0
ENDBLK
  5
224
330
1F7
100
AcDbEntity
  8
0
100
AcDbBlockEnd
  0
ENDSEC
  0
SECTION
  2
ENTITIES
  0
LINE
  5
5E
330
1F
100
AcDbEntity
  8
Default
  6
Continuous
 62
     7
100
AcDbLine
 10
71.5782605406
 20
430.2193948711
 30
0.0
 11
114.5782605406
 21
430.2193940606
 31
0.0
  0
INSERT
  5
60
330
1F
100
AcDbEntity
  8
Default
100
AcDbBlockReference
  2
SEANNOT_GROUP
 10
0.0
 20
0.0
 30
0.0
  0
INSERT
  5
6B
330
1F
100
AcDbEntity
  8
Default
100
AcDbBlockReference
  2
SEANNOT_GROUP1
 10
0.0
 20
0.0
 30
0.0
  0
INSERT
  5
71
330
1F
100
AcDbEntity
  8
Default
100
AcDbBlockReference
  2
SEANNOT_GROUP2
 10
0.0
 20
0.0
 30
0.0
  0
INSERT
  5
77
330
1F
100
AcDbEntity
  8
Default
100
AcDbBlockReference
  2
SE
 10
0.0
 20
0.0
 30
0.0
  0
INSERT
  5
1A4
330
1F
100
AcDbEntity
  8
Default
100
AcDbBlockReference
  2
SE1
 10
0.0
 20
0.0
 30
0.0
  0
INSERT
  5
1F8
330
1F
100
AcDbEntity
  8
Default
100
AcDbBlockReference
  2
SE2
 10
0.0
 20
0.0
 30
0.0
  0
TEXT
  5
226
330
1F
100
AcDbEntity
  8
Default
  6
Continuous
 62
     7
100
AcDbText
 10
5.9362635081
 20
53.4225120485
 30
0.0
 40
10.0
  1
Grohe AG^J
  7
SEACAD_seiso_ttf
 11
5.9362635081
 21
63.4225120485
 31
0.0
100
AcDbText
 73
     3
  0
TEXT
  5
227
330
1F
100
AcDbEntity
  8
Default
  6
Continuous
 62
     7
100
AcDbText
 10
5.9362635081
 20
37.0588756849
 30
0.0
 40
10.0
  1
 
  7
SEACAD_seiso_ttf
 11
5.9362635081
 21
47.0588756849
 31
0.0
100
AcDbText
 73
     3
  0
TEXT
  5
228
330
1F
100
AcDbEntity
  8
Default
  6
Continuous
 62
     7
100
AcDbText
 10
5.9362635081
 20
20.6952393213
 30
0.0
 40
10.0
  1
ecn: 
  7
SEACAD_seiso_ttf
 11
5.9362635081
 21
30.6952393213
 31
0.0
100
AcDbText
 73
     3
  0
TEXT
  5
229
330
1F
100
AcDbEntity
  8
Default
  6
Continuous
 62
     7
100
AcDbText
 10
5.9362635081
 20
4.3316029576
 30
0.0
 40
10.0
  1
unit: mm
  7
SEACAD_seiso_ttf
 11
5.9362635081
 21
14.3316029576
 31
0.0
100
AcDbText
 73
     3
  0
LINE
  5
22A
330
1F
100
AcDbEntity
  8
Default
  6
Continuous
 62
     7
100
AcDbLine
 10
0.0
 20
0.0
 30
0.0
 11
100.0
 21
0.0
 31
0.0
  0
LINE
  5
22B
330
1F
100
AcDbEntity
  8
Default
  6
Continuous
 62
     7
100
AcDbLine
 10
0.0
 20
0.0
 30
0.0
 11
0.0
 21
100.0
 31
0.0
  0
TEXT
  5
22C
330
1F
100
AcDbEntity
  8
Default
  6
Continuous
 62
     7
100
AcDbText
 10
24.3923665681
 20
-18.2375342018
 30
0.0
 40
10.0
  1
100 mm
  7
SEACAD_seiso_ttf
 11
24.3923665681
 21
-8.2375342018
 31
0.0
100
AcDbText
 73
     3
  0
TEXT
  5
22D
330
1F
100
AcDbEntity
  8
Default
  6
Continuous
 62
     7
100
AcDbText
 10
-7.6150308803
 20
24.6231930421
 30
0.0
 40
10.0
  1
100 mm
 50
90.0
  7
SEACAD_seiso_ttf
 11
-17.6150308803
 21
24.6231930421
 31
0.0
100
AcDbText
 73
     3
  0
TEXT
  5
22E
330
1F
100
AcDbEntity
  8
Default
  6
Continuous
 62
     7
100
AcDbText
 10
28.4878128572
 20
20.0907663715
 30
0.0
 40
10.0
  1
223843
  7
SEACAD_seiso_ttf
 11
28.4878128572
 21
30.0907663715
 31
0.0
100
AcDbText
 73
     3
  0
TEXT
  5
22F
330
1F
100
AcDbEntity
  8
Default
  6
Continuous
 62
     7
100
AcDbText
 10
5.9012241913
 20
36.7242780188
 30
0.0
 40
10.0
  1
23037002
  7
SEACAD_seiso_ttf
 11
5.9012241913
 21
46.7242780188
 31
0.0
100
AcDbText
 73
     3
  0
ENDSEC
  0
SECTION
  2
OBJECTS
  0
DICTIONARY
  5
C
330
0
100
AcDbDictionary
281
     1
  3
ACAD_GROUP
350
D
  3
ACAD_LAYOUT
350
1A
  3
ACAD_MLEADERSTYLE
350
233
  3
ACAD_MLINESTYLE
350
17
  3
ACAD_PLOTSETTINGS
350
19
  3
ACAD_PLOTSTYLENAME
350
E
  3
ACAD_SCALELIST
350
3B
  3
ACAD_TABLESTYLE
350
232
  3
ACAD_VISUALSTYLE
350
2A
  3
AcDbVariableDictionary
350
230
  0
DICTIONARY
  5
D
102
{ACAD_REACTORS
330
C
102
}
330
C
100
AcDbDictionary
281
     1
  0
DICTIONARY
  5
1A
102
{ACAD_REACTORS
330
C
102
}
330
C
100
AcDbDictionary
281
     1
  3
Layout1
350
1E
  3
Model
350
22
  0
DICTIONARY
  5
233
102
{ACAD_REACTORS
330
C
102
}
330
C
100
AcDbDictionary
281
     1
  0
DICTIONARY
  5
17
102
{ACAD_REACTORS
330
C
102
}
330
C
100
AcDbDictionary
281
     1
  3
Standard
350
18
  0
DICTIONARY
  5
19
102
{ACAD_REACTORS
330
C
102
}
330
C
100
AcDbDictionary
281
     1
  0
ACDBDICTIONARYWDFLT
  5
E
102
{ACAD_REACTORS
330
C
102
}
330
C
100
AcDbDictionary
281
     1
  3
Normal
350
F
100
AcDbDictionaryWithDefault
340
F
  0
DICTIONARY
  5
3B
102
{ACAD_REACTORS
330
C
102
}
330
C
100
AcDbDictionary
281
     1
  3
A0
350
3C
  3
A1
350
3D
  3
A2
350
3E
  3
A3
350
3F
  3
A4
350
40
  3
A5
350
41
  3
A6
350
42
  3
A7
350
43
  3
A8
350
44
  3
A9
350
45
  3
B0
350
46
  3
B1
350
47
  3
B2
350
48
  3
B3
350
49
  3
B4
350
4A
  3
B5
350
4B
  3
B6
350
4C
  3
B7
350
4D
  3
B8
350
4E
  3
B9
350
4F
  3
C0
350
50
  3
C1
350
51
  3
C2
350
52
  3
C3
350
53
  3
C4
350
54
  3
C5
350
55
  3
C6
350
56
  3
C7
350
57
  3
C8
350
58
  3
C9
350
59
  3
D0
350
5A
  3
D1
350
5B
  3
D2
350
5C
  0
DICTIONARY
  5
232
102
{ACAD_REACTORS
330
C
102
}
330
C
100
AcDbDictionary
281
     1
  0
DICTIONARY
  5
2A
102
{ACAD_REACTORS
330
C
102
}
330
C
100
AcDbDictionary
281
     1
  3
2dWireframe
350
2F
  3
3D Hidden
350
31
  3
3dWireframe
350
30
  3
Basic
350
32
  3
Brighten
350
36
  3
ColorChange
350
3A
  3
Conceptual
350
34
  3
Dim
350
35
  3
Facepattern
350
39
  3
Flat
350
2B
  3
FlatWithEdges
350
2C
  3
Gouraud
350
2D
  3
GouraudWithEdges
350
2E
  3
Linepattern
350
38
  3
Realistic
350
33
  3
Thicken
350
37
  0
DICTIONARY
  5
230
102
{ACAD_REACTORS
330
C
102
}
330
C
100
AcDbDictionary
281
     1
  3
CANNOSCALE
350
231
  3
PSOLHEIGHT
350
235
  3
PSOLWIDTH
350
234
  0
LAYOUT
  5
1E
102
{ACAD_REACTORS
330
1A
102
}
330
1A
100
AcDbPlotSettings
  1

  2
none_device
  4

  6

 40
0.0
 41
0.0
 42
0.0
 43
0.0
 44
0.0
 45
0.0
 46
0.0
 47
0.0
 48
0.0
 49
0.0
140
0.0
141
0.0
142
1.0
143
1.0
 70
   688
 72
     0
 73
     0
 74
     5
  7

 75
    16
147
1.0
148
0.0
149
0.0
100
AcDbLayout
  1
Layout1
 70
     1
 71
     1
 10
0.0
 20
0.0
 11
1682.0
 21
2378.0
 12
0.0
 22
0.0
 32
0.0
 14
0.0
 24
0.0
 34
0.0
 15
1682.0
 25
2378.0
 35
0.0
146
0.0
 13
0.0
 23
0.0
 33
0.0
 16
1.0
 26
0.0
 36
0.0
 17
0.0
 27
1.0
 37
0.0
 76
     0
330
1B
  0
LAYOUT
  5
22
102
{ACAD_REACTORS
330
1A
102
}
330
1A
100
AcDbPlotSettings
  1

  2
none_device
  4

  6

 40
0.0
 41
0.0
 42
0.0
 43
0.0
 44
0.0
 45
0.0
 46
0.0
 47
0.0
 48
0.0
 49
0.0
140
0.0
141
0.0
142
1.0
143
1.0
 70
  1712
 72
     0
 73
     0
 74
     0
  7

 75
     0
147
1.0
148
0.0
149
0.0
100
AcDbLayout
  1
Model
 70
     1
 71
     0
 10
0.0
 20
0.0
 11
1682.0
 21
2378.0
 12
0.0
 22
0.0
 32
0.0
 14
0.0
 24
0.0
 34
0.0
 15
1682.0
 25
2378.0
 35
0.0
146
0.0
 13
0.0
 23
0.0
 33
0.0
 16
1.0
 26
0.0
 36
0.0
 17
0.0
 27
1.0
 37
0.0
 76
     0
330
1F
331
29
  0
MLINESTYLE
  5
18
102
{ACAD_REACTORS
330
17
102
}
330
17
100
AcDbMlineStyle
  2
Standard
 70
     0
  3

 62
   256
 51
90.0
 52
90.0
 71
     2
 49
0.5
 62
   256
  6
BYLAYER
 49
-0.5
 62
   256
  6
BYLAYER
  0
ACDBPLACEHOLDER
  5
F
102
{ACAD_REACTORS
330
E
102
}
330
E
  0
SCALE
  5
3C
102
{ACAD_REACTORS
330
3B
102
}
330
3B
100
AcDbScale
 70
     0
300
1:1
140
1.0
141
1.0
290
     1
  0
SCALE
  5
3D
102
{ACAD_REACTORS
330
3B
102
}
330
3B
100
AcDbScale
 70
     0
300
1:2
140
1.0
141
2.0
290
     0
  0
SCALE
  5
3E
102
{ACAD_REACTORS
330
3B
102
}
330
3B
100
AcDbScale
 70
     0
300
1:4
140
1.0
141
4.0
290
     0
  0
SCALE
  5
3F
102
{ACAD_REACTORS
330
3B
102
}
330
3B
100
AcDbScale
 70
     0
300
1:5
140
1.0
141
5.0
290
     0
  0
SCALE
  5
40
102
{ACAD_REACTORS
330
3B
102
}
330
3B
100
AcDbScale
 70
     0
300
1:8
140
1.0
141
8.0
290
     0
  0
SCALE
  5
41
102
{ACAD_REACTORS
330
3B
102
}
330
3B
100
AcDbScale
 70
     0
300
1:10
140
1.0
141
10.0
290
     0
  0
SCALE
  5
42
102
{ACAD_REACTORS
330
3B
102
}
330
3B
100
AcDbScale
 70
     0
300
1:16
140
1.0
141
16.0
290
     0
  0
SCALE
  5
43
102
{ACAD_REACTORS
330
3B
102
}
330
3B
100
AcDbScale
 70
     0
300
1:20
140
1.0
141
20.0
290
     0
  0
SCALE
  5
44
102
{ACAD_REACTORS
330
3B
102
}
330
3B
100
AcDbScale
 70
     0
300
1:30
140
1.0
141
30.0
290
     0
  0
SCALE
  5
45
102
{ACAD_REACTORS
330
3B
102
}
330
3B
100
AcDbScale
 70
     0
300
1:40
140
1.0
141
40.0
290
     0
  0
SCALE
  5
46
102
{ACAD_REACTORS
330
3B
102
}
330
3B
100
AcDbScale
 70
     0
300
1:50
140
1.0
141
50.0
290
     0
  0
SCALE
  5
47
102
{ACAD_REACTORS
330
3B
102
}
330
3B
100
AcDbScale
 70
     0
300
1:100
140
1.0
141
100.0
290
     0
  0
SCALE
  5
48
102
{ACAD_REACTORS
330
3B
102
}
330
3B
100
AcDbScale
 70
     0
300
2:1
140
2.0
141
1.0
290
     0
  0
SCALE
  5
49
102
{ACAD_REACTORS
330
3B
102
}
330
3B
100
AcDbScale
 70
     0
300
4:1
140
4.0
141
1.0
290
     0
  0
SCALE
  5
4A
102
{ACAD_REACTORS
330
3B
102
}
330
3B
100
AcDbScale
 70
     0
300
8:1
140
8.0
141
1.0
290
     0
  0
SCALE
  5
4B
102
{ACAD_REACTORS
330
3B
102
}
330
3B
100
AcDbScale
 70
     0
300
10:1
140
10.0
141
1.0
290
     0
  0
SCALE
  5
4C
102
{ACAD_REACTORS
330
3B
102
}
330
3B
100
AcDbScale
 70
     0
300
100:1
140
100.0
141
1.0
290
     0
  0
SCALE
  5
4D
102
{ACAD_REACTORS
330
3B
102
}
330
3B
100
AcDbScale
 70
     0
300
1/128" = 1'-0"
140
0.0078125
141
12.0
290
     0
  0
SCALE
  5
4E
102
{ACAD_REACTORS
330
3B
102
}
330
3B
100
AcDbScale
 70
     0
300
1/64" = 1'-0"
140
0.015625
141
12.0
290
     0
  0
SCALE
  5
4F
102
{ACAD_REACTORS
330
3B
102
}
330
3B
100
AcDbScale
 70
     0
300
1/32" = 1'-0"
140
0.03125
141
12.0
290
     0
  0
SCALE
  5
50
102
{ACAD_REACTORS
330
3B
102
}
330
3B
100
AcDbScale
 70
     0
300
1/16" = 1'-0"
140
0.0625
141
12.0
290
     0
  0
SCALE
  5
51
102
{ACAD_REACTORS
330
3B
102
}
330
3B
100
AcDbScale
 70
     0
300
3/32" = 1'-0"
140
0.09375
141
12.0
290
     0
  0
SCALE
  5
52
102
{ACAD_REACTORS
330
3B
102
}
330
3B
100
AcDbScale
 70
     0
300
1/8" = 1'-0"
140
0.125
141
12.0
290
     0
  0
SCALE
  5
53
102
{ACAD_REACTORS
330
3B
102
}
330
3B
100
AcDbScale
 70
     0
300
3/16" = 1'-0"
140
0.1875
141
12.0
290
     0
  0
SCALE
  5
54
102
{ACAD_REACTORS
330
3B
102
}
330
3B
100
AcDbScale
 70
     0
300
1/4" = 1'-0"
140
0.25
141
12.0
290
     0
  0
SCALE
  5
55
102
{ACAD_REACTORS
330
3B
102
}
330
3B
100
AcDbScale
 70
     0
300
3/8" = 1'-0"
140
0.375
141
12.0
290
     0
  0
SCALE
  5
56
102
{ACAD_REACTORS
330
3B
102
}
330
3B
100
AcDbScale
 70
     0
300
1/2" = 1'-0"
140
0.5
141
12.0
290
     0
  0
SCALE
  5
57
102
{ACAD_REACTORS
330
3B
102
}
330
3B
100
AcDbScale
 70
     0
300
3/4" = 1'-0"
140
0.75
141
12.0
290
     0
  0
SCALE
  5
58
102
{ACAD_REACTORS
330
3B
102
}
330
3B
100
AcDbScale
 70
     0
300
1" = 1'-0"
140
1.0
141
12.0
290
     0
  0
SCALE
  5
59
102
{ACAD_REACTORS
330
3B
102
}
330
3B
100
AcDbScale
 70
     0
300
1-1/2" = 1'-0"
140
1.5
141
12.0
290
     0
  0
SCALE
  5
5A
102
{ACAD_REACTORS
330
3B
102
}
330
3B
100
AcDbScale
 70
     0
300
3" = 1'-0"
140
3.0
141
12.0
290
     0
  0
SCALE
  5
5B
102
{ACAD_REACTORS
330
3B
102
}
330
3B
100
AcDbScale
 70
     0
300
6" = 1'-0"
140
6.0
141
12.0
290
     0
  0
SCALE
  5
5C
102
{ACAD_REACTORS
330
3B
102
}
330
3B
100
AcDbScale
 70
     0
300
1'-0" = 1'-0"
140
12.0
141
12.0
290
     0
  0
VISUALSTYLE
  5
2F
102
{ACAD_REACTORS
330
2A
102
}
330
2A
100
AcDbVisualStyle
  2
2dWireframe
 70
     4
 71
     0
 72
     2
 73
     0
 90
        0
 40
-0.6
 41
-30.0
 62
     5
 63
     7
 74
     1
 91
        4
 64
     7
 65
   257
 75
     1
175
     1
 42
1.0
 92
        0
 66
   257
 43
1.0
 76
     1
 77
     6
 78
     2
 67
     7
 79
     5
170
     0
171
     0
290
     0
174
     0
 93
        1
 44
0.0
173
     0
291
     0
 45
0.0
1001
ACAD
1000
AcDbSavedByObjectVersion
1070
     0
  0
VISUALSTYLE
  5
31
102
{ACAD_REACTORS
330
2A
102
}
330
2A
100
AcDbVisualStyle
  2
3D Hidden
 70
     6
 71
     1
 72
     2
 73
     2
 90
        0
 40
-0.6
 41
-30.0
 62
     5
 63
     7
 74
     2
 91
        2
 64
     7
 65
   257
 75
     2
175
     1
 42
40.0
 92
        0
 66
   257
 43
1.0
 76
     1
 77
     6
 78
     2
 67
     7
 79
     3
170
     0
171
     0
290
     0
174
     0
 93
        1
 44
0.0
173
     0
291
     0
 45
0.0
1001
ACAD
1000
AcDbSavedByObjectVersion
1070
     0
  0
VISUALSTYLE
  5
30
102
{ACAD_REACTORS
330
2A
102
}
330
2A
100
AcDbVisualStyle
  2
3dWireframe
 70
     5
 71
     0
 72
     2
 73
     0
 90
        0
 40
-0.6
 41
-30.0
 62
     5
 63
     7
 74
     1
 91
        4
 64
     7
 65
   257
 75
     1
175
     1
 42
1.0
 92
        0
 66
   257
 43
1.0
 76
     1
 77
     6
 78
     2
 67
     7
 79
     5
170
     0
171
     0
290
     0
174
     0
 93
        1
 44
0.0
173
     0
291
     0
 45
0.0
1001
ACAD
1000
AcDbSavedByObjectVersion
1070
     0
  0
VISUALSTYLE
  5
32
102
{ACAD_REACTORS
330
2A
102
}
330
2A
100
AcDbVisualStyle
  2
Basic
 70
     7
 71
     1
 72
     0
 73
     1
 90
        0
 40
-0.6
 41
-30.0
 62
     5
 63
     7
 74
     0
 91
        4
 64
     7
 65
   257
 75
     1
175
     1
 42
1.0
 92
        8
 66
     7
 43
1.0
 76
     1
 77
     6
 78
     2
 67
     7
 79
     5
170
     0
171
     0
290
     0
174
     0
 93
        1
 44
0.0
173
     0
291
     1
 45
0.0
1001
ACAD
1000
AcDbSavedByObjectVersion
1070
     0
  0
VISUALSTYLE
  5
36
102
{ACAD_REACTORS
330
2A
102
}
330
2A
100
AcDbVisualStyle
  2
Brighten
 70
    12
 71
     2
 72
     2
 73
     0
 90
        0
 40
-0.6
 41
-30.0
 62
     5
 63
     7
 74
     1
 91
        4
 64
     7
 65
   257
 75
     1
175
     1
 42
1.0
 92
        8
 66
     7
 43
1.0
 76
     1
 77
     6
 78
     2
 67
     7
 79
     5
170
     0
171
     0
290
     0
174
     0
 93
        1
 44
50.0
173
     0
291
     1
 45
0.0
1001
ACAD
1000
AcDbSavedByObjectVersion
1070
     0
  0
VISUALSTYLE
  5
3A
102
{ACAD_REACTORS
330
2A
102
}
330
2A
100
AcDbVisualStyle
  2
ColorChange
 70
    16
 71
     2
 72
     2
 73
     3
 90
        0
 40
-0.6
 41
-30.0
 62
     5
 63
     8
 74
     1
 91
        4
 64
     7
 65
   257
 75
     1
175
     1
 42
1.0
 92
        8
 66
     8
 43
1.0
 76
     1
 77
     6
 78
     2
 67
     7
 79
     5
170
     0
171
     0
290
     0
174
     0
 93
        1
 44
0.0
173
     0
291
     1
 45
0.0
1001
ACAD
1000
AcDbSavedByObjectVersion
1070
     0
  0
VISUALSTYLE
  5
34
102
{ACAD_REACTORS
330
2A
102
}
330
2A
100
AcDbVisualStyle
  2
Conceptual
 70
     9
 71
     3
 72
     2
 73
     0
 90
        0
 40
-0.6
 41
-30.0
 62
     5
 63
     7
 74
     2
 91
        2
 64
     7
 65
   257
 75
     1
175
     1
 42
40.0
 92
        8
 66
     7
 43
1.0
 76
     1
 77
     6
 78
     2
 67
     7
 79
     3
170
     0
171
     0
290
     0
174
     0
 93
        1
 44
0.0
173
     0
291
     0
 45
0.0
1001
ACAD
1000
AcDbSavedByObjectVersion
1070
     0
  0
VISUALSTYLE
  5
35
102
{ACAD_REACTORS
330
2A
102
}
330
2A
100
AcDbVisualStyle
  2
Dim
 70
    11
 71
     2
 72
     2
 73
     0
 90
        0
 40
-0.6
 41
-30.0
 62
     5
 63
     7
 74
     1
 91
        4
 64
     7
 65
   257
 75
     1
175
     1
 42
1.0
 92
        8
 66
     7
 43
1.0
 76
     1
 77
     6
 78
     2
 67
     7
 79
     5
170
     0
171
     0
290
     0
174
     0
 93
        1
 44
-50.0
173
     0
291
     1
 45
0.0
1001
ACAD
1000
AcDbSavedByObjectVersion
1070
     0
  0
VISUALSTYLE
  5
39
102
{ACAD_REACTORS
330
2A
102
}
330
2A
100
AcDbVisualStyle
  2
Facepattern
 70
    15
 71
     2
 72
     2
 73
     0
 90
        0
 40
-0.6
 41
-30.0
 62
     5
 63
     7
 74
     1
 91
        4
 64
     7
 65
   257
 75
     1
175
     1
 42
1.0
 92
        8
 66
     7
 43
1.0
 76
     1
 77
     6
 78
     2
 67
     7
 79
     5
170
     0
171
     0
290
     0
174
     0
 93
        1
 44
0.0
173
     0
291
     1
 45
0.0
1001
ACAD
1000
AcDbSavedByObjectVersion
1070
     0
  0
VISUALSTYLE
  5
2B
102
{ACAD_REACTORS
330
2A
102
}
330
2A
100
AcDbVisualStyle
  2
Flat
 70
     0
 71
     2
 72
     1
 73
     1
 90
        2
 40
-0.6
 41
30.0
 62
     5
 63
     7
 74
     0
 91
        4
 64
     7
 65
   257
 75
     1
175
     1
 42
1.0
 92
        8
 66
     7
 43
1.0
 76
     1
 77
     6
 78
     2
 67
     7
 79
     5
170
     0
171
     0
290
     0
174
     0
 93
       13
 44
0.0
173
     0
291
     1
 45
0.0
1001
ACAD
1000
AcDbSavedByObjectVersion
1070
     0
  0
VISUALSTYLE
  5
2C
102
{ACAD_REACTORS
330
2A
102
}
330
2A
100
AcDbVisualStyle
  2
FlatWithEdges
 70
     1
 71
     2
 72
     1
 73
     1
 90
        2
 40
-0.6
 41
30.0
 62
     5
 63
     7
 74
     1
 91
        4
 64
     7
 65
   257
 75
     1
175
     1
 42
1.0
 92
        0
 66
   257
 43
1.0
 76
     1
 77
     6
 78
     2
 67
     7
 79
     5
170
     0
171
     0
290
     0
174
     0
 93
       13
 44
0.0
173
     0
291
     1
 45
0.0
1001
ACAD
1000
AcDbSavedByObjectVersion
1070
     0
  0
VISUALSTYLE
  5
2D
102
{ACAD_REACTORS
330
2A
102
}
330
2A
100
AcDbVisualStyle
  2
Gouraud
 70
     2
 71
     2
 72
     2
 73
     1
 90
        2
 40
-0.6
 41
30.0
 62
     5
 63
     7
 74
     0
 91
        4
 64
     7
 65
   257
 75
     1
175
     1
 42
1.0
 92
        0
 66
     7
 43
1.0
 76
     1
 77
     6
 78
     2
 67
     7
 79
     5
170
     0
171
     0
290
     0
174
     0
 93
       13
 44
0.0
173
     0
291
     1
 45
0.0
1001
ACAD
1000
AcDbSavedByObjectVersion
1070
     0
  0
VISUALSTYLE
  5
2E
102
{ACAD_REACTORS
330
2A
102
}
330
2A
100
AcDbVisualStyle
  2
GouraudWithEdges
 70
     3
 71
     2
 72
     2
 73
     1
 90
        2
 40
-0.6
 41
30.0
 62
     5
 63
     7
 74
     1
 91
        4
 64
     7
 65
   257
 75
     1
175
     1
 42
1.0
 92
        0
 66
   257
 43
1.0
 76
     1
 77
     6
 78
     2
 67
     7
 79
     5
170
     0
171
     0
290
     0
174
     0
 93
       13
 44
0.0
173
     0
291
     1
 45
0.0
1001
ACAD
1000
AcDbSavedByObjectVersion
1070
     0
  0
VISUALSTYLE
  5
38
102
{ACAD_REACTORS
330
2A
102
}
330
2A
100
AcDbVisualStyle
  2
Linepattern
 70
    14
 71
     2
 72
     2
 73
     0
 90
        0
 40
-0.6
 41
-30.0
 62
     5
 63
     7
 74
     1
 91
        4
 64
     7
 65
   257
 75
     7
175
     7
 42
1.0
 92
        8
 66
     7
 43
1.0
 76
     1
 77
     6
 78
     2
 67
     7
 79
     5
170
     0
171
     0
290
     0
174
     0
 93
        1
 44
0.0
173
     0
291
     1
 45
0.0
1001
ACAD
1000
AcDbSavedByObjectVersion
1070
     0
  0
VISUALSTYLE
  5
33
102
{ACAD_REACTORS
330
2A
102
}
330
2A
100
AcDbVisualStyle
  2
Realistic
 70
     8
 71
     2
 72
     2
 73
     0
 90
        0
 40
-0.6
 41
-30.0
 62
     5
 63
     7
 74
     1
 91
        0
 64
     7
 65
   257
 75
     1
175
     1
 42
1.0
 92
        8
 66
     8
 43
1.0
 76
     1
 77
     6
 78
     2
 67
     7
 79
     5
170
     0
171
     0
290
     0
174
     0
 93
       13
 44
0.0
173
     0
291
     0
 45
0.0
1001
ACAD
1000
AcDbSavedByObjectVersion
1070
     0
  0
VISUALSTYLE
  5
37
102
{ACAD_REACTORS
330
2A
102
}
330
2A
100
AcDbVisualStyle
  2
Thicken
 70
    13
 71
     2
 72
     2
 73
     0
 90
        0
 40
-0.6
 41
-30.0
 62
     5
 63
     7
 74
     1
 91
        4
 64
     7
 65
   257
 75
     1
175
     1
 42
1.0
 92
       12
 66
     7
 43
1.0
 76
     1
 77
     6
 78
     2
 67
     7
 79
     5
170
     0
171
     0
290
     0
174
     0
 93
        1
 44
0.0
173
     0
291
     1
 45
0.0
1001
ACAD
1000
AcDbSavedByObjectVersion
1070
     0
  0
DICTIONARYVAR
  5
231
102
{ACAD_REACTORS
330
230
102
}
330
230
100
DictionaryVariables
280
     0
  1
1:1
  0
DICTIONARYVAR
  5
235
102
{ACAD_REACTORS
330
230
102
}
330
230
100
DictionaryVariables
280
     0
  1
80.000000
  0
DICTIONARYVAR
  5
234
102
{ACAD_REACTORS
330
230
102
}
330
230
100
DictionaryVariables
280
     0
  1
5.000000
  0
ENDSEC
  0
EOF
