  0
SECTION
  2
HEADER
  9
$ACADVER
  1
AC1009
  9
$DWGCODEPAGE
  3
ansi_1252
  9
$INSBASE
 10
0.0
 20
0.0
 30
0.0
  9
$EXTMIN
 10
1.000000000000000E+20
 20
1.000000000000000E+20
 30
1.000000000000000E+20
  9
$EXTMAX
 10
-1.000000000000000E+20
 20
-1.000000000000000E+20
 30
-1.000000000000000E+20
  9
$LIMMIN
 10
0.0
 20
0.0
  9
$LIMMAX
 10
12.0
 20
9.0
  9
$ORTHOMODE
 70
     0
  9
$REGENMODE
 70
     1
  9
$FILLMODE
 70
     1
  9
$QTEXTMODE
 70
     0
  9
$MIRRTEXT
 70
     1
  9
$DRAGMODE
 70
     2
  9
$LTSCALE
 40
1.0
  9
$OSMODE
 70
    37
  9
$ATTMODE
 70
     1
  9
$TEXTSIZE
 40
0.2
  9
$TRACEWID
 40
0.05
  9
$TEXTSTYLE
  7
STANDARD
  9
$CLAYER
  8
0
  9
$CELTYPE
  6
BYLAYER
  9
$CECOLOR
 62
   256
  9
$DIMSCALE
 40
1.0
  9
$DIMASZ
 40
0.18
  9
$DIMEXO
 40
0.0625
  9
$DIMDLI
 40
0.38
  9
$DIMRND
 40
0.0
  9
$DIMDLE
 40
0.0
  9
$DIMEXE
 40
0.18
  9
$DIMTP
 40
0.0
  9
$DIMTM
 40
0.0
  9
$DIMTXT
 40
0.18
  9
$DIMCEN
 40
0.09
  9
$DIMTSZ
 40
0.0
  9
$DIMTOL
 70
     0
  9
$DIMLIM
 70
     0
  9
$DIMTIH
 70
     1
  9
$DIMTOH
 70
     1
  9
$DIMSE1
 70
     0
  9
$DIMSE2
 70
     0
  9
$DIMTAD
 70
     0
  9
$DIMZIN
 70
     0
  9
$DIMBLK
  1

  9
$DIMASO
 70
     1
  9
$DIMSHO
 70
     1
  9
$DIMPOST
  1

  9
$DIMAPOST
  1

  9
$DIMALT
 70
     0
  9
$DIMALTD
 70
     2
  9
$DIMALTF
 40
25.4
  9
$DIMLFAC
 40
1.0
  9
$DIMTOFL
 70
     0
  9
$DIMTVP
 40
0.0
  9
$DIMTIX
 70
     0
  9
$DIMSOXD
 70
     0
  9
$DIMSAH
 70
     0
  9
$DIMBLK1
  1

  9
$DIMBLK2
  1

  9
$DIMSTYLE
  2
STANDARD
  9
$DIMCLRD
 70
     0
  9
$DIMCLRE
 70
     0
  9
$DIMCLRT
 70
     0
  9
$DIMTFAC
 40
1.0
  9
$DIMGAP
 40
0.09
  9
$LUNITS
 70
     2
  9
$LUPREC
 70
     4
  9
$SKETCHINC
 40
0.1
  9
$FILLETRAD
 40
0.5
  9
$AUNITS
 70
     0
  9
$AUPREC
 70
     0
  9
$MENU
  1
.
  9
$ELEVATION
 40
0.0
  9
$PELEVATION
 40
0.0
  9
$THICKNESS
 40
0.0
  9
$LIMCHECK
 70
     0
  9
$CHAMFERA
 40
0.5
  9
$CHAMFERB
 40
0.5
  9
$SKPOLY
 70
     0
  9
$TDCREATE
 40
2455931.351008032
  9
$TDUPDATE
 40
2455931.351008032
  9
$TDINDWG
 40
0.0000000116
  9
$TDUSRTIMER
 40
0.0000000116
  9
$USRTIMER
 70
     1
  9
$ANGBASE
 50
0.0
  9
$ANGDIR
 70
     0
  9
$PDMODE
 70
     0
  9
$PDSIZE
 40
0.0
  9
$PLINEWID
 40
0.0
  9
$COORDS
 70
     1
  9
$SPLFRAME
 70
     0
  9
$SPLINETYPE
 70
     6
  9
$SPLINESEGS
 70
     8
  9
$ATTDIA
 70
     0
  9
$ATTREQ
 70
     1
  9
$HANDLING
 70
     1
  9
$HANDSEED
  5
8DD
  9
$SURFTAB1
 70
     6
  9
$SURFTAB2
 70
     6
  9
$SURFTYPE
 70
     6
  9
$SURFU
 70
     6
  9
$SURFV
 70
     6
  9
$UCSNAME
  2

  9
$UCSORG
 10
0.0
 20
0.0
 30
0.0
  9
$UCSXDIR
 10
1.0
 20
0.0
 30
0.0
  9
$UCSYDIR
 10
0.0
 20
1.0
 30
0.0
  9
$PUCSNAME
  2

  9
$PUCSORG
 10
0.0
 20
0.0
 30
0.0
  9
$PUCSXDIR
 10
1.0
 20
0.0
 30
0.0
  9
$PUCSYDIR
 10
0.0
 20
1.0
 30
0.0
  9
$USERI1
 70
     0
  9
$USERI2
 70
     0
  9
$USERI3
 70
     0
  9
$USERI4
 70
     0
  9
$USERI5
 70
     0
  9
$USERR1
 40
0.0
  9
$USERR2
 40
0.0
  9
$USERR3
 40
0.0
  9
$USERR4
 40
0.0
  9
$USERR5
 40
0.0
  9
$WORLDVIEW
 70
     1
  9
$SHADEDGE
 70
     3
  9
$SHADEDIF
 70
    70
  9
$TILEMODE
 70
     1
  9
$MAXACTVP
 70
    64
  9
$PLIMCHECK
 70
     0
  9
$PEXTMIN
 10
1.000000000000000E+20
 20
1.000000000000000E+20
 30
1.000000000000000E+20
  9
$PEXTMAX
 10
-1.000000000000000E+20
 20
-1.000000000000000E+20
 30
-1.000000000000000E+20
  9
$PLIMMIN
 10
0.0
 20
0.0
  9
$PLIMMAX
 10
12.0
 20
9.0
  9
$UNITMODE
 70
     0
  9
$VISRETAIN
 70
     1
  9
$PLINEGEN
 70
     0
  9
$PSLTSCALE
 70
     1
  0
ENDSEC
  0
SECTION
  2
TABLES
  0
TABLE
  2
VPORT
 70
     1
  0
VPORT
  2
*ACTIVE
 70
     0
 10
0.0
 20
0.0
 11
1.0
 21
1.0
 12
0.0
 22
0.0
 13
0.0
 23
0.0
 14
0.5
 24
0.5
 15
0.5
 25
0.5
 16
418.81103515625
 26
-402.2799377441406
 36
270.1420288085938
 17
105.1884765625
 27
-0.0006103515625
 37
103.9306335449219
 40
259.8510391187856
 41
1.972972972850329
 42
50.0
 43
0.0
 44
0.0
 50
0.0
 51
0.0
 71
     0
 72
   100
 73
     1
 74
     3
 75
     0
 76
     0
 77
     0
 78
     0
  0
ENDTAB
  0
TABLE
  2
LTYPE
 70
     1
  0
LTYPE
  2
CONTINUOUS
 70
     0
  3
Solid line
 72
    65
 73
     0
 40
0.0
  0
ENDTAB
  0
TABLE
  2
LAYER
 70
     2
  0
LAYER
  2
0
 70
     0
 62
     7
  6
CONTINUOUS
  0
LAYER
  2
LAYER_1
 70
     0
 62
     7
  6
CONTINUOUS
  0
ENDTAB
  0
TABLE
  2
STYLE
 70
     1
  0
STYLE
  2
STANDARD
 70
     0
 40
0.0
 41
1.0
 50
0.0
 71
     0
 42
0.2
  3
txt
  4

  0
ENDTAB
  0
TABLE
  2
VIEW
 70
     0
  0
ENDTAB
  0
TABLE
  2
UCS
 70
     0
  0
ENDTAB
  0
TABLE
  2
APPID
 70
     1
  0
APPID
  2
ACAD
 70
     0
  0
ENDTAB
  0
TABLE
  2
DIMSTYLE
 70
     1
  0
DIMSTYLE
  2
STANDARD
 70
     0
  3

  4

  5

  6

  7

 40
1.0
 41
0.18
 42
0.0625
 43
0.38
 44
0.18
 45
0.0
 46
0.0
 47
0.0
 48
0.0
140
0.18
141
0.09
142
0.0
143
25.4
144
1.0
145
0.0
146
1.0
147
0.09
 71
     0
 72
     0
 73
     1
 74
     1
 75
     0
 76
     0
 77
     0
 78
     0
170
     0
171
     2
172
     0
173
     0
174
     0
175
     0
176
     0
177
     0
178
     0
  0
ENDTAB
  0
ENDSEC
  0
SECTION
  2
BLOCKS
  0
BLOCK
  8
0
  2
$MODEL_SPACE
 70
     0
 10
0.0
 20
0.0
 30
0.0
  3
$MODEL_SPACE
  1

  0
ENDBLK
  5
21
  8
0
  0
BLOCK
 67
     1
  8
0
  2
$PAPER_SPACE
 70
     0
 10
0.0
 20
0.0
 30
0.0
  3
$PAPER_SPACE
  1

  0
ENDBLK
  5
1D
 67
     1
  8
0
  0
BLOCK
  8
0
  2
RAIL_SUR
 70
     0
 10
0.0
 20
0.0
 30
0.0
  3
RAIL_SUR
  1

  0
POLYLINE
  5
3C
  8
0
 62
     9
 66
     1
 10
0.0
 20
0.0
 30
0.0
 70
    64
 71
   107
 72
   300
  0
VERTEX
  5
3D
  8
0
 10
13.85590839385986
 20
20.80360412597656
 30
161.2477111816406
 70
   192
  0
VERTEX
  5
3E
  8
0
 10
4.261455059051514
 20
-24.64471435546875
 30
161.2477722167969
 70
   192
  0
VERTEX
  5
3F
  8
0
 10
4.261439800262451
 20
24.64234352111816
 30
161.2477722167969
 70
   192
  0
VERTEX
  5
40
  8
0
 10
21.06663131713867
 20
13.43655204772949
 30
161.2477569580078
 70
   192
  0
VERTEX
  5
41
  8
0
 10
24.59940528869629
 20
4.341735363006592
 30
161.2477569580078
 70
   192
  0
VERTEX
  5
42
  8
0
 10
13.41355323791504
 20
-21.09694290161133
 30
161.2477722167969
 70
   192
  0
VERTEX
  5
43
  8
0
 10
22.8604736328125
 20
-10.08173561096191
 30
161.2476501464844
 70
   192
  0
VERTEX
  5
44
  8
0
 10
-17.02373123168945
 20
-15.01197242736816
 30
172.5653076171875
 70
   192
  0
VERTEX
  5
45
  8
0
 10
-21.48660850524902
 20
-5.403851985931396
 30
174.9382629394531
 70
   192
  0
VERTEX
  5
46
  8
0
 10
-21.47445297241211
 20
5.438666343688965
 30
174.9317932128906
 70
   192
  0
VERTEX
  5
47
  8
0
 10
-16.98350524902344
 20
15.03908634185791
 30
172.5439147949219
 70
   192
  0
VERTEX
  5
48
  8
0
 10
-9.299749374389648
 20
21.63881301879883
 30
168.4583892822266
 70
   192
  0
VERTEX
  5
49
  8
0
 10
-9.19141960144043
 20
-21.3521842956543
 30
168.4007873535156
 70
   192
  0
VERTEX
  5
4A
  8
0
 10
-0.032225675880909
 20
24.56377792358398
 30
163.53076171875
 70
   192
  0
VERTEX
  5
4B
  8
0
 10
-0.0326459147036076
 20
-24.56373405456543
 30
163.5309906005859
 70
   192
  0
VERTEX
  5
4C
  8
0
 10
11.44403648376465
 20
-15.76333713531494
 30
189.4012298583984
 70
   192
  0
VERTEX
  5
4D
  8
0
 10
5.855472564697266
 20
-18.2141056060791
 30
191.1827850341797
 70
   192
  0
VERTEX
  5
4E
  8
0
 10
13.75084018707275
 20
13.89166450500488
 30
188.6658477783203
 70
   192
  0
VERTEX
  5
4F
  8
0
 10
7.284013748168945
 20
17.75879096984863
 30
190.7273864746094
 70
   192
  0
VERTEX
  5
50
  8
0
 10
-0.137755960226059
 20
18.77738571166992
 30
193.0933227539062
 70
   192
  0
VERTEX
  5
51
  8
0
 10
18.24136543273926
 20
7.633175373077393
 30
187.2343444824219
 70
   192
  0
VERTEX
  5
52
  8
0
 10
19.9211597442627
 20
-0.0000127301454995
 30
186.6988525390625
 70
   192
  0
VERTEX
  5
53
  8
0
 10
18.84918975830078
 20
-6.150554180145264
 30
187.0405731201172
 70
   192
  0
VERTEX
  5
54
  8
0
 10
15.60731792449951
 20
-11.40252017974854
 30
188.0740356445312
 70
   192
  0
VERTEX
  5
55
  8
0
 10
-0.137755960226059
 20
-18.77738571166992
 30
193.0933227539062
 70
   192
  0
VERTEX
  5
56
  8
0
 10
-15.64565849304199
 20
9.102322578430176
 30
194.7219848632812
 70
   192
  0
VERTEX
  5
57
  8
0
 10
-9.069355010986328
 20
15.68606853485107
 30
195.541015625
 70
   192
  0
VERTEX
  5
58
  8
0
 10
-0.1502553671598434
 20
18.09066009521484
 30
196.6017913818359
 70
   192
  0
VERTEX
  5
59
  8
0
 10
-18.10630035400391
 20
0.0029559540562332
 30
194.3968811035156
 70
   192
  0
VERTEX
  5
5A
  8
0
 10
-9.171878814697266
 20
-15.61757373809814
 30
195.5284729003906
 70
   192
  0
VERTEX
  5
5B
  8
0
 10
-0.1502553671598434
 20
-18.09066009521484
 30
196.6017913818359
 70
   192
  0
VERTEX
  5
5C
  8
0
 10
-15.71573257446289
 20
-8.999529838562012
 30
194.7094421386719
 70
   192
  0
VERTEX
  5
5D
  8
0
 10
19.73429489135742
 20
-0.0000064678833951
 30
190.7630310058594
 70
   192
  0
VERTEX
  5
5E
  8
0
 10
18.63174819946289
 20
6.523427486419678
 30
191.0023345947266
 70
   192
  0
VERTEX
  5
5F
  8
0
 10
20.72858238220215
 20
14.31511306762695
 30
195.1119079589844
 70
   192
  0
VERTEX
  5
60
  8
0
 10
18.77872657775879
 20
10.47916126251221
 30
193.4654846191406
 70
   192
  0
VERTEX
  5
61
  8
0
 10
15.99923896789551
 20
14.84792232513428
 30
193.7765655517578
 70
   192
  0
VERTEX
  5
62
  8
0
 10
20.71985054016113
 20
5.645913600921631
 30
193.5059051513672
 70
   192
  0
VERTEX
  5
63
  8
0
 10
21.72065162658691
 20
-0.0000008189068126
 30
193.6695861816406
 70
   192
  0
VERTEX
  5
64
  8
0
 10
15.64687919616699
 20
11.82165336608887
 30
191.3955230712891
 70
   192
  0
VERTEX
  5
65
  8
0
 10
24.55251121520996
 20
5.007879257202148
 30
194.7306518554688
 70
   192
  0
VERTEX
  5
66
  8
0
 10
25.04108428955078
 20
-0.0000095308823802
 30
194.6819458007812
 70
   192
  0
VERTEX
  5
67
  8
0
 10
11.41680431365967
 20
15.94897651672363
 30
192.3258361816406
 70
   192
  0
VERTEX
  5
68
  8
0
 10
12.12806701660156
 20
18.74858474731445
 30
194.5993499755859
 70
   192
  0
VERTEX
  5
69
  8
0
 10
5.98687744140625
 20
18.76261901855469
 30
193.8453216552734
 70
   192
  0
VERTEX
  5
6A
  8
0
 10
23.0583438873291
 20
9.823920249938965
 30
194.8796234130859
 70
   192
  0
VERTEX
  5
6B
  8
0
 10
18.28581428527832
 20
18.73528480529785
 30
195.3554229736328
 70
   192
  0
VERTEX
  5
6C
  8
0
 10
10.42418003082275
 20
-16.62072563171387
 30
192.580322265625
 70
   192
  0
VERTEX
  5
6D
  8
0
 10
5.987072944641113
 20
-18.76249313354492
 30
193.8453521728516
 70
   192
  0
VERTEX
  5
6E
  8
0
 10
24.67172813415527
 20
-4.020427703857422
 30
194.7187652587891
 70
   192
  0
VERTEX
  5
6F
  8
0
 10
20.97910690307617
 20
-4.583137512207031
 30
193.5152282714844
 70
   192
  0
VERTEX
  5
70
  8
0
 10
23.69869804382324
 20
-7.932087898254395
 30
194.8157806396484
 70
   192
  0
VERTEX
  5
71
  8
0
 10
19.6612720489502
 20
-8.605792999267578
 30
193.4341583251953
 70
   192
  0
VERTEX
  5
72
  8
0
 10
16.99570083618164
 20
-9.848851203918457
 30
191.1685028076172
 70
   192
  0
VERTEX
  5
73
  8
0
 10
17.79519271850586
 20
-12.28486061096191
 30
193.5238800048828
 70
   192
  0
VERTEX
  5
74
  8
0
 10
22.15018081665039
 20
-11.63621997833252
 30
194.9701690673828
 70
   192
  0
VERTEX
  5
75
  8
0
 10
12.12824058532715
 20
-18.74831390380859
 30
194.5993804931641
 70
   192
  0
VERTEX
  5
76
  8
0
 10
15.31008625030518
 20
-15.66423320770264
 30
193.8977813720703
 70
   192
  0
VERTEX
  5
77
  8
0
 10
20.21795845031738
 20
-15.18409442901611
 30
195.1628112792969
 70
   192
  0
VERTEX
  5
78
  8
0
 10
18.28574562072754
 20
-18.73484992980957
 30
195.3554229736328
 70
   192
  0
VERTEX
  5
79
  8
0
 10
14.09571170806885
 20
-13.63694858551025
 30
191.6924438476562
 70
   192
  0
VERTEX
  5
7A
  8
0
 10
19.02078819274902
 20
-5.318579196929932
 30
190.9580230712891
 70
   192
  0
VERTEX
  5
7B
  8
0
 10
69.93047332763672
 20
18.09193229675293
 30
205.2066192626953
 70
   192
  0
VERTEX
  5
7C
  8
0
 10
69.84447479248047
 20
18.65339279174805
 30
201.6860656738281
 70
   192
  0
VERTEX
  5
7D
  8
0
 10
-0.1520361751317978
 20
-0.0000000000021926
 30
197.1016540527344
 70
   192
  0
VERTEX
  5
7E
  8
0
 10
69.84447479248047
 20
-18.65085411071777
 30
201.6860656738281
 70
   192
  0
VERTEX
  5
7F
  8
0
 10
69.93047332763672
 20
-18.08938789367676
 30
205.2066192626953
 70
   192
  0
VERTEX
  5
80
  8
0
 10
69.80784606933594
 20
0.0012697040801868
 30
200.1864318847656
 70
   192
  0
VERTEX
  5
81
  8
0
 10
69.94267272949219
 20
0.0012721561361104
 30
205.7062530517578
 70
   192
  0
VERTEX
  5
82
  8
0
 10
87.43122100830078
 20
-5.73264217376709
 30
203.8455963134766
 70
   192
  0
VERTEX
  5
83
  8
0
 10
86.95833587646484
 20
-5.569213390350342
 30
207.3062133789062
 70
   192
  0
VERTEX
  5
84
  8
0
 10
80.41973876953125
 20
-14.59266090393066
 30
206.5316772460938
 70
   192
  0
VERTEX
  5
85
  8
0
 10
87.00211334228516
 20
5.565164566040039
 30
207.3107299804688
 70
   192
  0
VERTEX
  5
86
  8
0
 10
87.38680267333984
 20
5.742127418518066
 30
203.8404541015625
 70
   192
  0
VERTEX
  5
87
  8
0
 10
80.66140747070312
 20
15.04508972167969
 30
202.9766998291016
 70
   192
  0
VERTEX
  5
88
  8
0
 10
80.68415069580078
 20
-15.00739765167236
 30
202.9833679199219
 70
   192
  0
VERTEX
  5
89
  8
0
 10
80.44110107421875
 20
14.5602912902832
 30
206.5341186523438
 70
   192
  0
VERTEX
  5
8A
  8
0
 10
87.0043716430664
 20
-5.559636116027832
 30
207.311279296875
 70
   192
  0
VERTEX
  5
8B
  8
0
 10
86.81009674072266
 20
5.566559791564941
 30
207.2892913818359
 70
   192
  0
VERTEX
  5
8C
  8
0
 10
69.94268035888672
 20
0.0012721561361104
 30
205.7063140869141
 70
   192
  0
VERTEX
  5
8D
  8
0
 10
80.49431610107422
 20
-14.61181640625
 30
206.539306640625
 70
   192
  0
VERTEX
  5
8E
  8
0
 10
80.46426391601562
 20
14.62700271606445
 30
206.5347595214844
 70
   192
  0
VERTEX
  5
8F
  8
0
 10
87.42423248291016
 20
5.754711151123047
 30
203.8443756103516
 70
   192
  0
VERTEX
  5
90
  8
0
 10
80.71578979492188
 20
15.09047603607178
 30
202.9903869628906
 70
   192
  0
VERTEX
  5
91
  8
0
 10
87.42328643798828
 20
-5.774169921875
 30
203.8457489013672
 70
   192
  0
VERTEX
  5
92
  8
0
 10
80.51673126220703
 20
-14.8258752822876
 30
202.9647674560547
 70
   192
  0
VERTEX
  5
93
  8
0
 10
-0.1520359516143799
 20
-0.0000000000020371
 30
197.1015930175781
 70
   192
  0
VERTEX
  5
94
  8
0
 10
25.04108428955078
 20
-0.0000095232089734
 30
194.6819458007812
 70
   192
  0
VERTEX
  5
95
  8
0
 10
18.28574562072754
 20
18.73528480529785
 30
195.3554229736328
 70
   192
  0
VERTEX
  5
96
  8
0
 10
-15.69577407836914
 20
9.020052909851074
 30
194.7128143310547
 70
   192
  0
VERTEX
  5
97
  8
0
 10
-17.87351226806641
 20
0.0063444091938436
 30
194.4277038574219
 70
   192
  0
VERTEX
  5
98
  8
0
 10
-8.971643447875977
 20
15.37380409240723
 30
195.5501403808594
 70
   192
  0
VERTEX
  5
99
  8
0
 10
-15.64223575592041
 20
-9.019877433776855
 30
194.7209777832031
 70
   192
  0
VERTEX
  5
9A
  8
0
 10
-9.108348846435547
 20
-15.6655855178833
 30
195.5363464355469
 70
   192
  0
VERTEX
  5
9B
  8
0
 10
12.12802219390869
 20
18.74858665466309
 30
194.5993499755859
 70
   192
  0
VERTEX
  5
9C
  8
0
 10
5.986854553222656
 20
18.76261901855469
 30
193.8453216552734
 70
   192
  0
VERTEX
  5
9D
  8
0
 10
21.81009101867676
 20
-0.0000008375633911
 30
193.6776580810547
 70
   192
  0
VERTEX
  5
9E
  8
0
 10
19.73743438720703
 20
-0.0000063460665842
 30
190.8184509277344
 70
   192
  0
VERTEX
  5
9F
  8
0
 10
-17.02352523803711
 20
15.01204109191895
 30
172.5652008056641
 70
   192
  0
VERTEX
  5
A0
  8
0
 10
-9.190874099731445
 20
21.35179328918457
 30
168.4004974365234
 70
   192
  0
VERTEX
  5
A1
  8
0
 10
-21.48656463623047
 20
5.404057025909424
 30
174.938232421875
 70
   192
  0
VERTEX
  5
A2
  8
0
 10
-0.0324355065822601
 20
24.56375694274902
 30
163.5308685302734
 70
   192
  0
VERTEX
  5
A3
  8
0
 10
-9.299758911132812
 20
-21.63867568969727
 30
168.4583892822266
 70
   192
  0
VERTEX
  5
A4
  8
0
 10
-16.98418807983398
 20
-15.03938388824463
 30
172.5442810058594
 70
   192
  0
VERTEX
  5
A5
  8
0
 10
-0.0326459109783173
 20
-24.56373405456543
 30
163.5309906005859
 70
   192
  0
VERTEX
  5
A6
  8
0
 10
-21.47464561462402
 20
-5.438449859619141
 30
174.9319000244141
 70
   192
  0
VERTEX
  5
A7
  8
0
 10
4.2614426612854
 20
24.64234161376953
 30
161.2477722167969
 70
   192
  0
VERTEX
  5
A8
  8
0
 62
     9
 10
0.0
 20
0.0
 30
0.0
 70
   128
 71
     3
 72
     2
 73
     1
  0
VERTEX
  5
A9
  8
0
 62
     9
 10
0.0
 20
0.0
 30
0.0
 70
   128
 71
     2
 72
     4
 73
     1
  0
VERTEX
  5
AA
  8
0
 62
     9
 10
0.0
 20
0.0
 30
0.0
 70
   128
 71
     2
 72
     5
 73
     4
  0
VERTEX
  5
AB
  8
0
 62
     9
 10
0.0
 20
0.0
 30
0.0
 70
   128
 71
     7
 72
     2
 73
     6
  0
VERTEX
  5
AC
  8
0
 62
     9
 10
0.0
 20
0.0
 30
0.0
 70
   128
 71
     2
 72
     7
 73
     5
  0
VERTEX
  5
AD
  8
0
 62
     9
 10
0.0
 20
0.0
 30
0.0
 70
   128
 71
    10
 72
     9
 73
     8
  0
VERTEX
  5
AE
  8
0
 62
     9
 10
0.0
 20
0.0
 30
0.0
 70
   128
 71
     8
 72
    12
 73
    11
  0
VERTEX
  5
AF
  8
0
 62
     9
 10
0.0
 20
0.0
 30
0.0
 70
   128
 71
    10
 72
     8
 73
    11
  0
VERTEX
  5
B0
  8
0
 62
     9
 10
0.0
 20
0.0
 30
0.0
 70
   128
 71
    13
 72
    12
 73
     8
  0
VERTEX
  5
B1
  8
0
 62
     9
 10
0.0
 20
0.0
 30
0.0
 70
   128
 71
    15
 72
    14
 73
    12
  0
VERTEX
  5
B2
  8
0
 62
     9
 10
0.0
 20
0.0
 30
0.0
 70
   128
 71
    12
 72
    13
 73
    15
  0
VERTEX
  5
B3
  8
0
 62
     9
 10
0.0
 20
0.0
 30
0.0
 70
   128
 71
    15
 72
     2
 73
    14
  0
VERTEX
  5
B4
  8
0
 62
     9
 10
0.0
 20
0.0
 30
0.0
 70
   128
 71
     2
 72
     3
 73
    14
  0
VERTEX
  5
B5
  8
0
 62
     9
 10
0.0
 20
0.0
 30
0.0
 70
   128
 71
    17
 72
    16
 73
     6
  0
VERTEX
  5
B6
  8
0
 62
     9
 10
0.0
 20
0.0
 30
0.0
 70
   128
 71
    18
 72
     1
 73
     4
  0
VERTEX
  5
B7
  8
0
 62
     9
 10
0.0
 20
0.0
 30
0.0
 70
   128
 71
    19
 72
     1
 73
    18
  0
VERTEX
  5
B8
  8
0
 62
     9
 10
0.0
 20
0.0
 30
0.0
 70
   128
 71
    19
 72
    20
 73
     3
  0
VERTEX
  5
B9
  8
0
 62
     9
 10
0.0
 20
0.0
 30
0.0
 70
   128
 71
     3
 72
     1
 73
    19
  0
VERTEX
  5
BA
  8
0
 62
     9
 10
0.0
 20
0.0
 30
0.0
 70
   128
 71
    20
 72
    14
 73
     3
  0
VERTEX
  5
BB
  8
0
 62
     9
 10
0.0
 20
0.0
 30
0.0
 70
   128
 71
    18
 72
     4
 73
    21
  0
VERTEX
  5
BC
  8
0
 62
     9
 10
0.0
 20
0.0
 30
0.0
 70
   128
 71
    21
 72
     4
 73
     5
  0
VERTEX
  5
BD
  8
0
 62
     9
 10
0.0
 20
0.0
 30
0.0
 70
   128
 71
     7
 72
    22
 73
     5
  0
VERTEX
  5
BE
  8
0
 62
     9
 10
0.0
 20
0.0
 30
0.0
 70
   128
 71
    21
 72
     5
 73
    22
  0
VERTEX
  5
BF
  8
0
 62
     9
 10
0.0
 20
0.0
 30
0.0
 70
   128
 71
    24
 72
    23
 73
     7
  0
VERTEX
  5
C0
  8
0
 62
     9
 10
0.0
 20
0.0
 30
0.0
 70
   128
 71
     7
 72
    23
 73
    22
  0
VERTEX
  5
C1
  8
0
 62
     9
 10
0.0
 20
0.0
 30
0.0
 70
   128
 71
    24
 72
     6
 73
    16
  0
VERTEX
  5
C2
  8
0
 62
     9
 10
0.0
 20
0.0
 30
0.0
 70
   128
 71
     6
 72
    24
 73
     7
  0
VERTEX
  5
C3
  8
0
 62
     9
 10
0.0
 20
0.0
 30
0.0
 70
   128
 71
    25
 72
     2
 73
    15
  0
VERTEX
  5
C4
  8
0
 62
     9
 10
0.0
 20
0.0
 30
0.0
 70
   128
 71
    25
 72
    17
 73
     2
  0
VERTEX
  5
C5
  8
0
 62
     9
 10
0.0
 20
0.0
 30
0.0
 70
   128
 71
     6
 72
     2
 73
    17
  0
VERTEX
  5
C6
  8
0
 62
     9
 10
0.0
 20
0.0
 30
0.0
 70
   128
 71
    27
 72
    26
 73
    11
  0
VERTEX
  5
C7
  8
0
 62
     9
 10
0.0
 20
0.0
 30
0.0
 70
   128
 71
    12
 72
    20
 73
    28
  0
VERTEX
  5
C8
  8
0
 62
     9
 10
0.0
 20
0.0
 30
0.0
 70
   128
 71
    26
 72
    29
 73
    10
  0
VERTEX
  5
C9
  8
0
 62
     9
 10
0.0
 20
0.0
 30
0.0
 70
   128
 71
    12
 72
    14
 73
    20
  0
VERTEX
  5
CA
  8
0
 62
     9
 10
0.0
 20
0.0
 30
0.0
 70
   128
 71
    31
 72
    13
 73
    30
  0
VERTEX
  5
CB
  8
0
 62
     9
 10
0.0
 20
0.0
 30
0.0
 70
   128
 71
    32
 72
    30
 73
     8
  0
VERTEX
  5
CC
  8
0
 62
     9
 10
0.0
 20
0.0
 30
0.0
 70
   128
 71
    31
 72
    25
 73
    13
  0
VERTEX
  5
CD
  8
0
 62
     9
 10
0.0
 20
0.0
 30
0.0
 70
   128
 71
    13
 72
     8
 73
    30
  0
VERTEX
  5
CE
  8
0
 62
     9
 10
0.0
 20
0.0
 30
0.0
 70
   128
 71
    13
 72
    25
 73
    15
  0
VERTEX
  5
CF
  8
0
 62
     9
 10
0.0
 20
0.0
 30
0.0
 70
   128
 71
     9
 72
    32
 73
     8
  0
VERTEX
  5
D0
  8
0
 62
     9
 10
0.0
 20
0.0
 30
0.0
 70
   128
 71
    12
 72
    27
 73
    11
  0
VERTEX
  5
D1
  8
0
 62
     9
 10
0.0
 20
0.0
 30
0.0
 70
   128
 71
     9
 72
    29
 73
    32
  0
VERTEX
  5
D2
  8
0
 62
     9
 10
0.0
 20
0.0
 30
0.0
 70
   128
 71
    10
 72
    11
 73
    26
  0
VERTEX
  5
D3
  8
0
 62
     9
 10
0.0
 20
0.0
 30
0.0
 70
   128
 71
    10
 72
    29
 73
     9
  0
VERTEX
  5
D4
  8
0
 62
     9
 10
0.0
 20
0.0
 30
0.0
 70
   128
 71
    28
 72
    27
 73
    12
  0
VERTEX
  5
D5
  8
0
 62
     9
 10
0.0
 20
0.0
 30
0.0
 70
   128
 71
    34
 72
    22
 73
    33
  0
VERTEX
  5
D6
  8
0
 62
     9
 10
0.0
 20
0.0
 30
0.0
 70
   128
 71
    37
 72
    36
 73
    35
  0
VERTEX
  5
D7
  8
0
 62
     9
 10
0.0
 20
0.0
 30
0.0
 70
   128
 71
    33
 72
    38
 73
    34
  0
VERTEX
  5
D8
  8
0
 62
     9
 10
0.0
 20
0.0
 30
0.0
 70
   128
 71
    39
 72
    38
 73
    33
  0
VERTEX
  5
D9
  8
0
 62
     9
 10
0.0
 20
0.0
 30
0.0
 70
   128
 71
    34
 72
    21
 73
    22
  0
VERTEX
  5
DA
  8
0
 62
     9
 10
0.0
 20
0.0
 30
0.0
 70
   128
 71
    36
 72
    40
 73
    34
  0
VERTEX
  5
DB
  8
0
 62
     9
 10
0.0
 20
0.0
 30
0.0
 70
   128
 71
    39
 72
    42
 73
    41
  0
VERTEX
  5
DC
  8
0
 62
     9
 10
0.0
 20
0.0
 30
0.0
 70
   128
 71
    37
 72
    44
 73
    43
  0
VERTEX
  5
DD
  8
0
 62
     9
 10
0.0
 20
0.0
 30
0.0
 70
   128
 71
    37
 72
    40
 73
    36
  0
VERTEX
  5
DE
  8
0
 62
     9
 10
0.0
 20
0.0
 30
0.0
 70
   128
 71
    19
 72
    43
 73
    45
  0
VERTEX
  5
DF
  8
0
 62
     9
 10
0.0
 20
0.0
 30
0.0
 70
   128
 71
    44
 72
    45
 73
    43
  0
VERTEX
  5
E0
  8
0
 62
     9
 10
0.0
 20
0.0
 30
0.0
 70
   128
 71
    19
 72
    45
 73
    20
  0
VERTEX
  5
E1
  8
0
 62
     9
 10
0.0
 20
0.0
 30
0.0
 70
   128
 71
    40
 72
    18
 73
    21
  0
VERTEX
  5
E2
  8
0
 62
     9
 10
0.0
 20
0.0
 30
0.0
 70
   128
 71
    38
 72
    36
 73
    34
  0
VERTEX
  5
E3
  8
0
 62
     9
 10
0.0
 20
0.0
 30
0.0
 70
   128
 71
    38
 72
    41
 73
    46
  0
VERTEX
  5
E4
  8
0
 62
     9
 10
0.0
 20
0.0
 30
0.0
 70
   128
 71
    41
 72
    38
 73
    39
  0
VERTEX
  5
E5
  8
0
 62
     9
 10
0.0
 20
0.0
 30
0.0
 70
   128
 71
    34
 72
    40
 73
    21
  0
VERTEX
  5
E6
  8
0
 62
     9
 10
0.0
 20
0.0
 30
0.0
 70
   128
 71
    47
 72
    44
 73
    37
  0
VERTEX
  5
E7
  8
0
 62
     9
 10
0.0
 20
0.0
 30
0.0
 70
   128
 71
    36
 72
    46
 73
    35
  0
VERTEX
  5
E8
  8
0
 62
     9
 10
0.0
 20
0.0
 30
0.0
 70
   128
 71
    46
 72
    36
 73
    38
  0
VERTEX
  5
E9
  8
0
 62
     9
 10
0.0
 20
0.0
 30
0.0
 70
   128
 71
    43
 72
    18
 73
    40
  0
VERTEX
  5
EA
  8
0
 62
     9
 10
0.0
 20
0.0
 30
0.0
 70
   128
 71
    19
 72
    18
 73
    43
  0
VERTEX
  5
EB
  8
0
 62
     9
 10
0.0
 20
0.0
 30
0.0
 70
   128
 71
    47
 72
    37
 73
    35
  0
VERTEX
  5
EC
  8
0
 62
     9
 10
0.0
 20
0.0
 30
0.0
 70
   128
 71
    37
 72
    43
 73
    40
  0
VERTEX
  5
ED
  8
0
 62
     9
 10
0.0
 20
0.0
 30
0.0
 70
   128
 71
    17
 72
    49
 73
    48
  0
VERTEX
  5
EE
  8
0
 62
     9
 10
0.0
 20
0.0
 30
0.0
 70
   128
 71
    51
 72
    50
 73
    39
  0
VERTEX
  5
EF
  8
0
 62
     9
 10
0.0
 20
0.0
 30
0.0
 70
   128
 71
    53
 72
    52
 73
    51
  0
VERTEX
  5
F0
  8
0
 62
     9
 10
0.0
 20
0.0
 30
0.0
 70
   128
 71
    39
 72
    50
 73
    42
  0
VERTEX
  5
F1
  8
0
 62
     9
 10
0.0
 20
0.0
 30
0.0
 70
   128
 71
    55
 72
    53
 73
    54
  0
VERTEX
  5
F2
  8
0
 62
     9
 10
0.0
 20
0.0
 30
0.0
 70
   128
 71
    56
 72
    52
 73
    53
  0
VERTEX
  5
F3
  8
0
 62
     9
 10
0.0
 20
0.0
 30
0.0
 70
   128
 71
    58
 72
    48
 73
    57
  0
VERTEX
  5
F4
  8
0
 62
     9
 10
0.0
 20
0.0
 30
0.0
 70
   128
 71
    58
 72
    60
 73
    59
  0
VERTEX
  5
F5
  8
0
 62
     9
 10
0.0
 20
0.0
 30
0.0
 70
   128
 71
    57
 72
    60
 73
    58
  0
VERTEX
  5
F6
  8
0
 62
     9
 10
0.0
 20
0.0
 30
0.0
 70
   128
 71
    17
 72
    48
 73
    16
  0
VERTEX
  5
F7
  8
0
 62
     9
 10
0.0
 20
0.0
 30
0.0
 70
   128
 71
    17
 72
    25
 73
    49
  0
VERTEX
  5
F8
  8
0
 62
     9
 10
0.0
 20
0.0
 30
0.0
 70
   128
 71
    24
 72
    61
 73
    54
  0
VERTEX
  5
F9
  8
0
 62
     9
 10
0.0
 20
0.0
 30
0.0
 70
   128
 71
    61
 72
    58
 73
    55
  0
VERTEX
  5
FA
  8
0
 62
     9
 10
0.0
 20
0.0
 30
0.0
 70
   128
 71
    33
 72
    62
 73
    51
  0
VERTEX
  5
FB
  8
0
 62
     9
 10
0.0
 20
0.0
 30
0.0
 70
   128
 71
    55
 72
    54
 73
    61
  0
VERTEX
  5
FC
  8
0
 62
     9
 10
0.0
 20
0.0
 30
0.0
 70
   128
 71
    48
 72
    49
 73
    57
  0
VERTEX
  5
FD
  8
0
 62
     9
 10
0.0
 20
0.0
 30
0.0
 70
   128
 71
    16
 72
    48
 73
    61
  0
VERTEX
  5
FE
  8
0
 62
     9
 10
0.0
 20
0.0
 30
0.0
 70
   128
 71
    55
 72
    58
 73
    59
  0
VERTEX
  5
FF
  8
0
 62
     9
 10
0.0
 20
0.0
 30
0.0
 70
   128
 71
    58
 72
    61
 73
    48
  0
VERTEX
  5
100
  8
0
 62
     9
 10
0.0
 20
0.0
 30
0.0
 70
   128
 71
    61
 72
    24
 73
    16
  0
VERTEX
  5
101
  8
0
 62
     9
 10
0.0
 20
0.0
 30
0.0
 70
   128
 71
    53
 72
    55
 73
    56
  0
VERTEX
  5
102
  8
0
 62
     9
 10
0.0
 20
0.0
 30
0.0
 70
   128
 71
    56
 72
    55
 73
    59
  0
VERTEX
  5
103
  8
0
 62
     9
 10
0.0
 20
0.0
 30
0.0
 70
   128
 71
    54
 72
    23
 73
    24
  0
VERTEX
  5
104
  8
0
 62
     9
 10
0.0
 20
0.0
 30
0.0
 70
   128
 71
    22
 72
    23
 73
    62
  0
VERTEX
  5
105
  8
0
 62
     9
 10
0.0
 20
0.0
 30
0.0
 70
   128
 71
    62
 72
    23
 73
    54
  0
VERTEX
  5
106
  8
0
 62
     9
 10
0.0
 20
0.0
 30
0.0
 70
   128
 71
    51
 72
    62
 73
    53
  0
VERTEX
  5
107
  8
0
 62
     9
 10
0.0
 20
0.0
 30
0.0
 70
   128
 71
    54
 72
    53
 73
    62
  0
VERTEX
  5
108
  8
0
 62
     9
 10
0.0
 20
0.0
 30
0.0
 70
   128
 71
    62
 72
    33
 73
    22
  0
VERTEX
  5
109
  8
0
 62
     9
 10
0.0
 20
0.0
 30
0.0
 70
   128
 71
    33
 72
    51
 73
    39
  0
VERTEX
  5
10A
  8
0
 62
     9
 10
0.0
 20
0.0
 30
0.0
 70
   128
 71
    51
 72
    52
 73
    50
  0
VERTEX
  5
10B
  8
0
 62
     9
 10
0.0
 20
0.0
 30
0.0
 70
   128
 71
    64
 72
    63
 73
    28
  0
VERTEX
  5
10C
  8
0
 62
     9
 10
0.0
 20
0.0
 30
0.0
 70
   128
 71
    47
 72
    28
 73
    44
  0
VERTEX
  5
10D
  8
0
 62
     9
 10
0.0
 20
0.0
 30
0.0
 70
   128
 71
    47
 72
    64
 73
    28
  0
VERTEX
  5
10E
  8
0
 62
     9
 10
0.0
 20
0.0
 30
0.0
 70
   128
 71
    45
 72
    28
 73
    20
  0
VERTEX
  5
10F
  8
0
 62
     9
 10
0.0
 20
0.0
 30
0.0
 70
   128
 71
    45
 72
    44
 73
    28
  0
VERTEX
  5
110
  8
0
 62
     9
 10
0.0
 20
0.0
 30
0.0
 70
   128
 71
    26
 72
    28
 73
    65
  0
VERTEX
  5
111
  8
0
 62
     9
 10
0.0
 20
0.0
 30
0.0
 70
   128
 71
    65
 72
    29
 73
    26
  0
VERTEX
  5
112
  8
0
 62
     9
 10
0.0
 20
0.0
 30
0.0
 70
   128
 71
    26
 72
    27
 73
    28
  0
VERTEX
  5
113
  8
0
 62
     9
 10
0.0
 20
0.0
 30
0.0
 70
   128
 71
    32
 72
    65
 73
    31
  0
VERTEX
  5
114
  8
0
 62
     9
 10
0.0
 20
0.0
 30
0.0
 70
   128
 71
    65
 72
    32
 73
    29
  0
VERTEX
  5
115
  8
0
 62
     9
 10
0.0
 20
0.0
 30
0.0
 70
   128
 71
    30
 72
    32
 73
    31
  0
VERTEX
  5
116
  8
0
 62
     9
 10
0.0
 20
0.0
 30
0.0
 70
   128
 71
    67
 72
    66
 73
    31
  0
VERTEX
  5
117
  8
0
 62
     9
 10
0.0
 20
0.0
 30
0.0
 70
   128
 71
    49
 72
    31
 73
    57
  0
VERTEX
  5
118
  8
0
 62
     9
 10
0.0
 20
0.0
 30
0.0
 70
   128
 71
    49
 72
    25
 73
    31
  0
VERTEX
  5
119
  8
0
 62
     9
 10
0.0
 20
0.0
 30
0.0
 70
   128
 71
    60
 72
    57
 73
    31
  0
VERTEX
  5
11A
  8
0
 62
     9
 10
0.0
 20
0.0
 30
0.0
 70
   128
 71
    66
 72
    60
 73
    31
  0
VERTEX
  5
11B
  8
0
 62
     9
 10
0.0
 20
0.0
 30
0.0
 70
   128
 71
    59
 72
    60
 73
    66
  0
VERTEX
  5
11C
  8
0
 62
     9
 10
0.0
 20
0.0
 30
0.0
 70
   128
 71
    41
 72
    42
 73
    68
  0
VERTEX
  5
11D
  8
0
 62
     9
 10
0.0
 20
0.0
 30
0.0
 70
   128
 71
    66
 72
    56
 73
    59
  0
VERTEX
  5
11E
  8
0
 62
     9
 10
0.0
 20
0.0
 30
0.0
 70
   128
 71
    52
 72
    66
 73
    68
  0
VERTEX
  5
11F
  8
0
 62
     9
 10
0.0
 20
0.0
 30
0.0
 70
   128
 71
    66
 72
    52
 73
    56
  0
VERTEX
  5
120
  8
0
 62
     9
 10
0.0
 20
0.0
 30
0.0
 70
   128
 71
    50
 72
    68
 73
    42
  0
VERTEX
  5
121
  8
0
 62
     9
 10
0.0
 20
0.0
 30
0.0
 70
   128
 71
    50
 72
    52
 73
    68
  0
VERTEX
  5
122
  8
0
 62
     9
 10
0.0
 20
0.0
 30
0.0
 70
   128
 71
    68
 72
    46
 73
    41
  0
VERTEX
  5
123
  8
0
 62
     9
 10
0.0
 20
0.0
 30
0.0
 70
   128
 71
    46
 72
    64
 73
    35
  0
VERTEX
  5
124
  8
0
 62
     9
 10
0.0
 20
0.0
 30
0.0
 70
   128
 71
    64
 72
    46
 73
    68
  0
VERTEX
  5
125
  8
0
 62
     9
 10
0.0
 20
0.0
 30
0.0
 70
   128
 71
    35
 72
    64
 73
    47
  0
VERTEX
  5
126
  8
0
 62
     9
 10
0.0
 20
0.0
 30
0.0
 70
   128
 71
    31
 72
    65
 73
    67
  0
VERTEX
  5
127
  8
0
 62
     9
 10
0.0
 20
0.0
 30
0.0
 70
   128
 71
    28
 72
    63
 73
    69
  0
VERTEX
  5
128
  8
0
 62
     9
 10
0.0
 20
0.0
 30
0.0
 70
   128
 71
    65
 72
    28
 73
    69
  0
VERTEX
  5
129
  8
0
 62
     9
 10
0.0
 20
0.0
 30
0.0
 70
   128
 71
    67
 72
    65
 73
    69
  0
VERTEX
  5
12A
  8
0
 62
     9
 10
0.0
 20
0.0
 30
0.0
 70
   128
 71
    72
 72
    71
 73
    70
  0
VERTEX
  5
12B
  8
0
 62
     9
 10
0.0
 20
0.0
 30
0.0
 70
   128
 71
    75
 72
    74
 73
    73
  0
VERTEX
  5
12C
  8
0
 62
     9
 10
0.0
 20
0.0
 30
0.0
 70
   128
 71
    76
 72
    66
 73
    67
  0
VERTEX
  5
12D
  8
0
 62
     9
 10
0.0
 20
0.0
 30
0.0
 70
   128
 71
    77
 72
    63
 73
    64
  0
VERTEX
  5
12E
  8
0
 62
     9
 10
0.0
 20
0.0
 30
0.0
 70
   128
 71
    64
 72
    75
 73
    77
  0
VERTEX
  5
12F
  8
0
 62
     9
 10
0.0
 20
0.0
 30
0.0
 70
   128
 71
    75
 72
    73
 73
    77
  0
VERTEX
  5
130
  8
0
 62
     9
 10
0.0
 20
0.0
 30
0.0
 70
   128
 71
    70
 72
    76
 73
    72
  0
VERTEX
  5
131
  8
0
 62
     9
 10
0.0
 20
0.0
 30
0.0
 70
   128
 71
    67
 72
    72
 73
    76
  0
VERTEX
  5
132
  8
0
 62
     9
 10
0.0
 20
0.0
 30
0.0
 70
   128
 71
    70
 72
    71
 73
    74
  0
VERTEX
  5
133
  8
0
 62
     9
 10
0.0
 20
0.0
 30
0.0
 70
   128
 71
    74
 72
    71
 73
    73
  0
VERTEX
  5
134
  8
0
 62
     9
 10
0.0
 20
0.0
 30
0.0
 70
   128
 71
    75
 72
    68
 73
    74
  0
VERTEX
  5
135
  8
0
 62
     9
 10
0.0
 20
0.0
 30
0.0
 70
   128
 71
    68
 72
    70
 73
    74
  0
VERTEX
  5
136
  8
0
 62
     9
 10
0.0
 20
0.0
 30
0.0
 70
   128
 71
    75
 72
    64
 73
    68
  0
VERTEX
  5
137
  8
0
 62
     9
 10
0.0
 20
0.0
 30
0.0
 70
   128
 71
    76
 72
    68
 73
    66
  0
VERTEX
  5
138
  8
0
 62
     9
 10
0.0
 20
0.0
 30
0.0
 70
   128
 71
    68
 72
    76
 73
    70
  0
VERTEX
  5
139
  8
0
 62
     9
 10
0.0
 20
0.0
 30
0.0
 70
   128
 71
    69
 72
    73
 73
    71
  0
VERTEX
  5
13A
  8
0
 62
     9
 10
0.0
 20
0.0
 30
0.0
 70
   128
 71
    71
 72
    72
 73
    69
  0
VERTEX
  5
13B
  8
0
 62
     9
 10
0.0
 20
0.0
 30
0.0
 70
   128
 71
    77
 72
    73
 73
    69
  0
VERTEX
  5
13C
  8
0
 62
     9
 10
0.0
 20
0.0
 30
0.0
 70
   128
 71
    72
 72
    67
 73
    69
  0
VERTEX
  5
13D
  8
0
 62
     9
 10
0.0
 20
0.0
 30
0.0
 70
   128
 71
    63
 72
    77
 73
    69
  0
VERTEX
  5
13E
  8
0
 62
     9
 10
0.0
 20
0.0
 30
0.0
 70
   128
 71
    80
 72
    79
 73
    78
  0
VERTEX
  5
13F
  8
0
 62
     9
 10
0.0
 20
0.0
 30
0.0
 70
   128
 71
    78
 72
    81
 73
    80
  0
VERTEX
  5
140
  8
0
 62
     9
 10
0.0
 20
0.0
 30
0.0
 70
   128
 71
    82
 72
    79
 73
    80
  0
VERTEX
  5
141
  8
0
 62
     9
 10
0.0
 20
0.0
 30
0.0
 70
   128
 71
    81
 72
    67
 73
    80
  0
VERTEX
  5
142
  8
0
 62
     9
 10
0.0
 20
0.0
 30
0.0
 70
   128
 71
    63
 72
    82
 73
    80
  0
VERTEX
  5
143
  8
0
 62
     9
 10
0.0
 20
0.0
 30
0.0
 70
   128
 71
    84
 72
    68
 73
    83
  0
VERTEX
  5
144
  8
0
 62
     9
 10
0.0
 20
0.0
 30
0.0
 70
   128
 71
    68
 72
    85
 73
    83
  0
VERTEX
  5
145
  8
0
 62
     9
 10
0.0
 20
0.0
 30
0.0
 70
   128
 71
    84
 72
    64
 73
    68
  0
VERTEX
  5
146
  8
0
 62
     9
 10
0.0
 20
0.0
 30
0.0
 70
   128
 71
    86
 72
    68
 73
    66
  0
VERTEX
  5
147
  8
0
 62
     9
 10
0.0
 20
0.0
 30
0.0
 70
   128
 71
    68
 72
    86
 73
    85
  0
VERTEX
  5
148
  8
0
 62
     9
 10
0.0
 20
0.0
 30
0.0
 70
   128
 71
    81
 72
    78
 73
    85
  0
VERTEX
  5
149
  8
0
 62
     9
 10
0.0
 20
0.0
 30
0.0
 70
   128
 71
    84
 72
    83
 73
    79
  0
VERTEX
  5
14A
  8
0
 62
     9
 10
0.0
 20
0.0
 30
0.0
 70
   128
 71
    86
 72
    66
 73
    67
  0
VERTEX
  5
14B
  8
0
 62
     9
 10
0.0
 20
0.0
 30
0.0
 70
   128
 71
    82
 72
    63
 73
    64
  0
VERTEX
  5
14C
  8
0
 62
     9
 10
0.0
 20
0.0
 30
0.0
 70
   128
 71
    64
 72
    84
 73
    82
  0
VERTEX
  5
14D
  8
0
 62
     9
 10
0.0
 20
0.0
 30
0.0
 70
   128
 71
    84
 72
    79
 73
    82
  0
VERTEX
  5
14E
  8
0
 62
     9
 10
0.0
 20
0.0
 30
0.0
 70
   128
 71
    85
 72
    86
 73
    81
  0
VERTEX
  5
14F
  8
0
 62
     9
 10
0.0
 20
0.0
 30
0.0
 70
   128
 71
    67
 72
    81
 73
    86
  0
VERTEX
  5
150
  8
0
 62
     9
 10
0.0
 20
0.0
 30
0.0
 70
   128
 71
    85
 72
    78
 73
    83
  0
VERTEX
  5
151
  8
0
 62
     9
 10
0.0
 20
0.0
 30
0.0
 70
   128
 71
    83
 72
    78
 73
    79
  0
VERTEX
  5
152
  8
0
 62
     9
 10
0.0
 20
0.0
 30
0.0
 70
   128
 71
    31
 72
    87
 73
    67
  0
VERTEX
  5
153
  8
0
 62
     9
 10
0.0
 20
0.0
 30
0.0
 70
   128
 71
    28
 72
    63
 73
    80
  0
VERTEX
  5
154
  8
0
 62
     9
 10
0.0
 20
0.0
 30
0.0
 70
   128
 71
    87
 72
    28
 73
    80
  0
VERTEX
  5
155
  8
0
 62
     9
 10
0.0
 20
0.0
 30
0.0
 70
   128
 71
    67
 72
    87
 73
    80
  0
VERTEX
  5
156
  8
0
 62
     9
 10
0.0
 20
0.0
 30
0.0
 70
   128
 71
    59
 72
    60
 73
    66
  0
VERTEX
  5
157
  8
0
 62
     9
 10
0.0
 20
0.0
 30
0.0
 70
   128
 71
    41
 72
    88
 73
    68
  0
VERTEX
  5
158
  8
0
 62
     9
 10
0.0
 20
0.0
 30
0.0
 70
   128
 71
    66
 72
    56
 73
    59
  0
VERTEX
  5
159
  8
0
 62
     9
 10
0.0
 20
0.0
 30
0.0
 70
   128
 71
    52
 72
    66
 73
    68
  0
VERTEX
  5
15A
  8
0
 62
     9
 10
0.0
 20
0.0
 30
0.0
 70
   128
 71
    66
 72
    52
 73
    56
  0
VERTEX
  5
15B
  8
0
 62
     9
 10
0.0
 20
0.0
 30
0.0
 70
   128
 71
    50
 72
    68
 73
    88
  0
VERTEX
  5
15C
  8
0
 62
     9
 10
0.0
 20
0.0
 30
0.0
 70
   128
 71
    50
 72
    52
 73
    68
  0
VERTEX
  5
15D
  8
0
 62
     9
 10
0.0
 20
0.0
 30
0.0
 70
   128
 71
    68
 72
    46
 73
    41
  0
VERTEX
  5
15E
  8
0
 62
     9
 10
0.0
 20
0.0
 30
0.0
 70
   128
 71
    46
 72
    64
 73
    35
  0
VERTEX
  5
15F
  8
0
 62
     9
 10
0.0
 20
0.0
 30
0.0
 70
   128
 71
    64
 72
    46
 73
    68
  0
VERTEX
  5
160
  8
0
 62
     9
 10
0.0
 20
0.0
 30
0.0
 70
   128
 71
    35
 72
    64
 73
    89
  0
VERTEX
  5
161
  8
0
 62
     9
 10
0.0
 20
0.0
 30
0.0
 70
   128
 71
    67
 72
    66
 73
    31
  0
VERTEX
  5
162
  8
0
 62
     9
 10
0.0
 20
0.0
 30
0.0
 70
   128
 71
    49
 72
    31
 73
    57
  0
VERTEX
  5
163
  8
0
 62
     9
 10
0.0
 20
0.0
 30
0.0
 70
   128
 71
    49
 72
    25
 73
    31
  0
VERTEX
  5
164
  8
0
 62
     9
 10
0.0
 20
0.0
 30
0.0
 70
   128
 71
    60
 72
    57
 73
    31
  0
VERTEX
  5
165
  8
0
 62
     9
 10
0.0
 20
0.0
 30
0.0
 70
   128
 71
    66
 72
    60
 73
    31
  0
VERTEX
  5
166
  8
0
 62
     9
 10
0.0
 20
0.0
 30
0.0
 70
   128
 71
    90
 72
    28
 73
    87
  0
VERTEX
  5
167
  8
0
 62
     9
 10
0.0
 20
0.0
 30
0.0
 70
   128
 71
    87
 72
    91
 73
    90
  0
VERTEX
  5
168
  8
0
 62
     9
 10
0.0
 20
0.0
 30
0.0
 70
   128
 71
    90
 72
    92
 73
    28
  0
VERTEX
  5
169
  8
0
 62
     9
 10
0.0
 20
0.0
 30
0.0
 70
   128
 71
    93
 72
    87
 73
    31
  0
VERTEX
  5
16A
  8
0
 62
     9
 10
0.0
 20
0.0
 30
0.0
 70
   128
 71
    87
 72
    93
 73
    91
  0
VERTEX
  5
16B
  8
0
 62
     9
 10
0.0
 20
0.0
 30
0.0
 70
   128
 71
    94
 72
    93
 73
    31
  0
VERTEX
  5
16C
  8
0
 62
     9
 10
0.0
 20
0.0
 30
0.0
 70
   128
 71
    64
 72
    63
 73
    28
  0
VERTEX
  5
16D
  8
0
 62
     9
 10
0.0
 20
0.0
 30
0.0
 70
   128
 71
    89
 72
    28
 73
    95
  0
VERTEX
  5
16E
  8
0
 62
     9
 10
0.0
 20
0.0
 30
0.0
 70
   128
 71
    89
 72
    64
 73
    28
  0
VERTEX
  5
16F
  8
0
 62
     9
 10
0.0
 20
0.0
 30
0.0
 70
   128
 71
    96
 72
    28
 73
    20
  0
VERTEX
  5
170
  8
0
 62
     9
 10
0.0
 20
0.0
 30
0.0
 70
   128
 71
    96
 72
    95
 73
    28
  0
VERTEX
  5
171
  8
0
 62
     9
 10
0.0
 20
0.0
 30
0.0
 70
   128
 71
    17
 72
    49
 73
    48
  0
VERTEX
  5
172
  8
0
 62
     9
 10
0.0
 20
0.0
 30
0.0
 70
   128
 71
    51
 72
    50
 73
    97
  0
VERTEX
  5
173
  8
0
 62
     9
 10
0.0
 20
0.0
 30
0.0
 70
   128
 71
    53
 72
    52
 73
    51
  0
VERTEX
  5
174
  8
0
 62
     9
 10
0.0
 20
0.0
 30
0.0
 70
   128
 71
    97
 72
    50
 73
    88
  0
VERTEX
  5
175
  8
0
 62
     9
 10
0.0
 20
0.0
 30
0.0
 70
   128
 71
    55
 72
    53
 73
    54
  0
VERTEX
  5
176
  8
0
 62
     9
 10
0.0
 20
0.0
 30
0.0
 70
   128
 71
    56
 72
    52
 73
    53
  0
VERTEX
  5
177
  8
0
 62
     9
 10
0.0
 20
0.0
 30
0.0
 70
   128
 71
    58
 72
    48
 73
    57
  0
VERTEX
  5
178
  8
0
 62
     9
 10
0.0
 20
0.0
 30
0.0
 70
   128
 71
    58
 72
    60
 73
    59
  0
VERTEX
  5
179
  8
0
 62
     9
 10
0.0
 20
0.0
 30
0.0
 70
   128
 71
    57
 72
    60
 73
    58
  0
VERTEX
  5
17A
  8
0
 62
     9
 10
0.0
 20
0.0
 30
0.0
 70
   128
 71
    17
 72
    48
 73
    16
  0
VERTEX
  5
17B
  8
0
 62
     9
 10
0.0
 20
0.0
 30
0.0
 70
   128
 71
    17
 72
    25
 73
    49
  0
VERTEX
  5
17C
  8
0
 62
     9
 10
0.0
 20
0.0
 30
0.0
 70
   128
 71
    24
 72
    61
 73
    54
  0
VERTEX
  5
17D
  8
0
 62
     9
 10
0.0
 20
0.0
 30
0.0
 70
   128
 71
    61
 72
    58
 73
    55
  0
VERTEX
  5
17E
  8
0
 62
     9
 10
0.0
 20
0.0
 30
0.0
 70
   128
 71
    98
 72
    62
 73
    51
  0
VERTEX
  5
17F
  8
0
 62
     9
 10
0.0
 20
0.0
 30
0.0
 70
   128
 71
    55
 72
    54
 73
    61
  0
VERTEX
  5
180
  8
0
 62
     9
 10
0.0
 20
0.0
 30
0.0
 70
   128
 71
    48
 72
    49
 73
    57
  0
VERTEX
  5
181
  8
0
 62
     9
 10
0.0
 20
0.0
 30
0.0
 70
   128
 71
    16
 72
    48
 73
    61
  0
VERTEX
  5
182
  8
0
 62
     9
 10
0.0
 20
0.0
 30
0.0
 70
   128
 71
    55
 72
    58
 73
    59
  0
VERTEX
  5
183
  8
0
 62
     9
 10
0.0
 20
0.0
 30
0.0
 70
   128
 71
    58
 72
    61
 73
    48
  0
VERTEX
  5
184
  8
0
 62
     9
 10
0.0
 20
0.0
 30
0.0
 70
   128
 71
    61
 72
    24
 73
    16
  0
VERTEX
  5
185
  8
0
 62
     9
 10
0.0
 20
0.0
 30
0.0
 70
   128
 71
    53
 72
    55
 73
    56
  0
VERTEX
  5
186
  8
0
 62
     9
 10
0.0
 20
0.0
 30
0.0
 70
   128
 71
    56
 72
    55
 73
    59
  0
VERTEX
  5
187
  8
0
 62
     9
 10
0.0
 20
0.0
 30
0.0
 70
   128
 71
    54
 72
    23
 73
    24
  0
VERTEX
  5
188
  8
0
 62
     9
 10
0.0
 20
0.0
 30
0.0
 70
   128
 71
    22
 72
    23
 73
    62
  0
VERTEX
  5
189
  8
0
 62
     9
 10
0.0
 20
0.0
 30
0.0
 70
   128
 71
    62
 72
    23
 73
    54
  0
VERTEX
  5
18A
  8
0
 62
     9
 10
0.0
 20
0.0
 30
0.0
 70
   128
 71
    51
 72
    62
 73
    53
  0
VERTEX
  5
18B
  8
0
 62
     9
 10
0.0
 20
0.0
 30
0.0
 70
   128
 71
    54
 72
    53
 73
    62
  0
VERTEX
  5
18C
  8
0
 62
     9
 10
0.0
 20
0.0
 30
0.0
 70
   128
 71
    62
 72
    98
 73
    22
  0
VERTEX
  5
18D
  8
0
 62
     9
 10
0.0
 20
0.0
 30
0.0
 70
   128
 71
    98
 72
    51
 73
    97
  0
VERTEX
  5
18E
  8
0
 62
     9
 10
0.0
 20
0.0
 30
0.0
 70
   128
 71
    51
 72
    52
 73
    50
  0
VERTEX
  5
18F
  8
0
 62
     9
 10
0.0
 20
0.0
 30
0.0
 70
   128
 71
    34
 72
    22
 73
    98
  0
VERTEX
  5
190
  8
0
 62
     9
 10
0.0
 20
0.0
 30
0.0
 70
   128
 71
    37
 72
    36
 73
    35
  0
VERTEX
  5
191
  8
0
 62
     9
 10
0.0
 20
0.0
 30
0.0
 70
   128
 71
    98
 72
    38
 73
    34
  0
VERTEX
  5
192
  8
0
 62
     9
 10
0.0
 20
0.0
 30
0.0
 70
   128
 71
    97
 72
    38
 73
    98
  0
VERTEX
  5
193
  8
0
 62
     9
 10
0.0
 20
0.0
 30
0.0
 70
   128
 71
    34
 72
    21
 73
    22
  0
VERTEX
  5
194
  8
0
 62
     9
 10
0.0
 20
0.0
 30
0.0
 70
   128
 71
    36
 72
    40
 73
    34
  0
VERTEX
  5
195
  8
0
 62
     9
 10
0.0
 20
0.0
 30
0.0
 70
   128
 71
    97
 72
    88
 73
    41
  0
VERTEX
  5
196
  8
0
 62
     9
 10
0.0
 20
0.0
 30
0.0
 70
   128
 71
    37
 72
    95
 73
    43
  0
VERTEX
  5
197
  8
0
 62
     9
 10
0.0
 20
0.0
 30
0.0
 70
   128
 71
    37
 72
    40
 73
    36
  0
VERTEX
  5
198
  8
0
 62
     9
 10
0.0
 20
0.0
 30
0.0
 70
   128
 71
    19
 72
    43
 73
    96
  0
VERTEX
  5
199
  8
0
 62
     9
 10
0.0
 20
0.0
 30
0.0
 70
   128
 71
    95
 72
    96
 73
    43
  0
VERTEX
  5
19A
  8
0
 62
     9
 10
0.0
 20
0.0
 30
0.0
 70
   128
 71
    19
 72
    96
 73
    20
  0
VERTEX
  5
19B
  8
0
 62
     9
 10
0.0
 20
0.0
 30
0.0
 70
   128
 71
    40
 72
    18
 73
    21
  0
VERTEX
  5
19C
  8
0
 62
     9
 10
0.0
 20
0.0
 30
0.0
 70
   128
 71
    38
 72
    36
 73
    34
  0
VERTEX
  5
19D
  8
0
 62
     9
 10
0.0
 20
0.0
 30
0.0
 70
   128
 71
    38
 72
    41
 73
    46
  0
VERTEX
  5
19E
  8
0
 62
     9
 10
0.0
 20
0.0
 30
0.0
 70
   128
 71
    41
 72
    38
 73
    97
  0
VERTEX
  5
19F
  8
0
 62
     9
 10
0.0
 20
0.0
 30
0.0
 70
   128
 71
    34
 72
    40
 73
    21
  0
VERTEX
  5
1A0
  8
0
 62
     9
 10
0.0
 20
0.0
 30
0.0
 70
   128
 71
    89
 72
    95
 73
    37
  0
VERTEX
  5
1A1
  8
0
 62
     9
 10
0.0
 20
0.0
 30
0.0
 70
   128
 71
    36
 72
    46
 73
    35
  0
VERTEX
  5
1A2
  8
0
 62
     9
 10
0.0
 20
0.0
 30
0.0
 70
   128
 71
    46
 72
    36
 73
    38
  0
VERTEX
  5
1A3
  8
0
 62
     9
 10
0.0
 20
0.0
 30
0.0
 70
   128
 71
    43
 72
    18
 73
    40
  0
VERTEX
  5
1A4
  8
0
 62
     9
 10
0.0
 20
0.0
 30
0.0
 70
   128
 71
    19
 72
    18
 73
    43
  0
VERTEX
  5
1A5
  8
0
 62
     9
 10
0.0
 20
0.0
 30
0.0
 70
   128
 71
    89
 72
    37
 73
    35
  0
VERTEX
  5
1A6
  8
0
 62
     9
 10
0.0
 20
0.0
 30
0.0
 70
   128
 71
    37
 72
    43
 73
    40
  0
VERTEX
  5
1A7
  8
0
 62
     9
 10
0.0
 20
0.0
 30
0.0
 70
   128
 71
    92
 72
    90
 73
    99
  0
VERTEX
  5
1A8
  8
0
 62
     9
 10
0.0
 20
0.0
 30
0.0
 70
   128
 71
   100
 72
    20
 73
    28
  0
VERTEX
  5
1A9
  8
0
 62
     9
 10
0.0
 20
0.0
 30
0.0
 70
   128
 71
    90
 72
    91
 73
   101
  0
VERTEX
  5
1AA
  8
0
 62
     9
 10
0.0
 20
0.0
 30
0.0
 70
   128
 71
   100
 72
   102
 73
    20
  0
VERTEX
  5
1AB
  8
0
 62
     9
 10
0.0
 20
0.0
 30
0.0
 70
   128
 71
    31
 72
   103
 73
    94
  0
VERTEX
  5
1AC
  8
0
 62
     9
 10
0.0
 20
0.0
 30
0.0
 70
   128
 71
    93
 72
    94
 73
   104
  0
VERTEX
  5
1AD
  8
0
 62
     9
 10
0.0
 20
0.0
 30
0.0
 70
   128
 71
    31
 72
    25
 73
   103
  0
VERTEX
  5
1AE
  8
0
 62
     9
 10
0.0
 20
0.0
 30
0.0
 70
   128
 71
   103
 72
   104
 73
    94
  0
VERTEX
  5
1AF
  8
0
 62
     9
 10
0.0
 20
0.0
 30
0.0
 70
   128
 71
   103
 72
    25
 73
   105
  0
VERTEX
  5
1B0
  8
0
 62
     9
 10
0.0
 20
0.0
 30
0.0
 70
   128
 71
   106
 72
    93
 73
   104
  0
VERTEX
  5
1B1
  8
0
 62
     9
 10
0.0
 20
0.0
 30
0.0
 70
   128
 71
   100
 72
    92
 73
    99
  0
VERTEX
  5
1B2
  8
0
 62
     9
 10
0.0
 20
0.0
 30
0.0
 70
   128
 71
   106
 72
    91
 73
    93
  0
VERTEX
  5
1B3
  8
0
 62
     9
 10
0.0
 20
0.0
 30
0.0
 70
   128
 71
   101
 72
    99
 73
    90
  0
VERTEX
  5
1B4
  8
0
 62
     9
 10
0.0
 20
0.0
 30
0.0
 70
   128
 71
   101
 72
    91
 73
   106
  0
VERTEX
  5
1B5
  8
0
 62
     9
 10
0.0
 20
0.0
 30
0.0
 70
   128
 71
    28
 72
    92
 73
   100
  0
VERTEX
  5
1B6
  8
0
 62
     9
 10
0.0
 20
0.0
 30
0.0
 70
   128
 71
    17
 72
    16
 73
     6
  0
VERTEX
  5
1B7
  8
0
 62
     9
 10
0.0
 20
0.0
 30
0.0
 70
   128
 71
    18
 72
     1
 73
     4
  0
VERTEX
  5
1B8
  8
0
 62
     9
 10
0.0
 20
0.0
 30
0.0
 70
   128
 71
    19
 72
     1
 73
    18
  0
VERTEX
  5
1B9
  8
0
 62
     9
 10
0.0
 20
0.0
 30
0.0
 70
   128
 71
    19
 72
    20
 73
   107
  0
VERTEX
  5
1BA
  8
0
 62
     9
 10
0.0
 20
0.0
 30
0.0
 70
   128
 71
   107
 72
     1
 73
    19
  0
VERTEX
  5
1BB
  8
0
 62
     9
 10
0.0
 20
0.0
 30
0.0
 70
   128
 71
    20
 72
   102
 73
   107
  0
VERTEX
  5
1BC
  8
0
 62
     9
 10
0.0
 20
0.0
 30
0.0
 70
   128
 71
    18
 72
     4
 73
    21
  0
VERTEX
  5
1BD
  8
0
 62
     9
 10
0.0
 20
0.0
 30
0.0
 70
   128
 71
    21
 72
     4
 73
     5
  0
VERTEX
  5
1BE
  8
0
 62
     9
 10
0.0
 20
0.0
 30
0.0
 70
   128
 71
     7
 72
    22
 73
     5
  0
VERTEX
  5
1BF
  8
0
 62
     9
 10
0.0
 20
0.0
 30
0.0
 70
   128
 71
    21
 72
     5
 73
    22
  0
VERTEX
  5
1C0
  8
0
 62
     9
 10
0.0
 20
0.0
 30
0.0
 70
   128
 71
    24
 72
    23
 73
     7
  0
VERTEX
  5
1C1
  8
0
 62
     9
 10
0.0
 20
0.0
 30
0.0
 70
   128
 71
     7
 72
    23
 73
    22
  0
VERTEX
  5
1C2
  8
0
 62
     9
 10
0.0
 20
0.0
 30
0.0
 70
   128
 71
    24
 72
     6
 73
    16
  0
VERTEX
  5
1C3
  8
0
 62
     9
 10
0.0
 20
0.0
 30
0.0
 70
   128
 71
     6
 72
    24
 73
     7
  0
VERTEX
  5
1C4
  8
0
 62
     9
 10
0.0
 20
0.0
 30
0.0
 70
   128
 71
    25
 72
     2
 73
   105
  0
VERTEX
  5
1C5
  8
0
 62
     9
 10
0.0
 20
0.0
 30
0.0
 70
   128
 71
    25
 72
    17
 73
     2
  0
VERTEX
  5
1C6
  8
0
 62
     9
 10
0.0
 20
0.0
 30
0.0
 70
   128
 71
     6
 72
     2
 73
    17
  0
VERTEX
  5
1C7
  8
0
 62
     9
 10
0.0
 20
0.0
 30
0.0
 70
   128
 71
   101
 72
   106
 73
   104
  0
VERTEX
  5
1C8
  8
0
 62
     9
 10
0.0
 20
0.0
 30
0.0
 70
   128
 71
   104
 72
   100
 73
    99
  0
VERTEX
  5
1C9
  8
0
 62
     9
 10
0.0
 20
0.0
 30
0.0
 70
   128
 71
   101
 72
   104
 73
    99
  0
VERTEX
  5
1CA
  8
0
 62
     9
 10
0.0
 20
0.0
 30
0.0
 70
   128
 71
   103
 72
   100
 73
   104
  0
VERTEX
  5
1CB
  8
0
 62
     9
 10
0.0
 20
0.0
 30
0.0
 70
   128
 71
   105
 72
   102
 73
   100
  0
VERTEX
  5
1CC
  8
0
 62
     9
 10
0.0
 20
0.0
 30
0.0
 70
   128
 71
   100
 72
   103
 73
   105
  0
VERTEX
  5
1CD
  8
0
 62
     9
 10
0.0
 20
0.0
 30
0.0
 70
   128
 71
   105
 72
     2
 73
   102
  0
VERTEX
  5
1CE
  8
0
 62
     9
 10
0.0
 20
0.0
 30
0.0
 70
   128
 71
     2
 72
   107
 73
   102
  0
VERTEX
  5
1CF
  8
0
 62
     9
 10
0.0
 20
0.0
 30
0.0
 70
   128
 71
   107
 72
     2
 73
     1
  0
VERTEX
  5
1D0
  8
0
 62
     9
 10
0.0
 20
0.0
 30
0.0
 70
   128
 71
     2
 72
     4
 73
     1
  0
VERTEX
  5
1D1
  8
0
 62
     9
 10
0.0
 20
0.0
 30
0.0
 70
   128
 71
     2
 72
     5
 73
     4
  0
VERTEX
  5
1D2
  8
0
 62
     9
 10
0.0
 20
0.0
 30
0.0
 70
   128
 71
     7
 72
     2
 73
     6
  0
VERTEX
  5
1D3
  8
0
 62
     9
 10
0.0
 20
0.0
 30
0.0
 70
   128
 71
     2
 72
     7
 73
     5
  0
SEQEND
  5
1D4
  8
0
 62
     9
  0
ENDBLK
  5
1D8
  8
0
  0
BLOCK
  8
0
  2
39
 70
     0
 10
0.0
 20
0.0
 30
0.0
  3
39
  1

  0
POLYLINE
  5
1DA
  8
0
 62
     9
 66
     1
 10
0.0
 20
0.0
 30
0.0
 70
    64
 71
   240
 72
   454
  0
VERTEX
  5
1DB
  8
0
 10
229.7537689208984
 20
5.97133207321167
 30
154.3465728759766
 70
   192
  0
VERTEX
  5
1DC
  8
0
 10
227.8735656738281
 20
8.441397666931152
 30
154.1157073974609
 70
   192
  0
VERTEX
  5
1DD
  8
0
 10
229.8336181640625
 20
7.270572185516357
 30
146.569091796875
 70
   192
  0
VERTEX
  5
1DE
  8
0
 10
228.8155212402344
 20
8.441397666931152
 30
146.444091796875
 70
   192
  0
VERTEX
  5
1DF
  8
0
 10
229.3425445556641
 20
7.874003887176514
 30
146.5088043212891
 70
   192
  0
VERTEX
  5
1E0
  8
0
 10
227.6459503173828
 20
9.4747314453125
 30
146.3004913330078
 70
   192
  0
VERTEX
  5
1E1
  8
0
 10
228.2448883056641
 20
8.979413986206055
 30
146.3740234375
 70
   192
  0
VERTEX
  5
1E2
  8
0
 10
227.0187225341797
 20
9.927350044250488
 30
146.2234649658203
 70
   192
  0
VERTEX
  5
1E3
  8
0
 10
225.4121398925781
 20
10.3419303894043
 30
153.8134918212891
 70
   192
  0
VERTEX
  5
1E4
  8
0
 10
225.6702575683594
 20
10.70915031433105
 30
146.0579071044922
 70
   192
  0
VERTEX
  5
1E5
  8
0
 10
226.3540954589844
 20
10.3419303894043
 30
146.1418609619141
 70
   192
  0
VERTEX
  5
1E6
  8
0
 10
224.9672241210938
 20
11.02901172637939
 30
145.9715728759766
 70
   192
  0
VERTEX
  5
1E7
  8
0
 10
222.5519714355469
 20
11.52872467041016
 30
153.4623107910156
 70
   192
  0
VERTEX
  5
1E8
  8
0
 10
224.2353668212891
 20
11.30358219146729
 30
145.8817138671875
 70
   192
  0
VERTEX
  5
1E9
  8
0
 10
223.4939270019531
 20
11.52872467041016
 30
145.7906799316406
 70
   192
  0
VERTEX
  5
1EA
  8
0
 10
222.7429046630859
 20
11.70443725585938
 30
145.6984710693359
 70
   192
  0
VERTEX
  5
1EB
  8
0
 10
221.9731140136719
 20
11.83273410797119
 30
145.6039428710938
 70
   192
  0
VERTEX
  5
1EC
  8
0
 10
219.4904327392578
 20
11.93500423431396
 30
153.0863952636719
 70
   192
  0
VERTEX
  5
1ED
  8
0
 10
221.2029418945312
 20
11.90958976745605
 30
145.5093841552734
 70
   192
  0
VERTEX
  5
1EE
  8
0
 10
219.6508331298828
 20
11.90781021118164
 30
145.3188018798828
 70
   192
  0
VERTEX
  5
1EF
  8
0
 10
220.4323883056641
 20
11.93500423431396
 30
145.4147644042969
 70
   192
  0
VERTEX
  5
1F0
  8
0
 10
216.4162750244141
 20
11.52107620239258
 30
152.7089385986328
 70
   192
  0
VERTEX
  5
1F1
  8
0
 10
218.8795166015625
 20
11.83034420013428
 30
145.2241058349609
 70
   192
  0
VERTEX
  5
1F2
  8
0
 10
217.3582305908203
 20
11.52107620239258
 30
145.0373077392578
 70
   192
  0
VERTEX
  5
1F3
  8
0
 10
218.1184387207031
 20
11.70260620117188
 30
145.1306610107422
 70
   192
  0
VERTEX
  5
1F4
  8
0
 10
215.8966674804688
 20
11.01776218414307
 30
144.8578491210938
 70
   192
  0
VERTEX
  5
1F5
  8
0
 10
216.6176300048828
 20
11.29279518127441
 30
144.9463806152344
 70
   192
  0
VERTEX
  5
1F6
  8
0
 10
213.5632476806641
 20
10.32266330718994
 30
152.3586273193359
 70
   192
  0
VERTEX
  5
1F7
  8
0
 10
215.1869201660156
 20
10.69119739532471
 30
144.7707061767578
 70
   192
  0
VERTEX
  5
1F8
  8
0
 10
214.5052032470703
 20
10.32266330718994
 30
144.6869964599609
 70
   192
  0
VERTEX
  5
1F9
  8
0
 10
213.8515014648438
 20
9.912158966064453
 30
144.6067352294922
 70
   192
  0
VERTEX
  5
1FA
  8
0
 10
211.1166229248047
 20
8.42883014678955
 30
152.0582275390625
 70
   192
  0
VERTEX
  5
1FB
  8
0
 10
213.2182006835938
 20
9.453636169433594
 30
144.5289764404297
 70
   192
  0
VERTEX
  5
1FC
  8
0
 10
212.0585784912109
 20
8.42883014678955
 30
144.3865966796875
 70
   192
  0
VERTEX
  5
1FD
  8
0
 10
212.6205596923828
 20
8.959192276000977
 30
144.4555969238281
 70
   192
  0
VERTEX
  5
1FE
  8
0
 10
211.0352020263672
 20
7.252737998962402
 30
144.2609405517578
 70
   192
  0
VERTEX
  5
1FF
  8
0
 10
211.5258636474609
 20
7.854939937591553
 30
144.3211822509766
 70
   192
  0
VERTEX
  5
200
  8
0
 10
210.5866088867188
 20
6.622224807739258
 30
144.2058563232422
 70
   192
  0
VERTEX
  5
201
  8
0
 10
209.2336120605469
 20
5.954535007476807
 30
151.8270111083984
 70
   192
  0
VERTEX
  5
202
  8
0
 10
209.8110809326172
 20
5.267398834228516
 30
144.1106414794922
 70
   192
  0
VERTEX
  5
203
  8
0
 10
210.1755676269531
 20
5.954535007476807
 30
144.1553955078125
 70
   192
  0
VERTEX
  5
204
  8
0
 10
209.4931335449219
 20
4.560815811157227
 30
144.0715942382812
 70
   192
  0
VERTEX
  5
205
  8
0
 10
208.0523529052734
 20
3.079636096954346
 30
151.6819763183594
 70
   192
  0
VERTEX
  5
206
  8
0
 10
209.2191467285156
 20
3.825112342834473
 30
144.0379638671875
 70
   192
  0
VERTEX
  5
207
  8
0
 10
208.9943084716797
 20
3.079636096954346
 30
144.0103454589844
 70
   192
  0
VERTEX
  5
208
  8
0
 10
208.818603515625
 20
2.324387073516846
 30
143.9887847900391
 70
   192
  0
VERTEX
  5
209
  8
0
 10
208.6920471191406
 20
1.559365510940552
 30
143.9732360839844
 70
   192
  0
VERTEX
  5
20A
  8
0
 10
207.6443939208984
 20
0.0000043877016651
 30
151.6318817138672
 70
   192
  0
VERTEX
  5
20B
  8
0
 10
208.6146392822266
 20
0.7845712900161743
 30
143.9637298583984
 70
   192
  0
VERTEX
  5
20C
  8
0
 10
208.5863494873047
 20
0.0000043877016651
 30
143.9602661132812
 70
   192
  0
VERTEX
  5
20D
  8
0
 10
230.2887573242188
 20
6.631102085113525
 30
146.6249847412109
 70
   192
  0
VERTEX
  5
20E
  8
0
 10
230.6957244873047
 20
5.97133207321167
 30
146.6749572753906
 70
   192
  0
VERTEX
  5
20F
  8
0
 10
231.0606536865234
 20
5.283392906188965
 30
146.7197570800781
 70
   192
  0
VERTEX
  5
210
  8
0
 10
230.9377136230469
 20
3.093996524810791
 30
154.491943359375
 70
   192
  0
VERTEX
  5
211
  8
0
 10
231.3835296630859
 20
4.567285060882568
 30
146.7593994140625
 70
   192
  0
VERTEX
  5
212
  8
0
 10
231.6549682617188
 20
3.840381860733032
 30
146.792724609375
 70
   192
  0
VERTEX
  5
213
  8
0
 10
231.8796691894531
 20
3.093996524810791
 30
146.8203125
 70
   192
  0
VERTEX
  5
214
  8
0
 10
232.0576324462891
 20
2.328129053115845
 30
146.8421630859375
 70
   192
  0
VERTEX
  5
215
  8
0
 10
232.1815948486328
 20
1.561972856521606
 30
146.8573913574219
 70
   192
  0
VERTEX
  5
216
  8
0
 10
232.2552032470703
 20
0.7859313488006592
 30
146.8664245605469
 70
   192
  0
VERTEX
  5
217
  8
0
 10
231.3364715576172
 20
0.0000043877016651
 30
154.5409088134766
 70
   192
  0
VERTEX
  5
218
  8
0
 10
232.2784271240234
 20
0.0000043877016651
 30
146.8692779541016
 70
   192
  0
VERTEX
  5
219
  8
0
 10
219.7024536132812
 20
11.83502101898193
 30
145.1942596435547
 70
   192
  0
VERTEX
  5
21A
  8
0
 10
220.4482269287109
 20
11.86000442504883
 30
145.2858428955078
 70
   192
  0
VERTEX
  5
21B
  8
0
 10
221.1833190917969
 20
11.83674049377441
 30
145.3760986328125
 70
   192
  0
VERTEX
  5
21C
  8
0
 10
218.9660491943359
 20
11.76399898529053
 30
145.1038513183594
 70
   192
  0
VERTEX
  5
21D
  8
0
 10
218.2390289306641
 20
11.64693641662598
 30
145.0145874023438
 70
   192
  0
VERTEX
  5
21E
  8
0
 10
217.512939453125
 20
11.48066139221191
 30
144.9254302978516
 70
   192
  0
VERTEX
  5
21F
  8
0
 10
216.8030700683594
 20
11.27091598510742
 30
144.8382720947266
 70
   192
  0
VERTEX
  5
220
  8
0
 10
216.1111755371094
 20
11.01835632324219
 30
144.7533111572266
 70
   192
  0
VERTEX
  5
221
  8
0
 10
215.4303894042969
 20
10.71908092498779
 30
144.6697235107422
 70
   192
  0
VERTEX
  5
222
  8
0
 10
214.7720184326172
 20
10.3795223236084
 30
144.5888824462891
 70
   192
  0
VERTEX
  5
223
  8
0
 10
214.1393280029297
 20
10.00152778625488
 30
144.5111999511719
 70
   192
  0
VERTEX
  5
224
  8
0
 10
212.3906707763672
 20
8.633292198181152
 30
144.2964935302734
 70
   192
  0
VERTEX
  5
225
  8
0
 10
213.5268402099609
 20
9.580768585205078
 30
144.4359893798828
 70
   192
  0
VERTEX
  5
226
  8
0
 10
212.9424285888672
 20
9.123477935791016
 30
144.3642425537109
 70
   192
  0
VERTEX
  5
227
  8
0
 10
211.8677215576172
 20
8.105637550354004
 30
144.2322845458984
 70
   192
  0
VERTEX
  5
228
  8
0
 10
211.3779907226562
 20
7.545741558074951
 30
144.1721496582031
 70
   192
  0
VERTEX
  5
229
  8
0
 10
210.5119323730469
 20
6.343978881835938
 30
144.0658111572266
 70
   192
  0
VERTEX
  5
22A
  8
0
 10
210.9267578125
 20
6.959917068481445
 30
144.1167449951172
 70
   192
  0
VERTEX
  5
22B
  8
0
 10
210.1349182128906
 20
5.700717449188232
 30
144.0195159912109
 70
   192
  0
VERTEX
  5
22C
  8
0
 10
209.8005218505859
 20
5.039646148681641
 30
143.9784698486328
 70
   192
  0
VERTEX
  5
22D
  8
0
 10
209.5079193115234
 20
4.357582092285156
 30
143.9425354003906
 70
   192
  0
VERTEX
  5
22E
  8
0
 10
209.2568511962891
 20
3.653693675994873
 30
143.9117126464844
 70
   192
  0
VERTEX
  5
22F
  8
0
 10
209.0507965087891
 20
2.940855503082275
 30
143.8864135742188
 70
   192
  0
VERTEX
  5
230
  8
0
 10
208.8897552490234
 20
2.219067573547363
 30
143.8666381835938
 70
   192
  0
VERTEX
  5
231
  8
0
 10
208.7737121582031
 20
1.488329768180847
 30
143.8523864746094
 70
   192
  0
VERTEX
  5
232
  8
0
 10
208.7026672363281
 20
0.7486420273780823
 30
143.8436584472656
 70
   192
  0
VERTEX
  5
233
  8
0
 10
208.6766204833984
 20
0.0000043877016651
 30
143.8404693603516
 70
   192
  0
VERTEX
  5
234
  8
0
 10
221.9180603027344
 20
11.76636695861816
 30
145.46630859375
 70
   192
  0
VERTEX
  5
235
  8
0
 10
222.6524505615234
 20
11.64888477325439
 30
145.5564727783203
 70
   192
  0
VERTEX
  5
236
  8
0
 10
223.3717498779297
 20
11.48751544952393
 30
145.6448059082031
 70
   192
  0
VERTEX
  5
237
  8
0
 10
224.0807037353516
 20
11.28122520446777
 30
145.7318420410156
 70
   192
  0
VERTEX
  5
238
  8
0
 10
224.7808837890625
 20
11.02966785430908
 30
145.8178253173828
 70
   192
  0
VERTEX
  5
239
  8
0
 10
225.4594879150391
 20
10.73559665679932
 30
145.9011383056641
 70
   192
  0
VERTEX
  5
23A
  8
0
 10
226.1173400878906
 20
10.39883327484131
 30
145.9819183349609
 70
   192
  0
VERTEX
  5
23B
  8
0
 10
226.7575988769531
 20
10.01869869232178
 30
146.0605316162109
 70
   192
  0
VERTEX
  5
23C
  8
0
 10
227.3705139160156
 20
9.60019302368164
 30
146.1357879638672
 70
   192
  0
VERTEX
  5
23D
  8
0
 10
227.9532165527344
 20
9.144784927368164
 30
146.2073364257812
 70
   192
  0
VERTEX
  5
23E
  8
0
 10
228.5099945068359
 20
8.650272369384766
 30
146.2756958007812
 70
   192
  0
VERTEX
  5
23F
  8
0
 10
229.0345153808594
 20
8.122183799743652
 30
146.3401031494141
 70
   192
  0
VERTEX
  5
240
  8
0
 10
229.5214996337891
 20
7.565093994140625
 30
146.3998870849609
 70
   192
  0
VERTEX
  5
241
  8
0
 10
229.9755706787109
 20
6.975000381469727
 30
146.4556427001953
 70
   192
  0
VERTEX
  5
242
  8
0
 10
230.3930511474609
 20
6.356631755828857
 30
146.5069122314453
 70
   192
  0
VERTEX
  5
243
  8
0
 10
230.7676544189453
 20
5.718096256256104
 30
146.5529022216797
 70
   192
  0
VERTEX
  5
244
  8
0
 10
231.1037445068359
 20
5.053763389587402
 30
146.5941619873047
 70
   192
  0
VERTEX
  5
245
  8
0
 10
231.3995208740234
 20
4.366989135742188
 30
146.6304779052734
 70
   192
  0
VERTEX
  5
246
  8
0
 10
231.6486511230469
 20
3.669458627700806
 30
146.6610717773438
 70
   192
  0
VERTEX
  5
247
  8
0
 10
231.85498046875
 20
2.954086065292358
 30
146.6864166259766
 70
   192
  0
VERTEX
  5
248
  8
0
 10
232.0178375244141
 20
2.222656726837158
 30
146.7064056396484
 70
   192
  0
VERTEX
  5
249
  8
0
 10
232.1312866210938
 20
1.490825772285461
 30
146.7203369140625
 70
   192
  0
VERTEX
  5
24A
  8
0
 10
232.1986236572266
 20
0.7499416470527649
 30
146.7286071777344
 70
   192
  0
VERTEX
  5
24B
  8
0
 10
232.2198181152344
 20
0.0000043877016651
 30
146.731201171875
 70
   192
  0
VERTEX
  5
24C
  8
0
 10
210.5378265380859
 20
3.663637399673462
 30
143.4233245849609
 70
   192
  0
VERTEX
  5
24D
  8
0
 10
209.8983001708984
 20
0.0000219360626943
 30
143.3448028564453
 70
   192
  0
VERTEX
  5
24E
  8
0
 10
212.3814697265625
 20
6.880213260650635
 30
143.6496887207031
 70
   192
  0
VERTEX
  5
24F
  8
0
 10
215.2120819091797
 20
9.27563762664795
 30
143.9972534179688
 70
   192
  0
VERTEX
  5
250
  8
0
 10
218.674560546875
 20
10.54508686065674
 30
144.4223785400391
 70
   192
  0
VERTEX
  5
251
  8
0
 10
222.3722991943359
 20
10.54696464538574
 30
144.8764038085938
 70
   192
  0
VERTEX
  5
252
  8
0
 10
225.8369293212891
 20
9.276928901672363
 30
145.3018188476562
 70
   192
  0
VERTEX
  5
253
  8
0
 10
228.6678009033203
 20
6.886037349700928
 30
145.6493988037109
 70
   192
  0
VERTEX
  5
254
  8
0
 10
230.5131225585938
 20
3.668283224105835
 30
145.8759765625
 70
   192
  0
VERTEX
  5
255
  8
0
 10
231.2283020019531
 20
0.0000043877016651
 30
145.9840393066406
 70
   192
  0
VERTEX
  5
256
  8
0
 10
222.3716888427734
 20
-10.54715633392334
 30
144.8763427734375
 70
   192
  0
VERTEX
  5
257
  8
0
 10
228.671630859375
 20
-6.88059139251709
 30
145.6498718261719
 70
   192
  0
VERTEX
  5
258
  8
0
 10
230.5170135498047
 20
-3.658461332321167
 30
145.8764495849609
 70
   192
  0
VERTEX
  5
259
  8
0
 10
210.536865234375
 20
-3.661166429519653
 30
143.4232025146484
 70
   192
  0
VERTEX
  5
25A
  8
0
 10
212.3851318359375
 20
-6.885472774505615
 30
143.650146484375
 70
   192
  0
VERTEX
  5
25B
  8
0
 10
215.2123565673828
 20
-9.275115966796875
 30
143.9972839355469
 70
   192
  0
VERTEX
  5
25C
  8
0
 10
218.6842346191406
 20
-10.54743766784668
 30
144.4235687255859
 70
   192
  0
VERTEX
  5
25D
  8
0
 10
225.8440246582031
 20
-9.273327827453613
 30
145.3026885986328
 70
   192
  0
VERTEX
  5
25E
  8
0
 10
209.0820159912109
 20
-3.060274600982666
 30
143.8902435302734
 70
   192
  0
VERTEX
  5
25F
  8
0
 10
209.3054504394531
 20
-3.801066398620605
 30
143.9176788330078
 70
   192
  0
VERTEX
  5
260
  8
0
 10
215.9410095214844
 20
-10.94851779937744
 30
144.732421875
 70
   192
  0
VERTEX
  5
261
  8
0
 10
215.2357177734375
 20
-10.62400531768799
 30
144.6458129882812
 70
   192
  0
VERTEX
  5
262
  8
0
 10
229.7903747558594
 20
-7.224874496459961
 30
146.4329071044922
 70
   192
  0
VERTEX
  5
263
  8
0
 10
229.3023834228516
 20
-7.824514389038086
 30
146.3729858398438
 70
   192
  0
VERTEX
  5
264
  8
0
 10
224.227294921875
 20
-11.23254203796387
 30
145.7498474121094
 70
   192
  0
VERTEX
  5
265
  8
0
 10
224.9545593261719
 20
-10.95969676971436
 30
145.8391418457031
 70
   192
  0
VERTEX
  5
266
  8
0
 10
232.0004119873047
 20
-2.313490390777588
 30
146.7042694091797
 70
   192
  0
VERTEX
  5
267
  8
0
 10
232.1235961914062
 20
-1.552148699760437
 30
146.7193908691406
 70
   192
  0
VERTEX
  5
268
  8
0
 10
231.8235626220703
 20
-3.07454514503479
 30
146.6825561523438
 70
   192
  0
VERTEX
  5
269
  8
0
 10
232.1967315673828
 20
-0.7809838056564331
 30
146.7283782958984
 70
   192
  0
VERTEX
  5
26A
  8
0
 10
231.6002807617188
 20
-3.816240072250366
 30
146.6551361083984
 70
   192
  0
VERTEX
  5
26B
  8
0
 10
231.3305511474609
 20
-4.538575649261475
 30
146.6220092773438
 70
   192
  0
VERTEX
  5
26C
  8
0
 10
230.6470642089844
 20
-5.933799266815186
 30
146.5381011962891
 70
   192
  0
VERTEX
  5
26D
  8
0
 10
231.0097045898438
 20
-5.25018310546875
 30
146.5826263427734
 70
   192
  0
VERTEX
  5
26E
  8
0
 10
230.2426452636719
 20
-6.589423179626465
 30
146.4884338378906
 70
   192
  0
VERTEX
  5
26F
  8
0
 10
228.7786712646484
 20
-8.38834285736084
 30
146.3086853027344
 70
   192
  0
VERTEX
  5
270
  8
0
 10
228.2116241455078
 20
-8.922978401184082
 30
146.2390594482422
 70
   192
  0
VERTEX
  5
271
  8
0
 10
227.616455078125
 20
-9.415183067321777
 30
146.1659851074219
 70
   192
  0
VERTEX
  5
272
  8
0
 10
226.3327178955078
 20
-10.27693176269531
 30
146.0083618164062
 70
   192
  0
VERTEX
  5
273
  8
0
 10
226.9931640625
 20
-9.864956855773926
 30
146.0894470214844
 70
   192
  0
VERTEX
  5
274
  8
0
 10
225.6531677246094
 20
-10.641845703125
 30
145.9249267578125
 70
   192
  0
VERTEX
  5
275
  8
0
 10
223.4905090332031
 20
-11.45626926422119
 30
145.6593780517578
 70
   192
  0
VERTEX
  5
276
  8
0
 10
222.7442169189453
 20
-11.63087749481201
 30
145.5677490234375
 70
   192
  0
VERTEX
  5
277
  8
0
 10
221.9792633056641
 20
-11.75836753845215
 30
145.4738311767578
 70
   192
  0
VERTEX
  5
278
  8
0
 10
221.2139434814453
 20
-11.83474063873291
 30
145.3798522949219
 70
   192
  0
VERTEX
  5
279
  8
0
 10
217.3933715820312
 20
-11.44866847991943
 30
144.9107513427734
 70
   192
  0
VERTEX
  5
27A
  8
0
 10
218.1488189697266
 20
-11.62905788421631
 30
145.0035095214844
 70
   192
  0
VERTEX
  5
27B
  8
0
 10
220.4482269287109
 20
-11.85999584197998
 30
145.2858428955078
 70
   192
  0
VERTEX
  5
27C
  8
0
 10
219.6715850830078
 20
-11.83297252655029
 30
145.1904754638672
 70
   192
  0
VERTEX
  5
27D
  8
0
 10
218.9051055908203
 20
-11.7559928894043
 30
145.0963592529297
 70
   192
  0
VERTEX
  5
27E
  8
0
 10
216.6574401855469
 20
-11.22182178497314
 30
144.8203887939453
 70
   192
  0
VERTEX
  5
27F
  8
0
 10
214.5582733154297
 20
-10.25778675079346
 30
144.5626373291016
 70
   192
  0
VERTEX
  5
280
  8
0
 10
213.90869140625
 20
-9.849862098693848
 30
144.4828796386719
 70
   192
  0
VERTEX
  5
281
  8
0
 10
212.6854858398438
 20
-8.902883529663086
 30
144.3326873779297
 70
   192
  0
VERTEX
  5
282
  8
0
 10
213.2793731689453
 20
-9.394220352172852
 30
144.4056091308594
 70
   192
  0
VERTEX
  5
283
  8
0
 10
210.664306640625
 20
-6.580601692199707
 30
144.0845184326172
 70
   192
  0
VERTEX
  5
284
  8
0
 10
211.1100921630859
 20
-7.207152843475342
 30
144.1392517089844
 70
   192
  0
VERTEX
  5
285
  8
0
 10
212.1270294189453
 20
-8.3758544921875
 30
144.2641143798828
 70
   192
  0
VERTEX
  5
286
  8
0
 10
211.5976715087891
 20
-7.805570125579834
 30
144.1991271972656
 70
   192
  0
VERTEX
  5
287
  8
0
 10
208.9074249267578
 20
-2.309771776199341
 30
143.8688049316406
 70
   192
  0
VERTEX
  5
288
  8
0
 10
210.255859375
 20
-5.917108058929443
 30
144.0343627929688
 70
   192
  0
VERTEX
  5
289
  8
0
 10
209.5777130126953
 20
-4.53214693069458
 30
143.9511108398438
 70
   192
  0
VERTEX
  5
28A
  8
0
 10
209.8936614990234
 20
-5.234289646148682
 30
143.9898986816406
 70
   192
  0
VERTEX
  5
28B
  8
0
 10
208.7816619873047
 20
-1.549557566642761
 30
143.8533630371094
 70
   192
  0
VERTEX
  5
28C
  8
0
 10
208.7047271728516
 20
-0.7796322107315063
 30
143.8439178466797
 70
   192
  0
VERTEX
  5
28D
  8
0
 10
208.6107177734375
 20
-0.7245581746101379
 30
143.9632568359375
 70
   192
  0
VERTEX
  5
28E
  8
0
 10
208.6769409179688
 20
-1.440793633460999
 30
143.9713897705078
 70
   192
  0
VERTEX
  5
28F
  8
0
 10
208.7850494384766
 20
-2.148702144622803
 30
143.9846496582031
 70
   192
  0
VERTEX
  5
290
  8
0
 10
209.3605804443359
 20
-4.222465991973877
 30
144.0553283691406
 70
   192
  0
VERTEX
  5
291
  8
0
 10
208.9350128173828
 20
-2.848283767700195
 30
144.0030670166016
 70
   192
  0
VERTEX
  5
292
  8
0
 10
210.6864013671875
 20
-6.770232200622559
 30
144.2181091308594
 70
   192
  0
VERTEX
  5
293
  8
0
 10
210.2970886230469
 20
-6.162040710449219
 30
144.1703186035156
 70
   192
  0
VERTEX
  5
294
  8
0
 10
209.9457550048828
 20
-5.533974647521973
 30
144.1271667480469
 70
   192
  0
VERTEX
  5
295
  8
0
 10
212.5760650634766
 20
-8.919661521911621
 30
144.4501342773438
 70
   192
  0
VERTEX
  5
296
  8
0
 10
211.1079559326172
 20
-7.34721851348877
 30
144.2698669433594
 70
   192
  0
VERTEX
  5
297
  8
0
 10
211.5653533935547
 20
-7.900081634521484
 30
144.3260345458984
 70
   192
  0
VERTEX
  5
298
  8
0
 10
214.9214019775391
 20
-10.55441188812256
 30
144.7381134033203
 70
   192
  0
VERTEX
  5
299
  8
0
 10
213.7021942138672
 20
-9.809525489807129
 30
144.5884094238281
 70
   192
  0
VERTEX
  5
29A
  8
0
 10
216.9001617431641
 20
-11.38611888885498
 30
144.9810638427734
 70
   192
  0
VERTEX
  5
29B
  8
0
 10
217.5900573730469
 20
-11.58190250396729
 30
145.0657806396484
 70
   192
  0
VERTEX
  5
29C
  8
0
 10
215.5656127929688
 20
-10.87224674224854
 30
144.8171997070312
 70
   192
  0
VERTEX
  5
29D
  8
0
 10
216.2269897460938
 20
-11.1505012512207
 30
144.8984069824219
 70
   192
  0
VERTEX
  5
29E
  8
0
 10
219.7105865478516
 20
-11.91167831420898
 30
145.3261413574219
 70
   192
  0
VERTEX
  5
29F
  8
0
 10
218.2931671142578
 20
-11.73653793334961
 30
145.152099609375
 70
   192
  0
VERTEX
  5
2A0
  8
0
 10
221.8546600341797
 20
-11.84789752960205
 30
145.5894012451172
 70
   192
  0
VERTEX
  5
2A1
  8
0
 10
222.5652923583984
 20
-11.73860168457031
 30
145.6766510009766
 70
   192
  0
VERTEX
  5
2A2
  8
0
 10
221.1436920166016
 20
-11.91336154937744
 30
145.5021057128906
 70
   192
  0
VERTEX
  5
2A3
  8
0
 10
223.9513244628906
 20
-11.39601612091064
 30
145.8468475341797
 70
   192
  0
VERTEX
  5
2A4
  8
0
 10
224.6306304931641
 20
-11.16187000274658
 30
145.9302520751953
 70
   192
  0
VERTEX
  5
2A5
  8
0
 10
223.2638549804688
 20
-11.58804607391357
 30
145.7624359130859
 70
   192
  0
VERTEX
  5
2A6
  8
0
 10
225.935546875
 20
-10.57350826263428
 30
146.0904693603516
 70
   192
  0
VERTEX
  5
2A7
  8
0
 10
225.2940826416016
 20
-10.8872594833374
 30
146.01171875
 70
   192
  0
VERTEX
  5
2A8
  8
0
 10
227.7399444580078
 20
-9.401299476623535
 30
146.3120269775391
 70
   192
  0
VERTEX
  5
2A9
  8
0
 10
227.1659851074219
 20
-9.826680183410645
 30
146.2415466308594
 70
   192
  0
VERTEX
  5
2AA
  8
0
 10
226.5606384277344
 20
-10.21940231323242
 30
146.1672210693359
 70
   192
  0
VERTEX
  5
2AB
  8
0
 10
228.8155212402344
 20
-8.441389083862305
 30
146.444091796875
 70
   192
  0
VERTEX
  5
2AC
  8
0
 10
228.289794921875
 20
-8.939535140991211
 30
146.3795318603516
 70
   192
  0
VERTEX
  5
2AD
  8
0
 10
229.3032836914062
 20
-7.918920040130615
 30
146.5039825439453
 70
   192
  0
VERTEX
  5
2AE
  8
0
 10
229.7604217529297
 20
-7.365744590759277
 30
146.5601043701172
 70
   192
  0
VERTEX
  5
2AF
  8
0
 10
230.1869201660156
 20
-6.781861782073975
 30
146.6124725341797
 70
   192
  0
VERTEX
  5
2B0
  8
0
 10
230.5749816894531
 20
-6.177329540252686
 30
146.6601257324219
 70
   192
  0
VERTEX
  5
2B1
  8
0
 10
230.9252777099609
 20
-5.551309585571289
 30
146.7031402587891
 70
   192
  0
VERTEX
  5
2B2
  8
0
 10
231.2397308349609
 20
-4.901288032531738
 30
146.7417449951172
 70
   192
  0
VERTEX
  5
2B3
  8
0
 10
231.5146179199219
 20
-4.234203338623047
 30
146.7754974365234
 70
   192
  0
VERTEX
  5
2B4
  8
0
 10
231.7469329833984
 20
-3.555607557296753
 30
146.8040161132812
 70
   192
  0
VERTEX
  5
2B5
  8
0
 10
231.9394073486328
 20
-2.860411405563354
 30
146.8276519775391
 70
   192
  0
VERTEX
  5
2B6
  8
0
 10
232.0907135009766
 20
-2.152192354202271
 30
146.8462371826172
 70
   192
  0
VERTEX
  5
2B7
  8
0
 10
232.1961975097656
 20
-1.443216562271118
 30
146.8591766357422
 70
   192
  0
VERTEX
  5
2B8
  8
0
 10
232.2587738037109
 20
-0.7258176207542419
 30
146.8668670654297
 70
   192
  0
VERTEX
  5
2B9
  8
0
 10
220.4323883056641
 20
-11.93499565124512
 30
145.4147644042969
 70
   192
  0
VERTEX
  5
2BA
  8
0
 10
218.9975128173828
 20
-11.84552574157715
 30
145.2385864257812
 70
   192
  0
VERTEX
  5
2BB
  8
0
 10
209.6340942382812
 20
-4.889338970184326
 30
144.0889129638672
 70
   192
  0
VERTEX
  5
2BC
  8
0
 10
214.3010711669922
 20
-10.20081615447998
 30
144.6619415283203
 70
   192
  0
VERTEX
  5
2BD
  8
0
 10
213.1239318847656
 20
-9.379897117614746
 30
144.5174102783203
 70
   192
  0
VERTEX
  5
2BE
  8
0
 10
212.0585784912109
 20
-8.428821563720703
 30
144.3865966796875
 70
   192
  0
VERTEX
  5
2BF
  8
0
 10
209.1268615722656
 20
-3.539538383483887
 30
144.0266265869141
 70
   192
  0
VERTEX
  5
2C0
  8
0
 10
208.0431518554688
 20
-3.093987941741943
 30
151.6808471679688
 70
   192
  0
VERTEX
  5
2C1
  8
0
 10
209.2270965576172
 20
-5.971323013305664
 30
151.8262176513672
 70
   192
  0
VERTEX
  5
2C2
  8
0
 10
211.1073150634766
 20
-8.441389083862305
 30
152.0570831298828
 70
   192
  0
VERTEX
  5
2C3
  8
0
 10
213.5687408447266
 20
-10.34192085266113
 30
152.3592987060547
 70
   192
  0
VERTEX
  5
2C4
  8
0
 10
216.4289093017578
 20
-11.52871608734131
 30
152.7104797363281
 70
   192
  0
VERTEX
  5
2C5
  8
0
 10
219.4904327392578
 20
-11.93499565124512
 30
153.0863952636719
 70
   192
  0
VERTEX
  5
2C6
  8
0
 10
222.5646057128906
 20
-11.52106761932373
 30
153.4638519287109
 70
   192
  0
VERTEX
  5
2C7
  8
0
 10
225.4176330566406
 20
-10.32265472412109
 30
153.8141632080078
 70
   192
  0
VERTEX
  5
2C8
  8
0
 10
227.8642578125
 20
-8.428821563720703
 30
154.1145782470703
 70
   192
  0
VERTEX
  5
2C9
  8
0
 10
229.7472686767578
 20
-5.954526424407959
 30
154.3457794189453
 70
   192
  0
VERTEX
  5
2CA
  8
0
 10
230.9285125732422
 20
-3.079627275466919
 30
154.4908142089844
 70
   192
  0
VERTEX
  5
2CB
  8
0
 62
     9
 10
0.0
 20
0.0
 30
0.0
 70
   128
 71
     3
 72
     2
 73
     1
  0
VERTEX
  5
2CC
  8
0
 62
     9
 10
0.0
 20
0.0
 30
0.0
 70
   128
 71
     5
 72
     4
 73
     2
  0
VERTEX
  5
2CD
  8
0
 62
     9
 10
0.0
 20
0.0
 30
0.0
 70
   128
 71
     5
 72
     2
 73
     3
  0
VERTEX
  5
2CE
  8
0
 62
     9
 10
0.0
 20
0.0
 30
0.0
 70
   128
 71
     7
 72
     6
 73
     2
  0
VERTEX
  5
2CF
  8
0
 62
     9
 10
0.0
 20
0.0
 30
0.0
 70
   128
 71
     7
 72
     2
 73
     4
  0
VERTEX
  5
2D0
  8
0
 62
     9
 10
0.0
 20
0.0
 30
0.0
 70
   128
 71
     9
 72
     6
 73
     8
  0
VERTEX
  5
2D1
  8
0
 62
     9
 10
0.0
 20
0.0
 30
0.0
 70
   128
 71
     6
 72
     9
 73
     2
  0
VERTEX
  5
2D2
  8
0
 62
     9
 10
0.0
 20
0.0
 30
0.0
 70
   128
 71
     9
 72
    11
 73
    10
  0
VERTEX
  5
2D3
  8
0
 62
     9
 10
0.0
 20
0.0
 30
0.0
 70
   128
 71
     8
 72
    11
 73
     9
  0
VERTEX
  5
2D4
  8
0
 62
     9
 10
0.0
 20
0.0
 30
0.0
 70
   128
 71
    13
 72
     9
 73
    12
  0
VERTEX
  5
2D5
  8
0
 62
     9
 10
0.0
 20
0.0
 30
0.0
 70
   128
 71
    10
 72
    12
 73
     9
  0
VERTEX
  5
2D6
  8
0
 62
     9
 10
0.0
 20
0.0
 30
0.0
 70
   128
 71
    15
 72
    13
 73
    14
  0
VERTEX
  5
2D7
  8
0
 62
     9
 10
0.0
 20
0.0
 30
0.0
 70
   128
 71
    13
 72
    12
 73
    14
  0
VERTEX
  5
2D8
  8
0
 62
     9
 10
0.0
 20
0.0
 30
0.0
 70
   128
 71
    17
 72
    13
 73
    16
  0
VERTEX
  5
2D9
  8
0
 62
     9
 10
0.0
 20
0.0
 30
0.0
 70
   128
 71
    13
 72
    15
 73
    16
  0
VERTEX
  5
2DA
  8
0
 62
     9
 10
0.0
 20
0.0
 30
0.0
 70
   128
 71
    17
 72
    19
 73
    18
  0
VERTEX
  5
2DB
  8
0
 62
     9
 10
0.0
 20
0.0
 30
0.0
 70
   128
 71
    18
 72
    13
 73
    17
  0
VERTEX
  5
2DC
  8
0
 62
     9
 10
0.0
 20
0.0
 30
0.0
 70
   128
 71
    21
 72
    20
 73
    18
  0
VERTEX
  5
2DD
  8
0
 62
     9
 10
0.0
 20
0.0
 30
0.0
 70
   128
 71
    21
 72
    18
 73
    19
  0
VERTEX
  5
2DE
  8
0
 62
     9
 10
0.0
 20
0.0
 30
0.0
 70
   128
 71
    18
 72
    23
 73
    22
  0
VERTEX
  5
2DF
  8
0
 62
     9
 10
0.0
 20
0.0
 30
0.0
 70
   128
 71
    23
 72
    18
 73
    20
  0
VERTEX
  5
2E0
  8
0
 62
     9
 10
0.0
 20
0.0
 30
0.0
 70
   128
 71
    22
 72
    25
 73
    24
  0
VERTEX
  5
2E1
  8
0
 62
     9
 10
0.0
 20
0.0
 30
0.0
 70
   128
 71
    23
 72
    25
 73
    22
  0
VERTEX
  5
2E2
  8
0
 62
     9
 10
0.0
 20
0.0
 30
0.0
 70
   128
 71
    22
 72
    27
 73
    26
  0
VERTEX
  5
2E3
  8
0
 62
     9
 10
0.0
 20
0.0
 30
0.0
 70
   128
 71
    24
 72
    27
 73
    22
  0
VERTEX
  5
2E4
  8
0
 62
     9
 10
0.0
 20
0.0
 30
0.0
 70
   128
 71
    29
 72
    28
 73
    26
  0
VERTEX
  5
2E5
  8
0
 62
     9
 10
0.0
 20
0.0
 30
0.0
 70
   128
 71
    22
 72
    26
 73
    28
  0
VERTEX
  5
2E6
  8
0
 62
     9
 10
0.0
 20
0.0
 30
0.0
 70
   128
 71
    31
 72
    28
 73
    30
  0
VERTEX
  5
2E7
  8
0
 62
     9
 10
0.0
 20
0.0
 30
0.0
 70
   128
 71
    28
 72
    29
 73
    30
  0
VERTEX
  5
2E8
  8
0
 62
     9
 10
0.0
 20
0.0
 30
0.0
 70
   128
 71
    33
 72
    32
 73
    28
  0
VERTEX
  5
2E9
  8
0
 62
     9
 10
0.0
 20
0.0
 30
0.0
 70
   128
 71
    28
 72
    31
 73
    33
  0
VERTEX
  5
2EA
  8
0
 62
     9
 10
0.0
 20
0.0
 30
0.0
 70
   128
 71
    35
 72
    34
 73
    32
  0
VERTEX
  5
2EB
  8
0
 62
     9
 10
0.0
 20
0.0
 30
0.0
 70
   128
 71
    35
 72
    32
 73
    33
  0
VERTEX
  5
2EC
  8
0
 62
     9
 10
0.0
 20
0.0
 30
0.0
 70
   128
 71
    37
 72
    36
 73
    32
  0
VERTEX
  5
2ED
  8
0
 62
     9
 10
0.0
 20
0.0
 30
0.0
 70
   128
 71
    37
 72
    32
 73
    34
  0
VERTEX
  5
2EE
  8
0
 62
     9
 10
0.0
 20
0.0
 30
0.0
 70
   128
 71
    39
 72
    36
 73
    38
  0
VERTEX
  5
2EF
  8
0
 62
     9
 10
0.0
 20
0.0
 30
0.0
 70
   128
 71
    36
 72
    39
 73
    32
  0
VERTEX
  5
2F0
  8
0
 62
     9
 10
0.0
 20
0.0
 30
0.0
 70
   128
 71
    39
 72
    41
 73
    40
  0
VERTEX
  5
2F1
  8
0
 62
     9
 10
0.0
 20
0.0
 30
0.0
 70
   128
 71
    38
 72
    41
 73
    39
  0
VERTEX
  5
2F2
  8
0
 62
     9
 10
0.0
 20
0.0
 30
0.0
 70
   128
 71
    43
 72
    39
 73
    42
  0
VERTEX
  5
2F3
  8
0
 62
     9
 10
0.0
 20
0.0
 30
0.0
 70
   128
 71
    40
 72
    42
 73
    39
  0
VERTEX
  5
2F4
  8
0
 62
     9
 10
0.0
 20
0.0
 30
0.0
 70
   128
 71
    45
 72
    43
 73
    44
  0
VERTEX
  5
2F5
  8
0
 62
     9
 10
0.0
 20
0.0
 30
0.0
 70
   128
 71
    43
 72
    42
 73
    44
  0
VERTEX
  5
2F6
  8
0
 62
     9
 10
0.0
 20
0.0
 30
0.0
 70
   128
 71
    47
 72
    43
 73
    46
  0
VERTEX
  5
2F7
  8
0
 62
     9
 10
0.0
 20
0.0
 30
0.0
 70
   128
 71
    43
 72
    45
 73
    46
  0
VERTEX
  5
2F8
  8
0
 62
     9
 10
0.0
 20
0.0
 30
0.0
 70
   128
 71
    47
 72
    49
 73
    48
  0
VERTEX
  5
2F9
  8
0
 62
     9
 10
0.0
 20
0.0
 30
0.0
 70
   128
 71
    48
 72
    43
 73
    47
  0
VERTEX
  5
2FA
  8
0
 62
     9
 10
0.0
 20
0.0
 30
0.0
 70
   128
 71
    50
 72
    48
 73
    49
  0
VERTEX
  5
2FB
  8
0
 62
     9
 10
0.0
 20
0.0
 30
0.0
 70
   128
 71
     3
 72
     1
 73
    51
  0
VERTEX
  5
2FC
  8
0
 62
     9
 10
0.0
 20
0.0
 30
0.0
 70
   128
 71
     1
 72
    53
 73
    52
  0
VERTEX
  5
2FD
  8
0
 62
     9
 10
0.0
 20
0.0
 30
0.0
 70
   128
 71
    51
 72
     1
 73
    52
  0
VERTEX
  5
2FE
  8
0
 62
     9
 10
0.0
 20
0.0
 30
0.0
 70
   128
 71
    55
 72
     1
 73
    54
  0
VERTEX
  5
2FF
  8
0
 62
     9
 10
0.0
 20
0.0
 30
0.0
 70
   128
 71
     1
 72
    55
 73
    53
  0
VERTEX
  5
300
  8
0
 62
     9
 10
0.0
 20
0.0
 30
0.0
 70
   128
 71
    54
 72
    57
 73
    56
  0
VERTEX
  5
301
  8
0
 62
     9
 10
0.0
 20
0.0
 30
0.0
 70
   128
 71
    55
 72
    54
 73
    56
  0
VERTEX
  5
302
  8
0
 62
     9
 10
0.0
 20
0.0
 30
0.0
 70
   128
 71
    59
 72
    58
 73
    54
  0
VERTEX
  5
303
  8
0
 62
     9
 10
0.0
 20
0.0
 30
0.0
 70
   128
 71
    54
 72
    58
 73
    57
  0
VERTEX
  5
304
  8
0
 62
     9
 10
0.0
 20
0.0
 30
0.0
 70
   128
 71
    61
 72
    60
 73
    59
  0
VERTEX
  5
305
  8
0
 62
     9
 10
0.0
 20
0.0
 30
0.0
 70
   128
 71
    59
 72
    54
 73
    61
  0
VERTEX
  5
306
  8
0
 62
     9
 10
0.0
 20
0.0
 30
0.0
 70
   128
 71
    61
 72
    62
 73
    60
  0
VERTEX
  5
307
  8
0
 62
     9
 10
0.0
 20
0.0
 30
0.0
 70
   128
 71
    64
 72
    63
 73
    20
  0
VERTEX
  5
308
  8
0
 62
     9
 10
0.0
 20
0.0
 30
0.0
 70
   128
 71
    64
 72
    21
 73
    65
  0
VERTEX
  5
309
  8
0
 62
     9
 10
0.0
 20
0.0
 30
0.0
 70
   128
 71
    67
 72
    23
 73
    66
  0
VERTEX
  5
30A
  8
0
 62
     9
 10
0.0
 20
0.0
 30
0.0
 70
   128
 71
    23
 72
    20
 73
    66
  0
VERTEX
  5
30B
  8
0
 62
     9
 10
0.0
 20
0.0
 30
0.0
 70
   128
 71
    23
 72
    67
 73
    25
  0
VERTEX
  5
30C
  8
0
 62
     9
 10
0.0
 20
0.0
 30
0.0
 70
   128
 71
    20
 72
    63
 73
    66
  0
VERTEX
  5
30D
  8
0
 62
     9
 10
0.0
 20
0.0
 30
0.0
 70
   128
 71
    21
 72
    64
 73
    20
  0
VERTEX
  5
30E
  8
0
 62
     9
 10
0.0
 20
0.0
 30
0.0
 70
   128
 71
    24
 72
    25
 73
    68
  0
VERTEX
  5
30F
  8
0
 62
     9
 10
0.0
 20
0.0
 30
0.0
 70
   128
 71
    24
 72
    69
 73
    27
  0
VERTEX
  5
310
  8
0
 62
     9
 10
0.0
 20
0.0
 30
0.0
 70
   128
 71
    68
 72
    69
 73
    24
  0
VERTEX
  5
311
  8
0
 62
     9
 10
0.0
 20
0.0
 30
0.0
 70
   128
 71
    26
 72
    27
 73
    70
  0
VERTEX
  5
312
  8
0
 62
     9
 10
0.0
 20
0.0
 30
0.0
 70
   128
 71
    70
 72
    71
 73
    26
  0
VERTEX
  5
313
  8
0
 62
     9
 10
0.0
 20
0.0
 30
0.0
 70
   128
 71
    71
 72
    72
 73
    29
  0
VERTEX
  5
314
  8
0
 62
     9
 10
0.0
 20
0.0
 30
0.0
 70
   128
 71
    72
 72
    30
 73
    29
  0
VERTEX
  5
315
  8
0
 62
     9
 10
0.0
 20
0.0
 30
0.0
 70
   128
 71
    27
 72
    69
 73
    70
  0
VERTEX
  5
316
  8
0
 62
     9
 10
0.0
 20
0.0
 30
0.0
 70
   128
 71
    29
 72
    26
 73
    71
  0
VERTEX
  5
317
  8
0
 62
     9
 10
0.0
 20
0.0
 30
0.0
 70
   128
 71
    30
 72
    73
 73
    31
  0
VERTEX
  5
318
  8
0
 62
     9
 10
0.0
 20
0.0
 30
0.0
 70
   128
 71
    34
 72
    35
 73
    74
  0
VERTEX
  5
319
  8
0
 62
     9
 10
0.0
 20
0.0
 30
0.0
 70
   128
 71
    72
 72
    73
 73
    30
  0
VERTEX
  5
31A
  8
0
 62
     9
 10
0.0
 20
0.0
 30
0.0
 70
   128
 71
    33
 72
    31
 73
    75
  0
VERTEX
  5
31B
  8
0
 62
     9
 10
0.0
 20
0.0
 30
0.0
 70
   128
 71
    35
 72
    33
 73
    76
  0
VERTEX
  5
31C
  8
0
 62
     9
 10
0.0
 20
0.0
 30
0.0
 70
   128
 71
    33
 72
    75
 73
    76
  0
VERTEX
  5
31D
  8
0
 62
     9
 10
0.0
 20
0.0
 30
0.0
 70
   128
 71
    76
 72
    74
 73
    35
  0
VERTEX
  5
31E
  8
0
 62
     9
 10
0.0
 20
0.0
 30
0.0
 70
   128
 71
    77
 72
    34
 73
    74
  0
VERTEX
  5
31F
  8
0
 62
     9
 10
0.0
 20
0.0
 30
0.0
 70
   128
 71
    75
 72
    31
 73
    73
  0
VERTEX
  5
320
  8
0
 62
     9
 10
0.0
 20
0.0
 30
0.0
 70
   128
 71
    77
 72
    37
 73
    34
  0
VERTEX
  5
321
  8
0
 62
     9
 10
0.0
 20
0.0
 30
0.0
 70
   128
 71
    37
 72
    77
 73
    78
  0
VERTEX
  5
322
  8
0
 62
     9
 10
0.0
 20
0.0
 30
0.0
 70
   128
 71
    41
 72
    38
 73
    79
  0
VERTEX
  5
323
  8
0
 62
     9
 10
0.0
 20
0.0
 30
0.0
 70
   128
 71
    36
 72
    37
 73
    78
  0
VERTEX
  5
324
  8
0
 62
     9
 10
0.0
 20
0.0
 30
0.0
 70
   128
 71
    36
 72
    80
 73
    38
  0
VERTEX
  5
325
  8
0
 62
     9
 10
0.0
 20
0.0
 30
0.0
 70
   128
 71
    41
 72
    79
 73
    81
  0
VERTEX
  5
326
  8
0
 62
     9
 10
0.0
 20
0.0
 30
0.0
 70
   128
 71
    79
 72
    38
 73
    80
  0
VERTEX
  5
327
  8
0
 62
     9
 10
0.0
 20
0.0
 30
0.0
 70
   128
 71
    40
 72
    41
 73
    81
  0
VERTEX
  5
328
  8
0
 62
     9
 10
0.0
 20
0.0
 30
0.0
 70
   128
 71
    36
 72
    78
 73
    80
  0
VERTEX
  5
329
  8
0
 62
     9
 10
0.0
 20
0.0
 30
0.0
 70
   128
 71
    40
 72
    82
 73
    42
  0
VERTEX
  5
32A
  8
0
 62
     9
 10
0.0
 20
0.0
 30
0.0
 70
   128
 71
    83
 72
    42
 73
    82
  0
VERTEX
  5
32B
  8
0
 62
     9
 10
0.0
 20
0.0
 30
0.0
 70
   128
 71
    81
 72
    82
 73
    40
  0
VERTEX
  5
32C
  8
0
 62
     9
 10
0.0
 20
0.0
 30
0.0
 70
   128
 71
    44
 72
    42
 73
    83
  0
VERTEX
  5
32D
  8
0
 62
     9
 10
0.0
 20
0.0
 30
0.0
 70
   128
 71
    44
 72
    84
 73
    45
  0
VERTEX
  5
32E
  8
0
 62
     9
 10
0.0
 20
0.0
 30
0.0
 70
   128
 71
    83
 72
    84
 73
    44
  0
VERTEX
  5
32F
  8
0
 62
     9
 10
0.0
 20
0.0
 30
0.0
 70
   128
 71
    85
 72
    46
 73
    45
  0
VERTEX
  5
330
  8
0
 62
     9
 10
0.0
 20
0.0
 30
0.0
 70
   128
 71
    85
 72
    45
 73
    84
  0
VERTEX
  5
331
  8
0
 62
     9
 10
0.0
 20
0.0
 30
0.0
 70
   128
 71
    47
 72
    46
 73
    86
  0
VERTEX
  5
332
  8
0
 62
     9
 10
0.0
 20
0.0
 30
0.0
 70
   128
 71
    46
 72
    85
 73
    86
  0
VERTEX
  5
333
  8
0
 62
     9
 10
0.0
 20
0.0
 30
0.0
 70
   128
 71
    47
 72
    87
 73
    49
  0
VERTEX
  5
334
  8
0
 62
     9
 10
0.0
 20
0.0
 30
0.0
 70
   128
 71
    25
 72
    67
 73
    68
  0
VERTEX
  5
335
  8
0
 62
     9
 10
0.0
 20
0.0
 30
0.0
 70
   128
 71
    86
 72
    87
 73
    47
  0
VERTEX
  5
336
  8
0
 62
     9
 10
0.0
 20
0.0
 30
0.0
 70
   128
 71
    88
 72
    49
 73
    87
  0
VERTEX
  5
337
  8
0
 62
     9
 10
0.0
 20
0.0
 30
0.0
 70
   128
 71
    49
 72
    88
 73
    50
  0
VERTEX
  5
338
  8
0
 62
     9
 10
0.0
 20
0.0
 30
0.0
 70
   128
 71
    50
 72
    88
 73
    89
  0
VERTEX
  5
339
  8
0
 62
     9
 10
0.0
 20
0.0
 30
0.0
 70
   128
 71
    90
 72
    65
 73
    19
  0
VERTEX
  5
33A
  8
0
 62
     9
 10
0.0
 20
0.0
 30
0.0
 70
   128
 71
    21
 72
    19
 73
    65
  0
VERTEX
  5
33B
  8
0
 62
     9
 10
0.0
 20
0.0
 30
0.0
 70
   128
 71
    17
 72
    91
 73
    90
  0
VERTEX
  5
33C
  8
0
 62
     9
 10
0.0
 20
0.0
 30
0.0
 70
   128
 71
    90
 72
    19
 73
    17
  0
VERTEX
  5
33D
  8
0
 62
     9
 10
0.0
 20
0.0
 30
0.0
 70
   128
 71
    91
 72
    16
 73
    92
  0
VERTEX
  5
33E
  8
0
 62
     9
 10
0.0
 20
0.0
 30
0.0
 70
   128
 71
    16
 72
    91
 73
    17
  0
VERTEX
  5
33F
  8
0
 62
     9
 10
0.0
 20
0.0
 30
0.0
 70
   128
 71
    93
 72
    92
 73
    15
  0
VERTEX
  5
340
  8
0
 62
     9
 10
0.0
 20
0.0
 30
0.0
 70
   128
 71
    16
 72
    15
 73
    92
  0
VERTEX
  5
341
  8
0
 62
     9
 10
0.0
 20
0.0
 30
0.0
 70
   128
 71
    14
 72
    94
 73
    93
  0
VERTEX
  5
342
  8
0
 62
     9
 10
0.0
 20
0.0
 30
0.0
 70
   128
 71
    93
 72
    15
 73
    14
  0
VERTEX
  5
343
  8
0
 62
     9
 10
0.0
 20
0.0
 30
0.0
 70
   128
 71
    94
 72
    12
 73
    95
  0
VERTEX
  5
344
  8
0
 62
     9
 10
0.0
 20
0.0
 30
0.0
 70
   128
 71
    12
 72
    94
 73
    14
  0
VERTEX
  5
345
  8
0
 62
     9
 10
0.0
 20
0.0
 30
0.0
 70
   128
 71
    96
 72
    95
 73
    10
  0
VERTEX
  5
346
  8
0
 62
     9
 10
0.0
 20
0.0
 30
0.0
 70
   128
 71
    12
 72
    10
 73
    95
  0
VERTEX
  5
347
  8
0
 62
     9
 10
0.0
 20
0.0
 30
0.0
 70
   128
 71
    11
 72
    97
 73
    96
  0
VERTEX
  5
348
  8
0
 62
     9
 10
0.0
 20
0.0
 30
0.0
 70
   128
 71
    96
 72
    10
 73
    11
  0
VERTEX
  5
349
  8
0
 62
     9
 10
0.0
 20
0.0
 30
0.0
 70
   128
 71
    97
 72
     8
 73
    98
  0
VERTEX
  5
34A
  8
0
 62
     9
 10
0.0
 20
0.0
 30
0.0
 70
   128
 71
     8
 72
    97
 73
    11
  0
VERTEX
  5
34B
  8
0
 62
     9
 10
0.0
 20
0.0
 30
0.0
 70
   128
 71
    99
 72
    98
 73
     6
  0
VERTEX
  5
34C
  8
0
 62
     9
 10
0.0
 20
0.0
 30
0.0
 70
   128
 71
     8
 72
     6
 73
    98
  0
VERTEX
  5
34D
  8
0
 62
     9
 10
0.0
 20
0.0
 30
0.0
 70
   128
 71
     7
 72
   100
 73
    99
  0
VERTEX
  5
34E
  8
0
 62
     9
 10
0.0
 20
0.0
 30
0.0
 70
   128
 71
    99
 72
     6
 73
     7
  0
VERTEX
  5
34F
  8
0
 62
     9
 10
0.0
 20
0.0
 30
0.0
 70
   128
 71
   100
 72
     4
 73
   101
  0
VERTEX
  5
350
  8
0
 62
     9
 10
0.0
 20
0.0
 30
0.0
 70
   128
 71
     4
 72
   100
 73
     7
  0
VERTEX
  5
351
  8
0
 62
     9
 10
0.0
 20
0.0
 30
0.0
 70
   128
 71
   102
 72
   101
 73
     5
  0
VERTEX
  5
352
  8
0
 62
     9
 10
0.0
 20
0.0
 30
0.0
 70
   128
 71
     4
 72
     5
 73
   101
  0
VERTEX
  5
353
  8
0
 62
     9
 10
0.0
 20
0.0
 30
0.0
 70
   128
 71
     3
 72
   103
 73
   102
  0
VERTEX
  5
354
  8
0
 62
     9
 10
0.0
 20
0.0
 30
0.0
 70
   128
 71
   102
 72
     5
 73
     3
  0
VERTEX
  5
355
  8
0
 62
     9
 10
0.0
 20
0.0
 30
0.0
 70
   128
 71
   103
 72
    51
 73
   104
  0
VERTEX
  5
356
  8
0
 62
     9
 10
0.0
 20
0.0
 30
0.0
 70
   128
 71
    51
 72
   103
 73
     3
  0
VERTEX
  5
357
  8
0
 62
     9
 10
0.0
 20
0.0
 30
0.0
 70
   128
 71
   105
 72
   104
 73
    52
  0
VERTEX
  5
358
  8
0
 62
     9
 10
0.0
 20
0.0
 30
0.0
 70
   128
 71
    51
 72
    52
 73
   104
  0
VERTEX
  5
359
  8
0
 62
     9
 10
0.0
 20
0.0
 30
0.0
 70
   128
 71
    53
 72
   106
 73
   105
  0
VERTEX
  5
35A
  8
0
 62
     9
 10
0.0
 20
0.0
 30
0.0
 70
   128
 71
   105
 72
    52
 73
    53
  0
VERTEX
  5
35B
  8
0
 62
     9
 10
0.0
 20
0.0
 30
0.0
 70
   128
 71
   106
 72
    55
 73
   107
  0
VERTEX
  5
35C
  8
0
 62
     9
 10
0.0
 20
0.0
 30
0.0
 70
   128
 71
    55
 72
   106
 73
    53
  0
VERTEX
  5
35D
  8
0
 62
     9
 10
0.0
 20
0.0
 30
0.0
 70
   128
 71
   108
 72
   107
 73
    56
  0
VERTEX
  5
35E
  8
0
 62
     9
 10
0.0
 20
0.0
 30
0.0
 70
   128
 71
    55
 72
    56
 73
   107
  0
VERTEX
  5
35F
  8
0
 62
     9
 10
0.0
 20
0.0
 30
0.0
 70
   128
 71
    57
 72
   109
 73
   108
  0
VERTEX
  5
360
  8
0
 62
     9
 10
0.0
 20
0.0
 30
0.0
 70
   128
 71
   108
 72
    56
 73
    57
  0
VERTEX
  5
361
  8
0
 62
     9
 10
0.0
 20
0.0
 30
0.0
 70
   128
 71
   109
 72
    58
 73
   110
  0
VERTEX
  5
362
  8
0
 62
     9
 10
0.0
 20
0.0
 30
0.0
 70
   128
 71
    58
 72
   109
 73
    57
  0
VERTEX
  5
363
  8
0
 62
     9
 10
0.0
 20
0.0
 30
0.0
 70
   128
 71
   111
 72
   110
 73
    59
  0
VERTEX
  5
364
  8
0
 62
     9
 10
0.0
 20
0.0
 30
0.0
 70
   128
 71
    58
 72
    59
 73
   110
  0
VERTEX
  5
365
  8
0
 62
     9
 10
0.0
 20
0.0
 30
0.0
 70
   128
 71
    60
 72
   112
 73
   111
  0
VERTEX
  5
366
  8
0
 62
     9
 10
0.0
 20
0.0
 30
0.0
 70
   128
 71
   111
 72
    59
 73
    60
  0
VERTEX
  5
367
  8
0
 62
     9
 10
0.0
 20
0.0
 30
0.0
 70
   128
 71
    62
 72
   112
 73
    60
  0
VERTEX
  5
368
  8
0
 62
     9
 10
0.0
 20
0.0
 30
0.0
 70
   128
 71
    62
 72
   113
 73
   112
  0
VERTEX
  5
369
  8
0
 62
     9
 10
0.0
 20
0.0
 30
0.0
 70
   128
 71
   114
 72
    84
 73
    83
  0
VERTEX
  5
36A
  8
0
 62
     9
 10
0.0
 20
0.0
 30
0.0
 70
   128
 71
    84
 72
   114
 73
    85
  0
VERTEX
  5
36B
  8
0
 62
     9
 10
0.0
 20
0.0
 30
0.0
 70
   128
 71
    82
 72
    81
 73
   114
  0
VERTEX
  5
36C
  8
0
 62
     9
 10
0.0
 20
0.0
 30
0.0
 70
   128
 71
    83
 72
    82
 73
   114
  0
VERTEX
  5
36D
  8
0
 62
     9
 10
0.0
 20
0.0
 30
0.0
 70
   128
 71
   115
 72
    87
 73
   114
  0
VERTEX
  5
36E
  8
0
 62
     9
 10
0.0
 20
0.0
 30
0.0
 70
   128
 71
    87
 72
    86
 73
   114
  0
VERTEX
  5
36F
  8
0
 62
     9
 10
0.0
 20
0.0
 30
0.0
 70
   128
 71
    87
 72
   115
 73
    88
  0
VERTEX
  5
370
  8
0
 62
     9
 10
0.0
 20
0.0
 30
0.0
 70
   128
 71
    89
 72
    88
 73
   115
  0
VERTEX
  5
371
  8
0
 62
     9
 10
0.0
 20
0.0
 30
0.0
 70
   128
 71
    86
 72
    85
 73
   114
  0
VERTEX
  5
372
  8
0
 62
     9
 10
0.0
 20
0.0
 30
0.0
 70
   128
 71
    81
 72
    79
 73
   116
  0
VERTEX
  5
373
  8
0
 62
     9
 10
0.0
 20
0.0
 30
0.0
 70
   128
 71
   116
 72
   114
 73
    81
  0
VERTEX
  5
374
  8
0
 62
     9
 10
0.0
 20
0.0
 30
0.0
 70
   128
 71
    80
 72
    78
 73
   116
  0
VERTEX
  5
375
  8
0
 62
     9
 10
0.0
 20
0.0
 30
0.0
 70
   128
 71
    80
 72
   116
 73
    79
  0
VERTEX
  5
376
  8
0
 62
     9
 10
0.0
 20
0.0
 30
0.0
 70
   128
 71
    77
 72
    74
 73
   116
  0
VERTEX
  5
377
  8
0
 62
     9
 10
0.0
 20
0.0
 30
0.0
 70
   128
 71
    77
 72
   116
 73
    78
  0
VERTEX
  5
378
  8
0
 62
     9
 10
0.0
 20
0.0
 30
0.0
 70
   128
 71
   116
 72
    76
 73
   117
  0
VERTEX
  5
379
  8
0
 62
     9
 10
0.0
 20
0.0
 30
0.0
 70
   128
 71
    76
 72
   116
 73
    74
  0
VERTEX
  5
37A
  8
0
 62
     9
 10
0.0
 20
0.0
 30
0.0
 70
   128
 71
   117
 72
    75
 73
    73
  0
VERTEX
  5
37B
  8
0
 62
     9
 10
0.0
 20
0.0
 30
0.0
 70
   128
 71
    76
 72
    75
 73
   117
  0
VERTEX
  5
37C
  8
0
 62
     9
 10
0.0
 20
0.0
 30
0.0
 70
   128
 71
   117
 72
    72
 73
    71
  0
VERTEX
  5
37D
  8
0
 62
     9
 10
0.0
 20
0.0
 30
0.0
 70
   128
 71
    73
 72
    72
 73
   117
  0
VERTEX
  5
37E
  8
0
 62
     9
 10
0.0
 20
0.0
 30
0.0
 70
   128
 71
   118
 72
   117
 73
    70
  0
VERTEX
  5
37F
  8
0
 62
     9
 10
0.0
 20
0.0
 30
0.0
 70
   128
 71
    71
 72
    70
 73
   117
  0
VERTEX
  5
380
  8
0
 62
     9
 10
0.0
 20
0.0
 30
0.0
 70
   128
 71
    68
 72
   118
 73
    69
  0
VERTEX
  5
381
  8
0
 62
     9
 10
0.0
 20
0.0
 30
0.0
 70
   128
 71
   118
 72
    70
 73
    69
  0
VERTEX
  5
382
  8
0
 62
     9
 10
0.0
 20
0.0
 30
0.0
 70
   128
 71
    66
 72
   118
 73
    67
  0
VERTEX
  5
383
  8
0
 62
     9
 10
0.0
 20
0.0
 30
0.0
 70
   128
 71
   118
 72
    68
 73
    67
  0
VERTEX
  5
384
  8
0
 62
     9
 10
0.0
 20
0.0
 30
0.0
 70
   128
 71
    64
 72
   118
 73
    63
  0
VERTEX
  5
385
  8
0
 62
     9
 10
0.0
 20
0.0
 30
0.0
 70
   128
 71
   118
 72
    66
 73
    63
  0
VERTEX
  5
386
  8
0
 62
     9
 10
0.0
 20
0.0
 30
0.0
 70
   128
 71
    64
 72
    65
 73
   119
  0
VERTEX
  5
387
  8
0
 62
     9
 10
0.0
 20
0.0
 30
0.0
 70
   128
 71
   119
 72
   118
 73
    64
  0
VERTEX
  5
388
  8
0
 62
     9
 10
0.0
 20
0.0
 30
0.0
 70
   128
 71
    90
 72
    91
 73
   119
  0
VERTEX
  5
389
  8
0
 62
     9
 10
0.0
 20
0.0
 30
0.0
 70
   128
 71
    90
 72
   119
 73
    65
  0
VERTEX
  5
38A
  8
0
 62
     9
 10
0.0
 20
0.0
 30
0.0
 70
   128
 71
    92
 72
    93
 73
   119
  0
VERTEX
  5
38B
  8
0
 62
     9
 10
0.0
 20
0.0
 30
0.0
 70
   128
 71
    92
 72
   119
 73
    91
  0
VERTEX
  5
38C
  8
0
 62
     9
 10
0.0
 20
0.0
 30
0.0
 70
   128
 71
   120
 72
    93
 73
    94
  0
VERTEX
  5
38D
  8
0
 62
     9
 10
0.0
 20
0.0
 30
0.0
 70
   128
 71
    93
 72
   120
 73
   119
  0
VERTEX
  5
38E
  8
0
 62
     9
 10
0.0
 20
0.0
 30
0.0
 70
   128
 71
   120
 72
    95
 73
    96
  0
VERTEX
  5
38F
  8
0
 62
     9
 10
0.0
 20
0.0
 30
0.0
 70
   128
 71
    94
 72
    95
 73
   120
  0
VERTEX
  5
390
  8
0
 62
     9
 10
0.0
 20
0.0
 30
0.0
 70
   128
 71
   120
 72
    97
 73
    98
  0
VERTEX
  5
391
  8
0
 62
     9
 10
0.0
 20
0.0
 30
0.0
 70
   128
 71
    96
 72
    97
 73
   120
  0
VERTEX
  5
392
  8
0
 62
     9
 10
0.0
 20
0.0
 30
0.0
 70
   128
 71
   121
 72
   120
 73
    99
  0
VERTEX
  5
393
  8
0
 62
     9
 10
0.0
 20
0.0
 30
0.0
 70
   128
 71
    98
 72
    99
 73
   120
  0
VERTEX
  5
394
  8
0
 62
     9
 10
0.0
 20
0.0
 30
0.0
 70
   128
 71
   101
 72
   121
 73
   100
  0
VERTEX
  5
395
  8
0
 62
     9
 10
0.0
 20
0.0
 30
0.0
 70
   128
 71
   121
 72
    99
 73
   100
  0
VERTEX
  5
396
  8
0
 62
     9
 10
0.0
 20
0.0
 30
0.0
 70
   128
 71
   103
 72
   121
 73
   102
  0
VERTEX
  5
397
  8
0
 62
     9
 10
0.0
 20
0.0
 30
0.0
 70
   128
 71
   121
 72
   101
 73
   102
  0
VERTEX
  5
398
  8
0
 62
     9
 10
0.0
 20
0.0
 30
0.0
 70
   128
 71
   105
 72
   121
 73
   104
  0
VERTEX
  5
399
  8
0
 62
     9
 10
0.0
 20
0.0
 30
0.0
 70
   128
 71
   121
 72
   103
 73
   104
  0
VERTEX
  5
39A
  8
0
 62
     9
 10
0.0
 20
0.0
 30
0.0
 70
   128
 71
   105
 72
   106
 73
   122
  0
VERTEX
  5
39B
  8
0
 62
     9
 10
0.0
 20
0.0
 30
0.0
 70
   128
 71
   122
 72
   121
 73
   105
  0
VERTEX
  5
39C
  8
0
 62
     9
 10
0.0
 20
0.0
 30
0.0
 70
   128
 71
   107
 72
   108
 73
   122
  0
VERTEX
  5
39D
  8
0
 62
     9
 10
0.0
 20
0.0
 30
0.0
 70
   128
 71
   107
 72
   122
 73
   106
  0
VERTEX
  5
39E
  8
0
 62
     9
 10
0.0
 20
0.0
 30
0.0
 70
   128
 71
   109
 72
   110
 73
   122
  0
VERTEX
  5
39F
  8
0
 62
     9
 10
0.0
 20
0.0
 30
0.0
 70
   128
 71
   109
 72
   122
 73
   108
  0
VERTEX
  5
3A0
  8
0
 62
     9
 10
0.0
 20
0.0
 30
0.0
 70
   128
 71
   123
 72
   110
 73
   111
  0
VERTEX
  5
3A1
  8
0
 62
     9
 10
0.0
 20
0.0
 30
0.0
 70
   128
 71
   110
 72
   123
 73
   122
  0
VERTEX
  5
3A2
  8
0
 62
     9
 10
0.0
 20
0.0
 30
0.0
 70
   128
 71
   111
 72
   112
 73
   123
  0
VERTEX
  5
3A3
  8
0
 62
     9
 10
0.0
 20
0.0
 30
0.0
 70
   128
 71
   112
 72
   113
 73
   123
  0
VERTEX
  5
3A4
  8
0
 62
     9
 10
0.0
 20
0.0
 30
0.0
 70
   128
 71
   124
 72
   115
 73
   114
  0
VERTEX
  5
3A5
  8
0
 62
     9
 10
0.0
 20
0.0
 30
0.0
 70
   128
 71
   126
 72
   125
 73
   117
  0
VERTEX
  5
3A6
  8
0
 62
     9
 10
0.0
 20
0.0
 30
0.0
 70
   128
 71
   129
 72
   128
 73
   127
  0
VERTEX
  5
3A7
  8
0
 62
     9
 10
0.0
 20
0.0
 30
0.0
 70
   128
 71
   115
 72
   130
 73
   127
  0
VERTEX
  5
3A8
  8
0
 62
     9
 10
0.0
 20
0.0
 30
0.0
 70
   128
 71
   129
 72
   127
 73
   130
  0
VERTEX
  5
3A9
  8
0
 62
     9
 10
0.0
 20
0.0
 30
0.0
 70
   128
 71
   131
 72
   124
 73
   114
  0
VERTEX
  5
3AA
  8
0
 62
     9
 10
0.0
 20
0.0
 30
0.0
 70
   128
 71
   124
 72
   130
 73
   115
  0
VERTEX
  5
3AB
  8
0
 62
     9
 10
0.0
 20
0.0
 30
0.0
 70
   128
 71
   114
 72
   116
 73
   131
  0
VERTEX
  5
3AC
  8
0
 62
     9
 10
0.0
 20
0.0
 30
0.0
 70
   128
 71
   117
 72
   125
 73
   116
  0
VERTEX
  5
3AD
  8
0
 62
     9
 10
0.0
 20
0.0
 30
0.0
 70
   128
 71
   131
 72
   116
 73
   125
  0
VERTEX
  5
3AE
  8
0
 62
     9
 10
0.0
 20
0.0
 30
0.0
 70
   128
 71
   126
 72
   117
 73
   118
  0
VERTEX
  5
3AF
  8
0
 62
     9
 10
0.0
 20
0.0
 30
0.0
 70
   128
 71
   118
 72
   119
 73
   123
  0
VERTEX
  5
3B0
  8
0
 62
     9
 10
0.0
 20
0.0
 30
0.0
 70
   128
 71
   123
 72
   126
 73
   118
  0
VERTEX
  5
3B1
  8
0
 62
     9
 10
0.0
 20
0.0
 30
0.0
 70
   128
 71
   120
 72
   122
 73
   119
  0
VERTEX
  5
3B2
  8
0
 62
     9
 10
0.0
 20
0.0
 30
0.0
 70
   128
 71
   122
 72
   123
 73
   119
  0
VERTEX
  5
3B3
  8
0
 62
     9
 10
0.0
 20
0.0
 30
0.0
 70
   128
 71
   121
 72
   122
 73
   120
  0
VERTEX
  5
3B4
  8
0
 62
     9
 10
0.0
 20
0.0
 30
0.0
 70
   128
 71
   127
 72
   133
 73
   132
  0
VERTEX
  5
3B5
  8
0
 62
     9
 10
0.0
 20
0.0
 30
0.0
 70
   128
 71
   135
 72
   129
 73
   134
  0
VERTEX
  5
3B6
  8
0
 62
     9
 10
0.0
 20
0.0
 30
0.0
 70
   128
 71
   137
 72
   125
 73
   136
  0
VERTEX
  5
3B7
  8
0
 62
     9
 10
0.0
 20
0.0
 30
0.0
 70
   128
 71
   124
 72
   139
 73
   138
  0
VERTEX
  5
3B8
  8
0
 62
     9
 10
0.0
 20
0.0
 30
0.0
 70
   128
 71
   141
 72
   140
 73
   126
  0
VERTEX
  5
3B9
  8
0
 62
     9
 10
0.0
 20
0.0
 30
0.0
 70
   128
 71
   126
 72
   140
 73
   142
  0
VERTEX
  5
3BA
  8
0
 62
     9
 10
0.0
 20
0.0
 30
0.0
 70
   128
 71
   123
 72
   143
 73
   141
  0
VERTEX
  5
3BB
  8
0
 62
     9
 10
0.0
 20
0.0
 30
0.0
 70
   128
 71
   141
 72
   126
 73
   123
  0
VERTEX
  5
3BC
  8
0
 62
     9
 10
0.0
 20
0.0
 30
0.0
 70
   128
 71
   144
 72
   126
 73
   142
  0
VERTEX
  5
3BD
  8
0
 62
     9
 10
0.0
 20
0.0
 30
0.0
 70
   128
 71
   123
 72
   113
 73
   143
  0
VERTEX
  5
3BE
  8
0
 62
     9
 10
0.0
 20
0.0
 30
0.0
 70
   128
 71
   145
 72
   126
 73
   144
  0
VERTEX
  5
3BF
  8
0
 62
     9
 10
0.0
 20
0.0
 30
0.0
 70
   128
 71
   147
 72
   146
 73
   126
  0
VERTEX
  5
3C0
  8
0
 62
     9
 10
0.0
 20
0.0
 30
0.0
 70
   128
 71
   147
 72
   126
 73
   145
  0
VERTEX
  5
3C1
  8
0
 62
     9
 10
0.0
 20
0.0
 30
0.0
 70
   128
 71
   146
 72
   125
 73
   126
  0
VERTEX
  5
3C2
  8
0
 62
     9
 10
0.0
 20
0.0
 30
0.0
 70
   128
 71
   148
 72
   136
 73
   125
  0
VERTEX
  5
3C3
  8
0
 62
     9
 10
0.0
 20
0.0
 30
0.0
 70
   128
 71
   146
 72
   148
 73
   125
  0
VERTEX
  5
3C4
  8
0
 62
     9
 10
0.0
 20
0.0
 30
0.0
 70
   128
 71
   150
 72
   125
 73
   149
  0
VERTEX
  5
3C5
  8
0
 62
     9
 10
0.0
 20
0.0
 30
0.0
 70
   128
 71
   149
 72
   125
 73
   137
  0
VERTEX
  5
3C6
  8
0
 62
     9
 10
0.0
 20
0.0
 30
0.0
 70
   128
 71
   150
 72
   151
 73
   131
  0
VERTEX
  5
3C7
  8
0
 62
     9
 10
0.0
 20
0.0
 30
0.0
 70
   128
 71
   150
 72
   131
 73
   125
  0
VERTEX
  5
3C8
  8
0
 62
     9
 10
0.0
 20
0.0
 30
0.0
 70
   128
 71
   131
 72
   153
 73
   152
  0
VERTEX
  5
3C9
  8
0
 62
     9
 10
0.0
 20
0.0
 30
0.0
 70
   128
 71
   151
 72
   153
 73
   131
  0
VERTEX
  5
3CA
  8
0
 62
     9
 10
0.0
 20
0.0
 30
0.0
 70
   128
 71
   154
 72
   139
 73
   131
  0
VERTEX
  5
3CB
  8
0
 62
     9
 10
0.0
 20
0.0
 30
0.0
 70
   128
 71
   152
 72
   154
 73
   131
  0
VERTEX
  5
3CC
  8
0
 62
     9
 10
0.0
 20
0.0
 30
0.0
 70
   128
 71
   156
 72
   124
 73
   155
  0
VERTEX
  5
3CD
  8
0
 62
     9
 10
0.0
 20
0.0
 30
0.0
 70
   128
 71
   155
 72
   124
 73
   138
  0
VERTEX
  5
3CE
  8
0
 62
     9
 10
0.0
 20
0.0
 30
0.0
 70
   128
 71
   131
 72
   139
 73
   124
  0
VERTEX
  5
3CF
  8
0
 62
     9
 10
0.0
 20
0.0
 30
0.0
 70
   128
 71
   156
 72
   157
 73
   124
  0
VERTEX
  5
3D0
  8
0
 62
     9
 10
0.0
 20
0.0
 30
0.0
 70
   128
 71
   157
 72
   158
 73
   124
  0
VERTEX
  5
3D1
  8
0
 62
     9
 10
0.0
 20
0.0
 30
0.0
 70
   128
 71
   130
 72
   160
 73
   159
  0
VERTEX
  5
3D2
  8
0
 62
     9
 10
0.0
 20
0.0
 30
0.0
 70
   128
 71
   124
 72
   161
 73
   130
  0
VERTEX
  5
3D3
  8
0
 62
     9
 10
0.0
 20
0.0
 30
0.0
 70
   128
 71
   158
 72
   161
 73
   124
  0
VERTEX
  5
3D4
  8
0
 62
     9
 10
0.0
 20
0.0
 30
0.0
 70
   128
 71
   163
 72
   130
 73
   162
  0
VERTEX
  5
3D5
  8
0
 62
     9
 10
0.0
 20
0.0
 30
0.0
 70
   128
 71
   130
 72
   161
 73
   162
  0
VERTEX
  5
3D6
  8
0
 62
     9
 10
0.0
 20
0.0
 30
0.0
 70
   128
 71
   130
 72
   163
 73
   160
  0
VERTEX
  5
3D7
  8
0
 62
     9
 10
0.0
 20
0.0
 30
0.0
 70
   128
 71
   130
 72
   159
 73
   164
  0
VERTEX
  5
3D8
  8
0
 62
     9
 10
0.0
 20
0.0
 30
0.0
 70
   128
 71
   134
 72
   129
 73
   164
  0
VERTEX
  5
3D9
  8
0
 62
     9
 10
0.0
 20
0.0
 30
0.0
 70
   128
 71
   129
 72
   130
 73
   164
  0
VERTEX
  5
3DA
  8
0
 62
     9
 10
0.0
 20
0.0
 30
0.0
 70
   128
 71
   166
 72
   129
 73
   165
  0
VERTEX
  5
3DB
  8
0
 62
     9
 10
0.0
 20
0.0
 30
0.0
 70
   128
 71
   129
 72
   135
 73
   165
  0
VERTEX
  5
3DC
  8
0
 62
     9
 10
0.0
 20
0.0
 30
0.0
 70
   128
 71
   129
 72
   168
 73
   167
  0
VERTEX
  5
3DD
  8
0
 62
     9
 10
0.0
 20
0.0
 30
0.0
 70
   128
 71
   129
 72
   166
 73
   168
  0
VERTEX
  5
3DE
  8
0
 62
     9
 10
0.0
 20
0.0
 30
0.0
 70
   128
 71
   170
 72
   169
 73
   128
  0
VERTEX
  5
3DF
  8
0
 62
     9
 10
0.0
 20
0.0
 30
0.0
 70
   128
 71
   171
 72
   128
 73
   167
  0
VERTEX
  5
3E0
  8
0
 62
     9
 10
0.0
 20
0.0
 30
0.0
 70
   128
 71
   128
 72
   129
 73
   167
  0
VERTEX
  5
3E1
  8
0
 62
     9
 10
0.0
 20
0.0
 30
0.0
 70
   128
 71
   170
 72
   128
 73
   172
  0
VERTEX
  5
3E2
  8
0
 62
     9
 10
0.0
 20
0.0
 30
0.0
 70
   128
 71
   172
 72
   128
 73
   171
  0
VERTEX
  5
3E3
  8
0
 62
     9
 10
0.0
 20
0.0
 30
0.0
 70
   128
 71
   173
 72
   115
 73
   127
  0
VERTEX
  5
3E4
  8
0
 62
     9
 10
0.0
 20
0.0
 30
0.0
 70
   128
 71
   174
 72
   128
 73
   169
  0
VERTEX
  5
3E5
  8
0
 62
     9
 10
0.0
 20
0.0
 30
0.0
 70
   128
 71
   174
 72
   127
 73
   128
  0
VERTEX
  5
3E6
  8
0
 62
     9
 10
0.0
 20
0.0
 30
0.0
 70
   128
 71
   176
 72
   175
 73
   127
  0
VERTEX
  5
3E7
  8
0
 62
     9
 10
0.0
 20
0.0
 30
0.0
 70
   128
 71
   174
 72
   176
 73
   127
  0
VERTEX
  5
3E8
  8
0
 62
     9
 10
0.0
 20
0.0
 30
0.0
 70
   128
 71
   127
 72
   132
 73
   173
  0
VERTEX
  5
3E9
  8
0
 62
     9
 10
0.0
 20
0.0
 30
0.0
 70
   128
 71
   175
 72
   133
 73
   127
  0
VERTEX
  5
3EA
  8
0
 62
     9
 10
0.0
 20
0.0
 30
0.0
 70
   128
 71
   173
 72
   177
 73
   115
  0
VERTEX
  5
3EB
  8
0
 62
     9
 10
0.0
 20
0.0
 30
0.0
 70
   128
 71
   115
 72
   178
 73
    89
  0
VERTEX
  5
3EC
  8
0
 62
     9
 10
0.0
 20
0.0
 30
0.0
 70
   128
 71
   177
 72
   178
 73
   115
  0
VERTEX
  5
3ED
  8
0
 62
     9
 10
0.0
 20
0.0
 30
0.0
 70
   128
 71
    89
 72
   178
 73
   179
  0
VERTEX
  5
3EE
  8
0
 62
     9
 10
0.0
 20
0.0
 30
0.0
 70
   128
 71
   181
 72
   180
 73
   177
  0
VERTEX
  5
3EF
  8
0
 62
     9
 10
0.0
 20
0.0
 30
0.0
 70
   128
 71
   175
 72
   182
 73
   133
  0
VERTEX
  5
3F0
  8
0
 62
     9
 10
0.0
 20
0.0
 30
0.0
 70
   128
 71
   183
 72
   173
 73
   132
  0
VERTEX
  5
3F1
  8
0
 62
     9
 10
0.0
 20
0.0
 30
0.0
 70
   128
 71
   185
 72
   169
 73
   184
  0
VERTEX
  5
3F2
  8
0
 62
     9
 10
0.0
 20
0.0
 30
0.0
 70
   128
 71
   176
 72
   174
 73
   186
  0
VERTEX
  5
3F3
  8
0
 62
     9
 10
0.0
 20
0.0
 30
0.0
 70
   128
 71
   167
 72
   187
 73
   171
  0
VERTEX
  5
3F4
  8
0
 62
     9
 10
0.0
 20
0.0
 30
0.0
 70
   128
 71
   189
 72
   188
 73
   172
  0
VERTEX
  5
3F5
  8
0
 62
     9
 10
0.0
 20
0.0
 30
0.0
 70
   128
 71
   165
 72
   135
 73
   190
  0
VERTEX
  5
3F6
  8
0
 62
     9
 10
0.0
 20
0.0
 30
0.0
 70
   128
 71
   168
 72
   166
 73
   191
  0
VERTEX
  5
3F7
  8
0
 62
     9
 10
0.0
 20
0.0
 30
0.0
 70
   128
 71
   193
 72
   192
 73
   159
  0
VERTEX
  5
3F8
  8
0
 62
     9
 10
0.0
 20
0.0
 30
0.0
 70
   128
 71
   195
 72
   194
 73
   134
  0
VERTEX
  5
3F9
  8
0
 62
     9
 10
0.0
 20
0.0
 30
0.0
 70
   128
 71
   162
 72
   161
 73
   196
  0
VERTEX
  5
3FA
  8
0
 62
     9
 10
0.0
 20
0.0
 30
0.0
 70
   128
 71
   160
 72
   163
 73
   197
  0
VERTEX
  5
3FB
  8
0
 62
     9
 10
0.0
 20
0.0
 30
0.0
 70
   128
 71
   157
 72
   199
 73
   198
  0
VERTEX
  5
3FC
  8
0
 62
     9
 10
0.0
 20
0.0
 30
0.0
 70
   128
 71
   158
 72
   200
 73
   161
  0
VERTEX
  5
3FD
  8
0
 62
     9
 10
0.0
 20
0.0
 30
0.0
 70
   128
 71
   202
 72
   201
 73
   138
  0
VERTEX
  5
3FE
  8
0
 62
     9
 10
0.0
 20
0.0
 30
0.0
 70
   128
 71
   203
 72
   156
 73
   155
  0
VERTEX
  5
3FF
  8
0
 62
     9
 10
0.0
 20
0.0
 30
0.0
 70
   128
 71
   204
 72
   154
 73
   152
  0
VERTEX
  5
400
  8
0
 62
     9
 10
0.0
 20
0.0
 30
0.0
 70
   128
 71
   202
 72
   139
 73
   205
  0
VERTEX
  5
401
  8
0
 62
     9
 10
0.0
 20
0.0
 30
0.0
 70
   128
 71
   207
 72
   151
 73
   206
  0
VERTEX
  5
402
  8
0
 62
     9
 10
0.0
 20
0.0
 30
0.0
 70
   128
 71
   152
 72
   153
 73
   208
  0
VERTEX
  5
403
  8
0
 62
     9
 10
0.0
 20
0.0
 30
0.0
 70
   128
 71
   209
 72
   150
 73
   149
  0
VERTEX
  5
404
  8
0
 62
     9
 10
0.0
 20
0.0
 30
0.0
 70
   128
 71
   150
 72
   210
 73
   206
  0
VERTEX
  5
405
  8
0
 62
     9
 10
0.0
 20
0.0
 30
0.0
 70
   128
 71
   212
 72
   211
 73
   137
  0
VERTEX
  5
406
  8
0
 62
     9
 10
0.0
 20
0.0
 30
0.0
 70
   128
 71
   149
 72
   137
 73
   211
  0
VERTEX
  5
407
  8
0
 62
     9
 10
0.0
 20
0.0
 30
0.0
 70
   128
 71
   136
 72
   213
 73
   212
  0
VERTEX
  5
408
  8
0
 62
     9
 10
0.0
 20
0.0
 30
0.0
 70
   128
 71
   212
 72
   137
 73
   136
  0
VERTEX
  5
409
  8
0
 62
     9
 10
0.0
 20
0.0
 30
0.0
 70
   128
 71
   213
 72
   148
 73
   214
  0
VERTEX
  5
40A
  8
0
 62
     9
 10
0.0
 20
0.0
 30
0.0
 70
   128
 71
   148
 72
   213
 73
   136
  0
VERTEX
  5
40B
  8
0
 62
     9
 10
0.0
 20
0.0
 30
0.0
 70
   128
 71
   215
 72
   214
 73
   146
  0
VERTEX
  5
40C
  8
0
 62
     9
 10
0.0
 20
0.0
 30
0.0
 70
   128
 71
   148
 72
   146
 73
   214
  0
VERTEX
  5
40D
  8
0
 62
     9
 10
0.0
 20
0.0
 30
0.0
 70
   128
 71
   147
 72
   216
 73
   215
  0
VERTEX
  5
40E
  8
0
 62
     9
 10
0.0
 20
0.0
 30
0.0
 70
   128
 71
   215
 72
   146
 73
   147
  0
VERTEX
  5
40F
  8
0
 62
     9
 10
0.0
 20
0.0
 30
0.0
 70
   128
 71
   216
 72
   145
 73
   217
  0
VERTEX
  5
410
  8
0
 62
     9
 10
0.0
 20
0.0
 30
0.0
 70
   128
 71
   145
 72
   216
 73
   147
  0
VERTEX
  5
411
  8
0
 62
     9
 10
0.0
 20
0.0
 30
0.0
 70
   128
 71
   218
 72
   217
 73
   144
  0
VERTEX
  5
412
  8
0
 62
     9
 10
0.0
 20
0.0
 30
0.0
 70
   128
 71
   145
 72
   144
 73
   217
  0
VERTEX
  5
413
  8
0
 62
     9
 10
0.0
 20
0.0
 30
0.0
 70
   128
 71
   142
 72
   219
 73
   218
  0
VERTEX
  5
414
  8
0
 62
     9
 10
0.0
 20
0.0
 30
0.0
 70
   128
 71
   218
 72
   144
 73
   142
  0
VERTEX
  5
415
  8
0
 62
     9
 10
0.0
 20
0.0
 30
0.0
 70
   128
 71
   219
 72
   140
 73
   220
  0
VERTEX
  5
416
  8
0
 62
     9
 10
0.0
 20
0.0
 30
0.0
 70
   128
 71
   140
 72
   219
 73
   142
  0
VERTEX
  5
417
  8
0
 62
     9
 10
0.0
 20
0.0
 30
0.0
 70
   128
 71
   221
 72
   220
 73
   141
  0
VERTEX
  5
418
  8
0
 62
     9
 10
0.0
 20
0.0
 30
0.0
 70
   128
 71
   140
 72
   141
 73
   220
  0
VERTEX
  5
419
  8
0
 62
     9
 10
0.0
 20
0.0
 30
0.0
 70
   128
 71
   143
 72
   222
 73
   221
  0
VERTEX
  5
41A
  8
0
 62
     9
 10
0.0
 20
0.0
 30
0.0
 70
   128
 71
   221
 72
   141
 73
   143
  0
VERTEX
  5
41B
  8
0
 62
     9
 10
0.0
 20
0.0
 30
0.0
 70
   128
 71
   222
 72
   113
 73
    62
  0
VERTEX
  5
41C
  8
0
 62
     9
 10
0.0
 20
0.0
 30
0.0
 70
   128
 71
   113
 72
   222
 73
   143
  0
VERTEX
  5
41D
  8
0
 62
     9
 10
0.0
 20
0.0
 30
0.0
 70
   128
 71
   149
 72
   211
 73
   209
  0
VERTEX
  5
41E
  8
0
 62
     9
 10
0.0
 20
0.0
 30
0.0
 70
   128
 71
   202
 72
   138
 73
   139
  0
VERTEX
  5
41F
  8
0
 62
     9
 10
0.0
 20
0.0
 30
0.0
 70
   128
 71
   210
 72
   150
 73
   209
  0
VERTEX
  5
420
  8
0
 62
     9
 10
0.0
 20
0.0
 30
0.0
 70
   128
 71
   151
 72
   150
 73
   206
  0
VERTEX
  5
421
  8
0
 62
     9
 10
0.0
 20
0.0
 30
0.0
 70
   128
 71
   207
 72
   208
 73
   153
  0
VERTEX
  5
422
  8
0
 62
     9
 10
0.0
 20
0.0
 30
0.0
 70
   128
 71
   207
 72
   153
 73
   151
  0
VERTEX
  5
423
  8
0
 62
     9
 10
0.0
 20
0.0
 30
0.0
 70
   128
 71
   198
 72
   200
 73
   158
  0
VERTEX
  5
424
  8
0
 62
     9
 10
0.0
 20
0.0
 30
0.0
 70
   128
 71
   204
 72
   205
 73
   154
  0
VERTEX
  5
425
  8
0
 62
     9
 10
0.0
 20
0.0
 30
0.0
 70
   128
 71
   208
 72
   204
 73
   152
  0
VERTEX
  5
426
  8
0
 62
     9
 10
0.0
 20
0.0
 30
0.0
 70
   128
 71
   154
 72
   205
 73
   139
  0
VERTEX
  5
427
  8
0
 62
     9
 10
0.0
 20
0.0
 30
0.0
 70
   128
 71
   203
 72
   155
 73
   201
  0
VERTEX
  5
428
  8
0
 62
     9
 10
0.0
 20
0.0
 30
0.0
 70
   128
 71
   138
 72
   201
 73
   155
  0
VERTEX
  5
429
  8
0
 62
     9
 10
0.0
 20
0.0
 30
0.0
 70
   128
 71
   203
 72
   199
 73
   156
  0
VERTEX
  5
42A
  8
0
 62
     9
 10
0.0
 20
0.0
 30
0.0
 70
   128
 71
   157
 72
   198
 73
   158
  0
VERTEX
  5
42B
  8
0
 62
     9
 10
0.0
 20
0.0
 30
0.0
 70
   128
 71
   157
 72
   156
 73
   199
  0
VERTEX
  5
42C
  8
0
 62
     9
 10
0.0
 20
0.0
 30
0.0
 70
   128
 71
   196
 72
   161
 73
   223
  0
VERTEX
  5
42D
  8
0
 62
     9
 10
0.0
 20
0.0
 30
0.0
 70
   128
 71
   223
 72
   161
 73
   200
  0
VERTEX
  5
42E
  8
0
 62
     9
 10
0.0
 20
0.0
 30
0.0
 70
   128
 71
   224
 72
   163
 73
   162
  0
VERTEX
  5
42F
  8
0
 62
     9
 10
0.0
 20
0.0
 30
0.0
 70
   128
 71
   224
 72
   162
 73
   196
  0
VERTEX
  5
430
  8
0
 62
     9
 10
0.0
 20
0.0
 30
0.0
 70
   128
 71
   193
 72
   160
 73
   197
  0
VERTEX
  5
431
  8
0
 62
     9
 10
0.0
 20
0.0
 30
0.0
 70
   128
 71
   224
 72
   197
 73
   163
  0
VERTEX
  5
432
  8
0
 62
     9
 10
0.0
 20
0.0
 30
0.0
 70
   128
 71
   159
 72
   192
 73
   164
  0
VERTEX
  5
433
  8
0
 62
     9
 10
0.0
 20
0.0
 30
0.0
 70
   128
 71
   160
 72
   193
 73
   159
  0
VERTEX
  5
434
  8
0
 62
     9
 10
0.0
 20
0.0
 30
0.0
 70
   128
 71
   164
 72
   192
 73
   195
  0
VERTEX
  5
435
  8
0
 62
     9
 10
0.0
 20
0.0
 30
0.0
 70
   128
 71
   182
 72
   175
 73
   225
  0
VERTEX
  5
436
  8
0
 62
     9
 10
0.0
 20
0.0
 30
0.0
 70
   128
 71
   135
 72
   134
 73
   194
  0
VERTEX
  5
437
  8
0
 62
     9
 10
0.0
 20
0.0
 30
0.0
 70
   128
 71
   134
 72
   164
 73
   195
  0
VERTEX
  5
438
  8
0
 62
     9
 10
0.0
 20
0.0
 30
0.0
 70
   128
 71
   165
 72
   190
 73
   226
  0
VERTEX
  5
439
  8
0
 62
     9
 10
0.0
 20
0.0
 30
0.0
 70
   128
 71
   190
 72
   135
 73
   194
  0
VERTEX
  5
43A
  8
0
 62
     9
 10
0.0
 20
0.0
 30
0.0
 70
   128
 71
   226
 72
   166
 73
   165
  0
VERTEX
  5
43B
  8
0
 62
     9
 10
0.0
 20
0.0
 30
0.0
 70
   128
 71
   169
 72
   185
 73
   174
  0
VERTEX
  5
43C
  8
0
 62
     9
 10
0.0
 20
0.0
 30
0.0
 70
   128
 71
   191
 72
   227
 73
   168
  0
VERTEX
  5
43D
  8
0
 62
     9
 10
0.0
 20
0.0
 30
0.0
 70
   128
 71
   226
 72
   191
 73
   166
  0
VERTEX
  5
43E
  8
0
 62
     9
 10
0.0
 20
0.0
 30
0.0
 70
   128
 71
   189
 72
   172
 73
   171
  0
VERTEX
  5
43F
  8
0
 62
     9
 10
0.0
 20
0.0
 30
0.0
 70
   128
 71
   168
 72
   227
 73
   167
  0
VERTEX
  5
440
  8
0
 62
     9
 10
0.0
 20
0.0
 30
0.0
 70
   128
 71
   171
 72
   187
 73
   228
  0
VERTEX
  5
441
  8
0
 62
     9
 10
0.0
 20
0.0
 30
0.0
 70
   128
 71
   167
 72
   227
 73
   187
  0
VERTEX
  5
442
  8
0
 62
     9
 10
0.0
 20
0.0
 30
0.0
 70
   128
 71
   171
 72
   228
 73
   189
  0
VERTEX
  5
443
  8
0
 62
     9
 10
0.0
 20
0.0
 30
0.0
 70
   128
 71
   188
 72
   170
 73
   172
  0
VERTEX
  5
444
  8
0
 62
     9
 10
0.0
 20
0.0
 30
0.0
 70
   128
 71
   184
 72
   169
 73
   170
  0
VERTEX
  5
445
  8
0
 62
     9
 10
0.0
 20
0.0
 30
0.0
 70
   128
 71
   184
 72
   170
 73
   188
  0
VERTEX
  5
446
  8
0
 62
     9
 10
0.0
 20
0.0
 30
0.0
 70
   128
 71
   185
 72
   186
 73
   174
  0
VERTEX
  5
447
  8
0
 62
     9
 10
0.0
 20
0.0
 30
0.0
 70
   128
 71
   186
 72
   225
 73
   176
  0
VERTEX
  5
448
  8
0
 62
     9
 10
0.0
 20
0.0
 30
0.0
 70
   128
 71
   176
 72
   225
 73
   175
  0
VERTEX
  5
449
  8
0
 62
     9
 10
0.0
 20
0.0
 30
0.0
 70
   128
 71
   177
 72
   173
 73
   181
  0
VERTEX
  5
44A
  8
0
 62
     9
 10
0.0
 20
0.0
 30
0.0
 70
   128
 71
   133
 72
   182
 73
   229
  0
VERTEX
  5
44B
  8
0
 62
     9
 10
0.0
 20
0.0
 30
0.0
 70
   128
 71
   132
 72
   133
 73
   229
  0
VERTEX
  5
44C
  8
0
 62
     9
 10
0.0
 20
0.0
 30
0.0
 70
   128
 71
   173
 72
   183
 73
   181
  0
VERTEX
  5
44D
  8
0
 62
     9
 10
0.0
 20
0.0
 30
0.0
 70
   128
 71
   183
 72
   132
 73
   229
  0
VERTEX
  5
44E
  8
0
 62
     9
 10
0.0
 20
0.0
 30
0.0
 70
   128
 71
    50
 72
    89
 73
   179
  0
VERTEX
  5
44F
  8
0
 62
     9
 10
0.0
 20
0.0
 30
0.0
 70
   128
 71
   180
 72
   178
 73
   177
  0
VERTEX
  5
450
  8
0
 62
     9
 10
0.0
 20
0.0
 30
0.0
 70
   128
 71
   180
 72
   179
 73
   178
  0
VERTEX
  5
451
  8
0
 62
     9
 10
0.0
 20
0.0
 30
0.0
 70
   128
 71
    48
 72
    50
 73
   179
  0
VERTEX
  5
452
  8
0
 62
     9
 10
0.0
 20
0.0
 30
0.0
 70
   128
 71
   181
 72
   230
 73
   180
  0
VERTEX
  5
453
  8
0
 62
     9
 10
0.0
 20
0.0
 30
0.0
 70
   128
 71
   179
 72
   180
 73
    48
  0
VERTEX
  5
454
  8
0
 62
     9
 10
0.0
 20
0.0
 30
0.0
 70
   128
 71
   230
 72
   229
 73
   182
  0
VERTEX
  5
455
  8
0
 62
     9
 10
0.0
 20
0.0
 30
0.0
 70
   128
 71
   230
 72
   181
 73
   183
  0
VERTEX
  5
456
  8
0
 62
     9
 10
0.0
 20
0.0
 30
0.0
 70
   128
 71
   231
 72
   225
 73
   186
  0
VERTEX
  5
457
  8
0
 62
     9
 10
0.0
 20
0.0
 30
0.0
 70
   128
 71
   230
 72
   182
 73
   231
  0
VERTEX
  5
458
  8
0
 62
     9
 10
0.0
 20
0.0
 30
0.0
 70
   128
 71
   184
 72
   188
 73
   231
  0
VERTEX
  5
459
  8
0
 62
     9
 10
0.0
 20
0.0
 30
0.0
 70
   128
 71
   184
 72
   231
 73
   185
  0
VERTEX
  5
45A
  8
0
 62
     9
 10
0.0
 20
0.0
 30
0.0
 70
   128
 71
   189
 72
   228
 73
   232
  0
VERTEX
  5
45B
  8
0
 62
     9
 10
0.0
 20
0.0
 30
0.0
 70
   128
 71
   189
 72
   232
 73
   188
  0
VERTEX
  5
45C
  8
0
 62
     9
 10
0.0
 20
0.0
 30
0.0
 70
   128
 71
   191
 72
   233
 73
   227
  0
VERTEX
  5
45D
  8
0
 62
     9
 10
0.0
 20
0.0
 30
0.0
 70
   128
 71
   232
 72
   187
 73
   227
  0
VERTEX
  5
45E
  8
0
 62
     9
 10
0.0
 20
0.0
 30
0.0
 70
   128
 71
   233
 72
   190
 73
   194
  0
VERTEX
  5
45F
  8
0
 62
     9
 10
0.0
 20
0.0
 30
0.0
 70
   128
 71
   233
 72
   191
 73
   226
  0
VERTEX
  5
460
  8
0
 62
     9
 10
0.0
 20
0.0
 30
0.0
 70
   128
 71
   195
 72
   234
 73
   194
  0
VERTEX
  5
461
  8
0
 62
     9
 10
0.0
 20
0.0
 30
0.0
 70
   128
 71
   233
 72
   194
 73
   234
  0
VERTEX
  5
462
  8
0
 62
     9
 10
0.0
 20
0.0
 30
0.0
 70
   128
 71
   234
 72
   193
 73
   197
  0
VERTEX
  5
463
  8
0
 62
     9
 10
0.0
 20
0.0
 30
0.0
 70
   128
 71
   192
 72
   193
 73
   234
  0
VERTEX
  5
464
  8
0
 62
     9
 10
0.0
 20
0.0
 30
0.0
 70
   128
 71
   235
 72
   224
 73
   196
  0
VERTEX
  5
465
  8
0
 62
     9
 10
0.0
 20
0.0
 30
0.0
 70
   128
 71
   224
 72
   235
 73
   234
  0
VERTEX
  5
466
  8
0
 62
     9
 10
0.0
 20
0.0
 30
0.0
 70
   128
 71
   200
 72
   198
 73
   235
  0
VERTEX
  5
467
  8
0
 62
     9
 10
0.0
 20
0.0
 30
0.0
 70
   128
 71
   196
 72
   223
 73
   235
  0
VERTEX
  5
468
  8
0
 62
     9
 10
0.0
 20
0.0
 30
0.0
 70
   128
 71
   236
 72
   198
 73
   199
  0
VERTEX
  5
469
  8
0
 62
     9
 10
0.0
 20
0.0
 30
0.0
 70
   128
 71
   198
 72
   236
 73
   235
  0
VERTEX
  5
46A
  8
0
 62
     9
 10
0.0
 20
0.0
 30
0.0
 70
   128
 71
   201
 72
   202
 73
   236
  0
VERTEX
  5
46B
  8
0
 62
     9
 10
0.0
 20
0.0
 30
0.0
 70
   128
 71
   199
 72
   203
 73
   236
  0
VERTEX
  5
46C
  8
0
 62
     9
 10
0.0
 20
0.0
 30
0.0
 70
   128
 71
   236
 72
   205
 73
   237
  0
VERTEX
  5
46D
  8
0
 62
     9
 10
0.0
 20
0.0
 30
0.0
 70
   128
 71
   205
 72
   236
 73
   202
  0
VERTEX
  5
46E
  8
0
 62
     9
 10
0.0
 20
0.0
 30
0.0
 70
   128
 71
   237
 72
   204
 73
   208
  0
VERTEX
  5
46F
  8
0
 62
     9
 10
0.0
 20
0.0
 30
0.0
 70
   128
 71
   205
 72
   204
 73
   237
  0
VERTEX
  5
470
  8
0
 62
     9
 10
0.0
 20
0.0
 30
0.0
 70
   128
 71
   237
 72
   207
 73
   206
  0
VERTEX
  5
471
  8
0
 62
     9
 10
0.0
 20
0.0
 30
0.0
 70
   128
 71
   208
 72
   207
 73
   237
  0
VERTEX
  5
472
  8
0
 62
     9
 10
0.0
 20
0.0
 30
0.0
 70
   128
 71
   210
 72
   238
 73
   206
  0
VERTEX
  5
473
  8
0
 62
     9
 10
0.0
 20
0.0
 30
0.0
 70
   128
 71
   237
 72
   206
 73
   238
  0
VERTEX
  5
474
  8
0
 62
     9
 10
0.0
 20
0.0
 30
0.0
 70
   128
 71
   211
 72
   238
 73
   209
  0
VERTEX
  5
475
  8
0
 62
     9
 10
0.0
 20
0.0
 30
0.0
 70
   128
 71
   238
 72
   210
 73
   209
  0
VERTEX
  5
476
  8
0
 62
     9
 10
0.0
 20
0.0
 30
0.0
 70
   128
 71
   212
 72
   239
 73
   238
  0
VERTEX
  5
477
  8
0
 62
     9
 10
0.0
 20
0.0
 30
0.0
 70
   128
 71
   238
 72
   211
 73
   212
  0
VERTEX
  5
478
  8
0
 62
     9
 10
0.0
 20
0.0
 30
0.0
 70
   128
 71
   213
 72
   214
 73
   239
  0
VERTEX
  5
479
  8
0
 62
     9
 10
0.0
 20
0.0
 30
0.0
 70
   128
 71
   213
 72
   239
 73
   212
  0
VERTEX
  5
47A
  8
0
 62
     9
 10
0.0
 20
0.0
 30
0.0
 70
   128
 71
   215
 72
   216
 73
   239
  0
VERTEX
  5
47B
  8
0
 62
     9
 10
0.0
 20
0.0
 30
0.0
 70
   128
 71
   215
 72
   239
 73
   214
  0
VERTEX
  5
47C
  8
0
 62
     9
 10
0.0
 20
0.0
 30
0.0
 70
   128
 71
   239
 72
   217
 73
   240
  0
VERTEX
  5
47D
  8
0
 62
     9
 10
0.0
 20
0.0
 30
0.0
 70
   128
 71
   217
 72
   239
 73
   216
  0
VERTEX
  5
47E
  8
0
 62
     9
 10
0.0
 20
0.0
 30
0.0
 70
   128
 71
   240
 72
   218
 73
   219
  0
VERTEX
  5
47F
  8
0
 62
     9
 10
0.0
 20
0.0
 30
0.0
 70
   128
 71
   217
 72
   218
 73
   240
  0
VERTEX
  5
480
  8
0
 62
     9
 10
0.0
 20
0.0
 30
0.0
 70
   128
 71
   240
 72
   220
 73
   221
  0
VERTEX
  5
481
  8
0
 62
     9
 10
0.0
 20
0.0
 30
0.0
 70
   128
 71
   219
 72
   220
 73
   240
  0
VERTEX
  5
482
  8
0
 62
     9
 10
0.0
 20
0.0
 30
0.0
 70
   128
 71
   222
 72
    61
 73
   221
  0
VERTEX
  5
483
  8
0
 62
     9
 10
0.0
 20
0.0
 30
0.0
 70
   128
 71
   240
 72
   221
 73
    61
  0
VERTEX
  5
484
  8
0
 62
     9
 10
0.0
 20
0.0
 30
0.0
 70
   128
 71
    61
 72
   222
 73
    62
  0
VERTEX
  5
485
  8
0
 62
     9
 10
0.0
 20
0.0
 30
0.0
 70
   128
 71
   223
 72
   200
 73
   235
  0
VERTEX
  5
486
  8
0
 62
     9
 10
0.0
 20
0.0
 30
0.0
 70
   128
 71
   203
 72
   201
 73
   236
  0
VERTEX
  5
487
  8
0
 62
     9
 10
0.0
 20
0.0
 30
0.0
 70
   128
 71
   195
 72
   192
 73
   234
  0
VERTEX
  5
488
  8
0
 62
     9
 10
0.0
 20
0.0
 30
0.0
 70
   128
 71
   197
 72
   224
 73
   234
  0
VERTEX
  5
489
  8
0
 62
     9
 10
0.0
 20
0.0
 30
0.0
 70
   128
 71
   232
 72
   227
 73
   233
  0
VERTEX
  5
48A
  8
0
 62
     9
 10
0.0
 20
0.0
 30
0.0
 70
   128
 71
   233
 72
   226
 73
   190
  0
VERTEX
  5
48B
  8
0
 62
     9
 10
0.0
 20
0.0
 30
0.0
 70
   128
 71
   231
 72
   188
 73
   232
  0
VERTEX
  5
48C
  8
0
 62
     9
 10
0.0
 20
0.0
 30
0.0
 70
   128
 71
   187
 72
   232
 73
   228
  0
VERTEX
  5
48D
  8
0
 62
     9
 10
0.0
 20
0.0
 30
0.0
 70
   128
 71
   225
 72
   231
 73
   182
  0
VERTEX
  5
48E
  8
0
 62
     9
 10
0.0
 20
0.0
 30
0.0
 70
   128
 71
   186
 72
   185
 73
   231
  0
VERTEX
  5
48F
  8
0
 62
     9
 10
0.0
 20
0.0
 30
0.0
 70
   128
 71
   230
 72
    48
 73
   180
  0
VERTEX
  5
490
  8
0
 62
     9
 10
0.0
 20
0.0
 30
0.0
 70
   128
 71
   230
 72
   183
 73
   229
  0
SEQEND
  5
491
  8
0
 62
     9
  0
ENDBLK
  5
494
  8
0
  0
BLOCK
  8
0
  2
40
 70
     0
 10
0.0
 20
0.0
 30
0.0
  3
40
  1

  0
POLYLINE
  5
496
  8
0
 62
     9
 66
     1
 10
0.0
 20
0.0
 30
0.0
 70
    64
 71
    88
 72
   136
  0
VERTEX
  5
497
  8
0
 10
-18.78184127807617
 20
0.0000000000000079
 30
167.9796295166016
 70
   192
  0
VERTEX
  5
498
  8
0
 10
-21.73413848876953
 20
0.0000000000000081
 30
163.55712890625
 70
   192
  0
VERTEX
  5
499
  8
0
 10
-21.37661170959473
 20
3.72779655456543
 30
163.6016540527344
 70
   192
  0
VERTEX
  5
49A
  8
0
 10
-3.264286756515503
 20
18.54562759399414
 30
167.9254455566406
 70
   192
  0
VERTEX
  5
49B
  8
0
 10
-8.58830451965332
 20
16.75312614440918
 30
167.9254455566406
 70
   192
  0
VERTEX
  5
49C
  8
0
 10
-3.764229297637939
 20
21.38598823547363
 30
163.6016540527344
 70
   192
  0
VERTEX
  5
49D
  8
0
 10
-6.932602405548096
 20
22.599609375
 30
158.6499938964844
 70
   192
  0
VERTEX
  5
49E
  8
0
 10
0.0000000000000005
 20
23.64931297302246
 30
158.6499938964844
 70
   192
  0
VERTEX
  5
49F
  8
0
 10
-9.903648376464844
 20
19.31895446777344
 30
163.6016540527344
 70
   192
  0
VERTEX
  5
4A0
  8
0
 10
-13.73378467559814
 20
19.25019645690918
 30
158.6499938964844
 70
   192
  0
VERTEX
  5
4A1
  8
0
 10
0.0000000000000017
 20
18.79372978210449
 30
167.9668579101562
 70
   192
  0
VERTEX
  5
4A2
  8
0
 10
0.000000000000003
 20
15.0
 30
171.6213684082031
 70
   192
  0
VERTEX
  5
4A3
  8
0
 10
-15.37154388427734
 20
15.31684303283691
 30
163.6016540527344
 70
   192
  0
VERTEX
  5
4A4
  8
0
 10
-19.23678779602051
 20
13.75419998168945
 30
158.6499938964844
 70
   192
  0
VERTEX
  5
4A5
  8
0
 10
-22.6065731048584
 20
6.96434497833252
 30
158.6499938964844
 70
   192
  0
VERTEX
  5
4A6
  8
0
 10
-19.33593940734863
 20
9.839394569396973
 30
163.6016540527344
 70
   192
  0
VERTEX
  5
4A7
  8
0
 10
-16.76785469055176
 20
8.532585144042969
 30
167.9254455566406
 70
   192
  0
VERTEX
  5
4A8
  8
0
 10
-14.33420753479004
 20
4.397127151489258
 30
171.6213684082031
 70
   192
  0
VERTEX
  5
4A9
  8
0
 10
-18.53749847412109
 20
3.232692718505859
 30
167.9254455566406
 70
   192
  0
VERTEX
  5
4AA
  8
0
 10
-23.64931297302246
 20
0.0000000000000093
 30
158.6499938964844
 70
   192
  0
VERTEX
  5
4AB
  8
0
 10
-15.0
 20
0.0000000000000107
 30
171.6213684082031
 70
   192
  0
VERTEX
  5
4AC
  8
0
 10
-12.20978164672852
 20
8.710899353027344
 30
171.6213684082031
 70
   192
  0
VERTEX
  5
4AD
  8
0
 10
-13.32998657226562
 20
13.28255081176758
 30
167.9254455566406
 70
   192
  0
VERTEX
  5
4AE
  8
0
 10
0.0000000000000005
 20
21.74134826660156
 30
163.5412445068359
 70
   192
  0
VERTEX
  5
4AF
  8
0
 10
-8.723847389221191
 20
12.2012767791748
 30
171.6213684082031
 70
   192
  0
VERTEX
  5
4B0
  8
0
 10
-4.417260646820068
 20
14.338623046875
 30
171.6213684082031
 70
   192
  0
VERTEX
  5
4B1
  8
0
 10
0.0000000000000056
 20
-18.78184127807617
 30
167.9796295166016
 70
   192
  0
VERTEX
  5
4B2
  8
0
 10
0.0000000000000051
 20
-21.73413848876953
 30
163.55712890625
 70
   192
  0
VERTEX
  5
4B3
  8
0
 10
-3.72779655456543
 20
-21.37661170959473
 30
163.6016540527344
 70
   192
  0
VERTEX
  5
4B4
  8
0
 10
-18.54562759399414
 20
-3.264286756515503
 30
167.9254455566406
 70
   192
  0
VERTEX
  5
4B5
  8
0
 10
-16.75312614440918
 20
-8.58830451965332
 30
167.9254455566406
 70
   192
  0
VERTEX
  5
4B6
  8
0
 10
-21.38598823547363
 20
-3.764229297637939
 30
163.6016540527344
 70
   192
  0
VERTEX
  5
4B7
  8
0
 10
-22.599609375
 20
-6.932602405548096
 30
158.6499938964844
 70
   192
  0
VERTEX
  5
4B8
  8
0
 10
-19.31895446777344
 20
-9.903648376464844
 30
163.6016540527344
 70
   192
  0
VERTEX
  5
4B9
  8
0
 10
-19.25019645690918
 20
-13.73378467559814
 30
158.6499938964844
 70
   192
  0
VERTEX
  5
4BA
  8
0
 10
-15.31684303283691
 20
-15.37154388427734
 30
163.6016540527344
 70
   192
  0
VERTEX
  5
4BB
  8
0
 10
-13.75419998168945
 20
-19.23678779602051
 30
158.6499938964844
 70
   192
  0
VERTEX
  5
4BC
  8
0
 10
-6.96434497833252
 20
-22.6065731048584
 30
158.6499938964844
 70
   192
  0
VERTEX
  5
4BD
  8
0
 10
-9.839394569396973
 20
-19.33593940734863
 30
163.6016540527344
 70
   192
  0
VERTEX
  5
4BE
  8
0
 10
-8.532585144042969
 20
-16.76785469055176
 30
167.9254455566406
 70
   192
  0
VERTEX
  5
4BF
  8
0
 10
-4.397127151489258
 20
-14.33420753479004
 30
171.6213684082031
 70
   192
  0
VERTEX
  5
4C0
  8
0
 10
-3.232692718505859
 20
-18.53749847412109
 30
167.9254455566406
 70
   192
  0
VERTEX
  5
4C1
  8
0
 10
0.0000000000000037
 20
-23.64931297302246
 30
158.6499938964844
 70
   192
  0
VERTEX
  5
4C2
  8
0
 10
0.0000000000000022
 20
-15.0
 30
171.6213684082031
 70
   192
  0
VERTEX
  5
4C3
  8
0
 10
-8.710899353027344
 20
-12.20978164672852
 30
171.6213684082031
 70
   192
  0
VERTEX
  5
4C4
  8
0
 10
-13.28255081176758
 20
-13.32998657226562
 30
167.9254455566406
 70
   192
  0
VERTEX
  5
4C5
  8
0
 10
-12.2012767791748
 20
-8.723847389221191
 30
171.6213684082031
 70
   192
  0
VERTEX
  5
4C6
  8
0
 10
-14.338623046875
 20
-4.417260646820068
 30
171.6213684082031
 70
   192
  0
VERTEX
  5
4C7
  8
0
 10
18.78184127807617
 20
0.0000000000000087
 30
167.9796295166016
 70
   192
  0
VERTEX
  5
4C8
  8
0
 10
21.73413848876953
 20
0.0000000000000093
 30
163.55712890625
 70
   192
  0
VERTEX
  5
4C9
  8
0
 10
21.37661170959473
 20
-3.72779655456543
 30
163.6016540527344
 70
   192
  0
VERTEX
  5
4CA
  8
0
 10
3.264286756515503
 20
-18.54562759399414
 30
167.9254455566406
 70
   192
  0
VERTEX
  5
4CB
  8
0
 10
8.58830451965332
 20
-16.75312614440918
 30
167.9254455566406
 70
   192
  0
VERTEX
  5
4CC
  8
0
 10
3.764229297637939
 20
-21.38598823547363
 30
163.6016540527344
 70
   192
  0
VERTEX
  5
4CD
  8
0
 10
6.932602405548096
 20
-22.599609375
 30
158.6499938964844
 70
   192
  0
VERTEX
  5
4CE
  8
0
 10
9.903648376464844
 20
-19.31895446777344
 30
163.6016540527344
 70
   192
  0
VERTEX
  5
4CF
  8
0
 10
13.73378467559814
 20
-19.25019645690918
 30
158.6499938964844
 70
   192
  0
VERTEX
  5
4D0
  8
0
 10
15.37154388427734
 20
-15.31684303283691
 30
163.6016540527344
 70
   192
  0
VERTEX
  5
4D1
  8
0
 10
19.23678779602051
 20
-13.75419998168945
 30
158.6499938964844
 70
   192
  0
VERTEX
  5
4D2
  8
0
 10
22.6065731048584
 20
-6.96434497833252
 30
158.6499938964844
 70
   192
  0
VERTEX
  5
4D3
  8
0
 10
19.33593940734863
 20
-9.839394569396973
 30
163.6016540527344
 70
   192
  0
VERTEX
  5
4D4
  8
0
 10
16.76785469055176
 20
-8.532585144042969
 30
167.9254455566406
 70
   192
  0
VERTEX
  5
4D5
  8
0
 10
14.33420753479004
 20
-4.397127151489258
 30
171.6213684082031
 70
   192
  0
VERTEX
  5
4D6
  8
0
 10
18.53749847412109
 20
-3.232692718505859
 30
167.9254455566406
 70
   192
  0
VERTEX
  5
4D7
  8
0
 10
23.64931297302246
 20
0.0000000000000117
 30
158.6499938964844
 70
   192
  0
VERTEX
  5
4D8
  8
0
 10
15.0
 20
0.0000000000000074
 30
171.6213684082031
 70
   192
  0
VERTEX
  5
4D9
  8
0
 10
12.20978164672852
 20
-8.710899353027344
 30
171.6213684082031
 70
   192
  0
VERTEX
  5
4DA
  8
0
 10
13.32998657226562
 20
-13.28255081176758
 30
167.9254455566406
 70
   192
  0
VERTEX
  5
4DB
  8
0
 10
8.723847389221191
 20
-12.2012767791748
 30
171.6213684082031
 70
   192
  0
VERTEX
  5
4DC
  8
0
 10
4.417260646820068
 20
-14.338623046875
 30
171.6213684082031
 70
   192
  0
VERTEX
  5
4DD
  8
0
 10
9.839394569396973
 20
19.33593940734863
 30
163.6016540527344
 70
   192
  0
VERTEX
  5
4DE
  8
0
 10
6.96434497833252
 20
22.6065731048584
 30
158.6499938964844
 70
   192
  0
VERTEX
  5
4DF
  8
0
 10
13.75419998168945
 20
19.23678779602051
 30
158.6499938964844
 70
   192
  0
VERTEX
  5
4E0
  8
0
 10
22.599609375
 20
6.932602405548096
 30
158.6499938964844
 70
   192
  0
VERTEX
  5
4E1
  8
0
 10
21.38598823547363
 20
3.764229297637939
 30
163.6016540527344
 70
   192
  0
VERTEX
  5
4E2
  8
0
 10
19.31895446777344
 20
9.903648376464844
 30
163.6016540527344
 70
   192
  0
VERTEX
  5
4E3
  8
0
 10
4.397127151489258
 20
14.33420753479004
 30
171.6213684082031
 70
   192
  0
VERTEX
  5
4E4
  8
0
 10
3.232692718505859
 20
18.53749847412109
 30
167.9254455566406
 70
   192
  0
VERTEX
  5
4E5
  8
0
 10
8.532585144042969
 20
16.76785469055176
 30
167.9254455566406
 70
   192
  0
VERTEX
  5
4E6
  8
0
 10
19.25019645690918
 20
13.73378467559814
 30
158.6499938964844
 70
   192
  0
VERTEX
  5
4E7
  8
0
 10
18.54562759399414
 20
3.264286756515503
 30
167.9254455566406
 70
   192
  0
VERTEX
  5
4E8
  8
0
 10
16.75312614440918
 20
8.58830451965332
 30
167.9254455566406
 70
   192
  0
VERTEX
  5
4E9
  8
0
 10
15.31684303283691
 20
15.37154388427734
 30
163.6016540527344
 70
   192
  0
VERTEX
  5
4EA
  8
0
 10
3.72779655456543
 20
21.37661170959473
 30
163.6016540527344
 70
   192
  0
VERTEX
  5
4EB
  8
0
 10
8.710899353027344
 20
12.20978164672852
 30
171.6213684082031
 70
   192
  0
VERTEX
  5
4EC
  8
0
 10
13.28255081176758
 20
13.32998657226562
 30
167.9254455566406
 70
   192
  0
VERTEX
  5
4ED
  8
0
 10
12.2012767791748
 20
8.723847389221191
 30
171.6213684082031
 70
   192
  0
VERTEX
  5
4EE
  8
0
 10
14.338623046875
 20
4.417260646820068
 30
171.6213684082031
 70
   192
  0
VERTEX
  5
4EF
  8
0
 62
     9
 10
0.0
 20
0.0
 30
0.0
 70
   128
 71
     3
 72
     2
 73
     1
  0
VERTEX
  5
4F0
  8
0
 62
     9
 10
0.0
 20
0.0
 30
0.0
 70
   128
 71
     6
 72
     5
 73
     4
  0
VERTEX
  5
4F1
  8
0
 62
     9
 10
0.0
 20
0.0
 30
0.0
 70
   128
 71
     6
 72
     8
 73
     7
  0
VERTEX
  5
4F2
  8
0
 62
     9
 10
0.0
 20
0.0
 30
0.0
 70
   128
 71
     7
 72
    10
 73
     9
  0
VERTEX
  5
4F3
  8
0
 62
     9
 10
0.0
 20
0.0
 30
0.0
 70
   128
 71
     7
 72
     9
 73
     6
  0
VERTEX
  5
4F4
  8
0
 62
     9
 10
0.0
 20
0.0
 30
0.0
 70
   128
 71
     4
 72
    12
 73
    11
  0
VERTEX
  5
4F5
  8
0
 62
     9
 10
0.0
 20
0.0
 30
0.0
 70
   128
 71
    14
 72
    13
 73
    10
  0
VERTEX
  5
4F6
  8
0
 62
     9
 10
0.0
 20
0.0
 30
0.0
 70
   128
 71
    10
 72
    13
 73
     9
  0
VERTEX
  5
4F7
  8
0
 62
     9
 10
0.0
 20
0.0
 30
0.0
 70
   128
 71
    16
 72
    14
 73
    15
  0
VERTEX
  5
4F8
  8
0
 62
     9
 10
0.0
 20
0.0
 30
0.0
 70
   128
 71
    14
 72
    16
 73
    13
  0
VERTEX
  5
4F9
  8
0
 62
     9
 10
0.0
 20
0.0
 30
0.0
 70
   128
 71
    19
 72
    18
 73
    17
  0
VERTEX
  5
4FA
  8
0
 62
     9
 10
0.0
 20
0.0
 30
0.0
 70
   128
 71
    15
 72
    20
 73
     3
  0
VERTEX
  5
4FB
  8
0
 62
     9
 10
0.0
 20
0.0
 30
0.0
 70
   128
 71
     2
 72
     3
 73
    20
  0
VERTEX
  5
4FC
  8
0
 62
     9
 10
0.0
 20
0.0
 30
0.0
 70
   128
 71
    19
 72
    21
 73
    18
  0
VERTEX
  5
4FD
  8
0
 62
     9
 10
0.0
 20
0.0
 30
0.0
 70
   128
 71
    22
 72
    17
 73
    18
  0
VERTEX
  5
4FE
  8
0
 62
     9
 10
0.0
 20
0.0
 30
0.0
 70
   128
 71
     3
 72
    16
 73
    15
  0
VERTEX
  5
4FF
  8
0
 62
     9
 10
0.0
 20
0.0
 30
0.0
 70
   128
 71
     1
 72
    19
 73
     3
  0
VERTEX
  5
500
  8
0
 62
     9
 10
0.0
 20
0.0
 30
0.0
 70
   128
 71
    13
 72
    17
 73
    23
  0
VERTEX
  5
501
  8
0
 62
     9
 10
0.0
 20
0.0
 30
0.0
 70
   128
 71
    16
 72
    17
 73
    13
  0
VERTEX
  5
502
  8
0
 62
     9
 10
0.0
 20
0.0
 30
0.0
 70
   128
 71
    23
 72
     5
 73
     9
  0
VERTEX
  5
503
  8
0
 62
     9
 10
0.0
 20
0.0
 30
0.0
 70
   128
 71
    23
 72
     9
 73
    13
  0
VERTEX
  5
504
  8
0
 62
     9
 10
0.0
 20
0.0
 30
0.0
 70
   128
 71
     5
 72
     6
 73
     9
  0
VERTEX
  5
505
  8
0
 62
     9
 10
0.0
 20
0.0
 30
0.0
 70
   128
 71
     6
 72
     4
 73
    24
  0
VERTEX
  5
506
  8
0
 62
     9
 10
0.0
 20
0.0
 30
0.0
 70
   128
 71
    24
 72
     8
 73
     6
  0
VERTEX
  5
507
  8
0
 62
     9
 10
0.0
 20
0.0
 30
0.0
 70
   128
 71
    19
 72
    16
 73
     3
  0
VERTEX
  5
508
  8
0
 62
     9
 10
0.0
 20
0.0
 30
0.0
 70
   128
 71
    19
 72
     1
 73
    21
  0
VERTEX
  5
509
  8
0
 62
     9
 10
0.0
 20
0.0
 30
0.0
 70
   128
 71
    22
 72
    23
 73
    17
  0
VERTEX
  5
50A
  8
0
 62
     9
 10
0.0
 20
0.0
 30
0.0
 70
   128
 71
    19
 72
    17
 73
    16
  0
VERTEX
  5
50B
  8
0
 62
     9
 10
0.0
 20
0.0
 30
0.0
 70
   128
 71
    25
 72
    23
 73
    22
  0
VERTEX
  5
50C
  8
0
 62
     9
 10
0.0
 20
0.0
 30
0.0
 70
   128
 71
    25
 72
     5
 73
    23
  0
VERTEX
  5
50D
  8
0
 62
     9
 10
0.0
 20
0.0
 30
0.0
 70
   128
 71
    26
 72
     5
 73
    25
  0
VERTEX
  5
50E
  8
0
 62
     9
 10
0.0
 20
0.0
 30
0.0
 70
   128
 71
    24
 72
     4
 73
    11
  0
VERTEX
  5
50F
  8
0
 62
     9
 10
0.0
 20
0.0
 30
0.0
 70
   128
 71
    26
 72
     4
 73
     5
  0
VERTEX
  5
510
  8
0
 62
     9
 10
0.0
 20
0.0
 30
0.0
 70
   128
 71
     4
 72
    26
 73
    12
  0
VERTEX
  5
511
  8
0
 62
     9
 10
0.0
 20
0.0
 30
0.0
 70
   128
 71
    29
 72
    28
 73
    27
  0
VERTEX
  5
512
  8
0
 62
     9
 10
0.0
 20
0.0
 30
0.0
 70
   128
 71
    32
 72
    31
 73
    30
  0
VERTEX
  5
513
  8
0
 62
     9
 10
0.0
 20
0.0
 30
0.0
 70
   128
 71
    32
 72
    20
 73
    33
  0
VERTEX
  5
514
  8
0
 62
     9
 10
0.0
 20
0.0
 30
0.0
 70
   128
 71
    33
 72
    35
 73
    34
  0
VERTEX
  5
515
  8
0
 62
     9
 10
0.0
 20
0.0
 30
0.0
 70
   128
 71
    33
 72
    34
 73
    32
  0
VERTEX
  5
516
  8
0
 62
     9
 10
0.0
 20
0.0
 30
0.0
 70
   128
 71
    30
 72
    21
 73
     1
  0
VERTEX
  5
517
  8
0
 62
     9
 10
0.0
 20
0.0
 30
0.0
 70
   128
 71
    37
 72
    36
 73
    35
  0
VERTEX
  5
518
  8
0
 62
     9
 10
0.0
 20
0.0
 30
0.0
 70
   128
 71
    35
 72
    36
 73
    34
  0
VERTEX
  5
519
  8
0
 62
     9
 10
0.0
 20
0.0
 30
0.0
 70
   128
 71
    39
 72
    37
 73
    38
  0
VERTEX
  5
51A
  8
0
 62
     9
 10
0.0
 20
0.0
 30
0.0
 70
   128
 71
    37
 72
    39
 73
    36
  0
VERTEX
  5
51B
  8
0
 62
     9
 10
0.0
 20
0.0
 30
0.0
 70
   128
 71
    42
 72
    41
 73
    40
  0
VERTEX
  5
51C
  8
0
 62
     9
 10
0.0
 20
0.0
 30
0.0
 70
   128
 71
    38
 72
    43
 73
    29
  0
VERTEX
  5
51D
  8
0
 62
     9
 10
0.0
 20
0.0
 30
0.0
 70
   128
 71
    28
 72
    29
 73
    43
  0
VERTEX
  5
51E
  8
0
 62
     9
 10
0.0
 20
0.0
 30
0.0
 70
   128
 71
    42
 72
    44
 73
    41
  0
VERTEX
  5
51F
  8
0
 62
     9
 10
0.0
 20
0.0
 30
0.0
 70
   128
 71
    45
 72
    40
 73
    41
  0
VERTEX
  5
520
  8
0
 62
     9
 10
0.0
 20
0.0
 30
0.0
 70
   128
 71
    29
 72
    39
 73
    38
  0
VERTEX
  5
521
  8
0
 62
     9
 10
0.0
 20
0.0
 30
0.0
 70
   128
 71
    27
 72
    42
 73
    29
  0
VERTEX
  5
522
  8
0
 62
     9
 10
0.0
 20
0.0
 30
0.0
 70
   128
 71
    36
 72
    40
 73
    46
  0
VERTEX
  5
523
  8
0
 62
     9
 10
0.0
 20
0.0
 30
0.0
 70
   128
 71
    39
 72
    40
 73
    36
  0
VERTEX
  5
524
  8
0
 62
     9
 10
0.0
 20
0.0
 30
0.0
 70
   128
 71
    46
 72
    31
 73
    34
  0
VERTEX
  5
525
  8
0
 62
     9
 10
0.0
 20
0.0
 30
0.0
 70
   128
 71
    46
 72
    34
 73
    36
  0
VERTEX
  5
526
  8
0
 62
     9
 10
0.0
 20
0.0
 30
0.0
 70
   128
 71
    31
 72
    32
 73
    34
  0
VERTEX
  5
527
  8
0
 62
     9
 10
0.0
 20
0.0
 30
0.0
 70
   128
 71
    32
 72
    30
 73
     2
  0
VERTEX
  5
528
  8
0
 62
     9
 10
0.0
 20
0.0
 30
0.0
 70
   128
 71
     2
 72
    20
 73
    32
  0
VERTEX
  5
529
  8
0
 62
     9
 10
0.0
 20
0.0
 30
0.0
 70
   128
 71
    42
 72
    39
 73
    29
  0
VERTEX
  5
52A
  8
0
 62
     9
 10
0.0
 20
0.0
 30
0.0
 70
   128
 71
    42
 72
    27
 73
    44
  0
VERTEX
  5
52B
  8
0
 62
     9
 10
0.0
 20
0.0
 30
0.0
 70
   128
 71
    45
 72
    46
 73
    40
  0
VERTEX
  5
52C
  8
0
 62
     9
 10
0.0
 20
0.0
 30
0.0
 70
   128
 71
    42
 72
    40
 73
    39
  0
VERTEX
  5
52D
  8
0
 62
     9
 10
0.0
 20
0.0
 30
0.0
 70
   128
 71
    47
 72
    46
 73
    45
  0
VERTEX
  5
52E
  8
0
 62
     9
 10
0.0
 20
0.0
 30
0.0
 70
   128
 71
    47
 72
    31
 73
    46
  0
VERTEX
  5
52F
  8
0
 62
     9
 10
0.0
 20
0.0
 30
0.0
 70
   128
 71
    48
 72
    31
 73
    47
  0
VERTEX
  5
530
  8
0
 62
     9
 10
0.0
 20
0.0
 30
0.0
 70
   128
 71
     2
 72
    30
 73
     1
  0
VERTEX
  5
531
  8
0
 62
     9
 10
0.0
 20
0.0
 30
0.0
 70
   128
 71
    48
 72
    30
 73
    31
  0
VERTEX
  5
532
  8
0
 62
     9
 10
0.0
 20
0.0
 30
0.0
 70
   128
 71
    30
 72
    48
 73
    21
  0
VERTEX
  5
533
  8
0
 62
     9
 10
0.0
 20
0.0
 30
0.0
 70
   128
 71
    51
 72
    50
 73
    49
  0
VERTEX
  5
534
  8
0
 62
     9
 10
0.0
 20
0.0
 30
0.0
 70
   128
 71
    54
 72
    53
 73
    52
  0
VERTEX
  5
535
  8
0
 62
     9
 10
0.0
 20
0.0
 30
0.0
 70
   128
 71
    54
 72
    43
 73
    55
  0
VERTEX
  5
536
  8
0
 62
     9
 10
0.0
 20
0.0
 30
0.0
 70
   128
 71
    55
 72
    57
 73
    56
  0
VERTEX
  5
537
  8
0
 62
     9
 10
0.0
 20
0.0
 30
0.0
 70
   128
 71
    55
 72
    56
 73
    54
  0
VERTEX
  5
538
  8
0
 62
     9
 10
0.0
 20
0.0
 30
0.0
 70
   128
 71
    52
 72
    44
 73
    27
  0
VERTEX
  5
539
  8
0
 62
     9
 10
0.0
 20
0.0
 30
0.0
 70
   128
 71
    59
 72
    58
 73
    57
  0
VERTEX
  5
53A
  8
0
 62
     9
 10
0.0
 20
0.0
 30
0.0
 70
   128
 71
    57
 72
    58
 73
    56
  0
VERTEX
  5
53B
  8
0
 62
     9
 10
0.0
 20
0.0
 30
0.0
 70
   128
 71
    61
 72
    59
 73
    60
  0
VERTEX
  5
53C
  8
0
 62
     9
 10
0.0
 20
0.0
 30
0.0
 70
   128
 71
    59
 72
    61
 73
    58
  0
VERTEX
  5
53D
  8
0
 62
     9
 10
0.0
 20
0.0
 30
0.0
 70
   128
 71
    64
 72
    63
 73
    62
  0
VERTEX
  5
53E
  8
0
 62
     9
 10
0.0
 20
0.0
 30
0.0
 70
   128
 71
    60
 72
    65
 73
    51
  0
VERTEX
  5
53F
  8
0
 62
     9
 10
0.0
 20
0.0
 30
0.0
 70
   128
 71
    50
 72
    51
 73
    65
  0
VERTEX
  5
540
  8
0
 62
     9
 10
0.0
 20
0.0
 30
0.0
 70
   128
 71
    64
 72
    66
 73
    63
  0
VERTEX
  5
541
  8
0
 62
     9
 10
0.0
 20
0.0
 30
0.0
 70
   128
 71
    67
 72
    62
 73
    63
  0
VERTEX
  5
542
  8
0
 62
     9
 10
0.0
 20
0.0
 30
0.0
 70
   128
 71
    51
 72
    61
 73
    60
  0
VERTEX
  5
543
  8
0
 62
     9
 10
0.0
 20
0.0
 30
0.0
 70
   128
 71
    49
 72
    64
 73
    51
  0
VERTEX
  5
544
  8
0
 62
     9
 10
0.0
 20
0.0
 30
0.0
 70
   128
 71
    58
 72
    62
 73
    68
  0
VERTEX
  5
545
  8
0
 62
     9
 10
0.0
 20
0.0
 30
0.0
 70
   128
 71
    61
 72
    62
 73
    58
  0
VERTEX
  5
546
  8
0
 62
     9
 10
0.0
 20
0.0
 30
0.0
 70
   128
 71
    68
 72
    53
 73
    56
  0
VERTEX
  5
547
  8
0
 62
     9
 10
0.0
 20
0.0
 30
0.0
 70
   128
 71
    68
 72
    56
 73
    58
  0
VERTEX
  5
548
  8
0
 62
     9
 10
0.0
 20
0.0
 30
0.0
 70
   128
 71
    53
 72
    54
 73
    56
  0
VERTEX
  5
549
  8
0
 62
     9
 10
0.0
 20
0.0
 30
0.0
 70
   128
 71
    54
 72
    52
 73
    28
  0
VERTEX
  5
54A
  8
0
 62
     9
 10
0.0
 20
0.0
 30
0.0
 70
   128
 71
    28
 72
    43
 73
    54
  0
VERTEX
  5
54B
  8
0
 62
     9
 10
0.0
 20
0.0
 30
0.0
 70
   128
 71
    64
 72
    61
 73
    51
  0
VERTEX
  5
54C
  8
0
 62
     9
 10
0.0
 20
0.0
 30
0.0
 70
   128
 71
    64
 72
    49
 73
    66
  0
VERTEX
  5
54D
  8
0
 62
     9
 10
0.0
 20
0.0
 30
0.0
 70
   128
 71
    67
 72
    68
 73
    62
  0
VERTEX
  5
54E
  8
0
 62
     9
 10
0.0
 20
0.0
 30
0.0
 70
   128
 71
    64
 72
    62
 73
    61
  0
VERTEX
  5
54F
  8
0
 62
     9
 10
0.0
 20
0.0
 30
0.0
 70
   128
 71
    69
 72
    68
 73
    67
  0
VERTEX
  5
550
  8
0
 62
     9
 10
0.0
 20
0.0
 30
0.0
 70
   128
 71
    69
 72
    53
 73
    68
  0
VERTEX
  5
551
  8
0
 62
     9
 10
0.0
 20
0.0
 30
0.0
 70
   128
 71
    70
 72
    53
 73
    69
  0
VERTEX
  5
552
  8
0
 62
     9
 10
0.0
 20
0.0
 30
0.0
 70
   128
 71
    28
 72
    52
 73
    27
  0
VERTEX
  5
553
  8
0
 62
     9
 10
0.0
 20
0.0
 30
0.0
 70
   128
 71
    70
 72
    52
 73
    53
  0
VERTEX
  5
554
  8
0
 62
     9
 10
0.0
 20
0.0
 30
0.0
 70
   128
 71
    52
 72
    70
 73
    44
  0
VERTEX
  5
555
  8
0
 62
     9
 10
0.0
 20
0.0
 30
0.0
 70
   128
 71
    73
 72
    72
 73
    71
  0
VERTEX
  5
556
  8
0
 62
     9
 10
0.0
 20
0.0
 30
0.0
 70
   128
 71
    76
 72
    75
 73
    74
  0
VERTEX
  5
557
  8
0
 62
     9
 10
0.0
 20
0.0
 30
0.0
 70
   128
 71
    79
 72
    78
 73
    77
  0
VERTEX
  5
558
  8
0
 62
     9
 10
0.0
 20
0.0
 30
0.0
 70
   128
 71
    80
 72
    76
 73
    74
  0
VERTEX
  5
559
  8
0
 62
     9
 10
0.0
 20
0.0
 30
0.0
 70
   128
 71
    77
 72
    78
 73
    12
  0
VERTEX
  5
55A
  8
0
 62
     9
 10
0.0
 20
0.0
 30
0.0
 70
   128
 71
    66
 72
    49
 73
    81
  0
VERTEX
  5
55B
  8
0
 62
     9
 10
0.0
 20
0.0
 30
0.0
 70
   128
 71
    75
 72
    65
 73
    74
  0
VERTEX
  5
55C
  8
0
 62
     9
 10
0.0
 20
0.0
 30
0.0
 70
   128
 71
    75
 72
    82
 73
    81
  0
VERTEX
  5
55D
  8
0
 62
     9
 10
0.0
 20
0.0
 30
0.0
 70
   128
 71
    83
 72
    76
 73
    80
  0
VERTEX
  5
55E
  8
0
 62
     9
 10
0.0
 20
0.0
 30
0.0
 70
   128
 71
    72
 72
     8
 73
    84
  0
VERTEX
  5
55F
  8
0
 62
     9
 10
0.0
 20
0.0
 30
0.0
 70
   128
 71
    80
 72
    73
 73
    83
  0
VERTEX
  5
560
  8
0
 62
     9
 10
0.0
 20
0.0
 30
0.0
 70
   128
 71
    83
 72
    73
 73
    71
  0
VERTEX
  5
561
  8
0
 62
     9
 10
0.0
 20
0.0
 30
0.0
 70
   128
 71
    84
 72
     8
 73
    24
  0
VERTEX
  5
562
  8
0
 62
     9
 10
0.0
 20
0.0
 30
0.0
 70
   128
 71
    24
 72
    11
 73
    84
  0
VERTEX
  5
563
  8
0
 62
     9
 10
0.0
 20
0.0
 30
0.0
 70
   128
 71
    85
 72
    79
 73
    77
  0
VERTEX
  5
564
  8
0
 62
     9
 10
0.0
 20
0.0
 30
0.0
 70
   128
 71
    84
 72
    71
 73
    72
  0
VERTEX
  5
565
  8
0
 62
     9
 10
0.0
 20
0.0
 30
0.0
 70
   128
 71
    11
 72
    78
 73
    84
  0
VERTEX
  5
566
  8
0
 62
     9
 10
0.0
 20
0.0
 30
0.0
 70
   128
 71
    83
 72
    79
 73
    86
  0
VERTEX
  5
567
  8
0
 62
     9
 10
0.0
 20
0.0
 30
0.0
 70
   128
 71
    71
 72
    79
 73
    83
  0
VERTEX
  5
568
  8
0
 62
     9
 10
0.0
 20
0.0
 30
0.0
 70
   128
 71
    86
 72
    82
 73
    76
  0
VERTEX
  5
569
  8
0
 62
     9
 10
0.0
 20
0.0
 30
0.0
 70
   128
 71
    86
 72
    76
 73
    83
  0
VERTEX
  5
56A
  8
0
 62
     9
 10
0.0
 20
0.0
 30
0.0
 70
   128
 71
    82
 72
    75
 73
    76
  0
VERTEX
  5
56B
  8
0
 62
     9
 10
0.0
 20
0.0
 30
0.0
 70
   128
 71
    75
 72
    81
 73
    50
  0
VERTEX
  5
56C
  8
0
 62
     9
 10
0.0
 20
0.0
 30
0.0
 70
   128
 71
    50
 72
    65
 73
    75
  0
VERTEX
  5
56D
  8
0
 62
     9
 10
0.0
 20
0.0
 30
0.0
 70
   128
 71
    78
 72
    71
 73
    84
  0
VERTEX
  5
56E
  8
0
 62
     9
 10
0.0
 20
0.0
 30
0.0
 70
   128
 71
    78
 72
    11
 73
    12
  0
VERTEX
  5
56F
  8
0
 62
     9
 10
0.0
 20
0.0
 30
0.0
 70
   128
 71
    85
 72
    86
 73
    79
  0
VERTEX
  5
570
  8
0
 62
     9
 10
0.0
 20
0.0
 30
0.0
 70
   128
 71
    78
 72
    79
 73
    71
  0
VERTEX
  5
571
  8
0
 62
     9
 10
0.0
 20
0.0
 30
0.0
 70
   128
 71
    87
 72
    86
 73
    85
  0
VERTEX
  5
572
  8
0
 62
     9
 10
0.0
 20
0.0
 30
0.0
 70
   128
 71
    87
 72
    82
 73
    86
  0
VERTEX
  5
573
  8
0
 62
     9
 10
0.0
 20
0.0
 30
0.0
 70
   128
 71
    88
 72
    82
 73
    87
  0
VERTEX
  5
574
  8
0
 62
     9
 10
0.0
 20
0.0
 30
0.0
 70
   128
 71
    50
 72
    81
 73
    49
  0
VERTEX
  5
575
  8
0
 62
     9
 10
0.0
 20
0.0
 30
0.0
 70
   128
 71
    88
 72
    81
 73
    82
  0
VERTEX
  5
576
  8
0
 62
     9
 10
0.0
 20
0.0
 30
0.0
 70
   128
 71
    81
 72
    88
 73
    66
  0
SEQEND
  5
577
  8
0
 62
     9
  0
ENDBLK
  5
57A
  8
0
  0
BLOCK
  8
0
  2
41
 70
     0
 10
0.0
 20
0.0
 30
0.0
  3
41
  1

  0
POLYLINE
  5
57C
  8
0
 62
     9
 66
     1
 10
0.0
 20
0.0
 30
0.0
 70
    64
 71
    77
 72
   101
  0
VERTEX
  5
57D
  8
0
 10
220.7818756103516
 20
11.37260627746582
 30
153.9572448730469
 70
   192
  0
VERTEX
  5
57E
  8
0
 10
220.0064544677734
 20
12.24854850769043
 30
148.9685821533203
 70
   192
  0
VERTEX
  5
57F
  8
0
 10
223.1476745605469
 20
11.83089065551758
 30
149.3542785644531
 70
   192
  0
VERTEX
  5
580
  8
0
 10
215.3736572265625
 20
10.71624565124512
 30
153.2931976318359
 70
   192
  0
VERTEX
  5
581
  8
0
 10
216.8511810302734
 20
11.83346366882324
 30
148.5811767578125
 70
   192
  0
VERTEX
  5
582
  8
0
 10
218.0388031005859
 20
11.3748836517334
 30
153.6204376220703
 70
   192
  0
VERTEX
  5
583
  8
0
 10
213.9219360351562
 20
10.61114311218262
 30
148.2215118408203
 70
   192
  0
VERTEX
  5
584
  8
0
 10
212.9395294189453
 20
9.434362411499023
 30
152.9943237304688
 70
   192
  0
VERTEX
  5
585
  8
0
 10
210.8875579833984
 20
7.602769374847412
 30
152.7423706054688
 70
   192
  0
VERTEX
  5
586
  8
0
 10
209.46875
 20
6.128799915313721
 30
147.6747283935547
 70
   192
  0
VERTEX
  5
587
  8
0
 10
211.404296875
 20
8.666481971740723
 30
147.9123840332031
 70
   192
  0
VERTEX
  5
588
  8
0
 10
209.330322265625
 20
5.329684734344482
 30
152.5511779785156
 70
   192
  0
VERTEX
  5
589
  8
0
 10
208.3566741943359
 20
2.746219158172607
 30
152.4316253662109
 70
   192
  0
VERTEX
  5
58A
  8
0
 10
208.2542724609375
 20
3.177564859390259
 30
147.5256042480469
 70
   192
  0
VERTEX
  5
58B
  8
0
 10
207.8375091552734
 20
0.0000043877016651
 30
147.4744262695312
 70
   192
  0
VERTEX
  5
58C
  8
0
 10
208.0311889648438
 20
0.0000043877016651
 30
152.3916625976562
 70
   192
  0
VERTEX
  5
58D
  8
0
 10
223.4417877197266
 20
10.70532989501953
 30
154.2838439941406
 70
   192
  0
VERTEX
  5
58E
  8
0
 10
226.0774993896484
 20
10.60819816589355
 30
149.7140197753906
 70
   192
  0
VERTEX
  5
58F
  8
0
 10
225.8657836914062
 20
9.417892456054688
 30
154.5814666748047
 70
   192
  0
VERTEX
  5
590
  8
0
 10
228.5984039306641
 20
8.655562400817871
 30
150.0235443115234
 70
   192
  0
VERTEX
  5
591
  8
0
 10
227.9173126220703
 20
7.584682464599609
 30
154.8333740234375
 70
   192
  0
VERTEX
  5
592
  8
0
 10
229.4722442626953
 20
5.313041687011719
 30
155.0242919921875
 70
   192
  0
VERTEX
  5
593
  8
0
 10
230.5283508300781
 20
6.119845867156982
 30
150.2605133056641
 70
   192
  0
VERTEX
  5
594
  8
0
 10
231.7411956787109
 20
3.168891906738281
 30
150.4094390869141
 70
   192
  0
VERTEX
  5
595
  8
0
 10
230.442626953125
 20
2.734575748443604
 30
155.1434326171875
 70
   192
  0
VERTEX
  5
596
  8
0
 10
232.1548919677734
 20
0.0000043877016651
 30
150.4602355957031
 70
   192
  0
VERTEX
  5
597
  8
0
 10
230.7773742675781
 20
0.0000043877016651
 30
155.1845397949219
 70
   192
  0
VERTEX
  5
598
  8
0
 10
208.4228515625
 20
-2.956674098968506
 30
152.4397430419922
 70
   192
  0
VERTEX
  5
599
  8
0
 10
208.2511901855469
 20
-3.168883085250854
 30
147.5252227783203
 70
   192
  0
VERTEX
  5
59A
  8
0
 10
216.8447265625
 20
-11.83088207244873
 30
148.5803833007812
 70
   192
  0
VERTEX
  5
59B
  8
0
 10
213.9148864746094
 20
-10.60818958282471
 30
148.2206420898438
 70
   192
  0
VERTEX
  5
59C
  8
0
 10
213.7137298583984
 20
-9.910526275634766
 30
153.0893859863281
 70
   192
  0
VERTEX
  5
59D
  8
0
 10
211.3939819335938
 20
-8.655553817749023
 30
147.9111175537109
 70
   192
  0
VERTEX
  5
59E
  8
0
 10
209.4640350341797
 20
-6.119836807250977
 30
147.6741485595703
 70
   192
  0
VERTEX
  5
59F
  8
0
 10
209.5569458007812
 20
-5.716794013977051
 30
152.5789947509766
 70
   192
  0
VERTEX
  5
5A0
  8
0
 10
223.1412048339844
 20
-11.83345413208008
 30
149.3534851074219
 70
   192
  0
VERTEX
  5
5A1
  8
0
 10
222.3435821533203
 20
-11.06843662261963
 30
154.1490020751953
 70
   192
  0
VERTEX
  5
5A2
  8
0
 10
226.0704498291016
 20
-10.61113452911377
 30
149.7131500244141
 70
   192
  0
VERTEX
  5
5A3
  8
0
 10
216.4528503417969
 20
-11.0610933303833
 30
153.4257049560547
 70
   192
  0
VERTEX
  5
5A4
  8
0
 10
219.4042816162109
 20
-11.45849514007568
 30
153.7881011962891
 70
   192
  0
VERTEX
  5
5A5
  8
0
 10
219.9859466552734
 20
-12.24853992462158
 30
148.966064453125
 70
   192
  0
VERTEX
  5
5A6
  8
0
 10
228.5880889892578
 20
-8.666473388671875
 30
150.0222778320312
 70
   192
  0
VERTEX
  5
5A7
  8
0
 10
227.4527130126953
 20
-8.1043701171875
 30
154.7763214111328
 70
   192
  0
VERTEX
  5
5A8
  8
0
 10
230.5236358642578
 20
-6.128790855407715
 30
150.2599334716797
 70
   192
  0
VERTEX
  5
5A9
  8
0
 10
225.0895538330078
 20
-9.929023742675781
 30
154.4861602783203
 70
   192
  0
VERTEX
  5
5AA
  8
0
 10
231.7381286621094
 20
-3.177556276321411
 30
150.4090576171875
 70
   192
  0
VERTEX
  5
5AB
  8
0
 10
229.2578582763672
 20
-5.732920169830322
 30
154.9979705810547
 70
   192
  0
VERTEX
  5
5AC
  8
0
 10
230.39453125
 20
-2.970461368560791
 30
155.1375274658203
 70
   192
  0
VERTEX
  5
5AD
  8
0
 10
211.3647918701172
 20
-8.092304229736328
 30
152.8009796142578
 70
   192
  0
VERTEX
  5
5AE
  8
0
 10
219.8743286132812
 20
-15.44999599456787
 30
149.9598693847656
 70
   192
  0
VERTEX
  5
5AF
  8
0
 10
216.4651641845703
 20
-15.06187534332275
 30
149.5412902832031
 70
   192
  0
VERTEX
  5
5B0
  8
0
 10
204.5394897460938
 20
0.0000043877016651
 30
148.0769958496094
 70
   192
  0
VERTEX
  5
5B1
  8
0
 10
204.9298248291016
 20
3.429499864578247
 30
148.1249237060547
 70
   192
  0
VERTEX
  5
5B2
  8
0
 10
229.4389343261719
 20
-12.0597038269043
 30
151.1342620849609
 70
   192
  0
VERTEX
  5
5B3
  8
0
 10
226.5356140136719
 20
-13.90359115600586
 30
150.7777862548828
 70
   192
  0
VERTEX
  5
5B4
  8
0
 10
223.2946319580078
 20
-15.05585289001465
 30
150.3798370361328
 70
   192
  0
VERTEX
  5
5B5
  8
0
 10
231.8631744384766
 20
-9.615216255187988
 30
151.4319152832031
 70
   192
  0
VERTEX
  5
5B6
  8
0
 10
213.2223358154297
 20
-13.92601871490479
 30
149.1431121826172
 70
   192
  0
VERTEX
  5
5B7
  8
0
 10
233.6862335205078
 20
-6.689573287963867
 30
151.65576171875
 70
   192
  0
VERTEX
  5
5B8
  8
0
 10
234.8320159912109
 20
3.441774129867554
 30
151.7964477539062
 70
   192
  0
VERTEX
  5
5B9
  8
0
 10
235.2091674804688
 20
0.0000043877016651
 30
151.8427581787109
 70
   192
  0
VERTEX
  5
5BA
  8
0
 10
206.0624237060547
 20
6.689582347869873
 30
148.2639923095703
 70
   192
  0
VERTEX
  5
5BB
  8
0
 10
233.6957855224609
 20
6.709216594696045
 30
151.6569366455078
 70
   192
  0
VERTEX
  5
5BC
  8
0
 10
207.8854827880859
 20
9.615224838256836
 30
148.4878234863281
 70
   192
  0
VERTEX
  5
5BD
  8
0
 10
219.8743286132812
 20
15.45000457763672
 30
149.9598693847656
 70
   192
  0
VERTEX
  5
5BE
  8
0
 10
223.2834930419922
 20
15.0618839263916
 30
150.3784637451172
 70
   192
  0
VERTEX
  5
5BF
  8
0
 10
213.2130279541016
 20
13.90359973907471
 30
149.1419677734375
 70
   192
  0
VERTEX
  5
5C0
  8
0
 10
216.4540252685547
 20
15.0558614730835
 30
149.5399169921875
 70
   192
  0
VERTEX
  5
5C1
  8
0
 10
226.5263061523438
 20
13.92602729797363
 30
150.7766418457031
 70
   192
  0
VERTEX
  5
5C2
  8
0
 10
210.3097076416016
 20
12.05971240997314
 30
148.7854919433594
 70
   192
  0
VERTEX
  5
5C3
  8
0
 10
229.4376220703125
 20
12.08759307861328
 30
151.1340942382812
 70
   192
  0
VERTEX
  5
5C4
  8
0
 10
231.8674468994141
 20
9.639786720275879
 30
151.4324493408203
 70
   192
  0
VERTEX
  5
5C5
  8
0
 10
207.8811950683594
 20
-9.639778137207031
 30
148.4873046875
 70
   192
  0
VERTEX
  5
5C6
  8
0
 10
206.0528717041016
 20
-6.709208011627197
 30
148.2628173828125
 70
   192
  0
VERTEX
  5
5C7
  8
0
 10
234.8188171386719
 20
-3.42949104309082
 30
151.7948303222656
 70
   192
  0
VERTEX
  5
5C8
  8
0
 10
210.3110198974609
 20
-12.08758449554443
 30
148.78564453125
 70
   192
  0
VERTEX
  5
5C9
  8
0
 10
204.9166412353516
 20
-3.441765308380127
 30
148.1233062744141
 70
   192
  0
VERTEX
  5
5CA
  8
0
 62
     9
 10
0.0
 20
0.0
 30
0.0
 70
   128
 71
     3
 72
     2
 73
     1
  0
VERTEX
  5
5CB
  8
0
 62
     9
 10
0.0
 20
0.0
 30
0.0
 70
   128
 71
     6
 72
     5
 73
     4
  0
VERTEX
  5
5CC
  8
0
 62
     9
 10
0.0
 20
0.0
 30
0.0
 70
   128
 71
     2
 72
     6
 73
     1
  0
VERTEX
  5
5CD
  8
0
 62
     9
 10
0.0
 20
0.0
 30
0.0
 70
   128
 71
     8
 72
     4
 73
     7
  0
VERTEX
  5
5CE
  8
0
 62
     9
 10
0.0
 20
0.0
 30
0.0
 70
   128
 71
     7
 72
     4
 73
     5
  0
VERTEX
  5
5CF
  8
0
 62
     9
 10
0.0
 20
0.0
 30
0.0
 70
   128
 71
    11
 72
    10
 73
     9
  0
VERTEX
  5
5D0
  8
0
 62
     9
 10
0.0
 20
0.0
 30
0.0
 70
   128
 71
     7
 72
    11
 73
     8
  0
VERTEX
  5
5D1
  8
0
 62
     9
 10
0.0
 20
0.0
 30
0.0
 70
   128
 71
     9
 72
    10
 73
    12
  0
VERTEX
  5
5D2
  8
0
 62
     9
 10
0.0
 20
0.0
 30
0.0
 70
   128
 71
    11
 72
     9
 73
     8
  0
VERTEX
  5
5D3
  8
0
 62
     9
 10
0.0
 20
0.0
 30
0.0
 70
   128
 71
    14
 72
    13
 73
    12
  0
VERTEX
  5
5D4
  8
0
 62
     9
 10
0.0
 20
0.0
 30
0.0
 70
   128
 71
    14
 72
    12
 73
    10
  0
VERTEX
  5
5D5
  8
0
 62
     9
 10
0.0
 20
0.0
 30
0.0
 70
   128
 71
    16
 72
    13
 73
    15
  0
VERTEX
  5
5D6
  8
0
 62
     9
 10
0.0
 20
0.0
 30
0.0
 70
   128
 71
    14
 72
    15
 73
    13
  0
VERTEX
  5
5D7
  8
0
 62
     9
 10
0.0
 20
0.0
 30
0.0
 70
   128
 71
     5
 72
     6
 73
     2
  0
VERTEX
  5
5D8
  8
0
 62
     9
 10
0.0
 20
0.0
 30
0.0
 70
   128
 71
     1
 72
    17
 73
     3
  0
VERTEX
  5
5D9
  8
0
 62
     9
 10
0.0
 20
0.0
 30
0.0
 70
   128
 71
    17
 72
    19
 73
    18
  0
VERTEX
  5
5DA
  8
0
 62
     9
 10
0.0
 20
0.0
 30
0.0
 70
   128
 71
    18
 72
     3
 73
    17
  0
VERTEX
  5
5DB
  8
0
 62
     9
 10
0.0
 20
0.0
 30
0.0
 70
   128
 71
    21
 72
    20
 73
    19
  0
VERTEX
  5
5DC
  8
0
 62
     9
 10
0.0
 20
0.0
 30
0.0
 70
   128
 71
    18
 72
    19
 73
    20
  0
VERTEX
  5
5DD
  8
0
 62
     9
 10
0.0
 20
0.0
 30
0.0
 70
   128
 71
    23
 72
    21
 73
    22
  0
VERTEX
  5
5DE
  8
0
 62
     9
 10
0.0
 20
0.0
 30
0.0
 70
   128
 71
    21
 72
    23
 73
    20
  0
VERTEX
  5
5DF
  8
0
 62
     9
 10
0.0
 20
0.0
 30
0.0
 70
   128
 71
    22
 72
    25
 73
    24
  0
VERTEX
  5
5E0
  8
0
 62
     9
 10
0.0
 20
0.0
 30
0.0
 70
   128
 71
    24
 72
    23
 73
    22
  0
VERTEX
  5
5E1
  8
0
 62
     9
 10
0.0
 20
0.0
 30
0.0
 70
   128
 71
    27
 72
    26
 73
    25
  0
VERTEX
  5
5E2
  8
0
 62
     9
 10
0.0
 20
0.0
 30
0.0
 70
   128
 71
    24
 72
    25
 73
    26
  0
VERTEX
  5
5E3
  8
0
 62
     9
 10
0.0
 20
0.0
 30
0.0
 70
   128
 71
    29
 72
    28
 73
    16
  0
VERTEX
  5
5E4
  8
0
 62
     9
 10
0.0
 20
0.0
 30
0.0
 70
   128
 71
    32
 72
    31
 73
    30
  0
VERTEX
  5
5E5
  8
0
 62
     9
 10
0.0
 20
0.0
 30
0.0
 70
   128
 71
    35
 72
    34
 73
    33
  0
VERTEX
  5
5E6
  8
0
 62
     9
 10
0.0
 20
0.0
 30
0.0
 70
   128
 71
    38
 72
    37
 73
    36
  0
VERTEX
  5
5E7
  8
0
 62
     9
 10
0.0
 20
0.0
 30
0.0
 70
   128
 71
    41
 72
    40
 73
    39
  0
VERTEX
  5
5E8
  8
0
 62
     9
 10
0.0
 20
0.0
 30
0.0
 70
   128
 71
    44
 72
    43
 73
    42
  0
VERTEX
  5
5E9
  8
0
 62
     9
 10
0.0
 20
0.0
 30
0.0
 70
   128
 71
    38
 72
    42
 73
    45
  0
VERTEX
  5
5EA
  8
0
 62
     9
 10
0.0
 20
0.0
 30
0.0
 70
   128
 71
    47
 72
    44
 73
    46
  0
VERTEX
  5
5EB
  8
0
 62
     9
 10
0.0
 20
0.0
 30
0.0
 70
   128
 71
    44
 72
    47
 73
    43
  0
VERTEX
  5
5EC
  8
0
 62
     9
 10
0.0
 20
0.0
 30
0.0
 70
   128
 71
    46
 72
    26
 73
    48
  0
VERTEX
  5
5ED
  8
0
 62
     9
 10
0.0
 20
0.0
 30
0.0
 70
   128
 71
    48
 72
    47
 73
    46
  0
VERTEX
  5
5EE
  8
0
 62
     9
 10
0.0
 20
0.0
 30
0.0
 70
   128
 71
    48
 72
    26
 73
    27
  0
VERTEX
  5
5EF
  8
0
 62
     9
 10
0.0
 20
0.0
 30
0.0
 70
   128
 71
    42
 72
    43
 73
    45
  0
VERTEX
  5
5F0
  8
0
 62
     9
 10
0.0
 20
0.0
 30
0.0
 70
   128
 71
    41
 72
    36
 73
    40
  0
VERTEX
  5
5F1
  8
0
 62
     9
 10
0.0
 20
0.0
 30
0.0
 70
   128
 71
    37
 72
    38
 73
    45
  0
VERTEX
  5
5F2
  8
0
 62
     9
 10
0.0
 20
0.0
 30
0.0
 70
   128
 71
    40
 72
    36
 73
    37
  0
VERTEX
  5
5F3
  8
0
 62
     9
 10
0.0
 20
0.0
 30
0.0
 70
   128
 71
    49
 72
    31
 73
    32
  0
VERTEX
  5
5F4
  8
0
 62
     9
 10
0.0
 20
0.0
 30
0.0
 70
   128
 71
    30
 72
    41
 73
    39
  0
VERTEX
  5
5F5
  8
0
 62
     9
 10
0.0
 20
0.0
 30
0.0
 70
   128
 71
    39
 72
    32
 73
    30
  0
VERTEX
  5
5F6
  8
0
 62
     9
 10
0.0
 20
0.0
 30
0.0
 70
   128
 71
    49
 72
    33
 73
    31
  0
VERTEX
  5
5F7
  8
0
 62
     9
 10
0.0
 20
0.0
 30
0.0
 70
   128
 71
    35
 72
    33
 73
    49
  0
VERTEX
  5
5F8
  8
0
 62
     9
 10
0.0
 20
0.0
 30
0.0
 70
   128
 71
    16
 72
    15
 73
    29
  0
VERTEX
  5
5F9
  8
0
 62
     9
 10
0.0
 20
0.0
 30
0.0
 70
   128
 71
    29
 72
    34
 73
    28
  0
VERTEX
  5
5FA
  8
0
 62
     9
 10
0.0
 20
0.0
 30
0.0
 70
   128
 71
    28
 72
    34
 73
    35
  0
VERTEX
  5
5FB
  8
0
 62
     9
 10
0.0
 20
0.0
 30
0.0
 70
   128
 71
    41
 72
    51
 73
    50
  0
VERTEX
  5
5FC
  8
0
 62
     9
 10
0.0
 20
0.0
 30
0.0
 70
   128
 71
    15
 72
    53
 73
    52
  0
VERTEX
  5
5FD
  8
0
 62
     9
 10
0.0
 20
0.0
 30
0.0
 70
   128
 71
    38
 72
    55
 73
    54
  0
VERTEX
  5
5FE
  8
0
 62
     9
 10
0.0
 20
0.0
 30
0.0
 70
   128
 71
    56
 72
    36
 73
    41
  0
VERTEX
  5
5FF
  8
0
 62
     9
 10
0.0
 20
0.0
 30
0.0
 70
   128
 71
    57
 72
    42
 73
    54
  0
VERTEX
  5
600
  8
0
 62
     9
 10
0.0
 20
0.0
 30
0.0
 70
   128
 71
    30
 72
    58
 73
    51
  0
VERTEX
  5
601
  8
0
 62
     9
 10
0.0
 20
0.0
 30
0.0
 70
   128
 71
    59
 72
    46
 73
    44
  0
VERTEX
  5
602
  8
0
 62
     9
 10
0.0
 20
0.0
 30
0.0
 70
   128
 71
    24
 72
    26
 73
    60
  0
VERTEX
  5
603
  8
0
 62
     9
 10
0.0
 20
0.0
 30
0.0
 70
   128
 71
    26
 72
    61
 73
    60
  0
VERTEX
  5
604
  8
0
 62
     9
 10
0.0
 20
0.0
 30
0.0
 70
   128
 71
    14
 72
    62
 73
    53
  0
VERTEX
  5
605
  8
0
 62
     9
 10
0.0
 20
0.0
 30
0.0
 70
   128
 71
    63
 72
    23
 73
    24
  0
VERTEX
  5
606
  8
0
 62
     9
 10
0.0
 20
0.0
 30
0.0
 70
   128
 71
    11
 72
    64
 73
    10
  0
VERTEX
  5
607
  8
0
 62
     9
 10
0.0
 20
0.0
 30
0.0
 70
   128
 71
    14
 72
    10
 73
    62
  0
VERTEX
  5
608
  8
0
 62
     9
 10
0.0
 20
0.0
 30
0.0
 70
   128
 71
     2
 72
    66
 73
    65
  0
VERTEX
  5
609
  8
0
 62
     9
 10
0.0
 20
0.0
 30
0.0
 70
   128
 71
    67
 72
     7
 73
     5
  0
VERTEX
  5
60A
  8
0
 62
     9
 10
0.0
 20
0.0
 30
0.0
 70
   128
 71
     2
 72
    68
 73
     5
  0
VERTEX
  5
60B
  8
0
 62
     9
 10
0.0
 20
0.0
 30
0.0
 70
   128
 71
    66
 72
     3
 73
    69
  0
VERTEX
  5
60C
  8
0
 62
     9
 10
0.0
 20
0.0
 30
0.0
 70
   128
 71
    11
 72
     7
 73
    70
  0
VERTEX
  5
60D
  8
0
 62
     9
 10
0.0
 20
0.0
 30
0.0
 70
   128
 71
    71
 72
    18
 73
    20
  0
VERTEX
  5
60E
  8
0
 62
     9
 10
0.0
 20
0.0
 30
0.0
 70
   128
 71
    18
 72
    69
 73
     3
  0
VERTEX
  5
60F
  8
0
 62
     9
 10
0.0
 20
0.0
 30
0.0
 70
   128
 71
    23
 72
    72
 73
    20
  0
VERTEX
  5
610
  8
0
 62
     9
 10
0.0
 20
0.0
 30
0.0
 70
   128
 71
    60
 72
    63
 73
    24
  0
VERTEX
  5
611
  8
0
 62
     9
 10
0.0
 20
0.0
 30
0.0
 70
   128
 71
    33
 72
    34
 73
    73
  0
VERTEX
  5
612
  8
0
 62
     9
 10
0.0
 20
0.0
 30
0.0
 70
   128
 71
    34
 72
    29
 73
    74
  0
VERTEX
  5
613
  8
0
 62
     9
 10
0.0
 20
0.0
 30
0.0
 70
   128
 71
    75
 72
    61
 73
    26
  0
VERTEX
  5
614
  8
0
 62
     9
 10
0.0
 20
0.0
 30
0.0
 70
   128
 71
    31
 72
    58
 73
    30
  0
VERTEX
  5
615
  8
0
 62
     9
 10
0.0
 20
0.0
 30
0.0
 70
   128
 71
    31
 72
    33
 73
    76
  0
VERTEX
  5
616
  8
0
 62
     9
 10
0.0
 20
0.0
 30
0.0
 70
   128
 71
    55
 72
    38
 73
    36
  0
VERTEX
  5
617
  8
0
 62
     9
 10
0.0
 20
0.0
 30
0.0
 70
   128
 71
    72
 72
    23
 73
    63
  0
VERTEX
  5
618
  8
0
 62
     9
 10
0.0
 20
0.0
 30
0.0
 70
   128
 71
    71
 72
    20
 73
    72
  0
VERTEX
  5
619
  8
0
 62
     9
 10
0.0
 20
0.0
 30
0.0
 70
   128
 71
    69
 72
    18
 73
    71
  0
VERTEX
  5
61A
  8
0
 62
     9
 10
0.0
 20
0.0
 30
0.0
 70
   128
 71
    66
 72
     2
 73
     3
  0
VERTEX
  5
61B
  8
0
 62
     9
 10
0.0
 20
0.0
 30
0.0
 70
   128
 71
    68
 72
     2
 73
    65
  0
VERTEX
  5
61C
  8
0
 62
     9
 10
0.0
 20
0.0
 30
0.0
 70
   128
 71
    67
 72
     5
 73
    68
  0
VERTEX
  5
61D
  8
0
 62
     9
 10
0.0
 20
0.0
 30
0.0
 70
   128
 71
    70
 72
     7
 73
    67
  0
VERTEX
  5
61E
  8
0
 62
     9
 10
0.0
 20
0.0
 30
0.0
 70
   128
 71
    64
 72
    11
 73
    70
  0
VERTEX
  5
61F
  8
0
 62
     9
 10
0.0
 20
0.0
 30
0.0
 70
   128
 71
    62
 72
    10
 73
    64
  0
VERTEX
  5
620
  8
0
 62
     9
 10
0.0
 20
0.0
 30
0.0
 70
   128
 71
    53
 72
    15
 73
    14
  0
VERTEX
  5
621
  8
0
 62
     9
 10
0.0
 20
0.0
 30
0.0
 70
   128
 71
    77
 72
    15
 73
    52
  0
VERTEX
  5
622
  8
0
 62
     9
 10
0.0
 20
0.0
 30
0.0
 70
   128
 71
    74
 72
    29
 73
    77
  0
VERTEX
  5
623
  8
0
 62
     9
 10
0.0
 20
0.0
 30
0.0
 70
   128
 71
    77
 72
    29
 73
    15
  0
VERTEX
  5
624
  8
0
 62
     9
 10
0.0
 20
0.0
 30
0.0
 70
   128
 71
    73
 72
    34
 73
    74
  0
VERTEX
  5
625
  8
0
 62
     9
 10
0.0
 20
0.0
 30
0.0
 70
   128
 71
    76
 72
    33
 73
    73
  0
VERTEX
  5
626
  8
0
 62
     9
 10
0.0
 20
0.0
 30
0.0
 70
   128
 71
    58
 72
    31
 73
    76
  0
VERTEX
  5
627
  8
0
 62
     9
 10
0.0
 20
0.0
 30
0.0
 70
   128
 71
    51
 72
    41
 73
    30
  0
VERTEX
  5
628
  8
0
 62
     9
 10
0.0
 20
0.0
 30
0.0
 70
   128
 71
    56
 72
    41
 73
    50
  0
VERTEX
  5
629
  8
0
 62
     9
 10
0.0
 20
0.0
 30
0.0
 70
   128
 71
    55
 72
    36
 73
    56
  0
VERTEX
  5
62A
  8
0
 62
     9
 10
0.0
 20
0.0
 30
0.0
 70
   128
 71
    54
 72
    42
 73
    38
  0
VERTEX
  5
62B
  8
0
 62
     9
 10
0.0
 20
0.0
 30
0.0
 70
   128
 71
    57
 72
    44
 73
    42
  0
VERTEX
  5
62C
  8
0
 62
     9
 10
0.0
 20
0.0
 30
0.0
 70
   128
 71
    75
 72
    46
 73
    59
  0
VERTEX
  5
62D
  8
0
 62
     9
 10
0.0
 20
0.0
 30
0.0
 70
   128
 71
    59
 72
    44
 73
    57
  0
VERTEX
  5
62E
  8
0
 62
     9
 10
0.0
 20
0.0
 30
0.0
 70
   128
 71
    46
 72
    75
 73
    26
  0
SEQEND
  5
62F
  8
0
 62
     9
  0
ENDBLK
  5
632
  8
0
  0
BLOCK
  8
0
  2
1
 70
     0
 10
0.0
 20
0.0
 30
0.0
  3
1
  1

  0
POLYLINE
  5
634
  8
0
 62
     9
 66
     1
 10
0.0
 20
0.0
 30
0.0
 70
    64
 71
   166
 72
   307
  0
VERTEX
  5
635
  8
0
 10
228.1064910888672
 20
-14.29593849182129
 30
150.4669036865234
 70
   192
  0
VERTEX
  5
636
  8
0
 10
223.7318115234375
 20
-15.2473726272583
 30
170.2639923095703
 70
   192
  0
VERTEX
  5
637
  8
0
 10
229.0492095947266
 20
-11.67278861999512
 30
170.9169006347656
 70
   192
  0
VERTEX
  5
638
  8
0
 10
218.4662780761719
 20
-16.49999618530273
 30
161.427490234375
 70
   192
  0
VERTEX
  5
639
  8
0
 10
224.1470489501953
 20
-15.94142150878906
 30
149.9807434082031
 70
   192
  0
VERTEX
  5
63A
  8
0
 10
219.9352569580078
 20
-16.49999618530273
 30
149.4636077880859
 70
   192
  0
VERTEX
  5
63B
  8
0
 10
217.4756164550781
 20
-16.49999809265137
 30
169.4958343505859
 70
   192
  0
VERTEX
  5
63C
  8
0
 10
232.6040344238281
 20
-6.318317890167236
 30
171.3533782958984
 70
   192
  0
VERTEX
  5
63D
  8
0
 10
235.7560424804688
 20
-4.270191192626953
 30
151.4061584472656
 70
   192
  0
VERTEX
  5
63E
  8
0
 10
234.1204833984375
 20
-8.249231338500977
 30
151.205322265625
 70
   192
  0
VERTEX
  5
63F
  8
0
 10
231.5038146972656
 20
-11.67510604858398
 30
150.8840484619141
 70
   192
  0
VERTEX
  5
640
  8
0
 10
235.0676116943359
 20
6.315721035003662
 30
151.3216247558594
 70
   192
  0
VERTEX
  5
641
  8
0
 10
232.6073913574219
 20
6.309634685516357
 30
171.3537902832031
 70
   192
  0
VERTEX
  5
642
  8
0
 10
231.5060424804688
 20
11.67474842071533
 30
150.8843231201172
 70
   192
  0
VERTEX
  5
643
  8
0
 10
233.8511657714844
 20
-0.0058168107643723
 30
171.5065002441406
 70
   192
  0
VERTEX
  5
644
  8
0
 10
235.8769378662109
 20
0.0000043875384108
 30
150.917236328125
 70
   192
  0
VERTEX
  5
645
  8
0
 10
226.1974334716797
 20
15.2456169128418
 30
150.2324981689453
 70
   192
  0
VERTEX
  5
646
  8
0
 10
223.7524261474609
 20
15.23891639709473
 30
170.2665252685547
 70
   192
  0
VERTEX
  5
647
  8
0
 10
218.4662780761719
 20
16.50000381469727
 30
161.4275054931641
 70
   192
  0
VERTEX
  5
648
  8
0
 10
229.0611267089844
 20
11.66125869750977
 30
170.9183502197266
 70
   192
  0
VERTEX
  5
649
  8
0
 10
219.9352569580078
 20
16.50712203979492
 30
149.4636077880859
 70
   192
  0
VERTEX
  5
64A
  8
0
 10
217.4756164550781
 20
16.50000190734863
 30
169.4958343505859
 70
   192
  0
VERTEX
  5
64B
  8
0
 10
204.8002319335938
 20
6.282266139984131
 30
147.6052551269531
 70
   192
  0
VERTEX
  5
64C
  8
0
 10
208.3468627929688
 20
11.6550989151001
 30
148.0407257080078
 70
   192
  0
VERTEX
  5
64D
  8
0
 10
206.5135040283203
 20
9.867005348205566
 30
150.2229766845703
 70
   192
  0
VERTEX
  5
64E
  8
0
 10
209.6080627441406
 20
13.27634811401367
 30
153.1238708496094
 70
   192
  0
VERTEX
  5
64F
  8
0
 10
213.6670379638672
 20
15.24419212341309
 30
148.6939544677734
 70
   192
  0
VERTEX
  5
650
  8
0
 10
213.2496337890625
 20
15.45909881591797
 30
156.5374298095703
 70
   192
  0
VERTEX
  5
651
  8
0
 10
217.1590270996094
 20
16.43681716918945
 30
160.2020874023438
 70
   192
  0
VERTEX
  5
652
  8
0
 10
203.5582427978516
 20
0.0000043877016651
 30
147.4527587890625
 70
   192
  0
VERTEX
  5
653
  8
0
 10
204.3486633300781
 20
5.30764102935791
 30
148.1936492919922
 70
   192
  0
VERTEX
  5
654
  8
0
 10
215.8618316650391
 20
-15.11880588531494
 30
149.4672088623047
 70
   192
  0
VERTEX
  5
655
  8
0
 10
219.9904479980469
 20
-15.64890003204346
 30
148.9666290283203
 70
   192
  0
VERTEX
  5
656
  8
0
 10
219.8873291015625
 20
-15.64888858795166
 30
149.9614715576172
 70
   192
  0
VERTEX
  5
657
  8
0
 10
224.0144653320312
 20
-15.11724662780762
 30
149.4607086181641
 70
   192
  0
VERTEX
  5
658
  8
0
 10
223.90625
 20
-15.1128511428833
 30
150.4549407958984
 70
   192
  0
VERTEX
  5
659
  8
0
 10
230.9771728515625
 20
-11.06821537017822
 30
150.3156280517578
 70
   192
  0
VERTEX
  5
65A
  8
0
 10
233.4447174072266
 20
-7.830601215362549
 30
150.6186065673828
 70
   192
  0
VERTEX
  5
65B
  8
0
 10
230.8694915771484
 20
-11.05248165130615
 30
151.3099060058594
 70
   192
  0
VERTEX
  5
65C
  8
0
 10
227.6482086181641
 20
-13.5494384765625
 30
150.9143829345703
 70
   192
  0
VERTEX
  5
65D
  8
0
 10
227.7564544677734
 20
-13.55615901947021
 30
149.920166015625
 70
   192
  0
VERTEX
  5
65E
  8
0
 10
234.9972229003906
 20
-4.059079170227051
 30
150.8092193603516
 70
   192
  0
VERTEX
  5
65F
  8
0
 10
234.8815002441406
 20
-4.039993286132812
 30
151.8025207519531
 70
   192
  0
VERTEX
  5
660
  8
0
 10
233.3327331542969
 20
-7.812846660614014
 30
151.6123657226562
 70
   192
  0
VERTEX
  5
661
  8
0
 10
215.9723358154297
 20
-15.11503124237061
 30
148.4732666015625
 70
   192
  0
VERTEX
  5
662
  8
0
 10
212.1182098388672
 20
-13.55856609344482
 30
149.0075378417969
 70
   192
  0
VERTEX
  5
663
  8
0
 10
212.2305908203125
 20
-13.55426025390625
 30
148.0138397216797
 70
   192
  0
VERTEX
  5
664
  8
0
 10
208.8959197998047
 20
-11.07079982757568
 30
148.6118927001953
 70
   192
  0
VERTEX
  5
665
  8
0
 10
209.0086822509766
 20
-11.06021404266357
 30
147.6182250976562
 70
   192
  0
VERTEX
  5
666
  8
0
 10
206.5437927246094
 20
-7.823348045349121
 30
147.3155822753906
 70
   192
  0
VERTEX
  5
667
  8
0
 10
206.427001953125
 20
-7.832694530487061
 30
148.3087463378906
 70
   192
  0
VERTEX
  5
668
  8
0
 10
204.8736114501953
 20
-4.060243129730225
 30
148.1180114746094
 70
   192
  0
VERTEX
  5
669
  8
0
 10
204.9924163818359
 20
-4.05277681350708
 30
147.1250915527344
 70
   192
  0
VERTEX
  5
66A
  8
0
 10
204.3409729003906
 20
0.0000043877016651
 30
148.0526275634766
 70
   192
  0
VERTEX
  5
66B
  8
0
 10
204.4656982421875
 20
0.0000032117161481
 30
147.0604248046875
 70
   192
  0
VERTEX
  5
66C
  8
0
 10
231.21826171875
 20
11.31948566436768
 30
150.3452301025391
 70
   192
  0
VERTEX
  5
66D
  8
0
 10
226.0702056884766
 20
14.78341293334961
 30
149.7131195068359
 70
   192
  0
VERTEX
  5
66E
  8
0
 10
219.9828033447266
 20
15.99810218811035
 30
148.9656829833984
 70
   192
  0
VERTEX
  5
66F
  8
0
 10
234.6650543212891
 20
6.130380630493164
 30
150.7684326171875
 70
   192
  0
VERTEX
  5
670
  8
0
 10
213.9155883789062
 20
14.78070831298828
 30
148.2207183837891
 70
   192
  0
VERTEX
  5
671
  8
0
 10
208.7606658935547
 20
11.30522346496582
 30
147.5877838134766
 70
   192
  0
VERTEX
  5
672
  8
0
 10
205.3209686279297
 20
6.114218235015869
 30
147.1654357910156
 70
   192
  0
VERTEX
  5
673
  8
0
 10
204.1154632568359
 20
0.0000043877016651
 30
147.0174255371094
 70
   192
  0
VERTEX
  5
674
  8
0
 10
211.9297790527344
 20
-14.39639568328857
 30
148.4806518554688
 70
   192
  0
VERTEX
  5
675
  8
0
 10
215.9346771240234
 20
-16.00434684753418
 30
148.9723968505859
 70
   192
  0
VERTEX
  5
676
  8
0
 10
215.888427734375
 20
-15.45594120025635
 30
148.4629516601562
 70
   192
  0
VERTEX
  5
677
  8
0
 10
220.0095825195312
 20
-15.9980936050415
 30
148.9689788818359
 70
   192
  0
VERTEX
  5
678
  8
0
 10
212.0624694824219
 20
-13.85944271087646
 30
147.9931945800781
 70
   192
  0
VERTEX
  5
679
  8
0
 10
208.7741241455078
 20
-11.31947612762451
 30
147.5894317626953
 70
   192
  0
VERTEX
  5
67A
  8
0
 10
208.36865234375
 20
-11.68102741241455
 30
148.0433959960938
 70
   192
  0
VERTEX
  5
67B
  8
0
 10
205.6594543457031
 20
-8.07425594329834
 30
147.7107543945312
 70
   192
  0
VERTEX
  5
67C
  8
0
 10
206.2460632324219
 20
-8.004952430725098
 30
147.2790222167969
 70
   192
  0
VERTEX
  5
67D
  8
0
 10
204.0610046386719
 20
-4.035420894622803
 30
147.5144958496094
 70
   192
  0
VERTEX
  5
67E
  8
0
 10
204.6598052978516
 20
-4.150278568267822
 30
147.0842590332031
 70
   192
  0
VERTEX
  5
67F
  8
0
 10
224.1124114990234
 20
-15.45258140563965
 30
149.4727325439453
 70
   192
  0
VERTEX
  5
680
  8
0
 10
227.9391326904297
 20
-13.85559558868408
 30
149.9425964355469
 70
   192
  0
VERTEX
  5
681
  8
0
 10
231.2317352294922
 20
-11.30521392822266
 30
150.3468780517578
 70
   192
  0
VERTEX
  5
682
  8
0
 10
233.7524719238281
 20
-7.993257522583008
 30
150.6563873291016
 70
   192
  0
VERTEX
  5
683
  8
0
 10
235.3366088867188
 20
-4.138950347900391
 30
150.8508911132812
 70
   192
  0
VERTEX
  5
684
  8
0
 10
227.4353332519531
 20
-13.20962429046631
 30
150.8882446289062
 70
   192
  0
VERTEX
  5
685
  8
0
 10
232.9782409667969
 20
-7.631657123565674
 30
151.5688323974609
 70
   192
  0
VERTEX
  5
686
  8
0
 10
232.9854888916016
 20
7.617793083190918
 30
151.5697174072266
 70
   192
  0
VERTEX
  5
687
  8
0
 10
230.8435668945312
 20
11.07808876037598
 30
151.3067321777344
 70
   192
  0
VERTEX
  5
688
  8
0
 10
227.4490966796875
 20
13.2023344039917
 30
150.8899383544922
 70
   192
  0
VERTEX
  5
689
  8
0
 10
227.6311798095703
 20
13.55837726593018
 30
150.9122924804688
 70
   192
  0
VERTEX
  5
68A
  8
0
 10
234.8743438720703
 20
4.063343524932861
 30
151.8016510009766
 70
   192
  0
VERTEX
  5
68B
  8
0
 10
233.3226928710938
 20
7.832978248596191
 30
151.6111297607422
 70
   192
  0
VERTEX
  5
68C
  8
0
 10
219.8743286132812
 20
15.25000476837158
 30
149.9598693847656
 70
   192
  0
VERTEX
  5
68D
  8
0
 10
223.8867492675781
 20
15.11930274963379
 30
150.4525451660156
 70
   192
  0
VERTEX
  5
68E
  8
0
 10
215.8446807861328
 20
15.11363506317139
 30
149.4651031494141
 70
   192
  0
VERTEX
  5
68F
  8
0
 10
212.3133239746094
 20
13.20963287353516
 30
149.031494140625
 70
   192
  0
VERTEX
  5
690
  8
0
 10
212.0995025634766
 20
13.54846954345703
 30
149.0052490234375
 70
   192
  0
VERTEX
  5
691
  8
0
 10
206.7704010009766
 20
7.631665706634521
 30
148.3509216308594
 70
   192
  0
VERTEX
  5
692
  8
0
 10
208.8857879638672
 20
11.06010437011719
 30
148.6106567382812
 70
   192
  0
VERTEX
  5
693
  8
0
 10
219.8743286132812
 20
-15.24999523162842
 30
149.9598693847656
 70
   192
  0
VERTEX
  5
694
  8
0
 10
206.4176483154297
 20
7.815966606140137
 30
148.3076019287109
 70
   192
  0
VERTEX
  5
695
  8
0
 10
204.8693542480469
 20
4.047679901123047
 30
148.1174926757812
 70
   192
  0
VERTEX
  5
696
  8
0
 10
204.7379913330078
 20
0.0000043877016651
 30
148.1013641357422
 70
   192
  0
VERTEX
  5
697
  8
0
 10
212.2995452880859
 20
-13.20232582092285
 30
149.0298156738281
 70
   192
  0
VERTEX
  5
698
  8
0
 10
206.7631530761719
 20
-7.61778450012207
 30
148.3500213623047
 70
   192
  0
VERTEX
  5
699
  8
0
 10
219.8601379394531
 20
15.6483678817749
 30
149.9581298828125
 70
   192
  0
VERTEX
  5
69A
  8
0
 10
220.0032043457031
 20
15.64837074279785
 30
148.9681854248047
 70
   192
  0
VERTEX
  5
69B
  8
0
 10
215.9755706787109
 20
15.11710643768311
 30
148.4736633300781
 70
   192
  0
VERTEX
  5
69C
  8
0
 10
209.0193328857422
 20
11.07041454315186
 30
147.6195373535156
 70
   192
  0
VERTEX
  5
69D
  8
0
 10
206.5418395996094
 20
7.822536945343018
 30
147.3153381347656
 70
   192
  0
VERTEX
  5
69E
  8
0
 10
212.2310180664062
 20
13.5535364151001
 30
148.0138854980469
 70
   192
  0
VERTEX
  5
69F
  8
0
 10
204.9927520751953
 20
4.050483703613281
 30
147.1251373291016
 70
   192
  0
VERTEX
  5
6A0
  8
0
 10
224.0200500488281
 20
15.11520290374756
 30
149.4613952636719
 70
   192
  0
VERTEX
  5
6A1
  8
0
 10
227.7668304443359
 20
13.55091094970703
 30
149.9214477539062
 70
   192
  0
VERTEX
  5
6A2
  8
0
 10
230.9821929931641
 20
11.06265830993652
 30
150.3162384033203
 70
   192
  0
VERTEX
  5
6A3
  8
0
 10
233.4516754150391
 20
7.818058490753174
 30
150.6194610595703
 70
   192
  0
VERTEX
  5
6A4
  8
0
 10
235.0008544921875
 20
4.048843383789062
 30
150.8096771240234
 70
   192
  0
VERTEX
  5
6A5
  8
0
 10
23.93594169616699
 20
-8.793207168579102
 30
145.7321472167969
 70
   192
  0
VERTEX
  5
6A6
  8
0
 10
19.44222259521484
 20
-16.49999809265137
 30
145.1803894042969
 70
   192
  0
VERTEX
  5
6A7
  8
0
 10
25.49998474121094
 20
0.0000017998345356
 30
145.9241943359375
 70
   192
  0
VERTEX
  5
6A8
  8
0
 10
23.93593978881836
 20
8.79321002960205
 30
145.7321472167969
 70
   192
  0
VERTEX
  5
6A9
  8
0
 10
19.44222068786621
 20
16.50000190734863
 30
145.1803894042969
 70
   192
  0
VERTEX
  5
6AA
  8
0
 10
58.30654525756836
 20
-16.49999809265137
 30
141.7623443603516
 70
   192
  0
VERTEX
  5
6AB
  8
0
 10
19.44222259521484
 20
-16.49999809265137
 30
136.9904022216797
 70
   192
  0
VERTEX
  5
6AC
  8
0
 10
97.17086791992188
 20
-16.49999809265137
 30
146.5342864990234
 70
   192
  0
VERTEX
  5
6AD
  8
0
 10
136.0351867675781
 20
-16.49999809265137
 30
151.3062286376953
 70
   192
  0
VERTEX
  5
6AE
  8
0
 10
174.8995056152344
 20
-16.49999809265137
 30
156.0781555175781
 70
   192
  0
VERTEX
  5
6AF
  8
0
 10
213.7638244628906
 20
-16.49999809265137
 30
160.85009765625
 70
   192
  0
VERTEX
  5
6B0
  8
0
 10
213.7638549804688
 20
16.50000190734863
 30
160.8501129150391
 70
   192
  0
VERTEX
  5
6B1
  8
0
 10
68.02262878417969
 20
16.50000190734863
 30
142.9553527832031
 70
   192
  0
VERTEX
  5
6B2
  8
0
 10
116.6030349731445
 20
16.50000190734863
 30
148.9202728271484
 70
   192
  0
VERTEX
  5
6B3
  8
0
 10
165.1834411621094
 20
16.50000190734863
 30
154.8851928710938
 70
   192
  0
VERTEX
  5
6B4
  8
0
 10
19.69460868835449
 20
16.19791221618652
 30
135.95654296875
 70
   192
  0
VERTEX
  5
6B5
  8
0
 10
116.0756301879883
 20
16.19791221618652
 30
147.7906494140625
 70
   192
  0
VERTEX
  5
6B6
  8
0
 10
164.2661437988281
 20
16.19791221618652
 30
153.7077026367188
 70
   192
  0
VERTEX
  5
6B7
  8
0
 10
212.4566497802734
 20
16.19791221618652
 30
159.624755859375
 70
   192
  0
VERTEX
  5
6B8
  8
0
 10
67.88511657714844
 20
16.19791221618652
 30
141.8735961914062
 70
   192
  0
VERTEX
  5
6B9
  8
0
 10
205.7818145751953
 20
11.12322425842285
 30
153.3677825927734
 70
   192
  0
VERTEX
  5
6BA
  8
0
 10
22.12502288818359
 20
12.74647808074951
 30
132.0796356201172
 70
   192
  0
VERTEX
  5
6BB
  8
0
 10
24.06392288208008
 20
8.132414817810059
 30
129.4241790771484
 70
   192
  0
VERTEX
  5
6BC
  8
0
 10
208.98828125
 20
13.99709796905518
 30
156.3735198974609
 70
   192
  0
VERTEX
  5
6BD
  8
0
 10
203.1442413330078
 20
7.348565101623535
 30
150.8953247070312
 70
   192
  0
VERTEX
  5
6BE
  8
0
 10
25.34536552429199
 20
2.82811164855957
 30
127.7954635620117
 70
   192
  0
VERTEX
  5
6BF
  8
0
 10
201.5445709228516
 20
2.577579498291016
 30
149.3957977294922
 70
   192
  0
VERTEX
  5
6C0
  8
0
 10
201.567626953125
 20
-2.620461702346802
 30
149.4174041748047
 70
   192
  0
VERTEX
  5
6C1
  8
0
 10
203.1524963378906
 20
-7.34430980682373
 30
150.9030609130859
 70
   192
  0
VERTEX
  5
6C2
  8
0
 10
25.31402206420898
 20
-2.842376232147217
 30
127.8333511352539
 70
   192
  0
VERTEX
  5
6C3
  8
0
 10
24.11993980407715
 20
-8.20762825012207
 30
129.3138885498047
 70
   192
  0
VERTEX
  5
6C4
  8
0
 10
205.7886657714844
 20
-11.13395595550537
 30
153.3742065429688
 70
   192
  0
VERTEX
  5
6C5
  8
0
 10
22.07792472839355
 20
-12.74550724029541
 30
132.1058349609375
 70
   192
  0
VERTEX
  5
6C6
  8
0
 10
208.9666900634766
 20
-14.06020641326904
 30
156.353271484375
 70
   192
  0
VERTEX
  5
6C7
  8
0
 10
135.3518218994141
 20
-16.19790840148926
 30
150.1574401855469
 70
   192
  0
VERTEX
  5
6C8
  8
0
 10
173.9042205810547
 20
-16.19790840148926
 30
154.8910827636719
 70
   192
  0
VERTEX
  5
6C9
  8
0
 10
212.4566192626953
 20
-16.19790840148926
 30
159.6247253417969
 70
   192
  0
VERTEX
  5
6CA
  8
0
 10
58.24701309204102
 20
-16.19790840148926
 30
140.6901702880859
 70
   192
  0
VERTEX
  5
6CB
  8
0
 10
96.7994155883789
 20
-16.19790840148926
 30
145.4237976074219
 70
   192
  0
VERTEX
  5
6CC
  8
0
 10
217.1590270996094
 20
-16.43682289123535
 30
160.2020874023438
 70
   192
  0
VERTEX
  5
6CD
  8
0
 10
209.6234588623047
 20
-13.27906608581543
 30
153.1382598876953
 70
   192
  0
VERTEX
  5
6CE
  8
0
 10
213.2586975097656
 20
-15.45856761932373
 30
156.5459289550781
 70
   192
  0
VERTEX
  5
6CF
  8
0
 10
206.5302124023438
 20
-9.877639770507812
 30
150.2386474609375
 70
   192
  0
VERTEX
  5
6D0
  8
0
 10
204.3613128662109
 20
-5.333393573760986
 30
148.2056121826172
 70
   192
  0
VERTEX
  5
6D1
  8
0
 10
214.8078460693359
 20
16.31718063354492
 30
159.9134216308594
 70
   192
  0
VERTEX
  5
6D2
  8
0
 10
214.8078308105469
 20
-16.31717300415039
 30
159.9134216308594
 70
   192
  0
VERTEX
  5
6D3
  8
0
 10
203.0443115234375
 20
2.81782603263855
 30
149.0149536132812
 70
   192
  0
VERTEX
  5
6D4
  8
0
 10
203.0302429199219
 20
-2.768719673156738
 30
149.0012054443359
 70
   192
  0
VERTEX
  5
6D5
  8
0
 10
211.0418701171875
 20
14.59964752197266
 30
156.4581451416016
 70
   192
  0
VERTEX
  5
6D6
  8
0
 10
204.7220458984375
 20
-7.881450176239014
 30
150.5941314697266
 70
   192
  0
VERTEX
  5
6D7
  8
0
 10
207.5519104003906
 20
-11.84070110321045
 30
153.2334747314453
 70
   192
  0
VERTEX
  5
6D8
  8
0
 10
211.0270538330078
 20
-14.60399627685547
 30
156.4443054199219
 70
   192
  0
VERTEX
  5
6D9
  8
0
 10
204.7225799560547
 20
7.882819175720215
 30
150.5948486328125
 70
   192
  0
VERTEX
  5
6DA
  8
0
 10
207.5718231201172
 20
11.83841800689697
 30
153.2526550292969
 70
   192
  0
VERTEX
  5
6DB
  8
0
 62
     9
 10
0.0
 20
0.0
 30
0.0
 70
   128
 71
     3
 72
     2
 73
     1
  0
VERTEX
  5
6DC
  8
0
 62
     9
 10
0.0
 20
0.0
 30
0.0
 70
   128
 71
     6
 72
     5
 73
     4
  0
VERTEX
  5
6DD
  8
0
 62
     9
 10
0.0
 20
0.0
 30
0.0
 70
   128
 71
     4
 72
     5
 73
     7
  0
VERTEX
  5
6DE
  8
0
 62
     9
 10
0.0
 20
0.0
 30
0.0
 70
   128
 71
    10
 72
     9
 73
     8
  0
VERTEX
  5
6DF
  8
0
 62
     9
 10
0.0
 20
0.0
 30
0.0
 70
   128
 71
    11
 72
    10
 73
     3
  0
VERTEX
  5
6E0
  8
0
 62
     9
 10
0.0
 20
0.0
 30
0.0
 70
   128
 71
    14
 72
    13
 73
    12
  0
VERTEX
  5
6E1
  8
0
 62
     9
 10
0.0
 20
0.0
 30
0.0
 70
   128
 71
    16
 72
    15
 73
     9
  0
VERTEX
  5
6E2
  8
0
 62
     9
 10
0.0
 20
0.0
 30
0.0
 70
   128
 71
    19
 72
    18
 73
    17
  0
VERTEX
  5
6E3
  8
0
 62
     9
 10
0.0
 20
0.0
 30
0.0
 70
   128
 71
    20
 72
    17
 73
    18
  0
VERTEX
  5
6E4
  8
0
 62
     9
 10
0.0
 20
0.0
 30
0.0
 70
   128
 71
    19
 72
    17
 73
    21
  0
VERTEX
  5
6E5
  8
0
 62
     9
 10
0.0
 20
0.0
 30
0.0
 70
   128
 71
    19
 72
    22
 73
    18
  0
VERTEX
  5
6E6
  8
0
 62
     9
 10
0.0
 20
0.0
 30
0.0
 70
   128
 71
    17
 72
    20
 73
    14
  0
VERTEX
  5
6E7
  8
0
 62
     9
 10
0.0
 20
0.0
 30
0.0
 70
   128
 71
    20
 72
    13
 73
    14
  0
VERTEX
  5
6E8
  8
0
 62
     9
 10
0.0
 20
0.0
 30
0.0
 70
   128
 71
    12
 72
    13
 73
    15
  0
VERTEX
  5
6E9
  8
0
 62
     9
 10
0.0
 20
0.0
 30
0.0
 70
   128
 71
     2
 72
     7
 73
     5
  0
VERTEX
  5
6EA
  8
0
 62
     9
 10
0.0
 20
0.0
 30
0.0
 70
   128
 71
     8
 72
     9
 73
    15
  0
VERTEX
  5
6EB
  8
0
 62
     9
 10
0.0
 20
0.0
 30
0.0
 70
   128
 71
    16
 72
    12
 73
    15
  0
VERTEX
  5
6EC
  8
0
 62
     9
 10
0.0
 20
0.0
 30
0.0
 70
   128
 71
     3
 72
    10
 73
     8
  0
VERTEX
  5
6ED
  8
0
 62
     9
 10
0.0
 20
0.0
 30
0.0
 70
   128
 71
     3
 72
     1
 73
    11
  0
VERTEX
  5
6EE
  8
0
 62
     9
 10
0.0
 20
0.0
 30
0.0
 70
   128
 71
     5
 72
     1
 73
     2
  0
VERTEX
  5
6EF
  8
0
 62
     9
 10
0.0
 20
0.0
 30
0.0
 70
   128
 71
    25
 72
    24
 73
    23
  0
VERTEX
  5
6F0
  8
0
 62
     9
 10
0.0
 20
0.0
 30
0.0
 70
   128
 71
    28
 72
    27
 73
    26
  0
VERTEX
  5
6F1
  8
0
 62
     9
 10
0.0
 20
0.0
 30
0.0
 70
   128
 71
    24
 72
    26
 73
    27
  0
VERTEX
  5
6F2
  8
0
 62
     9
 10
0.0
 20
0.0
 30
0.0
 70
   128
 71
    27
 72
    28
 73
    29
  0
VERTEX
  5
6F3
  8
0
 62
     9
 10
0.0
 20
0.0
 30
0.0
 70
   128
 71
    19
 72
    21
 73
    29
  0
VERTEX
  5
6F4
  8
0
 62
     9
 10
0.0
 20
0.0
 30
0.0
 70
   128
 71
    29
 72
    21
 73
    27
  0
VERTEX
  5
6F5
  8
0
 62
     9
 10
0.0
 20
0.0
 30
0.0
 70
   128
 71
    25
 72
    26
 73
    24
  0
VERTEX
  5
6F6
  8
0
 62
     9
 10
0.0
 20
0.0
 30
0.0
 70
   128
 71
    31
 72
    23
 73
    30
  0
VERTEX
  5
6F7
  8
0
 62
     9
 10
0.0
 20
0.0
 30
0.0
 70
   128
 71
    23
 72
    31
 73
    25
  0
VERTEX
  5
6F8
  8
0
 62
     9
 10
0.0
 20
0.0
 30
0.0
 70
   128
 71
    34
 72
    33
 73
    32
  0
VERTEX
  5
6F9
  8
0
 62
     9
 10
0.0
 20
0.0
 30
0.0
 70
   128
 71
    35
 72
    33
 73
    34
  0
VERTEX
  5
6FA
  8
0
 62
     9
 10
0.0
 20
0.0
 30
0.0
 70
   128
 71
    34
 72
    36
 73
    35
  0
VERTEX
  5
6FB
  8
0
 62
     9
 10
0.0
 20
0.0
 30
0.0
 70
   128
 71
    39
 72
    38
 73
    37
  0
VERTEX
  5
6FC
  8
0
 62
     9
 10
0.0
 20
0.0
 30
0.0
 70
   128
 71
    41
 72
    36
 73
    40
  0
VERTEX
  5
6FD
  8
0
 62
     9
 10
0.0
 20
0.0
 30
0.0
 70
   128
 71
    41
 72
    40
 73
    37
  0
VERTEX
  5
6FE
  8
0
 62
     9
 10
0.0
 20
0.0
 30
0.0
 70
   128
 71
    39
 72
    37
 73
    40
  0
VERTEX
  5
6FF
  8
0
 62
     9
 10
0.0
 20
0.0
 30
0.0
 70
   128
 71
    44
 72
    43
 73
    42
  0
VERTEX
  5
700
  8
0
 62
     9
 10
0.0
 20
0.0
 30
0.0
 70
   128
 71
    44
 72
    38
 73
    39
  0
VERTEX
  5
701
  8
0
 62
     9
 10
0.0
 20
0.0
 30
0.0
 70
   128
 71
    38
 72
    44
 73
    42
  0
VERTEX
  5
702
  8
0
 62
     9
 10
0.0
 20
0.0
 30
0.0
 70
   128
 71
    36
 72
    41
 73
    35
  0
VERTEX
  5
703
  8
0
 62
     9
 10
0.0
 20
0.0
 30
0.0
 70
   128
 71
    16
 72
    42
 73
    43
  0
VERTEX
  5
704
  8
0
 62
     9
 10
0.0
 20
0.0
 30
0.0
 70
   128
 71
    33
 72
    45
 73
    32
  0
VERTEX
  5
705
  8
0
 62
     9
 10
0.0
 20
0.0
 30
0.0
 70
   128
 71
    47
 72
    46
 73
    45
  0
VERTEX
  5
706
  8
0
 62
     9
 10
0.0
 20
0.0
 30
0.0
 70
   128
 71
    32
 72
    45
 73
    46
  0
VERTEX
  5
707
  8
0
 62
     9
 10
0.0
 20
0.0
 30
0.0
 70
   128
 71
    47
 72
    49
 73
    48
  0
VERTEX
  5
708
  8
0
 62
     9
 10
0.0
 20
0.0
 30
0.0
 70
   128
 71
    48
 72
    46
 73
    47
  0
VERTEX
  5
709
  8
0
 62
     9
 10
0.0
 20
0.0
 30
0.0
 70
   128
 71
    51
 72
    49
 73
    50
  0
VERTEX
  5
70A
  8
0
 62
     9
 10
0.0
 20
0.0
 30
0.0
 70
   128
 71
    49
 72
    51
 73
    48
  0
VERTEX
  5
70B
  8
0
 62
     9
 10
0.0
 20
0.0
 30
0.0
 70
   128
 71
    53
 72
    52
 73
    50
  0
VERTEX
  5
70C
  8
0
 62
     9
 10
0.0
 20
0.0
 30
0.0
 70
   128
 71
    51
 72
    50
 73
    52
  0
VERTEX
  5
70D
  8
0
 62
     9
 10
0.0
 20
0.0
 30
0.0
 70
   128
 71
    53
 72
    55
 73
    54
  0
VERTEX
  5
70E
  8
0
 62
     9
 10
0.0
 20
0.0
 30
0.0
 70
   128
 71
    54
 72
    52
 73
    53
  0
VERTEX
  5
70F
  8
0
 62
     9
 10
0.0
 20
0.0
 30
0.0
 70
   128
 71
    57
 72
    14
 73
    56
  0
VERTEX
  5
710
  8
0
 62
     9
 10
0.0
 20
0.0
 30
0.0
 70
   128
 71
    58
 72
    21
 73
    17
  0
VERTEX
  5
711
  8
0
 62
     9
 10
0.0
 20
0.0
 30
0.0
 70
   128
 71
    14
 72
    57
 73
    17
  0
VERTEX
  5
712
  8
0
 62
     9
 10
0.0
 20
0.0
 30
0.0
 70
   128
 71
    17
 72
    57
 73
    58
  0
VERTEX
  5
713
  8
0
 62
     9
 10
0.0
 20
0.0
 30
0.0
 70
   128
 71
    59
 72
    56
 73
    12
  0
VERTEX
  5
714
  8
0
 62
     9
 10
0.0
 20
0.0
 30
0.0
 70
   128
 71
    14
 72
    12
 73
    56
  0
VERTEX
  5
715
  8
0
 62
     9
 10
0.0
 20
0.0
 30
0.0
 70
   128
 71
    16
 72
    59
 73
    12
  0
VERTEX
  5
716
  8
0
 62
     9
 10
0.0
 20
0.0
 30
0.0
 70
   128
 71
    21
 72
    58
 73
    60
  0
VERTEX
  5
717
  8
0
 62
     9
 10
0.0
 20
0.0
 30
0.0
 70
   128
 71
    27
 72
    60
 73
    61
  0
VERTEX
  5
718
  8
0
 62
     9
 10
0.0
 20
0.0
 30
0.0
 70
   128
 71
    60
 72
    27
 73
    21
  0
VERTEX
  5
719
  8
0
 62
     9
 10
0.0
 20
0.0
 30
0.0
 70
   128
 71
    62
 72
    24
 73
    61
  0
VERTEX
  5
71A
  8
0
 62
     9
 10
0.0
 20
0.0
 30
0.0
 70
   128
 71
    27
 72
    61
 73
    24
  0
VERTEX
  5
71B
  8
0
 62
     9
 10
0.0
 20
0.0
 30
0.0
 70
   128
 71
    62
 72
    63
 73
    23
  0
VERTEX
  5
71C
  8
0
 62
     9
 10
0.0
 20
0.0
 30
0.0
 70
   128
 71
    23
 72
    24
 73
    62
  0
VERTEX
  5
71D
  8
0
 62
     9
 10
0.0
 20
0.0
 30
0.0
 70
   128
 71
    23
 72
    63
 73
    30
  0
VERTEX
  5
71E
  8
0
 62
     9
 10
0.0
 20
0.0
 30
0.0
 70
   128
 71
    66
 72
    65
 73
    64
  0
VERTEX
  5
71F
  8
0
 62
     9
 10
0.0
 20
0.0
 30
0.0
 70
   128
 71
    65
 72
    67
 73
     6
  0
VERTEX
  5
720
  8
0
 62
     9
 10
0.0
 20
0.0
 30
0.0
 70
   128
 71
    70
 72
    69
 73
    68
  0
VERTEX
  5
721
  8
0
 62
     9
 10
0.0
 20
0.0
 30
0.0
 70
   128
 71
    64
 72
    68
 73
    66
  0
VERTEX
  5
722
  8
0
 62
     9
 10
0.0
 20
0.0
 30
0.0
 70
   128
 71
    68
 72
    64
 73
    70
  0
VERTEX
  5
723
  8
0
 62
     9
 10
0.0
 20
0.0
 30
0.0
 70
   128
 71
    70
 72
    71
 73
    69
  0
VERTEX
  5
724
  8
0
 62
     9
 10
0.0
 20
0.0
 30
0.0
 70
   128
 71
    71
 72
    72
 73
    69
  0
VERTEX
  5
725
  8
0
 62
     9
 10
0.0
 20
0.0
 30
0.0
 70
   128
 71
    73
 72
    72
 73
    71
  0
VERTEX
  5
726
  8
0
 62
     9
 10
0.0
 20
0.0
 30
0.0
 70
   128
 71
    74
 72
    73
 73
    30
  0
VERTEX
  5
727
  8
0
 62
     9
 10
0.0
 20
0.0
 30
0.0
 70
   128
 71
    72
 72
    73
 73
    74
  0
VERTEX
  5
728
  8
0
 62
     9
 10
0.0
 20
0.0
 30
0.0
 70
   128
 71
    67
 72
    65
 73
    66
  0
VERTEX
  5
729
  8
0
 62
     9
 10
0.0
 20
0.0
 30
0.0
 70
   128
 71
    63
 72
    74
 73
    30
  0
VERTEX
  5
72A
  8
0
 62
     9
 10
0.0
 20
0.0
 30
0.0
 70
   128
 71
     6
 72
    67
 73
    75
  0
VERTEX
  5
72B
  8
0
 62
     9
 10
0.0
 20
0.0
 30
0.0
 70
   128
 71
    76
 72
     5
 73
    75
  0
VERTEX
  5
72C
  8
0
 62
     9
 10
0.0
 20
0.0
 30
0.0
 70
   128
 71
     6
 72
    75
 73
     5
  0
VERTEX
  5
72D
  8
0
 62
     9
 10
0.0
 20
0.0
 30
0.0
 70
   128
 71
    76
 72
    77
 73
     1
  0
VERTEX
  5
72E
  8
0
 62
     9
 10
0.0
 20
0.0
 30
0.0
 70
   128
 71
     1
 72
     5
 73
    76
  0
VERTEX
  5
72F
  8
0
 62
     9
 10
0.0
 20
0.0
 30
0.0
 70
   128
 71
    11
 72
    77
 73
    78
  0
VERTEX
  5
730
  8
0
 62
     9
 10
0.0
 20
0.0
 30
0.0
 70
   128
 71
    77
 72
    11
 73
     1
  0
VERTEX
  5
731
  8
0
 62
     9
 10
0.0
 20
0.0
 30
0.0
 70
   128
 71
    79
 72
    10
 73
    78
  0
VERTEX
  5
732
  8
0
 62
     9
 10
0.0
 20
0.0
 30
0.0
 70
   128
 71
    11
 72
    78
 73
    10
  0
VERTEX
  5
733
  8
0
 62
     9
 10
0.0
 20
0.0
 30
0.0
 70
   128
 71
     9
 72
    79
 73
    16
  0
VERTEX
  5
734
  8
0
 62
     9
 10
0.0
 20
0.0
 30
0.0
 70
   128
 71
     9
 72
    10
 73
    79
  0
VERTEX
  5
735
  8
0
 62
     9
 10
0.0
 20
0.0
 30
0.0
 70
   128
 71
    81
 72
    39
 73
    80
  0
VERTEX
  5
736
  8
0
 62
     9
 10
0.0
 20
0.0
 30
0.0
 70
   128
 71
    84
 72
    83
 73
    82
  0
VERTEX
  5
737
  8
0
 62
     9
 10
0.0
 20
0.0
 30
0.0
 70
   128
 71
    83
 72
    84
 73
    85
  0
VERTEX
  5
738
  8
0
 62
     9
 10
0.0
 20
0.0
 30
0.0
 70
   128
 71
    82
 72
    87
 73
    86
  0
VERTEX
  5
739
  8
0
 62
     9
 10
0.0
 20
0.0
 30
0.0
 70
   128
 71
    16
 72
    82
 73
    86
  0
VERTEX
  5
73A
  8
0
 62
     9
 10
0.0
 20
0.0
 30
0.0
 70
   128
 71
    89
 72
    84
 73
    88
  0
VERTEX
  5
73B
  8
0
 62
     9
 10
0.0
 20
0.0
 30
0.0
 70
   128
 71
    91
 72
    90
 73
    88
  0
VERTEX
  5
73C
  8
0
 62
     9
 10
0.0
 20
0.0
 30
0.0
 70
   128
 71
    92
 72
    90
 73
    91
  0
VERTEX
  5
73D
  8
0
 62
     9
 10
0.0
 20
0.0
 30
0.0
 70
   128
 71
    40
 72
    36
 73
    80
  0
VERTEX
  5
73E
  8
0
 62
     9
 10
0.0
 20
0.0
 30
0.0
 70
   128
 71
    94
 72
    91
 73
    93
  0
VERTEX
  5
73F
  8
0
 62
     9
 10
0.0
 20
0.0
 30
0.0
 70
   128
 71
    95
 72
    34
 73
    32
  0
VERTEX
  5
740
  8
0
 62
     9
 10
0.0
 20
0.0
 30
0.0
 70
   128
 71
    95
 72
    80
 73
    36
  0
VERTEX
  5
741
  8
0
 62
     9
 10
0.0
 20
0.0
 30
0.0
 70
   128
 71
    96
 72
    94
 73
    93
  0
VERTEX
  5
742
  8
0
 62
     9
 10
0.0
 20
0.0
 30
0.0
 70
   128
 71
    98
 72
    97
 73
    93
  0
VERTEX
  5
743
  8
0
 62
     9
 10
0.0
 20
0.0
 30
0.0
 70
   128
 71
    32
 72
    99
 73
    95
  0
VERTEX
  5
744
  8
0
 62
     9
 10
0.0
 20
0.0
 30
0.0
 70
   128
 71
   100
 72
    52
 73
    98
  0
VERTEX
  5
745
  8
0
 62
     9
 10
0.0
 20
0.0
 30
0.0
 70
   128
 71
    48
 72
    99
 73
    46
  0
VERTEX
  5
746
  8
0
 62
     9
 10
0.0
 20
0.0
 30
0.0
 70
   128
 71
    99
 72
    48
 73
   100
  0
VERTEX
  5
747
  8
0
 62
     9
 10
0.0
 20
0.0
 30
0.0
 70
   128
 71
    51
 72
    52
 73
   100
  0
VERTEX
  5
748
  8
0
 62
     9
 10
0.0
 20
0.0
 30
0.0
 70
   128
 71
    98
 72
    54
 73
    97
  0
VERTEX
  5
749
  8
0
 62
     9
 10
0.0
 20
0.0
 30
0.0
 70
   128
 71
    43
 72
    44
 73
    81
  0
VERTEX
  5
74A
  8
0
 62
     9
 10
0.0
 20
0.0
 30
0.0
 70
   128
 71
    89
 72
    88
 73
   101
  0
VERTEX
  5
74B
  8
0
 62
     9
 10
0.0
 20
0.0
 30
0.0
 70
   128
 71
    81
 72
    44
 73
    39
  0
VERTEX
  5
74C
  8
0
 62
     9
 10
0.0
 20
0.0
 30
0.0
 70
   128
 71
    87
 72
    82
 73
    83
  0
VERTEX
  5
74D
  8
0
 62
     9
 10
0.0
 20
0.0
 30
0.0
 70
   128
 71
    85
 72
    84
 73
    89
  0
VERTEX
  5
74E
  8
0
 62
     9
 10
0.0
 20
0.0
 30
0.0
 70
   128
 71
   101
 72
    88
 73
    90
  0
VERTEX
  5
74F
  8
0
 62
     9
 10
0.0
 20
0.0
 30
0.0
 70
   128
 71
    92
 72
    91
 73
    94
  0
VERTEX
  5
750
  8
0
 62
     9
 10
0.0
 20
0.0
 30
0.0
 70
   128
 71
    96
 72
    93
 73
    97
  0
VERTEX
  5
751
  8
0
 62
     9
 10
0.0
 20
0.0
 30
0.0
 70
   128
 71
    54
 72
    98
 73
    52
  0
VERTEX
  5
752
  8
0
 62
     9
 10
0.0
 20
0.0
 30
0.0
 70
   128
 71
    51
 72
   100
 73
    48
  0
VERTEX
  5
753
  8
0
 62
     9
 10
0.0
 20
0.0
 30
0.0
 70
   128
 71
    46
 72
    99
 73
    32
  0
VERTEX
  5
754
  8
0
 62
     9
 10
0.0
 20
0.0
 30
0.0
 70
   128
 71
    34
 72
    95
 73
    36
  0
VERTEX
  5
755
  8
0
 62
     9
 10
0.0
 20
0.0
 30
0.0
 70
   128
 71
    40
 72
    80
 73
    39
  0
VERTEX
  5
756
  8
0
 62
     9
 10
0.0
 20
0.0
 30
0.0
 70
   128
 71
    81
 72
    16
 73
    43
  0
VERTEX
  5
757
  8
0
 62
     9
 10
0.0
 20
0.0
 30
0.0
 70
   128
 71
   101
 72
   102
 73
    89
  0
VERTEX
  5
758
  8
0
 62
     9
 10
0.0
 20
0.0
 30
0.0
 70
   128
 71
   103
 72
   102
 73
   101
  0
VERTEX
  5
759
  8
0
 62
     9
 10
0.0
 20
0.0
 30
0.0
 70
   128
 71
   101
 72
    90
 73
   103
  0
VERTEX
  5
75A
  8
0
 62
     9
 10
0.0
 20
0.0
 30
0.0
 70
   128
 71
    94
 72
   105
 73
   104
  0
VERTEX
  5
75B
  8
0
 62
     9
 10
0.0
 20
0.0
 30
0.0
 70
   128
 71
   106
 72
    90
 73
    92
  0
VERTEX
  5
75C
  8
0
 62
     9
 10
0.0
 20
0.0
 30
0.0
 70
   128
 71
   106
 72
    92
 73
   104
  0
VERTEX
  5
75D
  8
0
 62
     9
 10
0.0
 20
0.0
 30
0.0
 70
   128
 71
    94
 72
   104
 73
    92
  0
VERTEX
  5
75E
  8
0
 62
     9
 10
0.0
 20
0.0
 30
0.0
 70
   128
 71
    96
 72
    97
 73
   107
  0
VERTEX
  5
75F
  8
0
 62
     9
 10
0.0
 20
0.0
 30
0.0
 70
   128
 71
    96
 72
   105
 73
    94
  0
VERTEX
  5
760
  8
0
 62
     9
 10
0.0
 20
0.0
 30
0.0
 70
   128
 71
   105
 72
    96
 73
   107
  0
VERTEX
  5
761
  8
0
 62
     9
 10
0.0
 20
0.0
 30
0.0
 70
   128
 71
    90
 72
   106
 73
   103
  0
VERTEX
  5
762
  8
0
 62
     9
 10
0.0
 20
0.0
 30
0.0
 70
   128
 71
    54
 72
    55
 73
    97
  0
VERTEX
  5
763
  8
0
 62
     9
 10
0.0
 20
0.0
 30
0.0
 70
   128
 71
   107
 72
    97
 73
    55
  0
VERTEX
  5
764
  8
0
 62
     9
 10
0.0
 20
0.0
 30
0.0
 70
   128
 71
    89
 72
   102
 73
   108
  0
VERTEX
  5
765
  8
0
 62
     9
 10
0.0
 20
0.0
 30
0.0
 70
   128
 71
   109
 72
    85
 73
   108
  0
VERTEX
  5
766
  8
0
 62
     9
 10
0.0
 20
0.0
 30
0.0
 70
   128
 71
    89
 72
   108
 73
    85
  0
VERTEX
  5
767
  8
0
 62
     9
 10
0.0
 20
0.0
 30
0.0
 70
   128
 71
   109
 72
   110
 73
    83
  0
VERTEX
  5
768
  8
0
 62
     9
 10
0.0
 20
0.0
 30
0.0
 70
   128
 71
    83
 72
    85
 73
   109
  0
VERTEX
  5
769
  8
0
 62
     9
 10
0.0
 20
0.0
 30
0.0
 70
   128
 71
    87
 72
   110
 73
   111
  0
VERTEX
  5
76A
  8
0
 62
     9
 10
0.0
 20
0.0
 30
0.0
 70
   128
 71
   110
 72
    87
 73
    83
  0
VERTEX
  5
76B
  8
0
 62
     9
 10
0.0
 20
0.0
 30
0.0
 70
   128
 71
   112
 72
    86
 73
   111
  0
VERTEX
  5
76C
  8
0
 62
     9
 10
0.0
 20
0.0
 30
0.0
 70
   128
 71
    87
 72
   111
 73
    86
  0
VERTEX
  5
76D
  8
0
 62
     9
 10
0.0
 20
0.0
 30
0.0
 70
   128
 71
    16
 72
    86
 73
   112
  0
VERTEX
  5
76E
  8
0
 62
     9
 10
0.0
 20
0.0
 30
0.0
 70
   128
 71
     8
 72
    22
 73
     3
  0
VERTEX
  5
76F
  8
0
 62
     9
 10
0.0
 20
0.0
 30
0.0
 70
   128
 71
    18
 72
    22
 73
    15
  0
VERTEX
  5
770
  8
0
 62
     9
 10
0.0
 20
0.0
 30
0.0
 70
   128
 71
     7
 72
     2
 73
    22
  0
VERTEX
  5
771
  8
0
 62
     9
 10
0.0
 20
0.0
 30
0.0
 70
   128
 71
   114
 72
     7
 73
   113
  0
VERTEX
  5
772
  8
0
 62
     9
 10
0.0
 20
0.0
 30
0.0
 70
   128
 71
     7
 72
   115
 73
   113
  0
VERTEX
  5
773
  8
0
 62
     9
 10
0.0
 20
0.0
 30
0.0
 70
   128
 71
    15
 72
    13
 73
    18
  0
VERTEX
  5
774
  8
0
 62
     9
 10
0.0
 20
0.0
 30
0.0
 70
   128
 71
    13
 72
    20
 73
    18
  0
VERTEX
  5
775
  8
0
 62
     9
 10
0.0
 20
0.0
 30
0.0
 70
   128
 71
    22
 72
     8
 73
    15
  0
VERTEX
  5
776
  8
0
 62
     9
 10
0.0
 20
0.0
 30
0.0
 70
   128
 71
     7
 72
    22
 73
   115
  0
VERTEX
  5
777
  8
0
 62
     9
 10
0.0
 20
0.0
 30
0.0
 70
   128
 71
     2
 72
     3
 73
    22
  0
VERTEX
  5
778
  8
0
 62
     9
 10
0.0
 20
0.0
 30
0.0
 70
   128
 71
   116
 72
   115
 73
    22
  0
VERTEX
  5
779
  8
0
 62
     9
 10
0.0
 20
0.0
 30
0.0
 70
   128
 71
    22
 72
   117
 73
   116
  0
VERTEX
  5
77A
  8
0
 62
     9
 10
0.0
 20
0.0
 30
0.0
 70
   128
 71
   119
 72
   118
 73
   114
  0
VERTEX
  5
77B
  8
0
 62
     9
 10
0.0
 20
0.0
 30
0.0
 70
   128
 71
   120
 72
   114
 73
   118
  0
VERTEX
  5
77C
  8
0
 62
     9
 10
0.0
 20
0.0
 30
0.0
 70
   128
 71
   114
 72
   121
 73
     7
  0
VERTEX
  5
77D
  8
0
 62
     9
 10
0.0
 20
0.0
 30
0.0
 70
   128
 71
   121
 72
   114
 73
   120
  0
VERTEX
  5
77E
  8
0
 62
     9
 10
0.0
 20
0.0
 30
0.0
 70
   128
 71
   121
 72
   122
 73
     7
  0
VERTEX
  5
77F
  8
0
 62
     9
 10
0.0
 20
0.0
 30
0.0
 70
   128
 71
   122
 72
   123
 73
     7
  0
VERTEX
  5
780
  8
0
 62
     9
 10
0.0
 20
0.0
 30
0.0
 70
   128
 71
   123
 72
     4
 73
     7
  0
VERTEX
  5
781
  8
0
 62
     9
 10
0.0
 20
0.0
 30
0.0
 70
   128
 71
    22
 72
    19
 73
   124
  0
VERTEX
  5
782
  8
0
 62
     9
 10
0.0
 20
0.0
 30
0.0
 70
   128
 71
   117
 72
   126
 73
   125
  0
VERTEX
  5
783
  8
0
 62
     9
 10
0.0
 20
0.0
 30
0.0
 70
   128
 71
   127
 72
   126
 73
    22
  0
VERTEX
  5
784
  8
0
 62
     9
 10
0.0
 20
0.0
 30
0.0
 70
   128
 71
   127
 72
    22
 73
   124
  0
VERTEX
  5
785
  8
0
 62
     9
 10
0.0
 20
0.0
 30
0.0
 70
   128
 71
   126
 72
   117
 73
    22
  0
VERTEX
  5
786
  8
0
 62
     9
 10
0.0
 20
0.0
 30
0.0
 70
   128
 71
   125
 72
   128
 73
   117
  0
VERTEX
  5
787
  8
0
 62
     9
 10
0.0
 20
0.0
 30
0.0
 70
   128
 71
   125
 72
   126
 73
   129
  0
VERTEX
  5
788
  8
0
 62
     9
 10
0.0
 20
0.0
 30
0.0
 70
   128
 71
   131
 72
   130
 73
   127
  0
VERTEX
  5
789
  8
0
 62
     9
 10
0.0
 20
0.0
 30
0.0
 70
   128
 71
   130
 72
   126
 73
   127
  0
VERTEX
  5
78A
  8
0
 62
     9
 10
0.0
 20
0.0
 30
0.0
 70
   128
 71
   129
 72
   126
 73
   130
  0
VERTEX
  5
78B
  8
0
 62
     9
 10
0.0
 20
0.0
 30
0.0
 70
   128
 71
   127
 72
   124
 73
   131
  0
VERTEX
  5
78C
  8
0
 62
     9
 10
0.0
 20
0.0
 30
0.0
 70
   128
 71
   129
 72
   132
 73
   125
  0
VERTEX
  5
78D
  8
0
 62
     9
 10
0.0
 20
0.0
 30
0.0
 70
   128
 71
   128
 72
   125
 73
   132
  0
VERTEX
  5
78E
  8
0
 62
     9
 10
0.0
 20
0.0
 30
0.0
 70
   128
 71
   135
 72
   134
 73
   133
  0
VERTEX
  5
78F
  8
0
 62
     9
 10
0.0
 20
0.0
 30
0.0
 70
   128
 71
   136
 72
   134
 73
   128
  0
VERTEX
  5
790
  8
0
 62
     9
 10
0.0
 20
0.0
 30
0.0
 70
   128
 71
   134
 72
   136
 73
   133
  0
VERTEX
  5
791
  8
0
 62
     9
 10
0.0
 20
0.0
 30
0.0
 70
   128
 71
   136
 72
   129
 73
   130
  0
VERTEX
  5
792
  8
0
 62
     9
 10
0.0
 20
0.0
 30
0.0
 70
   128
 71
   131
 72
   136
 73
   130
  0
VERTEX
  5
793
  8
0
 62
     9
 10
0.0
 20
0.0
 30
0.0
 70
   128
 71
   132
 72
   136
 73
   128
  0
VERTEX
  5
794
  8
0
 62
     9
 10
0.0
 20
0.0
 30
0.0
 70
   128
 71
   136
 72
   132
 73
   129
  0
VERTEX
  5
795
  8
0
 62
     9
 10
0.0
 20
0.0
 30
0.0
 70
   128
 71
   138
 72
   135
 73
   137
  0
VERTEX
  5
796
  8
0
 62
     9
 10
0.0
 20
0.0
 30
0.0
 70
   128
 71
   133
 72
   137
 73
   135
  0
VERTEX
  5
797
  8
0
 62
     9
 10
0.0
 20
0.0
 30
0.0
 70
   128
 71
   138
 72
   137
 73
   139
  0
VERTEX
  5
798
  8
0
 62
     9
 10
0.0
 20
0.0
 30
0.0
 70
   128
 71
   140
 72
   138
 73
   139
  0
VERTEX
  5
799
  8
0
 62
     9
 10
0.0
 20
0.0
 30
0.0
 70
   128
 71
   142
 72
   140
 73
   141
  0
VERTEX
  5
79A
  8
0
 62
     9
 10
0.0
 20
0.0
 30
0.0
 70
   128
 71
   140
 72
   142
 73
   138
  0
VERTEX
  5
79B
  8
0
 62
     9
 10
0.0
 20
0.0
 30
0.0
 70
   128
 71
   144
 72
   143
 73
   141
  0
VERTEX
  5
79C
  8
0
 62
     9
 10
0.0
 20
0.0
 30
0.0
 70
   128
 71
   142
 72
   141
 73
   143
  0
VERTEX
  5
79D
  8
0
 62
     9
 10
0.0
 20
0.0
 30
0.0
 70
   128
 71
   144
 72
   146
 73
   145
  0
VERTEX
  5
79E
  8
0
 62
     9
 10
0.0
 20
0.0
 30
0.0
 70
   128
 71
   145
 72
   143
 73
   144
  0
VERTEX
  5
79F
  8
0
 62
     9
 10
0.0
 20
0.0
 30
0.0
 70
   128
 71
   146
 72
   119
 73
   145
  0
VERTEX
  5
7A0
  8
0
 62
     9
 10
0.0
 20
0.0
 30
0.0
 70
   128
 71
   148
 72
   147
 73
   146
  0
VERTEX
  5
7A1
  8
0
 62
     9
 10
0.0
 20
0.0
 30
0.0
 70
   128
 71
   149
 72
   148
 73
   146
  0
VERTEX
  5
7A2
  8
0
 62
     9
 10
0.0
 20
0.0
 30
0.0
 70
   128
 71
   146
 72
   151
 73
   150
  0
VERTEX
  5
7A3
  8
0
 62
     9
 10
0.0
 20
0.0
 30
0.0
 70
   128
 71
   147
 72
   151
 73
   146
  0
VERTEX
  5
7A4
  8
0
 62
     9
 10
0.0
 20
0.0
 30
0.0
 70
   128
 71
   146
 72
   150
 73
   119
  0
VERTEX
  5
7A5
  8
0
 62
     9
 10
0.0
 20
0.0
 30
0.0
 70
   128
 71
   147
 72
   120
 73
   151
  0
VERTEX
  5
7A6
  8
0
 62
     9
 10
0.0
 20
0.0
 30
0.0
 70
   128
 71
   121
 72
   147
 73
   148
  0
VERTEX
  5
7A7
  8
0
 62
     9
 10
0.0
 20
0.0
 30
0.0
 70
   128
 71
   121
 72
   148
 73
   122
  0
VERTEX
  5
7A8
  8
0
 62
     9
 10
0.0
 20
0.0
 30
0.0
 70
   128
 71
   120
 72
   147
 73
   121
  0
VERTEX
  5
7A9
  8
0
 62
     9
 10
0.0
 20
0.0
 30
0.0
 70
   128
 71
   123
 72
   122
 73
   149
  0
VERTEX
  5
7AA
  8
0
 62
     9
 10
0.0
 20
0.0
 30
0.0
 70
   128
 71
   148
 72
   149
 73
   122
  0
VERTEX
  5
7AB
  8
0
 62
     9
 10
0.0
 20
0.0
 30
0.0
 70
   128
 71
   118
 72
   151
 73
   120
  0
VERTEX
  5
7AC
  8
0
 62
     9
 10
0.0
 20
0.0
 30
0.0
 70
   128
 71
   118
 72
   119
 73
   150
  0
VERTEX
  5
7AD
  8
0
 62
     9
 10
0.0
 20
0.0
 30
0.0
 70
   128
 71
   151
 72
   118
 73
   150
  0
VERTEX
  5
7AE
  8
0
 62
     9
 10
0.0
 20
0.0
 30
0.0
 70
   128
 71
     6
 72
     4
 73
   152
  0
VERTEX
  5
7AF
  8
0
 62
     9
 10
0.0
 20
0.0
 30
0.0
 70
   128
 71
    70
 72
    64
 73
   153
  0
VERTEX
  5
7B0
  8
0
 62
     9
 10
0.0
 20
0.0
 30
0.0
 70
   128
 71
   154
 72
    65
 73
   152
  0
VERTEX
  5
7B1
  8
0
 62
     9
 10
0.0
 20
0.0
 30
0.0
 70
   128
 71
   156
 72
    71
 73
   155
  0
VERTEX
  5
7B2
  8
0
 62
     9
 10
0.0
 20
0.0
 30
0.0
 70
   128
 71
    70
 72
   155
 73
    71
  0
VERTEX
  5
7B3
  8
0
 62
     9
 10
0.0
 20
0.0
 30
0.0
 70
   128
 71
    64
 72
    65
 73
   154
  0
VERTEX
  5
7B4
  8
0
 62
     9
 10
0.0
 20
0.0
 30
0.0
 70
   128
 71
   156
 72
    73
 73
    71
  0
VERTEX
  5
7B5
  8
0
 62
     9
 10
0.0
 20
0.0
 30
0.0
 70
   128
 71
    30
 72
    73
 73
   156
  0
VERTEX
  5
7B6
  8
0
 62
     9
 10
0.0
 20
0.0
 30
0.0
 70
   128
 71
   153
 72
   155
 73
    70
  0
VERTEX
  5
7B7
  8
0
 62
     9
 10
0.0
 20
0.0
 30
0.0
 70
   128
 71
   154
 72
   153
 73
    64
  0
VERTEX
  5
7B8
  8
0
 62
     9
 10
0.0
 20
0.0
 30
0.0
 70
   128
 71
    65
 72
     6
 73
   152
  0
VERTEX
  5
7B9
  8
0
 62
     9
 10
0.0
 20
0.0
 30
0.0
 70
   128
 71
    16
 72
   112
 73
    59
  0
VERTEX
  5
7BA
  8
0
 62
     9
 10
0.0
 20
0.0
 30
0.0
 70
   128
 71
    59
 72
   111
 73
    56
  0
VERTEX
  5
7BB
  8
0
 62
     9
 10
0.0
 20
0.0
 30
0.0
 70
   128
 71
   112
 72
   111
 73
    59
  0
VERTEX
  5
7BC
  8
0
 62
     9
 10
0.0
 20
0.0
 30
0.0
 70
   128
 71
   111
 72
   110
 73
    56
  0
VERTEX
  5
7BD
  8
0
 62
     9
 10
0.0
 20
0.0
 30
0.0
 70
   128
 71
    56
 72
   109
 73
    57
  0
VERTEX
  5
7BE
  8
0
 62
     9
 10
0.0
 20
0.0
 30
0.0
 70
   128
 71
   110
 72
   109
 73
    56
  0
VERTEX
  5
7BF
  8
0
 62
     9
 10
0.0
 20
0.0
 30
0.0
 70
   128
 71
    57
 72
   108
 73
    58
  0
VERTEX
  5
7C0
  8
0
 62
     9
 10
0.0
 20
0.0
 30
0.0
 70
   128
 71
   109
 72
   108
 73
    57
  0
VERTEX
  5
7C1
  8
0
 62
     9
 10
0.0
 20
0.0
 30
0.0
 70
   128
 71
   108
 72
   102
 73
    58
  0
VERTEX
  5
7C2
  8
0
 62
     9
 10
0.0
 20
0.0
 30
0.0
 70
   128
 71
    58
 72
   103
 73
    60
  0
VERTEX
  5
7C3
  8
0
 62
     9
 10
0.0
 20
0.0
 30
0.0
 70
   128
 71
   102
 72
   103
 73
    58
  0
VERTEX
  5
7C4
  8
0
 62
     9
 10
0.0
 20
0.0
 30
0.0
 70
   128
 71
    60
 72
   106
 73
    61
  0
VERTEX
  5
7C5
  8
0
 62
     9
 10
0.0
 20
0.0
 30
0.0
 70
   128
 71
   103
 72
   106
 73
    60
  0
VERTEX
  5
7C6
  8
0
 62
     9
 10
0.0
 20
0.0
 30
0.0
 70
   128
 71
   106
 72
   104
 73
    61
  0
VERTEX
  5
7C7
  8
0
 62
     9
 10
0.0
 20
0.0
 30
0.0
 70
   128
 71
    61
 72
   105
 73
    62
  0
VERTEX
  5
7C8
  8
0
 62
     9
 10
0.0
 20
0.0
 30
0.0
 70
   128
 71
   104
 72
   105
 73
    61
  0
VERTEX
  5
7C9
  8
0
 62
     9
 10
0.0
 20
0.0
 30
0.0
 70
   128
 71
    62
 72
   107
 73
    63
  0
VERTEX
  5
7CA
  8
0
 62
     9
 10
0.0
 20
0.0
 30
0.0
 70
   128
 71
   105
 72
   107
 73
    62
  0
VERTEX
  5
7CB
  8
0
 62
     9
 10
0.0
 20
0.0
 30
0.0
 70
   128
 71
    55
 72
    53
 73
    63
  0
VERTEX
  5
7CC
  8
0
 62
     9
 10
0.0
 20
0.0
 30
0.0
 70
   128
 71
   107
 72
    55
 73
    63
  0
VERTEX
  5
7CD
  8
0
 62
     9
 10
0.0
 20
0.0
 30
0.0
 70
   128
 71
    53
 72
    50
 73
    74
  0
VERTEX
  5
7CE
  8
0
 62
     9
 10
0.0
 20
0.0
 30
0.0
 70
   128
 71
    53
 72
    74
 73
    63
  0
VERTEX
  5
7CF
  8
0
 62
     9
 10
0.0
 20
0.0
 30
0.0
 70
   128
 71
    50
 72
    49
 73
    72
  0
VERTEX
  5
7D0
  8
0
 62
     9
 10
0.0
 20
0.0
 30
0.0
 70
   128
 71
    50
 72
    72
 73
    74
  0
VERTEX
  5
7D1
  8
0
 62
     9
 10
0.0
 20
0.0
 30
0.0
 70
   128
 71
    49
 72
    47
 73
    69
  0
VERTEX
  5
7D2
  8
0
 62
     9
 10
0.0
 20
0.0
 30
0.0
 70
   128
 71
    49
 72
    69
 73
    72
  0
VERTEX
  5
7D3
  8
0
 62
     9
 10
0.0
 20
0.0
 30
0.0
 70
   128
 71
    47
 72
    45
 73
    68
  0
VERTEX
  5
7D4
  8
0
 62
     9
 10
0.0
 20
0.0
 30
0.0
 70
   128
 71
    47
 72
    68
 73
    69
  0
VERTEX
  5
7D5
  8
0
 62
     9
 10
0.0
 20
0.0
 30
0.0
 70
   128
 71
    45
 72
    33
 73
    66
  0
VERTEX
  5
7D6
  8
0
 62
     9
 10
0.0
 20
0.0
 30
0.0
 70
   128
 71
    45
 72
    66
 73
    68
  0
VERTEX
  5
7D7
  8
0
 62
     9
 10
0.0
 20
0.0
 30
0.0
 70
   128
 71
    33
 72
    35
 73
    67
  0
VERTEX
  5
7D8
  8
0
 62
     9
 10
0.0
 20
0.0
 30
0.0
 70
   128
 71
    33
 72
    67
 73
    66
  0
VERTEX
  5
7D9
  8
0
 62
     9
 10
0.0
 20
0.0
 30
0.0
 70
   128
 71
    35
 72
    41
 73
    75
  0
VERTEX
  5
7DA
  8
0
 62
     9
 10
0.0
 20
0.0
 30
0.0
 70
   128
 71
    35
 72
    75
 73
    67
  0
VERTEX
  5
7DB
  8
0
 62
     9
 10
0.0
 20
0.0
 30
0.0
 70
   128
 71
    41
 72
    37
 73
    76
  0
VERTEX
  5
7DC
  8
0
 62
     9
 10
0.0
 20
0.0
 30
0.0
 70
   128
 71
    41
 72
    76
 73
    75
  0
VERTEX
  5
7DD
  8
0
 62
     9
 10
0.0
 20
0.0
 30
0.0
 70
   128
 71
    37
 72
    38
 73
    77
  0
VERTEX
  5
7DE
  8
0
 62
     9
 10
0.0
 20
0.0
 30
0.0
 70
   128
 71
    37
 72
    77
 73
    76
  0
VERTEX
  5
7DF
  8
0
 62
     9
 10
0.0
 20
0.0
 30
0.0
 70
   128
 71
    38
 72
    42
 73
    78
  0
VERTEX
  5
7E0
  8
0
 62
     9
 10
0.0
 20
0.0
 30
0.0
 70
   128
 71
    38
 72
    78
 73
    77
  0
VERTEX
  5
7E1
  8
0
 62
     9
 10
0.0
 20
0.0
 30
0.0
 70
   128
 71
    79
 72
    42
 73
    16
  0
VERTEX
  5
7E2
  8
0
 62
     9
 10
0.0
 20
0.0
 30
0.0
 70
   128
 71
    42
 72
    79
 73
    78
  0
VERTEX
  5
7E3
  8
0
 62
     9
 10
0.0
 20
0.0
 30
0.0
 70
   128
 71
    29
 72
   157
 73
   124
  0
VERTEX
  5
7E4
  8
0
 62
     9
 10
0.0
 20
0.0
 30
0.0
 70
   128
 71
   124
 72
   157
 73
   131
  0
VERTEX
  5
7E5
  8
0
 62
     9
 10
0.0
 20
0.0
 30
0.0
 70
   128
 71
    19
 72
    29
 73
   124
  0
VERTEX
  5
7E6
  8
0
 62
     9
 10
0.0
 20
0.0
 30
0.0
 70
   128
 71
   123
 72
   152
 73
     4
  0
VERTEX
  5
7E7
  8
0
 62
     9
 10
0.0
 20
0.0
 30
0.0
 70
   128
 71
   123
 72
   149
 73
   158
  0
VERTEX
  5
7E8
  8
0
 62
     9
 10
0.0
 20
0.0
 30
0.0
 70
   128
 71
   123
 72
   158
 73
   152
  0
VERTEX
  5
7E9
  8
0
 62
     9
 10
0.0
 20
0.0
 30
0.0
 70
   128
 71
   160
 72
   139
 73
   159
  0
VERTEX
  5
7EA
  8
0
 62
     9
 10
0.0
 20
0.0
 30
0.0
 70
   128
 71
    28
 72
   161
 73
   157
  0
VERTEX
  5
7EB
  8
0
 62
     9
 10
0.0
 20
0.0
 30
0.0
 70
   128
 71
   160
 72
   162
 73
   140
  0
VERTEX
  5
7EC
  8
0
 62
     9
 10
0.0
 20
0.0
 30
0.0
 70
   128
 71
   140
 72
   162
 73
   141
  0
VERTEX
  5
7ED
  8
0
 62
     9
 10
0.0
 20
0.0
 30
0.0
 70
   128
 71
   144
 72
   141
 73
   163
  0
VERTEX
  5
7EE
  8
0
 62
     9
 10
0.0
 20
0.0
 30
0.0
 70
   128
 71
   144
 72
   164
 73
   146
  0
VERTEX
  5
7EF
  8
0
 62
     9
 10
0.0
 20
0.0
 30
0.0
 70
   128
 71
   162
 72
   163
 73
   141
  0
VERTEX
  5
7F0
  8
0
 62
     9
 10
0.0
 20
0.0
 30
0.0
 70
   128
 71
   158
 72
   149
 73
   146
  0
VERTEX
  5
7F1
  8
0
 62
     9
 10
0.0
 20
0.0
 30
0.0
 70
   128
 71
   163
 72
   164
 73
   144
  0
VERTEX
  5
7F2
  8
0
 62
     9
 10
0.0
 20
0.0
 30
0.0
 70
   128
 71
   146
 72
   164
 73
   158
  0
VERTEX
  5
7F3
  8
0
 62
     9
 10
0.0
 20
0.0
 30
0.0
 70
   128
 71
   160
 72
   140
 73
   139
  0
VERTEX
  5
7F4
  8
0
 62
     9
 10
0.0
 20
0.0
 30
0.0
 70
   128
 71
   158
 72
   164
 73
   152
  0
VERTEX
  5
7F5
  8
0
 62
     9
 10
0.0
 20
0.0
 30
0.0
 70
   128
 71
   139
 72
   137
 73
   159
  0
VERTEX
  5
7F6
  8
0
 62
     9
 10
0.0
 20
0.0
 30
0.0
 70
   128
 71
   133
 72
   165
 73
   137
  0
VERTEX
  5
7F7
  8
0
 62
     9
 10
0.0
 20
0.0
 30
0.0
 70
   128
 71
   159
 72
   137
 73
   165
  0
VERTEX
  5
7F8
  8
0
 62
     9
 10
0.0
 20
0.0
 30
0.0
 70
   128
 71
   133
 72
   136
 73
   166
  0
VERTEX
  5
7F9
  8
0
 62
     9
 10
0.0
 20
0.0
 30
0.0
 70
   128
 71
   166
 72
   165
 73
   133
  0
VERTEX
  5
7FA
  8
0
 62
     9
 10
0.0
 20
0.0
 30
0.0
 70
   128
 71
   161
 72
   136
 73
   131
  0
VERTEX
  5
7FB
  8
0
 62
     9
 10
0.0
 20
0.0
 30
0.0
 70
   128
 71
   136
 72
   161
 73
   166
  0
VERTEX
  5
7FC
  8
0
 62
     9
 10
0.0
 20
0.0
 30
0.0
 70
   128
 71
   161
 72
   131
 73
   157
  0
VERTEX
  5
7FD
  8
0
 62
     9
 10
0.0
 20
0.0
 30
0.0
 70
   128
 71
    28
 72
   157
 73
    29
  0
VERTEX
  5
7FE
  8
0
 62
     9
 10
0.0
 20
0.0
 30
0.0
 70
   128
 71
    26
 72
   161
 73
    28
  0
VERTEX
  5
7FF
  8
0
 62
     9
 10
0.0
 20
0.0
 30
0.0
 70
   128
 71
    25
 72
   166
 73
    26
  0
VERTEX
  5
800
  8
0
 62
     9
 10
0.0
 20
0.0
 30
0.0
 70
   128
 71
   166
 72
   161
 73
    26
  0
VERTEX
  5
801
  8
0
 62
     9
 10
0.0
 20
0.0
 30
0.0
 70
   128
 71
    31
 72
   165
 73
    25
  0
VERTEX
  5
802
  8
0
 62
     9
 10
0.0
 20
0.0
 30
0.0
 70
   128
 71
   165
 72
   166
 73
    25
  0
VERTEX
  5
803
  8
0
 62
     9
 10
0.0
 20
0.0
 30
0.0
 70
   128
 71
    30
 72
   159
 73
    31
  0
VERTEX
  5
804
  8
0
 62
     9
 10
0.0
 20
0.0
 30
0.0
 70
   128
 71
   159
 72
   165
 73
    31
  0
VERTEX
  5
805
  8
0
 62
     9
 10
0.0
 20
0.0
 30
0.0
 70
   128
 71
    30
 72
   156
 73
   160
  0
VERTEX
  5
806
  8
0
 62
     9
 10
0.0
 20
0.0
 30
0.0
 70
   128
 71
   160
 72
   159
 73
    30
  0
VERTEX
  5
807
  8
0
 62
     9
 10
0.0
 20
0.0
 30
0.0
 70
   128
 71
   156
 72
   155
 73
   162
  0
VERTEX
  5
808
  8
0
 62
     9
 10
0.0
 20
0.0
 30
0.0
 70
   128
 71
   162
 72
   160
 73
   156
  0
VERTEX
  5
809
  8
0
 62
     9
 10
0.0
 20
0.0
 30
0.0
 70
   128
 71
   155
 72
   153
 73
   163
  0
VERTEX
  5
80A
  8
0
 62
     9
 10
0.0
 20
0.0
 30
0.0
 70
   128
 71
   163
 72
   162
 73
   155
  0
VERTEX
  5
80B
  8
0
 62
     9
 10
0.0
 20
0.0
 30
0.0
 70
   128
 71
   163
 72
   153
 73
   154
  0
VERTEX
  5
80C
  8
0
 62
     9
 10
0.0
 20
0.0
 30
0.0
 70
   128
 71
   154
 72
   164
 73
   163
  0
VERTEX
  5
80D
  8
0
 62
     9
 10
0.0
 20
0.0
 30
0.0
 70
   128
 71
   154
 72
   152
 73
   164
  0
SEQEND
  5
80E
  8
0
 62
     9
  0
ENDBLK
  5
811
  8
0
  0
BLOCK
  8
0
  2
1_1_
 70
     0
 10
0.0
 20
0.0
 30
0.0
  3
1_1_
  1

  0
POLYLINE
  5
813
  8
0
 66
     1
 10
0.0
 20
0.0
 30
0.0
 70
    64
 71
    71
 72
   123
  0
VERTEX
  5
814
  8
0
 10
3.075675249099731
 20
25.31272506713867
 30
0.550000011920929
 70
   192
  0
VERTEX
  5
815
  8
0
 10
9.04149341583252
 20
23.8434009552002
 30
0.550000011920929
 70
   192
  0
VERTEX
  5
816
  8
0
 10
3.103786468505859
 20
25.30835151672363
 30
158.6499938964844
 70
   192
  0
VERTEX
  5
817
  8
0
 10
14.46413326263428
 20
21.00055313110352
 30
0.550000011920929
 70
   192
  0
VERTEX
  5
818
  8
0
 10
9.050206184387207
 20
23.83979225158691
 30
158.6499938964844
 70
   192
  0
VERTEX
  5
819
  8
0
 10
14.47102451324463
 20
20.99551773071289
 30
158.6499938964844
 70
   192
  0
VERTEX
  5
81A
  8
0
 10
19.08553314208984
 20
16.91070175170898
 30
0.550000011920929
 70
   192
  0
VERTEX
  5
81B
  8
0
 10
22.58191108703613
 20
11.84689903259277
 30
0.550000011920929
 70
   192
  0
VERTEX
  5
81C
  8
0
 10
19.10063934326172
 20
16.89002799987793
 30
158.6499938964844
 70
   192
  0
VERTEX
  5
81D
  8
0
 10
24.54184341430664
 20
6.924441337585449
 30
132.6488800048828
 70
   192
  0
VERTEX
  5
81E
  8
0
 10
22.58880043029785
 20
11.83026599884033
 30
158.6499938964844
 70
   192
  0
VERTEX
  5
81F
  8
0
 10
25.18562126159668
 20
3.991805553436279
 30
135.6499938964844
 70
   192
  0
VERTEX
  5
820
  8
0
 10
24.75615119934082
 20
6.117617607116699
 30
158.6499938964844
 70
   192
  0
VERTEX
  5
821
  8
0
 10
24.75123023986816
 20
6.129498481750488
 30
0.550000011920929
 70
   192
  0
VERTEX
  5
822
  8
0
 10
25.18631172180176
 20
3.987441778182983
 30
129.6499938964844
 70
   192
  0
VERTEX
  5
823
  8
0
 10
-3.075675249099731
 20
25.31272506713867
 30
158.6499938964844
 70
   192
  0
VERTEX
  5
824
  8
0
 10
-3.103786468505859
 20
25.30835151672363
 30
0.550000011920929
 70
   192
  0
VERTEX
  5
825
  8
0
 10
-9.04149341583252
 20
23.8434009552002
 30
158.6499938964844
 70
   192
  0
VERTEX
  5
826
  8
0
 10
-9.050206184387207
 20
23.83979225158691
 30
0.550000011920929
 70
   192
  0
VERTEX
  5
827
  8
0
 10
-14.46413326263428
 20
21.00055313110352
 30
158.6499938964844
 70
   192
  0
VERTEX
  5
828
  8
0
 10
-14.47102451324463
 20
20.99551773071289
 30
0.550000011920929
 70
   192
  0
VERTEX
  5
829
  8
0
 10
-19.10063934326172
 20
16.89002799987793
 30
0.550000011920929
 70
   192
  0
VERTEX
  5
82A
  8
0
 10
-19.08553314208984
 20
16.91070175170898
 30
158.6499938964844
 70
   192
  0
VERTEX
  5
82B
  8
0
 10
-22.58191108703613
 20
11.84689903259277
 30
158.6499938964844
 70
   192
  0
VERTEX
  5
82C
  8
0
 10
-22.58880043029785
 20
11.83026599884033
 30
0.550000011920929
 70
   192
  0
VERTEX
  5
82D
  8
0
 10
-24.75123023986816
 20
6.129498481750488
 30
158.6499938964844
 70
   192
  0
VERTEX
  5
82E
  8
0
 10
-24.75615119934082
 20
6.117617607116699
 30
0.550000011920929
 70
   192
  0
VERTEX
  5
82F
  8
0
 10
-25.5
 20
-0.0000000000116189
 30
158.6499938964844
 70
   192
  0
VERTEX
  5
830
  8
0
 10
-25.5
 20
-0.0000000000238369
 30
0.550000011920929
 70
   192
  0
VERTEX
  5
831
  8
0
 10
25.5
 20
-0.0000000000177083
 30
158.6499938964844
 70
   192
  0
VERTEX
  5
832
  8
0
 10
25.4804515838623
 20
0.9983115792274475
 30
132.6499938964844
 70
   192
  0
VERTEX
  5
833
  8
0
 10
25.5
 20
-0.0000000000299263
 30
0.550000011920929
 70
   192
  0
VERTEX
  5
834
  8
0
 10
22.5871696472168
 20
-11.86078834533691
 30
0.550000011920929
 70
   192
  0
VERTEX
  5
835
  8
0
 10
14.49484920501709
 20
-20.99542999267578
 30
0.550000011920929
 70
   192
  0
VERTEX
  5
836
  8
0
 10
19.09563827514648
 20
-16.91936111450195
 30
0.550000011920929
 70
   192
  0
VERTEX
  5
837
  8
0
 10
-22.5737247467041
 20
-11.82375049591064
 30
0.550000011920929
 70
   192
  0
VERTEX
  5
838
  8
0
 10
24.77020835876465
 20
-6.11148738861084
 30
0.550000011920929
 70
   192
  0
VERTEX
  5
839
  8
0
 10
9.037199974060059
 20
-23.8481616973877
 30
0.550000011920929
 70
   192
  0
VERTEX
  5
83A
  8
0
 10
3.061585426330566
 20
-25.31390762329102
 30
0.550000011920929
 70
   192
  0
VERTEX
  5
83B
  8
0
 10
-3.088744163513184
 20
-25.30883979797363
 30
0.550000011920929
 70
   192
  0
VERTEX
  5
83C
  8
0
 10
-19.08736038208008
 20
-16.87911033630371
 30
0.550000011920929
 70
   192
  0
VERTEX
  5
83D
  8
0
 10
-14.48755931854248
 20
-20.95877838134766
 30
0.550000011920929
 70
   192
  0
VERTEX
  5
83E
  8
0
 10
-9.052640914916992
 20
-23.8238697052002
 30
0.550000011920929
 70
   192
  0
VERTEX
  5
83F
  8
0
 10
-24.74946784973145
 20
-6.085576057434082
 30
0.550000011920929
 70
   192
  0
VERTEX
  5
840
  8
0
 10
-9.037199974060059
 20
-23.8481616973877
 30
158.6499938964844
 70
   192
  0
VERTEX
  5
841
  8
0
 10
-14.49484920501709
 20
-20.99542999267578
 30
158.6499938964844
 70
   192
  0
VERTEX
  5
842
  8
0
 10
-13.2609224319458
 20
-19.20538330078125
 30
158.6499938964844
 70
   192
  0
VERTEX
  5
843
  8
0
 10
-13.26514339447021
 20
19.2016773223877
 30
158.6499938964844
 70
   192
  0
VERTEX
  5
844
  8
0
 10
-19.09563827514648
 20
-16.91936111450195
 30
158.6499938964844
 70
   192
  0
VERTEX
  5
845
  8
0
 10
-20.65815925598145
 20
-10.85641288757324
 30
158.6499938964844
 70
   192
  0
VERTEX
  5
846
  8
0
 10
-2.804359674453735
 20
-23.16854667663574
 30
158.6499938964844
 70
   192
  0
VERTEX
  5
847
  8
0
 10
3.088744163513184
 20
-25.30883979797363
 30
158.6499938964844
 70
   192
  0
VERTEX
  5
848
  8
0
 10
-3.061585426330566
 20
-25.31390762329102
 30
158.6499938964844
 70
   192
  0
VERTEX
  5
849
  8
0
 10
8.274319648742676
 20
-21.82291984558105
 30
158.6499938964844
 70
   192
  0
VERTEX
  5
84A
  8
0
 10
-22.5871696472168
 20
-11.86078834533691
 30
158.6499938964844
 70
   192
  0
VERTEX
  5
84B
  8
0
 10
-24.77020835876465
 20
-6.11148738861084
 30
158.6499938964844
 70
   192
  0
VERTEX
  5
84C
  8
0
 10
22.5737247467041
 20
-11.82375049591064
 30
158.6499938964844
 70
   192
  0
VERTEX
  5
84D
  8
0
 10
17.47351264953613
 20
-15.4708890914917
 30
158.6499938964844
 70
   192
  0
VERTEX
  5
84E
  8
0
 10
22.66140937805176
 20
-5.581906795501709
 30
158.6499938964844
 70
   192
  0
VERTEX
  5
84F
  8
0
 10
14.48755931854248
 20
-20.95877838134766
 30
158.6499938964844
 70
   192
  0
VERTEX
  5
850
  8
0
 10
-2.826703786849976
 20
23.16583442687988
 30
158.6499938964844
 70
   192
  0
VERTEX
  5
851
  8
0
 10
24.74946784973145
 20
-6.085576057434082
 30
158.6499938964844
 70
   192
  0
VERTEX
  5
852
  8
0
 10
17.46239471435547
 20
15.48355007171631
 30
158.6499938964844
 70
   192
  0
VERTEX
  5
853
  8
0
 10
8.265608787536621
 20
21.82539939880371
 30
158.6499938964844
 70
   192
  0
VERTEX
  5
854
  8
0
 10
22.65802955627441
 20
5.593785285949707
 30
158.6499938964844
 70
   192
  0
VERTEX
  5
855
  8
0
 10
-20.67065048217773
 20
10.83267021179199
 30
158.6499938964844
 70
   192
  0
VERTEX
  5
856
  8
0
 10
19.08736038208008
 20
-16.87911033630371
 30
158.6499938964844
 70
   192
  0
VERTEX
  5
857
  8
0
 10
9.052640914916992
 20
-23.8238697052002
 30
158.6499938964844
 70
   192
  0
VERTEX
  5
858
  8
0
 10
25.18562126159668
 20
-3.991805553436279
 30
129.6499938964844
 70
   192
  0
VERTEX
  5
859
  8
0
 10
24.54184341430664
 20
-6.924441337585449
 30
132.651123046875
 70
   192
  0
VERTEX
  5
85A
  8
0
 10
25.18631172180176
 20
-3.987441778182983
 30
135.6499938964844
 70
   192
  0
VERTEX
  5
85B
  8
0
 62
     9
 10
0.0
 20
0.0
 30
0.0
 70
   128
 71
     3
 72
     2
 73
     1
  0
VERTEX
  5
85C
  8
0
 62
     9
 10
0.0
 20
0.0
 30
0.0
 70
   128
 71
     2
 72
     5
 73
     4
  0
VERTEX
  5
85D
  8
0
 62
     9
 10
0.0
 20
0.0
 30
0.0
 70
   128
 71
     5
 72
     2
 73
     3
  0
VERTEX
  5
85E
  8
0
 62
     9
 10
0.0
 20
0.0
 30
0.0
 70
   128
 71
     7
 72
     4
 73
     6
  0
VERTEX
  5
85F
  8
0
 62
     9
 10
0.0
 20
0.0
 30
0.0
 70
   128
 71
     5
 72
     6
 73
     4
  0
VERTEX
  5
860
  8
0
 62
     9
 10
0.0
 20
0.0
 30
0.0
 70
   128
 71
     9
 72
     8
 73
     7
  0
VERTEX
  5
861
  8
0
 62
     9
 10
0.0
 20
0.0
 30
0.0
 70
   128
 71
     7
 72
     6
 73
     9
  0
VERTEX
  5
862
  8
0
 62
     9
 10
0.0
 20
0.0
 30
0.0
 70
   128
 71
    11
 72
    10
 73
     8
  0
VERTEX
  5
863
  8
0
 62
     9
 10
0.0
 20
0.0
 30
0.0
 70
   128
 71
    11
 72
     8
 73
     9
  0
VERTEX
  5
864
  8
0
 62
     9
 10
0.0
 20
0.0
 30
0.0
 70
   128
 71
    13
 72
    12
 73
    10
  0
VERTEX
  5
865
  8
0
 62
     9
 10
0.0
 20
0.0
 30
0.0
 70
   128
 71
    15
 72
    14
 73
    10
  0
VERTEX
  5
866
  8
0
 62
     9
 10
0.0
 20
0.0
 30
0.0
 70
   128
 71
    16
 72
     3
 73
     1
  0
VERTEX
  5
867
  8
0
 62
     9
 10
0.0
 20
0.0
 30
0.0
 70
   128
 71
     1
 72
    17
 73
    16
  0
VERTEX
  5
868
  8
0
 62
     9
 10
0.0
 20
0.0
 30
0.0
 70
   128
 71
    19
 72
    18
 73
    17
  0
VERTEX
  5
869
  8
0
 62
     9
 10
0.0
 20
0.0
 30
0.0
 70
   128
 71
    16
 72
    17
 73
    18
  0
VERTEX
  5
86A
  8
0
 62
     9
 10
0.0
 20
0.0
 30
0.0
 70
   128
 71
    19
 72
    21
 73
    20
  0
VERTEX
  5
86B
  8
0
 62
     9
 10
0.0
 20
0.0
 30
0.0
 70
   128
 71
    20
 72
    18
 73
    19
  0
VERTEX
  5
86C
  8
0
 62
     9
 10
0.0
 20
0.0
 30
0.0
 70
   128
 71
    23
 72
    21
 73
    22
  0
VERTEX
  5
86D
  8
0
 62
     9
 10
0.0
 20
0.0
 30
0.0
 70
   128
 71
    21
 72
    23
 73
    20
  0
VERTEX
  5
86E
  8
0
 62
     9
 10
0.0
 20
0.0
 30
0.0
 70
   128
 71
    25
 72
    24
 73
    22
  0
VERTEX
  5
86F
  8
0
 62
     9
 10
0.0
 20
0.0
 30
0.0
 70
   128
 71
    23
 72
    22
 73
    24
  0
VERTEX
  5
870
  8
0
 62
     9
 10
0.0
 20
0.0
 30
0.0
 70
   128
 71
    25
 72
    27
 73
    26
  0
VERTEX
  5
871
  8
0
 62
     9
 10
0.0
 20
0.0
 30
0.0
 70
   128
 71
    26
 72
    24
 73
    25
  0
VERTEX
  5
872
  8
0
 62
     9
 10
0.0
 20
0.0
 30
0.0
 70
   128
 71
    27
 72
    28
 73
    26
  0
VERTEX
  5
873
  8
0
 62
     9
 10
0.0
 20
0.0
 30
0.0
 70
   128
 71
    27
 72
    29
 73
    28
  0
VERTEX
  5
874
  8
0
 62
     9
 10
0.0
 20
0.0
 30
0.0
 70
   128
 71
    30
 72
    12
 73
    13
  0
VERTEX
  5
875
  8
0
 62
     9
 10
0.0
 20
0.0
 30
0.0
 70
   128
 71
    12
 72
    30
 73
    31
  0
VERTEX
  5
876
  8
0
 62
     9
 10
0.0
 20
0.0
 30
0.0
 70
   128
 71
    31
 72
    32
 73
    15
  0
VERTEX
  5
877
  8
0
 62
     9
 10
0.0
 20
0.0
 30
0.0
 70
   128
 71
    10
 72
    14
 73
     8
  0
VERTEX
  5
878
  8
0
 62
     9
 10
0.0
 20
0.0
 30
0.0
 70
   128
 71
    13
 72
    10
 73
    11
  0
VERTEX
  5
879
  8
0
 62
     9
 10
0.0
 20
0.0
 30
0.0
 70
   128
 71
    14
 72
    15
 73
    32
  0
VERTEX
  5
87A
  8
0
 62
     9
 10
0.0
 20
0.0
 30
0.0
 70
   128
 71
    35
 72
    34
 73
    33
  0
VERTEX
  5
87B
  8
0
 62
     9
 10
0.0
 20
0.0
 30
0.0
 70
   128
 71
    36
 72
     2
 73
     4
  0
VERTEX
  5
87C
  8
0
 62
     9
 10
0.0
 20
0.0
 30
0.0
 70
   128
 71
    33
 72
    38
 73
    37
  0
VERTEX
  5
87D
  8
0
 62
     9
 10
0.0
 20
0.0
 30
0.0
 70
   128
 71
    38
 72
    33
 73
    34
  0
VERTEX
  5
87E
  8
0
 62
     9
 10
0.0
 20
0.0
 30
0.0
 70
   128
 71
    38
 72
    39
 73
    37
  0
VERTEX
  5
87F
  8
0
 62
     9
 10
0.0
 20
0.0
 30
0.0
 70
   128
 71
    39
 72
    40
 73
    32
  0
VERTEX
  5
880
  8
0
 62
     9
 10
0.0
 20
0.0
 30
0.0
 70
   128
 71
    32
 72
    37
 73
    39
  0
VERTEX
  5
881
  8
0
 62
     9
 10
0.0
 20
0.0
 30
0.0
 70
   128
 71
     7
 72
    42
 73
    41
  0
VERTEX
  5
882
  8
0
 62
     9
 10
0.0
 20
0.0
 30
0.0
 70
   128
 71
    14
 72
    40
 73
    43
  0
VERTEX
  5
883
  8
0
 62
     9
 10
0.0
 20
0.0
 30
0.0
 70
   128
 71
     2
 72
    44
 73
     1
  0
VERTEX
  5
884
  8
0
 62
     9
 10
0.0
 20
0.0
 30
0.0
 70
   128
 71
    41
 72
    36
 73
     4
  0
VERTEX
  5
885
  8
0
 62
     9
 10
0.0
 20
0.0
 30
0.0
 70
   128
 71
    22
 72
    19
 73
    25
  0
VERTEX
  5
886
  8
0
 62
     9
 10
0.0
 20
0.0
 30
0.0
 70
   128
 71
    27
 72
    17
 73
    29
  0
VERTEX
  5
887
  8
0
 62
     9
 10
0.0
 20
0.0
 30
0.0
 70
   128
 71
    17
 72
    25
 73
    19
  0
VERTEX
  5
888
  8
0
 62
     9
 10
0.0
 20
0.0
 30
0.0
 70
   128
 71
    21
 72
    19
 73
    22
  0
VERTEX
  5
889
  8
0
 62
     9
 10
0.0
 20
0.0
 30
0.0
 70
   128
 71
    17
 72
     1
 73
    29
  0
VERTEX
  5
88A
  8
0
 62
     9
 10
0.0
 20
0.0
 30
0.0
 70
   128
 71
    17
 72
    27
 73
    25
  0
VERTEX
  5
88B
  8
0
 62
     9
 10
0.0
 20
0.0
 30
0.0
 70
   128
 71
    44
 72
     2
 73
    36
  0
VERTEX
  5
88C
  8
0
 62
     9
 10
0.0
 20
0.0
 30
0.0
 70
   128
 71
    29
 72
     1
 73
    44
  0
VERTEX
  5
88D
  8
0
 62
     9
 10
0.0
 20
0.0
 30
0.0
 70
   128
 71
     7
 72
    41
 73
     4
  0
VERTEX
  5
88E
  8
0
 62
     9
 10
0.0
 20
0.0
 30
0.0
 70
   128
 71
     8
 72
    42
 73
     7
  0
VERTEX
  5
88F
  8
0
 62
     9
 10
0.0
 20
0.0
 30
0.0
 70
   128
 71
     8
 72
    14
 73
    43
  0
VERTEX
  5
890
  8
0
 62
     9
 10
0.0
 20
0.0
 30
0.0
 70
   128
 71
    43
 72
    42
 73
     8
  0
VERTEX
  5
891
  8
0
 62
     9
 10
0.0
 20
0.0
 30
0.0
 70
   128
 71
    32
 72
    40
 73
    14
  0
VERTEX
  5
892
  8
0
 62
    43
 10
0.0
 20
0.0
 30
0.0
 70
   128
 71
    47
 72
    46
 73
    45
  0
VERTEX
  5
893
  8
0
 62
    43
 10
0.0
 20
0.0
 30
0.0
 70
   128
 71
    23
 72
    48
 73
    20
  0
VERTEX
  5
894
  8
0
 62
    43
 10
0.0
 20
0.0
 30
0.0
 70
   128
 71
    47
 72
    50
 73
    49
  0
VERTEX
  5
895
  8
0
 62
    43
 10
0.0
 20
0.0
 30
0.0
 70
   128
 71
    51
 72
    47
 73
    45
  0
VERTEX
  5
896
  8
0
 62
    43
 10
0.0
 20
0.0
 30
0.0
 70
   128
 71
    53
 72
    52
 73
    51
  0
VERTEX
  5
897
  8
0
 62
    43
 10
0.0
 20
0.0
 30
0.0
 70
   128
 71
    54
 72
    51
 73
    52
  0
VERTEX
  5
898
  8
0
 62
    43
 10
0.0
 20
0.0
 30
0.0
 70
   128
 71
    56
 72
    55
 73
    50
  0
VERTEX
  5
899
  8
0
 62
    43
 10
0.0
 20
0.0
 30
0.0
 70
   128
 71
    59
 72
    58
 73
    57
  0
VERTEX
  5
89A
  8
0
 62
    43
 10
0.0
 20
0.0
 30
0.0
 70
   128
 71
    58
 72
    54
 73
    60
  0
VERTEX
  5
89B
  8
0
 62
    43
 10
0.0
 20
0.0
 30
0.0
 70
   128
 71
    48
 72
    61
 73
    18
  0
VERTEX
  5
89C
  8
0
 62
    43
 10
0.0
 20
0.0
 30
0.0
 70
   128
 71
    59
 72
    62
 73
    30
  0
VERTEX
  5
89D
  8
0
 62
    43
 10
0.0
 20
0.0
 30
0.0
 70
   128
 71
     6
 72
    64
 73
    63
  0
VERTEX
  5
89E
  8
0
 62
    43
 10
0.0
 20
0.0
 30
0.0
 70
   128
 71
    63
 72
    65
 73
    11
  0
VERTEX
  5
89F
  8
0
 62
    43
 10
0.0
 20
0.0
 30
0.0
 70
   128
 71
    64
 72
     3
 73
    61
  0
VERTEX
  5
8A0
  8
0
 62
    43
 10
0.0
 20
0.0
 30
0.0
 70
   128
 71
     3
 72
    64
 73
     5
  0
VERTEX
  5
8A1
  8
0
 62
    43
 10
0.0
 20
0.0
 30
0.0
 70
   128
 71
    16
 72
    18
 73
    61
  0
VERTEX
  5
8A2
  8
0
 62
    43
 10
0.0
 20
0.0
 30
0.0
 70
   128
 71
    63
 72
     9
 73
     6
  0
VERTEX
  5
8A3
  8
0
 62
    43
 10
0.0
 20
0.0
 30
0.0
 70
   128
 71
    30
 72
    65
 73
    59
  0
VERTEX
  5
8A4
  8
0
 62
    43
 10
0.0
 20
0.0
 30
0.0
 70
   128
 71
    65
 72
    13
 73
    11
  0
VERTEX
  5
8A5
  8
0
 62
    43
 10
0.0
 20
0.0
 30
0.0
 70
   128
 71
    23
 72
    66
 73
    48
  0
VERTEX
  5
8A6
  8
0
 62
    43
 10
0.0
 20
0.0
 30
0.0
 70
   128
 71
    66
 72
    24
 73
    26
  0
VERTEX
  5
8A7
  8
0
 62
    43
 10
0.0
 20
0.0
 30
0.0
 70
   128
 71
    28
 72
    66
 73
    26
  0
VERTEX
  5
8A8
  8
0
 62
    43
 10
0.0
 20
0.0
 30
0.0
 70
   128
 71
    67
 72
    57
 73
    58
  0
VERTEX
  5
8A9
  8
0
 62
    43
 10
0.0
 20
0.0
 30
0.0
 70
   128
 71
    60
 72
    54
 73
    68
  0
VERTEX
  5
8AA
  8
0
 62
    43
 10
0.0
 20
0.0
 30
0.0
 70
   128
 71
    50
 72
    55
 73
    49
  0
VERTEX
  5
8AB
  8
0
 62
    43
 10
0.0
 20
0.0
 30
0.0
 70
   128
 71
    24
 72
    66
 73
    23
  0
VERTEX
  5
8AC
  8
0
 62
    43
 10
0.0
 20
0.0
 30
0.0
 70
   128
 71
    20
 72
    48
 73
    18
  0
VERTEX
  5
8AD
  8
0
 62
    43
 10
0.0
 20
0.0
 30
0.0
 70
   128
 71
    16
 72
    61
 73
     3
  0
VERTEX
  5
8AE
  8
0
 62
    43
 10
0.0
 20
0.0
 30
0.0
 70
   128
 71
     5
 72
    64
 73
     6
  0
VERTEX
  5
8AF
  8
0
 62
    43
 10
0.0
 20
0.0
 30
0.0
 70
   128
 71
     9
 72
    63
 73
    11
  0
VERTEX
  5
8B0
  8
0
 62
    43
 10
0.0
 20
0.0
 30
0.0
 70
   128
 71
    13
 72
    65
 73
    30
  0
VERTEX
  5
8B1
  8
0
 62
    43
 10
0.0
 20
0.0
 30
0.0
 70
   128
 71
    62
 72
    59
 73
    57
  0
VERTEX
  5
8B2
  8
0
 62
    43
 10
0.0
 20
0.0
 30
0.0
 70
   128
 71
    67
 72
    58
 73
    60
  0
VERTEX
  5
8B3
  8
0
 62
    43
 10
0.0
 20
0.0
 30
0.0
 70
   128
 71
    68
 72
    54
 73
    52
  0
VERTEX
  5
8B4
  8
0
 62
    43
 10
0.0
 20
0.0
 30
0.0
 70
   128
 71
    53
 72
    51
 73
    45
  0
VERTEX
  5
8B5
  8
0
 62
    43
 10
0.0
 20
0.0
 30
0.0
 70
   128
 71
    46
 72
    47
 73
    49
  0
VERTEX
  5
8B6
  8
0
 62
    43
 10
0.0
 20
0.0
 30
0.0
 70
   128
 71
    50
 72
    28
 73
    56
  0
VERTEX
  5
8B7
  8
0
 62
     9
 10
0.0
 20
0.0
 30
0.0
 70
   128
 71
    69
 72
    32
 73
    31
  0
VERTEX
  5
8B8
  8
0
 62
     9
 10
0.0
 20
0.0
 30
0.0
 70
   128
 71
    71
 72
    62
 73
    70
  0
VERTEX
  5
8B9
  8
0
 62
     9
 10
0.0
 20
0.0
 30
0.0
 70
   128
 71
    34
 72
    60
 73
    38
  0
VERTEX
  5
8BA
  8
0
 62
     9
 10
0.0
 20
0.0
 30
0.0
 70
   128
 71
    35
 72
    33
 73
    57
  0
VERTEX
  5
8BB
  8
0
 62
     9
 10
0.0
 20
0.0
 30
0.0
 70
   128
 71
    53
 72
    43
 73
    40
  0
VERTEX
  5
8BC
  8
0
 62
     9
 10
0.0
 20
0.0
 30
0.0
 70
   128
 71
    52
 72
    39
 73
    68
  0
VERTEX
  5
8BD
  8
0
 62
     9
 10
0.0
 20
0.0
 30
0.0
 70
   128
 71
    46
 72
    41
 73
    42
  0
VERTEX
  5
8BE
  8
0
 62
     9
 10
0.0
 20
0.0
 30
0.0
 70
   128
 71
    42
 72
    43
 73
    45
  0
VERTEX
  5
8BF
  8
0
 62
     9
 10
0.0
 20
0.0
 30
0.0
 70
   128
 71
    49
 72
    55
 73
    36
  0
VERTEX
  5
8C0
  8
0
 62
     9
 10
0.0
 20
0.0
 30
0.0
 70
   128
 71
    36
 72
    41
 73
    49
  0
VERTEX
  5
8C1
  8
0
 62
     9
 10
0.0
 20
0.0
 30
0.0
 70
   128
 71
    44
 72
    55
 73
    56
  0
VERTEX
  5
8C2
  8
0
 62
     9
 10
0.0
 20
0.0
 30
0.0
 70
   128
 71
    55
 72
    44
 73
    36
  0
VERTEX
  5
8C3
  8
0
 62
     9
 10
0.0
 20
0.0
 30
0.0
 70
   128
 71
    28
 72
    29
 73
    56
  0
VERTEX
  5
8C4
  8
0
 62
     9
 10
0.0
 20
0.0
 30
0.0
 70
   128
 71
    44
 72
    56
 73
    29
  0
VERTEX
  5
8C5
  8
0
 62
     9
 10
0.0
 20
0.0
 30
0.0
 70
   128
 71
    42
 72
    45
 73
    46
  0
VERTEX
  5
8C6
  8
0
 62
     9
 10
0.0
 20
0.0
 30
0.0
 70
   128
 71
    49
 72
    41
 73
    46
  0
VERTEX
  5
8C7
  8
0
 62
     9
 10
0.0
 20
0.0
 30
0.0
 70
   128
 71
    40
 72
    52
 73
    53
  0
VERTEX
  5
8C8
  8
0
 62
     9
 10
0.0
 20
0.0
 30
0.0
 70
   128
 71
    45
 72
    43
 73
    53
  0
VERTEX
  5
8C9
  8
0
 62
     9
 10
0.0
 20
0.0
 30
0.0
 70
   128
 71
    68
 72
    39
 73
    38
  0
VERTEX
  5
8CA
  8
0
 62
     9
 10
0.0
 20
0.0
 30
0.0
 70
   128
 71
    52
 72
    40
 73
    39
  0
VERTEX
  5
8CB
  8
0
 62
     9
 10
0.0
 20
0.0
 30
0.0
 70
   128
 71
    67
 72
    60
 73
    34
  0
VERTEX
  5
8CC
  8
0
 62
     9
 10
0.0
 20
0.0
 30
0.0
 70
   128
 71
    60
 72
    68
 73
    38
  0
VERTEX
  5
8CD
  8
0
 62
     9
 10
0.0
 20
0.0
 30
0.0
 70
   128
 71
    67
 72
    35
 73
    57
  0
VERTEX
  5
8CE
  8
0
 62
     9
 10
0.0
 20
0.0
 30
0.0
 70
   128
 71
    35
 72
    67
 73
    34
  0
VERTEX
  5
8CF
  8
0
 62
     9
 10
0.0
 20
0.0
 30
0.0
 70
   128
 71
    37
 72
    69
 73
    70
  0
VERTEX
  5
8D0
  8
0
 62
     9
 10
0.0
 20
0.0
 30
0.0
 70
   128
 71
    70
 72
    57
 73
    33
  0
VERTEX
  5
8D1
  8
0
 62
     9
 10
0.0
 20
0.0
 30
0.0
 70
   128
 71
    30
 72
    71
 73
    31
  0
VERTEX
  5
8D2
  8
0
 62
     9
 10
0.0
 20
0.0
 30
0.0
 70
   128
 71
    69
 72
    37
 73
    32
  0
VERTEX
  5
8D3
  8
0
 62
     9
 10
0.0
 20
0.0
 30
0.0
 70
   128
 71
    70
 72
    62
 73
    57
  0
VERTEX
  5
8D4
  8
0
 62
     9
 10
0.0
 20
0.0
 30
0.0
 70
   128
 71
    37
 72
    70
 73
    33
  0
VERTEX
  5
8D5
  8
0
 62
     9
 10
0.0
 20
0.0
 30
0.0
 70
   128
 71
    62
 72
    71
 73
    30
  0
SEQEND
  5
8D6
  8
0
  0
ENDBLK
  5
8D9
  8
0
  0
ENDSEC
  0
SECTION
  2
ENTITIES
  0
INSERT
  5
1D5
  8
LAYER_1
  2
RAIL_SUR
 10
0.0
 20
0.0
 30
0.0
  0
INSERT
  5
492
  8
LAYER_1
  2
39
 10
0.0
 20
0.0
 30
0.0
  0
INSERT
  5
578
  8
LAYER_1
  2
40
 10
0.0
 20
0.0
 30
0.0
  0
INSERT
  5
630
  8
LAYER_1
  2
41
 10
0.0
 20
0.0
 30
0.0
  0
INSERT
  5
80F
  8
LAYER_1
  2
1
 10
0.0
 20
0.0
 30
0.0
  0
INSERT
  5
8D7
  8
LAYER_1
  2
1_1_
 10
0.0
 20
0.0
 30
0.0
  0
ENDSEC
  0
EOF
