  0
SECTION
  2
HEADER
  9
$ACADVER
  1
AC1009
  9
$DWGCODEPAGE
  3
ansi_1252
  9
$INSBASE
 10
0.0
 20
0.0
 30
0.0
  9
$EXTMIN
 10
1.000000000000000E+20
 20
1.000000000000000E+20
 30
1.000000000000000E+20
  9
$EXTMAX
 10
-1.000000000000000E+20
 20
-1.000000000000000E+20
 30
-1.000000000000000E+20
  9
$LIMMIN
 10
0.0
 20
0.0
  9
$LIMMAX
 10
12.0
 20
9.0
  9
$ORTHOMODE
 70
     0
  9
$REGENMODE
 70
     1
  9
$FILLMODE
 70
     1
  9
$QTEXTMODE
 70
     0
  9
$MIRRTEXT
 70
     1
  9
$DRAGMODE
 70
     2
  9
$LTSCALE
 40
1.0
  9
$OSMODE
 70
    37
  9
$ATTMODE
 70
     1
  9
$TEXTSIZE
 40
0.2
  9
$TRACEWID
 40
0.05
  9
$TEXTSTYLE
  7
STANDARD
  9
$CLAYER
  8
0
  9
$CELTYPE
  6
BYLAYER
  9
$CECOLOR
 62
   256
  9
$DIMSCALE
 40
1.0
  9
$DIMASZ
 40
0.18
  9
$DIMEXO
 40
0.0625
  9
$DIMDLI
 40
0.38
  9
$DIMRND
 40
0.0
  9
$DIMDLE
 40
0.0
  9
$DIMEXE
 40
0.18
  9
$DIMTP
 40
0.0
  9
$DIMTM
 40
0.0
  9
$DIMTXT
 40
0.18
  9
$DIMCEN
 40
0.09
  9
$DIMTSZ
 40
0.0
  9
$DIMTOL
 70
     0
  9
$DIMLIM
 70
     0
  9
$DIMTIH
 70
     1
  9
$DIMTOH
 70
     1
  9
$DIMSE1
 70
     0
  9
$DIMSE2
 70
     0
  9
$DIMTAD
 70
     0
  9
$DIMZIN
 70
     0
  9
$DIMBLK
  1

  9
$DIMASO
 70
     1
  9
$DIMSHO
 70
     1
  9
$DIMPOST
  1

  9
$DIMAPOST
  1

  9
$DIMALT
 70
     0
  9
$DIMALTD
 70
     2
  9
$DIMALTF
 40
25.4
  9
$DIMLFAC
 40
1.0
  9
$DIMTOFL
 70
     0
  9
$DIMTVP
 40
0.0
  9
$DIMTIX
 70
     0
  9
$DIMSOXD
 70
     0
  9
$DIMSAH
 70
     0
  9
$DIMBLK1
  1

  9
$DIMBLK2
  1

  9
$DIMSTYLE
  2
STANDARD
  9
$DIMCLRD
 70
     0
  9
$DIMCLRE
 70
     0
  9
$DIMCLRT
 70
     0
  9
$DIMTFAC
 40
1.0
  9
$DIMGAP
 40
0.09
  9
$LUNITS
 70
     2
  9
$LUPREC
 70
     4
  9
$SKETCHINC
 40
0.1
  9
$FILLETRAD
 40
0.5
  9
$AUNITS
 70
     0
  9
$AUPREC
 70
     0
  9
$MENU
  1
.
  9
$ELEVATION
 40
0.0
  9
$PELEVATION
 40
0.0
  9
$THICKNESS
 40
0.0
  9
$LIMCHECK
 70
     0
  9
$CHAMFERA
 40
0.5
  9
$CHAMFERB
 40
0.5
  9
$SKPOLY
 70
     0
  9
$TDCREATE
 40
2455835.610454977
  9
$TDUPDATE
 40
2455835.610454977
  9
$TDINDWG
 40
0.0000000116
  9
$TDUSRTIMER
 40
0.0000000116
  9
$USRTIMER
 70
     1
  9
$ANGBASE
 50
0.0
  9
$ANGDIR
 70
     0
  9
$PDMODE
 70
     0
  9
$PDSIZE
 40
0.0
  9
$PLINEWID
 40
0.0
  9
$COORDS
 70
     1
  9
$SPLFRAME
 70
     0
  9
$SPLINETYPE
 70
     6
  9
$SPLINESEGS
 70
     8
  9
$ATTDIA
 70
     0
  9
$ATTREQ
 70
     1
  9
$HANDLING
 70
     1
  9
$HANDSEED
  5
C83
  9
$SURFTAB1
 70
     6
  9
$SURFTAB2
 70
     6
  9
$SURFTYPE
 70
     6
  9
$SURFU
 70
     6
  9
$SURFV
 70
     6
  9
$UCSNAME
  2

  9
$UCSORG
 10
0.0
 20
0.0
 30
0.0
  9
$UCSXDIR
 10
1.0
 20
0.0
 30
0.0
  9
$UCSYDIR
 10
0.0
 20
1.0
 30
0.0
  9
$PUCSNAME
  2

  9
$PUCSORG
 10
0.0
 20
0.0
 30
0.0
  9
$PUCSXDIR
 10
1.0
 20
0.0
 30
0.0
  9
$PUCSYDIR
 10
0.0
 20
1.0
 30
0.0
  9
$USERI1
 70
     0
  9
$USERI2
 70
     0
  9
$USERI3
 70
     0
  9
$USERI4
 70
     0
  9
$USERI5
 70
     0
  9
$USERR1
 40
0.0
  9
$USERR2
 40
0.0
  9
$USERR3
 40
0.0
  9
$USERR4
 40
0.0
  9
$USERR5
 40
0.0
  9
$WORLDVIEW
 70
     1
  9
$SHADEDGE
 70
     3
  9
$SHADEDIF
 70
    70
  9
$TILEMODE
 70
     1
  9
$MAXACTVP
 70
    64
  9
$PLIMCHECK
 70
     0
  9
$PEXTMIN
 10
1.000000000000000E+20
 20
1.000000000000000E+20
 30
1.000000000000000E+20
  9
$PEXTMAX
 10
-1.000000000000000E+20
 20
-1.000000000000000E+20
 30
-1.000000000000000E+20
  9
$PLIMMIN
 10
0.0
 20
0.0
  9
$PLIMMAX
 10
12.0
 20
9.0
  9
$UNITMODE
 70
     0
  9
$VISRETAIN
 70
     1
  9
$PLINEGEN
 70
     0
  9
$PSLTSCALE
 70
     1
  0
ENDSEC
  0
SECTION
  2
TABLES
  0
TABLE
  2
VPORT
 70
     1
  0
VPORT
  2
*ACTIVE
 70
     0
 10
0.0
 20
0.0
 11
1.0
 21
1.0
 12
0.0
 22
0.0
 13
0.0
 23
0.0
 14
0.5
 24
0.5
 15
0.5
 25
0.5
 16
295.1215209960938
 26
-275.2054138183594
 36
115.7096252441406
 17
47.0
 27
0.0
 37
70.73277282714844
 40
161.7896486147768
 41
1.972972972850329
 42
50.0
 43
0.0
 44
0.0
 50
0.0
 51
0.0
 71
     0
 72
   100
 73
     1
 74
     3
 75
     0
 76
     0
 77
     0
 78
     0
  0
ENDTAB
  0
TABLE
  2
LTYPE
 70
     1
  0
LTYPE
  2
CONTINUOUS
 70
     0
  3
Solid line
 72
    65
 73
     0
 40
0.0
  0
ENDTAB
  0
TABLE
  2
LAYER
 70
     2
  0
LAYER
  2
0
 70
     0
 62
     7
  6
CONTINUOUS
  0
LAYER
  2
LAYER_1
 70
     0
 62
     7
  6
CONTINUOUS
  0
ENDTAB
  0
TABLE
  2
STYLE
 70
     1
  0
STYLE
  2
STANDARD
 70
     0
 40
0.0
 41
1.0
 50
0.0
 71
     0
 42
0.2
  3
txt
  4

  0
ENDTAB
  0
TABLE
  2
VIEW
 70
     0
  0
ENDTAB
  0
TABLE
  2
UCS
 70
     0
  0
ENDTAB
  0
TABLE
  2
APPID
 70
     1
  0
APPID
  2
ACAD
 70
     0
  0
ENDTAB
  0
TABLE
  2
DIMSTYLE
 70
     1
  0
DIMSTYLE
  2
STANDARD
 70
     0
  3

  4

  5

  6

  7

 40
1.0
 41
0.18
 42
0.0625
 43
0.38
 44
0.18
 45
0.0
 46
0.0
 47
0.0
 48
0.0
140
0.18
141
0.09
142
0.0
143
25.4
144
1.0
145
0.0
146
1.0
147
0.09
 71
     0
 72
     0
 73
     1
 74
     1
 75
     0
 76
     0
 77
     0
 78
     0
170
     0
171
     2
172
     0
173
     0
174
     0
175
     0
176
     0
177
     0
178
     0
  0
ENDTAB
  0
ENDSEC
  0
SECTION
  2
BLOCKS
  0
BLOCK
  8
0
  2
$MODEL_SPACE
 70
     0
 10
0.0
 20
0.0
 30
0.0
  3
$MODEL_SPACE
  1

  0
ENDBLK
  5
21
  8
0
  0
BLOCK
 67
     1
  8
0
  2
$PAPER_SPACE
 70
     0
 10
0.0
 20
0.0
 30
0.0
  3
$PAPER_SPACE
  1

  0
ENDBLK
  5
1D
 67
     1
  8
0
  0
BLOCK
  8
0
  2
A4281011_M2_BASIN_MIXER_2_
 70
     0
 10
0.0
 20
0.0
 30
0.0
  3
A4281011_M2_BASIN_MIXER_2_
  1

  0
POLYLINE
  5
3C
  8
0
 66
     1
 10
0.0
 20
0.0
 30
0.0
 70
    64
 71
    96
 72
   176
  0
VERTEX
  5
3D
  8
0
 10
-19.74164199829102
 20
-11.27653694152832
 30
116.5
 70
   192
  0
VERTEX
  5
3E
  8
0
 10
-17.64204978942871
 20
-14.02438831329346
 30
-2.0
 70
   192
  0
VERTEX
  5
3F
  8
0
 10
-22.44411659240723
 20
-5.059648990631104
 30
-2.0
 70
   192
  0
VERTEX
  5
40
  8
0
 10
-21.88475227355957
 20
-7.089669227600098
 30
116.5
 70
   192
  0
VERTEX
  5
41
  8
0
 10
-22.8903694152832
 20
-2.358431577682495
 30
116.5
 70
   192
  0
VERTEX
  5
42
  8
0
 10
-22.31674194335938
 20
5.101950645446777
 30
-2.0
 70
   192
  0
VERTEX
  5
43
  8
0
 10
-22.80881881713867
 20
2.423659801483154
 30
116.5
 70
   192
  0
VERTEX
  5
44
  8
0
 10
-19.77988243103027
 20
11.42915439605713
 30
116.5
 70
   192
  0
VERTEX
  5
45
  8
0
 10
-21.75617599487305
 20
7.046545028686523
 30
116.5
 70
   192
  0
VERTEX
  5
46
  8
0
 10
-16.99500846862793
 20
15.35419082641602
 30
116.5
 70
   192
  0
VERTEX
  5
47
  8
0
 10
-17.87531661987305
 20
14.27469539642334
 30
-2.0
 70
   192
  0
VERTEX
  5
48
  8
0
 10
-13.50554275512695
 20
18.5889892578125
 30
116.5
 70
   192
  0
VERTEX
  5
49
  8
0
 10
-9.914122581481934
 20
20.71594429016113
 30
-2.0
 70
   192
  0
VERTEX
  5
4A
  8
0
 10
-9.294761657714844
 20
21.00302886962891
 30
116.5
 70
   192
  0
VERTEX
  5
4B
  8
0
 10
-4.792913913726807
 20
22.47336578369141
 30
116.5
 70
   192
  0
VERTEX
  5
4C
  8
0
 10
-0.0000000000000014
 20
23.0
 30
-2.0
 70
   192
  0
VERTEX
  5
4D
  8
0
 10
-0.0000000000000014
 20
23.0
 30
116.5
 70
   192
  0
VERTEX
  5
4E
  8
0
 10
-16.79659652709961
 20
-15.09031009674072
 30
116.5
 70
   192
  0
VERTEX
  5
4F
  8
0
 10
-10.07247161865234
 20
-20.76021766662598
 30
-2.0
 70
   192
  0
VERTEX
  5
50
  8
0
 10
-13.52625465393066
 20
-18.61884498596191
 30
116.5
 70
   192
  0
VERTEX
  5
51
  8
0
 10
-9.443501472473145
 20
-21.04990768432617
 30
116.5
 70
   192
  0
VERTEX
  5
52
  8
0
 10
-4.827827930450439
 20
-22.52022552490234
 30
116.5
 70
   192
  0
VERTEX
  5
53
  8
0
 10
0.0000000000000042
 20
-23.0
 30
-2.0
 70
   192
  0
VERTEX
  5
54
  8
0
 10
0.0000000000000042
 20
-23.0
 30
116.5
 70
   192
  0
VERTEX
  5
55
  8
0
 10
18.00247955322266
 20
-13.54596614837646
 30
116.5
 70
   192
  0
VERTEX
  5
56
  8
0
 10
19.43059730529785
 20
-11.31267356872559
 30
117.0
 70
   192
  0
VERTEX
  5
57
  8
0
 10
20.48819923400879
 20
-10.08991432189941
 30
116.5
 70
   192
  0
VERTEX
  5
58
  8
0
 10
21.38296318054199
 20
-6.993152141571045
 30
117.0
 70
   192
  0
VERTEX
  5
59
  8
0
 10
22.35269165039062
 20
-2.424264192581177
 30
117.0
 70
   192
  0
VERTEX
  5
5A
  8
0
 10
22.13840103149414
 20
-6.253352165222168
 30
116.5
 70
   192
  0
VERTEX
  5
5B
  8
0
 10
16.70016479492188
 20
-15.07657909393311
 30
117.0
 70
   192
  0
VERTEX
  5
5C
  8
0
 10
13.14738273620605
 20
-18.2405891418457
 30
117.0
 70
   192
  0
VERTEX
  5
5D
  8
0
 10
15.31792545318604
 20
-16.78997611999512
 30
116.5
 70
   192
  0
VERTEX
  5
5E
  8
0
 10
12.17055320739746
 20
-19.58430290222168
 30
116.5
 70
   192
  0
VERTEX
  5
5F
  8
0
 10
8.374326705932617
 20
-21.48518562316895
 30
116.5
 70
   192
  0
VERTEX
  5
60
  8
0
 10
9.137775421142578
 20
-20.56054306030273
 30
117.0
 70
   192
  0
VERTEX
  5
61
  8
0
 10
22.91687202453613
 20
-2.080720186233521
 30
116.5
 70
   192
  0
VERTEX
  5
62
  8
0
 10
4.755314826965332
 20
-21.9803466796875
 30
117.0
 70
   192
  0
VERTEX
  5
63
  8
0
 10
4.276409149169922
 20
-22.62756538391113
 30
116.5
 70
   192
  0
VERTEX
  5
64
  8
0
 10
0.0
 20
-22.5
 30
117.0
 70
   192
  0
VERTEX
  5
65
  8
0
 10
22.37820434570312
 20
2.296095609664917
 30
117.0
 70
   192
  0
VERTEX
  5
66
  8
0
 10
22.8429069519043
 20
2.142406225204468
 30
116.5
 70
   192
  0
VERTEX
  5
67
  8
0
 10
21.40383720397949
 20
6.88828706741333
 30
117.0
 70
   192
  0
VERTEX
  5
68
  8
0
 10
22.00687789916992
 20
6.252486228942871
 30
116.5
 70
   192
  0
VERTEX
  5
69
  8
0
 10
20.44148254394531
 20
10.19570159912109
 30
116.5
 70
   192
  0
VERTEX
  5
6A
  8
0
 10
19.51308441162109
 20
11.18918609619141
 30
117.0
 70
   192
  0
VERTEX
  5
6B
  8
0
 10
16.74305725097656
 20
15.01236629486084
 30
117.0
 70
   192
  0
VERTEX
  5
6C
  8
0
 10
18.24720191955566
 20
13.77650833129883
 30
116.5
 70
   192
  0
VERTEX
  5
6D
  8
0
 10
13.28074932098389
 20
18.15150451660156
 30
117.0
 70
   192
  0
VERTEX
  5
6E
  8
0
 10
15.43204021453857
 20
16.98175239562988
 30
116.5
 70
   192
  0
VERTEX
  5
6F
  8
0
 10
12.05262088775635
 20
19.54876136779785
 30
116.5
 70
   192
  0
VERTEX
  5
70
  8
0
 10
9.17235279083252
 20
20.53744506835938
 30
117.0
 70
   192
  0
VERTEX
  5
71
  8
0
 10
4.755314826965332
 20
21.9803466796875
 30
117.0
 70
   192
  0
VERTEX
  5
72
  8
0
 10
8.261689186096191
 20
21.43389129638672
 30
116.5
 70
   192
  0
VERTEX
  5
73
  8
0
 10
0.0000000000000028
 20
22.5
 30
117.0
 70
   192
  0
VERTEX
  5
74
  8
0
 10
4.244149208068848
 20
22.58430480957031
 30
116.5
 70
   192
  0
VERTEX
  5
75
  8
0
 10
120.0
 20
7.5
 30
86.99969482421875
 70
   192
  0
VERTEX
  5
76
  8
0
 10
117.656852722168
 20
13.1568546295166
 30
86.99969482421875
 70
   192
  0
VERTEX
  5
77
  8
0
 10
117.656852722168
 20
13.1568546295166
 30
64.99969482421875
 70
   192
  0
VERTEX
  5
78
  8
0
 10
120.0
 20
7.5
 30
64.99969482421875
 70
   192
  0
VERTEX
  5
79
  8
0
 10
112.0
 20
15.5
 30
64.99969482421875
 70
   192
  0
VERTEX
  5
7A
  8
0
 10
112.0
 20
15.5
 30
86.99969482421875
 70
   192
  0
VERTEX
  5
7B
  8
0
 10
112.0
 20
-15.5
 30
86.99969482421875
 70
   192
  0
VERTEX
  5
7C
  8
0
 10
117.656852722168
 20
-13.1568546295166
 30
86.99969482421875
 70
   192
  0
VERTEX
  5
7D
  8
0
 10
117.656852722168
 20
-13.1568546295166
 30
64.99969482421875
 70
   192
  0
VERTEX
  5
7E
  8
0
 10
112.0
 20
-15.5
 30
64.99969482421875
 70
   192
  0
VERTEX
  5
7F
  8
0
 10
120.0
 20
-7.5
 30
64.99969482421875
 70
   192
  0
VERTEX
  5
80
  8
0
 10
120.0
 20
-7.5
 30
86.99969482421875
 70
   192
  0
VERTEX
  5
81
  8
0
 10
22.26004028320312
 20
-5.727668762207031
 30
64.99969482421875
 70
   192
  0
VERTEX
  5
82
  8
0
 10
22.18756484985352
 20
5.914669513702393
 30
64.99969482421875
 70
   192
  0
VERTEX
  5
83
  8
0
 10
16.99264526367188
 20
-15.5
 30
64.99969482421875
 70
   192
  0
VERTEX
  5
84
  8
0
 10
16.99264526367188
 20
15.5
 30
64.99969482421875
 70
   192
  0
VERTEX
  5
85
  8
0
 10
22.26004028320312
 20
5.727668762207031
 30
86.99969482421875
 70
   192
  0
VERTEX
  5
86
  8
0
 10
22.18756484985352
 20
-5.914669513702393
 30
86.99969482421875
 70
   192
  0
VERTEX
  5
87
  8
0
 10
16.99264526367188
 20
15.5
 30
86.99969482421875
 70
   192
  0
VERTEX
  5
88
  8
0
 10
16.99264526367188
 20
-15.5
 30
86.99969482421875
 70
   192
  0
VERTEX
  5
89
  8
0
 10
-4.755314826965332
 20
-21.9803466796875
 30
117.0
 70
   192
  0
VERTEX
  5
8A
  8
0
 10
-9.17235279083252
 20
-20.53744506835938
 30
117.0
 70
   192
  0
VERTEX
  5
8B
  8
0
 10
-19.51308441162109
 20
-11.18918609619141
 30
117.0
 70
   192
  0
VERTEX
  5
8C
  8
0
 10
-21.40383720397949
 20
-6.88828706741333
 30
117.0
 70
   192
  0
VERTEX
  5
8D
  8
0
 10
-16.74305725097656
 20
-15.01236629486084
 30
117.0
 70
   192
  0
VERTEX
  5
8E
  8
0
 10
-21.38296318054199
 20
6.993152141571045
 30
117.0
 70
   192
  0
VERTEX
  5
8F
  8
0
 10
-22.35269165039062
 20
2.424264192581177
 30
117.0
 70
   192
  0
VERTEX
  5
90
  8
0
 10
-22.37820434570312
 20
-2.296095609664917
 30
117.0
 70
   192
  0
VERTEX
  5
91
  8
0
 10
-16.70016479492188
 20
15.07657909393311
 30
117.0
 70
   192
  0
VERTEX
  5
92
  8
0
 10
-19.43059730529785
 20
11.31267356872559
 30
117.0
 70
   192
  0
VERTEX
  5
93
  8
0
 10
-13.14738273620605
 20
18.2405891418457
 30
117.0
 70
   192
  0
VERTEX
  5
94
  8
0
 10
-9.137775421142578
 20
20.56054306030273
 30
117.0
 70
   192
  0
VERTEX
  5
95
  8
0
 10
-4.755314826965332
 20
21.9803466796875
 30
117.0
 70
   192
  0
VERTEX
  5
96
  8
0
 10
-13.28074932098389
 20
-18.15150451660156
 30
117.0
 70
   192
  0
VERTEX
  5
97
  8
0
 10
10.07247161865234
 20
20.76021766662598
 30
-2.0
 70
   192
  0
VERTEX
  5
98
  8
0
 10
17.64204978942871
 20
14.02438831329346
 30
-2.0
 70
   192
  0
VERTEX
  5
99
  8
0
 10
22.31674194335938
 20
-5.101950645446777
 30
-2.0
 70
   192
  0
VERTEX
  5
9A
  8
0
 10
22.44411659240723
 20
5.059648990631104
 30
-2.0
 70
   192
  0
VERTEX
  5
9B
  8
0
 10
9.914122581481934
 20
-20.71594429016113
 30
-2.0
 70
   192
  0
VERTEX
  5
9C
  8
0
 10
17.87531661987305
 20
-14.27469539642334
 30
-2.0
 70
   192
  0
VERTEX
  5
9D
  8
0
 62
     9
 10
0.0
 20
0.0
 30
0.0
 70
   128
 71
     3
 72
     2
 73
     1
  0
VERTEX
  5
9E
  8
0
 62
     9
 10
0.0
 20
0.0
 30
0.0
 70
   128
 71
     5
 72
     3
 73
     4
  0
VERTEX
  5
9F
  8
0
 62
     9
 10
0.0
 20
0.0
 30
0.0
 70
   128
 71
     3
 72
     1
 73
     4
  0
VERTEX
  5
A0
  8
0
 62
     9
 10
0.0
 20
0.0
 30
0.0
 70
   128
 71
     7
 72
     6
 73
     3
  0
VERTEX
  5
A1
  8
0
 62
     9
 10
0.0
 20
0.0
 30
0.0
 70
   128
 71
     3
 72
     5
 73
     7
  0
VERTEX
  5
A2
  8
0
 62
     9
 10
0.0
 20
0.0
 30
0.0
 70
   128
 71
     9
 72
     8
 73
     6
  0
VERTEX
  5
A3
  8
0
 62
     9
 10
0.0
 20
0.0
 30
0.0
 70
   128
 71
     9
 72
     6
 73
     7
  0
VERTEX
  5
A4
  8
0
 62
     9
 10
0.0
 20
0.0
 30
0.0
 70
   128
 71
    11
 72
     8
 73
    10
  0
VERTEX
  5
A5
  8
0
 62
     9
 10
0.0
 20
0.0
 30
0.0
 70
   128
 71
     8
 72
    11
 73
     6
  0
VERTEX
  5
A6
  8
0
 62
     9
 10
0.0
 20
0.0
 30
0.0
 70
   128
 71
    13
 72
    11
 73
    12
  0
VERTEX
  5
A7
  8
0
 62
     9
 10
0.0
 20
0.0
 30
0.0
 70
   128
 71
    10
 72
    12
 73
    11
  0
VERTEX
  5
A8
  8
0
 62
     9
 10
0.0
 20
0.0
 30
0.0
 70
   128
 71
    15
 72
    13
 73
    14
  0
VERTEX
  5
A9
  8
0
 62
     9
 10
0.0
 20
0.0
 30
0.0
 70
   128
 71
    13
 72
    12
 73
    14
  0
VERTEX
  5
AA
  8
0
 62
     9
 10
0.0
 20
0.0
 30
0.0
 70
   128
 71
    16
 72
    13
 73
    15
  0
VERTEX
  5
AB
  8
0
 62
     9
 10
0.0
 20
0.0
 30
0.0
 70
   128
 71
    17
 72
    16
 73
    15
  0
VERTEX
  5
AC
  8
0
 62
     9
 10
0.0
 20
0.0
 30
0.0
 70
   128
 71
     2
 72
    18
 73
     1
  0
VERTEX
  5
AD
  8
0
 62
     9
 10
0.0
 20
0.0
 30
0.0
 70
   128
 71
    20
 72
     2
 73
    19
  0
VERTEX
  5
AE
  8
0
 62
     9
 10
0.0
 20
0.0
 30
0.0
 70
   128
 71
     2
 72
    20
 73
    18
  0
VERTEX
  5
AF
  8
0
 62
     9
 10
0.0
 20
0.0
 30
0.0
 70
   128
 71
    19
 72
    22
 73
    21
  0
VERTEX
  5
B0
  8
0
 62
     9
 10
0.0
 20
0.0
 30
0.0
 70
   128
 71
    20
 72
    19
 73
    21
  0
VERTEX
  5
B1
  8
0
 62
     9
 10
0.0
 20
0.0
 30
0.0
 70
   128
 71
    23
 72
    22
 73
    19
  0
VERTEX
  5
B2
  8
0
 62
     9
 10
0.0
 20
0.0
 30
0.0
 70
   128
 71
    23
 72
    24
 73
    22
  0
VERTEX
  5
B3
  8
0
 62
   254
 10
0.0
 20
0.0
 30
0.0
 70
   128
 71
    27
 72
    26
 73
    25
  0
VERTEX
  5
B4
  8
0
 62
   254
 10
0.0
 20
0.0
 30
0.0
 70
   128
 71
    30
 72
    29
 73
    28
  0
VERTEX
  5
B5
  8
0
 62
   254
 10
0.0
 20
0.0
 30
0.0
 70
   128
 71
    27
 72
    28
 73
    26
  0
VERTEX
  5
B6
  8
0
 62
   254
 10
0.0
 20
0.0
 30
0.0
 70
   128
 71
    26
 72
    31
 73
    25
  0
VERTEX
  5
B7
  8
0
 62
   254
 10
0.0
 20
0.0
 30
0.0
 70
   128
 71
    33
 72
    31
 73
    32
  0
VERTEX
  5
B8
  8
0
 62
   254
 10
0.0
 20
0.0
 30
0.0
 70
   128
 71
    27
 72
    30
 73
    28
  0
VERTEX
  5
B9
  8
0
 62
   254
 10
0.0
 20
0.0
 30
0.0
 70
   128
 71
    33
 72
    25
 73
    31
  0
VERTEX
  5
BA
  8
0
 62
   254
 10
0.0
 20
0.0
 30
0.0
 70
   128
 71
    33
 72
    32
 73
    34
  0
VERTEX
  5
BB
  8
0
 62
   254
 10
0.0
 20
0.0
 30
0.0
 70
   128
 71
    36
 72
    35
 73
    34
  0
VERTEX
  5
BC
  8
0
 62
   254
 10
0.0
 20
0.0
 30
0.0
 70
   128
 71
    30
 72
    37
 73
    29
  0
VERTEX
  5
BD
  8
0
 62
   254
 10
0.0
 20
0.0
 30
0.0
 70
   128
 71
    39
 72
    35
 73
    38
  0
VERTEX
  5
BE
  8
0
 62
   254
 10
0.0
 20
0.0
 30
0.0
 70
   128
 71
    35
 72
    36
 73
    38
  0
VERTEX
  5
BF
  8
0
 62
   254
 10
0.0
 20
0.0
 30
0.0
 70
   128
 71
    38
 72
    40
 73
    39
  0
VERTEX
  5
C0
  8
0
 62
   254
 10
0.0
 20
0.0
 30
0.0
 70
   128
 71
    24
 72
    39
 73
    40
  0
VERTEX
  5
C1
  8
0
 62
   254
 10
0.0
 20
0.0
 30
0.0
 70
   128
 71
    36
 72
    34
 73
    32
  0
VERTEX
  5
C2
  8
0
 62
   254
 10
0.0
 20
0.0
 30
0.0
 70
   128
 71
    37
 72
    42
 73
    41
  0
VERTEX
  5
C3
  8
0
 62
   254
 10
0.0
 20
0.0
 30
0.0
 70
   128
 71
    41
 72
    29
 73
    37
  0
VERTEX
  5
C4
  8
0
 62
   254
 10
0.0
 20
0.0
 30
0.0
 70
   128
 71
    41
 72
    44
 73
    43
  0
VERTEX
  5
C5
  8
0
 62
   254
 10
0.0
 20
0.0
 30
0.0
 70
   128
 71
    44
 72
    41
 73
    42
  0
VERTEX
  5
C6
  8
0
 62
   254
 10
0.0
 20
0.0
 30
0.0
 70
   128
 71
    46
 72
    43
 73
    45
  0
VERTEX
  5
C7
  8
0
 62
   254
 10
0.0
 20
0.0
 30
0.0
 70
   128
 71
    44
 72
    45
 73
    43
  0
VERTEX
  5
C8
  8
0
 62
   254
 10
0.0
 20
0.0
 30
0.0
 70
   128
 71
    48
 72
    47
 73
    46
  0
VERTEX
  5
C9
  8
0
 62
   254
 10
0.0
 20
0.0
 30
0.0
 70
   128
 71
    46
 72
    45
 73
    48
  0
VERTEX
  5
CA
  8
0
 62
   254
 10
0.0
 20
0.0
 30
0.0
 70
   128
 71
    47
 72
    50
 73
    49
  0
VERTEX
  5
CB
  8
0
 62
   254
 10
0.0
 20
0.0
 30
0.0
 70
   128
 71
    50
 72
    47
 73
    48
  0
VERTEX
  5
CC
  8
0
 62
   254
 10
0.0
 20
0.0
 30
0.0
 70
   128
 71
    52
 72
    49
 73
    51
  0
VERTEX
  5
CD
  8
0
 62
   254
 10
0.0
 20
0.0
 30
0.0
 70
   128
 71
    50
 72
    51
 73
    49
  0
VERTEX
  5
CE
  8
0
 62
   254
 10
0.0
 20
0.0
 30
0.0
 70
   128
 71
    54
 72
    53
 73
    52
  0
VERTEX
  5
CF
  8
0
 62
   254
 10
0.0
 20
0.0
 30
0.0
 70
   128
 71
    52
 72
    51
 73
    54
  0
VERTEX
  5
D0
  8
0
 62
   254
 10
0.0
 20
0.0
 30
0.0
 70
   128
 71
    53
 72
    56
 73
    55
  0
VERTEX
  5
D1
  8
0
 62
   254
 10
0.0
 20
0.0
 30
0.0
 70
   128
 71
    56
 72
    53
 73
    54
  0
VERTEX
  5
D2
  8
0
 62
   254
 10
0.0
 20
0.0
 30
0.0
 70
   128
 71
    56
 72
    17
 73
    55
  0
VERTEX
  5
D3
  8
0
 62
     9
 10
0.0
 20
0.0
 30
0.0
 70
   128
 71
    59
 72
    58
 73
    57
  0
VERTEX
  5
D4
  8
0
 62
     9
 10
0.0
 20
0.0
 30
0.0
 70
   128
 71
    59
 72
    57
 73
    60
  0
VERTEX
  5
D5
  8
0
 62
     9
 10
0.0
 20
0.0
 30
0.0
 70
   128
 71
    58
 72
    59
 73
    61
  0
VERTEX
  5
D6
  8
0
 62
     9
 10
0.0
 20
0.0
 30
0.0
 70
   128
 71
    61
 72
    62
 73
    58
  0
VERTEX
  5
D7
  8
0
 62
     9
 10
0.0
 20
0.0
 30
0.0
 70
   128
 71
    65
 72
    64
 73
    63
  0
VERTEX
  5
D8
  8
0
 62
     9
 10
0.0
 20
0.0
 30
0.0
 70
   128
 71
    65
 72
    63
 73
    66
  0
VERTEX
  5
D9
  8
0
 62
     9
 10
0.0
 20
0.0
 30
0.0
 70
   128
 71
    64
 72
    65
 73
    67
  0
VERTEX
  5
DA
  8
0
 62
     9
 10
0.0
 20
0.0
 30
0.0
 70
   128
 71
    67
 72
    68
 73
    64
  0
VERTEX
  5
DB
  8
0
 62
     9
 10
0.0
 20
0.0
 30
0.0
 70
   128
 71
    59
 72
    60
 73
    61
  0
VERTEX
  5
DC
  8
0
 62
     9
 10
0.0
 20
0.0
 30
0.0
 70
   128
 71
    61
 72
    60
 73
    67
  0
VERTEX
  5
DD
  8
0
 62
     9
 10
0.0
 20
0.0
 30
0.0
 70
   128
 71
    67
 72
    65
 73
    66
  0
VERTEX
  5
DE
  8
0
 62
     9
 10
0.0
 20
0.0
 30
0.0
 70
   128
 71
    67
 72
    66
 73
    61
  0
VERTEX
  5
DF
  8
0
 62
     9
 10
0.0
 20
0.0
 30
0.0
 70
   128
 71
    70
 72
    66
 73
    69
  0
VERTEX
  5
E0
  8
0
 62
     9
 10
0.0
 20
0.0
 30
0.0
 70
   128
 71
    70
 72
    61
 73
    66
  0
VERTEX
  5
E1
  8
0
 62
     9
 10
0.0
 20
0.0
 30
0.0
 70
   128
 71
    71
 72
    69
 73
    66
  0
VERTEX
  5
E2
  8
0
 62
     9
 10
0.0
 20
0.0
 30
0.0
 70
   128
 71
    61
 72
    70
 73
    72
  0
VERTEX
  5
E3
  8
0
 62
     9
 10
0.0
 20
0.0
 30
0.0
 70
   128
 71
    57
 72
    58
 73
    62
  0
VERTEX
  5
E4
  8
0
 62
     9
 10
0.0
 20
0.0
 30
0.0
 70
   128
 71
    74
 72
    62
 73
    73
  0
VERTEX
  5
E5
  8
0
 62
     9
 10
0.0
 20
0.0
 30
0.0
 70
   128
 71
    57
 72
    62
 73
    63
  0
VERTEX
  5
E6
  8
0
 62
     9
 10
0.0
 20
0.0
 30
0.0
 70
   128
 71
    73
 72
    62
 73
    75
  0
VERTEX
  5
E7
  8
0
 62
     9
 10
0.0
 20
0.0
 30
0.0
 70
   128
 71
    74
 72
    63
 73
    62
  0
VERTEX
  5
E8
  8
0
 62
     9
 10
0.0
 20
0.0
 30
0.0
 70
   128
 71
    63
 72
    74
 73
    76
  0
VERTEX
  5
E9
  8
0
 62
     9
 10
0.0
 20
0.0
 30
0.0
 70
   128
 71
    68
 72
    63
 73
    64
  0
VERTEX
  5
EA
  8
0
 62
     9
 10
0.0
 20
0.0
 30
0.0
 70
   128
 71
    57
 72
    63
 73
    68
  0
VERTEX
  5
EB
  8
0
 62
     9
 10
0.0
 20
0.0
 30
0.0
 70
   128
 71
    62
 72
    61
 73
    72
  0
VERTEX
  5
EC
  8
0
 62
     9
 10
0.0
 20
0.0
 30
0.0
 70
   128
 71
    72
 72
    75
 73
    62
  0
VERTEX
  5
ED
  8
0
 62
   254
 10
0.0
 20
0.0
 30
0.0
 70
   128
 71
    40
 72
    77
 73
    22
  0
VERTEX
  5
EE
  8
0
 62
   254
 10
0.0
 20
0.0
 30
0.0
 70
   128
 71
    20
 72
    21
 73
    78
  0
VERTEX
  5
EF
  8
0
 62
   254
 10
0.0
 20
0.0
 30
0.0
 70
   128
 71
    80
 72
     4
 73
    79
  0
VERTEX
  5
F0
  8
0
 62
   254
 10
0.0
 20
0.0
 30
0.0
 70
   128
 71
    18
 72
    81
 73
     1
  0
VERTEX
  5
F1
  8
0
 62
   254
 10
0.0
 20
0.0
 30
0.0
 70
   128
 71
     9
 72
    83
 73
    82
  0
VERTEX
  5
F2
  8
0
 62
   254
 10
0.0
 20
0.0
 30
0.0
 70
   128
 71
     5
 72
    84
 73
     7
  0
VERTEX
  5
F3
  8
0
 62
   254
 10
0.0
 20
0.0
 30
0.0
 70
   128
 71
    10
 72
    85
 73
    12
  0
VERTEX
  5
F4
  8
0
 62
   254
 10
0.0
 20
0.0
 30
0.0
 70
   128
 71
    82
 72
    86
 73
     8
  0
VERTEX
  5
F5
  8
0
 62
   254
 10
0.0
 20
0.0
 30
0.0
 70
   128
 71
    14
 72
    12
 73
    87
  0
VERTEX
  5
F6
  8
0
 62
   254
 10
0.0
 20
0.0
 30
0.0
 70
   128
 71
    85
 72
    87
 73
    12
  0
VERTEX
  5
F7
  8
0
 62
   254
 10
0.0
 20
0.0
 30
0.0
 70
   128
 71
    88
 72
    15
 73
    14
  0
VERTEX
  5
F8
  8
0
 62
   254
 10
0.0
 20
0.0
 30
0.0
 70
   128
 71
    14
 72
    87
 73
    88
  0
VERTEX
  5
F9
  8
0
 62
   254
 10
0.0
 20
0.0
 30
0.0
 70
   128
 71
    15
 72
    89
 73
    17
  0
VERTEX
  5
FA
  8
0
 62
   254
 10
0.0
 20
0.0
 30
0.0
 70
   128
 71
    89
 72
    15
 73
    88
  0
VERTEX
  5
FB
  8
0
 62
   254
 10
0.0
 20
0.0
 30
0.0
 70
   128
 71
    10
 72
    86
 73
    85
  0
VERTEX
  5
FC
  8
0
 62
   254
 10
0.0
 20
0.0
 30
0.0
 70
   128
 71
    89
 72
    55
 73
    17
  0
VERTEX
  5
FD
  8
0
 62
   254
 10
0.0
 20
0.0
 30
0.0
 70
   128
 71
    10
 72
     8
 73
    86
  0
VERTEX
  5
FE
  8
0
 62
   254
 10
0.0
 20
0.0
 30
0.0
 70
   128
 71
     9
 72
    82
 73
     8
  0
VERTEX
  5
FF
  8
0
 62
   254
 10
0.0
 20
0.0
 30
0.0
 70
   128
 71
     4
 72
     1
 73
    79
  0
VERTEX
  5
100
  8
0
 62
   254
 10
0.0
 20
0.0
 30
0.0
 70
   128
 71
    83
 72
     7
 73
    84
  0
VERTEX
  5
101
  8
0
 62
   254
 10
0.0
 20
0.0
 30
0.0
 70
   128
 71
     9
 72
     7
 73
    83
  0
VERTEX
  5
102
  8
0
 62
   254
 10
0.0
 20
0.0
 30
0.0
 70
   128
 71
    80
 72
     5
 73
     4
  0
VERTEX
  5
103
  8
0
 62
   254
 10
0.0
 20
0.0
 30
0.0
 70
   128
 71
    84
 72
     5
 73
    80
  0
VERTEX
  5
104
  8
0
 62
   254
 10
0.0
 20
0.0
 30
0.0
 70
   128
 71
    24
 72
    40
 73
    22
  0
VERTEX
  5
105
  8
0
 62
   254
 10
0.0
 20
0.0
 30
0.0
 70
   128
 71
    81
 72
    79
 73
     1
  0
VERTEX
  5
106
  8
0
 62
   254
 10
0.0
 20
0.0
 30
0.0
 70
   128
 71
    81
 72
    18
 73
    90
  0
VERTEX
  5
107
  8
0
 62
   254
 10
0.0
 20
0.0
 30
0.0
 70
   128
 71
    90
 72
    20
 73
    78
  0
VERTEX
  5
108
  8
0
 62
   254
 10
0.0
 20
0.0
 30
0.0
 70
   128
 71
    20
 72
    90
 73
    18
  0
VERTEX
  5
109
  8
0
 62
   254
 10
0.0
 20
0.0
 30
0.0
 70
   128
 71
    21
 72
    77
 73
    78
  0
VERTEX
  5
10A
  8
0
 62
   254
 10
0.0
 20
0.0
 30
0.0
 70
   128
 71
    21
 72
    22
 73
    77
  0
VERTEX
  5
10B
  8
0
 62
     9
 10
0.0
 20
0.0
 30
0.0
 70
   128
 71
    49
 72
    81
 73
    47
  0
VERTEX
  5
10C
  8
0
 62
     9
 10
0.0
 20
0.0
 30
0.0
 70
   128
 71
    86
 72
    87
 73
    85
  0
VERTEX
  5
10D
  8
0
 62
     9
 10
0.0
 20
0.0
 30
0.0
 70
   128
 71
    88
 72
    87
 73
    89
  0
VERTEX
  5
10E
  8
0
 62
     9
 10
0.0
 20
0.0
 30
0.0
 70
   128
 71
    83
 72
    86
 73
    82
  0
VERTEX
  5
10F
  8
0
 62
     9
 10
0.0
 20
0.0
 30
0.0
 70
   128
 71
    87
 72
    86
 73
    89
  0
VERTEX
  5
110
  8
0
 62
     9
 10
0.0
 20
0.0
 30
0.0
 70
   128
 71
    53
 72
    89
 73
    83
  0
VERTEX
  5
111
  8
0
 62
     9
 10
0.0
 20
0.0
 30
0.0
 70
   128
 71
    86
 72
    83
 73
    89
  0
VERTEX
  5
112
  8
0
 62
     9
 10
0.0
 20
0.0
 30
0.0
 70
   128
 71
    53
 72
    83
 73
    80
  0
VERTEX
  5
113
  8
0
 62
     9
 10
0.0
 20
0.0
 30
0.0
 70
   128
 71
    80
 72
    83
 73
    84
  0
VERTEX
  5
114
  8
0
 62
     9
 10
0.0
 20
0.0
 30
0.0
 70
   128
 71
    77
 72
    43
 73
    78
  0
VERTEX
  5
115
  8
0
 62
     9
 10
0.0
 20
0.0
 30
0.0
 70
   128
 71
    47
 72
    81
 73
    90
  0
VERTEX
  5
116
  8
0
 62
     9
 10
0.0
 20
0.0
 30
0.0
 70
   128
 71
    29
 72
    77
 73
    38
  0
VERTEX
  5
117
  8
0
 62
     9
 10
0.0
 20
0.0
 30
0.0
 70
   128
 71
    40
 72
    38
 73
    77
  0
VERTEX
  5
118
  8
0
 62
     9
 10
0.0
 20
0.0
 30
0.0
 70
   128
 71
    29
 72
    26
 73
    28
  0
VERTEX
  5
119
  8
0
 62
     9
 10
0.0
 20
0.0
 30
0.0
 70
   128
 71
    36
 72
    32
 73
    38
  0
VERTEX
  5
11A
  8
0
 62
     9
 10
0.0
 20
0.0
 30
0.0
 70
   128
 71
    38
 72
    32
 73
    26
  0
VERTEX
  5
11B
  8
0
 62
     9
 10
0.0
 20
0.0
 30
0.0
 70
   128
 71
    26
 72
    29
 73
    38
  0
VERTEX
  5
11C
  8
0
 62
     9
 10
0.0
 20
0.0
 30
0.0
 70
   128
 71
    31
 72
    26
 73
    32
  0
VERTEX
  5
11D
  8
0
 62
     9
 10
0.0
 20
0.0
 30
0.0
 70
   128
 71
    29
 72
    41
 73
    43
  0
VERTEX
  5
11E
  8
0
 62
     9
 10
0.0
 20
0.0
 30
0.0
 70
   128
 71
    78
 72
    43
 73
    90
  0
VERTEX
  5
11F
  8
0
 62
     9
 10
0.0
 20
0.0
 30
0.0
 70
   128
 71
    43
 72
    77
 73
    29
  0
VERTEX
  5
120
  8
0
 62
     9
 10
0.0
 20
0.0
 30
0.0
 70
   128
 71
    47
 72
    90
 73
    46
  0
VERTEX
  5
121
  8
0
 62
     9
 10
0.0
 20
0.0
 30
0.0
 70
   128
 71
    90
 72
    43
 73
    46
  0
VERTEX
  5
122
  8
0
 62
     9
 10
0.0
 20
0.0
 30
0.0
 70
   128
 71
    49
 72
    80
 73
    79
  0
VERTEX
  5
123
  8
0
 62
     9
 10
0.0
 20
0.0
 30
0.0
 70
   128
 71
    79
 72
    81
 73
    49
  0
VERTEX
  5
124
  8
0
 62
     9
 10
0.0
 20
0.0
 30
0.0
 70
   128
 71
    52
 72
    53
 73
    80
  0
VERTEX
  5
125
  8
0
 62
     9
 10
0.0
 20
0.0
 30
0.0
 70
   128
 71
    52
 72
    80
 73
    49
  0
VERTEX
  5
126
  8
0
 62
     9
 10
0.0
 20
0.0
 30
0.0
 70
   128
 71
    89
 72
    53
 73
    55
  0
VERTEX
  5
127
  8
0
 62
     9
 10
0.0
 20
0.0
 30
0.0
 70
   128
 71
    16
 72
    17
 73
    56
  0
VERTEX
  5
128
  8
0
 62
     9
 10
0.0
 20
0.0
 30
0.0
 70
   128
 71
    91
 72
    51
 73
    50
  0
VERTEX
  5
129
  8
0
 62
     9
 10
0.0
 20
0.0
 30
0.0
 70
   128
 71
    54
 72
    91
 73
    56
  0
VERTEX
  5
12A
  8
0
 62
     9
 10
0.0
 20
0.0
 30
0.0
 70
   128
 71
    70
 72
    92
 73
    72
  0
VERTEX
  5
12B
  8
0
 62
     9
 10
0.0
 20
0.0
 30
0.0
 70
   128
 71
    44
 72
    73
 73
    45
  0
VERTEX
  5
12C
  8
0
 62
     9
 10
0.0
 20
0.0
 30
0.0
 70
   128
 71
    42
 72
    37
 73
    74
  0
VERTEX
  5
12D
  8
0
 62
     9
 10
0.0
 20
0.0
 30
0.0
 70
   128
 71
    94
 72
    69
 73
    93
  0
VERTEX
  5
12E
  8
0
 62
     9
 10
0.0
 20
0.0
 30
0.0
 70
   128
 71
    30
 72
    27
 73
    74
  0
VERTEX
  5
12F
  8
0
 62
     9
 10
0.0
 20
0.0
 30
0.0
 70
   128
 71
    33
 72
    95
 73
    71
  0
VERTEX
  5
130
  8
0
 62
     9
 10
0.0
 20
0.0
 30
0.0
 70
   128
 71
    95
 72
    33
 73
    34
  0
VERTEX
  5
131
  8
0
 62
     9
 10
0.0
 20
0.0
 30
0.0
 70
   128
 71
    95
 72
    96
 73
    71
  0
VERTEX
  5
132
  8
0
 62
     9
 10
0.0
 20
0.0
 30
0.0
 70
   128
 71
    95
 72
    35
 73
    39
  0
VERTEX
  5
133
  8
0
 62
     9
 10
0.0
 20
0.0
 30
0.0
 70
   128
 71
    34
 72
    35
 73
    95
  0
VERTEX
  5
134
  8
0
 62
     9
 10
0.0
 20
0.0
 30
0.0
 70
   128
 71
    24
 72
    23
 73
    39
  0
VERTEX
  5
135
  8
0
 62
     9
 10
0.0
 20
0.0
 30
0.0
 70
   128
 71
    95
 72
    39
 73
    23
  0
VERTEX
  5
136
  8
0
 62
     9
 10
0.0
 20
0.0
 30
0.0
 70
   128
 71
    70
 72
    69
 73
    94
  0
VERTEX
  5
137
  8
0
 62
     9
 10
0.0
 20
0.0
 30
0.0
 70
   128
 71
    96
 72
    93
 73
    69
  0
VERTEX
  5
138
  8
0
 62
     9
 10
0.0
 20
0.0
 30
0.0
 70
   128
 71
    94
 72
    92
 73
    70
  0
VERTEX
  5
139
  8
0
 62
     9
 10
0.0
 20
0.0
 30
0.0
 70
   128
 71
    54
 72
    51
 73
    91
  0
VERTEX
  5
13A
  8
0
 62
     9
 10
0.0
 20
0.0
 30
0.0
 70
   128
 71
    50
 72
    72
 73
    91
  0
VERTEX
  5
13B
  8
0
 62
     9
 10
0.0
 20
0.0
 30
0.0
 70
   128
 71
    91
 72
    16
 73
    56
  0
VERTEX
  5
13C
  8
0
 62
     9
 10
0.0
 20
0.0
 30
0.0
 70
   128
 71
    48
 72
    45
 73
    75
  0
VERTEX
  5
13D
  8
0
 62
     9
 10
0.0
 20
0.0
 30
0.0
 70
   128
 71
    48
 72
    75
 73
    50
  0
VERTEX
  5
13E
  8
0
 62
     9
 10
0.0
 20
0.0
 30
0.0
 70
   128
 71
    72
 72
    92
 73
    91
  0
VERTEX
  5
13F
  8
0
 62
     9
 10
0.0
 20
0.0
 30
0.0
 70
   128
 71
    75
 72
    72
 73
    50
  0
VERTEX
  5
140
  8
0
 62
     9
 10
0.0
 20
0.0
 30
0.0
 70
   128
 71
    45
 72
    73
 73
    75
  0
VERTEX
  5
141
  8
0
 62
     9
 10
0.0
 20
0.0
 30
0.0
 70
   128
 71
    73
 72
    42
 73
    74
  0
VERTEX
  5
142
  8
0
 62
     9
 10
0.0
 20
0.0
 30
0.0
 70
   128
 71
    74
 72
    27
 73
    76
  0
VERTEX
  5
143
  8
0
 62
     9
 10
0.0
 20
0.0
 30
0.0
 70
   128
 71
    76
 72
    27
 73
    25
  0
VERTEX
  5
144
  8
0
 62
     9
 10
0.0
 20
0.0
 30
0.0
 70
   128
 71
    71
 72
    96
 73
    69
  0
VERTEX
  5
145
  8
0
 62
     9
 10
0.0
 20
0.0
 30
0.0
 70
   128
 71
    33
 72
    71
 73
    76
  0
VERTEX
  5
146
  8
0
 62
     9
 10
0.0
 20
0.0
 30
0.0
 70
   128
 71
    33
 72
    76
 73
    25
  0
VERTEX
  5
147
  8
0
 62
     9
 10
0.0
 20
0.0
 30
0.0
 70
   128
 71
    30
 72
    74
 73
    37
  0
VERTEX
  5
148
  8
0
 62
     9
 10
0.0
 20
0.0
 30
0.0
 70
   128
 71
    42
 72
    73
 73
    44
  0
VERTEX
  5
149
  8
0
 62
     9
 10
0.0
 20
0.0
 30
0.0
 70
   128
 71
    67
 72
    60
 73
    57
  0
VERTEX
  5
14A
  8
0
 62
     9
 10
0.0
 20
0.0
 30
0.0
 70
   128
 71
    57
 72
    68
 73
    67
  0
VERTEX
  5
14B
  8
0
 62
     9
 10
0.0
 20
0.0
 30
0.0
 70
   128
 71
    66
 72
    63
 73
    71
  0
VERTEX
  5
14C
  8
0
 62
     9
 10
0.0
 20
0.0
 30
0.0
 70
   128
 71
    63
 72
    76
 73
    71
  0
SEQEND
  5
14D
  8
0
  0
ENDBLK
  5
151
  8
0
  0
BLOCK
  8
0
  2
39
 70
     0
 10
0.0
 20
0.0
 30
0.0
  3
39
  1

  0
POLYLINE
  5
153
  8
0
 62
     9
 66
     1
 10
0.0
 20
0.0
 30
0.0
 70
    64
 71
   192
 72
   256
  0
VERTEX
  5
154
  8
0
 10
105.4896697998047
 20
-10.13584041595459
 30
66.7514877319336
 70
   192
  0
VERTEX
  5
155
  8
0
 10
100.9070205688477
 20
-10.5
 30
70.13145446777344
 70
   192
  0
VERTEX
  5
156
  8
0
 10
103.0201110839844
 20
-10.5
 30
65.59991455078125
 70
   192
  0
VERTEX
  5
157
  8
0
 10
98.43746185302734
 20
-10.13584041595459
 30
68.9798812866211
 70
   192
  0
VERTEX
  5
158
  8
0
 10
100.5607070922852
 20
-10.14256954193115
 30
64.45307922363281
 70
   192
  0
VERTEX
  5
159
  8
0
 10
94.18011474609375
 20
-7.415389060974121
 30
66.9946517944336
 70
   192
  0
VERTEX
  5
15A
  8
0
 10
92.66744232177734
 20
-5.238590240478516
 30
66.28927612304688
 70
   192
  0
VERTEX
  5
15B
  8
0
 10
96.28572845458984
 20
-7.426445484161377
 30
62.45962142944336
 70
   192
  0
VERTEX
  5
15C
  8
0
 10
98.2630615234375
 20
-9.098468780517578
 30
63.38166427612305
 70
   192
  0
VERTEX
  5
15D
  8
0
 10
96.14555358886719
 20
-9.081518173217773
 30
67.91114807128906
 70
   192
  0
VERTEX
  5
15E
  8
0
 10
91.71851348876953
 20
-2.70935320854187
 30
65.84678649902344
 70
   192
  0
VERTEX
  5
15F
  8
0
 10
93.82421875
 20
-2.721987247467041
 30
61.31179809570312
 70
   192
  0
VERTEX
  5
160
  8
0
 10
94.77530670166016
 20
-5.25336742401123
 30
61.75530242919922
 70
   192
  0
VERTEX
  5
161
  8
0
 10
91.39079284667969
 20
0.0000000000000009
 30
65.69396209716797
 70
   192
  0
VERTEX
  5
162
  8
0
 10
93.5038833618164
 20
0.0000000000000003
 30
61.16242599487305
 70
   192
  0
VERTEX
  5
163
  8
0
 10
103.3664245605469
 20
-10.14256954193115
 30
71.2782974243164
 70
   192
  0
VERTEX
  5
164
  8
0
 10
107.7815856933594
 20
-9.081518173217773
 30
67.82022857666016
 70
   192
  0
VERTEX
  5
165
  8
0
 10
105.6640777587891
 20
-9.098468780517578
 30
72.3497085571289
 70
   192
  0
VERTEX
  5
166
  8
0
 10
109.7470169067383
 20
-7.415389060974121
 30
68.73672485351562
 70
   192
  0
VERTEX
  5
167
  8
0
 10
107.6414031982422
 20
-7.426445484161377
 30
73.2717514038086
 70
   192
  0
VERTEX
  5
168
  8
0
 10
109.1518249511719
 20
-5.25336742401123
 30
73.97607421875
 70
   192
  0
VERTEX
  5
169
  8
0
 10
111.2596893310547
 20
-5.238590240478516
 30
69.44209289550781
 70
   192
  0
VERTEX
  5
16A
  8
0
 10
112.208625793457
 20
-2.70935320854187
 30
69.88459014892578
 70
   192
  0
VERTEX
  5
16B
  8
0
 10
110.1029205322266
 20
-2.721987247467041
 30
74.41957092285156
 70
   192
  0
VERTEX
  5
16C
  8
0
 10
112.5363464355469
 20
-0.000000000000001
 30
70.03740692138672
 70
   192
  0
VERTEX
  5
16D
  8
0
 10
110.4232559204102
 20
-0.0000000000000004
 30
74.5689468383789
 70
   192
  0
VERTEX
  5
16E
  8
0
 10
91.71112060546875
 20
2.721987247467041
 30
65.84333801269531
 70
   192
  0
VERTEX
  5
16F
  8
0
 10
93.83160400390625
 20
2.70935320854187
 30
61.31524276733398
 70
   192
  0
VERTEX
  5
170
  8
0
 10
98.44761657714844
 20
10.14256954193115
 30
68.984619140625
 70
   192
  0
VERTEX
  5
171
  8
0
 10
98.2586441040039
 20
9.081518173217773
 30
63.37960433959961
 70
   192
  0
VERTEX
  5
172
  8
0
 10
96.14996337890625
 20
9.098468780517578
 30
67.9132080078125
 70
   192
  0
VERTEX
  5
173
  8
0
 10
94.17263793945312
 20
7.426445484161377
 30
66.99115753173828
 70
   192
  0
VERTEX
  5
174
  8
0
 10
94.7805404663086
 20
5.238590240478516
 30
61.75774002075195
 70
   192
  0
VERTEX
  5
175
  8
0
 10
92.66221618652344
 20
5.25336742401123
 30
66.2868423461914
 70
   192
  0
VERTEX
  5
176
  8
0
 10
103.376579284668
 20
10.13584041595459
 30
71.28302764892578
 70
   192
  0
VERTEX
  5
177
  8
0
 10
105.6684951782227
 20
9.081518173217773
 30
72.35176849365234
 70
   192
  0
VERTEX
  5
178
  8
0
 10
105.4795227050781
 20
10.14256954193115
 30
66.74675750732422
 70
   192
  0
VERTEX
  5
179
  8
0
 10
100.5505523681641
 20
10.13584041595459
 30
64.4483413696289
 70
   192
  0
VERTEX
  5
17A
  8
0
 10
100.9070205688477
 20
10.5
 30
70.13145446777344
 70
   192
  0
VERTEX
  5
17B
  8
0
 10
103.0201110839844
 20
10.5
 30
65.59991455078125
 70
   192
  0
VERTEX
  5
17C
  8
0
 10
107.6339263916016
 20
7.415389060974121
 30
73.26826477050781
 70
   192
  0
VERTEX
  5
17D
  8
0
 10
109.146598815918
 20
5.238590240478516
 30
73.9736328125
 70
   192
  0
VERTEX
  5
17E
  8
0
 10
109.7544937133789
 20
7.426445484161377
 30
68.7402114868164
 70
   192
  0
VERTEX
  5
17F
  8
0
 10
107.7771682739258
 20
9.098468780517578
 30
67.81816864013672
 70
   192
  0
VERTEX
  5
180
  8
0
 10
110.0955352783203
 20
2.70935320854187
 30
74.41613006591797
 70
   192
  0
VERTEX
  5
181
  8
0
 10
111.2649154663086
 20
5.25336742401123
 30
69.44453430175781
 70
   192
  0
VERTEX
  5
182
  8
0
 10
112.2160110473633
 20
2.721987247467041
 30
69.88803100585938
 70
   192
  0
VERTEX
  5
183
  8
0
 10
96.29320526123047
 20
7.415389060974121
 30
62.46310806274414
 70
   192
  0
VERTEX
  5
184
  8
0
 10
105.1777725219727
 20
11.5
 30
60.97280883789062
 70
   192
  0
VERTEX
  5
185
  8
0
 10
107.8718490600586
 20
11.10840892791748
 30
62.22908020019531
 70
   192
  0
VERTEX
  5
186
  8
0
 10
100.4844055175781
 20
11.5
 30
71.03776550292969
 70
   192
  0
VERTEX
  5
187
  8
0
 10
102.474365234375
 20
11.10402393341064
 30
59.71218872070312
 70
   192
  0
VERTEX
  5
188
  8
0
 10
97.2555160522461
 20
10.93112754821777
 30
69.53211212158203
 70
   192
  0
VERTEX
  5
189
  8
0
 10
94.35556030273438
 20
9.29595947265625
 30
68.17984008789062
 70
   192
  0
VERTEX
  5
18A
  8
0
 10
99.9603042602539
 20
9.949759483337402
 30
58.53986358642578
 70
   192
  0
VERTEX
  5
18B
  8
0
 10
92.04690551757812
 20
6.752465724945068
 30
67.1032943725586
 70
   192
  0
VERTEX
  5
18C
  8
0
 10
97.80403900146484
 20
8.121245384216309
 30
57.53438186645508
 70
   192
  0
VERTEX
  5
18D
  8
0
 10
96.1455307006836
 20
5.744455814361572
 30
56.76100540161133
 70
   192
  0
VERTEX
  5
18E
  8
0
 10
90.62928771972656
 20
3.53810453414917
 30
66.44224548339844
 70
   192
  0
VERTEX
  5
18F
  8
0
 10
90.0618667602539
 20
0.0000000000000012
 30
66.17765045166016
 70
   192
  0
VERTEX
  5
190
  8
0
 10
95.17684173583984
 20
2.963176012039185
 30
56.30929946899414
 70
   192
  0
VERTEX
  5
191
  8
0
 10
94.75523376464844
 20
-0.0000000000000002
 30
56.11269760131836
 70
   192
  0
VERTEX
  5
192
  8
0
 10
103.6984634399414
 20
10.93877696990967
 30
72.53650665283203
 70
   192
  0
VERTEX
  5
193
  8
0
 10
110.3844375610352
 20
9.964570045471191
 30
63.40071487426758
 70
   192
  0
VERTEX
  5
194
  8
0
 10
106.607063293457
 20
9.309969902038574
 30
73.89280700683594
 70
   192
  0
VERTEX
  5
195
  8
0
 10
108.9163970947266
 20
6.766062259674072
 30
74.96966552734375
 70
   192
  0
VERTEX
  5
196
  8
0
 10
112.5443344116211
 20
8.140824317932129
 30
64.40789794921875
 70
   192
  0
VERTEX
  5
197
  8
0
 10
114.2007293701172
 20
5.758984565734863
 30
65.18028259277344
 70
   192
  0
VERTEX
  5
198
  8
0
 10
110.3603363037109
 20
3.557211399078369
 30
75.64299011230469
 70
   192
  0
VERTEX
  5
199
  8
0
 10
115.1904830932617
 20
2.974095106124878
 30
65.64180755615234
 70
   192
  0
VERTEX
  5
19A
  8
0
 10
110.9069442749023
 20
-0.0000000000000002
 30
75.89787292480469
 70
   192
  0
VERTEX
  5
19B
  8
0
 10
115.6003112792969
 20
-0.0000000000000016
 30
65.83291625976562
 70
   192
  0
VERTEX
  5
19C
  8
0
 10
116.2819747924805
 20
2.764312267303467
 30
62.93392181396484
 70
   192
  0
VERTEX
  5
19D
  8
0
 10
116.7957763671875
 20
2.72285532951355
 30
60.05196380615234
 70
   192
  0
VERTEX
  5
19E
  8
0
 10
117.1217575073242
 20
-0.0000000000000025
 30
60.20397186279297
 70
   192
  0
VERTEX
  5
19F
  8
0
 10
100.3068618774414
 20
9.028215408325195
 30
55.48460006713867
 70
   192
  0
VERTEX
  5
1A0
  8
0
 10
104.1840209960938
 20
10.97898387908936
 30
57.29255294799805
 70
   192
  0
VERTEX
  5
1A1
  8
0
 10
97.74845123291016
 20
5.975407123565674
 30
54.29159545898438
 70
   192
  0
VERTEX
  5
1A2
  8
0
 10
99.3635482788086
 20
5.247673034667969
 30
51.92317962646484
 70
   192
  0
VERTEX
  5
1A3
  8
0
 10
100.8770446777344
 20
7.424619197845459
 30
52.62893676757812
 70
   192
  0
VERTEX
  5
1A4
  8
0
 10
98.41404724121094
 20
2.72111964225769
 30
51.48042297363281
 70
   192
  0
VERTEX
  5
1A5
  8
0
 10
96.51700592041016
 20
2.782776355743408
 30
53.71736145019531
 70
   192
  0
VERTEX
  5
1A6
  8
0
 10
96.21562957763672
 20
-0.0000000000000003
 30
53.57682800292969
 70
   192
  0
VERTEX
  5
1A7
  8
0
 10
98.09112548828125
 20
0.0000018802261366
 30
51.32984161376953
 70
   192
  0
VERTEX
  5
1A8
  8
0
 10
108.6601104736328
 20
10.95669269561768
 30
59.37978744506836
 70
   192
  0
VERTEX
  5
1A9
  8
0
 10
107.6007308959961
 20
10.49882316589355
 30
55.76424407958984
 70
   192
  0
VERTEX
  5
1AA
  8
0
 10
105.1410140991211
 20
10.14121437072754
 30
54.61725616455078
 70
   192
  0
VERTEX
  5
1AB
  8
0
 10
112.526123046875
 20
8.963306427001953
 30
61.18253707885742
 70
   192
  0
VERTEX
  5
1AC
  8
0
 10
112.3595123291016
 20
9.095300674438477
 30
57.98329925537109
 70
   192
  0
VERTEX
  5
1AD
  8
0
 10
115.0523071289062
 20
5.92194938659668
 30
62.36051559448242
 70
   192
  0
VERTEX
  5
1AE
  8
0
 10
114.3286437988281
 20
7.429516792297363
 30
58.90151977539062
 70
   192
  0
VERTEX
  5
1AF
  8
0
 10
115.8466262817383
 20
5.251132011413574
 30
59.60936737060547
 70
   192
  0
VERTEX
  5
1B0
  8
0
 10
116.6041717529297
 20
-0.000000000000005
 30
63.08416366577148
 70
   192
  0
VERTEX
  5
1B1
  8
0
 10
110.0644302368164
 20
10.1430835723877
 30
56.9130859375
 70
   192
  0
VERTEX
  5
1B2
  8
0
 10
102.8480682373047
 20
9.093683242797852
 30
53.54804229736328
 70
   192
  0
VERTEX
  5
1B3
  8
0
 10
96.5378189086914
 20
-2.764312267303467
 30
53.72706985473633
 70
   192
  0
VERTEX
  5
1B4
  8
0
 10
96.1455307006836
 20
-5.744455814361572
 30
56.76100540161133
 70
   192
  0
VERTEX
  5
1B5
  8
0
 10
97.76749420166016
 20
-5.92194938659668
 30
54.30047607421875
 70
   192
  0
VERTEX
  5
1B6
  8
0
 10
100.2936706542969
 20
-8.963306427001953
 30
55.47845077514648
 70
   192
  0
VERTEX
  5
1B7
  8
0
 10
99.9603042602539
 20
-9.949759483337402
 30
58.53986358642578
 70
   192
  0
VERTEX
  5
1B8
  8
0
 10
104.1596908569336
 20
-10.95669269561768
 30
57.28120422363281
 70
   192
  0
VERTEX
  5
1B9
  8
0
 10
99.36563873291016
 20
-5.251742362976074
 30
51.92415618896484
 70
   192
  0
VERTEX
  5
1BA
  8
0
 10
98.41398620605469
 20
-2.717555284500122
 30
51.48039627075195
 70
   192
  0
VERTEX
  5
1BB
  8
0
 10
110.3844375610352
 20
-9.964570045471191
 30
63.40071487426758
 70
   192
  0
VERTEX
  5
1BC
  8
0
 10
108.6357727050781
 20
-10.97898387908936
 30
59.36843872070312
 70
   192
  0
VERTEX
  5
1BD
  8
0
 10
107.8718490600586
 20
-11.10840892791748
 30
62.22908020019531
 70
   192
  0
VERTEX
  5
1BE
  8
0
 10
110.0728454589844
 20
-10.14039039611816
 30
56.91701126098633
 70
   192
  0
VERTEX
  5
1BF
  8
0
 10
107.6094589233398
 20
-10.49920272827148
 30
55.76831436157227
 70
   192
  0
VERTEX
  5
1C0
  8
0
 10
112.5443344116211
 20
-8.140824317932129
 30
64.40789794921875
 70
   192
  0
VERTEX
  5
1C1
  8
0
 10
115.0713500976562
 20
-5.975407123565674
 30
62.3693962097168
 70
   192
  0
VERTEX
  5
1C2
  8
0
 10
112.512939453125
 20
-9.028215408325195
 30
61.17638778686523
 70
   192
  0
VERTEX
  5
1C3
  8
0
 10
116.7979202270508
 20
-2.715383768081665
 30
60.05296325683594
 70
   192
  0
VERTEX
  5
1C4
  8
0
 10
116.3027954101562
 20
-2.782776355743408
 30
62.94362640380859
 70
   192
  0
VERTEX
  5
1C5
  8
0
 10
114.2007293701172
 20
-5.758984565734863
 30
65.18028259277344
 70
   192
  0
VERTEX
  5
1C6
  8
0
 10
115.1904830932617
 20
-2.974095106124878
 30
65.64180755615234
 70
   192
  0
VERTEX
  5
1C7
  8
0
 10
114.3391647338867
 20
-7.417573928833008
 30
58.90642547607422
 70
   192
  0
VERTEX
  5
1C8
  8
0
 10
115.8484725952148
 20
-5.24566650390625
 30
59.61022567749023
 70
   192
  0
VERTEX
  5
1C9
  8
0
 10
105.1777725219727
 20
-11.5
 30
60.97280883789062
 70
   192
  0
VERTEX
  5
1CA
  8
0
 10
102.8479614257812
 20
-9.09314250946045
 30
53.54798889160156
 70
   192
  0
VERTEX
  5
1CB
  8
0
 10
102.474365234375
 20
-11.10402393341064
 30
59.71218872070312
 70
   192
  0
VERTEX
  5
1CC
  8
0
 10
97.80403900146484
 20
-8.121245384216309
 30
57.53438186645508
 70
   192
  0
VERTEX
  5
1CD
  8
0
 10
95.17684173583984
 20
-2.963176012039185
 30
56.30929946899414
 70
   192
  0
VERTEX
  5
1CE
  8
0
 10
100.8772964477539
 20
-7.424418926239014
 30
52.62905502319336
 70
   192
  0
VERTEX
  5
1CF
  8
0
 10
105.1416473388672
 20
-10.14219760894775
 30
54.6175537109375
 70
   192
  0
VERTEX
  5
1D0
  8
0
 10
112.3663864135742
 20
-9.09143352508545
 30
57.98650741577148
 70
   192
  0
VERTEX
  5
1D1
  8
0
 10
97.27034759521484
 20
-10.93877696990967
 30
69.53902435302734
 70
   192
  0
VERTEX
  5
1D2
  8
0
 10
94.36174774169922
 20
-9.309969902038574
 30
68.18272399902344
 70
   192
  0
VERTEX
  5
1D3
  8
0
 10
90.60846710205078
 20
-3.557211399078369
 30
66.43254089355469
 70
   192
  0
VERTEX
  5
1D4
  8
0
 10
92.05240631103516
 20
-6.766062259674072
 30
67.1058578491211
 70
   192
  0
VERTEX
  5
1D5
  8
0
 10
100.4844055175781
 20
-11.5
 30
71.03776550292969
 70
   192
  0
VERTEX
  5
1D6
  8
0
 10
103.7132873535156
 20
-10.93112754821777
 30
72.54341888427734
 70
   192
  0
VERTEX
  5
1D7
  8
0
 10
106.6132431030273
 20
-9.29595947265625
 30
73.89569091796875
 70
   192
  0
VERTEX
  5
1D8
  8
0
 10
108.9218978881836
 20
-6.752465724945068
 30
74.97222900390625
 70
   192
  0
VERTEX
  5
1D9
  8
0
 10
110.3395156860352
 20
-3.53810453414917
 30
75.6332778930664
 70
   192
  0
VERTEX
  5
1DA
  8
0
 10
101.1789627075195
 20
-10.19749164581299
 30
64.74137115478516
 70
   192
  0
VERTEX
  5
1DB
  8
0
 10
103.0201110839844
 20
-10.39999961853027
 30
65.59991455078125
 70
   192
  0
VERTEX
  5
1DC
  8
0
 10
104.4398574829102
 20
-10.37373828887939
 30
59.58651733398438
 70
   192
  0
VERTEX
  5
1DD
  8
0
 10
100.1934432983398
 20
-8.604009628295898
 30
57.60638427734375
 70
   192
  0
VERTEX
  5
1DE
  8
0
 10
99.41114807128906
 20
-9.600728034973145
 30
63.91703033447266
 70
   192
  0
VERTEX
  5
1DF
  8
0
 10
102.220458984375
 20
-9.773069381713867
 30
58.55159759521484
 70
   192
  0
VERTEX
  5
1E0
  8
0
 10
98.48467254638672
 20
-6.933620452880859
 30
56.8095703125
 70
   192
  0
VERTEX
  5
1E1
  8
0
 10
96.3572769165039
 20
-7.344766139984131
 30
62.49298477172852
 70
   192
  0
VERTEX
  5
1E2
  8
0
 10
97.78385925292969
 20
-8.637319564819336
 30
63.15821075439453
 70
   192
  0
VERTEX
  5
1E3
  8
0
 10
95.18606567382812
 20
-5.770514965057373
 30
61.94683837890625
 70
   192
  0
VERTEX
  5
1E4
  8
0
 10
97.1878890991211
 20
-4.860597610473633
 30
56.20486831665039
 70
   192
  0
VERTEX
  5
1E5
  8
0
 10
93.77931213378906
 20
-2.025436162948608
 30
61.29085922241211
 70
   192
  0
VERTEX
  5
1E6
  8
0
 10
94.3160171508789
 20
-3.974230289459229
 30
61.54113006591797
 70
   192
  0
VERTEX
  5
1E7
  8
0
 10
96.37709045410156
 20
-2.50451135635376
 30
55.82678604125977
 70
   192
  0
VERTEX
  5
1E8
  8
0
 10
93.59451293945312
 20
0.0000000000000006
 30
61.20468521118164
 70
   192
  0
VERTEX
  5
1E9
  8
0
 10
95.91609954833984
 20
-0.0000000000000003
 30
56.93587875366211
 70
   192
  0
VERTEX
  5
1EA
  8
0
 10
106.7241363525391
 20
-10.37166213989258
 30
60.65169525146484
 70
   192
  0
VERTEX
  5
1EB
  8
0
 10
108.9391784667969
 20
-9.763114929199219
 30
61.68458557128906
 70
   192
  0
VERTEX
  5
1EC
  8
0
 10
104.858528137207
 20
-10.19908714294434
 30
66.45718383789062
 70
   192
  0
VERTEX
  5
1ED
  8
0
 10
106.6283645629883
 20
-9.610529899597168
 30
67.282470703125
 70
   192
  0
VERTEX
  5
1EE
  8
0
 10
110.9577560424805
 20
-8.5889892578125
 30
62.62586212158203
 70
   192
  0
VERTEX
  5
1EF
  8
0
 10
108.2606964111328
 20
-8.650556564331055
 30
68.04364013671875
 70
   192
  0
VERTEX
  5
1F0
  8
0
 10
109.6903610229492
 20
-7.355717658996582
 30
68.7103042602539
 70
   192
  0
VERTEX
  5
1F1
  8
0
 10
112.6661605834961
 20
-6.917126178741455
 30
63.42250442504883
 70
   192
  0
VERTEX
  5
1F2
  8
0
 10
110.8625717163086
 20
-5.778250217437744
 30
69.25691986083984
 70
   192
  0
VERTEX
  5
1F3
  8
0
 10
111.7336654663086
 20
-3.979867696762085
 30
69.6631088256836
 70
   192
  0
VERTEX
  5
1F4
  8
0
 10
113.9610290527344
 20
-4.845419406890869
 30
64.02631378173828
 70
   192
  0
VERTEX
  5
1F5
  8
0
 10
112.2700271606445
 20
-2.028696775436401
 30
69.91322326660156
 70
   192
  0
VERTEX
  5
1F6
  8
0
 10
114.7691192626953
 20
-2.493892908096313
 30
64.40312957763672
 70
   192
  0
VERTEX
  5
1F7
  8
0
 10
114.223518371582
 20
-0.0000000000000015
 30
65.47277069091797
 70
   192
  0
VERTEX
  5
1F8
  8
0
 10
112.4457168579102
 20
-0.0000000000000012
 30
69.99514770507812
 70
   192
  0
VERTEX
  5
1F9
  8
0
 10
96.3847885131836
 20
2.493892908096313
 30
55.83037948608398
 70
   192
  0
VERTEX
  5
1FA
  8
0
 10
93.77020263671875
 20
2.028696775436401
 30
61.2866096496582
 70
   192
  0
VERTEX
  5
1FB
  8
0
 10
99.411865234375
 20
9.610529899597168
 30
63.91736221313477
 70
   192
  0
VERTEX
  5
1FC
  8
0
 10
97.77953338623047
 20
8.650556564331055
 30
63.15619277954102
 70
   192
  0
VERTEX
  5
1FD
  8
0
 10
100.1961517333984
 20
8.5889892578125
 30
57.60764312744141
 70
   192
  0
VERTEX
  5
1FE
  8
0
 10
95.17765045166016
 20
5.778250217437744
 30
61.94291687011719
 70
   192
  0
VERTEX
  5
1FF
  8
0
 10
97.19287872314453
 20
4.845419406890869
 30
56.20719528198242
 70
   192
  0
VERTEX
  5
200
  8
0
 10
98.48774719238281
 20
6.917126178741455
 30
56.81100082397461
 70
   192
  0
VERTEX
  5
201
  8
0
 10
106.7140502929688
 20
10.37373828887939
 30
60.64699172973633
 70
   192
  0
VERTEX
  5
202
  8
0
 10
108.9334487915039
 20
9.773069381713867
 30
61.68191146850586
 70
   192
  0
VERTEX
  5
203
  8
0
 10
104.8612670898438
 20
10.19749164581299
 30
66.45845794677734
 70
   192
  0
VERTEX
  5
204
  8
0
 10
104.4297714233398
 20
10.37166213989258
 30
59.58181381225586
 70
   192
  0
VERTEX
  5
205
  8
0
 10
103.0201110839844
 20
10.39999961853027
 30
65.59991455078125
 70
   192
  0
VERTEX
  5
206
  8
0
 10
101.1816940307617
 20
10.19908714294434
 30
64.74264526367188
 70
   192
  0
VERTEX
  5
207
  8
0
 10
112.6692352294922
 20
6.933620452880859
 30
63.4239387512207
 70
   192
  0
VERTEX
  5
208
  8
0
 10
110.8541641235352
 20
5.770514965057373
 30
69.25299072265625
 70
   192
  0
VERTEX
  5
209
  8
0
 10
109.6829528808594
 20
7.344766139984131
 30
68.70684814453125
 70
   192
  0
VERTEX
  5
20A
  8
0
 10
108.2563629150391
 20
8.637319564819336
 30
68.04161834716797
 70
   192
  0
VERTEX
  5
20B
  8
0
 10
106.6290817260742
 20
9.600728034973145
 30
67.28280639648438
 70
   192
  0
VERTEX
  5
20C
  8
0
 10
110.9604644775391
 20
8.604009628295898
 30
62.62712478637695
 70
   192
  0
VERTEX
  5
20D
  8
0
 10
113.9660186767578
 20
4.860597610473633
 30
64.02864074707031
 70
   192
  0
VERTEX
  5
20E
  8
0
 10
111.7242126464844
 20
3.974230289459229
 30
69.65870666503906
 70
   192
  0
VERTEX
  5
20F
  8
0
 10
112.2609176635742
 20
2.025436162948608
 30
69.90897369384766
 70
   192
  0
VERTEX
  5
210
  8
0
 10
114.7768173217773
 20
2.50451135635376
 30
64.40672302246094
 70
   192
  0
VERTEX
  5
211
  8
0
 10
96.34986877441406
 20
7.355717658996582
 30
62.48952865600586
 70
   192
  0
VERTEX
  5
212
  8
0
 10
102.214729309082
 20
9.763114929199219
 30
58.54892349243164
 70
   192
  0
VERTEX
  5
213
  8
0
 10
94.30656433105469
 20
3.979867696762085
 30
61.53672027587891
 70
   192
  0
VERTEX
  5
214
  8
0
 62
     9
 10
0.0
 20
0.0
 30
0.0
 70
   128
 71
     3
 72
     2
 73
     1
  0
VERTEX
  5
215
  8
0
 62
     9
 10
0.0
 20
0.0
 30
0.0
 70
   128
 71
     4
 72
     2
 73
     3
  0
VERTEX
  5
216
  8
0
 62
     9
 10
0.0
 20
0.0
 30
0.0
 70
   128
 71
     3
 72
     5
 73
     4
  0
VERTEX
  5
217
  8
0
 62
     9
 10
0.0
 20
0.0
 30
0.0
 70
   128
 71
     8
 72
     7
 73
     6
  0
VERTEX
  5
218
  8
0
 62
     9
 10
0.0
 20
0.0
 30
0.0
 70
   128
 71
    10
 72
     5
 73
     9
  0
VERTEX
  5
219
  8
0
 62
     9
 10
0.0
 20
0.0
 30
0.0
 70
   128
 71
    10
 72
     9
 73
     6
  0
VERTEX
  5
21A
  8
0
 62
     9
 10
0.0
 20
0.0
 30
0.0
 70
   128
 71
     8
 72
     6
 73
     9
  0
VERTEX
  5
21B
  8
0
 62
     9
 10
0.0
 20
0.0
 30
0.0
 70
   128
 71
    13
 72
    12
 73
    11
  0
VERTEX
  5
21C
  8
0
 62
     9
 10
0.0
 20
0.0
 30
0.0
 70
   128
 71
    13
 72
     7
 73
     8
  0
VERTEX
  5
21D
  8
0
 62
     9
 10
0.0
 20
0.0
 30
0.0
 70
   128
 71
     7
 72
    13
 73
    11
  0
VERTEX
  5
21E
  8
0
 62
     9
 10
0.0
 20
0.0
 30
0.0
 70
   128
 71
     5
 72
    10
 73
     4
  0
VERTEX
  5
21F
  8
0
 62
     9
 10
0.0
 20
0.0
 30
0.0
 70
   128
 71
    15
 72
    14
 73
    12
  0
VERTEX
  5
220
  8
0
 62
     9
 10
0.0
 20
0.0
 30
0.0
 70
   128
 71
    11
 72
    12
 73
    14
  0
VERTEX
  5
221
  8
0
 62
     9
 10
0.0
 20
0.0
 30
0.0
 70
   128
 71
     1
 72
     2
 73
    16
  0
VERTEX
  5
222
  8
0
 62
     9
 10
0.0
 20
0.0
 30
0.0
 70
   128
 71
    18
 72
    17
 73
    16
  0
VERTEX
  5
223
  8
0
 62
     9
 10
0.0
 20
0.0
 30
0.0
 70
   128
 71
     1
 72
    16
 73
    17
  0
VERTEX
  5
224
  8
0
 62
     9
 10
0.0
 20
0.0
 30
0.0
 70
   128
 71
    18
 72
    20
 73
    19
  0
VERTEX
  5
225
  8
0
 62
     9
 10
0.0
 20
0.0
 30
0.0
 70
   128
 71
    19
 72
    17
 73
    18
  0
VERTEX
  5
226
  8
0
 62
     9
 10
0.0
 20
0.0
 30
0.0
 70
   128
 71
    22
 72
    20
 73
    21
  0
VERTEX
  5
227
  8
0
 62
     9
 10
0.0
 20
0.0
 30
0.0
 70
   128
 71
    20
 72
    22
 73
    19
  0
VERTEX
  5
228
  8
0
 62
     9
 10
0.0
 20
0.0
 30
0.0
 70
   128
 71
    24
 72
    23
 73
    21
  0
VERTEX
  5
229
  8
0
 62
     9
 10
0.0
 20
0.0
 30
0.0
 70
   128
 71
    22
 72
    21
 73
    23
  0
VERTEX
  5
22A
  8
0
 62
     9
 10
0.0
 20
0.0
 30
0.0
 70
   128
 71
    24
 72
    26
 73
    25
  0
VERTEX
  5
22B
  8
0
 62
     9
 10
0.0
 20
0.0
 30
0.0
 70
   128
 71
    25
 72
    23
 73
    24
  0
VERTEX
  5
22C
  8
0
 62
     9
 10
0.0
 20
0.0
 30
0.0
 70
   128
 71
    28
 72
    27
 73
    15
  0
VERTEX
  5
22D
  8
0
 62
     9
 10
0.0
 20
0.0
 30
0.0
 70
   128
 71
    31
 72
    30
 73
    29
  0
VERTEX
  5
22E
  8
0
 62
     9
 10
0.0
 20
0.0
 30
0.0
 70
   128
 71
    34
 72
    33
 73
    32
  0
VERTEX
  5
22F
  8
0
 62
     9
 10
0.0
 20
0.0
 30
0.0
 70
   128
 71
    37
 72
    36
 73
    35
  0
VERTEX
  5
230
  8
0
 62
     9
 10
0.0
 20
0.0
 30
0.0
 70
   128
 71
    40
 72
    39
 73
    38
  0
VERTEX
  5
231
  8
0
 62
     9
 10
0.0
 20
0.0
 30
0.0
 70
   128
 71
    43
 72
    42
 73
    41
  0
VERTEX
  5
232
  8
0
 62
     9
 10
0.0
 20
0.0
 30
0.0
 70
   128
 71
    41
 72
    36
 73
    44
  0
VERTEX
  5
233
  8
0
 62
     9
 10
0.0
 20
0.0
 30
0.0
 70
   128
 71
    42
 72
    46
 73
    45
  0
VERTEX
  5
234
  8
0
 62
     9
 10
0.0
 20
0.0
 30
0.0
 70
   128
 71
    46
 72
    42
 73
    43
  0
VERTEX
  5
235
  8
0
 62
     9
 10
0.0
 20
0.0
 30
0.0
 70
   128
 71
    26
 72
    45
 73
    47
  0
VERTEX
  5
236
  8
0
 62
     9
 10
0.0
 20
0.0
 30
0.0
 70
   128
 71
    46
 72
    47
 73
    45
  0
VERTEX
  5
237
  8
0
 62
     9
 10
0.0
 20
0.0
 30
0.0
 70
   128
 71
    26
 72
    47
 73
    25
  0
VERTEX
  5
238
  8
0
 62
     9
 10
0.0
 20
0.0
 30
0.0
 70
   128
 71
    43
 72
    41
 73
    44
  0
VERTEX
  5
239
  8
0
 62
     9
 10
0.0
 20
0.0
 30
0.0
 70
   128
 71
    35
 72
    39
 73
    40
  0
VERTEX
  5
23A
  8
0
 62
     9
 10
0.0
 20
0.0
 30
0.0
 70
   128
 71
    36
 72
    37
 73
    44
  0
VERTEX
  5
23B
  8
0
 62
     9
 10
0.0
 20
0.0
 30
0.0
 70
   128
 71
    35
 72
    40
 73
    37
  0
VERTEX
  5
23C
  8
0
 62
     9
 10
0.0
 20
0.0
 30
0.0
 70
   128
 71
    31
 72
    48
 73
    30
  0
VERTEX
  5
23D
  8
0
 62
     9
 10
0.0
 20
0.0
 30
0.0
 70
   128
 71
    39
 72
    29
 73
    38
  0
VERTEX
  5
23E
  8
0
 62
     9
 10
0.0
 20
0.0
 30
0.0
 70
   128
 71
    30
 72
    38
 73
    29
  0
VERTEX
  5
23F
  8
0
 62
     9
 10
0.0
 20
0.0
 30
0.0
 70
   128
 71
    32
 72
    48
 73
    31
  0
VERTEX
  5
240
  8
0
 62
     9
 10
0.0
 20
0.0
 30
0.0
 70
   128
 71
    32
 72
    33
 73
    48
  0
VERTEX
  5
241
  8
0
 62
     9
 10
0.0
 20
0.0
 30
0.0
 70
   128
 71
    14
 72
    15
 73
    27
  0
VERTEX
  5
242
  8
0
 62
     9
 10
0.0
 20
0.0
 30
0.0
 70
   128
 71
    34
 72
    27
 73
    28
  0
VERTEX
  5
243
  8
0
 62
     9
 10
0.0
 20
0.0
 30
0.0
 70
   128
 71
    34
 72
    28
 73
    33
  0
VERTEX
  5
244
  8
0
 62
     9
 10
0.0
 20
0.0
 30
0.0
 70
   128
 71
    51
 72
    50
 73
    49
  0
VERTEX
  5
245
  8
0
 62
     9
 10
0.0
 20
0.0
 30
0.0
 70
   128
 71
    53
 72
    51
 73
    52
  0
VERTEX
  5
246
  8
0
 62
     9
 10
0.0
 20
0.0
 30
0.0
 70
   128
 71
    49
 72
    52
 73
    51
  0
VERTEX
  5
247
  8
0
 62
     9
 10
0.0
 20
0.0
 30
0.0
 70
   128
 71
    55
 72
    54
 73
    53
  0
VERTEX
  5
248
  8
0
 62
     9
 10
0.0
 20
0.0
 30
0.0
 70
   128
 71
    53
 72
    52
 73
    55
  0
VERTEX
  5
249
  8
0
 62
     9
 10
0.0
 20
0.0
 30
0.0
 70
   128
 71
    54
 72
    57
 73
    56
  0
VERTEX
  5
24A
  8
0
 62
     9
 10
0.0
 20
0.0
 30
0.0
 70
   128
 71
    57
 72
    54
 73
    55
  0
VERTEX
  5
24B
  8
0
 62
     9
 10
0.0
 20
0.0
 30
0.0
 70
   128
 71
    59
 72
    56
 73
    58
  0
VERTEX
  5
24C
  8
0
 62
     9
 10
0.0
 20
0.0
 30
0.0
 70
   128
 71
    57
 72
    58
 73
    56
  0
VERTEX
  5
24D
  8
0
 62
     9
 10
0.0
 20
0.0
 30
0.0
 70
   128
 71
    61
 72
    60
 73
    59
  0
VERTEX
  5
24E
  8
0
 62
     9
 10
0.0
 20
0.0
 30
0.0
 70
   128
 71
    59
 72
    58
 73
    61
  0
VERTEX
  5
24F
  8
0
 62
     9
 10
0.0
 20
0.0
 30
0.0
 70
   128
 71
    62
 72
    60
 73
    61
  0
VERTEX
  5
250
  8
0
 62
     9
 10
0.0
 20
0.0
 30
0.0
 70
   128
 71
    63
 72
    50
 73
    51
  0
VERTEX
  5
251
  8
0
 62
     9
 10
0.0
 20
0.0
 30
0.0
 70
   128
 71
    63
 72
    65
 73
    64
  0
VERTEX
  5
252
  8
0
 62
     9
 10
0.0
 20
0.0
 30
0.0
 70
   128
 71
    64
 72
    50
 73
    63
  0
VERTEX
  5
253
  8
0
 62
     9
 10
0.0
 20
0.0
 30
0.0
 70
   128
 71
    67
 72
    65
 73
    66
  0
VERTEX
  5
254
  8
0
 62
     9
 10
0.0
 20
0.0
 30
0.0
 70
   128
 71
    65
 72
    67
 73
    64
  0
VERTEX
  5
255
  8
0
 62
     9
 10
0.0
 20
0.0
 30
0.0
 70
   128
 71
    69
 72
    68
 73
    66
  0
VERTEX
  5
256
  8
0
 62
     9
 10
0.0
 20
0.0
 30
0.0
 70
   128
 71
    67
 72
    66
 73
    68
  0
VERTEX
  5
257
  8
0
 62
     9
 10
0.0
 20
0.0
 30
0.0
 70
   128
 71
    69
 72
    71
 73
    70
  0
VERTEX
  5
258
  8
0
 62
     9
 10
0.0
 20
0.0
 30
0.0
 70
   128
 71
    70
 72
    68
 73
    69
  0
VERTEX
  5
259
  8
0
 62
     9
 10
0.0
 20
0.0
 30
0.0
 70
   128
 71
    71
 72
    72
 73
    70
  0
VERTEX
  5
25A
  8
0
 62
     9
 10
0.0
 20
0.0
 30
0.0
 70
   128
 71
    75
 72
    74
 73
    73
  0
VERTEX
  5
25B
  8
0
 62
     9
 10
0.0
 20
0.0
 30
0.0
 70
   128
 71
    57
 72
    55
 73
    76
  0
VERTEX
  5
25C
  8
0
 62
     9
 10
0.0
 20
0.0
 30
0.0
 70
   128
 71
    49
 72
    77
 73
    52
  0
VERTEX
  5
25D
  8
0
 62
     9
 10
0.0
 20
0.0
 30
0.0
 70
   128
 71
    80
 72
    79
 73
    78
  0
VERTEX
  5
25E
  8
0
 62
     9
 10
0.0
 20
0.0
 30
0.0
 70
   128
 71
    55
 72
    77
 73
    76
  0
VERTEX
  5
25F
  8
0
 62
     9
 10
0.0
 20
0.0
 30
0.0
 70
   128
 71
    57
 72
    78
 73
    58
  0
VERTEX
  5
260
  8
0
 62
     9
 10
0.0
 20
0.0
 30
0.0
 70
   128
 71
    52
 72
    77
 73
    55
  0
VERTEX
  5
261
  8
0
 62
     9
 10
0.0
 20
0.0
 30
0.0
 70
   128
 71
    83
 72
    82
 73
    81
  0
VERTEX
  5
262
  8
0
 62
     9
 10
0.0
 20
0.0
 30
0.0
 70
   128
 71
    58
 72
    78
 73
    82
  0
VERTEX
  5
263
  8
0
 62
     9
 10
0.0
 20
0.0
 30
0.0
 70
   128
 71
    57
 72
    76
 73
    78
  0
VERTEX
  5
264
  8
0
 62
     9
 10
0.0
 20
0.0
 30
0.0
 70
   128
 71
    82
 72
    62
 73
    61
  0
VERTEX
  5
265
  8
0
 62
     9
 10
0.0
 20
0.0
 30
0.0
 70
   128
 71
    82
 72
    61
 73
    58
  0
VERTEX
  5
266
  8
0
 62
     9
 10
0.0
 20
0.0
 30
0.0
 70
   128
 71
    83
 72
    81
 73
    84
  0
VERTEX
  5
267
  8
0
 62
     9
 10
0.0
 20
0.0
 30
0.0
 70
   128
 71
    49
 72
    85
 73
    77
  0
VERTEX
  5
268
  8
0
 62
     9
 10
0.0
 20
0.0
 30
0.0
 70
   128
 71
    85
 72
    50
 73
    64
  0
VERTEX
  5
269
  8
0
 62
     9
 10
0.0
 20
0.0
 30
0.0
 70
   128
 71
    87
 72
    77
 73
    86
  0
VERTEX
  5
26A
  8
0
 62
     9
 10
0.0
 20
0.0
 30
0.0
 70
   128
 71
    88
 72
    85
 73
    64
  0
VERTEX
  5
26B
  8
0
 62
     9
 10
0.0
 20
0.0
 30
0.0
 70
   128
 71
    88
 72
    89
 73
    85
  0
VERTEX
  5
26C
  8
0
 62
     9
 10
0.0
 20
0.0
 30
0.0
 70
   128
 71
    67
 72
    90
 73
    88
  0
VERTEX
  5
26D
  8
0
 62
     9
 10
0.0
 20
0.0
 30
0.0
 70
   128
 71
    88
 72
    64
 73
    67
  0
VERTEX
  5
26E
  8
0
 62
     9
 10
0.0
 20
0.0
 30
0.0
 70
   128
 71
    73
 72
    90
 73
    68
  0
VERTEX
  5
26F
  8
0
 62
     9
 10
0.0
 20
0.0
 30
0.0
 70
   128
 71
    89
 72
    88
 73
    91
  0
VERTEX
  5
270
  8
0
 62
     9
 10
0.0
 20
0.0
 30
0.0
 70
   128
 71
    70
 72
    73
 73
    68
  0
VERTEX
  5
271
  8
0
 62
     9
 10
0.0
 20
0.0
 30
0.0
 70
   128
 71
    90
 72
    73
 73
    92
  0
VERTEX
  5
272
  8
0
 62
     9
 10
0.0
 20
0.0
 30
0.0
 70
   128
 71
    75
 72
    73
 73
    93
  0
VERTEX
  5
273
  8
0
 62
     9
 10
0.0
 20
0.0
 30
0.0
 70
   128
 71
    72
 72
    93
 73
    70
  0
VERTEX
  5
274
  8
0
 62
     9
 10
0.0
 20
0.0
 30
0.0
 70
   128
 71
    74
 72
    92
 73
    73
  0
VERTEX
  5
275
  8
0
 62
     9
 10
0.0
 20
0.0
 30
0.0
 70
   128
 71
    93
 72
    73
 73
    70
  0
VERTEX
  5
276
  8
0
 62
     9
 10
0.0
 20
0.0
 30
0.0
 70
   128
 71
    90
 72
    92
 73
    91
  0
VERTEX
  5
277
  8
0
 62
     9
 10
0.0
 20
0.0
 30
0.0
 70
   128
 71
    68
 72
    90
 73
    67
  0
VERTEX
  5
278
  8
0
 62
     9
 10
0.0
 20
0.0
 30
0.0
 70
   128
 71
    88
 72
    90
 73
    91
  0
VERTEX
  5
279
  8
0
 62
     9
 10
0.0
 20
0.0
 30
0.0
 70
   128
 71
    94
 72
    85
 73
    89
  0
VERTEX
  5
27A
  8
0
 62
     9
 10
0.0
 20
0.0
 30
0.0
 70
   128
 71
    85
 72
    94
 73
    86
  0
VERTEX
  5
27B
  8
0
 62
     9
 10
0.0
 20
0.0
 30
0.0
 70
   128
 71
    50
 72
    85
 73
    49
  0
VERTEX
  5
27C
  8
0
 62
     9
 10
0.0
 20
0.0
 30
0.0
 70
   128
 71
    77
 72
    85
 73
    86
  0
VERTEX
  5
27D
  8
0
 62
     9
 10
0.0
 20
0.0
 30
0.0
 70
   128
 71
    87
 72
    95
 73
    77
  0
VERTEX
  5
27E
  8
0
 62
     9
 10
0.0
 20
0.0
 30
0.0
 70
   128
 71
    95
 72
    76
 73
    77
  0
VERTEX
  5
27F
  8
0
 62
     9
 10
0.0
 20
0.0
 30
0.0
 70
   128
 71
    76
 72
    95
 73
    80
  0
VERTEX
  5
280
  8
0
 62
     9
 10
0.0
 20
0.0
 30
0.0
 70
   128
 71
    78
 72
    76
 73
    80
  0
VERTEX
  5
281
  8
0
 62
     9
 10
0.0
 20
0.0
 30
0.0
 70
   128
 71
    81
 72
    82
 73
    79
  0
VERTEX
  5
282
  8
0
 62
     9
 10
0.0
 20
0.0
 30
0.0
 70
   128
 71
    78
 72
    79
 73
    82
  0
VERTEX
  5
283
  8
0
 62
     9
 10
0.0
 20
0.0
 30
0.0
 70
   128
 71
    82
 72
    83
 73
    62
  0
VERTEX
  5
284
  8
0
 62
     9
 10
0.0
 20
0.0
 30
0.0
 70
   128
 71
    98
 72
    97
 73
    96
  0
VERTEX
  5
285
  8
0
 62
     9
 10
0.0
 20
0.0
 30
0.0
 70
   128
 71
   101
 72
   100
 73
    99
  0
VERTEX
  5
286
  8
0
 62
     9
 10
0.0
 20
0.0
 30
0.0
 70
   128
 71
   102
 72
    98
 73
    96
  0
VERTEX
  5
287
  8
0
 62
     9
 10
0.0
 20
0.0
 30
0.0
 70
   128
 71
   103
 72
    96
 73
    84
  0
VERTEX
  5
288
  8
0
 62
     9
 10
0.0
 20
0.0
 30
0.0
 70
   128
 71
   106
 72
   105
 73
   104
  0
VERTEX
  5
289
  8
0
 62
     9
 10
0.0
 20
0.0
 30
0.0
 70
   128
 71
   108
 72
   107
 73
   105
  0
VERTEX
  5
28A
  8
0
 62
     9
 10
0.0
 20
0.0
 30
0.0
 70
   128
 71
   111
 72
   110
 73
   109
  0
VERTEX
  5
28B
  8
0
 62
     9
 10
0.0
 20
0.0
 30
0.0
 70
   128
 71
   111
 72
   104
 73
   105
  0
VERTEX
  5
28C
  8
0
 62
     9
 10
0.0
 20
0.0
 30
0.0
 70
   128
 71
    93
 72
   113
 73
   112
  0
VERTEX
  5
28D
  8
0
 62
     9
 10
0.0
 20
0.0
 30
0.0
 70
   128
 71
   113
 72
   114
 73
   110
  0
VERTEX
  5
28E
  8
0
 62
     9
 10
0.0
 20
0.0
 30
0.0
 70
   128
 71
   113
 72
   115
 73
   114
  0
VERTEX
  5
28F
  8
0
 62
     9
 10
0.0
 20
0.0
 30
0.0
 70
   128
 71
    72
 72
   115
 73
   113
  0
VERTEX
  5
290
  8
0
 62
     9
 10
0.0
 20
0.0
 30
0.0
 70
   128
 71
   109
 72
   110
 73
   114
  0
VERTEX
  5
291
  8
0
 62
     9
 10
0.0
 20
0.0
 30
0.0
 70
   128
 71
   112
 72
    75
 73
    93
  0
VERTEX
  5
292
  8
0
 62
     9
 10
0.0
 20
0.0
 30
0.0
 70
   128
 71
   117
 72
   110
 73
   116
  0
VERTEX
  5
293
  8
0
 62
     9
 10
0.0
 20
0.0
 30
0.0
 70
   128
 71
   104
 72
   111
 73
   109
  0
VERTEX
  5
294
  8
0
 62
     9
 10
0.0
 20
0.0
 30
0.0
 70
   128
 71
   118
 72
   101
 73
   105
  0
VERTEX
  5
295
  8
0
 62
     9
 10
0.0
 20
0.0
 30
0.0
 70
   128
 71
   118
 72
   105
 73
   106
  0
VERTEX
  5
296
  8
0
 62
     9
 10
0.0
 20
0.0
 30
0.0
 70
   128
 71
   101
 72
    99
 73
   119
  0
VERTEX
  5
297
  8
0
 62
     9
 10
0.0
 20
0.0
 30
0.0
 70
   128
 71
   120
 72
   100
 73
   101
  0
VERTEX
  5
298
  8
0
 62
     9
 10
0.0
 20
0.0
 30
0.0
 70
   128
 71
    99
 72
   121
 73
    98
  0
VERTEX
  5
299
  8
0
 62
     9
 10
0.0
 20
0.0
 30
0.0
 70
   128
 71
   121
 72
    99
 73
   100
  0
VERTEX
  5
29A
  8
0
 62
     9
 10
0.0
 20
0.0
 30
0.0
 70
   128
 71
    96
 72
    97
 73
   122
  0
VERTEX
  5
29B
  8
0
 62
     9
 10
0.0
 20
0.0
 30
0.0
 70
   128
 71
   123
 72
   119
 73
    99
  0
VERTEX
  5
29C
  8
0
 62
     9
 10
0.0
 20
0.0
 30
0.0
 70
   128
 71
    83
 72
   122
 73
    62
  0
VERTEX
  5
29D
  8
0
 62
     9
 10
0.0
 20
0.0
 30
0.0
 70
   128
 71
   103
 72
   102
 73
    96
  0
VERTEX
  5
29E
  8
0
 62
     9
 10
0.0
 20
0.0
 30
0.0
 70
   128
 71
    83
 72
    96
 73
   122
  0
VERTEX
  5
29F
  8
0
 62
     9
 10
0.0
 20
0.0
 30
0.0
 70
   128
 71
    96
 72
    83
 73
    84
  0
VERTEX
  5
2A0
  8
0
 62
     9
 10
0.0
 20
0.0
 30
0.0
 70
   128
 71
    98
 72
   102
 73
   123
  0
VERTEX
  5
2A1
  8
0
 62
     9
 10
0.0
 20
0.0
 30
0.0
 70
   128
 71
    97
 72
    98
 73
   121
  0
VERTEX
  5
2A2
  8
0
 62
     9
 10
0.0
 20
0.0
 30
0.0
 70
   128
 71
    99
 72
    98
 73
   123
  0
VERTEX
  5
2A3
  8
0
 62
     9
 10
0.0
 20
0.0
 30
0.0
 70
   128
 71
   124
 72
   101
 73
   119
  0
VERTEX
  5
2A4
  8
0
 62
     9
 10
0.0
 20
0.0
 30
0.0
 70
   128
 71
   101
 72
   124
 73
   108
  0
VERTEX
  5
2A5
  8
0
 62
     9
 10
0.0
 20
0.0
 30
0.0
 70
   128
 71
   120
 72
   101
 73
   118
  0
VERTEX
  5
2A6
  8
0
 62
     9
 10
0.0
 20
0.0
 30
0.0
 70
   128
 71
   105
 72
   101
 73
   108
  0
VERTEX
  5
2A7
  8
0
 62
     9
 10
0.0
 20
0.0
 30
0.0
 70
   128
 71
   107
 72
   125
 73
   105
  0
VERTEX
  5
2A8
  8
0
 62
     9
 10
0.0
 20
0.0
 30
0.0
 70
   128
 71
   125
 72
   111
 73
   105
  0
VERTEX
  5
2A9
  8
0
 62
     9
 10
0.0
 20
0.0
 30
0.0
 70
   128
 71
   111
 72
   125
 73
   116
  0
VERTEX
  5
2AA
  8
0
 62
     9
 10
0.0
 20
0.0
 30
0.0
 70
   128
 71
   110
 72
   111
 73
   116
  0
VERTEX
  5
2AB
  8
0
 62
     9
 10
0.0
 20
0.0
 30
0.0
 70
   128
 71
   112
 72
   113
 73
   117
  0
VERTEX
  5
2AC
  8
0
 62
     9
 10
0.0
 20
0.0
 30
0.0
 70
   128
 71
   110
 72
   117
 73
   113
  0
VERTEX
  5
2AD
  8
0
 62
     9
 10
0.0
 20
0.0
 30
0.0
 70
   128
 71
   113
 72
    93
 73
    72
  0
VERTEX
  5
2AE
  8
0
 62
     9
 10
0.0
 20
0.0
 30
0.0
 70
   128
 71
    81
 72
    79
 73
   107
  0
VERTEX
  5
2AF
  8
0
 62
     9
 10
0.0
 20
0.0
 30
0.0
 70
   128
 71
   116
 72
    95
 73
   117
  0
VERTEX
  5
2B0
  8
0
 62
     9
 10
0.0
 20
0.0
 30
0.0
 70
   128
 71
   102
 72
   119
 73
   123
  0
VERTEX
  5
2B1
  8
0
 62
     9
 10
0.0
 20
0.0
 30
0.0
 70
   128
 71
   124
 72
    84
 73
   108
  0
VERTEX
  5
2B2
  8
0
 62
     9
 10
0.0
 20
0.0
 30
0.0
 70
   128
 71
   103
 72
   119
 73
   102
  0
VERTEX
  5
2B3
  8
0
 62
     9
 10
0.0
 20
0.0
 30
0.0
 70
   128
 71
   124
 72
   103
 73
    84
  0
VERTEX
  5
2B4
  8
0
 62
     9
 10
0.0
 20
0.0
 30
0.0
 70
   128
 71
   103
 72
   124
 73
   119
  0
VERTEX
  5
2B5
  8
0
 62
     9
 10
0.0
 20
0.0
 30
0.0
 70
   128
 71
    81
 72
   107
 73
    84
  0
VERTEX
  5
2B6
  8
0
 62
     9
 10
0.0
 20
0.0
 30
0.0
 70
   128
 71
    84
 72
   107
 73
   108
  0
VERTEX
  5
2B7
  8
0
 62
     9
 10
0.0
 20
0.0
 30
0.0
 70
   128
 71
   107
 72
    79
 73
   125
  0
VERTEX
  5
2B8
  8
0
 62
     9
 10
0.0
 20
0.0
 30
0.0
 70
   128
 71
    79
 72
   116
 73
   125
  0
VERTEX
  5
2B9
  8
0
 62
     9
 10
0.0
 20
0.0
 30
0.0
 70
   128
 71
   116
 72
    80
 73
    95
  0
VERTEX
  5
2BA
  8
0
 62
     9
 10
0.0
 20
0.0
 30
0.0
 70
   128
 71
    79
 72
    80
 73
   116
  0
VERTEX
  5
2BB
  8
0
 62
     9
 10
0.0
 20
0.0
 30
0.0
 70
   128
 71
    95
 72
    87
 73
   117
  0
VERTEX
  5
2BC
  8
0
 62
     9
 10
0.0
 20
0.0
 30
0.0
 70
   128
 71
    86
 72
   112
 73
    87
  0
VERTEX
  5
2BD
  8
0
 62
     9
 10
0.0
 20
0.0
 30
0.0
 70
   128
 71
   117
 72
    87
 73
   112
  0
VERTEX
  5
2BE
  8
0
 62
     9
 10
0.0
 20
0.0
 30
0.0
 70
   128
 71
    75
 72
   112
 73
    86
  0
VERTEX
  5
2BF
  8
0
 62
     9
 10
0.0
 20
0.0
 30
0.0
 70
   128
 71
    94
 72
    89
 73
    91
  0
VERTEX
  5
2C0
  8
0
 62
     9
 10
0.0
 20
0.0
 30
0.0
 70
   128
 71
    94
 72
    74
 73
    86
  0
VERTEX
  5
2C1
  8
0
 62
     9
 10
0.0
 20
0.0
 30
0.0
 70
   128
 71
    91
 72
    92
 73
    74
  0
VERTEX
  5
2C2
  8
0
 62
     9
 10
0.0
 20
0.0
 30
0.0
 70
   128
 71
    74
 72
    94
 73
    91
  0
VERTEX
  5
2C3
  8
0
 62
     9
 10
0.0
 20
0.0
 30
0.0
 70
   128
 71
    86
 72
    74
 73
    75
  0
VERTEX
  5
2C4
  8
0
 62
     9
 10
0.0
 20
0.0
 30
0.0
 70
   128
 71
    60
 72
    62
 73
   122
  0
VERTEX
  5
2C5
  8
0
 62
     9
 10
0.0
 20
0.0
 30
0.0
 70
   128
 71
   127
 72
   100
 73
   126
  0
VERTEX
  5
2C6
  8
0
 62
     9
 10
0.0
 20
0.0
 30
0.0
 70
   128
 71
   129
 72
   128
 73
    97
  0
VERTEX
  5
2C7
  8
0
 62
     9
 10
0.0
 20
0.0
 30
0.0
 70
   128
 71
   106
 72
   131
 73
   130
  0
VERTEX
  5
2C8
  8
0
 62
     9
 10
0.0
 20
0.0
 30
0.0
 70
   128
 71
   120
 72
   130
 73
   126
  0
VERTEX
  5
2C9
  8
0
 62
     9
 10
0.0
 20
0.0
 30
0.0
 70
   128
 71
   109
 72
   133
 73
   132
  0
VERTEX
  5
2CA
  8
0
 62
     9
 10
0.0
 20
0.0
 30
0.0
 70
   128
 71
   132
 72
   131
 73
   104
  0
VERTEX
  5
2CB
  8
0
 62
     9
 10
0.0
 20
0.0
 30
0.0
 70
   128
 71
   133
 72
   114
 73
   134
  0
VERTEX
  5
2CC
  8
0
 62
     9
 10
0.0
 20
0.0
 30
0.0
 70
   128
 71
   114
 72
   133
 73
   109
  0
VERTEX
  5
2CD
  8
0
 62
     9
 10
0.0
 20
0.0
 30
0.0
 70
   128
 71
    71
 72
   134
 73
   115
  0
VERTEX
  5
2CE
  8
0
 62
     9
 10
0.0
 20
0.0
 30
0.0
 70
   128
 71
   114
 72
   115
 73
   134
  0
VERTEX
  5
2CF
  8
0
 62
     9
 10
0.0
 20
0.0
 30
0.0
 70
   128
 71
    71
 72
   115
 73
    72
  0
VERTEX
  5
2D0
  8
0
 62
     9
 10
0.0
 20
0.0
 30
0.0
 70
   128
 71
   131
 72
   106
 73
   104
  0
VERTEX
  5
2D1
  8
0
 62
     9
 10
0.0
 20
0.0
 30
0.0
 70
   128
 71
   109
 72
   132
 73
   104
  0
VERTEX
  5
2D2
  8
0
 62
     9
 10
0.0
 20
0.0
 30
0.0
 70
   128
 71
   120
 72
   118
 73
   130
  0
VERTEX
  5
2D3
  8
0
 62
     9
 10
0.0
 20
0.0
 30
0.0
 70
   128
 71
   106
 72
   130
 73
   118
  0
VERTEX
  5
2D4
  8
0
 62
     9
 10
0.0
 20
0.0
 30
0.0
 70
   128
 71
   100
 72
   127
 73
   121
  0
VERTEX
  5
2D5
  8
0
 62
     9
 10
0.0
 20
0.0
 30
0.0
 70
   128
 71
   100
 72
   120
 73
   126
  0
VERTEX
  5
2D6
  8
0
 62
     9
 10
0.0
 20
0.0
 30
0.0
 70
   128
 71
   121
 72
   129
 73
    97
  0
VERTEX
  5
2D7
  8
0
 62
     9
 10
0.0
 20
0.0
 30
0.0
 70
   128
 71
   129
 72
   121
 73
   127
  0
VERTEX
  5
2D8
  8
0
 62
     9
 10
0.0
 20
0.0
 30
0.0
 70
   128
 71
   128
 72
    60
 73
   122
  0
VERTEX
  5
2D9
  8
0
 62
     9
 10
0.0
 20
0.0
 30
0.0
 70
   128
 71
   128
 72
   122
 73
    97
  0
VERTEX
  5
2DA
  8
0
 62
     9
 10
0.0
 20
0.0
 30
0.0
 70
   128
 71
   137
 72
   136
 73
   135
  0
VERTEX
  5
2DB
  8
0
 62
     9
 10
0.0
 20
0.0
 30
0.0
 70
   128
 71
   140
 72
   139
 73
   138
  0
VERTEX
  5
2DC
  8
0
 62
     9
 10
0.0
 20
0.0
 30
0.0
 70
   128
 71
   137
 72
   135
 73
   140
  0
VERTEX
  5
2DD
  8
0
 62
     9
 10
0.0
 20
0.0
 30
0.0
 70
   128
 71
   138
 72
   142
 73
   141
  0
VERTEX
  5
2DE
  8
0
 62
     9
 10
0.0
 20
0.0
 30
0.0
 70
   128
 71
   143
 72
   138
 73
   139
  0
VERTEX
  5
2DF
  8
0
 62
     9
 10
0.0
 20
0.0
 30
0.0
 70
   128
 71
   144
 72
   141
 73
   142
  0
VERTEX
  5
2E0
  8
0
 62
     9
 10
0.0
 20
0.0
 30
0.0
 70
   128
 71
   138
 72
   143
 73
   142
  0
VERTEX
  5
2E1
  8
0
 62
     9
 10
0.0
 20
0.0
 30
0.0
 70
   128
 71
   135
 72
   139
 73
   140
  0
VERTEX
  5
2E2
  8
0
 62
     9
 10
0.0
 20
0.0
 30
0.0
 70
   128
 71
   144
 72
   145
 73
   141
  0
VERTEX
  5
2E3
  8
0
 62
     9
 10
0.0
 20
0.0
 30
0.0
 70
   128
 71
   148
 72
   147
 73
   146
  0
VERTEX
  5
2E4
  8
0
 62
     9
 10
0.0
 20
0.0
 30
0.0
 70
   128
 71
   148
 72
   145
 73
   147
  0
VERTEX
  5
2E5
  8
0
 62
     9
 10
0.0
 20
0.0
 30
0.0
 70
   128
 71
   150
 72
   146
 73
   149
  0
VERTEX
  5
2E6
  8
0
 62
     9
 10
0.0
 20
0.0
 30
0.0
 70
   128
 71
   148
 72
   146
 73
   150
  0
VERTEX
  5
2E7
  8
0
 62
     9
 10
0.0
 20
0.0
 30
0.0
 70
   128
 71
   147
 72
   145
 73
   144
  0
VERTEX
  5
2E8
  8
0
 62
     9
 10
0.0
 20
0.0
 30
0.0
 70
   128
 71
   151
 72
   136
 73
   137
  0
VERTEX
  5
2E9
  8
0
 62
     9
 10
0.0
 20
0.0
 30
0.0
 70
   128
 71
   153
 72
   151
 73
   152
  0
VERTEX
  5
2EA
  8
0
 62
     9
 10
0.0
 20
0.0
 30
0.0
 70
   128
 71
   151
 72
   153
 73
   136
  0
VERTEX
  5
2EB
  8
0
 62
     9
 10
0.0
 20
0.0
 30
0.0
 70
   128
 71
   152
 72
   155
 73
   154
  0
VERTEX
  5
2EC
  8
0
 62
     9
 10
0.0
 20
0.0
 30
0.0
 70
   128
 71
   154
 72
   153
 73
   152
  0
VERTEX
  5
2ED
  8
0
 62
     9
 10
0.0
 20
0.0
 30
0.0
 70
   128
 71
   155
 72
   157
 73
   156
  0
VERTEX
  5
2EE
  8
0
 62
     9
 10
0.0
 20
0.0
 30
0.0
 70
   128
 71
   154
 72
   155
 73
   156
  0
VERTEX
  5
2EF
  8
0
 62
     9
 10
0.0
 20
0.0
 30
0.0
 70
   128
 71
   159
 72
   157
 73
   158
  0
VERTEX
  5
2F0
  8
0
 62
     9
 10
0.0
 20
0.0
 30
0.0
 70
   128
 71
   155
 72
   158
 73
   157
  0
VERTEX
  5
2F1
  8
0
 62
     9
 10
0.0
 20
0.0
 30
0.0
 70
   128
 71
   159
 72
   161
 73
   160
  0
VERTEX
  5
2F2
  8
0
 62
     9
 10
0.0
 20
0.0
 30
0.0
 70
   128
 71
   161
 72
   159
 73
   158
  0
VERTEX
  5
2F3
  8
0
 62
     9
 10
0.0
 20
0.0
 30
0.0
 70
   128
 71
   163
 72
   162
 73
   160
  0
VERTEX
  5
2F4
  8
0
 62
     9
 10
0.0
 20
0.0
 30
0.0
 70
   128
 71
   160
 72
   161
 73
   163
  0
VERTEX
  5
2F5
  8
0
 62
     9
 10
0.0
 20
0.0
 30
0.0
 70
   128
 71
   165
 72
   162
 73
   164
  0
VERTEX
  5
2F6
  8
0
 62
     9
 10
0.0
 20
0.0
 30
0.0
 70
   128
 71
   163
 72
   164
 73
   162
  0
VERTEX
  5
2F7
  8
0
 62
     9
 10
0.0
 20
0.0
 30
0.0
 70
   128
 71
   167
 72
   166
 73
   150
  0
VERTEX
  5
2F8
  8
0
 62
     9
 10
0.0
 20
0.0
 30
0.0
 70
   128
 71
   170
 72
   169
 73
   168
  0
VERTEX
  5
2F9
  8
0
 62
     9
 10
0.0
 20
0.0
 30
0.0
 70
   128
 71
   173
 72
   172
 73
   171
  0
VERTEX
  5
2FA
  8
0
 62
     9
 10
0.0
 20
0.0
 30
0.0
 70
   128
 71
   176
 72
   175
 73
   174
  0
VERTEX
  5
2FB
  8
0
 62
     9
 10
0.0
 20
0.0
 30
0.0
 70
   128
 71
   179
 72
   178
 73
   177
  0
VERTEX
  5
2FC
  8
0
 62
     9
 10
0.0
 20
0.0
 30
0.0
 70
   128
 71
   182
 72
   181
 73
   180
  0
VERTEX
  5
2FD
  8
0
 62
     9
 10
0.0
 20
0.0
 30
0.0
 70
   128
 71
   185
 72
   184
 73
   183
  0
VERTEX
  5
2FE
  8
0
 62
     9
 10
0.0
 20
0.0
 30
0.0
 70
   128
 71
   187
 72
   186
 73
   181
  0
VERTEX
  5
2FF
  8
0
 62
     9
 10
0.0
 20
0.0
 30
0.0
 70
   128
 71
   180
 72
   181
 73
   186
  0
VERTEX
  5
300
  8
0
 62
     9
 10
0.0
 20
0.0
 30
0.0
 70
   128
 71
   189
 72
   187
 73
   188
  0
VERTEX
  5
301
  8
0
 62
     9
 10
0.0
 20
0.0
 30
0.0
 70
   128
 71
   187
 72
   189
 73
   186
  0
VERTEX
  5
302
  8
0
 62
     9
 10
0.0
 20
0.0
 30
0.0
 70
   128
 71
   188
 72
   165
 73
   164
  0
VERTEX
  5
303
  8
0
 62
     9
 10
0.0
 20
0.0
 30
0.0
 70
   128
 71
   164
 72
   189
 73
   188
  0
VERTEX
  5
304
  8
0
 62
     9
 10
0.0
 20
0.0
 30
0.0
 70
   128
 71
   180
 72
   185
 73
   182
  0
VERTEX
  5
305
  8
0
 62
     9
 10
0.0
 20
0.0
 30
0.0
 70
   128
 71
   183
 72
   182
 73
   185
  0
VERTEX
  5
306
  8
0
 62
     9
 10
0.0
 20
0.0
 30
0.0
 70
   128
 71
   185
 72
   175
 73
   184
  0
VERTEX
  5
307
  8
0
 62
     9
 10
0.0
 20
0.0
 30
0.0
 70
   128
 71
   174
 72
   178
 73
   176
  0
VERTEX
  5
308
  8
0
 62
     9
 10
0.0
 20
0.0
 30
0.0
 70
   128
 71
   176
 72
   184
 73
   175
  0
VERTEX
  5
309
  8
0
 62
     9
 10
0.0
 20
0.0
 30
0.0
 70
   128
 71
   169
 72
   170
 73
   190
  0
VERTEX
  5
30A
  8
0
 62
     9
 10
0.0
 20
0.0
 30
0.0
 70
   128
 71
   179
 72
   177
 73
   191
  0
VERTEX
  5
30B
  8
0
 62
     9
 10
0.0
 20
0.0
 30
0.0
 70
   128
 71
   178
 72
   174
 73
   177
  0
VERTEX
  5
30C
  8
0
 62
     9
 10
0.0
 20
0.0
 30
0.0
 70
   128
 71
   191
 72
   170
 73
   168
  0
VERTEX
  5
30D
  8
0
 62
     9
 10
0.0
 20
0.0
 30
0.0
 70
   128
 71
   179
 72
   191
 73
   168
  0
VERTEX
  5
30E
  8
0
 62
     9
 10
0.0
 20
0.0
 30
0.0
 70
   128
 71
   190
 72
   170
 73
   173
  0
VERTEX
  5
30F
  8
0
 62
     9
 10
0.0
 20
0.0
 30
0.0
 70
   128
 71
   167
 72
   150
 73
   149
  0
VERTEX
  5
310
  8
0
 62
     9
 10
0.0
 20
0.0
 30
0.0
 70
   128
 71
   172
 72
   192
 73
   171
  0
VERTEX
  5
311
  8
0
 62
     9
 10
0.0
 20
0.0
 30
0.0
 70
   128
 71
   173
 72
   171
 73
   190
  0
VERTEX
  5
312
  8
0
 62
     9
 10
0.0
 20
0.0
 30
0.0
 70
   128
 71
   167
 72
   192
 73
   166
  0
VERTEX
  5
313
  8
0
 62
     9
 10
0.0
 20
0.0
 30
0.0
 70
   128
 71
   166
 72
   192
 73
   172
  0
SEQEND
  5
314
  8
0
 62
     9
  0
ENDBLK
  5
317
  8
0
  0
BLOCK
  8
0
  2
40
 70
     0
 10
0.0
 20
0.0
 30
0.0
  3
40
  1

  0
POLYLINE
  5
319
  8
0
 62
     9
 66
     1
 10
0.0
 20
0.0
 30
0.0
 70
    64
 71
    24
 72
    44
  0
VERTEX
  5
31A
  8
0
 10
26.0
 20
-24.39999961853027
 30
-8.0
 70
   192
  0
VERTEX
  5
31B
  8
0
 10
25.53137016296387
 20
-25.53137016296387
 30
0.0000000000000069
 70
   192
  0
VERTEX
  5
31C
  8
0
 10
25.53137016296387
 20
-25.53137016296387
 30
-8.0
 70
   192
  0
VERTEX
  5
31D
  8
0
 10
26.0
 20
-24.39999961853027
 30
0.0000000000000069
 70
   192
  0
VERTEX
  5
31E
  8
0
 10
24.39999961853027
 20
-26.0
 30
0.0000000000000069
 70
   192
  0
VERTEX
  5
31F
  8
0
 10
24.39999961853027
 20
-26.0
 30
-8.0
 70
   192
  0
VERTEX
  5
320
  8
0
 10
26.0
 20
24.39999961853027
 30
-8.0
 70
   192
  0
VERTEX
  5
321
  8
0
 10
26.0
 20
24.39999961853027
 30
0.0000000000000062
 70
   192
  0
VERTEX
  5
322
  8
0
 10
24.39999961853027
 20
26.0
 30
-8.0
 70
   192
  0
VERTEX
  5
323
  8
0
 10
25.53137016296387
 20
25.53137016296387
 30
0.0000000000000069
 70
   192
  0
VERTEX
  5
324
  8
0
 10
25.53137016296387
 20
25.53137016296387
 30
-8.0
 70
   192
  0
VERTEX
  5
325
  8
0
 10
24.39999961853027
 20
26.0
 30
0.0000000000000069
 70
   192
  0
VERTEX
  5
326
  8
0
 10
-24.39999961853027
 20
26.0
 30
-8.0
 70
   192
  0
VERTEX
  5
327
  8
0
 10
-24.39999961853027
 20
26.0
 30
0.0000000000000062
 70
   192
  0
VERTEX
  5
328
  8
0
 10
-26.0
 20
24.39999961853027
 30
-8.0
 70
   192
  0
VERTEX
  5
329
  8
0
 10
-25.53137016296387
 20
25.53137016296387
 30
0.0000000000000069
 70
   192
  0
VERTEX
  5
32A
  8
0
 10
-25.53137016296387
 20
25.53137016296387
 30
-8.0
 70
   192
  0
VERTEX
  5
32B
  8
0
 10
-26.0
 20
24.39999961853027
 30
0.0000000000000069
 70
   192
  0
VERTEX
  5
32C
  8
0
 10
-26.0
 20
-24.39999961853027
 30
-8.0
 70
   192
  0
VERTEX
  5
32D
  8
0
 10
-26.0
 20
-24.39999961853027
 30
0.0000000000000062
 70
   192
  0
VERTEX
  5
32E
  8
0
 10
-24.39999961853027
 20
-26.0
 30
-8.0
 70
   192
  0
VERTEX
  5
32F
  8
0
 10
-25.53137016296387
 20
-25.53137016296387
 30
0.0000000000000069
 70
   192
  0
VERTEX
  5
330
  8
0
 10
-25.53137016296387
 20
-25.53137016296387
 30
-8.0
 70
   192
  0
VERTEX
  5
331
  8
0
 10
-24.39999961853027
 20
-26.0
 30
0.0000000000000069
 70
   192
  0
VERTEX
  5
332
  8
0
 62
     9
 10
0.0
 20
0.0
 30
0.0
 70
   128
 71
     3
 72
     2
 73
     1
  0
VERTEX
  5
333
  8
0
 62
     9
 10
0.0
 20
0.0
 30
0.0
 70
   128
 71
     1
 72
     2
 73
     4
  0
VERTEX
  5
334
  8
0
 62
     9
 10
0.0
 20
0.0
 30
0.0
 70
   128
 71
     2
 72
     3
 73
     5
  0
VERTEX
  5
335
  8
0
 62
     9
 10
0.0
 20
0.0
 30
0.0
 70
   128
 71
     6
 72
     5
 73
     3
  0
VERTEX
  5
336
  8
0
 62
     9
 10
0.0
 20
0.0
 30
0.0
 70
   128
 71
     4
 72
     8
 73
     7
  0
VERTEX
  5
337
  8
0
 62
     9
 10
0.0
 20
0.0
 30
0.0
 70
   128
 71
     1
 72
     4
 73
     7
  0
VERTEX
  5
338
  8
0
 62
     9
 10
0.0
 20
0.0
 30
0.0
 70
   128
 71
    11
 72
    10
 73
     9
  0
VERTEX
  5
339
  8
0
 62
     9
 10
0.0
 20
0.0
 30
0.0
 70
   128
 71
     9
 72
    10
 73
    12
  0
VERTEX
  5
33A
  8
0
 62
     9
 10
0.0
 20
0.0
 30
0.0
 70
   128
 71
    10
 72
    11
 73
     8
  0
VERTEX
  5
33B
  8
0
 62
     9
 10
0.0
 20
0.0
 30
0.0
 70
   128
 71
     7
 72
     8
 73
    11
  0
VERTEX
  5
33C
  8
0
 62
     9
 10
0.0
 20
0.0
 30
0.0
 70
   128
 71
    12
 72
    14
 73
    13
  0
VERTEX
  5
33D
  8
0
 62
     9
 10
0.0
 20
0.0
 30
0.0
 70
   128
 71
     9
 72
    12
 73
    13
  0
VERTEX
  5
33E
  8
0
 62
     9
 10
0.0
 20
0.0
 30
0.0
 70
   128
 71
    17
 72
    16
 73
    15
  0
VERTEX
  5
33F
  8
0
 62
     9
 10
0.0
 20
0.0
 30
0.0
 70
   128
 71
    15
 72
    16
 73
    18
  0
VERTEX
  5
340
  8
0
 62
     9
 10
0.0
 20
0.0
 30
0.0
 70
   128
 71
    16
 72
    17
 73
    14
  0
VERTEX
  5
341
  8
0
 62
     9
 10
0.0
 20
0.0
 30
0.0
 70
   128
 71
    13
 72
    14
 73
    17
  0
VERTEX
  5
342
  8
0
 62
     9
 10
0.0
 20
0.0
 30
0.0
 70
   128
 71
    20
 72
    19
 73
    18
  0
VERTEX
  5
343
  8
0
 62
     9
 10
0.0
 20
0.0
 30
0.0
 70
   128
 71
    15
 72
    18
 73
    19
  0
VERTEX
  5
344
  8
0
 62
     9
 10
0.0
 20
0.0
 30
0.0
 70
   128
 71
    23
 72
    22
 73
    21
  0
VERTEX
  5
345
  8
0
 62
     9
 10
0.0
 20
0.0
 30
0.0
 70
   128
 71
    21
 72
    22
 73
    24
  0
VERTEX
  5
346
  8
0
 62
     9
 10
0.0
 20
0.0
 30
0.0
 70
   128
 71
    22
 72
    23
 73
    20
  0
VERTEX
  5
347
  8
0
 62
     9
 10
0.0
 20
0.0
 30
0.0
 70
   128
 71
    19
 72
    20
 73
    23
  0
VERTEX
  5
348
  8
0
 62
     9
 10
0.0
 20
0.0
 30
0.0
 70
   128
 71
     5
 72
     6
 73
    21
  0
VERTEX
  5
349
  8
0
 62
     9
 10
0.0
 20
0.0
 30
0.0
 70
   128
 71
    24
 72
     5
 73
    21
  0
VERTEX
  5
34A
  8
0
 62
     9
 10
0.0
 20
0.0
 30
0.0
 70
   128
 71
     4
 72
     2
 73
     5
  0
VERTEX
  5
34B
  8
0
 62
     9
 10
0.0
 20
0.0
 30
0.0
 70
   128
 71
    18
 72
    16
 73
    14
  0
VERTEX
  5
34C
  8
0
 62
     9
 10
0.0
 20
0.0
 30
0.0
 70
   128
 71
     5
 72
     8
 73
     4
  0
VERTEX
  5
34D
  8
0
 62
     9
 10
0.0
 20
0.0
 30
0.0
 70
   128
 71
    12
 72
    24
 73
    20
  0
VERTEX
  5
34E
  8
0
 62
     9
 10
0.0
 20
0.0
 30
0.0
 70
   128
 71
     8
 72
    12
 73
    10
  0
VERTEX
  5
34F
  8
0
 62
     9
 10
0.0
 20
0.0
 30
0.0
 70
   128
 71
    14
 72
    20
 73
    18
  0
VERTEX
  5
350
  8
0
 62
     9
 10
0.0
 20
0.0
 30
0.0
 70
   128
 71
    12
 72
    20
 73
    14
  0
VERTEX
  5
351
  8
0
 62
     9
 10
0.0
 20
0.0
 30
0.0
 70
   128
 71
     8
 72
    24
 73
    12
  0
VERTEX
  5
352
  8
0
 62
     9
 10
0.0
 20
0.0
 30
0.0
 70
   128
 71
    20
 72
    24
 73
    22
  0
VERTEX
  5
353
  8
0
 62
     9
 10
0.0
 20
0.0
 30
0.0
 70
   128
 71
     8
 72
     5
 73
    24
  0
VERTEX
  5
354
  8
0
 62
     9
 10
0.0
 20
0.0
 30
0.0
 70
   128
 71
     7
 72
    21
 73
     1
  0
VERTEX
  5
355
  8
0
 62
     9
 10
0.0
 20
0.0
 30
0.0
 70
   128
 71
     6
 72
     3
 73
     1
  0
VERTEX
  5
356
  8
0
 62
     9
 10
0.0
 20
0.0
 30
0.0
 70
   128
 71
     1
 72
    21
 73
     6
  0
VERTEX
  5
357
  8
0
 62
     9
 10
0.0
 20
0.0
 30
0.0
 70
   128
 71
    21
 72
    19
 73
    23
  0
VERTEX
  5
358
  8
0
 62
     9
 10
0.0
 20
0.0
 30
0.0
 70
   128
 71
    21
 72
     7
 73
    19
  0
VERTEX
  5
359
  8
0
 62
     9
 10
0.0
 20
0.0
 30
0.0
 70
   128
 71
    15
 72
     9
 73
    13
  0
VERTEX
  5
35A
  8
0
 62
     9
 10
0.0
 20
0.0
 30
0.0
 70
   128
 71
    13
 72
    17
 73
    15
  0
VERTEX
  5
35B
  8
0
 62
     9
 10
0.0
 20
0.0
 30
0.0
 70
   128
 71
     9
 72
    15
 73
    19
  0
VERTEX
  5
35C
  8
0
 62
     9
 10
0.0
 20
0.0
 30
0.0
 70
   128
 71
     9
 72
     7
 73
    11
  0
VERTEX
  5
35D
  8
0
 62
     9
 10
0.0
 20
0.0
 30
0.0
 70
   128
 71
     7
 72
     9
 73
    19
  0
SEQEND
  5
35E
  8
0
 62
     9
  0
ENDBLK
  5
361
  8
0
  0
BLOCK
  8
0
  2
41
 70
     0
 10
0.0
 20
0.0
 30
0.0
  3
41
  1

  0
POLYLINE
  5
363
  8
0
 66
     1
 10
0.0
 20
0.0
 30
0.0
 70
    64
 71
   654
 72
  1308
  0
VERTEX
  5
364
  8
0
 10
-20.72441291809082
 20
1.034073114395142
 30
147.6410980224609
 70
   192
  0
VERTEX
  5
365
  8
0
 10
-21.1623649597168
 20
1.038286089897156
 30
147.6780548095703
 70
   192
  0
VERTEX
  5
366
  8
0
 10
-20.76589012145996
 20
1.968703389167786
 30
147.1670227050781
 70
   192
  0
VERTEX
  5
367
  8
0
 10
-21.17736434936523
 20
-0.0000000000000194
 30
147.8450622558594
 70
   192
  0
VERTEX
  5
368
  8
0
 10
-20.71015930175781
 20
-0.0014339126646519
 30
147.8040161132812
 70
   192
  0
VERTEX
  5
369
  8
0
 10
-21.1628246307373
 20
-1.035687208175659
 30
147.6790313720703
 70
   192
  0
VERTEX
  5
36A
  8
0
 10
-20.72445678710938
 20
-1.035879731178284
 30
147.6405944824219
 70
   192
  0
VERTEX
  5
36B
  8
0
 10
-21.09364128112793
 20
-2.708724975585938
 30
146.4534606933594
 70
   192
  0
VERTEX
  5
36C
  8
0
 10
-21.127685546875
 20
-1.968191146850586
 30
147.1989135742188
 70
   192
  0
VERTEX
  5
36D
  8
0
 10
-20.76600074768066
 20
-1.970378756523132
 30
147.1657409667969
 70
   192
  0
VERTEX
  5
36E
  8
0
 10
-20.83067321777344
 20
-2.711395978927612
 30
146.4265289306641
 70
   192
  0
VERTEX
  5
36F
  8
0
 10
-20.91201972961426
 20
-3.186365842819214
 30
145.4967498779297
 70
   192
  0
VERTEX
  5
370
  8
0
 10
-21.08796501159668
 20
-3.184412717819214
 30
145.5178527832031
 70
   192
  0
VERTEX
  5
371
  8
0
 10
-21.13003158569336
 20
-3.34957480430603
 30
144.4781188964844
 70
   192
  0
VERTEX
  5
372
  8
0
 10
-21.00211524963379
 20
-3.349999904632568
 30
144.4669342041016
 70
   192
  0
VERTEX
  5
373
  8
0
 10
-21.12660598754883
 20
1.971429228782654
 30
147.1965942382812
 70
   192
  0
VERTEX
  5
374
  8
0
 10
-20.83049774169922
 20
2.710077047348022
 30
146.4285430908203
 70
   192
  0
VERTEX
  5
375
  8
0
 10
-21.09301948547363
 20
2.710203886032104
 30
146.451416015625
 70
   192
  0
VERTEX
  5
376
  8
0
 10
-21.08743858337402
 20
3.185786485671997
 30
145.5138244628906
 70
   192
  0
VERTEX
  5
377
  8
0
 10
-20.91178703308105
 20
3.185385942459106
 30
145.4994049072266
 70
   192
  0
VERTEX
  5
378
  8
0
 10
-21.12995719909668
 20
3.349801063537598
 30
144.4781188964844
 70
   192
  0
VERTEX
  5
379
  8
0
 10
-21.00211524963379
 20
3.349584817886353
 30
144.4669342041016
 70
   192
  0
VERTEX
  5
37A
  8
0
 10
-20.99992942810059
 20
-2.198480129241943
 30
148.8106079101562
 70
   192
  0
VERTEX
  5
37B
  8
0
 10
-20.65740013122559
 20
-4.367794990539551
 30
148.8106079101562
 70
   192
  0
VERTEX
  5
37C
  8
0
 10
-20.67442321777344
 20
-3.015768766403198
 30
149.2761993408203
 70
   192
  0
VERTEX
  5
37D
  8
0
 10
-14.79653453826904
 20
-14.72371768951416
 30
149.2761993408203
 70
   192
  0
VERTEX
  5
37E
  8
0
 10
-12.175217628479
 20
-16.94464302062988
 30
149.2761993408203
 70
   192
  0
VERTEX
  5
37F
  8
0
 10
-14.45855712890625
 20
-14.38443279266357
 30
149.4655456542969
 70
   192
  0
VERTEX
  5
380
  8
0
 10
-16.53178787231445
 20
-11.95693588256836
 30
149.4655456542969
 70
   192
  0
VERTEX
  5
381
  8
0
 10
-17.01979064941406
 20
-12.09647846221924
 30
149.2761993408203
 70
   192
  0
VERTEX
  5
382
  8
0
 10
-12.0298490524292
 20
-16.45928001403809
 30
149.4655456542969
 70
   192
  0
VERTEX
  5
383
  8
0
 10
-9.265397071838379
 20
-18.68466758728027
 30
149.2761993408203
 70
   192
  0
VERTEX
  5
384
  8
0
 10
-10.60101127624512
 20
-18.2203483581543
 30
148.8106079101562
 70
   192
  0
VERTEX
  5
385
  8
0
 10
-8.63588809967041
 20
-19.22188949584961
 30
148.8106079101562
 70
   192
  0
VERTEX
  5
386
  8
0
 10
-9.308801651000977
 20
-18.1263484954834
 30
149.4655456542969
 70
   192
  0
VERTEX
  5
387
  8
0
 10
-6.195473194122314
 20
-19.90377426147461
 30
149.2761993408203
 70
   192
  0
VERTEX
  5
388
  8
0
 10
-6.359423637390137
 20
-19.34792518615723
 30
149.4655456542969
 70
   192
  0
VERTEX
  5
389
  8
0
 10
-3.093550205230713
 20
-20.60378456115723
 30
149.2761993408203
 70
   192
  0
VERTEX
  5
38A
  8
0
 10
-4.448070049285889
 20
-20.58271026611328
 30
148.8106079101562
 70
   192
  0
VERTEX
  5
38B
  8
0
 10
-2.275335788726807
 20
-20.92643356323242
 30
148.8106079101562
 70
   192
  0
VERTEX
  5
38C
  8
0
 10
-3.256044387817383
 20
-20.09307289123535
 30
149.4655456542969
 70
   192
  0
VERTEX
  5
38D
  8
0
 10
-0.0728165432810783
 20
-20.82248115539551
 30
149.2761993408203
 70
   192
  0
VERTEX
  5
38E
  8
0
 10
-0.0728256851434708
 20
-20.33107566833496
 30
149.4655456542969
 70
   192
  0
VERTEX
  5
38F
  8
0
 10
-0.0728165209293365
 20
-21.04219055175781
 30
148.8106079101562
 70
   192
  0
VERTEX
  5
390
  8
0
 10
-15.7190523147583
 20
-14.07272911071777
 30
148.8106079101562
 70
   192
  0
VERTEX
  5
391
  8
0
 10
-14.15565204620361
 20
-15.63513851165771
 30
148.8106079101562
 70
   192
  0
VERTEX
  5
392
  8
0
 10
-18.19953918457031
 20
-9.234981536865234
 30
149.4655456542969
 70
   192
  0
VERTEX
  5
393
  8
0
 10
-19.42105102539062
 20
-6.286044597625732
 30
149.4655456542969
 70
   192
  0
VERTEX
  5
394
  8
0
 10
-18.75845527648926
 20
-9.183429718017578
 30
149.2761993408203
 70
   192
  0
VERTEX
  5
395
  8
0
 10
-19.29894828796387
 20
-8.553316116333008
 30
148.8106079101562
 70
   192
  0
VERTEX
  5
396
  8
0
 10
-18.30268096923828
 20
-10.51187896728516
 30
148.8106079101562
 70
   192
  0
VERTEX
  5
397
  8
0
 10
-19.9752197265625
 20
-6.1140456199646
 30
149.2761993408203
 70
   192
  0
VERTEX
  5
398
  8
0
 10
-20.16628456115723
 20
-3.182561159133911
 30
149.4655456542969
 70
   192
  0
VERTEX
  5
399
  8
0
 10
-20.41652297973633
 20
-0.0000000000000177
 30
149.4655456542969
 70
   192
  0
VERTEX
  5
39A
  8
0
 10
-20.89529800415039
 20
-0.0000000000000173
 30
149.2761993408203
 70
   192
  0
VERTEX
  5
39B
  8
0
 10
-21.11507034301758
 20
-0.0000000000000176
 30
148.8106079101562
 70
   192
  0
VERTEX
  5
39C
  8
0
 10
-20.09078598022461
 20
-6.49021577835083
 30
148.8106079101562
 70
   192
  0
VERTEX
  5
39D
  8
0
 10
-17.10111618041992
 20
-12.36332035064697
 30
148.8106079101562
 70
   192
  0
VERTEX
  5
39E
  8
0
 10
-12.44700145721436
 20
-17.02054023742676
 30
148.8106079101562
 70
   192
  0
VERTEX
  5
39F
  8
0
 10
-6.577791213989258
 20
-20.01217079162598
 30
148.8106079101562
 70
   192
  0
VERTEX
  5
3A0
  8
0
 10
-15.42324161529541
 20
14.06876945495605
 30
149.2761993408203
 70
   192
  0
VERTEX
  5
3A1
  8
0
 10
-15.07319736480713
 20
13.74234771728516
 30
149.4655456542969
 70
   192
  0
VERTEX
  5
3A2
  8
0
 10
-12.87769508361816
 20
15.80814456939697
 30
149.4655456542969
 70
   192
  0
VERTEX
  5
3A3
  8
0
 10
-13.01669597625732
 20
16.30921173095703
 30
149.2761993408203
 70
   192
  0
VERTEX
  5
3A4
  8
0
 10
-15.30697727203369
 20
14.51238918304443
 30
148.8106079101562
 70
   192
  0
VERTEX
  5
3A5
  8
0
 10
-17.43632698059082
 20
11.49384117126465
 30
149.2761993408203
 70
   192
  0
VERTEX
  5
3A6
  8
0
 10
-18.99699211120605
 20
8.689146995544434
 30
149.2761993408203
 70
   192
  0
VERTEX
  5
3A7
  8
0
 10
-16.93977928161621
 20
11.37414741516113
 30
149.4655456542969
 70
   192
  0
VERTEX
  5
3A8
  8
0
 10
-18.43495559692383
 20
8.757503509521484
 30
149.4655456542969
 70
   192
  0
VERTEX
  5
3A9
  8
0
 10
-20.08179092407227
 20
5.768415927886963
 30
149.2761993408203
 70
   192
  0
VERTEX
  5
3AA
  8
0
 10
-19.52757835388184
 20
5.947824954986572
 30
149.4655456542969
 70
   192
  0
VERTEX
  5
3AB
  8
0
 10
-20.00499725341797
 20
6.741890430450439
 30
148.8106079101562
 70
   192
  0
VERTEX
  5
3AC
  8
0
 10
-20.70161628723145
 20
2.840791940689087
 30
149.2761993408203
 70
   192
  0
VERTEX
  5
3AD
  8
0
 10
-20.98960494995117
 20
2.282984733581543
 30
148.8106079101562
 70
   192
  0
VERTEX
  5
3AE
  8
0
 10
-20.19292831420898
 20
3.007510662078857
 30
149.4655456542969
 70
   192
  0
VERTEX
  5
3AF
  8
0
 10
-10.40206718444824
 20
17.52636337280273
 30
149.4655456542969
 70
   192
  0
VERTEX
  5
3B0
  8
0
 10
-10.30592441558838
 20
18.13278388977051
 30
149.2761993408203
 70
   192
  0
VERTEX
  5
3B1
  8
0
 10
-7.399684429168701
 20
19.48915863037109
 30
149.2761993408203
 70
   192
  0
VERTEX
  5
3B2
  8
0
 10
-7.697964668273926
 20
18.8605785369873
 30
149.4655456542969
 70
   192
  0
VERTEX
  5
3B3
  8
0
 10
-4.826535701751709
 20
19.78039932250977
 30
149.4655456542969
 70
   192
  0
VERTEX
  5
3B4
  8
0
 10
-4.412574768066406
 20
20.36390495300293
 30
149.2761993408203
 70
   192
  0
VERTEX
  5
3B5
  8
0
 10
-9.851640701293945
 20
18.63151359558105
 30
148.8106079101562
 70
   192
  0
VERTEX
  5
3B6
  8
0
 10
-11.81635189056396
 20
17.4590950012207
 30
148.8106079101562
 70
   192
  0
VERTEX
  5
3B7
  8
0
 10
-1.852391242980957
 20
20.26574897766113
 30
149.4655456542969
 70
   192
  0
VERTEX
  5
3B8
  8
0
 10
1.160529017448425
 20
20.31111145019531
 30
149.4655456542969
 70
   192
  0
VERTEX
  5
3B9
  8
0
 10
-1.451807618141174
 20
20.77605056762695
 30
149.2761993408203
 70
   192
  0
VERTEX
  5
3BA
  8
0
 10
1.18931782245636
 20
20.78391075134277
 30
149.2764892578125
 70
   192
  0
VERTEX
  5
3BB
  8
0
 10
1.202695965766907
 20
21.00355911254883
 30
148.8106079101562
 70
   192
  0
VERTEX
  5
3BC
  8
0
 10
-1.086056232452393
 20
21.0175838470459
 30
148.8106079101562
 70
   192
  0
VERTEX
  5
3BD
  8
0
 10
-3.362413644790649
 20
20.78250503540039
 30
148.8106079101562
 70
   192
  0
VERTEX
  5
3BE
  8
0
 10
-5.599334716796875
 20
20.30191040039062
 30
148.8106079101562
 70
   192
  0
VERTEX
  5
3BF
  8
0
 10
-7.770909309387207
 20
19.58252334594727
 30
148.8106079101562
 70
   192
  0
VERTEX
  5
3C0
  8
0
 10
-13.64189147949219
 20
16.08053016662598
 30
148.8106079101562
 70
   192
  0
VERTEX
  5
3C1
  8
0
 10
-16.79209327697754
 20
12.77311515808105
 30
148.8106079101562
 70
   192
  0
VERTEX
  5
3C2
  8
0
 10
-18.07976531982422
 20
10.88313961029053
 30
148.8106079101562
 70
   192
  0
VERTEX
  5
3C3
  8
0
 10
-19.15488243103027
 20
8.864752769470215
 30
148.8106079101562
 70
   192
  0
VERTEX
  5
3C4
  8
0
 10
-20.61887550354004
 20
4.539455413818359
 30
148.8106079101562
 70
   192
  0
VERTEX
  5
3C5
  8
0
 10
1.596844553947449
 20
22.93931579589844
 30
118.4655380249023
 70
   192
  0
VERTEX
  5
3C6
  8
0
 10
2.8604736328125
 20
21.00114440917969
 30
146.2874603271484
 70
   192
  0
VERTEX
  5
3C7
  8
0
 10
18.3437442779541
 20
13.77783679962158
 30
118.4655380249023
 70
   192
  0
VERTEX
  5
3C8
  8
0
 10
17.11674880981445
 20
12.72507476806641
 30
143.4655456542969
 70
   192
  0
VERTEX
  5
3C9
  8
0
 10
19.71051216125488
 20
11.73093128204346
 30
118.4655380249023
 70
   192
  0
VERTEX
  5
3CA
  8
0
 10
15.67429256439209
 20
14.47185134887695
 30
143.4655456542969
 70
   192
  0
VERTEX
  5
3CB
  8
0
 10
-12.11342430114746
 20
18.97281646728516
 30
126.6743087768555
 70
   192
  0
VERTEX
  5
3CC
  8
0
 10
-20.84335517883301
 20
7.603931427001953
 30
132.1293792724609
 70
   192
  0
VERTEX
  5
3CD
  8
0
 10
20.85373306274414
 20
9.543697357177734
 30
118.4655380249023
 70
   192
  0
VERTEX
  5
3CE
  8
0
 10
18.36781883239746
 20
10.83292675018311
 30
143.4655456542969
 70
   192
  0
VERTEX
  5
3CF
  8
0
 10
19.41473197937012
 20
8.81143569946289
 30
143.4655456542969
 70
   192
  0
VERTEX
  5
3D0
  8
0
 10
21.75312995910645
 20
7.254718780517578
 30
118.4655380249023
 70
   192
  0
VERTEX
  5
3D1
  8
0
 10
20.23931121826172
 20
6.694973468780518
 30
143.4655456542969
 70
   192
  0
VERTEX
  5
3D2
  8
0
 10
22.40179443359375
 20
4.887774467468262
 30
118.4655380249023
 70
   192
  0
VERTEX
  5
3D3
  8
0
 10
-19.87567710876465
 20
9.94074821472168
 30
131.5247039794922
 70
   192
  0
VERTEX
  5
3D4
  8
0
 10
-18.67733955383301
 20
12.12410926818848
 30
130.7758941650391
 70
   192
  0
VERTEX
  5
3D5
  8
0
 10
-17.27524757385254
 20
14.13189315795898
 30
129.8997802734375
 70
   192
  0
VERTEX
  5
3D6
  8
0
 10
20.83366966247559
 20
4.508502960205078
 30
143.4655456542969
 70
   192
  0
VERTEX
  5
3D7
  8
0
 10
22.79488372802734
 20
2.46271800994873
 30
118.4655380249023
 70
   192
  0
VERTEX
  5
3D8
  8
0
 10
21.19344711303711
 20
2.270639896392822
 30
143.4655456542969
 70
   192
  0
VERTEX
  5
3D9
  8
0
 10
22.92718315124512
 20
-0.0000000000000174
 30
118.4655380249023
 70
   192
  0
VERTEX
  5
3DA
  8
0
 10
-15.69678688049316
 20
15.9487419128418
 30
128.9134521484375
 70
   192
  0
VERTEX
  5
3DB
  8
0
 10
-13.96811199188232
 20
17.56452178955078
 30
127.833251953125
 70
   192
  0
VERTEX
  5
3DC
  8
0
 10
21.31427955627441
 20
-0.0000000000000176
 30
143.4655456542969
 70
   192
  0
VERTEX
  5
3DD
  8
0
 10
-10.15504264831543
 20
20.17022705078125
 30
125.4505767822266
 70
   192
  0
VERTEX
  5
3DE
  8
0
 10
16.77060890197754
 20
15.66201782226562
 30
118.4655380249023
 70
   192
  0
VERTEX
  5
3DF
  8
0
 10
14.05259704589844
 20
16.05857276916504
 30
143.4655456542969
 70
   192
  0
VERTEX
  5
3E0
  8
0
 10
15.00493335723877
 20
17.36846351623535
 30
118.4655380249023
 70
   192
  0
VERTEX
  5
3E1
  8
0
 10
12.26554298400879
 20
17.46920967102051
 30
143.4655456542969
 70
   192
  0
VERTEX
  5
3E2
  8
0
 10
10.34377574920654
 20
18.6789722442627
 30
143.4655456542969
 70
   192
  0
VERTEX
  5
3E3
  8
0
 10
13.06057739257812
 20
18.88140296936035
 30
118.4655380249023
 70
   192
  0
VERTEX
  5
3E4
  8
0
 10
10.96262550354004
 20
20.17948913574219
 30
118.4655380249023
 70
   192
  0
VERTEX
  5
3E5
  8
0
 10
8.309334754943848
 20
19.67603492736816
 30
143.4655456542969
 70
   192
  0
VERTEX
  5
3E6
  8
0
 10
8.7455472946167
 20
21.24226188659668
 30
118.4655380249023
 70
   192
  0
VERTEX
  5
3E7
  8
0
 10
6.179562568664551
 20
20.45269393920898
 30
143.4655456542969
 70
   192
  0
VERTEX
  5
3E8
  8
0
 10
3.971914768218994
 20
21.00114440917969
 30
143.4655456542969
 70
   192
  0
VERTEX
  5
3E9
  8
0
 10
6.432211875915527
 20
22.06094741821289
 30
118.4655380249023
 70
   192
  0
VERTEX
  5
3EA
  8
0
 10
4.042637825012207
 20
22.62886238098145
 30
118.4655380249023
 70
   192
  0
VERTEX
  5
3EB
  8
0
 10
1.049617052078247
 20
22.96732330322266
 30
118.541862487793
 70
   192
  0
VERTEX
  5
3EC
  8
0
 10
0.5370059609413147
 20
22.9723014831543
 30
118.7694473266602
 70
   192
  0
VERTEX
  5
3ED
  8
0
 10
-6.006830215454102
 20
21.92810249328613
 30
122.8584899902344
 70
   192
  0
VERTEX
  5
3EE
  8
0
 10
-3.852454423904419
 20
22.48813629150391
 30
121.5122833251953
 70
   192
  0
VERTEX
  5
3EF
  8
0
 10
-1.666141748428345
 20
22.8360710144043
 30
120.146125793457
 70
   192
  0
VERTEX
  5
3F0
  8
0
 10
-8.11335563659668
 20
21.15547180175781
 30
124.1747894287109
 70
   192
  0
VERTEX
  5
3F1
  8
0
 10
-21.55564117431641
 20
5.143002510070801
 30
132.574462890625
 70
   192
  0
VERTEX
  5
3F2
  8
0
 10
-21.34944152832031
 20
2.709235429763794
 30
142.5196533203125
 70
   192
  0
VERTEX
  5
3F3
  8
0
 10
-21.99203872680664
 20
2.594282388687134
 30
132.8471527099609
 70
   192
  0
VERTEX
  5
3F4
  8
0
 10
-21.47831726074219
 20
1.968082785606384
 30
141.7874298095703
 70
   192
  0
VERTEX
  5
3F5
  8
0
 10
-21.22306632995605
 20
3.18523645401001
 30
143.4453277587891
 70
   192
  0
VERTEX
  5
3F6
  8
0
 10
-22.1390438079834
 20
-0.0000000000000202
 30
132.9390106201172
 70
   192
  0
VERTEX
  5
3F7
  8
0
 10
-21.57368850708008
 20
1.03431236743927
 30
141.3186340332031
 70
   192
  0
VERTEX
  5
3F8
  8
0
 10
-21.60883712768555
 20
-0.0000000000000202
 30
141.1572265625
 70
   192
  0
VERTEX
  5
3F9
  8
0
 10
-21.00211524963379
 20
-3.25
 30
144.4669342041016
 70
   192
  0
VERTEX
  5
3FA
  8
0
 10
-18.92233467102051
 20
-3.091327428817749
 30
145.2915344238281
 70
   192
  0
VERTEX
  5
3FB
  8
0
 10
-19.00972747802734
 20
-3.25
 30
144.2926177978516
 70
   192
  0
VERTEX
  5
3FC
  8
0
 10
-21.08950805664062
 20
-3.091327428817749
 30
143.4680328369141
 70
   192
  0
VERTEX
  5
3FD
  8
0
 10
-19.09737396240234
 20
-3.090426445007324
 30
143.2908172607422
 70
   192
  0
VERTEX
  5
3FE
  8
0
 10
-21.23116493225098
 20
-1.911948323249817
 30
141.8489074707031
 70
   192
  0
VERTEX
  5
3FF
  8
0
 10
-21.16837501525879
 20
-2.630825042724609
 30
142.5665740966797
 70
   192
  0
VERTEX
  5
400
  8
0
 10
-19.17636299133301
 20
-2.628036022186279
 30
142.3879547119141
 70
   192
  0
VERTEX
  5
401
  8
0
 10
-19.23901748657227
 20
-1.907618284225464
 30
141.6718139648438
 70
   192
  0
VERTEX
  5
402
  8
0
 10
-19.27914619445801
 20
-1.003274202346802
 30
141.2131500244141
 70
   192
  0
VERTEX
  5
403
  8
0
 10
-21.27146530151367
 20
-1.005636215209961
 30
141.3882751464844
 70
   192
  0
VERTEX
  5
404
  8
0
 10
-21.28537178039551
 20
-0.0000000000000398
 30
141.2293090820312
 70
   192
  0
VERTEX
  5
405
  8
0
 10
-19.29298210144043
 20
-0.0000000000000382
 30
141.0549926757812
 70
   192
  0
VERTEX
  5
406
  8
0
 10
-20.91446876525879
 20
-3.090426445007324
 30
145.46875
 70
   192
  0
VERTEX
  5
407
  8
0
 10
-18.84346580505371
 20
-2.630825042724609
 30
146.1929779052734
 70
   192
  0
VERTEX
  5
408
  8
0
 10
-20.83547782897949
 20
-2.628036022186279
 30
146.3716125488281
 70
   192
  0
VERTEX
  5
409
  8
0
 10
-20.77282524108887
 20
-1.907618284225464
 30
147.0877532958984
 70
   192
  0
VERTEX
  5
40A
  8
0
 10
-18.78067779541016
 20
-1.911948323249817
 30
146.9106597900391
 70
   192
  0
VERTEX
  5
40B
  8
0
 10
-20.73269653320312
 20
-1.003274202346802
 30
147.5464172363281
 70
   192
  0
VERTEX
  5
40C
  8
0
 10
-18.74037742614746
 20
-1.005636215209961
 30
147.3712921142578
 70
   192
  0
VERTEX
  5
40D
  8
0
 10
-18.72647094726562
 20
-0.0000000000000386
 30
147.5302581787109
 70
   192
  0
VERTEX
  5
40E
  8
0
 10
-20.7188606262207
 20
-0.0000000000000402
 30
147.7045745849609
 70
   192
  0
VERTEX
  5
40F
  8
0
 10
-19.27907562255859
 20
1.005636215209961
 30
141.2139587402344
 70
   192
  0
VERTEX
  5
410
  8
0
 10
-21.27153587341309
 20
1.003274202346802
 30
141.387451171875
 70
   192
  0
VERTEX
  5
411
  8
0
 10
-21.00211524963379
 20
3.25
 30
144.4669342041016
 70
   192
  0
VERTEX
  5
412
  8
0
 10
-21.08976364135742
 20
3.090426445007324
 30
143.4651336669922
 70
   192
  0
VERTEX
  5
413
  8
0
 10
-19.09711837768555
 20
3.091327428817749
 30
143.2937164306641
 70
   192
  0
VERTEX
  5
414
  8
0
 10
-21.16875267028809
 20
2.628036022186279
 30
142.5622711181641
 70
   192
  0
VERTEX
  5
415
  8
0
 10
-21.23140716552734
 20
1.907618284225464
 30
141.8461151123047
 70
   192
  0
VERTEX
  5
416
  8
0
 10
-19.2387752532959
 20
1.911948323249817
 30
141.6745910644531
 70
   192
  0
VERTEX
  5
417
  8
0
 10
-20.83585548400879
 20
2.630825042724609
 30
146.3672943115234
 70
   192
  0
VERTEX
  5
418
  8
0
 10
-18.92207908630371
 20
3.090426445007324
 30
145.29443359375
 70
   192
  0
VERTEX
  5
419
  8
0
 10
-18.84309005737305
 20
2.628036022186279
 30
146.1972961425781
 70
   192
  0
VERTEX
  5
41A
  8
0
 10
-19.00972747802734
 20
3.25
 30
144.2926177978516
 70
   192
  0
VERTEX
  5
41B
  8
0
 10
-20.91472244262695
 20
3.091327428817749
 30
145.4658355712891
 70
   192
  0
VERTEX
  5
41C
  8
0
 10
-20.73276710510254
 20
1.005636215209961
 30
147.5456085205078
 70
   192
  0
VERTEX
  5
41D
  8
0
 10
-20.77306747436523
 20
1.911948323249817
 30
147.0849761962891
 70
   192
  0
VERTEX
  5
41E
  8
0
 10
-18.78043556213379
 20
1.907618284225464
 30
146.9134368896484
 70
   192
  0
VERTEX
  5
41F
  8
0
 10
-18.74030685424805
 20
1.003274202346802
 30
147.3721008300781
 70
   192
  0
VERTEX
  5
420
  8
0
 10
-19.17598724365234
 20
2.630825042724609
 30
142.3922729492188
 70
   192
  0
VERTEX
  5
421
  8
0
 10
7.0691237449646
 20
20.3450756072998
 30
118.4655456542969
 70
   192
  0
VERTEX
  5
422
  8
0
 10
4.274238586425781
 20
21.11446189880371
 30
118.4654769897461
 70
   192
  0
VERTEX
  5
423
  8
0
 10
1.596844553947449
 20
21.4959659576416
 30
118.4655380249023
 70
   192
  0
VERTEX
  5
424
  8
0
 10
11.97076320648193
 20
17.87769317626953
 30
118.4656372070312
 70
   192
  0
VERTEX
  5
425
  8
0
 10
9.623698234558105
 20
19.25833320617676
 30
118.4655532836914
 70
   192
  0
VERTEX
  5
426
  8
0
 10
16.21600341796875
 20
14.1297607421875
 30
118.4655303955078
 70
   192
  0
VERTEX
  5
427
  8
0
 10
14.1830415725708
 20
16.17625045776367
 30
118.4655532836914
 70
   192
  0
VERTEX
  5
428
  8
0
 10
17.88809585571289
 20
11.92305946350098
 30
118.4655303955078
 70
   192
  0
VERTEX
  5
429
  8
0
 10
20.36086654663086
 20
6.884453296661377
 30
118.4655303955078
 70
   192
  0
VERTEX
  5
42A
  8
0
 10
19.27424812316895
 20
9.514562606811523
 30
118.4654998779297
 70
   192
  0
VERTEX
  5
42B
  8
0
 10
21.07855224609375
 20
4.178783416748047
 30
118.4655303955078
 70
   192
  0
VERTEX
  5
42C
  8
0
 10
21.44198989868164
 20
-1.405531167984009
 30
118.4655151367188
 70
   192
  0
VERTEX
  5
42D
  8
0
 10
21.44146919250488
 20
1.409735083580017
 30
118.4654922485352
 70
   192
  0
VERTEX
  5
42E
  8
0
 10
21.07985687255859
 20
-4.173829555511475
 30
118.4655380249023
 70
   192
  0
VERTEX
  5
42F
  8
0
 10
22.79656982421875
 20
-2.456882953643799
 30
118.4655380249023
 70
   192
  0
VERTEX
  5
430
  8
0
 10
20.35494041442871
 20
-6.900694370269775
 30
118.4654998779297
 70
   192
  0
VERTEX
  5
431
  8
0
 10
21.75328254699707
 20
-7.257636547088623
 30
118.4655380249023
 70
   192
  0
VERTEX
  5
432
  8
0
 10
20.85391426086426
 20
-9.547237396240234
 30
118.4655380249023
 70
   192
  0
VERTEX
  5
433
  8
0
 10
22.40289497375488
 20
-4.885152339935303
 30
118.4655380249023
 70
   192
  0
VERTEX
  5
434
  8
0
 10
19.7148551940918
 20
-11.7274694442749
 30
118.4655380249023
 70
   192
  0
VERTEX
  5
435
  8
0
 10
18.34941101074219
 20
-13.773512840271
 30
118.4655380249023
 70
   192
  0
VERTEX
  5
436
  8
0
 10
17.90548896789551
 20
-11.8986291885376
 30
118.4655380249023
 70
   192
  0
VERTEX
  5
437
  8
0
 10
19.27948379516602
 20
-9.503305435180664
 30
118.4655075073242
 70
   192
  0
VERTEX
  5
438
  8
0
 10
14.17620944976807
 20
-16.18170166015625
 30
118.4655532836914
 70
   192
  0
VERTEX
  5
439
  8
0
 10
16.19203948974609
 20
-14.15750312805176
 30
118.4655227661133
 70
   192
  0
VERTEX
  5
43A
  8
0
 10
16.77317237854004
 20
-15.66198635101318
 30
118.4655380249023
 70
   192
  0
VERTEX
  5
43B
  8
0
 10
13.06069278717041
 20
-18.88207817077637
 30
118.4655380249023
 70
   192
  0
VERTEX
  5
43C
  8
0
 10
10.96842956542969
 20
-20.17679595947266
 30
118.4655380249023
 70
   192
  0
VERTEX
  5
43D
  8
0
 10
12.02251052856445
 20
-17.84371566772461
 30
118.4655838012695
 70
   192
  0
VERTEX
  5
43E
  8
0
 10
15.00314998626709
 20
-17.37188339233398
 30
118.4655380249023
 70
   192
  0
VERTEX
  5
43F
  8
0
 10
9.601154327392578
 20
-19.27193641662598
 30
118.4655838012695
 70
   192
  0
VERTEX
  5
440
  8
0
 10
8.749985694885254
 20
-21.24132919311523
 30
118.4655380249023
 70
   192
  0
VERTEX
  5
441
  8
0
 10
6.430489063262939
 20
-22.06219291687012
 30
118.4655380249023
 70
   192
  0
VERTEX
  5
442
  8
0
 10
4.314670085906982
 20
-21.10747718811035
 30
118.4654998779297
 70
   192
  0
VERTEX
  5
443
  8
0
 10
7.061398983001709
 20
-20.34617614746094
 30
118.4655380249023
 70
   192
  0
VERTEX
  5
444
  8
0
 10
4.036818981170654
 20
-22.62949180603027
 30
118.4655380249023
 70
   192
  0
VERTEX
  5
445
  8
0
 10
1.596844553947449
 20
-21.4959659576416
 30
118.4655380249023
 70
   192
  0
VERTEX
  5
446
  8
0
 10
1.596844553947449
 20
-22.93931579589844
 30
118.4655380249023
 70
   192
  0
VERTEX
  5
447
  8
0
 10
-0.0725160762667656
 20
-21.32969856262207
 30
119.1503143310547
 70
   192
  0
VERTEX
  5
448
  8
0
 10
0.5370059609413147
 20
-22.9723014831543
 30
118.7694473266602
 70
   192
  0
VERTEX
  5
449
  8
0
 10
-1.66614043712616
 20
-22.83609008789062
 30
120.146125793457
 70
   192
  0
VERTEX
  5
44A
  8
0
 10
-6.788299083709717
 20
-18.1407527923584
 30
123.3468017578125
 70
   192
  0
VERTEX
  5
44B
  8
0
 10
-8.11336612701416
 20
-21.1555061340332
 30
124.1747970581055
 70
   192
  0
VERTEX
  5
44C
  8
0
 10
-10.15505981445312
 20
-20.1702766418457
 30
125.4505920410156
 70
   192
  0
VERTEX
  5
44D
  8
0
 10
-3.852452993392944
 20
-22.48812484741211
 30
121.5122833251953
 70
   192
  0
VERTEX
  5
44E
  8
0
 10
-4.674286365509033
 20
-19.55085372924805
 30
122.0258255004883
 70
   192
  0
VERTEX
  5
44F
  8
0
 10
-2.423456430435181
 20
-20.61890983581543
 30
120.6193466186523
 70
   192
  0
VERTEX
  5
450
  8
0
 10
-11.9427375793457
 20
-12.14235687255859
 30
126.5676574707031
 70
   192
  0
VERTEX
  5
451
  8
0
 10
-10.45318698883057
 20
-14.40587997436523
 30
125.6368789672852
 70
   192
  0
VERTEX
  5
452
  8
0
 10
-13.96808910369873
 20
-17.56448173522949
 30
127.8332366943359
 70
   192
  0
VERTEX
  5
453
  8
0
 10
-8.725920677185059
 20
-16.41551780700684
 30
124.5575637817383
 70
   192
  0
VERTEX
  5
454
  8
0
 10
-12.11339855194092
 20
-18.97276496887207
 30
126.6742935180664
 70
   192
  0
VERTEX
  5
455
  8
0
 10
-15.05483245849609
 20
-1.429961323738098
 30
128.5123138427734
 70
   192
  0
VERTEX
  5
456
  8
0
 10
-14.73524188995361
 20
-4.266171455383301
 30
128.3126068115234
 70
   192
  0
VERTEX
  5
457
  8
0
 10
-21.55564880371094
 20
-5.14300537109375
 30
132.574462890625
 70
   192
  0
VERTEX
  5
458
  8
0
 10
-15.69682884216309
 20
-15.94879817962646
 30
128.9134674072266
 70
   192
  0
VERTEX
  5
459
  8
0
 10
-17.27527046203613
 20
-14.13191986083984
 30
129.8997955322266
 70
   192
  0
VERTEX
  5
45A
  8
0
 10
-14.10116863250732
 20
7.03585958480835
 30
127.916389465332
 70
   192
  0
VERTEX
  5
45B
  8
0
 10
-14.73519897460938
 20
4.271347522735596
 30
128.3125762939453
 70
   192
  0
VERTEX
  5
45C
  8
0
 10
-15.05449485778809
 20
1.435110807418823
 30
128.5121002197266
 70
   192
  0
VERTEX
  5
45D
  8
0
 10
-13.1646671295166
 20
9.676717758178711
 30
127.3311996459961
 70
   192
  0
VERTEX
  5
45E
  8
0
 10
-11.94204521179199
 20
12.14860916137695
 30
126.5672225952148
 70
   192
  0
VERTEX
  5
45F
  8
0
 10
-10.45255756378174
 20
14.41088485717773
 30
125.6364898681641
 70
   192
  0
VERTEX
  5
460
  8
0
 10
-8.725322723388672
 20
16.42083358764648
 30
124.5571899414062
 70
   192
  0
VERTEX
  5
461
  8
0
 10
-14.10186672210693
 20
-7.028892517089844
 30
127.9168319702148
 70
   192
  0
VERTEX
  5
462
  8
0
 10
-20.84340667724609
 20
-7.603961944580078
 30
132.1294097900391
 70
   192
  0
VERTEX
  5
463
  8
0
 10
-6.788064479827881
 20
18.14559173583984
 30
123.3466567993164
 70
   192
  0
VERTEX
  5
464
  8
0
 10
-4.673398971557617
 20
19.55547523498535
 30
122.0252685546875
 70
   192
  0
VERTEX
  5
465
  8
0
 10
-18.67728424072266
 20
-12.12406063079834
 30
130.7758636474609
 70
   192
  0
VERTEX
  5
466
  8
0
 10
-13.16516017913818
 20
-9.671299934387207
 30
127.3315124511719
 70
   192
  0
VERTEX
  5
467
  8
0
 10
-2.422820091247559
 20
20.62387847900391
 30
120.6189498901367
 70
   192
  0
VERTEX
  5
468
  8
0
 10
-0.0729492455720901
 20
21.33242797851562
 30
119.1505889892578
 70
   192
  0
VERTEX
  5
469
  8
0
 10
0.5370059609413147
 20
21.45327949523926
 30
118.7694473266602
 70
   192
  0
VERTEX
  5
46A
  8
0
 10
-19.87566184997559
 20
-9.940735816955566
 30
131.5246887207031
 70
   192
  0
VERTEX
  5
46B
  8
0
 10
-21.99201583862305
 20
-2.594273805618286
 30
132.8471374511719
 70
   192
  0
VERTEX
  5
46C
  8
0
 10
-6.006823062896729
 20
-21.92805862426758
 30
122.8584823608398
 70
   192
  0
VERTEX
  5
46D
  8
0
 10
0.5370059609413147
 20
-21.45327949523926
 30
118.7694473266602
 70
   192
  0
VERTEX
  5
46E
  8
0
 10
1.045915961265564
 20
-22.96777725219727
 30
118.5429153442383
 70
   192
  0
VERTEX
  5
46F
  8
0
 10
1.043094992637634
 20
-21.5068244934082
 30
118.5437316894531
 70
   192
  0
VERTEX
  5
470
  8
0
 10
1.045742392539978
 20
21.50693130493164
 30
118.54296875
 70
   192
  0
VERTEX
  5
471
  8
0
 10
21.19333648681641
 20
-2.270601987838745
 30
143.4655456542969
 70
   192
  0
VERTEX
  5
472
  8
0
 10
20.23993301391602
 20
-6.693399429321289
 30
143.4655456542969
 70
   192
  0
VERTEX
  5
473
  8
0
 10
20.83376884460449
 20
-4.507933139801025
 30
143.4655456542969
 70
   192
  0
VERTEX
  5
474
  8
0
 10
17.11929130554199
 20
-12.72153186798096
 30
143.4655456542969
 70
   192
  0
VERTEX
  5
475
  8
0
 10
19.41610717773438
 20
-8.8085355758667
 30
143.4655456542969
 70
   192
  0
VERTEX
  5
476
  8
0
 10
12.27193069458008
 20
-17.46462631225586
 30
143.4655456542969
 70
   192
  0
VERTEX
  5
477
  8
0
 10
10.35089302062988
 20
-18.67489051818848
 30
143.4655456542969
 70
   192
  0
VERTEX
  5
478
  8
0
 10
15.6779146194458
 20
-14.46800422668457
 30
143.4655456542969
 70
   192
  0
VERTEX
  5
479
  8
0
 10
14.05769348144531
 20
-16.05422210693359
 30
143.4655456542969
 70
   192
  0
VERTEX
  5
47A
  8
0
 10
3.983778476715088
 20
-20.99885559082031
 30
143.4655456542969
 70
   192
  0
VERTEX
  5
47B
  8
0
 10
6.18938684463501
 20
-20.44980621337891
 30
143.4655456542969
 70
   192
  0
VERTEX
  5
47C
  8
0
 10
1.241829872131348
 20
-21.00114631652832
 30
148.8106079101562
 70
   192
  0
VERTEX
  5
47D
  8
0
 10
2.886663198471069
 20
-20.99885559082031
 30
146.2911376953125
 70
   192
  0
VERTEX
  5
47E
  8
0
 10
-21.34850883483887
 20
-2.710935354232788
 30
142.5218048095703
 70
   192
  0
VERTEX
  5
47F
  8
0
 10
-21.47700500488281
 20
-1.971081972122192
 30
141.7894134521484
 70
   192
  0
VERTEX
  5
480
  8
0
 10
-21.22200202941895
 20
-3.186621904373169
 30
143.4494018554688
 70
   192
  0
VERTEX
  5
481
  8
0
 10
-21.57318305969238
 20
-1.037121057510376
 30
141.3192749023438
 70
   192
  0
VERTEX
  5
482
  8
0
 10
8.3175687789917
 20
-19.67255020141602
 30
143.4655456542969
 70
   192
  0
VERTEX
  5
483
  8
0
 10
18.36971855163574
 20
-10.82949447631836
 30
143.4655456542969
 70
   192
  0
VERTEX
  5
484
  8
0
 10
1.227856040000916
 20
-20.78143119812012
 30
149.2765960693359
 70
   192
  0
VERTEX
  5
485
  8
0
 10
1.198039412498474
 20
-20.30764961242676
 30
149.4655456542969
 70
   192
  0
VERTEX
  5
486
  8
0
 10
1.330914497375488
 20
20.79611968994141
 30
149.2605133056641
 70
   192
  0
VERTEX
  5
487
  8
0
 10
1.331117868423462
 20
21.00114440917969
 30
148.7656097412109
 70
   192
  0
VERTEX
  5
488
  8
0
 10
1.330914497375488
 20
20.30114364624023
 30
149.4655456542969
 70
   192
  0
VERTEX
  5
489
  8
0
 10
80.1272201538086
 20
20.30114364624023
 30
149.4655456542969
 70
   192
  0
VERTEX
  5
48A
  8
0
 10
80.1272201538086
 20
20.79611968994141
 30
149.2605133056641
 70
   192
  0
VERTEX
  5
48B
  8
0
 10
80.1272201538086
 20
21.00114440917969
 30
148.7655487060547
 70
   192
  0
VERTEX
  5
48C
  8
0
 10
81.75920867919922
 20
20.11612892150879
 30
149.4655456542969
 70
   192
  0
VERTEX
  5
48D
  8
0
 10
81.75274658203125
 20
20.62474632263184
 30
149.2605133056641
 70
   192
  0
VERTEX
  5
48E
  8
0
 10
84.95059967041016
 20
19.12459564208984
 30
149.2605133056641
 70
   192
  0
VERTEX
  5
48F
  8
0
 10
85.83951568603516
 20
17.5454044342041
 30
149.4655456542969
 70
   192
  0
VERTEX
  5
490
  8
0
 10
86.25067138671875
 20
17.82452201843262
 30
149.2605133056641
 70
   192
  0
VERTEX
  5
491
  8
0
 10
83.2945556640625
 20
19.5783634185791
 30
149.4655456542969
 70
   192
  0
VERTEX
  5
492
  8
0
 10
83.40516662597656
 20
20.07339477539062
 30
149.2605133056641
 70
   192
  0
VERTEX
  5
493
  8
0
 10
87.92219543457031
 20
13.00114440917969
 30
149.2605133056641
 70
   192
  0
VERTEX
  5
494
  8
0
 10
88.1272201538086
 20
13.00114440917969
 30
148.7655487060547
 70
   192
  0
VERTEX
  5
495
  8
0
 10
87.95174407958984
 20
14.67300701141357
 30
148.7655487060547
 70
   192
  0
VERTEX
  5
496
  8
0
 10
86.70606231689453
 20
16.1645679473877
 30
149.4655456542969
 70
   192
  0
VERTEX
  5
497
  8
0
 10
87.4272232055664
 20
13.00114440917969
 30
149.4655456542969
 70
   192
  0
VERTEX
  5
498
  8
0
 10
87.75082397460938
 20
14.62667083740234
 30
149.2605133056641
 70
   192
  0
VERTEX
  5
499
  8
0
 10
87.38371276855469
 20
16.37099647521973
 30
148.7655487060547
 70
   192
  0
VERTEX
  5
49A
  8
0
 10
87.24317932128906
 20
14.630784034729
 30
149.4655456542969
 70
   192
  0
VERTEX
  5
49B
  8
0
 10
87.19947052001953
 20
16.27908706665039
 30
149.2605133056641
 70
   192
  0
VERTEX
  5
49C
  8
0
 10
84.67829132080078
 20
18.70846366882324
 30
149.4655456542969
 70
   192
  0
VERTEX
  5
49D
  8
0
 10
86.4072494506836
 20
17.95643615722656
 30
148.7655487060547
 70
   192
  0
VERTEX
  5
49E
  8
0
 10
85.07194519042969
 20
19.28811454772949
 30
148.7655487060547
 70
   192
  0
VERTEX
  5
49F
  8
0
 10
83.48711395263672
 20
20.25941467285156
 30
148.7655487060547
 70
   192
  0
VERTEX
  5
4A0
  8
0
 10
81.79360961914062
 20
20.82446098327637
 30
148.7655487060547
 70
   192
  0
VERTEX
  5
4A1
  8
0
 10
87.92219543457031
 20
-12.99885559082031
 30
149.2605133056641
 70
   192
  0
VERTEX
  5
4A2
  8
0
 10
87.4272232055664
 20
-12.99885559082031
 30
149.4655456542969
 70
   192
  0
VERTEX
  5
4A3
  8
0
 10
88.1272201538086
 20
-12.99885559082031
 30
148.7655487060547
 70
   192
  0
VERTEX
  5
4A4
  8
0
 10
87.2422103881836
 20
-14.6308422088623
 30
149.4655456542969
 70
   192
  0
VERTEX
  5
4A5
  8
0
 10
87.75082397460938
 20
-14.62438201904297
 30
149.2605133056641
 70
   192
  0
VERTEX
  5
4A6
  8
0
 10
86.25067138671875
 20
-17.82223320007324
 30
149.2605133056641
 70
   192
  0
VERTEX
  5
4A7
  8
0
 10
84.6714859008789
 20
-18.71114730834961
 30
149.4655456542969
 70
   192
  0
VERTEX
  5
4A8
  8
0
 10
84.95059967041016
 20
-19.12230682373047
 30
149.2605133056641
 70
   192
  0
VERTEX
  5
4A9
  8
0
 10
86.7044448852539
 20
-16.16618919372559
 30
149.4655456542969
 70
   192
  0
VERTEX
  5
4AA
  8
0
 10
87.19947052001953
 20
-16.27680015563965
 30
149.2605133056641
 70
   192
  0
VERTEX
  5
4AB
  8
0
 10
80.1272201538086
 20
-20.79383087158203
 30
149.2605133056641
 70
   192
  0
VERTEX
  5
4AC
  8
0
 10
80.1272201538086
 20
-20.99885559082031
 30
148.7655487060547
 70
   192
  0
VERTEX
  5
4AD
  8
0
 10
81.79908752441406
 20
-20.82337379455566
 30
148.7655487060547
 70
   192
  0
VERTEX
  5
4AE
  8
0
 10
83.2906494140625
 20
-19.57769393920898
 30
149.4655456542969
 70
   192
  0
VERTEX
  5
4AF
  8
0
 10
80.1272201538086
 20
-20.29885673522949
 30
149.4655456542969
 70
   192
  0
VERTEX
  5
4B0
  8
0
 10
81.75274658203125
 20
-20.62245750427246
 30
149.2605133056641
 70
   192
  0
VERTEX
  5
4B1
  8
0
 10
83.49707794189453
 20
-20.25534629821777
 30
148.7655487060547
 70
   192
  0
VERTEX
  5
4B2
  8
0
 10
81.75686645507812
 20
-20.11481285095215
 30
149.4655456542969
 70
   192
  0
VERTEX
  5
4B3
  8
0
 10
83.40516662597656
 20
-20.07110595703125
 30
149.2605133056641
 70
   192
  0
VERTEX
  5
4B4
  8
0
 10
85.83454132080078
 20
-17.5499210357666
 30
149.4655456542969
 70
   192
  0
VERTEX
  5
4B5
  8
0
 10
85.08251190185547
 20
-19.27888298034668
 30
148.7655487060547
 70
   192
  0
VERTEX
  5
4B6
  8
0
 10
86.41419219970703
 20
-17.94357872009277
 30
148.7655487060547
 70
   192
  0
VERTEX
  5
4B7
  8
0
 10
87.38549041748047
 20
-16.3587474822998
 30
148.7655487060547
 70
   192
  0
VERTEX
  5
4B8
  8
0
 10
87.9505386352539
 20
-14.66524028778076
 30
148.7655487060547
 70
   192
  0
VERTEX
  5
4B9
  8
0
 10
72.96683502197266
 20
-20.29885673522949
 30
149.4655456542969
 70
   192
  0
VERTEX
  5
4BA
  8
0
 10
65.80644989013672
 20
-20.29885673522949
 30
149.4655456542969
 70
   192
  0
VERTEX
  5
4BB
  8
0
 10
58.64606475830078
 20
-20.29885673522949
 30
149.4655456542969
 70
   192
  0
VERTEX
  5
4BC
  8
0
 10
51.48567962646484
 20
-20.29885673522949
 30
149.4655456542969
 70
   192
  0
VERTEX
  5
4BD
  8
0
 10
37.16490936279297
 20
-20.29885673522949
 30
149.4655456542969
 70
   192
  0
VERTEX
  5
4BE
  8
0
 10
1.362876057624817
 20
-20.79383087158203
 30
149.2605133056641
 70
   192
  0
VERTEX
  5
4BF
  8
0
 10
44.32529449462891
 20
-20.29885673522949
 30
149.4655456542969
 70
   192
  0
VERTEX
  5
4C0
  8
0
 10
22.84413719177246
 20
-20.29885673522949
 30
149.4655456542969
 70
   192
  0
VERTEX
  5
4C1
  8
0
 10
30.0045223236084
 20
-20.29885673522949
 30
149.4655456542969
 70
   192
  0
VERTEX
  5
4C2
  8
0
 10
8.52336597442627
 20
-20.29885673522949
 30
149.4655456542969
 70
   192
  0
VERTEX
  5
4C3
  8
0
 10
15.68375205993652
 20
-20.29885673522949
 30
149.4655456542969
 70
   192
  0
VERTEX
  5
4C4
  8
0
 10
1.362975597381592
 20
-20.30454254150391
 30
149.4655456542969
 70
   192
  0
VERTEX
  5
4C5
  8
0
 10
1.362641453742981
 20
-20.99885559082031
 30
148.7655487060547
 70
   192
  0
VERTEX
  5
4C6
  8
0
 10
23.64405632019043
 20
-11.80378437042236
 30
149.4655456542969
 70
   192
  0
VERTEX
  5
4C7
  8
0
 10
70.86457824707031
 20
12.5786018371582
 30
149.4655456542969
 70
   192
  0
VERTEX
  5
4C8
  8
0
 10
72.39553833007812
 20
12.27553081512451
 30
149.4655456542969
 70
   192
  0
VERTEX
  5
4C9
  8
0
 10
22.87598991394043
 20
-9.526724815368652
 30
149.4655456542969
 70
   192
  0
VERTEX
  5
4CA
  8
0
 10
24.59323501586914
 20
-12.5786018371582
 30
149.4655456542969
 70
   192
  0
VERTEX
  5
4CB
  8
0
 10
74.56275177001953
 20
10.11416912078857
 30
149.4655456542969
 70
   192
  0
VERTEX
  5
4CC
  8
0
 10
70.86457061767578
 20
-12.5786018371582
 30
149.4655456542969
 70
   192
  0
VERTEX
  5
4CD
  8
0
 10
74.56275177001953
 20
-10.11417198181152
 30
149.4655456542969
 70
   192
  0
VERTEX
  5
4CE
  8
0
 10
74.86457824707031
 20
-8.578592300415039
 30
149.4655456542969
 70
   192
  0
VERTEX
  5
4CF
  8
0
 10
74.86457824707031
 20
8.578592300415039
 30
149.4655456542969
 70
   192
  0
VERTEX
  5
4D0
  8
0
 10
73.69221496582031
 20
11.408127784729
 30
149.4655456542969
 70
   192
  0
VERTEX
  5
4D1
  8
0
 10
73.69220733642578
 20
-11.4081335067749
 30
149.4655456542969
 70
   192
  0
VERTEX
  5
4D2
  8
0
 10
72.3955307006836
 20
-12.27553462982178
 30
149.4655456542969
 70
   192
  0
VERTEX
  5
4D3
  8
0
 10
24.59323501586914
 20
12.5786018371582
 30
149.4655456542969
 70
   192
  0
VERTEX
  5
4D4
  8
0
 10
23.0614128112793
 20
-10.73387622833252
 30
149.4655456542969
 70
   192
  0
VERTEX
  5
4D5
  8
0
 10
23.06009483337402
 20
10.7400951385498
 30
149.4655456542969
 70
   192
  0
VERTEX
  5
4D6
  8
0
 10
22.87598991394043
 20
9.526724815368652
 30
149.4655456542969
 70
   192
  0
VERTEX
  5
4D7
  8
0
 10
23.6483039855957
 20
11.81058120727539
 30
149.4655456542969
 70
   192
  0
VERTEX
  5
4D8
  8
0
 10
80.1272201538086
 20
21.00114440917969
 30
143.4655456542969
 70
   192
  0
VERTEX
  5
4D9
  8
0
 10
82.48309326171875
 20
20.64841079711914
 30
143.4655456542969
 70
   192
  0
VERTEX
  5
4DA
  8
0
 10
84.77994537353516
 20
19.50849151611328
 30
143.4655456542969
 70
   192
  0
VERTEX
  5
4DB
  8
0
 10
25.13338661193848
 20
8.158124923706055
 30
143.4655456542969
 70
   192
  0
VERTEX
  5
4DC
  8
0
 10
80.1272201538086
 20
-20.99885559082031
 30
143.4655456542969
 70
   192
  0
VERTEX
  5
4DD
  8
0
 10
25.51478004455566
 20
-9.114500999450684
 30
143.4655456542969
 70
   192
  0
VERTEX
  5
4DE
  8
0
 10
25.1324348449707
 20
-8.154261589050293
 30
143.4655456542969
 70
   192
  0
VERTEX
  5
4DF
  8
0
 10
25.01218605041504
 20
-7.130721092224121
 30
143.4655456542969
 70
   192
  0
VERTEX
  5
4E0
  8
0
 10
25.01218605041504
 20
7.130721092224121
 30
143.4655456542969
 70
   192
  0
VERTEX
  5
4E1
  8
0
 10
25.51478004455566
 20
9.114500999450684
 30
143.4655456542969
 70
   192
  0
VERTEX
  5
4E2
  8
0
 10
67.40047454833984
 20
9.114500999450684
 30
143.4655456542969
 70
   192
  0
VERTEX
  5
4E3
  8
0
 10
86.63910675048828
 20
17.64695739746094
 30
143.4655456542969
 70
   192
  0
VERTEX
  5
4E4
  8
0
 10
71.40047454833984
 20
5.114499568939209
 30
143.4655456542969
 70
   192
  0
VERTEX
  5
4E5
  8
0
 10
71.10001373291016
 20
6.646759510040283
 30
143.4655456542969
 70
   192
  0
VERTEX
  5
4E6
  8
0
 10
88.1272201538086
 20
13.00114440917969
 30
143.4655456542969
 70
   192
  0
VERTEX
  5
4E7
  8
0
 10
87.77213287353516
 20
15.34627914428711
 30
143.4655456542969
 70
   192
  0
VERTEX
  5
4E8
  8
0
 10
82.47235870361328
 20
-20.64376640319824
 30
143.4655456542969
 70
   192
  0
VERTEX
  5
4E9
  8
0
 10
88.1272201538086
 20
-12.99885559082031
 30
143.4655456542969
 70
   192
  0
VERTEX
  5
4EA
  8
0
 10
87.77449035644531
 20
-15.35472774505615
 30
143.4655456542969
 70
   192
  0
VERTEX
  5
4EB
  8
0
 10
67.40047454833984
 20
-9.114500999450684
 30
143.4655456542969
 70
   192
  0
VERTEX
  5
4EC
  8
0
 10
68.93143463134766
 20
-8.811430931091309
 30
143.4655456542969
 70
   192
  0
VERTEX
  5
4ED
  8
0
 10
86.63456726074219
 20
-17.65157508850098
 30
143.4655456542969
 70
   192
  0
VERTEX
  5
4EE
  8
0
 10
84.77303314208984
 20
-19.51073837280273
 30
143.4655456542969
 70
   192
  0
VERTEX
  5
4EF
  8
0
 10
71.09864807128906
 20
-6.650074481964111
 30
143.4655456542969
 70
   192
  0
VERTEX
  5
4F0
  8
0
 10
71.40047454833984
 20
-5.114500522613525
 30
143.4655456542969
 70
   192
  0
VERTEX
  5
4F1
  8
0
 10
70.22811126708984
 20
-7.944029808044434
 30
143.4655456542969
 70
   192
  0
VERTEX
  5
4F2
  8
0
 10
68.935302734375
 20
8.80982494354248
 30
143.4655456542969
 70
   192
  0
VERTEX
  5
4F3
  8
0
 10
70.23088836669922
 20
7.9412522315979
 30
143.4655456542969
 70
   192
  0
VERTEX
  5
4F4
  8
0
 10
23.48220825195312
 20
-9.526724815368652
 30
149.1155395507812
 70
   192
  0
VERTEX
  5
4F5
  8
0
 10
25.87821197509766
 20
-7.130721092224121
 30
144.9655456542969
 70
   192
  0
VERTEX
  5
4F6
  8
0
 10
25.87821197509766
 20
7.130721092224121
 30
144.9655456542969
 70
   192
  0
VERTEX
  5
4F7
  8
0
 10
23.48220825195312
 20
9.526724815368652
 30
149.1155395507812
 70
   192
  0
VERTEX
  5
4F8
  8
0
 10
28.73138046264648
 20
-9.980525970458984
 30
144.9655456542969
 70
   192
  0
VERTEX
  5
4F9
  8
0
 10
26.33537673950195
 20
-12.37652969360352
 30
149.1155395507812
 70
   192
  0
VERTEX
  5
4FA
  8
0
 10
25.48027992248535
 20
-12.51763248443604
 30
149.3599395751953
 70
   192
  0
VERTEX
  5
4FB
  8
0
 10
26.85153579711914
 20
-9.398689270019531
 30
143.957763671875
 70
   192
  0
VERTEX
  5
4FC
  8
0
 10
26.22361755371094
 20
-9.210320472717285
 30
143.6315002441406
 70
   192
  0
VERTEX
  5
4FD
  8
0
 10
28.10349655151367
 20
-9.787580490112305
 30
144.63134765625
 70
   192
  0
VERTEX
  5
4FE
  8
0
 10
27.47561454772949
 20
-9.59463119506836
 30
144.2971496582031
 70
   192
  0
VERTEX
  5
4FF
  8
0
 10
23.63475036621094
 20
-10.67949390411377
 30
149.1831512451172
 70
   192
  0
VERTEX
  5
500
  8
0
 10
27.55995178222656
 20
-9.84599781036377
 30
145.0611724853516
 70
   192
  0
VERTEX
  5
501
  8
0
 10
26.59708976745605
 20
-9.263040542602539
 30
145.0977020263672
 70
   192
  0
VERTEX
  5
502
  8
0
 10
26.01403427124023
 20
-8.294983863830566
 30
145.0611572265625
 70
   192
  0
VERTEX
  5
503
  8
0
 10
24.22441482543945
 20
-11.63920307159424
 30
149.2086791992188
 70
   192
  0
VERTEX
  5
504
  8
0
 10
25.18260192871094
 20
-12.22823810577393
 30
149.1830444335938
 70
   192
  0
VERTEX
  5
505
  8
0
 10
26.33537673950195
 20
12.37652969360352
 30
149.1155395507812
 70
   192
  0
VERTEX
  5
506
  8
0
 10
25.18043518066406
 20
12.22751903533936
 30
149.1831512451172
 70
   192
  0
VERTEX
  5
507
  8
0
 10
27.56589698791504
 20
9.847886085510254
 30
145.0607757568359
 70
   192
  0
VERTEX
  5
508
  8
0
 10
26.01574325561523
 20
8.30030632019043
 30
145.0614929199219
 70
   192
  0
VERTEX
  5
509
  8
0
 10
26.60015487670898
 20
9.26611328125
 30
145.0977020263672
 70
   192
  0
VERTEX
  5
50A
  8
0
 10
24.22324752807617
 20
11.63803291320801
 30
149.2086791992188
 70
   192
  0
VERTEX
  5
50B
  8
0
 10
23.63409233093262
 20
10.67752742767334
 30
149.1830596923828
 70
   192
  0
VERTEX
  5
50C
  8
0
 10
28.73138046264648
 20
9.980525970458984
 30
144.9655456542969
 70
   192
  0
VERTEX
  5
50D
  8
0
 10
25.48030853271484
 20
12.51762866973877
 30
149.3599243164062
 70
   192
  0
VERTEX
  5
50E
  8
0
 10
28.10349464416504
 20
9.787583351135254
 30
144.63134765625
 70
   192
  0
VERTEX
  5
50F
  8
0
 10
27.47397232055664
 20
9.595932960510254
 30
144.2993927001953
 70
   192
  0
VERTEX
  5
510
  8
0
 10
26.86574172973633
 20
9.382932662963867
 30
143.9304809570312
 70
   192
  0
VERTEX
  5
511
  8
0
 10
26.22370719909668
 20
9.210219383239746
 30
143.6313323974609
 70
   192
  0
VERTEX
  5
512
  8
0
 10
26.75081253051758
 20
-9.117168426513672
 30
144.6335754394531
 70
   192
  0
VERTEX
  5
513
  8
0
 10
25.71870231628418
 20
-8.407492637634277
 30
143.5911560058594
 70
   192
  0
VERTEX
  5
514
  8
0
 10
26.1002368927002
 20
-8.265812873840332
 30
144.0156402587891
 70
   192
  0
VERTEX
  5
515
  8
0
 10
25.87821197509766
 20
-7.130721092224121
 30
143.9655456542969
 70
   192
  0
VERTEX
  5
516
  8
0
 10
25.47850799560547
 20
-7.130721092224121
 30
143.5809326171875
 70
   192
  0
VERTEX
  5
517
  8
0
 10
26.01144599914551
 20
-7.130721092224121
 30
144.5039978027344
 70
   192
  0
VERTEX
  5
518
  8
0
 10
26.19255256652832
 20
-8.231340408325195
 30
144.5960998535156
 70
   192
  0
VERTEX
  5
519
  8
0
 10
25.87821197509766
 20
7.130721092224121
 30
143.9655456542969
 70
   192
  0
VERTEX
  5
51A
  8
0
 10
25.47850799560547
 20
7.130721092224121
 30
143.5809326171875
 70
   192
  0
VERTEX
  5
51B
  8
0
 10
26.01144599914551
 20
7.130721092224121
 30
144.5039978027344
 70
   192
  0
VERTEX
  5
51C
  8
0
 10
25.72305679321289
 20
8.422870635986328
 30
143.5913696289062
 70
   192
  0
VERTEX
  5
51D
  8
0
 10
26.10415840148926
 20
8.276836395263672
 30
144.0167694091797
 70
   192
  0
VERTEX
  5
51E
  8
0
 10
26.76275634765625
 20
9.129100799560547
 30
144.6336212158203
 70
   192
  0
VERTEX
  5
51F
  8
0
 10
26.19553184509277
 20
8.243081092834473
 30
144.5979919433594
 70
   192
  0
VERTEX
  5
520
  8
0
 10
24.07107353210449
 20
-11.82600879669189
 30
149.3981170654297
 70
   192
  0
VERTEX
  5
521
  8
0
 10
23.40743446350098
 20
-10.77835369110107
 30
149.3911285400391
 70
   192
  0
VERTEX
  5
522
  8
0
 10
23.22599029541016
 20
-9.526724815368652
 30
149.3717651367188
 70
   192
  0
VERTEX
  5
523
  8
0
 10
23.22599029541016
 20
9.526724815368652
 30
149.3717651367188
 70
   192
  0
VERTEX
  5
524
  8
0
 10
24.05673789978027
 20
11.81157779693604
 30
149.3981018066406
 70
   192
  0
VERTEX
  5
525
  8
0
 10
23.40542984008789
 20
10.76454162597656
 30
149.3908996582031
 70
   192
  0
VERTEX
  5
526
  8
0
 10
-10.37172603607178
 20
-12.0095911026001
 30
127.793342590332
 70
   192
  0
VERTEX
  5
527
  8
0
 10
-11.14741802215576
 20
-9.316215515136719
 30
129.010986328125
 70
   192
  0
VERTEX
  5
528
  8
0
 10
-12.1013126373291
 20
-3.227744579315186
 30
130.5083465576172
 70
   192
  0
VERTEX
  5
529
  8
0
 10
-12.22547149658203
 20
0.0073145083151758
 30
130.7032470703125
 70
   192
  0
VERTEX
  5
52A
  8
0
 10
-10.36823177337646
 20
12.01736831665039
 30
127.7878570556641
 70
   192
  0
VERTEX
  5
52B
  8
0
 10
-9.443938255310059
 20
14.4015531539917
 30
126.3369522094727
 70
   192
  0
VERTEX
  5
52C
  8
0
 10
-7.370365142822266
 20
14.4015531539917
 30
127.4682693481445
 70
   192
  0
VERTEX
  5
52D
  8
0
 10
-5.712215423583984
 20
18.16567039489746
 30
123.8687515258789
 70
   192
  0
VERTEX
  5
52E
  8
0
 10
-6.567343235015869
 20
16.45279502868652
 30
125.7250671386719
 70
   192
  0
VERTEX
  5
52F
  8
0
 10
-3.99827241897583
 20
18.16567039489746
 30
124.5209426879883
 70
   192
  0
VERTEX
  5
530
  8
0
 10
-5.152478218078613
 20
14.4015531539917
 30
128.3122253417969
 70
   192
  0
VERTEX
  5
531
  8
0
 10
-2.851365327835083
 20
14.4015531539917
 30
128.8455657958984
 70
   192
  0
VERTEX
  5
532
  8
0
 10
-5.653498649597168
 20
12.01736831665039
 30
129.9579467773438
 70
   192
  0
VERTEX
  5
533
  8
0
 10
-3.125423908233643
 20
12.01736831665039
 30
130.5438995361328
 70
   192
  0
VERTEX
  5
534
  8
0
 10
-0.0727718248963356
 20
11.91326427459717
 30
130.8536529541016
 70
   192
  0
VERTEX
  5
535
  8
0
 10
-2.694859504699707
 20
9.651274681091309
 30
131.9158172607422
 70
   192
  0
VERTEX
  5
536
  8
0
 10
-11.14406394958496
 20
9.326395034790039
 30
129.0057220458984
 70
   192
  0
VERTEX
  5
537
  8
0
 10
-11.73213768005371
 20
6.377583980560303
 30
129.9288482666016
 70
   192
  0
VERTEX
  5
538
  8
0
 10
-5.655392646789551
 20
-12.0095911026001
 30
129.9641723632812
 70
   192
  0
VERTEX
  5
539
  8
0
 10
-3.844105243682861
 20
-9.260445594787598
 30
131.9148101806641
 70
   192
  0
VERTEX
  5
53A
  8
0
 10
-3.126459836959839
 20
-12.0095911026001
 30
130.5503234863281
 70
   192
  0
VERTEX
  5
53B
  8
0
 10
-9.447084426879883
 20
-14.39587783813477
 30
126.3418884277344
 70
   192
  0
VERTEX
  5
53C
  8
0
 10
-6.569262027740479
 20
-16.4486255645752
 30
125.7292327880859
 70
   192
  0
VERTEX
  5
53D
  8
0
 10
-7.372814655303955
 20
-14.39587783813477
 30
127.4735870361328
 70
   192
  0
VERTEX
  5
53E
  8
0
 10
-1.955163359642029
 20
-9.820087432861328
 30
131.9147796630859
 70
   192
  0
VERTEX
  5
53F
  8
0
 10
-0.0727769285440445
 20
-9.998855590820312
 30
131.9158477783203
 70
   192
  0
VERTEX
  5
540
  8
0
 10
-0.0727718248963356
 20
-11.91201591491699
 30
130.8544311523438
 70
   192
  0
VERTEX
  5
541
  8
0
 10
-8.092860221862793
 20
-12.0095911026001
 30
129.0366668701172
 70
   192
  0
VERTEX
  5
542
  8
0
 10
-5.713488578796387
 20
-18.16229438781738
 30
123.8715133666992
 70
   192
  0
VERTEX
  5
543
  8
0
 10
-3.999158382415771
 20
-18.16229438781738
 30
124.5238494873047
 70
   192
  0
VERTEX
  5
544
  8
0
 10
-4.594845771789551
 20
-16.4486255645752
 30
126.4805374145508
 70
   192
  0
VERTEX
  5
545
  8
0
 10
-1.885398268699646
 20
-19.54824066162109
 30
122.8594970703125
 70
   192
  0
VERTEX
  5
546
  8
0
 10
-3.386544466018677
 20
-19.54824066162109
 30
122.5115661621094
 70
   192
  0
VERTEX
  5
547
  8
0
 10
-2.220498561859131
 20
-18.16229438781738
 30
124.9361038208008
 70
   192
  0
VERTEX
  5
548
  8
0
 10
-12.09984111785889
 20
3.241787672042847
 30
130.5060424804688
 70
   192
  0
VERTEX
  5
549
  8
0
 10
-9.716292381286621
 20
-2.645473957061768
 30
131.9151611328125
 70
   192
  0
VERTEX
  5
54A
  8
0
 10
-9.15432071685791
 20
-6.365152359008789
 30
131.3408813476562
 70
   192
  0
VERTEX
  5
54B
  8
0
 10
-8.702754974365234
 20
-5.050978660583496
 30
131.9150238037109
 70
   192
  0
VERTEX
  5
54C
  8
0
 10
-11.73479461669922
 20
-6.365152359008789
 30
129.9330139160156
 70
   192
  0
VERTEX
  5
54D
  8
0
 10
-8.090139389038086
 20
12.01736831665039
 30
129.03076171875
 70
   192
  0
VERTEX
  5
54E
  8
0
 10
-8.69430160522461
 20
9.326395034790039
 30
130.3422698974609
 70
   192
  0
VERTEX
  5
54F
  8
0
 10
-9.152251243591309
 20
6.377583980560303
 30
131.3363952636719
 70
   192
  0
VERTEX
  5
550
  8
0
 10
-9.31066608428955
 20
3.830335378646851
 30
131.9154968261719
 70
   192
  0
VERTEX
  5
551
  8
0
 10
-9.890203475952148
 20
1.903272271156311
 30
131.9154052734375
 70
   192
  0
VERTEX
  5
552
  8
0
 10
-10.07259654998779
 20
-0.0590322911739349
 30
131.9152984619141
 70
   192
  0
VERTEX
  5
553
  8
0
 10
-8.696913719177246
 20
-9.316215515136719
 30
130.3479461669922
 70
   192
  0
VERTEX
  5
554
  8
0
 10
-5.154183387756348
 20
-14.39587783813477
 30
128.3178253173828
 70
   192
  0
VERTEX
  5
555
  8
0
 10
-3.38609766960144
 20
19.55148315429688
 30
122.5101013183594
 70
   192
  0
VERTEX
  5
556
  8
0
 10
-4.593510150909424
 20
16.45279502868652
 30
126.4761505126953
 70
   192
  0
VERTEX
  5
557
  8
0
 10
-7.21949291229248
 20
6.995745658874512
 30
131.9156951904297
 70
   192
  0
VERTEX
  5
558
  8
0
 10
-6.074044704437256
 20
9.326395034790039
 30
131.3393402099609
 70
   192
  0
VERTEX
  5
559
  8
0
 10
-7.101815223693848
 20
-7.111703395843506
 30
131.9149169921875
 70
   192
  0
VERTEX
  5
55A
  8
0
 10
-6.075862407684326
 20
-9.316215515136719
 30
131.3453063964844
 70
   192
  0
VERTEX
  5
55B
  8
0
 10
-2.220013856887817
 20
18.16567039489746
 30
124.93310546875
 70
   192
  0
VERTEX
  5
55C
  8
0
 10
-1.885153889656067
 20
19.55148315429688
 30
122.8579864501953
 70
   192
  0
VERTEX
  5
55D
  8
0
 10
-2.545609474182129
 20
16.45279502868652
 30
126.9508056640625
 70
   192
  0
VERTEX
  5
55E
  8
0
 10
-5.134087562561035
 20
8.625761032104492
 30
131.9157409667969
 70
   192
  0
VERTEX
  5
55F
  8
0
 10
-2.852298021316528
 20
-14.39587783813477
 30
128.8513488769531
 70
   192
  0
VERTEX
  5
560
  8
0
 10
-2.546339988708496
 20
-16.4486255645752
 30
126.9553375244141
 70
   192
  0
VERTEX
  5
561
  8
0
 10
-0.0727706030011177
 20
20.50627136230469
 30
121.1754684448242
 70
   192
  0
VERTEX
  5
562
  8
0
 10
-0.0727666318416595
 20
19.48877906799316
 30
123.1111297607422
 70
   192
  0
VERTEX
  5
563
  8
0
 10
-0.0727641880512238
 20
16.91780281066895
 30
126.6432113647461
 70
   192
  0
VERTEX
  5
564
  8
0
 10
-0.0727679952979088
 20
13.71530055999756
 30
129.6148834228516
 70
   192
  0
VERTEX
  5
565
  8
0
 10
-0.0727679878473282
 20
-13.71315956115723
 30
129.6136169433594
 70
   192
  0
VERTEX
  5
566
  8
0
 10
-0.0727641880512238
 20
-16.91501808166504
 30
126.6414337158203
 70
   192
  0
VERTEX
  5
567
  8
0
 10
-0.072764553129673
 20
-18.28598976135254
 30
124.9378128051758
 70
   192
  0
VERTEX
  5
568
  8
0
 10
-0.0727706104516983
 20
-20.50440788269043
 30
121.1748504638672
 70
   192
  0
VERTEX
  5
569
  8
0
 10
-0.0727645456790924
 20
18.28883171081543
 30
124.9393997192383
 70
   192
  0
VERTEX
  5
56A
  8
0
 10
-0.0727653875946999
 20
15.38852787017822
 30
128.2066192626953
 70
   192
  0
VERTEX
  5
56B
  8
0
 10
-0.0727768540382385
 20
10.00114440917969
 30
131.9158630371094
 70
   192
  0
VERTEX
  5
56C
  8
0
 10
-0.0727653875946999
 20
-15.38600158691406
 30
128.2048950195312
 70
   192
  0
VERTEX
  5
56D
  8
0
 10
-0.0727666392922401
 20
-19.48616790771484
 30
123.1099166870117
 70
   192
  0
VERTEX
  5
56E
  8
0
 10
8.267144203186035
 20
-5.502262592315674
 30
131.9149932861328
 70
   192
  0
VERTEX
  5
56F
  8
0
 10
9.165785789489746
 20
-3.828464984893799
 30
131.9153594970703
 70
   192
  0
VERTEX
  5
570
  8
0
 10
8.781961441040039
 20
-6.532706260681152
 30
131.3895874023438
 70
   192
  0
VERTEX
  5
571
  8
0
 10
1.222200036048889
 20
-20.85259056091309
 30
120.2969360351562
 70
   192
  0
VERTEX
  5
572
  8
0
 10
1.540825605392456
 20
-19.80899620056152
 30
122.4302368164062
 70
   192
  0
VERTEX
  5
573
  8
0
 10
2.467915534973145
 20
-14.69409370422363
 30
128.6373748779297
 70
   192
  0
VERTEX
  5
574
  8
0
 10
4.731736183166504
 20
-14.69409370422363
 30
128.1413879394531
 70
   192
  0
VERTEX
  5
575
  8
0
 10
4.174313545227051
 20
-16.7507209777832
 30
126.2253341674805
 70
   192
  0
VERTEX
  5
576
  8
0
 10
2.55095386505127
 20
-9.648531913757324
 30
131.9157867431641
 70
   192
  0
VERTEX
  5
577
  8
0
 10
2.733178377151489
 20
-12.28410053253174
 30
130.4133911132812
 70
   192
  0
VERTEX
  5
578
  8
0
 10
7.077562808990479
 20
-6.989752769470215
 30
131.9149475097656
 70
   192
  0
VERTEX
  5
579
  8
0
 10
8.312285423278809
 20
-9.54660415649414
 30
130.34130859375
 70
   192
  0
VERTEX
  5
57A
  8
0
 10
9.118671417236328
 20
3.93974781036377
 30
131.9149627685547
 70
   192
  0
VERTEX
  5
57B
  8
0
 10
11.45327568054199
 20
6.542741298675537
 30
129.9542083740234
 70
   192
  0
VERTEX
  5
57C
  8
0
 10
11.83758354187012
 20
3.326580047607422
 30
130.5653076171875
 70
   192
  0
VERTEX
  5
57D
  8
0
 10
13.17366123199463
 20
-9.54660415649414
 30
127.2817001342773
 70
   192
  0
VERTEX
  5
57E
  8
0
 10
15.23086261749268
 20
-9.54660415649414
 30
125.277587890625
 70
   192
  0
VERTEX
  5
57F
  8
0
 10
14.10244846343994
 20
-12.28410053253174
 30
124.2710266113281
 70
   192
  0
VERTEX
  5
580
  8
0
 10
5.230422496795654
 20
12.2918643951416
 30
129.8555603027344
 70
   192
  0
VERTEX
  5
581
  8
0
 10
7.689724445343018
 20
12.2918643951416
 30
128.9517974853516
 70
   192
  0
VERTEX
  5
582
  8
0
 10
8.308859825134277
 20
9.556168556213379
 30
130.3336639404297
 70
   192
  0
VERTEX
  5
583
  8
0
 10
6.139402389526367
 20
16.75389099121094
 30
125.4916000366211
 70
   192
  0
VERTEX
  5
584
  8
0
 10
9.077618598937988
 20
14.69948768615723
 30
126.176643371582
 70
   192
  0
VERTEX
  5
585
  8
0
 10
6.955158710479736
 20
14.69948768615723
 30
127.3123092651367
 70
   192
  0
VERTEX
  5
586
  8
0
 10
5.653405666351318
 20
9.556168556213379
 30
131.3095092773438
 70
   192
  0
VERTEX
  5
587
  8
0
 10
2.466246128082275
 20
14.69948768615723
 30
128.6262054443359
 70
   192
  0
VERTEX
  5
588
  8
0
 10
2.731629610061646
 20
12.2918643951416
 30
130.4030303955078
 70
   192
  0
VERTEX
  5
589
  8
0
 10
4.728579521179199
 20
14.69948768615723
 30
128.1305389404297
 70
   192
  0
VERTEX
  5
58A
  8
0
 10
1.221251010894775
 20
20.85350036621094
 30
120.2905883789062
 70
   192
  0
VERTEX
  5
58B
  8
0
 10
1.859223484992981
 20
18.45236015319824
 30
124.5620040893555
 70
   192
  0
VERTEX
  5
58C
  8
0
 10
3.580693006515503
 20
18.45236015319824
 30
124.1848449707031
 70
   192
  0
VERTEX
  5
58D
  8
0
 10
4.171268463134766
 20
16.75389099121094
 30
126.2148666381836
 70
   192
  0
VERTEX
  5
58E
  8
0
 10
1.808677434921265
 20
9.822555541992188
 30
131.9147186279297
 70
   192
  0
VERTEX
  5
58F
  8
0
 10
2.171530246734619
 20
16.75389099121094
 30
126.6529922485352
 70
   192
  0
VERTEX
  5
590
  8
0
 10
6.954680442810059
 20
7.115555286407471
 30
131.9148559570312
 70
   192
  0
VERTEX
  5
591
  8
0
 10
8.779777526855469
 20
6.542741298675537
 30
131.3847198486328
 70
   192
  0
VERTEX
  5
592
  8
0
 10
10.84013938903809
 20
9.556168556213379
 30
128.979248046875
 70
   192
  0
VERTEX
  5
593
  8
0
 10
14.3784818649292
 20
3.326580047607422
 30
128.7056121826172
 70
   192
  0
VERTEX
  5
594
  8
0
 10
14.53782367706299
 20
0.0027078692801297
 30
128.8939361572266
 70
   192
  0
VERTEX
  5
595
  8
0
 10
9.831066131591797
 20
1.385088562965393
 30
131.9151458740234
 70
   192
  0
VERTEX
  5
596
  8
0
 10
11.96890830993652
 20
0.0027078692801297
 30
130.7741241455078
 70
   192
  0
VERTEX
  5
597
  8
0
 10
9.84596061706543
 20
-1.268436193466187
 30
131.9151153564453
 70
   192
  0
VERTEX
  5
598
  8
0
 10
11.83874797821045
 20
-3.31792426109314
 30
130.5671539306641
 70
   192
  0
VERTEX
  5
599
  8
0
 10
11.4561185836792
 20
-6.532706260681152
 30
129.9587249755859
 70
   192
  0
VERTEX
  5
59A
  8
0
 10
10.84459972381592
 20
-9.54660415649414
 30
128.9863433837891
 70
   192
  0
VERTEX
  5
59B
  8
0
 10
7.694011211395264
 20
-12.28410053253174
 30
128.9613647460938
 70
   192
  0
VERTEX
  5
59C
  8
0
 10
5.655745983123779
 20
-9.54660415649414
 30
131.3175506591797
 70
   192
  0
VERTEX
  5
59D
  8
0
 10
10.03960609436035
 20
-12.28410053253174
 30
127.7063140869141
 70
   192
  0
VERTEX
  5
59E
  8
0
 10
6.959779739379883
 20
-14.69409370422363
 30
127.3226165771484
 70
   192
  0
VERTEX
  5
59F
  8
0
 10
5.233351230621338
 20
-12.28410053253174
 30
129.8656311035156
 70
   192
  0
VERTEX
  5
5A0
  8
0
 10
2.173140525817871
 20
-16.7507209777832
 30
126.6637725830078
 70
   192
  0
VERTEX
  5
5A1
  8
0
 10
1.860648989677429
 20
-18.45077514648438
 30
124.5715484619141
 70
   192
  0
VERTEX
  5
5A2
  8
0
 10
2.374279737472534
 20
20.85350036621094
 30
120.0379638671875
 70
   192
  0
VERTEX
  5
5A3
  8
0
 10
1.539641499519348
 20
19.80983924865723
 30
122.4223022460938
 70
   192
  0
VERTEX
  5
5A4
  8
0
 10
4.991421222686768
 20
-8.621766090393066
 30
131.9157104492188
 70
   192
  0
VERTEX
  5
5A5
  8
0
 10
3.583388566970825
 20
-18.45077514648438
 30
124.1941070556641
 70
   192
  0
VERTEX
  5
5A6
  8
0
 10
5.274956226348877
 20
18.45236015319824
 30
123.5622253417969
 70
   192
  0
VERTEX
  5
5A7
  8
0
 10
2.976359844207764
 20
19.80983924865723
 30
122.1075286865234
 70
   192
  0
VERTEX
  5
5A8
  8
0
 10
3.751506328582764
 20
9.240995407104492
 30
131.9147491455078
 70
   192
  0
VERTEX
  5
5A9
  8
0
 10
2.978599071502686
 20
-19.80899620056152
 30
122.1152267456055
 70
   192
  0
VERTEX
  5
5AA
  8
0
 10
2.376074552536011
 20
-20.85259056091309
 30
120.0441360473633
 70
   192
  0
VERTEX
  5
5AB
  8
0
 10
4.390372276306152
 20
19.80983924865723
 30
121.5879058837891
 70
   192
  0
VERTEX
  5
5AC
  8
0
 10
8.0155029296875
 20
16.75389099121094
 30
124.4877624511719
 70
   192
  0
VERTEX
  5
5AD
  8
0
 10
6.895129680633545
 20
-18.45077514648438
 30
122.7062377929688
 70
   192
  0
VERTEX
  5
5AE
  8
0
 10
6.14385986328125
 20
-16.7507209777832
 30
125.5015487670898
 70
   192
  0
VERTEX
  5
5AF
  8
0
 10
8.021306037902832
 20
-16.7507209777832
 30
124.4969863891602
 70
   192
  0
VERTEX
  5
5B0
  8
0
 10
5.278902053833008
 20
-18.45077514648438
 30
123.5710296630859
 70
   192
  0
VERTEX
  5
5B1
  8
0
 10
4.393649578094482
 20
-19.80899620056152
 30
121.59521484375
 70
   192
  0
VERTEX
  5
5B2
  8
0
 10
6.889992237091064
 20
18.45236015319824
 30
122.6980667114258
 70
   192
  0
VERTEX
  5
5B3
  8
0
 10
9.741020202636719
 20
16.75389099121094
 30
123.224853515625
 70
   192
  0
VERTEX
  5
5B4
  8
0
 10
11.02972221374512
 20
14.69948768615723
 30
124.7478942871094
 70
   192
  0
VERTEX
  5
5B5
  8
0
 10
10.03402423858643
 20
12.2918643951416
 30
127.6974411010742
 70
   192
  0
VERTEX
  5
5B6
  8
0
 10
15.22461032867432
 20
9.556168556213379
 30
125.2720108032227
 70
   192
  0
VERTEX
  5
5B7
  8
0
 10
16.08408355712891
 20
6.542741298675537
 30
126.0386810302734
 70
   192
  0
VERTEX
  5
5B8
  8
0
 10
13.16824913024902
 20
9.556168556213379
 30
127.2753067016602
 70
   192
  0
VERTEX
  5
5B9
  8
0
 10
8.185409545898438
 20
5.625350952148438
 30
131.9143524169922
 70
   192
  0
VERTEX
  5
5BA
  8
0
 10
9.748062133789062
 20
-16.7507209777832
 30
123.2331695556641
 70
   192
  0
VERTEX
  5
5BB
  8
0
 10
9.083635330200195
 20
-14.69409370422363
 30
126.1862106323242
 70
   192
  0
VERTEX
  5
5BC
  8
0
 10
11.03702163696289
 20
-14.69409370422363
 30
124.7565231323242
 70
   192
  0
VERTEX
  5
5BD
  8
0
 10
5.74252986907959
 20
-19.80899620056152
 30
120.8734741210938
 70
   192
  0
VERTEX
  5
5BE
  8
0
 10
6.983143329620361
 20
-19.80899620056152
 30
119.9654693603516
 70
   192
  0
VERTEX
  5
5BF
  8
0
 10
5.738262176513672
 20
19.80983924865723
 30
120.8666915893555
 70
   192
  0
VERTEX
  5
5C0
  8
0
 10
6.977965831756592
 20
19.80983924865723
 30
119.9593505859375
 70
   192
  0
VERTEX
  5
5C1
  8
0
 10
8.375399589538574
 20
18.45236015319824
 30
121.6109008789062
 70
   192
  0
VERTEX
  5
5C2
  8
0
 10
14.20712184906006
 20
14.69948768615723
 30
121.1931838989258
 70
   192
  0
VERTEX
  5
5C3
  8
0
 10
12.75396633148193
 20
14.69948768615723
 30
123.0681533813477
 70
   192
  0
VERTEX
  5
5C4
  8
0
 10
11.26512622833252
 20
16.75389099121094
 30
121.7400741577148
 70
   192
  0
VERTEX
  5
5C5
  8
0
 10
12.19016170501709
 20
12.2918643951416
 30
126.1193618774414
 70
   192
  0
VERTEX
  5
5C6
  8
0
 10
13.91218757629395
 20
6.542741298675537
 30
128.1545257568359
 70
   192
  0
VERTEX
  5
5C7
  8
0
 10
18.51606941223145
 20
-3.31792426109314
 30
124.0799407958984
 70
   192
  0
VERTEX
  5
5C8
  8
0
 10
19.37604713439941
 20
-6.532706260681152
 30
121.1517486572266
 70
   192
  0
VERTEX
  5
5C9
  8
0
 10
17.91894912719727
 20
-6.532706260681152
 30
123.6799011230469
 70
   192
  0
VERTEX
  5
5CA
  8
0
 10
14.3798942565918
 20
-3.31792426109314
 30
128.7072906494141
 70
   192
  0
VERTEX
  5
5CB
  8
0
 10
13.9156379699707
 20
-6.532706260681152
 30
128.1585998535156
 70
   192
  0
VERTEX
  5
5CC
  8
0
 10
12.19693470001221
 20
-12.28410053253174
 30
126.1273651123047
 70
   192
  0
VERTEX
  5
5CD
  8
0
 10
8.381632804870605
 20
-18.45077514648438
 30
121.6182632446289
 70
   192
  0
VERTEX
  5
5CE
  8
0
 10
11.27326202392578
 20
-16.7507209777832
 30
121.7473373413086
 70
   192
  0
VERTEX
  5
5CF
  8
0
 10
9.694623947143555
 20
-18.45077514648438
 30
120.3391571044922
 70
   192
  0
VERTEX
  5
5D0
  8
0
 10
9.687422752380371
 20
18.45236015319824
 30
120.3327331542969
 70
   192
  0
VERTEX
  5
5D1
  8
0
 10
14.09462451934814
 20
12.2918643951416
 30
124.264045715332
 70
   192
  0
VERTEX
  5
5D2
  8
0
 10
19.37125015258789
 20
6.542741298675537
 30
121.1493988037109
 70
   192
  0
VERTEX
  5
5D3
  8
0
 10
17.91451072692871
 20
6.542741298675537
 30
123.6769332885742
 70
   192
  0
VERTEX
  5
5D4
  8
0
 10
16.95766639709473
 20
9.556168556213379
 30
123.0358963012695
 70
   192
  0
VERTEX
  5
5D5
  8
0
 10
16.62279510498047
 20
3.326580047607422
 30
126.5192184448242
 70
   192
  0
VERTEX
  5
5D6
  8
0
 10
16.80688095092773
 20
0.0027078692801297
 30
126.6834335327148
 70
   192
  0
VERTEX
  5
5D7
  8
0
 10
16.62442588806152
 20
-3.31792426109314
 30
126.5206756591797
 70
   192
  0
VERTEX
  5
5D8
  8
0
 10
16.08806991577148
 20
-6.532706260681152
 30
126.042236328125
 70
   192
  0
VERTEX
  5
5D9
  8
0
 10
14.21650981903076
 20
-14.69409370422363
 30
121.1994705200195
 70
   192
  0
VERTEX
  5
5DA
  8
0
 10
12.76239967346191
 20
-14.69409370422363
 30
123.0756759643555
 70
   192
  0
VERTEX
  5
5DB
  8
0
 10
15.70837497711182
 20
-12.28410053253174
 30
122.1989364624023
 70
   192
  0
VERTEX
  5
5DC
  8
0
 10
12.54961013793945
 20
16.75389099121094
 30
120.0827407836914
 70
   192
  0
VERTEX
  5
5DD
  8
0
 10
15.69966411590576
 20
12.2918643951416
 30
122.1931076049805
 70
   192
  0
VERTEX
  5
5DE
  8
0
 10
18.51425170898438
 20
3.326580047607422
 30
124.0787200927734
 70
   192
  0
VERTEX
  5
5DF
  8
0
 10
18.71919441223145
 20
0.0027078692801297
 30
124.2160263061523
 70
   192
  0
VERTEX
  5
5E0
  8
0
 10
20.24110221862793
 20
0.0027078692801297
 30
121.5754165649414
 70
   192
  0
VERTEX
  5
5E1
  8
0
 10
20.02152633666992
 20
-3.31792426109314
 30
121.4678802490234
 70
   192
  0
VERTEX
  5
5E2
  8
0
 10
16.96462821960449
 20
-9.54660415649414
 30
123.0405578613281
 70
   192
  0
VERTEX
  5
5E3
  8
0
 10
12.55866718292236
 20
-16.7507209777832
 30
120.0888061523438
 70
   192
  0
VERTEX
  5
5E4
  8
0
 10
16.97702789306641
 20
12.2918643951416
 30
119.9767913818359
 70
   192
  0
VERTEX
  5
5E5
  8
0
 10
18.3369140625
 20
9.556168556213379
 30
120.6428146362305
 70
   192
  0
VERTEX
  5
5E6
  8
0
 10
20.01956176757812
 20
3.326580047607422
 30
121.4669189453125
 70
   192
  0
VERTEX
  5
5E7
  8
0
 10
18.34443855285645
 20
-9.54660415649414
 30
120.6464996337891
 70
   192
  0
VERTEX
  5
5E8
  8
0
 10
16.9864444732666
 20
-12.28410053253174
 30
119.9814071655273
 70
   192
  0
VERTEX
  5
5E9
  8
0
 10
-21.09244918823242
 20
-3.185552358627319
 30
143.4344177246094
 70
   192
  0
VERTEX
  5
5EA
  8
0
 10
-21.2384204864502
 20
-1.96712052822113
 30
141.7659606933594
 70
   192
  0
VERTEX
  5
5EB
  8
0
 10
-21.27981376647949
 20
-1.03456699848175
 30
141.2928314208984
 70
   192
  0
VERTEX
  5
5EC
  8
0
 10
-21.2940673828125
 20
0.0016052995342761
 30
141.1299285888672
 70
   192
  0
VERTEX
  5
5ED
  8
0
 10
-21.17386245727539
 20
-2.709021091461182
 30
142.5038757324219
 70
   192
  0
VERTEX
  5
5EE
  8
0
 10
-21.27975654602051
 20
1.036310315132141
 30
141.2934875488281
 70
   192
  0
VERTEX
  5
5EF
  8
0
 10
-21.23827934265137
 20
1.969557285308838
 30
141.7675628662109
 70
   192
  0
VERTEX
  5
5F0
  8
0
 10
-21.17373847961426
 20
2.710127115249634
 30
142.5052795410156
 70
   192
  0
VERTEX
  5
5F1
  8
0
 10
-21.09228706359863
 20
3.186273097991943
 30
143.436279296875
 70
   192
  0
VERTEX
  5
5F2
  8
0
 62
   251
 10
0.0
 20
0.0
 30
0.0
 70
   128
 71
     3
 72
     2
 73
     1
  0
VERTEX
  5
5F3
  8
0
 62
   251
 10
0.0
 20
0.0
 30
0.0
 70
   128
 71
     6
 72
     5
 73
     4
  0
VERTEX
  5
5F4
  8
0
 62
   251
 10
0.0
 20
0.0
 30
0.0
 70
   128
 71
     5
 72
     6
 73
     7
  0
VERTEX
  5
5F5
  8
0
 62
   251
 10
0.0
 20
0.0
 30
0.0
 70
   128
 71
    10
 72
     9
 73
     8
  0
VERTEX
  5
5F6
  8
0
 62
   251
 10
0.0
 20
0.0
 30
0.0
 70
   128
 71
    10
 72
     7
 73
     9
  0
VERTEX
  5
5F7
  8
0
 62
   251
 10
0.0
 20
0.0
 30
0.0
 70
   128
 71
    10
 72
     8
 73
    11
  0
VERTEX
  5
5F8
  8
0
 62
   251
 10
0.0
 20
0.0
 30
0.0
 70
   128
 71
    11
 72
    13
 73
    12
  0
VERTEX
  5
5F9
  8
0
 62
   251
 10
0.0
 20
0.0
 30
0.0
 70
   128
 71
    11
 72
     8
 73
    13
  0
VERTEX
  5
5FA
  8
0
 62
   251
 10
0.0
 20
0.0
 30
0.0
 70
   128
 71
    14
 72
    12
 73
    13
  0
VERTEX
  5
5FB
  8
0
 62
   251
 10
0.0
 20
0.0
 30
0.0
 70
   128
 71
    14
 72
    15
 73
    12
  0
VERTEX
  5
5FC
  8
0
 62
   251
 10
0.0
 20
0.0
 30
0.0
 70
   128
 71
     6
 72
     9
 73
     7
  0
VERTEX
  5
5FD
  8
0
 62
   251
 10
0.0
 20
0.0
 30
0.0
 70
   128
 71
     5
 72
     1
 73
     4
  0
VERTEX
  5
5FE
  8
0
 62
   251
 10
0.0
 20
0.0
 30
0.0
 70
   128
 71
     3
 72
    16
 73
     2
  0
VERTEX
  5
5FF
  8
0
 62
   251
 10
0.0
 20
0.0
 30
0.0
 70
   128
 71
     1
 72
     2
 73
     4
  0
VERTEX
  5
600
  8
0
 62
   251
 10
0.0
 20
0.0
 30
0.0
 70
   128
 71
    17
 72
    16
 73
     3
  0
VERTEX
  5
601
  8
0
 62
   251
 10
0.0
 20
0.0
 30
0.0
 70
   128
 71
    17
 72
    19
 73
    18
  0
VERTEX
  5
602
  8
0
 62
   251
 10
0.0
 20
0.0
 30
0.0
 70
   128
 71
    16
 72
    17
 73
    18
  0
VERTEX
  5
603
  8
0
 62
   251
 10
0.0
 20
0.0
 30
0.0
 70
   128
 71
    21
 72
    19
 73
    20
  0
VERTEX
  5
604
  8
0
 62
   251
 10
0.0
 20
0.0
 30
0.0
 70
   128
 71
    17
 72
    20
 73
    19
  0
VERTEX
  5
605
  8
0
 62
   251
 10
0.0
 20
0.0
 30
0.0
 70
   128
 71
    22
 72
    21
 73
    20
  0
VERTEX
  5
606
  8
0
 62
   251
 10
0.0
 20
0.0
 30
0.0
 70
   128
 71
    25
 72
    24
 73
    23
  0
VERTEX
  5
607
  8
0
 62
   251
 10
0.0
 20
0.0
 30
0.0
 70
   128
 71
    28
 72
    27
 73
    26
  0
VERTEX
  5
608
  8
0
 62
   251
 10
0.0
 20
0.0
 30
0.0
 70
   128
 71
    26
 72
    30
 73
    29
  0
VERTEX
  5
609
  8
0
 62
   251
 10
0.0
 20
0.0
 30
0.0
 70
   128
 71
    29
 72
    28
 73
    26
  0
VERTEX
  5
60A
  8
0
 62
   251
 10
0.0
 20
0.0
 30
0.0
 70
   128
 71
    32
 72
    27
 73
    31
  0
VERTEX
  5
60B
  8
0
 62
   251
 10
0.0
 20
0.0
 30
0.0
 70
   128
 71
    34
 72
    33
 73
    32
  0
VERTEX
  5
60C
  8
0
 62
   251
 10
0.0
 20
0.0
 30
0.0
 70
   128
 71
    35
 72
    32
 73
    31
  0
VERTEX
  5
60D
  8
0
 62
   251
 10
0.0
 20
0.0
 30
0.0
 70
   128
 71
    35
 72
    37
 73
    36
  0
VERTEX
  5
60E
  8
0
 62
   251
 10
0.0
 20
0.0
 30
0.0
 70
   128
 71
    36
 72
    32
 73
    35
  0
VERTEX
  5
60F
  8
0
 62
   251
 10
0.0
 20
0.0
 30
0.0
 70
   128
 71
    27
 72
    28
 73
    31
  0
VERTEX
  5
610
  8
0
 62
   251
 10
0.0
 20
0.0
 30
0.0
 70
   128
 71
    40
 72
    39
 73
    38
  0
VERTEX
  5
611
  8
0
 62
   251
 10
0.0
 20
0.0
 30
0.0
 70
   128
 71
    43
 72
    42
 73
    41
  0
VERTEX
  5
612
  8
0
 62
   251
 10
0.0
 20
0.0
 30
0.0
 70
   128
 71
    41
 72
    42
 73
    38
  0
VERTEX
  5
613
  8
0
 62
   251
 10
0.0
 20
0.0
 30
0.0
 70
   128
 71
    41
 72
    38
 73
    37
  0
VERTEX
  5
614
  8
0
 62
   251
 10
0.0
 20
0.0
 30
0.0
 70
   128
 71
    42
 72
    44
 73
    40
  0
VERTEX
  5
615
  8
0
 62
   251
 10
0.0
 20
0.0
 30
0.0
 70
   128
 71
    26
 72
    46
 73
    45
  0
VERTEX
  5
616
  8
0
 62
   251
 10
0.0
 20
0.0
 30
0.0
 70
   128
 71
    38
 72
    36
 73
    37
  0
VERTEX
  5
617
  8
0
 62
   251
 10
0.0
 20
0.0
 30
0.0
 70
   128
 71
    30
 72
    47
 73
    29
  0
VERTEX
  5
618
  8
0
 62
   251
 10
0.0
 20
0.0
 30
0.0
 70
   128
 71
    47
 72
    49
 73
    48
  0
VERTEX
  5
619
  8
0
 62
   251
 10
0.0
 20
0.0
 30
0.0
 70
   128
 71
    49
 72
    47
 73
    30
  0
VERTEX
  5
61A
  8
0
 62
   251
 10
0.0
 20
0.0
 30
0.0
 70
   128
 71
    51
 72
    50
 73
    49
  0
VERTEX
  5
61B
  8
0
 62
   251
 10
0.0
 20
0.0
 30
0.0
 70
   128
 71
    48
 72
    49
 73
    52
  0
VERTEX
  5
61C
  8
0
 62
   251
 10
0.0
 20
0.0
 30
0.0
 70
   128
 71
    53
 72
    52
 73
    25
  0
VERTEX
  5
61D
  8
0
 62
   251
 10
0.0
 20
0.0
 30
0.0
 70
   128
 71
    52
 72
    53
 73
    48
  0
VERTEX
  5
61E
  8
0
 62
   251
 10
0.0
 20
0.0
 30
0.0
 70
   128
 71
    25
 72
    55
 73
    54
  0
VERTEX
  5
61F
  8
0
 62
   251
 10
0.0
 20
0.0
 30
0.0
 70
   128
 71
    54
 72
    53
 73
    25
  0
VERTEX
  5
620
  8
0
 62
   251
 10
0.0
 20
0.0
 30
0.0
 70
   128
 71
    55
 72
    23
 73
    56
  0
VERTEX
  5
621
  8
0
 62
   251
 10
0.0
 20
0.0
 30
0.0
 70
   128
 71
    55
 72
    25
 73
    23
  0
VERTEX
  5
622
  8
0
 62
   251
 10
0.0
 20
0.0
 30
0.0
 70
   128
 71
    52
 72
    57
 73
    24
  0
VERTEX
  5
623
  8
0
 62
   251
 10
0.0
 20
0.0
 30
0.0
 70
   128
 71
    52
 72
    50
 73
    57
  0
VERTEX
  5
624
  8
0
 62
   251
 10
0.0
 20
0.0
 30
0.0
 70
   128
 71
    25
 72
    52
 73
    24
  0
VERTEX
  5
625
  8
0
 62
   251
 10
0.0
 20
0.0
 30
0.0
 70
   128
 71
    52
 72
    49
 73
    50
  0
VERTEX
  5
626
  8
0
 62
   251
 10
0.0
 20
0.0
 30
0.0
 70
   128
 71
    30
 72
    58
 73
    51
  0
VERTEX
  5
627
  8
0
 62
   251
 10
0.0
 20
0.0
 30
0.0
 70
   128
 71
    30
 72
    45
 73
    58
  0
VERTEX
  5
628
  8
0
 62
   251
 10
0.0
 20
0.0
 30
0.0
 70
   128
 71
    49
 72
    30
 73
    51
  0
VERTEX
  5
629
  8
0
 62
   251
 10
0.0
 20
0.0
 30
0.0
 70
   128
 71
    30
 72
    26
 73
    45
  0
VERTEX
  5
62A
  8
0
 62
   251
 10
0.0
 20
0.0
 30
0.0
 70
   128
 71
    27
 72
    59
 73
    46
  0
VERTEX
  5
62B
  8
0
 62
   251
 10
0.0
 20
0.0
 30
0.0
 70
   128
 71
    27
 72
    33
 73
    59
  0
VERTEX
  5
62C
  8
0
 62
   251
 10
0.0
 20
0.0
 30
0.0
 70
   128
 71
    26
 72
    27
 73
    46
  0
VERTEX
  5
62D
  8
0
 62
   251
 10
0.0
 20
0.0
 30
0.0
 70
   128
 71
    27
 72
    32
 73
    33
  0
VERTEX
  5
62E
  8
0
 62
   251
 10
0.0
 20
0.0
 30
0.0
 70
   128
 71
    36
 72
    60
 73
    34
  0
VERTEX
  5
62F
  8
0
 62
   251
 10
0.0
 20
0.0
 30
0.0
 70
   128
 71
    36
 72
    39
 73
    60
  0
VERTEX
  5
630
  8
0
 62
   251
 10
0.0
 20
0.0
 30
0.0
 70
   128
 71
    32
 72
    36
 73
    34
  0
VERTEX
  5
631
  8
0
 62
   251
 10
0.0
 20
0.0
 30
0.0
 70
   128
 71
    36
 72
    38
 73
    39
  0
VERTEX
  5
632
  8
0
 62
   251
 10
0.0
 20
0.0
 30
0.0
 70
   128
 71
    38
 72
    42
 73
    40
  0
VERTEX
  5
633
  8
0
 62
   251
 10
0.0
 20
0.0
 30
0.0
 70
   128
 71
    63
 72
    62
 73
    61
  0
VERTEX
  5
634
  8
0
 62
   251
 10
0.0
 20
0.0
 30
0.0
 70
   128
 71
    63
 72
    61
 73
    64
  0
VERTEX
  5
635
  8
0
 62
   251
 10
0.0
 20
0.0
 30
0.0
 70
   128
 71
    64
 72
    61
 73
    65
  0
VERTEX
  5
636
  8
0
 62
   251
 10
0.0
 20
0.0
 30
0.0
 70
   128
 71
    68
 72
    67
 73
    66
  0
VERTEX
  5
637
  8
0
 62
   251
 10
0.0
 20
0.0
 30
0.0
 70
   128
 71
    66
 72
    62
 73
    68
  0
VERTEX
  5
638
  8
0
 62
   251
 10
0.0
 20
0.0
 30
0.0
 70
   128
 71
    61
 72
    62
 73
    66
  0
VERTEX
  5
639
  8
0
 62
   251
 10
0.0
 20
0.0
 30
0.0
 70
   128
 71
    69
 72
    67
 73
    68
  0
VERTEX
  5
63A
  8
0
 62
   251
 10
0.0
 20
0.0
 30
0.0
 70
   128
 71
    67
 72
    69
 73
    70
  0
VERTEX
  5
63B
  8
0
 62
   251
 10
0.0
 20
0.0
 30
0.0
 70
   128
 71
    71
 72
    70
 73
    69
  0
VERTEX
  5
63C
  8
0
 62
   251
 10
0.0
 20
0.0
 30
0.0
 70
   128
 71
    70
 72
    72
 73
    67
  0
VERTEX
  5
63D
  8
0
 62
   251
 10
0.0
 20
0.0
 30
0.0
 70
   128
 71
    70
 72
    71
 73
    73
  0
VERTEX
  5
63E
  8
0
 62
   251
 10
0.0
 20
0.0
 30
0.0
 70
   128
 71
    56
 72
    74
 73
    55
  0
VERTEX
  5
63F
  8
0
 62
   251
 10
0.0
 20
0.0
 30
0.0
 70
   128
 71
    55
 72
    75
 73
    54
  0
VERTEX
  5
640
  8
0
 62
   251
 10
0.0
 20
0.0
 30
0.0
 70
   128
 71
    75
 72
    73
 73
    71
  0
VERTEX
  5
641
  8
0
 62
   251
 10
0.0
 20
0.0
 30
0.0
 70
   128
 71
    63
 72
    64
 73
    76
  0
VERTEX
  5
642
  8
0
 62
   251
 10
0.0
 20
0.0
 30
0.0
 70
   128
 71
    55
 72
    73
 73
    75
  0
VERTEX
  5
643
  8
0
 62
   251
 10
0.0
 20
0.0
 30
0.0
 70
   128
 71
    64
 72
    77
 73
    76
  0
VERTEX
  5
644
  8
0
 62
   251
 10
0.0
 20
0.0
 30
0.0
 70
   128
 71
    79
 72
    77
 73
    78
  0
VERTEX
  5
645
  8
0
 62
   251
 10
0.0
 20
0.0
 30
0.0
 70
   128
 71
    77
 72
    79
 73
    76
  0
VERTEX
  5
646
  8
0
 62
   251
 10
0.0
 20
0.0
 30
0.0
 70
   128
 71
    78
 72
    81
 73
    80
  0
VERTEX
  5
647
  8
0
 62
   251
 10
0.0
 20
0.0
 30
0.0
 70
   128
 71
    83
 72
    82
 73
    77
  0
VERTEX
  5
648
  8
0
 62
   251
 10
0.0
 20
0.0
 30
0.0
 70
   128
 71
    84
 72
    80
 73
    81
  0
VERTEX
  5
649
  8
0
 62
   251
 10
0.0
 20
0.0
 30
0.0
 70
   128
 71
    80
 72
    79
 73
    78
  0
VERTEX
  5
64A
  8
0
 62
   251
 10
0.0
 20
0.0
 30
0.0
 70
   128
 71
    84
 72
    86
 73
    85
  0
VERTEX
  5
64B
  8
0
 62
   251
 10
0.0
 20
0.0
 30
0.0
 70
   128
 71
    86
 72
    84
 73
    81
  0
VERTEX
  5
64C
  8
0
 62
   251
 10
0.0
 20
0.0
 30
0.0
 70
   128
 71
    85
 72
    86
 73
    87
  0
VERTEX
  5
64D
  8
0
 62
   251
 10
0.0
 20
0.0
 30
0.0
 70
   128
 71
    87
 72
    89
 73
    88
  0
VERTEX
  5
64E
  8
0
 62
   251
 10
0.0
 20
0.0
 30
0.0
 70
   128
 71
    86
 72
    89
 73
    87
  0
VERTEX
  5
64F
  8
0
 62
   251
 10
0.0
 20
0.0
 30
0.0
 70
   128
 71
    86
 72
    90
 73
    89
  0
VERTEX
  5
650
  8
0
 62
   251
 10
0.0
 20
0.0
 30
0.0
 70
   128
 71
    81
 72
    91
 73
    90
  0
VERTEX
  5
651
  8
0
 62
   251
 10
0.0
 20
0.0
 30
0.0
 70
   128
 71
    86
 72
    81
 73
    90
  0
VERTEX
  5
652
  8
0
 62
   251
 10
0.0
 20
0.0
 30
0.0
 70
   128
 71
    92
 72
    91
 73
    78
  0
VERTEX
  5
653
  8
0
 62
   251
 10
0.0
 20
0.0
 30
0.0
 70
   128
 71
    81
 72
    78
 73
    91
  0
VERTEX
  5
654
  8
0
 62
   251
 10
0.0
 20
0.0
 30
0.0
 70
   128
 71
    92
 72
    78
 73
    82
  0
VERTEX
  5
655
  8
0
 62
   251
 10
0.0
 20
0.0
 30
0.0
 70
   128
 71
    78
 72
    77
 73
    82
  0
VERTEX
  5
656
  8
0
 62
   251
 10
0.0
 20
0.0
 30
0.0
 70
   128
 71
    64
 72
    93
 73
    83
  0
VERTEX
  5
657
  8
0
 62
   251
 10
0.0
 20
0.0
 30
0.0
 70
   128
 71
    77
 72
    64
 73
    83
  0
VERTEX
  5
658
  8
0
 62
   251
 10
0.0
 20
0.0
 30
0.0
 70
   128
 71
    93
 72
    64
 73
    65
  0
VERTEX
  5
659
  8
0
 62
   251
 10
0.0
 20
0.0
 30
0.0
 70
   128
 71
    61
 72
    94
 73
    65
  0
VERTEX
  5
65A
  8
0
 62
   251
 10
0.0
 20
0.0
 30
0.0
 70
   128
 71
    66
 72
    95
 73
    94
  0
VERTEX
  5
65B
  8
0
 62
   251
 10
0.0
 20
0.0
 30
0.0
 70
   128
 71
    61
 72
    66
 73
    94
  0
VERTEX
  5
65C
  8
0
 62
   251
 10
0.0
 20
0.0
 30
0.0
 70
   128
 71
    67
 72
    96
 73
    95
  0
VERTEX
  5
65D
  8
0
 62
   251
 10
0.0
 20
0.0
 30
0.0
 70
   128
 71
    66
 72
    67
 73
    95
  0
VERTEX
  5
65E
  8
0
 62
   251
 10
0.0
 20
0.0
 30
0.0
 70
   128
 71
    96
 72
    67
 73
    72
  0
VERTEX
  5
65F
  8
0
 62
   251
 10
0.0
 20
0.0
 30
0.0
 70
   128
 71
    70
 72
    97
 73
    72
  0
VERTEX
  5
660
  8
0
 62
   251
 10
0.0
 20
0.0
 30
0.0
 70
   128
 71
    73
 72
    74
 73
    97
  0
VERTEX
  5
661
  8
0
 62
   251
 10
0.0
 20
0.0
 30
0.0
 70
   128
 71
    70
 72
    73
 73
    97
  0
VERTEX
  5
662
  8
0
 62
   251
 10
0.0
 20
0.0
 30
0.0
 70
   128
 71
    73
 72
    55
 73
    74
  0
VERTEX
  5
663
  8
0
 62
   251
 10
0.0
 20
0.0
 30
0.0
 70
   128
 71
    99
 72
    88
 73
    98
  0
VERTEX
  5
664
  8
0
 62
   251
 10
0.0
 20
0.0
 30
0.0
 70
   128
 71
   102
 72
   101
 73
   100
  0
VERTEX
  5
665
  8
0
 62
   251
 10
0.0
 20
0.0
 30
0.0
 70
   128
 71
   100
 72
   101
 73
   103
  0
VERTEX
  5
666
  8
0
 62
   251
 10
0.0
 20
0.0
 30
0.0
 70
   128
 71
    82
 72
    83
 73
   104
  0
VERTEX
  5
667
  8
0
 62
   251
 10
0.0
 20
0.0
 30
0.0
 70
   128
 71
    72
 72
   105
 73
    96
  0
VERTEX
  5
668
  8
0
 62
   251
 10
0.0
 20
0.0
 30
0.0
 70
   128
 71
   107
 72
   102
 73
   106
  0
VERTEX
  5
669
  8
0
 62
   251
 10
0.0
 20
0.0
 30
0.0
 70
   128
 71
   108
 72
   107
 73
   106
  0
VERTEX
  5
66A
  8
0
 62
   251
 10
0.0
 20
0.0
 30
0.0
 70
   128
 71
    19
 72
    74
 73
    18
  0
VERTEX
  5
66B
  8
0
 62
   251
 10
0.0
 20
0.0
 30
0.0
 70
   128
 71
    74
 72
    16
 73
    18
  0
VERTEX
  5
66C
  8
0
 62
   251
 10
0.0
 20
0.0
 30
0.0
 70
   128
 71
   111
 72
   110
 73
   109
  0
VERTEX
  5
66D
  8
0
 62
   251
 10
0.0
 20
0.0
 30
0.0
 70
   128
 71
   106
 72
   109
 73
   108
  0
VERTEX
  5
66E
  8
0
 62
   251
 10
0.0
 20
0.0
 30
0.0
 70
   128
 71
     2
 72
    74
 73
    56
  0
VERTEX
  5
66F
  8
0
 62
   251
 10
0.0
 20
0.0
 30
0.0
 70
   128
 71
    74
 72
     2
 73
    16
  0
VERTEX
  5
670
  8
0
 62
   251
 10
0.0
 20
0.0
 30
0.0
 70
   128
 71
   102
 72
   107
 73
   101
  0
VERTEX
  5
671
  8
0
 62
   251
 10
0.0
 20
0.0
 30
0.0
 70
   128
 71
   108
 72
   109
 73
   110
  0
VERTEX
  5
672
  8
0
 62
   251
 10
0.0
 20
0.0
 30
0.0
 70
   128
 71
   105
 72
   112
 73
    96
  0
VERTEX
  5
673
  8
0
 62
   251
 10
0.0
 20
0.0
 30
0.0
 70
   128
 71
   113
 72
    95
 73
   112
  0
VERTEX
  5
674
  8
0
 62
   251
 10
0.0
 20
0.0
 30
0.0
 70
   128
 71
    94
 72
   113
 73
   114
  0
VERTEX
  5
675
  8
0
 62
   251
 10
0.0
 20
0.0
 30
0.0
 70
   128
 71
   116
 72
   115
 73
   111
  0
VERTEX
  5
676
  8
0
 62
   251
 10
0.0
 20
0.0
 30
0.0
 70
   128
 71
   118
 72
   117
 73
   116
  0
VERTEX
  5
677
  8
0
 62
   251
 10
0.0
 20
0.0
 30
0.0
 70
   128
 71
   116
 72
   117
 73
   115
  0
VERTEX
  5
678
  8
0
 62
   251
 10
0.0
 20
0.0
 30
0.0
 70
   128
 71
   119
 72
    65
 73
   114
  0
VERTEX
  5
679
  8
0
 62
   251
 10
0.0
 20
0.0
 30
0.0
 70
   128
 71
   119
 72
    93
 73
    65
  0
VERTEX
  5
67A
  8
0
 62
   251
 10
0.0
 20
0.0
 30
0.0
 70
   128
 71
    93
 72
   120
 73
    83
  0
VERTEX
  5
67B
  8
0
 62
   251
 10
0.0
 20
0.0
 30
0.0
 70
   128
 71
   117
 72
   118
 73
   121
  0
VERTEX
  5
67C
  8
0
 62
   251
 10
0.0
 20
0.0
 30
0.0
 70
   128
 71
   115
 72
   110
 73
   111
  0
VERTEX
  5
67D
  8
0
 62
   251
 10
0.0
 20
0.0
 30
0.0
 70
   128
 71
    92
 72
    82
 73
   122
  0
VERTEX
  5
67E
  8
0
 62
   251
 10
0.0
 20
0.0
 30
0.0
 70
   128
 71
   103
 72
   124
 73
   123
  0
VERTEX
  5
67F
  8
0
 62
   251
 10
0.0
 20
0.0
 30
0.0
 70
   128
 71
   123
 72
   100
 73
   103
  0
VERTEX
  5
680
  8
0
 62
   251
 10
0.0
 20
0.0
 30
0.0
 70
   128
 71
   126
 72
   125
 73
   124
  0
VERTEX
  5
681
  8
0
 62
   251
 10
0.0
 20
0.0
 30
0.0
 70
   128
 71
   123
 72
   124
 73
   125
  0
VERTEX
  5
682
  8
0
 62
   251
 10
0.0
 20
0.0
 30
0.0
 70
   128
 71
   128
 72
   126
 73
   127
  0
VERTEX
  5
683
  8
0
 62
   251
 10
0.0
 20
0.0
 30
0.0
 70
   128
 71
   126
 72
   128
 73
   125
  0
VERTEX
  5
684
  8
0
 62
   251
 10
0.0
 20
0.0
 30
0.0
 70
   128
 71
   127
 72
   130
 73
   129
  0
VERTEX
  5
685
  8
0
 62
   251
 10
0.0
 20
0.0
 30
0.0
 70
   128
 71
   129
 72
   128
 73
   127
  0
VERTEX
  5
686
  8
0
 62
   251
 10
0.0
 20
0.0
 30
0.0
 70
   128
 71
   132
 72
   131
 73
   130
  0
VERTEX
  5
687
  8
0
 62
   251
 10
0.0
 20
0.0
 30
0.0
 70
   128
 71
   129
 72
   130
 73
   131
  0
VERTEX
  5
688
  8
0
 62
   251
 10
0.0
 20
0.0
 30
0.0
 70
   128
 71
   134
 72
   132
 73
   133
  0
VERTEX
  5
689
  8
0
 62
   251
 10
0.0
 20
0.0
 30
0.0
 70
   128
 71
   132
 72
   134
 73
   131
  0
VERTEX
  5
68A
  8
0
 62
   251
 10
0.0
 20
0.0
 30
0.0
 70
   128
 71
   135
 72
   134
 73
   133
  0
VERTEX
  5
68B
  8
0
 62
   251
 10
0.0
 20
0.0
 30
0.0
 70
   128
 71
   137
 72
   136
 73
    88
  0
VERTEX
  5
68C
  8
0
 62
   251
 10
0.0
 20
0.0
 30
0.0
 70
   128
 71
   137
 72
    88
 73
    89
  0
VERTEX
  5
68D
  8
0
 62
   251
 10
0.0
 20
0.0
 30
0.0
 70
   128
 71
   139
 72
    91
 73
   138
  0
VERTEX
  5
68E
  8
0
 62
   251
 10
0.0
 20
0.0
 30
0.0
 70
   128
 71
   140
 72
    89
 73
    90
  0
VERTEX
  5
68F
  8
0
 62
   251
 10
0.0
 20
0.0
 30
0.0
 70
   128
 71
   104
 72
   122
 73
    82
  0
VERTEX
  5
690
  8
0
 62
   251
 10
0.0
 20
0.0
 30
0.0
 70
   128
 71
    92
 72
   141
 73
    91
  0
VERTEX
  5
691
  8
0
 62
   251
 10
0.0
 20
0.0
 30
0.0
 70
   128
 71
   119
 72
   120
 73
    93
  0
VERTEX
  5
692
  8
0
 62
   251
 10
0.0
 20
0.0
 30
0.0
 70
   128
 71
    83
 72
   120
 73
   104
  0
VERTEX
  5
693
  8
0
 62
   251
 10
0.0
 20
0.0
 30
0.0
 70
   128
 71
    95
 72
   113
 73
    94
  0
VERTEX
  5
694
  8
0
 62
   251
 10
0.0
 20
0.0
 30
0.0
 70
   128
 71
    65
 72
    94
 73
   114
  0
VERTEX
  5
695
  8
0
 62
   251
 10
0.0
 20
0.0
 30
0.0
 70
   128
 71
   142
 72
    72
 73
    97
  0
VERTEX
  5
696
  8
0
 62
   251
 10
0.0
 20
0.0
 30
0.0
 70
   128
 71
    95
 72
    96
 73
   112
  0
VERTEX
  5
697
  8
0
 62
   251
 10
0.0
 20
0.0
 30
0.0
 70
   128
 71
   145
 72
   144
 73
   143
  0
VERTEX
  5
698
  8
0
 62
   251
 10
0.0
 20
0.0
 30
0.0
 70
   128
 71
   144
 72
    21
 73
   146
  0
VERTEX
  5
699
  8
0
 62
   251
 10
0.0
 20
0.0
 30
0.0
 70
   128
 71
   144
 72
   148
 73
   147
  0
VERTEX
  5
69A
  8
0
 62
   251
 10
0.0
 20
0.0
 30
0.0
 70
   128
 71
   148
 72
   144
 73
   145
  0
VERTEX
  5
69B
  8
0
 62
   251
 10
0.0
 20
0.0
 30
0.0
 70
   128
 71
   147
 72
   148
 73
   149
  0
VERTEX
  5
69C
  8
0
 62
   251
 10
0.0
 20
0.0
 30
0.0
 70
   128
 71
   144
 72
   146
 73
   143
  0
VERTEX
  5
69D
  8
0
 62
   251
 10
0.0
 20
0.0
 30
0.0
 70
   128
 71
    97
 72
    21
 73
   142
  0
VERTEX
  5
69E
  8
0
 62
   251
 10
0.0
 20
0.0
 30
0.0
 70
   128
 71
    21
 72
   144
 73
   142
  0
VERTEX
  5
69F
  8
0
 62
   251
 10
0.0
 20
0.0
 30
0.0
 70
   128
 71
   142
 72
   105
 73
    72
  0
VERTEX
  5
6A0
  8
0
 62
   251
 10
0.0
 20
0.0
 30
0.0
 70
   128
 71
    97
 72
    19
 73
    21
  0
VERTEX
  5
6A1
  8
0
 62
   251
 10
0.0
 20
0.0
 30
0.0
 70
   128
 71
    92
 72
   122
 73
   141
  0
VERTEX
  5
6A2
  8
0
 62
   251
 10
0.0
 20
0.0
 30
0.0
 70
   128
 71
    74
 72
    19
 73
    97
  0
VERTEX
  5
6A3
  8
0
 62
   251
 10
0.0
 20
0.0
 30
0.0
 70
   128
 71
    91
 72
   141
 73
   138
  0
VERTEX
  5
6A4
  8
0
 62
   251
 10
0.0
 20
0.0
 30
0.0
 70
   128
 71
    90
 72
   139
 73
   140
  0
VERTEX
  5
6A5
  8
0
 62
   251
 10
0.0
 20
0.0
 30
0.0
 70
   128
 71
    91
 72
   139
 73
    90
  0
VERTEX
  5
6A6
  8
0
 62
   251
 10
0.0
 20
0.0
 30
0.0
 70
   128
 71
     2
 72
    56
 73
     4
  0
VERTEX
  5
6A7
  8
0
 62
   251
 10
0.0
 20
0.0
 30
0.0
 70
   128
 71
    98
 72
    88
 73
   136
  0
VERTEX
  5
6A8
  8
0
 62
   251
 10
0.0
 20
0.0
 30
0.0
 70
   128
 71
   140
 72
   137
 73
    89
  0
VERTEX
  5
6A9
  8
0
 62
   251
 10
0.0
 20
0.0
 30
0.0
 70
   128
 71
    99
 72
   135
 73
   133
  0
VERTEX
  5
6AA
  8
0
 62
   251
 10
0.0
 20
0.0
 30
0.0
 70
   128
 71
   135
 72
    99
 73
    98
  0
VERTEX
  5
6AB
  8
0
 62
     9
 10
0.0
 20
0.0
 30
0.0
 70
   128
 71
   152
 72
   151
 73
   150
  0
VERTEX
  5
6AC
  8
0
 62
     9
 10
0.0
 20
0.0
 30
0.0
 70
   128
 71
   153
 72
   152
 73
   150
  0
VERTEX
  5
6AD
  8
0
 62
     9
 10
0.0
 20
0.0
 30
0.0
 70
   128
 71
   152
 72
   153
 73
   154
  0
VERTEX
  5
6AE
  8
0
 62
     9
 10
0.0
 20
0.0
 30
0.0
 70
   128
 71
   157
 72
   156
 73
   155
  0
VERTEX
  5
6AF
  8
0
 62
     9
 10
0.0
 20
0.0
 30
0.0
 70
   128
 71
   157
 72
   154
 73
   156
  0
VERTEX
  5
6B0
  8
0
 62
     9
 10
0.0
 20
0.0
 30
0.0
 70
   128
 71
   157
 72
   155
 73
   158
  0
VERTEX
  5
6B1
  8
0
 62
     9
 10
0.0
 20
0.0
 30
0.0
 70
   128
 71
   158
 72
   160
 73
   159
  0
VERTEX
  5
6B2
  8
0
 62
     9
 10
0.0
 20
0.0
 30
0.0
 70
   128
 71
   158
 72
   155
 73
   160
  0
VERTEX
  5
6B3
  8
0
 62
     9
 10
0.0
 20
0.0
 30
0.0
 70
   128
 71
   161
 72
   159
 73
   160
  0
VERTEX
  5
6B4
  8
0
 62
     9
 10
0.0
 20
0.0
 30
0.0
 70
   128
 71
   161
 72
   162
 73
   159
  0
VERTEX
  5
6B5
  8
0
 62
     9
 10
0.0
 20
0.0
 30
0.0
 70
   128
 71
   153
 72
   156
 73
   154
  0
VERTEX
  5
6B6
  8
0
 62
     9
 10
0.0
 20
0.0
 30
0.0
 70
   128
 71
   163
 72
   150
 73
   151
  0
VERTEX
  5
6B7
  8
0
 62
     9
 10
0.0
 20
0.0
 30
0.0
 70
   128
 71
   165
 72
   163
 73
   164
  0
VERTEX
  5
6B8
  8
0
 62
     9
 10
0.0
 20
0.0
 30
0.0
 70
   128
 71
   151
 72
   164
 73
   163
  0
VERTEX
  5
6B9
  8
0
 62
     9
 10
0.0
 20
0.0
 30
0.0
 70
   128
 71
   165
 72
   167
 73
   166
  0
VERTEX
  5
6BA
  8
0
 62
     9
 10
0.0
 20
0.0
 30
0.0
 70
   128
 71
   167
 72
   165
 73
   164
  0
VERTEX
  5
6BB
  8
0
 62
     9
 10
0.0
 20
0.0
 30
0.0
 70
   128
 71
   169
 72
   168
 73
   166
  0
VERTEX
  5
6BC
  8
0
 62
     9
 10
0.0
 20
0.0
 30
0.0
 70
   128
 71
   166
 72
   167
 73
   169
  0
VERTEX
  5
6BD
  8
0
 62
     9
 10
0.0
 20
0.0
 30
0.0
 70
   128
 71
   171
 72
   168
 73
   170
  0
VERTEX
  5
6BE
  8
0
 62
     9
 10
0.0
 20
0.0
 30
0.0
 70
   128
 71
   169
 72
   170
 73
   168
  0
VERTEX
  5
6BF
  8
0
 62
     9
 10
0.0
 20
0.0
 30
0.0
 70
   128
 71
   173
 72
   172
 73
   162
  0
VERTEX
  5
6C0
  8
0
 62
     9
 10
0.0
 20
0.0
 30
0.0
 70
   128
 71
   176
 72
   175
 73
   174
  0
VERTEX
  5
6C1
  8
0
 62
     9
 10
0.0
 20
0.0
 30
0.0
 70
   128
 71
   179
 72
   178
 73
   177
  0
VERTEX
  5
6C2
  8
0
 62
     9
 10
0.0
 20
0.0
 30
0.0
 70
   128
 71
   182
 72
   181
 73
   180
  0
VERTEX
  5
6C3
  8
0
 62
     9
 10
0.0
 20
0.0
 30
0.0
 70
   128
 71
   184
 72
   181
 73
   183
  0
VERTEX
  5
6C4
  8
0
 62
     9
 10
0.0
 20
0.0
 30
0.0
 70
   128
 71
   187
 72
   186
 73
   185
  0
VERTEX
  5
6C5
  8
0
 62
     9
 10
0.0
 20
0.0
 30
0.0
 70
   128
 71
   186
 72
   187
 73
   182
  0
VERTEX
  5
6C6
  8
0
 62
     9
 10
0.0
 20
0.0
 30
0.0
 70
   128
 71
   185
 72
   171
 73
   188
  0
VERTEX
  5
6C7
  8
0
 62
     9
 10
0.0
 20
0.0
 30
0.0
 70
   128
 71
   188
 72
   187
 73
   185
  0
VERTEX
  5
6C8
  8
0
 62
     9
 10
0.0
 20
0.0
 30
0.0
 70
   128
 71
   188
 72
   171
 73
   170
  0
VERTEX
  5
6C9
  8
0
 62
     9
 10
0.0
 20
0.0
 30
0.0
 70
   128
 71
   184
 72
   180
 73
   181
  0
VERTEX
  5
6CA
  8
0
 62
     9
 10
0.0
 20
0.0
 30
0.0
 70
   128
 71
   186
 72
   182
 73
   180
  0
VERTEX
  5
6CB
  8
0
 62
     9
 10
0.0
 20
0.0
 30
0.0
 70
   128
 71
   183
 72
   176
 73
   174
  0
VERTEX
  5
6CC
  8
0
 62
     9
 10
0.0
 20
0.0
 30
0.0
 70
   128
 71
   184
 72
   183
 73
   174
  0
VERTEX
  5
6CD
  8
0
 62
     9
 10
0.0
 20
0.0
 30
0.0
 70
   128
 71
   189
 72
   177
 73
   175
  0
VERTEX
  5
6CE
  8
0
 62
     9
 10
0.0
 20
0.0
 30
0.0
 70
   128
 71
   176
 72
   189
 73
   175
  0
VERTEX
  5
6CF
  8
0
 62
     9
 10
0.0
 20
0.0
 30
0.0
 70
   128
 71
   179
 72
   172
 73
   178
  0
VERTEX
  5
6D0
  8
0
 62
     9
 10
0.0
 20
0.0
 30
0.0
 70
   128
 71
   179
 72
   177
 73
   189
  0
VERTEX
  5
6D1
  8
0
 62
     9
 10
0.0
 20
0.0
 30
0.0
 70
   128
 71
   161
 72
   173
 73
   162
  0
VERTEX
  5
6D2
  8
0
 62
     9
 10
0.0
 20
0.0
 30
0.0
 70
   128
 71
   173
 72
   178
 73
   172
  0
VERTEX
  5
6D3
  8
0
 62
   251
 10
0.0
 20
0.0
 30
0.0
 70
   128
 71
   191
 72
   190
 73
   134
  0
VERTEX
  5
6D4
  8
0
 62
   251
 10
0.0
 20
0.0
 30
0.0
 70
   128
 71
   135
 72
    98
 73
   192
  0
VERTEX
  5
6D5
  8
0
 62
   251
 10
0.0
 20
0.0
 30
0.0
 70
   128
 71
   125
 72
   128
 73
   193
  0
VERTEX
  5
6D6
  8
0
 62
   251
 10
0.0
 20
0.0
 30
0.0
 70
   128
 71
   128
 72
   129
 73
   193
  0
VERTEX
  5
6D7
  8
0
 62
   251
 10
0.0
 20
0.0
 30
0.0
 70
   128
 71
   131
 72
   194
 73
   129
  0
VERTEX
  5
6D8
  8
0
 62
   251
 10
0.0
 20
0.0
 30
0.0
 70
   128
 71
   100
 72
   123
 73
   195
  0
VERTEX
  5
6D9
  8
0
 62
   251
 10
0.0
 20
0.0
 30
0.0
 70
   128
 71
   196
 72
   123
 73
   125
  0
VERTEX
  5
6DA
  8
0
 62
   251
 10
0.0
 20
0.0
 30
0.0
 70
   128
 71
   100
 72
   197
 73
   102
  0
VERTEX
  5
6DB
  8
0
 62
   251
 10
0.0
 20
0.0
 30
0.0
 70
   128
 71
   106
 72
   199
 73
   198
  0
VERTEX
  5
6DC
  8
0
 62
   251
 10
0.0
 20
0.0
 30
0.0
 70
   128
 71
   199
 72
   102
 73
   197
  0
VERTEX
  5
6DD
  8
0
 62
   251
 10
0.0
 20
0.0
 30
0.0
 70
   128
 71
   111
 72
   200
 73
   116
  0
VERTEX
  5
6DE
  8
0
 62
   251
 10
0.0
 20
0.0
 30
0.0
 70
   128
 71
   198
 72
   111
 73
   109
  0
VERTEX
  5
6DF
  8
0
 62
   251
 10
0.0
 20
0.0
 30
0.0
 70
   128
 71
   118
 72
   202
 73
   201
  0
VERTEX
  5
6E0
  8
0
 62
   251
 10
0.0
 20
0.0
 30
0.0
 70
   128
 71
   202
 72
   118
 73
   116
  0
VERTEX
  5
6E1
  8
0
 62
   251
 10
0.0
 20
0.0
 30
0.0
 70
   128
 71
   204
 72
   201
 73
   203
  0
VERTEX
  5
6E2
  8
0
 62
   251
 10
0.0
 20
0.0
 30
0.0
 70
   128
 71
   207
 72
   206
 73
   205
  0
VERTEX
  5
6E3
  8
0
 62
   251
 10
0.0
 20
0.0
 30
0.0
 70
   128
 71
   203
 72
   205
 73
   208
  0
VERTEX
  5
6E4
  8
0
 62
   251
 10
0.0
 20
0.0
 30
0.0
 70
   128
 71
   211
 72
   210
 73
   209
  0
VERTEX
  5
6E5
  8
0
 62
   251
 10
0.0
 20
0.0
 30
0.0
 70
   128
 71
   209
 72
   207
 73
   212
  0
VERTEX
  5
6E6
  8
0
 62
   251
 10
0.0
 20
0.0
 30
0.0
 70
   128
 71
   215
 72
   214
 73
   213
  0
VERTEX
  5
6E7
  8
0
 62
   251
 10
0.0
 20
0.0
 30
0.0
 70
   128
 71
   210
 72
   211
 73
   214
  0
VERTEX
  5
6E8
  8
0
 62
   251
 10
0.0
 20
0.0
 30
0.0
 70
   128
 71
   218
 72
   217
 73
   216
  0
VERTEX
  5
6E9
  8
0
 62
   251
 10
0.0
 20
0.0
 30
0.0
 70
   128
 71
   219
 72
   213
 73
   218
  0
VERTEX
  5
6EA
  8
0
 62
   251
 10
0.0
 20
0.0
 30
0.0
 70
   128
 71
   221
 72
   217
 73
   220
  0
VERTEX
  5
6EB
  8
0
 62
   251
 10
0.0
 20
0.0
 30
0.0
 70
   128
 71
   224
 72
   223
 73
   222
  0
VERTEX
  5
6EC
  8
0
 62
   251
 10
0.0
 20
0.0
 30
0.0
 70
   128
 71
   221
 72
   224
 73
   222
  0
VERTEX
  5
6ED
  8
0
 62
   251
 10
0.0
 20
0.0
 30
0.0
 70
   128
 71
   226
 72
   225
 73
   223
  0
VERTEX
  5
6EE
  8
0
 62
   251
 10
0.0
 20
0.0
 30
0.0
 70
   128
 71
   222
 72
   223
 73
   225
  0
VERTEX
  5
6EF
  8
0
 62
   251
 10
0.0
 20
0.0
 30
0.0
 70
   128
 71
   226
 72
   227
 73
   225
  0
VERTEX
  5
6F0
  8
0
 62
   251
 10
0.0
 20
0.0
 30
0.0
 70
   128
 71
   221
 72
   220
 73
   224
  0
VERTEX
  5
6F1
  8
0
 62
   251
 10
0.0
 20
0.0
 30
0.0
 70
   128
 71
   217
 72
   218
 73
   220
  0
VERTEX
  5
6F2
  8
0
 62
   251
 10
0.0
 20
0.0
 30
0.0
 70
   128
 71
   219
 72
   218
 73
   216
  0
VERTEX
  5
6F3
  8
0
 62
   251
 10
0.0
 20
0.0
 30
0.0
 70
   128
 71
   215
 72
   213
 73
   219
  0
VERTEX
  5
6F4
  8
0
 62
   251
 10
0.0
 20
0.0
 30
0.0
 70
   128
 71
   210
 72
   214
 73
   215
  0
VERTEX
  5
6F5
  8
0
 62
   251
 10
0.0
 20
0.0
 30
0.0
 70
   128
 71
   209
 72
   212
 73
   211
  0
VERTEX
  5
6F6
  8
0
 62
   251
 10
0.0
 20
0.0
 30
0.0
 70
   128
 71
   207
 72
   205
 73
   212
  0
VERTEX
  5
6F7
  8
0
 62
   251
 10
0.0
 20
0.0
 30
0.0
 70
   128
 71
   208
 72
   205
 73
   206
  0
VERTEX
  5
6F8
  8
0
 62
   251
 10
0.0
 20
0.0
 30
0.0
 70
   128
 71
   204
 72
   203
 73
   208
  0
VERTEX
  5
6F9
  8
0
 62
   251
 10
0.0
 20
0.0
 30
0.0
 70
   128
 71
   118
 72
   201
 73
   204
  0
VERTEX
  5
6FA
  8
0
 62
   251
 10
0.0
 20
0.0
 30
0.0
 70
   128
 71
   116
 72
   200
 73
   202
  0
VERTEX
  5
6FB
  8
0
 62
   251
 10
0.0
 20
0.0
 30
0.0
 70
   128
 71
   111
 72
   198
 73
   200
  0
VERTEX
  5
6FC
  8
0
 62
   251
 10
0.0
 20
0.0
 30
0.0
 70
   128
 71
   106
 72
   198
 73
   109
  0
VERTEX
  5
6FD
  8
0
 62
   251
 10
0.0
 20
0.0
 30
0.0
 70
   128
 71
   102
 72
   199
 73
   106
  0
VERTEX
  5
6FE
  8
0
 62
   251
 10
0.0
 20
0.0
 30
0.0
 70
   128
 71
   100
 72
   195
 73
   197
  0
VERTEX
  5
6FF
  8
0
 62
   251
 10
0.0
 20
0.0
 30
0.0
 70
   128
 71
   123
 72
   196
 73
   195
  0
VERTEX
  5
700
  8
0
 62
   251
 10
0.0
 20
0.0
 30
0.0
 70
   128
 71
   125
 72
   193
 73
   196
  0
VERTEX
  5
701
  8
0
 62
   251
 10
0.0
 20
0.0
 30
0.0
 70
   128
 71
   129
 72
   194
 73
   193
  0
VERTEX
  5
702
  8
0
 62
   251
 10
0.0
 20
0.0
 30
0.0
 70
   128
 71
   131
 72
   190
 73
   194
  0
VERTEX
  5
703
  8
0
 62
   251
 10
0.0
 20
0.0
 30
0.0
 70
   128
 71
   135
 72
   191
 73
   134
  0
VERTEX
  5
704
  8
0
 62
   251
 10
0.0
 20
0.0
 30
0.0
 70
   128
 71
   134
 72
   190
 73
   131
  0
VERTEX
  5
705
  8
0
 62
   251
 10
0.0
 20
0.0
 30
0.0
 70
   128
 71
   191
 72
   135
 73
   192
  0
VERTEX
  5
706
  8
0
 62
   251
 10
0.0
 20
0.0
 30
0.0
 70
   128
 71
   230
 72
   229
 73
   228
  0
VERTEX
  5
707
  8
0
 62
   251
 10
0.0
 20
0.0
 30
0.0
 70
   128
 71
   233
 72
   232
 73
   231
  0
VERTEX
  5
708
  8
0
 62
   251
 10
0.0
 20
0.0
 30
0.0
 70
   128
 71
   236
 72
   235
 73
   234
  0
VERTEX
  5
709
  8
0
 62
   251
 10
0.0
 20
0.0
 30
0.0
 70
   128
 71
   239
 72
   238
 73
   237
  0
VERTEX
  5
70A
  8
0
 62
   251
 10
0.0
 20
0.0
 30
0.0
 70
   128
 71
   241
 72
   240
 73
   238
  0
VERTEX
  5
70B
  8
0
 62
   251
 10
0.0
 20
0.0
 30
0.0
 70
   128
 71
   244
 72
   243
 73
   242
  0
VERTEX
  5
70C
  8
0
 62
   251
 10
0.0
 20
0.0
 30
0.0
 70
   128
 71
   237
 72
   246
 73
   245
  0
VERTEX
  5
70D
  8
0
 62
   251
 10
0.0
 20
0.0
 30
0.0
 70
   128
 71
   105
 72
   248
 73
   247
  0
VERTEX
  5
70E
  8
0
 62
   251
 10
0.0
 20
0.0
 30
0.0
 70
   128
 71
   142
 72
   144
 73
   249
  0
VERTEX
  5
70F
  8
0
 62
   251
 10
0.0
 20
0.0
 30
0.0
 70
   128
 71
   113
 72
   250
 73
   114
  0
VERTEX
  5
710
  8
0
 62
   251
 10
0.0
 20
0.0
 30
0.0
 70
   128
 71
   247
 72
   113
 73
   112
  0
VERTEX
  5
711
  8
0
 62
   251
 10
0.0
 20
0.0
 30
0.0
 70
   128
 71
   105
 72
   142
 73
   248
  0
VERTEX
  5
712
  8
0
 62
   251
 10
0.0
 20
0.0
 30
0.0
 70
   128
 71
   250
 72
   251
 73
   114
  0
VERTEX
  5
713
  8
0
 62
   251
 10
0.0
 20
0.0
 30
0.0
 70
   128
 71
   251
 72
   252
 73
   120
  0
VERTEX
  5
714
  8
0
 62
   251
 10
0.0
 20
0.0
 30
0.0
 70
   128
 71
   251
 72
   120
 73
   119
  0
VERTEX
  5
715
  8
0
 62
   251
 10
0.0
 20
0.0
 30
0.0
 70
   128
 71
   252
 72
   104
 73
   120
  0
VERTEX
  5
716
  8
0
 62
   251
 10
0.0
 20
0.0
 30
0.0
 70
   128
 71
   249
 72
   147
 73
   242
  0
VERTEX
  5
717
  8
0
 62
   251
 10
0.0
 20
0.0
 30
0.0
 70
   128
 71
   122
 72
   104
 73
   253
  0
VERTEX
  5
718
  8
0
 62
   251
 10
0.0
 20
0.0
 30
0.0
 70
   128
 71
   252
 72
   253
 73
   104
  0
VERTEX
  5
719
  8
0
 62
   251
 10
0.0
 20
0.0
 30
0.0
 70
   128
 71
   243
 72
   255
 73
   254
  0
VERTEX
  5
71A
  8
0
 62
   251
 10
0.0
 20
0.0
 30
0.0
 70
   128
 71
   253
 72
   256
 73
   122
  0
VERTEX
  5
71B
  8
0
 62
   251
 10
0.0
 20
0.0
 30
0.0
 70
   128
 71
   256
 72
   257
 73
   138
  0
VERTEX
  5
71C
  8
0
 62
   251
 10
0.0
 20
0.0
 30
0.0
 70
   128
 71
   138
 72
   141
 73
   256
  0
VERTEX
  5
71D
  8
0
 62
   251
 10
0.0
 20
0.0
 30
0.0
 70
   128
 71
   139
 72
   138
 73
   257
  0
VERTEX
  5
71E
  8
0
 62
   251
 10
0.0
 20
0.0
 30
0.0
 70
   128
 71
   246
 72
   259
 73
   258
  0
VERTEX
  5
71F
  8
0
 62
   251
 10
0.0
 20
0.0
 30
0.0
 70
   128
 71
   139
 72
   260
 73
   140
  0
VERTEX
  5
720
  8
0
 62
   251
 10
0.0
 20
0.0
 30
0.0
 70
   128
 71
   260
 72
   139
 73
   257
  0
VERTEX
  5
721
  8
0
 62
   251
 10
0.0
 20
0.0
 30
0.0
 70
   128
 71
   261
 72
   137
 73
   140
  0
VERTEX
  5
722
  8
0
 62
   251
 10
0.0
 20
0.0
 30
0.0
 70
   128
 71
   140
 72
   260
 73
   261
  0
VERTEX
  5
723
  8
0
 62
   251
 10
0.0
 20
0.0
 30
0.0
 70
   128
 71
   240
 72
   233
 73
   231
  0
VERTEX
  5
724
  8
0
 62
   251
 10
0.0
 20
0.0
 30
0.0
 70
   128
 71
   261
 72
   262
 73
   137
  0
VERTEX
  5
725
  8
0
 62
   251
 10
0.0
 20
0.0
 30
0.0
 70
   128
 71
   256
 72
   141
 73
   122
  0
VERTEX
  5
726
  8
0
 62
   251
 10
0.0
 20
0.0
 30
0.0
 70
   128
 71
   254
 72
   263
 73
   258
  0
VERTEX
  5
727
  8
0
 62
   251
 10
0.0
 20
0.0
 30
0.0
 70
   128
 71
   264
 72
   244
 73
   242
  0
VERTEX
  5
728
  8
0
 62
   251
 10
0.0
 20
0.0
 30
0.0
 70
   128
 71
   251
 72
   119
 73
   114
  0
VERTEX
  5
729
  8
0
 62
   251
 10
0.0
 20
0.0
 30
0.0
 70
   128
 71
   247
 72
   250
 73
   113
  0
VERTEX
  5
72A
  8
0
 62
   251
 10
0.0
 20
0.0
 30
0.0
 70
   128
 71
   247
 72
   112
 73
   105
  0
VERTEX
  5
72B
  8
0
 62
   251
 10
0.0
 20
0.0
 30
0.0
 70
   128
 71
   249
 72
   248
 73
   142
  0
VERTEX
  5
72C
  8
0
 62
   251
 10
0.0
 20
0.0
 30
0.0
 70
   128
 71
   249
 72
   144
 73
   147
  0
VERTEX
  5
72D
  8
0
 62
   251
 10
0.0
 20
0.0
 30
0.0
 70
   128
 71
   242
 72
   147
 73
   264
  0
VERTEX
  5
72E
  8
0
 62
   251
 10
0.0
 20
0.0
 30
0.0
 70
   128
 71
   243
 72
   244
 73
   255
  0
VERTEX
  5
72F
  8
0
 62
   251
 10
0.0
 20
0.0
 30
0.0
 70
   128
 71
   254
 72
   255
 73
   263
  0
VERTEX
  5
730
  8
0
 62
   251
 10
0.0
 20
0.0
 30
0.0
 70
   128
 71
   254
 72
   258
 73
   259
  0
VERTEX
  5
731
  8
0
 62
   251
 10
0.0
 20
0.0
 30
0.0
 70
   128
 71
   259
 72
   246
 73
   237
  0
VERTEX
  5
732
  8
0
 62
   251
 10
0.0
 20
0.0
 30
0.0
 70
   128
 71
   245
 72
   239
 73
   237
  0
VERTEX
  5
733
  8
0
 62
   251
 10
0.0
 20
0.0
 30
0.0
 70
   128
 71
   239
 72
   241
 73
   238
  0
VERTEX
  5
734
  8
0
 62
   251
 10
0.0
 20
0.0
 30
0.0
 70
   128
 71
   241
 72
   233
 73
   240
  0
VERTEX
  5
735
  8
0
 62
   251
 10
0.0
 20
0.0
 30
0.0
 70
   128
 71
   232
 72
   265
 73
   231
  0
VERTEX
  5
736
  8
0
 62
   251
 10
0.0
 20
0.0
 30
0.0
 70
   128
 71
   235
 72
   265
 73
   234
  0
VERTEX
  5
737
  8
0
 62
   251
 10
0.0
 20
0.0
 30
0.0
 70
   128
 71
   265
 72
   235
 73
   231
  0
VERTEX
  5
738
  8
0
 62
   251
 10
0.0
 20
0.0
 30
0.0
 70
   128
 71
   230
 72
   236
 73
   234
  0
VERTEX
  5
739
  8
0
 62
   251
 10
0.0
 20
0.0
 30
0.0
 70
   128
 71
   266
 72
   228
 73
   229
  0
VERTEX
  5
73A
  8
0
 62
   251
 10
0.0
 20
0.0
 30
0.0
 70
   128
 71
   228
 72
   236
 73
   230
  0
VERTEX
  5
73B
  8
0
 62
   251
 10
0.0
 20
0.0
 30
0.0
 70
   128
 71
   268
 72
   267
 73
   227
  0
VERTEX
  5
73C
  8
0
 62
   251
 10
0.0
 20
0.0
 30
0.0
 70
   128
 71
   267
 72
   266
 73
   229
  0
VERTEX
  5
73D
  8
0
 62
   251
 10
0.0
 20
0.0
 30
0.0
 70
   128
 71
   226
 72
   268
 73
   227
  0
VERTEX
  5
73E
  8
0
 62
   251
 10
0.0
 20
0.0
 30
0.0
 70
   128
 71
   268
 72
   266
 73
   267
  0
VERTEX
  5
73F
  8
0
 62
   251
 10
0.0
 20
0.0
 30
0.0
 70
   128
 71
   136
 72
   137
 73
   269
  0
VERTEX
  5
740
  8
0
 62
   251
 10
0.0
 20
0.0
 30
0.0
 70
   128
 71
   192
 72
    98
 73
   136
  0
VERTEX
  5
741
  8
0
 62
   251
 10
0.0
 20
0.0
 30
0.0
 70
   128
 71
   262
 72
   269
 73
   137
  0
VERTEX
  5
742
  8
0
 62
   251
 10
0.0
 20
0.0
 30
0.0
 70
   128
 71
   269
 72
   192
 73
   136
  0
VERTEX
  5
743
  8
0
 62
   251
 10
0.0
 20
0.0
 30
0.0
 70
   128
 71
   121
 72
   118
 73
   270
  0
VERTEX
  5
744
  8
0
 62
   251
 10
0.0
 20
0.0
 30
0.0
 70
   128
 71
   272
 72
   208
 73
   271
  0
VERTEX
  5
745
  8
0
 62
   251
 10
0.0
 20
0.0
 30
0.0
 70
   128
 71
   209
 72
   210
 73
   273
  0
VERTEX
  5
746
  8
0
 62
   251
 10
0.0
 20
0.0
 30
0.0
 70
   128
 71
   274
 72
   206
 73
   207
  0
VERTEX
  5
747
  8
0
 62
   251
 10
0.0
 20
0.0
 30
0.0
 70
   128
 71
   276
 72
   275
 73
   216
  0
VERTEX
  5
748
  8
0
 62
   251
 10
0.0
 20
0.0
 30
0.0
 70
   128
 71
   278
 72
   277
 73
   215
  0
VERTEX
  5
749
  8
0
 62
   251
 10
0.0
 20
0.0
 30
0.0
 70
   128
 71
   222
 72
   225
 73
   279
  0
VERTEX
  5
74A
  8
0
 62
   251
 10
0.0
 20
0.0
 30
0.0
 70
   128
 71
   280
 72
   221
 73
   222
  0
VERTEX
  5
74B
  8
0
 62
   251
 10
0.0
 20
0.0
 30
0.0
 70
   128
 71
   281
 72
   229
 73
    44
  0
VERTEX
  5
74C
  8
0
 62
   251
 10
0.0
 20
0.0
 30
0.0
 70
   128
 71
   281
 72
   282
 73
   227
  0
VERTEX
  5
74D
  8
0
 62
   251
 10
0.0
 20
0.0
 30
0.0
 70
   128
 71
   232
 72
    60
 73
   265
  0
VERTEX
  5
74E
  8
0
 62
   251
 10
0.0
 20
0.0
 30
0.0
 70
   128
 71
    40
 72
   234
 73
    39
  0
VERTEX
  5
74F
  8
0
 62
   251
 10
0.0
 20
0.0
 30
0.0
 70
   128
 71
    59
 72
   241
 73
   239
  0
VERTEX
  5
750
  8
0
 62
   251
 10
0.0
 20
0.0
 30
0.0
 70
   128
 71
    34
 72
   232
 73
   233
  0
VERTEX
  5
751
  8
0
 62
   251
 10
0.0
 20
0.0
 30
0.0
 70
   128
 71
    40
 72
   230
 73
   234
  0
VERTEX
  5
752
  8
0
 62
   251
 10
0.0
 20
0.0
 30
0.0
 70
   128
 71
   265
 72
    60
 73
    39
  0
VERTEX
  5
753
  8
0
 62
   251
 10
0.0
 20
0.0
 30
0.0
 70
   128
 71
   230
 72
    40
 73
    44
  0
VERTEX
  5
754
  8
0
 62
   251
 10
0.0
 20
0.0
 30
0.0
 70
   128
 71
    34
 72
   233
 73
    33
  0
VERTEX
  5
755
  8
0
 62
   251
 10
0.0
 20
0.0
 30
0.0
 70
   128
 71
   246
 72
    58
 73
    45
  0
VERTEX
  5
756
  8
0
 62
   251
 10
0.0
 20
0.0
 30
0.0
 70
   128
 71
    46
 72
   239
 73
   245
  0
VERTEX
  5
757
  8
0
 62
   251
 10
0.0
 20
0.0
 30
0.0
 70
   128
 71
   263
 72
    50
 73
    51
  0
VERTEX
  5
758
  8
0
 62
   251
 10
0.0
 20
0.0
 30
0.0
 70
   128
 71
    58
 72
   258
 73
    51
  0
VERTEX
  5
759
  8
0
 62
   251
 10
0.0
 20
0.0
 30
0.0
 70
   128
 71
   284
 72
   283
 73
   264
  0
VERTEX
  5
75A
  8
0
 62
   251
 10
0.0
 20
0.0
 30
0.0
 70
   128
 71
   244
 72
    24
 73
    57
  0
VERTEX
  5
75B
  8
0
 62
   251
 10
0.0
 20
0.0
 30
0.0
 70
   128
 71
   285
 72
    14
 73
   264
  0
VERTEX
  5
75C
  8
0
 62
   251
 10
0.0
 20
0.0
 30
0.0
 70
   128
 71
    14
 72
   244
 73
   264
  0
VERTEX
  5
75D
  8
0
 62
   251
 10
0.0
 20
0.0
 30
0.0
 70
   128
 71
     8
 72
    23
 73
    24
  0
VERTEX
  5
75E
  8
0
 62
   251
 10
0.0
 20
0.0
 30
0.0
 70
   128
 71
    24
 72
    14
 73
    13
  0
VERTEX
  5
75F
  8
0
 62
   251
 10
0.0
 20
0.0
 30
0.0
 70
   128
 71
    56
 72
    23
 73
     6
  0
VERTEX
  5
760
  8
0
 62
   251
 10
0.0
 20
0.0
 30
0.0
 70
   128
 71
     9
 72
     6
 73
    23
  0
VERTEX
  5
761
  8
0
 62
   251
 10
0.0
 20
0.0
 30
0.0
 70
   128
 71
   285
 72
   264
 73
   283
  0
VERTEX
  5
762
  8
0
 62
   251
 10
0.0
 20
0.0
 30
0.0
 70
   128
 71
     4
 72
    56
 73
     6
  0
VERTEX
  5
763
  8
0
 62
   251
 10
0.0
 20
0.0
 30
0.0
 70
   128
 71
   255
 72
   244
 73
    57
  0
VERTEX
  5
764
  8
0
 62
   251
 10
0.0
 20
0.0
 30
0.0
 70
   128
 71
     8
 72
    24
 73
    13
  0
VERTEX
  5
765
  8
0
 62
   251
 10
0.0
 20
0.0
 30
0.0
 70
   128
 71
     9
 72
    23
 73
     8
  0
VERTEX
  5
766
  8
0
 62
   251
 10
0.0
 20
0.0
 30
0.0
 70
   128
 71
   244
 72
    14
 73
    24
  0
VERTEX
  5
767
  8
0
 62
   251
 10
0.0
 20
0.0
 30
0.0
 70
   128
 71
   241
 72
    33
 73
   233
  0
VERTEX
  5
768
  8
0
 62
   251
 10
0.0
 20
0.0
 30
0.0
 70
   128
 71
   263
 72
   255
 73
    50
  0
VERTEX
  5
769
  8
0
 62
   251
 10
0.0
 20
0.0
 30
0.0
 70
   128
 71
    50
 72
   255
 73
    57
  0
VERTEX
  5
76A
  8
0
 62
   251
 10
0.0
 20
0.0
 30
0.0
 70
   128
 71
   264
 72
   286
 73
   284
  0
VERTEX
  5
76B
  8
0
 62
   251
 10
0.0
 20
0.0
 30
0.0
 70
   128
 71
   258
 72
   263
 73
    51
  0
VERTEX
  5
76C
  8
0
 62
   251
 10
0.0
 20
0.0
 30
0.0
 70
   128
 71
   286
 72
   147
 73
   149
  0
VERTEX
  5
76D
  8
0
 62
   251
 10
0.0
 20
0.0
 30
0.0
 70
   128
 71
   286
 72
   264
 73
   147
  0
VERTEX
  5
76E
  8
0
 62
   251
 10
0.0
 20
0.0
 30
0.0
 70
   128
 71
    44
 72
   229
 73
   230
  0
VERTEX
  5
76F
  8
0
 62
   251
 10
0.0
 20
0.0
 30
0.0
 70
   128
 71
   246
 72
    45
 73
   245
  0
VERTEX
  5
770
  8
0
 62
   251
 10
0.0
 20
0.0
 30
0.0
 70
   128
 71
   246
 72
   258
 73
    58
  0
VERTEX
  5
771
  8
0
 62
   251
 10
0.0
 20
0.0
 30
0.0
 70
   128
 71
    46
 72
    59
 73
   239
  0
VERTEX
  5
772
  8
0
 62
   251
 10
0.0
 20
0.0
 30
0.0
 70
   128
 71
    45
 72
    46
 73
   245
  0
VERTEX
  5
773
  8
0
 62
   251
 10
0.0
 20
0.0
 30
0.0
 70
   128
 71
   241
 72
    59
 73
    33
  0
VERTEX
  5
774
  8
0
 62
   251
 10
0.0
 20
0.0
 30
0.0
 70
   128
 71
    39
 72
   234
 73
   265
  0
VERTEX
  5
775
  8
0
 62
   251
 10
0.0
 20
0.0
 30
0.0
 70
   128
 71
    60
 72
   232
 73
    34
  0
VERTEX
  5
776
  8
0
 62
   251
 10
0.0
 20
0.0
 30
0.0
 70
   128
 71
   227
 72
   267
 73
   281
  0
VERTEX
  5
777
  8
0
 62
   251
 10
0.0
 20
0.0
 30
0.0
 70
   128
 71
   229
 72
   281
 73
   267
  0
VERTEX
  5
778
  8
0
 62
   251
 10
0.0
 20
0.0
 30
0.0
 70
   128
 71
   225
 72
   282
 73
   279
  0
VERTEX
  5
779
  8
0
 62
   251
 10
0.0
 20
0.0
 30
0.0
 70
   128
 71
   227
 72
   282
 73
   225
  0
VERTEX
  5
77A
  8
0
 62
   251
 10
0.0
 20
0.0
 30
0.0
 70
   128
 71
   287
 72
   221
 73
   280
  0
VERTEX
  5
77B
  8
0
 62
   251
 10
0.0
 20
0.0
 30
0.0
 70
   128
 71
   279
 72
   280
 73
   222
  0
VERTEX
  5
77C
  8
0
 62
   251
 10
0.0
 20
0.0
 30
0.0
 70
   128
 71
   287
 72
   276
 73
   217
  0
VERTEX
  5
77D
  8
0
 62
   251
 10
0.0
 20
0.0
 30
0.0
 70
   128
 71
   217
 72
   221
 73
   287
  0
VERTEX
  5
77E
  8
0
 62
   251
 10
0.0
 20
0.0
 30
0.0
 70
   128
 71
   217
 72
   276
 73
   216
  0
VERTEX
  5
77F
  8
0
 62
   251
 10
0.0
 20
0.0
 30
0.0
 70
   128
 71
   118
 72
   204
 73
   270
  0
VERTEX
  5
780
  8
0
 62
   251
 10
0.0
 20
0.0
 30
0.0
 70
   128
 71
   219
 72
   275
 73
   278
  0
VERTEX
  5
781
  8
0
 62
   251
 10
0.0
 20
0.0
 30
0.0
 70
   128
 71
   275
 72
   219
 73
   216
  0
VERTEX
  5
782
  8
0
 62
   251
 10
0.0
 20
0.0
 30
0.0
 70
   128
 71
   215
 72
   219
 73
   278
  0
VERTEX
  5
783
  8
0
 62
   251
 10
0.0
 20
0.0
 30
0.0
 70
   128
 71
   206
 72
   271
 73
   208
  0
VERTEX
  5
784
  8
0
 62
   251
 10
0.0
 20
0.0
 30
0.0
 70
   128
 71
   210
 72
   277
 73
   273
  0
VERTEX
  5
785
  8
0
 62
   251
 10
0.0
 20
0.0
 30
0.0
 70
   128
 71
   210
 72
   215
 73
   277
  0
VERTEX
  5
786
  8
0
 62
   251
 10
0.0
 20
0.0
 30
0.0
 70
   128
 71
   209
 72
   288
 73
   207
  0
VERTEX
  5
787
  8
0
 62
   251
 10
0.0
 20
0.0
 30
0.0
 70
   128
 71
   209
 72
   273
 73
   288
  0
VERTEX
  5
788
  8
0
 62
   251
 10
0.0
 20
0.0
 30
0.0
 70
   128
 71
   206
 72
   274
 73
   271
  0
VERTEX
  5
789
  8
0
 62
   251
 10
0.0
 20
0.0
 30
0.0
 70
   128
 71
   288
 72
   274
 73
   207
  0
VERTEX
  5
78A
  8
0
 62
   251
 10
0.0
 20
0.0
 30
0.0
 70
   128
 71
   270
 72
   204
 73
   272
  0
VERTEX
  5
78B
  8
0
 62
   251
 10
0.0
 20
0.0
 30
0.0
 70
   128
 71
   208
 72
   272
 73
   204
  0
VERTEX
  5
78C
  8
0
 62
   251
 10
0.0
 20
0.0
 30
0.0
 70
   128
 71
   281
 72
    42
 73
   289
  0
VERTEX
  5
78D
  8
0
 62
   251
 10
0.0
 20
0.0
 30
0.0
 70
   128
 71
   289
 72
    43
 73
   290
  0
VERTEX
  5
78E
  8
0
 62
   251
 10
0.0
 20
0.0
 30
0.0
 70
   128
 71
    44
 72
    42
 73
   281
  0
VERTEX
  5
78F
  8
0
 62
   251
 10
0.0
 20
0.0
 30
0.0
 70
   128
 71
    43
 72
   289
 73
    42
  0
VERTEX
  5
790
  8
0
 62
   251
 10
0.0
 20
0.0
 30
0.0
 70
   128
 71
    88
 72
   292
 73
   291
  0
VERTEX
  5
791
  8
0
 62
   251
 10
0.0
 20
0.0
 30
0.0
 70
   128
 71
    87
 72
    88
 73
   291
  0
VERTEX
  5
792
  8
0
 62
   251
 10
0.0
 20
0.0
 30
0.0
 70
   128
 71
   293
 72
    87
 73
   291
  0
VERTEX
  5
793
  8
0
 62
   251
 10
0.0
 20
0.0
 30
0.0
 70
   128
 71
    85
 72
    87
 73
   293
  0
VERTEX
  5
794
  8
0
 62
   251
 10
0.0
 20
0.0
 30
0.0
 70
   128
 71
   295
 72
   294
 73
   293
  0
VERTEX
  5
795
  8
0
 62
   251
 10
0.0
 20
0.0
 30
0.0
 70
   128
 71
   291
 72
   295
 73
   293
  0
VERTEX
  5
796
  8
0
 62
   251
 10
0.0
 20
0.0
 30
0.0
 70
   128
 71
   291
 72
   296
 73
   295
  0
VERTEX
  5
797
  8
0
 62
   251
 10
0.0
 20
0.0
 30
0.0
 70
   128
 71
   292
 72
   296
 73
   291
  0
VERTEX
  5
798
  8
0
 62
   251
 10
0.0
 20
0.0
 30
0.0
 70
   128
 71
   298
 72
   297
 73
   295
  0
VERTEX
  5
799
  8
0
 62
   251
 10
0.0
 20
0.0
 30
0.0
 70
   128
 71
   295
 72
   297
 73
   294
  0
VERTEX
  5
79A
  8
0
 62
   251
 10
0.0
 20
0.0
 30
0.0
 70
   128
 71
   301
 72
   300
 73
   299
  0
VERTEX
  5
79B
  8
0
 62
   251
 10
0.0
 20
0.0
 30
0.0
 70
   128
 71
   298
 72
   303
 73
   302
  0
VERTEX
  5
79C
  8
0
 62
   251
 10
0.0
 20
0.0
 30
0.0
 70
   128
 71
   306
 72
   305
 73
   304
  0
VERTEX
  5
79D
  8
0
 62
   251
 10
0.0
 20
0.0
 30
0.0
 70
   128
 71
   300
 72
   301
 73
   307
  0
VERTEX
  5
79E
  8
0
 62
   251
 10
0.0
 20
0.0
 30
0.0
 70
   128
 71
   309
 72
   304
 73
   308
  0
VERTEX
  5
79F
  8
0
 62
   251
 10
0.0
 20
0.0
 30
0.0
 70
   128
 71
   309
 72
   306
 73
   304
  0
VERTEX
  5
7A0
  8
0
 62
   251
 10
0.0
 20
0.0
 30
0.0
 70
   128
 71
   310
 72
   306
 73
   309
  0
VERTEX
  5
7A1
  8
0
 62
   251
 10
0.0
 20
0.0
 30
0.0
 70
   128
 71
   312
 72
   309
 73
   311
  0
VERTEX
  5
7A2
  8
0
 62
   251
 10
0.0
 20
0.0
 30
0.0
 70
   128
 71
   301
 72
   312
 73
   307
  0
VERTEX
  5
7A3
  8
0
 62
   251
 10
0.0
 20
0.0
 30
0.0
 70
   128
 71
   303
 72
   299
 73
   313
  0
VERTEX
  5
7A4
  8
0
 62
   251
 10
0.0
 20
0.0
 30
0.0
 70
   128
 71
   302
 72
   303
 73
   313
  0
VERTEX
  5
7A5
  8
0
 62
   251
 10
0.0
 20
0.0
 30
0.0
 70
   128
 71
   299
 72
   300
 73
   313
  0
VERTEX
  5
7A6
  8
0
 62
   251
 10
0.0
 20
0.0
 30
0.0
 70
   128
 71
   297
 72
   298
 73
   302
  0
VERTEX
  5
7A7
  8
0
 62
   251
 10
0.0
 20
0.0
 30
0.0
 70
   128
 71
   296
 72
   298
 73
   295
  0
VERTEX
  5
7A8
  8
0
 62
   251
 10
0.0
 20
0.0
 30
0.0
 70
   128
 71
   311
 72
   309
 73
   308
  0
VERTEX
  5
7A9
  8
0
 62
   251
 10
0.0
 20
0.0
 30
0.0
 70
   128
 71
   307
 72
   312
 73
   311
  0
VERTEX
  5
7AA
  8
0
 62
   251
 10
0.0
 20
0.0
 30
0.0
 70
   128
 71
   312
 72
   314
 73
   310
  0
VERTEX
  5
7AB
  8
0
 62
   251
 10
0.0
 20
0.0
 30
0.0
 70
   128
 71
   312
 72
   310
 73
   309
  0
VERTEX
  5
7AC
  8
0
 62
   251
 10
0.0
 20
0.0
 30
0.0
 70
   128
 71
   301
 72
   315
 73
   314
  0
VERTEX
  5
7AD
  8
0
 62
   251
 10
0.0
 20
0.0
 30
0.0
 70
   128
 71
   301
 72
   314
 73
   312
  0
VERTEX
  5
7AE
  8
0
 62
   251
 10
0.0
 20
0.0
 30
0.0
 70
   128
 71
   299
 72
   316
 73
   315
  0
VERTEX
  5
7AF
  8
0
 62
   251
 10
0.0
 20
0.0
 30
0.0
 70
   128
 71
   299
 72
   315
 73
   301
  0
VERTEX
  5
7B0
  8
0
 62
   251
 10
0.0
 20
0.0
 30
0.0
 70
   128
 71
   303
 72
   317
 73
   316
  0
VERTEX
  5
7B1
  8
0
 62
   251
 10
0.0
 20
0.0
 30
0.0
 70
   128
 71
   303
 72
   316
 73
   299
  0
VERTEX
  5
7B2
  8
0
 62
   251
 10
0.0
 20
0.0
 30
0.0
 70
   128
 71
   298
 72
   317
 73
   303
  0
VERTEX
  5
7B3
  8
0
 62
   251
 10
0.0
 20
0.0
 30
0.0
 70
   128
 71
   317
 72
   298
 73
   296
  0
VERTEX
  5
7B4
  8
0
 62
   251
 10
0.0
 20
0.0
 30
0.0
 70
   128
 71
   304
 72
   318
 73
   308
  0
VERTEX
  5
7B5
  8
0
 62
   251
 10
0.0
 20
0.0
 30
0.0
 70
   128
 71
   308
 72
   318
 73
   319
  0
VERTEX
  5
7B6
  8
0
 62
   251
 10
0.0
 20
0.0
 30
0.0
 70
   128
 71
   318
 72
   304
 73
   320
  0
VERTEX
  5
7B7
  8
0
 62
   251
 10
0.0
 20
0.0
 30
0.0
 70
   128
 71
   305
 72
   320
 73
   304
  0
VERTEX
  5
7B8
  8
0
 62
   251
 10
0.0
 20
0.0
 30
0.0
 70
   128
 71
   322
 72
   321
 73
   318
  0
VERTEX
  5
7B9
  8
0
 62
   251
 10
0.0
 20
0.0
 30
0.0
 70
   128
 71
   318
 72
   321
 73
   319
  0
VERTEX
  5
7BA
  8
0
 62
   251
 10
0.0
 20
0.0
 30
0.0
 70
   128
 71
   325
 72
   324
 73
   323
  0
VERTEX
  5
7BB
  8
0
 62
   251
 10
0.0
 20
0.0
 30
0.0
 70
   128
 71
   322
 72
   327
 73
   326
  0
VERTEX
  5
7BC
  8
0
 62
   251
 10
0.0
 20
0.0
 30
0.0
 70
   128
 71
   330
 72
   329
 73
   328
  0
VERTEX
  5
7BD
  8
0
 62
   251
 10
0.0
 20
0.0
 30
0.0
 70
   128
 71
   324
 72
   325
 73
   331
  0
VERTEX
  5
7BE
  8
0
 62
   251
 10
0.0
 20
0.0
 30
0.0
 70
   128
 71
   333
 72
   328
 73
   332
  0
VERTEX
  5
7BF
  8
0
 62
   251
 10
0.0
 20
0.0
 30
0.0
 70
   128
 71
   333
 72
   330
 73
   328
  0
VERTEX
  5
7C0
  8
0
 62
   251
 10
0.0
 20
0.0
 30
0.0
 70
   128
 71
   334
 72
   330
 73
   333
  0
VERTEX
  5
7C1
  8
0
 62
   251
 10
0.0
 20
0.0
 30
0.0
 70
   128
 71
   336
 72
   333
 73
   335
  0
VERTEX
  5
7C2
  8
0
 62
   251
 10
0.0
 20
0.0
 30
0.0
 70
   128
 71
   325
 72
   336
 73
   331
  0
VERTEX
  5
7C3
  8
0
 62
   251
 10
0.0
 20
0.0
 30
0.0
 70
   128
 71
   327
 72
   323
 73
   337
  0
VERTEX
  5
7C4
  8
0
 62
   251
 10
0.0
 20
0.0
 30
0.0
 70
   128
 71
   326
 72
   327
 73
   337
  0
VERTEX
  5
7C5
  8
0
 62
   251
 10
0.0
 20
0.0
 30
0.0
 70
   128
 71
   323
 72
   324
 73
   337
  0
VERTEX
  5
7C6
  8
0
 62
   251
 10
0.0
 20
0.0
 30
0.0
 70
   128
 71
   321
 72
   322
 73
   326
  0
VERTEX
  5
7C7
  8
0
 62
   251
 10
0.0
 20
0.0
 30
0.0
 70
   128
 71
   320
 72
   322
 73
   318
  0
VERTEX
  5
7C8
  8
0
 62
   251
 10
0.0
 20
0.0
 30
0.0
 70
   128
 71
   335
 72
   333
 73
   332
  0
VERTEX
  5
7C9
  8
0
 62
   251
 10
0.0
 20
0.0
 30
0.0
 70
   128
 71
   331
 72
   336
 73
   335
  0
VERTEX
  5
7CA
  8
0
 62
   251
 10
0.0
 20
0.0
 30
0.0
 70
   128
 71
   336
 72
   338
 73
   334
  0
VERTEX
  5
7CB
  8
0
 62
   251
 10
0.0
 20
0.0
 30
0.0
 70
   128
 71
   336
 72
   334
 73
   333
  0
VERTEX
  5
7CC
  8
0
 62
   251
 10
0.0
 20
0.0
 30
0.0
 70
   128
 71
   325
 72
   339
 73
   338
  0
VERTEX
  5
7CD
  8
0
 62
   251
 10
0.0
 20
0.0
 30
0.0
 70
   128
 71
   325
 72
   338
 73
   336
  0
VERTEX
  5
7CE
  8
0
 62
   251
 10
0.0
 20
0.0
 30
0.0
 70
   128
 71
   323
 72
   340
 73
   339
  0
VERTEX
  5
7CF
  8
0
 62
   251
 10
0.0
 20
0.0
 30
0.0
 70
   128
 71
   323
 72
   339
 73
   325
  0
VERTEX
  5
7D0
  8
0
 62
   251
 10
0.0
 20
0.0
 30
0.0
 70
   128
 71
   327
 72
   341
 73
   340
  0
VERTEX
  5
7D1
  8
0
 62
   251
 10
0.0
 20
0.0
 30
0.0
 70
   128
 71
   327
 72
   340
 73
   323
  0
VERTEX
  5
7D2
  8
0
 62
   251
 10
0.0
 20
0.0
 30
0.0
 70
   128
 71
   322
 72
   341
 73
   327
  0
VERTEX
  5
7D3
  8
0
 62
   251
 10
0.0
 20
0.0
 30
0.0
 70
   128
 71
   341
 72
   322
 73
   320
  0
VERTEX
  5
7D4
  8
0
 62
   251
 10
0.0
 20
0.0
 30
0.0
 70
   128
 71
   343
 72
   342
 73
   328
  0
VERTEX
  5
7D5
  8
0
 62
   251
 10
0.0
 20
0.0
 30
0.0
 70
   128
 71
   328
 72
   342
 73
   332
  0
VERTEX
  5
7D6
  8
0
 62
   251
 10
0.0
 20
0.0
 30
0.0
 70
   128
 71
   328
 72
   345
 73
   344
  0
VERTEX
  5
7D7
  8
0
 62
   251
 10
0.0
 20
0.0
 30
0.0
 70
   128
 71
   344
 72
   343
 73
   328
  0
VERTEX
  5
7D8
  8
0
 62
   251
 10
0.0
 20
0.0
 30
0.0
 70
   128
 71
   348
 72
   347
 73
   346
  0
VERTEX
  5
7D9
  8
0
 62
   251
 10
0.0
 20
0.0
 30
0.0
 70
   128
 71
   345
 72
   328
 73
   348
  0
VERTEX
  5
7DA
  8
0
 62
   251
 10
0.0
 20
0.0
 30
0.0
 70
   128
 71
   350
 72
   347
 73
   349
  0
VERTEX
  5
7DB
  8
0
 62
   251
 10
0.0
 20
0.0
 30
0.0
 70
   128
 71
   350
 72
   346
 73
   347
  0
VERTEX
  5
7DC
  8
0
 62
   251
 10
0.0
 20
0.0
 30
0.0
 70
   128
 71
   352
 72
   347
 73
   351
  0
VERTEX
  5
7DD
  8
0
 62
   251
 10
0.0
 20
0.0
 30
0.0
 70
   128
 71
   352
 72
   349
 73
   347
  0
VERTEX
  5
7DE
  8
0
 62
   251
 10
0.0
 20
0.0
 30
0.0
 70
   128
 71
   328
 72
   347
 73
   348
  0
VERTEX
  5
7DF
  8
0
 62
   251
 10
0.0
 20
0.0
 30
0.0
 70
   128
 71
   353
 72
   351
 73
   347
  0
VERTEX
  5
7E0
  8
0
 62
   251
 10
0.0
 20
0.0
 30
0.0
 70
   128
 71
   328
 72
   354
 73
   347
  0
VERTEX
  5
7E1
  8
0
 62
   251
 10
0.0
 20
0.0
 30
0.0
 70
   128
 71
   329
 72
   354
 73
   328
  0
VERTEX
  5
7E2
  8
0
 62
   251
 10
0.0
 20
0.0
 30
0.0
 70
   128
 71
   347
 72
   354
 73
   281
  0
VERTEX
  5
7E3
  8
0
 62
   251
 10
0.0
 20
0.0
 30
0.0
 70
   128
 71
   353
 72
   347
 73
   289
  0
VERTEX
  5
7E4
  8
0
 62
   251
 10
0.0
 20
0.0
 30
0.0
 70
   128
 71
   353
 72
   289
 73
   290
  0
VERTEX
  5
7E5
  8
0
 62
   251
 10
0.0
 20
0.0
 30
0.0
 70
   128
 71
   281
 72
   289
 73
   347
  0
VERTEX
  5
7E6
  8
0
 62
   251
 10
0.0
 20
0.0
 30
0.0
 70
   128
 71
    62
 72
    43
 73
    68
  0
VERTEX
  5
7E7
  8
0
 62
   251
 10
0.0
 20
0.0
 30
0.0
 70
   128
 71
   349
 72
   352
 73
   355
  0
VERTEX
  5
7E8
  8
0
 62
   251
 10
0.0
 20
0.0
 30
0.0
 70
   128
 71
    71
 72
    43
 73
    75
  0
VERTEX
  5
7E9
  8
0
 62
   251
 10
0.0
 20
0.0
 30
0.0
 70
   128
 71
   294
 72
   357
 73
   356
  0
VERTEX
  5
7EA
  8
0
 62
   251
 10
0.0
 20
0.0
 30
0.0
 70
   128
 71
    53
 72
    43
 73
    48
  0
VERTEX
  5
7EB
  8
0
 62
   251
 10
0.0
 20
0.0
 30
0.0
 70
   128
 71
    54
 72
    75
 73
    43
  0
VERTEX
  5
7EC
  8
0
 62
   251
 10
0.0
 20
0.0
 30
0.0
 70
   128
 71
    47
 72
    35
 73
    28
  0
VERTEX
  5
7ED
  8
0
 62
   251
 10
0.0
 20
0.0
 30
0.0
 70
   128
 71
    37
 72
    43
 73
    41
  0
VERTEX
  5
7EE
  8
0
 62
   251
 10
0.0
 20
0.0
 30
0.0
 70
   128
 71
    29
 72
    47
 73
    28
  0
VERTEX
  5
7EF
  8
0
 62
   251
 10
0.0
 20
0.0
 30
0.0
 70
   128
 71
    35
 72
    47
 73
    37
  0
VERTEX
  5
7F0
  8
0
 62
   251
 10
0.0
 20
0.0
 30
0.0
 70
   128
 71
    28
 72
    35
 73
    31
  0
VERTEX
  5
7F1
  8
0
 62
   251
 10
0.0
 20
0.0
 30
0.0
 70
   128
 71
    43
 72
    37
 73
    48
  0
VERTEX
  5
7F2
  8
0
 62
   251
 10
0.0
 20
0.0
 30
0.0
 70
   128
 71
    47
 72
    48
 73
    37
  0
VERTEX
  5
7F3
  8
0
 62
   251
 10
0.0
 20
0.0
 30
0.0
 70
   128
 71
    71
 72
    69
 73
    43
  0
VERTEX
  5
7F4
  8
0
 62
   251
 10
0.0
 20
0.0
 30
0.0
 70
   128
 71
    43
 72
    53
 73
    54
  0
VERTEX
  5
7F5
  8
0
 62
   251
 10
0.0
 20
0.0
 30
0.0
 70
   128
 71
    62
 72
    63
 73
    43
  0
VERTEX
  5
7F6
  8
0
 62
   251
 10
0.0
 20
0.0
 30
0.0
 70
   128
 71
    43
 72
    69
 73
    68
  0
VERTEX
  5
7F7
  8
0
 62
   251
 10
0.0
 20
0.0
 30
0.0
 70
   128
 71
   290
 72
    63
 73
    76
  0
VERTEX
  5
7F8
  8
0
 62
   251
 10
0.0
 20
0.0
 30
0.0
 70
   128
 71
    63
 72
   290
 73
    43
  0
VERTEX
  5
7F9
  8
0
 62
   251
 10
0.0
 20
0.0
 30
0.0
 70
   128
 71
    76
 72
    79
 73
   290
  0
VERTEX
  5
7FA
  8
0
 62
   251
 10
0.0
 20
0.0
 30
0.0
 70
   128
 71
    80
 72
    84
 73
   290
  0
VERTEX
  5
7FB
  8
0
 62
   251
 10
0.0
 20
0.0
 30
0.0
 70
   128
 71
    80
 72
   290
 73
    79
  0
VERTEX
  5
7FC
  8
0
 62
   251
 10
0.0
 20
0.0
 30
0.0
 70
   128
 71
    84
 72
    85
 73
   290
  0
VERTEX
  5
7FD
  8
0
 62
   251
 10
0.0
 20
0.0
 30
0.0
 70
   128
 71
   293
 72
   290
 73
    85
  0
VERTEX
  5
7FE
  8
0
 62
   251
 10
0.0
 20
0.0
 30
0.0
 70
   128
 71
   351
 72
   353
 73
   358
  0
VERTEX
  5
7FF
  8
0
 62
   251
 10
0.0
 20
0.0
 30
0.0
 70
   128
 71
   353
 72
   290
 73
   293
  0
VERTEX
  5
800
  8
0
 62
   251
 10
0.0
 20
0.0
 30
0.0
 70
   128
 71
   359
 72
   349
 73
   355
  0
VERTEX
  5
801
  8
0
 62
   251
 10
0.0
 20
0.0
 30
0.0
 70
   128
 71
   346
 72
   359
 73
   348
  0
VERTEX
  5
802
  8
0
 62
   251
 10
0.0
 20
0.0
 30
0.0
 70
   128
 71
   350
 72
   359
 73
   346
  0
VERTEX
  5
803
  8
0
 62
   251
 10
0.0
 20
0.0
 30
0.0
 70
   128
 71
   302
 72
   360
 73
   297
  0
VERTEX
  5
804
  8
0
 62
   251
 10
0.0
 20
0.0
 30
0.0
 70
   128
 71
   361
 72
   348
 73
   359
  0
VERTEX
  5
805
  8
0
 62
   251
 10
0.0
 20
0.0
 30
0.0
 70
   128
 71
   294
 72
   297
 73
   360
  0
VERTEX
  5
806
  8
0
 62
   251
 10
0.0
 20
0.0
 30
0.0
 70
   128
 71
   331
 72
   362
 73
   324
  0
VERTEX
  5
807
  8
0
 62
   251
 10
0.0
 20
0.0
 30
0.0
 70
   128
 71
   363
 72
   319
 73
   362
  0
VERTEX
  5
808
  8
0
 62
   251
 10
0.0
 20
0.0
 30
0.0
 70
   128
 71
   326
 72
   362
 73
   321
  0
VERTEX
  5
809
  8
0
 62
   251
 10
0.0
 20
0.0
 30
0.0
 70
   128
 71
   324
 72
   362
 73
   337
  0
VERTEX
  5
80A
  8
0
 62
   251
 10
0.0
 20
0.0
 30
0.0
 70
   128
 71
   337
 72
   362
 73
   326
  0
VERTEX
  5
80B
  8
0
 62
   251
 10
0.0
 20
0.0
 30
0.0
 70
   128
 71
   362
 72
   319
 73
   321
  0
VERTEX
  5
80C
  8
0
 62
   251
 10
0.0
 20
0.0
 30
0.0
 70
   128
 71
   308
 72
   319
 73
   364
  0
VERTEX
  5
80D
  8
0
 62
   251
 10
0.0
 20
0.0
 30
0.0
 70
   128
 71
   331
 72
   335
 73
   362
  0
VERTEX
  5
80E
  8
0
 62
   251
 10
0.0
 20
0.0
 30
0.0
 70
   128
 71
   300
 72
   360
 73
   313
  0
VERTEX
  5
80F
  8
0
 62
   251
 10
0.0
 20
0.0
 30
0.0
 70
   128
 71
   302
 72
   313
 73
   360
  0
VERTEX
  5
810
  8
0
 62
   251
 10
0.0
 20
0.0
 30
0.0
 70
   128
 71
   294
 72
   360
 73
   365
  0
VERTEX
  5
811
  8
0
 62
   251
 10
0.0
 20
0.0
 30
0.0
 70
   128
 71
   360
 72
   300
 73
   307
  0
VERTEX
  5
812
  8
0
 62
   251
 10
0.0
 20
0.0
 30
0.0
 70
   128
 71
   366
 72
   362
 73
   332
  0
VERTEX
  5
813
  8
0
 62
   251
 10
0.0
 20
0.0
 30
0.0
 70
   128
 71
   345
 72
   361
 73
   344
  0
VERTEX
  5
814
  8
0
 62
   251
 10
0.0
 20
0.0
 30
0.0
 70
   128
 71
   361
 72
   367
 73
   342
  0
VERTEX
  5
815
  8
0
 62
   251
 10
0.0
 20
0.0
 30
0.0
 70
   128
 71
   368
 72
   293
 73
   294
  0
VERTEX
  5
816
  8
0
 62
   251
 10
0.0
 20
0.0
 30
0.0
 70
   128
 71
   352
 72
   358
 73
   369
  0
VERTEX
  5
817
  8
0
 62
   251
 10
0.0
 20
0.0
 30
0.0
 70
   128
 71
   345
 72
   348
 73
   361
  0
VERTEX
  5
818
  8
0
 62
   251
 10
0.0
 20
0.0
 30
0.0
 70
   128
 71
   356
 72
   368
 73
   294
  0
VERTEX
  5
819
  8
0
 62
   251
 10
0.0
 20
0.0
 30
0.0
 70
   128
 71
   360
 72
   307
 73
   311
  0
VERTEX
  5
81A
  8
0
 62
   251
 10
0.0
 20
0.0
 30
0.0
 70
   128
 71
   294
 72
   365
 73
   357
  0
VERTEX
  5
81B
  8
0
 62
   251
 10
0.0
 20
0.0
 30
0.0
 70
   128
 71
   364
 72
   360
 73
   308
  0
VERTEX
  5
81C
  8
0
 62
   251
 10
0.0
 20
0.0
 30
0.0
 70
   128
 71
   308
 72
   360
 73
   311
  0
VERTEX
  5
81D
  8
0
 62
   251
 10
0.0
 20
0.0
 30
0.0
 70
   128
 71
   364
 72
   319
 73
   363
  0
VERTEX
  5
81E
  8
0
 62
   251
 10
0.0
 20
0.0
 30
0.0
 70
   128
 71
   335
 72
   332
 73
   362
  0
VERTEX
  5
81F
  8
0
 62
   251
 10
0.0
 20
0.0
 30
0.0
 70
   128
 71
   367
 72
   366
 73
   342
  0
VERTEX
  5
820
  8
0
 62
   251
 10
0.0
 20
0.0
 30
0.0
 70
   128
 71
   342
 72
   366
 73
   332
  0
VERTEX
  5
821
  8
0
 62
   251
 10
0.0
 20
0.0
 30
0.0
 70
   128
 71
   343
 72
   361
 73
   342
  0
VERTEX
  5
822
  8
0
 62
   251
 10
0.0
 20
0.0
 30
0.0
 70
   128
 71
   344
 72
   361
 73
   343
  0
VERTEX
  5
823
  8
0
 62
   251
 10
0.0
 20
0.0
 30
0.0
 70
   128
 71
   355
 72
   352
 73
   369
  0
VERTEX
  5
824
  8
0
 62
   251
 10
0.0
 20
0.0
 30
0.0
 70
   128
 71
   359
 72
   350
 73
   349
  0
VERTEX
  5
825
  8
0
 62
   251
 10
0.0
 20
0.0
 30
0.0
 70
   128
 71
   352
 72
   351
 73
   358
  0
VERTEX
  5
826
  8
0
 62
   251
 10
0.0
 20
0.0
 30
0.0
 70
   128
 71
   353
 72
   293
 73
   358
  0
VERTEX
  5
827
  8
0
 62
   251
 10
0.0
 20
0.0
 30
0.0
 70
   128
 71
   371
 72
   293
 73
   370
  0
VERTEX
  5
828
  8
0
 62
   251
 10
0.0
 20
0.0
 30
0.0
 70
   128
 71
   371
 72
   358
 73
   293
  0
VERTEX
  5
829
  8
0
 62
   251
 10
0.0
 20
0.0
 30
0.0
 70
   128
 71
   372
 72
   293
 73
   368
  0
VERTEX
  5
82A
  8
0
 62
   251
 10
0.0
 20
0.0
 30
0.0
 70
   128
 71
   372
 72
   370
 73
   293
  0
VERTEX
  5
82B
  8
0
 62
   251
 10
0.0
 20
0.0
 30
0.0
 70
   128
 71
   375
 72
   374
 73
   373
  0
VERTEX
  5
82C
  8
0
 62
   251
 10
0.0
 20
0.0
 30
0.0
 70
   128
 71
   110
 72
   376
 73
   108
  0
VERTEX
  5
82D
  8
0
 62
   251
 10
0.0
 20
0.0
 30
0.0
 70
   128
 71
   280
 72
   377
 73
   287
  0
VERTEX
  5
82E
  8
0
 62
   251
 10
0.0
 20
0.0
 30
0.0
 70
   128
 71
   280
 72
   279
 73
   377
  0
VERTEX
  5
82F
  8
0
 62
   251
 10
0.0
 20
0.0
 30
0.0
 70
   128
 71
   276
 72
   377
 73
   275
  0
VERTEX
  5
830
  8
0
 62
   251
 10
0.0
 20
0.0
 30
0.0
 70
   128
 71
   276
 72
   287
 73
   377
  0
VERTEX
  5
831
  8
0
 62
   251
 10
0.0
 20
0.0
 30
0.0
 70
   128
 71
   378
 72
   273
 73
   277
  0
VERTEX
  5
832
  8
0
 62
   251
 10
0.0
 20
0.0
 30
0.0
 70
   128
 71
   278
 72
   275
 73
   377
  0
VERTEX
  5
833
  8
0
 62
   251
 10
0.0
 20
0.0
 30
0.0
 70
   128
 71
   378
 72
   379
 73
   274
  0
VERTEX
  5
834
  8
0
 62
   251
 10
0.0
 20
0.0
 30
0.0
 70
   128
 71
   274
 72
   288
 73
   378
  0
VERTEX
  5
835
  8
0
 62
   251
 10
0.0
 20
0.0
 30
0.0
 70
   128
 71
   380
 72
   271
 73
   379
  0
VERTEX
  5
836
  8
0
 62
   251
 10
0.0
 20
0.0
 30
0.0
 70
   128
 71
   274
 72
   379
 73
   271
  0
VERTEX
  5
837
  8
0
 62
   251
 10
0.0
 20
0.0
 30
0.0
 70
   128
 71
   270
 72
   380
 73
   121
  0
VERTEX
  5
838
  8
0
 62
   251
 10
0.0
 20
0.0
 30
0.0
 70
   128
 71
   272
 72
   380
 73
   270
  0
VERTEX
  5
839
  8
0
 62
   251
 10
0.0
 20
0.0
 30
0.0
 70
   128
 71
   381
 72
   376
 73
   110
  0
VERTEX
  5
83A
  8
0
 62
   251
 10
0.0
 20
0.0
 30
0.0
 70
   128
 71
   115
 72
   117
 73
   381
  0
VERTEX
  5
83B
  8
0
 62
   251
 10
0.0
 20
0.0
 30
0.0
 70
   128
 71
   107
 72
   382
 73
   101
  0
VERTEX
  5
83C
  8
0
 62
   251
 10
0.0
 20
0.0
 30
0.0
 70
   128
 71
   376
 72
   382
 73
   108
  0
VERTEX
  5
83D
  8
0
 62
   251
 10
0.0
 20
0.0
 30
0.0
 70
   128
 71
   382
 72
   124
 73
   103
  0
VERTEX
  5
83E
  8
0
 62
   251
 10
0.0
 20
0.0
 30
0.0
 70
   128
 71
   382
 72
   103
 73
   101
  0
VERTEX
  5
83F
  8
0
 62
   251
 10
0.0
 20
0.0
 30
0.0
 70
   128
 71
   382
 72
   373
 73
   124
  0
VERTEX
  5
840
  8
0
 62
   251
 10
0.0
 20
0.0
 30
0.0
 70
   128
 71
   373
 72
   382
 73
   383
  0
VERTEX
  5
841
  8
0
 62
   251
 10
0.0
 20
0.0
 30
0.0
 70
   128
 71
   373
 72
   127
 73
   126
  0
VERTEX
  5
842
  8
0
 62
   251
 10
0.0
 20
0.0
 30
0.0
 70
   128
 71
   124
 72
   373
 73
   126
  0
VERTEX
  5
843
  8
0
 62
   251
 10
0.0
 20
0.0
 30
0.0
 70
   128
 71
   373
 72
   130
 73
   127
  0
VERTEX
  5
844
  8
0
 62
   251
 10
0.0
 20
0.0
 30
0.0
 70
   128
 71
   133
 72
   132
 73
   373
  0
VERTEX
  5
845
  8
0
 62
   251
 10
0.0
 20
0.0
 30
0.0
 70
   128
 71
   373
 72
   132
 73
   130
  0
VERTEX
  5
846
  8
0
 62
   251
 10
0.0
 20
0.0
 30
0.0
 70
   128
 71
   375
 72
   373
 73
   384
  0
VERTEX
  5
847
  8
0
 62
   251
 10
0.0
 20
0.0
 30
0.0
 70
   128
 71
   387
 72
   386
 73
   385
  0
VERTEX
  5
848
  8
0
 62
   251
 10
0.0
 20
0.0
 30
0.0
 70
   128
 71
   384
 72
   387
 73
   388
  0
VERTEX
  5
849
  8
0
 62
   251
 10
0.0
 20
0.0
 30
0.0
 70
   128
 71
   384
 72
   373
 73
   387
  0
VERTEX
  5
84A
  8
0
 62
   251
 10
0.0
 20
0.0
 30
0.0
 70
   128
 71
   391
 72
   390
 73
   389
  0
VERTEX
  5
84B
  8
0
 62
   251
 10
0.0
 20
0.0
 30
0.0
 70
   128
 71
   393
 72
   392
 73
   377
  0
VERTEX
  5
84C
  8
0
 62
   251
 10
0.0
 20
0.0
 30
0.0
 70
   128
 71
   391
 72
   389
 73
   394
  0
VERTEX
  5
84D
  8
0
 62
   251
 10
0.0
 20
0.0
 30
0.0
 70
   128
 71
   389
 72
   395
 73
   394
  0
VERTEX
  5
84E
  8
0
 62
   251
 10
0.0
 20
0.0
 30
0.0
 70
   128
 71
   390
 72
   377
 73
   389
  0
VERTEX
  5
84F
  8
0
 62
   251
 10
0.0
 20
0.0
 30
0.0
 70
   128
 71
   380
 72
   272
 73
   271
  0
VERTEX
  5
850
  8
0
 62
   251
 10
0.0
 20
0.0
 30
0.0
 70
   128
 71
   115
 72
   381
 73
   110
  0
VERTEX
  5
851
  8
0
 62
   251
 10
0.0
 20
0.0
 30
0.0
 70
   128
 71
   382
 72
   107
 73
   108
  0
VERTEX
  5
852
  8
0
 62
   251
 10
0.0
 20
0.0
 30
0.0
 70
   128
 71
   121
 72
   381
 73
   117
  0
VERTEX
  5
853
  8
0
 62
   251
 10
0.0
 20
0.0
 30
0.0
 70
   128
 71
   121
 72
   380
 73
   381
  0
VERTEX
  5
854
  8
0
 62
   251
 10
0.0
 20
0.0
 30
0.0
 70
   128
 71
   397
 72
   396
 73
   390
  0
VERTEX
  5
855
  8
0
 62
   251
 10
0.0
 20
0.0
 30
0.0
 70
   128
 71
   288
 72
   273
 73
   378
  0
VERTEX
  5
856
  8
0
 62
   251
 10
0.0
 20
0.0
 30
0.0
 70
   128
 71
   378
 72
   278
 73
   377
  0
VERTEX
  5
857
  8
0
 62
   251
 10
0.0
 20
0.0
 30
0.0
 70
   128
 71
   278
 72
   378
 73
   277
  0
VERTEX
  5
858
  8
0
 62
   251
 10
0.0
 20
0.0
 30
0.0
 70
   128
 71
   392
 72
   378
 73
   377
  0
VERTEX
  5
859
  8
0
 62
   251
 10
0.0
 20
0.0
 30
0.0
 70
   128
 71
   396
 72
   398
 73
   377
  0
VERTEX
  5
85A
  8
0
 62
   251
 10
0.0
 20
0.0
 30
0.0
 70
   128
 71
   377
 72
   398
 73
   393
  0
VERTEX
  5
85B
  8
0
 62
   251
 10
0.0
 20
0.0
 30
0.0
 70
   128
 71
   390
 72
   396
 73
   377
  0
VERTEX
  5
85C
  8
0
 62
   251
 10
0.0
 20
0.0
 30
0.0
 70
   128
 71
   397
 72
   390
 73
   387
  0
VERTEX
  5
85D
  8
0
 62
   251
 10
0.0
 20
0.0
 30
0.0
 70
   128
 71
   397
 72
   387
 73
   385
  0
VERTEX
  5
85E
  8
0
 62
   251
 10
0.0
 20
0.0
 30
0.0
 70
   128
 71
   373
 72
   386
 73
   387
  0
VERTEX
  5
85F
  8
0
 62
   251
 10
0.0
 20
0.0
 30
0.0
 70
   128
 71
   400
 72
   373
 73
   399
  0
VERTEX
  5
860
  8
0
 62
   251
 10
0.0
 20
0.0
 30
0.0
 70
   128
 71
   400
 72
   386
 73
   373
  0
VERTEX
  5
861
  8
0
 62
   251
 10
0.0
 20
0.0
 30
0.0
 70
   128
 71
   399
 72
   373
 73
   383
  0
VERTEX
  5
862
  8
0
 62
     7
 10
0.0
 20
0.0
 30
0.0
 70
   128
 71
   403
 72
   402
 73
   401
  0
VERTEX
  5
863
  8
0
 62
     7
 10
0.0
 20
0.0
 30
0.0
 70
   128
 71
   403
 72
   401
 73
   404
  0
VERTEX
  5
864
  8
0
 62
     7
 10
0.0
 20
0.0
 30
0.0
 70
   128
 71
   385
 72
   364
 73
   397
  0
VERTEX
  5
865
  8
0
 62
     7
 10
0.0
 20
0.0
 30
0.0
 70
   128
 71
   364
 72
   363
 73
   397
  0
VERTEX
  5
866
  8
0
 62
   251
 10
0.0
 20
0.0
 30
0.0
 70
   128
 71
   320
 72
   305
 73
   390
  0
VERTEX
  5
867
  8
0
 62
   251
 10
0.0
 20
0.0
 30
0.0
 70
   128
 71
   387
 72
   390
 73
   305
  0
VERTEX
  5
868
  8
0
 62
     7
 10
0.0
 20
0.0
 30
0.0
 70
   128
 71
   406
 72
   405
 73
   361
  0
VERTEX
  5
869
  8
0
 62
     7
 10
0.0
 20
0.0
 30
0.0
 70
   128
 71
   361
 72
   359
 73
   407
  0
VERTEX
  5
86A
  8
0
 62
     7
 10
0.0
 20
0.0
 30
0.0
 70
   128
 71
   361
 72
   407
 73
   406
  0
VERTEX
  5
86B
  8
0
 62
     7
 10
0.0
 20
0.0
 30
0.0
 70
   128
 71
   361
 72
   405
 73
   392
  0
VERTEX
  5
86C
  8
0
 62
     7
 10
0.0
 20
0.0
 30
0.0
 70
   128
 71
   409
 72
   392
 73
   408
  0
VERTEX
  5
86D
  8
0
 62
     7
 10
0.0
 20
0.0
 30
0.0
 70
   128
 71
   409
 72
   378
 73
   392
  0
VERTEX
  5
86E
  8
0
 62
     7
 10
0.0
 20
0.0
 30
0.0
 70
   128
 71
   410
 72
   408
 73
   392
  0
VERTEX
  5
86F
  8
0
 62
     7
 10
0.0
 20
0.0
 30
0.0
 70
   128
 71
   405
 72
   410
 73
   392
  0
VERTEX
  5
870
  8
0
 62
     7
 10
0.0
 20
0.0
 30
0.0
 70
   128
 71
   410
 72
   411
 73
   408
  0
VERTEX
  5
871
  8
0
 62
   251
 10
0.0
 20
0.0
 30
0.0
 70
   128
 71
   279
 72
   282
 73
   329
  0
VERTEX
  5
872
  8
0
 62
   251
 10
0.0
 20
0.0
 30
0.0
 70
   128
 71
   281
 72
   354
 73
   282
  0
VERTEX
  5
873
  8
0
 62
   251
 10
0.0
 20
0.0
 30
0.0
 70
   128
 71
   282
 72
   354
 73
   329
  0
VERTEX
  5
874
  8
0
 62
   251
 10
0.0
 20
0.0
 30
0.0
 70
   128
 71
   329
 72
   377
 73
   279
  0
VERTEX
  5
875
  8
0
 62
     7
 10
0.0
 20
0.0
 30
0.0
 70
   128
 71
   412
 72
   401
 73
   402
  0
VERTEX
  5
876
  8
0
 62
     7
 10
0.0
 20
0.0
 30
0.0
 70
   128
 71
   413
 72
   405
 73
   406
  0
VERTEX
  5
877
  8
0
 62
     7
 10
0.0
 20
0.0
 30
0.0
 70
   128
 71
   416
 72
   415
 73
   414
  0
VERTEX
  5
878
  8
0
 62
     7
 10
0.0
 20
0.0
 30
0.0
 70
   128
 71
   417
 72
   414
 73
   413
  0
VERTEX
  5
879
  8
0
 62
     7
 10
0.0
 20
0.0
 30
0.0
 70
   128
 71
   406
 72
   417
 73
   413
  0
VERTEX
  5
87A
  8
0
 62
     7
 10
0.0
 20
0.0
 30
0.0
 70
   128
 71
   412
 72
   415
 73
   416
  0
VERTEX
  5
87B
  8
0
 62
     7
 10
0.0
 20
0.0
 30
0.0
 70
   128
 71
   416
 72
   414
 73
   417
  0
VERTEX
  5
87C
  8
0
 62
     7
 10
0.0
 20
0.0
 30
0.0
 70
   128
 71
   415
 72
   412
 73
   402
  0
VERTEX
  5
87D
  8
0
 62
     7
 10
0.0
 20
0.0
 30
0.0
 70
   128
 71
   367
 72
   361
 73
   393
  0
VERTEX
  5
87E
  8
0
 62
     7
 10
0.0
 20
0.0
 30
0.0
 70
   128
 71
   362
 72
   396
 73
   363
  0
VERTEX
  5
87F
  8
0
 62
     7
 10
0.0
 20
0.0
 30
0.0
 70
   128
 71
   393
 72
   398
 73
   366
  0
VERTEX
  5
880
  8
0
 62
     7
 10
0.0
 20
0.0
 30
0.0
 70
   128
 71
   363
 72
   396
 73
   397
  0
VERTEX
  5
881
  8
0
 62
     7
 10
0.0
 20
0.0
 30
0.0
 70
   128
 71
   398
 72
   396
 73
   362
  0
VERTEX
  5
882
  8
0
 62
     7
 10
0.0
 20
0.0
 30
0.0
 70
   128
 71
   367
 72
   393
 73
   366
  0
VERTEX
  5
883
  8
0
 62
     7
 10
0.0
 20
0.0
 30
0.0
 70
   128
 71
   366
 72
   398
 73
   362
  0
VERTEX
  5
884
  8
0
 62
     7
 10
0.0
 20
0.0
 30
0.0
 70
   128
 71
   392
 72
   393
 73
   361
  0
VERTEX
  5
885
  8
0
 62
   251
 10
0.0
 20
0.0
 30
0.0
 70
   128
 71
   133
 72
   373
 73
   296
  0
VERTEX
  5
886
  8
0
 62
   251
 10
0.0
 20
0.0
 30
0.0
 70
   128
 71
    88
 72
    99
 73
   292
  0
VERTEX
  5
887
  8
0
 62
   251
 10
0.0
 20
0.0
 30
0.0
 70
   128
 71
    99
 72
   133
 73
   296
  0
VERTEX
  5
888
  8
0
 62
   251
 10
0.0
 20
0.0
 30
0.0
 70
   128
 71
    99
 72
   296
 73
   292
  0
VERTEX
  5
889
  8
0
 62
     7
 10
0.0
 20
0.0
 30
0.0
 70
   128
 71
   420
 72
   419
 73
   418
  0
VERTEX
  5
88A
  8
0
 62
     7
 10
0.0
 20
0.0
 30
0.0
 70
   128
 71
   423
 72
   422
 73
   421
  0
VERTEX
  5
88B
  8
0
 62
     7
 10
0.0
 20
0.0
 30
0.0
 70
   128
 71
   403
 72
   404
 73
   424
  0
VERTEX
  5
88C
  8
0
 62
     7
 10
0.0
 20
0.0
 30
0.0
 70
   128
 71
   424
 72
   421
 73
   403
  0
VERTEX
  5
88D
  8
0
 62
     7
 10
0.0
 20
0.0
 30
0.0
 70
   128
 71
   419
 72
   422
 73
   423
  0
VERTEX
  5
88E
  8
0
 62
     7
 10
0.0
 20
0.0
 30
0.0
 70
   128
 71
   423
 72
   421
 73
   424
  0
VERTEX
  5
88F
  8
0
 62
     7
 10
0.0
 20
0.0
 30
0.0
 70
   128
 71
   425
 72
   420
 73
   418
  0
VERTEX
  5
890
  8
0
 62
     7
 10
0.0
 20
0.0
 30
0.0
 70
   128
 71
   420
 72
   422
 73
   419
  0
VERTEX
  5
891
  8
0
 62
     7
 10
0.0
 20
0.0
 30
0.0
 70
   128
 71
   386
 72
   360
 73
   364
  0
VERTEX
  5
892
  8
0
 62
     7
 10
0.0
 20
0.0
 30
0.0
 70
   128
 71
   399
 72
   383
 73
   357
  0
VERTEX
  5
893
  8
0
 62
     7
 10
0.0
 20
0.0
 30
0.0
 70
   128
 71
   360
 72
   400
 73
   365
  0
VERTEX
  5
894
  8
0
 62
     7
 10
0.0
 20
0.0
 30
0.0
 70
   128
 71
   357
 72
   383
 73
   356
  0
VERTEX
  5
895
  8
0
 62
     7
 10
0.0
 20
0.0
 30
0.0
 70
   128
 71
   357
 72
   365
 73
   399
  0
VERTEX
  5
896
  8
0
 62
     7
 10
0.0
 20
0.0
 30
0.0
 70
   128
 71
   386
 72
   400
 73
   360
  0
VERTEX
  5
897
  8
0
 62
     7
 10
0.0
 20
0.0
 30
0.0
 70
   128
 71
   400
 72
   399
 73
   365
  0
VERTEX
  5
898
  8
0
 62
     7
 10
0.0
 20
0.0
 30
0.0
 70
   128
 71
   385
 72
   386
 73
   364
  0
VERTEX
  5
899
  8
0
 62
     7
 10
0.0
 20
0.0
 30
0.0
 70
   128
 71
   368
 72
   356
 73
   426
  0
VERTEX
  5
89A
  8
0
 62
     7
 10
0.0
 20
0.0
 30
0.0
 70
   128
 71
   383
 72
   428
 73
   427
  0
VERTEX
  5
89B
  8
0
 62
     7
 10
0.0
 20
0.0
 30
0.0
 70
   128
 71
   418
 72
   426
 73
   356
  0
VERTEX
  5
89C
  8
0
 62
     7
 10
0.0
 20
0.0
 30
0.0
 70
   128
 71
   383
 72
   425
 73
   356
  0
VERTEX
  5
89D
  8
0
 62
     7
 10
0.0
 20
0.0
 30
0.0
 70
   128
 71
   418
 72
   356
 73
   425
  0
VERTEX
  5
89E
  8
0
 62
     7
 10
0.0
 20
0.0
 30
0.0
 70
   128
 71
   383
 72
   427
 73
   425
  0
VERTEX
  5
89F
  8
0
 62
     7
 10
0.0
 20
0.0
 30
0.0
 70
   128
 71
   383
 72
   430
 73
   429
  0
VERTEX
  5
8A0
  8
0
 62
     7
 10
0.0
 20
0.0
 30
0.0
 70
   128
 71
   428
 72
   383
 73
   429
  0
VERTEX
  5
8A1
  8
0
 62
     7
 10
0.0
 20
0.0
 30
0.0
 70
   128
 71
   430
 72
   383
 73
   382
  0
VERTEX
  5
8A2
  8
0
 62
   251
 10
0.0
 20
0.0
 30
0.0
 70
   128
 71
   296
 72
   373
 73
   317
  0
VERTEX
  5
8A3
  8
0
 62
   251
 10
0.0
 20
0.0
 30
0.0
 70
   128
 71
   315
 72
   375
 73
   314
  0
VERTEX
  5
8A4
  8
0
 62
   251
 10
0.0
 20
0.0
 30
0.0
 70
   128
 71
   374
 72
   375
 73
   316
  0
VERTEX
  5
8A5
  8
0
 62
   251
 10
0.0
 20
0.0
 30
0.0
 70
   128
 71
   310
 72
   388
 73
   306
  0
VERTEX
  5
8A6
  8
0
 62
   251
 10
0.0
 20
0.0
 30
0.0
 70
   128
 71
   310
 72
   314
 73
   384
  0
VERTEX
  5
8A7
  8
0
 62
   251
 10
0.0
 20
0.0
 30
0.0
 70
   128
 71
   387
 72
   305
 73
   306
  0
VERTEX
  5
8A8
  8
0
 62
   251
 10
0.0
 20
0.0
 30
0.0
 70
   128
 71
   306
 72
   388
 73
   387
  0
VERTEX
  5
8A9
  8
0
 62
   251
 10
0.0
 20
0.0
 30
0.0
 70
   128
 71
   384
 72
   314
 73
   375
  0
VERTEX
  5
8AA
  8
0
 62
   251
 10
0.0
 20
0.0
 30
0.0
 70
   128
 71
   310
 72
   384
 73
   388
  0
VERTEX
  5
8AB
  8
0
 62
   251
 10
0.0
 20
0.0
 30
0.0
 70
   128
 71
   316
 72
   317
 73
   374
  0
VERTEX
  5
8AC
  8
0
 62
   251
 10
0.0
 20
0.0
 30
0.0
 70
   128
 71
   316
 72
   375
 73
   315
  0
VERTEX
  5
8AD
  8
0
 62
   251
 10
0.0
 20
0.0
 30
0.0
 70
   128
 71
   374
 72
   317
 73
   373
  0
VERTEX
  5
8AE
  8
0
 62
   251
 10
0.0
 20
0.0
 30
0.0
 70
   128
 71
   320
 72
   390
 73
   341
  0
VERTEX
  5
8AF
  8
0
 62
   251
 10
0.0
 20
0.0
 30
0.0
 70
   128
 71
   339
 72
   394
 73
   338
  0
VERTEX
  5
8B0
  8
0
 62
   251
 10
0.0
 20
0.0
 30
0.0
 70
   128
 71
   391
 72
   394
 73
   340
  0
VERTEX
  5
8B1
  8
0
 62
   251
 10
0.0
 20
0.0
 30
0.0
 70
   128
 71
   334
 72
   389
 73
   330
  0
VERTEX
  5
8B2
  8
0
 62
   251
 10
0.0
 20
0.0
 30
0.0
 70
   128
 71
   334
 72
   338
 73
   395
  0
VERTEX
  5
8B3
  8
0
 62
   251
 10
0.0
 20
0.0
 30
0.0
 70
   128
 71
   377
 72
   329
 73
   330
  0
VERTEX
  5
8B4
  8
0
 62
   251
 10
0.0
 20
0.0
 30
0.0
 70
   128
 71
   330
 72
   389
 73
   377
  0
VERTEX
  5
8B5
  8
0
 62
   251
 10
0.0
 20
0.0
 30
0.0
 70
   128
 71
   395
 72
   338
 73
   394
  0
VERTEX
  5
8B6
  8
0
 62
   251
 10
0.0
 20
0.0
 30
0.0
 70
   128
 71
   334
 72
   395
 73
   389
  0
VERTEX
  5
8B7
  8
0
 62
   251
 10
0.0
 20
0.0
 30
0.0
 70
   128
 71
   340
 72
   341
 73
   391
  0
VERTEX
  5
8B8
  8
0
 62
   251
 10
0.0
 20
0.0
 30
0.0
 70
   128
 71
   340
 72
   394
 73
   339
  0
VERTEX
  5
8B9
  8
0
 62
   251
 10
0.0
 20
0.0
 30
0.0
 70
   128
 71
   391
 72
   341
 73
   390
  0
VERTEX
  5
8BA
  8
0
 62
     7
 10
0.0
 20
0.0
 30
0.0
 70
   128
 71
   411
 72
   431
 73
   408
  0
VERTEX
  5
8BB
  8
0
 62
     7
 10
0.0
 20
0.0
 30
0.0
 70
   128
 71
   410
 72
   405
 73
   413
  0
VERTEX
  5
8BC
  8
0
 62
     7
 10
0.0
 20
0.0
 30
0.0
 70
   128
 71
   378
 72
   432
 73
   379
  0
VERTEX
  5
8BD
  8
0
 62
     7
 10
0.0
 20
0.0
 30
0.0
 70
   128
 71
   434
 72
   432
 73
   433
  0
VERTEX
  5
8BE
  8
0
 62
     7
 10
0.0
 20
0.0
 30
0.0
 70
   128
 71
   435
 72
   432
 73
   434
  0
VERTEX
  5
8BF
  8
0
 62
     7
 10
0.0
 20
0.0
 30
0.0
 70
   128
 71
   380
 72
   379
 73
   435
  0
VERTEX
  5
8C0
  8
0
 62
     7
 10
0.0
 20
0.0
 30
0.0
 70
   128
 71
   408
 72
   431
 73
   433
  0
VERTEX
  5
8C1
  8
0
 62
     7
 10
0.0
 20
0.0
 30
0.0
 70
   128
 71
   437
 72
   436
 73
   433
  0
VERTEX
  5
8C2
  8
0
 62
     7
 10
0.0
 20
0.0
 30
0.0
 70
   128
 71
   402
 72
   437
 73
   415
  0
VERTEX
  5
8C3
  8
0
 62
     7
 10
0.0
 20
0.0
 30
0.0
 70
   128
 71
   436
 72
   437
 73
   402
  0
VERTEX
  5
8C4
  8
0
 62
     7
 10
0.0
 20
0.0
 30
0.0
 70
   128
 71
   414
 72
   415
 73
   431
  0
VERTEX
  5
8C5
  8
0
 62
     7
 10
0.0
 20
0.0
 30
0.0
 70
   128
 71
   432
 72
   409
 73
   433
  0
VERTEX
  5
8C6
  8
0
 62
     7
 10
0.0
 20
0.0
 30
0.0
 70
   128
 71
   434
 72
   433
 73
   436
  0
VERTEX
  5
8C7
  8
0
 62
     7
 10
0.0
 20
0.0
 30
0.0
 70
   128
 71
   409
 72
   432
 73
   378
  0
VERTEX
  5
8C8
  8
0
 62
     7
 10
0.0
 20
0.0
 30
0.0
 70
   128
 71
   432
 72
   435
 73
   379
  0
VERTEX
  5
8C9
  8
0
 62
     7
 10
0.0
 20
0.0
 30
0.0
 70
   128
 71
   437
 72
   431
 73
   415
  0
VERTEX
  5
8CA
  8
0
 62
     7
 10
0.0
 20
0.0
 30
0.0
 70
   128
 71
   431
 72
   410
 73
   413
  0
VERTEX
  5
8CB
  8
0
 62
     7
 10
0.0
 20
0.0
 30
0.0
 70
   128
 71
   409
 72
   408
 73
   433
  0
VERTEX
  5
8CC
  8
0
 62
     7
 10
0.0
 20
0.0
 30
0.0
 70
   128
 71
   437
 72
   433
 73
   431
  0
VERTEX
  5
8CD
  8
0
 62
     7
 10
0.0
 20
0.0
 30
0.0
 70
   128
 71
   413
 72
   414
 73
   431
  0
VERTEX
  5
8CE
  8
0
 62
     7
 10
0.0
 20
0.0
 30
0.0
 70
   128
 71
   431
 72
   411
 73
   410
  0
VERTEX
  5
8CF
  8
0
 62
     7
 10
0.0
 20
0.0
 30
0.0
 70
   128
 71
   435
 72
   434
 73
   438
  0
VERTEX
  5
8D0
  8
0
 62
     7
 10
0.0
 20
0.0
 30
0.0
 70
   128
 71
   435
 72
   439
 73
   380
  0
VERTEX
  5
8D1
  8
0
 62
     7
 10
0.0
 20
0.0
 30
0.0
 70
   128
 71
   439
 72
   435
 73
   438
  0
VERTEX
  5
8D2
  8
0
 62
     7
 10
0.0
 20
0.0
 30
0.0
 70
   128
 71
   380
 72
   439
 73
   381
  0
VERTEX
  5
8D3
  8
0
 62
     7
 10
0.0
 20
0.0
 30
0.0
 70
   128
 71
   438
 72
   434
 73
   440
  0
VERTEX
  5
8D4
  8
0
 62
     7
 10
0.0
 20
0.0
 30
0.0
 70
   128
 71
   403
 72
   440
 73
   436
  0
VERTEX
  5
8D5
  8
0
 62
     7
 10
0.0
 20
0.0
 30
0.0
 70
   128
 71
   434
 72
   436
 73
   440
  0
VERTEX
  5
8D6
  8
0
 62
     7
 10
0.0
 20
0.0
 30
0.0
 70
   128
 71
   402
 72
   403
 73
   436
  0
VERTEX
  5
8D7
  8
0
 62
     7
 10
0.0
 20
0.0
 30
0.0
 70
   128
 71
   442
 72
   441
 73
   439
  0
VERTEX
  5
8D8
  8
0
 62
     7
 10
0.0
 20
0.0
 30
0.0
 70
   128
 71
   382
 72
   441
 73
   430
  0
VERTEX
  5
8D9
  8
0
 62
     7
 10
0.0
 20
0.0
 30
0.0
 70
   128
 71
   443
 72
   429
 73
   442
  0
VERTEX
  5
8DA
  8
0
 62
     7
 10
0.0
 20
0.0
 30
0.0
 70
   128
 71
   420
 72
   425
 73
   427
  0
VERTEX
  5
8DB
  8
0
 62
     7
 10
0.0
 20
0.0
 30
0.0
 70
   128
 71
   420
 72
   443
 73
   422
  0
VERTEX
  5
8DC
  8
0
 62
     7
 10
0.0
 20
0.0
 30
0.0
 70
   128
 71
   440
 72
   403
 73
   421
  0
VERTEX
  5
8DD
  8
0
 62
     7
 10
0.0
 20
0.0
 30
0.0
 70
   128
 71
   444
 72
   438
 73
   440
  0
VERTEX
  5
8DE
  8
0
 62
     7
 10
0.0
 20
0.0
 30
0.0
 70
   128
 71
   429
 72
   430
 73
   442
  0
VERTEX
  5
8DF
  8
0
 62
     7
 10
0.0
 20
0.0
 30
0.0
 70
   128
 71
   443
 72
   442
 73
   444
  0
VERTEX
  5
8E0
  8
0
 62
     7
 10
0.0
 20
0.0
 30
0.0
 70
   128
 71
   381
 72
   439
 73
   376
  0
VERTEX
  5
8E1
  8
0
 62
     7
 10
0.0
 20
0.0
 30
0.0
 70
   128
 71
   430
 72
   441
 73
   442
  0
VERTEX
  5
8E2
  8
0
 62
     7
 10
0.0
 20
0.0
 30
0.0
 70
   128
 71
   443
 72
   427
 73
   428
  0
VERTEX
  5
8E3
  8
0
 62
     7
 10
0.0
 20
0.0
 30
0.0
 70
   128
 71
   427
 72
   443
 73
   420
  0
VERTEX
  5
8E4
  8
0
 62
     7
 10
0.0
 20
0.0
 30
0.0
 70
   128
 71
   422
 72
   444
 73
   421
  0
VERTEX
  5
8E5
  8
0
 62
     7
 10
0.0
 20
0.0
 30
0.0
 70
   128
 71
   421
 72
   444
 73
   440
  0
VERTEX
  5
8E6
  8
0
 62
     7
 10
0.0
 20
0.0
 30
0.0
 70
   128
 71
   428
 72
   429
 73
   443
  0
VERTEX
  5
8E7
  8
0
 62
     7
 10
0.0
 20
0.0
 30
0.0
 70
   128
 71
   443
 72
   444
 73
   422
  0
VERTEX
  5
8E8
  8
0
 62
     7
 10
0.0
 20
0.0
 30
0.0
 70
   128
 71
   438
 72
   442
 73
   439
  0
VERTEX
  5
8E9
  8
0
 62
     7
 10
0.0
 20
0.0
 30
0.0
 70
   128
 71
   442
 72
   438
 73
   444
  0
VERTEX
  5
8EA
  8
0
 62
     7
 10
0.0
 20
0.0
 30
0.0
 70
   128
 71
   441
 72
   376
 73
   439
  0
VERTEX
  5
8EB
  8
0
 62
     7
 10
0.0
 20
0.0
 30
0.0
 70
   128
 71
   376
 72
   441
 73
   382
  0
VERTEX
  5
8EC
  8
0
 62
     7
 10
0.0
 20
0.0
 30
0.0
 70
   128
 71
   417
 72
   406
 73
   407
  0
VERTEX
  5
8ED
  8
0
 62
     7
 10
0.0
 20
0.0
 30
0.0
 70
   128
 71
   445
 72
   416
 73
   417
  0
VERTEX
  5
8EE
  8
0
 62
     7
 10
0.0
 20
0.0
 30
0.0
 70
   128
 71
   359
 72
   445
 73
   407
  0
VERTEX
  5
8EF
  8
0
 62
     7
 10
0.0
 20
0.0
 30
0.0
 70
   128
 71
   446
 72
   445
 73
   355
  0
VERTEX
  5
8F0
  8
0
 62
     7
 10
0.0
 20
0.0
 30
0.0
 70
   128
 71
   446
 72
   358
 73
   447
  0
VERTEX
  5
8F1
  8
0
 62
     7
 10
0.0
 20
0.0
 30
0.0
 70
   128
 71
   446
 72
   355
 73
   369
  0
VERTEX
  5
8F2
  8
0
 62
     7
 10
0.0
 20
0.0
 30
0.0
 70
   128
 71
   369
 72
   358
 73
   446
  0
VERTEX
  5
8F3
  8
0
 62
     7
 10
0.0
 20
0.0
 30
0.0
 70
   128
 71
   447
 72
   401
 73
   412
  0
VERTEX
  5
8F4
  8
0
 62
     7
 10
0.0
 20
0.0
 30
0.0
 70
   128
 71
   417
 72
   407
 73
   445
  0
VERTEX
  5
8F5
  8
0
 62
     7
 10
0.0
 20
0.0
 30
0.0
 70
   128
 71
   446
 72
   412
 73
   416
  0
VERTEX
  5
8F6
  8
0
 62
     7
 10
0.0
 20
0.0
 30
0.0
 70
   128
 71
   355
 72
   445
 73
   359
  0
VERTEX
  5
8F7
  8
0
 62
     7
 10
0.0
 20
0.0
 30
0.0
 70
   128
 71
   445
 72
   446
 73
   416
  0
VERTEX
  5
8F8
  8
0
 62
     7
 10
0.0
 20
0.0
 30
0.0
 70
   128
 71
   412
 72
   446
 73
   447
  0
VERTEX
  5
8F9
  8
0
 62
     7
 10
0.0
 20
0.0
 30
0.0
 70
   128
 71
   448
 72
   401
 73
   447
  0
VERTEX
  5
8FA
  8
0
 62
     7
 10
0.0
 20
0.0
 30
0.0
 70
   128
 71
   448
 72
   404
 73
   401
  0
VERTEX
  5
8FB
  8
0
 62
     7
 10
0.0
 20
0.0
 30
0.0
 70
   128
 71
   448
 72
   447
 73
   371
  0
VERTEX
  5
8FC
  8
0
 62
     7
 10
0.0
 20
0.0
 30
0.0
 70
   128
 71
   358
 72
   371
 73
   447
  0
VERTEX
  5
8FD
  8
0
 62
     7
 10
0.0
 20
0.0
 30
0.0
 70
   128
 71
   450
 72
   372
 73
   449
  0
VERTEX
  5
8FE
  8
0
 62
     7
 10
0.0
 20
0.0
 30
0.0
 70
   128
 71
   404
 72
   450
 73
   424
  0
VERTEX
  5
8FF
  8
0
 62
     7
 10
0.0
 20
0.0
 30
0.0
 70
   128
 71
   424
 72
   450
 73
   449
  0
VERTEX
  5
900
  8
0
 62
     7
 10
0.0
 20
0.0
 30
0.0
 70
   128
 71
   419
 72
   426
 73
   418
  0
VERTEX
  5
901
  8
0
 62
     7
 10
0.0
 20
0.0
 30
0.0
 70
   128
 71
   371
 72
   370
 73
   448
  0
VERTEX
  5
902
  8
0
 62
     7
 10
0.0
 20
0.0
 30
0.0
 70
   128
 71
   424
 72
   449
 73
   423
  0
VERTEX
  5
903
  8
0
 62
     7
 10
0.0
 20
0.0
 30
0.0
 70
   128
 71
   450
 72
   404
 73
   448
  0
VERTEX
  5
904
  8
0
 62
     7
 10
0.0
 20
0.0
 30
0.0
 70
   128
 71
   450
 72
   370
 73
   372
  0
VERTEX
  5
905
  8
0
 62
     7
 10
0.0
 20
0.0
 30
0.0
 70
   128
 71
   370
 72
   450
 73
   448
  0
VERTEX
  5
906
  8
0
 62
     7
 10
0.0
 20
0.0
 30
0.0
 70
   128
 71
   423
 72
   426
 73
   419
  0
VERTEX
  5
907
  8
0
 62
     7
 10
0.0
 20
0.0
 30
0.0
 70
   128
 71
   449
 72
   372
 73
   368
  0
VERTEX
  5
908
  8
0
 62
     7
 10
0.0
 20
0.0
 30
0.0
 70
   128
 71
   423
 72
   449
 73
   426
  0
VERTEX
  5
909
  8
0
 62
     7
 10
0.0
 20
0.0
 30
0.0
 70
   128
 71
   449
 72
   368
 73
   426
  0
VERTEX
  5
90A
  8
0
 62
   251
 10
0.0
 20
0.0
 30
0.0
 70
   128
 71
   259
 72
   237
 73
   451
  0
VERTEX
  5
90B
  8
0
 62
   251
 10
0.0
 20
0.0
 30
0.0
 70
   128
 71
   238
 72
   451
 73
   237
  0
VERTEX
  5
90C
  8
0
 62
   251
 10
0.0
 20
0.0
 30
0.0
 70
   128
 71
   451
 72
   452
 73
   259
  0
VERTEX
  5
90D
  8
0
 62
   251
 10
0.0
 20
0.0
 30
0.0
 70
   128
 71
   454
 72
   242
 73
   453
  0
VERTEX
  5
90E
  8
0
 62
   251
 10
0.0
 20
0.0
 30
0.0
 70
   128
 71
   250
 72
   455
 73
   251
  0
VERTEX
  5
90F
  8
0
 62
   251
 10
0.0
 20
0.0
 30
0.0
 70
   128
 71
   455
 72
   457
 73
   456
  0
VERTEX
  5
910
  8
0
 62
   251
 10
0.0
 20
0.0
 30
0.0
 70
   128
 71
   252
 72
   456
 73
   253
  0
VERTEX
  5
911
  8
0
 62
   251
 10
0.0
 20
0.0
 30
0.0
 70
   128
 71
   458
 72
   257
 73
   256
  0
VERTEX
  5
912
  8
0
 62
   251
 10
0.0
 20
0.0
 30
0.0
 70
   128
 71
   253
 72
   459
 73
   256
  0
VERTEX
  5
913
  8
0
 62
   251
 10
0.0
 20
0.0
 30
0.0
 70
   128
 71
   456
 72
   459
 73
   253
  0
VERTEX
  5
914
  8
0
 62
   251
 10
0.0
 20
0.0
 30
0.0
 70
   128
 71
   459
 72
   460
 73
   458
  0
VERTEX
  5
915
  8
0
 62
   251
 10
0.0
 20
0.0
 30
0.0
 70
   128
 71
   463
 72
   462
 73
   461
  0
VERTEX
  5
916
  8
0
 62
   251
 10
0.0
 20
0.0
 30
0.0
 70
   128
 71
   464
 72
   462
 73
   463
  0
VERTEX
  5
917
  8
0
 62
   251
 10
0.0
 20
0.0
 30
0.0
 70
   128
 71
   466
 72
   465
 73
   464
  0
VERTEX
  5
918
  8
0
 62
   251
 10
0.0
 20
0.0
 30
0.0
 70
   128
 71
   456
 72
   252
 73
   455
  0
VERTEX
  5
919
  8
0
 62
   251
 10
0.0
 20
0.0
 30
0.0
 70
   128
 71
   247
 72
   468
 73
   467
  0
VERTEX
  5
91A
  8
0
 62
   251
 10
0.0
 20
0.0
 30
0.0
 70
   128
 71
   467
 72
   250
 73
   247
  0
VERTEX
  5
91B
  8
0
 62
   251
 10
0.0
 20
0.0
 30
0.0
 70
   128
 71
   471
 72
   470
 73
   469
  0
VERTEX
  5
91C
  8
0
 62
   251
 10
0.0
 20
0.0
 30
0.0
 70
   128
 71
   455
 72
   252
 73
   251
  0
VERTEX
  5
91D
  8
0
 62
   251
 10
0.0
 20
0.0
 30
0.0
 70
   128
 71
   254
 72
   259
 73
   452
  0
VERTEX
  5
91E
  8
0
 62
   251
 10
0.0
 20
0.0
 30
0.0
 70
   128
 71
   238
 72
   472
 73
   451
  0
VERTEX
  5
91F
  8
0
 62
   251
 10
0.0
 20
0.0
 30
0.0
 70
   128
 71
   474
 72
   472
 73
   473
  0
VERTEX
  5
920
  8
0
 62
   251
 10
0.0
 20
0.0
 30
0.0
 70
   128
 71
   477
 72
   476
 73
   475
  0
VERTEX
  5
921
  8
0
 62
   251
 10
0.0
 20
0.0
 30
0.0
 70
   128
 71
   240
 72
   472
 73
   238
  0
VERTEX
  5
922
  8
0
 62
   251
 10
0.0
 20
0.0
 30
0.0
 70
   128
 71
   478
 72
   472
 73
   474
  0
VERTEX
  5
923
  8
0
 62
   251
 10
0.0
 20
0.0
 30
0.0
 70
   128
 71
   235
 72
   480
 73
   479
  0
VERTEX
  5
924
  8
0
 62
   251
 10
0.0
 20
0.0
 30
0.0
 70
   128
 71
   479
 72
   480
 73
   481
  0
VERTEX
  5
925
  8
0
 62
   251
 10
0.0
 20
0.0
 30
0.0
 70
   128
 71
   484
 72
   483
 73
   482
  0
VERTEX
  5
926
  8
0
 62
   251
 10
0.0
 20
0.0
 30
0.0
 70
   128
 71
   468
 72
   248
 73
   485
  0
VERTEX
  5
927
  8
0
 62
   251
 10
0.0
 20
0.0
 30
0.0
 70
   128
 71
   468
 72
   247
 73
   248
  0
VERTEX
  5
928
  8
0
 62
   251
 10
0.0
 20
0.0
 30
0.0
 70
   128
 71
   485
 72
   249
 73
   454
  0
VERTEX
  5
929
  8
0
 62
   251
 10
0.0
 20
0.0
 30
0.0
 70
   128
 71
   485
 72
   248
 73
   249
  0
VERTEX
  5
92A
  8
0
 62
   251
 10
0.0
 20
0.0
 30
0.0
 70
   128
 71
   454
 72
   453
 73
   486
  0
VERTEX
  5
92B
  8
0
 62
   251
 10
0.0
 20
0.0
 30
0.0
 70
   128
 71
   454
 72
   249
 73
   242
  0
VERTEX
  5
92C
  8
0
 62
   251
 10
0.0
 20
0.0
 30
0.0
 70
   128
 71
   488
 72
   453
 73
   487
  0
VERTEX
  5
92D
  8
0
 62
   251
 10
0.0
 20
0.0
 30
0.0
 70
   128
 71
   453
 72
   242
 73
   243
  0
VERTEX
  5
92E
  8
0
 62
   251
 10
0.0
 20
0.0
 30
0.0
 70
   128
 71
   489
 72
   243
 73
   254
  0
VERTEX
  5
92F
  8
0
 62
   251
 10
0.0
 20
0.0
 30
0.0
 70
   128
 71
   459
 72
   458
 73
   256
  0
VERTEX
  5
930
  8
0
 62
   251
 10
0.0
 20
0.0
 30
0.0
 70
   128
 71
   457
 72
   490
 73
   461
  0
VERTEX
  5
931
  8
0
 62
   251
 10
0.0
 20
0.0
 30
0.0
 70
   128
 71
   491
 72
   490
 73
   467
  0
VERTEX
  5
932
  8
0
 62
   251
 10
0.0
 20
0.0
 30
0.0
 70
   128
 71
   457
 72
   459
 73
   456
  0
VERTEX
  5
933
  8
0
 62
   251
 10
0.0
 20
0.0
 30
0.0
 70
   128
 71
   467
 72
   455
 73
   250
  0
VERTEX
  5
934
  8
0
 62
   251
 10
0.0
 20
0.0
 30
0.0
 70
   128
 71
   490
 72
   455
 73
   467
  0
VERTEX
  5
935
  8
0
 62
   251
 10
0.0
 20
0.0
 30
0.0
 70
   128
 71
   491
 72
   468
 73
   492
  0
VERTEX
  5
936
  8
0
 62
   251
 10
0.0
 20
0.0
 30
0.0
 70
   128
 71
   491
 72
   467
 73
   468
  0
VERTEX
  5
937
  8
0
 62
   251
 10
0.0
 20
0.0
 30
0.0
 70
   128
 71
   485
 72
   494
 73
   493
  0
VERTEX
  5
938
  8
0
 62
   251
 10
0.0
 20
0.0
 30
0.0
 70
   128
 71
   468
 72
   485
 73
   493
  0
VERTEX
  5
939
  8
0
 62
   251
 10
0.0
 20
0.0
 30
0.0
 70
   128
 71
   454
 72
   495
 73
   494
  0
VERTEX
  5
93A
  8
0
 62
   251
 10
0.0
 20
0.0
 30
0.0
 70
   128
 71
   485
 72
   454
 73
   494
  0
VERTEX
  5
93B
  8
0
 62
   251
 10
0.0
 20
0.0
 30
0.0
 70
   128
 71
   486
 72
   495
 73
   454
  0
VERTEX
  5
93C
  8
0
 62
   251
 10
0.0
 20
0.0
 30
0.0
 70
   128
 71
   486
 72
   453
 73
   488
  0
VERTEX
  5
93D
  8
0
 62
   251
 10
0.0
 20
0.0
 30
0.0
 70
   128
 71
   243
 72
   489
 73
   453
  0
VERTEX
  5
93E
  8
0
 62
   251
 10
0.0
 20
0.0
 30
0.0
 70
   128
 71
   487
 72
   453
 73
   489
  0
VERTEX
  5
93F
  8
0
 62
   251
 10
0.0
 20
0.0
 30
0.0
 70
   128
 71
   254
 72
   452
 73
   489
  0
VERTEX
  5
940
  8
0
 62
   251
 10
0.0
 20
0.0
 30
0.0
 70
   128
 71
   489
 72
   452
 73
   487
  0
VERTEX
  5
941
  8
0
 62
   251
 10
0.0
 20
0.0
 30
0.0
 70
   128
 71
   452
 72
   451
 73
   496
  0
VERTEX
  5
942
  8
0
 62
   251
 10
0.0
 20
0.0
 30
0.0
 70
   128
 71
   496
 72
   487
 73
   452
  0
VERTEX
  5
943
  8
0
 62
   251
 10
0.0
 20
0.0
 30
0.0
 70
   128
 71
   497
 72
   474
 73
   473
  0
VERTEX
  5
944
  8
0
 62
   251
 10
0.0
 20
0.0
 30
0.0
 70
   128
 71
   451
 72
   478
 73
   496
  0
VERTEX
  5
945
  8
0
 62
   251
 10
0.0
 20
0.0
 30
0.0
 70
   128
 71
   473
 72
   240
 73
   231
  0
VERTEX
  5
946
  8
0
 62
   251
 10
0.0
 20
0.0
 30
0.0
 70
   128
 71
   240
 72
   473
 73
   472
  0
VERTEX
  5
947
  8
0
 62
   251
 10
0.0
 20
0.0
 30
0.0
 70
   128
 71
   460
 72
   498
 73
   257
  0
VERTEX
  5
948
  8
0
 62
   251
 10
0.0
 20
0.0
 30
0.0
 70
   128
 71
   457
 72
   499
 73
   459
  0
VERTEX
  5
949
  8
0
 62
   251
 10
0.0
 20
0.0
 30
0.0
 70
   128
 71
   458
 72
   460
 73
   257
  0
VERTEX
  5
94A
  8
0
 62
   251
 10
0.0
 20
0.0
 30
0.0
 70
   128
 71
   460
 72
   459
 73
   499
  0
VERTEX
  5
94B
  8
0
 62
   251
 10
0.0
 20
0.0
 30
0.0
 70
   128
 71
   457
 72
   461
 73
   499
  0
VERTEX
  5
94C
  8
0
 62
   251
 10
0.0
 20
0.0
 30
0.0
 70
   128
 71
   501
 72
   491
 73
   500
  0
VERTEX
  5
94D
  8
0
 62
   251
 10
0.0
 20
0.0
 30
0.0
 70
   128
 71
   490
 72
   457
 73
   455
  0
VERTEX
  5
94E
  8
0
 62
   251
 10
0.0
 20
0.0
 30
0.0
 70
   128
 71
   463
 72
   490
 73
   491
  0
VERTEX
  5
94F
  8
0
 62
   251
 10
0.0
 20
0.0
 30
0.0
 70
   128
 71
   492
 72
   500
 73
   491
  0
VERTEX
  5
950
  8
0
 62
   251
 10
0.0
 20
0.0
 30
0.0
 70
   128
 71
   492
 72
   493
 73
   500
  0
VERTEX
  5
951
  8
0
 62
   251
 10
0.0
 20
0.0
 30
0.0
 70
   128
 71
   492
 72
   468
 73
   493
  0
VERTEX
  5
952
  8
0
 62
   251
 10
0.0
 20
0.0
 30
0.0
 70
   128
 71
   487
 72
   502
 73
   488
  0
VERTEX
  5
953
  8
0
 62
   251
 10
0.0
 20
0.0
 30
0.0
 70
   128
 71
   496
 72
   502
 73
   487
  0
VERTEX
  5
954
  8
0
 62
   251
 10
0.0
 20
0.0
 30
0.0
 70
   128
 71
   502
 72
   503
 73
   470
  0
VERTEX
  5
955
  8
0
 62
   251
 10
0.0
 20
0.0
 30
0.0
 70
   128
 71
   472
 72
   478
 73
   451
  0
VERTEX
  5
956
  8
0
 62
   251
 10
0.0
 20
0.0
 30
0.0
 70
   128
 71
   496
 72
   503
 73
   502
  0
VERTEX
  5
957
  8
0
 62
   251
 10
0.0
 20
0.0
 30
0.0
 70
   128
 71
   474
 72
   469
 73
   478
  0
VERTEX
  5
958
  8
0
 62
   251
 10
0.0
 20
0.0
 30
0.0
 70
   128
 71
   478
 72
   469
 73
   503
  0
VERTEX
  5
959
  8
0
 62
   251
 10
0.0
 20
0.0
 30
0.0
 70
   128
 71
   479
 72
   481
 73
   473
  0
VERTEX
  5
95A
  8
0
 62
   251
 10
0.0
 20
0.0
 30
0.0
 70
   128
 71
   474
 72
   497
 73
   469
  0
VERTEX
  5
95B
  8
0
 62
   251
 10
0.0
 20
0.0
 30
0.0
 70
   128
 71
   497
 72
   473
 73
   481
  0
VERTEX
  5
95C
  8
0
 62
   251
 10
0.0
 20
0.0
 30
0.0
 70
   128
 71
   479
 72
   231
 73
   235
  0
VERTEX
  5
95D
  8
0
 62
   251
 10
0.0
 20
0.0
 30
0.0
 70
   128
 71
   479
 72
   473
 73
   231
  0
VERTEX
  5
95E
  8
0
 62
   251
 10
0.0
 20
0.0
 30
0.0
 70
   128
 71
   505
 72
   460
 73
   504
  0
VERTEX
  5
95F
  8
0
 62
   251
 10
0.0
 20
0.0
 30
0.0
 70
   128
 71
   498
 72
   260
 73
   257
  0
VERTEX
  5
960
  8
0
 62
   251
 10
0.0
 20
0.0
 30
0.0
 70
   128
 71
   460
 72
   505
 73
   498
  0
VERTEX
  5
961
  8
0
 62
   251
 10
0.0
 20
0.0
 30
0.0
 70
   128
 71
   499
 72
   506
 73
   504
  0
VERTEX
  5
962
  8
0
 62
   251
 10
0.0
 20
0.0
 30
0.0
 70
   128
 71
   504
 72
   460
 73
   499
  0
VERTEX
  5
963
  8
0
 62
   251
 10
0.0
 20
0.0
 30
0.0
 70
   128
 71
   461
 72
   462
 73
   506
  0
VERTEX
  5
964
  8
0
 62
   251
 10
0.0
 20
0.0
 30
0.0
 70
   128
 71
   461
 72
   506
 73
   499
  0
VERTEX
  5
965
  8
0
 62
   251
 10
0.0
 20
0.0
 30
0.0
 70
   128
 71
   464
 72
   501
 73
   507
  0
VERTEX
  5
966
  8
0
 62
   251
 10
0.0
 20
0.0
 30
0.0
 70
   128
 71
   501
 72
   463
 73
   491
  0
VERTEX
  5
967
  8
0
 62
   251
 10
0.0
 20
0.0
 30
0.0
 70
   128
 71
   463
 72
   461
 73
   490
  0
VERTEX
  5
968
  8
0
 62
   251
 10
0.0
 20
0.0
 30
0.0
 70
   128
 71
   464
 72
   463
 73
   501
  0
VERTEX
  5
969
  8
0
 62
   251
 10
0.0
 20
0.0
 30
0.0
 70
   128
 71
   507
 72
   501
 73
   500
  0
VERTEX
  5
96A
  8
0
 62
   251
 10
0.0
 20
0.0
 30
0.0
 70
   128
 71
   470
 72
   503
 73
   469
  0
VERTEX
  5
96B
  8
0
 62
   251
 10
0.0
 20
0.0
 30
0.0
 70
   128
 71
   503
 72
   496
 73
   478
  0
VERTEX
  5
96C
  8
0
 62
   251
 10
0.0
 20
0.0
 30
0.0
 70
   128
 71
   475
 72
   470
 73
   471
  0
VERTEX
  5
96D
  8
0
 62
   251
 10
0.0
 20
0.0
 30
0.0
 70
   128
 71
   497
 72
   508
 73
   471
  0
VERTEX
  5
96E
  8
0
 62
   251
 10
0.0
 20
0.0
 30
0.0
 70
   128
 71
   471
 72
   469
 73
   497
  0
VERTEX
  5
96F
  8
0
 62
   251
 10
0.0
 20
0.0
 30
0.0
 70
   128
 71
   481
 72
   509
 73
   508
  0
VERTEX
  5
970
  8
0
 62
   251
 10
0.0
 20
0.0
 30
0.0
 70
   128
 71
   508
 72
   497
 73
   481
  0
VERTEX
  5
971
  8
0
 62
   251
 10
0.0
 20
0.0
 30
0.0
 70
   128
 71
   480
 72
   484
 73
   509
  0
VERTEX
  5
972
  8
0
 62
   251
 10
0.0
 20
0.0
 30
0.0
 70
   128
 71
   480
 72
   509
 73
   481
  0
VERTEX
  5
973
  8
0
 62
   251
 10
0.0
 20
0.0
 30
0.0
 70
   128
 71
   480
 72
   483
 73
   484
  0
VERTEX
  5
974
  8
0
 62
   251
 10
0.0
 20
0.0
 30
0.0
 70
   128
 71
   483
 72
   235
 73
   236
  0
VERTEX
  5
975
  8
0
 62
   251
 10
0.0
 20
0.0
 30
0.0
 70
   128
 71
   483
 72
   480
 73
   235
  0
VERTEX
  5
976
  8
0
 62
   251
 10
0.0
 20
0.0
 30
0.0
 70
   128
 71
   511
 72
   510
 73
   505
  0
VERTEX
  5
977
  8
0
 62
   251
 10
0.0
 20
0.0
 30
0.0
 70
   128
 71
   498
 72
   505
 73
   260
  0
VERTEX
  5
978
  8
0
 62
   251
 10
0.0
 20
0.0
 30
0.0
 70
   128
 71
   504
 72
   511
 73
   505
  0
VERTEX
  5
979
  8
0
 62
   251
 10
0.0
 20
0.0
 30
0.0
 70
   128
 71
   506
 72
   512
 73
   504
  0
VERTEX
  5
97A
  8
0
 62
   251
 10
0.0
 20
0.0
 30
0.0
 70
   128
 71
   464
 72
   513
 73
   462
  0
VERTEX
  5
97B
  8
0
 62
   251
 10
0.0
 20
0.0
 30
0.0
 70
   128
 71
   507
 72
   466
 73
   464
  0
VERTEX
  5
97C
  8
0
 62
   251
 10
0.0
 20
0.0
 30
0.0
 70
   128
 71
   508
 72
   514
 73
   471
  0
VERTEX
  5
97D
  8
0
 62
   251
 10
0.0
 20
0.0
 30
0.0
 70
   128
 71
   477
 72
   475
 73
   471
  0
VERTEX
  5
97E
  8
0
 62
   251
 10
0.0
 20
0.0
 30
0.0
 70
   128
 71
   484
 72
   515
 73
   509
  0
VERTEX
  5
97F
  8
0
 62
   251
 10
0.0
 20
0.0
 30
0.0
 70
   128
 71
   484
 72
   482
 73
   516
  0
VERTEX
  5
980
  8
0
 62
   251
 10
0.0
 20
0.0
 30
0.0
 70
   128
 71
   482
 72
   483
 73
   236
  0
VERTEX
  5
981
  8
0
 62
   251
 10
0.0
 20
0.0
 30
0.0
 70
   128
 71
   236
 72
   517
 73
   482
  0
VERTEX
  5
982
  8
0
 62
   251
 10
0.0
 20
0.0
 30
0.0
 70
   128
 71
   260
 72
   510
 73
   261
  0
VERTEX
  5
983
  8
0
 62
   251
 10
0.0
 20
0.0
 30
0.0
 70
   128
 71
   504
 72
   518
 73
   511
  0
VERTEX
  5
984
  8
0
 62
   251
 10
0.0
 20
0.0
 30
0.0
 70
   128
 71
   260
 72
   505
 73
   510
  0
VERTEX
  5
985
  8
0
 62
   251
 10
0.0
 20
0.0
 30
0.0
 70
   128
 71
   518
 72
   504
 73
   512
  0
VERTEX
  5
986
  8
0
 62
   251
 10
0.0
 20
0.0
 30
0.0
 70
   128
 71
   506
 72
   519
 73
   512
  0
VERTEX
  5
987
  8
0
 62
   251
 10
0.0
 20
0.0
 30
0.0
 70
   128
 71
   462
 72
   519
 73
   506
  0
VERTEX
  5
988
  8
0
 62
   251
 10
0.0
 20
0.0
 30
0.0
 70
   128
 71
   462
 72
   513
 73
   519
  0
VERTEX
  5
989
  8
0
 62
   251
 10
0.0
 20
0.0
 30
0.0
 70
   128
 71
   464
 72
   465
 73
   513
  0
VERTEX
  5
98A
  8
0
 62
   251
 10
0.0
 20
0.0
 30
0.0
 70
   128
 71
   466
 72
   520
 73
   465
  0
VERTEX
  5
98B
  8
0
 62
   251
 10
0.0
 20
0.0
 30
0.0
 70
   128
 71
   477
 72
   471
 73
   514
  0
VERTEX
  5
98C
  8
0
 62
   251
 10
0.0
 20
0.0
 30
0.0
 70
   128
 71
   508
 72
   521
 73
   514
  0
VERTEX
  5
98D
  8
0
 62
   251
 10
0.0
 20
0.0
 30
0.0
 70
   128
 71
   509
 72
   521
 73
   508
  0
VERTEX
  5
98E
  8
0
 62
   251
 10
0.0
 20
0.0
 30
0.0
 70
   128
 71
   509
 72
   515
 73
   521
  0
VERTEX
  5
98F
  8
0
 62
   251
 10
0.0
 20
0.0
 30
0.0
 70
   128
 71
   484
 72
   516
 73
   515
  0
VERTEX
  5
990
  8
0
 62
   251
 10
0.0
 20
0.0
 30
0.0
 70
   128
 71
   482
 72
   522
 73
   516
  0
VERTEX
  5
991
  8
0
 62
   251
 10
0.0
 20
0.0
 30
0.0
 70
   128
 71
   522
 72
   482
 73
   517
  0
VERTEX
  5
992
  8
0
 62
   251
 10
0.0
 20
0.0
 30
0.0
 70
   128
 71
   517
 72
   236
 73
   228
  0
VERTEX
  5
993
  8
0
 62
   251
 10
0.0
 20
0.0
 30
0.0
 70
   128
 71
   525
 72
   524
 73
   523
  0
VERTEX
  5
994
  8
0
 62
   251
 10
0.0
 20
0.0
 30
0.0
 70
   128
 71
   527
 72
   517
 73
   526
  0
VERTEX
  5
995
  8
0
 62
   251
 10
0.0
 20
0.0
 30
0.0
 70
   128
 71
   521
 72
   528
 73
   514
  0
VERTEX
  5
996
  8
0
 62
   251
 10
0.0
 20
0.0
 30
0.0
 70
   128
 71
   528
 72
   530
 73
   529
  0
VERTEX
  5
997
  8
0
 62
   251
 10
0.0
 20
0.0
 30
0.0
 70
   128
 71
   477
 72
   531
 73
   476
  0
VERTEX
  5
998
  8
0
 62
   251
 10
0.0
 20
0.0
 30
0.0
 70
   128
 71
   532
 72
   531
 73
   477
  0
VERTEX
  5
999
  8
0
 62
   251
 10
0.0
 20
0.0
 30
0.0
 70
   128
 71
   534
 72
   525
 73
   533
  0
VERTEX
  5
99A
  8
0
 62
   251
 10
0.0
 20
0.0
 30
0.0
 70
   128
 71
   537
 72
   536
 73
   535
  0
VERTEX
  5
99B
  8
0
 62
   251
 10
0.0
 20
0.0
 30
0.0
 70
   128
 71
   540
 72
   539
 73
   538
  0
VERTEX
  5
99C
  8
0
 62
   251
 10
0.0
 20
0.0
 30
0.0
 70
   128
 71
   543
 72
   542
 73
   541
  0
VERTEX
  5
99D
  8
0
 62
   251
 10
0.0
 20
0.0
 30
0.0
 70
   128
 71
   546
 72
   545
 73
   544
  0
VERTEX
  5
99E
  8
0
 62
   251
 10
0.0
 20
0.0
 30
0.0
 70
   128
 71
   547
 72
   543
 73
   541
  0
VERTEX
  5
99F
  8
0
 62
   251
 10
0.0
 20
0.0
 30
0.0
 70
   128
 71
   549
 72
   541
 73
   548
  0
VERTEX
  5
9A0
  8
0
 62
   251
 10
0.0
 20
0.0
 30
0.0
 70
   128
 71
   546
 72
   550
 73
   542
  0
VERTEX
  5
9A1
  8
0
 62
   251
 10
0.0
 20
0.0
 30
0.0
 70
   128
 71
   513
 72
   549
 73
   548
  0
VERTEX
  5
9A2
  8
0
 62
   251
 10
0.0
 20
0.0
 30
0.0
 70
   128
 71
   262
 72
   551
 73
   269
  0
VERTEX
  5
9A3
  8
0
 62
   251
 10
0.0
 20
0.0
 30
0.0
 70
   128
 71
   554
 72
   553
 73
   552
  0
VERTEX
  5
9A4
  8
0
 62
   251
 10
0.0
 20
0.0
 30
0.0
 70
   128
 71
   465
 72
   520
 73
   555
  0
VERTEX
  5
9A5
  8
0
 62
   251
 10
0.0
 20
0.0
 30
0.0
 70
   128
 71
   519
 72
   556
 73
   512
  0
VERTEX
  5
9A6
  8
0
 62
   251
 10
0.0
 20
0.0
 30
0.0
 70
   128
 71
   269
 72
   551
 73
   192
  0
VERTEX
  5
9A7
  8
0
 62
   251
 10
0.0
 20
0.0
 30
0.0
 70
   128
 71
   552
 72
   511
 73
   518
  0
VERTEX
  5
9A8
  8
0
 62
   251
 10
0.0
 20
0.0
 30
0.0
 70
   128
 71
   512
 72
   556
 73
   518
  0
VERTEX
  5
9A9
  8
0
 62
   251
 10
0.0
 20
0.0
 30
0.0
 70
   128
 71
   556
 72
   550
 73
   554
  0
VERTEX
  5
9AA
  8
0
 62
   251
 10
0.0
 20
0.0
 30
0.0
 70
   128
 71
   546
 72
   544
 73
   554
  0
VERTEX
  5
9AB
  8
0
 62
   251
 10
0.0
 20
0.0
 30
0.0
 70
   128
 71
   558
 72
   543
 73
   557
  0
VERTEX
  5
9AC
  8
0
 62
   251
 10
0.0
 20
0.0
 30
0.0
 70
   128
 71
   543
 72
   558
 73
   536
  0
VERTEX
  5
9AD
  8
0
 62
   251
 10
0.0
 20
0.0
 30
0.0
 70
   128
 71
   543
 72
   536
 73
   559
  0
VERTEX
  5
9AE
  8
0
 62
   251
 10
0.0
 20
0.0
 30
0.0
 70
   128
 71
   537
 72
   561
 73
   560
  0
VERTEX
  5
9AF
  8
0
 62
   251
 10
0.0
 20
0.0
 30
0.0
 70
   128
 71
   535
 72
   536
 73
   558
  0
VERTEX
  5
9B0
  8
0
 62
   251
 10
0.0
 20
0.0
 30
0.0
 70
   128
 71
   537
 72
   535
 73
   562
  0
VERTEX
  5
9B1
  8
0
 62
   251
 10
0.0
 20
0.0
 30
0.0
 70
   128
 71
   537
 72
   562
 73
   563
  0
VERTEX
  5
9B2
  8
0
 62
   251
 10
0.0
 20
0.0
 30
0.0
 70
   128
 71
   565
 72
   563
 73
   564
  0
VERTEX
  5
9B3
  8
0
 62
   251
 10
0.0
 20
0.0
 30
0.0
 70
   128
 71
   560
 72
   536
 73
   537
  0
VERTEX
  5
9B4
  8
0
 62
   251
 10
0.0
 20
0.0
 30
0.0
 70
   128
 71
   566
 72
   565
 73
   524
  0
VERTEX
  5
9B5
  8
0
 62
   251
 10
0.0
 20
0.0
 30
0.0
 70
   128
 71
   524
 72
   565
 73
   564
  0
VERTEX
  5
9B6
  8
0
 62
   251
 10
0.0
 20
0.0
 30
0.0
 70
   128
 71
   525
 72
   567
 73
   566
  0
VERTEX
  5
9B7
  8
0
 62
   251
 10
0.0
 20
0.0
 30
0.0
 70
   128
 71
   534
 72
   569
 73
   568
  0
VERTEX
  5
9B8
  8
0
 62
   251
 10
0.0
 20
0.0
 30
0.0
 70
   128
 71
   534
 72
   570
 73
   567
  0
VERTEX
  5
9B9
  8
0
 62
   251
 10
0.0
 20
0.0
 30
0.0
 70
   128
 71
   531
 72
   532
 73
   569
  0
VERTEX
  5
9BA
  8
0
 62
   251
 10
0.0
 20
0.0
 30
0.0
 70
   128
 71
   572
 72
   571
 73
   568
  0
VERTEX
  5
9BB
  8
0
 62
   251
 10
0.0
 20
0.0
 30
0.0
 70
   128
 71
   521
 72
   515
 73
   573
  0
VERTEX
  5
9BC
  8
0
 62
   251
 10
0.0
 20
0.0
 30
0.0
 70
   128
 71
   573
 72
   528
 73
   521
  0
VERTEX
  5
9BD
  8
0
 62
   251
 10
0.0
 20
0.0
 30
0.0
 70
   128
 71
   574
 72
   515
 73
   516
  0
VERTEX
  5
9BE
  8
0
 62
   251
 10
0.0
 20
0.0
 30
0.0
 70
   128
 71
   551
 72
   261
 73
   510
  0
VERTEX
  5
9BF
  8
0
 62
   251
 10
0.0
 20
0.0
 30
0.0
 70
   128
 71
   261
 72
   551
 73
   262
  0
VERTEX
  5
9C0
  8
0
 62
   251
 10
0.0
 20
0.0
 30
0.0
 70
   128
 71
   192
 72
   551
 73
   575
  0
VERTEX
  5
9C1
  8
0
 62
   251
 10
0.0
 20
0.0
 30
0.0
 70
   128
 71
   576
 72
   510
 73
   511
  0
VERTEX
  5
9C2
  8
0
 62
   251
 10
0.0
 20
0.0
 30
0.0
 70
   128
 71
   518
 72
   556
 73
   552
  0
VERTEX
  5
9C3
  8
0
 62
   251
 10
0.0
 20
0.0
 30
0.0
 70
   128
 71
   548
 72
   519
 73
   513
  0
VERTEX
  5
9C4
  8
0
 62
   251
 10
0.0
 20
0.0
 30
0.0
 70
   128
 71
   549
 72
   513
 73
   465
  0
VERTEX
  5
9C5
  8
0
 62
   251
 10
0.0
 20
0.0
 30
0.0
 70
   128
 71
   532
 72
   477
 73
   514
  0
VERTEX
  5
9C6
  8
0
 62
   251
 10
0.0
 20
0.0
 30
0.0
 70
   128
 71
   569
 72
   577
 73
   531
  0
VERTEX
  5
9C7
  8
0
 62
   251
 10
0.0
 20
0.0
 30
0.0
 70
   128
 71
   530
 72
   573
 73
   578
  0
VERTEX
  5
9C8
  8
0
 62
   251
 10
0.0
 20
0.0
 30
0.0
 70
   128
 71
   532
 72
   514
 73
   528
  0
VERTEX
  5
9C9
  8
0
 62
   251
 10
0.0
 20
0.0
 30
0.0
 70
   128
 71
   515
 72
   574
 73
   573
  0
VERTEX
  5
9CA
  8
0
 62
   251
 10
0.0
 20
0.0
 30
0.0
 70
   128
 71
   527
 72
   574
 73
   522
  0
VERTEX
  5
9CB
  8
0
 62
   251
 10
0.0
 20
0.0
 30
0.0
 70
   128
 71
   574
 72
   516
 73
   522
  0
VERTEX
  5
9CC
  8
0
 62
   251
 10
0.0
 20
0.0
 30
0.0
 70
   128
 71
   526
 72
   517
 73
   266
  0
VERTEX
  5
9CD
  8
0
 62
   251
 10
0.0
 20
0.0
 30
0.0
 70
   128
 71
   527
 72
   522
 73
   517
  0
VERTEX
  5
9CE
  8
0
 62
   251
 10
0.0
 20
0.0
 30
0.0
 70
   128
 71
   266
 72
   517
 73
   228
  0
VERTEX
  5
9CF
  8
0
 62
   251
 10
0.0
 20
0.0
 30
0.0
 70
   128
 71
   576
 72
   551
 73
   510
  0
VERTEX
  5
9D0
  8
0
 62
   251
 10
0.0
 20
0.0
 30
0.0
 70
   128
 71
   553
 72
   544
 73
   579
  0
VERTEX
  5
9D1
  8
0
 62
   251
 10
0.0
 20
0.0
 30
0.0
 70
   128
 71
   576
 72
   511
 73
   552
  0
VERTEX
  5
9D2
  8
0
 62
   251
 10
0.0
 20
0.0
 30
0.0
 70
   128
 71
   551
 72
   576
 73
   580
  0
VERTEX
  5
9D3
  8
0
 62
   251
 10
0.0
 20
0.0
 30
0.0
 70
   128
 71
   556
 72
   519
 73
   548
  0
VERTEX
  5
9D4
  8
0
 62
   251
 10
0.0
 20
0.0
 30
0.0
 70
   128
 71
   553
 72
   576
 73
   552
  0
VERTEX
  5
9D5
  8
0
 62
   251
 10
0.0
 20
0.0
 30
0.0
 70
   128
 71
   554
 72
   552
 73
   556
  0
VERTEX
  5
9D6
  8
0
 62
   251
 10
0.0
 20
0.0
 30
0.0
 70
   128
 71
   549
 72
   465
 73
   555
  0
VERTEX
  5
9D7
  8
0
 62
   251
 10
0.0
 20
0.0
 30
0.0
 70
   128
 71
   548
 72
   550
 73
   556
  0
VERTEX
  5
9D8
  8
0
 62
   251
 10
0.0
 20
0.0
 30
0.0
 70
   128
 71
   549
 72
   555
 73
   581
  0
VERTEX
  5
9D9
  8
0
 62
   251
 10
0.0
 20
0.0
 30
0.0
 70
   128
 71
   533
 72
   577
 73
   569
  0
VERTEX
  5
9DA
  8
0
 62
   251
 10
0.0
 20
0.0
 30
0.0
 70
   128
 71
   532
 72
   572
 73
   569
  0
VERTEX
  5
9DB
  8
0
 62
   251
 10
0.0
 20
0.0
 30
0.0
 70
   128
 71
   532
 72
   528
 73
   529
  0
VERTEX
  5
9DC
  8
0
 62
   251
 10
0.0
 20
0.0
 30
0.0
 70
   128
 71
   527
 72
   582
 73
   574
  0
VERTEX
  5
9DD
  8
0
 62
   251
 10
0.0
 20
0.0
 30
0.0
 70
   128
 71
   573
 72
   530
 73
   528
  0
VERTEX
  5
9DE
  8
0
 62
   251
 10
0.0
 20
0.0
 30
0.0
 70
   128
 71
   573
 72
   574
 73
   578
  0
VERTEX
  5
9DF
  8
0
 62
   251
 10
0.0
 20
0.0
 30
0.0
 70
   128
 71
   268
 72
   226
 73
   526
  0
VERTEX
  5
9E0
  8
0
 62
   251
 10
0.0
 20
0.0
 30
0.0
 70
   128
 71
   583
 72
   582
 73
   527
  0
VERTEX
  5
9E1
  8
0
 62
   251
 10
0.0
 20
0.0
 30
0.0
 70
   128
 71
   268
 72
   526
 73
   266
  0
VERTEX
  5
9E2
  8
0
 62
   251
 10
0.0
 20
0.0
 30
0.0
 70
   128
 71
   551
 72
   580
 73
   575
  0
VERTEX
  5
9E3
  8
0
 62
   251
 10
0.0
 20
0.0
 30
0.0
 70
   128
 71
   192
 72
   575
 73
   191
  0
VERTEX
  5
9E4
  8
0
 62
   251
 10
0.0
 20
0.0
 30
0.0
 70
   128
 71
   584
 72
   580
 73
   579
  0
VERTEX
  5
9E5
  8
0
 62
   251
 10
0.0
 20
0.0
 30
0.0
 70
   128
 71
   576
 72
   553
 73
   580
  0
VERTEX
  5
9E6
  8
0
 62
   251
 10
0.0
 20
0.0
 30
0.0
 70
   128
 71
   575
 72
   580
 73
   584
  0
VERTEX
  5
9E7
  8
0
 62
   251
 10
0.0
 20
0.0
 30
0.0
 70
   128
 71
   544
 72
   545
 73
   585
  0
VERTEX
  5
9E8
  8
0
 62
   251
 10
0.0
 20
0.0
 30
0.0
 70
   128
 71
   579
 72
   580
 73
   553
  0
VERTEX
  5
9E9
  8
0
 62
   251
 10
0.0
 20
0.0
 30
0.0
 70
   128
 71
   548
 72
   541
 73
   550
  0
VERTEX
  5
9EA
  8
0
 62
   251
 10
0.0
 20
0.0
 30
0.0
 70
   128
 71
   544
 72
   553
 73
   554
  0
VERTEX
  5
9EB
  8
0
 62
   251
 10
0.0
 20
0.0
 30
0.0
 70
   128
 71
   581
 72
   541
 73
   549
  0
VERTEX
  5
9EC
  8
0
 62
   251
 10
0.0
 20
0.0
 30
0.0
 70
   128
 71
   546
 72
   554
 73
   550
  0
VERTEX
  5
9ED
  8
0
 62
   251
 10
0.0
 20
0.0
 30
0.0
 70
   128
 71
   541
 72
   542
 73
   550
  0
VERTEX
  5
9EE
  8
0
 62
   251
 10
0.0
 20
0.0
 30
0.0
 70
   128
 71
   547
 72
   581
 73
   557
  0
VERTEX
  5
9EF
  8
0
 62
   251
 10
0.0
 20
0.0
 30
0.0
 70
   128
 71
   547
 72
   541
 73
   581
  0
VERTEX
  5
9F0
  8
0
 62
   251
 10
0.0
 20
0.0
 30
0.0
 70
   128
 71
   523
 72
   533
 73
   525
  0
VERTEX
  5
9F1
  8
0
 62
   251
 10
0.0
 20
0.0
 30
0.0
 70
   128
 71
   588
 72
   587
 73
   586
  0
VERTEX
  5
9F2
  8
0
 62
   251
 10
0.0
 20
0.0
 30
0.0
 70
   128
 71
   529
 72
   587
 73
   571
  0
VERTEX
  5
9F3
  8
0
 62
   251
 10
0.0
 20
0.0
 30
0.0
 70
   128
 71
   532
 72
   529
 73
   572
  0
VERTEX
  5
9F4
  8
0
 62
   251
 10
0.0
 20
0.0
 30
0.0
 70
   128
 71
   568
 72
   569
 73
   572
  0
VERTEX
  5
9F5
  8
0
 62
   251
 10
0.0
 20
0.0
 30
0.0
 70
   128
 71
   578
 72
   590
 73
   589
  0
VERTEX
  5
9F6
  8
0
 62
   251
 10
0.0
 20
0.0
 30
0.0
 70
   128
 71
   572
 72
   529
 73
   571
  0
VERTEX
  5
9F7
  8
0
 62
   251
 10
0.0
 20
0.0
 30
0.0
 70
   128
 71
   574
 72
   582
 73
   578
  0
VERTEX
  5
9F8
  8
0
 62
   251
 10
0.0
 20
0.0
 30
0.0
 70
   128
 71
   530
 72
   587
 73
   529
  0
VERTEX
  5
9F9
  8
0
 62
   251
 10
0.0
 20
0.0
 30
0.0
 70
   128
 71
   583
 72
   527
 73
   526
  0
VERTEX
  5
9FA
  8
0
 62
   251
 10
0.0
 20
0.0
 30
0.0
 70
   128
 71
   589
 72
   530
 73
   578
  0
VERTEX
  5
9FB
  8
0
 62
   251
 10
0.0
 20
0.0
 30
0.0
 70
   128
 71
   590
 72
   583
 73
   223
  0
VERTEX
  5
9FC
  8
0
 62
   251
 10
0.0
 20
0.0
 30
0.0
 70
   128
 71
   226
 72
   583
 73
   526
  0
VERTEX
  5
9FD
  8
0
 62
   251
 10
0.0
 20
0.0
 30
0.0
 70
   128
 71
   579
 72
   585
 73
   591
  0
VERTEX
  5
9FE
  8
0
 62
   251
 10
0.0
 20
0.0
 30
0.0
 70
   128
 71
   191
 72
   575
 73
   584
  0
VERTEX
  5
9FF
  8
0
 62
   251
 10
0.0
 20
0.0
 30
0.0
 70
   128
 71
   585
 72
   593
 73
   592
  0
VERTEX
  5
A00
  8
0
 62
   251
 10
0.0
 20
0.0
 30
0.0
 70
   128
 71
   584
 72
   579
 73
   591
  0
VERTEX
  5
A01
  8
0
 62
   251
 10
0.0
 20
0.0
 30
0.0
 70
   128
 71
   546
 72
   594
 73
   545
  0
VERTEX
  5
A02
  8
0
 62
   251
 10
0.0
 20
0.0
 30
0.0
 70
   128
 71
   579
 72
   544
 73
   585
  0
VERTEX
  5
A03
  8
0
 62
   251
 10
0.0
 20
0.0
 30
0.0
 70
   128
 71
   597
 72
   596
 73
   595
  0
VERTEX
  5
A04
  8
0
 62
   251
 10
0.0
 20
0.0
 30
0.0
 70
   128
 71
   559
 72
   594
 73
   542
  0
VERTEX
  5
A05
  8
0
 62
   251
 10
0.0
 20
0.0
 30
0.0
 70
   128
 71
   547
 72
   557
 73
   543
  0
VERTEX
  5
A06
  8
0
 62
   251
 10
0.0
 20
0.0
 30
0.0
 70
   128
 71
   546
 72
   542
 73
   594
  0
VERTEX
  5
A07
  8
0
 62
   251
 10
0.0
 20
0.0
 30
0.0
 70
   128
 71
   559
 72
   542
 73
   543
  0
VERTEX
  5
A08
  8
0
 62
   251
 10
0.0
 20
0.0
 30
0.0
 70
   128
 71
   558
 72
   598
 73
   535
  0
VERTEX
  5
A09
  8
0
 62
   251
 10
0.0
 20
0.0
 30
0.0
 70
   128
 71
   598
 72
   558
 73
   557
  0
VERTEX
  5
A0A
  8
0
 62
   251
 10
0.0
 20
0.0
 30
0.0
 70
   128
 71
   601
 72
   600
 73
   599
  0
VERTEX
  5
A0B
  8
0
 62
   251
 10
0.0
 20
0.0
 30
0.0
 70
   128
 71
   534
 72
   533
 73
   569
  0
VERTEX
  5
A0C
  8
0
 62
   251
 10
0.0
 20
0.0
 30
0.0
 70
   128
 71
   566
 72
   524
 73
   525
  0
VERTEX
  5
A0D
  8
0
 62
   251
 10
0.0
 20
0.0
 30
0.0
 70
   128
 71
   568
 72
   600
 73
   570
  0
VERTEX
  5
A0E
  8
0
 62
   251
 10
0.0
 20
0.0
 30
0.0
 70
   128
 71
   525
 72
   534
 73
   567
  0
VERTEX
  5
A0F
  8
0
 62
   251
 10
0.0
 20
0.0
 30
0.0
 70
   128
 71
   588
 72
   600
 73
   571
  0
VERTEX
  5
A10
  8
0
 62
   251
 10
0.0
 20
0.0
 30
0.0
 70
   128
 71
   570
 72
   534
 73
   568
  0
VERTEX
  5
A11
  8
0
 62
   251
 10
0.0
 20
0.0
 30
0.0
 70
   128
 71
   530
 72
   589
 73
   587
  0
VERTEX
  5
A12
  8
0
 62
   251
 10
0.0
 20
0.0
 30
0.0
 70
   128
 71
   568
 72
   571
 73
   600
  0
VERTEX
  5
A13
  8
0
 62
   251
 10
0.0
 20
0.0
 30
0.0
 70
   128
 71
   602
 72
   589
 73
   590
  0
VERTEX
  5
A14
  8
0
 62
   251
 10
0.0
 20
0.0
 30
0.0
 70
   128
 71
   587
 72
   588
 73
   571
  0
VERTEX
  5
A15
  8
0
 62
   251
 10
0.0
 20
0.0
 30
0.0
 70
   128
 71
   589
 72
   602
 73
   586
  0
VERTEX
  5
A16
  8
0
 62
   251
 10
0.0
 20
0.0
 30
0.0
 70
   128
 71
   582
 72
   583
 73
   590
  0
VERTEX
  5
A17
  8
0
 62
   251
 10
0.0
 20
0.0
 30
0.0
 70
   128
 71
   582
 72
   590
 73
   578
  0
VERTEX
  5
A18
  8
0
 62
   251
 10
0.0
 20
0.0
 30
0.0
 70
   128
 71
   602
 72
   223
 73
   603
  0
VERTEX
  5
A19
  8
0
 62
   251
 10
0.0
 20
0.0
 30
0.0
 70
   128
 71
   223
 72
   583
 73
   226
  0
VERTEX
  5
A1A
  8
0
 62
   251
 10
0.0
 20
0.0
 30
0.0
 70
   128
 71
   604
 72
   191
 73
   584
  0
VERTEX
  5
A1B
  8
0
 62
   251
 10
0.0
 20
0.0
 30
0.0
 70
   128
 71
   605
 72
   190
 73
   191
  0
VERTEX
  5
A1C
  8
0
 62
   251
 10
0.0
 20
0.0
 30
0.0
 70
   128
 71
   592
 72
   606
 73
   591
  0
VERTEX
  5
A1D
  8
0
 62
   251
 10
0.0
 20
0.0
 30
0.0
 70
   128
 71
   591
 72
   604
 73
   584
  0
VERTEX
  5
A1E
  8
0
 62
   251
 10
0.0
 20
0.0
 30
0.0
 70
   128
 71
   605
 72
   191
 73
   604
  0
VERTEX
  5
A1F
  8
0
 62
   251
 10
0.0
 20
0.0
 30
0.0
 70
   128
 71
   609
 72
   608
 73
   607
  0
VERTEX
  5
A20
  8
0
 62
   251
 10
0.0
 20
0.0
 30
0.0
 70
   128
 71
   604
 72
   591
 73
   606
  0
VERTEX
  5
A21
  8
0
 62
   251
 10
0.0
 20
0.0
 30
0.0
 70
   128
 71
   545
 72
   610
 73
   593
  0
VERTEX
  5
A22
  8
0
 62
   251
 10
0.0
 20
0.0
 30
0.0
 70
   128
 71
   591
 72
   585
 73
   592
  0
VERTEX
  5
A23
  8
0
 62
   251
 10
0.0
 20
0.0
 30
0.0
 70
   128
 71
   597
 72
   610
 73
   594
  0
VERTEX
  5
A24
  8
0
 62
   251
 10
0.0
 20
0.0
 30
0.0
 70
   128
 71
   593
 72
   585
 73
   545
  0
VERTEX
  5
A25
  8
0
 62
   251
 10
0.0
 20
0.0
 30
0.0
 70
   128
 71
   559
 72
   611
 73
   597
  0
VERTEX
  5
A26
  8
0
 62
   251
 10
0.0
 20
0.0
 30
0.0
 70
   128
 71
   545
 72
   594
 73
   610
  0
VERTEX
  5
A27
  8
0
 62
   251
 10
0.0
 20
0.0
 30
0.0
 70
   128
 71
   611
 72
   536
 73
   560
  0
VERTEX
  5
A28
  8
0
 62
   251
 10
0.0
 20
0.0
 30
0.0
 70
   128
 71
   594
 72
   559
 73
   597
  0
VERTEX
  5
A29
  8
0
 62
   251
 10
0.0
 20
0.0
 30
0.0
 70
   128
 71
   614
 72
   613
 73
   612
  0
VERTEX
  5
A2A
  8
0
 62
   251
 10
0.0
 20
0.0
 30
0.0
 70
   128
 71
   559
 72
   536
 73
   611
  0
VERTEX
  5
A2B
  8
0
 62
   251
 10
0.0
 20
0.0
 30
0.0
 70
   128
 71
   615
 72
   561
 73
   563
  0
VERTEX
  5
A2C
  8
0
 62
   251
 10
0.0
 20
0.0
 30
0.0
 70
   128
 71
   616
 72
   615
 73
   565
  0
VERTEX
  5
A2D
  8
0
 62
   251
 10
0.0
 20
0.0
 30
0.0
 70
   128
 71
   564
 72
   563
 73
   562
  0
VERTEX
  5
A2E
  8
0
 62
   251
 10
0.0
 20
0.0
 30
0.0
 70
   128
 71
   561
 72
   537
 73
   563
  0
VERTEX
  5
A2F
  8
0
 62
   251
 10
0.0
 20
0.0
 30
0.0
 70
   128
 71
   566
 72
   538
 73
   616
  0
VERTEX
  5
A30
  8
0
 62
   251
 10
0.0
 20
0.0
 30
0.0
 70
   128
 71
   563
 72
   565
 73
   615
  0
VERTEX
  5
A31
  8
0
 62
   251
 10
0.0
 20
0.0
 30
0.0
 70
   128
 71
   617
 72
   538
 73
   567
  0
VERTEX
  5
A32
  8
0
 62
   251
 10
0.0
 20
0.0
 30
0.0
 70
   128
 71
   565
 72
   566
 73
   616
  0
VERTEX
  5
A33
  8
0
 62
   251
 10
0.0
 20
0.0
 30
0.0
 70
   128
 71
   601
 72
   617
 73
   570
  0
VERTEX
  5
A34
  8
0
 62
   251
 10
0.0
 20
0.0
 30
0.0
 70
   128
 71
   538
 72
   566
 73
   567
  0
VERTEX
  5
A35
  8
0
 62
   251
 10
0.0
 20
0.0
 30
0.0
 70
   128
 71
   599
 72
   588
 73
   618
  0
VERTEX
  5
A36
  8
0
 62
   251
 10
0.0
 20
0.0
 30
0.0
 70
   128
 71
   567
 72
   570
 73
   617
  0
VERTEX
  5
A37
  8
0
 62
   251
 10
0.0
 20
0.0
 30
0.0
 70
   128
 71
   599
 72
   620
 73
   619
  0
VERTEX
  5
A38
  8
0
 62
   251
 10
0.0
 20
0.0
 30
0.0
 70
   128
 71
   570
 72
   600
 73
   601
  0
VERTEX
  5
A39
  8
0
 62
   251
 10
0.0
 20
0.0
 30
0.0
 70
   128
 71
   600
 72
   588
 73
   599
  0
VERTEX
  5
A3A
  8
0
 62
   251
 10
0.0
 20
0.0
 30
0.0
 70
   128
 71
   224
 72
   603
 73
   223
  0
VERTEX
  5
A3B
  8
0
 62
   251
 10
0.0
 20
0.0
 30
0.0
 70
   128
 71
   589
 72
   586
 73
   587
  0
VERTEX
  5
A3C
  8
0
 62
   251
 10
0.0
 20
0.0
 30
0.0
 70
   128
 71
   603
 72
   618
 73
   586
  0
VERTEX
  5
A3D
  8
0
 62
   251
 10
0.0
 20
0.0
 30
0.0
 70
   128
 71
   602
 72
   590
 73
   223
  0
VERTEX
  5
A3E
  8
0
 62
   251
 10
0.0
 20
0.0
 30
0.0
 70
   128
 71
   190
 72
   621
 73
   194
  0
VERTEX
  5
A3F
  8
0
 62
   251
 10
0.0
 20
0.0
 30
0.0
 70
   128
 71
   606
 72
   605
 73
   604
  0
VERTEX
  5
A40
  8
0
 62
   251
 10
0.0
 20
0.0
 30
0.0
 70
   128
 71
   621
 72
   190
 73
   605
  0
VERTEX
  5
A41
  8
0
 62
   251
 10
0.0
 20
0.0
 30
0.0
 70
   128
 71
   606
 72
   621
 73
   605
  0
VERTEX
  5
A42
  8
0
 62
   251
 10
0.0
 20
0.0
 30
0.0
 70
   128
 71
   593
 72
   622
 73
   608
  0
VERTEX
  5
A43
  8
0
 62
   251
 10
0.0
 20
0.0
 30
0.0
 70
   128
 71
   592
 72
   609
 73
   606
  0
VERTEX
  5
A44
  8
0
 62
   251
 10
0.0
 20
0.0
 30
0.0
 70
   128
 71
   595
 72
   622
 73
   610
  0
VERTEX
  5
A45
  8
0
 62
   251
 10
0.0
 20
0.0
 30
0.0
 70
   128
 71
   593
 72
   608
 73
   592
  0
VERTEX
  5
A46
  8
0
 62
   251
 10
0.0
 20
0.0
 30
0.0
 70
   128
 71
   625
 72
   624
 73
   623
  0
VERTEX
  5
A47
  8
0
 62
   251
 10
0.0
 20
0.0
 30
0.0
 70
   128
 71
   593
 72
   610
 73
   622
  0
VERTEX
  5
A48
  8
0
 62
   251
 10
0.0
 20
0.0
 30
0.0
 70
   128
 71
   626
 72
   596
 73
   611
  0
VERTEX
  5
A49
  8
0
 62
   251
 10
0.0
 20
0.0
 30
0.0
 70
   128
 71
   610
 72
   597
 73
   595
  0
VERTEX
  5
A4A
  8
0
 62
   251
 10
0.0
 20
0.0
 30
0.0
 70
   128
 71
   627
 72
   626
 73
   560
  0
VERTEX
  5
A4B
  8
0
 62
   251
 10
0.0
 20
0.0
 30
0.0
 70
   128
 71
   597
 72
   611
 73
   596
  0
VERTEX
  5
A4C
  8
0
 62
   251
 10
0.0
 20
0.0
 30
0.0
 70
   128
 71
   561
 72
   628
 73
   627
  0
VERTEX
  5
A4D
  8
0
 62
   251
 10
0.0
 20
0.0
 30
0.0
 70
   128
 71
   611
 72
   560
 73
   626
  0
VERTEX
  5
A4E
  8
0
 62
   251
 10
0.0
 20
0.0
 30
0.0
 70
   128
 71
   629
 72
   628
 73
   615
  0
VERTEX
  5
A4F
  8
0
 62
   251
 10
0.0
 20
0.0
 30
0.0
 70
   128
 71
   560
 72
   561
 73
   627
  0
VERTEX
  5
A50
  8
0
 62
   251
 10
0.0
 20
0.0
 30
0.0
 70
   128
 71
   539
 72
   629
 73
   616
  0
VERTEX
  5
A51
  8
0
 62
   251
 10
0.0
 20
0.0
 30
0.0
 70
   128
 71
   561
 72
   615
 73
   628
  0
VERTEX
  5
A52
  8
0
 62
   251
 10
0.0
 20
0.0
 30
0.0
 70
   128
 71
   540
 72
   631
 73
   630
  0
VERTEX
  5
A53
  8
0
 62
   251
 10
0.0
 20
0.0
 30
0.0
 70
   128
 71
   615
 72
   616
 73
   629
  0
VERTEX
  5
A54
  8
0
 62
   251
 10
0.0
 20
0.0
 30
0.0
 70
   128
 71
   631
 72
   540
 73
   617
  0
VERTEX
  5
A55
  8
0
 62
   251
 10
0.0
 20
0.0
 30
0.0
 70
   128
 71
   616
 72
   538
 73
   539
  0
VERTEX
  5
A56
  8
0
 62
   251
 10
0.0
 20
0.0
 30
0.0
 70
   128
 71
   540
 72
   630
 73
   632
  0
VERTEX
  5
A57
  8
0
 62
   251
 10
0.0
 20
0.0
 30
0.0
 70
   128
 71
   538
 72
   617
 73
   540
  0
VERTEX
  5
A58
  8
0
 62
   251
 10
0.0
 20
0.0
 30
0.0
 70
   128
 71
   620
 72
   599
 73
   618
  0
VERTEX
  5
A59
  8
0
 62
   251
 10
0.0
 20
0.0
 30
0.0
 70
   128
 71
   619
 72
   631
 73
   601
  0
VERTEX
  5
A5A
  8
0
 62
   251
 10
0.0
 20
0.0
 30
0.0
 70
   128
 71
   618
 72
   603
 73
   620
  0
VERTEX
  5
A5B
  8
0
 62
   251
 10
0.0
 20
0.0
 30
0.0
 70
   128
 71
   602
 72
   603
 73
   586
  0
VERTEX
  5
A5C
  8
0
 62
   251
 10
0.0
 20
0.0
 30
0.0
 70
   128
 71
   586
 72
   618
 73
   588
  0
VERTEX
  5
A5D
  8
0
 62
   251
 10
0.0
 20
0.0
 30
0.0
 70
   128
 71
   194
 72
   621
 73
   193
  0
VERTEX
  5
A5E
  8
0
 62
   251
 10
0.0
 20
0.0
 30
0.0
 70
   128
 71
   609
 72
   621
 73
   606
  0
VERTEX
  5
A5F
  8
0
 62
   251
 10
0.0
 20
0.0
 30
0.0
 70
   128
 71
   609
 72
   633
 73
   621
  0
VERTEX
  5
A60
  8
0
 62
   251
 10
0.0
 20
0.0
 30
0.0
 70
   128
 71
   608
 72
   609
 73
   592
  0
VERTEX
  5
A61
  8
0
 62
   251
 10
0.0
 20
0.0
 30
0.0
 70
   128
 71
   607
 72
   633
 73
   609
  0
VERTEX
  5
A62
  8
0
 62
   251
 10
0.0
 20
0.0
 30
0.0
 70
   128
 71
   608
 72
   622
 73
   634
  0
VERTEX
  5
A63
  8
0
 62
   251
 10
0.0
 20
0.0
 30
0.0
 70
   128
 71
   634
 72
   607
 73
   608
  0
VERTEX
  5
A64
  8
0
 62
   251
 10
0.0
 20
0.0
 30
0.0
 70
   128
 71
   622
 72
   595
 73
   625
  0
VERTEX
  5
A65
  8
0
 62
   251
 10
0.0
 20
0.0
 30
0.0
 70
   128
 71
   622
 72
   625
 73
   634
  0
VERTEX
  5
A66
  8
0
 62
   251
 10
0.0
 20
0.0
 30
0.0
 70
   128
 71
   595
 72
   596
 73
   624
  0
VERTEX
  5
A67
  8
0
 62
   251
 10
0.0
 20
0.0
 30
0.0
 70
   128
 71
   595
 72
   624
 73
   625
  0
VERTEX
  5
A68
  8
0
 62
   251
 10
0.0
 20
0.0
 30
0.0
 70
   128
 71
   636
 72
   635
 73
   626
  0
VERTEX
  5
A69
  8
0
 62
   251
 10
0.0
 20
0.0
 30
0.0
 70
   128
 71
   635
 72
   624
 73
   596
  0
VERTEX
  5
A6A
  8
0
 62
   251
 10
0.0
 20
0.0
 30
0.0
 70
   128
 71
   612
 72
   636
 73
   627
  0
VERTEX
  5
A6B
  8
0
 62
   251
 10
0.0
 20
0.0
 30
0.0
 70
   128
 71
   596
 72
   626
 73
   635
  0
VERTEX
  5
A6C
  8
0
 62
   251
 10
0.0
 20
0.0
 30
0.0
 70
   128
 71
   636
 72
   638
 73
   637
  0
VERTEX
  5
A6D
  8
0
 62
   251
 10
0.0
 20
0.0
 30
0.0
 70
   128
 71
   626
 72
   627
 73
   636
  0
VERTEX
  5
A6E
  8
0
 62
   251
 10
0.0
 20
0.0
 30
0.0
 70
   128
 71
   628
 72
   629
 73
   614
  0
VERTEX
  5
A6F
  8
0
 62
   251
 10
0.0
 20
0.0
 30
0.0
 70
   128
 71
   614
 72
   612
 73
   628
  0
VERTEX
  5
A70
  8
0
 62
   251
 10
0.0
 20
0.0
 30
0.0
 70
   128
 71
   629
 72
   539
 73
   639
  0
VERTEX
  5
A71
  8
0
 62
   251
 10
0.0
 20
0.0
 30
0.0
 70
   128
 71
   639
 72
   614
 73
   629
  0
VERTEX
  5
A72
  8
0
 62
   251
 10
0.0
 20
0.0
 30
0.0
 70
   128
 71
   539
 72
   540
 73
   632
  0
VERTEX
  5
A73
  8
0
 62
   251
 10
0.0
 20
0.0
 30
0.0
 70
   128
 71
   539
 72
   632
 73
   639
  0
VERTEX
  5
A74
  8
0
 62
   251
 10
0.0
 20
0.0
 30
0.0
 70
   128
 71
   640
 72
   631
 73
   619
  0
VERTEX
  5
A75
  8
0
 62
   251
 10
0.0
 20
0.0
 30
0.0
 70
   128
 71
   599
 72
   619
 73
   601
  0
VERTEX
  5
A76
  8
0
 62
   251
 10
0.0
 20
0.0
 30
0.0
 70
   128
 71
   601
 72
   631
 73
   617
  0
VERTEX
  5
A77
  8
0
 62
   251
 10
0.0
 20
0.0
 30
0.0
 70
   128
 71
   640
 72
   630
 73
   631
  0
VERTEX
  5
A78
  8
0
 62
   251
 10
0.0
 20
0.0
 30
0.0
 70
   128
 71
   640
 72
   619
 73
   620
  0
VERTEX
  5
A79
  8
0
 62
   251
 10
0.0
 20
0.0
 30
0.0
 70
   128
 71
   640
 72
   620
 73
   218
  0
VERTEX
  5
A7A
  8
0
 62
   251
 10
0.0
 20
0.0
 30
0.0
 70
   128
 71
   603
 72
   224
 73
   620
  0
VERTEX
  5
A7B
  8
0
 62
   251
 10
0.0
 20
0.0
 30
0.0
 70
   128
 71
   620
 72
   224
 73
   220
  0
VERTEX
  5
A7C
  8
0
 62
   251
 10
0.0
 20
0.0
 30
0.0
 70
   128
 71
   621
 72
   633
 73
   193
  0
VERTEX
  5
A7D
  8
0
 62
   251
 10
0.0
 20
0.0
 30
0.0
 70
   128
 71
   633
 72
   196
 73
   193
  0
VERTEX
  5
A7E
  8
0
 62
   251
 10
0.0
 20
0.0
 30
0.0
 70
   128
 71
   633
 72
   607
 73
   196
  0
VERTEX
  5
A7F
  8
0
 62
   251
 10
0.0
 20
0.0
 30
0.0
 70
   128
 71
   641
 72
   607
 73
   634
  0
VERTEX
  5
A80
  8
0
 62
   251
 10
0.0
 20
0.0
 30
0.0
 70
   128
 71
   642
 72
   634
 73
   625
  0
VERTEX
  5
A81
  8
0
 62
   251
 10
0.0
 20
0.0
 30
0.0
 70
   128
 71
   642
 72
   641
 73
   634
  0
VERTEX
  5
A82
  8
0
 62
   251
 10
0.0
 20
0.0
 30
0.0
 70
   128
 71
   623
 72
   199
 73
   642
  0
VERTEX
  5
A83
  8
0
 62
   251
 10
0.0
 20
0.0
 30
0.0
 70
   128
 71
   625
 72
   623
 73
   642
  0
VERTEX
  5
A84
  8
0
 62
   251
 10
0.0
 20
0.0
 30
0.0
 70
   128
 71
   643
 72
   624
 73
   635
  0
VERTEX
  5
A85
  8
0
 62
   251
 10
0.0
 20
0.0
 30
0.0
 70
   128
 71
   643
 72
   623
 73
   624
  0
VERTEX
  5
A86
  8
0
 62
   251
 10
0.0
 20
0.0
 30
0.0
 70
   128
 71
   635
 72
   636
 73
   637
  0
VERTEX
  5
A87
  8
0
 62
   251
 10
0.0
 20
0.0
 30
0.0
 70
   128
 71
   637
 72
   643
 73
   635
  0
VERTEX
  5
A88
  8
0
 62
   251
 10
0.0
 20
0.0
 30
0.0
 70
   128
 71
   636
 72
   612
 73
   638
  0
VERTEX
  5
A89
  8
0
 62
   251
 10
0.0
 20
0.0
 30
0.0
 70
   128
 71
   644
 72
   212
 73
   613
  0
VERTEX
  5
A8A
  8
0
 62
   251
 10
0.0
 20
0.0
 30
0.0
 70
   128
 71
   628
 72
   612
 73
   627
  0
VERTEX
  5
A8B
  8
0
 62
   251
 10
0.0
 20
0.0
 30
0.0
 70
   128
 71
   612
 72
   613
 73
   638
  0
VERTEX
  5
A8C
  8
0
 62
   251
 10
0.0
 20
0.0
 30
0.0
 70
   128
 71
   644
 72
   614
 73
   639
  0
VERTEX
  5
A8D
  8
0
 62
   251
 10
0.0
 20
0.0
 30
0.0
 70
   128
 71
   644
 72
   613
 73
   614
  0
VERTEX
  5
A8E
  8
0
 62
   251
 10
0.0
 20
0.0
 30
0.0
 70
   128
 71
   645
 72
   639
 73
   632
  0
VERTEX
  5
A8F
  8
0
 62
   251
 10
0.0
 20
0.0
 30
0.0
 70
   128
 71
   645
 72
   644
 73
   639
  0
VERTEX
  5
A90
  8
0
 62
   251
 10
0.0
 20
0.0
 30
0.0
 70
   128
 71
   630
 72
   645
 73
   632
  0
VERTEX
  5
A91
  8
0
 62
   251
 10
0.0
 20
0.0
 30
0.0
 70
   128
 71
   645
 72
   630
 73
   214
  0
VERTEX
  5
A92
  8
0
 62
   251
 10
0.0
 20
0.0
 30
0.0
 70
   128
 71
   640
 72
   218
 73
   213
  0
VERTEX
  5
A93
  8
0
 62
   251
 10
0.0
 20
0.0
 30
0.0
 70
   128
 71
   630
 72
   640
 73
   213
  0
VERTEX
  5
A94
  8
0
 62
   251
 10
0.0
 20
0.0
 30
0.0
 70
   128
 71
   620
 72
   220
 73
   218
  0
VERTEX
  5
A95
  8
0
 62
   251
 10
0.0
 20
0.0
 30
0.0
 70
   128
 71
   607
 72
   195
 73
   196
  0
VERTEX
  5
A96
  8
0
 62
   251
 10
0.0
 20
0.0
 30
0.0
 70
   128
 71
   607
 72
   641
 73
   195
  0
VERTEX
  5
A97
  8
0
 62
   251
 10
0.0
 20
0.0
 30
0.0
 70
   128
 71
   641
 72
   197
 73
   195
  0
VERTEX
  5
A98
  8
0
 62
   251
 10
0.0
 20
0.0
 30
0.0
 70
   128
 71
   642
 72
   199
 73
   197
  0
VERTEX
  5
A99
  8
0
 62
   251
 10
0.0
 20
0.0
 30
0.0
 70
   128
 71
   641
 72
   642
 73
   197
  0
VERTEX
  5
A9A
  8
0
 62
   251
 10
0.0
 20
0.0
 30
0.0
 70
   128
 71
   623
 72
   198
 73
   199
  0
VERTEX
  5
A9B
  8
0
 62
   251
 10
0.0
 20
0.0
 30
0.0
 70
   128
 71
   643
 72
   200
 73
   623
  0
VERTEX
  5
A9C
  8
0
 62
   251
 10
0.0
 20
0.0
 30
0.0
 70
   128
 71
   643
 72
   637
 73
   202
  0
VERTEX
  5
A9D
  8
0
 62
   251
 10
0.0
 20
0.0
 30
0.0
 70
   128
 71
   637
 72
   638
 73
   201
  0
VERTEX
  5
A9E
  8
0
 62
   251
 10
0.0
 20
0.0
 30
0.0
 70
   128
 71
   638
 72
   613
 73
   203
  0
VERTEX
  5
A9F
  8
0
 62
   251
 10
0.0
 20
0.0
 30
0.0
 70
   128
 71
   205
 72
   613
 73
   212
  0
VERTEX
  5
AA0
  8
0
 62
   251
 10
0.0
 20
0.0
 30
0.0
 70
   128
 71
   644
 72
   211
 73
   212
  0
VERTEX
  5
AA1
  8
0
 62
   251
 10
0.0
 20
0.0
 30
0.0
 70
   128
 71
   645
 72
   211
 73
   644
  0
VERTEX
  5
AA2
  8
0
 62
   251
 10
0.0
 20
0.0
 30
0.0
 70
   128
 71
   645
 72
   214
 73
   211
  0
VERTEX
  5
AA3
  8
0
 62
   251
 10
0.0
 20
0.0
 30
0.0
 70
   128
 71
   630
 72
   213
 73
   214
  0
VERTEX
  5
AA4
  8
0
 62
   251
 10
0.0
 20
0.0
 30
0.0
 70
   128
 71
   623
 72
   200
 73
   198
  0
VERTEX
  5
AA5
  8
0
 62
   251
 10
0.0
 20
0.0
 30
0.0
 70
   128
 71
   643
 72
   202
 73
   200
  0
VERTEX
  5
AA6
  8
0
 62
   251
 10
0.0
 20
0.0
 30
0.0
 70
   128
 71
   637
 72
   201
 73
   202
  0
VERTEX
  5
AA7
  8
0
 62
   251
 10
0.0
 20
0.0
 30
0.0
 70
   128
 71
   638
 72
   203
 73
   201
  0
VERTEX
  5
AA8
  8
0
 62
   251
 10
0.0
 20
0.0
 30
0.0
 70
   128
 71
   613
 72
   205
 73
   203
  0
VERTEX
  5
AA9
  8
0
 62
   251
 10
0.0
 20
0.0
 30
0.0
 70
   128
 71
   646
 72
    15
 73
    14
  0
VERTEX
  5
AAA
  8
0
 62
   251
 10
0.0
 20
0.0
 30
0.0
 70
   128
 71
   286
 72
   648
 73
   647
  0
VERTEX
  5
AAB
  8
0
 62
   251
 10
0.0
 20
0.0
 30
0.0
 70
   128
 71
   649
 72
   648
 73
   149
  0
VERTEX
  5
AAC
  8
0
 62
   251
 10
0.0
 20
0.0
 30
0.0
 70
   128
 71
   647
 72
   650
 73
   284
  0
VERTEX
  5
AAD
  8
0
 62
   251
 10
0.0
 20
0.0
 30
0.0
 70
   128
 71
   652
 72
   651
 73
   145
  0
VERTEX
  5
AAE
  8
0
 62
   251
 10
0.0
 20
0.0
 30
0.0
 70
   128
 71
   148
 72
   651
 73
   649
  0
VERTEX
  5
AAF
  8
0
 62
   251
 10
0.0
 20
0.0
 30
0.0
 70
   128
 71
   653
 72
   143
 73
   146
  0
VERTEX
  5
AB0
  8
0
 62
   251
 10
0.0
 20
0.0
 30
0.0
 70
   128
 71
   143
 72
   653
 73
   652
  0
VERTEX
  5
AB1
  8
0
 62
   251
 10
0.0
 20
0.0
 30
0.0
 70
   128
 71
   146
 72
    21
 73
   654
  0
VERTEX
  5
AB2
  8
0
 62
   251
 10
0.0
 20
0.0
 30
0.0
 70
   128
 71
   654
 72
   653
 73
   146
  0
VERTEX
  5
AB3
  8
0
 62
   251
 10
0.0
 20
0.0
 30
0.0
 70
   128
 71
   654
 72
    21
 73
    22
  0
VERTEX
  5
AB4
  8
0
 62
   251
 10
0.0
 20
0.0
 30
0.0
 70
   128
 71
   652
 72
   145
 73
   143
  0
VERTEX
  5
AB5
  8
0
 62
   251
 10
0.0
 20
0.0
 30
0.0
 70
   128
 71
   149
 72
   148
 73
   649
  0
VERTEX
  5
AB6
  8
0
 62
   251
 10
0.0
 20
0.0
 30
0.0
 70
   128
 71
   651
 72
   148
 73
   145
  0
VERTEX
  5
AB7
  8
0
 62
   251
 10
0.0
 20
0.0
 30
0.0
 70
   128
 71
   284
 72
   286
 73
   647
  0
VERTEX
  5
AB8
  8
0
 62
   251
 10
0.0
 20
0.0
 30
0.0
 70
   128
 71
   648
 72
   286
 73
   149
  0
VERTEX
  5
AB9
  8
0
 62
   251
 10
0.0
 20
0.0
 30
0.0
 70
   128
 71
   284
 72
   650
 73
   283
  0
VERTEX
  5
ABA
  8
0
 62
   251
 10
0.0
 20
0.0
 30
0.0
 70
   128
 71
   285
 72
   650
 73
   646
  0
VERTEX
  5
ABB
  8
0
 62
   251
 10
0.0
 20
0.0
 30
0.0
 70
   128
 71
   650
 72
   285
 73
   283
  0
VERTEX
  5
ABC
  8
0
 62
   251
 10
0.0
 20
0.0
 30
0.0
 70
   128
 71
   285
 72
   646
 73
    14
  0
VERTEX
  5
ABD
  8
0
 62
   251
 10
0.0
 20
0.0
 30
0.0
 70
   128
 71
   186
 72
    17
 73
     3
  0
VERTEX
  5
ABE
  8
0
 62
   251
 10
0.0
 20
0.0
 30
0.0
 70
   128
 71
   171
 72
     5
 73
   168
  0
VERTEX
  5
ABF
  8
0
 62
   251
 10
0.0
 20
0.0
 30
0.0
 70
   128
 71
   174
 72
   654
 73
    22
  0
VERTEX
  5
AC0
  8
0
 62
   251
 10
0.0
 20
0.0
 30
0.0
 70
   128
 71
   186
 72
     3
 73
   185
  0
VERTEX
  5
AC1
  8
0
 62
   251
 10
0.0
 20
0.0
 30
0.0
 70
   128
 71
   649
 72
   651
 73
   173
  0
VERTEX
  5
AC2
  8
0
 62
   251
 10
0.0
 20
0.0
 30
0.0
 70
   128
 71
   653
 72
   177
 73
   652
  0
VERTEX
  5
AC3
  8
0
 62
   251
 10
0.0
 20
0.0
 30
0.0
 70
   128
 71
   652
 72
   178
 73
   651
  0
VERTEX
  5
AC4
  8
0
 62
   251
 10
0.0
 20
0.0
 30
0.0
 70
   128
 71
   648
 72
   649
 73
   161
  0
VERTEX
  5
AC5
  8
0
 62
   251
 10
0.0
 20
0.0
 30
0.0
 70
   128
 71
   175
 72
   653
 73
   654
  0
VERTEX
  5
AC6
  8
0
 62
   251
 10
0.0
 20
0.0
 30
0.0
 70
   128
 71
    20
 72
   184
 73
    22
  0
VERTEX
  5
AC7
  8
0
 62
   251
 10
0.0
 20
0.0
 30
0.0
 70
   128
 71
   180
 72
    20
 73
    17
  0
VERTEX
  5
AC8
  8
0
 62
   251
 10
0.0
 20
0.0
 30
0.0
 70
   128
 71
   171
 72
     1
 73
     5
  0
VERTEX
  5
AC9
  8
0
 62
   251
 10
0.0
 20
0.0
 30
0.0
 70
   128
 71
   166
 72
   168
 73
     7
  0
VERTEX
  5
ACA
  8
0
 62
   251
 10
0.0
 20
0.0
 30
0.0
 70
   128
 71
     7
 72
   168
 73
     5
  0
VERTEX
  5
ACB
  8
0
 62
   251
 10
0.0
 20
0.0
 30
0.0
 70
   128
 71
   165
 72
   166
 73
    10
  0
VERTEX
  5
ACC
  8
0
 62
   251
 10
0.0
 20
0.0
 30
0.0
 70
   128
 71
    10
 72
   166
 73
     7
  0
VERTEX
  5
ACD
  8
0
 62
   251
 10
0.0
 20
0.0
 30
0.0
 70
   128
 71
   163
 72
   165
 73
    11
  0
VERTEX
  5
ACE
  8
0
 62
   251
 10
0.0
 20
0.0
 30
0.0
 70
   128
 71
    11
 72
   165
 73
    10
  0
VERTEX
  5
ACF
  8
0
 62
   251
 10
0.0
 20
0.0
 30
0.0
 70
   128
 71
   150
 72
   163
 73
    12
  0
VERTEX
  5
AD0
  8
0
 62
   251
 10
0.0
 20
0.0
 30
0.0
 70
   128
 71
    12
 72
   163
 73
    11
  0
VERTEX
  5
AD1
  8
0
 62
   251
 10
0.0
 20
0.0
 30
0.0
 70
   128
 71
   153
 72
   150
 73
    15
  0
VERTEX
  5
AD2
  8
0
 62
   251
 10
0.0
 20
0.0
 30
0.0
 70
   128
 71
    15
 72
   150
 73
    12
  0
VERTEX
  5
AD3
  8
0
 62
   251
 10
0.0
 20
0.0
 30
0.0
 70
   128
 71
   156
 72
   153
 73
   646
  0
VERTEX
  5
AD4
  8
0
 62
   251
 10
0.0
 20
0.0
 30
0.0
 70
   128
 71
   646
 72
   153
 73
    15
  0
VERTEX
  5
AD5
  8
0
 62
   251
 10
0.0
 20
0.0
 30
0.0
 70
   128
 71
   155
 72
   156
 73
   650
  0
VERTEX
  5
AD6
  8
0
 62
   251
 10
0.0
 20
0.0
 30
0.0
 70
   128
 71
   650
 72
   156
 73
   646
  0
VERTEX
  5
AD7
  8
0
 62
   251
 10
0.0
 20
0.0
 30
0.0
 70
   128
 71
   160
 72
   155
 73
   647
  0
VERTEX
  5
AD8
  8
0
 62
   251
 10
0.0
 20
0.0
 30
0.0
 70
   128
 71
   647
 72
   155
 73
   650
  0
VERTEX
  5
AD9
  8
0
 62
   251
 10
0.0
 20
0.0
 30
0.0
 70
   128
 71
   161
 72
   160
 73
   648
  0
VERTEX
  5
ADA
  8
0
 62
   251
 10
0.0
 20
0.0
 30
0.0
 70
   128
 71
   648
 72
   160
 73
   647
  0
VERTEX
  5
ADB
  8
0
 62
   251
 10
0.0
 20
0.0
 30
0.0
 70
   128
 71
   173
 72
   161
 73
   649
  0
VERTEX
  5
ADC
  8
0
 62
   251
 10
0.0
 20
0.0
 30
0.0
 70
   128
 71
   178
 72
   173
 73
   651
  0
VERTEX
  5
ADD
  8
0
 62
   251
 10
0.0
 20
0.0
 30
0.0
 70
   128
 71
   177
 72
   178
 73
   652
  0
VERTEX
  5
ADE
  8
0
 62
   251
 10
0.0
 20
0.0
 30
0.0
 70
   128
 71
   175
 72
   177
 73
   653
  0
VERTEX
  5
ADF
  8
0
 62
   251
 10
0.0
 20
0.0
 30
0.0
 70
   128
 71
   174
 72
   175
 73
   654
  0
VERTEX
  5
AE0
  8
0
 62
   251
 10
0.0
 20
0.0
 30
0.0
 70
   128
 71
   184
 72
   174
 73
    22
  0
VERTEX
  5
AE1
  8
0
 62
   251
 10
0.0
 20
0.0
 30
0.0
 70
   128
 71
   180
 72
   184
 73
    20
  0
VERTEX
  5
AE2
  8
0
 62
   251
 10
0.0
 20
0.0
 30
0.0
 70
   128
 71
   186
 72
   180
 73
    17
  0
VERTEX
  5
AE3
  8
0
 62
   251
 10
0.0
 20
0.0
 30
0.0
 70
   128
 71
     1
 72
   185
 73
     3
  0
VERTEX
  5
AE4
  8
0
 62
   251
 10
0.0
 20
0.0
 30
0.0
 70
   128
 71
   185
 72
     1
 73
   171
  0
VERTEX
  5
AE5
  8
0
 62
     9
 10
0.0
 20
0.0
 30
0.0
 70
   128
 71
   172
 72
   179
 73
   164
  0
VERTEX
  5
AE6
  8
0
 62
     9
 10
0.0
 20
0.0
 30
0.0
 70
   128
 71
   158
 72
   159
 73
   154
  0
VERTEX
  5
AE7
  8
0
 62
     9
 10
0.0
 20
0.0
 30
0.0
 70
   128
 71
   154
 72
   157
 73
   158
  0
VERTEX
  5
AE8
  8
0
 62
     9
 10
0.0
 20
0.0
 30
0.0
 70
   128
 71
   152
 72
   154
 73
   162
  0
VERTEX
  5
AE9
  8
0
 62
     9
 10
0.0
 20
0.0
 30
0.0
 70
   128
 71
   159
 72
   162
 73
   154
  0
VERTEX
  5
AEA
  8
0
 62
     9
 10
0.0
 20
0.0
 30
0.0
 70
   128
 71
   189
 72
   176
 73
   169
  0
VERTEX
  5
AEB
  8
0
 62
     9
 10
0.0
 20
0.0
 30
0.0
 70
   128
 71
   162
 72
   151
 73
   152
  0
VERTEX
  5
AEC
  8
0
 62
     9
 10
0.0
 20
0.0
 30
0.0
 70
   128
 71
   183
 72
   170
 73
   176
  0
VERTEX
  5
AED
  8
0
 62
     9
 10
0.0
 20
0.0
 30
0.0
 70
   128
 71
   187
 72
   181
 73
   182
  0
VERTEX
  5
AEE
  8
0
 62
     9
 10
0.0
 20
0.0
 30
0.0
 70
   128
 71
   181
 72
   188
 73
   170
  0
VERTEX
  5
AEF
  8
0
 62
     9
 10
0.0
 20
0.0
 30
0.0
 70
   128
 71
   187
 72
   188
 73
   181
  0
VERTEX
  5
AF0
  8
0
 62
     9
 10
0.0
 20
0.0
 30
0.0
 70
   128
 71
   183
 72
   181
 73
   170
  0
VERTEX
  5
AF1
  8
0
 62
     9
 10
0.0
 20
0.0
 30
0.0
 70
   128
 71
   189
 72
   169
 73
   167
  0
VERTEX
  5
AF2
  8
0
 62
     9
 10
0.0
 20
0.0
 30
0.0
 70
   128
 71
   169
 72
   176
 73
   170
  0
VERTEX
  5
AF3
  8
0
 62
     9
 10
0.0
 20
0.0
 30
0.0
 70
   128
 71
   179
 72
   189
 73
   164
  0
VERTEX
  5
AF4
  8
0
 62
     9
 10
0.0
 20
0.0
 30
0.0
 70
   128
 71
   167
 72
   164
 73
   189
  0
VERTEX
  5
AF5
  8
0
 62
     9
 10
0.0
 20
0.0
 30
0.0
 70
   128
 71
   172
 72
   151
 73
   162
  0
VERTEX
  5
AF6
  8
0
 62
     9
 10
0.0
 20
0.0
 30
0.0
 70
   128
 71
   172
 72
   164
 73
   151
  0
VERTEX
  5
AF7
  8
0
 62
     9
 10
0.0
 20
0.0
 30
0.0
 70
   128
 71
   500
 72
   533
 73
   507
  0
VERTEX
  5
AF8
  8
0
 62
     9
 10
0.0
 20
0.0
 30
0.0
 70
   128
 71
   488
 72
   502
 73
   470
  0
VERTEX
  5
AF9
  8
0
 62
     9
 10
0.0
 20
0.0
 30
0.0
 70
   128
 71
   486
 72
   488
 73
   470
  0
VERTEX
  5
AFA
  8
0
 62
     9
 10
0.0
 20
0.0
 30
0.0
 70
   128
 71
   475
 72
   495
 73
   486
  0
VERTEX
  5
AFB
  8
0
 62
     9
 10
0.0
 20
0.0
 30
0.0
 70
   128
 71
   486
 72
   470
 73
   475
  0
VERTEX
  5
AFC
  8
0
 62
     9
 10
0.0
 20
0.0
 30
0.0
 70
   128
 71
   475
 72
   476
 73
   495
  0
VERTEX
  5
AFD
  8
0
 62
     9
 10
0.0
 20
0.0
 30
0.0
 70
   128
 71
   476
 72
   494
 73
   495
  0
VERTEX
  5
AFE
  8
0
 62
     9
 10
0.0
 20
0.0
 30
0.0
 70
   128
 71
   493
 72
   531
 73
   577
  0
VERTEX
  5
AFF
  8
0
 62
     9
 10
0.0
 20
0.0
 30
0.0
 70
   128
 71
   466
 72
   524
 73
   564
  0
VERTEX
  5
B00
  8
0
 62
     9
 10
0.0
 20
0.0
 30
0.0
 70
   128
 71
   535
 72
   557
 73
   581
  0
VERTEX
  5
B01
  8
0
 62
     9
 10
0.0
 20
0.0
 30
0.0
 70
   128
 71
   562
 72
   555
 73
   520
  0
VERTEX
  5
B02
  8
0
 62
     9
 10
0.0
 20
0.0
 30
0.0
 70
   128
 71
   557
 72
   535
 73
   598
  0
VERTEX
  5
B03
  8
0
 62
     9
 10
0.0
 20
0.0
 30
0.0
 70
   128
 71
   535
 72
   581
 73
   555
  0
VERTEX
  5
B04
  8
0
 62
     9
 10
0.0
 20
0.0
 30
0.0
 70
   128
 71
   555
 72
   562
 73
   535
  0
VERTEX
  5
B05
  8
0
 62
     9
 10
0.0
 20
0.0
 30
0.0
 70
   128
 71
   562
 72
   520
 73
   564
  0
VERTEX
  5
B06
  8
0
 62
     9
 10
0.0
 20
0.0
 30
0.0
 70
   128
 71
   524
 72
   466
 73
   507
  0
VERTEX
  5
B07
  8
0
 62
     9
 10
0.0
 20
0.0
 30
0.0
 70
   128
 71
   564
 72
   520
 73
   466
  0
VERTEX
  5
B08
  8
0
 62
     9
 10
0.0
 20
0.0
 30
0.0
 70
   128
 71
   524
 72
   507
 73
   523
  0
VERTEX
  5
B09
  8
0
 62
     9
 10
0.0
 20
0.0
 30
0.0
 70
   128
 71
   533
 72
   500
 73
   577
  0
VERTEX
  5
B0A
  8
0
 62
     9
 10
0.0
 20
0.0
 30
0.0
 70
   128
 71
   523
 72
   507
 73
   533
  0
VERTEX
  5
B0B
  8
0
 62
     9
 10
0.0
 20
0.0
 30
0.0
 70
   128
 71
   493
 72
   494
 73
   531
  0
VERTEX
  5
B0C
  8
0
 62
     9
 10
0.0
 20
0.0
 30
0.0
 70
   128
 71
   500
 72
   493
 73
   577
  0
VERTEX
  5
B0D
  8
0
 62
     9
 10
0.0
 20
0.0
 30
0.0
 70
   128
 71
   476
 72
   531
 73
   494
  0
SEQEND
  5
B0E
  8
0
  0
ENDBLK
  5
B11
  8
0
  0
BLOCK
  8
0
  2
42
 70
     0
 10
0.0
 20
0.0
 30
0.0
  3
42
  1

  0
POLYLINE
  5
B13
  8
0
 62
     9
 66
     1
 10
0.0
 20
0.0
 30
0.0
 70
    64
 71
   156
 72
   204
  0
VERTEX
  5
B14
  8
0
 10
0.0000000000000011
 20
-17.08412742614746
 30
125.2654342651367
 70
   192
  0
VERTEX
  5
B15
  8
0
 10
0.0000000000000014
 20
-19.42785835266113
 30
121.4893798828125
 70
   192
  0
VERTEX
  5
B16
  8
0
 10
-3.333041429519653
 20
-19.11293411254883
 30
121.5234832763672
 70
   192
  0
VERTEX
  5
B17
  8
0
 10
-19.12131690979004
 20
-3.365615844726562
 30
121.5234832763672
 70
   192
  0
VERTEX
  5
B18
  8
0
 10
-16.86111450195312
 20
-2.967789173126221
 30
125.2234878540039
 70
   192
  0
VERTEX
  5
B19
  8
0
 10
-15.23142623901367
 20
-7.808222770690918
 30
125.2234878540039
 70
   192
  0
VERTEX
  5
B1A
  8
0
 10
-17.04458999633789
 20
-12.16022682189941
 30
117.3499984741211
 70
   192
  0
VERTEX
  5
B1B
  8
0
 10
-20.0102424621582
 20
-6.138294219970703
 30
117.3499984741211
 70
   192
  0
VERTEX
  5
B1C
  8
0
 10
-17.27317237854004
 20
-8.854901313781738
 30
121.5234832763672
 70
   192
  0
VERTEX
  5
B1D
  8
0
 10
-14.05702686309814
 20
0.0000000000000016
 30
128.4499969482422
 70
   192
  0
VERTEX
  5
B1E
  8
0
 10
-17.0926628112793
 20
-0.0000000000000002
 30
125.2554702758789
 70
   192
  0
VERTEX
  5
B1F
  8
0
 10
-20.93967437744141
 20
-0.0000000000000032
 30
117.3499984741211
 70
   192
  0
VERTEX
  5
B20
  8
0
 10
-13.69486522674561
 20
-13.74377346038818
 30
121.5234832763672
 70
   192
  0
VERTEX
  5
B21
  8
0
 10
-12.17830181121826
 20
-17.03271865844727
 30
117.3499984741211
 70
   192
  0
VERTEX
  5
B22
  8
0
 10
-6.166399955749512
 20
-20.01640701293945
 30
117.3499984741211
 70
   192
  0
VERTEX
  5
B23
  8
0
 10
-8.79745101928711
 20
-17.28835868835449
 30
121.5234832763672
 70
   192
  0
VERTEX
  5
B24
  8
0
 10
-7.757564067840576
 20
-15.24481773376465
 30
125.2234878540039
 70
   192
  0
VERTEX
  5
B25
  8
0
 10
-4.120702266693115
 20
-13.43308925628662
 30
128.4499969482422
 70
   192
  0
VERTEX
  5
B26
  8
0
 10
-2.939064979553223
 20
-16.85372352600098
 30
125.2234878540039
 70
   192
  0
VERTEX
  5
B27
  8
0
 10
0.000000000000004
 20
-20.93967437744141
 30
117.3499984741211
 70
   192
  0
VERTEX
  5
B28
  8
0
 10
0.0000000000000008
 20
-14.05702686309814
 30
128.4499969482422
 70
   192
  0
VERTEX
  5
B29
  8
0
 10
-8.163289070129395
 20
-11.44221496582031
 30
128.4499969482422
 70
   192
  0
VERTEX
  5
B2A
  8
0
 10
-12.07608699798584
 20
-12.11921405792236
 30
125.2234878540039
 70
   192
  0
VERTEX
  5
B2B
  8
0
 10
-19.4329833984375
 20
-0.0000000000000005
 30
121.4773101806641
 70
   192
  0
VERTEX
  5
B2C
  8
0
 10
-11.43424415588379
 20
-8.175423622131348
 30
128.4499969482422
 70
   192
  0
VERTEX
  5
B2D
  8
0
 10
-13.43722724914551
 20
-4.139570236206055
 30
128.4499969482422
 70
   192
  0
VERTEX
  5
B2E
  8
0
 10
17.08412742614746
 20
0.000000000000007
 30
125.2654342651367
 70
   192
  0
VERTEX
  5
B2F
  8
0
 10
19.42785835266113
 20
0.0000000000000072
 30
121.4893798828125
 70
   192
  0
VERTEX
  5
B30
  8
0
 10
19.11293411254883
 20
-3.333041429519653
 30
121.5234832763672
 70
   192
  0
VERTEX
  5
B31
  8
0
 10
3.365615844726562
 20
-19.12131690979004
 30
121.5234832763672
 70
   192
  0
VERTEX
  5
B32
  8
0
 10
2.967789173126221
 20
-16.86111450195312
 30
125.2234878540039
 70
   192
  0
VERTEX
  5
B33
  8
0
 10
7.808222770690918
 20
-15.23142623901367
 30
125.2234878540039
 70
   192
  0
VERTEX
  5
B34
  8
0
 10
12.16022682189941
 20
-17.04458999633789
 30
117.3499984741211
 70
   192
  0
VERTEX
  5
B35
  8
0
 10
6.138294219970703
 20
-20.0102424621582
 30
117.3499984741211
 70
   192
  0
VERTEX
  5
B36
  8
0
 10
8.854901313781738
 20
-17.27317237854004
 30
121.5234832763672
 70
   192
  0
VERTEX
  5
B37
  8
0
 10
13.74377346038818
 20
-13.69486522674561
 30
121.5234832763672
 70
   192
  0
VERTEX
  5
B38
  8
0
 10
17.03271865844727
 20
-12.17830181121826
 30
117.3499984741211
 70
   192
  0
VERTEX
  5
B39
  8
0
 10
20.01640701293945
 20
-6.166399955749512
 30
117.3499984741211
 70
   192
  0
VERTEX
  5
B3A
  8
0
 10
17.28835868835449
 20
-8.79745101928711
 30
121.5234832763672
 70
   192
  0
VERTEX
  5
B3B
  8
0
 10
15.24481773376465
 20
-7.757564067840576
 30
125.2234878540039
 70
   192
  0
VERTEX
  5
B3C
  8
0
 10
13.43308925628662
 20
-4.120702266693115
 30
128.4499969482422
 70
   192
  0
VERTEX
  5
B3D
  8
0
 10
16.85372352600098
 20
-2.939064979553223
 30
125.2234878540039
 70
   192
  0
VERTEX
  5
B3E
  8
0
 10
20.93967437744141
 20
0.0000000000000072
 30
117.3499984741211
 70
   192
  0
VERTEX
  5
B3F
  8
0
 10
14.05702686309814
 20
0.0000000000000157
 30
128.4499969482422
 70
   192
  0
VERTEX
  5
B40
  8
0
 10
11.44221496582031
 20
-8.163289070129395
 30
128.4499969482422
 70
   192
  0
VERTEX
  5
B41
  8
0
 10
12.11921405792236
 20
-12.07608699798584
 30
125.2234878540039
 70
   192
  0
VERTEX
  5
B42
  8
0
 10
8.175423622131348
 20
-11.43424415588379
 30
128.4499969482422
 70
   192
  0
VERTEX
  5
B43
  8
0
 10
4.139570236206055
 20
-13.43722724914551
 30
128.4499969482422
 70
   192
  0
VERTEX
  5
B44
  8
0
 10
0.0000000000000001
 20
17.08412742614746
 30
125.2654342651367
 70
   192
  0
VERTEX
  5
B45
  8
0
 10
0.0000000000000003
 20
19.42785835266113
 30
121.4893798828125
 70
   192
  0
VERTEX
  5
B46
  8
0
 10
3.333041429519653
 20
19.11293411254883
 30
121.5234832763672
 70
   192
  0
VERTEX
  5
B47
  8
0
 10
19.12131690979004
 20
3.365615844726562
 30
121.5234832763672
 70
   192
  0
VERTEX
  5
B48
  8
0
 10
16.86111450195312
 20
2.967789173126221
 30
125.2234878540039
 70
   192
  0
VERTEX
  5
B49
  8
0
 10
15.23142623901367
 20
7.808222770690918
 30
125.2234878540039
 70
   192
  0
VERTEX
  5
B4A
  8
0
 10
17.04458999633789
 20
12.16022682189941
 30
117.3499984741211
 70
   192
  0
VERTEX
  5
B4B
  8
0
 10
20.0102424621582
 20
6.138294219970703
 30
117.3499984741211
 70
   192
  0
VERTEX
  5
B4C
  8
0
 10
17.27317237854004
 20
8.854901313781738
 30
121.5234832763672
 70
   192
  0
VERTEX
  5
B4D
  8
0
 10
13.69486522674561
 20
13.74377346038818
 30
121.5234832763672
 70
   192
  0
VERTEX
  5
B4E
  8
0
 10
12.17830181121826
 20
17.03271865844727
 30
117.3499984741211
 70
   192
  0
VERTEX
  5
B4F
  8
0
 10
6.166399955749512
 20
20.01640701293945
 30
117.3499984741211
 70
   192
  0
VERTEX
  5
B50
  8
0
 10
8.79745101928711
 20
17.28835868835449
 30
121.5234832763672
 70
   192
  0
VERTEX
  5
B51
  8
0
 10
7.757564067840576
 20
15.24481773376465
 30
125.2234878540039
 70
   192
  0
VERTEX
  5
B52
  8
0
 10
4.120702266693115
 20
13.43308925628662
 30
128.4499969482422
 70
   192
  0
VERTEX
  5
B53
  8
0
 10
2.939064979553223
 20
16.85372352600098
 30
125.2234878540039
 70
   192
  0
VERTEX
  5
B54
  8
0
 10
-0.0000000000000015
 20
20.93967437744141
 30
117.3499984741211
 70
   192
  0
VERTEX
  5
B55
  8
0
 10
-0.0000000000000022
 20
14.05702686309814
 30
128.4499969482422
 70
   192
  0
VERTEX
  5
B56
  8
0
 10
8.163289070129395
 20
11.44221496582031
 30
128.4499969482422
 70
   192
  0
VERTEX
  5
B57
  8
0
 10
12.07608699798584
 20
12.11921405792236
 30
125.2234878540039
 70
   192
  0
VERTEX
  5
B58
  8
0
 10
11.43424415588379
 20
8.175423622131348
 30
128.4499969482422
 70
   192
  0
VERTEX
  5
B59
  8
0
 10
13.43722724914551
 20
4.139570236206055
 30
128.4499969482422
 70
   192
  0
VERTEX
  5
B5A
  8
0
 10
-17.28835868835449
 20
8.79745101928711
 30
121.5234832763672
 70
   192
  0
VERTEX
  5
B5B
  8
0
 10
-20.01640701293945
 20
6.166399955749512
 30
117.3499984741211
 70
   192
  0
VERTEX
  5
B5C
  8
0
 10
-17.03271865844727
 20
12.17830181121826
 30
117.3499984741211
 70
   192
  0
VERTEX
  5
B5D
  8
0
 10
-7.808222770690918
 20
15.23142623901367
 30
125.2234878540039
 70
   192
  0
VERTEX
  5
B5E
  8
0
 10
-8.854901313781738
 20
17.27317237854004
 30
121.5234832763672
 70
   192
  0
VERTEX
  5
B5F
  8
0
 10
-3.365615844726562
 20
19.12131690979004
 30
121.5234832763672
 70
   192
  0
VERTEX
  5
B60
  8
0
 10
-13.43308925628662
 20
4.120702266693115
 30
128.4499969482422
 70
   192
  0
VERTEX
  5
B61
  8
0
 10
-16.85372352600098
 20
2.939064979553223
 30
125.2234878540039
 70
   192
  0
VERTEX
  5
B62
  8
0
 10
-15.24481773376465
 20
7.757564067840576
 30
125.2234878540039
 70
   192
  0
VERTEX
  5
B63
  8
0
 10
-6.138294219970703
 20
20.0102424621582
 30
117.3499984741211
 70
   192
  0
VERTEX
  5
B64
  8
0
 10
-12.16022682189941
 20
17.04458999633789
 30
117.3499984741211
 70
   192
  0
VERTEX
  5
B65
  8
0
 10
-2.967789173126221
 20
16.86111450195312
 30
125.2234878540039
 70
   192
  0
VERTEX
  5
B66
  8
0
 10
-13.74377346038818
 20
13.69486522674561
 30
121.5234832763672
 70
   192
  0
VERTEX
  5
B67
  8
0
 10
-19.11293411254883
 20
3.333041429519653
 30
121.5234832763672
 70
   192
  0
VERTEX
  5
B68
  8
0
 10
-11.44221496582031
 20
8.163289070129395
 30
128.4499969482422
 70
   192
  0
VERTEX
  5
B69
  8
0
 10
-12.11921405792236
 20
12.07608699798584
 30
125.2234878540039
 70
   192
  0
VERTEX
  5
B6A
  8
0
 10
-8.175423622131348
 20
11.43424415588379
 30
128.4499969482422
 70
   192
  0
VERTEX
  5
B6B
  8
0
 10
-4.139570236206055
 20
13.43722724914551
 30
128.4499969482422
 70
   192
  0
VERTEX
  5
B6C
  8
0
 10
-20.85982704162598
 20
1.935674667358398
 30
113.0500030517578
 70
   192
  0
VERTEX
  5
B6D
  8
0
 10
-20.86096382141113
 20
1.928474068641663
 30
117.3499984741211
 70
   192
  0
VERTEX
  5
B6E
  8
0
 10
-20.86096382141113
 20
-1.928474068641663
 30
113.0500030517578
 70
   192
  0
VERTEX
  5
B6F
  8
0
 10
-20.15165710449219
 20
5.729998111724854
 30
117.3499984741211
 70
   192
  0
VERTEX
  5
B70
  8
0
 10
-20.14921188354492
 20
5.731983184814453
 30
113.0500030517578
 70
   192
  0
VERTEX
  5
B71
  8
0
 10
-18.7520694732666
 20
9.337809562683105
 30
113.0500030517578
 70
   192
  0
VERTEX
  5
B72
  8
0
 10
-18.75753784179688
 20
9.333122253417969
 30
117.3499984741211
 70
   192
  0
VERTEX
  5
B73
  8
0
 10
-16.71776962280273
 20
12.62242221832275
 30
113.0500030517578
 70
   192
  0
VERTEX
  5
B74
  8
0
 10
-16.72466468811035
 20
12.61820983886719
 30
117.3499984741211
 70
   192
  0
VERTEX
  5
B75
  8
0
 10
-14.1051197052002
 20
15.47369956970215
 30
113.0500030517578
 70
   192
  0
VERTEX
  5
B76
  8
0
 10
-14.06673908233643
 20
15.42033195495605
 30
117.3499984741211
 70
   192
  0
VERTEX
  5
B77
  8
0
 10
-11.02003955841064
 20
17.80043983459473
 30
113.0500030517578
 70
   192
  0
VERTEX
  5
B78
  8
0
 10
-11.04355621337891
 20
17.82397270202637
 30
117.3499984741211
 70
   192
  0
VERTEX
  5
B79
  8
0
 10
-7.572709560394287
 20
19.53652763366699
 30
117.3499984741211
 70
   192
  0
VERTEX
  5
B7A
  8
0
 10
-7.562591552734375
 20
19.53321838378906
 30
113.0500030517578
 70
   192
  0
VERTEX
  5
B7B
  8
0
 10
-3.845093250274658
 20
20.5922966003418
 30
113.0500030517578
 70
   192
  0
VERTEX
  5
B7C
  8
0
 10
-3.85235595703125
 20
20.59457969665527
 30
117.3499984741211
 70
   192
  0
VERTEX
  5
B7D
  8
0
 10
0.0
 20
20.95000076293945
 30
117.3499984741211
 70
   192
  0
VERTEX
  5
B7E
  8
0
 10
0.0
 20
20.95000076293945
 30
113.0500030517578
 70
   192
  0
VERTEX
  5
B7F
  8
0
 10
-20.85982704162598
 20
-1.935674667358398
 30
117.3499984741211
 70
   192
  0
VERTEX
  5
B80
  8
0
 10
-20.14921188354492
 20
-5.731983184814453
 30
117.3499984741211
 70
   192
  0
VERTEX
  5
B81
  8
0
 10
-20.15165710449219
 20
-5.729998111724854
 30
113.0500030517578
 70
   192
  0
VERTEX
  5
B82
  8
0
 10
-18.7520694732666
 20
-9.337809562683105
 30
117.3499984741211
 70
   192
  0
VERTEX
  5
B83
  8
0
 10
-18.75753784179688
 20
-9.333122253417969
 30
113.0500030517578
 70
   192
  0
VERTEX
  5
B84
  8
0
 10
-16.72466468811035
 20
-12.61820983886719
 30
113.0500030517578
 70
   192
  0
VERTEX
  5
B85
  8
0
 10
-16.71776962280273
 20
-12.62242221832275
 30
117.3499984741211
 70
   192
  0
VERTEX
  5
B86
  8
0
 10
-14.1051197052002
 20
-15.47369956970215
 30
117.3499984741211
 70
   192
  0
VERTEX
  5
B87
  8
0
 10
-14.06673908233643
 20
-15.42033195495605
 30
113.0500030517578
 70
   192
  0
VERTEX
  5
B88
  8
0
 10
-11.04355621337891
 20
-17.82397270202637
 30
113.0500030517578
 70
   192
  0
VERTEX
  5
B89
  8
0
 10
-11.02003955841064
 20
-17.80043983459473
 30
117.3499984741211
 70
   192
  0
VERTEX
  5
B8A
  8
0
 10
-7.562591552734375
 20
-19.53321838378906
 30
117.3499984741211
 70
   192
  0
VERTEX
  5
B8B
  8
0
 10
-7.572709560394287
 20
-19.53652763366699
 30
113.0500030517578
 70
   192
  0
VERTEX
  5
B8C
  8
0
 10
-3.845093250274658
 20
-20.5922966003418
 30
117.3499984741211
 70
   192
  0
VERTEX
  5
B8D
  8
0
 10
-3.85235595703125
 20
-20.59457969665527
 30
113.0500030517578
 70
   192
  0
VERTEX
  5
B8E
  8
0
 10
0.0000000000000026
 20
-20.95000076293945
 30
113.0500030517578
 70
   192
  0
VERTEX
  5
B8F
  8
0
 10
0.0000000000000026
 20
-20.95000076293945
 30
117.3499984741211
 70
   192
  0
VERTEX
  5
B90
  8
0
 10
3.845093250274658
 20
20.5922966003418
 30
117.3499984741211
 70
   192
  0
VERTEX
  5
B91
  8
0
 10
14.1051197052002
 20
15.47369956970215
 30
117.3499984741211
 70
   192
  0
VERTEX
  5
B92
  8
0
 10
11.02003955841064
 20
17.80043983459473
 30
117.3499984741211
 70
   192
  0
VERTEX
  5
B93
  8
0
 10
14.06673908233643
 20
15.42033195495605
 30
113.0500030517578
 70
   192
  0
VERTEX
  5
B94
  8
0
 10
7.562591552734375
 20
19.53321838378906
 30
117.3499984741211
 70
   192
  0
VERTEX
  5
B95
  8
0
 10
7.572709560394287
 20
19.53652763366699
 30
113.0500030517578
 70
   192
  0
VERTEX
  5
B96
  8
0
 10
11.04355621337891
 20
17.82397270202637
 30
113.0500030517578
 70
   192
  0
VERTEX
  5
B97
  8
0
 10
20.14921188354492
 20
5.731983184814453
 30
117.3499984741211
 70
   192
  0
VERTEX
  5
B98
  8
0
 10
20.15165710449219
 20
5.729998111724854
 30
113.0500030517578
 70
   192
  0
VERTEX
  5
B99
  8
0
 10
20.85982704162598
 20
1.935674667358398
 30
117.3499984741211
 70
   192
  0
VERTEX
  5
B9A
  8
0
 10
18.7520694732666
 20
9.337809562683105
 30
117.3499984741211
 70
   192
  0
VERTEX
  5
B9B
  8
0
 10
16.72466468811035
 20
12.61820983886719
 30
113.0500030517578
 70
   192
  0
VERTEX
  5
B9C
  8
0
 10
18.75753784179688
 20
9.333122253417969
 30
113.0500030517578
 70
   192
  0
VERTEX
  5
B9D
  8
0
 10
18.75753784179688
 20
-9.333122253417969
 30
117.3499984741211
 70
   192
  0
VERTEX
  5
B9E
  8
0
 10
20.15165710449219
 20
-5.729998111724854
 30
117.3499984741211
 70
   192
  0
VERTEX
  5
B9F
  8
0
 10
20.14921188354492
 20
-5.731983184814453
 30
113.0500030517578
 70
   192
  0
VERTEX
  5
BA0
  8
0
 10
20.85982704162598
 20
-1.935674667358398
 30
113.0500030517578
 70
   192
  0
VERTEX
  5
BA1
  8
0
 10
20.86096382141113
 20
-1.928474068641663
 30
117.3499984741211
 70
   192
  0
VERTEX
  5
BA2
  8
0
 10
20.86096382141113
 20
1.928474068641663
 30
113.0500030517578
 70
   192
  0
VERTEX
  5
BA3
  8
0
 10
16.72466468811035
 20
-12.61820983886719
 30
117.3499984741211
 70
   192
  0
VERTEX
  5
BA4
  8
0
 10
16.71776962280273
 20
-12.62242221832275
 30
113.0500030517578
 70
   192
  0
VERTEX
  5
BA5
  8
0
 10
14.1051197052002
 20
-15.47369956970215
 30
113.0500030517578
 70
   192
  0
VERTEX
  5
BA6
  8
0
 10
18.7520694732666
 20
-9.337809562683105
 30
113.0500030517578
 70
   192
  0
VERTEX
  5
BA7
  8
0
 10
14.06673908233643
 20
-15.42033195495605
 30
117.3499984741211
 70
   192
  0
VERTEX
  5
BA8
  8
0
 10
11.02003955841064
 20
-17.80043983459473
 30
113.0500030517578
 70
   192
  0
VERTEX
  5
BA9
  8
0
 10
11.04355621337891
 20
-17.82397270202637
 30
117.3499984741211
 70
   192
  0
VERTEX
  5
BAA
  8
0
 10
7.562591552734375
 20
-19.53321838378906
 30
113.0500030517578
 70
   192
  0
VERTEX
  5
BAB
  8
0
 10
7.572709560394287
 20
-19.53652763366699
 30
117.3499984741211
 70
   192
  0
VERTEX
  5
BAC
  8
0
 10
3.85235595703125
 20
-20.59457969665527
 30
117.3499984741211
 70
   192
  0
VERTEX
  5
BAD
  8
0
 10
3.845093250274658
 20
-20.5922966003418
 30
113.0500030517578
 70
   192
  0
VERTEX
  5
BAE
  8
0
 10
16.71776962280273
 20
12.62242221832275
 30
117.3499984741211
 70
   192
  0
VERTEX
  5
BAF
  8
0
 10
3.85235595703125
 20
20.59457969665527
 30
113.0500030517578
 70
   192
  0
VERTEX
  5
BB0
  8
0
 62
     9
 10
0.0
 20
0.0
 30
0.0
 70
   128
 71
     3
 72
     2
 73
     1
  0
VERTEX
  5
BB1
  8
0
 62
     9
 10
0.0
 20
0.0
 30
0.0
 70
   128
 71
     6
 72
     5
 73
     4
  0
VERTEX
  5
BB2
  8
0
 62
     9
 10
0.0
 20
0.0
 30
0.0
 70
   128
 71
     9
 72
     8
 73
     7
  0
VERTEX
  5
BB3
  8
0
 62
     9
 10
0.0
 20
0.0
 30
0.0
 70
   128
 71
    11
 72
     5
 73
    10
  0
VERTEX
  5
BB4
  8
0
 62
     9
 10
0.0
 20
0.0
 30
0.0
 70
   128
 71
     4
 72
     9
 73
     6
  0
VERTEX
  5
BB5
  8
0
 62
     9
 10
0.0
 20
0.0
 30
0.0
 70
   128
 71
     8
 72
     4
 73
    12
  0
VERTEX
  5
BB6
  8
0
 62
     9
 10
0.0
 20
0.0
 30
0.0
 70
   128
 71
    14
 72
    13
 73
     7
  0
VERTEX
  5
BB7
  8
0
 62
     9
 10
0.0
 20
0.0
 30
0.0
 70
   128
 71
     7
 72
    13
 73
     9
  0
VERTEX
  5
BB8
  8
0
 62
     9
 10
0.0
 20
0.0
 30
0.0
 70
   128
 71
    16
 72
    14
 73
    15
  0
VERTEX
  5
BB9
  8
0
 62
     9
 10
0.0
 20
0.0
 30
0.0
 70
   128
 71
    14
 72
    16
 73
    13
  0
VERTEX
  5
BBA
  8
0
 62
     9
 10
0.0
 20
0.0
 30
0.0
 70
   128
 71
    19
 72
    18
 73
    17
  0
VERTEX
  5
BBB
  8
0
 62
     9
 10
0.0
 20
0.0
 30
0.0
 70
   128
 71
    15
 72
    20
 73
     3
  0
VERTEX
  5
BBC
  8
0
 62
     9
 10
0.0
 20
0.0
 30
0.0
 70
   128
 71
     2
 72
     3
 73
    20
  0
VERTEX
  5
BBD
  8
0
 62
     9
 10
0.0
 20
0.0
 30
0.0
 70
   128
 71
    19
 72
    21
 73
    18
  0
VERTEX
  5
BBE
  8
0
 62
     9
 10
0.0
 20
0.0
 30
0.0
 70
   128
 71
    22
 72
    17
 73
    18
  0
VERTEX
  5
BBF
  8
0
 62
     9
 10
0.0
 20
0.0
 30
0.0
 70
   128
 71
     3
 72
    16
 73
    15
  0
VERTEX
  5
BC0
  8
0
 62
     9
 10
0.0
 20
0.0
 30
0.0
 70
   128
 71
     1
 72
    19
 73
     3
  0
VERTEX
  5
BC1
  8
0
 62
     9
 10
0.0
 20
0.0
 30
0.0
 70
   128
 71
    13
 72
    17
 73
    23
  0
VERTEX
  5
BC2
  8
0
 62
     9
 10
0.0
 20
0.0
 30
0.0
 70
   128
 71
    16
 72
    17
 73
    13
  0
VERTEX
  5
BC3
  8
0
 62
     9
 10
0.0
 20
0.0
 30
0.0
 70
   128
 71
    23
 72
     6
 73
     9
  0
VERTEX
  5
BC4
  8
0
 62
     9
 10
0.0
 20
0.0
 30
0.0
 70
   128
 71
    23
 72
     9
 73
    13
  0
VERTEX
  5
BC5
  8
0
 62
     9
 10
0.0
 20
0.0
 30
0.0
 70
   128
 71
     5
 72
    24
 73
     4
  0
VERTEX
  5
BC6
  8
0
 62
     9
 10
0.0
 20
0.0
 30
0.0
 70
   128
 71
     4
 72
    24
 73
    12
  0
VERTEX
  5
BC7
  8
0
 62
     9
 10
0.0
 20
0.0
 30
0.0
 70
   128
 71
     9
 72
     4
 73
     8
  0
VERTEX
  5
BC8
  8
0
 62
     9
 10
0.0
 20
0.0
 30
0.0
 70
   128
 71
    19
 72
    16
 73
     3
  0
VERTEX
  5
BC9
  8
0
 62
     9
 10
0.0
 20
0.0
 30
0.0
 70
   128
 71
    19
 72
     1
 73
    21
  0
VERTEX
  5
BCA
  8
0
 62
     9
 10
0.0
 20
0.0
 30
0.0
 70
   128
 71
    22
 72
    23
 73
    17
  0
VERTEX
  5
BCB
  8
0
 62
     9
 10
0.0
 20
0.0
 30
0.0
 70
   128
 71
    19
 72
    17
 73
    16
  0
VERTEX
  5
BCC
  8
0
 62
     9
 10
0.0
 20
0.0
 30
0.0
 70
   128
 71
    25
 72
    23
 73
    22
  0
VERTEX
  5
BCD
  8
0
 62
     9
 10
0.0
 20
0.0
 30
0.0
 70
   128
 71
    25
 72
     6
 73
    23
  0
VERTEX
  5
BCE
  8
0
 62
     9
 10
0.0
 20
0.0
 30
0.0
 70
   128
 71
    26
 72
     6
 73
    25
  0
VERTEX
  5
BCF
  8
0
 62
     9
 10
0.0
 20
0.0
 30
0.0
 70
   128
 71
     5
 72
    26
 73
    10
  0
VERTEX
  5
BD0
  8
0
 62
     9
 10
0.0
 20
0.0
 30
0.0
 70
   128
 71
     5
 72
     6
 73
    26
  0
VERTEX
  5
BD1
  8
0
 62
     9
 10
0.0
 20
0.0
 30
0.0
 70
   128
 71
     5
 72
    11
 73
    24
  0
VERTEX
  5
BD2
  8
0
 62
     9
 10
0.0
 20
0.0
 30
0.0
 70
   128
 71
    29
 72
    28
 73
    27
  0
VERTEX
  5
BD3
  8
0
 62
     9
 10
0.0
 20
0.0
 30
0.0
 70
   128
 71
    32
 72
    31
 73
    30
  0
VERTEX
  5
BD4
  8
0
 62
     9
 10
0.0
 20
0.0
 30
0.0
 70
   128
 71
    35
 72
    34
 73
    33
  0
VERTEX
  5
BD5
  8
0
 62
     9
 10
0.0
 20
0.0
 30
0.0
 70
   128
 71
     1
 72
    31
 73
    21
  0
VERTEX
  5
BD6
  8
0
 62
     9
 10
0.0
 20
0.0
 30
0.0
 70
   128
 71
    30
 72
    35
 73
    32
  0
VERTEX
  5
BD7
  8
0
 62
     9
 10
0.0
 20
0.0
 30
0.0
 70
   128
 71
    34
 72
    30
 73
    20
  0
VERTEX
  5
BD8
  8
0
 62
     9
 10
0.0
 20
0.0
 30
0.0
 70
   128
 71
    37
 72
    36
 73
    33
  0
VERTEX
  5
BD9
  8
0
 62
     9
 10
0.0
 20
0.0
 30
0.0
 70
   128
 71
    33
 72
    36
 73
    35
  0
VERTEX
  5
BDA
  8
0
 62
     9
 10
0.0
 20
0.0
 30
0.0
 70
   128
 71
    39
 72
    37
 73
    38
  0
VERTEX
  5
BDB
  8
0
 62
     9
 10
0.0
 20
0.0
 30
0.0
 70
   128
 71
    37
 72
    39
 73
    36
  0
VERTEX
  5
BDC
  8
0
 62
     9
 10
0.0
 20
0.0
 30
0.0
 70
   128
 71
    42
 72
    41
 73
    40
  0
VERTEX
  5
BDD
  8
0
 62
     9
 10
0.0
 20
0.0
 30
0.0
 70
   128
 71
    38
 72
    43
 73
    29
  0
VERTEX
  5
BDE
  8
0
 62
     9
 10
0.0
 20
0.0
 30
0.0
 70
   128
 71
    28
 72
    29
 73
    43
  0
VERTEX
  5
BDF
  8
0
 62
     9
 10
0.0
 20
0.0
 30
0.0
 70
   128
 71
    42
 72
    44
 73
    41
  0
VERTEX
  5
BE0
  8
0
 62
     9
 10
0.0
 20
0.0
 30
0.0
 70
   128
 71
    45
 72
    40
 73
    41
  0
VERTEX
  5
BE1
  8
0
 62
     9
 10
0.0
 20
0.0
 30
0.0
 70
   128
 71
    29
 72
    39
 73
    38
  0
VERTEX
  5
BE2
  8
0
 62
     9
 10
0.0
 20
0.0
 30
0.0
 70
   128
 71
    27
 72
    42
 73
    29
  0
VERTEX
  5
BE3
  8
0
 62
     9
 10
0.0
 20
0.0
 30
0.0
 70
   128
 71
    36
 72
    40
 73
    46
  0
VERTEX
  5
BE4
  8
0
 62
     9
 10
0.0
 20
0.0
 30
0.0
 70
   128
 71
    39
 72
    40
 73
    36
  0
VERTEX
  5
BE5
  8
0
 62
     9
 10
0.0
 20
0.0
 30
0.0
 70
   128
 71
    46
 72
    32
 73
    35
  0
VERTEX
  5
BE6
  8
0
 62
     9
 10
0.0
 20
0.0
 30
0.0
 70
   128
 71
    46
 72
    35
 73
    36
  0
VERTEX
  5
BE7
  8
0
 62
     9
 10
0.0
 20
0.0
 30
0.0
 70
   128
 71
    31
 72
     2
 73
    30
  0
VERTEX
  5
BE8
  8
0
 62
     9
 10
0.0
 20
0.0
 30
0.0
 70
   128
 71
    30
 72
     2
 73
    20
  0
VERTEX
  5
BE9
  8
0
 62
     9
 10
0.0
 20
0.0
 30
0.0
 70
   128
 71
    35
 72
    30
 73
    34
  0
VERTEX
  5
BEA
  8
0
 62
     9
 10
0.0
 20
0.0
 30
0.0
 70
   128
 71
    42
 72
    39
 73
    29
  0
VERTEX
  5
BEB
  8
0
 62
     9
 10
0.0
 20
0.0
 30
0.0
 70
   128
 71
    42
 72
    27
 73
    44
  0
VERTEX
  5
BEC
  8
0
 62
     9
 10
0.0
 20
0.0
 30
0.0
 70
   128
 71
    45
 72
    46
 73
    40
  0
VERTEX
  5
BED
  8
0
 62
     9
 10
0.0
 20
0.0
 30
0.0
 70
   128
 71
    42
 72
    40
 73
    39
  0
VERTEX
  5
BEE
  8
0
 62
     9
 10
0.0
 20
0.0
 30
0.0
 70
   128
 71
    47
 72
    46
 73
    45
  0
VERTEX
  5
BEF
  8
0
 62
     9
 10
0.0
 20
0.0
 30
0.0
 70
   128
 71
    47
 72
    32
 73
    46
  0
VERTEX
  5
BF0
  8
0
 62
     9
 10
0.0
 20
0.0
 30
0.0
 70
   128
 71
    48
 72
    32
 73
    47
  0
VERTEX
  5
BF1
  8
0
 62
     9
 10
0.0
 20
0.0
 30
0.0
 70
   128
 71
    31
 72
    48
 73
    21
  0
VERTEX
  5
BF2
  8
0
 62
     9
 10
0.0
 20
0.0
 30
0.0
 70
   128
 71
    31
 72
    32
 73
    48
  0
VERTEX
  5
BF3
  8
0
 62
     9
 10
0.0
 20
0.0
 30
0.0
 70
   128
 71
    31
 72
     1
 73
     2
  0
VERTEX
  5
BF4
  8
0
 62
     9
 10
0.0
 20
0.0
 30
0.0
 70
   128
 71
    51
 72
    50
 73
    49
  0
VERTEX
  5
BF5
  8
0
 62
     9
 10
0.0
 20
0.0
 30
0.0
 70
   128
 71
    54
 72
    53
 73
    52
  0
VERTEX
  5
BF6
  8
0
 62
     9
 10
0.0
 20
0.0
 30
0.0
 70
   128
 71
    57
 72
    56
 73
    55
  0
VERTEX
  5
BF7
  8
0
 62
     9
 10
0.0
 20
0.0
 30
0.0
 70
   128
 71
    27
 72
    53
 73
    44
  0
VERTEX
  5
BF8
  8
0
 62
     9
 10
0.0
 20
0.0
 30
0.0
 70
   128
 71
    52
 72
    57
 73
    54
  0
VERTEX
  5
BF9
  8
0
 62
     9
 10
0.0
 20
0.0
 30
0.0
 70
   128
 71
    56
 72
    52
 73
    43
  0
VERTEX
  5
BFA
  8
0
 62
     9
 10
0.0
 20
0.0
 30
0.0
 70
   128
 71
    59
 72
    58
 73
    55
  0
VERTEX
  5
BFB
  8
0
 62
     9
 10
0.0
 20
0.0
 30
0.0
 70
   128
 71
    55
 72
    58
 73
    57
  0
VERTEX
  5
BFC
  8
0
 62
     9
 10
0.0
 20
0.0
 30
0.0
 70
   128
 71
    61
 72
    59
 73
    60
  0
VERTEX
  5
BFD
  8
0
 62
     9
 10
0.0
 20
0.0
 30
0.0
 70
   128
 71
    59
 72
    61
 73
    58
  0
VERTEX
  5
BFE
  8
0
 62
     9
 10
0.0
 20
0.0
 30
0.0
 70
   128
 71
    64
 72
    63
 73
    62
  0
VERTEX
  5
BFF
  8
0
 62
     9
 10
0.0
 20
0.0
 30
0.0
 70
   128
 71
    60
 72
    65
 73
    51
  0
VERTEX
  5
C00
  8
0
 62
     9
 10
0.0
 20
0.0
 30
0.0
 70
   128
 71
    50
 72
    51
 73
    65
  0
VERTEX
  5
C01
  8
0
 62
     9
 10
0.0
 20
0.0
 30
0.0
 70
   128
 71
    64
 72
    66
 73
    63
  0
VERTEX
  5
C02
  8
0
 62
     9
 10
0.0
 20
0.0
 30
0.0
 70
   128
 71
    67
 72
    62
 73
    63
  0
VERTEX
  5
C03
  8
0
 62
     9
 10
0.0
 20
0.0
 30
0.0
 70
   128
 71
    51
 72
    61
 73
    60
  0
VERTEX
  5
C04
  8
0
 62
     9
 10
0.0
 20
0.0
 30
0.0
 70
   128
 71
    49
 72
    64
 73
    51
  0
VERTEX
  5
C05
  8
0
 62
     9
 10
0.0
 20
0.0
 30
0.0
 70
   128
 71
    58
 72
    62
 73
    68
  0
VERTEX
  5
C06
  8
0
 62
     9
 10
0.0
 20
0.0
 30
0.0
 70
   128
 71
    61
 72
    62
 73
    58
  0
VERTEX
  5
C07
  8
0
 62
     9
 10
0.0
 20
0.0
 30
0.0
 70
   128
 71
    68
 72
    54
 73
    57
  0
VERTEX
  5
C08
  8
0
 62
     9
 10
0.0
 20
0.0
 30
0.0
 70
   128
 71
    68
 72
    57
 73
    58
  0
VERTEX
  5
C09
  8
0
 62
     9
 10
0.0
 20
0.0
 30
0.0
 70
   128
 71
    53
 72
    28
 73
    52
  0
VERTEX
  5
C0A
  8
0
 62
     9
 10
0.0
 20
0.0
 30
0.0
 70
   128
 71
    52
 72
    28
 73
    43
  0
VERTEX
  5
C0B
  8
0
 62
     9
 10
0.0
 20
0.0
 30
0.0
 70
   128
 71
    57
 72
    52
 73
    56
  0
VERTEX
  5
C0C
  8
0
 62
     9
 10
0.0
 20
0.0
 30
0.0
 70
   128
 71
    64
 72
    61
 73
    51
  0
VERTEX
  5
C0D
  8
0
 62
     9
 10
0.0
 20
0.0
 30
0.0
 70
   128
 71
    64
 72
    49
 73
    66
  0
VERTEX
  5
C0E
  8
0
 62
     9
 10
0.0
 20
0.0
 30
0.0
 70
   128
 71
    67
 72
    68
 73
    62
  0
VERTEX
  5
C0F
  8
0
 62
     9
 10
0.0
 20
0.0
 30
0.0
 70
   128
 71
    64
 72
    62
 73
    61
  0
VERTEX
  5
C10
  8
0
 62
     9
 10
0.0
 20
0.0
 30
0.0
 70
   128
 71
    69
 72
    68
 73
    67
  0
VERTEX
  5
C11
  8
0
 62
     9
 10
0.0
 20
0.0
 30
0.0
 70
   128
 71
    69
 72
    54
 73
    68
  0
VERTEX
  5
C12
  8
0
 62
     9
 10
0.0
 20
0.0
 30
0.0
 70
   128
 71
    70
 72
    54
 73
    69
  0
VERTEX
  5
C13
  8
0
 62
     9
 10
0.0
 20
0.0
 30
0.0
 70
   128
 71
    53
 72
    70
 73
    44
  0
VERTEX
  5
C14
  8
0
 62
     9
 10
0.0
 20
0.0
 30
0.0
 70
   128
 71
    53
 72
    54
 73
    70
  0
VERTEX
  5
C15
  8
0
 62
     9
 10
0.0
 20
0.0
 30
0.0
 70
   128
 71
    53
 72
    27
 73
    28
  0
VERTEX
  5
C16
  8
0
 62
     9
 10
0.0
 20
0.0
 30
0.0
 70
   128
 71
    73
 72
    72
 73
    71
  0
VERTEX
  5
C17
  8
0
 62
     9
 10
0.0
 20
0.0
 30
0.0
 70
   128
 71
    76
 72
    75
 73
    74
  0
VERTEX
  5
C18
  8
0
 62
     9
 10
0.0
 20
0.0
 30
0.0
 70
   128
 71
    79
 72
    78
 73
    77
  0
VERTEX
  5
C19
  8
0
 62
     9
 10
0.0
 20
0.0
 30
0.0
 70
   128
 71
    81
 72
    75
 73
    80
  0
VERTEX
  5
C1A
  8
0
 62
     9
 10
0.0
 20
0.0
 30
0.0
 70
   128
 71
    77
 72
    78
 73
    10
  0
VERTEX
  5
C1B
  8
0
 62
     9
 10
0.0
 20
0.0
 30
0.0
 70
   128
 71
    66
 72
    49
 73
    82
  0
VERTEX
  5
C1C
  8
0
 62
     9
 10
0.0
 20
0.0
 30
0.0
 70
   128
 71
    76
 72
    65
 73
    80
  0
VERTEX
  5
C1D
  8
0
 62
     9
 10
0.0
 20
0.0
 30
0.0
 70
   128
 71
    82
 72
    76
 73
    74
  0
VERTEX
  5
C1E
  8
0
 62
     9
 10
0.0
 20
0.0
 30
0.0
 70
   128
 71
    83
 72
    75
 73
    81
  0
VERTEX
  5
C1F
  8
0
 62
     9
 10
0.0
 20
0.0
 30
0.0
 70
   128
 71
    71
 72
    83
 73
    73
  0
VERTEX
  5
C20
  8
0
 62
     9
 10
0.0
 20
0.0
 30
0.0
 70
   128
 71
    81
 72
    73
 73
    83
  0
VERTEX
  5
C21
  8
0
 62
     9
 10
0.0
 20
0.0
 30
0.0
 70
   128
 71
    12
 72
    84
 73
    72
  0
VERTEX
  5
C22
  8
0
 62
     9
 10
0.0
 20
0.0
 30
0.0
 70
   128
 71
    84
 72
    12
 73
    24
  0
VERTEX
  5
C23
  8
0
 62
     9
 10
0.0
 20
0.0
 30
0.0
 70
   128
 71
    24
 72
    11
 73
    84
  0
VERTEX
  5
C24
  8
0
 62
     9
 10
0.0
 20
0.0
 30
0.0
 70
   128
 71
    85
 72
    79
 73
    77
  0
VERTEX
  5
C25
  8
0
 62
     9
 10
0.0
 20
0.0
 30
0.0
 70
   128
 71
    84
 72
    71
 73
    72
  0
VERTEX
  5
C26
  8
0
 62
     9
 10
0.0
 20
0.0
 30
0.0
 70
   128
 71
    11
 72
    78
 73
    84
  0
VERTEX
  5
C27
  8
0
 62
     9
 10
0.0
 20
0.0
 30
0.0
 70
   128
 71
    83
 72
    79
 73
    86
  0
VERTEX
  5
C28
  8
0
 62
     9
 10
0.0
 20
0.0
 30
0.0
 70
   128
 71
    71
 72
    79
 73
    83
  0
VERTEX
  5
C29
  8
0
 62
     9
 10
0.0
 20
0.0
 30
0.0
 70
   128
 71
    86
 72
    74
 73
    75
  0
VERTEX
  5
C2A
  8
0
 62
     9
 10
0.0
 20
0.0
 30
0.0
 70
   128
 71
    86
 72
    75
 73
    83
  0
VERTEX
  5
C2B
  8
0
 62
     9
 10
0.0
 20
0.0
 30
0.0
 70
   128
 71
    82
 72
    50
 73
    76
  0
VERTEX
  5
C2C
  8
0
 62
     9
 10
0.0
 20
0.0
 30
0.0
 70
   128
 71
    76
 72
    50
 73
    65
  0
VERTEX
  5
C2D
  8
0
 62
     9
 10
0.0
 20
0.0
 30
0.0
 70
   128
 71
    75
 72
    76
 73
    80
  0
VERTEX
  5
C2E
  8
0
 62
     9
 10
0.0
 20
0.0
 30
0.0
 70
   128
 71
    78
 72
    71
 73
    84
  0
VERTEX
  5
C2F
  8
0
 62
     9
 10
0.0
 20
0.0
 30
0.0
 70
   128
 71
    78
 72
    11
 73
    10
  0
VERTEX
  5
C30
  8
0
 62
     9
 10
0.0
 20
0.0
 30
0.0
 70
   128
 71
    85
 72
    86
 73
    79
  0
VERTEX
  5
C31
  8
0
 62
     9
 10
0.0
 20
0.0
 30
0.0
 70
   128
 71
    78
 72
    79
 73
    71
  0
VERTEX
  5
C32
  8
0
 62
     9
 10
0.0
 20
0.0
 30
0.0
 70
   128
 71
    87
 72
    86
 73
    85
  0
VERTEX
  5
C33
  8
0
 62
     9
 10
0.0
 20
0.0
 30
0.0
 70
   128
 71
    87
 72
    74
 73
    86
  0
VERTEX
  5
C34
  8
0
 62
     9
 10
0.0
 20
0.0
 30
0.0
 70
   128
 71
    88
 72
    74
 73
    87
  0
VERTEX
  5
C35
  8
0
 62
     9
 10
0.0
 20
0.0
 30
0.0
 70
   128
 71
    82
 72
    88
 73
    66
  0
VERTEX
  5
C36
  8
0
 62
     9
 10
0.0
 20
0.0
 30
0.0
 70
   128
 71
    82
 72
    74
 73
    88
  0
VERTEX
  5
C37
  8
0
 62
     9
 10
0.0
 20
0.0
 30
0.0
 70
   128
 71
    82
 72
    49
 73
    50
  0
VERTEX
  5
C38
  8
0
 62
     9
 10
0.0
 20
0.0
 30
0.0
 70
   128
 71
    91
 72
    90
 73
    89
  0
VERTEX
  5
C39
  8
0
 62
     9
 10
0.0
 20
0.0
 30
0.0
 70
   128
 71
    93
 72
    89
 73
    92
  0
VERTEX
  5
C3A
  8
0
 62
     9
 10
0.0
 20
0.0
 30
0.0
 70
   128
 71
    90
 72
    92
 73
    89
  0
VERTEX
  5
C3B
  8
0
 62
     9
 10
0.0
 20
0.0
 30
0.0
 70
   128
 71
    95
 72
    94
 73
    93
  0
VERTEX
  5
C3C
  8
0
 62
     9
 10
0.0
 20
0.0
 30
0.0
 70
   128
 71
    93
 72
    92
 73
    95
  0
VERTEX
  5
C3D
  8
0
 62
     9
 10
0.0
 20
0.0
 30
0.0
 70
   128
 71
    94
 72
    97
 73
    96
  0
VERTEX
  5
C3E
  8
0
 62
     9
 10
0.0
 20
0.0
 30
0.0
 70
   128
 71
    97
 72
    94
 73
    95
  0
VERTEX
  5
C3F
  8
0
 62
     9
 10
0.0
 20
0.0
 30
0.0
 70
   128
 71
    99
 72
    98
 73
    97
  0
VERTEX
  5
C40
  8
0
 62
     9
 10
0.0
 20
0.0
 30
0.0
 70
   128
 71
    96
 72
    97
 73
    98
  0
VERTEX
  5
C41
  8
0
 62
     9
 10
0.0
 20
0.0
 30
0.0
 70
   128
 71
    99
 72
   101
 73
   100
  0
VERTEX
  5
C42
  8
0
 62
     9
 10
0.0
 20
0.0
 30
0.0
 70
   128
 71
   100
 72
    98
 73
    99
  0
VERTEX
  5
C43
  8
0
 62
     9
 10
0.0
 20
0.0
 30
0.0
 70
   128
 71
   103
 72
   101
 73
   102
  0
VERTEX
  5
C44
  8
0
 62
     9
 10
0.0
 20
0.0
 30
0.0
 70
   128
 71
   101
 72
   103
 73
   100
  0
VERTEX
  5
C45
  8
0
 62
     9
 10
0.0
 20
0.0
 30
0.0
 70
   128
 71
   105
 72
   104
 73
   102
  0
VERTEX
  5
C46
  8
0
 62
     9
 10
0.0
 20
0.0
 30
0.0
 70
   128
 71
   103
 72
   102
 73
   104
  0
VERTEX
  5
C47
  8
0
 62
     9
 10
0.0
 20
0.0
 30
0.0
 70
   128
 71
   104
 72
   105
 73
   106
  0
VERTEX
  5
C48
  8
0
 62
     9
 10
0.0
 20
0.0
 30
0.0
 70
   128
 71
   107
 72
   104
 73
   106
  0
VERTEX
  5
C49
  8
0
 62
     9
 10
0.0
 20
0.0
 30
0.0
 70
   128
 71
    91
 72
   108
 73
    90
  0
VERTEX
  5
C4A
  8
0
 62
     9
 10
0.0
 20
0.0
 30
0.0
 70
   128
 71
   110
 72
   109
 73
   108
  0
VERTEX
  5
C4B
  8
0
 62
     9
 10
0.0
 20
0.0
 30
0.0
 70
   128
 71
   108
 72
    91
 73
   110
  0
VERTEX
  5
C4C
  8
0
 62
     9
 10
0.0
 20
0.0
 30
0.0
 70
   128
 71
   109
 72
   112
 73
   111
  0
VERTEX
  5
C4D
  8
0
 62
     9
 10
0.0
 20
0.0
 30
0.0
 70
   128
 71
   112
 72
   109
 73
   110
  0
VERTEX
  5
C4E
  8
0
 62
     9
 10
0.0
 20
0.0
 30
0.0
 70
   128
 71
   114
 72
   111
 73
   113
  0
VERTEX
  5
C4F
  8
0
 62
     9
 10
0.0
 20
0.0
 30
0.0
 70
   128
 71
   112
 72
   113
 73
   111
  0
VERTEX
  5
C50
  8
0
 62
     9
 10
0.0
 20
0.0
 30
0.0
 70
   128
 71
   113
 72
   116
 73
   115
  0
VERTEX
  5
C51
  8
0
 62
     9
 10
0.0
 20
0.0
 30
0.0
 70
   128
 71
   115
 72
   114
 73
   113
  0
VERTEX
  5
C52
  8
0
 62
     9
 10
0.0
 20
0.0
 30
0.0
 70
   128
 71
   118
 72
   116
 73
   117
  0
VERTEX
  5
C53
  8
0
 62
     9
 10
0.0
 20
0.0
 30
0.0
 70
   128
 71
   116
 72
   118
 73
   115
  0
VERTEX
  5
C54
  8
0
 62
     9
 10
0.0
 20
0.0
 30
0.0
 70
   128
 71
   120
 72
   119
 73
   117
  0
VERTEX
  5
C55
  8
0
 62
     9
 10
0.0
 20
0.0
 30
0.0
 70
   128
 71
   118
 72
   117
 73
   119
  0
VERTEX
  5
C56
  8
0
 62
     9
 10
0.0
 20
0.0
 30
0.0
 70
   128
 71
   120
 72
   122
 73
   121
  0
VERTEX
  5
C57
  8
0
 62
     9
 10
0.0
 20
0.0
 30
0.0
 70
   128
 71
   121
 72
   119
 73
   120
  0
VERTEX
  5
C58
  8
0
 62
     9
 10
0.0
 20
0.0
 30
0.0
 70
   128
 71
   123
 72
   121
 73
   122
  0
VERTEX
  5
C59
  8
0
 62
     9
 10
0.0
 20
0.0
 30
0.0
 70
   128
 71
   123
 72
   124
 73
   121
  0
VERTEX
  5
C5A
  8
0
 62
     9
 10
0.0
 20
0.0
 30
0.0
 70
   128
 71
   107
 72
   106
 73
   125
  0
VERTEX
  5
C5B
  8
0
 62
     9
 10
0.0
 20
0.0
 30
0.0
 70
   128
 71
   128
 72
   127
 73
   126
  0
VERTEX
  5
C5C
  8
0
 62
     9
 10
0.0
 20
0.0
 30
0.0
 70
   128
 71
   131
 72
   130
 73
   129
  0
VERTEX
  5
C5D
  8
0
 62
     9
 10
0.0
 20
0.0
 30
0.0
 70
   128
 71
   134
 72
   133
 73
   132
  0
VERTEX
  5
C5E
  8
0
 62
     9
 10
0.0
 20
0.0
 30
0.0
 70
   128
 71
   137
 72
   136
 73
   135
  0
VERTEX
  5
C5F
  8
0
 62
     9
 10
0.0
 20
0.0
 30
0.0
 70
   128
 71
   140
 72
   139
 73
   138
  0
VERTEX
  5
C60
  8
0
 62
     9
 10
0.0
 20
0.0
 30
0.0
 70
   128
 71
   143
 72
   142
 73
   141
  0
VERTEX
  5
C61
  8
0
 62
     9
 10
0.0
 20
0.0
 30
0.0
 70
   128
 71
   146
 72
   145
 73
   144
  0
VERTEX
  5
C62
  8
0
 62
     9
 10
0.0
 20
0.0
 30
0.0
 70
   128
 71
   138
 72
   144
 73
   147
  0
VERTEX
  5
C63
  8
0
 62
     9
 10
0.0
 20
0.0
 30
0.0
 70
   128
 71
   150
 72
   149
 73
   148
  0
VERTEX
  5
C64
  8
0
 62
     9
 10
0.0
 20
0.0
 30
0.0
 70
   128
 71
   146
 72
   148
 73
   149
  0
VERTEX
  5
C65
  8
0
 62
     9
 10
0.0
 20
0.0
 30
0.0
 70
   128
 71
   150
 72
   152
 73
   151
  0
VERTEX
  5
C66
  8
0
 62
     9
 10
0.0
 20
0.0
 30
0.0
 70
   128
 71
   151
 72
   149
 73
   150
  0
VERTEX
  5
C67
  8
0
 62
     9
 10
0.0
 20
0.0
 30
0.0
 70
   128
 71
   154
 72
   152
 73
   153
  0
VERTEX
  5
C68
  8
0
 62
     9
 10
0.0
 20
0.0
 30
0.0
 70
   128
 71
   152
 72
   154
 73
   151
  0
VERTEX
  5
C69
  8
0
 62
     9
 10
0.0
 20
0.0
 30
0.0
 70
   128
 71
   123
 72
   154
 73
   124
  0
VERTEX
  5
C6A
  8
0
 62
     9
 10
0.0
 20
0.0
 30
0.0
 70
   128
 71
   153
 72
   124
 73
   154
  0
VERTEX
  5
C6B
  8
0
 62
     9
 10
0.0
 20
0.0
 30
0.0
 70
   128
 71
   147
 72
   144
 73
   145
  0
VERTEX
  5
C6C
  8
0
 62
     9
 10
0.0
 20
0.0
 30
0.0
 70
   128
 71
   146
 72
   144
 73
   148
  0
VERTEX
  5
C6D
  8
0
 62
     9
 10
0.0
 20
0.0
 30
0.0
 70
   128
 71
   139
 72
   140
 73
   141
  0
VERTEX
  5
C6E
  8
0
 62
     9
 10
0.0
 20
0.0
 30
0.0
 70
   128
 71
   140
 72
   138
 73
   147
  0
VERTEX
  5
C6F
  8
0
 62
     9
 10
0.0
 20
0.0
 30
0.0
 70
   128
 71
   143
 72
   134
 73
   142
  0
VERTEX
  5
C70
  8
0
 62
     9
 10
0.0
 20
0.0
 30
0.0
 70
   128
 71
   141
 72
   142
 73
   139
  0
VERTEX
  5
C71
  8
0
 62
     9
 10
0.0
 20
0.0
 30
0.0
 70
   128
 71
   133
 72
   137
 73
   132
  0
VERTEX
  5
C72
  8
0
 62
     9
 10
0.0
 20
0.0
 30
0.0
 70
   128
 71
   143
 72
   133
 73
   134
  0
VERTEX
  5
C73
  8
0
 62
     9
 10
0.0
 20
0.0
 30
0.0
 70
   128
 71
   135
 72
   136
 73
   155
  0
VERTEX
  5
C74
  8
0
 62
     9
 10
0.0
 20
0.0
 30
0.0
 70
   128
 71
   132
 72
   137
 73
   135
  0
VERTEX
  5
C75
  8
0
 62
     9
 10
0.0
 20
0.0
 30
0.0
 70
   128
 71
   136
 72
   128
 73
   126
  0
VERTEX
  5
C76
  8
0
 62
     9
 10
0.0
 20
0.0
 30
0.0
 70
   128
 71
   126
 72
   155
 73
   136
  0
VERTEX
  5
C77
  8
0
 62
     9
 10
0.0
 20
0.0
 30
0.0
 70
   128
 71
   131
 72
   129
 73
   127
  0
VERTEX
  5
C78
  8
0
 62
     9
 10
0.0
 20
0.0
 30
0.0
 70
   128
 71
   131
 72
   127
 73
   128
  0
VERTEX
  5
C79
  8
0
 62
     9
 10
0.0
 20
0.0
 30
0.0
 70
   128
 71
   130
 72
   156
 73
   125
  0
VERTEX
  5
C7A
  8
0
 62
     9
 10
0.0
 20
0.0
 30
0.0
 70
   128
 71
   130
 72
   125
 73
   129
  0
VERTEX
  5
C7B
  8
0
 62
     9
 10
0.0
 20
0.0
 30
0.0
 70
   128
 71
   125
 72
   156
 73
   107
  0
SEQEND
  5
C7C
  8
0
 62
     9
  0
ENDBLK
  5
C7F
  8
0
  0
ENDSEC
  0
SECTION
  2
ENTITIES
  0
INSERT
  5
14E
  8
LAYER_1
  2
A4281011_M2_BASIN_MIXER_2_
 10
0.0
 20
0.0
 30
0.0
  0
INSERT
  5
315
  8
LAYER_1
  2
39
 10
0.0
 20
0.0
 30
0.0
  0
INSERT
  5
35F
  8
LAYER_1
  2
40
 10
0.0
 20
0.0
 30
0.0
  0
INSERT
  5
B0F
  8
LAYER_1
  2
41
 10
0.0
 20
0.0
 30
0.0
  0
INSERT
  5
C7D
  8
LAYER_1
  2
42
 10
0.0
 20
0.0
 30
0.0
  0
ENDSEC
  0
EOF
