  0
SECTION
  2
HEADER
  9
$ACADVER
  1
AC1015
  9
$ACADMAINTVER
 70
     6
  9
$DWGCODEPAGE
  3
ANSI_1252
  9
$INSBASE
 10
0.0
 20
0.0
 30
0.0
  9
$EXTMIN
 10
0.0
 20
0.0
 30
0.0
  9
$EXTMAX
 10
3000.0
 20
4500.0
 30
0.0
  9
$LIMMIN
 10
0.0
 20
0.0
  9
$LIMMAX
 10
3000.0
 20
4500.0
  9
$ORTHOMODE
 70
     0
  9
$REGENMODE
 70
     1
  9
$FILLMODE
 70
     1
  9
$QTEXTMODE
 70
     0
  9
$MIRRTEXT
 70
     1
  9
$LTSCALE
 40
1.0
  9
$ATTMODE
 70
     1
  9
$TEXTSIZE
 40
2.5
  9
$TRACEWID
 40
1.0
  9
$TEXTSTYLE
  7
Standard
  9
$CLAYER
  8
0
  9
$CELTYPE
  6
ByLayer
  9
$CECOLOR
 62
   256
  9
$CELTSCALE
 40
1.0
  9
$DISPSILH
 70
     0
  9
$DIMSCALE
 40
1.0
  9
$DIMASZ
 40
2.5
  9
$DIMEXO
 40
0.625
  9
$DIMDLI
 40
3.75
  9
$DIMRND
 40
0.0
  9
$DIMDLE
 40
0.0
  9
$DIMEXE
 40
1.25
  9
$DIMTP
 40
0.0
  9
$DIMTM
 40
0.0
  9
$DIMTXT
 40
2.5
  9
$DIMCEN
 40
2.5
  9
$DIMTSZ
 40
0.0
  9
$DIMTOL
 70
     0
  9
$DIMLIM
 70
     0
  9
$DIMTIH
 70
     0
  9
$DIMTOH
 70
     0
  9
$DIMSE1
 70
     0
  9
$DIMSE2
 70
     0
  9
$DIMTAD
 70
     1
  9
$DIMZIN
 70
     8
  9
$DIMBLK
  1

  9
$DIMASO
 70
     1
  9
$DIMSHO
 70
     1
  9
$DIMPOST
  1

  9
$DIMAPOST
  1

  9
$DIMALT
 70
     0
  9
$DIMALTD
 70
     3
  9
$DIMALTF
 40
0.0393700787
  9
$DIMLFAC
 40
1.0
  9
$DIMTOFL
 70
     1
  9
$DIMTVP
 40
0.0
  9
$DIMTIX
 70
     0
  9
$DIMSOXD
 70
     0
  9
$DIMSAH
 70
     0
  9
$DIMBLK1
  1

  9
$DIMBLK2
  1

  9
$DIMSTYLE
  2
ISO-25
  9
$DIMCLRD
 70
     0
  9
$DIMCLRE
 70
     0
  9
$DIMCLRT
 70
     0
  9
$DIMTFAC
 40
1.0
  9
$DIMGAP
 40
0.625
  9
$DIMJUST
 70
     0
  9
$DIMSD1
 70
     0
  9
$DIMSD2
 70
     0
  9
$DIMTOLJ
 70
     0
  9
$DIMTZIN
 70
     8
  9
$DIMALTZ
 70
     0
  9
$DIMALTTZ
 70
     0
  9
$DIMUPT
 70
     0
  9
$DIMDEC
 70
     2
  9
$DIMTDEC
 70
     2
  9
$DIMALTU
 70
     2
  9
$DIMALTTD
 70
     3
  9
$DIMTXSTY
  7
Standard
  9
$DIMAUNIT
 70
     0
  9
$DIMADEC
 70
     0
  9
$DIMALTRND
 40
0.0
  9
$DIMAZIN
 70
     0
  9
$DIMDSEP
 70
    44
  9
$DIMATFIT
 70
     3
  9
$DIMFRAC
 70
     0
  9
$DIMLDRBLK
  1

  9
$DIMLUNIT
 70
     2
  9
$DIMLWD
 70
    -2
  9
$DIMLWE
 70
    -2
  9
$DIMTMOVE
 70
     0
  9
$LUNITS
 70
     2
  9
$LUPREC
 70
     4
  9
$SKETCHINC
 40
1.0
  9
$FILLETRAD
 40
10.0
  9
$AUNITS
 70
     0
  9
$AUPREC
 70
     0
  9
$MENU
  1
.
  9
$ELEVATION
 40
0.0
  9
$PELEVATION
 40
0.0
  9
$THICKNESS
 40
0.0
  9
$LIMCHECK
 70
     0
  9
$CHAMFERA
 40
10.0
  9
$CHAMFERB
 40
10.0
  9
$CHAMFERC
 40
20.0
  9
$CHAMFERD
 40
0.0
  9
$SKPOLY
 70
     0
  9
$TDCREATE
 40
2455765.619080961
  9
$TDUCREATE
 40
2455765.535747627
  9
$TDUPDATE
 40
2455765.619080972
  9
$TDUUPDATE
 40
2455765.535747639
  9
$TDINDWG
 40
0.0000000116
  9
$TDUSRTIMER
 40
0.0000000116
  9
$USRTIMER
 70
     1
  9
$ANGBASE
 50
0.0
  9
$ANGDIR
 70
     0
  9
$PDMODE
 70
     0
  9
$PDSIZE
 40
0.0
  9
$PLINEWID
 40
0.0
  9
$SPLFRAME
 70
     0
  9
$SPLINETYPE
 70
     6
  9
$SPLINESEGS
 70
     8
  9
$HANDSEED
  5
14B
  9
$SURFTAB1
 70
     6
  9
$SURFTAB2
 70
     6
  9
$SURFTYPE
 70
     6
  9
$SURFU
 70
     6
  9
$SURFV
 70
     6
  9
$UCSBASE
  2

  9
$UCSNAME
  2

  9
$UCSORG
 10
0.0
 20
0.0
 30
0.0
  9
$UCSXDIR
 10
1.0
 20
0.0
 30
0.0
  9
$UCSYDIR
 10
0.0
 20
1.0
 30
0.0
  9
$UCSORTHOREF
  2

  9
$UCSORTHOVIEW
 70
     0
  9
$UCSORGTOP
 10
0.0
 20
0.0
 30
0.0
  9
$UCSORGBOTTOM
 10
0.0
 20
0.0
 30
0.0
  9
$UCSORGLEFT
 10
0.0
 20
0.0
 30
0.0
  9
$UCSORGRIGHT
 10
0.0
 20
0.0
 30
0.0
  9
$UCSORGFRONT
 10
0.0
 20
0.0
 30
0.0
  9
$UCSORGBACK
 10
0.0
 20
0.0
 30
0.0
  9
$PUCSBASE
  2

  9
$PUCSNAME
  2

  9
$PUCSORG
 10
0.0
 20
0.0
 30
0.0
  9
$PUCSXDIR
 10
1.0
 20
0.0
 30
0.0
  9
$PUCSYDIR
 10
0.0
 20
1.0
 30
0.0
  9
$PUCSORTHOREF
  2

  9
$PUCSORTHOVIEW
 70
     0
  9
$PUCSORGTOP
 10
0.0
 20
0.0
 30
0.0
  9
$PUCSORGBOTTOM
 10
0.0
 20
0.0
 30
0.0
  9
$PUCSORGLEFT
 10
0.0
 20
0.0
 30
0.0
  9
$PUCSORGRIGHT
 10
0.0
 20
0.0
 30
0.0
  9
$PUCSORGFRONT
 10
0.0
 20
0.0
 30
0.0
  9
$PUCSORGBACK
 10
0.0
 20
0.0
 30
0.0
  9
$USERI1
 70
     0
  9
$USERI2
 70
     0
  9
$USERI3
 70
     0
  9
$USERI4
 70
     0
  9
$USERI5
 70
     0
  9
$USERR1
 40
0.0
  9
$USERR2
 40
0.0
  9
$USERR3
 40
0.0
  9
$USERR4
 40
0.0
  9
$USERR5
 40
0.0
  9
$WORLDVIEW
 70
     1
  9
$SHADEDGE
 70
     3
  9
$SHADEDIF
 70
    70
  9
$TILEMODE
 70
     1
  9
$MAXACTVP
 70
    64
  9
$PINSBASE
 10
0.0
 20
0.0
 30
0.0
  9
$PLIMCHECK
 70
     0
  9
$PEXTMIN
 10
0.0
 20
0.0
 30
0.0
  9
$PEXTMAX
 10
3000.0
 20
4500.0
 30
0.0
  9
$PLIMMIN
 10
0.0
 20
0.0
  9
$PLIMMAX
 10
3000.0
 20
4500.0
  9
$UNITMODE
 70
     0
  9
$VISRETAIN
 70
     1
  9
$PLINEGEN
 70
     0
  9
$PSLTSCALE
 70
     1
  9
$TREEDEPTH
 70
  3020
  9
$CMLSTYLE
  2
Standard
  9
$CMLJUST
 70
     0
  9
$CMLSCALE
 40
20.0
  9
$PROXYGRAPHICS
 70
     1
  9
$MEASUREMENT
 70
     1
  9
$CELWEIGHT
370
    -1
  9
$ENDCAPS
280
     0
  9
$JOINSTYLE
280
     0
  9
$LWDISPLAY
290
     0
  9
$INSUNITS
 70
     4
  9
$HYPERLINKBASE
  1

  9
$STYLESHEET
  1

  9
$XEDIT
290
     1
  9
$CEPSNTYPE
380
     0
  9
$PSTYLEMODE
290
     1
  9
$FINGERPRINTGUID
  2
{DDF12ADE-459D-40BF-A30A-0D48279E7FE1}
  9
$VERSIONGUID
  2
{FAEB1C32-E019-11D5-929B-00C0DF256EC4}
  9
$EXTNAMES
290
     1
  9
$PSVPSCALE
 40
0.0
  9
$OLESTARTUP
290
     0
  0
ENDSEC
  0
SECTION
  2
CLASSES
  0
CLASS
  1
ACDBDICTIONARYWDFLT
  2
AcDbDictionaryWithDefault
  3
ObjectDBX Classes
 90
        0
280
     0
281
     0
  0
CLASS
  1
VISUALSTYLE
  2
AcDbVisualStyle
  3
ObjectDBX Classes
 90
     4095
280
     0
281
     0
  0
CLASS
  1
SCALE
  2
AcDbScale
  3
ObjectDBX Classes
 90
     1153
280
     0
281
     0
  0
CLASS
  1
DICTIONARYVAR
  2
AcDbDictionaryVar
  3
ObjectDBX Classes
 90
        0
280
     0
281
     0
  0
CLASS
  1
ACDBPLACEHOLDER
  2
AcDbPlaceHolder
  3
ObjectDBX Classes
 90
        0
280
     0
281
     0
  0
CLASS
  1
LAYOUT
  2
AcDbLayout
  3
ObjectDBX Classes
 90
        0
280
     0
281
     0
  0
ENDSEC
  0
SECTION
  2
TABLES
  0
TABLE
  2
VPORT
  5
8
330
0
100
AcDbSymbolTable
 70
     1
  0
VPORT
  5
29
330
8
100
AcDbSymbolTableRecord
100
AcDbViewportTableRecord
  2
*Active
 70
     0
 10
0.0
 20
0.0
 11
1.0
 21
1.0
 12
344.1869158879
 22
148.5
 13
0.0
 23
0.0
 14
10.0
 24
10.0
 15
10.0
 25
10.0
 16
0.0
 26
0.0
 36
1.0
 17
0.0
 27
0.0
 37
0.0
 40
297.0
 41
1.9729729729
 42
50.0
 43
0.0
 44
0.0
 50
0.0
 51
0.0
 71
     0
 72
   100
 73
     1
 74
     3
 75
     0
 76
     0
 77
     0
 78
     0
281
     0
 65
     1
110
0.0
120
0.0
130
0.0
111
1.0
121
0.0
131
0.0
112
0.0
122
1.0
132
0.0
 79
     0
146
0.0
  0
ENDTAB
  0
TABLE
  2
LTYPE
  5
5
330
0
100
AcDbSymbolTable
 70
     2
  0
LTYPE
  5
14
330
5
100
AcDbSymbolTableRecord
100
AcDbLinetypeTableRecord
  2
ByBlock
 70
     0
  3

 72
    65
 73
     0
 40
0.0
  0
LTYPE
  5
15
330
5
100
AcDbSymbolTableRecord
100
AcDbLinetypeTableRecord
  2
ByLayer
 70
     0
  3

 72
    65
 73
     0
 40
0.0
  0
LTYPE
  5
16
330
5
100
AcDbSymbolTableRecord
100
AcDbLinetypeTableRecord
  2
Continuous
 70
     0
  3
Solid line
 72
    65
 73
     0
 40
0.0
  0
LTYPE
  5
60
330
5
100
AcDbSymbolTableRecord
100
AcDbLinetypeTableRecord
  2
CENTER2
 70
     0
  3
Center (.5x) ___ _ ___ _ ___ _ ___ _ ___ _ ___
 72
    65
 73
     4
 40
28.575
 49
19.05
 74
     4
 75
     0
340
0
 46
0.0
 50
0.0
 44
0.0
 45
0.0
 49
-3.175
 74
     4
 75
     0
340
0
 46
0.0
 50
0.0
 44
0.0
 45
0.0
 49
3.175
 74
     4
 75
     0
340
0
 46
0.0
 50
0.0
 44
0.0
 45
0.0
 49
-3.175
 74
     4
 75
     0
340
0
 46
0.0
 50
0.0
 44
0.0
 45
0.0
  0
ENDTAB
  0
TABLE
  2
LAYER
  5
2
330
0
100
AcDbSymbolTable
 70
     9
  0
LAYER
  5
10
330
2
100
AcDbSymbolTableRecord
100
AcDbLayerTableRecord
  2
0
 70
     0
 62
     7
  6
Continuous
370
    -3
390
F
  0
LAYER
  5
5D
330
2
100
AcDbSymbolTableRecord
100
AcDbLayerTableRecord
  2
Default
 70
     0
 62
     7
  6
Continuous
370
    -3
390
F
  0
LAYER
  5
79
330
2
100
AcDbSymbolTableRecord
100
AcDbLayerTableRecord
  2
$DDT_AUDIT_GENERATED_(79)
 70
     0
 62
     7
  6
Continuous
370
    -3
390
F
  0
LAYER
  5
82
330
2
100
AcDbSymbolTableRecord
100
AcDbLayerTableRecord
  2
$DDT_AUDIT_GENERATED_(82)
 70
     0
 62
     7
  6
Continuous
370
    -3
390
F
  0
LAYER
  5
91
330
2
100
AcDbSymbolTableRecord
100
AcDbLayerTableRecord
  2
$DDT_AUDIT_GENERATED_(91)
 70
     0
 62
     7
  6
Continuous
370
    -3
390
F
  0
LAYER
  5
95
330
2
100
AcDbSymbolTableRecord
100
AcDbLayerTableRecord
  2
$DDT_AUDIT_GENERATED_(95)
 70
     0
 62
     7
  6
Continuous
370
    -3
390
F
  0
LAYER
  5
9B
330
2
100
AcDbSymbolTableRecord
100
AcDbLayerTableRecord
  2
$DDT_AUDIT_GENERATED_(9B)
 70
     0
 62
     7
  6
Continuous
370
    -3
390
F
  0
LAYER
  5
BD
330
2
100
AcDbSymbolTableRecord
100
AcDbLayerTableRecord
  2
$DDT_AUDIT_GENERATED_(BD)
 70
     0
 62
     7
  6
Continuous
370
    -3
390
F
  0
LAYER
  5
D4
330
2
100
AcDbSymbolTableRecord
100
AcDbLayerTableRecord
  2
$DDT_AUDIT_GENERATED_(D4)
 70
     0
 62
     7
  6
Continuous
370
    -3
390
F
  0
ENDTAB
  0
TABLE
  2
STYLE
  5
3
330
0
100
AcDbSymbolTable
 70
     2
  0
STYLE
  5
11
330
3
100
AcDbSymbolTableRecord
100
AcDbTextStyleTableRecord
  2
Standard
 70
     0
 40
0.0
 41
1.0
 50
0.0
 71
     0
 42
2.5
  3
txt
  4

  0
STYLE
  5
13A
330
3
100
AcDbSymbolTableRecord
100
AcDbTextStyleTableRecord
  2
SEACAD_seiso_ttf
 70
     0
 40
0.0
 41
1.0
 50
0.0
 71
     0
 42
0.2
  3
seiso.ttf
  4

  0
ENDTAB
  0
TABLE
  2
VIEW
  5
6
330
0
100
AcDbSymbolTable
 70
     0
  0
ENDTAB
  0
TABLE
  2
UCS
  5
7
330
0
100
AcDbSymbolTable
 70
     0
  0
ENDTAB
  0
TABLE
  2
APPID
  5
9
330
0
100
AcDbSymbolTable
 70
     1
  0
APPID
  5
12
330
9
100
AcDbSymbolTableRecord
100
AcDbRegAppTableRecord
  2
ACAD
 70
     0
  0
ENDTAB
  0
TABLE
  2
DIMSTYLE
  5
A
330
0
100
AcDbSymbolTable
 70
     1
100
AcDbDimStyleTable
  0
DIMSTYLE
105
27
330
A
100
AcDbSymbolTableRecord
100
AcDbDimStyleTableRecord
  2
ISO-25
 70
     0
 41
2.5
 42
0.625
 43
3.75
 44
1.25
 73
     0
 74
     0
 77
     1
 78
     8
140
2.5
141
2.5
143
0.0393700787
147
0.625
171
     3
172
     1
271
     2
272
     2
274
     3
278
    44
283
     0
284
     8
340
11
  0
ENDTAB
  0
TABLE
  2
BLOCK_RECORD
  5
1
330
0
100
AcDbSymbolTable
 70
     7
  0
BLOCK_RECORD
  5
1F
330
1
100
AcDbSymbolTableRecord
100
AcDbBlockTableRecord
  2
*Model_Space
340
22
  0
BLOCK_RECORD
  5
1B
330
1
100
AcDbSymbolTableRecord
100
AcDbBlockTableRecord
  2
*Paper_Space
340
1E
  0
BLOCK_RECORD
  5
5E
330
1
100
AcDbSymbolTableRecord
100
AcDbBlockTableRecord
  2
SEANNOT_GROUP
340
0
102
{BLKREFS
331
5F
102
}
  0
BLOCK_RECORD
  5
6A
330
1
100
AcDbSymbolTableRecord
100
AcDbBlockTableRecord
  2
SEANNOT_GROUP1
340
0
102
{BLKREFS
331
6B
102
}
  0
BLOCK_RECORD
  5
71
330
1
100
AcDbSymbolTableRecord
100
AcDbBlockTableRecord
  2
SEANNOT_GROUP2
340
0
102
{BLKREFS
331
72
102
}
  0
BLOCK_RECORD
  5
77
330
1
100
AcDbSymbolTableRecord
100
AcDbBlockTableRecord
  2
SE
340
0
102
{BLKREFS
331
78
102
}
  0
BLOCK_RECORD
  5
99
330
1
100
AcDbSymbolTableRecord
100
AcDbBlockTableRecord
  2
SE1
340
0
102
{BLKREFS
331
9A
102
}
  0
BLOCK_RECORD
  5
E7
330
1
100
AcDbSymbolTableRecord
100
AcDbBlockTableRecord
  2
SE2
340
0
102
{BLKREFS
331
E8
102
}
  0
ENDTAB
  0
ENDSEC
  0
SECTION
  2
BLOCKS
  0
BLOCK
  5
20
330
1F
100
AcDbEntity
  8
0
100
AcDbBlockBegin
  2
*Model_Space
 70
     0
 10
0.0
 20
0.0
 30
0.0
  3
*Model_Space
  1

  0
ENDBLK
  5
21
330
1F
100
AcDbEntity
  8
0
100
AcDbBlockEnd
  0
BLOCK
  5
1C
330
1B
100
AcDbEntity
 67
     1
  8
0
100
AcDbBlockBegin
  2
*Paper_Space
 70
     0
 10
0.0
 20
0.0
 30
0.0
  3
*Paper_Space
  1

  0
ENDBLK
  5
1D
330
1B
100
AcDbEntity
 67
     1
  8
0
100
AcDbBlockEnd
  0
BLOCK
  5
67
330
5E
100
AcDbEntity
  8
0
100
AcDbBlockBegin
  2
SEANNOT_GROUP
 70
     0
 10
0.0
 20
0.0
 30
0.0
  3
SEANNOT_GROUP
  1

  0
LINE
  5
61
330
5E
100
AcDbEntity
  8
Default
  6
CENTER2
 62
     7
100
AcDbLine
 10
128.1092370508
 20
445.0544824042
 30
0.0
 11
88.1092379448
 21
445.0544824042
 31
0.0
  0
LINE
  5
62
330
5E
100
AcDbEntity
  8
Default
  6
CENTER2
 62
     7
100
AcDbLine
 10
108.1092374978
 20
465.0544819571
 30
0.0
 11
108.1092374978
 21
425.0544828512
 31
0.0
  0
LINE
  5
63
330
5E
100
AcDbEntity
  8
Default
  6
CENTER2
 62
     7
100
AcDbLine
 10
133.109236939
 20
445.0544824042
 30
0.0
 11
139.8982060675
 21
445.0544824042
 31
0.0
  0
LINE
  5
64
330
5E
100
AcDbEntity
  8
Default
  6
CENTER2
 62
     7
100
AcDbLine
 10
108.1092374978
 20
470.0544818454
 30
0.0
 11
108.1092374978
 21
476.8434509738
 31
0.0
  0
LINE
  5
65
330
5E
100
AcDbEntity
  8
Default
  6
CENTER2
 62
     7
100
AcDbLine
 10
83.1092380566
 20
445.0544824042
 30
0.0
 11
76.3202689281
 21
445.0544824042
 31
0.0
  0
LINE
  5
66
330
5E
100
AcDbEntity
  8
Default
  6
CENTER2
 62
     7
100
AcDbLine
 10
108.1092374978
 20
420.054482963
 30
0.0
 11
108.1092374978
 21
413.2655138345
 31
0.0
  0
ENDBLK
  5
68
330
5E
100
AcDbEntity
  8
0
100
AcDbBlockEnd
  0
BLOCK
  5
6E
330
6A
100
AcDbEntity
  8
0
100
AcDbBlockBegin
  2
SEANNOT_GROUP1
 70
     0
 10
0.0
 20
0.0
 30
0.0
  3
SEANNOT_GROUP1
  1

  0
LINE
  5
6C
330
6A
100
AcDbEntity
  8
Default
  6
CENTER2
 62
     7
100
AcDbLine
 10
396.1192322174
 20
445.0534517218
 30
0.0
 11
356.1192331114
 21
445.0534517218
 31
0.0
  0
LINE
  5
6D
330
6A
100
AcDbEntity
  8
Default
  6
CENTER2
 62
     7
100
AcDbLine
 10
376.1192326644
 20
465.0534512747
 30
0.0
 11
376.1192326644
 21
425.0534521688
 31
0.0
  0
ENDBLK
  5
6F
330
6A
100
AcDbEntity
  8
0
100
AcDbBlockEnd
  0
BLOCK
  5
75
330
71
100
AcDbEntity
  8
0
100
AcDbBlockBegin
  2
SEANNOT_GROUP2
 70
     0
 10
0.0
 20
0.0
 30
0.0
  3
SEANNOT_GROUP2
  1

  0
LINE
  5
73
330
71
100
AcDbEntity
  8
Default
  6
CENTER2
 62
     7
100
AcDbLine
 10
128.1092370508
 20
181.0429483235
 30
0.0
 11
88.1092379448
 21
181.0429483235
 31
0.0
  0
LINE
  5
74
330
71
100
AcDbEntity
  8
Default
  6
CENTER2
 62
     7
100
AcDbLine
 10
108.1092374978
 20
201.0429478765
 30
0.0
 11
108.1092374978
 21
161.0429487706
 31
0.0
  0
ENDBLK
  5
76
330
71
100
AcDbEntity
  8
0
100
AcDbBlockEnd
  0
BLOCK
  5
97
330
77
100
AcDbEntity
  8
0
100
AcDbBlockBegin
  2
SE
 70
     0
 10
0.0
 20
0.0
 30
0.0
  3
SE
  1

  0
ARC
  5
7A
330
77
100
AcDbEntity
  8
$DDT_AUDIT_GENERATED_(79)
  6
Continuous
 62
     7
100
AcDbCircle
 10
108.1092374978
 20
597.0534517218
 30
0.0
 40
249.759237497796
100
AcDbArc
 50
264.0863042806
 51
275.9136957194
  0
ARC
  5
7B
330
77
100
AcDbEntity
  8
$DDT_AUDIT_GENERATED_(79)
  6
Continuous
 62
     7
100
AcDbCircle
 10
125.1092374978
 20
432.9315458103
 30
0.0
 40
84.75923749779605
100
AcDbArc
 50
275.9136957194
 51
0.0
  0
LINE
  5
7C
330
77
100
AcDbEntity
  8
$DDT_AUDIT_GENERATED_(79)
  6
Continuous
 62
     7
100
AcDbLine
 10
209.8684749956
 20
432.9315458103
 30
0.0
 11
209.8684749956
 21
481.1753576332
 31
0.0
  0
ARC
  5
7D
330
77
100
AcDbEntity
  8
$DDT_AUDIT_GENERATED_(79)
  6
Continuous
 62
     7
100
AcDbCircle
 10
125.1092374978
 20
481.1753576332
 30
0.0
 40
84.75923749779602
100
AcDbArc
 50
0.0
 51
84.0863042806
  0
ARC
  5
7E
330
77
100
AcDbEntity
  8
$DDT_AUDIT_GENERATED_(79)
  6
Continuous
 62
     7
100
AcDbCircle
 10
108.1092374978
 20
317.0534517218
 30
0.0
 40
249.759237497796
100
AcDbArc
 50
84.0863042806
 51
95.9136957194
  0
ARC
  5
7F
330
77
100
AcDbEntity
  8
$DDT_AUDIT_GENERATED_(79)
  6
Continuous
 62
     7
100
AcDbCircle
 10
91.1092374978
 20
481.1753576332
 30
0.0
 40
84.75923749779605
100
AcDbArc
 50
95.9136957194
 51
180.0
  0
LINE
  5
80
330
77
100
AcDbEntity
  8
$DDT_AUDIT_GENERATED_(79)
  6
Continuous
 62
     7
100
AcDbLine
 10
6.35
 20
481.1753576332
 30
0.0
 11
6.35
 21
432.9315458103
 31
0.0
  0
ARC
  5
81
330
77
100
AcDbEntity
  8
$DDT_AUDIT_GENERATED_(79)
  6
Continuous
 62
     7
100
AcDbCircle
 10
91.1092374978
 20
432.9315458103
 30
0.0
 40
84.75923749779602
100
AcDbArc
 50
180.0
 51
264.0863042806
  0
ARC
  5
83
330
77
100
AcDbEntity
  8
$DDT_AUDIT_GENERATED_(82)
  6
Continuous
 62
     7
100
AcDbCircle
 10
108.1092374978
 20
445.0544824042
 30
0.0
 40
28.28896856965815
100
AcDbArc
 50
0.0
 51
258.7313693881
  0
ARC
  5
84
330
77
100
AcDbEntity
  8
$DDT_AUDIT_GENERATED_(82)
  6
Continuous
 62
     7
100
AcDbCircle
 10
108.1092374978
 20
445.0544824042
 30
0.0
 40
28.28896856965815
100
AcDbArc
 50
281.1481061361
 51
0.0
  0
ARC
  5
85
330
77
100
AcDbEntity
  8
$DDT_AUDIT_GENERATED_(82)
  6
Continuous
 62
     7
100
AcDbCircle
 10
108.1088635955
 20
445.1682769124
 30
0.0
 40
27.60477685516706
100
AcDbArc
 50
90.0081618448
 51
270.0007760621
  0
ARC
  5
86
330
77
100
AcDbEntity
  8
$DDT_AUDIT_GENERATED_(82)
  6
Continuous
 62
     7
100
AcDbCircle
 10
108.1098994824
 20
445.1684824804
 30
0.0
 40
27.60498242854292
100
AcDbArc
 50
269.9986260116
 51
90.0013738751
  0
ARC
  5
87
330
77
100
AcDbEntity
  8
$DDT_AUDIT_GENERATED_(82)
  6
Continuous
 62
     7
100
AcDbCircle
 10
108.105685872
 20
472.7878977551
 30
0.0
 40
0.0148634353616613
100
AcDbArc
 50
267.0898818673
 51
283.8248249615
  0
ARC
  5
88
330
77
100
AcDbEntity
  8
$DDT_AUDIT_GENERATED_(82)
  6
Continuous
 62
     7
100
AcDbCircle
 10
108.1091905184
 20
123.1384307439
 30
0.0
 40
230.9642463046843
100
AcDbArc
 50
91.0928086853
 51
91.1157686486
  0
ARC
  5
89
330
77
100
AcDbEntity
  8
$DDT_AUDIT_GENERATED_(82)
  6
Continuous
 62
     7
100
AcDbCircle
 10
108.1091905184
 20
123.1384307439
 30
0.0
 40
230.9642463046843
100
AcDbArc
 50
88.8841923432
 51
90.366341971
  0
LINE
  5
8A
330
77
100
AcDbEntity
  8
$DDT_AUDIT_GENERATED_(82)
  6
Continuous
 62
     7
100
AcDbLine
 10
102.6092374978
 20
417.1623533595
 30
0.0
 11
102.6092374978
 21
355.0592543668
 31
0.0
  0
LINE
  5
8B
330
77
100
AcDbEntity
  8
$DDT_AUDIT_GENERATED_(82)
  6
Continuous
 62
     7
100
AcDbLine
 10
113.6092374978
 20
355.060458983
 30
0.0
 11
113.6092374978
 21
417.1640272895
 31
0.0
  0
SPLINE
  5
8C
330
77
100
AcDbEntity
  8
$DDT_AUDIT_GENERATED_(82)
  6
Continuous
 62
     7
100
AcDbSpline
210
0.0
220
0.0
230
1.0
 70
     8
 71
     3
 72
    10
 73
     6
 74
     0
 42
0.0000000047610707
 43
0.0000000001
 40
0.0
 40
0.0
 40
0.0
 40
0.0
 40
0.0403100348241482
 40
0.1031716188767374
 40
0.1450068799849976
 40
0.1450068799849976
 40
0.1450068799849976
 40
0.1450068799849976
 10
113.6092220266119
 20
417.1636501633528
 30
0.0
 10
113.6117475872097
 20
417.2157908484209
 30
0.0
 10
113.6154839676646
 20
417.3285182687474
 30
0.0
 10
113.6021692858593
 20
417.3971859111682
 30
0.0
 10
113.5652773720284
 20
417.4281986830998
 30
0.0
 10
113.5462110530273
 20
417.4379923702164
 30
0.0
  0
SPLINE
  5
8D
330
77
100
AcDbEntity
  8
$DDT_AUDIT_GENERATED_(82)
  6
Continuous
 62
     7
100
AcDbSpline
210
0.0
220
0.0
230
1.0
 70
     8
 71
     3
 72
    13
 73
     9
 74
     0
 42
0.0000000084111603
 43
0.0000000001
 40
0.5544491367304647
 40
0.5544491367304647
 40
0.5544491367304647
 40
0.5544491367304647
 40
0.6422701941070565
 40
0.7607489025470857
 40
0.8565328682782378
 40
0.9341800360697796
 40
0.9681783351964218
 40
1.0
 40
1.0
 40
1.0
 40
1.0
 10
102.4625175343147
 20
417.6597504988881
 30
0.0
 10
102.4576816919186
 20
417.6552071722843
 30
0.0
 10
102.4544225705476
 20
417.6388645039775
 30
0.0
 10
102.4797452419579
 20
417.5899285566632
 30
0.0
 10
102.5356539032499
 20
417.4912245520962
 30
0.0
 10
102.5830357276298
 20
417.3696053329066
 30
0.0
 10
102.6058063177587
 20
417.2531035793911
 30
0.0
 10
102.60809159355
 20
417.1967282050199
 30
0.0
 10
102.609252986419
 20
417.1645238651906
 30
0.0
  0
LINE
  5
8E
330
77
100
AcDbEntity
  8
$DDT_AUDIT_GENERATED_(82)
  6
Continuous
 62
     7
100
AcDbLine
 10
103.673455283
 20
354.0587911066
 30
0.0
 11
112.5651496519
 21
354.0587911066
 31
0.0
  0
SPLINE
  5
8F
330
77
100
AcDbEntity
  8
$DDT_AUDIT_GENERATED_(82)
  6
Continuous
 62
     7
100
AcDbSpline
210
0.0
220
0.0
230
1.0
 70
     8
 71
     3
 72
    21
 73
    17
 74
     0
 42
0.000000005834327
 43
0.0000000001
 40
0.0
 40
0.0
 40
0.0
 40
0.0
 40
0.016691976370421
 40
0.1696731692705187
 40
0.2896405872808206
 40
0.3897782422989579
 40
0.4742087111041532
 40
0.5431715131723658
 40
0.5956595704187009
 40
0.6291106397989242
 40
0.6421334983409948
 40
0.6516011130965702
 40
0.6648944047811879
 40
0.6910249111853015
 40
0.7712401878783371
 40
1.0
 40
1.0
 40
1.0
 40
1.0
 10
102.6161052521646
 20
355.0694316723397
 30
0.0
 10
102.6136007076396
 20
355.054775994039
 30
0.0
 10
102.5919596307991
 20
354.9262773271844
 30
0.0
 10
102.6686815989692
 20
354.6810119366864
 30
0.0
 10
102.8212784344228
 20
354.4230627341876
 30
0.0
 10
103.0045689411433
 20
354.2521166048511
 30
0.0
 10
103.1826159502977
 20
354.1480395311873
 30
0.0
 10
103.3410164120377
 20
354.0918787395567
 30
0.0
 10
103.4629499530516
 20
354.0676548080322
 30
0.0
 10
103.5447534190726
 20
354.0604907262701
 30
0.0
 10
103.5811805586363
 20
354.0591824263946
 30
0.0
 10
103.5957602979066
 20
354.0588933759735
 30
0.0
 10
103.6076651826024
 20
354.0587864124107
 30
0.0
 10
103.6220036885687
 20
354.0588105606573
 30
0.0
 10
103.6423384104516
 20
354.0590117349158
 30
0.0
 10
103.6878506539295
 20
354.0596719277013
 30
0.0
 10
103.7254775782527
 20
354.0602769500402
 30
0.0
  0
SPLINE
  5
90
330
77
100
AcDbEntity
  8
$DDT_AUDIT_GENERATED_(82)
  6
Continuous
 62
     7
100
AcDbSpline
210
0.0
220
0.0
230
1.0
 70
     8
 71
     3
 72
    13
 73
     9
 74
     0
 42
0.0000000067512172
 43
0.0000000001
 40
0.0
 40
0.0
 40
0.0
 40
0.0
 40
0.0715785641540099
 40
0.2146252999211468
 40
0.3900947762612888
 40
0.6585651630570647
 40
0.9002277067989204
 40
1.0
 40
1.0
 40
1.0
 40
1.0
 10
112.7195041139251
 20
354.0669456405369
 30
0.0
 10
112.7571292505129
 20
354.0712725066242
 30
0.0
 10
112.8532875557237
 20
354.0832529683661
 30
0.0
 10
113.0391423257382
 20
354.1464408632854
 30
0.0
 10
113.2836370029278
 20
354.2962357980014
 30
0.0
 10
113.4974920941604
 20
354.5573574812183
 30
0.0
 10
113.6103050301076
 20
354.8520272101284
 30
0.0
 10
113.5979407534442
 20
355.0085771957332
 30
0.0
 10
113.5931180774981
 20
355.0616796968005
 30
0.0
  0
CIRCLE
  5
92
330
77
100
AcDbEntity
  8
$DDT_AUDIT_GENERATED_(91)
  6
Continuous
 62
     7
100
AcDbCircle
 10
108.1092368459
 20
500.0534511543
 30
0.0
 40
6.350000460556679
  0
ARC
  5
93
330
77
100
AcDbEntity
  8
$DDT_AUDIT_GENERATED_(91)
  6
Continuous
 62
     7
100
AcDbCircle
 10
108.1092374978
 20
458.0534517218
 30
0.0
 40
80.49119630351392
100
AcDbArc
 50
273.9180996471
 51
0.0
  0
ARC
  5
94
330
77
100
AcDbEntity
  8
$DDT_AUDIT_GENERATED_(91)
  6
Continuous
 62
     7
100
AcDbCircle
 10
108.1092374978
 20
458.0534517218
 30
0.0
 40
80.49119630351392
100
AcDbArc
 50
0.0
 51
266.0819003529
  0
CIRCLE
  5
96
330
77
100
AcDbEntity
  8
$DDT_AUDIT_GENERATED_(95)
  6
Continuous
 62
     7
100
AcDbCircle
 10
108.1092374978
 20
500.0534517218
 30
0.0
 40
6.0
  0
ENDBLK
  5
98
330
77
100
AcDbEntity
  8
0
100
AcDbBlockEnd
  0
BLOCK
  5
E5
330
99
100
AcDbEntity
  8
0
100
AcDbBlockBegin
  2
SE1
 70
     0
 10
0.0
 20
0.0
 30
0.0
  3
SE1
  1

  0
LINE
  5
9C
330
99
100
AcDbEntity
  8
$DDT_AUDIT_GENERATED_(9B)
  6
Continuous
 62
     7
100
AcDbLine
 10
425.3295906421
 20
416.9402586795
 30
0.0
 11
417.655267953
 21
416.7392994675
 31
0.0
  0
LINE
  5
9D
330
99
100
AcDbEntity
  8
$DDT_AUDIT_GENERATED_(9B)
  6
Continuous
 62
     7
100
AcDbLine
 10
417.7251762135
 20
416.8926991448
 30
0.0
 11
417.655267953
 21
416.7392994675
 31
0.0
  0
LINE
  5
9E
330
99
100
AcDbEntity
  8
$DDT_AUDIT_GENERATED_(9B)
  6
Continuous
 62
     7
100
AcDbLine
 10
425.3295906421
 20
416.9402586795
 30
0.0
 11
425.3691523002
 21
417.0270688152
 31
0.0
  0
ARC
  5
9F
330
99
100
AcDbEntity
  8
$DDT_AUDIT_GENERATED_(82)
  6
Continuous
 62
     7
100
AcDbCircle
 10
-5684.6653259378
 20
-567.4159793159
 30
0.0
 40
6209.987291689514
100
AcDbArc
 50
9.6425786779
 51
9.6435916268
  0
ELLIPSE
  5
A0
330
99
100
AcDbEntity
  8
$DDT_AUDIT_GENERATED_(82)
  6
Continuous
 62
     7
100
AcDbEllipse
 10
440.6858030098
 20
416.5962315472
 30
0.0
 11
0.6988596334188968
 21
-0.04143400316627271
 31
0.0
210
0.0
220
0.0
230
1.0
 40
0.9998364154
 41
1.647576721071065
 42
3.375428165940344
  0
ELLIPSE
  5
A1
330
99
100
AcDbEntity
  8
$DDT_AUDIT_GENERATED_(82)
  6
Continuous
 62
     7
100
AcDbEllipse
 10
428.1332681679
 20
416.3755677306
 30
0.0
 11
-0.3091514165138032
 21
-0.6280622981305259
 31
0.0
210
0.0
220
0.0
230
1.0
 40
0.9998872663
 41
2.202840398546744
 42
3.616545447931501
  0
ARC
  5
A2
330
99
100
AcDbEntity
  8
$DDT_AUDIT_GENERATED_(82)
  6
Continuous
 62
     7
100
AcDbCircle
 10
447.8796512796
 20
419.5394076872
 30
0.0
 40
0.499945614481978
100
AcDbArc
 50
325.0461063394
 51
2.4899069476
  0
ARC
  5
A3
330
99
100
AcDbEntity
  8
$DDT_AUDIT_GENERATED_(82)
  6
Continuous
 62
     7
100
AcDbCircle
 10
439.3527559826
 20
471.0405632736
 30
0.0
 40
0.4999999905910494
100
AcDbArc
 50
16.3114509142
 51
53.3715832146
  0
LINE
  5
A4
330
99
100
AcDbEntity
  8
$DDT_AUDIT_GENERATED_(82)
  6
Continuous
 62
     7
100
AcDbLine
 10
447.1101947637
 20
417.5635000598
 30
0.0
 11
448.2896673667
 21
419.2508439556
 31
0.0
  0
LINE
  5
A5
330
99
100
AcDbEntity
  8
$DDT_AUDIT_GENERATED_(82)
  6
Continuous
 62
     7
100
AcDbLine
 10
437.8604210587
 20
472.7730534875
 30
0.0
 11
439.651067463
 21
471.4418241003
 31
0.0
  0
ARC
  5
A6
330
99
100
AcDbEntity
  8
$DDT_AUDIT_GENERATED_(82)
  6
Continuous
 62
     7
100
AcDbCircle
 10
-6369.0392594595
 20
-696.0302463624
 30
0.0
 40
6906.517531605791
100
AcDbArc
 50
9.2787671194
 51
9.7422375356
  0
ARC
  5
A7
330
99
100
AcDbEntity
  8
$DDT_AUDIT_GENERATED_(82)
  6
Continuous
 62
     7
100
AcDbCircle
 10
437.5877240139
 20
472.4561359129
 30
0.0
 40
0.4183577879811583
100
AcDbArc
 50
49.3331070186
 51
92.7248852266
  0
SPLINE
  5
A8
330
99
100
AcDbEntity
  8
$DDT_AUDIT_GENERATED_(82)
  6
Continuous
 62
     7
100
AcDbSpline
210
0.0
220
0.0
230
1.0
 70
     8
 71
     3
 72
    10
 73
     6
 74
     0
 42
0.0000000044625359
 43
0.0000000001
 40
0.0000009223878074
 40
0.0000009223878074
 40
0.0000009223878074
 40
0.0000009223878074
 40
0.0000755178378631
 40
0.0000755178378631
 40
0.0156681399727794
 40
0.0156681399727794
 40
0.0156681399727794
 40
0.0156681399727794
 10
437.8603485984802
 20
472.7734797335425
 30
0.0
 10
437.8602808200337
 20
472.7738746663175
 30
0.0
 10
437.8602810319372
 20
472.7738737772788
 30
0.0
 10
437.8603353906776
 20
472.7736285568258
 30
0.0
 10
437.8622489874845
 20
472.7623158249029
 30
0.0
 10
437.8661259843281
 20
472.7396631052699
 30
0.0
  0
SPLINE
  5
A9
330
99
100
AcDbEntity
  8
$DDT_AUDIT_GENERATED_(82)
  6
Continuous
 62
     7
100
AcDbSpline
210
0.0
220
0.0
230
1.0
 70
    12
 71
     5
 72
    12
 73
     6
 74
     0
 42
0.000000023309238
 43
0.0000000001
 40
0.0
 40
0.0
 40
0.0
 40
0.0
 40
0.0
 40
0.0
 40
1.0
 40
1.0
 40
1.0
 40
1.0
 40
1.0
 40
1.0
 10
446.7519128008705
 20
417.4029474269344
 30
0.0
 41
1.0
 10
446.8344000229429
 20
417.4043957754761
 30
0.0
 41
1.0
 10
446.9168830137349
 20
417.4058457040423
 30
0.0
 41
1.0
 10
447.0210870529
 20
417.4360232980416
 30
0.0
 41
1.0
 10
447.0656409083163
 20
417.4997616788959
 30
0.0
 41
1.0
 10
447.1101947637324
 20
417.5635000597504
 30
0.0
 41
1.0
  0
ARC
  5
AA
330
99
100
AcDbEntity
  8
$DDT_AUDIT_GENERATED_(82)
  6
Continuous
 62
     7
100
AcDbCircle
 10
-6241.5267307342
 20
-660.7373386146
 30
0.0
 40
6774.612825401097
100
AcDbArc
 50
9.6318108849
 51
9.6327478099
  0
LINE
  5
AB
330
99
100
AcDbEntity
  8
$DDT_AUDIT_GENERATED_(82)
  6
Continuous
 62
     7
100
AcDbLine
 10
437.8603511441
 20
472.773464901
 30
0.0
 11
437.8604210587
 21
472.7730534875
 31
0.0
  0
LINE
  5
AC
330
99
100
AcDbEntity
  8
$DDT_AUDIT_GENERATED_(82)
  6
Continuous
 62
     7
100
AcDbLine
 10
410.2794294223
 20
473.1434563252
 30
0.0
 11
410.2863618942
 21
416.9655103788
 31
0.0
  0
SPLINE
  5
AD
330
99
100
AcDbEntity
  8
$DDT_AUDIT_GENERATED_(82)
  6
Continuous
 62
     7
100
AcDbSpline
210
0.0
220
0.0
230
1.0
 70
    12
 71
     3
 72
     8
 73
     4
 74
     0
 42
0.0000045875437611
 43
0.0000000001
 40
0.0
 40
0.0
 40
0.0
 40
0.0
 40
1.0
 40
1.0
 40
1.0
 40
1.0
 10
448.2896673667249
 20
419.2508439556055
 30
0.0
 41
1.0
 10
448.2897330870607
 20
419.2509641601067
 30
0.0
 41
1.0
 10
448.2896281329918
 20
419.2516500228356
 30
0.0
 41
1.0
 10
448.2894116545332
 20
419.2529815114498
 30
0.0
 41
1.0
  0
ARC
  5
AE
330
99
100
AcDbEntity
  8
$DDT_AUDIT_GENERATED_(82)
  6
Continuous
 62
     7
100
AcDbCircle
 10
445.3943027872
 20
604.0430385422
 30
0.0
 40
249.9842474355936
100
AcDbArc
 50
268.9130481922
 51
271.0164531039
  0
LINE
  5
AF
330
99
100
AcDbEntity
  8
$DDT_AUDIT_GENERATED_(82)
  6
Continuous
 62
     7
100
AcDbLine
 10
440.6733166458
 20
417.2960931417
 30
0.0
 11
446.7770373245
 21
417.403387425
 31
0.0
  0
LINE
  5
B0
330
99
100
AcDbEntity
  8
$DDT_AUDIT_GENERATED_(82)
  6
Continuous
 62
     7
100
AcDbLine
 10
425.3691523002
 20
417.0270688152
 30
0.0
 11
428.1210231443
 21
417.07544259
 31
0.0
  0
LINE
  5
B1
330
99
100
AcDbEntity
  8
$DDT_AUDIT_GENERATED_(82)
  6
Continuous
 62
     7
100
AcDbLine
 10
410.4898770571
 20
416.7655134037
 30
0.0
 11
417.7251762135
 21
416.8926991448
 31
0.0
  0
LINE
  5
B2
330
99
100
AcDbEntity
  8
$DDT_AUDIT_GENERATED_(82)
  6
Continuous
 62
     7
100
AcDbLine
 10
437.5678352367
 20
472.8740249348
 30
0.0
 11
410.4828952254
 21
473.3434509738
 31
0.0
  0
LINE
  5
B3
330
99
100
AcDbEntity
  8
$DDT_AUDIT_GENERATED_(82)
  6
Continuous
 62
     7
100
AcDbLine
 10
428.8102807984
 20
416.5665852866
 30
0.0
 11
439.6863475734
 21
354.9298239859
 31
0.0
  0
LINE
  5
B4
330
99
100
AcDbEntity
  8
$DDT_AUDIT_GENERATED_(82)
  6
Continuous
 62
     7
100
AcDbLine
 10
450.7959508111
 20
355.2717405759
 30
0.0
 11
439.9964399445
 21
416.474644826
 31
0.0
  0
ARC
  5
B5
330
99
100
AcDbEntity
  8
$DDT_AUDIT_GENERATED_(82)
  6
Continuous
 62
     7
100
AcDbCircle
 10
231.1434266675
 20
410.1107218268
 30
0.0
 40
217.4413985125207
100
AcDbArc
 50
2.4945660902
 51
16.3113896015
  0
ARC
  5
B6
330
99
100
AcDbEntity
  8
$DDT_AUDIT_GENERATED_(82)
  6
Continuous
 62
     7
100
AcDbCircle
 10
441.9003539434
 20
423.0572856148
 30
0.0
 40
7.417553031175887
100
AcDbArc
 50
325.1489956977
 51
329.5107973669
  0
ARC
  5
B7
330
99
100
AcDbEntity
  8
$DDT_AUDIT_GENERATED_(82)
  6
Continuous
 62
     7
100
AcDbCircle
 10
437.6046596661
 20
472.3444282518
 30
0.0
 40
0.4208641245950357
100
AcDbArc
 50
48.9074993036
 51
92.5222571845
  0
ARC
  5
B8
330
99
100
AcDbEntity
  8
$DDT_AUDIT_GENERATED_(82)
  6
Continuous
 62
     7
100
AcDbCircle
 10
410.4863618992
 20
416.9654825105
 30
0.0
 40
0.2000000000000019
100
AcDbArc
 50
180.0070704148
 51
271.0070704147
  0
ARC
  5
B9
330
99
100
AcDbEntity
  8
$DDT_AUDIT_GENERATED_(82)
  6
Continuous
 62
     7
100
AcDbCircle
 10
410.4794294208
 20
473.1434810056
 30
0.0
 40
0.1999999999999937
100
AcDbArc
 50
89.0070704149
 51
180.0070704148
  0
ARC
  5
BA
330
99
100
AcDbEntity
  8
$DDT_AUDIT_GENERATED_(82)
  6
Continuous
 62
     7
100
AcDbCircle
 10
447.8750235524
 20
419.5609790168
 30
0.0
 40
0.5010948559731019
100
AcDbArc
 50
325.0676659148
 51
2.4003879241
  0
ARC
  5
BB
330
99
100
AcDbEntity
  8
$DDT_AUDIT_GENERATED_(82)
  6
Continuous
 62
     7
100
AcDbCircle
 10
440.6711338701
 20
355.1035938042
 30
0.0
 40
0.9999999999999981
100
AcDbArc
 50
190.0176603834
 51
268.910369538
  0
ARC
  5
BC
330
99
100
AcDbEntity
  8
$DDT_AUDIT_GENERATED_(82)
  6
Continuous
 62
     7
100
AcDbCircle
 10
449.8111645247
 20
355.097970699
 30
0.0
 40
0.9999999999999981
100
AcDbArc
 50
271.0429246606
 51
9.9834532853
  0
LINE
  5
BE
330
99
100
AcDbEntity
  8
$DDT_AUDIT_GENERATED_(BD)
  6
Continuous
 62
     7
100
AcDbLine
 10
408.5192326644
 20
470.4766163161
 30
0.0
 11
408.5192326644
 21
419.6302871274
 31
0.0
  0
ARC
  5
BF
330
99
100
AcDbEntity
  8
$DDT_AUDIT_GENERATED_(BD)
  6
Continuous
 62
     7
100
AcDbCircle
 10
400.4192326644
 20
445.0534517218
 30
0.0
 40
26.3
100
AcDbArc
 50
67.9800243449
 51
72.0621734783
  0
ARC
  5
C0
330
99
100
AcDbEntity
  8
$DDT_AUDIT_GENERATED_(BD)
  6
Continuous
 62
     7
100
AcDbCircle
 10
400.4192326644
 20
445.0534517218
 30
0.0
 40
26.3
100
AcDbArc
 50
287.9378265217
 51
292.0341164847
  0
LINE
  5
C1
330
99
100
AcDbEntity
  8
$DDT_AUDIT_GENERATED_(BD)
  6
Continuous
 62
     7
100
AcDbLine
 10
391.0727403654
 20
418.9823858792
 30
0.0
 11
408.0235957083
 21
419.1303061639
 31
0.0
  0
LINE
  5
C2
330
99
100
AcDbEntity
  8
$DDT_AUDIT_GENERATED_(BD)
  6
Continuous
 62
     7
100
AcDbLine
 10
408.0235957083
 20
470.9765972796
 30
0.0
 11
392.4312931771
 21
471.1126622618
 31
0.0
  0
ARC
  5
C3
330
99
100
AcDbEntity
  8
$DDT_AUDIT_GENERATED_(BD)
  6
Continuous
 62
     7
100
AcDbCircle
 10
408.0192326644
 20
470.4766163161
 30
0.0
 40
0.5000000000000004
100
AcDbArc
 50
0.0
 51
89.500025649
  0
ARC
  5
C4
330
99
100
AcDbEntity
  8
$DDT_AUDIT_GENERATED_(BD)
  6
Continuous
 62
     7
100
AcDbCircle
 10
408.0192326644
 20
419.6302871274
 30
0.0
 40
0.4999999999999991
100
AcDbArc
 50
270.499974351
 51
0.0
  0
SPLINE
  5
C5
330
99
100
AcDbEntity
  8
$DDT_AUDIT_GENERATED_(91)
  6
Continuous
 62
     7
100
AcDbSpline
210
0.0
220
0.0
230
1.0
 70
     8
 71
     3
 72
    40
 73
    36
 74
     0
 42
0.000000000092941
 43
0.0000000001
 40
0.3598288835177101
 40
0.3598288835177101
 40
0.3598288835177101
 40
0.3598288835177101
 40
0.3750000000000005
 40
0.3750000000000005
 40
0.4062500000000006
 40
0.4062500000000006
 40
0.4375000000000007
 40
0.4375000000000007
 40
0.4687500000000007
 40
0.4687500000000007
 40
0.5000000000000008
 40
0.5000000000000008
 40
0.5312500000000008
 40
0.5312500000000008
 40
0.5625000000000007
 40
0.5625000000000007
 40
0.5937500000000007
 40
0.5937500000000007
 40
0.6250000000000006
 40
0.6250000000000006
 40
0.6562500000000006
 40
0.6562500000000006
 40
0.6875000000000004
 40
0.6875000000000004
 40
0.7187500000000004
 40
0.7187500000000004
 40
0.7500000000000003
 40
0.7500000000000003
 40
0.7812500000000003
 40
0.7812500000000003
 40
0.8125000000000003
 40
0.8125000000000003
 40
0.8437500000000002
 40
0.8437500000000002
 40
0.8586227719735746
 40
0.8586227719735746
 40
0.8586227719735746
 40
0.8586227719735746
 10
391.0528836831234
 20
418.2214027127016
 30
0.0
 10
391.0530652362522
 20
418.228227705844
 30
0.0
 10
391.0543071541416
 20
418.2756899668374
 30
0.0
 10
391.06140247041
 20
418.5474395259857
 30
0.0
 10
391.0706050365976
 20
418.9009111298291
 30
0.0
 10
391.0975514867809
 20
419.9332881011056
 30
0.0
 10
391.1155344921198
 20
420.6218570556296
 30
0.0
 10
391.1592775621161
 20
422.2983908434455
 30
0.0
 10
391.1848021238126
 20
423.2773836788726
 30
0.0
 10
391.2431701431761
 20
425.5144369327339
 30
0.0
 10
391.2762959802753
 20
426.784493617454
 30
0.0
 10
391.3472208338908
 20
429.5033914549141
 30
0.0
 10
391.3852637569571
 20
430.9614462909652
 30
0.0
 10
391.4665377408666
 20
434.0781202166067
 30
0.0
 10
391.5093440422746
 20
435.7197549056213
 30
0.0
 10
391.5966486081958
 20
439.0684826450141
 30
0.0
 10
391.6417485104406
 20
440.7993131480164
 30
0.0
 10
391.733444597984
 20
444.3172199061343
 30
0.0
 10
391.7790390254807
 20
446.0662148752389
 30
0.0
 10
391.8696826209358
 20
449.5449474893253
 30
0.0
 10
391.915213790791
 20
451.2932744099477
 30
0.0
 10
392.0025519933652
 20
454.6458021851833
 30
0.0
 10
392.0445116375795
 20
456.2561892529629
 30
0.0
 10
392.1249617542305
 20
459.3453502702862
 30
0.0
 10
392.1634315513339
 20
460.8226409888135
 30
0.0
 10
392.2335169145999
 20
463.5143793876725
 30
0.0
 10
392.2655967307749
 20
464.7473260194903
 30
0.0
 10
392.3236812428086
 20
466.9783772248569
 30
0.0
 10
392.3489104363256
 20
467.9471559602491
 30
0.0
 10
392.3914147588869
 20
469.5799560758783
 30
0.0
 10
392.4089127262264
 20
470.253108802165
 30
0.0
 10
392.4350808584263
 20
471.2583830241903
 30
0.0
 10
392.4437263907092
 20
471.5900175249132
 30
0.0
 10
392.450019982586
 20
471.8319085070917
 30
0.0
 10
392.4510314068025
 20
471.8709428348088
 30
0.0
 10
392.4510281239321
 20
471.8709790485613
 30
0.0
  0
SPLINE
  5
C6
330
99
100
AcDbEntity
  8
$DDT_AUDIT_GENERATED_(91)
  6
Continuous
 62
     7
100
AcDbSpline
210
0.0
220
0.0
230
1.0
 70
     8
 71
     3
 72
    12
 73
     8
 74
     0
 42
0.0000000006677395
 43
0.0000000001
 40
0.0
 40
0.0
 40
0.0
 40
0.0
 40
0.0625000000000001
 40
0.0625000000000001
 40
0.1250000000000002
 40
0.1250000000000002
 40
0.1250829655217893
 40
0.1250829655217893
 40
0.1250829655217893
 40
0.1250829655217893
 10
391.2122635912966
 20
495.5700720918143
 30
0.0
 10
391.2623164851756
 20
494.97590821048
 30
0.0
 10
391.301645925942
 20
494.5089899878836
 30
0.0
 10
391.3554977185166
 20
493.869581315632
 30
0.0
 10
391.3694508956665
 20
493.7038885247911
 30
0.0
 10
391.3694876556974
 20
493.7034520191536
 30
0.0
 10
391.3694876788686
 20
493.703451744042
 30
0.0
 10
391.3694876764836
 20
493.7034517724291
 30
0.0
  0
SPLINE
  5
C7
330
99
100
AcDbEntity
  8
$DDT_AUDIT_GENERATED_(91)
  6
Continuous
 62
     7
100
AcDbSpline
210
0.0
220
0.0
230
1.0
 70
     8
 71
     3
 72
    14
 73
    10
 74
     0
 42
0.0000000003446914
 43
0.0000000001
 40
0.6252576914853002
 40
0.6252576914853002
 40
0.6252576914853002
 40
0.6252576914853002
 40
0.6875000000000004
 40
0.6875000000000004
 40
0.7500000000000004
 40
0.7500000000000004
 40
0.8750000000000002
 40
0.8750000000000002
 40
1.0
 40
1.0
 40
1.0
 40
1.0
 10
390.2988164080487
 20
506.4034515755062
 30
0.0
 10
390.2988188205058
 20
506.403423041598
 30
0.0
 10
390.3126651764906
 20
506.2393641284184
 30
0.0
 10
390.3661974646041
 20
505.6050098963881
 30
0.0
 10
390.405528812003
 20
505.1389135445871
 30
0.0
 10
390.555442021101
 20
503.3620370000481
 30
0.0
 10
390.6942016771217
 20
501.7169135305174
 30
0.0
 10
390.973192140761
 20
498.4076105719577
 30
0.0
 10
391.1121578035385
 20
496.7583998544826
 30
0.0
 10
391.2122635912966
 20
495.5700720918143
 30
0.0
  0
LINE
  5
C8
330
99
100
AcDbEntity
  8
$DDT_AUDIT_GENERATED_(91)
  6
Continuous
 62
     7
100
AcDbLine
 10
376.1192326644
 20
378.2186755521
 30
0.0
 11
376.1192326644
 21
538.0446480253
 31
0.0
  0
ARC
  5
C9
330
99
100
AcDbEntity
  8
$DDT_AUDIT_GENERATED_(91)
  6
Continuous
 62
     7
100
AcDbCircle
 10
376.6296587436
 20
378.2198350038
 30
0.0
 40
0.5104273960217747
100
AcDbArc
 50
180.1301492582
 51
269.8091875601
  0
LINE
  5
CA
330
99
100
AcDbEntity
  8
$DDT_AUDIT_GENERATED_(91)
  6
Continuous
 62
     7
100
AcDbLine
 10
378.1192326644
 20
377.6565986588
 30
0.0
 11
378.1192326644
 21
377.5883618516
 31
0.0
  0
ARC
  5
CB
330
99
100
AcDbEntity
  8
$DDT_AUDIT_GENERATED_(91)
  6
Continuous
 62
     7
100
AcDbCircle
 10
377.2528623012
 20
371.2138131459
 30
0.0
 40
6.500775551516279
100
AcDbArc
 50
82.3412989833
 51
92.1634014273
  0
ARC
  5
CC
330
99
100
AcDbEntity
  8
$DDT_AUDIT_GENERATED_(91)
  6
Continuous
 62
     7
100
AcDbCircle
 10
375.2046738483
 20
1501.4930087714
 30
0.0
 40
1123.784499636261
100
AcDbArc
 50
270.0725657334
 51
270.0919145555
  0
LINE
  5
CD
330
99
100
AcDbEntity
  8
$DDT_AUDIT_GENERATED_(91)
  6
Continuous
 62
     7
100
AcDbLine
 10
378.1192326644
 20
377.5883618516
 30
0.0
 11
385.3117045801
 21
377.7139069159
 31
0.0
  0
LINE
  5
CE
330
99
100
AcDbEntity
  8
$DDT_AUDIT_GENERATED_(91)
  6
Continuous
 62
     7
100
AcDbLine
 10
385.3117045801
 20
538.3929965276
 30
0.0
 11
376.6279588676
 21
538.5445718729
 31
0.0
  0
ARC
  5
CF
330
99
100
AcDbEntity
  8
$DDT_AUDIT_GENERATED_(91)
  6
Continuous
 62
     7
100
AcDbCircle
 10
385.2942521736
 20
378.7137546111
 30
0.0
 40
0.9999999999999931
100
AcDbArc
 50
271.0
 51
350.8512941045
  0
ARC
  5
D0
330
99
100
AcDbEntity
  8
$DDT_AUDIT_GENERATED_(91)
  6
Continuous
 62
     7
100
AcDbCircle
 10
385.2942521736
 20
537.3931488325
 30
0.0
 40
0.9999999999997122
100
AcDbArc
 50
9.1487058955
 51
89.0
  0
ARC
  5
D1
330
99
100
AcDbEntity
  8
$DDT_AUDIT_GENERATED_(91)
  6
Continuous
 62
     7
100
AcDbCircle
 10
-107.3579704565
 20
458.0534517218
 30
0.0
 40
500.0
100
AcDbArc
 50
5.5468953204
 51
9.1487058954
  0
ARC
  5
D2
330
99
100
AcDbEntity
  8
$DDT_AUDIT_GENERATED_(91)
  6
Continuous
 62
     7
100
AcDbCircle
 10
-107.3579704565
 20
458.0534517218
 30
0.0
 40
500.0
100
AcDbArc
 50
1.5830330572
 51
4.090840106
  0
ARC
  5
D3
330
99
100
AcDbEntity
  8
$DDT_AUDIT_GENERATED_(91)
  6
Continuous
 62
     7
100
AcDbCircle
 10
-107.3579704565
 20
458.0534517218
 30
0.0
 40
499.9999999999999
100
AcDbArc
 50
350.8512941046
 51
355.4329743854
  0
LINE
  5
D5
330
99
100
AcDbEntity
  8
$DDT_AUDIT_GENERATED_(D4)
  6
Continuous
 62
     7
100
AcDbLine
 10
393.416473389
 20
494.3534517218
 30
0.0
 11
393.416473389
 21
505.7534517218
 31
0.0
  0
LINE
  5
D6
330
99
100
AcDbEntity
  8
$DDT_AUDIT_GENERATED_(D4)
  6
Continuous
 62
     7
100
AcDbLine
 10
391.3400116232
 20
494.0534517218
 30
0.0
 11
393.116473389
 21
494.0534517218
 31
0.0
  0
LINE
  5
D7
330
99
100
AcDbEntity
  8
$DDT_AUDIT_GENERATED_(D4)
  6
Continuous
 62
     7
100
AcDbLine
 10
393.116473389
 20
506.0534517218
 30
0.0
 11
390.3283537475
 21
506.0534517218
 31
0.0
  0
ARC
  5
D8
330
99
100
AcDbEntity
  8
$DDT_AUDIT_GENERATED_(D4)
  6
Continuous
 62
     7
100
AcDbCircle
 10
393.116473389
 20
494.3534517218
 30
0.0
 40
0.3000000000000017
100
AcDbArc
 50
270.0
 51
0.0
  0
ARC
  5
D9
330
99
100
AcDbEntity
  8
$DDT_AUDIT_GENERATED_(D4)
  6
Continuous
 62
     7
100
AcDbCircle
 10
393.116473389
 20
505.7534517218
 30
0.0
 40
0.2999999999999947
100
AcDbArc
 50
0.0
 51
90.0
  0
ARC
  5
DA
330
99
100
AcDbEntity
  8
$DDT_AUDIT_GENERATED_(95)
  6
Continuous
 62
     7
100
AcDbCircle
 10
364.8637663655
 20
500.0534517218
 30
0.0
 40
49.99999999999999
100
AcDbArc
 50
354.1432980901
 51
5.8567019099
  0
LINE
  5
DB
330
99
100
AcDbEntity
  8
$DDT_AUDIT_GENERATED_(95)
  6
Continuous
 62
     7
100
AcDbLine
 10
410.8320122021
 20
494.0534517218
 30
0.0
 11
413.6079967933
 21
494.0534517218
 31
0.0
  0
LINE
  5
DC
330
99
100
AcDbEntity
  8
$DDT_AUDIT_GENERATED_(95)
  6
Continuous
 62
     7
100
AcDbLine
 10
413.6079967933
 20
506.0534517218
 30
0.0
 11
410.8320122021
 21
506.0534517218
 31
0.0
  0
ARC
  5
DD
330
99
100
AcDbEntity
  8
$DDT_AUDIT_GENERATED_(95)
  6
Continuous
 62
     7
100
AcDbCircle
 10
410.8320122021
 20
495.0534517218
 30
0.0
 40
1.000000000000009
100
AcDbArc
 50
194.4775121859
 51
270.0
  0
ARC
  5
DE
330
99
100
AcDbEntity
  8
$DDT_AUDIT_GENERATED_(95)
  6
Continuous
 62
     7
100
AcDbCircle
 10
410.8320122021
 20
505.0534517218
 30
0.0
 40
1.000000000000001
100
AcDbArc
 50
90.0
 51
165.5224878141
  0
ARC
  5
DF
330
99
100
AcDbEntity
  8
$DDT_AUDIT_GENERATED_(95)
  6
Continuous
 62
     7
100
AcDbCircle
 10
408.895520529
 20
494.5534517218
 30
0.0
 40
1.000000000000001
100
AcDbArc
 50
14.4775121859
 51
90.0
  0
ARC
  5
E0
330
99
100
AcDbEntity
  8
$DDT_AUDIT_GENERATED_(95)
  6
Continuous
 62
     7
100
AcDbCircle
 10
408.895520529
 20
505.5534517218
 30
0.0
 40
0.9999999999999941
100
AcDbArc
 50
270.0
 51
345.5224878141
  0
LINE
  5
E1
330
99
100
AcDbEntity
  8
$DDT_AUDIT_GENERATED_(95)
  6
Continuous
 62
     7
100
AcDbLine
 10
393.416473389
 20
495.5534517218
 30
0.0
 11
408.895520529
 21
495.5534517218
 31
0.0
  0
LINE
  5
E2
330
99
100
AcDbEntity
  8
$DDT_AUDIT_GENERATED_(95)
  6
Continuous
 62
     7
100
AcDbLine
 10
408.895520529
 20
504.5534517218
 30
0.0
 11
393.416473389
 21
504.5534517218
 31
0.0
  0
ARC
  5
E3
330
99
100
AcDbEntity
  8
$DDT_AUDIT_GENERATED_(95)
  6
Continuous
 62
     7
100
AcDbCircle
 10
413.6079967933
 20
495.0534517218
 30
0.0
 40
1.000000000000001
100
AcDbArc
 50
270.0
 51
354.1432980901
  0
ARC
  5
E4
330
99
100
AcDbEntity
  8
$DDT_AUDIT_GENERATED_(95)
  6
Continuous
 62
     7
100
AcDbCircle
 10
413.6079967933
 20
505.0534517218
 30
0.0
 40
0.9999999999999861
100
AcDbArc
 50
5.8567019099
 51
90.0
  0
ENDBLK
  5
E6
330
99
100
AcDbEntity
  8
0
100
AcDbBlockEnd
  0
BLOCK
  5
138
330
E7
100
AcDbEntity
  8
0
100
AcDbBlockBegin
  2
SE2
 70
     0
 10
0.0
 20
0.0
 30
0.0
  3
SE2
  1

  0
ARC
  5
E9
330
E7
100
AcDbEntity
  8
$DDT_AUDIT_GENERATED_(82)
  6
Continuous
 62
     7
100
AcDbCircle
 10
108.1342387159
 20
265.9276819141
 30
0.0
 40
157.1449045165941
100
AcDbArc
 50
270.1079086018
 51
271.8470604799
  0
SPLINE
  5
EA
330
E7
100
AcDbEntity
  8
$DDT_AUDIT_GENERATED_(82)
  6
Continuous
 62
     7
100
AcDbSpline
210
0.0
220
0.0
230
1.0
 70
     8
 71
     3
 72
    25
 73
    21
 74
     0
 42
0.0000000001851559
 43
0.0000000001
 40
0.0
 40
0.0
 40
0.0
 40
0.0
 40
0.0312013091705583
 40
0.0625000000000001
 40
0.0625000000000001
 40
0.1250000000000006
 40
0.1250000000000006
 40
0.1874999999999997
 40
0.1874999999999997
 40
0.25
 40
0.25
 40
0.3125000000000003
 40
0.3125000000000003
 40
0.3750000000000006
 40
0.3750000000000006
 40
0.4374999999999997
 40
0.4374999999999997
 40
0.5
 40
0.5
 40
0.5448984995558325
 40
0.5448984995558325
 40
0.5448984995558325
 40
0.5448984995558325
 10
108.1049312656573
 20
119.3017599292724
 30
0.0
 10
107.198228562247
 20
119.301703110781
 30
0.0
 10
105.3760087218551
 20
119.2865312822109
 30
0.0
 10
103.5731824333754
 20
119.2392905746533
 30
0.0
 10
100.9107213116578
 20
119.1476890347616
 30
0.0
 10
99.16189157633941
 20
119.0569675694529
 30
0.0
 10
95.80511506495594
 20
118.8159184758651
 30
0.0
 10
94.20863246842094
 20
118.6692269715459
 30
0.0
 10
91.19141464341703
 20
118.3214530910067
 30
0.0
 10
89.80247940820635
 20
118.1255894991681
 30
0.0
 10
87.25231077936324
 20
117.688301525923
 30
0.0
 10
86.10922923710073
 20
117.4490824044163
 30
0.0
 10
84.10846442945144
 20
116.9376368345625
 30
0.0
 10
83.27174157812414
 20
116.6700935383833
 30
0.0
 10
81.89754614592485
 20
116.1060952117531
 30
0.0
 10
81.37793977830134
 20
115.8158791744841
 30
0.0
 10
80.67988001831523
 20
115.2213834114694
 30
0.0
 10
80.50551121750263
 20
114.921890615057
 30
0.0
 10
80.50264366604803
 20
114.4061223165591
 30
0.0
 10
80.59339439122952
 20
114.1893481434332
 30
0.0
 10
80.77344043178061
 20
113.9756833693366
 30
0.0
  0
SPLINE
  5
EB
330
E7
100
AcDbEntity
  8
$DDT_AUDIT_GENERATED_(82)
  6
Continuous
 62
     7
100
AcDbSpline
210
0.0
220
0.0
230
1.0
 70
     8
 71
     3
 72
    34
 73
    30
 74
     0
 42
0.0000000001852043
 43
0.0000000001
 40
0.0000009223878074
 40
0.0000009223878074
 40
0.0000009223878074
 40
0.0000009223878074
 40
0.0000755178378631
 40
0.0000755178378631
 40
0.0313231579054309
 40
0.0313231579054309
 40
0.0469469779392137
 40
0.0469469779392137
 40
0.0625707979729976
 40
0.0625707979729976
 40
0.093818438040564
 40
0.093818438040564
 40
0.1250660781081305
 40
0.1250660781081305
 40
0.1875613582432635
 40
0.1875613582432635
 40
0.2500566383783989
 40
0.2500566383783989
 40
0.2813042784459666
 40
0.2813042784459666
 40
0.3125519185135341
 40
0.3125519185135341
 40
0.3750471986486696
 40
0.3750471986486696
 40
0.4375424787837937
 40
0.4375424787837937
 40
0.5000377589189288
 40
0.5000377589189288
 40
0.5451338965723002
 40
0.5451338965723002
 40
0.5451338965723002
 40
0.5451338965723002
 10
108.1093148201127
 20
119.3018323894538
 30
0.0
 10
108.1113977463673
 20
119.3019001679003
 30
0.0
 10
108.1134799570182
 20
119.3018999559968
 30
0.0
 10
108.9875103365265
 20
119.3017912808436
 30
0.0
 10
109.9456230472933
 20
119.2942150831799
 30
0.0
 10
111.2993099983802
 20
119.2703947777868
 30
0.0
 10
111.6983987923558
 20
119.2619689759043
 30
0.0
 10
112.6712880342451
 20
119.2366885727413
 30
0.0
 10
113.0417603354544
 20
119.2255747529367
 30
0.0
 10
114.4704680252975
 20
119.1764342576072
 30
0.0
 10
115.2675598773666
 20
119.1416584325853
 30
0.0
 10
117.0492841148599
 20
119.0490144006548
 30
0.0
 10
117.8845734998426
 20
118.9974474254277
 30
0.0
 10
120.3951781344308
 20
118.817500934857
 30
0.0
 10
122.006505992475
 20
118.6695515806734
 30
0.0
 10
125.0107985679262
 20
118.3235154332969
 30
0.0
 10
126.409816191754
 20
118.1266771634895
 30
0.0
 10
128.3267321569082
 20
117.7979611441608
 30
0.0
 10
128.9302339623075
 20
117.683625683423
 30
0.0
 10
130.0606036795257
 20
117.4479734879964
 30
0.0
 10
130.6181797806468
 20
117.3190228916315
 30
0.0
 10
132.0904562773731
 20
116.943250837018
 30
0.0
 10
132.9536874683086
 20
116.6680650020464
 30
0.0
 10
134.3167242097979
 20
116.1077231467413
 30
0.0
 10
134.8384043889283
 20
115.8170134988457
 30
0.0
 10
135.5353690139055
 20
115.2256451250962
 30
0.0
 10
135.7143929215052
 20
114.9208998035403
 30
0.0
 10
135.715101485619
 20
114.4042750504204
 30
0.0
 10
135.6245854795283
 20
114.1882998934009
 30
0.0
 10
135.444215037807
 20
113.9747471927685
 30
0.0
  0
ARC
  5
EC
330
E7
100
AcDbEntity
  8
$DDT_AUDIT_GENERATED_(82)
  6
Continuous
 62
     7
100
AcDbCircle
 10
108.1057061802
 20
119.3866848756
 30
0.0
 40
0.0849284816660999
100
AcDbArc
 50
269.4772077546
 51
272.3830764855
  0
ELLIPSE
  5
ED
330
E7
100
AcDbEntity
  8
$DDT_AUDIT_GENERATED_(82)
  6
Continuous
 62
     7
100
AcDbEllipse
 10
108.1092374978
 20
146.8792853264
 30
0.0
 11
28.08899946141293
 21
0.0
 31
0.0
210
0.0
220
0.0
230
1.0
 40
0.000123402
 41
0.0
 42
1.361070740838891
  0
ELLIPSE
  5
EE
330
E7
100
AcDbEntity
  8
$DDT_AUDIT_GENERATED_(82)
  6
Continuous
 62
     7
100
AcDbEllipse
 10
108.1092374978
 20
146.8792853264
 30
0.0
 11
28.08899946141293
 21
0.0
 31
0.0
210
0.0
220
0.0
230
1.0
 40
0.000123402
 41
1.780395445738099
 42
3.141127613150037
  0
ELLIPSE
  5
EF
330
E7
100
AcDbEntity
  8
$DDT_AUDIT_GENERATED_(82)
  6
Continuous
 62
     7
100
AcDbEllipse
 10
108.1092374978
 20
146.8792853264
 30
0.0
 11
28.08899946141293
 21
0.0
 31
0.0
210
0.0
220
0.0
230
1.0
 40
0.000123402
 41
6.280283828863535
 42
6.283185307179586
  0
LINE
  5
F0
330
E7
100
AcDbEntity
  8
$DDT_AUDIT_GENERATED_(82)
  6
Continuous
 62
     7
100
AcDbLine
 10
129.8410930766
 20
110.6803631213
 30
0.0
 11
128.3114939234
 21
110.3432584548
 31
0.0
  0
LINE
  5
F1
330
E7
100
AcDbEntity
  8
$DDT_AUDIT_GENERATED_(82)
  6
Continuous
 62
     7
100
AcDbLine
 10
128.3114939234
 20
110.3432584548
 30
0.0
 11
126.5966290749
 21
110.0339707107
 31
0.0
  0
LINE
  5
F2
330
E7
100
AcDbEntity
  8
$DDT_AUDIT_GENERATED_(82)
  6
Continuous
 62
     7
100
AcDbLine
 10
126.5966290749
 20
110.0339707107
 30
0.0
 11
124.6811351856
 21
109.7503885945
 31
0.0
  0
LINE
  5
F3
330
E7
100
AcDbEntity
  8
$DDT_AUDIT_GENERATED_(82)
  6
Continuous
 62
     7
100
AcDbLine
 10
124.6811351856
 20
109.7503885945
 30
0.0
 11
122.6369579895
 21
109.5027719908
 31
0.0
  0
LINE
  5
F4
330
E7
100
AcDbEntity
  8
$DDT_AUDIT_GENERATED_(82)
  6
Continuous
 62
     7
100
AcDbLine
 10
122.6369579895
 20
109.5027719908
 30
0.0
 11
120.4196127748
 21
109.2857401971
 31
0.0
  0
LINE
  5
F5
330
E7
100
AcDbEntity
  8
$DDT_AUDIT_GENERATED_(82)
  6
Continuous
 62
     7
100
AcDbLine
 10
120.4196127748
 20
109.2857401971
 30
0.0
 11
118.1061521608
 21
109.1072147898
 31
0.0
  0
ARC
  5
F6
330
E7
100
AcDbEntity
  8
$DDT_AUDIT_GENERATED_(82)
  6
Continuous
 62
     7
100
AcDbCircle
 10
108.7414118009
 20
248.6664073792
 30
0.0
 40
139.8730374239644
100
AcDbArc
 50
271.8263754069
 51
273.8389226225
  0
LINE
  5
F7
330
E7
100
AcDbEntity
  8
$DDT_AUDIT_GENERATED_(82)
  6
Continuous
 62
     7
100
AcDbLine
 10
108.4301990302
 20
108.7830560286
 30
0.0
 11
105.5469716136
 21
108.8032715389
 31
0.0
  0
LINE
  5
F8
330
E7
100
AcDbEntity
  8
$DDT_AUDIT_GENERATED_(82)
  6
Continuous
 62
     7
100
AcDbLine
 10
105.5469711852
 20
108.8032715457
 30
0.0
 11
102.9935461489
 21
108.8652273453
 31
0.0
  0
ARC
  5
F9
330
E7
100
AcDbEntity
  8
$DDT_AUDIT_GENERATED_(82)
  6
Continuous
 62
     7
100
AcDbCircle
 10
107.5208388972
 20
249.5310530988
 30
0.0
 40
140.7386617618738
100
AcDbArc
 50
266.1611899394
 51
268.1565866762
  0
LINE
  5
FA
330
E7
100
AcDbEntity
  8
$DDT_AUDIT_GENERATED_(82)
  6
Continuous
 62
     7
100
AcDbLine
 10
98.0984193709
 20
109.1081599339
 30
0.0
 11
95.7639183758
 21
109.2888634183
 31
0.0
  0
LINE
  5
FB
330
E7
100
AcDbEntity
  8
$DDT_AUDIT_GENERATED_(82)
  6
Continuous
 62
     7
100
AcDbLine
 10
95.7639183758
 20
109.2888634183
 30
0.0
 11
93.5785089681
 21
109.5032114222
 31
0.0
  0
LINE
  5
FC
330
E7
100
AcDbEntity
  8
$DDT_AUDIT_GENERATED_(82)
  6
Continuous
 62
     7
100
AcDbLine
 10
93.5785089681
 20
109.5032114222
 30
0.0
 11
91.5167346495
 21
109.7532868798
 31
0.0
  0
LINE
  5
FD
330
E7
100
AcDbEntity
  8
$DDT_AUDIT_GENERATED_(82)
  6
Continuous
 62
     7
100
AcDbLine
 10
91.5167346495
 20
109.7532868798
 30
0.0
 11
89.6226107328
 21
110.0340038473
 31
0.0
  0
ARC
  5
FE
330
E7
100
AcDbEntity
  8
$DDT_AUDIT_GENERATED_(82)
  6
Continuous
 62
     7
100
AcDbCircle
 10
96.375612249
 20
152.4002221357
 30
0.0
 40
42.90104289570622
100
AcDbArc
 50
256.518006733
 51
260.9434746474
  0
LINE
  5
FF
330
E7
100
AcDbEntity
  8
$DDT_AUDIT_GENERATED_(82)
  6
Continuous
 62
     7
100
AcDbLine
 10
86.3736734455
 20
110.6813930329
 30
0.0
 11
85.0627593764
 21
111.0390511419
 31
0.0
  0
ARC
  5
100
330
E7
100
AcDbEntity
  8
$DDT_AUDIT_GENERATED_(82)
  6
Continuous
 62
     7
100
AcDbCircle
 10
82.8012909677
 20
113.3456216926
 30
0.0
 40
1.154907788733941
100
AcDbArc
 50
227.1746811679
 51
236.2448015138
  0
ELLIPSE
  5
101
330
E7
100
AcDbEntity
  8
$DDT_AUDIT_GENERATED_(82)
  6
Continuous
 62
     7
100
AcDbEllipse
 10
108.1092374978
 20
146.8792854834
 30
0.0
 11
26.64902398021441
 21
0.0
 31
0.0
210
0.0
220
0.0
230
1.0
 40
0.000123402
 41
3.141443048620625
 42
3.557263358766415
  0
ELLIPSE
  5
102
330
E7
100
AcDbEntity
  8
$DDT_AUDIT_GENERATED_(82)
  6
Continuous
 62
     7
100
AcDbEllipse
 10
108.1092374978
 20
146.8792854834
 30
0.0
 11
26.64902398021441
 21
0.0
 31
0.0
210
0.0
220
0.0
230
1.0
 40
0.000123402
 41
5.867514602002961
 42
6.283185307179586
  0
ARC
  5
103
330
E7
100
AcDbEntity
  8
$DDT_AUDIT_GENERATED_(82)
  6
Continuous
 62
     7
100
AcDbCircle
 10
108.1092369502
 20
111.9145454109
 30
0.0
 40
5.529715290605453
100
AcDbArc
 50
213.8052719523
 51
235.5832558084
  0
ARC
  5
104
330
E7
100
AcDbEntity
  8
$DDT_AUDIT_GENERATED_(82)
  6
Continuous
 62
     7
100
AcDbCircle
 10
108.1092369502
 20
111.9145454109
 30
0.0
 40
5.529715290605453
100
AcDbArc
 50
304.4951001921
 51
326.2181906888
  0
LINE
  5
105
330
E7
100
AcDbEntity
  8
$DDT_AUDIT_GENERATED_(82)
  6
Continuous
 62
     7
100
AcDbLine
 10
79.8202684974
 20
146.6757948392
 30
0.0
 11
80.3743433492
 21
114.9328680831
 31
0.0
  0
LINE
  5
106
330
E7
100
AcDbEntity
  8
$DDT_AUDIT_GENERATED_(82)
  6
Continuous
 62
     7
100
AcDbLine
 10
135.844131648
 20
114.9328681758
 30
0.0
 11
136.3982064982
 21
146.6757948392
 31
0.0
  0
LINE
  5
107
330
E7
100
AcDbEntity
  8
$DDT_AUDIT_GENERATED_(82)
  6
Continuous
 62
     7
100
AcDbLine
 10
133.8275589087
 20
112.2108258023
 30
0.0
 11
134.3170483278
 21
112.636772465
 31
0.0
  0
ARC
  5
108
330
E7
100
AcDbEntity
  8
$DDT_AUDIT_GENERATED_(82)
  6
Continuous
 62
     7
100
AcDbCircle
 10
127.9295255462
 20
121.7503314546
 30
0.0
 40
11.21556800328123
100
AcDbArc
 50
280.946485876
 51
301.7274460378
  0
LINE
  5
109
330
E7
100
AcDbEntity
  8
$DDT_AUDIT_GENERATED_(82)
  6
Continuous
 62
     7
100
AcDbLine
 10
130.0002661571
 20
110.723754962
 30
0.0
 11
130.0592730243
 21
110.738831043
 31
0.0
  0
SPLINE
  5
10A
330
E7
100
AcDbEntity
  8
$DDT_AUDIT_GENERATED_(82)
  6
Continuous
 62
     7
100
AcDbSpline
210
0.0
220
0.0
230
1.0
 70
     8
 71
     3
 72
     8
 73
     4
 74
     0
 42
0.0000000055311745
 43
0.0000000001
 40
0.0
 40
0.0
 40
0.0
 40
0.0
 40
1.0
 40
1.0
 40
1.0
 40
1.0
 10
80.77357013370585
 20
113.9755294679453
 30
0.0
 10
81.12495596955732
 20
113.5585843397515
 30
0.0
 10
81.51327760354991
 20
113.0977296781659
 30
0.0
 10
81.9385350356836
 20
112.5929654831887
 30
0.0
  0
ARC
  5
10B
330
E7
100
AcDbEntity
  8
$DDT_AUDIT_GENERATED_(82)
  6
Continuous
 62
     7
100
AcDbCircle
 10
134.4225105016
 20
114.9615229079
 30
0.0
 40
1.420087394725073
100
AcDbArc
 50
316.2020708495
 51
358.9338804814
  0
ARC
  5
10C
330
E7
100
AcDbEntity
  8
$DDT_AUDIT_GENERATED_(82)
  6
Continuous
 62
     7
100
AcDbCircle
 10
81.7964374136
 20
114.9616503712
 30
0.0
 40
1.420562608947958
100
AcDbArc
 50
181.0709030507
 51
223.8155938766
  0
ARC
  5
10D
330
E7
100
AcDbEntity
  8
$DDT_AUDIT_GENERATED_(82)
  6
Continuous
 62
     7
100
AcDbCircle
 10
136.2111278992
 20
146.6839020764
 30
0.0
 40
0.1863478171332418
100
AcDbArc
 50
356.8583705632
 51
47.9521786418
  0
ARC
  5
10E
330
E7
100
AcDbEntity
  8
$DDT_AUDIT_GENERATED_(82)
  6
Continuous
 62
     7
100
AcDbCircle
 10
80.0024565781
 20
146.6844194076
 30
0.0
 40
0.1818293082714574
100
AcDbArc
 50
129.7193029176
 51
184.9775240219
  0
ARC
  5
10F
330
E7
100
AcDbEntity
  8
$DDT_AUDIT_GENERATED_(82)
  6
Continuous
 62
     7
100
AcDbCircle
 10
86.8250771401
 20
118.6441174447
 30
0.0
 40
7.805328735797085
100
AcDbArc
 50
234.7334371878
 51
255.5156072707
  0
LINE
  5
110
330
E7
100
AcDbEntity
  8
$DDT_AUDIT_GENERATED_(82)
  6
Continuous
 62
     7
100
AcDbLine
 10
82.0852741111
 20
112.47581897
 30
0.0
 11
82.3184267789
 21
112.2712641438
 31
0.0
  0
LINE
  5
111
330
E7
100
AcDbEntity
  8
$DDT_AUDIT_GENERATED_(82)
  6
Continuous
 62
     7
100
AcDbLine
 10
81.9010916495
 20
112.637410136
 30
0.0
 11
81.977811386
 21
112.5701006237
 31
0.0
  0
SPLINE
  5
112
330
E7
100
AcDbEntity
  8
$DDT_AUDIT_GENERATED_(82)
  6
Continuous
 62
     7
100
AcDbSpline
210
0.0
220
0.0
230
1.0
 70
     8
 71
     3
 72
     8
 73
     4
 74
     0
 42
0.0000000055084268
 43
0.0000000001
 40
0.0
 40
0.0
 40
0.0
 40
0.0
 40
1.0
 40
1.0
 40
1.0
 40
1.0
 10
134.274478267437
 20
112.5862359341524
 30
0.0
 10
134.6274151534016
 20
113.0052237748802
 30
0.0
 10
135.0173145440399
 20
113.468003373709
 30
0.0
 10
135.4441764393521
 20
113.9745747306388
 30
0.0
  0
ARC
  5
113
330
E7
100
AcDbEntity
  8
$DDT_AUDIT_GENERATED_(82)
  6
Continuous
 62
     7
100
AcDbCircle
 10
107.9235831869
 20
111.3788050925
 30
0.0
 40
4.990131209210896
100
AcDbArc
 50
233.9054793872
 51
251.0409562571
  0
ARC
  5
114
330
E7
100
AcDbEntity
  8
$DDT_AUDIT_GENERATED_(82)
  6
Continuous
 62
     7
100
AcDbCircle
 10
108.1019594717
 20
111.738769175
 30
0.0
 40
5.388769175024764
100
AcDbArc
 50
250.4907184716
 51
305.5789851499
  0
LINE
  5
115
330
E7
100
AcDbEntity
  8
$DDT_AUDIT_GENERATED_(BD)
  6
Continuous
 62
     7
100
AcDbLine
 10
133.5324020922
 20
148.6429483235
 30
0.0
 11
112.6092374978
 21
148.6429483235
 31
0.0
  0
LINE
  5
116
330
E7
100
AcDbEntity
  8
$DDT_AUDIT_GENERATED_(BD)
  6
Continuous
 62
     7
100
AcDbLine
 10
103.6092374978
 20
148.6429483235
 30
0.0
 11
82.6860729034
 21
148.6429483235
 31
0.0
  0
ARC
  5
117
330
E7
100
AcDbEntity
  8
$DDT_AUDIT_GENERATED_(BD)
  6
Continuous
 62
     7
100
AcDbCircle
 10
108.1092374978
 20
156.7429483235
 30
0.0
 40
26.3
100
AcDbArc
 50
337.9698336412
 51
342.0621734783
  0
ARC
  5
118
330
E7
100
AcDbEntity
  8
$DDT_AUDIT_GENERATED_(BD)
  6
Continuous
 62
     7
100
AcDbCircle
 10
108.1092374978
 20
156.7429483235
 30
0.0
 40
26.3
100
AcDbArc
 50
197.9378265217
 51
202.0301663581
  0
LINE
  5
119
330
E7
100
AcDbEntity
  8
$DDT_AUDIT_GENERATED_(BD)
  6
Continuous
 62
     7
100
AcDbLine
 10
82.0459340792
 20
165.1999093002
 30
0.0
 11
82.18609194
 21
149.1385852796
 31
0.0
  0
LINE
  5
11A
330
E7
100
AcDbEntity
  8
$DDT_AUDIT_GENERATED_(BD)
  6
Continuous
 62
     7
100
AcDbLine
 10
134.0323830556
 20
149.1385852796
 30
0.0
 11
134.1725409164
 21
165.1999093002
 31
0.0
  0
ARC
  5
11B
330
E7
100
AcDbEntity
  8
$DDT_AUDIT_GENERATED_(BD)
  6
Continuous
 62
     7
100
AcDbCircle
 10
133.5324020922
 20
149.1429483235
 30
0.0
 40
0.5000000000000004
100
AcDbArc
 50
270.0
 51
359.500025649
  0
ARC
  5
11C
330
E7
100
AcDbEntity
  8
$DDT_AUDIT_GENERATED_(BD)
  6
Continuous
 62
     7
100
AcDbCircle
 10
82.6860729034
 20
149.1429483235
 30
0.0
 40
0.4999999999999991
100
AcDbArc
 50
180.499974351
 51
270.0
  0
SPLINE
  5
11D
330
E7
100
AcDbEntity
  8
$DDT_AUDIT_GENERATED_(91)
  6
Continuous
 62
     7
100
AcDbSpline
210
0.0
220
0.0
230
1.0
 70
     8
 71
     3
 72
     8
 73
     4
 74
     0
 42
0.0000000001061066
 43
0.0000000001
 40
0.0
 40
0.0
 40
0.0
 40
0.0
 40
0.027863895168557
 40
0.027863895168557
 40
0.027863895168557
 40
0.027863895168557
 10
128.9441398409262
 20
164.9695759106576
 30
0.0
 10
129.9394547465687
 20
165.0015314843453
 30
0.0
 10
130.8128150263609
 20
165.0352938683235
 30
0.0
 10
131.5681712610131
 20
165.0707736902924
 30
0.0
  0
SPLINE
  5
11E
330
E7
100
AcDbEntity
  8
$DDT_AUDIT_GENERATED_(91)
  6
Continuous
 62
     7
100
AcDbSpline
210
0.0
220
0.0
230
1.0
 70
     8
 71
     3
 72
    16
 73
    12
 74
     0
 42
0.0000000000764069
 43
0.0000000001
 40
0.6892800759552112
 40
0.6892800759552112
 40
0.6892800759552112
 40
0.6892800759552112
 40
0.7187500000000004
 40
0.7187500000000004
 40
0.7500000000000003
 40
0.7500000000000003
 40
0.7812500000000003
 40
0.7812500000000003
 40
0.8125000000000003
 40
0.8125000000000003
 40
0.8226474267377603
 40
0.8226474267377603
 40
0.8226474267377603
 40
0.8226474267377603
 10
84.654353738189
 20
165.0705877357428
 30
0.0
 10
85.45900704439727
 20
165.0328476874356
 30
0.0
 10
86.40681136326734
 20
164.9967533202806
 30
0.0
 10
88.57511558537172
 20
164.928664073334
 30
0.0
 10
89.81683021501664
 20
164.8965842571591
 30
0.0
 10
92.5618368769413
 20
164.8384997451253
 30
0.0
 10
94.03082266096719
 20
164.8132705516084
 30
0.0
 10
97.1208056838215
 20
164.770766229047
 30
0.0
 10
98.76407018700701
 20
164.7532682617075
 30
0.0
 10
100.9998607495513
 20
164.7359355683378
 30
0.0
 10
101.5508887996454
 20
164.7321549469794
 30
0.0
 10
102.1048846084077
 20
164.7288403744927
 30
0.0
  0
SPLINE
  5
11F
330
E7
100
AcDbEntity
  8
$DDT_AUDIT_GENERATED_(91)
  6
Continuous
 62
     7
100
AcDbSpline
210
0.0
220
0.0
230
1.0
 70
     8
 71
     3
 72
    12
 73
     8
 74
     0
 42
0.0000000000710672
 43
0.0000000001
 40
0.8945918076207767
 40
0.8945918076207767
 40
0.8945918076207767
 40
0.8945918076207767
 40
0.9062500000000001
 40
0.9062500000000001
 40
0.9375000000000001
 40
0.9375000000000001
 40
1.0
 40
1.0
 40
1.0
 40
1.0
 10
114.1143971043313
 20
164.7288408720668
 30
0.0
 10
114.7505281015287
 20
164.7326440744649
 30
0.0
 10
115.3825286148194
 20
164.7370616437806
 30
0.0
 10
117.6933411497307
 20
164.755598506198
 30
0.0
 10
119.3299543906274
 20
164.7735099466846
 30
0.0
 10
123.9411135574274
 20
164.8383995286044
 30
0.0
 10
126.7116026731558
 20
164.8978980873168
 30
0.0
 10
128.9441398409262
 20
164.9695759106576
 30
0.0
  0
SPLINE
  5
120
330
E7
100
AcDbEntity
  8
$DDT_AUDIT_GENERATED_(91)
  6
Continuous
 62
     7
100
AcDbSpline
210
0.0
220
0.0
230
1.0
 70
     8
 71
     3
 72
    22
 73
    18
 74
     0
 42
0.0000000004378408
 43
0.0000000001
 40
0.3222607864723375
 40
0.3222607864723375
 40
0.3222607864723375
 40
0.3222607864723375
 40
0.3750000000000004
 40
0.3750000000000004
 40
0.4375000000000005
 40
0.4375000000000005
 40
0.5000000000000006
 40
0.5000000000000006
 40
0.6250000000000004
 40
0.6250000000000004
 40
0.6875000000000004
 40
0.6875000000000004
 40
0.7500000000000004
 40
0.7500000000000004
 40
0.8750000000000002
 40
0.8750000000000002
 40
0.9268144655786189
 40
0.9268144655786189
 40
0.9268144655786189
 40
0.9268144655786189
 10
114.1124468360854
 20
166.1532647962979
 30
0.0
 10
114.3406913722361
 20
166.2090064089632
 30
0.0
 10
114.4585190878738
 20
166.2676243074928
 30
0.0
 10
114.4600817631201
 20
166.3978007834289
 30
0.0
 10
114.2964774687618
 20
166.4671027193357
 30
0.0
 10
113.6622529467895
 20
166.5967669222943
 30
0.0
 10
113.1924855496116
 20
166.6561999535202
 30
0.0
 10
111.4379584920135
 20
166.8047745728518
 30
0.0
 10
109.7785682472632
 20
166.8631384967748
 30
0.0
 10
107.289905092617
 20
166.8634765984544
 30
0.0
 10
106.455646961006
 20
166.8496263979397
 30
0.0
 10
104.9160744752859
 20
166.7959835233299
 30
0.0
 10
104.2152485067393
 20
166.756652175931
 30
0.0
 10
102.4359622258327
 20
166.6067389668329
 30
0.0
 10
101.7615393638881
 20
166.4679793108122
 30
0.0
 10
101.7582919835741
 20
166.2706611118926
 30
0.0
 10
101.8729691877168
 20
166.2129291370856
 30
0.0
 10
102.0919616854932
 20
166.1580181713518
 30
0.0
  0
LINE
  5
121
330
E7
100
AcDbEntity
  8
$DDT_AUDIT_GENERATED_(91)
  6
Continuous
 62
     7
100
AcDbLine
 10
28.1180411943
 20
181.0429483235
 30
0.0
 11
188.1004338013
 21
181.0429483235
 31
0.0
  0
LINE
  5
122
330
E7
100
AcDbEntity
  8
$DDT_AUDIT_GENERATED_(91)
  6
Continuous
 62
     7
100
AcDbLine
 10
27.6181173467
 20
180.5342221203
 30
0.0
 11
27.7696926919
 21
171.8504764079
 31
0.0
  0
LINE
  5
123
330
E7
100
AcDbEntity
  8
$DDT_AUDIT_GENERATED_(91)
  6
Continuous
 62
     7
100
AcDbLine
 10
188.4487823037
 20
171.8504764079
 30
0.0
 11
188.6003576489
 21
180.5342221203
 31
0.0
  0
ARC
  5
124
330
E7
100
AcDbEntity
  8
$DDT_AUDIT_GENERATED_(91)
  6
Continuous
 62
     7
100
AcDbCircle
 10
28.7695403871
 20
171.8679288143
 30
0.0
 40
0.9999999999999931
100
AcDbArc
 50
181.0
 51
260.8512941045
  0
ARC
  5
125
330
E7
100
AcDbEntity
  8
$DDT_AUDIT_GENERATED_(91)
  6
Continuous
 62
     7
100
AcDbCircle
 10
187.4489346085
 20
171.8679288143
 30
0.0
 40
0.9999999999997122
100
AcDbArc
 50
279.1487058955
 51
359.0
  0
ARC
  5
126
330
E7
100
AcDbEntity
  8
$DDT_AUDIT_GENERATED_(91)
  6
Continuous
 62
     7
100
AcDbCircle
 10
188.1004338013
 20
180.5429483235
 30
0.0
 40
0.4999999999999891
100
AcDbArc
 50
358.9999999999
 51
90.0
  0
ARC
  5
127
330
E7
100
AcDbEntity
  8
$DDT_AUDIT_GENERATED_(91)
  6
Continuous
 62
     7
100
AcDbCircle
 10
28.1180411943
 20
180.5429483235
 30
0.0
 40
0.5000000000000004
100
AcDbArc
 50
90.0
 51
181.0000000001
  0
ARC
  5
128
330
E7
100
AcDbEntity
  8
$DDT_AUDIT_GENERATED_(91)
  6
Continuous
 62
     7
100
AcDbCircle
 10
108.1092374978
 20
664.5201514444
 30
0.0
 40
500.0
100
AcDbArc
 50
272.6882907623
 51
279.1487058954
  0
ARC
  5
129
330
E7
100
AcDbEntity
  8
$DDT_AUDIT_GENERATED_(91)
  6
Continuous
 62
     7
100
AcDbCircle
 10
108.1092374978
 20
664.5201514444
 30
0.0
 40
499.9999999999999
100
AcDbArc
 50
260.8512941046
 51
267.3134836433
  0
LINE
  5
12A
330
E7
100
AcDbEntity
  8
$DDT_AUDIT_GENERATED_(D4)
  6
Continuous
 62
     7
100
AcDbLine
 10
102.4092374978
 20
163.7457075989
 30
0.0
 11
113.8092374978
 21
163.7457075989
 31
0.0
  0
ARC
  5
12B
330
E7
100
AcDbEntity
  8
$DDT_AUDIT_GENERATED_(D4)
  6
Continuous
 62
     7
100
AcDbCircle
 10
102.4092374978
 20
164.0457075989
 30
0.0
 40
0.2999999999999999
100
AcDbArc
 50
180.0
 51
270.0
  0
ARC
  5
12C
330
E7
100
AcDbEntity
  8
$DDT_AUDIT_GENERATED_(D4)
  6
Continuous
 62
     7
100
AcDbCircle
 10
113.8092374978
 20
164.0457075989
 30
0.0
 40
0.2999999999999947
100
AcDbArc
 50
270.0
 51
0.0
  0
ARC
  5
12D
330
E7
100
AcDbEntity
  8
$DDT_AUDIT_GENERATED_(95)
  6
Continuous
 62
     7
100
AcDbCircle
 10
108.1092374978
 20
192.2984146224
 30
0.0
 40
49.99999999999999
100
AcDbArc
 50
264.1432980901
 51
275.8567019099
  0
LINE
  5
12E
330
E7
100
AcDbEntity
  8
$DDT_AUDIT_GENERATED_(95)
  6
Continuous
 62
     7
100
AcDbLine
 10
102.1092374978
 20
146.3301687859
 30
0.0
 11
102.1092374978
 21
143.5541841946
 31
0.0
  0
LINE
  5
12F
330
E7
100
AcDbEntity
  8
$DDT_AUDIT_GENERATED_(95)
  6
Continuous
 62
     7
100
AcDbLine
 10
114.1092374978
 20
143.5541841946
 30
0.0
 11
114.1092374978
 21
146.3301687859
 31
0.0
  0
ARC
  5
130
330
E7
100
AcDbEntity
  8
$DDT_AUDIT_GENERATED_(95)
  6
Continuous
 62
     7
100
AcDbCircle
 10
103.1092374978
 20
146.3301687859
 30
0.0
 40
1.000000000000009
100
AcDbArc
 50
104.4775121859
 51
180.0
  0
ARC
  5
131
330
E7
100
AcDbEntity
  8
$DDT_AUDIT_GENERATED_(95)
  6
Continuous
 62
     7
100
AcDbCircle
 10
113.1092374978
 20
146.3301687859
 30
0.0
 40
1.0
100
AcDbArc
 50
0.0
 51
75.5224878141
  0
ARC
  5
132
330
E7
100
AcDbEntity
  8
$DDT_AUDIT_GENERATED_(95)
  6
Continuous
 62
     7
100
AcDbCircle
 10
102.6092374978
 20
148.266660459
 30
0.0
 40
1.000000000000001
100
AcDbArc
 50
284.4775121859
 51
0.0
  0
ARC
  5
133
330
E7
100
AcDbEntity
  8
$DDT_AUDIT_GENERATED_(95)
  6
Continuous
 62
     7
100
AcDbCircle
 10
113.6092374978
 20
148.266660459
 30
0.0
 40
0.999999999999994
100
AcDbArc
 50
180.0
 51
255.5224878141
  0
LINE
  5
134
330
E7
100
AcDbEntity
  8
$DDT_AUDIT_GENERATED_(95)
  6
Continuous
 62
     7
100
AcDbLine
 10
103.6092374978
 20
163.7457075989
 30
0.0
 11
103.6092374978
 21
148.266660459
 31
0.0
  0
LINE
  5
135
330
E7
100
AcDbEntity
  8
$DDT_AUDIT_GENERATED_(95)
  6
Continuous
 62
     7
100
AcDbLine
 10
112.6092374978
 20
148.266660459
 30
0.0
 11
112.6092374978
 21
163.7457075989
 31
0.0
  0
ARC
  5
136
330
E7
100
AcDbEntity
  8
$DDT_AUDIT_GENERATED_(95)
  6
Continuous
 62
     7
100
AcDbCircle
 10
103.1092374978
 20
143.5541841946
 30
0.0
 40
1.000000000000001
100
AcDbArc
 50
180.0
 51
264.1432980901
  0
ARC
  5
137
330
E7
100
AcDbEntity
  8
$DDT_AUDIT_GENERATED_(95)
  6
Continuous
 62
     7
100
AcDbCircle
 10
113.1092374978
 20
143.5541841946
 30
0.0
 40
0.9999999999999861
100
AcDbArc
 50
275.8567019099
 51
0.0
  0
ENDBLK
  5
139
330
E7
100
AcDbEntity
  8
0
100
AcDbBlockEnd
  0
ENDSEC
  0
SECTION
  2
ENTITIES
  0
INSERT
  5
5F
330
1F
100
AcDbEntity
  8
Default
100
AcDbBlockReference
  2
SEANNOT_GROUP
 10
0.0
 20
0.0
 30
0.0
  0
LINE
  5
69
330
1F
100
AcDbEntity
  8
Default
  6
Continuous
 62
     7
100
AcDbLine
 10
376.1192326644
 20
471.0508815328
 30
0.0
 11
376.1192326644
 21
419.0560219107
 31
0.0
  0
INSERT
  5
6B
330
1F
100
AcDbEntity
  8
Default
100
AcDbBlockReference
  2
SEANNOT_GROUP1
 10
0.0
 20
0.0
 30
0.0
  0
LINE
  5
70
330
1F
100
AcDbEntity
  8
Default
  6
Continuous
 62
     7
100
AcDbLine
 10
82.1065292221
 20
181.0429483235
 30
0.0
 11
134.1119457735
 21
181.0429483235
 31
0.0
  0
INSERT
  5
72
330
1F
100
AcDbEntity
  8
Default
100
AcDbBlockReference
  2
SEANNOT_GROUP2
 10
0.0
 20
0.0
 30
0.0
  0
INSERT
  5
78
330
1F
100
AcDbEntity
  8
Default
100
AcDbBlockReference
  2
SE
 10
0.0
 20
0.0
 30
0.0
  0
INSERT
  5
9A
330
1F
100
AcDbEntity
  8
Default
100
AcDbBlockReference
  2
SE1
 10
0.0
 20
0.0
 30
0.0
  0
INSERT
  5
E8
330
1F
100
AcDbEntity
  8
Default
100
AcDbBlockReference
  2
SE2
 10
0.0
 20
0.0
 30
0.0
  0
TEXT
  5
13B
330
1F
100
AcDbEntity
  8
Default
  6
Continuous
 62
     7
100
AcDbText
 10
5.9362635081
 20
53.4225120485
 30
0.0
 40
10.0
  1
Grohe AG^J
  7
SEACAD_seiso_ttf
 11
5.9362635081
 21
63.4225120485
 31
0.0
100
AcDbText
 73
     3
  0
TEXT
  5
13C
330
1F
100
AcDbEntity
  8
Default
  6
Continuous
 62
     7
100
AcDbText
 10
5.9362635081
 20
37.0588756849
 30
0.0
 40
10.0
  1
 
  7
SEACAD_seiso_ttf
 11
5.9362635081
 21
47.0588756849
 31
0.0
100
AcDbText
 73
     3
  0
TEXT
  5
13D
330
1F
100
AcDbEntity
  8
Default
  6
Continuous
 62
     7
100
AcDbText
 10
5.9362635081
 20
20.6952393213
 30
0.0
 40
10.0
  1
ecn:
  7
SEACAD_seiso_ttf
 11
5.9362635081
 21
30.6952393213
 31
0.0
100
AcDbText
 73
     3
  0
TEXT
  5
13E
330
1F
100
AcDbEntity
  8
Default
  6
Continuous
 62
     7
100
AcDbText
 10
5.9362635081
 20
4.3316029576
 30
0.0
 40
10.0
  1
unit: mm
  7
SEACAD_seiso_ttf
 11
5.9362635081
 21
14.3316029576
 31
0.0
100
AcDbText
 73
     3
  0
LINE
  5
13F
330
1F
100
AcDbEntity
  8
Default
  6
Continuous
 62
     7
100
AcDbLine
 10
0.0
 20
0.0
 30
0.0
 11
100.0
 21
0.0
 31
0.0
  0
LINE
  5
140
330
1F
100
AcDbEntity
  8
Default
  6
Continuous
 62
     7
100
AcDbLine
 10
0.0
 20
0.0
 30
0.0
 11
0.0
 21
100.0
 31
0.0
  0
TEXT
  5
141
330
1F
100
AcDbEntity
  8
Default
  6
Continuous
 62
     7
100
AcDbText
 10
24.3923665681
 20
-18.2375342018
 30
0.0
 40
10.0
  1
100 mm
  7
SEACAD_seiso_ttf
 11
24.3923665681
 21
-8.2375342018
 31
0.0
100
AcDbText
 73
     3
  0
TEXT
  5
142
330
1F
100
AcDbEntity
  8
Default
  6
Continuous
 62
     7
100
AcDbText
 10
-7.6150308803
 20
24.6231930421
 30
0.0
 40
10.0
  1
100 mm
 50
90.0
  7
SEACAD_seiso_ttf
 11
-17.6150308803
 21
24.6231930421
 31
0.0
100
AcDbText
 73
     3
  0
TEXT
  5
143
330
1F
100
AcDbEntity
  8
Default
  6
Continuous
 62
     7
100
AcDbText
 10
28.4878128572
 20
20.0907663715
 30
0.0
 40
10.0
  1
218985
  7
SEACAD_seiso_ttf
 11
28.4878128572
 21
30.0907663715
 31
0.0
100
AcDbText
 73
     3
  0
TEXT
  5
144
330
1F
100
AcDbEntity
  8
Default
  6
Continuous
 62
     7
100
AcDbText
 10
5.9012241913
 20
36.7242780188
 30
0.0
 40
10.0
  1
19346001
  7
SEACAD_seiso_ttf
 11
5.9012241913
 21
46.7242780188
 31
0.0
100
AcDbText
 73
     3
  0
ENDSEC
  0
SECTION
  2
OBJECTS
  0
DICTIONARY
  5
C
330
0
100
AcDbDictionary
281
     1
  3
ACAD_GROUP
350
D
  3
ACAD_LAYOUT
350
1A
  3
ACAD_MLEADERSTYLE
350
148
  3
ACAD_MLINESTYLE
350
17
  3
ACAD_PLOTSETTINGS
350
19
  3
ACAD_PLOTSTYLENAME
350
E
  3
ACAD_SCALELIST
350
3B
  3
ACAD_TABLESTYLE
350
147
  3
ACAD_VISUALSTYLE
350
2A
  3
AcDbVariableDictionary
350
145
  0
DICTIONARY
  5
D
102
{ACAD_REACTORS
330
C
102
}
330
C
100
AcDbDictionary
281
     1
  0
DICTIONARY
  5
1A
102
{ACAD_REACTORS
330
C
102
}
330
C
100
AcDbDictionary
281
     1
  3
Layout1
350
1E
  3
Model
350
22
  0
DICTIONARY
  5
148
102
{ACAD_REACTORS
330
C
102
}
330
C
100
AcDbDictionary
281
     1
  0
DICTIONARY
  5
17
102
{ACAD_REACTORS
330
C
102
}
330
C
100
AcDbDictionary
281
     1
  3
Standard
350
18
  0
DICTIONARY
  5
19
102
{ACAD_REACTORS
330
C
102
}
330
C
100
AcDbDictionary
281
     1
  0
ACDBDICTIONARYWDFLT
  5
E
102
{ACAD_REACTORS
330
C
102
}
330
C
100
AcDbDictionary
281
     1
  3
Normal
350
F
100
AcDbDictionaryWithDefault
340
F
  0
DICTIONARY
  5
3B
102
{ACAD_REACTORS
330
C
102
}
330
C
100
AcDbDictionary
281
     1
  3
A0
350
3C
  3
A1
350
3D
  3
A2
350
3E
  3
A3
350
3F
  3
A4
350
40
  3
A5
350
41
  3
A6
350
42
  3
A7
350
43
  3
A8
350
44
  3
A9
350
45
  3
B0
350
46
  3
B1
350
47
  3
B2
350
48
  3
B3
350
49
  3
B4
350
4A
  3
B5
350
4B
  3
B6
350
4C
  3
B7
350
4D
  3
B8
350
4E
  3
B9
350
4F
  3
C0
350
50
  3
C1
350
51
  3
C2
350
52
  3
C3
350
53
  3
C4
350
54
  3
C5
350
55
  3
C6
350
56
  3
C7
350
57
  3
C8
350
58
  3
C9
350
59
  3
D0
350
5A
  3
D1
350
5B
  3
D2
350
5C
  0
DICTIONARY
  5
147
102
{ACAD_REACTORS
330
C
102
}
330
C
100
AcDbDictionary
281
     1
  0
DICTIONARY
  5
2A
102
{ACAD_REACTORS
330
C
102
}
330
C
100
AcDbDictionary
281
     1
  3
2dWireframe
350
2F
  3
3D Hidden
350
31
  3
3dWireframe
350
30
  3
Basic
350
32
  3
Brighten
350
36
  3
ColorChange
350
3A
  3
Conceptual
350
34
  3
Dim
350
35
  3
Facepattern
350
39
  3
Flat
350
2B
  3
FlatWithEdges
350
2C
  3
Gouraud
350
2D
  3
GouraudWithEdges
350
2E
  3
Linepattern
350
38
  3
Realistic
350
33
  3
Thicken
350
37
  0
DICTIONARY
  5
145
102
{ACAD_REACTORS
330
C
102
}
330
C
100
AcDbDictionary
281
     1
  3
CANNOSCALE
350
146
  3
PSOLHEIGHT
350
14A
  3
PSOLWIDTH
350
149
  0
LAYOUT
  5
1E
102
{ACAD_REACTORS
330
1A
102
}
330
1A
100
AcDbPlotSettings
  1

  2
none_device
  4

  6

 40
0.0
 41
0.0
 42
0.0
 43
0.0
 44
0.0
 45
0.0
 46
0.0
 47
0.0
 48
0.0
 49
0.0
140
0.0
141
0.0
142
1.0
143
1.0
 70
   688
 72
     0
 73
     0
 74
     5
  7

 75
    16
147
1.0
148
0.0
149
0.0
100
AcDbLayout
  1
Layout1
 70
     1
 71
     1
 10
0.0
 20
0.0
 11
3000.0
 21
4500.0
 12
0.0
 22
0.0
 32
0.0
 14
0.0
 24
0.0
 34
0.0
 15
3000.0
 25
4500.0
 35
0.0
146
0.0
 13
0.0
 23
0.0
 33
0.0
 16
1.0
 26
0.0
 36
0.0
 17
0.0
 27
1.0
 37
0.0
 76
     0
330
1B
  0
LAYOUT
  5
22
102
{ACAD_REACTORS
330
1A
102
}
330
1A
100
AcDbPlotSettings
  1

  2
none_device
  4

  6

 40
0.0
 41
0.0
 42
0.0
 43
0.0
 44
0.0
 45
0.0
 46
0.0
 47
0.0
 48
0.0
 49
0.0
140
0.0
141
0.0
142
1.0
143
1.0
 70
  1712
 72
     0
 73
     0
 74
     0
  7

 75
     0
147
1.0
148
0.0
149
0.0
100
AcDbLayout
  1
Model
 70
     1
 71
     0
 10
0.0
 20
0.0
 11
3000.0
 21
4500.0
 12
0.0
 22
0.0
 32
0.0
 14
0.0
 24
0.0
 34
0.0
 15
3000.0
 25
4500.0
 35
0.0
146
0.0
 13
0.0
 23
0.0
 33
0.0
 16
1.0
 26
0.0
 36
0.0
 17
0.0
 27
1.0
 37
0.0
 76
     0
330
1F
331
29
  0
MLINESTYLE
  5
18
102
{ACAD_REACTORS
330
17
102
}
330
17
100
AcDbMlineStyle
  2
Standard
 70
     0
  3

 62
   256
 51
90.0
 52
90.0
 71
     2
 49
0.5
 62
   256
  6
BYLAYER
 49
-0.5
 62
   256
  6
BYLAYER
  0
ACDBPLACEHOLDER
  5
F
102
{ACAD_REACTORS
330
E
102
}
330
E
  0
SCALE
  5
3C
102
{ACAD_REACTORS
330
3B
102
}
330
3B
100
AcDbScale
 70
     0
300
1:1
140
1.0
141
1.0
290
     1
  0
SCALE
  5
3D
102
{ACAD_REACTORS
330
3B
102
}
330
3B
100
AcDbScale
 70
     0
300
1:2
140
1.0
141
2.0
290
     0
  0
SCALE
  5
3E
102
{ACAD_REACTORS
330
3B
102
}
330
3B
100
AcDbScale
 70
     0
300
1:4
140
1.0
141
4.0
290
     0
  0
SCALE
  5
3F
102
{ACAD_REACTORS
330
3B
102
}
330
3B
100
AcDbScale
 70
     0
300
1:5
140
1.0
141
5.0
290
     0
  0
SCALE
  5
40
102
{ACAD_REACTORS
330
3B
102
}
330
3B
100
AcDbScale
 70
     0
300
1:8
140
1.0
141
8.0
290
     0
  0
SCALE
  5
41
102
{ACAD_REACTORS
330
3B
102
}
330
3B
100
AcDbScale
 70
     0
300
1:10
140
1.0
141
10.0
290
     0
  0
SCALE
  5
42
102
{ACAD_REACTORS
330
3B
102
}
330
3B
100
AcDbScale
 70
     0
300
1:16
140
1.0
141
16.0
290
     0
  0
SCALE
  5
43
102
{ACAD_REACTORS
330
3B
102
}
330
3B
100
AcDbScale
 70
     0
300
1:20
140
1.0
141
20.0
290
     0
  0
SCALE
  5
44
102
{ACAD_REACTORS
330
3B
102
}
330
3B
100
AcDbScale
 70
     0
300
1:30
140
1.0
141
30.0
290
     0
  0
SCALE
  5
45
102
{ACAD_REACTORS
330
3B
102
}
330
3B
100
AcDbScale
 70
     0
300
1:40
140
1.0
141
40.0
290
     0
  0
SCALE
  5
46
102
{ACAD_REACTORS
330
3B
102
}
330
3B
100
AcDbScale
 70
     0
300
1:50
140
1.0
141
50.0
290
     0
  0
SCALE
  5
47
102
{ACAD_REACTORS
330
3B
102
}
330
3B
100
AcDbScale
 70
     0
300
1:100
140
1.0
141
100.0
290
     0
  0
SCALE
  5
48
102
{ACAD_REACTORS
330
3B
102
}
330
3B
100
AcDbScale
 70
     0
300
2:1
140
2.0
141
1.0
290
     0
  0
SCALE
  5
49
102
{ACAD_REACTORS
330
3B
102
}
330
3B
100
AcDbScale
 70
     0
300
4:1
140
4.0
141
1.0
290
     0
  0
SCALE
  5
4A
102
{ACAD_REACTORS
330
3B
102
}
330
3B
100
AcDbScale
 70
     0
300
8:1
140
8.0
141
1.0
290
     0
  0
SCALE
  5
4B
102
{ACAD_REACTORS
330
3B
102
}
330
3B
100
AcDbScale
 70
     0
300
10:1
140
10.0
141
1.0
290
     0
  0
SCALE
  5
4C
102
{ACAD_REACTORS
330
3B
102
}
330
3B
100
AcDbScale
 70
     0
300
100:1
140
100.0
141
1.0
290
     0
  0
SCALE
  5
4D
102
{ACAD_REACTORS
330
3B
102
}
330
3B
100
AcDbScale
 70
     0
300
1/128" = 1'-0"
140
0.0078125
141
12.0
290
     0
  0
SCALE
  5
4E
102
{ACAD_REACTORS
330
3B
102
}
330
3B
100
AcDbScale
 70
     0
300
1/64" = 1'-0"
140
0.015625
141
12.0
290
     0
  0
SCALE
  5
4F
102
{ACAD_REACTORS
330
3B
102
}
330
3B
100
AcDbScale
 70
     0
300
1/32" = 1'-0"
140
0.03125
141
12.0
290
     0
  0
SCALE
  5
50
102
{ACAD_REACTORS
330
3B
102
}
330
3B
100
AcDbScale
 70
     0
300
1/16" = 1'-0"
140
0.0625
141
12.0
290
     0
  0
SCALE
  5
51
102
{ACAD_REACTORS
330
3B
102
}
330
3B
100
AcDbScale
 70
     0
300
3/32" = 1'-0"
140
0.09375
141
12.0
290
     0
  0
SCALE
  5
52
102
{ACAD_REACTORS
330
3B
102
}
330
3B
100
AcDbScale
 70
     0
300
1/8" = 1'-0"
140
0.125
141
12.0
290
     0
  0
SCALE
  5
53
102
{ACAD_REACTORS
330
3B
102
}
330
3B
100
AcDbScale
 70
     0
300
3/16" = 1'-0"
140
0.1875
141
12.0
290
     0
  0
SCALE
  5
54
102
{ACAD_REACTORS
330
3B
102
}
330
3B
100
AcDbScale
 70
     0
300
1/4" = 1'-0"
140
0.25
141
12.0
290
     0
  0
SCALE
  5
55
102
{ACAD_REACTORS
330
3B
102
}
330
3B
100
AcDbScale
 70
     0
300
3/8" = 1'-0"
140
0.375
141
12.0
290
     0
  0
SCALE
  5
56
102
{ACAD_REACTORS
330
3B
102
}
330
3B
100
AcDbScale
 70
     0
300
1/2" = 1'-0"
140
0.5
141
12.0
290
     0
  0
SCALE
  5
57
102
{ACAD_REACTORS
330
3B
102
}
330
3B
100
AcDbScale
 70
     0
300
3/4" = 1'-0"
140
0.75
141
12.0
290
     0
  0
SCALE
  5
58
102
{ACAD_REACTORS
330
3B
102
}
330
3B
100
AcDbScale
 70
     0
300
1" = 1'-0"
140
1.0
141
12.0
290
     0
  0
SCALE
  5
59
102
{ACAD_REACTORS
330
3B
102
}
330
3B
100
AcDbScale
 70
     0
300
1-1/2" = 1'-0"
140
1.5
141
12.0
290
     0
  0
SCALE
  5
5A
102
{ACAD_REACTORS
330
3B
102
}
330
3B
100
AcDbScale
 70
     0
300
3" = 1'-0"
140
3.0
141
12.0
290
     0
  0
SCALE
  5
5B
102
{ACAD_REACTORS
330
3B
102
}
330
3B
100
AcDbScale
 70
     0
300
6" = 1'-0"
140
6.0
141
12.0
290
     0
  0
SCALE
  5
5C
102
{ACAD_REACTORS
330
3B
102
}
330
3B
100
AcDbScale
 70
     0
300
1'-0" = 1'-0"
140
12.0
141
12.0
290
     0
  0
VISUALSTYLE
  5
2F
102
{ACAD_REACTORS
330
2A
102
}
330
2A
100
AcDbVisualStyle
  2
2dWireframe
 70
     4
 71
     0
 72
     2
 73
     0
 90
        0
 40
-0.6
 41
-30.0
 62
     5
 63
     7
 74
     1
 91
        4
 64
     7
 65
   257
 75
     1
175
     1
 42
1.0
 92
        0
 66
   257
 43
1.0
 76
     1
 77
     6
 78
     2
 67
     7
 79
     5
170
     0
171
     0
290
     0
174
     0
 93
        1
 44
0.0
173
     0
291
     0
 45
0.0
1001
ACAD
1000
AcDbSavedByObjectVersion
1070
     0
  0
VISUALSTYLE
  5
31
102
{ACAD_REACTORS
330
2A
102
}
330
2A
100
AcDbVisualStyle
  2
3D Hidden
 70
     6
 71
     1
 72
     2
 73
     2
 90
        0
 40
-0.6
 41
-30.0
 62
     5
 63
     7
 74
     2
 91
        2
 64
     7
 65
   257
 75
     2
175
     1
 42
40.0
 92
        0
 66
   257
 43
1.0
 76
     1
 77
     6
 78
     2
 67
     7
 79
     3
170
     0
171
     0
290
     0
174
     0
 93
        1
 44
0.0
173
     0
291
     0
 45
0.0
1001
ACAD
1000
AcDbSavedByObjectVersion
1070
     0
  0
VISUALSTYLE
  5
30
102
{ACAD_REACTORS
330
2A
102
}
330
2A
100
AcDbVisualStyle
  2
3dWireframe
 70
     5
 71
     0
 72
     2
 73
     0
 90
        0
 40
-0.6
 41
-30.0
 62
     5
 63
     7
 74
     1
 91
        4
 64
     7
 65
   257
 75
     1
175
     1
 42
1.0
 92
        0
 66
   257
 43
1.0
 76
     1
 77
     6
 78
     2
 67
     7
 79
     5
170
     0
171
     0
290
     0
174
     0
 93
        1
 44
0.0
173
     0
291
     0
 45
0.0
1001
ACAD
1000
AcDbSavedByObjectVersion
1070
     0
  0
VISUALSTYLE
  5
32
102
{ACAD_REACTORS
330
2A
102
}
330
2A
100
AcDbVisualStyle
  2
Basic
 70
     7
 71
     1
 72
     0
 73
     1
 90
        0
 40
-0.6
 41
-30.0
 62
     5
 63
     7
 74
     0
 91
        4
 64
     7
 65
   257
 75
     1
175
     1
 42
1.0
 92
        8
 66
     7
 43
1.0
 76
     1
 77
     6
 78
     2
 67
     7
 79
     5
170
     0
171
     0
290
     0
174
     0
 93
        1
 44
0.0
173
     0
291
     1
 45
0.0
1001
ACAD
1000
AcDbSavedByObjectVersion
1070
     0
  0
VISUALSTYLE
  5
36
102
{ACAD_REACTORS
330
2A
102
}
330
2A
100
AcDbVisualStyle
  2
Brighten
 70
    12
 71
     2
 72
     2
 73
     0
 90
        0
 40
-0.6
 41
-30.0
 62
     5
 63
     7
 74
     1
 91
        4
 64
     7
 65
   257
 75
     1
175
     1
 42
1.0
 92
        8
 66
     7
 43
1.0
 76
     1
 77
     6
 78
     2
 67
     7
 79
     5
170
     0
171
     0
290
     0
174
     0
 93
        1
 44
50.0
173
     0
291
     1
 45
0.0
1001
ACAD
1000
AcDbSavedByObjectVersion
1070
     0
  0
VISUALSTYLE
  5
3A
102
{ACAD_REACTORS
330
2A
102
}
330
2A
100
AcDbVisualStyle
  2
ColorChange
 70
    16
 71
     2
 72
     2
 73
     3
 90
        0
 40
-0.6
 41
-30.0
 62
     5
 63
     8
 74
     1
 91
        4
 64
     7
 65
   257
 75
     1
175
     1
 42
1.0
 92
        8
 66
     8
 43
1.0
 76
     1
 77
     6
 78
     2
 67
     7
 79
     5
170
     0
171
     0
290
     0
174
     0
 93
        1
 44
0.0
173
     0
291
     1
 45
0.0
1001
ACAD
1000
AcDbSavedByObjectVersion
1070
     0
  0
VISUALSTYLE
  5
34
102
{ACAD_REACTORS
330
2A
102
}
330
2A
100
AcDbVisualStyle
  2
Conceptual
 70
     9
 71
     3
 72
     2
 73
     0
 90
        0
 40
-0.6
 41
-30.0
 62
     5
 63
     7
 74
     2
 91
        2
 64
     7
 65
   257
 75
     1
175
     1
 42
40.0
 92
        8
 66
     7
 43
1.0
 76
     1
 77
     6
 78
     2
 67
     7
 79
     3
170
     0
171
     0
290
     0
174
     0
 93
        1
 44
0.0
173
     0
291
     0
 45
0.0
1001
ACAD
1000
AcDbSavedByObjectVersion
1070
     0
  0
VISUALSTYLE
  5
35
102
{ACAD_REACTORS
330
2A
102
}
330
2A
100
AcDbVisualStyle
  2
Dim
 70
    11
 71
     2
 72
     2
 73
     0
 90
        0
 40
-0.6
 41
-30.0
 62
     5
 63
     7
 74
     1
 91
        4
 64
     7
 65
   257
 75
     1
175
     1
 42
1.0
 92
        8
 66
     7
 43
1.0
 76
     1
 77
     6
 78
     2
 67
     7
 79
     5
170
     0
171
     0
290
     0
174
     0
 93
        1
 44
-50.0
173
     0
291
     1
 45
0.0
1001
ACAD
1000
AcDbSavedByObjectVersion
1070
     0
  0
VISUALSTYLE
  5
39
102
{ACAD_REACTORS
330
2A
102
}
330
2A
100
AcDbVisualStyle
  2
Facepattern
 70
    15
 71
     2
 72
     2
 73
     0
 90
        0
 40
-0.6
 41
-30.0
 62
     5
 63
     7
 74
     1
 91
        4
 64
     7
 65
   257
 75
     1
175
     1
 42
1.0
 92
        8
 66
     7
 43
1.0
 76
     1
 77
     6
 78
     2
 67
     7
 79
     5
170
     0
171
     0
290
     0
174
     0
 93
        1
 44
0.0
173
     0
291
     1
 45
0.0
1001
ACAD
1000
AcDbSavedByObjectVersion
1070
     0
  0
VISUALSTYLE
  5
2B
102
{ACAD_REACTORS
330
2A
102
}
330
2A
100
AcDbVisualStyle
  2
Flat
 70
     0
 71
     2
 72
     1
 73
     1
 90
        2
 40
-0.6
 41
30.0
 62
     5
 63
     7
 74
     0
 91
        4
 64
     7
 65
   257
 75
     1
175
     1
 42
1.0
 92
        8
 66
     7
 43
1.0
 76
     1
 77
     6
 78
     2
 67
     7
 79
     5
170
     0
171
     0
290
     0
174
     0
 93
       13
 44
0.0
173
     0
291
     1
 45
0.0
1001
ACAD
1000
AcDbSavedByObjectVersion
1070
     0
  0
VISUALSTYLE
  5
2C
102
{ACAD_REACTORS
330
2A
102
}
330
2A
100
AcDbVisualStyle
  2
FlatWithEdges
 70
     1
 71
     2
 72
     1
 73
     1
 90
        2
 40
-0.6
 41
30.0
 62
     5
 63
     7
 74
     1
 91
        4
 64
     7
 65
   257
 75
     1
175
     1
 42
1.0
 92
        0
 66
   257
 43
1.0
 76
     1
 77
     6
 78
     2
 67
     7
 79
     5
170
     0
171
     0
290
     0
174
     0
 93
       13
 44
0.0
173
     0
291
     1
 45
0.0
1001
ACAD
1000
AcDbSavedByObjectVersion
1070
     0
  0
VISUALSTYLE
  5
2D
102
{ACAD_REACTORS
330
2A
102
}
330
2A
100
AcDbVisualStyle
  2
Gouraud
 70
     2
 71
     2
 72
     2
 73
     1
 90
        2
 40
-0.6
 41
30.0
 62
     5
 63
     7
 74
     0
 91
        4
 64
     7
 65
   257
 75
     1
175
     1
 42
1.0
 92
        0
 66
     7
 43
1.0
 76
     1
 77
     6
 78
     2
 67
     7
 79
     5
170
     0
171
     0
290
     0
174
     0
 93
       13
 44
0.0
173
     0
291
     1
 45
0.0
1001
ACAD
1000
AcDbSavedByObjectVersion
1070
     0
  0
VISUALSTYLE
  5
2E
102
{ACAD_REACTORS
330
2A
102
}
330
2A
100
AcDbVisualStyle
  2
GouraudWithEdges
 70
     3
 71
     2
 72
     2
 73
     1
 90
        2
 40
-0.6
 41
30.0
 62
     5
 63
     7
 74
     1
 91
        4
 64
     7
 65
   257
 75
     1
175
     1
 42
1.0
 92
        0
 66
   257
 43
1.0
 76
     1
 77
     6
 78
     2
 67
     7
 79
     5
170
     0
171
     0
290
     0
174
     0
 93
       13
 44
0.0
173
     0
291
     1
 45
0.0
1001
ACAD
1000
AcDbSavedByObjectVersion
1070
     0
  0
VISUALSTYLE
  5
38
102
{ACAD_REACTORS
330
2A
102
}
330
2A
100
AcDbVisualStyle
  2
Linepattern
 70
    14
 71
     2
 72
     2
 73
     0
 90
        0
 40
-0.6
 41
-30.0
 62
     5
 63
     7
 74
     1
 91
        4
 64
     7
 65
   257
 75
     7
175
     7
 42
1.0
 92
        8
 66
     7
 43
1.0
 76
     1
 77
     6
 78
     2
 67
     7
 79
     5
170
     0
171
     0
290
     0
174
     0
 93
        1
 44
0.0
173
     0
291
     1
 45
0.0
1001
ACAD
1000
AcDbSavedByObjectVersion
1070
     0
  0
VISUALSTYLE
  5
33
102
{ACAD_REACTORS
330
2A
102
}
330
2A
100
AcDbVisualStyle
  2
Realistic
 70
     8
 71
     2
 72
     2
 73
     0
 90
        0
 40
-0.6
 41
-30.0
 62
     5
 63
     7
 74
     1
 91
        0
 64
     7
 65
   257
 75
     1
175
     1
 42
1.0
 92
        8
 66
     8
 43
1.0
 76
     1
 77
     6
 78
     2
 67
     7
 79
     5
170
     0
171
     0
290
     0
174
     0
 93
       13
 44
0.0
173
     0
291
     0
 45
0.0
1001
ACAD
1000
AcDbSavedByObjectVersion
1070
     0
  0
VISUALSTYLE
  5
37
102
{ACAD_REACTORS
330
2A
102
}
330
2A
100
AcDbVisualStyle
  2
Thicken
 70
    13
 71
     2
 72
     2
 73
     0
 90
        0
 40
-0.6
 41
-30.0
 62
     5
 63
     7
 74
     1
 91
        4
 64
     7
 65
   257
 75
     1
175
     1
 42
1.0
 92
       12
 66
     7
 43
1.0
 76
     1
 77
     6
 78
     2
 67
     7
 79
     5
170
     0
171
     0
290
     0
174
     0
 93
        1
 44
0.0
173
     0
291
     1
 45
0.0
1001
ACAD
1000
AcDbSavedByObjectVersion
1070
     0
  0
DICTIONARYVAR
  5
146
102
{ACAD_REACTORS
330
145
102
}
330
145
100
DictionaryVariables
280
     0
  1
1:1
  0
DICTIONARYVAR
  5
14A
102
{ACAD_REACTORS
330
145
102
}
330
145
100
DictionaryVariables
280
     0
  1
80.000000
  0
DICTIONARYVAR
  5
149
102
{ACAD_REACTORS
330
145
102
}
330
145
100
DictionaryVariables
280
     0
  1
5.000000
  0
ENDSEC
  0
EOF
