  0
SECTION
  2
HEADER
  9
$ACADVER
  1
AC1015
  9
$ACADMAINTVER
 70
     6
  9
$DWGCODEPAGE
  3
ANSI_1252
  9
$INSBASE
 10
0.0
 20
0.0
 30
0.0
  9
$EXTMIN
 10
0.0
 20
0.0
 30
0.0
  9
$EXTMAX
 10
1682.0
 20
2378.0
 30
0.0
  9
$LIMMIN
 10
0.0
 20
0.0
  9
$LIMMAX
 10
1682.0
 20
2378.0
  9
$ORTHOMODE
 70
     0
  9
$REGENMODE
 70
     1
  9
$FILLMODE
 70
     1
  9
$QTEXTMODE
 70
     0
  9
$MIRRTEXT
 70
     1
  9
$LTSCALE
 40
1.0
  9
$ATTMODE
 70
     1
  9
$TEXTSIZE
 40
2.5
  9
$TRACEWID
 40
1.0
  9
$TEXTSTYLE
  7
Standard
  9
$CLAYER
  8
0
  9
$CELTYPE
  6
ByLayer
  9
$CECOLOR
 62
   256
  9
$CELTSCALE
 40
1.0
  9
$DISPSILH
 70
     0
  9
$DIMSCALE
 40
1.0
  9
$DIMASZ
 40
2.5
  9
$DIMEXO
 40
0.625
  9
$DIMDLI
 40
3.75
  9
$DIMRND
 40
0.0
  9
$DIMDLE
 40
0.0
  9
$DIMEXE
 40
1.25
  9
$DIMTP
 40
0.0
  9
$DIMTM
 40
0.0
  9
$DIMTXT
 40
2.5
  9
$DIMCEN
 40
2.5
  9
$DIMTSZ
 40
0.0
  9
$DIMTOL
 70
     0
  9
$DIMLIM
 70
     0
  9
$DIMTIH
 70
     0
  9
$DIMTOH
 70
     0
  9
$DIMSE1
 70
     0
  9
$DIMSE2
 70
     0
  9
$DIMTAD
 70
     1
  9
$DIMZIN
 70
     8
  9
$DIMBLK
  1

  9
$DIMASO
 70
     1
  9
$DIMSHO
 70
     1
  9
$DIMPOST
  1

  9
$DIMAPOST
  1

  9
$DIMALT
 70
     0
  9
$DIMALTD
 70
     3
  9
$DIMALTF
 40
0.0393700787
  9
$DIMLFAC
 40
1.0
  9
$DIMTOFL
 70
     1
  9
$DIMTVP
 40
0.0
  9
$DIMTIX
 70
     0
  9
$DIMSOXD
 70
     0
  9
$DIMSAH
 70
     0
  9
$DIMBLK1
  1

  9
$DIMBLK2
  1

  9
$DIMSTYLE
  2
ISO-25
  9
$DIMCLRD
 70
     0
  9
$DIMCLRE
 70
     0
  9
$DIMCLRT
 70
     0
  9
$DIMTFAC
 40
1.0
  9
$DIMGAP
 40
0.625
  9
$DIMJUST
 70
     0
  9
$DIMSD1
 70
     0
  9
$DIMSD2
 70
     0
  9
$DIMTOLJ
 70
     0
  9
$DIMTZIN
 70
     8
  9
$DIMALTZ
 70
     0
  9
$DIMALTTZ
 70
     0
  9
$DIMUPT
 70
     0
  9
$DIMDEC
 70
     2
  9
$DIMTDEC
 70
     2
  9
$DIMALTU
 70
     2
  9
$DIMALTTD
 70
     3
  9
$DIMTXSTY
  7
Standard
  9
$DIMAUNIT
 70
     0
  9
$DIMADEC
 70
     0
  9
$DIMALTRND
 40
0.0
  9
$DIMAZIN
 70
     0
  9
$DIMDSEP
 70
    44
  9
$DIMATFIT
 70
     3
  9
$DIMFRAC
 70
     0
  9
$DIMLDRBLK
  1

  9
$DIMLUNIT
 70
     2
  9
$DIMLWD
 70
    -2
  9
$DIMLWE
 70
    -2
  9
$DIMTMOVE
 70
     0
  9
$LUNITS
 70
     2
  9
$LUPREC
 70
     4
  9
$SKETCHINC
 40
1.0
  9
$FILLETRAD
 40
10.0
  9
$AUNITS
 70
     0
  9
$AUPREC
 70
     0
  9
$MENU
  1
.
  9
$ELEVATION
 40
0.0
  9
$PELEVATION
 40
0.0
  9
$THICKNESS
 40
0.0
  9
$LIMCHECK
 70
     0
  9
$CHAMFERA
 40
10.0
  9
$CHAMFERB
 40
10.0
  9
$CHAMFERC
 40
20.0
  9
$CHAMFERD
 40
0.0
  9
$SKPOLY
 70
     0
  9
$TDCREATE
 40
2455733.422981065
  9
$TDUCREATE
 40
2455733.339647731
  9
$TDUPDATE
 40
2455733.422981076
  9
$TDUUPDATE
 40
2455733.339647743
  9
$TDINDWG
 40
0.0000000116
  9
$TDUSRTIMER
 40
0.0000000116
  9
$USRTIMER
 70
     1
  9
$ANGBASE
 50
0.0
  9
$ANGDIR
 70
     0
  9
$PDMODE
 70
     0
  9
$PDSIZE
 40
0.0
  9
$PLINEWID
 40
0.0
  9
$SPLFRAME
 70
     0
  9
$SPLINETYPE
 70
     6
  9
$SPLINESEGS
 70
     8
  9
$HANDSEED
  5
168
  9
$SURFTAB1
 70
     6
  9
$SURFTAB2
 70
     6
  9
$SURFTYPE
 70
     6
  9
$SURFU
 70
     6
  9
$SURFV
 70
     6
  9
$UCSBASE
  2

  9
$UCSNAME
  2

  9
$UCSORG
 10
0.0
 20
0.0
 30
0.0
  9
$UCSXDIR
 10
1.0
 20
0.0
 30
0.0
  9
$UCSYDIR
 10
0.0
 20
1.0
 30
0.0
  9
$UCSORTHOREF
  2

  9
$UCSORTHOVIEW
 70
     0
  9
$UCSORGTOP
 10
0.0
 20
0.0
 30
0.0
  9
$UCSORGBOTTOM
 10
0.0
 20
0.0
 30
0.0
  9
$UCSORGLEFT
 10
0.0
 20
0.0
 30
0.0
  9
$UCSORGRIGHT
 10
0.0
 20
0.0
 30
0.0
  9
$UCSORGFRONT
 10
0.0
 20
0.0
 30
0.0
  9
$UCSORGBACK
 10
0.0
 20
0.0
 30
0.0
  9
$PUCSBASE
  2

  9
$PUCSNAME
  2

  9
$PUCSORG
 10
0.0
 20
0.0
 30
0.0
  9
$PUCSXDIR
 10
1.0
 20
0.0
 30
0.0
  9
$PUCSYDIR
 10
0.0
 20
1.0
 30
0.0
  9
$PUCSORTHOREF
  2

  9
$PUCSORTHOVIEW
 70
     0
  9
$PUCSORGTOP
 10
0.0
 20
0.0
 30
0.0
  9
$PUCSORGBOTTOM
 10
0.0
 20
0.0
 30
0.0
  9
$PUCSORGLEFT
 10
0.0
 20
0.0
 30
0.0
  9
$PUCSORGRIGHT
 10
0.0
 20
0.0
 30
0.0
  9
$PUCSORGFRONT
 10
0.0
 20
0.0
 30
0.0
  9
$PUCSORGBACK
 10
0.0
 20
0.0
 30
0.0
  9
$USERI1
 70
     0
  9
$USERI2
 70
     0
  9
$USERI3
 70
     0
  9
$USERI4
 70
     0
  9
$USERI5
 70
     0
  9
$USERR1
 40
0.0
  9
$USERR2
 40
0.0
  9
$USERR3
 40
0.0
  9
$USERR4
 40
0.0
  9
$USERR5
 40
0.0
  9
$WORLDVIEW
 70
     1
  9
$SHADEDGE
 70
     3
  9
$SHADEDIF
 70
    70
  9
$TILEMODE
 70
     1
  9
$MAXACTVP
 70
    64
  9
$PINSBASE
 10
0.0
 20
0.0
 30
0.0
  9
$PLIMCHECK
 70
     0
  9
$PEXTMIN
 10
0.0
 20
0.0
 30
0.0
  9
$PEXTMAX
 10
1682.0
 20
2378.0
 30
0.0
  9
$PLIMMIN
 10
0.0
 20
0.0
  9
$PLIMMAX
 10
1682.0
 20
2378.0
  9
$UNITMODE
 70
     0
  9
$VISRETAIN
 70
     1
  9
$PLINEGEN
 70
     0
  9
$PSLTSCALE
 70
     1
  9
$TREEDEPTH
 70
  3020
  9
$CMLSTYLE
  2
Standard
  9
$CMLJUST
 70
     0
  9
$CMLSCALE
 40
20.0
  9
$PROXYGRAPHICS
 70
     1
  9
$MEASUREMENT
 70
     1
  9
$CELWEIGHT
370
    -1
  9
$ENDCAPS
280
     0
  9
$JOINSTYLE
280
     0
  9
$LWDISPLAY
290
     0
  9
$INSUNITS
 70
     4
  9
$HYPERLINKBASE
  1

  9
$STYLESHEET
  1

  9
$XEDIT
290
     1
  9
$CEPSNTYPE
380
     0
  9
$PSTYLEMODE
290
     1
  9
$FINGERPRINTGUID
  2
{6038C3B9-DB60-44F7-B19B-2A209DC83B6F}
  9
$VERSIONGUID
  2
{FAEB1C32-E019-11D5-929B-00C0DF256EC4}
  9
$EXTNAMES
290
     1
  9
$PSVPSCALE
 40
0.0
  9
$OLESTARTUP
290
     0
  0
ENDSEC
  0
SECTION
  2
CLASSES
  0
CLASS
  1
ACDBDICTIONARYWDFLT
  2
AcDbDictionaryWithDefault
  3
ObjectDBX Classes
 90
        0
280
     0
281
     0
  0
CLASS
  1
VISUALSTYLE
  2
AcDbVisualStyle
  3
ObjectDBX Classes
 90
     4095
280
     0
281
     0
  0
CLASS
  1
SCALE
  2
AcDbScale
  3
ObjectDBX Classes
 90
     1153
280
     0
281
     0
  0
CLASS
  1
DICTIONARYVAR
  2
AcDbDictionaryVar
  3
ObjectDBX Classes
 90
        0
280
     0
281
     0
  0
CLASS
  1
ACDBPLACEHOLDER
  2
AcDbPlaceHolder
  3
ObjectDBX Classes
 90
        0
280
     0
281
     0
  0
CLASS
  1
LAYOUT
  2
AcDbLayout
  3
ObjectDBX Classes
 90
        0
280
     0
281
     0
  0
ENDSEC
  0
SECTION
  2
TABLES
  0
TABLE
  2
VPORT
  5
8
330
0
100
AcDbSymbolTable
 70
     1
  0
VPORT
  5
29
330
8
100
AcDbSymbolTableRecord
100
AcDbViewportTableRecord
  2
*Active
 70
     0
 10
0.0
 20
0.0
 11
1.0
 21
1.0
 12
344.1869158879
 22
148.5
 13
0.0
 23
0.0
 14
10.0
 24
10.0
 15
10.0
 25
10.0
 16
0.0
 26
0.0
 36
1.0
 17
0.0
 27
0.0
 37
0.0
 40
297.0
 41
1.9729729729
 42
50.0
 43
0.0
 44
0.0
 50
0.0
 51
0.0
 71
     0
 72
   100
 73
     1
 74
     3
 75
     0
 76
     0
 77
     0
 78
     0
281
     0
 65
     1
110
0.0
120
0.0
130
0.0
111
1.0
121
0.0
131
0.0
112
0.0
122
1.0
132
0.0
 79
     0
146
0.0
  0
ENDTAB
  0
TABLE
  2
LTYPE
  5
5
330
0
100
AcDbSymbolTable
 70
     2
  0
LTYPE
  5
14
330
5
100
AcDbSymbolTableRecord
100
AcDbLinetypeTableRecord
  2
ByBlock
 70
     0
  3

 72
    65
 73
     0
 40
0.0
  0
LTYPE
  5
15
330
5
100
AcDbSymbolTableRecord
100
AcDbLinetypeTableRecord
  2
ByLayer
 70
     0
  3

 72
    65
 73
     0
 40
0.0
  0
LTYPE
  5
16
330
5
100
AcDbSymbolTableRecord
100
AcDbLinetypeTableRecord
  2
Continuous
 70
     0
  3
Solid line
 72
    65
 73
     0
 40
0.0
  0
LTYPE
  5
60
330
5
100
AcDbSymbolTableRecord
100
AcDbLinetypeTableRecord
  2
CENTER2
 70
     0
  3
Center (.5x) ___ _ ___ _ ___ _ ___ _ ___ _ ___
 72
    65
 73
     4
 40
28.575
 49
19.05
 74
     4
 75
     0
340
0
 46
0.0
 50
0.0
 44
0.0
 45
0.0
 49
-3.175
 74
     4
 75
     0
340
0
 46
0.0
 50
0.0
 44
0.0
 45
0.0
 49
3.175
 74
     4
 75
     0
340
0
 46
0.0
 50
0.0
 44
0.0
 45
0.0
 49
-3.175
 74
     4
 75
     0
340
0
 46
0.0
 50
0.0
 44
0.0
 45
0.0
  0
ENDTAB
  0
TABLE
  2
LAYER
  5
2
330
0
100
AcDbSymbolTable
 70
     3
  0
LAYER
  5
10
330
2
100
AcDbSymbolTableRecord
100
AcDbLayerTableRecord
  2
0
 70
     0
 62
     7
  6
Continuous
370
    -3
390
F
  0
LAYER
  5
5D
330
2
100
AcDbSymbolTableRecord
100
AcDbLayerTableRecord
  2
Default
 70
     0
 62
     7
  6
Continuous
370
    -3
390
F
  0
LAYER
  5
87
330
2
100
AcDbSymbolTableRecord
100
AcDbLayerTableRecord
  2
20287000_2LB_WT_
 70
     0
 62
     7
  6
Continuous
370
    -3
390
F
  0
ENDTAB
  0
TABLE
  2
STYLE
  5
3
330
0
100
AcDbSymbolTable
 70
     2
  0
STYLE
  5
11
330
3
100
AcDbSymbolTableRecord
100
AcDbTextStyleTableRecord
  2
Standard
 70
     0
 40
0.0
 41
1.0
 50
0.0
 71
     0
 42
2.5
  3
txt
  4

  0
STYLE
  5
157
330
3
100
AcDbSymbolTableRecord
100
AcDbTextStyleTableRecord
  2
SEACAD_seiso_ttf
 70
     0
 40
0.0
 41
1.0
 50
0.0
 71
     0
 42
0.2
  3
seiso.ttf
  4

  0
ENDTAB
  0
TABLE
  2
VIEW
  5
6
330
0
100
AcDbSymbolTable
 70
     0
  0
ENDTAB
  0
TABLE
  2
UCS
  5
7
330
0
100
AcDbSymbolTable
 70
     0
  0
ENDTAB
  0
TABLE
  2
APPID
  5
9
330
0
100
AcDbSymbolTable
 70
     1
  0
APPID
  5
12
330
9
100
AcDbSymbolTableRecord
100
AcDbRegAppTableRecord
  2
ACAD
 70
     0
  0
ENDTAB
  0
TABLE
  2
DIMSTYLE
  5
A
330
0
100
AcDbSymbolTable
 70
     1
100
AcDbDimStyleTable
  0
DIMSTYLE
105
27
330
A
100
AcDbSymbolTableRecord
100
AcDbDimStyleTableRecord
  2
ISO-25
 70
     0
 41
2.5
 42
0.625
 43
3.75
 44
1.25
 73
     0
 74
     0
 77
     1
 78
     8
140
2.5
141
2.5
143
0.0393700787
147
0.625
171
     3
172
     1
271
     2
272
     2
274
     3
278
    44
283
     0
284
     8
340
11
  0
ENDTAB
  0
TABLE
  2
BLOCK_RECORD
  5
1
330
0
100
AcDbSymbolTable
 70
     9
  0
BLOCK_RECORD
  5
1F
330
1
100
AcDbSymbolTableRecord
100
AcDbBlockTableRecord
  2
*Model_Space
340
22
  0
BLOCK_RECORD
  5
1B
330
1
100
AcDbSymbolTableRecord
100
AcDbBlockTableRecord
  2
*Paper_Space
340
1E
  0
BLOCK_RECORD
  5
5E
330
1
100
AcDbSymbolTableRecord
100
AcDbBlockTableRecord
  2
SEANNOT_GROUP
340
0
102
{BLKREFS
331
5F
102
}
  0
BLOCK_RECORD
  5
69
330
1
100
AcDbSymbolTableRecord
100
AcDbBlockTableRecord
  2
SEANNOT_GROUP1
340
0
102
{BLKREFS
331
6A
102
}
  0
BLOCK_RECORD
  5
73
330
1
100
AcDbSymbolTableRecord
100
AcDbBlockTableRecord
  2
SEANNOT_GROUP2
340
0
102
{BLKREFS
331
74
102
}
  0
BLOCK_RECORD
  5
79
330
1
100
AcDbSymbolTableRecord
100
AcDbBlockTableRecord
  2
SEANNOT_GROUP3
340
0
102
{BLKREFS
331
7A
102
}
  0
BLOCK_RECORD
  5
7F
330
1
100
AcDbSymbolTableRecord
100
AcDbBlockTableRecord
  2
SEANNOT_GROUP4
340
0
102
{BLKREFS
331
80
102
}
  0
BLOCK_RECORD
  5
85
330
1
100
AcDbSymbolTableRecord
100
AcDbBlockTableRecord
  2
SE
340
0
102
{BLKREFS
331
86
102
}
  0
BLOCK_RECORD
  5
BB
330
1
100
AcDbSymbolTableRecord
100
AcDbBlockTableRecord
  2
SE1
340
0
102
{BLKREFS
331
BC
102
}
  0
BLOCK_RECORD
  5
FB
330
1
100
AcDbSymbolTableRecord
100
AcDbBlockTableRecord
  2
SE2
340
0
102
{BLKREFS
331
FC
102
}
  0
ENDTAB
  0
ENDSEC
  0
SECTION
  2
BLOCKS
  0
BLOCK
  5
20
330
1F
100
AcDbEntity
  8
0
100
AcDbBlockBegin
  2
*Model_Space
 70
     0
 10
0.0
 20
0.0
 30
0.0
  3
*Model_Space
  1

  0
ENDBLK
  5
21
330
1F
100
AcDbEntity
  8
0
100
AcDbBlockEnd
  0
BLOCK
  5
1C
330
1B
100
AcDbEntity
 67
     1
  8
0
100
AcDbBlockBegin
  2
*Paper_Space
 70
     0
 10
0.0
 20
0.0
 30
0.0
  3
*Paper_Space
  1

  0
ENDBLK
  5
1D
330
1B
100
AcDbEntity
 67
     1
  8
0
100
AcDbBlockEnd
  0
BLOCK
  5
67
330
5E
100
AcDbEntity
  8
0
100
AcDbBlockBegin
  2
SEANNOT_GROUP
 70
     0
 10
0.0
 20
0.0
 30
0.0
  3
SEANNOT_GROUP
  1

  0
LINE
  5
61
330
5E
100
AcDbEntity
  8
Default
  6
CENTER2
 62
     7
100
AcDbLine
 10
60.349999553
 20
500.4754447155
 30
0.0
 11
20.350000447
 21
500.4754447155
 31
0.0
  0
LINE
  5
62
330
5E
100
AcDbEntity
  8
Default
  6
CENTER2
 62
     7
100
AcDbLine
 10
40.35
 20
520.4754442685
 30
0.0
 11
40.35
 21
480.4754451625
 31
0.0
  0
LINE
  5
63
330
5E
100
AcDbEntity
  8
Default
  6
CENTER2
 62
     7
100
AcDbLine
 10
65.3499994412
 20
500.4754447155
 30
0.0
 11
77.85
 21
500.4754447155
 31
0.0
  0
LINE
  5
64
330
5E
100
AcDbEntity
  8
Default
  6
CENTER2
 62
     7
100
AcDbLine
 10
40.35
 20
525.4754441567
 30
0.0
 11
40.35
 21
537.9754447155
 31
0.0
  0
LINE
  5
65
330
5E
100
AcDbEntity
  8
Default
  6
CENTER2
 62
     7
100
AcDbLine
 10
15.3500005588
 20
500.4754447155
 30
0.0
 11
2.85
 21
500.4754447155
 31
0.0
  0
LINE
  5
66
330
5E
100
AcDbEntity
  8
Default
  6
CENTER2
 62
     7
100
AcDbLine
 10
40.35
 20
475.4754452743
 30
0.0
 11
40.35
 21
462.9754447155
 31
0.0
  0
ENDBLK
  5
68
330
5E
100
AcDbEntity
  8
0
100
AcDbBlockEnd
  0
BLOCK
  5
71
330
69
100
AcDbEntity
  8
0
100
AcDbBlockBegin
  2
SEANNOT_GROUP1
 70
     0
 10
0.0
 20
0.0
 30
0.0
  3
SEANNOT_GROUP1
  1

  0
LINE
  5
6B
330
69
100
AcDbEntity
  8
Default
  6
CENTER2
 62
     7
100
AcDbLine
 10
170.349999553
 20
500.4754447155
 30
0.0
 11
130.350000447
 21
500.4754447155
 31
0.0
  0
LINE
  5
6C
330
69
100
AcDbEntity
  8
Default
  6
CENTER2
 62
     7
100
AcDbLine
 10
150.35
 20
520.4754442685
 30
0.0
 11
150.35
 21
480.4754451625
 31
0.0
  0
LINE
  5
6D
330
69
100
AcDbEntity
  8
Default
  6
CENTER2
 62
     7
100
AcDbLine
 10
175.3499994412
 20
500.4754447155
 30
0.0
 11
187.85
 21
500.4754447155
 31
0.0
  0
LINE
  5
6E
330
69
100
AcDbEntity
  8
Default
  6
CENTER2
 62
     7
100
AcDbLine
 10
150.35
 20
525.4754441567
 30
0.0
 11
150.35
 21
537.9754447155
 31
0.0
  0
LINE
  5
6F
330
69
100
AcDbEntity
  8
Default
  6
CENTER2
 62
     7
100
AcDbLine
 10
125.3500005588
 20
500.4754447155
 30
0.0
 11
112.85
 21
500.4754447155
 31
0.0
  0
LINE
  5
70
330
69
100
AcDbEntity
  8
Default
  6
CENTER2
 62
     7
100
AcDbLine
 10
150.35
 20
475.4754452743
 30
0.0
 11
150.35
 21
462.9754447155
 31
0.0
  0
ENDBLK
  5
72
330
69
100
AcDbEntity
  8
0
100
AcDbBlockEnd
  0
BLOCK
  5
77
330
73
100
AcDbEntity
  8
0
100
AcDbBlockBegin
  2
SEANNOT_GROUP2
 70
     0
 10
0.0
 20
0.0
 30
0.0
  3
SEANNOT_GROUP2
  1

  0
LINE
  5
75
330
73
100
AcDbEntity
  8
Default
  6
CENTER2
 62
     7
100
AcDbLine
 10
329.9236113469
 20
500.4754447155
 30
0.0
 11
289.923612241
 21
500.4754447155
 31
0.0
  0
LINE
  5
76
330
73
100
AcDbEntity
  8
Default
  6
CENTER2
 62
     7
100
AcDbLine
 10
309.923611794
 20
520.4754442685
 30
0.0
 11
309.923611794
 21
480.4754451625
 31
0.0
  0
ENDBLK
  5
78
330
73
100
AcDbEntity
  8
0
100
AcDbBlockEnd
  0
BLOCK
  5
7D
330
79
100
AcDbEntity
  8
0
100
AcDbBlockBegin
  2
SEANNOT_GROUP3
 70
     0
 10
0.0
 20
0.0
 30
0.0
  3
SEANNOT_GROUP3
  1

  0
LINE
  5
7B
330
79
100
AcDbEntity
  8
Default
  6
CENTER2
 62
     7
100
AcDbLine
 10
60.349999553
 20
290.1746738907
 30
0.0
 11
20.350000447
 21
290.1746738907
 31
0.0
  0
LINE
  5
7C
330
79
100
AcDbEntity
  8
Default
  6
CENTER2
 62
     7
100
AcDbLine
 10
40.35
 20
310.1746734437
 30
0.0
 11
40.35
 21
270.1746743377
 31
0.0
  0
ENDBLK
  5
7E
330
79
100
AcDbEntity
  8
0
100
AcDbBlockEnd
  0
BLOCK
  5
83
330
7F
100
AcDbEntity
  8
0
100
AcDbBlockBegin
  2
SEANNOT_GROUP4
 70
     0
 10
0.0
 20
0.0
 30
0.0
  3
SEANNOT_GROUP4
  1

  0
LINE
  5
81
330
7F
100
AcDbEntity
  8
Default
  6
CENTER2
 62
     7
100
AcDbLine
 10
170.349999553
 20
290.1746738907
 30
0.0
 11
130.350000447
 21
290.1746738907
 31
0.0
  0
LINE
  5
82
330
7F
100
AcDbEntity
  8
Default
  6
CENTER2
 62
     7
100
AcDbLine
 10
150.35
 20
310.1746734437
 30
0.0
 11
150.35
 21
270.1746743377
 31
0.0
  0
ENDBLK
  5
84
330
7F
100
AcDbEntity
  8
0
100
AcDbBlockEnd
  0
BLOCK
  5
B9
330
85
100
AcDbEntity
  8
0
100
AcDbBlockBegin
  2
SE
 70
     0
 10
0.0
 20
0.0
 30
0.0
  3
SE
  1

  0
SPLINE
  5
88
330
85
100
AcDbEntity
  8
20287000_2LB_WT_
  6
Continuous
 62
     7
100
AcDbSpline
210
0.0
220
0.0
230
1.0
 70
     8
 71
     3
 72
    48
 73
    44
 74
     0
 42
0.0000000000472459
 43
0.0000000001
 40
0.0
 40
0.0
 40
0.0
 40
0.0
 40
0.1249999999423588
 40
0.2499999999613719
 40
0.2812499999661013
 40
0.3124999999708308
 40
0.3437499999756076
 40
0.3593749999779489
 40
0.3749999999803371
 40
0.3906249999827258
 40
0.3984374999838962
 40
0.4062499999850671
 40
0.4218749999874552
 40
0.4296874999886261
 40
0.4335937499892349
 40
0.4374999999898439
 40
0.4531249999921846
 40
0.4609374999934024
 40
0.4687499999945733
 40
0.4765624999956014
 40
0.4843749999971038
 40
0.4999999999991609
 40
0.5078125000006634
 40
0.5156250000016914
 40
0.5312500000042218
 40
0.5351562500044998
 40
0.53906250000525
 40
0.5468750000062791
 40
0.5625000000088095
 40
0.5664062500095608
 40
0.5703125000098376
 40
0.57812500001134
 40
0.5859375000123681
 40
0.5937500000133972
 40
0.6093750000159276
 40
0.6250000000184582
 40
0.6406250000205144
 40
0.6562500000230459
 40
0.6875000000276325
 40
0.7187500000326944
 40
0.7500000000372811
 40
0.8750000000561049
 40
1.0
 40
1.0
 40
1.0
 40
1.0
 10
136.9625671337028
 20
425.7032904419843
 30
0.0
 10
136.3348662631206
 20
434.4847908792553
 30
0.0
 10
135.2429976786214
 20
452.0544973805201
 30
0.0
 10
134.3823031827721
 20
471.830558031429
 30
0.0
 10
133.8482423672175
 20
485.0124613604406
 30
0.0
 10
133.5992526092727
 20
491.6036762246073
 30
0.0
 10
133.4550678934046
 20
497.0967684056646
 30
0.0
 10
133.490144781037
 20
501.4907708193045
 30
0.0
 10
133.657480752475
 20
504.7901528462618
 30
0.0
 10
133.9997720836458
 20
507.5309756888652
 30
0.0
 10
134.4648777031322
 20
509.6783734561013
 30
0.0
 10
135.0932627733742
 20
511.8076036627448
 30
0.0
 10
135.9893228395443
 20
513.8148107396769
 30
0.0
 10
137.0424411163484
 20
515.4164711635339
 30
0.0
 10
137.7284951125917
 20
516.2874731250338
 30
0.0
 10
138.8431782495823
 20
517.5429956601077
 30
0.0
 10
140.3150084714628
 20
518.7787296017539
 30
0.0
 10
142.2488810358251
 20
519.9146594732357
 30
0.0
 10
143.7824350032421
 20
520.6044982894205
 30
0.0
 10
145.3669158978634
 20
521.1337851054564
 30
0.0
 10
147.570247806323
 20
521.6400884623431
 30
0.0
 10
149.8032288482804
 20
521.8351943658508
 30
0.0
 10
152.049981548156
 20
521.7341383826673
 30
0.0
 10
154.2881992330715
 20
521.4277474353531
 30
0.0
 10
156.1573400957722
 20
520.9023748190427
 30
0.0
 10
157.7019858923234
 20
520.2516515639412
 30
0.0
 10
158.7168049726589
 20
519.7596728389948
 30
0.0
 10
160.3912638411686
 20
518.7727125011974
 30
0.0
 10
161.8677253656527
 20
517.5330570612452
 30
0.0
 10
162.982271901347
 20
516.2744767923743
 30
0.0
 10
163.6671098177242
 20
515.4030888363383
 30
0.0
 10
164.4222100431966
 20
514.2517183276528
 30
0.0
 10
165.1770113976955
 20
512.7733742865961
 30
0.0
 10
165.984783359558
 20
510.6997210279286
 30
0.0
 10
166.6371818777405
 20
508.0449269392985
 30
0.0
 10
167.0454608943147
 20
504.755321019487
 30
0.0
 10
167.210558224891
 20
501.4593432730219
 30
0.0
 10
167.2444592779204
 20
497.0673422892662
 30
0.0
 10
167.0997922215072
 20
491.5765053348553
 30
0.0
 10
166.8507767613129
 20
484.9877581235793
 30
0.0
 10
166.3168970876026
 20
471.8115059598002
 30
0.0
 10
165.4563632760201
 20
452.0429320893513
 30
0.0
 10
164.3649403490815
 20
434.4814659569352
 30
0.0
 10
163.7374919386557
 20
425.7033692698353
 30
0.0
  0
ARC
  5
89
330
85
100
AcDbEntity
  8
20287000_2LB_WT_
  6
Continuous
 62
     7
100
AcDbCircle
 10
160.1937514544
 20
425.9782997201
 30
0.0
 40
3.554389310712512
100
AcDbArc
 50
290.4727767202
 51
355.5637654955
  0
ARC
  5
8A
330
85
100
AcDbEntity
  8
20287000_2LB_WT_
  6
Continuous
 62
     7
100
AcDbCircle
 10
150.3499440511
 20
450.7385957129
 30
0.0
 40
30.19900687900505
100
AcDbArc
 50
248.4619717443
 51
291.5388016924
  0
ARC
  5
8B
330
85
100
AcDbEntity
  8
20287000_2LB_WT_
  6
Continuous
 62
     7
100
AcDbCircle
 10
140.5084873136
 20
425.9798699496
 30
0.0
 40
3.556690335966688
100
AcDbArc
 50
184.4600040683
 51
249.5071607523
  0
ARC
  5
8C
330
85
100
AcDbEntity
  8
20287000_2LB_WT_
  6
Continuous
 62
     7
100
AcDbCircle
 10
140.535352074
 20
425.9501379715
 30
0.0
 40
5.036127190444748
100
AcDbArc
 50
184.0762270338
 51
248.9074366066
  0
ARC
  5
8D
330
85
100
AcDbEntity
  8
20287000_2LB_WT_
  6
Continuous
 62
     7
100
AcDbCircle
 10
150.3498765196
 20
450.4516227212
 30
0.0
 40
31.42986091211328
100
AcDbArc
 50
248.2885901119
 51
291.71254501
  0
ARC
  5
8E
330
85
100
AcDbEntity
  8
20287000_2LB_WT_
  6
Continuous
 62
     7
100
AcDbCircle
 10
160.1661907316
 20
425.9484614784
 30
0.0
 40
5.033912216545769
100
AcDbArc
 50
291.0875111308
 51
355.9426876342
  0
SPLINE
  5
8F
330
85
100
AcDbEntity
  8
20287000_2LB_WT_
  6
Continuous
 62
     7
100
AcDbSpline
210
0.0
220
0.0
230
1.0
 70
     8
 71
     3
 72
    14
 73
    10
 74
     0
 42
0.0000000002671127
 43
0.0000000001
 40
0.0
 40
0.0
 40
0.0
 40
0.0
 40
0.0625
 40
0.0625
 40
0.1250000000000001
 40
0.1250000000000001
 40
0.1875000000000001
 40
0.1875000000000001
 40
0.2351897162167159
 40
0.2351897162167159
 40
0.2351897162167159
 40
0.2351897162167159
 10
127.2923500760642
 20
500.339626885383
 30
0.0
 10
127.6204520768132
 20
500.3433202926787
 30
0.0
 10
127.9485721073797
 20
500.33936246091
 30
0.0
 10
128.603050072703
 20
500.1122827137541
 30
0.0
 10
128.9287285546532
 20
499.8860991562233
 30
0.0
 10
129.5645732666869
 20
498.6584560563681
 30
0.0
 10
129.8594781699806
 20
497.6454092130767
 30
0.0
 10
130.351602831586
 20
495.3919428332442
 30
0.0
 10
130.5546333836562
 20
494.2870642734021
 30
0.0
 10
130.7486438820069
 20
493.1112002911086
 30
0.0
  0
SPLINE
  5
90
330
85
100
AcDbEntity
  8
20287000_2LB_WT_
  6
Continuous
 62
     7
100
AcDbSpline
210
0.0
220
0.0
230
1.0
 70
     8
 71
     3
 72
     8
 73
     4
 74
     0
 42
0.0000000001323046
 43
0.0000000001
 40
0.2351897162167159
 40
0.2351897162167159
 40
0.2351897162167159
 40
0.2351897162167159
 40
0.2422616242241516
 40
0.2422616242241516
 40
0.2422616242241516
 40
0.2422616242241516
 10
130.7486438820069
 20
493.1112002911086
 30
0.0
 10
130.7774136987652
 20
492.9368314214293
 30
0.0
 10
130.8059851652275
 20
492.7609015877026
 30
0.0
 10
130.8343613439939
 20
492.5836018808533
 30
0.0
  0
SPLINE
  5
91
330
85
100
AcDbEntity
  8
20287000_2LB_WT_
  6
Continuous
 62
     7
100
AcDbSpline
210
0.0
220
0.0
230
1.0
 70
     8
 71
     3
 72
     8
 73
     4
 74
     0
 42
0.0000000001325514
 43
0.0000000001
 40
0.7573247889536693
 40
0.7573247889536693
 40
0.7573247889536693
 40
0.7573247889536693
 40
0.7641748856936922
 40
0.7641748856936922
 40
0.7641748856936922
 40
0.7641748856936922
 10
169.8682030513395
 20
492.6017068340749
 30
0.0
 10
169.8956461188122
 20
492.7730542223655
 30
0.0
 10
169.9232738467124
 20
492.9431464744436
 30
0.0
 10
169.9510884393454
 20
493.1118038845494
 30
0.0
  0
SPLINE
  5
92
330
85
100
AcDbEntity
  8
20287000_2LB_WT_
  6
Continuous
 62
     7
100
AcDbSpline
210
0.0
220
0.0
230
1.0
 70
     8
 71
     3
 72
    16
 73
    12
 74
     0
 42
0.0000000002676841
 43
0.0000000001
 40
0.7641748856936922
 40
0.7641748856936922
 40
0.7641748856936922
 40
0.7641748856936922
 40
0.8124999999999993
 40
0.8124999999999993
 40
0.8437499999999994
 40
0.8437499999999994
 40
0.8749999999999994
 40
0.8749999999999994
 40
0.9374999999999998
 40
0.9374999999999998
 40
1.0
 40
1.0
 40
1.0
 40
1.0
 10
169.9510884393454
 20
493.1118038845494
 30
0.0
 10
170.147310977419
 20
494.3016248361789
 30
0.0
 10
170.3528334462431
 20
495.420036213764
 30
0.0
 10
170.7078476582695
 20
497.0401989027067
 30
0.0
 10
170.8529171072947
 20
497.6236969460423
 30
0.0
 10
171.1493389813594
 20
498.5976056993764
 30
0.0
 10
171.3029294886105
 20
498.9928700231933
 30
0.0
 10
171.7753657368256
 20
499.9043686996503
 30
0.0
 10
172.102888947664
 20
500.1335912601118
 30
0.0
 10
172.7511849155449
 20
500.3654619837869
 30
0.0
 10
173.0768454854557
 20
500.376124199943
 30
0.0
 10
173.4008942801607
 20
500.3809525345505
 30
0.0
  0
ARC
  5
93
330
85
100
AcDbEntity
  8
20287000_2LB_WT_
  6
Continuous
 62
     7
100
AcDbCircle
 10
160.1783089741
 20
425.9486185491
 30
0.0
 40
5.016312390680055
100
AcDbArc
 50
345.9896951994
 51
356.1809960328
  0
SPLINE
  5
94
330
85
100
AcDbEntity
  8
20287000_2LB_WT_
  6
Continuous
 62
     7
100
AcDbSpline
210
0.0
220
0.0
230
1.0
 70
     8
 71
     3
 72
    34
 73
    30
 74
     0
 42
0.0000000001475955
 43
0.0000000001
 40
0.0
 40
0.0
 40
0.0
 40
0.0
 40
0.0580939000460802
 40
0.111040097853997
 40
0.1588356081243146
 40
0.2014894508884634
 40
0.2389984472707466
 40
0.2648577016364723
 40
0.2875372835645894
 40
0.3078982011495533
 40
0.3282896536436684
 40
0.3488444640882495
 40
0.4426267730035174
 40
0.5398929143324404
 40
0.5968277482295499
 40
0.6550095594674176
 40
0.7146723598777229
 40
0.7757208606244301
 40
0.8156262077469834
 40
0.8522506153966961
 40
0.8856934413850835
 40
0.9076742457257069
 40
0.9249212423078105
 40
0.9296128075008248
 40
0.9362981533872915
 40
0.9466898730618915
 40
0.9607672723819723
 40
0.9785262375476992
 40
1.0
 40
1.0
 40
1.0
 40
1.0
 10
165.1810162051022
 20
425.5801857094299
 30
0.0
 10
165.2853327260281
 20
427.0483775096279
 30
0.0
 10
165.4526957420258
 20
429.4096049308761
 30
0.0
 10
165.7064174257649
 20
433.1279856450857
 30
0.0
 10
165.923283772934
 20
436.4063023786518
 30
0.0
 10
166.1119345348948
 20
439.3499799463696
 30
0.0
 10
166.2636983296269
 20
441.7855174770103
 30
0.0
 10
166.3842714268011
 20
443.7630992850784
 30
0.0
 10
166.4792228620886
 20
445.3465120988905
 30
0.0
 10
166.5653747008878
 20
446.8043401032871
 30
0.0
 10
166.6475091215923
 20
448.2133580672414
 30
0.0
 10
166.8255510891773
 20
451.3098686169176
 30
0.0
 10
167.0956391657382
 20
456.1730293698244
 30
0.0
 10
167.4027690225482
 20
461.8679257371021
 30
0.0
 10
167.6674201179332
 20
466.7390865144713
 30
0.0
 10
167.890750760965
 20
470.7428967228661
 30
0.0
 10
168.1288225990652
 20
474.82767537118
 30
0.0
 10
168.3646764455461
 20
478.4746401143606
 30
0.0
 10
168.5974843988977
 20
481.5668787571858
 30
0.0
 10
168.8093918206181
 20
484.0071723017126
 30
0.0
 10
169.0088590663862
 20
486.0122676606917
 30
0.0
 10
169.1811504211811
 20
487.5620231709102
 30
0.0
 10
169.2914514850386
 20
488.4800886235146
 30
0.0
 10
169.3656227287289
 20
489.0719581916397
 30
0.0
 10
169.4224269129503
 20
489.5152620052311
 30
0.0
 10
169.5054860911795
 20
490.1424251729338
 30
0.0
 10
169.6210277404136
 20
490.9745677962907
 30
0.0
 10
169.7760835807899
 20
492.0276045401868
 30
0.0
 10
169.8854156403987
 20
492.7048263174287
 30
0.0
 10
169.9568291826209
 20
493.1448621458983
 30
0.0
  0
SPLINE
  5
95
330
85
100
AcDbEntity
  8
20287000_2LB_WT_
  6
Continuous
 62
     7
100
AcDbSpline
210
0.0
220
0.0
230
1.0
 70
     8
 71
     3
 72
    37
 73
    33
 74
     0
 42
0.0000000001476274
 43
0.0000000001
 40
0.0
 40
0.0
 40
0.0
 40
0.0
 40
0.0192772598015568
 40
0.0349979794147734
 40
0.0471854105825061
 40
0.0569558985525517
 40
0.0672928866284412
 40
0.089748039763423
 40
0.1139247007759602
 40
0.1424011928254769
 40
0.1681039549085307
 40
0.19359770420609
 40
0.2213094357808705
 40
0.2512776626048097
 40
0.2835120509545376
 40
0.3357565145285242
 40
0.3861554791232079
 40
0.4346461277524317
 40
0.5004380321630223
 40
0.5620781811426938
 40
0.5805842606576026
 40
0.5986735320660231
 40
0.6163459784182189
 40
0.635383438009245
 40
0.6576559621434576
 40
0.6907640026187665
 40
0.729143090226623
 40
0.7727916549083663
 40
0.8217042190749185
 40
0.8758722846862553
 40
0.9353032792403583
 40
1.0
 40
1.0
 40
1.0
 40
1.0
 10
130.7451522467277
 20
493.1304342825567
 30
0.0
 10
130.8087619844112
 20
492.7392458102922
 30
0.0
 10
130.9055961323669
 20
492.1409079336911
 30
0.0
 10
131.0431939921399
 20
491.219066980119
 30
0.0
 10
131.1477426735948
 20
490.4820498748792
 30
0.0
 10
131.2361201828264
 20
489.830030149722
 30
0.0
 10
131.3493979735038
 20
488.9621580183826
 30
0.0
 10
131.4945885718832
 20
487.7766438707547
 30
0.0
 10
131.6731956681922
 20
486.1778157884568
 30
0.0
 10
131.8439171449347
 20
484.4770010314944
 30
0.0
 10
132.00141558692
 20
482.7235143134216
 30
0.0
 10
132.1444032724646
 20
480.9676852504164
 30
0.0
 10
132.2836649540587
 20
479.0986116545183
 30
0.0
 10
132.4230788838876
 20
477.0637014296261
 30
0.0
 10
132.5895916658001
 20
474.4601414670483
 30
0.0
 10
132.7726794115572
 20
471.3787106714243
 30
0.0
 10
132.9673648219221
 20
467.9191319509562
 30
0.0
 10
133.1738390023783
 20
464.1441178934062
 30
0.0
 10
133.3919658532685
 20
460.1070201594652
 30
0.0
 10
133.5739569489273
 20
456.7553458478473
 30
0.0
 10
133.6980881456424
 20
454.498539108787
 30
0.0
 10
133.7671429764639
 20
453.2516717308552
 30
0.0
 10
133.837432461652
 20
451.9924791660204
 30
0.0
 10
133.9137916791938
 20
450.6370745526085
 30
0.0
 10
134.0112485257336
 20
448.9268831961908
 30
0.0
 10
134.1362061950893
 20
446.7722588348362
 30
0.0
 10
134.2934067305158
 20
444.1262613972175
 30
0.0
 10
134.4771465726279
 20
441.1184473030524
 30
0.0
 10
134.6900336851103
 20
437.7430477478167
 30
0.0
 10
134.9330584207161
 20
434.0281024623447
 30
0.0
 10
135.216154476255
 20
429.8544902700338
 30
0.0
 10
135.4030066688246
 20
427.214959112093
 30
0.0
 10
135.5190603768056
 20
425.5800951931816
 30
0.0
  0
ARC
  5
96
330
85
100
AcDbEntity
  8
20287000_2LB_WT_
  6
Continuous
 62
     7
100
AcDbCircle
 10
26.3681332193
 20
494.8773767021
 30
0.0
 40
1.54996551817767
100
AcDbArc
 50
181.4397108578
 51
254.9405546187
  0
LINE
  5
97
330
85
100
AcDbEntity
  8
20287000_2LB_WT_
  6
Continuous
 62
     7
100
AcDbLine
 10
24.8186570003
 20
494.8384337401
 30
0.0
 11
24.8186569671
 21
507.0017154718
 31
0.0
  0
ARC
  5
98
330
85
100
AcDbEntity
  8
20287000_2LB_WT_
  6
Continuous
 62
     7
100
AcDbCircle
 10
26.3815054151
 20
506.9491324026
 30
0.0
 40
1.563732486500597
100
AcDbArc
 50
102.1146926861
 51
178.0729722252
  0
ARC
  5
99
330
85
100
AcDbEntity
  8
20287000_2LB_WT_
  6
Continuous
 62
     7
100
AcDbCircle
 10
54.3206156808
 20
506.9509065872
 30
0.0
 40
1.56155511944382
100
AcDbArc
 50
1.8640428453
 51
77.9471664004
  0
LINE
  5
9A
330
85
100
AcDbEntity
  8
20287000_2LB_WT_
  6
Continuous
 62
     7
100
AcDbLine
 10
55.8813453321
 20
507.001700772
 30
0.0
 11
55.881343002
 21
494.8384346411
 31
0.0
  0
ARC
  5
9B
330
85
100
AcDbEntity
  8
20287000_2LB_WT_
  6
Continuous
 62
     7
100
AcDbCircle
 10
54.329992458
 20
494.8788391789
 30
0.0
 40
1.551876617818078
100
AcDbArc
 50
285.112481125
 51
358.5080829935
  0
ARC
  5
9C
330
85
100
AcDbEntity
  8
20287000_2LB_WT_
  6
Continuous
 62
     7
100
AcDbCircle
 10
40.3500256815
 20
559.8966141848
 30
0.0
 40
68.05359248991888
100
AcDbArc
 50
257.7972482534
 51
259.8483854191
  0
ARC
  5
9D
330
85
100
AcDbEntity
  8
20287000_2LB_WT_
  6
Continuous
 62
     7
100
AcDbCircle
 10
40.3500256815
 20
559.8966141848
 30
0.0
 40
68.05359248991888
100
AcDbArc
 50
280.1515449287
 51
282.2027154337
  0
ARC
  5
9E
330
85
100
AcDbEntity
  8
20287000_2LB_WT_
  6
Continuous
 62
     7
100
AcDbCircle
 10
36.7473574299
 20
526.5662574228
 30
0.0
 40
33.21625967882567
100
AcDbArc
 50
254.9097189468
 51
276.2265611496
  0
SPLINE
  5
9F
330
85
100
AcDbEntity
  8
20287000_2LB_WT_
  6
Continuous
 62
     7
100
AcDbSpline
210
0.0
220
0.0
230
1.0
 70
     8
 71
     3
 72
    19
 73
    15
 74
     0
 42
0.0000000004454226
 43
0.0000000001
 40
0.0
 40
0.0
 40
0.0
 40
0.0
 40
0.0197856208503616
 40
0.0395401083475773
 40
0.0593532160417157
 40
0.0894235061669145
 40
0.1195487854096714
 40
0.1810521410042706
 40
0.2441363461368936
 40
0.3086978263788467
 40
0.3739562799327039
 40
0.4388410685854569
 40
0.5029398798633835
 40
0.5655207906223355
 40
0.5655207906223355
 40
0.5655207906223355
 40
0.5655207906223355
 10
40.34999999999999
 20
493.5459474065944
 30
0.0
 10
40.60707537051325
 20
493.5466501720073
 30
0.0
 10
41.12082159462535
 20
493.5480545970088
 30
0.0
 10
41.88852342867294
 20
493.559406547402
 30
0.0
 10
42.78090517228181
 20
493.5805268243933
 30
0.0
 10
43.78928293330503
 20
493.6167951014164
 30
0.0
 10
45.27470110751652
 20
493.6914028691273
 30
0.0
 10
47.04748572045251
 20
493.819351949422
 30
0.0
 10
48.93612856783388
 20
494.0083767228216
 30
0.0
 10
50.51315473140784
 20
494.2060489344784
 30
0.0
 10
51.69491764087382
 20
494.3770033914737
 30
0.0
 10
52.42649700522347
 20
494.4867669848272
 30
0.0
 10
52.67987947425787
 20
494.5111108845121
 30
0.0
 10
52.52824420942594
 20
494.4653303813528
 30
0.0
 10
52.37542598460521
 20
494.4289217649977
 30
0.0
  0
LINE
  5
A0
330
85
100
AcDbEntity
  8
20287000_2LB_WT_
  6
Continuous
 62
     7
100
AcDbLine
 10
27.1862461892
 20
508.6736661905
 30
0.0
 11
26.0533538031
 21
508.4778901155
 31
0.0
  0
LINE
  5
A1
330
85
100
AcDbEntity
  8
20287000_2LB_WT_
  6
Continuous
 62
     7
100
AcDbLine
 10
54.6466615479
 20
508.4778871853
 30
0.0
 11
53.5137141278
 21
508.673672895
 31
0.0
  0
ARC
  5
A2
330
85
100
AcDbEntity
  8
20287000_2LB_WT_
  6
Continuous
 62
     7
100
AcDbCircle
 10
40.3499998474
 20
429.8610583442
 30
0.0
 40
79.90160106864381
100
AcDbArc
 50
82.6051751757
 51
97.3948293489
  0
SPLINE
  5
A3
330
85
100
AcDbEntity
  8
20287000_2LB_WT_
  6
Continuous
 62
     7
100
AcDbSpline
210
0.0
220
0.0
230
1.0
 70
     8
 71
     3
 72
     8
 73
     4
 74
     0
 42
0.0000000210207788
 43
0.0000000001
 40
0.8773134768888289
 40
0.8773134768888289
 40
0.8773134768888289
 40
0.8773134768888289
 40
1.0
 40
1.0
 40
1.0
 40
1.0
 10
50.68079644129539
 20
509.0682522275411
 30
0.0
 10
50.66586681720155
 20
509.0863795351252
 30
0.0
 10
50.65001595407025
 20
509.0960107498783
 30
0.0
 10
50.63381727136999
 20
509.0981011494234
 30
0.0
  0
SPLINE
  5
A4
330
85
100
AcDbEntity
  8
20287000_2LB_WT_
  6
Continuous
 62
     7
100
AcDbSpline
210
0.0
220
0.0
230
1.0
 70
     8
 71
     3
 72
     8
 73
     4
 74
     0
 42
0.0000000209968915
 43
0.0000000001
 40
0.8772103930931531
 40
0.8772103930931531
 40
0.8772103930931531
 40
0.8772103930931531
 40
1.0
 40
1.0
 40
1.0
 40
1.0
 10
30.01917968166613
 20
509.0680903806182
 30
0.0
 10
30.0341131971532
 20
509.0862867137075
 30
0.0
 10
30.04996403581682
 20
509.0960059926969
 30
0.0
 10
30.0661761663
 20
509.0981003373304
 30
0.0
  0
ARC
  5
A5
330
85
100
AcDbEntity
  8
20287000_2LB_WT_
  6
Continuous
 62
     7
100
AcDbCircle
 10
40.0049953505
 20
426.2869115839
 30
0.0
 40
83.46674153342211
100
AcDbArc
 50
80.5207921533
 51
82.6514459028
  0
ARC
  5
A6
330
85
100
AcDbEntity
  8
20287000_2LB_WT_
  6
Continuous
 62
     7
100
AcDbCircle
 10
40.6989997197
 20
426.2574347801
 30
0.0
 40
83.49644197570404
100
AcDbArc
 50
97.3487188571
 51
99.4787200563
  0
ARC
  5
A7
330
85
100
AcDbEntity
  8
20287000_2LB_WT_
  6
Continuous
 62
     7
100
AcDbCircle
 10
150.35
 20
500.4754447155
 30
0.0
 40
34.0
100
AcDbArc
 50
0.0
 51
238.8440539534
  0
ARC
  5
A8
330
85
100
AcDbEntity
  8
20287000_2LB_WT_
  6
Continuous
 62
     7
100
AcDbCircle
 10
150.35
 20
500.4754447155
 30
0.0
 40
34.0
100
AcDbArc
 50
301.142310348
 51
0.0
  0
ARC
  5
A9
330
85
100
AcDbEntity
  8
20287000_2LB_WT_
  6
Continuous
 62
     7
100
AcDbCircle
 10
150.35
 20
500.4754447155
 30
0.0
 40
33.50000002672
100
AcDbArc
 50
301.7644337488
 51
0.0
  0
ARC
  5
AA
330
85
100
AcDbEntity
  8
20287000_2LB_WT_
  6
Continuous
 62
     7
100
AcDbCircle
 10
150.35
 20
500.4754447155
 30
0.0
 40
23.45000549334
100
AcDbArc
 50
0.0
 51
217.1176457033
  0
ARC
  5
AB
330
85
100
AcDbEntity
  8
20287000_2LB_WT_
  6
Continuous
 62
     7
100
AcDbCircle
 10
150.35
 20
500.4754447155
 30
0.0
 40
23.45000549334
100
AcDbArc
 50
323.0499205867
 51
0.0
  0
CIRCLE
  5
AC
330
85
100
AcDbEntity
  8
20287000_2LB_WT_
  6
Continuous
 62
     7
100
AcDbCircle
 10
40.35
 20
500.4754447155
 30
0.0
 40
34.0
  0
CIRCLE
  5
AD
330
85
100
AcDbEntity
  8
20287000_2LB_WT_
  6
Continuous
 62
     7
100
AcDbCircle
 10
40.35
 20
500.4754447155
 30
0.0
 40
23.40000547732
  0
ELLIPSE
  5
AE
330
85
100
AcDbEntity
  8
20287000_2LB_WT_
  6
Continuous
 62
     7
100
AcDbEllipse
 10
40.35
 20
488.1568074507
 30
0.0
 11
12.00000000000007
 21
6.938893903907228E-15
 31
0.0
210
0.0
220
0.0
230
1.0
 40
0.2249510543
 41
1.981934189117257
 42
3.552973594182146
  0
LINE
  5
AF
330
85
100
AcDbEntity
  8
20287000_2LB_WT_
  6
Continuous
 62
     7
100
AcDbLine
 10
35.5541684767
 20
493.3714354294
 30
0.0
 11
35.5541684767
 21
490.6312690485
 31
0.0
  0
LINE
  5
B0
330
85
100
AcDbEntity
  8
20287000_2LB_WT_
  6
Continuous
 62
     7
100
AcDbLine
 10
45.1458315233
 20
493.7075304149
 30
0.0
 11
45.1458315233
 21
490.6312690485
 31
0.0
  0
ELLIPSE
  5
B1
330
85
100
AcDbEntity
  8
20287000_2LB_WT_
  6
Continuous
 62
     7
100
AcDbEllipse
 10
40.35
 20
488.1568074507
 30
0.0
 11
-12.00000000000012
 21
-3.469446951953614E-15
 31
0.0
210
0.0
220
0.0
230
1.0
 40
0.2249510543
 41
2.730211712997445
 42
4.301251118062328
  0
ARC
  5
B2
330
85
100
AcDbEntity
  8
20287000_2LB_WT_
  6
Continuous
 62
     7
100
AcDbCircle
 10
40.35
 20
510.7925175141
 30
0.0
 40
20.72380128480701
100
AcDbArc
 50
256.6195130495
 51
283.3804869505
  0
ELLIPSE
  5
B3
330
85
100
AcDbEntity
  8
20287000_2LB_WT_
  6
Continuous
 62
     7
100
AcDbEllipse
 10
40.35
 20
487.4817440677
 30
0.0
 11
10.8
 21
3.469446951953614E-15
 31
0.0
210
0.0
220
0.0
230
1.0
 40
0.2249510543
 41
0.0
 42
6.283185307179586
  0
ELLIPSE
  5
B4
330
85
100
AcDbEntity
  8
20287000_2LB_WT_
  6
Continuous
 62
     7
100
AcDbEllipse
 10
40.35
 20
487.4817440677
 30
0.0
 11
10.05
 21
0.0
 31
0.0
210
0.0
220
0.0
230
1.0
 40
0.2249510543
 41
0.0
 42
6.283185307179586
  0
LINE
  5
B5
330
85
100
AcDbEntity
  8
20287000_2LB_WT_
  6
Continuous
 62
     7
100
AcDbLine
 10
52.35
 20
488.1568074507
 30
0.0
 11
52.35
 21
494.4729376168
 31
0.0
  0
LINE
  5
B6
330
85
100
AcDbEntity
  8
20287000_2LB_WT_
  6
Continuous
 62
     7
100
AcDbLine
 10
28.35
 20
494.4729313351
 30
0.0
 11
28.35
 21
488.1568074507
 31
0.0
  0
LINE
  5
B7
330
85
100
AcDbEntity
  8
20287000_2LB_WT_
  6
Continuous
 62
     7
100
AcDbLine
 10
29.3511660874
 20
487.0773786371
 30
0.0
 11
30.4510494787
 21
486.5102581354
 31
0.0
  0
LINE
  5
B8
330
85
100
AcDbEntity
  8
20287000_2LB_WT_
  6
Continuous
 62
     7
100
AcDbLine
 10
50.2489505213
 20
486.5102581354
 30
0.0
 11
51.3488339126
 21
487.0773786371
 31
0.0
  0
ENDBLK
  5
BA
330
85
100
AcDbEntity
  8
0
100
AcDbBlockEnd
  0
BLOCK
  5
F9
330
BB
100
AcDbEntity
  8
0
100
AcDbBlockBegin
  2
SE1
 70
     0
 10
0.0
 20
0.0
 30
0.0
  3
SE1
  1

  0
LINE
  5
BD
330
BB
100
AcDbEntity
  8
20287000_2LB_WT_
  6
Continuous
 62
     7
100
AcDbLine
 10
344.923611794
 20
478.4947123882
 30
0.0
 11
344.923611794
 21
492.0921078619
 31
0.0
  0
LINE
  5
BE
330
BB
100
AcDbEntity
  8
20287000_2LB_WT_
  6
Continuous
 62
     7
100
AcDbLine
 10
344.923611794
 20
509.7628912721
 30
0.0
 11
344.923611794
 21
522.4561770428
 31
0.0
  0
ARC
  5
BF
330
BB
100
AcDbEntity
  8
20287000_2LB_WT_
  6
Continuous
 62
     7
100
AcDbCircle
 10
344.423611794
 20
478.4947123882
 30
0.0
 40
0.49999999999911
100
AcDbArc
 50
270.5000000001
 51
0.0
  0
ARC
  5
C0
330
BB
100
AcDbEntity
  8
20287000_2LB_WT_
  6
Continuous
 62
     7
100
AcDbCircle
 10
344.423611794
 20
522.4561770428
 30
0.0
 40
0.5000000000001531
100
AcDbArc
 50
0.0
 51
89.4999999999
  0
LINE
  5
C1
330
BB
100
AcDbEntity
  8
20287000_2LB_WT_
  6
Continuous
 62
     7
100
AcDbLine
 10
319.9236195174
 20
477.7808851556
 30
0.0
 11
344.4279750617
 21
477.9947314267
 31
0.0
  0
LINE
  5
C2
330
BB
100
AcDbEntity
  8
20287000_2LB_WT_
  6
Continuous
 62
     7
100
AcDbLine
 10
344.4279750617
 20
522.9561580043
 30
0.0
 11
319.9236195174
 21
523.1700042754
 31
0.0
  0
ARC
  5
C3
330
BB
100
AcDbEntity
  8
20287000_2LB_WT_
  6
Continuous
 62
     7
100
AcDbCircle
 10
339.523611794
 20
500.6324714281
 30
0.0
 40
21.59999999995126
100
AcDbArc
 50
284.4775121859
 51
291.1544284564
  0
ARC
  5
C4
330
BB
100
AcDbEntity
  8
20287000_2LB_WT_
  6
Continuous
 62
     7
100
AcDbCircle
 10
339.523611794
 20
500.3184180029
 30
0.0
 40
21.59999999995072
100
AcDbArc
 50
41.0107235121
 51
75.5224878141
  0
LINE
  5
C5
330
BB
100
AcDbEntity
  8
20287000_2LB_WT_
  6
Continuous
 62
     7
100
AcDbLine
 10
346.9988479932
 20
492.0976976636
 30
0.0
 11
347.3632411997
 21
478.1820826484
 31
0.0
  0
SPLINE
  5
C6
330
BB
100
AcDbEntity
  8
20287000_2LB_WT_
  6
Continuous
 62
     7
100
AcDbSpline
210
0.0
220
0.0
230
1.0
 70
     8
 71
     3
 72
    12
 73
     8
 74
     0
 42
0.0000000022541684
 43
0.0000000001
 40
0.0
 40
0.0
 40
0.0
 40
0.0
 40
0.2499999548435032
 40
0.3749999628013921
 40
0.4374999667803587
 40
0.4999999707595038
 40
0.5001517609042615
 40
0.5001517609042615
 40
0.5001517609042615
 40
0.5001517609042615
 10
377.9747643678214
 20
421.2313720833124
 30
0.0
 10
378.08861765755
 20
420.5323658301284
 30
0.0
 10
378.211921605252
 20
419.7097652587332
 30
0.0
 10
378.283659065061
 20
419.2084963229523
 30
0.0
 10
378.3043364489833
 20
419.0622584934333
 30
0.0
 10
378.3077519392073
 20
419.0378021732431
 30
0.0
 10
378.3077665676559
 20
419.037807291338
 30
0.0
 10
378.3077665931466
 20
419.0378073756273
 30
0.0
  0
ARC
  5
C7
330
BB
100
AcDbEntity
  8
20287000_2LB_WT_
  6
Continuous
 62
     7
100
AcDbCircle
 10
541.8948091132
 20
426.7155298059
 30
0.0
 40
164.0117588932258
100
AcDbArc
 50
180.3959303461
 51
181.9159199097
  0
ARC
  5
C8
330
BB
100
AcDbEntity
  8
20287000_2LB_WT_
  6
Continuous
 62
     7
100
AcDbCircle
 10
541.8948091132
 20
426.7155298059
 30
0.0
 40
164.0117588932258
100
AcDbArc
 50
181.9159199097
 51
181.9161898913
  0
ARC
  5
C9
330
BB
100
AcDbEntity
  8
20287000_2LB_WT_
  6
Continuous
 62
     7
100
AcDbCircle
 10
325.0083453055
 20
422.8097820245
 30
0.0
 40
52.08941272699817
100
AcDbArc
 50
358.2856340334
 51
3.0619266826
  0
ARC
  5
CA
330
BB
100
AcDbEntity
  8
20287000_2LB_WT_
  6
Continuous
 62
     7
100
AcDbCircle
 10
652.9838136722
 20
413.741442464
 30
0.0
 40
276.01137473104
100
AcDbArc
 50
178.4408489897
 51
178.9056100565
  0
SPLINE
  5
CB
330
BB
100
AcDbEntity
  8
20287000_2LB_WT_
  6
Continuous
 62
     7
100
AcDbSpline
210
0.0
220
0.0
230
1.0
 70
     8
 71
     3
 72
    19
 73
    15
 74
     0
 42
0.0000000000759452
 43
0.0000000001
 40
0.5000748373316669
 40
0.5000748373316669
 40
0.5000748373316669
 40
0.5000748373316669
 40
0.5156249981417326
 40
0.5234374981327061
 40
0.5312499981232052
 40
0.5390624981138471
 40
0.546874998104536
 40
0.5624999980858186
 40
0.566406248081163
 40
0.5703124980765073
 40
0.5781249980671492
 40
0.5937499980484794
 40
0.6015624980391213
 40
0.6025004156035929
 40
0.6025004156035929
 40
0.6025004156035929
 40
0.6025004156035929
 10
376.157277168136
 20
523.2172778542049
 30
0.0
 10
376.1572556647997
 20
523.2175456287821
 30
0.0
 10
376.1318748237465
 20
523.0594454077127
 30
0.0
 10
376.0506417024723
 20
522.5115328932221
 30
0.0
 10
375.9707885981659
 20
521.9347718566816
 30
0.0
 10
375.875401608144
 20
521.1790679481095
 30
0.0
 10
375.7359866029486
 20
519.9279709815203
 30
0.0
 10
375.6139218997247
 20
518.5582770110293
 30
0.0
 10
375.5219484476893
 20
517.167964907318
 30
0.0
 10
375.4661633286274
 20
516.2048277973711
 30
0.0
 10
375.3844695477302
 20
514.4392800238102
 30
0.0
 10
375.3306186629579
 20
512.2518622805705
 30
0.0
 10
375.3195834854751
 20
510.4755392714258
 30
0.0
 10
375.3192824075418
 20
509.8391636210677
 30
0.0
 10
375.3192913862141
 20
509.7709651425217
 30
0.0
  0
SPLINE
  5
CC
330
BB
100
AcDbEntity
  8
20287000_2LB_WT_
  6
Continuous
 62
     7
100
AcDbSpline
210
0.0
220
0.0
230
1.0
 70
     8
 71
     3
 72
    12
 73
     8
 74
     0
 42
0.0000000000473688
 43
0.0000000001
 40
0.6833378451024866
 40
0.6833378451024866
 40
0.6833378451024866
 40
0.6833378451024866
 40
0.6874999979363677
 40
0.7187499978989812
 40
0.7499999978615945
 40
0.8749999977121438
 40
1.0
 40
1.0
 40
1.0
 40
1.0
 10
375.803817070488
 20
492.3986584804783
 30
0.0
 10
375.8152739046365
 20
492.1050885378351
 30
0.0
 10
375.9128534829798
 20
489.6081006407943
 30
0.0
 10
376.0961327631848
 20
484.9167631168245
 30
0.0
 10
376.5910910449621
 20
471.7347013734552
 30
0.0
 10
377.2559015566904
 20
451.950881510955
 30
0.0
 10
377.7146516157421
 20
434.3683443764148
 30
0.0
 10
377.8869660372795
 20
425.5821874755484
 30
0.0
  0
SPLINE
  5
CD
330
BB
100
AcDbEntity
  8
20287000_2LB_WT_
  6
Continuous
 62
     7
100
AcDbSpline
210
0.0
220
0.0
230
1.0
 70
     8
 71
     3
 72
    18
 73
    14
 74
     0
 42
0.0000000001104652
 43
0.0000000001
 40
0.0
 40
0.0
 40
0.0
 40
0.0
 40
0.08697039694494
 40
0.1702367786665668
 40
0.2497957745605631
 40
0.3256422140741183
 40
0.3977712139369415
 40
0.466190265922571
 40
0.5309328507912098
 40
0.5918268516633589
 40
0.648794116753668
 40
0.7024764832830501
 40
0.7516682410703879
 40
0.7516682410703879
 40
0.7516682410703879
 40
0.7516682410703879
 10
377.0233944311311
 20
425.5921520037559
 30
0.0
 10
376.8674278298338
 20
428.2102895424359
 30
0.0
 10
376.5622892039471
 20
433.3349483414403
 30
0.0
 10
376.0677131233381
 20
440.8547463188173
 30
0.0
 10
375.603010591909
 20
448.0420938980798
 30
0.0
 10
375.1421745760168
 20
454.8945271694085
 30
0.0
 10
374.6328522162396
 20
461.4071584838571
 30
0.0
 10
374.0512367127754
 20
467.5772964279964
 30
0.0
 10
373.379240615311
 20
473.3965714903017
 30
0.0
 10
372.5330761425269
 20
478.8435375643119
 30
0.0
 10
371.3323013561418
 20
483.8828386529334
 30
0.0
 10
369.6280520638126
 20
488.3978568655382
 30
0.0
 10
368.1136982526772
 20
491.1025466934524
 30
0.0
 10
367.2925652693413
 20
492.3296834101368
 30
0.0
  0
ARC
  5
CE
330
BB
100
AcDbEntity
  8
20287000_2LB_WT_
  6
Continuous
 62
     7
100
AcDbCircle
 10
361.3598291679
 20
469.9948203708
 30
0.0
 40
7.870719457260155
100
AcDbArc
 50
48.0394555649
 51
96.9123698646
  0
SPLINE
  5
CF
330
BB
100
AcDbEntity
  8
20287000_2LB_WT_
  6
Continuous
 62
     7
100
AcDbSpline
210
0.0
220
0.0
230
1.0
 70
     8
 71
     3
 72
    20
 73
    16
 74
     0
 42
0.0000000002326194
 43
0.0000000001
 40
0.4991787909474241
 40
0.4991787909474241
 40
0.4991787909474241
 40
0.4991787909474241
 40
0.5000000044007383
 40
0.5312500096255253
 40
0.5625000148502122
 40
0.593750020074899
 40
0.6093750226873924
 40
0.6250000252995858
 40
0.6875000357491596
 40
0.7031250383615532
 40
0.7187500409738465
 40
0.7500000461986334
 40
0.8125000566480071
 40
0.843750061872894
 40
0.854531711169209
 40
0.854531711169209
 40
0.854531711169209
 40
0.854531711169209
 10
360.7788246372795
 20
522.927901800823
 30
0.0
 10
360.7787918127971
 20
522.9278460759098
 30
0.0
 10
360.7768910533458
 20
522.9246192266841
 30
0.0
 10
360.7254411894032
 20
522.8372746900459
 30
0.0
 10
360.5111508214657
 20
522.4734818350661
 30
0.0
 10
360.2193845595359
 20
521.9781610120043
 30
0.0
 10
359.9129271433767
 20
521.4578995581766
 30
0.0
 10
359.3894251923154
 20
520.569169601615
 30
0.0
 10
358.7161994433461
 20
519.426259074812
 30
0.0
 10
357.905534705917
 20
518.0500234458175
 30
0.0
 10
357.3278635966567
 20
517.06933250701
 30
0.0
 10
356.2550056148228
 20
515.2479810761818
 30
0.0
 10
354.8879018037057
 20
512.9270993525254
 30
0.0
 10
353.6556778370925
 20
510.8351981663866
 30
0.0
 10
353.1545457361798
 20
509.9844446800806
 30
0.0
 10
353.0255918488042
 20
509.7655244211966
 30
0.0
  0
SPLINE
  5
D0
330
BB
100
AcDbEntity
  8
20287000_2LB_WT_
  6
Continuous
 62
     7
100
AcDbSpline
210
0.0
220
0.0
230
1.0
 70
     8
 71
     3
 72
    23
 73
    19
 74
     0
 42
0.0000000010769489
 43
0.0000000001
 40
0.0
 40
0.0
 40
0.0
 40
0.0
 40
0.0092102298709144
 40
0.0785314349472584
 40
0.1430272748262034
 40
0.194776931786969
 40
0.258027128396394
 40
0.3346383420150225
 40
0.4174021337136623
 40
0.4935098256684909
 40
0.5289121995273455
 40
0.5660991404777591
 40
0.6130674444235144
 40
0.6699694671637307
 40
0.7369163524102955
 40
0.8143424865847778
 40
0.9024388591444322
 40
1.0
 40
1.0
 40
1.0
 40
1.0
 10
347.133499976359
 20
487.2483286251271
 30
0.0
 10
347.1350797198934
 20
487.1897691389708
 30
0.0
 10
347.1467931386666
 20
486.7609994868384
 30
0.0
 10
347.1752688057015
 20
485.944096255049
 30
0.0
 10
347.232546486406
 20
484.9508910145689
 30
0.0
 10
347.251374379358
 20
484.0767937756558
 30
0.0
 10
347.2560200931162
 20
483.2206392489623
 30
0.0
 10
347.2798496827237
 20
482.2778753158571
 30
0.0
 10
347.303161037055
 20
481.3774043268814
 30
0.0
 10
347.320214974268
 20
480.7188399580215
 30
0.0
 10
347.3318653833766
 20
480.2619348351274
 30
0.0
 10
347.3411823614782
 20
479.9179677445712
 30
0.0
 10
347.3538117603302
 20
479.5404175212372
 30
0.0
 10
347.36935841396
 20
479.131456226547
 30
0.0
 10
347.387859397433
 20
478.7209276570728
 30
0.0
 10
347.4087856002473
 20
478.3519518957002
 30
0.0
 10
347.4324205770876
 20
478.0552029085428
 30
0.0
 10
347.4472717495794
 20
478.0014464760413
 30
0.0
 10
347.4565038972441
 20
477.9723785620469
 30
0.0
  0
ARC
  5
D1
330
BB
100
AcDbEntity
  8
20287000_2LB_WT_
  6
Continuous
 62
     7
100
AcDbCircle
 10
347.6632021
 20
478.1900348653
 30
0.0
 40
0.3001596938808534
100
AcDbArc
 50
226.2671322706
 51
271.4932692808
  0
ARC
  5
D2
330
BB
100
AcDbEntity
  8
20287000_2LB_WT_
  6
Continuous
 62
     7
100
AcDbCircle
 10
361.0390424344
 20
522.7699660643
 30
0.0
 40
0.3058351015226983
100
AcDbArc
 50
90.3605947838
 51
119.6873975588
  0
ARC
  5
D3
330
BB
100
AcDbEntity
  8
20287000_2LB_WT_
  6
Continuous
 62
     7
100
AcDbCircle
 10
368.1653610482
 20
518.0495653374
 30
0.0
 40
8.825979734347595
100
AcDbArc
 50
145.6434042523
 51
150.3585616758
  0
LINE
  5
D4
330
BB
100
AcDbEntity
  8
20287000_2LB_WT_
  6
Continuous
 62
     7
100
AcDbLine
 10
377.0228410467
 20
419.0131357583
 30
0.0
 11
378.3077481538
 21
419.0378072352
 31
0.0
  0
ARC
  5
D5
330
BB
100
AcDbEntity
  8
20287000_2LB_WT_
  6
Continuous
 62
     7
100
AcDbCircle
 10
376.1698196759
 20
521.7115024757
 30
0.0
 40
1.505770126985041
100
AcDbArc
 50
2.3324004755
 51
90.9523976317
  0
SPLINE
  5
D6
330
BB
100
AcDbEntity
  8
20287000_2LB_WT_
  6
Continuous
 62
     7
100
AcDbSpline
210
0.0
220
0.0
230
1.0
 70
     8
 71
     3
 72
    12
 73
     8
 74
     0
 42
0.0000000000987547
 43
0.0000000001
 40
0.0
 40
0.0
 40
0.0
 40
0.0
 40
0.1475689879741111
 40
0.298435228634976
 40
0.4461465747577636
 40
0.5907088140407646
 40
0.7100582080159675
 40
0.7100582080159675
 40
0.7100582080159675
 40
0.7100582080159675
 10
379.7771868725072
 20
420.5372001316773
 30
0.0
 10
379.7722204696749
 20
426.0171841188956
 30
0.0
 10
379.7596346794816
 20
435.3568054501287
 30
0.0
 10
379.6315039876931
 20
450.718989642881
 30
0.0
 10
379.4187262355034
 20
465.5927406779375
 30
0.0
 10
379.1300859637496
 20
479.5258647432033
 30
0.0
 10
378.8915592001214
 20
488.3861994436625
 30
0.0
 10
378.7710235494492
 20
492.428311001741
 30
0.0
  0
SPLINE
  5
D7
330
BB
100
AcDbEntity
  8
20287000_2LB_WT_
  6
Continuous
 62
     7
100
AcDbSpline
210
0.0
220
0.0
230
1.0
 70
     8
 71
     3
 72
     8
 73
     4
 74
     0
 42
0.0000000000984525
 43
0.0000000001
 40
0.8815432154262136
 40
0.8815432154262136
 40
0.8815432154262136
 40
0.8815432154262136
 40
1.0
 40
1.0
 40
1.0
 40
1.0
 10
378.1776487434934
 20
509.7630146428029
 30
0.0
 10
378.0259166131581
 20
513.6243208107809
 30
0.0
 10
377.8633978170765
 20
517.3895038749262
 30
0.0
 10
377.6718401587917
 20
521.7842332670414
 30
0.0
  0
ARC
  5
D8
330
BB
100
AcDbEntity
  8
20287000_2LB_WT_
  6
Continuous
 62
     7
100
AcDbCircle
 10
378.2784103063
 20
420.5380863923
 30
0.0
 40
1.500560138436846
100
AcDbArc
 50
270.6405917961
 51
0.4445019212
  0
ARC
  5
D9
330
BB
100
AcDbEntity
  8
20287000_2LB_WT_
  6
Continuous
 62
     7
100
AcDbCircle
 10
377.0036941012
 20
420.0129434402
 30
0.0
 40
0.9999907547428746
100
AcDbArc
 50
183.322501567
 51
271.5727184828
  0
LINE
  5
DA
330
BB
100
AcDbEntity
  8
20287000_2LB_WT_
  6
Continuous
 62
     7
100
AcDbLine
 10
376.1973847001
 20
523.2182630473
 30
0.0
 11
361.0322869472
 21
523.0786906329
 31
0.0
  0
SPLINE
  5
DB
330
BB
100
AcDbEntity
  8
20287000_2LB_WT_
  6
Continuous
 62
     7
100
AcDbSpline
210
0.0
220
0.0
230
1.0
 70
     8
 71
     3
 72
    29
 73
    25
 74
     0
 42
0.0000000001734553
 43
0.0000000001
 40
0.0
 40
0.0
 40
0.0
 40
0.0
 40
0.0184307767158952
 40
0.0382071297612634
 40
0.0584693298269577
 40
0.0795853912307463
 40
0.1135099417104983
 40
0.1507312918032501
 40
0.1916172188997814
 40
0.2362015066281475
 40
0.2840133202717259
 40
0.3347988737171445
 40
0.3890285494702962
 40
0.4476651952826176
 40
0.5107540807099401
 40
0.5788013521332047
 40
0.6268376771168142
 40
0.677982618327343
 40
0.7330905949584021
 40
0.793259703737572
 40
0.8448038946655235
 40
0.8998933148827368
 40
0.9572841068983721
 40
1.0
 40
1.0
 40
1.0
 40
1.0
 10
366.6185049581101
 20
475.8445004562068
 30
0.0
 10
366.9360123648389
 20
475.6189750724697
 30
0.0
 10
367.489011722508
 20
475.2187508644773
 30
0.0
 10
368.3026781757792
 20
474.4060037208276
 30
0.0
 10
369.0207406784596
 20
473.4807923793248
 30
0.0
 10
369.7642291812402
 20
472.233812752051
 30
0.0
 10
370.4620878710718
 20
470.5990092776097
 30
0.0
 10
371.0770795399532
 20
468.5334890340131
 30
0.0
 10
371.5811182884048
 20
466.22994709825
 30
0.0
 10
372.0190207861211
 20
463.7069394381914
 30
0.0
 10
372.4192099558138
 20
460.9855643464902
 30
0.0
 10
372.7969654566785
 20
458.0741436875531
 30
0.0
 10
373.1676225917645
 20
454.9523431867333
 30
0.0
 10
373.5341201258313
 20
451.5922056571203
 30
0.0
 10
373.9005252535478
 20
447.965181988066
 30
0.0
 10
374.2238129659235
 20
444.538562117857
 30
0.0
 10
374.5111391299611
 20
441.339023142406
 30
0.0
 10
374.7643305503139
 20
438.3861058873132
 30
0.0
 10
375.020860858637
 20
435.1991423868761
 30
0.0
 10
375.2564763565764
 20
432.0046405707571
 30
0.0
 10
375.4681636524786
 20
428.8026504265958
 30
0.0
 10
375.660000098504
 20
425.6762372030176
 30
0.0
 10
375.8338275982375
 20
422.6331589588978
 30
0.0
 10
375.9503579657392
 20
420.8478510819206
 30
0.0
 10
376.0088871323832
 20
419.9471421683229
 30
0.0
  0
ARC
  5
DC
330
BB
100
AcDbEntity
  8
20287000_2LB_WT_
  6
Continuous
 62
     7
100
AcDbCircle
 10
353.2256467428
 20
365.0647831069
 30
0.0
 40
112.9614941409197
100
AcDbArc
 50
86.3526103469
 51
92.8198065482
  0
LINE
  5
DD
330
BB
100
AcDbEntity
  8
20287000_2LB_WT_
  6
Continuous
 62
     7
100
AcDbLine
 10
319.923611794
 20
477.7754328139
 30
0.0
 11
319.9236195174
 21
477.7754405374
 31
0.0
  0
LINE
  5
DE
330
BB
100
AcDbEntity
  8
20287000_2LB_WT_
  6
Continuous
 62
     7
100
AcDbLine
 10
319.9236195174
 20
523.1754488936
 30
0.0
 11
319.923611794
 21
523.1754566171
 31
0.0
  0
ARC
  5
DF
330
BB
100
AcDbEntity
  8
20287000_2LB_WT_
  6
Continuous
 62
     7
100
AcDbCircle
 10
479.5268423523
 20
420.4040957243
 30
0.0
 40
74.09053102068873
100
AcDbArc
 50
80.8213144184
 51
100.3164422155
  0
LINE
  5
E0
330
BB
100
AcDbEntity
  8
20287000_2LB_WT_
  6
Continuous
 62
     7
100
AcDbLine
 10
491.3453415149
 20
493.5459476582
 30
0.0
 11
492.2628399092
 21
493.5550576153
 31
0.0
  0
LINE
  5
E1
330
BB
100
AcDbEntity
  8
20287000_2LB_WT_
  6
Continuous
 62
     7
100
AcDbLine
 10
319.9236119258
 20
491.8438797144
 30
0.0
 11
466.2584061565
 21
493.2968563173
 31
0.0
  0
ARC
  5
E2
330
BB
100
AcDbEntity
  8
20287000_2LB_WT_
  6
Continuous
 62
     7
100
AcDbCircle
 10
492.2485374117
 20
495.0555621776
 30
0.0
 40
1.50056734938134
100
AcDbArc
 50
270.1054529947
 51
0.4607605115
  0
LINE
  5
E3
330
BB
100
AcDbEntity
  8
20287000_2LB_WT_
  6
Continuous
 62
     7
100
AcDbLine
 10
493.7491094752
 20
495.0555908291
 30
0.0
 11
493.7491094752
 21
508.2627864481
 31
0.0
  0
LINE
  5
E4
330
BB
100
AcDbEntity
  8
20287000_2LB_WT_
  6
Continuous
 62
     7
100
AcDbLine
 10
492.2490933166
 20
509.7628912721
 30
0.0
 11
319.923611794
 21
509.7628912721
 31
0.0
  0
ARC
  5
E5
330
BB
100
AcDbEntity
  8
20287000_2LB_WT_
  6
Continuous
 62
     7
100
AcDbCircle
 10
492.2485278272
 20
508.2623095988
 30
0.0
 40
1.500575293733826
100
AcDbArc
 50
359.5368702298
 51
90.4654178593
  0
LINE
  5
E6
330
BB
100
AcDbEntity
  8
20287000_2LB_WT_
  6
Continuous
 62
     7
100
AcDbLine
 10
309.923611794
 20
466.4754447155
 30
0.0
 11
309.923611794
 21
534.4754447155
 31
0.0
  0
LINE
  5
E7
330
BB
100
AcDbEntity
  8
20287000_2LB_WT_
  6
Continuous
 62
     7
100
AcDbLine
 10
319.423611794
 20
466.4754447155
 30
0.0
 11
319.423611794
 21
534.4754447155
 31
0.0
  0
LINE
  5
E8
330
BB
100
AcDbEntity
  8
20287000_2LB_WT_
  6
Continuous
 62
     7
100
AcDbLine
 10
319.923611794
 20
466.9754446888
 30
0.0
 11
319.923611794
 21
533.9754447422
 31
0.0
  0
LINE
  5
E9
330
BB
100
AcDbEntity
  8
20287000_2LB_WT_
  6
Continuous
 62
     7
100
AcDbLine
 10
319.423611794
 20
534.4754447155
 30
0.0
 11
309.923611794
 21
534.4754447155
 31
0.0
  0
LINE
  5
EA
330
BB
100
AcDbEntity
  8
20287000_2LB_WT_
  6
Continuous
 62
     7
100
AcDbLine
 10
309.923611794
 20
466.4754447155
 30
0.0
 11
319.423611794
 21
466.4754447155
 31
0.0
  0
ARC
  5
EB
330
BB
100
AcDbEntity
  8
20287000_2LB_WT_
  6
Continuous
 62
     7
100
AcDbCircle
 10
319.423611794
 20
533.9754447155
 30
0.0
 40
0.5000000000000007
100
AcDbArc
 50
0.000001531
 51
90.0
  0
ARC
  5
EC
330
BB
100
AcDbEntity
  8
20287000_2LB_WT_
  6
Continuous
 62
     7
100
AcDbCircle
 10
319.423611794
 20
466.9754447155
 30
0.0
 40
0.5000000000000004
100
AcDbArc
 50
270.0
 51
359.9999984691
  0
LINE
  5
ED
330
BB
100
AcDbEntity
  8
20287000_2LB_WT_
  6
Continuous
 62
     7
100
AcDbLine
 10
466.5685975981
 20
493.0644769662
 30
0.0
 11
470.1131425406
 21
493.8827996454
 31
0.0
  0
LINE
  5
EE
330
BB
100
AcDbEntity
  8
20287000_2LB_WT_
  6
Continuous
 62
     7
100
AcDbLine
 10
469.2992009627
 20
485.6823458529
 30
0.0
 11
490.7353423879
 21
490.6312690485
 31
0.0
  0
LINE
  5
EF
330
BB
100
AcDbEntity
  8
20287000_2LB_WT_
  6
Continuous
 62
     7
100
AcDbLine
 10
490.0251314909
 20
493.7075304149
 30
0.0
 11
490.7353423879
 21
490.6312690485
 31
0.0
  0
LINE
  5
F0
330
BB
100
AcDbEntity
  8
20287000_2LB_WT_
  6
Continuous
 62
     7
100
AcDbLine
 10
468.5889900656
 20
488.7586072193
 30
0.0
 11
467.3896689465
 21
489.5080262297
 31
0.0
  0
LINE
  5
F1
330
BB
100
AcDbEntity
  8
20287000_2LB_WT_
  6
Continuous
 62
     7
100
AcDbLine
 10
468.5889900656
 20
488.7586072193
 30
0.0
 11
469.2992009627
 21
485.6823458529
 31
0.0
  0
LINE
  5
F2
330
BB
100
AcDbEntity
  8
20287000_2LB_WT_
  6
Continuous
 62
     7
100
AcDbLine
 10
469.2992009627
 20
485.6823458529
 30
0.0
 11
469.4290765145
 21
485.1197930337
 31
0.0
  0
LINE
  5
F3
330
BB
100
AcDbEntity
  8
20287000_2LB_WT_
  6
Continuous
 62
     7
100
AcDbLine
 10
490.7353423879
 20
490.6312690485
 30
0.0
 11
490.8652179397
 21
490.0687162293
 31
0.0
  0
LINE
  5
F4
330
BB
100
AcDbEntity
  8
20287000_2LB_WT_
  6
Continuous
 62
     7
100
AcDbLine
 10
469.6499256378
 20
485.0522726807
 30
0.0
 11
490.6963190371
 21
489.9112154546
 31
0.0
  0
LINE
  5
F5
330
BB
100
AcDbEntity
  8
20287000_2LB_WT_
  6
Continuous
 62
     7
100
AcDbLine
 10
467.2461151067
 20
493.4638848352
 30
0.0
 11
467.2993751467
 21
493.233190257
 31
0.0
  0
LINE
  5
F6
330
BB
100
AcDbEntity
  8
20287000_2LB_WT_
  6
Continuous
 62
     7
100
AcDbLine
 10
466.5685975981
 20
493.0644769662
 30
0.0
 11
467.3896689465
 21
489.5080262297
 31
0.0
  0
LINE
  5
F7
330
BB
100
AcDbEntity
  8
20287000_2LB_WT_
  6
Continuous
 62
     7
100
AcDbLine
 10
469.4290765145
 20
485.1197930337
 30
0.0
 11
469.6499256378
 21
485.0522726807
 31
0.0
  0
LINE
  5
F8
330
BB
100
AcDbEntity
  8
20287000_2LB_WT_
  6
Continuous
 62
     7
100
AcDbLine
 10
490.6963190371
 20
489.9112154546
 30
0.0
 11
490.8652179397
 21
490.0687162293
 31
0.0
  0
ENDBLK
  5
FA
330
BB
100
AcDbEntity
  8
0
100
AcDbBlockEnd
  0
BLOCK
  5
155
330
FB
100
AcDbEntity
  8
0
100
AcDbBlockBegin
  2
SE2
 70
     0
 10
0.0
 20
0.0
 30
0.0
  3
SE2
  1

  0
LINE
  5
FD
330
FB
100
AcDbEntity
  8
20287000_2LB_WT_
  6
Continuous
 62
     7
100
AcDbLine
 10
172.3307323273
 20
255.1746738907
 30
0.0
 11
128.3692676727
 21
255.1746738907
 31
0.0
  0
LINE
  5
FE
330
FB
100
AcDbEntity
  8
20287000_2LB_WT_
  6
Continuous
 62
     7
100
AcDbLine
 10
142.322156876
 20
244.1746738907
 30
0.0
 11
158.3832038405
 21
244.1746738907
 31
0.0
  0
ARC
  5
FF
330
FB
100
AcDbEntity
  8
20287000_2LB_WT_
  6
Continuous
 62
     7
100
AcDbCircle
 10
128.3692676727
 20
255.6746738907
 30
0.0
 40
0.4999999999991135
100
AcDbArc
 50
180.5000000001
 51
270.0
  0
ARC
  5
100
330
FB
100
AcDbEntity
  8
20287000_2LB_WT_
  6
Continuous
 62
     7
100
AcDbCircle
 10
172.3307323273
 20
255.6746738907
 30
0.0
 40
0.5000000000001531
100
AcDbArc
 50
270.0
 51
359.4999999999
  0
LINE
  5
101
330
FB
100
AcDbEntity
  8
20287000_2LB_WT_
  6
Continuous
 62
     7
100
AcDbLine
 10
127.6554403727
 20
280.1746738907
 30
0.0
 11
127.8692867112
 21
255.6703106229
 31
0.0
  0
LINE
  5
102
330
FB
100
AcDbEntity
  8
20287000_2LB_WT_
  6
Continuous
 62
     7
100
AcDbLine
 10
172.8307132888
 20
255.6703106229
 30
0.0
 11
173.0445596273
 21
280.1746738907
 31
0.0
  0
ARC
  5
103
330
FB
100
AcDbEntity
  8
20287000_2LB_WT_
  6
Continuous
 62
     7
100
AcDbCircle
 10
150.5070267126
 20
260.5746738907
 30
0.0
 40
21.59999999995127
100
AcDbArc
 50
194.4775121859
 51
218.7286408117
  0
ARC
  5
104
330
FB
100
AcDbEntity
  8
20287000_2LB_WT_
  6
Continuous
 62
     7
100
AcDbCircle
 10
150.1929732874
 20
260.5746738907
 30
0.0
 40
21.59999999995109
100
AcDbArc
 50
321.1526488697
 51
345.5224878141
  0
ELLIPSE
  5
105
330
FB
100
AcDbEntity
  8
20287000_2LB_WT_
  6
Continuous
 62
     7
100
AcDbEllipse
 10
150.35
 20
248.0211131893
 30
0.0
 11
0.0
 21
18.44861822357933
 31
0.0
210
0.0
220
0.0
230
1.0
 40
1.0
 41
1.582666061154263
 42
1.587016064763414
  0
LINE
  5
106
330
FB
100
AcDbEntity
  8
20287000_2LB_WT_
  6
Continuous
 62
     7
100
AcDbLine
 10
155.3842467413
 20
244.1746738907
 30
0.0
 11
155.3842476991
 21
243.6935633573
 31
0.0
  0
SPLINE
  5
107
330
FB
100
AcDbEntity
  8
20287000_2LB_WT_
  6
Continuous
 62
     7
100
AcDbSpline
210
0.0
220
0.0
230
1.0
 70
     8
 71
     3
 72
    10
 73
     6
 74
     0
 42
0.0000000183318907
 43
0.0000000001
 40
0.0
 40
0.0
 40
0.0
 40
0.0
 40
0.5
 40
0.5
 40
0.7183166001272117
 40
0.7183166001272117
 40
0.7183166001272117
 40
0.7183166001272117
 10
127.5612188827058
 20
252.8509247656272
 30
0.0
 10
127.5518379430483
 20
252.9922394754547
 30
0.0
 10
127.5516439611547
 20
253.0987476077784
 30
0.0
 10
127.5663992506058
 20
253.1990660774666
 30
0.0
 10
127.572901549302
 20
253.2223877610196
 30
0.0
 10
127.5813668309491
 20
253.2383826270356
 30
0.0
  0
SPLINE
  5
108
330
FB
100
AcDbEntity
  8
20287000_2LB_WT_
  6
Continuous
 62
     7
100
AcDbSpline
210
0.0
220
0.0
230
1.0
 70
     8
 71
     3
 72
     8
 73
     4
 74
     0
 42
0.0000000495555618
 43
0.0000000001
 40
0.7183166001272117
 40
0.7183166001272117
 40
0.7183166001272117
 40
0.7183166001272117
 40
0.9537955048504072
 40
0.9537955048504072
 40
0.9537955048504072
 40
0.9537955048504072
 10
127.5813668309491
 20
253.2383826270356
 30
0.0
 10
127.5904975853181
 20
253.2556348814607
 30
0.0
 10
127.6019120816035
 20
253.2643630881782
 30
0.0
 10
127.6155415927507
 20
253.2643678508343
 30
0.0
  0
ELLIPSE
  5
109
330
FB
100
AcDbEntity
  8
20287000_2LB_WT_
  6
Continuous
 62
     7
100
AcDbEllipse
 10
150.35
 20
253.3176394385
 30
0.0
 11
21.66782096365003
 21
1.387778780781446E-14
 31
0.0
210
0.0
220
0.0
230
1.0
 40
0.0261769483
 41
-0.3814028256305777
 42
-0.0958420213943549
  0
ELLIPSE
  5
10A
330
FB
100
AcDbEntity
  8
20287000_2LB_WT_
  6
Continuous
 62
     7
100
AcDbEllipse
 10
150.35
 20
253.3176394385
 30
0.0
 11
21.66782096365003
 21
1.387778780781446E-14
 31
0.0
210
0.0
220
0.0
230
1.0
 40
0.0261769483
 41
3.237434675153882
 42
3.522995479218204
  0
SPLINE
  5
10B
330
FB
100
AcDbEntity
  8
20287000_2LB_WT_
  6
Continuous
 62
     7
100
AcDbSpline
210
0.0
220
0.0
230
1.0
 70
     8
 71
     3
 72
     8
 73
     4
 74
     0
 42
0.0000000499061486
 43
0.0000000001
 40
0.0460351723983725
 40
0.0460351723983725
 40
0.0460351723983725
 40
0.0460351723983725
 40
0.2816059206788
 40
0.2816059206788
 40
0.2816059206788
 40
0.2816059206788
 10
173.0813961106784
 20
253.2644063801926
 30
0.0
 10
173.0951374393162
 20
253.2645209689634
 30
0.0
 10
173.1065520906782
 20
253.2561001886604
 30
0.0
 10
173.1156751429243
 20
253.2391194319596
 30
0.0
  0
SPLINE
  5
10C
330
FB
100
AcDbEntity
  8
20287000_2LB_WT_
  6
Continuous
 62
     7
100
AcDbSpline
210
0.0
220
0.0
230
1.0
 70
     8
 71
     3
 72
    10
 73
     6
 74
     0
 42
0.0000000181864159
 43
0.0000000001
 40
0.2816059206788
 40
0.2816059206788
 40
0.2816059206788
 40
0.2816059206788
 40
0.5
 40
0.5
 40
1.0
 40
1.0
 40
1.0
 40
1.0
 10
173.1156751429242
 20
253.2391194319596
 30
0.0
 10
173.1241329867373
 20
253.223376829141
 30
0.0
 10
173.1306212323264
 20
253.2002770432125
 30
0.0
 10
173.1455769914842
 20
253.1000261928559
 30
0.0
 10
173.145611434732
 20
252.9913247146795
 30
0.0
 10
173.1363896941215
 20
252.8485315686172
 30
0.0
  0
ARC
  5
10D
330
FB
100
AcDbEntity
  8
20287000_2LB_WT_
  6
Continuous
 62
     7
100
AcDbCircle
 10
159.9823668922
 20
250.8791389692
 30
0.0
 40
30.26086804309557
100
AcDbArc
 50
272.7551486086
 51
277.128310385
  0
ARC
  5
10E
330
FB
100
AcDbEntity
  8
20287000_2LB_WT_
  6
Continuous
 62
     7
100
AcDbCircle
 10
163.6195280094
 20
222.3433035815
 30
0.0
 40
1.495797445937754
100
AcDbArc
 50
274.5232468021
 51
290.9915947979
  0
ARC
  5
10F
330
FB
100
AcDbEntity
  8
20287000_2LB_WT_
  6
Continuous
 62
     7
100
AcDbCircle
 10
150.349987608
 20
404.1149416811
 30
0.0
 40
183.7963894276204
100
AcDbArc
 50
266.5417990385
 51
273.4582921783
  0
ARC
  5
110
330
FB
100
AcDbEntity
  8
20287000_2LB_WT_
  6
Continuous
 62
     7
100
AcDbCircle
 10
137.0804800785
 20
222.3431880548
 30
0.0
 40
1.495684131432987
100
AcDbArc
 50
247.849577476
 51
265.478368978
  0
ARC
  5
111
330
FB
100
AcDbEntity
  8
20287000_2LB_WT_
  6
Continuous
 62
     7
100
AcDbCircle
 10
140.8494977154
 20
252.4033151255
 30
0.0
 40
31.78967883497621
100
AcDbArc
 50
262.9768592037
 51
267.1399904817
  0
LINE
  5
112
330
FB
100
AcDbEntity
  8
20287000_2LB_WT_
  6
Continuous
 62
     7
100
AcDbLine
 10
173.3975369945
 20
252.1733671756
 30
0.0
 11
173.4012906352
 21
252.1942141062
 31
0.0
  0
SPLINE
  5
113
330
FB
100
AcDbEntity
  8
20287000_2LB_WT_
  6
Continuous
 62
     7
100
AcDbSpline
210
0.0
220
0.0
230
1.0
 70
     8
 71
     3
 72
    13
 73
     9
 74
     0
 42
0.0000000001177966
 43
0.0000000001
 40
0.0
 40
0.0
 40
0.0
 40
0.0
 40
0.0285116520839114
 40
0.0623948126436151
 40
0.1017176802656293
 40
0.1466009021673351
 40
0.1970949253522277
 40
0.1976317936113419
 40
0.1976317936113419
 40
0.1976317936113419
 40
0.1976317936113419
 10
173.3975115670486
 20
252.1733722302476
 30
0.0
 10
173.2496088436039
 20
251.3245398021373
 30
0.0
 10
172.9259743174487
 20
249.4669589135488
 30
0.0
 10
172.3954356172721
 20
246.4398206048288
 30
0.0
 10
171.77871765329
 20
242.9354999687919
 30
0.0
 10
171.0911026671261
 20
239.0563474238105
 30
0.0
 10
170.6505234815089
 20
236.7606267073193
 30
0.0
 10
170.4282097608426
 20
235.6732768049692
 30
0.0
 10
170.4258722593773
 20
235.6618521944287
 30
0.0
  0
SPLINE
  5
114
330
FB
100
AcDbEntity
  8
20287000_2LB_WT_
  6
Continuous
 62
     7
100
AcDbSpline
210
0.0
220
0.0
230
1.0
 70
     8
 71
     3
 72
    40
 73
    36
 74
     0
 42
0.0000000000939568
 43
0.0000000001
 40
0.3274691110909479
 40
0.3274691110909479
 40
0.3274691110909479
 40
0.3274691110909479
 40
0.3437499983474286
 40
0.3593749983289021
 40
0.3749999983099003
 40
0.3906249982913728
 40
0.4062499982728453
 40
0.4140624982633453
 40
0.4218749982538445
 40
0.4296874982448179
 40
0.4335937482398302
 40
0.4374999982353169
 40
0.4531249982167894
 40
0.4609374982072895
 40
0.4648437482027751
 40
0.4687499981977886
 40
0.4843749981792611
 40
0.4921874981697601
 40
0.4999999981607335
 40
0.5156249981417326
 40
0.5234374981327061
 40
0.5312499981232052
 40
0.5390624981138471
 40
0.546874998104536
 40
0.5624999980858186
 40
0.566406248081163
 40
0.5703124980765073
 40
0.5781249980671492
 40
0.5937499980484794
 40
0.6015624980391213
 40
0.6093749980297627
 40
0.6249999980110934
 40
0.6406249979924236
 40
0.656249997973707
 40
0.6718625202089887
 40
0.6718625202089887
 40
0.6718625202089887
 40
0.6718625202089887
 10
168.3374598330889
 20
224.3821017507269
 30
0.0
 10
168.3615605373218
 20
224.4262637183083
 30
0.0
 10
168.3931340571731
 20
224.5112788396404
 30
0.0
 10
168.3647655659565
 20
224.6282981413013
 30
0.0
 10
168.1983504873212
 20
224.7234865210546
 30
0.0
 10
167.7849312537458
 20
224.7818873888692
 30
0.0
 10
167.1115936536988
 20
224.7818215481851
 30
0.0
 10
166.2598625833148
 20
224.7419981643694
 30
0.0
 10
165.454775083966
 20
224.6913718103616
 30
0.0
 10
164.6421431893093
 20
224.6328792093161
 30
0.0
 10
163.9018524387065
 20
224.5772121357405
 30
0.0
 10
162.6946975374992
 20
224.4852550408144
 30
0.0
 10
161.0911333641258
 20
224.3628532576681
 30
0.0
 10
159.2815280120398
 20
224.2419477175615
 30
0.0
 10
158.1887341552359
 20
224.1762465251427
 30
0.0
 10
156.5293826077889
 20
224.0846785125649
 30
0.0
 10
154.5333868379399
 20
224.0008234175081
 30
0.0
 10
152.1542715382727
 20
223.9497419429901
 30
0.0
 10
149.7697051946343
 20
223.9324184169153
 30
0.0
 10
147.3997519629874
 20
223.9662158524655
 30
0.0
 10
145.0509533682094
 20
224.0476439821789
 30
0.0
 10
143.3549229966914
 20
224.1274970864853
 30
0.0
 10
141.7055489570327
 20
224.2228840765071
 30
0.0
 10
139.6157018473644
 20
224.3622990817026
 30
0.0
 10
138.0171313463925
 20
224.4843637849264
 30
0.0
 10
136.8097932565352
 20
224.5763372369619
 30
0.0
 10
136.0681607272581
 20
224.6321223560238
 30
0.0
 10
134.9346570171698
 20
224.713816136921
 30
0.0
 10
133.9848659832464
 20
224.7676670216933
 30
0.0
 10
133.330150459894
 20
224.7818144427748
 30
0.0
 10
132.8511931380665
 20
224.7726197741033
 30
0.0
 10
132.5046340801123
 20
224.7243242139257
 30
0.0
 10
132.3359465940066
 20
224.62933215071
 30
0.0
 10
132.3071200866296
 20
224.5140275332132
 30
0.0
 10
132.3366788893543
 20
224.4309278527266
 30
0.0
 10
132.3590384850678
 20
224.3886357859277
 30
0.0
  0
SPLINE
  5
115
330
FB
100
AcDbEntity
  8
20287000_2LB_WT_
  6
Continuous
 62
     7
100
AcDbSpline
210
0.0
220
0.0
230
1.0
 70
     8
 71
     3
 72
    13
 73
     9
 74
     0
 42
0.0000000001177435
 43
0.0000000001
 40
0.8023601652749637
 40
0.8023601652749637
 40
0.8023601652749637
 40
0.8023601652749637
 40
0.8421690039527402
 40
0.8811297085074062
 40
0.9163662247918686
 40
0.9479183332196508
 40
0.9758316790927827
 40
1.0
 40
1.0
 40
1.0
 40
1.0
 10
130.2710664675893
 20
235.6776867742008
 30
0.0
 10
130.0979202104914
 20
236.5235156834173
 30
0.0
 10
129.7408994013412
 20
238.3534132463378
 30
0.0
 10
129.1739501970827
 20
241.5049981970121
 30
0.0
 10
128.6243453060397
 20
244.6206856587723
 30
0.0
 10
128.129477801021
 20
247.4359688767737
 30
0.0
 10
127.6934387475791
 20
249.926470362835
 30
0.0
 10
127.4232159040948
 20
251.4775487534447
 30
0.0
 10
127.297620517539
 20
252.1972926251495
 30
0.0
  0
LINE
  5
116
330
FB
100
AcDbEntity
  8
20287000_2LB_WT_
  6
Continuous
 62
     7
100
AcDbLine
 10
127.2948064009
 20
252.2183981678
 30
0.0
 11
127.2970433331
 21
252.1972033525
 31
0.0
  0
SPLINE
  5
117
330
FB
100
AcDbEntity
  8
20287000_2LB_WT_
  6
Continuous
 62
     7
100
AcDbSpline
210
0.0
220
0.0
230
1.0
 70
     8
 71
     3
 72
    12
 73
     8
 74
     0
 42
0.000000000112045
 43
0.0000000001
 40
0.8653395745432035
 40
0.8653395745432035
 40
0.8653395745432035
 40
0.8653395745432035
 40
0.8749999999999994
 40
0.8749999999999994
 40
0.9374999999999998
 40
0.9374999999999998
 40
1.0
 40
1.0
 40
1.0
 40
1.0
 10
171.3155210927774
 20
240.3581862188383
 30
0.0
 10
171.3634158623431
 20
240.6228710770485
 30
0.0
 10
171.4117262629865
 20
240.8913724993598
 30
0.0
 10
171.7753657368256
 20
242.9206326015108
 30
0.0
 10
172.102888947664
 20
244.7844277341076
 30
0.0
 10
172.7511849155449
 20
248.4740775103517
 30
0.0
 10
173.0768454854557
 20
250.3355524331524
 30
0.0
 10
173.4008942801607
 20
252.1942872009526
 30
0.0
  0
LINE
  5
118
330
FB
100
AcDbEntity
  8
20287000_2LB_WT_
  6
Continuous
 62
     7
100
AcDbLine
 10
173.4005132335
 20
252.1943635397
 30
0.0
 11
173.437178815
 21
252.5380754798
 31
0.0
  0
LINE
  5
119
330
FB
100
AcDbEntity
  8
20287000_2LB_WT_
  6
Continuous
 62
     7
100
AcDbLine
 10
127.2662627645
 20
252.5390341115
 30
0.0
 11
127.2898328704
 21
252.2176473377
 31
0.0
  0
LINE
  5
11A
330
FB
100
AcDbEntity
  8
20287000_2LB_WT_
  6
Continuous
 62
     7
100
AcDbLine
 10
145.3157512114
 20
243.6937304208
 30
0.0
 11
145.3157502539
 21
244.1746738907
 31
0.0
  0
LINE
  5
11B
330
FB
100
AcDbEntity
  8
20287000_2LB_WT_
  6
Continuous
 62
     7
100
AcDbLine
 10
154.279457386
 20
244.1746738907
 30
0.0
 11
154.2757239006
 21
243.5663122024
 31
0.0
  0
LINE
  5
11C
330
FB
100
AcDbEntity
  8
20287000_2LB_WT_
  6
Continuous
 62
     7
100
AcDbLine
 10
155.3825619781
 20
244.1746738907
 30
0.0
 11
155.3807193728
 21
243.6931583289
 31
0.0
  0
LINE
  5
11D
330
FB
100
AcDbEntity
  8
20287000_2LB_WT_
  6
Continuous
 62
     7
100
AcDbLine
 10
145.3174335014
 20
244.1746738907
 30
0.0
 11
145.319275787
 21
243.6933144515
 31
0.0
  0
LINE
  5
11E
330
FB
100
AcDbEntity
  8
20287000_2LB_WT_
  6
Continuous
 62
     7
100
AcDbLine
 10
145.1150152369
 20
243.7174212193
 30
0.0
 11
145.1150136734
 21
244.1746738907
 31
0.0
  0
LINE
  5
11F
330
FB
100
AcDbEntity
  8
20287000_2LB_WT_
  6
Continuous
 62
     7
100
AcDbLine
 10
155.5849824806
 20
244.1746738907
 30
0.0
 11
155.5849840469
 21
243.7166065541
 31
0.0
  0
ELLIPSE
  5
120
330
FB
100
AcDbEntity
  8
20287000_2LB_WT_
  6
Continuous
 62
     7
100
AcDbEllipse
 10
150.35
 20
248.166433835
 30
0.0
 11
0.0
 21
18.90274959886417
 31
0.0
210
0.0
220
0.0
230
1.0
 40
1.0
 41
1.581250490370358
 42
1.586939107864547
  0
ELLIPSE
  5
121
330
FB
100
AcDbEntity
  8
20287000_2LB_WT_
  6
Continuous
 62
     7
100
AcDbEllipse
 10
150.35
 20
248.166433835
 30
0.0
 11
0.0
 21
17.32598442364983
 31
0.0
210
0.0
220
0.0
230
1.0
 40
1.0
 41
4.696246199314977
 42
4.701801275158561
  0
ARC
  5
122
330
FB
100
AcDbEntity
  8
20287000_2LB_WT_
  6
Continuous
 62
     7
100
AcDbCircle
 10
171.06720926
 20
241.1908384729
 30
0.0
 40
7.020626017030501
100
AcDbArc
 50
106.9032634069
 51
114.7562570233
  0
ARC
  5
123
330
FB
100
AcDbEntity
  8
20287000_2LB_WT_
  6
Continuous
 62
     7
100
AcDbCircle
 10
145.4710490304
 20
296.1768505811
 30
0.0
 40
53.63109418118884
100
AcDbArc
 50
286.4766281438
 51
294.9890741269
  0
ARC
  5
124
330
FB
100
AcDbEntity
  8
20287000_2LB_WT_
  6
Continuous
 62
     7
100
AcDbCircle
 10
175.1214240875
 20
243.1458307252
 30
0.0
 40
7.408534614084742
100
AcDbArc
 50
135.4978070015
 51
146.2480794394
  0
ELLIPSE
  5
125
330
FB
100
AcDbEntity
  8
20287000_2LB_WT_
  6
Continuous
 62
     7
100
AcDbEllipse
 10
150.35
 20
248.2727321456
 30
0.0
 11
0.0
 21
17.398374426998
 31
0.0
210
0.0
220
0.0
230
1.0
 40
1.0
 41
4.6959635987013
 42
4.70235435656015
  0
ELLIPSE
  5
126
330
FB
100
AcDbEntity
  8
20287000_2LB_WT_
  6
Continuous
 62
     7
100
AcDbEllipse
 10
150.35
 20
248.2727321456
 30
0.0
 11
0.0
 21
19.11740847263025
 31
0.0
210
0.0
220
0.0
230
1.0
 40
1.0
 41
1.581075748787686
 42
1.587221708478233
  0
SPLINE
  5
127
330
FB
100
AcDbEntity
  8
20287000_2LB_WT_
  6
Continuous
 62
     7
100
AcDbSpline
210
0.0
220
0.0
230
1.0
 70
     8
 71
     3
 72
    15
 73
    11
 74
     0
 42
0.00000002417704
 43
0.0000000001
 40
0.0
 40
0.0
 40
0.0
 40
0.0
 40
0.1007792010133228
 40
0.200955884719153
 40
0.3008531049797794
 40
0.4007959916166166
 40
0.501108558994861
 40
0.6675216908822255
 40
0.8333236128488821
 40
1.0
 40
1.0
 40
1.0
 40
1.0
 10
171.73785508673
 20
252.7118098434454
 30
0.0
 10
171.741334778211
 20
252.7376829198887
 30
0.0
 10
171.7482694982267
 20
252.7892750715953
 30
0.0
 10
171.7557131833624
 20
252.8568505978138
 30
0.0
 10
171.7608414100459
 20
252.9167950483555
 30
0.0
 10
171.7633791209043
 20
252.96842510657
 30
0.0
 10
171.7633230998949
 20
253.0214485512383
 30
0.0
 10
171.7580492654696
 20
253.0675958692201
 30
0.0
 10
171.744937990604
 20
253.0984516862914
 30
0.0
 10
171.7298742121642
 20
253.0985777433187
 30
0.0
 10
171.72232251296
 20
253.0986409372991
 30
0.0
  0
ARC
  5
128
330
FB
100
AcDbEntity
  8
20287000_2LB_WT_
  6
Continuous
 62
     7
100
AcDbCircle
 10
162.3570030691
 20
254.1889321276
 30
0.0
 40
9.496434847870669
100
AcDbArc
 50
321.9724351122
 51
351.051598294
  0
SPLINE
  5
129
330
FB
100
AcDbEntity
  8
20287000_2LB_WT_
  6
Continuous
 62
     7
100
AcDbSpline
210
0.0
220
0.0
230
1.0
 70
     8
 71
     3
 72
    15
 73
    11
 74
     0
 42
0.0000000243155884
 43
0.0000000001
 40
0.0
 40
0.0
 40
0.0
 40
0.0
 40
0.1002085475355036
 40
0.1998948315176249
 40
0.2993778222428641
 40
0.398978794131831
 40
0.4990182296012251
 40
0.6659240217104723
 40
0.8324168147157851
 40
1.0
 40
1.0
 40
1.0
 40
1.0
 10
128.97767972596
 20
253.0986413397156
 30
0.0
 10
128.9729699074517
 20
253.0991523446613
 30
0.0
 10
128.9635792831669
 20
253.1001724934354
 30
0.0
 10
128.9529014411608
 20
253.0907200611886
 30
0.0
 10
128.9447655767413
 20
253.0731900766052
 30
0.0
 10
128.9393891291635
 20
253.0467899206698
 30
0.0
 10
128.9360646701155
 20
253.0040923015919
 30
0.0
 10
128.9373350440989
 20
252.9371634889341
 30
0.0
 10
128.9455329946734
 20
252.8382931107779
 30
0.0
 10
128.9565942824464
 20
252.754062344533
 30
0.0
 10
128.96214491544
 20
252.7118098438472
 30
0.0
  0
ARC
  5
12A
330
FB
100
AcDbEntity
  8
20287000_2LB_WT_
  6
Continuous
 62
     7
100
AcDbCircle
 10
138.2370708366
 20
254.1429005423
 30
0.0
 40
9.384682809233924
100
AcDbArc
 50
188.7713795062
 51
190.5889567228
  0
ARC
  5
12B
330
FB
100
AcDbEntity
  8
20287000_2LB_WT_
  6
Continuous
 62
     7
100
AcDbCircle
 10
138.2370708366
 20
254.1429005423
 30
0.0
 40
9.384682809233924
100
AcDbArc
 50
190.5889567228
 51
218.2045878635
  0
ARC
  5
12C
330
FB
100
AcDbEntity
  8
20287000_2LB_WT_
  6
Continuous
 62
     7
100
AcDbCircle
 10
125.5786346569
 20
243.1458828488
 30
0.0
 40
7.408456154258946
100
AcDbArc
 50
33.7519170401
 51
44.5022226602
  0
ARC
  5
12D
330
FB
100
AcDbEntity
  8
20287000_2LB_WT_
  6
Continuous
 62
     7
100
AcDbCircle
 10
156.1989195302
 20
298.7394264438
 30
0.0
 40
56.36391770662875
100
AcDbArc
 50
245.8031087658
 51
253.3165682242
  0
ARC
  5
12E
330
FB
100
AcDbEntity
  8
20287000_2LB_WT_
  6
Continuous
 62
     7
100
AcDbCircle
 10
150.3499952531
 20
282.5766171732
 30
0.0
 40
39.2141605074506
100
AcDbArc
 50
254.7232229953
 51
285.2766281414
  0
ARC
  5
12F
330
FB
100
AcDbEntity
  8
20287000_2LB_WT_
  6
Continuous
 62
     7
100
AcDbCircle
 10
148.3290670661
 20
300.3234441472
 30
0.0
 40
56.93169629490998
100
AcDbArc
 50
282.5317349734
 51
291.2481764946
  0
LINE
  5
130
330
FB
100
AcDbEntity
  8
20287000_2LB_WT_
  6
Continuous
 62
     7
100
AcDbLine
 10
173.1363862837
 20
252.8492746944
 30
0.0
 11
173.1051589543
 21
252.5042650689
 31
0.0
  0
LINE
  5
131
330
FB
100
AcDbEntity
  8
20287000_2LB_WT_
  6
Continuous
 62
     7
100
AcDbLine
 10
173.1051567082
 20
252.5040879658
 30
0.0
 11
173.1018997945
 21
252.4836781444
 31
0.0
  0
SPLINE
  5
132
330
FB
100
AcDbEntity
  8
20287000_2LB_WT_
  6
Continuous
 62
     7
100
AcDbSpline
210
0.0
220
0.0
230
1.0
 70
     8
 71
     3
 72
    35
 73
    31
 74
     0
 42
0.0000000001749518
 43
0.0000000001
 40
0.0
 40
0.0
 40
0.0
 40
0.0
 40
0.062499931254482
 40
0.1249999417039958
 40
0.1562499469286826
 40
0.1874999521533695
 40
0.2187499573782564
 40
0.2343749599904499
 40
0.2499999626029433
 40
0.312499973052317
 40
0.3281249756647105
 40
0.3437499782771039
 40
0.3749999835017908
 40
0.4062499887264777
 40
0.4374999939513646
 40
0.5000000044007383
 40
0.5312500096255253
 40
0.5625000148502122
 40
0.593750020074899
 40
0.6093750226873924
 40
0.6250000252995858
 40
0.6875000357491596
 40
0.7031250383615532
 40
0.7187500409738465
 40
0.7500000461986334
 40
0.8125000566480071
 40
0.843750061872894
 40
0.8750000670975808
 40
0.9375000775470546
 40
1.0
 40
1.0
 40
1.0
 40
1.0
 10
173.1018985150922
 20
252.4834896189344
 30
0.0
 10
172.94363682951
 20
251.6766517720566
 30
0.0
 10
172.51822939659
 20
250.074789733373
 30
0.0
 10
171.55873477474
 20
248.1226447687962
 30
0.0
 10
170.43153544727
 20
246.5951921146088
 30
0.0
 10
169.41055788779
 20
245.4985775454631
 30
0.0
 10
168.40849570708
 20
244.6268849005884
 30
0.0
 10
167.51169250993
 20
243.9566012124825
 30
0.0
 10
166.06357298753
 20
242.9774471146776
 30
0.0
 10
164.41253049003
 20
242.1038523345826
 30
0.0
 10
162.52833506857
 20
241.3482882049345
 30
0.0
 10
161.2102003141
 20
240.879959361846
 30
0.0
 10
159.48987590957
 20
240.3776442752107
 30
0.0
 10
157.302690764616
 20
239.9029099835607
 30
0.0
 10
154.204316818911
 20
239.4449517279779
 30
0.0
 10
151.0521070677016
 20
239.2712792747472
 30
0.0
 10
147.832761772483
 20
239.372844495248
 30
0.0
 10
145.491533234809
 20
239.5871348631854
 30
0.0
 10
143.591741272576
 20
239.8789011251153
 30
0.0
 10
142.098721089373
 20
240.1853585412745
 30
0.0
 10
139.93564355218
 20
240.7088604923358
 30
0.0
 10
137.97490113467
 20
241.3820862413051
 30
0.0
 10
136.19779021199
 20
242.1927509787342
 30
0.0
 10
135.06056869886
 20
242.7704220879945
 30
0.0
 10
133.25259634329
 20
243.8432800698284
 30
0.0
 10
131.54333088875
 20
245.2103838809455
 30
0.0
 10
130.19611978755
 20
246.6838897475381
 30
0.0
 10
129.10916090961
 20
248.1824299194469
 30
0.0
 10
128.16894657326
 20
250.1152154125771
 30
0.0
 10
127.74968931847
 20
251.705063256519
 30
0.0
 10
127.593422894257
 20
252.5071601047164
 30
0.0
  0
LINE
  5
133
330
FB
100
AcDbEntity
  8
20287000_2LB_WT_
  6
Continuous
 62
     7
100
AcDbLine
 10
127.593422098
 20
252.5070837161
 30
0.0
 11
127.5901720394
 21
252.5286972527
 31
0.0
  0
LINE
  5
134
330
FB
100
AcDbEntity
  8
20287000_2LB_WT_
  6
Continuous
 62
     7
100
AcDbLine
 10
127.590165354
 20
252.5270396995
 30
0.0
 11
127.5611993534
 21
252.8525708898
 31
0.0
  0
ARC
  5
135
330
FB
100
AcDbEntity
  8
20287000_2LB_WT_
  6
Continuous
 62
     7
100
AcDbCircle
 10
152.3705945538
 20
300.3222726671
 30
0.0
 40
56.93047648300187
100
AcDbArc
 50
248.7517048023
 51
257.4682298978
  0
SPLINE
  5
136
330
FB
100
AcDbEntity
  8
20287000_2LB_WT_
  6
Continuous
 62
     7
100
AcDbSpline
210
0.0
220
0.0
230
1.0
 70
     8
 71
     3
 72
     9
 73
     5
 74
     0
 42
0.0000000023327699
 43
0.0000000001
 40
0.8731020203724678
 40
0.8731020203724678
 40
0.8731020203724678
 40
0.8731020203724678
 40
0.8958780092936661
 40
0.9100075458332455
 40
0.9100075458332455
 40
0.9100075458332455
 40
0.9100075458332455
 10
143.2117398427981
 20
244.1802769469352
 30
0.0
 10
143.19701820418
 20
244.1519677673184
 30
0.0
 10
143.174490084323
 20
244.1047334306086
 30
0.0
 10
143.1542381344618
 20
244.0552791726857
 30
0.0
 10
143.146913933612
 20
244.036105907597
 30
0.0
  0
SPLINE
  5
137
330
FB
100
AcDbEntity
  8
20287000_2LB_WT_
  6
Continuous
 62
     7
100
AcDbSpline
210
0.0
220
0.0
230
1.0
 70
     8
 71
     3
 72
     9
 73
     5
 74
     0
 42
0.0000000023288014
 43
0.0000000001
 40
0.09021217580606
 40
0.09021217580606
 40
0.09021217580606
 40
0.09021217580606
 40
0.1057673665426046
 40
0.1269879188943913
 40
0.1269879188943913
 40
0.1269879188943913
 40
0.1269879188943913
 10
157.5529242372901
 20
244.0367690706317
 30
0.0
 10
157.5448353333991
 20
244.057897062278
 30
0.0
 10
157.5244723700758
 20
244.1071661369942
 30
0.0
 10
157.5018364594238
 20
244.1542055738428
 30
0.0
 10
157.4880659273468
 20
244.1806103467901
 30
0.0
  0
SPLINE
  5
138
330
FB
100
AcDbEntity
  8
20287000_2LB_WT_
  6
Continuous
 62
     7
100
AcDbSpline
210
0.0
220
0.0
230
1.0
 70
     8
 71
     3
 72
    11
 73
     7
 74
     0
 42
0.0000000129070698
 43
0.0000000001
 40
0.0
 40
0.0
 40
0.0
 40
0.0
 40
0.2528023682075404
 40
0.5067394098312035
 40
0.7569587382639965
 40
1.0
 40
1.0
 40
1.0
 40
1.0
 10
127.5852534474715
 20
253.240537944126
 30
0.0
 10
127.5401020339761
 20
253.2214476369036
 30
0.0
 10
127.4644122931245
 20
253.1851772146371
 30
0.0
 10
127.3496979050201
 20
253.0422432478631
 30
0.0
 10
127.2732150040807
 20
252.8360477236171
 30
0.0
 10
127.2657077980781
 20
252.6859254113817
 30
0.0
 10
127.2624770074128
 20
252.5976756104953
 30
0.0
  0
LINE
  5
139
330
FB
100
AcDbEntity
  8
20287000_2LB_WT_
  6
Continuous
 62
     7
100
AcDbLine
 10
128.7841198596
 20
253.2643893017
 30
0.0
 11
127.6180494515
 21
253.2643893017
 31
0.0
  0
LINE
  5
13A
330
FB
100
AcDbEntity
  8
20287000_2LB_WT_
  6
Continuous
 62
     7
100
AcDbLine
 10
173.0788958819
 20
253.2643893017
 30
0.0
 11
171.915880141
 21
253.2643893017
 31
0.0
  0
SPLINE
  5
13B
330
FB
100
AcDbEntity
  8
20287000_2LB_WT_
  6
Continuous
 62
     7
100
AcDbSpline
210
0.0
220
0.0
230
1.0
 70
     8
 71
     3
 72
    11
 73
     7
 74
     0
 42
0.0000000128918914
 43
0.0000000001
 40
0.0
 40
0.0
 40
0.0
 40
0.0
 40
0.243041837841037
 40
0.4950492990168295
 40
0.7494302566911086
 40
1.0
 40
1.0
 40
1.0
 40
1.0
 10
173.4351542505549
 20
252.5978430491328
 30
0.0
 10
173.4317877493107
 20
252.6861463650867
 30
0.0
 10
173.424014509986
 20
252.836985227311
 30
0.0
 10
173.3477140200926
 20
253.0427527796105
 30
0.0
 10
173.2332646953436
 20
253.1860532309319
 30
0.0
 10
173.1569965480558
 20
253.2221397178755
 30
0.0
 10
173.1117568160927
 20
253.2410862347222
 30
0.0
  0
SPLINE
  5
13C
330
FB
100
AcDbEntity
  8
20287000_2LB_WT_
  6
Continuous
 62
     7
100
AcDbSpline
210
0.0
220
0.0
230
1.0
 70
     8
 71
     3
 72
    20
 73
    16
 74
     0
 42
0.0000000017780907
 43
0.0000000001
 40
0.0
 40
0.0
 40
0.0
 40
0.0
 40
0.0636975081330356
 40
0.1263137915699235
 40
0.1856485888413752
 40
0.2417478952319519
 40
0.2965122118210525
 40
0.3556416075077504
 40
0.4195293585668161
 40
0.5000795453964516
 40
0.5871074951769678
 40
0.6806142575168376
 40
0.7805994970275616
 40
0.8870616909431612
 40
1.0
 40
1.0
 40
1.0
 40
1.0
 10
132.3614836942324
 20
224.3875000664091
 30
0.0
 10
132.4308238501933
 20
224.2086648132155
 30
0.0
 10
132.5464834424565
 20
223.9134392190102
 30
0.0
 10
132.8298977876013
 20
223.4984056468914
 30
0.0
 10
133.0940283183548
 20
223.1784925505259
 30
0.0
 10
133.3235444599966
 20
222.9359918773041
 30
0.0
 10
133.5055556461444
 20
222.7546586990805
 30
0.0
 10
133.7102248725793
 20
222.5609030718699
 30
0.0
 10
133.9494027249723
 20
222.3500125358901
 30
0.0
 10
134.2353914403526
 20
222.1193506547725
 30
0.0
 10
134.5784774530764
 20
221.8732271755896
 30
0.0
 10
134.9777014661378
 20
221.6242937453907
 30
0.0
 10
135.4377745860532
 20
221.380073891799
 30
0.0
 10
135.9796162675589
 20
221.1391135604921
 30
0.0
 10
136.350589540452
 20
221.0132918553547
 30
0.0
 10
136.5786385497589
 20
220.9371173855527
 30
0.0
  0
ARC
  5
13D
330
FB
100
AcDbEntity
  8
20287000_2LB_WT_
  6
Continuous
 62
     7
100
AcDbCircle
 10
162.2744410955
 20
227.4964895528
 30
0.0
 40
6.814441622643354
100
AcDbArc
 50
285.726123251
 51
332.778033921
  0
LINE
  5
13E
330
FB
100
AcDbEntity
  8
20287000_2LB_WT_
  6
Continuous
 62
     7
100
AcDbLine
 10
168.321392692
 20
224.3605999082
 30
0.0
 11
170.4205599944
 21
235.6839516689
 31
0.0
  0
LINE
  5
13F
330
FB
100
AcDbEntity
  8
20287000_2LB_WT_
  6
Continuous
 62
     7
100
AcDbLine
 10
130.2758819332
 20
235.7025137598
 30
0.0
 11
132.3786650695
 21
224.3597369393
 31
0.0
  0
ARC
  5
140
330
FB
100
AcDbEntity
  8
20287000_2LB_WT_
  6
Continuous
 62
     7
100
AcDbCircle
 10
147.9799457858
 20
299.962998437
 30
0.0
 40
56.15574575946479
100
AcDbArc
 50
290.4624824344
 51
292.7635811247
  0
ARC
  5
141
330
FB
100
AcDbEntity
  8
20287000_2LB_WT_
  6
Continuous
 62
     7
100
AcDbCircle
 10
147.8319545348
 20
287.4043662527
 30
0.0
 40
42.68034274868847
100
AcDbArc
 50
246.7055230927
 51
249.8209660637
  0
LINE
  5
142
330
FB
100
AcDbEntity
  8
20287000_2LB_WT_
  6
Continuous
 62
     7
100
AcDbLine
 10
17.6499880984
 20
280.1746738907
 30
0.0
 11
17.6499958219
 21
280.1746661672
 31
0.0
  0
LINE
  5
143
330
FB
100
AcDbEntity
  8
20287000_2LB_WT_
  6
Continuous
 62
     7
100
AcDbLine
 10
63.0500041781
 20
280.1746661672
 30
0.0
 11
63.0500119016
 21
280.1746738907
 31
0.0
  0
LINE
  5
144
330
FB
100
AcDbEntity
  8
20287000_2LB_WT_
  6
Continuous
 62
     7
100
AcDbLine
 10
54.7688275547
 20
112.2390958972
 30
0.0
 11
55.8813453321
 21
280.1746739251
 31
0.0
  0
ARC
  5
145
330
FB
100
AcDbEntity
  8
20287000_2LB_WT_
  6
Continuous
 62
     7
100
AcDbCircle
 10
49.7689373309
 20
112.2722184494
 30
0.0
 40
4.999999935352239
100
AcDbArc
 50
281.0788668706
 51
359.6204407287
  0
ARC
  5
146
330
FB
100
AcDbEntity
  8
20287000_2LB_WT_
  6
Continuous
 62
     7
100
AcDbCircle
 10
40.3500000009
 20
159.9101413913
 30
0.0
 40
53.56014139130961
100
AcDbArc
 50
258.8256064867
 51
281.1743937142
  0
ARC
  5
147
330
FB
100
AcDbEntity
  8
20287000_2LB_WT_
  6
Continuous
 62
     7
100
AcDbCircle
 10
30.9310626711
 20
112.2722184528
 30
0.0
 40
4.999999938970966
100
AcDbArc
 50
180.3795593929
 51
258.9211352871
  0
LINE
  5
148
330
FB
100
AcDbEntity
  8
20287000_2LB_WT_
  6
Continuous
 62
     7
100
AcDbLine
 10
24.8186569671
 20
280.174673902
 30
0.0
 11
25.9311724437
 21
112.2390958899
 31
0.0
  0
LINE
  5
149
330
FB
100
AcDbEntity
  8
20287000_2LB_WT_
  6
Continuous
 62
     7
100
AcDbLine
 10
116.35
 20
290.1746738907
 30
0.0
 11
184.35
 21
290.1746738907
 31
0.0
  0
LINE
  5
14A
330
FB
100
AcDbEntity
  8
20287000_2LB_WT_
  6
Continuous
 62
     7
100
AcDbLine
 10
116.8499999733
 20
280.1746738907
 30
0.0
 11
183.8500000267
 21
280.1746738907
 31
0.0
  0
LINE
  5
14B
330
FB
100
AcDbEntity
  8
20287000_2LB_WT_
  6
Continuous
 62
     7
100
AcDbLine
 10
184.35
 20
280.6746738907
 30
0.0
 11
184.35
 21
290.1746738907
 31
0.0
  0
LINE
  5
14C
330
FB
100
AcDbEntity
  8
20287000_2LB_WT_
  6
Continuous
 62
     7
100
AcDbLine
 10
116.35
 20
290.1746738907
 30
0.0
 11
116.35
 21
280.6746738907
 31
0.0
  0
ARC
  5
14D
330
FB
100
AcDbEntity
  8
20287000_2LB_WT_
  6
Continuous
 62
     7
100
AcDbCircle
 10
183.85
 20
280.6746738907
 30
0.0
 40
0.5000000000000007
100
AcDbArc
 50
270.0000015309
 51
0.0
  0
ARC
  5
14E
330
FB
100
AcDbEntity
  8
20287000_2LB_WT_
  6
Continuous
 62
     7
100
AcDbCircle
 10
116.85
 20
280.6746738907
 30
0.0
 40
0.5000000000000004
100
AcDbArc
 50
180.0
 51
269.9999984691
  0
LINE
  5
14F
330
FB
100
AcDbEntity
  8
20287000_2LB_WT_
  6
Continuous
 62
     7
100
AcDbLine
 10
6.35
 20
290.1746738907
 30
0.0
 11
74.35
 21
290.1746738907
 31
0.0
  0
LINE
  5
150
330
FB
100
AcDbEntity
  8
20287000_2LB_WT_
  6
Continuous
 62
     7
100
AcDbLine
 10
6.8499999733
 20
280.1746738907
 30
0.0
 11
73.8500000267
 21
280.1746738907
 31
0.0
  0
LINE
  5
151
330
FB
100
AcDbEntity
  8
20287000_2LB_WT_
  6
Continuous
 62
     7
100
AcDbLine
 10
74.35
 20
280.6746738907
 30
0.0
 11
74.35
 21
290.1746738907
 31
0.0
  0
LINE
  5
152
330
FB
100
AcDbEntity
  8
20287000_2LB_WT_
  6
Continuous
 62
     7
100
AcDbLine
 10
6.35
 20
290.1746738907
 30
0.0
 11
6.35
 21
280.6746738907
 31
0.0
  0
ARC
  5
153
330
FB
100
AcDbEntity
  8
20287000_2LB_WT_
  6
Continuous
 62
     7
100
AcDbCircle
 10
73.85
 20
280.6746738907
 30
0.0
 40
0.5000000000000007
100
AcDbArc
 50
270.0000015309
 51
0.0
  0
ARC
  5
154
330
FB
100
AcDbEntity
  8
20287000_2LB_WT_
  6
Continuous
 62
     7
100
AcDbCircle
 10
6.85
 20
280.6746738907
 30
0.0
 40
0.5000000000000004
100
AcDbArc
 50
180.0
 51
269.9999984691
  0
ENDBLK
  5
156
330
FB
100
AcDbEntity
  8
0
100
AcDbBlockEnd
  0
ENDSEC
  0
SECTION
  2
ENTITIES
  0
INSERT
  5
5F
330
1F
100
AcDbEntity
  8
Default
100
AcDbBlockReference
  2
SEANNOT_GROUP
 10
0.0
 20
0.0
 30
0.0
  0
INSERT
  5
6A
330
1F
100
AcDbEntity
  8
Default
100
AcDbBlockReference
  2
SEANNOT_GROUP1
 10
0.0
 20
0.0
 30
0.0
  0
INSERT
  5
74
330
1F
100
AcDbEntity
  8
Default
100
AcDbBlockReference
  2
SEANNOT_GROUP2
 10
0.0
 20
0.0
 30
0.0
  0
INSERT
  5
7A
330
1F
100
AcDbEntity
  8
Default
100
AcDbBlockReference
  2
SEANNOT_GROUP3
 10
0.0
 20
0.0
 30
0.0
  0
INSERT
  5
80
330
1F
100
AcDbEntity
  8
Default
100
AcDbBlockReference
  2
SEANNOT_GROUP4
 10
0.0
 20
0.0
 30
0.0
  0
INSERT
  5
86
330
1F
100
AcDbEntity
  8
Default
100
AcDbBlockReference
  2
SE
 10
0.0
 20
0.0
 30
0.0
  0
INSERT
  5
BC
330
1F
100
AcDbEntity
  8
Default
100
AcDbBlockReference
  2
SE1
 10
0.0
 20
0.0
 30
0.0
  0
INSERT
  5
FC
330
1F
100
AcDbEntity
  8
Default
100
AcDbBlockReference
  2
SE2
 10
0.0
 20
0.0
 30
0.0
  0
TEXT
  5
158
330
1F
100
AcDbEntity
  8
Default
  6
Continuous
 62
     7
100
AcDbText
 10
5.9362635081
 20
53.4225120485
 30
0.0
 40
10.0
  1
Grohe AG^J
  7
SEACAD_seiso_ttf
 11
5.9362635081
 21
63.4225120485
 31
0.0
100
AcDbText
 73
     3
  0
TEXT
  5
159
330
1F
100
AcDbEntity
  8
Default
  6
Continuous
 62
     7
100
AcDbText
 10
5.9362635081
 20
37.0588756849
 30
0.0
 40
10.0
  1
 
  7
SEACAD_seiso_ttf
 11
5.9362635081
 21
47.0588756849
 31
0.0
100
AcDbText
 73
     3
  0
TEXT
  5
15A
330
1F
100
AcDbEntity
  8
Default
  6
Continuous
 62
     7
100
AcDbText
 10
5.9362635081
 20
20.6952393213
 30
0.0
 40
10.0
  1
ecn: 
  7
SEACAD_seiso_ttf
 11
5.9362635081
 21
30.6952393213
 31
0.0
100
AcDbText
 73
     3
  0
TEXT
  5
15B
330
1F
100
AcDbEntity
  8
Default
  6
Continuous
 62
     7
100
AcDbText
 10
5.9362635081
 20
4.3316029576
 30
0.0
 40
10.0
  1
unit: mm
  7
SEACAD_seiso_ttf
 11
5.9362635081
 21
14.3316029576
 31
0.0
100
AcDbText
 73
     3
  0
LINE
  5
15C
330
1F
100
AcDbEntity
  8
Default
  6
Continuous
 62
     7
100
AcDbLine
 10
0.0
 20
0.0
 30
0.0
 11
100.0
 21
0.0
 31
0.0
  0
LINE
  5
15D
330
1F
100
AcDbEntity
  8
Default
  6
Continuous
 62
     7
100
AcDbLine
 10
0.0
 20
0.0
 30
0.0
 11
0.0
 21
100.0
 31
0.0
  0
TEXT
  5
15E
330
1F
100
AcDbEntity
  8
Default
  6
Continuous
 62
     7
100
AcDbText
 10
24.3923665681
 20
-18.2375342018
 30
0.0
 40
10.0
  1
100 mm
  7
SEACAD_seiso_ttf
 11
24.3923665681
 21
-8.2375342018
 31
0.0
100
AcDbText
 73
     3
  0
TEXT
  5
15F
330
1F
100
AcDbEntity
  8
Default
  6
Continuous
 62
     7
100
AcDbText
 10
-7.6150308803
 20
24.6231930421
 30
0.0
 40
10.0
  1
100 mm
 50
90.0
  7
SEACAD_seiso_ttf
 11
-17.6150308803
 21
24.6231930421
 31
0.0
100
AcDbText
 73
     3
  0
TEXT
  5
160
330
1F
100
AcDbEntity
  8
Default
  6
Continuous
 62
     7
100
AcDbText
 10
28.4878128572
 20
20.0907663715
 30
0.0
 40
10.0
  1
220721
  7
SEACAD_seiso_ttf
 11
28.4878128572
 21
30.0907663715
 31
0.0
100
AcDbText
 73
     3
  0
TEXT
  5
161
330
1F
100
AcDbEntity
  8
Default
  6
Continuous
 62
     7
100
AcDbText
 10
5.9012241913
 20
36.7242780188
 30
0.0
 40
10.0
  1
20287000
  7
SEACAD_seiso_ttf
 11
5.9012241913
 21
46.7242780188
 31
0.0
100
AcDbText
 73
     3
  0
ENDSEC
  0
SECTION
  2
OBJECTS
  0
DICTIONARY
  5
C
330
0
100
AcDbDictionary
281
     1
  3
ACAD_GROUP
350
D
  3
ACAD_LAYOUT
350
1A
  3
ACAD_MLEADERSTYLE
350
165
  3
ACAD_MLINESTYLE
350
17
  3
ACAD_PLOTSETTINGS
350
19
  3
ACAD_PLOTSTYLENAME
350
E
  3
ACAD_SCALELIST
350
3B
  3
ACAD_TABLESTYLE
350
164
  3
ACAD_VISUALSTYLE
350
2A
  3
AcDbVariableDictionary
350
162
  0
DICTIONARY
  5
D
102
{ACAD_REACTORS
330
C
102
}
330
C
100
AcDbDictionary
281
     1
  0
DICTIONARY
  5
1A
102
{ACAD_REACTORS
330
C
102
}
330
C
100
AcDbDictionary
281
     1
  3
Layout1
350
1E
  3
Model
350
22
  0
DICTIONARY
  5
165
102
{ACAD_REACTORS
330
C
102
}
330
C
100
AcDbDictionary
281
     1
  0
DICTIONARY
  5
17
102
{ACAD_REACTORS
330
C
102
}
330
C
100
AcDbDictionary
281
     1
  3
Standard
350
18
  0
DICTIONARY
  5
19
102
{ACAD_REACTORS
330
C
102
}
330
C
100
AcDbDictionary
281
     1
  0
ACDBDICTIONARYWDFLT
  5
E
102
{ACAD_REACTORS
330
C
102
}
330
C
100
AcDbDictionary
281
     1
  3
Normal
350
F
100
AcDbDictionaryWithDefault
340
F
  0
DICTIONARY
  5
3B
102
{ACAD_REACTORS
330
C
102
}
330
C
100
AcDbDictionary
281
     1
  3
A0
350
3C
  3
A1
350
3D
  3
A2
350
3E
  3
A3
350
3F
  3
A4
350
40
  3
A5
350
41
  3
A6
350
42
  3
A7
350
43
  3
A8
350
44
  3
A9
350
45
  3
B0
350
46
  3
B1
350
47
  3
B2
350
48
  3
B3
350
49
  3
B4
350
4A
  3
B5
350
4B
  3
B6
350
4C
  3
B7
350
4D
  3
B8
350
4E
  3
B9
350
4F
  3
C0
350
50
  3
C1
350
51
  3
C2
350
52
  3
C3
350
53
  3
C4
350
54
  3
C5
350
55
  3
C6
350
56
  3
C7
350
57
  3
C8
350
58
  3
C9
350
59
  3
D0
350
5A
  3
D1
350
5B
  3
D2
350
5C
  0
DICTIONARY
  5
164
102
{ACAD_REACTORS
330
C
102
}
330
C
100
AcDbDictionary
281
     1
  0
DICTIONARY
  5
2A
102
{ACAD_REACTORS
330
C
102
}
330
C
100
AcDbDictionary
281
     1
  3
2dWireframe
350
2F
  3
3D Hidden
350
31
  3
3dWireframe
350
30
  3
Basic
350
32
  3
Brighten
350
36
  3
ColorChange
350
3A
  3
Conceptual
350
34
  3
Dim
350
35
  3
Facepattern
350
39
  3
Flat
350
2B
  3
FlatWithEdges
350
2C
  3
Gouraud
350
2D
  3
GouraudWithEdges
350
2E
  3
Linepattern
350
38
  3
Realistic
350
33
  3
Thicken
350
37
  0
DICTIONARY
  5
162
102
{ACAD_REACTORS
330
C
102
}
330
C
100
AcDbDictionary
281
     1
  3
CANNOSCALE
350
163
  3
PSOLHEIGHT
350
167
  3
PSOLWIDTH
350
166
  0
LAYOUT
  5
1E
102
{ACAD_REACTORS
330
1A
102
}
330
1A
100
AcDbPlotSettings
  1

  2
none_device
  4

  6

 40
0.0
 41
0.0
 42
0.0
 43
0.0
 44
0.0
 45
0.0
 46
0.0
 47
0.0
 48
0.0
 49
0.0
140
0.0
141
0.0
142
1.0
143
1.0
 70
   688
 72
     0
 73
     0
 74
     5
  7

 75
    16
147
1.0
148
0.0
149
0.0
100
AcDbLayout
  1
Layout1
 70
     1
 71
     1
 10
0.0
 20
0.0
 11
1682.0
 21
2378.0
 12
0.0
 22
0.0
 32
0.0
 14
0.0
 24
0.0
 34
0.0
 15
1682.0
 25
2378.0
 35
0.0
146
0.0
 13
0.0
 23
0.0
 33
0.0
 16
1.0
 26
0.0
 36
0.0
 17
0.0
 27
1.0
 37
0.0
 76
     0
330
1B
  0
LAYOUT
  5
22
102
{ACAD_REACTORS
330
1A
102
}
330
1A
100
AcDbPlotSettings
  1

  2
none_device
  4

  6

 40
0.0
 41
0.0
 42
0.0
 43
0.0
 44
0.0
 45
0.0
 46
0.0
 47
0.0
 48
0.0
 49
0.0
140
0.0
141
0.0
142
1.0
143
1.0
 70
  1712
 72
     0
 73
     0
 74
     0
  7

 75
     0
147
1.0
148
0.0
149
0.0
100
AcDbLayout
  1
Model
 70
     1
 71
     0
 10
0.0
 20
0.0
 11
1682.0
 21
2378.0
 12
0.0
 22
0.0
 32
0.0
 14
0.0
 24
0.0
 34
0.0
 15
1682.0
 25
2378.0
 35
0.0
146
0.0
 13
0.0
 23
0.0
 33
0.0
 16
1.0
 26
0.0
 36
0.0
 17
0.0
 27
1.0
 37
0.0
 76
     0
330
1F
331
29
  0
MLINESTYLE
  5
18
102
{ACAD_REACTORS
330
17
102
}
330
17
100
AcDbMlineStyle
  2
Standard
 70
     0
  3

 62
   256
 51
90.0
 52
90.0
 71
     2
 49
0.5
 62
   256
  6
BYLAYER
 49
-0.5
 62
   256
  6
BYLAYER
  0
ACDBPLACEHOLDER
  5
F
102
{ACAD_REACTORS
330
E
102
}
330
E
  0
SCALE
  5
3C
102
{ACAD_REACTORS
330
3B
102
}
330
3B
100
AcDbScale
 70
     0
300
1:1
140
1.0
141
1.0
290
     1
  0
SCALE
  5
3D
102
{ACAD_REACTORS
330
3B
102
}
330
3B
100
AcDbScale
 70
     0
300
1:2
140
1.0
141
2.0
290
     0
  0
SCALE
  5
3E
102
{ACAD_REACTORS
330
3B
102
}
330
3B
100
AcDbScale
 70
     0
300
1:4
140
1.0
141
4.0
290
     0
  0
SCALE
  5
3F
102
{ACAD_REACTORS
330
3B
102
}
330
3B
100
AcDbScale
 70
     0
300
1:5
140
1.0
141
5.0
290
     0
  0
SCALE
  5
40
102
{ACAD_REACTORS
330
3B
102
}
330
3B
100
AcDbScale
 70
     0
300
1:8
140
1.0
141
8.0
290
     0
  0
SCALE
  5
41
102
{ACAD_REACTORS
330
3B
102
}
330
3B
100
AcDbScale
 70
     0
300
1:10
140
1.0
141
10.0
290
     0
  0
SCALE
  5
42
102
{ACAD_REACTORS
330
3B
102
}
330
3B
100
AcDbScale
 70
     0
300
1:16
140
1.0
141
16.0
290
     0
  0
SCALE
  5
43
102
{ACAD_REACTORS
330
3B
102
}
330
3B
100
AcDbScale
 70
     0
300
1:20
140
1.0
141
20.0
290
     0
  0
SCALE
  5
44
102
{ACAD_REACTORS
330
3B
102
}
330
3B
100
AcDbScale
 70
     0
300
1:30
140
1.0
141
30.0
290
     0
  0
SCALE
  5
45
102
{ACAD_REACTORS
330
3B
102
}
330
3B
100
AcDbScale
 70
     0
300
1:40
140
1.0
141
40.0
290
     0
  0
SCALE
  5
46
102
{ACAD_REACTORS
330
3B
102
}
330
3B
100
AcDbScale
 70
     0
300
1:50
140
1.0
141
50.0
290
     0
  0
SCALE
  5
47
102
{ACAD_REACTORS
330
3B
102
}
330
3B
100
AcDbScale
 70
     0
300
1:100
140
1.0
141
100.0
290
     0
  0
SCALE
  5
48
102
{ACAD_REACTORS
330
3B
102
}
330
3B
100
AcDbScale
 70
     0
300
2:1
140
2.0
141
1.0
290
     0
  0
SCALE
  5
49
102
{ACAD_REACTORS
330
3B
102
}
330
3B
100
AcDbScale
 70
     0
300
4:1
140
4.0
141
1.0
290
     0
  0
SCALE
  5
4A
102
{ACAD_REACTORS
330
3B
102
}
330
3B
100
AcDbScale
 70
     0
300
8:1
140
8.0
141
1.0
290
     0
  0
SCALE
  5
4B
102
{ACAD_REACTORS
330
3B
102
}
330
3B
100
AcDbScale
 70
     0
300
10:1
140
10.0
141
1.0
290
     0
  0
SCALE
  5
4C
102
{ACAD_REACTORS
330
3B
102
}
330
3B
100
AcDbScale
 70
     0
300
100:1
140
100.0
141
1.0
290
     0
  0
SCALE
  5
4D
102
{ACAD_REACTORS
330
3B
102
}
330
3B
100
AcDbScale
 70
     0
300
1/128" = 1'-0"
140
0.0078125
141
12.0
290
     0
  0
SCALE
  5
4E
102
{ACAD_REACTORS
330
3B
102
}
330
3B
100
AcDbScale
 70
     0
300
1/64" = 1'-0"
140
0.015625
141
12.0
290
     0
  0
SCALE
  5
4F
102
{ACAD_REACTORS
330
3B
102
}
330
3B
100
AcDbScale
 70
     0
300
1/32" = 1'-0"
140
0.03125
141
12.0
290
     0
  0
SCALE
  5
50
102
{ACAD_REACTORS
330
3B
102
}
330
3B
100
AcDbScale
 70
     0
300
1/16" = 1'-0"
140
0.0625
141
12.0
290
     0
  0
SCALE
  5
51
102
{ACAD_REACTORS
330
3B
102
}
330
3B
100
AcDbScale
 70
     0
300
3/32" = 1'-0"
140
0.09375
141
12.0
290
     0
  0
SCALE
  5
52
102
{ACAD_REACTORS
330
3B
102
}
330
3B
100
AcDbScale
 70
     0
300
1/8" = 1'-0"
140
0.125
141
12.0
290
     0
  0
SCALE
  5
53
102
{ACAD_REACTORS
330
3B
102
}
330
3B
100
AcDbScale
 70
     0
300
3/16" = 1'-0"
140
0.1875
141
12.0
290
     0
  0
SCALE
  5
54
102
{ACAD_REACTORS
330
3B
102
}
330
3B
100
AcDbScale
 70
     0
300
1/4" = 1'-0"
140
0.25
141
12.0
290
     0
  0
SCALE
  5
55
102
{ACAD_REACTORS
330
3B
102
}
330
3B
100
AcDbScale
 70
     0
300
3/8" = 1'-0"
140
0.375
141
12.0
290
     0
  0
SCALE
  5
56
102
{ACAD_REACTORS
330
3B
102
}
330
3B
100
AcDbScale
 70
     0
300
1/2" = 1'-0"
140
0.5
141
12.0
290
     0
  0
SCALE
  5
57
102
{ACAD_REACTORS
330
3B
102
}
330
3B
100
AcDbScale
 70
     0
300
3/4" = 1'-0"
140
0.75
141
12.0
290
     0
  0
SCALE
  5
58
102
{ACAD_REACTORS
330
3B
102
}
330
3B
100
AcDbScale
 70
     0
300
1" = 1'-0"
140
1.0
141
12.0
290
     0
  0
SCALE
  5
59
102
{ACAD_REACTORS
330
3B
102
}
330
3B
100
AcDbScale
 70
     0
300
1-1/2" = 1'-0"
140
1.5
141
12.0
290
     0
  0
SCALE
  5
5A
102
{ACAD_REACTORS
330
3B
102
}
330
3B
100
AcDbScale
 70
     0
300
3" = 1'-0"
140
3.0
141
12.0
290
     0
  0
SCALE
  5
5B
102
{ACAD_REACTORS
330
3B
102
}
330
3B
100
AcDbScale
 70
     0
300
6" = 1'-0"
140
6.0
141
12.0
290
     0
  0
SCALE
  5
5C
102
{ACAD_REACTORS
330
3B
102
}
330
3B
100
AcDbScale
 70
     0
300
1'-0" = 1'-0"
140
12.0
141
12.0
290
     0
  0
VISUALSTYLE
  5
2F
102
{ACAD_REACTORS
330
2A
102
}
330
2A
100
AcDbVisualStyle
  2
2dWireframe
 70
     4
 71
     0
 72
     2
 73
     0
 90
        0
 40
-0.6
 41
-30.0
 62
     5
 63
     7
 74
     1
 91
        4
 64
     7
 65
   257
 75
     1
175
     1
 42
1.0
 92
        0
 66
   257
 43
1.0
 76
     1
 77
     6
 78
     2
 67
     7
 79
     5
170
     0
171
     0
290
     0
174
     0
 93
        1
 44
0.0
173
     0
291
     0
 45
0.0
1001
ACAD
1000
AcDbSavedByObjectVersion
1070
     0
  0
VISUALSTYLE
  5
31
102
{ACAD_REACTORS
330
2A
102
}
330
2A
100
AcDbVisualStyle
  2
3D Hidden
 70
     6
 71
     1
 72
     2
 73
     2
 90
        0
 40
-0.6
 41
-30.0
 62
     5
 63
     7
 74
     2
 91
        2
 64
     7
 65
   257
 75
     2
175
     1
 42
40.0
 92
        0
 66
   257
 43
1.0
 76
     1
 77
     6
 78
     2
 67
     7
 79
     3
170
     0
171
     0
290
     0
174
     0
 93
        1
 44
0.0
173
     0
291
     0
 45
0.0
1001
ACAD
1000
AcDbSavedByObjectVersion
1070
     0
  0
VISUALSTYLE
  5
30
102
{ACAD_REACTORS
330
2A
102
}
330
2A
100
AcDbVisualStyle
  2
3dWireframe
 70
     5
 71
     0
 72
     2
 73
     0
 90
        0
 40
-0.6
 41
-30.0
 62
     5
 63
     7
 74
     1
 91
        4
 64
     7
 65
   257
 75
     1
175
     1
 42
1.0
 92
        0
 66
   257
 43
1.0
 76
     1
 77
     6
 78
     2
 67
     7
 79
     5
170
     0
171
     0
290
     0
174
     0
 93
        1
 44
0.0
173
     0
291
     0
 45
0.0
1001
ACAD
1000
AcDbSavedByObjectVersion
1070
     0
  0
VISUALSTYLE
  5
32
102
{ACAD_REACTORS
330
2A
102
}
330
2A
100
AcDbVisualStyle
  2
Basic
 70
     7
 71
     1
 72
     0
 73
     1
 90
        0
 40
-0.6
 41
-30.0
 62
     5
 63
     7
 74
     0
 91
        4
 64
     7
 65
   257
 75
     1
175
     1
 42
1.0
 92
        8
 66
     7
 43
1.0
 76
     1
 77
     6
 78
     2
 67
     7
 79
     5
170
     0
171
     0
290
     0
174
     0
 93
        1
 44
0.0
173
     0
291
     1
 45
0.0
1001
ACAD
1000
AcDbSavedByObjectVersion
1070
     0
  0
VISUALSTYLE
  5
36
102
{ACAD_REACTORS
330
2A
102
}
330
2A
100
AcDbVisualStyle
  2
Brighten
 70
    12
 71
     2
 72
     2
 73
     0
 90
        0
 40
-0.6
 41
-30.0
 62
     5
 63
     7
 74
     1
 91
        4
 64
     7
 65
   257
 75
     1
175
     1
 42
1.0
 92
        8
 66
     7
 43
1.0
 76
     1
 77
     6
 78
     2
 67
     7
 79
     5
170
     0
171
     0
290
     0
174
     0
 93
        1
 44
50.0
173
     0
291
     1
 45
0.0
1001
ACAD
1000
AcDbSavedByObjectVersion
1070
     0
  0
VISUALSTYLE
  5
3A
102
{ACAD_REACTORS
330
2A
102
}
330
2A
100
AcDbVisualStyle
  2
ColorChange
 70
    16
 71
     2
 72
     2
 73
     3
 90
        0
 40
-0.6
 41
-30.0
 62
     5
 63
     8
 74
     1
 91
        4
 64
     7
 65
   257
 75
     1
175
     1
 42
1.0
 92
        8
 66
     8
 43
1.0
 76
     1
 77
     6
 78
     2
 67
     7
 79
     5
170
     0
171
     0
290
     0
174
     0
 93
        1
 44
0.0
173
     0
291
     1
 45
0.0
1001
ACAD
1000
AcDbSavedByObjectVersion
1070
     0
  0
VISUALSTYLE
  5
34
102
{ACAD_REACTORS
330
2A
102
}
330
2A
100
AcDbVisualStyle
  2
Conceptual
 70
     9
 71
     3
 72
     2
 73
     0
 90
        0
 40
-0.6
 41
-30.0
 62
     5
 63
     7
 74
     2
 91
        2
 64
     7
 65
   257
 75
     1
175
     1
 42
40.0
 92
        8
 66
     7
 43
1.0
 76
     1
 77
     6
 78
     2
 67
     7
 79
     3
170
     0
171
     0
290
     0
174
     0
 93
        1
 44
0.0
173
     0
291
     0
 45
0.0
1001
ACAD
1000
AcDbSavedByObjectVersion
1070
     0
  0
VISUALSTYLE
  5
35
102
{ACAD_REACTORS
330
2A
102
}
330
2A
100
AcDbVisualStyle
  2
Dim
 70
    11
 71
     2
 72
     2
 73
     0
 90
        0
 40
-0.6
 41
-30.0
 62
     5
 63
     7
 74
     1
 91
        4
 64
     7
 65
   257
 75
     1
175
     1
 42
1.0
 92
        8
 66
     7
 43
1.0
 76
     1
 77
     6
 78
     2
 67
     7
 79
     5
170
     0
171
     0
290
     0
174
     0
 93
        1
 44
-50.0
173
     0
291
     1
 45
0.0
1001
ACAD
1000
AcDbSavedByObjectVersion
1070
     0
  0
VISUALSTYLE
  5
39
102
{ACAD_REACTORS
330
2A
102
}
330
2A
100
AcDbVisualStyle
  2
Facepattern
 70
    15
 71
     2
 72
     2
 73
     0
 90
        0
 40
-0.6
 41
-30.0
 62
     5
 63
     7
 74
     1
 91
        4
 64
     7
 65
   257
 75
     1
175
     1
 42
1.0
 92
        8
 66
     7
 43
1.0
 76
     1
 77
     6
 78
     2
 67
     7
 79
     5
170
     0
171
     0
290
     0
174
     0
 93
        1
 44
0.0
173
     0
291
     1
 45
0.0
1001
ACAD
1000
AcDbSavedByObjectVersion
1070
     0
  0
VISUALSTYLE
  5
2B
102
{ACAD_REACTORS
330
2A
102
}
330
2A
100
AcDbVisualStyle
  2
Flat
 70
     0
 71
     2
 72
     1
 73
     1
 90
        2
 40
-0.6
 41
30.0
 62
     5
 63
     7
 74
     0
 91
        4
 64
     7
 65
   257
 75
     1
175
     1
 42
1.0
 92
        8
 66
     7
 43
1.0
 76
     1
 77
     6
 78
     2
 67
     7
 79
     5
170
     0
171
     0
290
     0
174
     0
 93
       13
 44
0.0
173
     0
291
     1
 45
0.0
1001
ACAD
1000
AcDbSavedByObjectVersion
1070
     0
  0
VISUALSTYLE
  5
2C
102
{ACAD_REACTORS
330
2A
102
}
330
2A
100
AcDbVisualStyle
  2
FlatWithEdges
 70
     1
 71
     2
 72
     1
 73
     1
 90
        2
 40
-0.6
 41
30.0
 62
     5
 63
     7
 74
     1
 91
        4
 64
     7
 65
   257
 75
     1
175
     1
 42
1.0
 92
        0
 66
   257
 43
1.0
 76
     1
 77
     6
 78
     2
 67
     7
 79
     5
170
     0
171
     0
290
     0
174
     0
 93
       13
 44
0.0
173
     0
291
     1
 45
0.0
1001
ACAD
1000
AcDbSavedByObjectVersion
1070
     0
  0
VISUALSTYLE
  5
2D
102
{ACAD_REACTORS
330
2A
102
}
330
2A
100
AcDbVisualStyle
  2
Gouraud
 70
     2
 71
     2
 72
     2
 73
     1
 90
        2
 40
-0.6
 41
30.0
 62
     5
 63
     7
 74
     0
 91
        4
 64
     7
 65
   257
 75
     1
175
     1
 42
1.0
 92
        0
 66
     7
 43
1.0
 76
     1
 77
     6
 78
     2
 67
     7
 79
     5
170
     0
171
     0
290
     0
174
     0
 93
       13
 44
0.0
173
     0
291
     1
 45
0.0
1001
ACAD
1000
AcDbSavedByObjectVersion
1070
     0
  0
VISUALSTYLE
  5
2E
102
{ACAD_REACTORS
330
2A
102
}
330
2A
100
AcDbVisualStyle
  2
GouraudWithEdges
 70
     3
 71
     2
 72
     2
 73
     1
 90
        2
 40
-0.6
 41
30.0
 62
     5
 63
     7
 74
     1
 91
        4
 64
     7
 65
   257
 75
     1
175
     1
 42
1.0
 92
        0
 66
   257
 43
1.0
 76
     1
 77
     6
 78
     2
 67
     7
 79
     5
170
     0
171
     0
290
     0
174
     0
 93
       13
 44
0.0
173
     0
291
     1
 45
0.0
1001
ACAD
1000
AcDbSavedByObjectVersion
1070
     0
  0
VISUALSTYLE
  5
38
102
{ACAD_REACTORS
330
2A
102
}
330
2A
100
AcDbVisualStyle
  2
Linepattern
 70
    14
 71
     2
 72
     2
 73
     0
 90
        0
 40
-0.6
 41
-30.0
 62
     5
 63
     7
 74
     1
 91
        4
 64
     7
 65
   257
 75
     7
175
     7
 42
1.0
 92
        8
 66
     7
 43
1.0
 76
     1
 77
     6
 78
     2
 67
     7
 79
     5
170
     0
171
     0
290
     0
174
     0
 93
        1
 44
0.0
173
     0
291
     1
 45
0.0
1001
ACAD
1000
AcDbSavedByObjectVersion
1070
     0
  0
VISUALSTYLE
  5
33
102
{ACAD_REACTORS
330
2A
102
}
330
2A
100
AcDbVisualStyle
  2
Realistic
 70
     8
 71
     2
 72
     2
 73
     0
 90
        0
 40
-0.6
 41
-30.0
 62
     5
 63
     7
 74
     1
 91
        0
 64
     7
 65
   257
 75
     1
175
     1
 42
1.0
 92
        8
 66
     8
 43
1.0
 76
     1
 77
     6
 78
     2
 67
     7
 79
     5
170
     0
171
     0
290
     0
174
     0
 93
       13
 44
0.0
173
     0
291
     0
 45
0.0
1001
ACAD
1000
AcDbSavedByObjectVersion
1070
     0
  0
VISUALSTYLE
  5
37
102
{ACAD_REACTORS
330
2A
102
}
330
2A
100
AcDbVisualStyle
  2
Thicken
 70
    13
 71
     2
 72
     2
 73
     0
 90
        0
 40
-0.6
 41
-30.0
 62
     5
 63
     7
 74
     1
 91
        4
 64
     7
 65
   257
 75
     1
175
     1
 42
1.0
 92
       12
 66
     7
 43
1.0
 76
     1
 77
     6
 78
     2
 67
     7
 79
     5
170
     0
171
     0
290
     0
174
     0
 93
        1
 44
0.0
173
     0
291
     1
 45
0.0
1001
ACAD
1000
AcDbSavedByObjectVersion
1070
     0
  0
DICTIONARYVAR
  5
163
102
{ACAD_REACTORS
330
162
102
}
330
162
100
DictionaryVariables
280
     0
  1
1:1
  0
DICTIONARYVAR
  5
167
102
{ACAD_REACTORS
330
162
102
}
330
162
100
DictionaryVariables
280
     0
  1
80.000000
  0
DICTIONARYVAR
  5
166
102
{ACAD_REACTORS
330
162
102
}
330
162
100
DictionaryVariables
280
     0
  1
5.000000
  0
ENDSEC
  0
EOF
