  0
SECTION
  2
HEADER
  9
$ACADVER
  1
AC1015
  9
$ACADMAINTVER
 70
     6
  9
$DWGCODEPAGE
  3
ANSI_1252
  9
$INSBASE
 10
0.0
 20
0.0
 30
0.0
  9
$EXTMIN
 10
0.0
 20
0.0
 30
0.0
  9
$EXTMAX
 10
1682.0
 20
2378.0
 30
0.0
  9
$LIMMIN
 10
0.0
 20
0.0
  9
$LIMMAX
 10
1682.0
 20
2378.0
  9
$ORTHOMODE
 70
     0
  9
$REGENMODE
 70
     1
  9
$FILLMODE
 70
     1
  9
$QTEXTMODE
 70
     0
  9
$MIRRTEXT
 70
     1
  9
$LTSCALE
 40
1.0
  9
$ATTMODE
 70
     1
  9
$TEXTSIZE
 40
2.5
  9
$TRACEWID
 40
1.0
  9
$TEXTSTYLE
  7
Standard
  9
$CLAYER
  8
0
  9
$CELTYPE
  6
ByLayer
  9
$CECOLOR
 62
   256
  9
$CELTSCALE
 40
1.0
  9
$DISPSILH
 70
     0
  9
$DIMSCALE
 40
1.0
  9
$DIMASZ
 40
2.5
  9
$DIMEXO
 40
0.625
  9
$DIMDLI
 40
3.75
  9
$DIMRND
 40
0.0
  9
$DIMDLE
 40
0.0
  9
$DIMEXE
 40
1.25
  9
$DIMTP
 40
0.0
  9
$DIMTM
 40
0.0
  9
$DIMTXT
 40
2.5
  9
$DIMCEN
 40
2.5
  9
$DIMTSZ
 40
0.0
  9
$DIMTOL
 70
     0
  9
$DIMLIM
 70
     0
  9
$DIMTIH
 70
     0
  9
$DIMTOH
 70
     0
  9
$DIMSE1
 70
     0
  9
$DIMSE2
 70
     0
  9
$DIMTAD
 70
     1
  9
$DIMZIN
 70
     8
  9
$DIMBLK
  1

  9
$DIMASO
 70
     1
  9
$DIMSHO
 70
     1
  9
$DIMPOST
  1

  9
$DIMAPOST
  1

  9
$DIMALT
 70
     0
  9
$DIMALTD
 70
     3
  9
$DIMALTF
 40
0.0393700787
  9
$DIMLFAC
 40
1.0
  9
$DIMTOFL
 70
     1
  9
$DIMTVP
 40
0.0
  9
$DIMTIX
 70
     0
  9
$DIMSOXD
 70
     0
  9
$DIMSAH
 70
     0
  9
$DIMBLK1
  1

  9
$DIMBLK2
  1

  9
$DIMSTYLE
  2
ISO-25
  9
$DIMCLRD
 70
     0
  9
$DIMCLRE
 70
     0
  9
$DIMCLRT
 70
     0
  9
$DIMTFAC
 40
1.0
  9
$DIMGAP
 40
0.625
  9
$DIMJUST
 70
     0
  9
$DIMSD1
 70
     0
  9
$DIMSD2
 70
     0
  9
$DIMTOLJ
 70
     0
  9
$DIMTZIN
 70
     8
  9
$DIMALTZ
 70
     0
  9
$DIMALTTZ
 70
     0
  9
$DIMUPT
 70
     0
  9
$DIMDEC
 70
     2
  9
$DIMTDEC
 70
     2
  9
$DIMALTU
 70
     2
  9
$DIMALTTD
 70
     3
  9
$DIMTXSTY
  7
Standard
  9
$DIMAUNIT
 70
     0
  9
$DIMADEC
 70
     0
  9
$DIMALTRND
 40
0.0
  9
$DIMAZIN
 70
     0
  9
$DIMDSEP
 70
    44
  9
$DIMATFIT
 70
     3
  9
$DIMFRAC
 70
     0
  9
$DIMLDRBLK
  1

  9
$DIMLUNIT
 70
     2
  9
$DIMLWD
 70
    -2
  9
$DIMLWE
 70
    -2
  9
$DIMTMOVE
 70
     0
  9
$LUNITS
 70
     2
  9
$LUPREC
 70
     4
  9
$SKETCHINC
 40
1.0
  9
$FILLETRAD
 40
10.0
  9
$AUNITS
 70
     0
  9
$AUPREC
 70
     0
  9
$MENU
  1
.
  9
$ELEVATION
 40
0.0
  9
$PELEVATION
 40
0.0
  9
$THICKNESS
 40
0.0
  9
$LIMCHECK
 70
     0
  9
$CHAMFERA
 40
10.0
  9
$CHAMFERB
 40
10.0
  9
$CHAMFERC
 40
20.0
  9
$CHAMFERD
 40
0.0
  9
$SKPOLY
 70
     0
  9
$TDCREATE
 40
2455729.39171956
  9
$TDUCREATE
 40
2455729.308386227
  9
$TDUPDATE
 40
2455729.391719572
  9
$TDUUPDATE
 40
2455729.308386238
  9
$TDINDWG
 40
0.0000000116
  9
$TDUSRTIMER
 40
0.0000000116
  9
$USRTIMER
 70
     1
  9
$ANGBASE
 50
0.0
  9
$ANGDIR
 70
     0
  9
$PDMODE
 70
     0
  9
$PDSIZE
 40
0.0
  9
$PLINEWID
 40
0.0
  9
$SPLFRAME
 70
     0
  9
$SPLINETYPE
 70
     6
  9
$SPLINESEGS
 70
     8
  9
$HANDSEED
  5
106
  9
$SURFTAB1
 70
     6
  9
$SURFTAB2
 70
     6
  9
$SURFTYPE
 70
     6
  9
$SURFU
 70
     6
  9
$SURFV
 70
     6
  9
$UCSBASE
  2

  9
$UCSNAME
  2

  9
$UCSORG
 10
0.0
 20
0.0
 30
0.0
  9
$UCSXDIR
 10
1.0
 20
0.0
 30
0.0
  9
$UCSYDIR
 10
0.0
 20
1.0
 30
0.0
  9
$UCSORTHOREF
  2

  9
$UCSORTHOVIEW
 70
     0
  9
$UCSORGTOP
 10
0.0
 20
0.0
 30
0.0
  9
$UCSORGBOTTOM
 10
0.0
 20
0.0
 30
0.0
  9
$UCSORGLEFT
 10
0.0
 20
0.0
 30
0.0
  9
$UCSORGRIGHT
 10
0.0
 20
0.0
 30
0.0
  9
$UCSORGFRONT
 10
0.0
 20
0.0
 30
0.0
  9
$UCSORGBACK
 10
0.0
 20
0.0
 30
0.0
  9
$PUCSBASE
  2

  9
$PUCSNAME
  2

  9
$PUCSORG
 10
0.0
 20
0.0
 30
0.0
  9
$PUCSXDIR
 10
1.0
 20
0.0
 30
0.0
  9
$PUCSYDIR
 10
0.0
 20
1.0
 30
0.0
  9
$PUCSORTHOREF
  2

  9
$PUCSORTHOVIEW
 70
     0
  9
$PUCSORGTOP
 10
0.0
 20
0.0
 30
0.0
  9
$PUCSORGBOTTOM
 10
0.0
 20
0.0
 30
0.0
  9
$PUCSORGLEFT
 10
0.0
 20
0.0
 30
0.0
  9
$PUCSORGRIGHT
 10
0.0
 20
0.0
 30
0.0
  9
$PUCSORGFRONT
 10
0.0
 20
0.0
 30
0.0
  9
$PUCSORGBACK
 10
0.0
 20
0.0
 30
0.0
  9
$USERI1
 70
     0
  9
$USERI2
 70
     0
  9
$USERI3
 70
     0
  9
$USERI4
 70
     0
  9
$USERI5
 70
     0
  9
$USERR1
 40
0.0
  9
$USERR2
 40
0.0
  9
$USERR3
 40
0.0
  9
$USERR4
 40
0.0
  9
$USERR5
 40
0.0
  9
$WORLDVIEW
 70
     1
  9
$SHADEDGE
 70
     3
  9
$SHADEDIF
 70
    70
  9
$TILEMODE
 70
     1
  9
$MAXACTVP
 70
    64
  9
$PINSBASE
 10
0.0
 20
0.0
 30
0.0
  9
$PLIMCHECK
 70
     0
  9
$PEXTMIN
 10
0.0
 20
0.0
 30
0.0
  9
$PEXTMAX
 10
1682.0
 20
2378.0
 30
0.0
  9
$PLIMMIN
 10
0.0
 20
0.0
  9
$PLIMMAX
 10
1682.0
 20
2378.0
  9
$UNITMODE
 70
     0
  9
$VISRETAIN
 70
     1
  9
$PLINEGEN
 70
     0
  9
$PSLTSCALE
 70
     1
  9
$TREEDEPTH
 70
  3020
  9
$CMLSTYLE
  2
Standard
  9
$CMLJUST
 70
     0
  9
$CMLSCALE
 40
20.0
  9
$PROXYGRAPHICS
 70
     1
  9
$MEASUREMENT
 70
     1
  9
$CELWEIGHT
370
    -1
  9
$ENDCAPS
280
     0
  9
$JOINSTYLE
280
     0
  9
$LWDISPLAY
290
     0
  9
$INSUNITS
 70
     4
  9
$HYPERLINKBASE
  1

  9
$STYLESHEET
  1

  9
$XEDIT
290
     1
  9
$CEPSNTYPE
380
     0
  9
$PSTYLEMODE
290
     1
  9
$FINGERPRINTGUID
  2
{6CFEE79D-34A8-48AD-A87B-A9CCEFCF4287}
  9
$VERSIONGUID
  2
{FAEB1C32-E019-11D5-929B-00C0DF256EC4}
  9
$EXTNAMES
290
     1
  9
$PSVPSCALE
 40
0.0
  9
$OLESTARTUP
290
     0
  0
ENDSEC
  0
SECTION
  2
CLASSES
  0
CLASS
  1
ACDBDICTIONARYWDFLT
  2
AcDbDictionaryWithDefault
  3
ObjectDBX Classes
 90
        0
280
     0
281
     0
  0
CLASS
  1
VISUALSTYLE
  2
AcDbVisualStyle
  3
ObjectDBX Classes
 90
     4095
280
     0
281
     0
  0
CLASS
  1
SCALE
  2
AcDbScale
  3
ObjectDBX Classes
 90
     1153
280
     0
281
     0
  0
CLASS
  1
DICTIONARYVAR
  2
AcDbDictionaryVar
  3
ObjectDBX Classes
 90
        0
280
     0
281
     0
  0
CLASS
  1
ACDBPLACEHOLDER
  2
AcDbPlaceHolder
  3
ObjectDBX Classes
 90
        0
280
     0
281
     0
  0
CLASS
  1
LAYOUT
  2
AcDbLayout
  3
ObjectDBX Classes
 90
        0
280
     0
281
     0
  0
ENDSEC
  0
SECTION
  2
TABLES
  0
TABLE
  2
VPORT
  5
8
330
0
100
AcDbSymbolTable
 70
     1
  0
VPORT
  5
29
330
8
100
AcDbSymbolTableRecord
100
AcDbViewportTableRecord
  2
*Active
 70
     0
 10
0.0
 20
0.0
 11
1.0
 21
1.0
 12
344.1869158879
 22
148.5
 13
0.0
 23
0.0
 14
10.0
 24
10.0
 15
10.0
 25
10.0
 16
0.0
 26
0.0
 36
1.0
 17
0.0
 27
0.0
 37
0.0
 40
297.0
 41
1.9729729729
 42
50.0
 43
0.0
 44
0.0
 50
0.0
 51
0.0
 71
     0
 72
   100
 73
     1
 74
     3
 75
     0
 76
     0
 77
     0
 78
     0
281
     0
 65
     1
110
0.0
120
0.0
130
0.0
111
1.0
121
0.0
131
0.0
112
0.0
122
1.0
132
0.0
 79
     0
146
0.0
  0
ENDTAB
  0
TABLE
  2
LTYPE
  5
5
330
0
100
AcDbSymbolTable
 70
     2
  0
LTYPE
  5
14
330
5
100
AcDbSymbolTableRecord
100
AcDbLinetypeTableRecord
  2
ByBlock
 70
     0
  3

 72
    65
 73
     0
 40
0.0
  0
LTYPE
  5
15
330
5
100
AcDbSymbolTableRecord
100
AcDbLinetypeTableRecord
  2
ByLayer
 70
     0
  3

 72
    65
 73
     0
 40
0.0
  0
LTYPE
  5
16
330
5
100
AcDbSymbolTableRecord
100
AcDbLinetypeTableRecord
  2
Continuous
 70
     0
  3
Solid line
 72
    65
 73
     0
 40
0.0
  0
LTYPE
  5
60
330
5
100
AcDbSymbolTableRecord
100
AcDbLinetypeTableRecord
  2
CENTER2
 70
     0
  3
Center (.5x) ___ _ ___ _ ___ _ ___ _ ___ _ ___
 72
    65
 73
     4
 40
28.575
 49
19.05
 74
     4
 75
     0
340
0
 46
0.0
 50
0.0
 44
0.0
 45
0.0
 49
-3.175
 74
     4
 75
     0
340
0
 46
0.0
 50
0.0
 44
0.0
 45
0.0
 49
3.175
 74
     4
 75
     0
340
0
 46
0.0
 50
0.0
 44
0.0
 45
0.0
 49
-3.175
 74
     4
 75
     0
340
0
 46
0.0
 50
0.0
 44
0.0
 45
0.0
  0
ENDTAB
  0
TABLE
  2
LAYER
  5
2
330
0
100
AcDbSymbolTable
 70
     8
  0
LAYER
  5
10
330
2
100
AcDbSymbolTableRecord
100
AcDbLayerTableRecord
  2
0
 70
     0
 62
     7
  6
Continuous
370
    -3
390
F
  0
LAYER
  5
5D
330
2
100
AcDbSymbolTableRecord
100
AcDbLayerTableRecord
  2
Default
 70
     0
 62
     7
  6
Continuous
370
    -3
390
F
  0
LAYER
  5
72
330
2
100
AcDbSymbolTableRecord
100
AcDbLayerTableRecord
  2
$DDT_AUDIT_GENERATED_(72)
 70
     0
 62
     7
  6
Continuous
370
    -3
390
F
  0
LAYER
  5
7D
330
2
100
AcDbSymbolTableRecord
100
AcDbLayerTableRecord
  2
$DDT_AUDIT_GENERATED_(7D)
 70
     0
 62
     7
  6
Continuous
370
    -3
390
F
  0
LAYER
  5
89
330
2
100
AcDbSymbolTableRecord
100
AcDbLayerTableRecord
  2
$DDT_AUDIT_GENERATED_(89)
 70
     0
 62
     7
  6
Continuous
370
    -3
390
F
  0
LAYER
  5
8E
330
2
100
AcDbSymbolTableRecord
100
AcDbLayerTableRecord
  2
$DDT_AUDIT_GENERATED_(8E)
 70
     0
 62
     7
  6
Continuous
370
    -3
390
F
  0
LAYER
  5
93
330
2
100
AcDbSymbolTableRecord
100
AcDbLayerTableRecord
  2
$DDT_AUDIT_GENERATED_(93)
 70
     0
 62
     7
  6
Continuous
370
    -3
390
F
  0
LAYER
  5
C1
330
2
100
AcDbSymbolTableRecord
100
AcDbLayerTableRecord
  2
$DDT_AUDIT_GENERATED_(C1)
 70
     0
 62
     7
  6
Continuous
370
    -3
390
F
  0
ENDTAB
  0
TABLE
  2
STYLE
  5
3
330
0
100
AcDbSymbolTable
 70
     2
  0
STYLE
  5
11
330
3
100
AcDbSymbolTableRecord
100
AcDbTextStyleTableRecord
  2
Standard
 70
     0
 40
0.0
 41
1.0
 50
0.0
 71
     0
 42
2.5
  3
txt
  4

  0
STYLE
  5
F5
330
3
100
AcDbSymbolTableRecord
100
AcDbTextStyleTableRecord
  2
SEACAD_seiso_ttf
 70
     0
 40
0.0
 41
1.0
 50
0.0
 71
     0
 42
0.2
  3
seiso.ttf
  4

  0
ENDTAB
  0
TABLE
  2
VIEW
  5
6
330
0
100
AcDbSymbolTable
 70
     0
  0
ENDTAB
  0
TABLE
  2
UCS
  5
7
330
0
100
AcDbSymbolTable
 70
     0
  0
ENDTAB
  0
TABLE
  2
APPID
  5
9
330
0
100
AcDbSymbolTable
 70
     1
  0
APPID
  5
12
330
9
100
AcDbSymbolTableRecord
100
AcDbRegAppTableRecord
  2
ACAD
 70
     0
  0
ENDTAB
  0
TABLE
  2
DIMSTYLE
  5
A
330
0
100
AcDbSymbolTable
 70
     1
100
AcDbDimStyleTable
  0
DIMSTYLE
105
27
330
A
100
AcDbSymbolTableRecord
100
AcDbDimStyleTableRecord
  2
ISO-25
 70
     0
 41
2.5
 42
0.625
 43
3.75
 44
1.25
 73
     0
 74
     0
 77
     1
 78
     8
140
2.5
141
2.5
143
0.0393700787
147
0.625
171
     3
172
     1
271
     2
272
     2
274
     3
278
    44
283
     0
284
     8
340
11
  0
ENDTAB
  0
TABLE
  2
BLOCK_RECORD
  5
1
330
0
100
AcDbSymbolTable
 70
     7
  0
BLOCK_RECORD
  5
1F
330
1
100
AcDbSymbolTableRecord
100
AcDbBlockTableRecord
  2
*Model_Space
340
22
  0
BLOCK_RECORD
  5
1B
330
1
100
AcDbSymbolTableRecord
100
AcDbBlockTableRecord
  2
*Paper_Space
340
1E
  0
BLOCK_RECORD
  5
5E
330
1
100
AcDbSymbolTableRecord
100
AcDbBlockTableRecord
  2
SEANNOT_GROUP
340
0
102
{BLKREFS
331
5F
102
}
  0
BLOCK_RECORD
  5
65
330
1
100
AcDbSymbolTableRecord
100
AcDbBlockTableRecord
  2
SEANNOT_GROUP1
340
0
102
{BLKREFS
331
66
102
}
  0
BLOCK_RECORD
  5
6B
330
1
100
AcDbSymbolTableRecord
100
AcDbBlockTableRecord
  2
SEANNOT_GROUP2
340
0
102
{BLKREFS
331
6C
102
}
  0
BLOCK_RECORD
  5
70
330
1
100
AcDbSymbolTableRecord
100
AcDbBlockTableRecord
  2
SE
340
0
102
{BLKREFS
331
71
102
}
  0
BLOCK_RECORD
  5
97
330
1
100
AcDbSymbolTableRecord
100
AcDbBlockTableRecord
  2
SE1
340
0
102
{BLKREFS
331
98
102
}
  0
BLOCK_RECORD
  5
C6
330
1
100
AcDbSymbolTableRecord
100
AcDbBlockTableRecord
  2
SE2
340
0
102
{BLKREFS
331
C7
102
}
  0
ENDTAB
  0
ENDSEC
  0
SECTION
  2
BLOCKS
  0
BLOCK
  5
20
330
1F
100
AcDbEntity
  8
0
100
AcDbBlockBegin
  2
*Model_Space
 70
     0
 10
0.0
 20
0.0
 30
0.0
  3
*Model_Space
  1

  0
ENDBLK
  5
21
330
1F
100
AcDbEntity
  8
0
100
AcDbBlockEnd
  0
BLOCK
  5
1C
330
1B
100
AcDbEntity
 67
     1
  8
0
100
AcDbBlockBegin
  2
*Paper_Space
 70
     0
 10
0.0
 20
0.0
 30
0.0
  3
*Paper_Space
  1

  0
ENDBLK
  5
1D
330
1B
100
AcDbEntity
 67
     1
  8
0
100
AcDbBlockEnd
  0
BLOCK
  5
63
330
5E
100
AcDbEntity
  8
0
100
AcDbBlockBegin
  2
SEANNOT_GROUP
 70
     0
 10
0.0
 20
0.0
 30
0.0
  3
SEANNOT_GROUP
  1

  0
LINE
  5
61
330
5E
100
AcDbEntity
  8
Default
  6
CENTER2
 62
     7
100
AcDbLine
 10
86.349999553
 20
333.2755475462
 30
0.0
 11
46.350000447
 21
333.2755475462
 31
0.0
  0
LINE
  5
62
330
5E
100
AcDbEntity
  8
Default
  6
CENTER2
 62
     7
100
AcDbLine
 10
66.35
 20
353.2755470992
 30
0.0
 11
66.35
 21
313.2755479933
 31
0.0
  0
ENDBLK
  5
64
330
5E
100
AcDbEntity
  8
0
100
AcDbBlockEnd
  0
BLOCK
  5
69
330
65
100
AcDbEntity
  8
0
100
AcDbBlockBegin
  2
SEANNOT_GROUP1
 70
     0
 10
0.0
 20
0.0
 30
0.0
  3
SEANNOT_GROUP1
  1

  0
LINE
  5
67
330
65
100
AcDbEntity
  8
Default
  6
CENTER2
 62
     7
100
AcDbLine
 10
86.349999553
 20
408.2755475462
 30
0.0
 11
46.350000447
 21
408.2755475462
 31
0.0
  0
LINE
  5
68
330
65
100
AcDbEntity
  8
Default
  6
CENTER2
 62
     7
100
AcDbLine
 10
66.35
 20
428.2755470992
 30
0.0
 11
66.35
 21
388.2755479933
 31
0.0
  0
ENDBLK
  5
6A
330
65
100
AcDbEntity
  8
0
100
AcDbBlockEnd
  0
BLOCK
  5
6E
330
6B
100
AcDbEntity
  8
0
100
AcDbBlockBegin
  2
SEANNOT_GROUP2
 70
     0
 10
0.0
 20
0.0
 30
0.0
  3
SEANNOT_GROUP2
  1

  0
LINE
  5
6D
330
6B
100
AcDbEntity
  8
Default
  6
CENTER2
 62
     7
100
AcDbLine
 10
66.35
 20
102.85
 30
0.0
 11
66.35
 21
160.4245112689
 31
0.0
  0
ENDBLK
  5
6F
330
6B
100
AcDbEntity
  8
0
100
AcDbBlockEnd
  0
BLOCK
  5
95
330
70
100
AcDbEntity
  8
0
100
AcDbBlockBegin
  2
SE
 70
     0
 10
0.0
 20
0.0
 30
0.0
  3
SE
  1

  0
LINE
  5
73
330
70
100
AcDbEntity
  8
$DDT_AUDIT_GENERATED_(72)
  6
Continuous
 62
     7
100
AcDbLine
 10
126.35
 20
333.2755475462
 30
0.0
 11
126.35
 21
408.2755475462
 31
0.0
  0
ARC
  5
74
330
70
100
AcDbEntity
  8
$DDT_AUDIT_GENERATED_(72)
  6
Continuous
 62
     7
100
AcDbCircle
 10
66.35
 20
333.2755475462
 30
0.0
 40
60.0
100
AcDbArc
 50
180.0
 51
266.6558477955
  0
LINE
  5
75
330
70
100
AcDbEntity
  8
$DDT_AUDIT_GENERATED_(72)
  6
Continuous
 62
     7
100
AcDbLine
 10
6.35
 20
408.2755475462
 30
0.0
 11
6.35
 21
333.2755475462
 31
0.0
  0
ARC
  5
76
330
70
100
AcDbEntity
  8
$DDT_AUDIT_GENERATED_(72)
  6
Continuous
 62
     7
100
AcDbCircle
 10
66.35
 20
408.2755475462
 30
0.0
 40
60.0
100
AcDbArc
 50
0.0
 51
180.0
  0
ARC
  5
77
330
70
100
AcDbEntity
  8
$DDT_AUDIT_GENERATED_(72)
  6
Continuous
 62
     7
100
AcDbCircle
 10
66.35
 20
408.2755475462
 30
0.0
 40
8.199999999999998
100
AcDbArc
 50
0.0
 51
71.3676967442
  0
ARC
  5
78
330
70
100
AcDbEntity
  8
$DDT_AUDIT_GENERATED_(72)
  6
Continuous
 62
     7
100
AcDbCircle
 10
66.35
 20
408.2755475462
 30
0.0
 40
8.199999999999998
100
AcDbArc
 50
108.5217966326
 51
0.0
  0
ARC
  5
79
330
70
100
AcDbEntity
  8
$DDT_AUDIT_GENERATED_(72)
  6
Continuous
 62
     7
100
AcDbCircle
 10
66.35
 20
333.2755475462
 30
0.0
 40
60.0
100
AcDbArc
 50
273.3441522045
 51
0.0
  0
LINE
  5
7A
330
70
100
AcDbEntity
  8
$DDT_AUDIT_GENERATED_(72)
  6
Continuous
 62
     7
100
AcDbLine
 10
69.85
 20
273.3777178694
 30
0.0
 11
69.85
 21
273.4389149116
 31
0.0
  0
ARC
  5
7B
330
70
100
AcDbEntity
  8
$DDT_AUDIT_GENERATED_(72)
  6
Continuous
 62
     7
100
AcDbCircle
 10
66.35
 20
410.9886161641
 30
0.0
 40
137.5942234058037
100
AcDbArc
 50
268.5424034849
 51
271.4575965151
  0
LINE
  5
7C
330
70
100
AcDbEntity
  8
$DDT_AUDIT_GENERATED_(72)
  6
Continuous
 62
     7
100
AcDbLine
 10
62.85
 20
273.4389149116
 30
0.0
 11
62.85
 21
273.3777178694
 31
0.0
  0
ELLIPSE
  5
7E
330
70
100
AcDbEntity
  8
$DDT_AUDIT_GENERATED_(7D)
  6
Continuous
 62
     7
100
AcDbEllipse
 10
68.8496953671
 20
436.3255475462
 30
0.0
 11
0.0
 21
-4.750000000000004
 31
0.0
210
0.0
220
0.0
230
1.0
 40
0.0174550649
 41
3.257899220674124
 42
4.71238898038469
  0
SPLINE
  5
7F
330
70
100
AcDbEntity
  8
$DDT_AUDIT_GENERATED_(7D)
  6
Continuous
 62
     7
100
AcDbSpline
210
0.0
220
0.0
230
1.0
 70
     8
 71
     3
 72
    14
 73
    10
 74
     0
 42
0.000000006325287
 43
0.0000000001
 40
0.0
 40
0.0
 40
0.0
 40
0.0
 40
0.2499999999999997
 40
0.2499999999999997
 40
0.4999999999999998
 40
0.4999999999999998
 40
0.7499999999999999
 40
0.7499999999999999
 40
1.0
 40
1.0
 40
1.0
 40
1.0
 10
67.8498476719565
 20
442.075547546235
 30
0.0
 10
67.98007406592605
 20
442.075547546235
 30
0.0
 10
68.11302899362592
 20
442.0490476619031
 30
0.0
 10
68.35354406302093
 20
441.9492205543328
 30
0.0
 10
68.46503355169945
 20
441.8747051081186
 30
0.0
 10
68.64944592484068
 20
441.6902204423789
 30
0.0
 10
68.72368549327197
 20
441.5793220429758
 30
0.0
 10
68.82400647732013
 20
441.3371952324234
 30
0.0
 10
68.85000000000039
 20
441.2075941269784
 30
0.0
 10
68.85000000000039
 20
441.075515484391
 30
0.0
  0
LINE
  5
80
330
70
100
AcDbEntity
  8
$DDT_AUDIT_GENERATED_(7D)
  6
Continuous
 62
     7
100
AcDbLine
 10
64.9330638865
 20
436.3255475462
 30
0.0
 11
67.7669361135
 21
436.3255475462
 31
0.0
  0
ELLIPSE
  5
81
330
70
100
AcDbEntity
  8
$DDT_AUDIT_GENERATED_(7D)
  6
Continuous
 62
     7
100
AcDbEllipse
 10
63.8503046329
 20
436.3255475462
 30
0.0
 11
0.0
 21
-4.749999999999997
 31
0.0
210
0.0
220
0.0
230
1.0
 40
0.0174550649
 41
1.570796326794897
 42
3.003479753510808
  0
SPLINE
  5
82
330
70
100
AcDbEntity
  8
$DDT_AUDIT_GENERATED_(7D)
  6
Continuous
 62
     7
100
AcDbSpline
210
0.0
220
0.0
230
1.0
 70
     8
 71
     3
 72
    14
 73
    10
 74
     0
 42
0.000000006325287
 43
0.0000000001
 40
0.0
 40
0.0
 40
0.0
 40
0.0
 40
0.25
 40
0.25
 40
0.5
 40
0.5
 40
0.75
 40
0.75
 40
1.0
 40
1.0
 40
1.0
 40
1.0
 10
63.85000000000041
 20
441.075515484391
 30
0.0
 10
63.85000000000041
 20
441.2075941269784
 30
0.0
 10
63.87599352268068
 20
441.3371952324234
 30
0.0
 10
63.97631450672882
 20
441.5793220429758
 30
0.0
 10
64.05055407516012
 20
441.6902204423789
 30
0.0
 10
64.23496644830135
 20
441.8747051081186
 30
0.0
 10
64.34645593697985
 20
441.9492205543328
 30
0.0
 10
64.58697100637487
 20
442.0490476619031
 30
0.0
 10
64.71992593407475
 20
442.075547546235
 30
0.0
 10
64.8501523280443
 20
442.075547546235
 30
0.0
  0
ARC
  5
83
330
70
100
AcDbEntity
  8
$DDT_AUDIT_GENERATED_(7D)
  6
Continuous
 62
     7
100
AcDbCircle
 10
66.35
 20
408.2755475462
 30
0.0
 40
8.099999999999998
100
AcDbArc
 50
110.415857615
 51
69.584142385
  0
LINE
  5
84
330
70
100
AcDbEntity
  8
$DDT_AUDIT_GENERATED_(7D)
  6
Continuous
 62
     7
100
AcDbLine
 10
68.85
 20
416.3352713066
 30
0.0
 11
68.85
 21
441.0755154844
 31
0.0
  0
LINE
  5
85
330
70
100
AcDbEntity
  8
$DDT_AUDIT_GENERATED_(7D)
  6
Continuous
 62
     7
100
AcDbLine
 10
63.85
 20
416.3352713066
 30
0.0
 11
63.85
 21
441.0755154844
 31
0.0
  0
SPLINE
  5
86
330
70
100
AcDbEntity
  8
$DDT_AUDIT_GENERATED_(7D)
  6
Continuous
 62
     7
100
AcDbSpline
210
0.0
220
0.0
230
1.0
 70
     8
 71
     3
 72
    10
 73
     6
 74
     0
 42
0.0000000162219861
 43
0.0000000001
 40
0.0
 40
0.0
 40
0.0
 40
0.0
 40
0.4999999999999982
 40
0.4999999999999982
 40
1.0
 40
1.0
 40
1.0
 40
1.0
 10
63.52446530968727
 20
415.8667499354377
 30
0.0
 10
63.62011230818533
 20
415.9023508716827
 30
0.0
 10
63.70259191972774
 20
415.9666458825825
 30
0.0
 10
63.81814032834003
 20
416.1326188658018
 30
0.0
 10
63.85000000000041
 20
416.2332135289574
 30
0.0
 10
63.85000000000041
 20
416.335271306568
 30
0.0
  0
SPLINE
  5
87
330
70
100
AcDbEntity
  8
$DDT_AUDIT_GENERATED_(7D)
  6
Continuous
 62
     7
100
AcDbSpline
210
0.0
220
0.0
230
1.0
 70
     8
 71
     3
 72
    10
 73
     6
 74
     0
 42
0.0000000162219861
 43
0.0000000001
 40
0.0
 40
0.0
 40
0.0
 40
0.0
 40
0.5
 40
0.5
 40
1.0
 40
1.0
 40
1.0
 40
1.0
 10
69.17553469031354
 20
415.8667499354377
 30
0.0
 10
69.07988762300052
 20
415.9023508972965
 30
0.0
 10
68.99672542055116
 20
415.967299900502
 30
0.0
 10
68.88148486873972
 20
416.1334867865949
 30
0.0
 10
68.85000000000039
 20
416.233213602383
 30
0.0
 10
68.85000000000039
 20
416.335271306568
 30
0.0
  0
LINE
  5
88
330
70
100
AcDbEntity
  8
$DDT_AUDIT_GENERATED_(7D)
  6
Continuous
 62
     7
100
AcDbLine
 10
67.849847672
 20
442.0755475462
 30
0.0
 11
64.850152328
 21
442.0755475462
 31
0.0
  0
LINE
  5
8A
330
70
100
AcDbEntity
  8
$DDT_AUDIT_GENERATED_(89)
  6
Continuous
 62
     7
100
AcDbLine
 10
64.75
 20
400.2755475462
 30
0.0
 11
65.081142246
 21
400.2755475462
 31
0.0
  0
LINE
  5
8B
330
70
100
AcDbEntity
  8
$DDT_AUDIT_GENERATED_(89)
  6
Continuous
 62
     7
100
AcDbLine
 10
67.618857754
 20
400.2755475462
 30
0.0
 11
67.95
 21
400.2755475462
 31
0.0
  0
ARC
  5
8C
330
70
100
AcDbEntity
  8
$DDT_AUDIT_GENERATED_(89)
  6
Continuous
 62
     7
100
AcDbCircle
 10
64.75
 20
400.6755475462
 30
0.0
 40
0.4000000000000002
100
AcDbArc
 50
223.7659289975
 51
270.0
  0
ARC
  5
8D
330
70
100
AcDbEntity
  8
$DDT_AUDIT_GENERATED_(89)
  6
Continuous
 62
     7
100
AcDbCircle
 10
67.95
 20
400.6755475462
 30
0.0
 40
0.400000000000001
100
AcDbArc
 50
270.0
 51
316.2340710025
  0
ARC
  5
8F
330
70
100
AcDbEntity
  8
$DDT_AUDIT_GENERATED_(8E)
  6
Continuous
 62
     7
100
AcDbCircle
 10
68.7204927826
 20
414.5421865152
 30
0.0
 40
1.500000000000001
100
AcDbArc
 50
46.0463736176
 51
69.2797832003
  0
ARC
  5
90
330
70
100
AcDbEntity
  8
$DDT_AUDIT_GENERATED_(8E)
  6
Continuous
 62
     7
100
AcDbCircle
 10
66.35
 20
408.2755475462
 30
0.0
 40
8.199999999999998
100
AcDbArc
 50
266.0460978375
 51
267.4336593045
  0
ARC
  5
91
330
70
100
AcDbEntity
  8
$DDT_AUDIT_GENERATED_(8E)
  6
Continuous
 62
     7
100
AcDbCircle
 10
66.35
 20
408.2755475462
 30
0.0
 40
8.199999999999998
100
AcDbArc
 50
69.2797832003
 51
71.5309585078
  0
ARC
  5
92
330
70
100
AcDbEntity
  8
$DDT_AUDIT_GENERATED_(8E)
  6
Continuous
 62
     7
100
AcDbCircle
 10
66.05
 20
401.582267334
 30
0.0
 40
1.5
100
AcDbArc
 50
267.4336593045
 51
290.6670688872
  0
CIRCLE
  5
94
330
70
100
AcDbEntity
  8
$DDT_AUDIT_GENERATED_(93)
  6
Continuous
 62
     7
100
AcDbCircle
 10
66.35
 20
333.2755475462
 30
0.0
 40
22.5
  0
ENDBLK
  5
96
330
70
100
AcDbEntity
  8
0
100
AcDbBlockEnd
  0
BLOCK
  5
C4
330
97
100
AcDbEntity
  8
0
100
AcDbBlockBegin
  2
SE1
 70
     0
 10
0.0
 20
0.0
 30
0.0
  3
SE1
  1

  0
LINE
  5
99
330
97
100
AcDbEntity
  8
$DDT_AUDIT_GENERATED_(72)
  6
Continuous
 62
     7
100
AcDbLine
 10
269.5509425567
 20
333.2755475462
 30
0.0
 11
269.5509425567
 21
273.3777178694
 31
0.0
  0
LINE
  5
9A
330
97
100
AcDbEntity
  8
$DDT_AUDIT_GENERATED_(72)
  6
Continuous
 62
     7
100
AcDbLine
 10
269.5509425567
 20
408.2755475462
 30
0.0
 11
269.5509425567
 21
333.2755475462
 31
0.0
  0
LINE
  5
9B
330
97
100
AcDbEntity
  8
$DDT_AUDIT_GENERATED_(72)
  6
Continuous
 62
     7
100
AcDbLine
 10
269.5509425567
 20
468.2755475462
 30
0.0
 11
269.5509425567
 21
408.2755475462
 31
0.0
  0
SPLINE
  5
9C
330
97
100
AcDbEntity
  8
$DDT_AUDIT_GENERATED_(72)
  6
Continuous
 62
     7
100
AcDbSpline
210
0.0
220
0.0
230
1.0
 70
     8
 71
     3
 72
    28
 73
    24
 74
     0
 42
0.0000000000850086
 43
0.0000000001
 40
0.0
 40
0.0
 40
0.0
 40
0.0
 40
0.0625000000000001
 40
0.0625000000000001
 40
0.0937500000000001
 40
0.0937500000000001
 40
0.1250000000000001
 40
0.1250000000000001
 40
0.1875000000000001
 40
0.1875000000000001
 40
0.2500000000000001
 40
0.2500000000000001
 40
0.3125000000000001
 40
0.3125000000000001
 40
0.3437500000000001
 40
0.3437500000000001
 40
0.3750000000000001
 40
0.3750000000000001
 40
0.4375
 40
0.4375
 40
0.4999999999999999
 40
0.4999999999999999
 40
0.5002156648362921
 40
0.5002156648362921
 40
0.5002156648362921
 40
0.5002156648362921
 10
280.0824015029863
 20
333.274505939284
 30
0.0
 10
280.0783566156444
 20
329.3872916752931
 30
0.0
 10
280.0763604059809
 20
325.5650890783735
 30
0.0
 10
280.0739611466159
 20
319.9252659322108
 30
0.0
 10
280.0732916079659
 20
318.0610216620761
 30
0.0
 10
280.0720668430969
 20
314.3646423141196
 30
0.0
 10
280.0715126552728
 20
312.5274733315214
 30
0.0
 10
280.0699491719704
 20
307.1833382215715
 30
0.0
 10
280.0690020742173
 20
303.8037886183059
 30
0.0
 10
280.0672907358256
 20
297.4078240782463
 30
0.0
 10
280.0665038303034
 20
294.3794669861149
 30
0.0
 10
280.0651648949499
 20
288.9513171948269
 30
0.0
 10
280.0646229686589
 20
286.515546257485
 30
0.0
 10
280.0639413732983
 20
283.2892669736607
 30
0.0
 10
280.0637441728898
 20
282.287492694861
 30
0.0
 10
280.063417224898
 20
280.4719071605506
 30
0.0
 10
280.0632836092189
 20
279.6517892452866
 30
0.0
 10
280.0629395230537
 20
277.4504611358525
 30
0.0
 10
280.0628223314406
 20
276.3208275326863
 30
0.0
 10
280.0627116954024
 20
274.8084664386328
 30
0.0
 10
280.0627291213911
 20
274.4341988437033
 30
0.0
 10
280.0627294145339
 20
274.4315995718281
 30
0.0
 10
280.0627294153267
 20
274.4315952026195
 30
0.0
 10
280.0627294159082
 20
274.4315954018823
 30
0.0
  0
ARC
  5
9D
330
97
100
AcDbEntity
  8
$DDT_AUDIT_GENERATED_(72)
  6
Continuous
 62
     7
100
AcDbCircle
 10
56644.5936722378
 20
370.7755475462
 30
0.0
 40
56364.52374603118
100
AcDbArc
 50
179.9618793626
 51
180.0381206374
  0
SPLINE
  5
9E
330
97
100
AcDbEntity
  8
$DDT_AUDIT_GENERATED_(72)
  6
Continuous
 62
     7
100
AcDbSpline
210
0.0
220
0.0
230
1.0
 70
     8
 71
     3
 72
    26
 73
    22
 74
     0
 42
0.0000000000849353
 43
0.0000000001
 40
0.5002156648362939
 40
0.5002156648362939
 40
0.5002156648362939
 40
0.5002156648362939
 40
0.5625000000000007
 40
0.5625000000000007
 40
0.6250000000000007
 40
0.6250000000000007
 40
0.6562500000000007
 40
0.6562500000000007
 40
0.6875000000000006
 40
0.6875000000000006
 40
0.7500000000000004
 40
0.7500000000000004
 40
0.8125000000000004
 40
0.8125000000000004
 40
0.8437500000000003
 40
0.8437500000000003
 40
0.8750000000000003
 40
0.8750000000000003
 40
0.9375000000000002
 40
0.9375000000000002
 40
1.0
 40
1.0
 40
1.0
 40
1.0
 10
280.0627294159082
 20
467.1194996905877
 30
0.0
 10
280.0627295838241
 20
467.1194421431773
 30
0.0
 10
280.0627121152421
 20
466.7383451737833
 30
0.0
 10
280.0628214085585
 20
465.2414316368153
 30
0.0
 10
280.062935143729
 20
464.131656876837
 30
0.0
 10
280.0632795132937
 20
461.9240477152754
 30
0.0
 10
280.0634151028578
 20
461.0915738011304
 30
0.0
 10
280.0637427972329
 20
459.2706460933203
 30
0.0
 10
280.0639372962452
 20
458.2823261657426
 30
0.0
 10
280.0646110895537
 20
455.0894310036037
 30
0.0
 10
280.0651506661749
 20
452.6591447560422
 30
0.0
 10
280.0665033838363
 20
447.1717739737235
 30
0.0
 10
280.0672777445092
 20
444.1939902290609
 30
0.0
 10
280.0685552005691
 20
439.4164036954883
 30
0.0
 10
280.0690068712425
 20
437.7702697912364
 30
0.0
 10
280.0699623007736
 20
434.3685544413878
 30
0.0
 10
280.0704649986387
 20
432.6050168800905
 30
0.0
 10
280.0720290523973
 20
427.2577235229956
 30
0.0
 10
280.0731323588473
 20
423.5904247801066
 30
0.0
 10
280.0763248349394
 20
416.0535454161763
 30
0.0
 10
280.0783566290104
 20
412.163790572191
 30
0.0
 10
280.0824015029863
 20
408.276589153186
 30
0.0
  0
ARC
  5
9F
330
97
100
AcDbEntity
  8
$DDT_AUDIT_GENERATED_(72)
  6
Continuous
 62
     7
100
AcDbCircle
 10
7485.2971250641
 20
436.6964832654
 30
0.0
 40
7204.884404573248
100
AcDbArc
 50
180.160804217
 51
180.2912238346
  0
SPLINE
  5
A0
330
97
100
AcDbEntity
  8
$DDT_AUDIT_GENERATED_(72)
  6
Continuous
 62
     7
100
AcDbSpline
210
0.0
220
0.0
230
1.0
 70
     8
 71
     3
 72
    36
 73
    32
 74
     0
 42
0.0000000001234696
 43
0.0000000001
 40
0.0
 40
0.0
 40
0.0
 40
0.0
 40
0.0312500000000001
 40
0.0312500000000001
 40
0.0625000000000003
 40
0.0625000000000003
 40
0.0937500000000004
 40
0.0937500000000004
 40
0.1250000000000005
 40
0.1250000000000005
 40
0.1875000000000007
 40
0.1875000000000007
 40
0.2500000000000009
 40
0.2500000000000009
 40
0.2812500000000009
 40
0.2812500000000009
 40
0.312500000000001
 40
0.312500000000001
 40
0.343750000000001
 40
0.343750000000001
 40
0.375000000000001
 40
0.375000000000001
 40
0.4062500000000011
 40
0.4062500000000011
 40
0.4375000000000011
 40
0.4375000000000011
 40
0.4687500000000011
 40
0.4687500000000011
 40
0.5000000000000011
 40
0.5000000000000011
 40
0.5000564294812042
 40
0.5000564294812042
 40
0.5000564294812042
 40
0.5000564294812042
 10
280.5352919520449
 20
353.525547546235
 30
0.0
 10
280.5352919520449
 20
353.525547546235
 30
0.0
 10
280.5343257272803
 20
353.3942756337694
 30
0.0
 10
280.5306172049078
 20
352.8799259990616
 30
0.0
 10
280.5278307357029
 20
352.490609060485
 30
0.0
 10
280.5207742395413
 20
351.474188520503
 30
0.0
 10
280.51653970251
 20
350.852198192313
 30
0.0
 10
280.5069412714353
 20
349.3826963719598
 30
0.0
 10
280.5015348770198
 20
348.5273660146705
 30
0.0
 10
280.4847236344941
 20
345.7247756841314
 30
0.0
 10
280.4723489473348
 20
343.4656132798552
 30
0.0
 10
280.4491604820157
 20
338.5923171454453
 30
0.0
 10
280.4381118230937
 20
335.9275980232529
 30
0.0
 10
280.4237886300234
 20
331.9657542470957
 30
0.0
 10
280.4192769383521
 20
330.6244050734246
 30
0.0
 10
280.4110763265785
 20
328.0272704556692
 30
0.0
 10
280.4073566878743
 20
326.7649691453644
 30
0.0
 10
280.4005257611759
 20
324.3133034101059
 30
0.0
 10
280.3974281911802
 20
323.1272188008526
 30
0.0
 10
280.3919696878307
 20
320.9324702421989
 30
0.0
 10
280.3895693287757
 20
319.9095631518579
 30
0.0
 10
280.3853180194371
 20
318.0184934157737
 30
0.0
 10
280.3835305593032
 20
317.1786011893868
 30
0.0
 10
280.3805171002795
 20
315.7115305580868
 30
0.0
 10
280.3792784721401
 20
315.0775571374778
 30
0.0
 10
280.3773510856697
 20
314.0603561758299
 30
0.0
 10
280.3766614634541
 20
313.6772451890715
 30
0.0
 10
280.3757494700436
 20
313.1588984978497
 30
0.0
 10
280.3755317293515
 20
313.0260158608846
 30
0.0
 10
280.3755309615933
 20
313.0255479675315
 30
0.0
 10
280.3755309608925
 20
313.0255475419306
 30
0.0
 10
280.375530960875
 20
313.0255475341168
 30
0.0
  0
ARC
  5
A1
330
97
100
AcDbEntity
  8
$DDT_AUDIT_GENERATED_(72)
  6
Continuous
 62
     7
100
AcDbCircle
 10
274.0967147577
 20
213.5668687215
 30
0.0
 40
59.8811786330585
100
AcDbArc
 50
87.6510775421
 51
91.0006713469
  0
LINE
  5
A2
330
97
100
AcDbEntity
  8
$DDT_AUDIT_GENERATED_(72)
  6
Continuous
 62
     7
100
AcDbLine
 10
273.0509425567
 20
273.4389149116
 30
0.0
 11
269.5509425567
 21
273.3777178694
 31
0.0
  0
SPLINE
  5
A3
330
97
100
AcDbEntity
  8
$DDT_AUDIT_GENERATED_(72)
  6
Continuous
 62
     7
100
AcDbSpline
210
0.0
220
0.0
230
1.0
 70
     8
 71
     3
 72
     8
 73
     4
 74
     0
 42
0.000000000198191
 43
0.0000000001
 40
0.0
 40
0.0
 40
0.0
 40
0.0
 40
0.9958264989499722
 40
0.9958264989499722
 40
0.9958264989499722
 40
0.9958264989499722
 10
280.433672530265
 20
416.4755285123421
 30
0.0
 10
280.4490561920042
 20
418.5260522408776
 30
0.0
 10
280.3254934013976
 20
435.2741120589869
 30
0.0
 10
280.062984158445
 20
466.7197079666701
 30
0.0
  0
SPLINE
  5
A4
330
97
100
AcDbEntity
  8
$DDT_AUDIT_GENERATED_(72)
  6
Continuous
 62
     7
100
AcDbSpline
210
0.0
220
0.0
230
1.0
 70
     8
 71
     3
 72
     8
 73
     4
 74
     0
 42
0.0000000002147002
 43
0.0000000001
 40
0.0
 40
0.0
 40
0.0
 40
0.0
 40
1.0
 40
1.0
 40
1.0
 40
1.0
 10
280.5066777817209
 20
353.5256207368387
 30
0.0
 10
280.5746646637905
 20
365.0255719431024
 30
0.0
 10
280.5643350491706
 20
380.5509609020527
 30
0.0
 10
280.4756889378612
 20
400.1017876136899
 30
0.0
  0
LINE
  5
A5
330
97
100
AcDbEntity
  8
$DDT_AUDIT_GENERATED_(72)
  6
Continuous
 62
     7
100
AcDbLine
 10
280.0627280533
 20
274.8316621671
 30
0.0
 11
280.3568653412
 21
313.0394550637
 31
0.0
  0
LINE
  5
A6
330
97
100
AcDbEntity
  8
$DDT_AUDIT_GENERATED_(72)
  6
Continuous
 62
     7
100
AcDbLine
 10
279.080772214
 20
468.1092037508
 30
0.0
 11
269.5509425567
 21
468.2755475462
 31
0.0
  0
ARC
  5
A7
330
97
100
AcDbEntity
  8
$DDT_AUDIT_GENERATED_(72)
  6
Continuous
 62
     7
100
AcDbCircle
 10
279.0627807707
 20
274.4417296364
 30
0.0
 40
0.9999999999949168
100
AcDbArc
 50
271.0088539
 51
0.0016205515
  0
ARC
  5
A8
330
97
100
AcDbEntity
  8
$DDT_AUDIT_GENERATED_(72)
  6
Continuous
 62
     7
100
AcDbCircle
 10
279.0627807707
 20
467.109365456
 30
0.0
 40
0.9999999998545976
100
AcDbArc
 50
359.9983794485
 51
89.3019362697
  0
LINE
  5
A9
330
97
100
AcDbEntity
  8
$DDT_AUDIT_GENERATED_(72)
  6
Continuous
 62
     7
100
AcDbLine
 10
276.5396466494
 20
273.3975358299
 30
0.0
 11
279.0802896698
 21
273.4418829188
 31
0.0
  0
LINE
  5
AA
330
97
100
AcDbEntity
  8
$DDT_AUDIT_GENERATED_(7D)
  6
Continuous
 62
     7
100
AcDbLine
 10
299.8509425567
 20
415.6489207135
 30
0.0
 11
299.8509425567
 21
400.7672628011
 31
0.0
  0
ARC
  5
AB
330
97
100
AcDbEntity
  8
$DDT_AUDIT_GENERATED_(7D)
  6
Continuous
 62
     7
100
AcDbCircle
 10
294.1009425567
 20
436.3255475462
 30
0.0
 40
5.749999999999991
100
AcDbArc
 50
0.0
 51
90.0
  0
ARC
  5
AC
330
97
100
AcDbEntity
  8
$DDT_AUDIT_GENERATED_(7D)
  6
Continuous
 62
     7
100
AcDbCircle
 10
294.1009425567
 20
436.3255475462
 30
0.0
 40
5.749999999999995
100
AcDbArc
 50
90.0
 51
180.0
  0
LINE
  5
AD
330
97
100
AcDbEntity
  8
$DDT_AUDIT_GENERATED_(7D)
  6
Continuous
 62
     7
100
AcDbLine
 10
299.8509425567
 20
436.3255475462
 30
0.0
 11
299.8509425567
 21
415.6489207135
 31
0.0
  0
LINE
  5
AE
330
97
100
AcDbEntity
  8
$DDT_AUDIT_GENERATED_(7D)
  6
Continuous
 62
     7
100
AcDbLine
 10
288.3509425567
 20
416.6474689215
 30
0.0
 11
288.3509425567
 21
436.3255475462
 31
0.0
  0
LINE
  5
AF
330
97
100
AcDbEntity
  8
$DDT_AUDIT_GENERATED_(7D)
  6
Continuous
 62
     7
100
AcDbLine
 10
294.1009425567
 20
416.3352713066
 30
0.0
 11
298.8683949631
 21
416.277242726
 31
0.0
  0
LINE
  5
B0
330
97
100
AcDbEntity
  8
$DDT_AUDIT_GENERATED_(7D)
  6
Continuous
 62
     7
100
AcDbLine
 10
289.3334901502
 20
416.277242726
 30
0.0
 11
294.1009425567
 21
416.3352713066
 31
0.0
  0
ARC
  5
B1
330
97
100
AcDbEntity
  8
$DDT_AUDIT_GENERATED_(7D)
  6
Continuous
 62
     7
100
AcDbCircle
 10
292.0129992167
 20
392.3069332543
 30
0.0
 40
8.068428449350314
100
AcDbArc
 50
98.5052116849
 51
100.5913021276
  0
ARC
  5
B2
330
97
100
AcDbEntity
  8
$DDT_AUDIT_GENERATED_(7D)
  6
Continuous
 62
     7
100
AcDbCircle
 10
292.0129992167
 20
392.3069332543
 30
0.0
 40
8.068428449350314
100
AcDbArc
 50
77.4086691365
 51
81.0224326938
  0
LINE
  5
B3
330
97
100
AcDbEntity
  8
$DDT_AUDIT_GENERATED_(7D)
  6
Continuous
 62
     7
100
AcDbLine
 10
294.1009425567
 20
400.1755475462
 30
0.0
 11
299.3596687599
 21
400.2673389536
 31
0.0
  0
LINE
  5
B4
330
97
100
AcDbEntity
  8
$DDT_AUDIT_GENERATED_(7D)
  6
Continuous
 62
     7
100
AcDbLine
 10
287.8596687599
 20
416.2666057069
 30
0.0
 11
280.4420774703
 21
416.1371311693
 31
0.0
  0
LINE
  5
B5
330
97
100
AcDbEntity
  8
$DDT_AUDIT_GENERATED_(7D)
  6
Continuous
 62
     7
100
AcDbLine
 10
293.7581923328
 20
400.1815302736
 30
0.0
 11
294.1009425567
 21
400.1755475462
 31
0.0
  0
LINE
  5
B6
330
97
100
AcDbEntity
  8
$DDT_AUDIT_GENERATED_(7D)
  6
Continuous
 62
     7
100
AcDbLine
 10
280.5040461138
 20
400.4128822565
 30
0.0
 11
290.5438360953
 21
400.2376370705
 31
0.0
  0
ARC
  5
B7
330
97
100
AcDbEntity
  8
$DDT_AUDIT_GENERATED_(7D)
  6
Continuous
 62
     7
100
AcDbCircle
 10
299.3509425567
 20
400.7672628011
 30
0.0
 40
0.5000000000000023
100
AcDbArc
 50
271.0
 51
0.0
  0
ARC
  5
B8
330
97
100
AcDbEntity
  8
$DDT_AUDIT_GENERATED_(7D)
  6
Continuous
 62
     7
100
AcDbCircle
 10
287.8509425567
 20
416.7665295545
 30
0.0
 40
0.5000000000000004
100
AcDbArc
 50
271.0
 51
0.0
  0
LINE
  5
B9
330
97
100
AcDbEntity
  8
$DDT_AUDIT_GENERATED_(89)
  6
Continuous
 62
     7
100
AcDbLine
 10
293.2646693338
 20
400.2755475462
 30
0.0
 11
290.7300427624
 21
400.2755475462
 31
0.0
  0
LINE
  5
BA
330
97
100
AcDbEntity
  8
$DDT_AUDIT_GENERATED_(93)
  6
Continuous
 62
     7
100
AcDbLine
 10
289.5709425567
 20
310.7755475462
 30
0.0
 11
289.5709425567
 21
355.7755475462
 31
0.0
  0
LINE
  5
BB
330
97
100
AcDbEntity
  8
$DDT_AUDIT_GENERATED_(93)
  6
Continuous
 62
     7
100
AcDbLine
 10
289.5709425567
 20
310.7755475462
 30
0.0
 11
301.3396641803
 21
310.9809713463
 31
0.0
  0
LINE
  5
BC
330
97
100
AcDbEntity
  8
$DDT_AUDIT_GENERATED_(93)
  6
Continuous
 62
     7
100
AcDbLine
 10
301.3396641803
 20
355.5701237462
 30
0.0
 11
289.5709425567
 21
355.7755475462
 31
0.0
  0
ARC
  5
BD
330
97
100
AcDbEntity
  8
$DDT_AUDIT_GENERATED_(93)
  6
Continuous
 62
     7
100
AcDbCircle
 10
-203.7290574433
 20
333.2755475462
 30
0.0
 40
506.5000000000031
100
AcDbArc
 50
357.5856395189
 51
0.0
  0
ARC
  5
BE
330
97
100
AcDbEntity
  8
$DDT_AUDIT_GENERATED_(93)
  6
Continuous
 62
     7
100
AcDbCircle
 10
-203.7290574433
 20
333.2755475462
 30
0.0
 40
506.5000000000031
100
AcDbArc
 50
0.0
 51
2.4143604811
  0
ARC
  5
BF
330
97
100
AcDbEntity
  8
$DDT_AUDIT_GENERATED_(93)
  6
Continuous
 62
     7
100
AcDbCircle
 10
301.3222117739
 20
311.9808190415
 30
0.0
 40
1.000000000000004
100
AcDbArc
 50
271.0
 51
357.585639519
  0
ARC
  5
C0
330
97
100
AcDbEntity
  8
$DDT_AUDIT_GENERATED_(93)
  6
Continuous
 62
     7
100
AcDbCircle
 10
301.3222117739
 20
354.570276051
 30
0.0
 40
1.000000000000078
100
AcDbArc
 50
2.414360481
 51
89.0
  0
LINE
  5
C2
330
97
100
AcDbEntity
  8
$DDT_AUDIT_GENERATED_(C1)
  6
Continuous
 62
     7
100
AcDbLine
 10
289.5709425567
 20
353.4439383098
 30
0.0
 11
280.5335500006
 21
353.286190036
 31
0.0
  0
LINE
  5
C3
330
97
100
AcDbEntity
  8
$DDT_AUDIT_GENERATED_(C1)
  6
Continuous
 62
     7
100
AcDbLine
 10
280.3759444328
 20
313.2676560719
 30
0.0
 11
289.5709425567
 21
313.1071567827
 31
0.0
  0
ENDBLK
  5
C5
330
97
100
AcDbEntity
  8
0
100
AcDbBlockEnd
  0
BLOCK
  5
F3
330
C6
100
AcDbEntity
  8
0
100
AcDbBlockBegin
  2
SE2
 70
     0
 10
0.0
 20
0.0
 30
0.0
  3
SE2
  1

  0
LINE
  5
C8
330
C6
100
AcDbEntity
  8
$DDT_AUDIT_GENERATED_(72)
  6
Continuous
 62
     7
100
AcDbLine
 10
126.35
 20
139.57
 30
0.0
 11
6.35
 21
139.57
 31
0.0
  0
SPLINE
  5
C9
330
C6
100
AcDbEntity
  8
$DDT_AUDIT_GENERATED_(72)
  6
Continuous
 62
     7
100
AcDbSpline
210
0.0
220
0.0
230
1.0
 70
     8
 71
     3
 72
    46
 73
    42
 74
     0
 42
0.0000000000843819
 43
0.0000000001
 40
0.0034428614180468
 40
0.0034428614180468
 40
0.0034428614180468
 40
0.0034428614180468
 40
0.0625000000000001
 40
0.0625000000000001
 40
0.0937500000000002
 40
0.0937500000000002
 40
0.1250000000000002
 40
0.1250000000000002
 40
0.1875000000000003
 40
0.1875000000000003
 40
0.2500000000000004
 40
0.2500000000000004
 40
0.3125000000000005
 40
0.3125000000000005
 40
0.3437500000000006
 40
0.3437500000000006
 40
0.3750000000000006
 40
0.3750000000000006
 40
0.4375000000000007
 40
0.4375000000000007
 40
0.5000000000000007
 40
0.5000000000000007
 40
0.5625000000000007
 40
0.5625000000000007
 40
0.6250000000000007
 40
0.6250000000000007
 40
0.6562500000000007
 40
0.6562500000000007
 40
0.6875000000000006
 40
0.6875000000000006
 40
0.7500000000000004
 40
0.7500000000000004
 40
0.8125000000000004
 40
0.8125000000000004
 40
0.8437500000000003
 40
0.8437500000000003
 40
0.8750000000000003
 40
0.8750000000000003
 40
0.9375000000000002
 40
0.9375000000000002
 40
0.9965264296367013
 40
0.9965264296367013
 40
0.9965264296367013
 40
0.9965264296367013
 10
125.1944879280303
 20
129.0391911273776
 30
0.0
 10
125.1545242435666
 20
129.0428046627879
 30
0.0
 10
124.7746946808845
 20
129.0446702607354
 30
0.0
 10
123.6945545059185
 20
129.0469814100471
 30
0.0
 10
123.2286668164147
 20
129.0476509486971
 30
0.0
 10
122.1084631535802
 20
129.0488757135661
 30
0.0
 10
121.4509797008681
 20
129.0494299013901
 30
0.0
 10
119.2357698559673
 20
129.0509933846926
 30
0.0
 10
117.4284400362073
 20
129.0519404824456
 30
0.0
 10
113.1586506123112
 20
129.0536518208374
 30
0.0
 10
110.6734133408781
 20
129.0544387263596
 30
0.0
 10
105.244675019269
 20
129.0557776617131
 30
0.0
 10
102.2825984578179
 20
129.0563195880041
 30
0.0
 10
97.45909207217994
 20
129.0570011833647
 30
0.0
 10
95.78778316247181
 20
129.0571983837732
 30
0.0
 10
92.39091561504864
 20
129.0575253317649
 30
0.0
 10
90.65645106122136
 20
129.0576589474441
 30
0.0
 10
85.34660845378123
 20
129.0580030336093
 30
0.0
 10
81.63966225195404
 20
129.0581202252224
 30
0.0
 10
74.04455275879914
 20
129.0582308612606
 30
0.0
 10
70.22691246462723
 20
129.0582134352718
 30
0.0
 10
62.55253741157675
 20
129.0582128510025
 30
0.0
 10
58.65507679659029
 20
129.0582306303126
 30
0.0
 10
51.10830648601909
 20
129.0581211481045
 30
0.0
 10
47.44033190907299
 20
129.058007412934
 30
0.0
 10
42.09733803406101
 20
129.0576630433694
 30
0.0
 10
40.33370179336972
 20
129.0575274538052
 30
0.0
 10
36.92396647176498
 20
129.0571997594301
 30
0.0
 10
35.27493902917954
 20
129.0570052604177
 30
0.0
 10
30.49133734887585
 20
129.0563314671093
 30
0.0
 10
27.51864838588332
 20
129.0557918904881
 30
0.0
 10
22.02282502650848
 20
129.0544391728267
 30
0.0
 10
19.58126332547885
 20
129.0536648121538
 30
0.0
 10
16.38287071939484
 20
129.0523873560939
 30
0.0
 10
15.39323454985221
 20
129.0519356854205
 30
0.0
 10
13.57014442148401
 20
129.0509802558894
 30
0.0
 10
12.73423180686016
 20
129.0504775580243
 30
0.0
 10
10.5156855098155
 20
129.0489135042657
 30
0.0
 10
9.401268430927749
 20
129.0478101978157
 30
0.0
 10
7.934368280802954
 20
129.0447064360463
 30
0.0
 10
7.546790522191746
 20
129.0428104248492
 30
0.0
 10
7.505650054720786
 20
129.0391970777902
 30
0.0
  0
LINE
  5
CA
330
C6
100
AcDbEntity
  8
$DDT_AUDIT_GENERATED_(72)
  6
Continuous
 62
     7
100
AcDbLine
 10
6.5166787213
 20
130.0209824537
 30
0.0
 11
6.35
 21
139.57
 31
0.0
  0
LINE
  5
CB
330
C6
100
AcDbEntity
  8
$DDT_AUDIT_GENERATED_(72)
  6
Continuous
 62
     7
100
AcDbLine
 10
126.1833212787
 20
130.0209824537
 30
0.0
 11
126.35
 21
139.57
 31
0.0
  0
SPLINE
  5
CC
330
C6
100
AcDbEntity
  8
$DDT_AUDIT_GENERATED_(72)
  6
Continuous
 62
     7
100
AcDbSpline
210
0.0
220
0.0
230
1.0
 70
     8
 71
     3
 72
    14
 73
    10
 74
     0
 42
0.0000000003046898
 43
0.0000000001
 40
0.0
 40
0.0
 40
0.0
 40
0.0
 40
0.0625000000000002
 40
0.0625000000000002
 40
0.1250000000000003
 40
0.1250000000000003
 40
0.2500000000000004
 40
0.2500000000000004
 40
0.2500689683171778
 40
0.2500689683171778
 40
0.2500689683171778
 40
0.2500689683171778
 10
66.34999999999998
 20
128.6798463818089
 30
0.0
 10
65.26653174816327
 20
128.6798463818089
 30
0.0
 10
64.20336703624817
 20
128.6792429901862
 30
0.0
 10
62.21727949905176
 20
128.6768101376924
 30
0.0
 10
61.30764081625889
 20
128.6749791131962
 30
0.0
 10
59.03828762022054
 20
128.6677860968374
 30
0.0
 10
58.15113355995877
 20
128.6605064701986
 30
0.0
 10
58.15000052425682
 20
128.6521740529115
 30
0.0
 10
58.15000015851312
 20
128.6521694577383
 30
0.0
 10
58.15000005181003
 20
128.6521648622396
 30
0.0
  0
SPLINE
  5
CD
330
C6
100
AcDbEntity
  8
$DDT_AUDIT_GENERATED_(72)
  6
Continuous
 62
     7
100
AcDbSpline
210
0.0
220
0.0
230
1.0
 70
     8
 71
     3
 72
     8
 73
     4
 74
     0
 42
0.0000000009713414
 43
0.0000000001
 40
0.2685946132610609
 40
0.2685946132610609
 40
0.2685946132610609
 40
0.2685946132610609
 40
0.2957634698234401
 40
0.2957634698234401
 40
0.2957634698234401
 40
0.2957634698234401
 10
58.20560702863193
 20
128.6484012441632
 30
0.0
 10
58.25983145678698
 20
128.6465367672371
 30
0.0
 10
58.35344194148492
 20
128.6446433682827
 30
0.0
 10
58.48524679399043
 20
128.6427527042548
 30
0.0
  0
SPLINE
  5
CE
330
C6
100
AcDbEntity
  8
$DDT_AUDIT_GENERATED_(72)
  6
Continuous
 62
     7
100
AcDbSpline
210
0.0
220
0.0
230
1.0
 70
     8
 71
     3
 72
     8
 73
     4
 74
     0
 42
0.0000000009051295
 43
0.0000000001
 40
0.7059261763975323
 40
0.7059261763975323
 40
0.7059261763975323
 40
0.7059261763975323
 40
0.7255891920773996
 40
0.7255891920773996
 40
0.7255891920773996
 40
0.7255891920773996
 10
74.23472116825886
 20
128.6430367500526
 30
0.0
 10
74.32729328257302
 20
128.6444016250829
 30
0.0
 10
74.39986235823774
 20
128.6457672212199
 30
0.0
 10
74.45192036421963
 20
128.6471249741872
 30
0.0
  0
SPLINE
  5
CF
330
C6
100
AcDbEntity
  8
$DDT_AUDIT_GENERATED_(72)
  6
Continuous
 62
     7
100
AcDbSpline
210
0.0
220
0.0
230
1.0
 70
     8
 71
     3
 72
    12
 73
     8
 74
     0
 42
0.000000000304512
 43
0.0000000001
 40
0.7501716801911331
 40
0.7501716801911331
 40
0.7501716801911331
 40
0.7501716801911331
 40
0.8125000000000002
 40
0.8125000000000002
 40
0.8750000000000002
 40
0.8750000000000002
 40
1.0
 40
1.0
 40
1.0
 40
1.0
 10
74.55000000630078
 20
128.6521638046531
 30
0.0
 10
74.5499361097595
 20
128.6563623767133
 30
0.0
 10
74.33819224344273
 20
128.660252459041
 30
0.0
 10
73.51688582778276
 20
128.6671833585638
 30
0.0
 10
72.90939767157458
 20
128.6701668786285
 30
0.0
 10
70.63996415331813
 20
128.677371457661
 30
0.0
 10
68.51693650367339
 20
128.6798463818089
 30
0.0
 10
66.34999999999998
 20
128.6798463818089
 30
0.0
  0
ARC
  5
D0
330
C6
100
AcDbEntity
  8
$DDT_AUDIT_GENERATED_(72)
  6
Continuous
 62
     7
100
AcDbCircle
 10
66.3524714133
 20
3858.1142045093
 30
0.0
 40
3729.54371892723
100
AcDbArc
 50
269.0958497035
 51
269.8791616327
  0
ARC
  5
D1
330
C6
100
AcDbEntity
  8
$DDT_AUDIT_GENERATED_(72)
  6
Continuous
 62
     7
100
AcDbCircle
 10
66.3524714133
 20
3858.1142045093
 30
0.0
 40
3729.54371892723
100
AcDbArc
 50
270.1207637603
 51
270.7878460722
  0
SPLINE
  5
D2
330
C6
100
AcDbEntity
  8
$DDT_AUDIT_GENERATED_(72)
  6
Continuous
 62
     7
100
AcDbSpline
210
0.0
220
0.0
230
1.0
 70
     8
 71
     3
 72
    27
 73
    23
 74
     0
 42
0.0000000005416513
 43
0.0000000001
 40
0.3832413864326754
 40
0.3832413864326754
 40
0.3832413864326754
 40
0.3832413864326754
 40
0.3877678649242131
 40
0.4259240809872061
 40
0.4634693940083535
 40
0.4988445656856709
 40
0.5320131548671541
 40
0.5823022229677883
 40
0.6262712847930978
 40
0.6638949723450672
 40
0.6880816158912483
 40
0.7088293576065605
 40
0.7263343002451703
 40
0.7420791749883338
 40
0.7621718920528404
 40
0.7960512323988833
 40
0.8378561088211153
 40
0.8865985232443229
 40
0.9266002196482689
 40
0.9627544464712632
 40
0.993030528168318
 40
1.0
 40
1.0
 40
1.0
 40
1.0
 10
113.8129979370276
 20
128.8816640412989
 30
0.0
 10
113.8132030836301
 20
128.8816519142705
 30
0.0
 10
113.8212463289894
 20
128.8816165840599
 30
0.0
 10
113.9438618029779
 20
128.8829388288135
 30
0.0
 10
114.1778666031189
 20
128.885593371747
 30
0.0
 10
114.4416831238843
 20
128.8886569281091
 30
0.0
 10
114.7886122317721
 20
128.8927730130298
 30
0.0
 10
115.2313353524794
 20
128.8981413178622
 30
0.0
 10
115.7914015489938
 20
128.9050882174082
 30
0.0
 10
116.3353018016376
 20
128.9119549948162
 30
0.0
 10
116.8422583836289
 20
128.9184388730175
 30
0.0
 10
117.2914630991355
 20
128.9242391257324
 30
0.0
 10
117.7486862222912
 20
128.9301926081048
 30
0.0
 10
118.2982720962637
 20
128.9374217408902
 30
0.0
 10
118.9499019246035
 20
128.9460580686464
 30
0.0
 10
119.8192695442749
 20
128.9577120443616
 30
0.0
 10
120.9207708899504
 20
128.9727339638483
 30
0.0
 10
122.0681017202511
 20
128.9887411691082
 30
0.0
 10
123.1581976706465
 20
129.0043288506923
 30
0.0
 10
124.1006724312434
 20
129.0181637094831
 30
0.0
 10
124.7898683778689
 20
129.0284723925161
 30
0.0
 10
125.1252687369714
 20
129.0336473844895
 30
0.0
 10
125.1985970502546
 20
129.0347791917737
 30
0.0
  0
ARC
  5
D3
330
C6
100
AcDbEntity
  8
$DDT_AUDIT_GENERATED_(72)
  6
Continuous
 62
     7
100
AcDbCircle
 10
125.1834072755
 20
130.0346360726
 30
0.0
 40
0.9999999999998619
100
AcDbArc
 50
270.891568996
 51
359.0052066218
  0
ARC
  5
D4
330
C6
100
AcDbEntity
  8
$DDT_AUDIT_GENERATED_(72)
  6
Continuous
 62
     7
100
AcDbCircle
 10
7.5165927245
 20
130.0346360726
 30
0.0
 40
0.9999999999978353
100
AcDbArc
 50
180.9947933781
 51
269.057467163
  0
LINE
  5
D5
330
C6
100
AcDbEntity
  8
$DDT_AUDIT_GENERATED_(7D)
  6
Continuous
 62
     7
100
AcDbLine
 10
73.8582847451
 20
109.27
 30
0.0
 11
67.7669361135
 21
109.27
 31
0.0
  0
LINE
  5
D6
330
C6
100
AcDbEntity
  8
$DDT_AUDIT_GENERATED_(7D)
  6
Continuous
 62
     7
100
AcDbLine
 10
64.9330638865
 20
109.27
 30
0.0
 11
58.8417152549
 21
109.27
 31
0.0
  0
LINE
  5
D7
330
C6
100
AcDbEntity
  8
$DDT_AUDIT_GENERATED_(7D)
  6
Continuous
 62
     7
100
AcDbLine
 10
68.7667838087
 20
119.7874524064
 30
0.0
 11
68.85
 21
115.02
 31
0.0
  0
LINE
  5
D8
330
C6
100
AcDbEntity
  8
$DDT_AUDIT_GENERATED_(7D)
  6
Continuous
 62
     7
100
AcDbLine
 10
68.85
 20
115.02
 30
0.0
 11
68.7667838087
 21
110.2525475936
 31
0.0
  0
ARC
  5
D9
330
C6
100
AcDbEntity
  8
$DDT_AUDIT_GENERATED_(7D)
  6
Continuous
 62
     7
100
AcDbCircle
 10
67.7669361135
 20
110.27
 30
0.0
 40
0.9999999999999974
100
AcDbArc
 50
270.0
 51
359.0
  0
LINE
  5
DA
330
C6
100
AcDbEntity
  8
$DDT_AUDIT_GENERATED_(7D)
  6
Continuous
 62
     7
100
AcDbLine
 10
67.849847672
 20
115.02
 30
0.0
 11
68.85
 21
115.02
 31
0.0
  0
ARC
  5
DB
330
C6
100
AcDbEntity
  8
$DDT_AUDIT_GENERATED_(7D)
  6
Continuous
 62
     7
100
AcDbCircle
 10
67.7669361135
 20
119.77
 30
0.0
 40
0.9999999999999974
100
AcDbArc
 50
1.0
 51
90.0
  0
LINE
  5
DC
330
C6
100
AcDbEntity
  8
$DDT_AUDIT_GENERATED_(7D)
  6
Continuous
 62
     7
100
AcDbLine
 10
63.85
 20
115.02
 30
0.0
 11
63.9332161913
 21
119.7874524064
 31
0.0
  0
LINE
  5
DD
330
C6
100
AcDbEntity
  8
$DDT_AUDIT_GENERATED_(7D)
  6
Continuous
 62
     7
100
AcDbLine
 10
64.9330638865
 20
120.77
 30
0.0
 11
67.7669361135
 21
120.77
 31
0.0
  0
LINE
  5
DE
330
C6
100
AcDbEntity
  8
$DDT_AUDIT_GENERATED_(7D)
  6
Continuous
 62
     7
100
AcDbLine
 10
64.9330638865
 20
109.27
 30
0.0
 11
67.7669361135
 21
109.27
 31
0.0
  0
LINE
  5
DF
330
C6
100
AcDbEntity
  8
$DDT_AUDIT_GENERATED_(7D)
  6
Continuous
 62
     7
100
AcDbLine
 10
63.9332161913
 20
110.2525475936
 30
0.0
 11
63.85
 21
115.02
 31
0.0
  0
ARC
  5
E0
330
C6
100
AcDbEntity
  8
$DDT_AUDIT_GENERATED_(7D)
  6
Continuous
 62
     7
100
AcDbCircle
 10
64.9330638865
 20
110.27
 30
0.0
 40
1.0
100
AcDbArc
 50
181.0
 51
270.0
  0
ARC
  5
E1
330
C6
100
AcDbEntity
  8
$DDT_AUDIT_GENERATED_(7D)
  6
Continuous
 62
     7
100
AcDbCircle
 10
64.9330638865
 20
119.77
 30
0.0
 40
1.0
100
AcDbArc
 50
90.0
 51
179.0
  0
LINE
  5
E2
330
C6
100
AcDbEntity
  8
$DDT_AUDIT_GENERATED_(7D)
  6
Continuous
 62
     7
100
AcDbLine
 10
63.5244653097
 20
115.02
 30
0.0
 11
63.85
 21
115.02
 31
0.0
  0
LINE
  5
E3
330
C6
100
AcDbEntity
  8
$DDT_AUDIT_GENERATED_(7D)
  6
Continuous
 62
     7
100
AcDbLine
 10
69.1755346903
 20
115.02
 30
0.0
 11
68.85
 21
115.02
 31
0.0
  0
LINE
  5
E4
330
C6
100
AcDbEntity
  8
$DDT_AUDIT_GENERATED_(7D)
  6
Continuous
 62
     7
100
AcDbLine
 10
58.25
 20
115.02
 30
0.0
 11
58.3417914073
 21
109.7612737968
 31
0.0
  0
LINE
  5
E5
330
C6
100
AcDbEntity
  8
$DDT_AUDIT_GENERATED_(7D)
  6
Continuous
 62
     7
100
AcDbLine
 10
74.3582085927
 20
109.7612737968
 30
0.0
 11
74.45
 21
115.02
 31
0.0
  0
LINE
  5
E6
330
C6
100
AcDbEntity
  8
$DDT_AUDIT_GENERATED_(7D)
  6
Continuous
 62
     7
100
AcDbLine
 10
74.45
 20
115.02
 30
0.0
 11
74.2119047361
 21
128.6604685342
 31
0.0
  0
LINE
  5
E7
330
C6
100
AcDbEntity
  8
$DDT_AUDIT_GENERATED_(7D)
  6
Continuous
 62
     7
100
AcDbLine
 10
58.4880959995
 20
128.6605106781
 30
0.0
 11
58.25
 21
115.02
 31
0.0
  0
ARC
  5
E8
330
C6
100
AcDbEntity
  8
$DDT_AUDIT_GENERATED_(7D)
  6
Continuous
 62
     7
100
AcDbCircle
 10
58.8417152549
 20
109.77
 30
0.0
 40
0.5000000000000014
100
AcDbArc
 50
181.0
 51
270.0
  0
ARC
  5
E9
330
C6
100
AcDbEntity
  8
$DDT_AUDIT_GENERATED_(7D)
  6
Continuous
 62
     7
100
AcDbCircle
 10
73.8582847451
 20
109.77
 30
0.0
 40
0.5000000000000004
100
AcDbArc
 50
270.0
 51
359.0
  0
LINE
  5
EA
330
C6
100
AcDbEntity
  8
$DDT_AUDIT_GENERATED_(93)
  6
Continuous
 62
     7
100
AcDbLine
 10
43.85
 20
119.55
 30
0.0
 11
58.3290714441
 21
119.55
 31
0.0
  0
LINE
  5
EB
330
C6
100
AcDbEntity
  8
$DDT_AUDIT_GENERATED_(93)
  6
Continuous
 62
     7
100
AcDbLine
 10
74.3709285559
 20
119.55
 30
0.0
 11
88.85
 21
119.55
 31
0.0
  0
LINE
  5
EC
330
C6
100
AcDbEntity
  8
$DDT_AUDIT_GENERATED_(93)
  6
Continuous
 62
     7
100
AcDbLine
 10
43.85
 20
119.55
 30
0.0
 11
44.0554238001
 21
107.7812783764
 31
0.0
  0
LINE
  5
ED
330
C6
100
AcDbEntity
  8
$DDT_AUDIT_GENERATED_(93)
  6
Continuous
 62
     7
100
AcDbLine
 10
88.6445761999
 20
107.7812783764
 30
0.0
 11
88.85
 21
119.55
 31
0.0
  0
ARC
  5
EE
330
C6
100
AcDbEntity
  8
$DDT_AUDIT_GENERATED_(93)
  6
Continuous
 62
     7
100
AcDbCircle
 10
66.35
 20
612.85
 30
0.0
 40
506.5000000000031
100
AcDbArc
 50
267.5856395189
 51
272.4143604811
  0
ARC
  5
EF
330
C6
100
AcDbEntity
  8
$DDT_AUDIT_GENERATED_(93)
  6
Continuous
 62
     7
100
AcDbCircle
 10
45.0552714952
 20
107.7987307828
 30
0.0
 40
1.000000000000004
100
AcDbArc
 50
181.0
 51
267.585639519
  0
ARC
  5
F0
330
C6
100
AcDbEntity
  8
$DDT_AUDIT_GENERATED_(93)
  6
Continuous
 62
     7
100
AcDbCircle
 10
87.6447285048
 20
107.7987307828
 30
0.0
 40
1.000000000000078
100
AcDbArc
 50
272.414360481
 51
359.0
  0
LINE
  5
F1
330
C6
100
AcDbEntity
  8
$DDT_AUDIT_GENERATED_(C1)
  6
Continuous
 62
     7
100
AcDbLine
 10
86.5183907636
 20
119.55
 30
0.0
 11
86.3599671657
 21
128.6260818421
 31
0.0
  0
LINE
  5
F2
330
C6
100
AcDbEntity
  8
$DDT_AUDIT_GENERATED_(C1)
  6
Continuous
 62
     7
100
AcDbLine
 10
46.3400309289
 20
128.6259726805
 30
0.0
 11
46.1816092364
 21
119.55
 31
0.0
  0
ENDBLK
  5
F4
330
C6
100
AcDbEntity
  8
0
100
AcDbBlockEnd
  0
ENDSEC
  0
SECTION
  2
ENTITIES
  0
INSERT
  5
5F
330
1F
100
AcDbEntity
  8
Default
100
AcDbBlockReference
  2
SEANNOT_GROUP
 10
0.0
 20
0.0
 30
0.0
  0
INSERT
  5
66
330
1F
100
AcDbEntity
  8
Default
100
AcDbBlockReference
  2
SEANNOT_GROUP1
 10
0.0
 20
0.0
 30
0.0
  0
INSERT
  5
6C
330
1F
100
AcDbEntity
  8
Default
100
AcDbBlockReference
  2
SEANNOT_GROUP2
 10
0.0
 20
0.0
 30
0.0
  0
INSERT
  5
71
330
1F
100
AcDbEntity
  8
Default
100
AcDbBlockReference
  2
SE
 10
0.0
 20
0.0
 30
0.0
  0
INSERT
  5
98
330
1F
100
AcDbEntity
  8
Default
100
AcDbBlockReference
  2
SE1
 10
0.0
 20
0.0
 30
0.0
  0
INSERT
  5
C7
330
1F
100
AcDbEntity
  8
Default
100
AcDbBlockReference
  2
SE2
 10
0.0
 20
0.0
 30
0.0
  0
TEXT
  5
F6
330
1F
100
AcDbEntity
  8
Default
  6
Continuous
 62
     7
100
AcDbText
 10
5.9362635081
 20
53.4225120485
 30
0.0
 40
10.0
  1
Grohe AG^J
  7
SEACAD_seiso_ttf
 11
5.9362635081
 21
63.4225120485
 31
0.0
100
AcDbText
 73
     3
  0
TEXT
  5
F7
330
1F
100
AcDbEntity
  8
Default
  6
Continuous
 62
     7
100
AcDbText
 10
5.9362635081
 20
37.0588756849
 30
0.0
 40
10.0
  1
 
  7
SEACAD_seiso_ttf
 11
5.9362635081
 21
47.0588756849
 31
0.0
100
AcDbText
 73
     3
  0
TEXT
  5
F8
330
1F
100
AcDbEntity
  8
Default
  6
Continuous
 62
     7
100
AcDbText
 10
5.9362635081
 20
20.6952393213
 30
0.0
 40
10.0
  1
ecn: 
  7
SEACAD_seiso_ttf
 11
5.9362635081
 21
30.6952393213
 31
0.0
100
AcDbText
 73
     3
  0
TEXT
  5
F9
330
1F
100
AcDbEntity
  8
Default
  6
Continuous
 62
     7
100
AcDbText
 10
5.9362635081
 20
4.3316029576
 30
0.0
 40
10.0
  1
unit: mm
  7
SEACAD_seiso_ttf
 11
5.9362635081
 21
14.3316029576
 31
0.0
100
AcDbText
 73
     3
  0
LINE
  5
FA
330
1F
100
AcDbEntity
  8
Default
  6
Continuous
 62
     7
100
AcDbLine
 10
0.0
 20
0.0
 30
0.0
 11
100.0
 21
0.0
 31
0.0
  0
LINE
  5
FB
330
1F
100
AcDbEntity
  8
Default
  6
Continuous
 62
     7
100
AcDbLine
 10
0.0
 20
0.0
 30
0.0
 11
0.0
 21
100.0
 31
0.0
  0
TEXT
  5
FC
330
1F
100
AcDbEntity
  8
Default
  6
Continuous
 62
     7
100
AcDbText
 10
24.3923665681
 20
-18.2375342018
 30
0.0
 40
10.0
  1
100 mm
  7
SEACAD_seiso_ttf
 11
24.3923665681
 21
-8.2375342018
 31
0.0
100
AcDbText
 73
     3
  0
TEXT
  5
FD
330
1F
100
AcDbEntity
  8
Default
  6
Continuous
 62
     7
100
AcDbText
 10
-7.6150308803
 20
24.6231930421
 30
0.0
 40
10.0
  1
100 mm
 50
90.0
  7
SEACAD_seiso_ttf
 11
-17.6150308803
 21
24.6231930421
 31
0.0
100
AcDbText
 73
     3
  0
TEXT
  5
FE
330
1F
100
AcDbEntity
  8
Default
  6
Continuous
 62
     7
100
AcDbText
 10
28.4878128572
 20
20.0907663715
 30
0.0
 40
10.0
  1
221884
  7
SEACAD_seiso_ttf
 11
28.4878128572
 21
30.0907663715
 31
0.0
100
AcDbText
 73
     3
  0
TEXT
  5
FF
330
1F
100
AcDbEntity
  8
Default
  6
Continuous
 62
     7
100
AcDbText
 10
5.9012241913
 20
36.7242780188
 30
0.0
 40
10.0
  1
36321000
  7
SEACAD_seiso_ttf
 11
5.9012241913
 21
46.7242780188
 31
0.0
100
AcDbText
 73
     3
  0
ENDSEC
  0
SECTION
  2
OBJECTS
  0
DICTIONARY
  5
C
330
0
100
AcDbDictionary
281
     1
  3
ACAD_GROUP
350
D
  3
ACAD_LAYOUT
350
1A
  3
ACAD_MLEADERSTYLE
350
103
  3
ACAD_MLINESTYLE
350
17
  3
ACAD_PLOTSETTINGS
350
19
  3
ACAD_PLOTSTYLENAME
350
E
  3
ACAD_SCALELIST
350
3B
  3
ACAD_TABLESTYLE
350
102
  3
ACAD_VISUALSTYLE
350
2A
  3
AcDbVariableDictionary
350
100
  0
DICTIONARY
  5
D
102
{ACAD_REACTORS
330
C
102
}
330
C
100
AcDbDictionary
281
     1
  0
DICTIONARY
  5
1A
102
{ACAD_REACTORS
330
C
102
}
330
C
100
AcDbDictionary
281
     1
  3
Layout1
350
1E
  3
Model
350
22
  0
DICTIONARY
  5
103
102
{ACAD_REACTORS
330
C
102
}
330
C
100
AcDbDictionary
281
     1
  0
DICTIONARY
  5
17
102
{ACAD_REACTORS
330
C
102
}
330
C
100
AcDbDictionary
281
     1
  3
Standard
350
18
  0
DICTIONARY
  5
19
102
{ACAD_REACTORS
330
C
102
}
330
C
100
AcDbDictionary
281
     1
  0
ACDBDICTIONARYWDFLT
  5
E
102
{ACAD_REACTORS
330
C
102
}
330
C
100
AcDbDictionary
281
     1
  3
Normal
350
F
100
AcDbDictionaryWithDefault
340
F
  0
DICTIONARY
  5
3B
102
{ACAD_REACTORS
330
C
102
}
330
C
100
AcDbDictionary
281
     1
  3
A0
350
3C
  3
A1
350
3D
  3
A2
350
3E
  3
A3
350
3F
  3
A4
350
40
  3
A5
350
41
  3
A6
350
42
  3
A7
350
43
  3
A8
350
44
  3
A9
350
45
  3
B0
350
46
  3
B1
350
47
  3
B2
350
48
  3
B3
350
49
  3
B4
350
4A
  3
B5
350
4B
  3
B6
350
4C
  3
B7
350
4D
  3
B8
350
4E
  3
B9
350
4F
  3
C0
350
50
  3
C1
350
51
  3
C2
350
52
  3
C3
350
53
  3
C4
350
54
  3
C5
350
55
  3
C6
350
56
  3
C7
350
57
  3
C8
350
58
  3
C9
350
59
  3
D0
350
5A
  3
D1
350
5B
  3
D2
350
5C
  0
DICTIONARY
  5
102
102
{ACAD_REACTORS
330
C
102
}
330
C
100
AcDbDictionary
281
     1
  0
DICTIONARY
  5
2A
102
{ACAD_REACTORS
330
C
102
}
330
C
100
AcDbDictionary
281
     1
  3
2dWireframe
350
2F
  3
3D Hidden
350
31
  3
3dWireframe
350
30
  3
Basic
350
32
  3
Brighten
350
36
  3
ColorChange
350
3A
  3
Conceptual
350
34
  3
Dim
350
35
  3
Facepattern
350
39
  3
Flat
350
2B
  3
FlatWithEdges
350
2C
  3
Gouraud
350
2D
  3
GouraudWithEdges
350
2E
  3
Linepattern
350
38
  3
Realistic
350
33
  3
Thicken
350
37
  0
DICTIONARY
  5
100
102
{ACAD_REACTORS
330
C
102
}
330
C
100
AcDbDictionary
281
     1
  3
CANNOSCALE
350
101
  3
PSOLHEIGHT
350
105
  3
PSOLWIDTH
350
104
  0
LAYOUT
  5
1E
102
{ACAD_REACTORS
330
1A
102
}
330
1A
100
AcDbPlotSettings
  1

  2
none_device
  4

  6

 40
0.0
 41
0.0
 42
0.0
 43
0.0
 44
0.0
 45
0.0
 46
0.0
 47
0.0
 48
0.0
 49
0.0
140
0.0
141
0.0
142
1.0
143
1.0
 70
   688
 72
     0
 73
     0
 74
     5
  7

 75
    16
147
1.0
148
0.0
149
0.0
100
AcDbLayout
  1
Layout1
 70
     1
 71
     1
 10
0.0
 20
0.0
 11
1682.0
 21
2378.0
 12
0.0
 22
0.0
 32
0.0
 14
0.0
 24
0.0
 34
0.0
 15
1682.0
 25
2378.0
 35
0.0
146
0.0
 13
0.0
 23
0.0
 33
0.0
 16
1.0
 26
0.0
 36
0.0
 17
0.0
 27
1.0
 37
0.0
 76
     0
330
1B
  0
LAYOUT
  5
22
102
{ACAD_REACTORS
330
1A
102
}
330
1A
100
AcDbPlotSettings
  1

  2
none_device
  4

  6

 40
0.0
 41
0.0
 42
0.0
 43
0.0
 44
0.0
 45
0.0
 46
0.0
 47
0.0
 48
0.0
 49
0.0
140
0.0
141
0.0
142
1.0
143
1.0
 70
  1712
 72
     0
 73
     0
 74
     0
  7

 75
     0
147
1.0
148
0.0
149
0.0
100
AcDbLayout
  1
Model
 70
     1
 71
     0
 10
0.0
 20
0.0
 11
1682.0
 21
2378.0
 12
0.0
 22
0.0
 32
0.0
 14
0.0
 24
0.0
 34
0.0
 15
1682.0
 25
2378.0
 35
0.0
146
0.0
 13
0.0
 23
0.0
 33
0.0
 16
1.0
 26
0.0
 36
0.0
 17
0.0
 27
1.0
 37
0.0
 76
     0
330
1F
331
29
  0
MLINESTYLE
  5
18
102
{ACAD_REACTORS
330
17
102
}
330
17
100
AcDbMlineStyle
  2
Standard
 70
     0
  3

 62
   256
 51
90.0
 52
90.0
 71
     2
 49
0.5
 62
   256
  6
BYLAYER
 49
-0.5
 62
   256
  6
BYLAYER
  0
ACDBPLACEHOLDER
  5
F
102
{ACAD_REACTORS
330
E
102
}
330
E
  0
SCALE
  5
3C
102
{ACAD_REACTORS
330
3B
102
}
330
3B
100
AcDbScale
 70
     0
300
1:1
140
1.0
141
1.0
290
     1
  0
SCALE
  5
3D
102
{ACAD_REACTORS
330
3B
102
}
330
3B
100
AcDbScale
 70
     0
300
1:2
140
1.0
141
2.0
290
     0
  0
SCALE
  5
3E
102
{ACAD_REACTORS
330
3B
102
}
330
3B
100
AcDbScale
 70
     0
300
1:4
140
1.0
141
4.0
290
     0
  0
SCALE
  5
3F
102
{ACAD_REACTORS
330
3B
102
}
330
3B
100
AcDbScale
 70
     0
300
1:5
140
1.0
141
5.0
290
     0
  0
SCALE
  5
40
102
{ACAD_REACTORS
330
3B
102
}
330
3B
100
AcDbScale
 70
     0
300
1:8
140
1.0
141
8.0
290
     0
  0
SCALE
  5
41
102
{ACAD_REACTORS
330
3B
102
}
330
3B
100
AcDbScale
 70
     0
300
1:10
140
1.0
141
10.0
290
     0
  0
SCALE
  5
42
102
{ACAD_REACTORS
330
3B
102
}
330
3B
100
AcDbScale
 70
     0
300
1:16
140
1.0
141
16.0
290
     0
  0
SCALE
  5
43
102
{ACAD_REACTORS
330
3B
102
}
330
3B
100
AcDbScale
 70
     0
300
1:20
140
1.0
141
20.0
290
     0
  0
SCALE
  5
44
102
{ACAD_REACTORS
330
3B
102
}
330
3B
100
AcDbScale
 70
     0
300
1:30
140
1.0
141
30.0
290
     0
  0
SCALE
  5
45
102
{ACAD_REACTORS
330
3B
102
}
330
3B
100
AcDbScale
 70
     0
300
1:40
140
1.0
141
40.0
290
     0
  0
SCALE
  5
46
102
{ACAD_REACTORS
330
3B
102
}
330
3B
100
AcDbScale
 70
     0
300
1:50
140
1.0
141
50.0
290
     0
  0
SCALE
  5
47
102
{ACAD_REACTORS
330
3B
102
}
330
3B
100
AcDbScale
 70
     0
300
1:100
140
1.0
141
100.0
290
     0
  0
SCALE
  5
48
102
{ACAD_REACTORS
330
3B
102
}
330
3B
100
AcDbScale
 70
     0
300
2:1
140
2.0
141
1.0
290
     0
  0
SCALE
  5
49
102
{ACAD_REACTORS
330
3B
102
}
330
3B
100
AcDbScale
 70
     0
300
4:1
140
4.0
141
1.0
290
     0
  0
SCALE
  5
4A
102
{ACAD_REACTORS
330
3B
102
}
330
3B
100
AcDbScale
 70
     0
300
8:1
140
8.0
141
1.0
290
     0
  0
SCALE
  5
4B
102
{ACAD_REACTORS
330
3B
102
}
330
3B
100
AcDbScale
 70
     0
300
10:1
140
10.0
141
1.0
290
     0
  0
SCALE
  5
4C
102
{ACAD_REACTORS
330
3B
102
}
330
3B
100
AcDbScale
 70
     0
300
100:1
140
100.0
141
1.0
290
     0
  0
SCALE
  5
4D
102
{ACAD_REACTORS
330
3B
102
}
330
3B
100
AcDbScale
 70
     0
300
1/128" = 1'-0"
140
0.0078125
141
12.0
290
     0
  0
SCALE
  5
4E
102
{ACAD_REACTORS
330
3B
102
}
330
3B
100
AcDbScale
 70
     0
300
1/64" = 1'-0"
140
0.015625
141
12.0
290
     0
  0
SCALE
  5
4F
102
{ACAD_REACTORS
330
3B
102
}
330
3B
100
AcDbScale
 70
     0
300
1/32" = 1'-0"
140
0.03125
141
12.0
290
     0
  0
SCALE
  5
50
102
{ACAD_REACTORS
330
3B
102
}
330
3B
100
AcDbScale
 70
     0
300
1/16" = 1'-0"
140
0.0625
141
12.0
290
     0
  0
SCALE
  5
51
102
{ACAD_REACTORS
330
3B
102
}
330
3B
100
AcDbScale
 70
     0
300
3/32" = 1'-0"
140
0.09375
141
12.0
290
     0
  0
SCALE
  5
52
102
{ACAD_REACTORS
330
3B
102
}
330
3B
100
AcDbScale
 70
     0
300
1/8" = 1'-0"
140
0.125
141
12.0
290
     0
  0
SCALE
  5
53
102
{ACAD_REACTORS
330
3B
102
}
330
3B
100
AcDbScale
 70
     0
300
3/16" = 1'-0"
140
0.1875
141
12.0
290
     0
  0
SCALE
  5
54
102
{ACAD_REACTORS
330
3B
102
}
330
3B
100
AcDbScale
 70
     0
300
1/4" = 1'-0"
140
0.25
141
12.0
290
     0
  0
SCALE
  5
55
102
{ACAD_REACTORS
330
3B
102
}
330
3B
100
AcDbScale
 70
     0
300
3/8" = 1'-0"
140
0.375
141
12.0
290
     0
  0
SCALE
  5
56
102
{ACAD_REACTORS
330
3B
102
}
330
3B
100
AcDbScale
 70
     0
300
1/2" = 1'-0"
140
0.5
141
12.0
290
     0
  0
SCALE
  5
57
102
{ACAD_REACTORS
330
3B
102
}
330
3B
100
AcDbScale
 70
     0
300
3/4" = 1'-0"
140
0.75
141
12.0
290
     0
  0
SCALE
  5
58
102
{ACAD_REACTORS
330
3B
102
}
330
3B
100
AcDbScale
 70
     0
300
1" = 1'-0"
140
1.0
141
12.0
290
     0
  0
SCALE
  5
59
102
{ACAD_REACTORS
330
3B
102
}
330
3B
100
AcDbScale
 70
     0
300
1-1/2" = 1'-0"
140
1.5
141
12.0
290
     0
  0
SCALE
  5
5A
102
{ACAD_REACTORS
330
3B
102
}
330
3B
100
AcDbScale
 70
     0
300
3" = 1'-0"
140
3.0
141
12.0
290
     0
  0
SCALE
  5
5B
102
{ACAD_REACTORS
330
3B
102
}
330
3B
100
AcDbScale
 70
     0
300
6" = 1'-0"
140
6.0
141
12.0
290
     0
  0
SCALE
  5
5C
102
{ACAD_REACTORS
330
3B
102
}
330
3B
100
AcDbScale
 70
     0
300
1'-0" = 1'-0"
140
12.0
141
12.0
290
     0
  0
VISUALSTYLE
  5
2F
102
{ACAD_REACTORS
330
2A
102
}
330
2A
100
AcDbVisualStyle
  2
2dWireframe
 70
     4
 71
     0
 72
     2
 73
     0
 90
        0
 40
-0.6
 41
-30.0
 62
     5
 63
     7
 74
     1
 91
        4
 64
     7
 65
   257
 75
     1
175
     1
 42
1.0
 92
        0
 66
   257
 43
1.0
 76
     1
 77
     6
 78
     2
 67
     7
 79
     5
170
     0
171
     0
290
     0
174
     0
 93
        1
 44
0.0
173
     0
291
     0
 45
0.0
1001
ACAD
1000
AcDbSavedByObjectVersion
1070
     0
  0
VISUALSTYLE
  5
31
102
{ACAD_REACTORS
330
2A
102
}
330
2A
100
AcDbVisualStyle
  2
3D Hidden
 70
     6
 71
     1
 72
     2
 73
     2
 90
        0
 40
-0.6
 41
-30.0
 62
     5
 63
     7
 74
     2
 91
        2
 64
     7
 65
   257
 75
     2
175
     1
 42
40.0
 92
        0
 66
   257
 43
1.0
 76
     1
 77
     6
 78
     2
 67
     7
 79
     3
170
     0
171
     0
290
     0
174
     0
 93
        1
 44
0.0
173
     0
291
     0
 45
0.0
1001
ACAD
1000
AcDbSavedByObjectVersion
1070
     0
  0
VISUALSTYLE
  5
30
102
{ACAD_REACTORS
330
2A
102
}
330
2A
100
AcDbVisualStyle
  2
3dWireframe
 70
     5
 71
     0
 72
     2
 73
     0
 90
        0
 40
-0.6
 41
-30.0
 62
     5
 63
     7
 74
     1
 91
        4
 64
     7
 65
   257
 75
     1
175
     1
 42
1.0
 92
        0
 66
   257
 43
1.0
 76
     1
 77
     6
 78
     2
 67
     7
 79
     5
170
     0
171
     0
290
     0
174
     0
 93
        1
 44
0.0
173
     0
291
     0
 45
0.0
1001
ACAD
1000
AcDbSavedByObjectVersion
1070
     0
  0
VISUALSTYLE
  5
32
102
{ACAD_REACTORS
330
2A
102
}
330
2A
100
AcDbVisualStyle
  2
Basic
 70
     7
 71
     1
 72
     0
 73
     1
 90
        0
 40
-0.6
 41
-30.0
 62
     5
 63
     7
 74
     0
 91
        4
 64
     7
 65
   257
 75
     1
175
     1
 42
1.0
 92
        8
 66
     7
 43
1.0
 76
     1
 77
     6
 78
     2
 67
     7
 79
     5
170
     0
171
     0
290
     0
174
     0
 93
        1
 44
0.0
173
     0
291
     1
 45
0.0
1001
ACAD
1000
AcDbSavedByObjectVersion
1070
     0
  0
VISUALSTYLE
  5
36
102
{ACAD_REACTORS
330
2A
102
}
330
2A
100
AcDbVisualStyle
  2
Brighten
 70
    12
 71
     2
 72
     2
 73
     0
 90
        0
 40
-0.6
 41
-30.0
 62
     5
 63
     7
 74
     1
 91
        4
 64
     7
 65
   257
 75
     1
175
     1
 42
1.0
 92
        8
 66
     7
 43
1.0
 76
     1
 77
     6
 78
     2
 67
     7
 79
     5
170
     0
171
     0
290
     0
174
     0
 93
        1
 44
50.0
173
     0
291
     1
 45
0.0
1001
ACAD
1000
AcDbSavedByObjectVersion
1070
     0
  0
VISUALSTYLE
  5
3A
102
{ACAD_REACTORS
330
2A
102
}
330
2A
100
AcDbVisualStyle
  2
ColorChange
 70
    16
 71
     2
 72
     2
 73
     3
 90
        0
 40
-0.6
 41
-30.0
 62
     5
 63
     8
 74
     1
 91
        4
 64
     7
 65
   257
 75
     1
175
     1
 42
1.0
 92
        8
 66
     8
 43
1.0
 76
     1
 77
     6
 78
     2
 67
     7
 79
     5
170
     0
171
     0
290
     0
174
     0
 93
        1
 44
0.0
173
     0
291
     1
 45
0.0
1001
ACAD
1000
AcDbSavedByObjectVersion
1070
     0
  0
VISUALSTYLE
  5
34
102
{ACAD_REACTORS
330
2A
102
}
330
2A
100
AcDbVisualStyle
  2
Conceptual
 70
     9
 71
     3
 72
     2
 73
     0
 90
        0
 40
-0.6
 41
-30.0
 62
     5
 63
     7
 74
     2
 91
        2
 64
     7
 65
   257
 75
     1
175
     1
 42
40.0
 92
        8
 66
     7
 43
1.0
 76
     1
 77
     6
 78
     2
 67
     7
 79
     3
170
     0
171
     0
290
     0
174
     0
 93
        1
 44
0.0
173
     0
291
     0
 45
0.0
1001
ACAD
1000
AcDbSavedByObjectVersion
1070
     0
  0
VISUALSTYLE
  5
35
102
{ACAD_REACTORS
330
2A
102
}
330
2A
100
AcDbVisualStyle
  2
Dim
 70
    11
 71
     2
 72
     2
 73
     0
 90
        0
 40
-0.6
 41
-30.0
 62
     5
 63
     7
 74
     1
 91
        4
 64
     7
 65
   257
 75
     1
175
     1
 42
1.0
 92
        8
 66
     7
 43
1.0
 76
     1
 77
     6
 78
     2
 67
     7
 79
     5
170
     0
171
     0
290
     0
174
     0
 93
        1
 44
-50.0
173
     0
291
     1
 45
0.0
1001
ACAD
1000
AcDbSavedByObjectVersion
1070
     0
  0
VISUALSTYLE
  5
39
102
{ACAD_REACTORS
330
2A
102
}
330
2A
100
AcDbVisualStyle
  2
Facepattern
 70
    15
 71
     2
 72
     2
 73
     0
 90
        0
 40
-0.6
 41
-30.0
 62
     5
 63
     7
 74
     1
 91
        4
 64
     7
 65
   257
 75
     1
175
     1
 42
1.0
 92
        8
 66
     7
 43
1.0
 76
     1
 77
     6
 78
     2
 67
     7
 79
     5
170
     0
171
     0
290
     0
174
     0
 93
        1
 44
0.0
173
     0
291
     1
 45
0.0
1001
ACAD
1000
AcDbSavedByObjectVersion
1070
     0
  0
VISUALSTYLE
  5
2B
102
{ACAD_REACTORS
330
2A
102
}
330
2A
100
AcDbVisualStyle
  2
Flat
 70
     0
 71
     2
 72
     1
 73
     1
 90
        2
 40
-0.6
 41
30.0
 62
     5
 63
     7
 74
     0
 91
        4
 64
     7
 65
   257
 75
     1
175
     1
 42
1.0
 92
        8
 66
     7
 43
1.0
 76
     1
 77
     6
 78
     2
 67
     7
 79
     5
170
     0
171
     0
290
     0
174
     0
 93
       13
 44
0.0
173
     0
291
     1
 45
0.0
1001
ACAD
1000
AcDbSavedByObjectVersion
1070
     0
  0
VISUALSTYLE
  5
2C
102
{ACAD_REACTORS
330
2A
102
}
330
2A
100
AcDbVisualStyle
  2
FlatWithEdges
 70
     1
 71
     2
 72
     1
 73
     1
 90
        2
 40
-0.6
 41
30.0
 62
     5
 63
     7
 74
     1
 91
        4
 64
     7
 65
   257
 75
     1
175
     1
 42
1.0
 92
        0
 66
   257
 43
1.0
 76
     1
 77
     6
 78
     2
 67
     7
 79
     5
170
     0
171
     0
290
     0
174
     0
 93
       13
 44
0.0
173
     0
291
     1
 45
0.0
1001
ACAD
1000
AcDbSavedByObjectVersion
1070
     0
  0
VISUALSTYLE
  5
2D
102
{ACAD_REACTORS
330
2A
102
}
330
2A
100
AcDbVisualStyle
  2
Gouraud
 70
     2
 71
     2
 72
     2
 73
     1
 90
        2
 40
-0.6
 41
30.0
 62
     5
 63
     7
 74
     0
 91
        4
 64
     7
 65
   257
 75
     1
175
     1
 42
1.0
 92
        0
 66
     7
 43
1.0
 76
     1
 77
     6
 78
     2
 67
     7
 79
     5
170
     0
171
     0
290
     0
174
     0
 93
       13
 44
0.0
173
     0
291
     1
 45
0.0
1001
ACAD
1000
AcDbSavedByObjectVersion
1070
     0
  0
VISUALSTYLE
  5
2E
102
{ACAD_REACTORS
330
2A
102
}
330
2A
100
AcDbVisualStyle
  2
GouraudWithEdges
 70
     3
 71
     2
 72
     2
 73
     1
 90
        2
 40
-0.6
 41
30.0
 62
     5
 63
     7
 74
     1
 91
        4
 64
     7
 65
   257
 75
     1
175
     1
 42
1.0
 92
        0
 66
   257
 43
1.0
 76
     1
 77
     6
 78
     2
 67
     7
 79
     5
170
     0
171
     0
290
     0
174
     0
 93
       13
 44
0.0
173
     0
291
     1
 45
0.0
1001
ACAD
1000
AcDbSavedByObjectVersion
1070
     0
  0
VISUALSTYLE
  5
38
102
{ACAD_REACTORS
330
2A
102
}
330
2A
100
AcDbVisualStyle
  2
Linepattern
 70
    14
 71
     2
 72
     2
 73
     0
 90
        0
 40
-0.6
 41
-30.0
 62
     5
 63
     7
 74
     1
 91
        4
 64
     7
 65
   257
 75
     7
175
     7
 42
1.0
 92
        8
 66
     7
 43
1.0
 76
     1
 77
     6
 78
     2
 67
     7
 79
     5
170
     0
171
     0
290
     0
174
     0
 93
        1
 44
0.0
173
     0
291
     1
 45
0.0
1001
ACAD
1000
AcDbSavedByObjectVersion
1070
     0
  0
VISUALSTYLE
  5
33
102
{ACAD_REACTORS
330
2A
102
}
330
2A
100
AcDbVisualStyle
  2
Realistic
 70
     8
 71
     2
 72
     2
 73
     0
 90
        0
 40
-0.6
 41
-30.0
 62
     5
 63
     7
 74
     1
 91
        0
 64
     7
 65
   257
 75
     1
175
     1
 42
1.0
 92
        8
 66
     8
 43
1.0
 76
     1
 77
     6
 78
     2
 67
     7
 79
     5
170
     0
171
     0
290
     0
174
     0
 93
       13
 44
0.0
173
     0
291
     0
 45
0.0
1001
ACAD
1000
AcDbSavedByObjectVersion
1070
     0
  0
VISUALSTYLE
  5
37
102
{ACAD_REACTORS
330
2A
102
}
330
2A
100
AcDbVisualStyle
  2
Thicken
 70
    13
 71
     2
 72
     2
 73
     0
 90
        0
 40
-0.6
 41
-30.0
 62
     5
 63
     7
 74
     1
 91
        4
 64
     7
 65
   257
 75
     1
175
     1
 42
1.0
 92
       12
 66
     7
 43
1.0
 76
     1
 77
     6
 78
     2
 67
     7
 79
     5
170
     0
171
     0
290
     0
174
     0
 93
        1
 44
0.0
173
     0
291
     1
 45
0.0
1001
ACAD
1000
AcDbSavedByObjectVersion
1070
     0
  0
DICTIONARYVAR
  5
101
102
{ACAD_REACTORS
330
100
102
}
330
100
100
DictionaryVariables
280
     0
  1
1:1
  0
DICTIONARYVAR
  5
105
102
{ACAD_REACTORS
330
100
102
}
330
100
100
DictionaryVariables
280
     0
  1
80.000000
  0
DICTIONARYVAR
  5
104
102
{ACAD_REACTORS
330
100
102
}
330
100
100
DictionaryVariables
280
     0
  1
5.000000
  0
ENDSEC
  0
EOF
