  0
SECTION
  2
HEADER
  9
$ACADVER
  1
AC1015
  9
$ACADMAINTVER
 70
     6
  9
$DWGCODEPAGE
  3
ANSI_1252
  9
$INSBASE
 10
0.0
 20
0.0
 30
0.0
  9
$EXTMIN
 10
0.0
 20
0.0
 30
0.0
  9
$EXTMAX
 10
1682.0
 20
2378.0
 30
0.0
  9
$LIMMIN
 10
0.0
 20
0.0
  9
$LIMMAX
 10
1682.0
 20
2378.0
  9
$ORTHOMODE
 70
     0
  9
$REGENMODE
 70
     1
  9
$FILLMODE
 70
     1
  9
$QTEXTMODE
 70
     0
  9
$MIRRTEXT
 70
     1
  9
$LTSCALE
 40
1.0
  9
$ATTMODE
 70
     1
  9
$TEXTSIZE
 40
2.5
  9
$TRACEWID
 40
1.0
  9
$TEXTSTYLE
  7
Standard
  9
$CLAYER
  8
0
  9
$CELTYPE
  6
ByLayer
  9
$CECOLOR
 62
   256
  9
$CELTSCALE
 40
1.0
  9
$DISPSILH
 70
     0
  9
$DIMSCALE
 40
1.0
  9
$DIMASZ
 40
2.5
  9
$DIMEXO
 40
0.625
  9
$DIMDLI
 40
3.75
  9
$DIMRND
 40
0.0
  9
$DIMDLE
 40
0.0
  9
$DIMEXE
 40
1.25
  9
$DIMTP
 40
0.0
  9
$DIMTM
 40
0.0
  9
$DIMTXT
 40
2.5
  9
$DIMCEN
 40
2.5
  9
$DIMTSZ
 40
0.0
  9
$DIMTOL
 70
     0
  9
$DIMLIM
 70
     0
  9
$DIMTIH
 70
     0
  9
$DIMTOH
 70
     0
  9
$DIMSE1
 70
     0
  9
$DIMSE2
 70
     0
  9
$DIMTAD
 70
     1
  9
$DIMZIN
 70
     8
  9
$DIMBLK
  1

  9
$DIMASO
 70
     1
  9
$DIMSHO
 70
     1
  9
$DIMPOST
  1

  9
$DIMAPOST
  1

  9
$DIMALT
 70
     0
  9
$DIMALTD
 70
     3
  9
$DIMALTF
 40
0.0393700787
  9
$DIMLFAC
 40
1.0
  9
$DIMTOFL
 70
     1
  9
$DIMTVP
 40
0.0
  9
$DIMTIX
 70
     0
  9
$DIMSOXD
 70
     0
  9
$DIMSAH
 70
     0
  9
$DIMBLK1
  1

  9
$DIMBLK2
  1

  9
$DIMSTYLE
  2
ISO-25
  9
$DIMCLRD
 70
     0
  9
$DIMCLRE
 70
     0
  9
$DIMCLRT
 70
     0
  9
$DIMTFAC
 40
1.0
  9
$DIMGAP
 40
0.625
  9
$DIMJUST
 70
     0
  9
$DIMSD1
 70
     0
  9
$DIMSD2
 70
     0
  9
$DIMTOLJ
 70
     0
  9
$DIMTZIN
 70
     8
  9
$DIMALTZ
 70
     0
  9
$DIMALTTZ
 70
     0
  9
$DIMUPT
 70
     0
  9
$DIMDEC
 70
     2
  9
$DIMTDEC
 70
     2
  9
$DIMALTU
 70
     2
  9
$DIMALTTD
 70
     3
  9
$DIMTXSTY
  7
Standard
  9
$DIMAUNIT
 70
     0
  9
$DIMADEC
 70
     0
  9
$DIMALTRND
 40
0.0
  9
$DIMAZIN
 70
     0
  9
$DIMDSEP
 70
    44
  9
$DIMATFIT
 70
     3
  9
$DIMFRAC
 70
     0
  9
$DIMLDRBLK
  1

  9
$DIMLUNIT
 70
     2
  9
$DIMLWD
 70
    -2
  9
$DIMLWE
 70
    -2
  9
$DIMTMOVE
 70
     0
  9
$LUNITS
 70
     2
  9
$LUPREC
 70
     4
  9
$SKETCHINC
 40
1.0
  9
$FILLETRAD
 40
10.0
  9
$AUNITS
 70
     0
  9
$AUPREC
 70
     0
  9
$MENU
  1
.
  9
$ELEVATION
 40
0.0
  9
$PELEVATION
 40
0.0
  9
$THICKNESS
 40
0.0
  9
$LIMCHECK
 70
     0
  9
$CHAMFERA
 40
10.0
  9
$CHAMFERB
 40
10.0
  9
$CHAMFERC
 40
20.0
  9
$CHAMFERD
 40
0.0
  9
$SKPOLY
 70
     0
  9
$TDCREATE
 40
2455695.488110914
  9
$TDUCREATE
 40
2455695.404777581
  9
$TDUPDATE
 40
2455695.488110926
  9
$TDUUPDATE
 40
2455695.404777593
  9
$TDINDWG
 40
0.0000000116
  9
$TDUSRTIMER
 40
0.0000000116
  9
$USRTIMER
 70
     1
  9
$ANGBASE
 50
0.0
  9
$ANGDIR
 70
     0
  9
$PDMODE
 70
     0
  9
$PDSIZE
 40
0.0
  9
$PLINEWID
 40
0.0
  9
$SPLFRAME
 70
     0
  9
$SPLINETYPE
 70
     6
  9
$SPLINESEGS
 70
     8
  9
$HANDSEED
  5
149
  9
$SURFTAB1
 70
     6
  9
$SURFTAB2
 70
     6
  9
$SURFTYPE
 70
     6
  9
$SURFU
 70
     6
  9
$SURFV
 70
     6
  9
$UCSBASE
  2

  9
$UCSNAME
  2

  9
$UCSORG
 10
0.0
 20
0.0
 30
0.0
  9
$UCSXDIR
 10
1.0
 20
0.0
 30
0.0
  9
$UCSYDIR
 10
0.0
 20
1.0
 30
0.0
  9
$UCSORTHOREF
  2

  9
$UCSORTHOVIEW
 70
     0
  9
$UCSORGTOP
 10
0.0
 20
0.0
 30
0.0
  9
$UCSORGBOTTOM
 10
0.0
 20
0.0
 30
0.0
  9
$UCSORGLEFT
 10
0.0
 20
0.0
 30
0.0
  9
$UCSORGRIGHT
 10
0.0
 20
0.0
 30
0.0
  9
$UCSORGFRONT
 10
0.0
 20
0.0
 30
0.0
  9
$UCSORGBACK
 10
0.0
 20
0.0
 30
0.0
  9
$PUCSBASE
  2

  9
$PUCSNAME
  2

  9
$PUCSORG
 10
0.0
 20
0.0
 30
0.0
  9
$PUCSXDIR
 10
1.0
 20
0.0
 30
0.0
  9
$PUCSYDIR
 10
0.0
 20
1.0
 30
0.0
  9
$PUCSORTHOREF
  2

  9
$PUCSORTHOVIEW
 70
     0
  9
$PUCSORGTOP
 10
0.0
 20
0.0
 30
0.0
  9
$PUCSORGBOTTOM
 10
0.0
 20
0.0
 30
0.0
  9
$PUCSORGLEFT
 10
0.0
 20
0.0
 30
0.0
  9
$PUCSORGRIGHT
 10
0.0
 20
0.0
 30
0.0
  9
$PUCSORGFRONT
 10
0.0
 20
0.0
 30
0.0
  9
$PUCSORGBACK
 10
0.0
 20
0.0
 30
0.0
  9
$USERI1
 70
     0
  9
$USERI2
 70
     0
  9
$USERI3
 70
     0
  9
$USERI4
 70
     0
  9
$USERI5
 70
     0
  9
$USERR1
 40
0.0
  9
$USERR2
 40
0.0
  9
$USERR3
 40
0.0
  9
$USERR4
 40
0.0
  9
$USERR5
 40
0.0
  9
$WORLDVIEW
 70
     1
  9
$SHADEDGE
 70
     3
  9
$SHADEDIF
 70
    70
  9
$TILEMODE
 70
     1
  9
$MAXACTVP
 70
    64
  9
$PINSBASE
 10
0.0
 20
0.0
 30
0.0
  9
$PLIMCHECK
 70
     0
  9
$PEXTMIN
 10
0.0
 20
0.0
 30
0.0
  9
$PEXTMAX
 10
1682.0
 20
2378.0
 30
0.0
  9
$PLIMMIN
 10
0.0
 20
0.0
  9
$PLIMMAX
 10
1682.0
 20
2378.0
  9
$UNITMODE
 70
     0
  9
$VISRETAIN
 70
     1
  9
$PLINEGEN
 70
     0
  9
$PSLTSCALE
 70
     1
  9
$TREEDEPTH
 70
  3020
  9
$CMLSTYLE
  2
Standard
  9
$CMLJUST
 70
     0
  9
$CMLSCALE
 40
20.0
  9
$PROXYGRAPHICS
 70
     1
  9
$MEASUREMENT
 70
     1
  9
$CELWEIGHT
370
    -1
  9
$ENDCAPS
280
     0
  9
$JOINSTYLE
280
     0
  9
$LWDISPLAY
290
     0
  9
$INSUNITS
 70
     4
  9
$HYPERLINKBASE
  1

  9
$STYLESHEET
  1

  9
$XEDIT
290
     1
  9
$CEPSNTYPE
380
     0
  9
$PSTYLEMODE
290
     1
  9
$FINGERPRINTGUID
  2
{AA61A502-7AD1-4300-9926-4E448621C639}
  9
$VERSIONGUID
  2
{FAEB1C32-E019-11D5-929B-00C0DF256EC4}
  9
$EXTNAMES
290
     1
  9
$PSVPSCALE
 40
0.0
  9
$OLESTARTUP
290
     0
  0
ENDSEC
  0
SECTION
  2
CLASSES
  0
CLASS
  1
ACDBDICTIONARYWDFLT
  2
AcDbDictionaryWithDefault
  3
ObjectDBX Classes
 90
        0
280
     0
281
     0
  0
CLASS
  1
VISUALSTYLE
  2
AcDbVisualStyle
  3
ObjectDBX Classes
 90
     4095
280
     0
281
     0
  0
CLASS
  1
SCALE
  2
AcDbScale
  3
ObjectDBX Classes
 90
     1153
280
     0
281
     0
  0
CLASS
  1
DICTIONARYVAR
  2
AcDbDictionaryVar
  3
ObjectDBX Classes
 90
        0
280
     0
281
     0
  0
CLASS
  1
ACDBPLACEHOLDER
  2
AcDbPlaceHolder
  3
ObjectDBX Classes
 90
        0
280
     0
281
     0
  0
CLASS
  1
LAYOUT
  2
AcDbLayout
  3
ObjectDBX Classes
 90
        0
280
     0
281
     0
  0
ENDSEC
  0
SECTION
  2
TABLES
  0
TABLE
  2
VPORT
  5
8
330
0
100
AcDbSymbolTable
 70
     1
  0
VPORT
  5
29
330
8
100
AcDbSymbolTableRecord
100
AcDbViewportTableRecord
  2
*Active
 70
     0
 10
0.0
 20
0.0
 11
1.0
 21
1.0
 12
344.1869158879
 22
148.5
 13
0.0
 23
0.0
 14
10.0
 24
10.0
 15
10.0
 25
10.0
 16
0.0
 26
0.0
 36
1.0
 17
0.0
 27
0.0
 37
0.0
 40
297.0
 41
1.9729729729
 42
50.0
 43
0.0
 44
0.0
 50
0.0
 51
0.0
 71
     0
 72
   100
 73
     1
 74
     3
 75
     0
 76
     0
 77
     0
 78
     0
281
     0
 65
     1
110
0.0
120
0.0
130
0.0
111
1.0
121
0.0
131
0.0
112
0.0
122
1.0
132
0.0
 79
     0
146
0.0
  0
ENDTAB
  0
TABLE
  2
LTYPE
  5
5
330
0
100
AcDbSymbolTable
 70
     2
  0
LTYPE
  5
14
330
5
100
AcDbSymbolTableRecord
100
AcDbLinetypeTableRecord
  2
ByBlock
 70
     0
  3

 72
    65
 73
     0
 40
0.0
  0
LTYPE
  5
15
330
5
100
AcDbSymbolTableRecord
100
AcDbLinetypeTableRecord
  2
ByLayer
 70
     0
  3

 72
    65
 73
     0
 40
0.0
  0
LTYPE
  5
16
330
5
100
AcDbSymbolTableRecord
100
AcDbLinetypeTableRecord
  2
Continuous
 70
     0
  3
Solid line
 72
    65
 73
     0
 40
0.0
  0
LTYPE
  5
60
330
5
100
AcDbSymbolTableRecord
100
AcDbLinetypeTableRecord
  2
CENTER2
 70
     0
  3
Center (.5x) ___ _ ___ _ ___ _ ___ _ ___ _ ___
 72
    65
 73
     4
 40
28.575
 49
19.05
 74
     4
 75
     0
340
0
 46
0.0
 50
0.0
 44
0.0
 45
0.0
 49
-3.175
 74
     4
 75
     0
340
0
 46
0.0
 50
0.0
 44
0.0
 45
0.0
 49
3.175
 74
     4
 75
     0
340
0
 46
0.0
 50
0.0
 44
0.0
 45
0.0
 49
-3.175
 74
     4
 75
     0
340
0
 46
0.0
 50
0.0
 44
0.0
 45
0.0
  0
ENDTAB
  0
TABLE
  2
LAYER
  5
2
330
0
100
AcDbSymbolTable
 70
     9
  0
LAYER
  5
10
330
2
100
AcDbSymbolTableRecord
100
AcDbLayerTableRecord
  2
0
 70
     0
 62
     7
  6
Continuous
370
    -3
390
F
  0
LAYER
  5
5D
330
2
100
AcDbSymbolTableRecord
100
AcDbLayerTableRecord
  2
Default
 70
     0
 62
     7
  6
Continuous
370
    -3
390
F
  0
LAYER
  5
77
330
2
100
AcDbSymbolTableRecord
100
AcDbLayerTableRecord
  2
$DDT_AUDIT_GENERATED_(77)
 70
     0
 62
     7
  6
Continuous
370
    -3
390
F
  0
LAYER
  5
7A
330
2
100
AcDbSymbolTableRecord
100
AcDbLayerTableRecord
  2
$DDT_AUDIT_GENERATED_(7A)
 70
     0
 62
     7
  6
Continuous
370
    -3
390
F
  0
LAYER
  5
80
330
2
100
AcDbSymbolTableRecord
100
AcDbLayerTableRecord
  2
$DDT_AUDIT_GENERATED_(80)
 70
     0
 62
     7
  6
Continuous
370
    -3
390
F
  0
LAYER
  5
84
330
2
100
AcDbSymbolTableRecord
100
AcDbLayerTableRecord
  2
$DDT_AUDIT_GENERATED_(84)
 70
     0
 62
     7
  6
Continuous
370
    -3
390
F
  0
LAYER
  5
8E
330
2
100
AcDbSymbolTableRecord
100
AcDbLayerTableRecord
  2
$DDT_AUDIT_GENERATED_(8E)
 70
     0
 62
     7
  6
Continuous
370
    -3
390
F
  0
LAYER
  5
DB
330
2
100
AcDbSymbolTableRecord
100
AcDbLayerTableRecord
  2
$DDT_AUDIT_GENERATED_(DB)
 70
     0
 62
     7
  6
Continuous
370
    -3
390
F
  0
LAYER
  5
DD
330
2
100
AcDbSymbolTableRecord
100
AcDbLayerTableRecord
  2
$DDT_AUDIT_GENERATED_(DD)
 70
     0
 62
     7
  6
Continuous
370
    -3
390
F
  0
ENDTAB
  0
TABLE
  2
STYLE
  5
3
330
0
100
AcDbSymbolTable
 70
     2
  0
STYLE
  5
11
330
3
100
AcDbSymbolTableRecord
100
AcDbTextStyleTableRecord
  2
Standard
 70
     0
 40
0.0
 41
1.0
 50
0.0
 71
     0
 42
2.5
  3
txt
  4

  0
STYLE
  5
138
330
3
100
AcDbSymbolTableRecord
100
AcDbTextStyleTableRecord
  2
SEACAD_seiso_ttf
 70
     0
 40
0.0
 41
1.0
 50
0.0
 71
     0
 42
0.2
  3
seiso.ttf
  4

  0
ENDTAB
  0
TABLE
  2
VIEW
  5
6
330
0
100
AcDbSymbolTable
 70
     0
  0
ENDTAB
  0
TABLE
  2
UCS
  5
7
330
0
100
AcDbSymbolTable
 70
     0
  0
ENDTAB
  0
TABLE
  2
APPID
  5
9
330
0
100
AcDbSymbolTable
 70
     1
  0
APPID
  5
12
330
9
100
AcDbSymbolTableRecord
100
AcDbRegAppTableRecord
  2
ACAD
 70
     0
  0
ENDTAB
  0
TABLE
  2
DIMSTYLE
  5
A
330
0
100
AcDbSymbolTable
 70
     1
100
AcDbDimStyleTable
  0
DIMSTYLE
105
27
330
A
100
AcDbSymbolTableRecord
100
AcDbDimStyleTableRecord
  2
ISO-25
 70
     0
 41
2.5
 42
0.625
 43
3.75
 44
1.25
 73
     0
 74
     0
 77
     1
 78
     8
140
2.5
141
2.5
143
0.0393700787
147
0.625
171
     3
172
     1
271
     2
272
     2
274
     3
278
    44
283
     0
284
     8
340
11
  0
ENDTAB
  0
TABLE
  2
BLOCK_RECORD
  5
1
330
0
100
AcDbSymbolTable
 70
     7
  0
BLOCK_RECORD
  5
1F
330
1
100
AcDbSymbolTableRecord
100
AcDbBlockTableRecord
  2
*Model_Space
340
22
  0
BLOCK_RECORD
  5
1B
330
1
100
AcDbSymbolTableRecord
100
AcDbBlockTableRecord
  2
*Paper_Space
340
1E
  0
BLOCK_RECORD
  5
5E
330
1
100
AcDbSymbolTableRecord
100
AcDbBlockTableRecord
  2
SEANNOT_GROUP
340
0
102
{BLKREFS
331
5F
102
}
  0
BLOCK_RECORD
  5
65
330
1
100
AcDbSymbolTableRecord
100
AcDbBlockTableRecord
  2
SEANNOT_GROUP1
340
0
102
{BLKREFS
331
66
102
}
  0
BLOCK_RECORD
  5
6B
330
1
100
AcDbSymbolTableRecord
100
AcDbBlockTableRecord
  2
SEANNOT_GROUP2
340
0
102
{BLKREFS
331
6C
102
}
  0
BLOCK_RECORD
  5
75
330
1
100
AcDbSymbolTableRecord
100
AcDbBlockTableRecord
  2
SE
340
0
102
{BLKREFS
331
76
102
}
  0
BLOCK_RECORD
  5
B0
330
1
100
AcDbSymbolTableRecord
100
AcDbBlockTableRecord
  2
SE1
340
0
102
{BLKREFS
331
B1
102
}
  0
BLOCK_RECORD
  5
10B
330
1
100
AcDbSymbolTableRecord
100
AcDbBlockTableRecord
  2
SE2
340
0
102
{BLKREFS
331
10C
102
}
  0
ENDTAB
  0
ENDSEC
  0
SECTION
  2
BLOCKS
  0
BLOCK
  5
20
330
1F
100
AcDbEntity
  8
0
100
AcDbBlockBegin
  2
*Model_Space
 70
     0
 10
0.0
 20
0.0
 30
0.0
  3
*Model_Space
  1

  0
ENDBLK
  5
21
330
1F
100
AcDbEntity
  8
0
100
AcDbBlockEnd
  0
BLOCK
  5
1C
330
1B
100
AcDbEntity
 67
     1
  8
0
100
AcDbBlockBegin
  2
*Paper_Space
 70
     0
 10
0.0
 20
0.0
 30
0.0
  3
*Paper_Space
  1

  0
ENDBLK
  5
1D
330
1B
100
AcDbEntity
 67
     1
  8
0
100
AcDbBlockEnd
  0
BLOCK
  5
63
330
5E
100
AcDbEntity
  8
0
100
AcDbBlockBegin
  2
SEANNOT_GROUP
 70
     0
 10
0.0
 20
0.0
 30
0.0
  3
SEANNOT_GROUP
  1

  0
LINE
  5
61
330
5E
100
AcDbEntity
  8
Default
  6
CENTER2
 62
     7
100
AcDbLine
 10
76.1746592431
 20
423.2141901277
 30
0.0
 11
36.1746601372
 21
423.2141901277
 31
0.0
  0
LINE
  5
62
330
5E
100
AcDbEntity
  8
Default
  6
CENTER2
 62
     7
100
AcDbLine
 10
56.1746596901
 20
443.2141896807
 30
0.0
 11
56.1746596901
 21
403.2141905748
 31
0.0
  0
ENDBLK
  5
64
330
5E
100
AcDbEntity
  8
0
100
AcDbBlockEnd
  0
BLOCK
  5
69
330
65
100
AcDbEntity
  8
0
100
AcDbBlockBegin
  2
SEANNOT_GROUP1
 70
     0
 10
0.0
 20
0.0
 30
0.0
  3
SEANNOT_GROUP1
  1

  0
LINE
  5
67
330
65
100
AcDbEntity
  8
Default
  6
CENTER2
 62
     7
100
AcDbLine
 10
202.9572970621
 20
423.2141901277
 30
0.0
 11
162.9572979561
 21
423.2141901277
 31
0.0
  0
LINE
  5
68
330
65
100
AcDbEntity
  8
Default
  6
CENTER2
 62
     7
100
AcDbLine
 10
182.9572975091
 20
443.2141896807
 30
0.0
 11
182.9572975091
 21
403.2141905748
 31
0.0
  0
ENDBLK
  5
6A
330
65
100
AcDbEntity
  8
0
100
AcDbBlockEnd
  0
BLOCK
  5
73
330
6B
100
AcDbEntity
  8
0
100
AcDbBlockBegin
  2
SEANNOT_GROUP2
 70
     0
 10
0.0
 20
0.0
 30
0.0
  3
SEANNOT_GROUP2
  1

  0
LINE
  5
6D
330
6B
100
AcDbEntity
  8
Default
  6
CENTER2
 62
     7
100
AcDbLine
 10
76.174693251
 20
331.9298888559
 30
0.0
 11
36.1746941451
 21
331.9298888559
 31
0.0
  0
LINE
  5
6E
330
6B
100
AcDbEntity
  8
Default
  6
CENTER2
 62
     7
100
AcDbLine
 10
56.174693698
 20
351.9298884089
 30
0.0
 11
56.174693698
 21
311.9298893029
 31
0.0
  0
LINE
  5
6F
330
6B
100
AcDbEntity
  8
Default
  6
CENTER2
 62
     7
100
AcDbLine
 10
81.1746931392
 20
331.9298888559
 30
0.0
 11
85.1887615639
 21
331.9298888559
 31
0.0
  0
LINE
  5
70
330
6B
100
AcDbEntity
  8
Default
  6
CENTER2
 62
     7
100
AcDbLine
 10
56.174693698
 20
356.9298882971
 30
0.0
 11
56.174693698
 21
360.9439567218
 31
0.0
  0
LINE
  5
71
330
6B
100
AcDbEntity
  8
Default
  6
CENTER2
 62
     7
100
AcDbLine
 10
31.1746942568
 20
331.9298888559
 30
0.0
 11
27.1606258321
 21
331.9298888559
 31
0.0
  0
LINE
  5
72
330
6B
100
AcDbEntity
  8
Default
  6
CENTER2
 62
     7
100
AcDbLine
 10
56.174693698
 20
306.9298894147
 30
0.0
 11
56.174693698
 21
302.91582099
 31
0.0
  0
ENDBLK
  5
74
330
6B
100
AcDbEntity
  8
0
100
AcDbBlockEnd
  0
BLOCK
  5
AE
330
75
100
AcDbEntity
  8
0
100
AcDbBlockBegin
  2
SE
 70
     0
 10
0.0
 20
0.0
 30
0.0
  3
SE
  1

  0
ARC
  5
78
330
75
100
AcDbEntity
  8
$DDT_AUDIT_GENERATED_(77)
  6
Continuous
 62
     7
100
AcDbCircle
 10
56.1746596901
 20
596.1225291759
 30
0.0
 40
24.50000000000002
100
AcDbArc
 50
158.9694138238
 51
164.8572685595
  0
ARC
  5
79
330
75
100
AcDbEntity
  8
$DDT_AUDIT_GENERATED_(77)
  6
Continuous
 62
     7
100
AcDbCircle
 10
56.1746596901
 20
596.1225291759
 30
0.0
 40
24.5
100
AcDbArc
 50
15.1427314405
 51
21.0250949505
  0
LINE
  5
7B
330
75
100
AcDbEntity
  8
$DDT_AUDIT_GENERATED_(7A)
  6
Continuous
 62
     7
100
AcDbLine
 10
45.5996596901
 20
550.9051695551
 30
0.0
 11
66.7496596901
 21
550.9051695551
 31
0.0
  0
LINE
  5
7C
330
75
100
AcDbEntity
  8
$DDT_AUDIT_GENERATED_(7A)
  6
Continuous
 62
     7
100
AcDbLine
 10
67.7496596901
 20
551.9051695551
 30
0.0
 11
67.7496596901
 21
566.4360991328
 31
0.0
  0
LINE
  5
7D
330
75
100
AcDbEntity
  8
$DDT_AUDIT_GENERATED_(7A)
  6
Continuous
 62
     7
100
AcDbLine
 10
44.5996596901
 20
566.4258645257
 30
0.0
 11
44.5996596901
 21
551.9051695551
 31
0.0
  0
ARC
  5
7E
330
75
100
AcDbEntity
  8
$DDT_AUDIT_GENERATED_(7A)
  6
Continuous
 62
     7
100
AcDbCircle
 10
66.7496596901
 20
551.9051695551
 30
0.0
 40
1.000000000000001
100
AcDbArc
 50
270.0
 51
0.0
  0
ARC
  5
7F
330
75
100
AcDbEntity
  8
$DDT_AUDIT_GENERATED_(7A)
  6
Continuous
 62
     7
100
AcDbCircle
 10
45.5996596901
 20
551.9051695551
 30
0.0
 40
1.000000000000001
100
AcDbArc
 50
180.0
 51
270.0
  0
LINE
  5
81
330
75
100
AcDbEntity
  8
$DDT_AUDIT_GENERATED_(80)
  6
Continuous
 62
     7
100
AcDbLine
 10
65.1746596901
 20
550.6551695551
 30
0.0
 11
47.1746596901
 21
550.6551695551
 31
0.0
  0
LINE
  5
82
330
75
100
AcDbEntity
  8
$DDT_AUDIT_GENERATED_(80)
  6
Continuous
 62
     7
100
AcDbLine
 10
47.1746596901
 20
550.9051695551
 30
0.0
 11
47.1746596901
 21
550.6551695551
 31
0.0
  0
LINE
  5
83
330
75
100
AcDbEntity
  8
$DDT_AUDIT_GENERATED_(80)
  6
Continuous
 62
     7
100
AcDbLine
 10
65.1746596901
 20
550.6551695551
 30
0.0
 11
65.1746596901
 21
550.9051695551
 31
0.0
  0
LINE
  5
85
330
75
100
AcDbEntity
  8
$DDT_AUDIT_GENERATED_(84)
  6
Continuous
 62
     7
100
AcDbLine
 10
30.6746596901
 20
423.2141901277
 30
0.0
 11
81.6746596901
 21
423.2141901277
 31
0.0
  0
ARC
  5
86
330
75
100
AcDbEntity
  8
$DDT_AUDIT_GENERATED_(84)
  6
Continuous
 62
     7
100
AcDbCircle
 10
56.1754763418
 20
575.1551703997
 30
0.0
 40
14.5
100
AcDbArc
 50
180.0
 51
0.0
  0
LINE
  5
87
330
75
100
AcDbEntity
  8
$DDT_AUDIT_GENERATED_(84)
  6
Continuous
 62
     7
100
AcDbLine
 10
56.1746596901
 20
602.5225291759
 30
0.0
 11
81.1746770419
 21
602.5225291759
 31
0.0
  0
LINE
  5
88
330
75
100
AcDbEntity
  8
$DDT_AUDIT_GENERATED_(84)
  6
Continuous
 62
     7
100
AcDbLine
 10
56.1746596901
 20
602.5225291759
 30
0.0
 11
31.1746199512
 21
602.5225291759
 31
0.0
  0
ARC
  5
89
330
75
100
AcDbEntity
  8
$DDT_AUDIT_GENERATED_(84)
  6
Continuous
 62
     7
100
AcDbCircle
 10
56.1754764695
 20
575.155170437
 30
0.0
 40
14.49999987227282
100
AcDbArc
 50
0.0
 51
179.9895090572
  0
LINE
  5
8A
330
75
100
AcDbEntity
  8
$DDT_AUDIT_GENERATED_(84)
  6
Continuous
 62
     7
100
AcDbLine
 10
81.6746596901
 20
423.2141901277
 30
0.0
 11
81.6746596901
 21
602.0255291759
 31
0.0
  0
LINE
  5
8B
330
75
100
AcDbEntity
  8
$DDT_AUDIT_GENERATED_(84)
  6
Continuous
 62
     7
100
AcDbLine
 10
30.6746596901
 20
602.0255291759
 30
0.0
 11
30.6746596901
 21
423.2141901277
 31
0.0
  0
ARC
  5
8C
330
75
100
AcDbEntity
  8
$DDT_AUDIT_GENERATED_(84)
  6
Continuous
 62
     7
100
AcDbCircle
 10
81.121217674
 20
601.9690249913
 30
0.0
 40
0.5560840183640379
100
AcDbArc
 50
5.5213126011
 51
84.478827353
  0
ARC
  5
8D
330
75
100
AcDbEntity
  8
$DDT_AUDIT_GENERATED_(84)
  6
Continuous
 62
     7
100
AcDbCircle
 10
31.2281046341
 20
601.9690250259
 30
0.0
 40
0.5560839865859075
100
AcDbArc
 50
95.5211758862
 51
174.4786906697
  0
SPLINE
  5
8F
330
75
100
AcDbEntity
  8
$DDT_AUDIT_GENERATED_(8E)
  6
Continuous
 62
     7
100
AcDbSpline
210
0.0
220
0.0
230
1.0
 70
    12
 71
     3
 72
    14
 73
    10
 74
     0
 42
0.0000000001940878
 43
0.0000000001
 40
0.5496833387238227
 40
0.5496833387238227
 40
0.5496833387238227
 40
0.5496833387238227
 40
0.568279512084193
 40
0.6304971246796561
 40
0.6924517502552374
 40
0.7548244229034031
 40
0.8170553557523424
 40
0.8787246986372169
 40
0.9296652721819487
 40
0.9296652721819487
 40
0.9296652721819487
 40
0.9296652721819487
 10
80.71264857133646
 20
637.7562157147001
 30
0.0
 41
1.0
 10
80.63891786153432
 20
637.8346355843361
 30
0.0
 41
1.0
 10
80.25863883833115
 20
638.1740543785914
 30
0.0
 41
1.0
 10
79.12991287604046
 20
638.7588136607225
 30
0.0
 41
1.0
 10
76.78731184573707
 20
639.464499694981
 30
0.0
 41
1.0
 10
73.65620169970082
 20
640.0846114723515
 30
0.0
 41
1.0
 10
69.85322237765187
 20
640.5932337994909
 30
0.0
 41
1.0
 10
65.78408200819572
 20
640.9476034033195
 30
0.0
 41
1.0
 10
62.96098602880738
 20
641.0950094776584
 30
0.0
 41
1.0
 10
61.65947521051733
 20
641.1442116710151
 30
0.0
 41
1.0
  0
SPLINE
  5
90
330
75
100
AcDbEntity
  8
$DDT_AUDIT_GENERATED_(8E)
  6
Continuous
 62
     7
100
AcDbSpline
210
0.0
220
0.0
230
1.0
 70
     8
 71
     3
 72
     8
 73
     4
 74
     0
 42
0.0000000005491875
 43
0.0000000001
 40
0.5535652596533832
 40
0.5535652596533832
 40
0.5535652596533832
 40
0.5535652596533832
 40
0.5543338349101947
 40
0.5543338349101947
 40
0.5543338349101947
 40
0.5543338349101947
 10
31.69050318192951
 20
637.8078994727434
 30
0.0
 10
31.69382666387729
 20
637.8111494642891
 30
0.0
 10
31.69717366026457
 20
637.8143989232618
 30
0.0
 10
31.70054415967792
 20
637.8176478386538
 30
0.0
  0
SPLINE
  5
91
330
75
100
AcDbEntity
  8
$DDT_AUDIT_GENERATED_(8E)
  6
Continuous
 62
     7
100
AcDbSpline
210
0.0
220
0.0
230
1.0
 70
     8
 71
     3
 72
    15
 73
    11
 74
     0
 42
0.0000000001923933
 43
0.0000000001
 40
0.5543338349101947
 40
0.5543338349101947
 40
0.5543338349101947
 40
0.5543338349101947
 40
0.6226692155368131
 40
0.7054115277720794
 40
0.7524855219601477
 40
0.7983648409191629
 40
0.8423776599429239
 40
0.8845368701350437
 40
0.9248542470408643
 40
0.9296535503996786
 40
0.9296535503996786
 40
0.9296535503996786
 40
0.9296535503996786
 10
31.70054415967792
 20
637.8176478386538
 30
0.0
 10
32.00022120271534
 20
638.1065146320608
 30
0.0
 10
33.07352357374117
 20
638.7356487860101
 30
0.0
 10
35.62092829148983
 20
639.483662721663
 30
0.0
 10
38.62428083935293
 20
640.0567787845242
 30
0.0
 10
41.33703469077731
 20
640.4433195001307
 30
0.0
 10
44.24619522882285
 20
640.7516992908724
 30
0.0
 10
47.25104543630951
 20
640.9824535447706
 30
0.0
 10
49.4326352576628
 20
641.0947583653166
 30
0.0
 10
50.58063040446198
 20
641.1401729574446
 30
0.0
 10
50.70296326651908
 20
641.1448538739952
 30
0.0
  0
SPLINE
  5
92
330
75
100
AcDbEntity
  8
$DDT_AUDIT_GENERATED_(8E)
  6
Continuous
 62
     7
100
AcDbSpline
210
0.0
220
0.0
230
1.0
 70
     8
 71
     3
 72
     8
 73
     4
 74
     0
 42
0.0000000005923378
 43
0.0000000001
 40
0.446157937214298
 40
0.446157937214298
 40
0.446157937214298
 40
0.446157937214298
 40
0.4466415254290133
 40
0.4466415254290133
 40
0.4466415254290133
 40
0.4466415254290133
 10
33.16188274577558
 20
639.2340733161278
 30
0.0
 10
33.15991440657489
 20
639.2321852296983
 30
0.0
 10
33.15795481963195
 20
639.2302969066757
 30
0.0
 10
33.15600398639452
 20
639.2284083493156
 30
0.0
  0
SPLINE
  5
93
330
75
100
AcDbEntity
  8
$DDT_AUDIT_GENERATED_(8E)
  6
Continuous
 62
     7
100
AcDbSpline
210
0.0
220
0.0
230
1.0
 70
     8
 71
     3
 72
     8
 73
     4
 74
     0
 42
0.0000000005916223
 43
0.0000000001
 40
0.5534365455141902
 40
0.5534365455141902
 40
0.5534365455141902
 40
0.5534365455141902
 40
0.5541557870054606
 40
0.5541557870054606
 40
0.5541557870054606
 40
0.5541557870054606
 10
79.19326613813347
 20
639.228440883852
 30
0.0
 10
79.19036451106619
 20
639.2312502019522
 30
0.0
 10
79.1874435121788
 20
639.2340590010003
 30
0.0
 10
79.18450314586538
 20
639.2368672734364
 30
0.0
  0
ARC
  5
94
330
75
100
AcDbEntity
  8
$DDT_AUDIT_GENERATED_(8E)
  6
Continuous
 62
     7
100
AcDbCircle
 10
56.1743326414
 20
640.704558072
 30
0.0
 40
5.500295976022224
100
AcDbArc
 50
331.4953793769
 51
0.5943945413
  0
ARC
  5
95
330
75
100
AcDbEntity
  8
$DDT_AUDIT_GENERATED_(8E)
  6
Continuous
 62
     7
100
AcDbCircle
 10
56.1743326414
 20
640.704558072
 30
0.0
 40
5.500295976022224
100
AcDbArc
 50
179.4056054587
 51
207.5273492285
  0
ARC
  5
96
330
75
100
AcDbEntity
  8
$DDT_AUDIT_GENERATED_(8E)
  6
Continuous
 62
     7
100
AcDbCircle
 10
56.1743326414
 20
640.8186777259
 30
0.0
 40
5.500295976022225
100
AcDbArc
 50
151.4953793769
 51
180.5943945413
  0
ARC
  5
97
330
75
100
AcDbEntity
  8
$DDT_AUDIT_GENERATED_(8E)
  6
Continuous
 62
     7
100
AcDbCircle
 10
56.1743326414
 20
640.8186777259
 30
0.0
 40
5.500295976022225
100
AcDbArc
 50
359.4056054587
 51
27.5273492285
  0
LINE
  5
98
330
75
100
AcDbEntity
  8
$DDT_AUDIT_GENERATED_(8E)
  6
Continuous
 62
     7
100
AcDbLine
 10
61.6743326414
 20
640.7615579171
 30
0.0
 11
61.6743326414
 21
628.9964790306
 31
0.0
  0
LINE
  5
99
330
75
100
AcDbEntity
  8
$DDT_AUDIT_GENERATED_(8E)
  6
Continuous
 62
     7
100
AcDbLine
 10
50.6743326414
 20
628.9964505637
 30
0.0
 11
50.6743326414
 21
640.761617899
 31
0.0
  0
ARC
  5
9A
330
75
100
AcDbEntity
  8
$DDT_AUDIT_GENERATED_(8E)
  6
Continuous
 62
     7
100
AcDbCircle
 10
56.1146016874
 20
628.9826697786
 30
0.0
 40
5.440286500059291
100
AcDbArc
 50
179.8548639547
 51
270.6321402764
  0
ARC
  5
9B
330
75
100
AcDbEntity
  8
$DDT_AUDIT_GENERATED_(8E)
  6
Continuous
 62
     7
100
AcDbCircle
 10
56.2427691693
 20
628.9738972916
 30
0.0
 40
5.43161041370679
100
AcDbArc
 50
269.281133313
 51
0.2382059767
  0
SPLINE
  5
9C
330
75
100
AcDbEntity
  8
$DDT_AUDIT_GENERATED_(8E)
  6
Continuous
 62
     7
100
AcDbSpline
210
0.0
220
0.0
230
1.0
 70
     8
 71
     3
 72
     8
 73
     4
 74
     0
 42
0.0000000004076349
 43
0.0000000001
 40
0.0
 40
0.0
 40
0.0
 40
0.0
 40
0.0602148899560806
 40
0.0602148899560806
 40
0.0602148899560806
 40
0.0602148899560806
 10
81.57583967801119
 20
605.2301738404366
 30
0.0
 10
81.64100892556424
 20
605.719954415634
 30
0.0
 10
81.66897391438962
 20
606.2112643426074
 30
0.0
 10
81.66007368650894
 20
606.7021584703645
 30
0.0
  0
LINE
  5
9D
330
75
100
AcDbEntity
  8
$DDT_AUDIT_GENERATED_(8E)
  6
Continuous
 62
     7
100
AcDbLine
 10
56.1746613564
 20
604.9050876381
 30
0.0
 11
31.0136522601
 21
604.9050876381
 31
0.0
  0
LINE
  5
9E
330
75
100
AcDbEntity
  8
$DDT_AUDIT_GENERATED_(8E)
  6
Continuous
 62
     7
100
AcDbLine
 10
81.3356671201
 20
604.9050876381
 30
0.0
 11
56.1746613564
 21
604.9050876381
 31
0.0
  0
SPLINE
  5
9F
330
75
100
AcDbEntity
  8
$DDT_AUDIT_GENERATED_(8E)
  6
Continuous
 62
     7
100
AcDbSpline
210
0.0
220
0.0
230
1.0
 70
     8
 71
     3
 72
     8
 73
     4
 74
     0
 42
0.0000000004101714
 43
0.0000000001
 40
0.9392031560673835
 40
0.9392031560673835
 40
0.9392031560673835
 40
0.9392031560673835
 40
1.0
 40
1.0
 40
1.0
 40
1.0
 10
30.68641735530152
 20
606.7071260476401
 30
0.0
 10
30.67860461775443
 20
606.2167197733702
 30
0.0
 10
30.70771926278281
 20
605.7243975282598
 30
0.0
 10
30.77347970223133
 20
605.2301738404366
 30
0.0
  0
ARC
  5
A0
330
75
100
AcDbEntity
  8
$DDT_AUDIT_GENERATED_(8E)
  6
Continuous
 62
     7
100
AcDbCircle
 10
79.740641924
 20
636.7659975967
 30
0.0
 40
1.391610663277517
100
AcDbArc
 50
3.8480155437
 51
49.095172535
  0
LINE
  5
A1
330
75
100
AcDbEntity
  8
$DDT_AUDIT_GENERATED_(8E)
  6
Continuous
 62
     7
100
AcDbLine
 10
33.1571500726
 20
639.2295273584
 30
0.0
 11
31.7028376971
 21
637.8230101574
 31
0.0
  0
SPLINE
  5
A2
330
75
100
AcDbEntity
  8
$DDT_AUDIT_GENERATED_(8E)
  6
Continuous
 62
     7
100
AcDbSpline
210
0.0
220
0.0
230
1.0
 70
     8
 71
     3
 72
    29
 73
    25
 74
     0
 42
0.0000000004481505
 43
0.0000000001
 40
0.1616450631020195
 40
0.1616450631020195
 40
0.1616450631020195
 40
0.1616450631020195
 40
0.1869307958666689
 40
0.2199492266125817
 40
0.2474806903704713
 40
0.2720610241867392
 40
0.2969141096231453
 40
0.3645561474692925
 40
0.4337162114938923
 40
0.5029794039296946
 40
0.5550537212098658
 40
0.6077054290547134
 40
0.6609918420787535
 40
0.7141186184839615
 40
0.7336068986590705
 40
0.752903246409613
 40
0.7720079109943176
 40
0.7909210596040583
 40
0.8104588991614625
 40
0.8338089516129424
 40
0.8666526926669715
 40
0.9052816466323688
 40
0.9497222435417046
 40
0.9654340164885324
 40
0.9654340164885324
 40
0.9654340164885324
 40
0.9654340164885324
 10
50.94378724462754
 20
642.4410384577493
 30
0.0
 10
50.67589110404711
 20
642.4308212838698
 30
0.0
 10
50.06111525477108
 20
642.4054555478615
 30
0.0
 10
49.16591875427797
 20
642.3619790692901
 30
0.0
 10
48.29055578140506
 20
642.3126086448061
 30
0.0
 10
47.50983931163601
 20
642.2631274438562
 30
0.0
 10
46.33930680338118
 20
642.1809565457572
 30
0.0
 10
44.76952852486062
 20
642.0500023083359
 30
0.0
 10
42.87673119116101
 20
641.8523548437386
 30
0.0
 10
41.24388975242012
 20
641.642743175184
 30
0.0
 10
39.8583979417855
 20
641.4314413103996
 30
0.0
 10
38.68865278821733
 20
641.2246266693314
 30
0.0
 10
37.60731746799314
 20
641.0026318031072
 30
0.0
 10
36.83209396295041
 20
640.816757844225
 30
0.0
 10
36.3078945356865
 20
640.6762545136567
 30
0.0
 10
35.99190932055428
 20
640.586186423863
 30
0.0
 10
35.69310229320116
 20
640.4954933312426
 30
0.0
 10
35.40731886496089
 20
640.4030002739936
 30
0.0
 10
35.11549342155757
 20
640.301947391849
 30
0.0
 10
34.77063803074699
 20
640.172151232626
 30
0.0
 10
34.36879384130613
 20
640.0026269334948
 30
0.0
 10
33.93277580996585
 20
639.7870358130351
 30
0.0
 10
33.60760940830779
 20
639.5905191020269
 30
0.0
 10
33.4511590119823
 20
639.474394744592
 30
0.0
 10
33.41168880843865
 20
639.4436717089136
 30
0.0
  0
SPLINE
  5
A3
330
75
100
AcDbEntity
  8
$DDT_AUDIT_GENERATED_(8E)
  6
Continuous
 62
     7
100
AcDbSpline
210
0.0
220
0.0
230
1.0
 70
     8
 71
     3
 72
     8
 73
     4
 74
     0
 42
0.0000000009886563
 43
0.0000000001
 40
0.9950293772710277
 40
0.9950293772710277
 40
0.9950293772710277
 40
0.9950293772710277
 40
1.0
 40
1.0
 40
1.0
 40
1.0
 10
33.19386092137002
 20
639.2616602227765
 30
0.0
 10
33.1814188985671
 20
639.25076339332
 30
0.0
 10
33.16884483817963
 20
639.239708023807
 30
0.0
 10
33.15609312187532
 20
639.2284740663536
 30
0.0
  0
LINE
  5
A4
330
75
100
AcDbEntity
  8
$DDT_AUDIT_GENERATED_(8E)
  6
Continuous
 62
     7
100
AcDbLine
 10
31.2202177244
 20
636.8579914156
 30
0.0
 11
30.6888001852
 21
606.707295674
 31
0.0
  0
ARC
  5
A5
330
75
100
AcDbEntity
  8
$DDT_AUDIT_GENERATED_(8E)
  6
Continuous
 62
     7
100
AcDbCircle
 10
32.5861241096
 20
636.7721392441
 30
0.0
 40
1.368696966042509
100
AcDbArc
 50
133.7335815508
 51
176.3437924802
  0
LINE
  5
A6
330
75
100
AcDbEntity
  8
$DDT_AUDIT_GENERATED_(8E)
  6
Continuous
 62
     7
100
AcDbLine
 10
31.6974746123
 20
637.8177956457
 30
0.0
 11
31.6873834195
 21
637.8044166084
 31
0.0
  0
LINE
  5
A7
330
75
100
AcDbEntity
  8
$DDT_AUDIT_GENERATED_(8E)
  6
Continuous
 62
     7
100
AcDbLine
 10
80.6496120273
 20
637.8199846312
 30
0.0
 11
79.1908616309
 21
639.2307934263
 31
0.0
  0
SPLINE
  5
A8
330
75
100
AcDbEntity
  8
$DDT_AUDIT_GENERATED_(8E)
  6
Continuous
 62
     7
100
AcDbSpline
210
0.0
220
0.0
230
1.0
 70
     8
 71
     3
 72
     8
 73
     4
 74
     0
 42
0.0000000009626565
 43
0.0000000001
 40
0.0
 40
0.0
 40
0.0
 40
0.0
 40
0.0037609057321054
 40
0.0037609057321054
 40
0.0037609057321054
 40
0.0037609057321054
 10
79.19336188094687
 20
639.2283351561726
 30
0.0
 10
79.18352669421647
 20
639.2371354366603
 30
0.0
 10
79.17382284250563
 20
639.2458052995147
 30
0.0
 10
79.16422247777128
 20
639.2543582600737
 30
0.0
  0
SPLINE
  5
A9
330
75
100
AcDbEntity
  8
$DDT_AUDIT_GENERATED_(8E)
  6
Continuous
 62
     7
100
AcDbSpline
210
0.0
220
0.0
230
1.0
 70
     8
 71
     3
 72
    30
 73
    26
 74
     0
 42
0.0000000004507639
 43
0.0000000001
 40
0.0268770255123975
 40
0.0268770255123975
 40
0.0268770255123975
 40
0.0268770255123975
 40
0.0410074082608538
 40
0.0765904331858257
 40
0.1067723531360326
 40
0.1315770012920717
 40
0.1510449823937463
 40
0.1684643318567718
 40
0.1862562107846615
 40
0.2044206440920114
 40
0.2342574825630735
 40
0.2650481953216391
 40
0.2967934801350501
 40
0.329507702142623
 40
0.365506127185488
 40
0.3993206460052131
 40
0.4366030907263482
 40
0.4773538579739198
 40
0.5215715920871573
 40
0.5692532099090895
 40
0.6203972074948336
 40
0.6750029028812546
 40
0.7330717689468708
 40
0.7946064893122956
 40
0.8383224537625429
 40
0.8383224537625429
 40
0.8383224537625429
 40
0.8383224537625429
 10
78.99246111407454
 20
639.4019577273984
 30
0.0
 10
78.95721778217543
 20
639.43061178107
 30
0.0
 10
78.82986374230096
 20
639.5297420587987
 30
0.0
 10
78.57680496154019
 20
639.6938153375286
 30
0.0
 10
78.25882506398104
 20
639.8674064704162
 30
0.0
 10
77.97106752627636
 20
640.0048134826903
 30
0.0
 10
77.72344810577265
 20
640.1120371057136
 30
0.0
 10
77.49538808327307
 20
640.2035963060737
 30
0.0
 10
77.25902929780484
 20
640.2923106616139
 30
0.0
 10
76.9524766997241
 20
640.3999474720346
 30
0.0
 10
76.56047875105793
 20
640.526427383858
 30
0.0
 10
76.06495968076402
 20
640.67088730111
 30
0.0
 10
75.51633722778026
 20
640.8156846501082
 30
0.0
 10
74.89760558736116
 20
640.9636625164718
 30
0.0
 10
74.22350208178824
 20
641.1093765242875
 30
0.0
 10
73.4754579810996
 20
641.2557169089746
 30
0.0
 10
72.6490733663245
 20
641.40198555551
 30
0.0
 10
71.69379081437171
 20
641.5535015621118
 30
0.0
 10
70.5991889536717
 20
641.7075382046631
 30
0.0
 10
69.35566541117548
 20
641.8609572161806
 30
0.0
 10
67.95458833571823
 20
642.0100996311835
 30
0.0
 10
66.38998414833388
 20
642.1507644231876
 30
0.0
 10
64.65820125693568
 20
642.2780937970094
 30
0.0
 10
62.97911702491687
 20
642.3740872084014
 30
0.0
 10
61.87063114791419
 20
642.4225367232598
 30
0.0
 10
61.40797669145766
 20
642.4402603136416
 30
0.0
  0
LINE
  5
AA
330
75
100
AcDbEntity
  8
$DDT_AUDIT_GENERATED_(8E)
  6
Continuous
 62
     7
100
AcDbLine
 10
81.6606089545
 20
606.7022752278
 30
0.0
 11
81.1290801177
 21
636.8592803317
 31
0.0
  0
SPLINE
  5
AB
330
75
100
AcDbEntity
  8
$DDT_AUDIT_GENERATED_(8E)
  6
Continuous
 62
     7
100
AcDbSpline
210
0.0
220
0.0
230
1.0
 70
     8
 71
     3
 72
    31
 73
    27
 74
     0
 42
0.0000000008387862
 43
0.0000000001
 40
0.0
 40
0.0
 40
0.0
 40
0.0
 40
0.002174336731219
 40
0.0476275702238585
 40
0.0933577749573495
 40
0.1391088176758155
 40
0.184323128359372
 40
0.22956140043166
 40
0.2751248771652342
 40
0.3202976973569291
 40
0.3651549497415644
 40
0.4103903496853914
 40
0.45555258924599
 40
0.5001962077042756
 40
0.545101004694847
 40
0.5903271334467595
 40
0.6351612740082793
 40
0.6798296718808117
 40
0.7250527124030097
 40
0.7702709750513885
 40
0.8151064140032012
 40
0.8603169703728956
 40
0.9059039325743404
 40
0.9511971427668888
 40
0.9963859982343437
 40
1.0
 40
1.0
 40
1.0
 40
1.0
 10
61.04043637150462
 20
643.3567394326121
 30
0.0
 10
61.03645840140575
 20
643.3653547049242
 30
0.0
 10
60.96130300584868
 20
643.5279840744723
 30
0.0
 10
60.75639768200192
 20
643.8539991218865
 30
0.0
 10
60.44288125609344
 20
644.2915151564366
 30
0.0
 10
60.08045706168675
 20
644.6984144730826
 30
0.0
 10
59.68296853538597
 20
645.0651095435005
 30
0.0
 10
59.25194481068657
 20
645.3913930816037
 30
0.0
 10
58.79161382445989
 20
645.6743231966338
 30
0.0
 10
58.30658875963515
 20
645.9091349796826
 30
0.0
 10
57.80207625957319
 20
646.0945411898189
 30
0.0
 10
57.28202809203675
 20
646.230303678709
 30
0.0
 10
56.75188445491349
 20
646.3138232949997
 30
0.0
 10
56.21739118347659
 20
646.3436888524184
 30
0.0
 10
55.68230143598996
 20
646.3216697412828
 30
0.0
 10
55.1510886274183
 20
646.2475012374291
 30
0.0
 10
54.63094259189747
 20
646.1205111542888
 30
0.0
 10
54.12577145265094
 20
645.943329640861
 30
0.0
 10
53.63857776325034
 20
645.7176957338579
 30
0.0
 10
53.17543952967181
 20
645.4447741997074
 30
0.0
 10
52.7416051004699
 20
645.1272332185896
 30
0.0
 10
52.33965512140214
 20
644.7688872590387
 30
0.0
 10
51.97076569921129
 20
644.3712225032511
 30
0.0
 10
51.65087359972445
 20
643.9422655817307
 30
0.0
 10
51.43958219007935
 20
643.6172752448364
 30
0.0
 10
51.35949271711113
 20
643.452348633258
 30
0.0
 10
51.35261104176735
 20
643.4381567424963
 30
0.0
  0
SPLINE
  5
AC
330
75
100
AcDbEntity
  8
$DDT_AUDIT_GENERATED_(8E)
  6
Continuous
 62
     7
100
AcDbSpline
210
0.0
220
0.0
230
1.0
 70
     8
 71
     3
 72
    12
 73
     8
 74
     0
 42
0.0000000259044941
 43
0.0000000001
 40
0.0
 40
0.0
 40
0.0
 40
0.0
 40
0.1334248182879193
 40
0.3944251199313459
 40
0.5914197655238953
 40
0.745192774684806
 40
0.8222553728630251
 40
0.8222553728630251
 40
0.8222553728630251
 40
0.8222553728630251
 10
30.77714609361591
 20
605.1911104444923
 30
0.0
 10
30.77909510186992
 20
605.173395440685
 30
0.0
 10
30.78451036106244
 20
605.1283078516492
 30
0.0
 10
30.79857542860926
 20
605.0742686636604
 30
0.0
 10
30.82774418019888
 20
605.0060594531217
 30
0.0
 10
30.87367023378024
 20
604.9548221534188
 30
0.0
 10
30.90866810557376
 20
604.9323500184607
 30
0.0
 10
30.92096970190221
 20
604.9261810554267
 30
0.0
  0
SPLINE
  5
AD
330
75
100
AcDbEntity
  8
$DDT_AUDIT_GENERATED_(8E)
  6
Continuous
 62
     7
100
AcDbSpline
210
0.0
220
0.0
230
1.0
 70
     8
 71
     3
 72
    13
 73
     9
 74
     0
 42
0.0000000249467823
 43
0.0000000001
 40
0.150222209711884
 40
0.150222209711884
 40
0.150222209711884
 40
0.150222209711884
 40
0.1767040605733365
 40
0.3020794675078444
 40
0.4222307472851078
 40
0.555871637510104
 40
0.7627239302708292
 40
1.0
 40
1.0
 40
1.0
 40
1.0
 10
81.41900448995989
 20
604.9218562538531
 30
0.0
 10
81.42361594199271
 20
604.9240430586759
 30
0.0
 10
81.4495281675368
 20
604.9373597221539
 30
0.0
 10
81.48838573001093
 20
604.9659749118414
 30
0.0
 10
81.52404903776736
 20
605.014300522836
 30
0.0
 10
81.54744882447466
 20
605.0659091254744
 30
0.0
 10
81.56360770731897
 20
605.1232522939301
 30
0.0
 10
81.57029406510738
 20
605.1731934042818
 30
0.0
 10
81.57391604425517
 20
605.2044368468048
 30
0.0
  0
ENDBLK
  5
AF
330
75
100
AcDbEntity
  8
0
100
AcDbBlockEnd
  0
BLOCK
  5
109
330
B0
100
AcDbEntity
  8
0
100
AcDbBlockBegin
  2
SE1
 70
     0
 10
0.0
 20
0.0
 30
0.0
  3
SE1
  1

  0
LINE
  5
B2
330
B0
100
AcDbEntity
  8
$DDT_AUDIT_GENERATED_(77)
  6
Continuous
 62
     7
100
AcDbLine
 10
168.3746996239
 20
615.4938998037
 30
0.0
 11
167.9572975091
 21
615.4938998037
 31
0.0
  0
ARC
  5
B3
330
B0
100
AcDbEntity
  8
$DDT_AUDIT_GENERATED_(77)
  6
Continuous
 62
     7
100
AcDbCircle
 10
182.9572975091
 20
596.1225291759
 30
0.0
 40
24.50000000000001
100
AcDbArc
 50
127.7520013062
 51
164.8572685595
  0
ARC
  5
B4
330
B0
100
AcDbEntity
  8
$DDT_AUDIT_GENERATED_(77)
  6
Continuous
 62
     7
100
AcDbCircle
 10
182.9572975091
 20
596.1225291759
 30
0.0
 40
24.50000000000001
100
AcDbArc
 50
15.1427314405
 51
21.3121401706
  0
LINE
  5
B5
330
B0
100
AcDbEntity
  8
$DDT_AUDIT_GENERATED_(7A)
  6
Continuous
 62
     7
100
AcDbLine
 10
391.5322975091
 20
550.9051695551
 30
0.0
 11
370.3822975091
 21
550.9051695551
 31
0.0
  0
LINE
  5
B6
330
B0
100
AcDbEntity
  8
$DDT_AUDIT_GENERATED_(7A)
  6
Continuous
 62
     7
100
AcDbLine
 10
392.5322975091
 20
551.9051695551
 30
0.0
 11
392.5322975091
 21
561.0819132506
 31
0.0
  0
LINE
  5
B7
330
B0
100
AcDbEntity
  8
$DDT_AUDIT_GENERATED_(7A)
  6
Continuous
 62
     7
100
AcDbLine
 10
369.3822975091
 20
561.0891116223
 30
0.0
 11
369.3822975091
 21
551.9051695551
 31
0.0
  0
ARC
  5
B8
330
B0
100
AcDbEntity
  8
$DDT_AUDIT_GENERATED_(7A)
  6
Continuous
 62
     7
100
AcDbCircle
 10
391.5322975091
 20
551.9051695551
 30
0.0
 40
1.000000000000001
100
AcDbArc
 50
270.0
 51
0.0
  0
ARC
  5
B9
330
B0
100
AcDbEntity
  8
$DDT_AUDIT_GENERATED_(7A)
  6
Continuous
 62
     7
100
AcDbCircle
 10
370.3822975091
 20
551.9051695551
 30
0.0
 40
1.000000000000001
100
AcDbArc
 50
180.0
 51
270.0
  0
LINE
  5
BA
330
B0
100
AcDbEntity
  8
$DDT_AUDIT_GENERATED_(80)
  6
Continuous
 62
     7
100
AcDbLine
 10
371.9572975091
 20
550.6551695551
 30
0.0
 11
389.9572975091
 21
550.6551695551
 31
0.0
  0
LINE
  5
BB
330
B0
100
AcDbEntity
  8
$DDT_AUDIT_GENERATED_(80)
  6
Continuous
 62
     7
100
AcDbLine
 10
371.9572975091
 20
550.9051695551
 30
0.0
 11
371.9572975091
 21
550.6551695551
 31
0.0
  0
LINE
  5
BC
330
B0
100
AcDbEntity
  8
$DDT_AUDIT_GENERATED_(80)
  6
Continuous
 62
     7
100
AcDbLine
 10
389.9572975091
 20
550.6551695551
 30
0.0
 11
389.9572975091
 21
550.9051695551
 31
0.0
  0
LINE
  5
BD
330
B0
100
AcDbEntity
  8
$DDT_AUDIT_GENERATED_(84)
  6
Continuous
 62
     7
100
AcDbLine
 10
208.4572975091
 20
423.2141901277
 30
0.0
 11
157.4572975091
 21
423.2141901277
 31
0.0
  0
ARC
  5
BE
330
B0
100
AcDbEntity
  8
$DDT_AUDIT_GENERATED_(84)
  6
Continuous
 62
     7
100
AcDbCircle
 10
213.9457243524
 20
595.1435972019
 30
0.0
 40
5.510117039170527
100
AcDbArc
 50
185.085474984
 51
264.9145236226
  0
ARC
  5
BF
330
B0
100
AcDbEntity
  8
$DDT_AUDIT_GENERATED_(84)
  6
Continuous
 62
     7
100
AcDbCircle
 10
213.9457241076
 20
555.166743823
 30
0.0
 40
5.510116791927493
100
AcDbArc
 50
95.0854744196
 51
174.9145251821
  0
ARC
  5
C0
330
B0
100
AcDbEntity
  8
$DDT_AUDIT_GENERATED_(84)
  6
Continuous
 62
     7
100
AcDbCircle
 10
243.8439306851
 20
572.2205750937
 30
0.0
 40
35.03302058150067
100
AcDbArc
 50
150.1545702091
 51
150.8999427202
  0
ARC
  5
C1
330
B0
100
AcDbEntity
  8
$DDT_AUDIT_GENERATED_(84)
  6
Continuous
 62
     7
100
AcDbCircle
 10
229.4564303544
 20
575.1551704935
 30
0.0
 40
28.65682437728933
100
AcDbArc
 50
221.9051965218
 51
222.8800834658
  0
ARC
  5
C2
330
B0
100
AcDbEntity
  8
$DDT_AUDIT_GENERATED_(84)
  6
Continuous
 62
     7
100
AcDbCircle
 10
229.4564303544
 20
575.1551704935
 30
0.0
 40
28.65682437728933
100
AcDbArc
 50
137.1199165342
 51
221.9051965218
  0
LINE
  5
C3
330
B0
100
AcDbEntity
  8
$DDT_AUDIT_GENERATED_(84)
  6
Continuous
 62
     7
100
AcDbLine
 10
208.346930798
 20
602.0225291759
 30
0.0
 11
208.4572975091
 21
602.0225291759
 31
0.0
  0
LINE
  5
C4
330
B0
100
AcDbEntity
  8
$DDT_AUDIT_GENERATED_(84)
  6
Continuous
 62
     7
100
AcDbLine
 10
157.95722186
 20
602.5225291759
 30
0.0
 11
207.9572975091
 21
602.5225291759
 31
0.0
  0
ARC
  5
C5
330
B0
100
AcDbEntity
  8
$DDT_AUDIT_GENERATED_(84)
  6
Continuous
 62
     7
100
AcDbCircle
 10
158.0060361754
 20
601.9737555461
 30
0.0
 40
0.5509404089070467
100
AcDbArc
 50
95.0831751374
 51
174.9210727076
  0
SPLINE
  5
C6
330
B0
100
AcDbEntity
  8
$DDT_AUDIT_GENERATED_(84)
  6
Continuous
 62
     7
100
AcDbSpline
210
0.0
220
0.0
230
1.0
 70
    12
 71
     3
 72
     8
 73
     4
 74
     0
 42
0.0000000118318276
 43
0.0000000001
 40
0.0
 40
0.0
 40
0.0
 40
0.0
 40
1.0
 40
1.0
 40
1.0
 40
1.0
 10
208.4572975090961
 20
602.0225291758783
 30
0.0
 41
1.0
 10
208.4572975090961
 20
602.2582314363026
 30
0.0
 41
1.0
 10
208.1929997695024
 20
602.5225291759176
 30
0.0
 41
1.0
 10
207.9572975090961
 20
602.5225291759067
 30
0.0
 41
1.0
  0
SPLINE
  5
C7
330
B0
100
AcDbEntity
  8
$DDT_AUDIT_GENERATED_(84)
  6
Continuous
 62
     7
100
AcDbSpline
210
0.0
220
0.0
230
1.0
 70
     8
 71
     3
 72
    10
 73
     6
 74
     0
 42
0.0000000157657711
 43
0.0000000001
 40
0.4985006592447079
 40
0.4985006592447079
 40
0.4985006592447079
 40
0.4985006592447079
 40
0.4999999999999987
 40
0.4999999999999987
 40
0.5001983487457777
 40
0.5001983487457777
 40
0.5001983487457777
 40
0.5001983487457777
 10
393.206504465871
 20
560.6558987475566
 30
0.0
 10
393.2069726690208
 20
560.6554711734113
 30
0.0
 10
393.2072337477321
 20
560.6552316382761
 30
0.0
 10
393.2072940893576
 20
560.6551741653097
 30
0.0
 10
393.2072974024471
 20
560.6551708682506
 30
0.0
 10
393.2072969814594
 20
560.6551709858007
 30
0.0
  0
ARC
  5
C8
330
B0
100
AcDbEntity
  8
$DDT_AUDIT_GENERATED_(84)
  6
Continuous
 62
     7
100
AcDbCircle
 10
132.1277533487
 20
540.2141901284
 30
0.0
 40
25.50658360838077
100
AcDbArc
 50
353.2454254676
 51
6.7545750007
  0
LINE
  5
C9
330
B0
100
AcDbEntity
  8
$DDT_AUDIT_GENERATED_(84)
  6
Continuous
 62
     7
100
AcDbLine
 10
393.1892362149
 20
560.6551703997
 30
0.0
 11
402.3489135766
 21
560.6551703997
 31
0.0
  0
LINE
  5
CA
330
B0
100
AcDbEntity
  8
$DDT_AUDIT_GENERATED_(84)
  6
Continuous
 62
     7
100
AcDbLine
 10
213.4573216656
 20
560.6551703997
 30
0.0
 11
368.7072975375
 21
560.6551703997
 31
0.0
  0
LINE
  5
CB
330
B0
100
AcDbEntity
  8
$DDT_AUDIT_GENERATED_(84)
  6
Continuous
 62
     7
100
AcDbLine
 10
407.5541330968
 20
589.6551703997
 30
0.0
 11
213.4572716099
 21
589.6551703997
 31
0.0
  0
ARC
  5
CC
330
B0
100
AcDbEntity
  8
$DDT_AUDIT_GENERATED_(84)
  6
Continuous
 62
     7
100
AcDbCircle
 10
213.9226056247
 20
555.29534653
 30
0.0
 40
5.809371262163125
100
AcDbArc
 50
96.5273140373
 51
172.5845186449
  0
ARC
  5
CD
330
B0
100
AcDbEntity
  8
$DDT_AUDIT_GENERATED_(84)
  6
Continuous
 62
     7
100
AcDbCircle
 10
213.9223101502
 20
595.0146642974
 30
0.0
 40
5.809924321935448
100
AcDbArc
 50
187.4215949014
 51
263.4721535438
  0
ARC
  5
CE
330
B0
100
AcDbEntity
  8
$DDT_AUDIT_GENERATED_(84)
  6
Continuous
 62
     7
100
AcDbCircle
 10
314.245514404
 20
591.6207543642
 30
0.0
 40
94.32669590938222
100
AcDbArc
 50
341.4439301039
 51
358.3001413847
  0
ARC
  5
CF
330
B0
100
AcDbEntity
  8
$DDT_AUDIT_GENERATED_(84)
  6
Continuous
 62
     7
100
AcDbCircle
 10
402.2771783619
 20
562.1537194987
 30
0.0
 40
1.500267109722548
100
AcDbArc
 50
272.7406125291
 51
338.4026388045
  0
LINE
  5
D0
330
B0
100
AcDbEntity
  8
$DDT_AUDIT_GENERATED_(84)
  6
Continuous
 62
     7
100
AcDbLine
 10
208.4572975091
 20
594.6551703768
 30
0.0
 11
208.4572975091
 21
602.0255291759
 31
0.0
  0
LINE
  5
D1
330
B0
100
AcDbEntity
  8
$DDT_AUDIT_GENERATED_(84)
  6
Continuous
 62
     7
100
AcDbLine
 10
208.4572975091
 20
423.2141901277
 30
0.0
 11
208.4572975091
 21
555.6551704132
 31
0.0
  0
LINE
  5
D2
330
B0
100
AcDbEntity
  8
$DDT_AUDIT_GENERATED_(84)
  6
Continuous
 62
     7
100
AcDbLine
 10
157.4572975091
 20
537.2518040031
 30
0.0
 11
157.4572975091
 21
423.2141901277
 31
0.0
  0
LINE
  5
D3
330
B0
100
AcDbEntity
  8
$DDT_AUDIT_GENERATED_(84)
  6
Continuous
 62
     7
100
AcDbLine
 10
157.4572975091
 20
602.0255291759
 30
0.0
 11
157.4572975091
 21
543.2141901277
 31
0.0
  0
LINE
  5
D4
330
B0
100
AcDbEntity
  8
$DDT_AUDIT_GENERATED_(84)
  6
Continuous
 62
     7
100
AcDbLine
 10
208.3004581893
 20
602.3179296974
 30
0.0
 11
208.2954878379
 21
602.3611154581
 31
0.0
  0
ARC
  5
D5
330
B0
100
AcDbEntity
  8
$DDT_AUDIT_GENERATED_(84)
  6
Continuous
 62
     7
100
AcDbCircle
 10
407.4443478153
 20
588.57633363
 30
0.0
 40
1.084159306494777
100
AcDbArc
 50
4.1881654975
 51
84.3230637925
  0
LINE
  5
D6
330
B0
100
AcDbEntity
  8
$DDT_AUDIT_GENERATED_(84)
  6
Continuous
 62
     7
100
AcDbLine
 10
157.6189314205
 20
602.3610164343
 30
0.0
 11
157.5801031467
 21
602.0225291759
 31
0.0
  0
LINE
  5
D7
330
B0
100
AcDbEntity
  8
$DDT_AUDIT_GENERATED_(84)
  6
Continuous
 62
     7
100
AcDbLine
 10
208.334391259
 20
602.0225291759
 30
0.0
 11
208.295193202
 21
602.3614096565
 31
0.0
  0
SPLINE
  5
D8
330
B0
100
AcDbEntity
  8
$DDT_AUDIT_GENERATED_(84)
  6
Continuous
 62
     7
100
AcDbSpline
210
0.0
220
0.0
230
1.0
 70
     8
 71
     3
 72
    37
 73
    33
 74
     0
 42
0.0000000003522403
 43
0.0000000001
 40
0.0129530644818789
 40
0.0129530644818789
 40
0.0129530644818789
 40
0.0129530644818789
 40
0.0193645714853815
 40
0.0381969053159404
 40
0.068327573162257
 40
0.1024077281840606
 40
0.1381032578154894
 40
0.1748688442937453
 40
0.2121980864895758
 40
0.2497554871434482
 40
0.2887316405137606
 40
0.3327928705200662
 40
0.3760199356970332
 40
0.411959941464672
 40
0.4454876701626931
 40
0.4774331009629739
 40
0.5019420214911179
 40
0.5275415077673002
 40
0.5539511017978558
 40
0.581474066595193
 40
0.6098985789919042
 40
0.6394946422955856
 40
0.6758127229244586
 40
0.7154224103661687
 40
0.7587660748130727
 40
0.8030708560914266
 40
0.8460680346564456
 40
0.8871350092580135
 40
0.9260351907482367
 40
0.9629893724896347
 40
0.9956329216223655
 40
1.0
 40
1.0
 40
1.0
 40
1.0
 10
369.0722423974514
 20
560.8151741172604
 30
0.0
 10
369.0720612127877
 20
560.8149854206987
 30
0.0
 10
369.0817560183601
 20
560.8241802758054
 30
0.0
 10
369.1388529831627
 20
560.8757458893703
 30
0.0
 10
369.3083397970354
 20
561.0254870393998
 30
0.0
 10
369.6287516388497
 20
561.303844828799
 30
0.0
 10
370.0927414028685
 20
561.7008488929082
 30
0.0
 10
370.6893301451224
 20
562.2047206213449
 30
0.0
 10
371.4110477397878
 20
562.8014371493632
 30
0.0
 10
372.2523641810217
 20
563.497592027616
 30
0.0
 10
373.208302476439
 20
564.2929583449252
 30
0.0
 10
374.3076810777582
 20
565.1512342926061
 30
0.0
 10
375.4915821966129
 20
565.9679345601191
 30
0.0
 10
376.6762774669446
 20
566.655213761007
 30
0.0
 10
377.826547451421
 20
567.1907641589288
 30
0.0
 10
378.9097026512601
 20
567.5793496229621
 30
0.0
 10
379.9482277238259
 20
567.813632206743
 30
0.0
 10
380.9496546433247
 20
567.8716379214073
 30
0.0
 10
381.9864763508984
 20
567.7884919247605
 30
0.0
 10
383.0320063863687
 20
567.5621585777584
 30
0.0
 10
384.0549626780556
 20
567.1809317216489
 30
0.0
 10
385.1141838403404
 20
566.6615918156926
 30
0.0
 10
386.2224396498279
 20
566.0098063856562
 30
0.0
 10
387.3810048477147
 20
565.2207731256444
 30
0.0
 10
388.5306080480236
 20
564.3762572439856
 30
0.0
 10
389.6082243528897
 20
563.5423035037996
 30
0.0
 10
390.555256183812
 20
562.7755323663724
 30
0.0
 10
391.3430332150206
 20
562.1152530837757
 30
0.0
 10
391.9664521357483
 20
561.578568871116
 30
0.0
 10
392.4117808860442
 20
561.1881671215841
 30
0.0
 10
392.6314667349757
 20
560.9944152382946
 30
0.0
 10
392.7079428705377
 20
560.9276076266818
 30
0.0
 10
392.7183568449264
 20
560.9185093614245
 30
0.0
  0
SPLINE
  5
D9
330
B0
100
AcDbEntity
  8
$DDT_AUDIT_GENERATED_(84)
  6
Continuous
 62
     7
100
AcDbSpline
210
0.0
220
0.0
230
1.0
 70
     8
 71
     3
 72
    16
 73
    12
 74
     0
 42
0.000000017977563
 43
0.0000000001
 40
0.0
 40
0.0
 40
0.0
 40
0.0
 40
0.3156050804135794
 40
0.6217890644604726
 40
0.7900739816493425
 40
0.8307370721325978
 40
0.8565764589818687
 40
0.8813767472698499
 40
0.9233405268561049
 40
0.9797579174899133
 40
1.0
 40
1.0
 40
1.0
 40
1.0
 10
392.7183568449264
 20
560.9185093614245
 30
0.0
 10
392.7537853141409
 20
560.8876774942877
 30
0.0
 10
392.8110608585063
 20
560.8377330704735
 30
0.0
 10
392.8597305984155
 20
560.7969410409578
 30
0.0
 10
392.8765806373622
 20
560.7824098317323
 30
0.0
 10
392.9050746398067
 20
560.7610419215338
 30
0.0
 10
392.9290983286412
 20
560.7447615783832
 30
0.0
 10
392.9718527747233
 20
560.7194418638475
 30
0.0
 10
393.0478798989795
 20
560.6877679822112
 30
0.0
 10
393.130410778529
 20
560.6650480430579
 30
0.0
 10
393.1799226182334
 20
560.6713476734687
 30
0.0
 10
393.1951281747727
 20
560.673351701473
 30
0.0
  0
SPLINE
  5
DA
330
B0
100
AcDbEntity
  8
$DDT_AUDIT_GENERATED_(84)
  6
Continuous
 62
     7
100
AcDbSpline
210
0.0
220
0.0
230
1.0
 70
     8
 71
     3
 72
    18
 73
    14
 74
     0
 42
0.0000000009309829
 43
0.0000000001
 40
0.0
 40
0.0
 40
0.0
 40
0.0
 40
0.0006153703952002
 40
0.0030315788929974
 40
0.0049502583256013
 40
0.0062385137654017
 40
0.0072470023028762
 40
0.008523109500517
 40
0.0108387567530869
 40
0.0170861574029159
 40
0.0351462676612665
 40
0.0649124685588579
 40
0.0708644619949094
 40
0.0708644619949094
 40
0.0708644619949094
 40
0.0708644619949094
 10
368.7478528780094
 20
560.6728945922157
 30
0.0
 10
368.7571513883797
 20
560.6725744529415
 30
0.0
 10
368.7964364981729
 20
560.6713420901235
 30
0.0
 10
368.8649511998452
 20
560.6891656377596
 30
0.0
 10
368.9345702456452
 20
560.7165231720046
 30
0.0
 10
368.9767416448361
 20
560.7401028657209
 30
0.0
 10
368.9999717991827
 20
560.7550138518016
 30
0.0
 10
369.0177570878452
 20
560.7675222486596
 30
0.0
 10
369.036709802831
 20
560.7819679745774
 30
0.0
 10
369.0605305635644
 20
560.8014752736867
 30
0.0
 10
369.1225829537509
 20
560.8539712914192
 30
0.0
 10
369.2469396917014
 20
560.9624066266554
 30
0.0
 10
369.3548001527731
 20
561.057149312208
 30
0.0
 10
369.3734714724858
 20
561.0735577162931
 30
0.0
  0
LINE
  5
DC
330
B0
100
AcDbEntity
  8
$DDT_AUDIT_GENERATED_(DB)
  6
Continuous
 62
     7
100
AcDbLine
 10
157.507275285
 20
537.631914
 30
0.0
 11
157.507275285
 21
542.8032168641
 31
0.0
  0
LINE
  5
DE
330
B0
100
AcDbEntity
  8
$DDT_AUDIT_GENERATED_(DD)
  6
Continuous
 62
     7
100
AcDbLine
 10
157.7465464307
 20
624.3372206941
 30
0.0
 11
158.0257155267
 21
627.8844003838
 31
0.0
  0
LINE
  5
DF
330
B0
100
AcDbEntity
  8
$DDT_AUDIT_GENERATED_(DD)
  6
Continuous
 62
     7
100
AcDbLine
 10
157.7465464307
 20
624.3372206941
 30
0.0
 11
157.7526173604
 21
624.3367429016
 31
0.0
  0
ELLIPSE
  5
E0
330
B0
100
AcDbEntity
  8
$DDT_AUDIT_GENERATED_(8E)
  6
Continuous
 62
     7
100
AcDbEllipse
 10
207.3971783016
 20
640.9378742424
 30
0.0
 11
0.4079999881741979
 21
-3.045095564591094E-7
 31
0.0
210
0.0
220
0.0
230
1.0
 40
0.9842932026
 41
0.0174404049407875
 42
0.876762436857325
  0
SPLINE
  5
E1
330
B0
100
AcDbEntity
  8
$DDT_AUDIT_GENERATED_(8E)
  6
Continuous
 62
     7
100
AcDbSpline
210
0.0
220
0.0
230
1.0
 70
     8
 71
     3
 72
     9
 73
     5
 74
     0
 42
0.0000000027457119
 43
0.0000000001
 40
0.0
 40
0.0
 40
0.0
 40
0.0
 40
0.0157014314077876
 40
0.031331990596584
 40
0.031331990596584
 40
0.031331990596584
 40
0.031331990596584
 10
205.8125263444042
 20
642.5481616062825
 30
0.0
 10
205.8070883248318
 20
642.5472700918455
 30
0.0
 10
205.7962368315073
 20
642.5454910870332
 30
0.0
 10
205.7379113872019
 20
642.5359788202421
 30
0.0
 10
205.6999039024761
 20
642.5297813217496
 30
0.0
  0
SPLINE
  5
E2
330
B0
100
AcDbEntity
  8
$DDT_AUDIT_GENERATED_(8E)
  6
Continuous
 62
     7
100
AcDbSpline
210
0.0
220
0.0
230
1.0
 70
     8
 71
     3
 72
    34
 73
    30
 74
     0
 42
0.0000000002113394
 43
0.0000000001
 40
0.0
 40
0.0
 40
0.0
 40
0.0
 40
0.0156960728591194
 40
0.0313833631380045
 40
0.0626300512654207
 40
0.0938807759401517
 40
0.1252632969745395
 40
0.1875632019009283
 40
0.2498154791402045
 40
0.3120512954528896
 40
0.3743418542363775
 40
0.4056995966761481
 40
0.4369420107740716
 40
0.4994406972242162
 40
0.5307963750440517
 40
0.5620683017404935
 40
0.593343803424203
 40
0.6247103092594528
 40
0.6869654714248817
 40
0.7492050229526712
 40
0.7806794758457977
 40
0.812163880724871
 40
0.8433928318618368
 40
0.8746233159691358
 40
0.9060210880603512
 40
0.9373118944175045
 40
0.9685993831917815
 40
0.984300384797001
 40
0.9843453967535889
 40
0.9843453967535889
 40
0.9843453967535889
 40
0.9843453967535889
 10
159.8246771113418
 20
634.9888725371014
 30
0.0
 10
159.8301281038895
 20
634.9897709066914
 30
0.0
 10
159.8410254940483
 20
634.9915721100867
 30
0.0
 10
159.9576458472729
 20
635.0108844721169
 30
0.0
 10
160.236855766369
 20
635.057160766411
 30
0.0
 10
160.7962778897017
 20
635.1497594155254
 30
0.0
 10
161.8242779693122
 20
635.3191355435697
 30
0.0
 10
163.6223953323345
 20
635.6131687251681
 30
0.0
 10
166.5078349880114
 20
636.0873685394014
 30
0.0
 10
170.0055481431471
 20
636.6625118351818
 30
0.0
 10
173.325458041251
 20
637.2097762360696
 30
0.0
 10
176.1430122392586
 20
637.6725813174653
 30
0.0
 10
179.0474216178855
 20
638.1492146833496
 30
0.0
 10
182.0434316637373
 20
638.6412936674706
 30
0.0
 10
185.0324068721545
 20
639.1327996877833
 30
0.0
 10
187.2559822429785
 20
639.4987558368767
 30
0.0
 10
189.4384308890248
 20
639.8580462304852
 30
0.0
 10
192.2584206980994
 20
640.3218910148918
 30
0.0
 10
195.5822738393146
 20
640.8667157175563
 30
0.0
 10
198.510541402044
 20
641.3477735826167
 30
0.0
 10
200.5487757309978
 20
641.6828802740702
 30
0.0
 10
201.9117815007615
 20
641.9071721893168
 30
0.0
 10
203.0881416742512
 20
642.1009014970313
 30
0.0
 10
204.0651463064237
 20
642.2623205457213
 30
0.0
 10
204.8392563212997
 20
642.3892510959621
 30
0.0
 10
205.3993075033588
 20
642.4807765396448
 30
0.0
 10
205.6792677675683
 20
642.5264188429368
 30
0.0
 10
205.7670037371015
 20
642.540725338502
 30
0.0
 10
205.7843832397234
 20
642.5435615082646
 30
0.0
 10
205.7844328234909
 20
642.543569599895
 30
0.0
  0
ARC
  5
E3
330
B0
100
AcDbEntity
  8
$DDT_AUDIT_GENERATED_(8E)
  6
Continuous
 62
     7
100
AcDbCircle
 10
-1954.4094963292
 20
13594.986678237
 30
0.0
 40
13132.93262785698
100
AcDbArc
 50
279.4736347789
 51
279.4755033223
  0
LINE
  5
E4
330
B0
100
AcDbEntity
  8
$DDT_AUDIT_GENERATED_(8E)
  6
Continuous
 62
     7
100
AcDbLine
 10
207.6581529159
 20
641.246566288
 30
0.0
 11
206.2531039796
 21
642.3974017794
 31
0.0
  0
LINE
  5
E5
330
B0
100
AcDbEntity
  8
$DDT_AUDIT_GENERATED_(8E)
  6
Continuous
 62
     7
100
AcDbLine
 10
159.522327883
 20
634.7927357472
 30
0.0
 11
158.0014422143
 21
633.0562831685
 31
0.0
  0
LINE
  5
E6
330
B0
100
AcDbEntity
  8
$DDT_AUDIT_GENERATED_(8E)
  6
Continuous
 62
     7
100
AcDbLine
 10
158.0014474332
 20
633.0562865487
 30
0.0
 11
158.0014815106
 21
633.0562946664
 31
0.0
  0
ELLIPSE
  5
E7
330
B0
100
AcDbEntity
  8
$DDT_AUDIT_GENERATED_(8E)
  6
Continuous
 62
     7
100
AcDbEllipse
 10
160.0250574837
 20
634.3667791663
 30
0.0
 11
-0.6631666339274866
 21
0.01410561763814933
 31
0.0
210
0.0
220
0.0
230
1.0
 40
0.9835910716
 41
5.040192163187299
 42
5.593426108404587
  0
ELLIPSE
  5
E8
330
B0
100
AcDbEntity
  8
$DDT_AUDIT_GENERATED_(8E)
  6
Continuous
 62
     7
100
AcDbEllipse
 10
205.8290202225
 20
641.8957772051
 30
0.0
 11
0.662999994071059
 21
-4.554416566104891E-7
 31
0.0
210
0.0
220
0.0
230
1.0
 40
0.9842931822
 41
0.8767623777590939
 42
1.595677214232248
  0
SPLINE
  5
E9
330
B0
100
AcDbEntity
  8
$DDT_AUDIT_GENERATED_(8E)
  6
Continuous
 62
     7
100
AcDbSpline
210
0.0
220
0.0
230
1.0
 70
    12
 71
     3
 72
    23
 73
    19
 74
     0
 42
0.0000000001948016
 43
0.0000000001
 40
0.0
 40
0.0
 40
0.0
 40
0.0
 40
0.0633942640808933
 40
0.1267906502975467
 40
0.1901117087563234
 40
0.2548185500529221
 40
0.3193860483751738
 40
0.3824199689038904
 40
0.4452669703914912
 40
0.5079288628988569
 40
0.5702741454226689
 40
0.6324026445815569
 40
0.6944488642058785
 40
0.7567465519393306
 40
0.8190452027784549
 40
0.8807148923454429
 40
0.9423111372501602
 40
0.9843693570075848
 40
0.9843693570075848
 40
0.9843693570075848
 40
0.9843693570075848
 10
157.9025667842728
 20
632.8010698771304
 30
0.0
 41
1.0
 10
157.9025293394309
 20
632.8010683562329
 30
0.0
 41
1.0
 10
158.2382951469353
 20
632.855176832126
 30
0.0
 41
1.0
 10
159.7262627427098
 20
633.0951041527666
 30
0.0
 41
1.0
 10
162.149373489711
 20
633.4861597146864
 30
0.0
 41
1.0
 10
165.421974269208
 20
634.0150920460845
 30
0.0
 41
1.0
 10
169.3893745824832
 20
634.657482090582
 30
0.0
 41
1.0
 10
173.8396175028874
 20
635.3795573455214
 30
0.0
 41
1.0
 10
178.5837345342159
 20
636.1510865633585
 30
0.0
 41
1.0
 10
183.468569398454
 20
636.9474281374254
 30
0.0
 41
1.0
 10
188.311551380154
 20
637.7388801954445
 30
0.0
 41
1.0
 10
192.9385425276212
 20
638.4968755743306
 30
0.0
 41
1.0
 10
197.1939113806114
 20
639.1955971118215
 30
0.0
 41
1.0
 10
200.920830810976
 20
639.8088546601784
 30
0.0
 41
1.0
 10
203.9619870376206
 20
640.3101582210195
 30
0.0
 41
1.0
 10
206.1973967006712
 20
640.6791915912431
 30
0.0
 41
1.0
 10
207.4038255925264
 20
640.8785449662963
 30
0.0
 41
1.0
 10
207.7198784257588
 20
640.9307867100144
 30
0.0
 41
1.0
 10
207.7746079860184
 20
640.9398338920885
 30
0.0
 41
1.0
  0
LINE
  5
EA
330
B0
100
AcDbEntity
  8
$DDT_AUDIT_GENERATED_(8E)
  6
Continuous
 62
     7
100
AcDbLine
 10
157.902603182
 20
632.8010692322
 30
0.0
 11
157.8697660302
 21
630.9479316113
 31
0.0
  0
LINE
  5
EB
330
B0
100
AcDbEntity
  8
$DDT_AUDIT_GENERATED_(8E)
  6
Continuous
 62
     7
100
AcDbLine
 10
275.3842457814
 20
640.7616178989
 30
0.0
 11
275.3842457814
 21
645.6356636628
 31
0.0
  0
LINE
  5
EC
330
B0
100
AcDbEntity
  8
$DDT_AUDIT_GENERATED_(8E)
  6
Continuous
 62
     7
100
AcDbLine
 10
275.3842457814
 20
640.7616178989
 30
0.0
 11
275.3842457814
 21
635.8875721351
 31
0.0
  0
LINE
  5
ED
330
B0
100
AcDbEntity
  8
$DDT_AUDIT_GENERATED_(8E)
  6
Continuous
 62
     7
100
AcDbLine
 10
207.903493848
 20
635.3930185678
 30
0.0
 11
207.8051162464
 21
640.9448775033
 31
0.0
  0
ARC
  5
EE
330
B0
100
AcDbEntity
  8
$DDT_AUDIT_GENERATED_(8E)
  6
Continuous
 62
     7
100
AcDbCircle
 10
236.4791385454
 20
629.3842331679
 30
0.0
 40
29.20056458105593
100
AcDbArc
 50
168.1250507885
 51
180.7852375237
  0
ARC
  5
EF
330
B0
100
AcDbEntity
  8
$DDT_AUDIT_GENERATED_(8E)
  6
Continuous
 62
     7
100
AcDbCircle
 10
233.678670534
 20
629.4837329085
 30
0.0
 40
26.4020831401591
100
AcDbArc
 50
181.0844328333
 51
194.5722608342
  0
ARC
  5
F0
330
B0
100
AcDbEntity
  8
$DDT_AUDIT_GENERATED_(8E)
  6
Continuous
 62
     7
100
AcDbCircle
 10
208.6033839777
 20
635.4054204522
 30
0.0
 40
0.7000000003150126
100
AcDbArc
 50
181.015161156
 51
280.0000030413
  0
ARC
  5
F1
330
B0
100
AcDbEntity
  8
$DDT_AUDIT_GENERATED_(8E)
  6
Continuous
 62
     7
100
AcDbCircle
 10
208.8258036571
 20
622.8533489664
 30
0.0
 40
0.6999999989775887
100
AcDbArc
 50
100.0000030413
 51
181.0151611559
  0
LINE
  5
F2
330
B0
100
AcDbEntity
  8
$DDT_AUDIT_GENERATED_(8E)
  6
Continuous
 62
     7
100
AcDbLine
 10
157.7471623665
 20
624.0288948124
 30
0.0
 11
157.7170493735
 21
622.3294928501
 31
0.0
  0
LINE
  5
F3
330
B0
100
AcDbEntity
  8
$DDT_AUDIT_GENERATED_(8E)
  6
Continuous
 62
     7
100
AcDbLine
 10
208.4401258926
 20
605.1086310336
 30
0.0
 11
208.125913528
 21
622.8409470821
 31
0.0
  0
LINE
  5
F4
330
B0
100
AcDbEntity
  8
$DDT_AUDIT_GENERATED_(8E)
  6
Continuous
 62
     7
100
AcDbLine
 10
185.1756348111
 20
605.0570395419
 30
0.0
 11
157.8110341291
 21
622.1563398353
 31
0.0
  0
LINE
  5
F5
330
B0
100
AcDbEntity
  8
$DDT_AUDIT_GENERATED_(8E)
  6
Continuous
 62
     7
100
AcDbLine
 10
208.2401572842
 20
604.9050876381
 30
0.0
 11
185.7055540754
 21
604.9050876381
 31
0.0
  0
ARC
  5
F6
330
B0
100
AcDbEntity
  8
$DDT_AUDIT_GENERATED_(8E)
  6
Continuous
 62
     7
100
AcDbCircle
 10
185.7053517024
 20
605.9043818798
 30
0.0
 40
0.9992942622370534
100
AcDbArc
 50
237.9883966967
 51
270.0116033034
  0
ARC
  5
F7
330
B0
100
AcDbEntity
  8
$DDT_AUDIT_GENERATED_(8E)
  6
Continuous
 62
     7
100
AcDbCircle
 10
208.2401572842
 20
605.1050876381
 30
0.0
 40
0.1999999999999187
100
AcDbArc
 50
270.0000000001
 51
1.0151611559
  0
ARC
  5
F8
330
B0
100
AcDbEntity
  8
$DDT_AUDIT_GENERATED_(8E)
  6
Continuous
 62
     7
100
AcDbCircle
 10
157.9170179819
 20
622.3259494546
 30
0.0
 40
0.2000000000000061
100
AcDbArc
 50
178.9848388441
 51
238.0
  0
LINE
  5
F9
330
B0
100
AcDbEntity
  8
$DDT_AUDIT_GENERATED_(8E)
  6
Continuous
 62
     7
100
AcDbLine
 10
157.7471623665
 20
624.0288948124
 30
0.0
 11
157.7526173604
 21
624.3367429015
 31
0.0
  0
ARC
  5
FA
330
B0
100
AcDbEntity
  8
$DDT_AUDIT_GENERATED_(8E)
  6
Continuous
 62
     7
100
AcDbCircle
 10
132.7972708002
 20
628.1356783921
 30
0.0
 40
25.2297202764585
100
AcDbArc
 50
6.3524645558
 51
6.3998245879
  0
ARC
  5
FB
330
B0
100
AcDbEntity
  8
$DDT_AUDIT_GENERATED_(8E)
  6
Continuous
 62
     7
100
AcDbCircle
 10
132.7972117567
 20
628.1356794384
 30
0.0
 40
25.22977883534199
100
AcDbArc
 50
351.5698704073
 51
6.3998072808
  0
ARC
  5
FC
330
B0
100
AcDbEntity
  8
$DDT_AUDIT_GENERATED_(8E)
  6
Continuous
 62
     7
100
AcDbCircle
 10
158.1833666598
 20
632.82987758
 30
0.0
 40
0.2765871653954918
100
AcDbArc
 50
139.493694453
 51
153.2985953892
  0
ARC
  5
FD
330
B0
100
AcDbEntity
  8
$DDT_AUDIT_GENERATED_(8E)
  6
Continuous
 62
     7
100
AcDbCircle
 10
209.9045462839
 20
474.0161516219
 30
0.0
 40
168.5781649505001
100
AcDbArc
 50
91.3908778588
 51
107.2813538593
  0
LINE
  5
FE
330
B0
100
AcDbEntity
  8
$DDT_AUDIT_GENERATED_(8E)
  6
Continuous
 62
     7
100
AcDbLine
 10
207.2320578195
 20
641.1292717348
 30
0.0
 11
205.7227599643
 21
642.3866849109
 31
0.0
  0
ARC
  5
FF
330
B0
100
AcDbEntity
  8
$DDT_AUDIT_GENERATED_(8E)
  6
Continuous
 62
     7
100
AcDbCircle
 10
205.8000196355
 20
641.8719731136
 30
0.0
 40
0.671783585860009
100
AcDbArc
 50
50.8280001764
 51
91.3404480725
  0
LINE
  5
100
330
B0
100
AcDbEntity
  8
$DDT_AUDIT_GENERATED_(8E)
  6
Continuous
 62
     7
100
AcDbLine
 10
158.247942017
 20
632.8641165182
 30
0.0
 11
158.0595905829
 21
622.089598476
 31
0.0
  0
LINE
  5
101
330
B0
100
AcDbEntity
  8
$DDT_AUDIT_GENERATED_(8E)
  6
Continuous
 62
     7
100
AcDbLine
 10
157.9291898815
 20
632.8267352425
 30
0.0
 11
157.9330698676
 21
632.805991155
 31
0.0
  0
ARC
  5
102
330
B0
100
AcDbEntity
  8
$DDT_AUDIT_GENERATED_(8E)
  6
Continuous
 62
     7
100
AcDbCircle
 10
158.082834568
 20
632.8821017144
 30
0.0
 40
0.163316061341725
100
AcDbArc
 50
153.818454809
 51
199.816828211
  0
ARC
  5
103
330
B0
100
AcDbEntity
  8
$DDT_AUDIT_GENERATED_(8E)
  6
Continuous
 62
     7
100
AcDbCircle
 10
207.3750473361
 20
640.9318657101
 30
0.0
 40
0.399640108320453
100
AcDbArc
 50
1.1424618662
 51
50.7821757375
  0
ARC
  5
104
330
B0
100
AcDbEntity
  8
$DDT_AUDIT_GENERATED_(8E)
  6
Continuous
 62
     7
100
AcDbCircle
 10
160.1338890533
 20
634.3770799093
 30
0.0
 40
0.6604334404480086
100
AcDbArc
 50
112.2780236879
 51
138.8678977082
  0
LINE
  5
105
330
B0
100
AcDbEntity
  8
$DDT_AUDIT_GENERATED_(8E)
  6
Continuous
 62
     7
100
AcDbLine
 10
208.7042530447
 20
623.5427149334
 30
0.0
 11
274.816783319
 21
635.200141432
 31
0.0
  0
LINE
  5
106
330
B0
100
AcDbEntity
  8
$DDT_AUDIT_GENERATED_(8E)
  6
Continuous
 62
     7
100
AcDbLine
 10
274.5517082438
 20
646.3230943659
 30
0.0
 11
208.7249279161
 21
634.7160533083
 31
0.0
  0
ARC
  5
107
330
B0
100
AcDbEntity
  8
$DDT_AUDIT_GENERATED_(8E)
  6
Continuous
 62
     7
100
AcDbCircle
 10
274.6842457398
 20
645.6356649391
 30
0.0
 40
0.6999998858724221
100
AcDbArc
 50
0.0
 51
100.8874138721
  0
ARC
  5
108
330
B0
100
AcDbEntity
  8
$DDT_AUDIT_GENERATED_(8E)
  6
Continuous
 62
     7
100
AcDbCircle
 10
274.684245823
 20
635.8875708588
 30
0.0
 40
0.6999999584126027
100
AcDbArc
 50
280.8874138721
 51
0.0
  0
ENDBLK
  5
10A
330
B0
100
AcDbEntity
  8
0
100
AcDbBlockEnd
  0
BLOCK
  5
136
330
10B
100
AcDbEntity
  8
0
100
AcDbBlockBegin
  2
SE2
 70
     0
 10
0.0
 20
0.0
 30
0.0
  3
SE2
  1

  0
SPLINE
  5
10D
330
10B
100
AcDbEntity
  8
$DDT_AUDIT_GENERATED_(84)
  6
Continuous
 62
     7
100
AcDbSpline
210
0.0
220
0.0
230
1.0
 70
    12
 71
     3
 72
     8
 73
     4
 74
     0
 42
0.000000001048945
 43
0.0000000001
 40
0.0
 40
0.0
 40
0.0
 40
0.0
 40
1.0
 40
1.0
 40
1.0
 40
1.0
 10
74.48977336366085
 20
314.1558589749954
 30
0.0
 41
1.0
 10
72.38534158956894
 20
311.9835452470032
 30
0.0
 41
1.0
 10
70.67547634175615
 20
308.9475336092973
 30
0.0
 41
1.0
 10
70.67547634175615
 20
305.9230369524982
 30
0.0
 41
1.0
  0
ARC
  5
10E
330
10B
100
AcDbEntity
  8
$DDT_AUDIT_GENERATED_(84)
  6
Continuous
 62
     7
100
AcDbCircle
 10
69.4232513492
 20
110.0128052543
 30
0.0
 40
1.255470783220231
100
AcDbArc
 50
335.6672510832
 51
351.6325126359
  0
SPLINE
  5
10F
330
10B
100
AcDbEntity
  8
$DDT_AUDIT_GENERATED_(84)
  6
Continuous
 62
     7
100
AcDbSpline
210
0.0
220
0.0
230
1.0
 70
     8
 71
     3
 72
    16
 73
    12
 74
     0
 42
0.000000000124281
 43
0.0000000001
 40
0.0
 40
0.0
 40
0.0
 40
0.0
 40
0.0563698805232472
 40
0.1180171114602793
 40
0.1822733084408214
 40
0.2458800172306976
 40
0.3095689021116776
 40
0.3740717950856854
 40
0.4361016991626091
 40
0.4999999999999938
 40
0.5259340732349806
 40
0.5259340732349806
 40
0.5259340732349806
 40
0.5259340732349806
 10
56.17466820422707
 20
357.3986879545484
 30
0.0
 10
54.66940414878168
 20
357.3987540184291
 30
0.0
 10
51.51791486138239
 20
357.1188634604867
 30
0.0
 10
46.81003030270818
 20
355.7962152066363
 30
0.0
 10
42.27898887404575
 20
353.4848985132289
 30
0.0
 10
38.25775998923005
 20
350.282367151807
 30
0.0
 10
34.94837491202235
 20
346.3397920367225
 30
0.0
 10
32.51429341773775
 20
341.8516110598368
 30
0.0
 10
31.01328954237075
 20
336.9676663928018
 30
0.0
 10
30.60489531176588
 20
332.912455211701
 30
0.0
 10
30.7028700555304
 20
330.513603773849
 30
0.0
 10
30.75924372368088
 20
329.8233624281497
 30
0.0
  0
SPLINE
  5
110
330
10B
100
AcDbEntity
  8
$DDT_AUDIT_GENERATED_(84)
  6
Continuous
 62
     7
100
AcDbSpline
210
0.0
220
0.0
230
1.0
 70
     8
 71
     3
 72
     9
 73
     5
 74
     0
 42
0.0000000001246958
 43
0.0000000001
 40
0.0694476510143599
 40
0.0694476510143599
 40
0.0694476510143599
 40
0.0694476510143599
 40
0.1180171114602811
 40
0.1324719096045406
 40
0.1324719096045406
 40
0.1324719096045406
 40
0.1324719096045406
 10
61.69410645628691
 20
307.003159463384
 30
0.0
 10
62.96031917151587
 20
307.2839612026448
 30
0.0
 10
64.57559695553272
 20
307.7736594728559
 30
0.0
 10
66.13030804914798
 20
308.4191765100246
 30
0.0
 10
66.48334436671358
 20
308.5752430352647
 30
0.0
  0
SPLINE
  5
111
330
10B
100
AcDbEntity
  8
$DDT_AUDIT_GENERATED_(84)
  6
Continuous
 62
     7
100
AcDbSpline
210
0.0
220
0.0
230
1.0
 70
     8
 71
     3
 72
    17
 73
    13
 74
     0
 42
0.0000000001242755
 43
0.0000000001
 40
0.4255127620992648
 40
0.4255127620992648
 40
0.4255127620992648
 40
0.4255127620992648
 40
0.4361016991626103
 40
0.5
 40
0.556369880523247
 40
0.6180171114602805
 40
0.6822733084408227
 40
0.7458800172306987
 40
0.8095689021116725
 40
0.8740717950856816
 40
0.9361016991626102
 40
1.0
 40
1.0
 40
1.0
 40
1.0
 10
80.97966862571869
 20
325.985720703468
 30
0.0
 10
81.04524920473924
 20
326.2607719405639
 30
0.0
 10
81.47436978208269
 20
328.2032746006429
 30
0.0
 10
81.82628301696695
 20
331.6975839358151
 30
0.0
 10
81.39488032610184
 20
336.5553884556089
 30
0.0
 10
80.07224028245595
 20
341.2632966870646
 30
0.0
 10
77.76089317104955
 20
345.7943008236798
 30
0.0
 10
74.55838659954584
 20
349.8155527386774
 30
0.0
 10
70.61579775181936
 20
353.1249484766477
 30
0.0
 10
66.12761764166463
 20
355.5589785538629
 30
0.0
 10
61.24368225181824
 20
357.0600255722883
 30
0.0
 10
57.8809843882913
 20
357.3986953823204
 30
0.0
 10
56.17466820422707
 20
357.3986879545484
 30
0.0
  0
SPLINE
  5
112
330
10B
100
AcDbEntity
  8
$DDT_AUDIT_GENERATED_(84)
  6
Continuous
 62
     7
100
AcDbSpline
210
0.0
220
0.0
230
1.0
 70
     8
 71
     3
 72
     8
 73
     4
 74
     0
 42
0.0000000011821008
 43
0.0000000001
 40
0.9683901900286443
 40
0.9683901900286443
 40
0.9683901900286443
 40
0.9683901900286443
 40
1.0
 40
1.0
 40
1.0
 40
1.0
 10
70.60279269558765
 20
109.6675301643174
 30
0.0
 10
70.64394321730474
 20
109.7523913300386
 30
0.0
 10
70.65970977953046
 20
109.8374888532618
 30
0.0
 10
70.67547634175615
 20
109.9225863237255
 30
0.0
  0
LINE
  5
113
330
10B
100
AcDbEntity
  8
$DDT_AUDIT_GENERATED_(84)
  6
Continuous
 62
     7
100
AcDbLine
 10
41.6754763418
 20
305.9255871386
 30
0.0
 11
41.6754763418
 21
109.9232696459
 31
0.0
  0
LINE
  5
114
330
10B
100
AcDbEntity
  8
$DDT_AUDIT_GENERATED_(84)
  6
Continuous
 62
     7
100
AcDbLine
 10
70.6754763418
 20
109.9225864927
 30
0.0
 11
70.6754763418
 21
305.9255871386
 31
0.0
  0
ARC
  5
115
330
10B
100
AcDbEntity
  8
$DDT_AUDIT_GENERATED_(84)
  6
Continuous
 62
     7
100
AcDbCircle
 10
55.477290794
 20
329.818831562
 30
0.0
 40
23.33167495745333
100
AcDbArc
 50
242.3539954456
 51
258.0841826801
  0
LINE
  5
116
330
10B
100
AcDbEntity
  8
$DDT_AUDIT_GENERATED_(84)
  6
Continuous
 62
     7
100
AcDbLine
 10
42.7301439792
 20
310.2308046422
 30
0.0
 11
42.6904138956
 21
310.2557773865
 31
0.0
  0
ARC
  5
117
330
10B
100
AcDbEntity
  8
$DDT_AUDIT_GENERATED_(84)
  6
Continuous
 62
     7
100
AcDbCircle
 10
54.2553282173
 20
329.730859611
 30
0.0
 40
22.60565877945094
100
AcDbArc
 50
226.7986179947
 51
229.9373204312
  0
LINE
  5
118
330
10B
100
AcDbEntity
  8
$DDT_AUDIT_GENERATED_(84)
  6
Continuous
 62
     7
100
AcDbLine
 10
39.771868338
 20
312.3743175145
 30
0.0
 11
39.7485048496
 21
312.3939658687
 31
0.0
  0
ARC
  5
119
330
10B
100
AcDbEntity
  8
$DDT_AUDIT_GENERATED_(84)
  6
Continuous
 62
     7
100
AcDbCircle
 10
29.3468408352
 20
305.2001755444
 30
0.0
 40
12.34974190263613
100
AcDbArc
 50
3.350337475
 51
45.4050278736
  0
ARC
  5
11A
330
10B
100
AcDbEntity
  8
$DDT_AUDIT_GENERATED_(84)
  6
Continuous
 62
     7
100
AcDbCircle
 10
42.8002982285
 20
109.8817720842
 30
0.0
 40
1.120452373650639
100
AcDbArc
 50
179.3851160809
 51
182.7341526239
  0
ARC
  5
11B
330
10B
100
AcDbEntity
  8
$DDT_AUDIT_GENERATED_(84)
  6
Continuous
 62
     7
100
AcDbCircle
 10
69.5520638291
 20
109.8809801699
 30
0.0
 40
1.119035230862587
100
AcDbArc
 50
357.3078794712
 51
0.483799359
  0
SPLINE
  5
11C
330
10B
100
AcDbEntity
  8
$DDT_AUDIT_GENERATED_(84)
  6
Continuous
 62
     7
100
AcDbSpline
210
0.0
220
0.0
230
1.0
 70
     8
 71
     3
 72
    48
 73
    44
 74
     0
 42
0.0000000003227301
 43
0.0000000001
 40
0.0
 40
0.0
 40
0.0
 40
0.0
 40
0.0225108640713505
 40
0.0417908941632836
 40
0.0578300728405486
 40
0.0734753111091185
 40
0.0841300728083366
 40
0.0905391750899147
 40
0.0969686012095287
 40
0.1086667348949909
 40
0.1223144077608121
 40
0.1467034126868662
 40
0.1755624308173248
 40
0.2083479074556338
 40
0.2414121612340881
 40
0.2740869935319803
 40
0.3063773700756359
 40
0.3382911481951072
 40
0.3698337295353092
 40
0.4010120195835291
 40
0.431834001482636
 40
0.4624074650816686
 40
0.4932780495120969
 40
0.5245272328487279
 40
0.5561598935750794
 40
0.58817987335797
 40
0.6205914313678992
 40
0.6533994121181977
 40
0.6866080016583568
 40
0.7202217281189379
 40
0.7536078124249701
 40
0.7856651214287177
 40
0.8163835827420947
 40
0.8457700997785665
 40
0.8738312992750179
 40
0.8918068427501856
 40
0.9091961567472097
 40
0.927021806654104
 40
0.9422852795135891
 40
0.9595056165086323
 40
0.9721444582839397
 40
0.9856743768883601
 40
1.0
 40
1.0
 40
1.0
 40
1.0
 10
41.69751735966634
 20
109.7334585757644
 30
0.0
 10
41.72650039915433
 20
109.589164893098
 30
0.0
 10
41.77533669731993
 20
109.3644186324126
 30
0.0
 10
41.95235179597738
 20
109.0368851424531
 30
0.0
 10
42.15543516705089
 20
108.7713140339394
 30
0.0
 10
42.3581913850123
 20
108.5674163577218
 30
0.0
 10
42.53367840681577
 20
108.4227794945813
 30
0.0
 10
42.64952770949503
 20
108.3377300064942
 30
0.0
 10
42.76739432711647
 20
108.2574630583454
 30
0.0
 10
42.9249651997365
 20
108.1604641562363
 30
0.0
 10
43.18566316221198
 20
108.0195586574573
 30
0.0
 10
43.57324053276566
 20
107.844211233912
 30
0.0
 10
44.14738040278563
 20
107.6360185388878
 30
0.0
 10
44.87856841247034
 20
107.4251559547814
 30
0.0
 10
45.75544778093047
 20
107.2206833704842
 30
0.0
 10
46.73421960147385
 20
107.0346639138534
 30
0.0
 10
47.7961602895795
 20
106.8693712973681
 30
0.0
 10
48.92888682978526
 20
106.7259212241776
 30
0.0
 10
50.11879018105734
 20
106.6050656348281
 30
0.0
 10
51.35323040582342
 20
106.507641869433
 30
0.0
 10
52.62027286785406
 20
106.4336381640322
 30
0.0
 10
53.91640996955731
 20
106.3827104593356
 30
0.0
 10
55.24034857576623
 20
106.3546384507568
 30
0.0
 10
56.58865709644977
 20
106.3499999999999
 30
0.0
 10
57.94949129329976
 20
106.3697932733344
 30
0.0
 10
59.30891237632293
 20
106.4146682083157
 30
0.0
 10
60.65220367872852
 20
106.4851246448358
 30
0.0
 10
61.96405623181479
 20
106.5813628298208
 30
0.0
 10
63.22888873212173
 20
106.7032816394746
 30
0.0
 10
64.42304041544729
 20
106.8489150065336
 30
0.0
 10
65.51458824357918
 20
107.0142429389023
 30
0.0
 10
66.4827095961696
 20
107.1950236695784
 30
0.0
 10
67.3192162081234
 20
107.3855264503152
 30
0.0
 10
68.03052229337685
 20
107.5832433769378
 30
0.0
 10
68.56234006787885
 20
107.7641421788032
 30
0.0
 10
68.959230429357
 20
107.9259745839828
 30
0.0
 10
69.2502178105035
 20
108.063025731025
 30
0.0
 10
69.52090961089812
 20
108.2134633140348
 30
0.0
 10
69.84176142891188
 20
108.4403167156137
 30
0.0
 10
70.11895797565997
 20
108.7011139369
 30
0.0
 10
70.34949216123584
 20
108.998815238793
 30
0.0
 10
70.52698883379108
 20
109.3178824081938
 30
0.0
 10
70.57679147943239
 20
109.5347161524899
 30
0.0
 10
70.60571794526888
 20
109.6675504959155
 30
0.0
  0
LINE
  5
11D
330
10B
100
AcDbEntity
  8
$DDT_AUDIT_GENERATED_(DB)
  6
Continuous
 62
     7
100
AcDbLine
 10
58.7746596901
 20
357.3486715976
 30
0.0
 11
57.4558962344
 21
357.3486715976
 31
0.0
  0
LINE
  5
11E
330
10B
100
AcDbEntity
  8
$DDT_AUDIT_GENERATED_(DB)
  6
Continuous
 62
     7
100
AcDbLine
 10
54.8905582325
 20
357.3486715976
 30
0.0
 11
53.5746596901
 21
357.3486715976
 31
0.0
  0
ARC
  5
11F
330
10B
100
AcDbEntity
  8
$DDT_AUDIT_GENERATED_(DB)
  6
Continuous
 62
     7
100
AcDbCircle
 10
53.5746596901
 20
357.0486715976
 30
0.0
 40
0.3000000000000017
100
AcDbArc
 50
90.0
 51
144.2574676568
  0
ARC
  5
120
330
10B
100
AcDbEntity
  8
$DDT_AUDIT_GENERATED_(DB)
  6
Continuous
 62
     7
100
AcDbCircle
 10
58.7746596901
 20
357.0486715976
 30
0.0
 40
0.2999999999999999
100
AcDbArc
 50
35.8667871564
 51
90.0
  0
ELLIPSE
  5
121
330
10B
100
AcDbEntity
  8
$DDT_AUDIT_GENERATED_(DD)
  6
Continuous
 62
     7
100
AcDbEllipse
 10
56.1746596901
 20
356.8465624812
 30
0.0
 11
3.350000000000001
 21
0.0
 31
0.0
210
0.0
220
0.0
230
1.0
 40
0.0784590957
 41
0.0
 42
3.365609759204093
  0
LINE
  5
122
330
10B
100
AcDbEntity
  8
$DDT_AUDIT_GENERATED_(8E)
  6
Continuous
 62
     7
100
AcDbLine
 10
60.9743326414
 20
239.4717011012
 30
0.0
 11
51.3743326414
 21
239.4717011012
 31
0.0
  0
LINE
  5
123
330
10B
100
AcDbEntity
  8
$DDT_AUDIT_GENERATED_(8E)
  6
Continuous
 62
     7
100
AcDbLine
 10
61.6743326414
 20
240.1717011012
 30
0.0
 11
61.6743326414
 21
306.8950983886
 31
0.0
  0
ARC
  5
124
330
10B
100
AcDbEntity
  8
$DDT_AUDIT_GENERATED_(8E)
  6
Continuous
 62
     7
100
AcDbCircle
 10
60.9743326414
 20
240.1717011012
 30
0.0
 40
0.7000000000000001
100
AcDbArc
 50
270.0
 51
0.0
  0
ARC
  5
125
330
10B
100
AcDbEntity
  8
$DDT_AUDIT_GENERATED_(8E)
  6
Continuous
 62
     7
100
AcDbCircle
 10
51.3743326414
 20
240.1717011012
 30
0.0
 40
0.7000000000000062
100
AcDbArc
 50
180.0
 51
270.0
  0
LINE
  5
126
330
10B
100
AcDbEntity
  8
$DDT_AUDIT_GENERATED_(8E)
  6
Continuous
 62
     7
100
AcDbLine
 10
50.6743326414
 20
306.8952598325
 30
0.0
 11
50.6743326414
 21
240.1717011012
 31
0.0
  0
ARC
  5
127
330
10B
100
AcDbEntity
  8
$DDT_AUDIT_GENERATED_(8E)
  6
Continuous
 62
     7
100
AcDbCircle
 10
56.3774460802
 20
327.243854606
 30
0.0
 40
20.51482353459898
100
AcDbArc
 50
286.0737720351
 51
286.1789370369
  0
ARC
  5
128
330
10B
100
AcDbEntity
  8
$DDT_AUDIT_GENERATED_(8E)
  6
Continuous
 62
     7
100
AcDbCircle
 10
56.3518003521
 20
338.1981578506
 30
0.0
 40
31.24620694203027
100
AcDbArc
 50
258.8458799944
 51
269.67517764
  0
ARC
  5
129
330
10B
100
AcDbEntity
  8
$DDT_AUDIT_GENERATED_(8E)
  6
Continuous
 62
     7
100
AcDbCircle
 10
55.9534910638
 20
327.1133034078
 30
0.0
 40
20.38446991274414
100
AcDbArc
 50
253.7927465864
 51
253.8833623727
  0
ELLIPSE
  5
12A
330
10B
100
AcDbEntity
  8
$DDT_AUDIT_GENERATED_(8E)
  6
Continuous
 62
     7
100
AcDbEllipse
 10
49.9743326414
 20
306.8952598325
 30
0.0
 11
0.7000000000001909
 21
-2.174302404789330E-11
 31
0.0
210
0.0
220
0.0
230
1.0
 40
0.9998335235
 41
0.0000000000310666
 42
0.8056078337507769
  0
ELLIPSE
  5
12B
330
10B
100
AcDbEntity
  8
$DDT_AUDIT_GENERATED_(8E)
  6
Continuous
 62
     7
100
AcDbEllipse
 10
62.3743326414
 20
306.8950983886
 30
0.0
 11
0.6999999999997355
 21
-8.895661984809067E-12
 31
0.0
210
0.0
220
0.0
230
1.0
 40
0.9998335256
 41
2.337923079873744
 42
3.141592653589793
  0
ARC
  5
12C
330
10B
100
AcDbEntity
  8
$DDT_AUDIT_GENERATED_(8E)
  6
Continuous
 62
     7
100
AcDbCircle
 10
56.1746289286
 20
331.9298852311
 30
0.0
 40
25.5140642411236
100
AcDbArc
 50
282.5181994258
 51
353.6962019406
  0
ARC
  5
12D
330
10B
100
AcDbEntity
  8
$DDT_AUDIT_GENERATED_(8E)
  6
Continuous
 62
     7
100
AcDbCircle
 10
65.8645050185
 20
330.8628309038
 30
0.0
 40
15.76561382900203
100
AcDbArc
 50
353.684035465
 51
355.2442012777
  0
ARC
  5
12E
330
10B
100
AcDbEntity
  8
$DDT_AUDIT_GENERATED_(8E)
  6
Continuous
 62
     7
100
AcDbCircle
 10
56.175110251
 20
331.6518276781
 30
0.0
 40
25.48706983490128
100
AcDbArc
 50
355.2825489565
 51
82.8943745618
  0
ARC
  5
12F
330
10B
100
AcDbEntity
  8
$DDT_AUDIT_GENERATED_(8E)
  6
Continuous
 62
     7
100
AcDbCircle
 10
56.175110251
 20
331.6518276781
 30
0.0
 40
25.48706983490128
100
AcDbArc
 50
85.6295473969
 51
90.001007345
  0
ARC
  5
130
330
10B
100
AcDbEntity
  8
$DDT_AUDIT_GENERATED_(8E)
  6
Continuous
 62
     7
100
AcDbCircle
 10
56.1742093263
 20
331.6518274967
 30
0.0
 40
25.4870700163675
100
AcDbArc
 50
89.9989820364
 51
94.7150204948
  0
ARC
  5
131
330
10B
100
AcDbEntity
  8
$DDT_AUDIT_GENERATED_(8E)
  6
Continuous
 62
     7
100
AcDbCircle
 10
56.1742093263
 20
331.6518274967
 30
0.0
 40
25.4870700163675
100
AcDbArc
 50
97.3256376873
 51
184.7174506007
  0
ARC
  5
132
330
10B
100
AcDbEntity
  8
$DDT_AUDIT_GENERATED_(8E)
  6
Continuous
 62
     7
100
AcDbCircle
 10
46.4839314184
 20
330.8627453279
 30
0.0
 40
15.76472683055083
100
AcDbArc
 50
184.7557548284
 51
186.3160084289
  0
ARC
  5
133
330
10B
100
AcDbEntity
  8
$DDT_AUDIT_GENERATED_(8E)
  6
Continuous
 62
     7
100
AcDbCircle
 10
56.174693698
 20
331.9298888559
 30
0.0
 40
25.51406786589984
100
AcDbArc
 50
186.3038053496
 51
257.4746444455
  0
SPLINE
  5
134
330
10B
100
AcDbEntity
  8
$DDT_AUDIT_GENERATED_(8E)
  6
Continuous
 62
     7
100
AcDbSpline
210
0.0
220
0.0
230
1.0
 70
     8
 71
     3
 72
    12
 73
     8
 74
     0
 42
0.0000000015310852
 43
0.0000000001
 40
0.0
 40
0.0
 40
0.0
 40
0.0
 40
0.25
 40
0.25
 40
0.5
 40
0.5
 40
0.5006201305875698
 40
0.5006201305875698
 40
0.5006201305875698
 40
0.5006201305875698
 10
56.17465184711674
 20
356.9861808524084
 30
0.0
 10
57.03496676019573
 20
356.9861808155573
 30
0.0
 10
57.87389838405297
 20
356.9420417974114
 30
0.0
 10
59.06861255372647
 20
356.8535895149513
 30
0.0
 10
59.42291472807944
 20
356.8178932308138
 30
0.0
 10
59.4246572249047
 20
356.8329383606113
 30
0.0
 10
59.42465936415942
 20
356.8329758998559
 30
0.0
 10
59.42465933267629
 20
356.8330137501337
 30
0.0
  0
SPLINE
  5
135
330
10B
100
AcDbEntity
  8
$DDT_AUDIT_GENERATED_(8E)
  6
Continuous
 62
     7
100
AcDbSpline
210
0.0
220
0.0
230
1.0
 70
     8
 71
     3
 72
    12
 73
     8
 74
     0
 42
0.0000000015317782
 43
0.0000000001
 40
0.4992113966949779
 40
0.4992113966949779
 40
0.4992113966949779
 40
0.4992113966949779
 40
0.5
 40
0.5
 40
0.75
 40
0.75
 40
1.0
 40
1.0
 40
1.0
 40
1.0
 10
52.9246602147253
 20
356.8330169335225
 30
0.0
 10
52.92465997484116
 20
356.8329686612936
 30
0.0
 10
52.9246632468459
 20
356.8329208919878
 30
0.0
 10
52.92682167944358
 20
356.8178899235338
 30
0.0
 10
53.27707213459747
 20
356.8533227416586
 30
0.0
 10
54.47936882987392
 20
356.942331753973
 30
0.0
 10
55.32288401229084
 20
356.9861808647121
 30
0.0
 10
56.17465184711674
 20
356.9861808524084
 30
0.0
  0
ENDBLK
  5
137
330
10B
100
AcDbEntity
  8
0
100
AcDbBlockEnd
  0
ENDSEC
  0
SECTION
  2
ENTITIES
  0
INSERT
  5
5F
330
1F
100
AcDbEntity
  8
Default
100
AcDbBlockReference
  2
SEANNOT_GROUP
 10
0.0
 20
0.0
 30
0.0
  0
INSERT
  5
66
330
1F
100
AcDbEntity
  8
Default
100
AcDbBlockReference
  2
SEANNOT_GROUP1
 10
0.0
 20
0.0
 30
0.0
  0
INSERT
  5
6C
330
1F
100
AcDbEntity
  8
Default
100
AcDbBlockReference
  2
SEANNOT_GROUP2
 10
0.0
 20
0.0
 30
0.0
  0
INSERT
  5
76
330
1F
100
AcDbEntity
  8
Default
100
AcDbBlockReference
  2
SE
 10
0.0
 20
0.0
 30
0.0
  0
INSERT
  5
B1
330
1F
100
AcDbEntity
  8
Default
100
AcDbBlockReference
  2
SE1
 10
0.0
 20
0.0
 30
0.0
  0
INSERT
  5
10C
330
1F
100
AcDbEntity
  8
Default
100
AcDbBlockReference
  2
SE2
 10
0.0
 20
0.0
 30
0.0
  0
TEXT
  5
139
330
1F
100
AcDbEntity
  8
Default
  6
Continuous
 62
     7
100
AcDbText
 10
5.9362635081
 20
53.4225120485
 30
0.0
 40
10.0
  1
Grohe AG^J
  7
SEACAD_seiso_ttf
 11
5.9362635081
 21
63.4225120485
 31
0.0
100
AcDbText
 73
     3
  0
TEXT
  5
13A
330
1F
100
AcDbEntity
  8
Default
  6
Continuous
 62
     7
100
AcDbText
 10
5.9362635081
 20
37.0588756849
 30
0.0
 40
10.0
  1
 
  7
SEACAD_seiso_ttf
 11
5.9362635081
 21
47.0588756849
 31
0.0
100
AcDbText
 73
     3
  0
TEXT
  5
13B
330
1F
100
AcDbEntity
  8
Default
  6
Continuous
 62
     7
100
AcDbText
 10
5.9362635081
 20
20.6952393213
 30
0.0
 40
10.0
  1
ecn: 
  7
SEACAD_seiso_ttf
 11
5.9362635081
 21
30.6952393213
 31
0.0
100
AcDbText
 73
     3
  0
TEXT
  5
13C
330
1F
100
AcDbEntity
  8
Default
  6
Continuous
 62
     7
100
AcDbText
 10
5.9362635081
 20
4.3316029576
 30
0.0
 40
10.0
  1
unit: mm
  7
SEACAD_seiso_ttf
 11
5.9362635081
 21
14.3316029576
 31
0.0
100
AcDbText
 73
     3
  0
LINE
  5
13D
330
1F
100
AcDbEntity
  8
Default
  6
Continuous
 62
     7
100
AcDbLine
 10
0.0
 20
0.0
 30
0.0
 11
100.0
 21
0.0
 31
0.0
  0
LINE
  5
13E
330
1F
100
AcDbEntity
  8
Default
  6
Continuous
 62
     7
100
AcDbLine
 10
0.0
 20
0.0
 30
0.0
 11
0.0
 21
100.0
 31
0.0
  0
TEXT
  5
13F
330
1F
100
AcDbEntity
  8
Default
  6
Continuous
 62
     7
100
AcDbText
 10
24.3923665681
 20
-18.2375342018
 30
0.0
 40
10.0
  1
100 mm
  7
SEACAD_seiso_ttf
 11
24.3923665681
 21
-8.2375342018
 31
0.0
100
AcDbText
 73
     3
  0
TEXT
  5
140
330
1F
100
AcDbEntity
  8
Default
  6
Continuous
 62
     7
100
AcDbText
 10
-7.6150308803
 20
24.6231930421
 30
0.0
 40
10.0
  1
100 mm
 50
90.0
  7
SEACAD_seiso_ttf
 11
-17.6150308803
 21
24.6231930421
 31
0.0
100
AcDbText
 73
     3
  0
TEXT
  5
141
330
1F
100
AcDbEntity
  8
Default
  6
Continuous
 62
     7
100
AcDbText
 10
28.4878128572
 20
20.0907663715
 30
0.0
 40
10.0
  1
221575
  7
SEACAD_seiso_ttf
 11
28.4878128572
 21
30.0907663715
 31
0.0
100
AcDbText
 73
     3
  0
TEXT
  5
142
330
1F
100
AcDbEntity
  8
Default
  6
Continuous
 62
     7
100
AcDbText
 10
5.9012241913
 20
36.7242780188
 30
0.0
 40
10.0
  1
31128001
  7
SEACAD_seiso_ttf
 11
5.9012241913
 21
46.7242780188
 31
0.0
100
AcDbText
 73
     3
  0
ENDSEC
  0
SECTION
  2
OBJECTS
  0
DICTIONARY
  5
C
330
0
100
AcDbDictionary
281
     1
  3
ACAD_GROUP
350
D
  3
ACAD_LAYOUT
350
1A
  3
ACAD_MLEADERSTYLE
350
146
  3
ACAD_MLINESTYLE
350
17
  3
ACAD_PLOTSETTINGS
350
19
  3
ACAD_PLOTSTYLENAME
350
E
  3
ACAD_SCALELIST
350
3B
  3
ACAD_TABLESTYLE
350
145
  3
ACAD_VISUALSTYLE
350
2A
  3
AcDbVariableDictionary
350
143
  0
DICTIONARY
  5
D
102
{ACAD_REACTORS
330
C
102
}
330
C
100
AcDbDictionary
281
     1
  0
DICTIONARY
  5
1A
102
{ACAD_REACTORS
330
C
102
}
330
C
100
AcDbDictionary
281
     1
  3
Layout1
350
1E
  3
Model
350
22
  0
DICTIONARY
  5
146
102
{ACAD_REACTORS
330
C
102
}
330
C
100
AcDbDictionary
281
     1
  0
DICTIONARY
  5
17
102
{ACAD_REACTORS
330
C
102
}
330
C
100
AcDbDictionary
281
     1
  3
Standard
350
18
  0
DICTIONARY
  5
19
102
{ACAD_REACTORS
330
C
102
}
330
C
100
AcDbDictionary
281
     1
  0
ACDBDICTIONARYWDFLT
  5
E
102
{ACAD_REACTORS
330
C
102
}
330
C
100
AcDbDictionary
281
     1
  3
Normal
350
F
100
AcDbDictionaryWithDefault
340
F
  0
DICTIONARY
  5
3B
102
{ACAD_REACTORS
330
C
102
}
330
C
100
AcDbDictionary
281
     1
  3
A0
350
3C
  3
A1
350
3D
  3
A2
350
3E
  3
A3
350
3F
  3
A4
350
40
  3
A5
350
41
  3
A6
350
42
  3
A7
350
43
  3
A8
350
44
  3
A9
350
45
  3
B0
350
46
  3
B1
350
47
  3
B2
350
48
  3
B3
350
49
  3
B4
350
4A
  3
B5
350
4B
  3
B6
350
4C
  3
B7
350
4D
  3
B8
350
4E
  3
B9
350
4F
  3
C0
350
50
  3
C1
350
51
  3
C2
350
52
  3
C3
350
53
  3
C4
350
54
  3
C5
350
55
  3
C6
350
56
  3
C7
350
57
  3
C8
350
58
  3
C9
350
59
  3
D0
350
5A
  3
D1
350
5B
  3
D2
350
5C
  0
DICTIONARY
  5
145
102
{ACAD_REACTORS
330
C
102
}
330
C
100
AcDbDictionary
281
     1
  0
DICTIONARY
  5
2A
102
{ACAD_REACTORS
330
C
102
}
330
C
100
AcDbDictionary
281
     1
  3
2dWireframe
350
2F
  3
3D Hidden
350
31
  3
3dWireframe
350
30
  3
Basic
350
32
  3
Brighten
350
36
  3
ColorChange
350
3A
  3
Conceptual
350
34
  3
Dim
350
35
  3
Facepattern
350
39
  3
Flat
350
2B
  3
FlatWithEdges
350
2C
  3
Gouraud
350
2D
  3
GouraudWithEdges
350
2E
  3
Linepattern
350
38
  3
Realistic
350
33
  3
Thicken
350
37
  0
DICTIONARY
  5
143
102
{ACAD_REACTORS
330
C
102
}
330
C
100
AcDbDictionary
281
     1
  3
CANNOSCALE
350
144
  3
PSOLHEIGHT
350
148
  3
PSOLWIDTH
350
147
  0
LAYOUT
  5
1E
102
{ACAD_REACTORS
330
1A
102
}
330
1A
100
AcDbPlotSettings
  1

  2
none_device
  4

  6

 40
0.0
 41
0.0
 42
0.0
 43
0.0
 44
0.0
 45
0.0
 46
0.0
 47
0.0
 48
0.0
 49
0.0
140
0.0
141
0.0
142
1.0
143
1.0
 70
   688
 72
     0
 73
     0
 74
     5
  7

 75
    16
147
1.0
148
0.0
149
0.0
100
AcDbLayout
  1
Layout1
 70
     1
 71
     1
 10
0.0
 20
0.0
 11
1682.0
 21
2378.0
 12
0.0
 22
0.0
 32
0.0
 14
0.0
 24
0.0
 34
0.0
 15
1682.0
 25
2378.0
 35
0.0
146
0.0
 13
0.0
 23
0.0
 33
0.0
 16
1.0
 26
0.0
 36
0.0
 17
0.0
 27
1.0
 37
0.0
 76
     0
330
1B
  0
LAYOUT
  5
22
102
{ACAD_REACTORS
330
1A
102
}
330
1A
100
AcDbPlotSettings
  1

  2
none_device
  4

  6

 40
0.0
 41
0.0
 42
0.0
 43
0.0
 44
0.0
 45
0.0
 46
0.0
 47
0.0
 48
0.0
 49
0.0
140
0.0
141
0.0
142
1.0
143
1.0
 70
  1712
 72
     0
 73
     0
 74
     0
  7

 75
     0
147
1.0
148
0.0
149
0.0
100
AcDbLayout
  1
Model
 70
     1
 71
     0
 10
0.0
 20
0.0
 11
1682.0
 21
2378.0
 12
0.0
 22
0.0
 32
0.0
 14
0.0
 24
0.0
 34
0.0
 15
1682.0
 25
2378.0
 35
0.0
146
0.0
 13
0.0
 23
0.0
 33
0.0
 16
1.0
 26
0.0
 36
0.0
 17
0.0
 27
1.0
 37
0.0
 76
     0
330
1F
331
29
  0
MLINESTYLE
  5
18
102
{ACAD_REACTORS
330
17
102
}
330
17
100
AcDbMlineStyle
  2
Standard
 70
     0
  3

 62
   256
 51
90.0
 52
90.0
 71
     2
 49
0.5
 62
   256
  6
BYLAYER
 49
-0.5
 62
   256
  6
BYLAYER
  0
ACDBPLACEHOLDER
  5
F
102
{ACAD_REACTORS
330
E
102
}
330
E
  0
SCALE
  5
3C
102
{ACAD_REACTORS
330
3B
102
}
330
3B
100
AcDbScale
 70
     0
300
1:1
140
1.0
141
1.0
290
     1
  0
SCALE
  5
3D
102
{ACAD_REACTORS
330
3B
102
}
330
3B
100
AcDbScale
 70
     0
300
1:2
140
1.0
141
2.0
290
     0
  0
SCALE
  5
3E
102
{ACAD_REACTORS
330
3B
102
}
330
3B
100
AcDbScale
 70
     0
300
1:4
140
1.0
141
4.0
290
     0
  0
SCALE
  5
3F
102
{ACAD_REACTORS
330
3B
102
}
330
3B
100
AcDbScale
 70
     0
300
1:5
140
1.0
141
5.0
290
     0
  0
SCALE
  5
40
102
{ACAD_REACTORS
330
3B
102
}
330
3B
100
AcDbScale
 70
     0
300
1:8
140
1.0
141
8.0
290
     0
  0
SCALE
  5
41
102
{ACAD_REACTORS
330
3B
102
}
330
3B
100
AcDbScale
 70
     0
300
1:10
140
1.0
141
10.0
290
     0
  0
SCALE
  5
42
102
{ACAD_REACTORS
330
3B
102
}
330
3B
100
AcDbScale
 70
     0
300
1:16
140
1.0
141
16.0
290
     0
  0
SCALE
  5
43
102
{ACAD_REACTORS
330
3B
102
}
330
3B
100
AcDbScale
 70
     0
300
1:20
140
1.0
141
20.0
290
     0
  0
SCALE
  5
44
102
{ACAD_REACTORS
330
3B
102
}
330
3B
100
AcDbScale
 70
     0
300
1:30
140
1.0
141
30.0
290
     0
  0
SCALE
  5
45
102
{ACAD_REACTORS
330
3B
102
}
330
3B
100
AcDbScale
 70
     0
300
1:40
140
1.0
141
40.0
290
     0
  0
SCALE
  5
46
102
{ACAD_REACTORS
330
3B
102
}
330
3B
100
AcDbScale
 70
     0
300
1:50
140
1.0
141
50.0
290
     0
  0
SCALE
  5
47
102
{ACAD_REACTORS
330
3B
102
}
330
3B
100
AcDbScale
 70
     0
300
1:100
140
1.0
141
100.0
290
     0
  0
SCALE
  5
48
102
{ACAD_REACTORS
330
3B
102
}
330
3B
100
AcDbScale
 70
     0
300
2:1
140
2.0
141
1.0
290
     0
  0
SCALE
  5
49
102
{ACAD_REACTORS
330
3B
102
}
330
3B
100
AcDbScale
 70
     0
300
4:1
140
4.0
141
1.0
290
     0
  0
SCALE
  5
4A
102
{ACAD_REACTORS
330
3B
102
}
330
3B
100
AcDbScale
 70
     0
300
8:1
140
8.0
141
1.0
290
     0
  0
SCALE
  5
4B
102
{ACAD_REACTORS
330
3B
102
}
330
3B
100
AcDbScale
 70
     0
300
10:1
140
10.0
141
1.0
290
     0
  0
SCALE
  5
4C
102
{ACAD_REACTORS
330
3B
102
}
330
3B
100
AcDbScale
 70
     0
300
100:1
140
100.0
141
1.0
290
     0
  0
SCALE
  5
4D
102
{ACAD_REACTORS
330
3B
102
}
330
3B
100
AcDbScale
 70
     0
300
1/128" = 1'-0"
140
0.0078125
141
12.0
290
     0
  0
SCALE
  5
4E
102
{ACAD_REACTORS
330
3B
102
}
330
3B
100
AcDbScale
 70
     0
300
1/64" = 1'-0"
140
0.015625
141
12.0
290
     0
  0
SCALE
  5
4F
102
{ACAD_REACTORS
330
3B
102
}
330
3B
100
AcDbScale
 70
     0
300
1/32" = 1'-0"
140
0.03125
141
12.0
290
     0
  0
SCALE
  5
50
102
{ACAD_REACTORS
330
3B
102
}
330
3B
100
AcDbScale
 70
     0
300
1/16" = 1'-0"
140
0.0625
141
12.0
290
     0
  0
SCALE
  5
51
102
{ACAD_REACTORS
330
3B
102
}
330
3B
100
AcDbScale
 70
     0
300
3/32" = 1'-0"
140
0.09375
141
12.0
290
     0
  0
SCALE
  5
52
102
{ACAD_REACTORS
330
3B
102
}
330
3B
100
AcDbScale
 70
     0
300
1/8" = 1'-0"
140
0.125
141
12.0
290
     0
  0
SCALE
  5
53
102
{ACAD_REACTORS
330
3B
102
}
330
3B
100
AcDbScale
 70
     0
300
3/16" = 1'-0"
140
0.1875
141
12.0
290
     0
  0
SCALE
  5
54
102
{ACAD_REACTORS
330
3B
102
}
330
3B
100
AcDbScale
 70
     0
300
1/4" = 1'-0"
140
0.25
141
12.0
290
     0
  0
SCALE
  5
55
102
{ACAD_REACTORS
330
3B
102
}
330
3B
100
AcDbScale
 70
     0
300
3/8" = 1'-0"
140
0.375
141
12.0
290
     0
  0
SCALE
  5
56
102
{ACAD_REACTORS
330
3B
102
}
330
3B
100
AcDbScale
 70
     0
300
1/2" = 1'-0"
140
0.5
141
12.0
290
     0
  0
SCALE
  5
57
102
{ACAD_REACTORS
330
3B
102
}
330
3B
100
AcDbScale
 70
     0
300
3/4" = 1'-0"
140
0.75
141
12.0
290
     0
  0
SCALE
  5
58
102
{ACAD_REACTORS
330
3B
102
}
330
3B
100
AcDbScale
 70
     0
300
1" = 1'-0"
140
1.0
141
12.0
290
     0
  0
SCALE
  5
59
102
{ACAD_REACTORS
330
3B
102
}
330
3B
100
AcDbScale
 70
     0
300
1-1/2" = 1'-0"
140
1.5
141
12.0
290
     0
  0
SCALE
  5
5A
102
{ACAD_REACTORS
330
3B
102
}
330
3B
100
AcDbScale
 70
     0
300
3" = 1'-0"
140
3.0
141
12.0
290
     0
  0
SCALE
  5
5B
102
{ACAD_REACTORS
330
3B
102
}
330
3B
100
AcDbScale
 70
     0
300
6" = 1'-0"
140
6.0
141
12.0
290
     0
  0
SCALE
  5
5C
102
{ACAD_REACTORS
330
3B
102
}
330
3B
100
AcDbScale
 70
     0
300
1'-0" = 1'-0"
140
12.0
141
12.0
290
     0
  0
VISUALSTYLE
  5
2F
102
{ACAD_REACTORS
330
2A
102
}
330
2A
100
AcDbVisualStyle
  2
2dWireframe
 70
     4
 71
     0
 72
     2
 73
     0
 90
        0
 40
-0.6
 41
-30.0
 62
     5
 63
     7
 74
     1
 91
        4
 64
     7
 65
   257
 75
     1
175
     1
 42
1.0
 92
        0
 66
   257
 43
1.0
 76
     1
 77
     6
 78
     2
 67
     7
 79
     5
170
     0
171
     0
290
     0
174
     0
 93
        1
 44
0.0
173
     0
291
     0
 45
0.0
1001
ACAD
1000
AcDbSavedByObjectVersion
1070
     0
  0
VISUALSTYLE
  5
31
102
{ACAD_REACTORS
330
2A
102
}
330
2A
100
AcDbVisualStyle
  2
3D Hidden
 70
     6
 71
     1
 72
     2
 73
     2
 90
        0
 40
-0.6
 41
-30.0
 62
     5
 63
     7
 74
     2
 91
        2
 64
     7
 65
   257
 75
     2
175
     1
 42
40.0
 92
        0
 66
   257
 43
1.0
 76
     1
 77
     6
 78
     2
 67
     7
 79
     3
170
     0
171
     0
290
     0
174
     0
 93
        1
 44
0.0
173
     0
291
     0
 45
0.0
1001
ACAD
1000
AcDbSavedByObjectVersion
1070
     0
  0
VISUALSTYLE
  5
30
102
{ACAD_REACTORS
330
2A
102
}
330
2A
100
AcDbVisualStyle
  2
3dWireframe
 70
     5
 71
     0
 72
     2
 73
     0
 90
        0
 40
-0.6
 41
-30.0
 62
     5
 63
     7
 74
     1
 91
        4
 64
     7
 65
   257
 75
     1
175
     1
 42
1.0
 92
        0
 66
   257
 43
1.0
 76
     1
 77
     6
 78
     2
 67
     7
 79
     5
170
     0
171
     0
290
     0
174
     0
 93
        1
 44
0.0
173
     0
291
     0
 45
0.0
1001
ACAD
1000
AcDbSavedByObjectVersion
1070
     0
  0
VISUALSTYLE
  5
32
102
{ACAD_REACTORS
330
2A
102
}
330
2A
100
AcDbVisualStyle
  2
Basic
 70
     7
 71
     1
 72
     0
 73
     1
 90
        0
 40
-0.6
 41
-30.0
 62
     5
 63
     7
 74
     0
 91
        4
 64
     7
 65
   257
 75
     1
175
     1
 42
1.0
 92
        8
 66
     7
 43
1.0
 76
     1
 77
     6
 78
     2
 67
     7
 79
     5
170
     0
171
     0
290
     0
174
     0
 93
        1
 44
0.0
173
     0
291
     1
 45
0.0
1001
ACAD
1000
AcDbSavedByObjectVersion
1070
     0
  0
VISUALSTYLE
  5
36
102
{ACAD_REACTORS
330
2A
102
}
330
2A
100
AcDbVisualStyle
  2
Brighten
 70
    12
 71
     2
 72
     2
 73
     0
 90
        0
 40
-0.6
 41
-30.0
 62
     5
 63
     7
 74
     1
 91
        4
 64
     7
 65
   257
 75
     1
175
     1
 42
1.0
 92
        8
 66
     7
 43
1.0
 76
     1
 77
     6
 78
     2
 67
     7
 79
     5
170
     0
171
     0
290
     0
174
     0
 93
        1
 44
50.0
173
     0
291
     1
 45
0.0
1001
ACAD
1000
AcDbSavedByObjectVersion
1070
     0
  0
VISUALSTYLE
  5
3A
102
{ACAD_REACTORS
330
2A
102
}
330
2A
100
AcDbVisualStyle
  2
ColorChange
 70
    16
 71
     2
 72
     2
 73
     3
 90
        0
 40
-0.6
 41
-30.0
 62
     5
 63
     8
 74
     1
 91
        4
 64
     7
 65
   257
 75
     1
175
     1
 42
1.0
 92
        8
 66
     8
 43
1.0
 76
     1
 77
     6
 78
     2
 67
     7
 79
     5
170
     0
171
     0
290
     0
174
     0
 93
        1
 44
0.0
173
     0
291
     1
 45
0.0
1001
ACAD
1000
AcDbSavedByObjectVersion
1070
     0
  0
VISUALSTYLE
  5
34
102
{ACAD_REACTORS
330
2A
102
}
330
2A
100
AcDbVisualStyle
  2
Conceptual
 70
     9
 71
     3
 72
     2
 73
     0
 90
        0
 40
-0.6
 41
-30.0
 62
     5
 63
     7
 74
     2
 91
        2
 64
     7
 65
   257
 75
     1
175
     1
 42
40.0
 92
        8
 66
     7
 43
1.0
 76
     1
 77
     6
 78
     2
 67
     7
 79
     3
170
     0
171
     0
290
     0
174
     0
 93
        1
 44
0.0
173
     0
291
     0
 45
0.0
1001
ACAD
1000
AcDbSavedByObjectVersion
1070
     0
  0
VISUALSTYLE
  5
35
102
{ACAD_REACTORS
330
2A
102
}
330
2A
100
AcDbVisualStyle
  2
Dim
 70
    11
 71
     2
 72
     2
 73
     0
 90
        0
 40
-0.6
 41
-30.0
 62
     5
 63
     7
 74
     1
 91
        4
 64
     7
 65
   257
 75
     1
175
     1
 42
1.0
 92
        8
 66
     7
 43
1.0
 76
     1
 77
     6
 78
     2
 67
     7
 79
     5
170
     0
171
     0
290
     0
174
     0
 93
        1
 44
-50.0
173
     0
291
     1
 45
0.0
1001
ACAD
1000
AcDbSavedByObjectVersion
1070
     0
  0
VISUALSTYLE
  5
39
102
{ACAD_REACTORS
330
2A
102
}
330
2A
100
AcDbVisualStyle
  2
Facepattern
 70
    15
 71
     2
 72
     2
 73
     0
 90
        0
 40
-0.6
 41
-30.0
 62
     5
 63
     7
 74
     1
 91
        4
 64
     7
 65
   257
 75
     1
175
     1
 42
1.0
 92
        8
 66
     7
 43
1.0
 76
     1
 77
     6
 78
     2
 67
     7
 79
     5
170
     0
171
     0
290
     0
174
     0
 93
        1
 44
0.0
173
     0
291
     1
 45
0.0
1001
ACAD
1000
AcDbSavedByObjectVersion
1070
     0
  0
VISUALSTYLE
  5
2B
102
{ACAD_REACTORS
330
2A
102
}
330
2A
100
AcDbVisualStyle
  2
Flat
 70
     0
 71
     2
 72
     1
 73
     1
 90
        2
 40
-0.6
 41
30.0
 62
     5
 63
     7
 74
     0
 91
        4
 64
     7
 65
   257
 75
     1
175
     1
 42
1.0
 92
        8
 66
     7
 43
1.0
 76
     1
 77
     6
 78
     2
 67
     7
 79
     5
170
     0
171
     0
290
     0
174
     0
 93
       13
 44
0.0
173
     0
291
     1
 45
0.0
1001
ACAD
1000
AcDbSavedByObjectVersion
1070
     0
  0
VISUALSTYLE
  5
2C
102
{ACAD_REACTORS
330
2A
102
}
330
2A
100
AcDbVisualStyle
  2
FlatWithEdges
 70
     1
 71
     2
 72
     1
 73
     1
 90
        2
 40
-0.6
 41
30.0
 62
     5
 63
     7
 74
     1
 91
        4
 64
     7
 65
   257
 75
     1
175
     1
 42
1.0
 92
        0
 66
   257
 43
1.0
 76
     1
 77
     6
 78
     2
 67
     7
 79
     5
170
     0
171
     0
290
     0
174
     0
 93
       13
 44
0.0
173
     0
291
     1
 45
0.0
1001
ACAD
1000
AcDbSavedByObjectVersion
1070
     0
  0
VISUALSTYLE
  5
2D
102
{ACAD_REACTORS
330
2A
102
}
330
2A
100
AcDbVisualStyle
  2
Gouraud
 70
     2
 71
     2
 72
     2
 73
     1
 90
        2
 40
-0.6
 41
30.0
 62
     5
 63
     7
 74
     0
 91
        4
 64
     7
 65
   257
 75
     1
175
     1
 42
1.0
 92
        0
 66
     7
 43
1.0
 76
     1
 77
     6
 78
     2
 67
     7
 79
     5
170
     0
171
     0
290
     0
174
     0
 93
       13
 44
0.0
173
     0
291
     1
 45
0.0
1001
ACAD
1000
AcDbSavedByObjectVersion
1070
     0
  0
VISUALSTYLE
  5
2E
102
{ACAD_REACTORS
330
2A
102
}
330
2A
100
AcDbVisualStyle
  2
GouraudWithEdges
 70
     3
 71
     2
 72
     2
 73
     1
 90
        2
 40
-0.6
 41
30.0
 62
     5
 63
     7
 74
     1
 91
        4
 64
     7
 65
   257
 75
     1
175
     1
 42
1.0
 92
        0
 66
   257
 43
1.0
 76
     1
 77
     6
 78
     2
 67
     7
 79
     5
170
     0
171
     0
290
     0
174
     0
 93
       13
 44
0.0
173
     0
291
     1
 45
0.0
1001
ACAD
1000
AcDbSavedByObjectVersion
1070
     0
  0
VISUALSTYLE
  5
38
102
{ACAD_REACTORS
330
2A
102
}
330
2A
100
AcDbVisualStyle
  2
Linepattern
 70
    14
 71
     2
 72
     2
 73
     0
 90
        0
 40
-0.6
 41
-30.0
 62
     5
 63
     7
 74
     1
 91
        4
 64
     7
 65
   257
 75
     7
175
     7
 42
1.0
 92
        8
 66
     7
 43
1.0
 76
     1
 77
     6
 78
     2
 67
     7
 79
     5
170
     0
171
     0
290
     0
174
     0
 93
        1
 44
0.0
173
     0
291
     1
 45
0.0
1001
ACAD
1000
AcDbSavedByObjectVersion
1070
     0
  0
VISUALSTYLE
  5
33
102
{ACAD_REACTORS
330
2A
102
}
330
2A
100
AcDbVisualStyle
  2
Realistic
 70
     8
 71
     2
 72
     2
 73
     0
 90
        0
 40
-0.6
 41
-30.0
 62
     5
 63
     7
 74
     1
 91
        0
 64
     7
 65
   257
 75
     1
175
     1
 42
1.0
 92
        8
 66
     8
 43
1.0
 76
     1
 77
     6
 78
     2
 67
     7
 79
     5
170
     0
171
     0
290
     0
174
     0
 93
       13
 44
0.0
173
     0
291
     0
 45
0.0
1001
ACAD
1000
AcDbSavedByObjectVersion
1070
     0
  0
VISUALSTYLE
  5
37
102
{ACAD_REACTORS
330
2A
102
}
330
2A
100
AcDbVisualStyle
  2
Thicken
 70
    13
 71
     2
 72
     2
 73
     0
 90
        0
 40
-0.6
 41
-30.0
 62
     5
 63
     7
 74
     1
 91
        4
 64
     7
 65
   257
 75
     1
175
     1
 42
1.0
 92
       12
 66
     7
 43
1.0
 76
     1
 77
     6
 78
     2
 67
     7
 79
     5
170
     0
171
     0
290
     0
174
     0
 93
        1
 44
0.0
173
     0
291
     1
 45
0.0
1001
ACAD
1000
AcDbSavedByObjectVersion
1070
     0
  0
DICTIONARYVAR
  5
144
102
{ACAD_REACTORS
330
143
102
}
330
143
100
DictionaryVariables
280
     0
  1
1:1
  0
DICTIONARYVAR
  5
148
102
{ACAD_REACTORS
330
143
102
}
330
143
100
DictionaryVariables
280
     0
  1
80.000000
  0
DICTIONARYVAR
  5
147
102
{ACAD_REACTORS
330
143
102
}
330
143
100
DictionaryVariables
280
     0
  1
5.000000
  0
ENDSEC
  0
EOF
