  0
SECTION
  2
HEADER
  9
$ACADVER
  1
AC1015
  9
$ACADMAINTVER
 70
     6
  9
$DWGCODEPAGE
  3
ANSI_1252
  9
$INSBASE
 10
0.0
 20
0.0
 30
0.0
  9
$EXTMIN
 10
0.0
 20
0.0
 30
0.0
  9
$EXTMAX
 10
1682.0
 20
2378.0
 30
0.0
  9
$LIMMIN
 10
0.0
 20
0.0
  9
$LIMMAX
 10
1682.0
 20
2378.0
  9
$ORTHOMODE
 70
     0
  9
$REGENMODE
 70
     1
  9
$FILLMODE
 70
     1
  9
$QTEXTMODE
 70
     0
  9
$MIRRTEXT
 70
     1
  9
$LTSCALE
 40
1.0
  9
$ATTMODE
 70
     1
  9
$TEXTSIZE
 40
2.5
  9
$TRACEWID
 40
1.0
  9
$TEXTSTYLE
  7
Standard
  9
$CLAYER
  8
0
  9
$CELTYPE
  6
ByLayer
  9
$CECOLOR
 62
   256
  9
$CELTSCALE
 40
1.0
  9
$DISPSILH
 70
     0
  9
$DIMSCALE
 40
1.0
  9
$DIMASZ
 40
2.5
  9
$DIMEXO
 40
0.625
  9
$DIMDLI
 40
3.75
  9
$DIMRND
 40
0.0
  9
$DIMDLE
 40
0.0
  9
$DIMEXE
 40
1.25
  9
$DIMTP
 40
0.0
  9
$DIMTM
 40
0.0
  9
$DIMTXT
 40
2.5
  9
$DIMCEN
 40
2.5
  9
$DIMTSZ
 40
0.0
  9
$DIMTOL
 70
     0
  9
$DIMLIM
 70
     0
  9
$DIMTIH
 70
     0
  9
$DIMTOH
 70
     0
  9
$DIMSE1
 70
     0
  9
$DIMSE2
 70
     0
  9
$DIMTAD
 70
     1
  9
$DIMZIN
 70
     8
  9
$DIMBLK
  1

  9
$DIMASO
 70
     1
  9
$DIMSHO
 70
     1
  9
$DIMPOST
  1

  9
$DIMAPOST
  1

  9
$DIMALT
 70
     0
  9
$DIMALTD
 70
     3
  9
$DIMALTF
 40
0.0393700787
  9
$DIMLFAC
 40
1.0
  9
$DIMTOFL
 70
     1
  9
$DIMTVP
 40
0.0
  9
$DIMTIX
 70
     0
  9
$DIMSOXD
 70
     0
  9
$DIMSAH
 70
     0
  9
$DIMBLK1
  1

  9
$DIMBLK2
  1

  9
$DIMSTYLE
  2
ISO-25
  9
$DIMCLRD
 70
     0
  9
$DIMCLRE
 70
     0
  9
$DIMCLRT
 70
     0
  9
$DIMTFAC
 40
1.0
  9
$DIMGAP
 40
0.625
  9
$DIMJUST
 70
     0
  9
$DIMSD1
 70
     0
  9
$DIMSD2
 70
     0
  9
$DIMTOLJ
 70
     0
  9
$DIMTZIN
 70
     8
  9
$DIMALTZ
 70
     0
  9
$DIMALTTZ
 70
     0
  9
$DIMUPT
 70
     0
  9
$DIMDEC
 70
     2
  9
$DIMTDEC
 70
     2
  9
$DIMALTU
 70
     2
  9
$DIMALTTD
 70
     3
  9
$DIMTXSTY
  7
Standard
  9
$DIMAUNIT
 70
     0
  9
$DIMADEC
 70
     0
  9
$DIMALTRND
 40
0.0
  9
$DIMAZIN
 70
     0
  9
$DIMDSEP
 70
    44
  9
$DIMATFIT
 70
     3
  9
$DIMFRAC
 70
     0
  9
$DIMLDRBLK
  1

  9
$DIMLUNIT
 70
     2
  9
$DIMLWD
 70
    -2
  9
$DIMLWE
 70
    -2
  9
$DIMTMOVE
 70
     0
  9
$LUNITS
 70
     2
  9
$LUPREC
 70
     4
  9
$SKETCHINC
 40
1.0
  9
$FILLETRAD
 40
10.0
  9
$AUNITS
 70
     0
  9
$AUPREC
 70
     0
  9
$MENU
  1
.
  9
$ELEVATION
 40
0.0
  9
$PELEVATION
 40
0.0
  9
$THICKNESS
 40
0.0
  9
$LIMCHECK
 70
     0
  9
$CHAMFERA
 40
10.0
  9
$CHAMFERB
 40
10.0
  9
$CHAMFERC
 40
20.0
  9
$CHAMFERD
 40
0.0
  9
$SKPOLY
 70
     0
  9
$TDCREATE
 40
2455694.409460417
  9
$TDUCREATE
 40
2455694.326127084
  9
$TDUPDATE
 40
2455694.409460428
  9
$TDUUPDATE
 40
2455694.326127095
  9
$TDINDWG
 40
0.0000000116
  9
$TDUSRTIMER
 40
0.0000000116
  9
$USRTIMER
 70
     1
  9
$ANGBASE
 50
0.0
  9
$ANGDIR
 70
     0
  9
$PDMODE
 70
     0
  9
$PDSIZE
 40
0.0
  9
$PLINEWID
 40
0.0
  9
$SPLFRAME
 70
     0
  9
$SPLINETYPE
 70
     6
  9
$SPLINESEGS
 70
     8
  9
$HANDSEED
  5
FB
  9
$SURFTAB1
 70
     6
  9
$SURFTAB2
 70
     6
  9
$SURFTYPE
 70
     6
  9
$SURFU
 70
     6
  9
$SURFV
 70
     6
  9
$UCSBASE
  2

  9
$UCSNAME
  2

  9
$UCSORG
 10
0.0
 20
0.0
 30
0.0
  9
$UCSXDIR
 10
1.0
 20
0.0
 30
0.0
  9
$UCSYDIR
 10
0.0
 20
1.0
 30
0.0
  9
$UCSORTHOREF
  2

  9
$UCSORTHOVIEW
 70
     0
  9
$UCSORGTOP
 10
0.0
 20
0.0
 30
0.0
  9
$UCSORGBOTTOM
 10
0.0
 20
0.0
 30
0.0
  9
$UCSORGLEFT
 10
0.0
 20
0.0
 30
0.0
  9
$UCSORGRIGHT
 10
0.0
 20
0.0
 30
0.0
  9
$UCSORGFRONT
 10
0.0
 20
0.0
 30
0.0
  9
$UCSORGBACK
 10
0.0
 20
0.0
 30
0.0
  9
$PUCSBASE
  2

  9
$PUCSNAME
  2

  9
$PUCSORG
 10
0.0
 20
0.0
 30
0.0
  9
$PUCSXDIR
 10
1.0
 20
0.0
 30
0.0
  9
$PUCSYDIR
 10
0.0
 20
1.0
 30
0.0
  9
$PUCSORTHOREF
  2

  9
$PUCSORTHOVIEW
 70
     0
  9
$PUCSORGTOP
 10
0.0
 20
0.0
 30
0.0
  9
$PUCSORGBOTTOM
 10
0.0
 20
0.0
 30
0.0
  9
$PUCSORGLEFT
 10
0.0
 20
0.0
 30
0.0
  9
$PUCSORGRIGHT
 10
0.0
 20
0.0
 30
0.0
  9
$PUCSORGFRONT
 10
0.0
 20
0.0
 30
0.0
  9
$PUCSORGBACK
 10
0.0
 20
0.0
 30
0.0
  9
$USERI1
 70
     0
  9
$USERI2
 70
     0
  9
$USERI3
 70
     0
  9
$USERI4
 70
     0
  9
$USERI5
 70
     0
  9
$USERR1
 40
0.0
  9
$USERR2
 40
0.0
  9
$USERR3
 40
0.0
  9
$USERR4
 40
0.0
  9
$USERR5
 40
0.0
  9
$WORLDVIEW
 70
     1
  9
$SHADEDGE
 70
     3
  9
$SHADEDIF
 70
    70
  9
$TILEMODE
 70
     1
  9
$MAXACTVP
 70
    64
  9
$PINSBASE
 10
0.0
 20
0.0
 30
0.0
  9
$PLIMCHECK
 70
     0
  9
$PEXTMIN
 10
0.0
 20
0.0
 30
0.0
  9
$PEXTMAX
 10
1682.0
 20
2378.0
 30
0.0
  9
$PLIMMIN
 10
0.0
 20
0.0
  9
$PLIMMAX
 10
1682.0
 20
2378.0
  9
$UNITMODE
 70
     0
  9
$VISRETAIN
 70
     1
  9
$PLINEGEN
 70
     0
  9
$PSLTSCALE
 70
     1
  9
$TREEDEPTH
 70
  3020
  9
$CMLSTYLE
  2
Standard
  9
$CMLJUST
 70
     0
  9
$CMLSCALE
 40
20.0
  9
$PROXYGRAPHICS
 70
     1
  9
$MEASUREMENT
 70
     1
  9
$CELWEIGHT
370
    -1
  9
$ENDCAPS
280
     0
  9
$JOINSTYLE
280
     0
  9
$LWDISPLAY
290
     0
  9
$INSUNITS
 70
     4
  9
$HYPERLINKBASE
  1

  9
$STYLESHEET
  1

  9
$XEDIT
290
     1
  9
$CEPSNTYPE
380
     0
  9
$PSTYLEMODE
290
     1
  9
$FINGERPRINTGUID
  2
{BA80484B-3919-4C30-8C1A-66B226350A01}
  9
$VERSIONGUID
  2
{FAEB1C32-E019-11D5-929B-00C0DF256EC4}
  9
$EXTNAMES
290
     1
  9
$PSVPSCALE
 40
0.0
  9
$OLESTARTUP
290
     0
  0
ENDSEC
  0
SECTION
  2
CLASSES
  0
CLASS
  1
ACDBDICTIONARYWDFLT
  2
AcDbDictionaryWithDefault
  3
ObjectDBX Classes
 90
        0
280
     0
281
     0
  0
CLASS
  1
VISUALSTYLE
  2
AcDbVisualStyle
  3
ObjectDBX Classes
 90
     4095
280
     0
281
     0
  0
CLASS
  1
SCALE
  2
AcDbScale
  3
ObjectDBX Classes
 90
     1153
280
     0
281
     0
  0
CLASS
  1
DICTIONARYVAR
  2
AcDbDictionaryVar
  3
ObjectDBX Classes
 90
        0
280
     0
281
     0
  0
CLASS
  1
ACDBPLACEHOLDER
  2
AcDbPlaceHolder
  3
ObjectDBX Classes
 90
        0
280
     0
281
     0
  0
CLASS
  1
LAYOUT
  2
AcDbLayout
  3
ObjectDBX Classes
 90
        0
280
     0
281
     0
  0
ENDSEC
  0
SECTION
  2
TABLES
  0
TABLE
  2
VPORT
  5
8
330
0
100
AcDbSymbolTable
 70
     1
  0
VPORT
  5
29
330
8
100
AcDbSymbolTableRecord
100
AcDbViewportTableRecord
  2
*Active
 70
     0
 10
0.0
 20
0.0
 11
1.0
 21
1.0
 12
344.1869158879
 22
148.5
 13
0.0
 23
0.0
 14
10.0
 24
10.0
 15
10.0
 25
10.0
 16
0.0
 26
0.0
 36
1.0
 17
0.0
 27
0.0
 37
0.0
 40
297.0
 41
1.9729729729
 42
50.0
 43
0.0
 44
0.0
 50
0.0
 51
0.0
 71
     0
 72
   100
 73
     1
 74
     3
 75
     0
 76
     0
 77
     0
 78
     0
281
     0
 65
     1
110
0.0
120
0.0
130
0.0
111
1.0
121
0.0
131
0.0
112
0.0
122
1.0
132
0.0
 79
     0
146
0.0
  0
ENDTAB
  0
TABLE
  2
LTYPE
  5
5
330
0
100
AcDbSymbolTable
 70
     2
  0
LTYPE
  5
14
330
5
100
AcDbSymbolTableRecord
100
AcDbLinetypeTableRecord
  2
ByBlock
 70
     0
  3

 72
    65
 73
     0
 40
0.0
  0
LTYPE
  5
15
330
5
100
AcDbSymbolTableRecord
100
AcDbLinetypeTableRecord
  2
ByLayer
 70
     0
  3

 72
    65
 73
     0
 40
0.0
  0
LTYPE
  5
16
330
5
100
AcDbSymbolTableRecord
100
AcDbLinetypeTableRecord
  2
Continuous
 70
     0
  3
Solid line
 72
    65
 73
     0
 40
0.0
  0
LTYPE
  5
60
330
5
100
AcDbSymbolTableRecord
100
AcDbLinetypeTableRecord
  2
CENTER2
 70
     0
  3
Center (.5x) ___ _ ___ _ ___ _ ___ _ ___ _ ___
 72
    65
 73
     4
 40
28.575
 49
19.05
 74
     4
 75
     0
340
0
 46
0.0
 50
0.0
 44
0.0
 45
0.0
 49
-3.175
 74
     4
 75
     0
340
0
 46
0.0
 50
0.0
 44
0.0
 45
0.0
 49
3.175
 74
     4
 75
     0
340
0
 46
0.0
 50
0.0
 44
0.0
 45
0.0
 49
-3.175
 74
     4
 75
     0
340
0
 46
0.0
 50
0.0
 44
0.0
 45
0.0
  0
ENDTAB
  0
TABLE
  2
LAYER
  5
2
330
0
100
AcDbSymbolTable
 70
     5
  0
LAYER
  5
10
330
2
100
AcDbSymbolTableRecord
100
AcDbLayerTableRecord
  2
0
 70
     0
 62
     7
  6
Continuous
370
    -3
390
F
  0
LAYER
  5
5D
330
2
100
AcDbSymbolTableRecord
100
AcDbLayerTableRecord
  2
Default
 70
     0
 62
     7
  6
Continuous
370
    -3
390
F
  0
LAYER
  5
73
330
2
100
AcDbSymbolTableRecord
100
AcDbLayerTableRecord
  2
DV1_Standard
 70
     0
 62
     7
  6
Continuous
370
    -3
390
F
  0
LAYER
  5
A7
330
2
100
AcDbSymbolTableRecord
100
AcDbLayerTableRecord
  2
DV2_Standard
 70
     0
 62
     7
  6
Continuous
370
    -3
390
F
  0
LAYER
  5
D2
330
2
100
AcDbSymbolTableRecord
100
AcDbLayerTableRecord
  2
DV3_Standard
 70
     0
 62
     7
  6
Continuous
370
    -3
390
F
  0
ENDTAB
  0
TABLE
  2
STYLE
  5
3
330
0
100
AcDbSymbolTable
 70
     2
  0
STYLE
  5
11
330
3
100
AcDbSymbolTableRecord
100
AcDbTextStyleTableRecord
  2
Standard
 70
     0
 40
0.0
 41
1.0
 50
0.0
 71
     0
 42
2.5
  3
txt
  4

  0
STYLE
  5
EA
330
3
100
AcDbSymbolTableRecord
100
AcDbTextStyleTableRecord
  2
SEACAD_seiso_ttf
 70
     0
 40
0.0
 41
1.0
 50
0.0
 71
     0
 42
0.2
  3
seiso.ttf
  4

  0
ENDTAB
  0
TABLE
  2
VIEW
  5
6
330
0
100
AcDbSymbolTable
 70
     0
  0
ENDTAB
  0
TABLE
  2
UCS
  5
7
330
0
100
AcDbSymbolTable
 70
     0
  0
ENDTAB
  0
TABLE
  2
APPID
  5
9
330
0
100
AcDbSymbolTable
 70
     1
  0
APPID
  5
12
330
9
100
AcDbSymbolTableRecord
100
AcDbRegAppTableRecord
  2
ACAD
 70
     0
  0
ENDTAB
  0
TABLE
  2
DIMSTYLE
  5
A
330
0
100
AcDbSymbolTable
 70
     1
100
AcDbDimStyleTable
  0
DIMSTYLE
105
27
330
A
100
AcDbSymbolTableRecord
100
AcDbDimStyleTableRecord
  2
ISO-25
 70
     0
 41
2.5
 42
0.625
 43
3.75
 44
1.25
 73
     0
 74
     0
 77
     1
 78
     8
140
2.5
141
2.5
143
0.0393700787
147
0.625
171
     3
172
     1
271
     2
272
     2
274
     3
278
    44
283
     0
284
     8
340
11
  0
ENDTAB
  0
TABLE
  2
BLOCK_RECORD
  5
1
330
0
100
AcDbSymbolTable
 70
     7
  0
BLOCK_RECORD
  5
1F
330
1
100
AcDbSymbolTableRecord
100
AcDbBlockTableRecord
  2
*Model_Space
340
22
  0
BLOCK_RECORD
  5
1B
330
1
100
AcDbSymbolTableRecord
100
AcDbBlockTableRecord
  2
*Paper_Space
340
1E
  0
BLOCK_RECORD
  5
5E
330
1
100
AcDbSymbolTableRecord
100
AcDbBlockTableRecord
  2
SEANNOT_GROUP
340
0
102
{BLKREFS
331
5F
102
}
  0
BLOCK_RECORD
  5
65
330
1
100
AcDbSymbolTableRecord
100
AcDbBlockTableRecord
  2
SEANNOT_GROUP1
340
0
102
{BLKREFS
331
66
102
}
  0
BLOCK_RECORD
  5
6B
330
1
100
AcDbSymbolTableRecord
100
AcDbBlockTableRecord
  2
SEANNOT_GROUP2
340
0
102
{BLKREFS
331
6C
102
}
  0
BLOCK_RECORD
  5
71
330
1
100
AcDbSymbolTableRecord
100
AcDbBlockTableRecord
  2
SE
340
0
102
{BLKREFS
331
72
102
}
  0
BLOCK_RECORD
  5
A5
330
1
100
AcDbSymbolTableRecord
100
AcDbBlockTableRecord
  2
SE1
340
0
102
{BLKREFS
331
A6
102
}
  0
BLOCK_RECORD
  5
D0
330
1
100
AcDbSymbolTableRecord
100
AcDbBlockTableRecord
  2
SE2
340
0
102
{BLKREFS
331
D1
102
}
  0
ENDTAB
  0
ENDSEC
  0
SECTION
  2
BLOCKS
  0
BLOCK
  5
20
330
1F
100
AcDbEntity
  8
0
100
AcDbBlockBegin
  2
*Model_Space
 70
     0
 10
0.0
 20
0.0
 30
0.0
  3
*Model_Space
  1

  0
ENDBLK
  5
21
330
1F
100
AcDbEntity
  8
0
100
AcDbBlockEnd
  0
BLOCK
  5
1C
330
1B
100
AcDbEntity
 67
     1
  8
0
100
AcDbBlockBegin
  2
*Paper_Space
 70
     0
 10
0.0
 20
0.0
 30
0.0
  3
*Paper_Space
  1

  0
ENDBLK
  5
1D
330
1B
100
AcDbEntity
 67
     1
  8
0
100
AcDbBlockEnd
  0
BLOCK
  5
63
330
5E
100
AcDbEntity
  8
0
100
AcDbBlockBegin
  2
SEANNOT_GROUP
 70
     0
 10
0.0
 20
0.0
 30
0.0
  3
SEANNOT_GROUP
  1

  0
LINE
  5
61
330
5E
100
AcDbEntity
  8
Default
  6
CENTER2
 62
     7
100
AcDbLine
 10
86.349999553
 20
546.4255833538
 30
0.0
 11
46.350000447
 21
546.4255833538
 31
0.0
  0
LINE
  5
62
330
5E
100
AcDbEntity
  8
Default
  6
CENTER2
 62
     7
100
AcDbLine
 10
66.35
 20
566.4255829067
 30
0.0
 11
66.35
 21
526.4255838008
 31
0.0
  0
ENDBLK
  5
64
330
5E
100
AcDbEntity
  8
0
100
AcDbBlockEnd
  0
BLOCK
  5
69
330
65
100
AcDbEntity
  8
0
100
AcDbBlockBegin
  2
SEANNOT_GROUP1
 70
     0
 10
0.0
 20
0.0
 30
0.0
  3
SEANNOT_GROUP1
  1

  0
LINE
  5
67
330
65
100
AcDbEntity
  8
Default
  6
CENTER2
 62
     7
100
AcDbLine
 10
86.349999553
 20
471.4255833538
 30
0.0
 11
46.350000447
 21
471.4255833538
 31
0.0
  0
LINE
  5
68
330
65
100
AcDbEntity
  8
Default
  6
CENTER2
 62
     7
100
AcDbLine
 10
66.35
 20
491.4255829067
 30
0.0
 11
66.35
 21
451.4255838008
 31
0.0
  0
ENDBLK
  5
6A
330
65
100
AcDbEntity
  8
0
100
AcDbBlockEnd
  0
BLOCK
  5
6F
330
6B
100
AcDbEntity
  8
0
100
AcDbBlockBegin
  2
SEANNOT_GROUP2
 70
     0
 10
0.0
 20
0.0
 30
0.0
  3
SEANNOT_GROUP2
  1

  0
LINE
  5
6D
330
6B
100
AcDbEntity
  8
Default
  6
CENTER2
 62
     7
100
AcDbLine
 10
86.349999553
 20
462.9255833538
 30
0.0
 11
46.350000447
 21
462.9255833538
 31
0.0
  0
LINE
  5
6E
330
6B
100
AcDbEntity
  8
Default
  6
CENTER2
 62
     7
100
AcDbLine
 10
66.35
 20
482.9255829067
 30
0.0
 11
66.35
 21
442.9255838008
 31
0.0
  0
ENDBLK
  5
70
330
6B
100
AcDbEntity
  8
0
100
AcDbBlockEnd
  0
BLOCK
  5
A3
330
71
100
AcDbEntity
  8
0
100
AcDbBlockBegin
  2
SE
 70
     0
 10
0.0
 20
0.0
 30
0.0
  3
SE
  1

  0
SPLINE
  5
74
330
71
100
AcDbEntity
  8
DV1_Standard
  6
Continuous
 62
     7
100
AcDbSpline
210
0.0
220
0.0
230
1.0
 70
     8
 71
     3
 72
     9
 73
     5
 74
     0
 42
0.0000000026351968
 43
0.0000000001
 40
0.0
 40
0.0
 40
0.0
 40
0.0
 40
0.4510456347673626
 40
1.0
 40
1.0
 40
1.0
 40
1.0
 10
51.09664488474558
 20
542.3000219766161
 30
0.0
 10
51.54141122176799
 20
541.9423199896979
 30
0.0
 10
52.55568495800735
 20
541.1837862009821
 30
0.0
 10
53.62351791115381
 20
540.5075816287709
 30
0.0
 10
54.22483265639687
 20
540.1619888843427
 30
0.0
  0
SPLINE
  5
75
330
71
100
AcDbEntity
  8
DV1_Standard
  6
Continuous
 62
     7
100
AcDbSpline
210
0.0
220
0.0
230
1.0
 70
    12
 71
     3
 72
    26
 73
    22
 74
     0
 42
0.0000000003152303
 43
0.0000000001
 40
0.0
 40
0.0
 40
0.0
 40
0.0
 40
0.0315667686319185
 40
0.0879029248592073
 40
0.1568489188944009
 40
0.2251277042394497
 40
0.2933397605766939
 40
0.3622432505883982
 40
0.4311279472389367
 40
0.4999980968246884
 40
0.5660767770290177
 40
0.6350072011813483
 40
0.7039535842559229
 40
0.7736512969898188
 40
0.8070484207672729
 40
0.8404455445447293
 40
0.9093512829107417
 40
0.9381760981844071
 40
0.9670009134580699
 40
0.9845741931595134
 40
1.0
 40
1.0
 40
1.0
 40
1.0
 10
82.21139683086237
 20
543.8582687929571
 30
0.0
 41
1.0
 10
82.14793596928898
 20
543.8580186552269
 30
0.0
 41
1.0
 10
81.91066552730098
 20
543.858369316212
 30
0.0
 41
1.0
 10
81.18907202270218
 20
543.8586753369931
 30
0.0
 41
1.0
 10
79.79905733329777
 20
543.858050095148
 30
0.0
 41
1.0
 10
77.80426282314168
 20
543.8583184052868
 30
0.0
 41
1.0
 10
75.3659847724544
 20
543.858486642296
 30
0.0
 41
1.0
 10
72.57063215241008
 20
543.85812104735
 30
0.0
 41
1.0
 10
69.52238922865821
 20
543.8584314407864
 30
0.0
 41
1.0
 10
66.3926684683279
 20
543.8583406509185
 30
0.0
 41
1.0
 10
63.26313774884523
 20
543.8581809809311
 30
0.0
 41
1.0
 10
60.24723629923434
 20
543.8584713883548
 30
0.0
 41
1.0
 10
57.4178182177676
 20
543.8582135983656
 30
0.0
 41
1.0
 10
55.36720983413598
 20
543.858297672093
 30
0.0
 41
1.0
 10
53.95938502346208
 20
543.8583446147206
 30
0.0
 41
1.0
 10
52.71673773882608
 20
543.8582779574732
 30
0.0
 41
1.0
 10
51.76052339342078
 20
543.8584312374632
 30
0.0
 41
1.0
 10
51.09296552863687
 20
543.8583876188662
 30
0.0
 41
1.0
 10
50.78614733000687
 20
543.8584228398624
 30
0.0
 41
1.0
 10
50.59722037329557
 20
543.8580533596395
 30
0.0
 41
1.0
 10
50.51954949361748
 20
543.8580831690174
 30
0.0
 41
1.0
 10
50.48856335164798
 20
543.8582678176683
 30
0.0
 41
1.0
  0
LINE
  5
76
330
71
100
AcDbEntity
  8
DV1_Standard
  6
Continuous
 62
     7
100
AcDbLine
 10
82.3500005209
 20
543.8585430955
 30
0.0
 11
82.3500005209
 21
543.8585540656
 31
0.0
  0
ARC
  5
77
330
71
100
AcDbEntity
  8
DV1_Standard
  6
Continuous
 62
     7
100
AcDbCircle
 10
80.3503184095
 20
543.8584275922
 30
0.0
 40
1.999682114724826
100
AcDbArc
 50
308.8010038216
 51
339.9986880954
  0
ELLIPSE
  5
78
330
71
100
AcDbEntity
  8
DV1_Standard
  6
Continuous
 62
     7
100
AcDbEllipse
 10
52.3501286126
 20
543.8585667173
 30
0.0
 11
-1.998569975366819
 21
0.07893662657382228
 31
0.0
210
0.0
220
0.0
230
0.9999999999999998
 40
0.9999555045
 41
0.0394742804517358
 42
0.9329572125044934
  0
ARC
  5
79
330
71
100
AcDbEntity
  8
DV1_Standard
  6
Continuous
 62
     7
100
AcDbCircle
 10
80.3502265246
 20
543.8585850671
 30
0.0
 40
1.999792887551731
100
AcDbArc
 50
340.0066981596
 51
359.9998441511
  0
LINE
  5
7A
330
71
100
AcDbEntity
  8
DV1_Standard
  6
Continuous
 62
     7
100
AcDbLine
 10
50.8500005209
 20
555.9255833542
 30
0.0
 11
50.9719801092
 21
555.9255833542
 31
0.0
  0
LINE
  5
7B
330
71
100
AcDbEntity
  8
DV1_Standard
  6
Continuous
 62
     7
100
AcDbLine
 10
50.9719801092
 20
555.9255833542
 30
0.0
 11
81.7279848961
 21
555.9255833542
 31
0.0
  0
LINE
  5
7C
330
71
100
AcDbEntity
  8
DV1_Standard
  6
Continuous
 62
     7
100
AcDbLine
 10
81.7279848961
 20
555.9255833542
 30
0.0
 11
81.8500005209
 21
555.9255833542
 31
0.0
  0
SPLINE
  5
7D
330
71
100
AcDbEntity
  8
DV1_Standard
  6
Continuous
 62
     7
100
AcDbSpline
210
0.0
220
0.0
230
1.0
 70
     8
 71
     3
 72
     9
 73
     5
 74
     0
 42
0.0000000026351905
 43
0.0000000001
 40
0.0
 40
0.0
 40
0.0
 40
0.0
 40
0.5482108134326144
 40
1.0
 40
1.0
 40
1.0
 40
1.0
 10
78.47516686817119
 20
540.162003728844
 30
0.0
 10
79.07516660691901
 20
540.5068595075346
 30
0.0
 10
80.14376467920275
 20
541.1831594603069
 30
0.0
 10
81.15794679775448
 20
541.9416832771043
 30
0.0
 10
81.60335414759568
 20
542.3000213553621
 30
0.0
  0
ARC
  5
7E
330
71
100
AcDbEntity
  8
DV1_Standard
  6
Continuous
 62
     7
100
AcDbCircle
 10
66.3515096229
 20
561.2573435263
 30
0.0
 40
24.33254778060417
100
AcDbArc
 50
239.7675783174
 51
240.2690923361
  0
ARC
  5
7F
330
71
100
AcDbEntity
  8
DV1_Standard
  6
Continuous
 62
     7
100
AcDbCircle
 10
66.3515096229
 20
561.2573435263
 30
0.0
 40
24.33254778060417
100
AcDbArc
 50
299.7860674805
 51
299.94338413
  0
ARC
  5
80
330
71
100
AcDbEntity
  8
DV1_Standard
  6
Continuous
 62
     7
100
AcDbCircle
 10
66.3515096229
 20
561.2573435263
 30
0.0
 40
24.33254778060417
100
AcDbArc
 50
299.9938156527
 51
300.2194305913
  0
ARC
  5
81
330
71
100
AcDbEntity
  8
DV1_Standard
  6
Continuous
 62
     7
100
AcDbCircle
 10
76.1524947035
 20
544.5040485745
 30
0.0
 40
4.924242015410453
100
AcDbArc
 50
288.3936444635
 51
298.1434794324
  0
ARC
  5
82
330
71
100
AcDbEntity
  8
DV1_Standard
  6
Continuous
 62
     7
100
AcDbCircle
 10
66.3499276366
 20
620.779454636
 30
0.0
 40
81.74079767482544
100
AcDbArc
 50
262.0140726449
 51
277.986028122
  0
ARC
  5
83
330
71
100
AcDbEntity
  8
DV1_Standard
  6
Continuous
 62
     7
100
AcDbCircle
 10
56.5479872141
 20
544.505074168
 30
0.0
 40
4.925386977680879
100
AcDbArc
 50
241.857281298
 51
251.604847737
  0
LINE
  5
84
330
71
100
AcDbEntity
  8
DV1_Standard
  6
Continuous
 62
     7
100
AcDbLine
 10
82.3500005209
 20
543.8585506566
 30
0.0
 11
82.3500005209
 21
555.4255833542
 31
0.0
  0
LINE
  5
85
330
71
100
AcDbEntity
  8
DV1_Standard
  6
Continuous
 62
     7
100
AcDbLine
 10
50.3500005209
 20
555.4255833542
 30
0.0
 11
50.3500005209
 21
543.8585744404
 31
0.0
  0
LINE
  5
86
330
71
100
AcDbEntity
  8
DV1_Standard
  6
Continuous
 62
     7
100
AcDbLine
 10
82.229412367
 20
543.1746024475
 30
0.0
 11
82.2294970907
 21
543.1748353084
 31
0.0
  0
SPLINE
  5
87
330
71
100
AcDbEntity
  8
DV1_Standard
  6
Continuous
 62
     7
100
AcDbSpline
210
0.0
220
0.0
230
1.0
 70
     8
 71
     3
 72
    13
 73
     9
 74
     0
 42
0.0000000126476626
 43
0.0000000001
 40
0.0
 40
0.0
 40
0.0
 40
0.0
 40
0.2394568442994959
 40
0.3683606601314482
 40
0.4999999999021922
 40
0.6316393396872363
 40
0.7605431555603417
 40
1.0
 40
1.0
 40
1.0
 40
1.0
 10
82.35000052092307
 20
555.4255833533294
 30
0.0
 10
82.34353576268983
 20
555.4939792109279
 30
0.0
 10
82.33298469967878
 20
555.5839013818693
 30
0.0
 10
82.27072755430315
 20
555.7019169401691
 30
0.0
 10
82.20609182176838
 20
555.78167465433
 30
0.0
 10
82.12633410773539
 20
555.8463103870399
 30
0.0
 10
82.00831854951758
 20
555.9085675326844
 30
0.0
 10
81.91839637854945
 20
555.9191185958699
 30
0.0
 10
81.85000052092307
 20
555.9255833542346
 30
0.0
  0
SPLINE
  5
88
330
71
100
AcDbEntity
  8
DV1_Standard
  6
Continuous
 62
     7
100
AcDbSpline
210
0.0
220
0.0
230
1.0
 70
     8
 71
     3
 72
    13
 73
     9
 74
     0
 42
0.0000000126476626
 43
0.0000000001
 40
0.0
 40
0.0
 40
0.0
 40
0.0
 40
0.2394568444396499
 40
0.3683606603127516
 40
0.5000000000977992
 40
0.6316393398685435
 40
0.7605431557005037
 40
1.0
 40
1.0
 40
1.0
 40
1.0
 10
50.85000052092307
 20
555.9255833542346
 30
0.0
 10
50.78160466329672
 20
555.9191185958699
 30
0.0
 10
50.69168249232854
 20
555.9085675326844
 30
0.0
 10
50.5736669341108
 20
555.8463103870399
 30
0.0
 10
50.49390922007777
 20
555.78167465433
 30
0.0
 10
50.429273487543
 20
555.7019169401692
 30
0.0
 10
50.36701634216739
 20
555.5839013818693
 30
0.0
 10
50.35646527915634
 20
555.4939792109279
 30
0.0
 10
50.35000052092307
 20
555.4255833533294
 30
0.0
  0
ELLIPSE
  5
89
330
71
100
AcDbEntity
  8
DV1_Standard
  6
Continuous
 62
     7
100
AcDbEllipse
 10
66.35
 20
532.1818827059
 30
0.0
 11
11.05
 21
3.469446951953614E-15
 31
0.0
210
0.0
220
0.0
230
1.0
 40
0.2249510543
 41
0.0951662065539713
 42
6.188019100625615
  0
ELLIPSE
  5
8A
330
71
100
AcDbEntity
  8
DV1_Standard
  6
Continuous
 62
     7
100
AcDbEllipse
 10
66.35
 20
533.1562527707
 30
0.0
 11
12.05000000000001
 21
0.0
 31
0.0
210
0.0
220
0.0
230
1.0
 40
0.2249510543
 41
0.4205535845176249
 42
3.374562538615046
  0
LINE
  5
8B
330
71
100
AcDbEntity
  8
DV1_Standard
  6
Continuous
 62
     7
100
AcDbLine
 10
77.35
 20
531.8436352348
 30
0.0
 11
77.35
 21
531.9456840989
 31
0.0
  0
LINE
  5
8C
330
71
100
AcDbEntity
  8
DV1_Standard
  6
Continuous
 62
     7
100
AcDbLine
 10
77.35
 20
534.2629227971
 30
0.0
 11
77.35
 21
532.418081313
 31
0.0
  0
ELLIPSE
  5
8D
330
71
100
AcDbEntity
  8
DV1_Standard
  6
Continuous
 62
     7
100
AcDbEllipse
 10
66.35
 20
536.0793629651
 30
0.0
 11
-12.04999999999966
 21
-3.469446951953615E-15
 31
0.0
210
0.0
220
0.0
230
1.0
 40
0.2249510543
 41
2.721039069072164
 42
3.562146238107419
  0
LINE
  5
8E
330
71
100
AcDbEntity
  8
DV1_Standard
  6
Continuous
 62
     7
100
AcDbLine
 10
77.35
 20
534.2629227971
 30
0.0
 11
77.35
 21
537.1860329914
 31
0.0
  0
LINE
  5
8F
330
71
100
AcDbEntity
  8
DV1_Standard
  6
Continuous
 62
     7
100
AcDbLine
 10
77.35
 20
532.418081313
 30
0.0
 11
77.35
 21
531.9456840989
 31
0.0
  0
LINE
  5
90
330
71
100
AcDbEntity
  8
DV1_Standard
  6
Continuous
 62
     7
100
AcDbLine
 10
78.4
 20
536.0793629651
 30
0.0
 11
78.4
 21
540.1227709818
 31
0.0
  0
LINE
  5
91
330
71
100
AcDbEntity
  8
DV1_Standard
  6
Continuous
 62
     7
100
AcDbLine
 10
54.3
 20
540.1227848446
 30
0.0
 11
54.3
 21
533.1562527707
 31
0.0
  0
LINE
  5
92
330
71
100
AcDbEntity
  8
DV1_Standard
  6
Continuous
 62
     7
100
AcDbLine
 10
54.6255303283
 20
532.5304475525
 30
0.0
 11
55.5985153633
 21
531.6080115307
 31
0.0
  0
LINE
  5
93
330
71
100
AcDbEntity
  8
DV1_Standard
  6
Continuous
 62
     7
100
AcDbLine
 10
77.1014846367
 20
531.6080115307
 30
0.0
 11
77.35
 21
531.8436158975
 31
0.0
  0
ELLIPSE
  5
94
330
71
100
AcDbEntity
  8
DV1_Standard
  6
Continuous
 62
     7
100
AcDbEllipse
 10
80.2003960529
 20
562.6251873009
 30
0.0
 11
1.839037691840907
 21
-1.839037691840915
 31
0.0
210
0.0
220
0.0
230
1.0
 40
0.9996954599
 41
2.451680911754456
 42
2.532768196831536
  0
ELLIPSE
  5
95
330
71
100
AcDbEntity
  8
DV1_Standard
  6
Continuous
 62
     7
100
AcDbEllipse
 10
80.1602494036
 20
562.6653339502
 30
0.0
 11
1.839037691840907
 21
-1.839037691840915
 31
0.0
210
0.0
220
0.0
230
1.0
 40
0.9996954599
 41
2.458696900499143
 42
2.537833470224201
  0
LINE
  5
96
330
71
100
AcDbEntity
  8
DV1_Standard
  6
Continuous
 62
     7
100
AcDbLine
 10
126.35
 20
471.4255833538
 30
0.0
 11
126.35
 21
546.4255833538
 31
0.0
  0
ARC
  5
97
330
71
100
AcDbEntity
  8
DV1_Standard
  6
Continuous
 62
     7
100
AcDbCircle
 10
66.35
 20
471.4255833538
 30
0.0
 40
60.0
100
AcDbArc
 50
180.0
 51
266.6558477955
  0
LINE
  5
98
330
71
100
AcDbEntity
  8
DV1_Standard
  6
Continuous
 62
     7
100
AcDbLine
 10
6.35
 20
546.4255833538
 30
0.0
 11
6.35
 21
471.4255833538
 31
0.0
  0
ARC
  5
99
330
71
100
AcDbEntity
  8
DV1_Standard
  6
Continuous
 62
     7
100
AcDbCircle
 10
66.35
 20
546.4255833538
 30
0.0
 40
60.0
100
AcDbArc
 50
0.0
 51
180.0
  0
CIRCLE
  5
9A
330
71
100
AcDbEntity
  8
DV1_Standard
  6
Continuous
 62
     7
100
AcDbCircle
 10
66.35
 20
546.4255833538
 30
0.0
 40
23.2
  0
ARC
  5
9B
330
71
100
AcDbEntity
  8
DV1_Standard
  6
Continuous
 62
     7
100
AcDbCircle
 10
66.35
 20
471.4255833538
 30
0.0
 40
4.749999999999999
100
AcDbArc
 50
0.0
 51
180.0
  0
LINE
  5
9C
330
71
100
AcDbEntity
  8
DV1_Standard
  6
Continuous
 62
     7
100
AcDbLine
 10
61.6
 20
462.9255833538
 30
0.0
 11
61.6
 21
471.4255833538
 31
0.0
  0
ARC
  5
9D
330
71
100
AcDbEntity
  8
DV1_Standard
  6
Continuous
 62
     7
100
AcDbCircle
 10
66.35
 20
462.9255833538
 30
0.0
 40
4.750000000000001
100
AcDbArc
 50
180.0
 51
0.0
  0
LINE
  5
9E
330
71
100
AcDbEntity
  8
DV1_Standard
  6
Continuous
 62
     7
100
AcDbLine
 10
71.1
 20
471.4255833538
 30
0.0
 11
71.1
 21
462.9255833538
 31
0.0
  0
ARC
  5
9F
330
71
100
AcDbEntity
  8
DV1_Standard
  6
Continuous
 62
     7
100
AcDbCircle
 10
66.35
 20
471.4255833538
 30
0.0
 40
60.0
100
AcDbArc
 50
273.3441522045
 51
360.0
  0
LINE
  5
A0
330
71
100
AcDbEntity
  8
DV1_Standard
  6
Continuous
 62
     7
100
AcDbLine
 10
69.85
 20
411.5277536769
 30
0.0
 11
69.85
 21
411.5889507192
 31
0.0
  0
ARC
  5
A1
330
71
100
AcDbEntity
  8
DV1_Standard
  6
Continuous
 62
     7
100
AcDbCircle
 10
66.35
 20
549.1386519717
 30
0.0
 40
137.5942234058691
100
AcDbArc
 50
268.5424034849
 51
271.4575965151
  0
LINE
  5
A2
330
71
100
AcDbEntity
  8
DV1_Standard
  6
Continuous
 62
     7
100
AcDbLine
 10
62.85
 20
411.5889507192
 30
0.0
 11
62.85
 21
411.5277536769
 31
0.0
  0
ENDBLK
  5
A4
330
71
100
AcDbEntity
  8
0
100
AcDbBlockEnd
  0
BLOCK
  5
CE
330
A5
100
AcDbEntity
  8
0
100
AcDbBlockBegin
  2
SE1
 70
     0
 10
0.0
 20
0.0
 30
0.0
  3
SE1
  1

  0
LINE
  5
A8
330
A5
100
AcDbEntity
  8
DV2_Standard
  6
Continuous
 62
     7
100
AcDbLine
 10
253.3784953577
 20
543.8585788532
 30
0.0
 11
414.375903393
 21
543.8585737362
 31
0.0
  0
ARC
  5
A9
330
A5
100
AcDbEntity
  8
DV2_Standard
  6
Continuous
 62
     7
100
AcDbCircle
 10
415.8745866669
 20
28.1045449744
 30
0.0
 40
515.7562062017031
100
AcDbArc
 50
89.8332171476
 51
90.1664901871
  0
SPLINE
  5
AA
330
A5
100
AcDbEntity
  8
DV2_Standard
  6
Continuous
 62
     7
100
AcDbSpline
210
0.0
220
0.0
230
1.0
 70
    12
 71
     3
 72
    19
 73
    15
 74
     0
 42
0.0000000007193208
 43
0.0000000001
 40
0.0
 40
0.0
 40
0.0
 40
0.0
 40
0.0000558442227463
 40
0.1322053213990879
 40
0.2700579462564038
 40
0.4079424870542973
 40
0.5473295975366845
 40
0.6141198607915939
 40
0.680910124046508
 40
0.8187133802762189
 40
0.8763595720031222
 40
0.9340057637300206
 40
0.9691502266284673
 40
1.0
 40
1.0
 40
1.0
 40
1.0
 10
431.3758437630237
 20
543.8583275883649
 30
0.0
 41
1.0
 10
431.3758437801673
 20
543.8583275711179
 30
0.0
 41
1.0
 10
431.3758434367078
 20
543.8582867364711
 30
0.0
 41
1.0
 10
431.1779124136318
 20
543.8581809809311
 30
0.0
 41
1.0
 10
430.2804898402068
 20
543.8584713883548
 30
0.0
 41
1.0
 10
428.7784171054348
 20
543.8582135983656
 30
0.0
 41
1.0
 10
427.0951141721557
 20
543.858297672093
 30
0.0
 41
1.0
 10
425.5375418356068
 20
543.8583446147206
 30
0.0
 41
1.0
 10
423.8646445190938
 20
543.8582779574732
 30
0.0
 41
1.0
 10
422.0798371129217
 20
543.8584312374632
 30
0.0
 41
1.0
 10
420.2549538489108
 20
543.8583876188662
 30
0.0
 41
1.0
 10
419.1387982630317
 20
543.8584228398624
 30
0.0
 41
1.0
 10
418.2089128740578
 20
543.8580533596395
 30
0.0
 41
1.0
 10
417.7085012705157
 20
543.8580831690174
 30
0.0
 41
1.0
 10
417.4738820268627
 20
543.8582678176683
 30
0.0
 41
1.0
  0
ARC
  5
AB
330
A5
100
AcDbEntity
  8
DV2_Standard
  6
Continuous
 62
     7
100
AcDbCircle
 10
412.7174234683
 20
516.8816667999
 30
0.0
 40
23.33932208421718
100
AcDbArc
 50
85.9251554308
 51
120.8173756975
  0
ARC
  5
AC
330
A5
100
AcDbEntity
  8
DV2_Standard
  6
Continuous
 62
     7
100
AcDbCircle
 10
443.5787205502
 20
779.375277914
 30
0.0
 40
240.972748173043
100
AcDbArc
 50
263.7574501993
 51
265.6749049299
  0
ARC
  5
AD
330
A5
100
AcDbEntity
  8
DV2_Standard
  6
Continuous
 62
     7
100
AcDbCircle
 10
409.7840072672
 20
484.7206616013
 30
0.0
 40
55.63116294106604
100
AcDbArc
 50
82.1564467021
 51
85.2653156278
  0
ARC
  5
AE
330
A5
100
AcDbEntity
  8
DV2_Standard
  6
Continuous
 62
     7
100
AcDbCircle
 10
415.3759043986
 20
561.2589166876
 30
0.0
 40
24.33333333333422
100
AcDbArc
 50
294.3367900285
 51
308.8166539722
  0
LINE
  5
AF
330
A5
100
AcDbEntity
  8
DV2_Standard
  6
Continuous
 62
     7
100
AcDbLine
 10
431.3759044483
 20
543.7888639244
 30
0.0
 11
431.3759044483
 21
555.4255833542
 31
0.0
  0
ARC
  5
B0
330
A5
100
AcDbEntity
  8
DV2_Standard
  6
Continuous
 62
     7
100
AcDbCircle
 10
429.3758441935
 20
543.8583298149
 30
0.0
 40
1.999999582296038
100
AcDbArc
 50
308.8188142773
 51
359.9999354869
  0
LINE
  5
B1
330
A5
100
AcDbEntity
  8
DV2_Standard
  6
Continuous
 62
     7
100
AcDbLine
 10
417.3364341252
 20
555.8904775047
 30
0.0
 11
253.3784953577
 21
555.8904775047
 31
0.0
  0
LINE
  5
B2
330
A5
100
AcDbEntity
  8
DV2_Standard
  6
Continuous
 62
     7
100
AcDbLine
 10
420.0897442208
 20
555.8904775047
 30
0.0
 11
417.3364341252
 21
555.8904775047
 31
0.0
  0
LINE
  5
B3
330
A5
100
AcDbEntity
  8
DV2_Standard
  6
Continuous
 62
     7
100
AcDbLine
 10
423.8754332504
 20
555.8904775047
 30
0.0
 11
420.0897442208
 21
555.8904775047
 31
0.0
  0
SPLINE
  5
B4
330
A5
100
AcDbEntity
  8
DV2_Standard
  6
Continuous
 62
     7
100
AcDbSpline
210
0.0
220
0.0
230
1.0
 70
     8
 71
     3
 72
    15
 73
    11
 74
     0
 42
0.0000000013180664
 43
0.0000000001
 40
0.0
 40
0.0
 40
0.0
 40
0.0
 40
0.143124693979993
 40
0.2767943960627474
 40
0.4008457420143591
 40
0.5152651526445008
 40
0.652980227466797
 40
0.7741240208244159
 40
0.8793824991274951
 40
1.0
 40
1.0
 40
1.0
 40
1.0
 10
431.3758311163974
 20
555.4255833533296
 30
0.0
 10
431.3432379943508
 20
555.4751195293175
 30
0.0
 10
431.2754445689705
 20
555.5551068546293
 30
0.0
 10
430.7759735364218
 20
555.6745631975627
 30
0.0
 10
430.075589826719
 20
555.7619610220504
 30
0.0
 10
429.1429982646137
 20
555.8276330037814
 30
0.0
 10
428.0106636323446
 20
555.8679363001482
 30
0.0
 10
426.7323923459223
 20
555.8883972120378
 30
0.0
 10
425.3723709351337
 20
555.8909459722189
 30
0.0
 10
424.4570243414446
 20
555.890967166081
 30
0.0
 10
423.8754332504058
 20
555.8904775046733
 30
0.0
  0
LINE
  5
B5
330
A5
100
AcDbEntity
  8
DV2_Standard
  6
Continuous
 62
     7
100
AcDbLine
 10
253.3784953577
 20
536.9255833525
 30
0.0
 11
400.7698881473
 21
536.9255833525
 31
0.0
  0
ARC
  5
B6
330
A5
100
AcDbEntity
  8
DV2_Standard
  6
Continuous
 62
     7
100
AcDbCircle
 10
253.2284953577
 20
458.3846359632
 30
0.0
 40
0.099999999999997
100
AcDbArc
 50
327.7118036993
 51
0.0
  0
LINE
  5
B7
330
A5
100
AcDbEntity
  8
DV2_Standard
  6
Continuous
 62
     7
100
AcDbLine
 10
425.1947951171
 20
534.6675918564
 30
0.0
 11
403.6612166853
 21
529.6961735554
 31
0.0
  0
LINE
  5
B8
330
A5
100
AcDbEntity
  8
DV2_Standard
  6
Continuous
 62
     7
100
AcDbLine
 10
402.4618955662
 20
530.4455925659
 30
0.0
 11
425.9442141275
 21
535.8669129756
 31
0.0
  0
LINE
  5
B9
330
A5
100
AcDbEntity
  8
DV2_Standard
  6
Continuous
 62
     7
100
AcDbLine
 10
425.9442141275
 20
535.8669129756
 30
0.0
 11
425.1966740472
 21
539.1048647985
 31
0.0
  0
LINE
  5
BA
330
A5
100
AcDbEntity
  8
DV2_Standard
  6
Continuous
 62
     7
100
AcDbLine
 10
400.9428074426
 20
537.025486124
 30
0.0
 11
402.4618955662
 21
530.4455925659
 31
0.0
  0
LINE
  5
BB
330
A5
100
AcDbEntity
  8
DV2_Standard
  6
Continuous
 62
     7
100
AcDbLine
 10
402.4618955662
 20
530.4455925659
 30
0.0
 11
403.6612166853
 21
529.6961735554
 31
0.0
  0
LINE
  5
BC
330
A5
100
AcDbEntity
  8
DV2_Standard
  6
Continuous
 62
     7
100
AcDbLine
 10
425.1947951171
 20
534.6675918564
 30
0.0
 11
425.9442141275
 21
535.8669129756
 31
0.0
  0
ARC
  5
BD
330
A5
100
AcDbEntity
  8
DV2_Standard
  6
Continuous
 62
     7
100
AcDbCircle
 10
253.0784953577
 20
569.1755833538
 30
0.0
 40
0.2999999999999964
100
AcDbArc
 50
0.0
 51
29.6120246407
  0
LINE
  5
BE
330
A5
100
AcDbEntity
  8
DV2_Standard
  6
Continuous
 62
     7
100
AcDbLine
 10
242.5284953577
 20
471.4255833538
 30
0.0
 11
242.5284953577
 21
411.5277536769
 31
0.0
  0
LINE
  5
BF
330
A5
100
AcDbEntity
  8
DV2_Standard
  6
Continuous
 62
     7
100
AcDbLine
 10
242.5284953577
 20
546.4255833538
 30
0.0
 11
242.5284953577
 21
471.4255833538
 31
0.0
  0
LINE
  5
C0
330
A5
100
AcDbEntity
  8
DV2_Standard
  6
Continuous
 62
     7
100
AcDbLine
 10
242.5284953577
 20
606.4255833538
 30
0.0
 11
242.5284953577
 21
546.4255833538
 31
0.0
  0
ARC
  5
C1
330
A5
100
AcDbEntity
  8
DV2_Standard
  6
Continuous
 62
     7
100
AcDbCircle
 10
7779.7765861736
 20
576.1149146631
 30
0.0
 40
7526.444678669973
100
AcDbArc
 50
180.049400661
 51
180.4026283926
  0
SPLINE
  5
C2
330
A5
100
AcDbEntity
  8
DV2_Standard
  6
Continuous
 62
     7
100
AcDbSpline
210
0.0
220
0.0
230
1.0
 70
     8
 71
     3
 72
    12
 73
     8
 74
     0
 42
0.0000000021052438
 43
0.0000000001
 40
0.0
 40
0.0
 40
0.0
 40
0.0
 40
0.4997842520892221
 40
0.4997842520892221
 40
0.9995685041784442
 40
0.9995685041784442
 40
1.0
 40
1.0
 40
1.0
 40
1.0
 10
253.4517533674653
 20
471.4255833537807
 30
0.0
 10
253.456683530904
 20
472.6806956104948
 30
0.0
 10
253.461886903971
 20
473.9080265444952
 30
0.0
 10
253.4696453008751
 20
475.6607567867918
 30
0.0
 10
253.4720789349127
 20
476.1747448716092
 30
0.0
 10
253.4720828432228
 20
476.1755829918369
 30
0.0
 10
253.4720828448112
 20
476.1755833387499
 30
0.0
 10
253.4720828446173
 20
476.175583309676
 30
0.0
  0
LINE
  5
C3
330
A5
100
AcDbEntity
  8
DV2_Standard
  6
Continuous
 62
     7
100
AcDbLine
 10
253.4145698314
 20
462.9255833538
 30
0.0
 11
253.4517533675
 21
471.4255833538
 31
0.0
  0
SPLINE
  5
C4
330
A5
100
AcDbEntity
  8
DV2_Standard
  6
Continuous
 62
     7
100
AcDbSpline
210
0.0
220
0.0
230
1.0
 70
     8
 71
     3
 72
    10
 73
     6
 74
     0
 42
0.0000000021052415
 43
0.0000000001
 40
0.0
 40
0.0
 40
0.0
 40
0.0
 40
0.4997839135553828
 40
0.4997839135553828
 40
1.0
 40
1.0
 40
1.0
 40
1.0
 10
253.3930307645067
 20
458.1755833979481
 30
0.0
 10
253.3930308626179
 20
458.1756176435431
 30
0.0
 10
253.3951418038308
 20
458.6791929872351
 30
0.0
 10
253.4029665250028
 20
460.450320579668
 30
0.0
 10
253.4085186983879
 20
461.6704751078432
 30
0.0
 10
253.4145698314332
 20
462.9255833537807
 30
0.0
  0
ARC
  5
C5
330
A5
100
AcDbEntity
  8
DV2_Standard
  6
Continuous
 62
     7
100
AcDbCircle
 10
247.0742675588
 20
351.7169045291
 30
0.0
 40
59.88117863301303
100
AcDbArc
 50
87.6510775421
 51
91.0006713469
  0
LINE
  5
C6
330
A5
100
AcDbEntity
  8
DV2_Standard
  6
Continuous
 62
     7
100
AcDbLine
 10
246.0284953577
 20
411.5889507192
 30
0.0
 11
242.5284953577
 21
411.5277536769
 31
0.0
  0
LINE
  5
C7
330
A5
100
AcDbEntity
  8
DV2_Standard
  6
Continuous
 62
     7
100
AcDbLine
 10
252.0586605433
 20
606.2592337017
 30
0.0
 11
242.5284953577
 21
606.4255833538
 31
0.0
  0
ARC
  5
C8
330
A5
100
AcDbEntity
  8
DV2_Standard
  6
Continuous
 62
     7
100
AcDbCircle
 10
252.0403335718
 20
412.5917654394
 30
0.0
 40
0.9999999999965447
100
AcDbArc
 50
271.5010004442
 51
359.9993663246
  0
ARC
  5
C9
330
A5
100
AcDbEntity
  8
DV2_Standard
  6
Continuous
 62
     7
100
AcDbCircle
 10
252.0403335718
 20
605.2594012682
 30
0.0
 40
0.9999999999334712
100
AcDbArc
 50
0.0006336754
 51
89.4784884992
  0
LINE
  5
CA
330
A5
100
AcDbEntity
  8
DV2_Standard
  6
Continuous
 62
     7
100
AcDbLine
 10
253.3116022907
 20
569.6254052498
 30
0.0
 11
253.0402787804
 21
604.8697381432
 31
0.0
  0
SPLINE
  5
CB
330
A5
100
AcDbEntity
  8
DV2_Standard
  6
Continuous
 62
     7
100
AcDbSpline
210
0.0
220
0.0
230
1.0
 70
     8
 71
     3
 72
     8
 73
     4
 74
     0
 42
0.0000000002121928
 43
0.0000000001
 40
0.0
 40
0.0
 40
0.0
 40
0.0
 40
1.0
 40
1.0
 40
1.0
 40
1.0
 10
253.4442999186638
 20
476.1147272323735
 30
0.0
 10
253.5375063744442
 20
497.9886313133111
 30
0.0
 10
253.5533264228322
 20
513.6974825463227
 30
0.0
 10
253.4917600638279
 20
523.2412809314083
 30
0.0
  0
LINE
  5
CC
330
A5
100
AcDbEntity
  8
DV2_Standard
  6
Continuous
 62
     7
100
AcDbLine
 10
253.0402833066
 20
412.9820165137
 30
0.0
 11
253.3886688959
 21
458.2365455803
 31
0.0
  0
LINE
  5
CD
330
A5
100
AcDbEntity
  8
DV2_Standard
  6
Continuous
 62
     7
100
AcDbLine
 10
249.483890046
 20
411.5469902197
 30
0.0
 11
252.0587166314
 21
411.5919339849
 31
0.0
  0
ENDBLK
  5
CF
330
A5
100
AcDbEntity
  8
0
100
AcDbBlockEnd
  0
BLOCK
  5
E8
330
D0
100
AcDbEntity
  8
0
100
AcDbBlockBegin
  2
SE2
 70
     0
 10
0.0
 20
0.0
 30
0.0
  3
SE2
  1

  0
LINE
  5
D3
330
D0
100
AcDbEntity
  8
DV3_Standard
  6
Continuous
 62
     7
100
AcDbLine
 10
82.3500005209
 20
123.4507910062
 30
0.0
 11
82.3500005209
 21
284.448200047
 31
0.0
  0
LINE
  5
D4
330
D0
100
AcDbEntity
  8
DV3_Standard
  6
Continuous
 62
     7
100
AcDbLine
 10
50.3500005209
 20
284.448200047
 30
0.0
 11
50.3500005209
 21
123.4507910062
 31
0.0
  0
SPLINE
  5
D5
330
D0
100
AcDbEntity
  8
DV3_Standard
  6
Continuous
 62
     7
100
AcDbSpline
210
0.0
220
0.0
230
1.0
 70
    12
 71
     3
 72
    11
 73
     7
 74
     0
 42
0.0000000033267788
 43
0.0000000001
 40
0.0
 40
0.0
 40
0.0
 40
0.0
 40
0.4896358194660154
 40
1.0
 40
1.0
 40
1.0
 40
1.0
 40
1.0
 40
1.0
 10
50.35000052092307
 20
123.450791006177
 30
0.0
 41
0.9999999985171484
 10
50.35004733395415
 20
122.9704803318424
 30
0.0
 41
0.9999999985171485
 10
50.35001848694108
 20
121.979889381411
 30
0.0
 41
0.9999999985171484
 10
50.41063096588748
 20
120.969143291567
 30
0.0
 41
0.9999999985171484
 10
50.47590630298048
 20
120.450791006176
 30
0.0
 41
0.9999999985171484
 10
50.47590636904738
 20
120.4507904824461
 30
0.0
 41
0.9999999985171483
 10
50.47590630298048
 20
120.450791006176
 30
0.0
 41
0.9999999985171482
  0
SPLINE
  5
D6
330
D0
100
AcDbEntity
  8
DV3_Standard
  6
Continuous
 62
     7
100
AcDbSpline
210
0.0
220
0.0
230
1.0
 70
    12
 71
     3
 72
    25
 73
    21
 74
     0
 42
0.0000000002152574
 43
0.0000000001
 40
0.0
 40
0.0
 40
0.0
 40
0.0
 40
0.0342496076502819
 40
0.0909831645912305
 40
0.1595933692327356
 40
0.2282244521645445
 40
0.294082835421586
 40
0.3627386419249124
 40
0.4313739655655349
 40
0.5000006123635157
 40
0.5657469255128166
 40
0.6343388280707524
 40
0.7029445054640379
 40
0.7715760941617946
 40
0.8374333991602075
 40
0.9060890845926916
 40
0.9642256219019135
 40
1.0
 40
1.0
 40
1.0
 40
1.0
 40
1.0
 40
1.0
 10
50.47590630298048
 20
120.450791006176
 30
0.0
 41
1.0
 10
50.54197330635812
 20
119.9270605191072
 30
0.0
 41
1.0
 10
50.78566227157147
 20
118.543809319498
 30
0.0
 41
1.0
 10
51.53030682005418
 20
116.18958546945
 30
0.0
 41
1.0
 10
52.93821291991568
 20
113.534443647418
 30
0.0
 41
1.0
 10
54.93141106058288
 20
111.099114877735
 30
0.0
 41
1.0
 10
57.35714224091549
 20
109.09542372289
 30
0.0
 41
1.0
 10
60.12516546427106
 20
107.596803915835
 30
0.0
 41
1.0
 10
63.17578984579385
 20
106.661649394238
 30
0.0
 41
1.0
 10
66.30546905990462
 20
106.35
 30
0.0
 41
1.0
 10
69.435108164108
 20
106.648120004461
 30
0.0
 41
1.0
 10
72.44869627885686
 20
107.54533012216
 30
0.0
 41
1.0
 10
75.26647405284342
 20
109.038811950346
 30
0.0
 41
1.0
 10
77.70168122657707
 20
111.032230593821
 30
0.0
 41
1.0
 10
79.70517852162507
 20
113.457940775356
 30
0.0
 41
1.0
 10
81.12663832192818
 20
116.082677535462
 30
0.0
 41
1.0
 10
81.90027438582008
 20
118.476480552191
 30
0.0
 41
1.0
 10
82.15508316476618
 20
119.903715210513
 30
0.0
 41
1.0
 10
82.22405765205617
 20
120.450791006086
 30
0.0
 41
1.0
 10
82.22405771335822
 20
120.4507914926492
 30
0.0
 41
1.0
 10
82.22405765205617
 20
120.450791006086
 30
0.0
 41
1.0
  0
SPLINE
  5
D7
330
D0
100
AcDbEntity
  8
DV3_Standard
  6
Continuous
 62
     7
100
AcDbSpline
210
0.0
220
0.0
230
1.0
 70
    12
 71
     3
 72
    11
 73
     7
 74
     0
 42
0.0000000033267762
 43
0.0000000001
 40
0.0
 40
0.0
 40
0.0
 40
0.0
 40
0.4790896637727191
 40
0.9999817584934368
 40
0.9999817584934368
 40
1.0
 40
1.0
 40
1.0
 40
1.0
 10
82.22405765205617
 20
120.450791006086
 30
0.0
 41
1.0
 10
82.28535972740859
 20
120.9373547342006
 30
0.0
 41
1.0
 10
82.35003955977528
 20
121.948517421409
 30
0.0
 41
1.0
 10
82.34993085299168
 20
122.939831596027
 30
0.0
 41
1.0
 10
82.35000051604437
 20
123.450755224788
 30
0.0
 41
1.0
 10
82.35000051767068
 20
123.4507731157556
 30
0.0
 41
1.0
 10
82.35000052092307
 20
123.450791006177
 30
0.0
 41
1.0
  0
LINE
  5
D8
330
D0
100
AcDbEntity
  8
DV3_Standard
  6
Continuous
 62
     7
100
AcDbLine
 10
43.6
 20
284.448200047
 30
0.0
 11
89.1
 21
284.448200047
 31
0.0
  0
LINE
  5
D9
330
D0
100
AcDbEntity
  8
DV3_Standard
  6
Continuous
 62
     7
100
AcDbLine
 10
126.35
 20
295.298200047
 30
0.0
 11
6.35
 21
295.298200047
 31
0.0
  0
SPLINE
  5
DA
330
D0
100
AcDbEntity
  8
DV3_Standard
  6
Continuous
 62
     7
100
AcDbSpline
210
0.0
220
0.0
230
1.0
 70
     8
 71
     3
 72
    46
 73
    42
 74
     0
 42
0.0000000000849686
 43
0.0000000001
 40
0.0
 40
0.0
 40
0.0
 40
0.0
 40
0.0598571715592929
 40
0.0598571715592929
 40
0.0913030685484556
 40
0.0913030685484556
 40
0.1227489655376183
 40
0.1227489655376183
 40
0.1856407595159437
 40
0.1856407595159437
 40
0.248532553494269
 40
0.248532553494269
 40
0.3114243474725944
 40
0.3114243474725944
 40
0.3428702444617571
 40
0.3428702444617571
 40
0.3743161414509197
 40
0.3743161414509197
 40
0.4372079354292451
 40
0.4372079354292451
 40
0.5000997294075703
 40
0.5000997294075703
 40
0.5629915233858956
 40
0.5629915233858956
 40
0.6258833173642209
 40
0.6258833173642209
 40
0.6573292143533835
 40
0.6573292143533835
 40
0.688775111342546
 40
0.688775111342546
 40
0.7516669053208711
 40
0.7516669053208711
 40
0.8145586992991962
 40
0.8145586992991962
 40
0.8460045962883587
 40
0.8460045962883587
 40
0.8774504932775213
 40
0.8774504932775213
 40
0.9403422872558465
 40
0.9403422872558465
 40
1.0
 40
1.0
 40
1.0
 40
1.0
 10
125.1953017237814
 20
284.7673124925088
 30
0.0
 10
125.1600015620367
 20
284.7709777045943
 30
0.0
 10
124.7798036347652
 20
284.7728593762565
 30
0.0
 10
123.6945545059185
 20
284.7751814570707
 30
0.0
 10
123.2286668164147
 20
284.7758509957208
 30
0.0
 10
122.1084631535802
 20
284.7770757605896
 30
0.0
 10
121.4509797008681
 20
284.7776299484137
 30
0.0
 10
119.2357698559673
 20
284.7791934317161
 30
0.0
 10
117.4284400362073
 20
284.7801405294691
 30
0.0
 10
113.1586506123113
 20
284.7818518678607
 30
0.0
 10
110.6734133408782
 20
284.7826387733829
 30
0.0
 10
105.2446750192691
 20
284.7839777087363
 30
0.0
 10
102.2825984578179
 20
284.7845196350273
 30
0.0
 10
97.45909207217996
 20
284.7852012303878
 30
0.0
 10
95.78778316247183
 20
284.7853984307963
 30
0.0
 10
92.39091561504866
 20
284.785725378788
 30
0.0
 10
90.65645106122135
 20
284.7858589944672
 30
0.0
 10
85.3466084537812
 20
284.7862030806323
 30
0.0
 10
81.63966225195402
 20
284.7863202722454
 30
0.0
 10
74.04455275879913
 20
284.7864309082836
 30
0.0
 10
70.22691246462722
 20
284.7864134822949
 30
0.0
 10
62.55253741157672
 20
284.7864128980256
 30
0.0
 10
58.65507679659028
 20
284.7864306773357
 30
0.0
 10
51.10830648601908
 20
284.7863211951276
 30
0.0
 10
47.440331909073
 20
284.7862074599571
 30
0.0
 10
42.09733803406102
 20
284.7858630903925
 30
0.0
 10
40.33370179336971
 20
284.7857275008283
 30
0.0
 10
36.92396647176494
 20
284.7853998064533
 30
0.0
 10
35.27493902917952
 20
284.7852053074409
 30
0.0
 10
30.49133734887582
 20
284.7845315141325
 30
0.0
 10
27.51864838588327
 20
284.7839919375113
 30
0.0
 10
22.02282502650844
 20
284.78263921985
 30
0.0
 10
19.58126332547883
 20
284.7818648591771
 30
0.0
 10
16.38287071939482
 20
284.7805874031173
 30
0.0
 10
15.39323454985219
 20
284.780135732444
 30
0.0
 10
13.57014442148399
 20
284.7791803029128
 30
0.0
 10
12.73423180686016
 20
284.7786776050478
 30
0.0
 10
10.51568550981549
 20
284.7771135512893
 30
0.0
 10
9.401268430927693
 20
284.7760102448393
 30
0.0
 10
7.931234307630625
 20
284.7728998520078
 30
0.0
 10
7.543387174345571
 20
284.7709937845949
 30
0.0
 10
7.505127278267576
 20
284.7673493435229
 30
0.0
  0
LINE
  5
DB
330
D0
100
AcDbEntity
  8
DV3_Standard
  6
Continuous
 62
     7
100
AcDbLine
 10
6.5166787213
 20
285.7491825007
 30
0.0
 11
6.35
 21
295.298200047
 31
0.0
  0
LINE
  5
DC
330
D0
100
AcDbEntity
  8
DV3_Standard
  6
Continuous
 62
     7
100
AcDbLine
 10
126.1833212787
 20
285.7491825007
 30
0.0
 11
126.35
 21
295.298200047
 31
0.0
  0
ARC
  5
DD
330
D0
100
AcDbEntity
  8
DV3_Standard
  6
Continuous
 62
     7
100
AcDbCircle
 10
7.5165263817
 20
285.7666349065
 30
0.0
 40
0.9999999652633782
100
AcDbArc
 50
181.0
 51
191.0284619141
  0
SPLINE
  5
DE
330
D0
100
AcDbEntity
  8
DV3_Standard
  6
Continuous
 62
     7
100
AcDbSpline
210
0.0
220
0.0
230
1.0
 70
     8
 71
     3
 72
    22
 73
    18
 74
     0
 42
0.0000000004308618
 43
0.0000000001
 40
0.0
 40
0.0
 40
0.0
 40
0.0
 40
0.1249571108894857
 40
0.1249571108894857
 40
0.2499142217789714
 40
0.2499142217789714
 40
0.374871332668457
 40
0.374871332668457
 40
0.4998284435579427
 40
0.4998284435579427
 40
0.6247855544474283
 40
0.6247855544474283
 40
0.7497426653369138
 40
0.7497426653369138
 40
0.999656887115885
 40
0.999656887115885
 40
1.0
 40
1.0
 40
1.0
 40
1.0
 10
66.34999999999998
 20
284.4919903366822
 30
0.0
 10
64.81728836102052
 20
284.4919903366822
 30
0.0
 10
63.31018952170425
 20
284.4917779584691
 30
0.0
 10
60.34512249907986
 20
284.4908633072944
 30
0.0
 10
58.87180299998118
 20
284.4901499166132
 30
0.0
 10
56.06221369611254
 20
284.4881712667236
 30
0.0
 10
54.72966150015447
 20
284.4869176535801
 30
0.0
 10
52.20774775003204
 20
284.4837827224526
 30
0.0
 10
51.01370199461798
 20
284.4818817886998
 30
0.0
 10
48.87349653393469
 20
284.4774755129194
 30
0.0
 10
47.91313401232807
 20
284.4749593074467
 30
0.0
 10
46.21712781740931
 20
284.4691294686529
 30
0.0
 10
45.49639381040956
 20
284.4658526397517
 30
0.0
 10
43.76084843117179
 20
284.4549388822896
 30
0.0
 10
43.15159767566115
 20
284.4459786790555
 30
0.0
 10
43.15000103158773
 20
284.4353597930901
 30
0.0
 10
43.14999998354001
 20
284.4353452302591
 30
0.0
 10
43.15000007638367
 20
284.4353306635218
 30
0.0
  0
SPLINE
  5
DF
330
D0
100
AcDbEntity
  8
DV3_Standard
  6
Continuous
 62
     7
100
AcDbSpline
210
0.0
220
0.0
230
1.0
 70
     8
 71
     3
 72
    16
 73
    12
 74
     0
 42
0.0000000013927213
 43
0.0000000001
 40
0.0
 40
0.0
 40
0.0
 40
0.0
 40
0.2123138381306002
 40
0.2123138381306002
 40
0.4645292834654676
 40
0.4645292834654676
 40
0.7167447288003346
 40
0.7167447288003346
 40
0.9689601741352015
 40
0.9689601741352015
 40
0.9999999999999999
 40
0.9999999999999999
 40
0.9999999999999999
 40
0.9999999999999999
 10
43.16096422042714
 20
284.4328197601539
 30
0.0
 10
43.20047502203496
 20
284.4282226952427
 30
0.0
 10
43.34655211017024
 20
284.4232816238044
 30
0.0
 10
43.8914883100687
 20
284.411992268487
 30
0.0
 10
44.32932666999774
 20
284.4055368411797
 30
0.0
 10
45.49051627402936
 20
284.3919842972087
 30
0.0
 10
46.21688780644033
 20
284.3848906417896
 30
0.0
 10
47.89601349175325
 20
284.3708600763687
 30
0.0
 10
48.85455179030655
 20
284.3638467828306
 30
0.0
 10
50.06988647951648
 20
284.3561712874254
 30
0.0
 10
50.20446043130633
 20
284.3553360529353
 30
0.0
 10
50.34040987912896
 20
284.3545071032734
 30
0.0
  0
SPLINE
  5
E0
330
D0
100
AcDbEntity
  8
DV3_Standard
  6
Continuous
 62
     7
100
AcDbSpline
210
0.0
220
0.0
230
1.0
 70
     8
 71
     3
 72
    16
 73
    12
 74
     0
 42
0.0000000014037905
 43
0.0000000001
 40
0.0
 40
0.0
 40
0.0
 40
0.0
 40
0.0309713810619705
 40
0.0309713810619705
 40
0.2982702416963292
 40
0.2982702416963292
 40
0.5655691023306888
 40
0.5655691023306888
 40
0.8328679629650475
 40
0.8328679629650475
 40
1.0
 40
1.0
 40
1.0
 40
1.0
 10
82.36233352015427
 20
284.3545251897644
 30
0.0
 10
82.48934901056326
 20
284.3552990170821
 30
0.0
 10
82.61490386430711
 20
284.3560770671849
 30
0.0
 10
83.80953121283174
 20
284.3636056751209
 30
0.0
 10
84.78986991530759
 20
284.3707501360441
 30
0.0
 10
86.47747824965168
 20
284.3848356423989
 30
0.0
 10
87.19092803864054
 20
284.3917936243744
 30
0.0
 10
88.35656585085806
 20
284.4053470108872
 30
0.0
 10
88.80495584621012
 20
284.4119387779472
 30
0.0
 10
89.28611144182695
 20
284.4218741970934
 30
0.0
 10
89.41465632106691
 20
284.4255410670668
 30
0.0
 10
89.48538629798189
 20
284.429064630375
 30
0.0
  0
SPLINE
  5
E1
330
D0
100
AcDbEntity
  8
DV3_Standard
  6
Continuous
 62
     7
100
AcDbSpline
210
0.0
220
0.0
230
1.0
 70
     8
 71
     3
 72
    20
 73
    16
 74
     0
 42
0.0000000004309316
 43
0.0000000001
 40
0.0
 40
0.0
 40
0.0
 40
0.0
 40
0.1244258472686811
 40
0.1244258472686811
 40
0.2495078690874411
 40
0.2495078690874411
 40
0.3745898909062012
 40
0.3745898909062012
 40
0.4996719127249608
 40
0.4996719127249608
 40
0.6247539345437209
 40
0.6247539345437209
 40
0.7498359563624809
 40
0.7498359563624809
 40
1.0
 40
1.0
 40
1.0
 40
1.0
 10
89.55000002792252
 20
284.4353325555775
 30
0.0
 10
89.54998409769358
 20
284.4406668944943
 30
0.0
 10
89.40063465772361
 20
284.4455200863231
 30
0.0
 10
88.81563123751118
 20
284.454407326702
 30
0.0
 10
88.3722248302862
 20
284.4584916893624
 30
0.0
 10
87.20878109109306
 20
284.4658321631229
 30
0.0
 10
86.4969458814113
 20
284.4690671344052
 30
0.0
 10
84.8171515812893
 20
284.4748687981423
 30
0.0
 10
83.83816867501471
 20
284.477447513632
 30
0.0
 10
81.69788876417708
 20
284.4818618653504
 30
0.0
 10
80.53102487849006
 20
284.4837269401812
 30
0.0
 10
78.00059615731726
 20
284.486887421972
 30
0.0
 10
76.64693108708269
 20
284.4881620230548
 30
0.0
 10
72.46054393749154
 20
284.4911186362725
 30
0.0
 10
69.4154232779589
 20
284.4919903366822
 30
0.0
 10
66.34999999999998
 20
284.4919903366822
 30
0.0
  0
ARC
  5
E2
330
D0
100
AcDbEntity
  8
DV3_Standard
  6
Continuous
 62
     7
100
AcDbCircle
 10
125.1834072755
 20
285.7628361196
 30
0.0
 40
0.9999999999998553
100
AcDbArc
 50
270.891568996
 51
359.0052066218
  0
ARC
  5
E3
330
D0
100
AcDbEntity
  8
DV3_Standard
  6
Continuous
 62
     7
100
AcDbCircle
 10
7.5165927245
 20
285.7628361196
 30
0.0
 40
0.9999999999978275
100
AcDbArc
 50
180.9947933782
 51
269.057467163
  0
ARC
  5
E4
330
D0
100
AcDbEntity
  8
DV3_Standard
  6
Continuous
 62
     7
100
AcDbCircle
 10
66.3500266015
 20
4014.9181311137
 30
0.0
 40
3730.619356069471
100
AcDbArc
 50
269.0961478771
 51
269.7542667666
  0
ARC
  5
E5
330
D0
100
AcDbEntity
  8
DV3_Standard
  6
Continuous
 62
     7
100
AcDbCircle
 10
66.3500266015
 20
4014.9181311137
 30
0.0
 40
3730.619356069471
100
AcDbArc
 50
270.2457335709
 51
270.7705379581
  0
ARC
  5
E6
330
D0
100
AcDbEntity
  8
DV3_Standard
  6
Continuous
 62
     7
100
AcDbCircle
 10
66.3500266015
 20
4014.9181311137
 30
0.0
 40
3730.619356069471
100
AcDbArc
 50
270.8996206474
 51
270.9038511804
  0
SPLINE
  5
E7
330
D0
100
AcDbEntity
  8
DV3_Standard
  6
Continuous
 62
     7
100
AcDbSpline
210
0.0
220
0.0
230
1.0
 70
     8
 71
     3
 72
    21
 73
    17
 74
     0
 42
0.0000000008787974
 43
0.0000000001
 40
0.0
 40
0.0
 40
0.0
 40
0.0
 40
0.044188554805062
 40
0.1523043989618153
 40
0.2529596626362247
 40
0.3457280745103817
 40
0.4303490427270536
 40
0.5205532694545426
 40
0.5989807823003883
 40
0.6670202308916904
 40
0.7411834024308412
 40
0.8257973356444522
 40
0.876819142024657
 40
0.9296205254988741
 40
0.9846952295345027
 40
0.9999999999999999
 40
0.9999999999999999
 40
0.9999999999999999
 40
0.9999999999999999
 10
113.8204538600244
 20
284.6099518392251
 30
0.0
 10
113.8227403509353
 20
284.6098923874372
 30
0.0
 10
113.9002210867968
 20
284.6105883807388
 30
0.0
 10
114.2715482597659
 20
284.614866706454
 30
0.0
 10
114.8059532380678
 20
284.6211863009112
 30
0.0
 10
115.4602239310284
 20
284.6291864025341
 30
0.0
 10
116.2311615511436
 20
284.6388325817877
 30
0.0
 10
117.1283398520523
 20
284.6502941290904
 30
0.0
 10
118.143722966375
 20
284.6635103729429
 30
0.0
 10
119.3466051257993
 20
284.6794744341622
 30
0.0
 10
120.644366615747
 20
284.6970657796354
 30
0.0
 10
121.8608216999933
 20
284.7139863716014
 30
0.0
 10
122.9757352602045
 20
284.7298883962808
 30
0.0
 10
123.9190801159266
 20
284.7436761340286
 30
0.0
 10
124.6797368814815
 20
284.7549637042531
 30
0.0
 10
125.0933800744749
 20
284.761385504062
 30
0.0
 10
125.1986032892273
 20
284.7630197035311
 30
0.0
  0
ENDBLK
  5
E9
330
D0
100
AcDbEntity
  8
0
100
AcDbBlockEnd
  0
ENDSEC
  0
SECTION
  2
ENTITIES
  0
INSERT
  5
5F
330
1F
100
AcDbEntity
  8
Default
100
AcDbBlockReference
  2
SEANNOT_GROUP
 10
0.0
 20
0.0
 30
0.0
  0
INSERT
  5
66
330
1F
100
AcDbEntity
  8
Default
100
AcDbBlockReference
  2
SEANNOT_GROUP1
 10
0.0
 20
0.0
 30
0.0
  0
INSERT
  5
6C
330
1F
100
AcDbEntity
  8
Default
100
AcDbBlockReference
  2
SEANNOT_GROUP2
 10
0.0
 20
0.0
 30
0.0
  0
INSERT
  5
72
330
1F
100
AcDbEntity
  8
Default
100
AcDbBlockReference
  2
SE
 10
0.0
 20
0.0
 30
0.0
  0
INSERT
  5
A6
330
1F
100
AcDbEntity
  8
Default
100
AcDbBlockReference
  2
SE1
 10
0.0
 20
0.0
 30
0.0
  0
INSERT
  5
D1
330
1F
100
AcDbEntity
  8
Default
100
AcDbBlockReference
  2
SE2
 10
0.0
 20
0.0
 30
0.0
  0
TEXT
  5
EB
330
1F
100
AcDbEntity
  8
Default
  6
Continuous
 62
     7
100
AcDbText
 10
5.9362635081
 20
53.4225120485
 30
0.0
 40
10.0
  1
Grohe AG^J
  7
SEACAD_seiso_ttf
 11
5.9362635081
 21
63.4225120485
 31
0.0
100
AcDbText
 73
     3
  0
TEXT
  5
EC
330
1F
100
AcDbEntity
  8
Default
  6
Continuous
 62
     7
100
AcDbText
 10
5.9362635081
 20
37.0588756849
 30
0.0
 40
10.0
  1
 
  7
SEACAD_seiso_ttf
 11
5.9362635081
 21
47.0588756849
 31
0.0
100
AcDbText
 73
     3
  0
TEXT
  5
ED
330
1F
100
AcDbEntity
  8
Default
  6
Continuous
 62
     7
100
AcDbText
 10
5.9362635081
 20
20.6952393213
 30
0.0
 40
10.0
  1
ecn: 
  7
SEACAD_seiso_ttf
 11
5.9362635081
 21
30.6952393213
 31
0.0
100
AcDbText
 73
     3
  0
TEXT
  5
EE
330
1F
100
AcDbEntity
  8
Default
  6
Continuous
 62
     7
100
AcDbText
 10
5.9362635081
 20
4.3316029576
 30
0.0
 40
10.0
  1
unit: mm
  7
SEACAD_seiso_ttf
 11
5.9362635081
 21
14.3316029576
 31
0.0
100
AcDbText
 73
     3
  0
LINE
  5
EF
330
1F
100
AcDbEntity
  8
Default
  6
Continuous
 62
     7
100
AcDbLine
 10
0.0
 20
0.0
 30
0.0
 11
100.0
 21
0.0
 31
0.0
  0
LINE
  5
F0
330
1F
100
AcDbEntity
  8
Default
  6
Continuous
 62
     7
100
AcDbLine
 10
0.0
 20
0.0
 30
0.0
 11
0.0
 21
100.0
 31
0.0
  0
TEXT
  5
F1
330
1F
100
AcDbEntity
  8
Default
  6
Continuous
 62
     7
100
AcDbText
 10
24.3923665681
 20
-18.2375342018
 30
0.0
 40
10.0
  1
100 mm
  7
SEACAD_seiso_ttf
 11
24.3923665681
 21
-8.2375342018
 31
0.0
100
AcDbText
 73
     3
  0
TEXT
  5
F2
330
1F
100
AcDbEntity
  8
Default
  6
Continuous
 62
     7
100
AcDbText
 10
-7.6150308803
 20
24.6231930421
 30
0.0
 40
10.0
  1
100 mm
 50
90.0
  7
SEACAD_seiso_ttf
 11
-17.6150308803
 21
24.6231930421
 31
0.0
100
AcDbText
 73
     3
  0
TEXT
  5
F3
330
1F
100
AcDbEntity
  8
Default
  6
Continuous
 62
     7
100
AcDbText
 10
28.4878128572
 20
20.0907663715
 30
0.0
 40
10.0
  1
219590
  7
SEACAD_seiso_ttf
 11
28.4878128572
 21
30.0907663715
 31
0.0
100
AcDbText
 73
     3
  0
TEXT
  5
F4
330
1F
100
AcDbEntity
  8
Default
  6
Continuous
 62
     7
100
AcDbText
 10
5.9012241913
 20
36.7242780188
 30
0.0
 40
10.0
  1
36335SD0
  7
SEACAD_seiso_ttf
 11
5.9012241913
 21
46.7242780188
 31
0.0
100
AcDbText
 73
     3
  0
ENDSEC
  0
SECTION
  2
OBJECTS
  0
DICTIONARY
  5
C
330
0
100
AcDbDictionary
281
     1
  3
ACAD_GROUP
350
D
  3
ACAD_LAYOUT
350
1A
  3
ACAD_MLEADERSTYLE
350
F8
  3
ACAD_MLINESTYLE
350
17
  3
ACAD_PLOTSETTINGS
350
19
  3
ACAD_PLOTSTYLENAME
350
E
  3
ACAD_SCALELIST
350
3B
  3
ACAD_TABLESTYLE
350
F7
  3
ACAD_VISUALSTYLE
350
2A
  3
AcDbVariableDictionary
350
F5
  0
DICTIONARY
  5
D
102
{ACAD_REACTORS
330
C
102
}
330
C
100
AcDbDictionary
281
     1
  0
DICTIONARY
  5
1A
102
{ACAD_REACTORS
330
C
102
}
330
C
100
AcDbDictionary
281
     1
  3
Layout1
350
1E
  3
Model
350
22
  0
DICTIONARY
  5
F8
102
{ACAD_REACTORS
330
C
102
}
330
C
100
AcDbDictionary
281
     1
  0
DICTIONARY
  5
17
102
{ACAD_REACTORS
330
C
102
}
330
C
100
AcDbDictionary
281
     1
  3
Standard
350
18
  0
DICTIONARY
  5
19
102
{ACAD_REACTORS
330
C
102
}
330
C
100
AcDbDictionary
281
     1
  0
ACDBDICTIONARYWDFLT
  5
E
102
{ACAD_REACTORS
330
C
102
}
330
C
100
AcDbDictionary
281
     1
  3
Normal
350
F
100
AcDbDictionaryWithDefault
340
F
  0
DICTIONARY
  5
3B
102
{ACAD_REACTORS
330
C
102
}
330
C
100
AcDbDictionary
281
     1
  3
A0
350
3C
  3
A1
350
3D
  3
A2
350
3E
  3
A3
350
3F
  3
A4
350
40
  3
A5
350
41
  3
A6
350
42
  3
A7
350
43
  3
A8
350
44
  3
A9
350
45
  3
B0
350
46
  3
B1
350
47
  3
B2
350
48
  3
B3
350
49
  3
B4
350
4A
  3
B5
350
4B
  3
B6
350
4C
  3
B7
350
4D
  3
B8
350
4E
  3
B9
350
4F
  3
C0
350
50
  3
C1
350
51
  3
C2
350
52
  3
C3
350
53
  3
C4
350
54
  3
C5
350
55
  3
C6
350
56
  3
C7
350
57
  3
C8
350
58
  3
C9
350
59
  3
D0
350
5A
  3
D1
350
5B
  3
D2
350
5C
  0
DICTIONARY
  5
F7
102
{ACAD_REACTORS
330
C
102
}
330
C
100
AcDbDictionary
281
     1
  0
DICTIONARY
  5
2A
102
{ACAD_REACTORS
330
C
102
}
330
C
100
AcDbDictionary
281
     1
  3
2dWireframe
350
2F
  3
3D Hidden
350
31
  3
3dWireframe
350
30
  3
Basic
350
32
  3
Brighten
350
36
  3
ColorChange
350
3A
  3
Conceptual
350
34
  3
Dim
350
35
  3
Facepattern
350
39
  3
Flat
350
2B
  3
FlatWithEdges
350
2C
  3
Gouraud
350
2D
  3
GouraudWithEdges
350
2E
  3
Linepattern
350
38
  3
Realistic
350
33
  3
Thicken
350
37
  0
DICTIONARY
  5
F5
102
{ACAD_REACTORS
330
C
102
}
330
C
100
AcDbDictionary
281
     1
  3
CANNOSCALE
350
F6
  3
PSOLHEIGHT
350
FA
  3
PSOLWIDTH
350
F9
  0
LAYOUT
  5
1E
102
{ACAD_REACTORS
330
1A
102
}
330
1A
100
AcDbPlotSettings
  1

  2
none_device
  4

  6

 40
0.0
 41
0.0
 42
0.0
 43
0.0
 44
0.0
 45
0.0
 46
0.0
 47
0.0
 48
0.0
 49
0.0
140
0.0
141
0.0
142
1.0
143
1.0
 70
   688
 72
     0
 73
     0
 74
     5
  7

 75
    16
147
1.0
148
0.0
149
0.0
100
AcDbLayout
  1
Layout1
 70
     1
 71
     1
 10
0.0
 20
0.0
 11
1682.0
 21
2378.0
 12
0.0
 22
0.0
 32
0.0
 14
0.0
 24
0.0
 34
0.0
 15
1682.0
 25
2378.0
 35
0.0
146
0.0
 13
0.0
 23
0.0
 33
0.0
 16
1.0
 26
0.0
 36
0.0
 17
0.0
 27
1.0
 37
0.0
 76
     0
330
1B
  0
LAYOUT
  5
22
102
{ACAD_REACTORS
330
1A
102
}
330
1A
100
AcDbPlotSettings
  1

  2
none_device
  4

  6

 40
0.0
 41
0.0
 42
0.0
 43
0.0
 44
0.0
 45
0.0
 46
0.0
 47
0.0
 48
0.0
 49
0.0
140
0.0
141
0.0
142
1.0
143
1.0
 70
  1712
 72
     0
 73
     0
 74
     0
  7

 75
     0
147
1.0
148
0.0
149
0.0
100
AcDbLayout
  1
Model
 70
     1
 71
     0
 10
0.0
 20
0.0
 11
1682.0
 21
2378.0
 12
0.0
 22
0.0
 32
0.0
 14
0.0
 24
0.0
 34
0.0
 15
1682.0
 25
2378.0
 35
0.0
146
0.0
 13
0.0
 23
0.0
 33
0.0
 16
1.0
 26
0.0
 36
0.0
 17
0.0
 27
1.0
 37
0.0
 76
     0
330
1F
331
29
  0
MLINESTYLE
  5
18
102
{ACAD_REACTORS
330
17
102
}
330
17
100
AcDbMlineStyle
  2
Standard
 70
     0
  3

 62
   256
 51
90.0
 52
90.0
 71
     2
 49
0.5
 62
   256
  6
BYLAYER
 49
-0.5
 62
   256
  6
BYLAYER
  0
ACDBPLACEHOLDER
  5
F
102
{ACAD_REACTORS
330
E
102
}
330
E
  0
SCALE
  5
3C
102
{ACAD_REACTORS
330
3B
102
}
330
3B
100
AcDbScale
 70
     0
300
1:1
140
1.0
141
1.0
290
     1
  0
SCALE
  5
3D
102
{ACAD_REACTORS
330
3B
102
}
330
3B
100
AcDbScale
 70
     0
300
1:2
140
1.0
141
2.0
290
     0
  0
SCALE
  5
3E
102
{ACAD_REACTORS
330
3B
102
}
330
3B
100
AcDbScale
 70
     0
300
1:4
140
1.0
141
4.0
290
     0
  0
SCALE
  5
3F
102
{ACAD_REACTORS
330
3B
102
}
330
3B
100
AcDbScale
 70
     0
300
1:5
140
1.0
141
5.0
290
     0
  0
SCALE
  5
40
102
{ACAD_REACTORS
330
3B
102
}
330
3B
100
AcDbScale
 70
     0
300
1:8
140
1.0
141
8.0
290
     0
  0
SCALE
  5
41
102
{ACAD_REACTORS
330
3B
102
}
330
3B
100
AcDbScale
 70
     0
300
1:10
140
1.0
141
10.0
290
     0
  0
SCALE
  5
42
102
{ACAD_REACTORS
330
3B
102
}
330
3B
100
AcDbScale
 70
     0
300
1:16
140
1.0
141
16.0
290
     0
  0
SCALE
  5
43
102
{ACAD_REACTORS
330
3B
102
}
330
3B
100
AcDbScale
 70
     0
300
1:20
140
1.0
141
20.0
290
     0
  0
SCALE
  5
44
102
{ACAD_REACTORS
330
3B
102
}
330
3B
100
AcDbScale
 70
     0
300
1:30
140
1.0
141
30.0
290
     0
  0
SCALE
  5
45
102
{ACAD_REACTORS
330
3B
102
}
330
3B
100
AcDbScale
 70
     0
300
1:40
140
1.0
141
40.0
290
     0
  0
SCALE
  5
46
102
{ACAD_REACTORS
330
3B
102
}
330
3B
100
AcDbScale
 70
     0
300
1:50
140
1.0
141
50.0
290
     0
  0
SCALE
  5
47
102
{ACAD_REACTORS
330
3B
102
}
330
3B
100
AcDbScale
 70
     0
300
1:100
140
1.0
141
100.0
290
     0
  0
SCALE
  5
48
102
{ACAD_REACTORS
330
3B
102
}
330
3B
100
AcDbScale
 70
     0
300
2:1
140
2.0
141
1.0
290
     0
  0
SCALE
  5
49
102
{ACAD_REACTORS
330
3B
102
}
330
3B
100
AcDbScale
 70
     0
300
4:1
140
4.0
141
1.0
290
     0
  0
SCALE
  5
4A
102
{ACAD_REACTORS
330
3B
102
}
330
3B
100
AcDbScale
 70
     0
300
8:1
140
8.0
141
1.0
290
     0
  0
SCALE
  5
4B
102
{ACAD_REACTORS
330
3B
102
}
330
3B
100
AcDbScale
 70
     0
300
10:1
140
10.0
141
1.0
290
     0
  0
SCALE
  5
4C
102
{ACAD_REACTORS
330
3B
102
}
330
3B
100
AcDbScale
 70
     0
300
100:1
140
100.0
141
1.0
290
     0
  0
SCALE
  5
4D
102
{ACAD_REACTORS
330
3B
102
}
330
3B
100
AcDbScale
 70
     0
300
1/128" = 1'-0"
140
0.0078125
141
12.0
290
     0
  0
SCALE
  5
4E
102
{ACAD_REACTORS
330
3B
102
}
330
3B
100
AcDbScale
 70
     0
300
1/64" = 1'-0"
140
0.015625
141
12.0
290
     0
  0
SCALE
  5
4F
102
{ACAD_REACTORS
330
3B
102
}
330
3B
100
AcDbScale
 70
     0
300
1/32" = 1'-0"
140
0.03125
141
12.0
290
     0
  0
SCALE
  5
50
102
{ACAD_REACTORS
330
3B
102
}
330
3B
100
AcDbScale
 70
     0
300
1/16" = 1'-0"
140
0.0625
141
12.0
290
     0
  0
SCALE
  5
51
102
{ACAD_REACTORS
330
3B
102
}
330
3B
100
AcDbScale
 70
     0
300
3/32" = 1'-0"
140
0.09375
141
12.0
290
     0
  0
SCALE
  5
52
102
{ACAD_REACTORS
330
3B
102
}
330
3B
100
AcDbScale
 70
     0
300
1/8" = 1'-0"
140
0.125
141
12.0
290
     0
  0
SCALE
  5
53
102
{ACAD_REACTORS
330
3B
102
}
330
3B
100
AcDbScale
 70
     0
300
3/16" = 1'-0"
140
0.1875
141
12.0
290
     0
  0
SCALE
  5
54
102
{ACAD_REACTORS
330
3B
102
}
330
3B
100
AcDbScale
 70
     0
300
1/4" = 1'-0"
140
0.25
141
12.0
290
     0
  0
SCALE
  5
55
102
{ACAD_REACTORS
330
3B
102
}
330
3B
100
AcDbScale
 70
     0
300
3/8" = 1'-0"
140
0.375
141
12.0
290
     0
  0
SCALE
  5
56
102
{ACAD_REACTORS
330
3B
102
}
330
3B
100
AcDbScale
 70
     0
300
1/2" = 1'-0"
140
0.5
141
12.0
290
     0
  0
SCALE
  5
57
102
{ACAD_REACTORS
330
3B
102
}
330
3B
100
AcDbScale
 70
     0
300
3/4" = 1'-0"
140
0.75
141
12.0
290
     0
  0
SCALE
  5
58
102
{ACAD_REACTORS
330
3B
102
}
330
3B
100
AcDbScale
 70
     0
300
1" = 1'-0"
140
1.0
141
12.0
290
     0
  0
SCALE
  5
59
102
{ACAD_REACTORS
330
3B
102
}
330
3B
100
AcDbScale
 70
     0
300
1-1/2" = 1'-0"
140
1.5
141
12.0
290
     0
  0
SCALE
  5
5A
102
{ACAD_REACTORS
330
3B
102
}
330
3B
100
AcDbScale
 70
     0
300
3" = 1'-0"
140
3.0
141
12.0
290
     0
  0
SCALE
  5
5B
102
{ACAD_REACTORS
330
3B
102
}
330
3B
100
AcDbScale
 70
     0
300
6" = 1'-0"
140
6.0
141
12.0
290
     0
  0
SCALE
  5
5C
102
{ACAD_REACTORS
330
3B
102
}
330
3B
100
AcDbScale
 70
     0
300
1'-0" = 1'-0"
140
12.0
141
12.0
290
     0
  0
VISUALSTYLE
  5
2F
102
{ACAD_REACTORS
330
2A
102
}
330
2A
100
AcDbVisualStyle
  2
2dWireframe
 70
     4
 71
     0
 72
     2
 73
     0
 90
        0
 40
-0.6
 41
-30.0
 62
     5
 63
     7
 74
     1
 91
        4
 64
     7
 65
   257
 75
     1
175
     1
 42
1.0
 92
        0
 66
   257
 43
1.0
 76
     1
 77
     6
 78
     2
 67
     7
 79
     5
170
     0
171
     0
290
     0
174
     0
 93
        1
 44
0.0
173
     0
291
     0
 45
0.0
1001
ACAD
1000
AcDbSavedByObjectVersion
1070
     0
  0
VISUALSTYLE
  5
31
102
{ACAD_REACTORS
330
2A
102
}
330
2A
100
AcDbVisualStyle
  2
3D Hidden
 70
     6
 71
     1
 72
     2
 73
     2
 90
        0
 40
-0.6
 41
-30.0
 62
     5
 63
     7
 74
     2
 91
        2
 64
     7
 65
   257
 75
     2
175
     1
 42
40.0
 92
        0
 66
   257
 43
1.0
 76
     1
 77
     6
 78
     2
 67
     7
 79
     3
170
     0
171
     0
290
     0
174
     0
 93
        1
 44
0.0
173
     0
291
     0
 45
0.0
1001
ACAD
1000
AcDbSavedByObjectVersion
1070
     0
  0
VISUALSTYLE
  5
30
102
{ACAD_REACTORS
330
2A
102
}
330
2A
100
AcDbVisualStyle
  2
3dWireframe
 70
     5
 71
     0
 72
     2
 73
     0
 90
        0
 40
-0.6
 41
-30.0
 62
     5
 63
     7
 74
     1
 91
        4
 64
     7
 65
   257
 75
     1
175
     1
 42
1.0
 92
        0
 66
   257
 43
1.0
 76
     1
 77
     6
 78
     2
 67
     7
 79
     5
170
     0
171
     0
290
     0
174
     0
 93
        1
 44
0.0
173
     0
291
     0
 45
0.0
1001
ACAD
1000
AcDbSavedByObjectVersion
1070
     0
  0
VISUALSTYLE
  5
32
102
{ACAD_REACTORS
330
2A
102
}
330
2A
100
AcDbVisualStyle
  2
Basic
 70
     7
 71
     1
 72
     0
 73
     1
 90
        0
 40
-0.6
 41
-30.0
 62
     5
 63
     7
 74
     0
 91
        4
 64
     7
 65
   257
 75
     1
175
     1
 42
1.0
 92
        8
 66
     7
 43
1.0
 76
     1
 77
     6
 78
     2
 67
     7
 79
     5
170
     0
171
     0
290
     0
174
     0
 93
        1
 44
0.0
173
     0
291
     1
 45
0.0
1001
ACAD
1000
AcDbSavedByObjectVersion
1070
     0
  0
VISUALSTYLE
  5
36
102
{ACAD_REACTORS
330
2A
102
}
330
2A
100
AcDbVisualStyle
  2
Brighten
 70
    12
 71
     2
 72
     2
 73
     0
 90
        0
 40
-0.6
 41
-30.0
 62
     5
 63
     7
 74
     1
 91
        4
 64
     7
 65
   257
 75
     1
175
     1
 42
1.0
 92
        8
 66
     7
 43
1.0
 76
     1
 77
     6
 78
     2
 67
     7
 79
     5
170
     0
171
     0
290
     0
174
     0
 93
        1
 44
50.0
173
     0
291
     1
 45
0.0
1001
ACAD
1000
AcDbSavedByObjectVersion
1070
     0
  0
VISUALSTYLE
  5
3A
102
{ACAD_REACTORS
330
2A
102
}
330
2A
100
AcDbVisualStyle
  2
ColorChange
 70
    16
 71
     2
 72
     2
 73
     3
 90
        0
 40
-0.6
 41
-30.0
 62
     5
 63
     8
 74
     1
 91
        4
 64
     7
 65
   257
 75
     1
175
     1
 42
1.0
 92
        8
 66
     8
 43
1.0
 76
     1
 77
     6
 78
     2
 67
     7
 79
     5
170
     0
171
     0
290
     0
174
     0
 93
        1
 44
0.0
173
     0
291
     1
 45
0.0
1001
ACAD
1000
AcDbSavedByObjectVersion
1070
     0
  0
VISUALSTYLE
  5
34
102
{ACAD_REACTORS
330
2A
102
}
330
2A
100
AcDbVisualStyle
  2
Conceptual
 70
     9
 71
     3
 72
     2
 73
     0
 90
        0
 40
-0.6
 41
-30.0
 62
     5
 63
     7
 74
     2
 91
        2
 64
     7
 65
   257
 75
     1
175
     1
 42
40.0
 92
        8
 66
     7
 43
1.0
 76
     1
 77
     6
 78
     2
 67
     7
 79
     3
170
     0
171
     0
290
     0
174
     0
 93
        1
 44
0.0
173
     0
291
     0
 45
0.0
1001
ACAD
1000
AcDbSavedByObjectVersion
1070
     0
  0
VISUALSTYLE
  5
35
102
{ACAD_REACTORS
330
2A
102
}
330
2A
100
AcDbVisualStyle
  2
Dim
 70
    11
 71
     2
 72
     2
 73
     0
 90
        0
 40
-0.6
 41
-30.0
 62
     5
 63
     7
 74
     1
 91
        4
 64
     7
 65
   257
 75
     1
175
     1
 42
1.0
 92
        8
 66
     7
 43
1.0
 76
     1
 77
     6
 78
     2
 67
     7
 79
     5
170
     0
171
     0
290
     0
174
     0
 93
        1
 44
-50.0
173
     0
291
     1
 45
0.0
1001
ACAD
1000
AcDbSavedByObjectVersion
1070
     0
  0
VISUALSTYLE
  5
39
102
{ACAD_REACTORS
330
2A
102
}
330
2A
100
AcDbVisualStyle
  2
Facepattern
 70
    15
 71
     2
 72
     2
 73
     0
 90
        0
 40
-0.6
 41
-30.0
 62
     5
 63
     7
 74
     1
 91
        4
 64
     7
 65
   257
 75
     1
175
     1
 42
1.0
 92
        8
 66
     7
 43
1.0
 76
     1
 77
     6
 78
     2
 67
     7
 79
     5
170
     0
171
     0
290
     0
174
     0
 93
        1
 44
0.0
173
     0
291
     1
 45
0.0
1001
ACAD
1000
AcDbSavedByObjectVersion
1070
     0
  0
VISUALSTYLE
  5
2B
102
{ACAD_REACTORS
330
2A
102
}
330
2A
100
AcDbVisualStyle
  2
Flat
 70
     0
 71
     2
 72
     1
 73
     1
 90
        2
 40
-0.6
 41
30.0
 62
     5
 63
     7
 74
     0
 91
        4
 64
     7
 65
   257
 75
     1
175
     1
 42
1.0
 92
        8
 66
     7
 43
1.0
 76
     1
 77
     6
 78
     2
 67
     7
 79
     5
170
     0
171
     0
290
     0
174
     0
 93
       13
 44
0.0
173
     0
291
     1
 45
0.0
1001
ACAD
1000
AcDbSavedByObjectVersion
1070
     0
  0
VISUALSTYLE
  5
2C
102
{ACAD_REACTORS
330
2A
102
}
330
2A
100
AcDbVisualStyle
  2
FlatWithEdges
 70
     1
 71
     2
 72
     1
 73
     1
 90
        2
 40
-0.6
 41
30.0
 62
     5
 63
     7
 74
     1
 91
        4
 64
     7
 65
   257
 75
     1
175
     1
 42
1.0
 92
        0
 66
   257
 43
1.0
 76
     1
 77
     6
 78
     2
 67
     7
 79
     5
170
     0
171
     0
290
     0
174
     0
 93
       13
 44
0.0
173
     0
291
     1
 45
0.0
1001
ACAD
1000
AcDbSavedByObjectVersion
1070
     0
  0
VISUALSTYLE
  5
2D
102
{ACAD_REACTORS
330
2A
102
}
330
2A
100
AcDbVisualStyle
  2
Gouraud
 70
     2
 71
     2
 72
     2
 73
     1
 90
        2
 40
-0.6
 41
30.0
 62
     5
 63
     7
 74
     0
 91
        4
 64
     7
 65
   257
 75
     1
175
     1
 42
1.0
 92
        0
 66
     7
 43
1.0
 76
     1
 77
     6
 78
     2
 67
     7
 79
     5
170
     0
171
     0
290
     0
174
     0
 93
       13
 44
0.0
173
     0
291
     1
 45
0.0
1001
ACAD
1000
AcDbSavedByObjectVersion
1070
     0
  0
VISUALSTYLE
  5
2E
102
{ACAD_REACTORS
330
2A
102
}
330
2A
100
AcDbVisualStyle
  2
GouraudWithEdges
 70
     3
 71
     2
 72
     2
 73
     1
 90
        2
 40
-0.6
 41
30.0
 62
     5
 63
     7
 74
     1
 91
        4
 64
     7
 65
   257
 75
     1
175
     1
 42
1.0
 92
        0
 66
   257
 43
1.0
 76
     1
 77
     6
 78
     2
 67
     7
 79
     5
170
     0
171
     0
290
     0
174
     0
 93
       13
 44
0.0
173
     0
291
     1
 45
0.0
1001
ACAD
1000
AcDbSavedByObjectVersion
1070
     0
  0
VISUALSTYLE
  5
38
102
{ACAD_REACTORS
330
2A
102
}
330
2A
100
AcDbVisualStyle
  2
Linepattern
 70
    14
 71
     2
 72
     2
 73
     0
 90
        0
 40
-0.6
 41
-30.0
 62
     5
 63
     7
 74
     1
 91
        4
 64
     7
 65
   257
 75
     7
175
     7
 42
1.0
 92
        8
 66
     7
 43
1.0
 76
     1
 77
     6
 78
     2
 67
     7
 79
     5
170
     0
171
     0
290
     0
174
     0
 93
        1
 44
0.0
173
     0
291
     1
 45
0.0
1001
ACAD
1000
AcDbSavedByObjectVersion
1070
     0
  0
VISUALSTYLE
  5
33
102
{ACAD_REACTORS
330
2A
102
}
330
2A
100
AcDbVisualStyle
  2
Realistic
 70
     8
 71
     2
 72
     2
 73
     0
 90
        0
 40
-0.6
 41
-30.0
 62
     5
 63
     7
 74
     1
 91
        0
 64
     7
 65
   257
 75
     1
175
     1
 42
1.0
 92
        8
 66
     8
 43
1.0
 76
     1
 77
     6
 78
     2
 67
     7
 79
     5
170
     0
171
     0
290
     0
174
     0
 93
       13
 44
0.0
173
     0
291
     0
 45
0.0
1001
ACAD
1000
AcDbSavedByObjectVersion
1070
     0
  0
VISUALSTYLE
  5
37
102
{ACAD_REACTORS
330
2A
102
}
330
2A
100
AcDbVisualStyle
  2
Thicken
 70
    13
 71
     2
 72
     2
 73
     0
 90
        0
 40
-0.6
 41
-30.0
 62
     5
 63
     7
 74
     1
 91
        4
 64
     7
 65
   257
 75
     1
175
     1
 42
1.0
 92
       12
 66
     7
 43
1.0
 76
     1
 77
     6
 78
     2
 67
     7
 79
     5
170
     0
171
     0
290
     0
174
     0
 93
        1
 44
0.0
173
     0
291
     1
 45
0.0
1001
ACAD
1000
AcDbSavedByObjectVersion
1070
     0
  0
DICTIONARYVAR
  5
F6
102
{ACAD_REACTORS
330
F5
102
}
330
F5
100
DictionaryVariables
280
     0
  1
1:1
  0
DICTIONARYVAR
  5
FA
102
{ACAD_REACTORS
330
F5
102
}
330
F5
100
DictionaryVariables
280
     0
  1
80.000000
  0
DICTIONARYVAR
  5
F9
102
{ACAD_REACTORS
330
F5
102
}
330
F5
100
DictionaryVariables
280
     0
  1
5.000000
  0
ENDSEC
  0
EOF
