  0
SECTION
  2
HEADER
  9
$ACADVER
  1
AC1015
  9
$ACADMAINTVER
 70
     6
  9
$DWGCODEPAGE
  3
ANSI_1252
  9
$INSBASE
 10
0.0
 20
0.0
 30
0.0
  9
$EXTMIN
 10
0.0
 20
0.0
 30
0.0
  9
$EXTMAX
 10
1682.0
 20
2378.0
 30
0.0
  9
$LIMMIN
 10
0.0
 20
0.0
  9
$LIMMAX
 10
1682.0
 20
2378.0
  9
$ORTHOMODE
 70
     0
  9
$REGENMODE
 70
     1
  9
$FILLMODE
 70
     1
  9
$QTEXTMODE
 70
     0
  9
$MIRRTEXT
 70
     1
  9
$LTSCALE
 40
1.0
  9
$ATTMODE
 70
     1
  9
$TEXTSIZE
 40
2.5
  9
$TRACEWID
 40
1.0
  9
$TEXTSTYLE
  7
Standard
  9
$CLAYER
  8
0
  9
$CELTYPE
  6
ByLayer
  9
$CECOLOR
 62
   256
  9
$CELTSCALE
 40
1.0
  9
$DISPSILH
 70
     0
  9
$DIMSCALE
 40
1.0
  9
$DIMASZ
 40
2.5
  9
$DIMEXO
 40
0.625
  9
$DIMDLI
 40
3.75
  9
$DIMRND
 40
0.0
  9
$DIMDLE
 40
0.0
  9
$DIMEXE
 40
1.25
  9
$DIMTP
 40
0.0
  9
$DIMTM
 40
0.0
  9
$DIMTXT
 40
2.5
  9
$DIMCEN
 40
2.5
  9
$DIMTSZ
 40
0.0
  9
$DIMTOL
 70
     0
  9
$DIMLIM
 70
     0
  9
$DIMTIH
 70
     0
  9
$DIMTOH
 70
     0
  9
$DIMSE1
 70
     0
  9
$DIMSE2
 70
     0
  9
$DIMTAD
 70
     1
  9
$DIMZIN
 70
     8
  9
$DIMBLK
  1

  9
$DIMASO
 70
     1
  9
$DIMSHO
 70
     1
  9
$DIMPOST
  1

  9
$DIMAPOST
  1

  9
$DIMALT
 70
     0
  9
$DIMALTD
 70
     3
  9
$DIMALTF
 40
0.0393700787
  9
$DIMLFAC
 40
1.0
  9
$DIMTOFL
 70
     1
  9
$DIMTVP
 40
0.0
  9
$DIMTIX
 70
     0
  9
$DIMSOXD
 70
     0
  9
$DIMSAH
 70
     0
  9
$DIMBLK1
  1

  9
$DIMBLK2
  1

  9
$DIMSTYLE
  2
ISO-25
  9
$DIMCLRD
 70
     0
  9
$DIMCLRE
 70
     0
  9
$DIMCLRT
 70
     0
  9
$DIMTFAC
 40
1.0
  9
$DIMGAP
 40
0.625
  9
$DIMJUST
 70
     0
  9
$DIMSD1
 70
     0
  9
$DIMSD2
 70
     0
  9
$DIMTOLJ
 70
     0
  9
$DIMTZIN
 70
     8
  9
$DIMALTZ
 70
     0
  9
$DIMALTTZ
 70
     0
  9
$DIMUPT
 70
     0
  9
$DIMDEC
 70
     2
  9
$DIMTDEC
 70
     2
  9
$DIMALTU
 70
     2
  9
$DIMALTTD
 70
     3
  9
$DIMTXSTY
  7
Standard
  9
$DIMAUNIT
 70
     0
  9
$DIMADEC
 70
     0
  9
$DIMALTRND
 40
0.0
  9
$DIMAZIN
 70
     0
  9
$DIMDSEP
 70
    44
  9
$DIMATFIT
 70
     3
  9
$DIMFRAC
 70
     0
  9
$DIMLDRBLK
  1

  9
$DIMLUNIT
 70
     2
  9
$DIMLWD
 70
    -2
  9
$DIMLWE
 70
    -2
  9
$DIMTMOVE
 70
     0
  9
$LUNITS
 70
     2
  9
$LUPREC
 70
     4
  9
$SKETCHINC
 40
1.0
  9
$FILLETRAD
 40
10.0
  9
$AUNITS
 70
     0
  9
$AUPREC
 70
     0
  9
$MENU
  1
.
  9
$ELEVATION
 40
0.0
  9
$PELEVATION
 40
0.0
  9
$THICKNESS
 40
0.0
  9
$LIMCHECK
 70
     0
  9
$CHAMFERA
 40
10.0
  9
$CHAMFERB
 40
10.0
  9
$CHAMFERC
 40
20.0
  9
$CHAMFERD
 40
0.0
  9
$SKPOLY
 70
     0
  9
$TDCREATE
 40
2455673.417007257
  9
$TDUCREATE
 40
2455673.333673924
  9
$TDUPDATE
 40
2455673.417007268
  9
$TDUUPDATE
 40
2455673.333673935
  9
$TDINDWG
 40
0.0000000116
  9
$TDUSRTIMER
 40
0.0000000116
  9
$USRTIMER
 70
     1
  9
$ANGBASE
 50
0.0
  9
$ANGDIR
 70
     0
  9
$PDMODE
 70
     0
  9
$PDSIZE
 40
0.0
  9
$PLINEWID
 40
0.0
  9
$SPLFRAME
 70
     0
  9
$SPLINETYPE
 70
     6
  9
$SPLINESEGS
 70
     8
  9
$HANDSEED
  5
2B4
  9
$SURFTAB1
 70
     6
  9
$SURFTAB2
 70
     6
  9
$SURFTYPE
 70
     6
  9
$SURFU
 70
     6
  9
$SURFV
 70
     6
  9
$UCSBASE
  2

  9
$UCSNAME
  2

  9
$UCSORG
 10
0.0
 20
0.0
 30
0.0
  9
$UCSXDIR
 10
1.0
 20
0.0
 30
0.0
  9
$UCSYDIR
 10
0.0
 20
1.0
 30
0.0
  9
$UCSORTHOREF
  2

  9
$UCSORTHOVIEW
 70
     0
  9
$UCSORGTOP
 10
0.0
 20
0.0
 30
0.0
  9
$UCSORGBOTTOM
 10
0.0
 20
0.0
 30
0.0
  9
$UCSORGLEFT
 10
0.0
 20
0.0
 30
0.0
  9
$UCSORGRIGHT
 10
0.0
 20
0.0
 30
0.0
  9
$UCSORGFRONT
 10
0.0
 20
0.0
 30
0.0
  9
$UCSORGBACK
 10
0.0
 20
0.0
 30
0.0
  9
$PUCSBASE
  2

  9
$PUCSNAME
  2

  9
$PUCSORG
 10
0.0
 20
0.0
 30
0.0
  9
$PUCSXDIR
 10
1.0
 20
0.0
 30
0.0
  9
$PUCSYDIR
 10
0.0
 20
1.0
 30
0.0
  9
$PUCSORTHOREF
  2

  9
$PUCSORTHOVIEW
 70
     0
  9
$PUCSORGTOP
 10
0.0
 20
0.0
 30
0.0
  9
$PUCSORGBOTTOM
 10
0.0
 20
0.0
 30
0.0
  9
$PUCSORGLEFT
 10
0.0
 20
0.0
 30
0.0
  9
$PUCSORGRIGHT
 10
0.0
 20
0.0
 30
0.0
  9
$PUCSORGFRONT
 10
0.0
 20
0.0
 30
0.0
  9
$PUCSORGBACK
 10
0.0
 20
0.0
 30
0.0
  9
$USERI1
 70
     0
  9
$USERI2
 70
     0
  9
$USERI3
 70
     0
  9
$USERI4
 70
     0
  9
$USERI5
 70
     0
  9
$USERR1
 40
0.0
  9
$USERR2
 40
0.0
  9
$USERR3
 40
0.0
  9
$USERR4
 40
0.0
  9
$USERR5
 40
0.0
  9
$WORLDVIEW
 70
     1
  9
$SHADEDGE
 70
     3
  9
$SHADEDIF
 70
    70
  9
$TILEMODE
 70
     1
  9
$MAXACTVP
 70
    64
  9
$PINSBASE
 10
0.0
 20
0.0
 30
0.0
  9
$PLIMCHECK
 70
     0
  9
$PEXTMIN
 10
0.0
 20
0.0
 30
0.0
  9
$PEXTMAX
 10
1682.0
 20
2378.0
 30
0.0
  9
$PLIMMIN
 10
0.0
 20
0.0
  9
$PLIMMAX
 10
1682.0
 20
2378.0
  9
$UNITMODE
 70
     0
  9
$VISRETAIN
 70
     1
  9
$PLINEGEN
 70
     0
  9
$PSLTSCALE
 70
     1
  9
$TREEDEPTH
 70
  3020
  9
$CMLSTYLE
  2
Standard
  9
$CMLJUST
 70
     0
  9
$CMLSCALE
 40
20.0
  9
$PROXYGRAPHICS
 70
     1
  9
$MEASUREMENT
 70
     1
  9
$CELWEIGHT
370
    -1
  9
$ENDCAPS
280
     0
  9
$JOINSTYLE
280
     0
  9
$LWDISPLAY
290
     0
  9
$INSUNITS
 70
     4
  9
$HYPERLINKBASE
  1

  9
$STYLESHEET
  1

  9
$XEDIT
290
     1
  9
$CEPSNTYPE
380
     0
  9
$PSTYLEMODE
290
     1
  9
$FINGERPRINTGUID
  2
{62AADE6F-4547-4661-9429-563F69BA8306}
  9
$VERSIONGUID
  2
{FAEB1C32-E019-11D5-929B-00C0DF256EC4}
  9
$EXTNAMES
290
     1
  9
$PSVPSCALE
 40
0.0
  9
$OLESTARTUP
290
     0
  0
ENDSEC
  0
SECTION
  2
CLASSES
  0
CLASS
  1
ACDBDICTIONARYWDFLT
  2
AcDbDictionaryWithDefault
  3
ObjectDBX Classes
 90
        0
280
     0
281
     0
  0
CLASS
  1
VISUALSTYLE
  2
AcDbVisualStyle
  3
ObjectDBX Classes
 90
     4095
280
     0
281
     0
  0
CLASS
  1
SCALE
  2
AcDbScale
  3
ObjectDBX Classes
 90
     1153
280
     0
281
     0
  0
CLASS
  1
DICTIONARYVAR
  2
AcDbDictionaryVar
  3
ObjectDBX Classes
 90
        0
280
     0
281
     0
  0
CLASS
  1
ACDBPLACEHOLDER
  2
AcDbPlaceHolder
  3
ObjectDBX Classes
 90
        0
280
     0
281
     0
  0
CLASS
  1
LAYOUT
  2
AcDbLayout
  3
ObjectDBX Classes
 90
        0
280
     0
281
     0
  0
ENDSEC
  0
SECTION
  2
TABLES
  0
TABLE
  2
VPORT
  5
8
330
0
100
AcDbSymbolTable
 70
     1
  0
VPORT
  5
29
330
8
100
AcDbSymbolTableRecord
100
AcDbViewportTableRecord
  2
*Active
 70
     0
 10
0.0
 20
0.0
 11
1.0
 21
1.0
 12
344.1869158879
 22
148.5
 13
0.0
 23
0.0
 14
10.0
 24
10.0
 15
10.0
 25
10.0
 16
0.0
 26
0.0
 36
1.0
 17
0.0
 27
0.0
 37
0.0
 40
297.0
 41
1.9729729729
 42
50.0
 43
0.0
 44
0.0
 50
0.0
 51
0.0
 71
     0
 72
   100
 73
     1
 74
     3
 75
     0
 76
     0
 77
     0
 78
     0
281
     0
 65
     1
110
0.0
120
0.0
130
0.0
111
1.0
121
0.0
131
0.0
112
0.0
122
1.0
132
0.0
 79
     0
146
0.0
  0
ENDTAB
  0
TABLE
  2
LTYPE
  5
5
330
0
100
AcDbSymbolTable
 70
     2
  0
LTYPE
  5
14
330
5
100
AcDbSymbolTableRecord
100
AcDbLinetypeTableRecord
  2
ByBlock
 70
     0
  3

 72
    65
 73
     0
 40
0.0
  0
LTYPE
  5
15
330
5
100
AcDbSymbolTableRecord
100
AcDbLinetypeTableRecord
  2
ByLayer
 70
     0
  3

 72
    65
 73
     0
 40
0.0
  0
LTYPE
  5
16
330
5
100
AcDbSymbolTableRecord
100
AcDbLinetypeTableRecord
  2
Continuous
 70
     0
  3
Solid line
 72
    65
 73
     0
 40
0.0
  0
LTYPE
  5
60
330
5
100
AcDbSymbolTableRecord
100
AcDbLinetypeTableRecord
  2
CENTER2
 70
     0
  3
Center (.5x) ___ _ ___ _ ___ _ ___ _ ___ _ ___
 72
    65
 73
     4
 40
28.575
 49
19.05
 74
     4
 75
     0
340
0
 46
0.0
 50
0.0
 44
0.0
 45
0.0
 49
-3.175
 74
     4
 75
     0
340
0
 46
0.0
 50
0.0
 44
0.0
 45
0.0
 49
3.175
 74
     4
 75
     0
340
0
 46
0.0
 50
0.0
 44
0.0
 45
0.0
 49
-3.175
 74
     4
 75
     0
340
0
 46
0.0
 50
0.0
 44
0.0
 45
0.0
  0
ENDTAB
  0
TABLE
  2
LAYER
  5
2
330
0
100
AcDbSymbolTable
 70
     9
  0
LAYER
  5
10
330
2
100
AcDbSymbolTableRecord
100
AcDbLayerTableRecord
  2
0
 70
     0
 62
     7
  6
Continuous
370
    -3
390
F
  0
LAYER
  5
5D
330
2
100
AcDbSymbolTableRecord
100
AcDbLayerTableRecord
  2
Default
 70
     0
 62
     7
  6
Continuous
370
    -3
390
F
  0
LAYER
  5
97
330
2
100
AcDbSymbolTableRecord
100
AcDbLayerTableRecord
  2
$DDT_AUDIT_GENERATED_(97)
 70
     0
 62
     7
  6
Continuous
370
    -3
390
F
  0
LAYER
  5
99
330
2
100
AcDbSymbolTableRecord
100
AcDbLayerTableRecord
  2
$DDT_AUDIT_GENERATED_(99)
 70
     0
 62
     7
  6
Continuous
370
    -3
390
F
  0
LAYER
  5
C0
330
2
100
AcDbSymbolTableRecord
100
AcDbLayerTableRecord
  2
$DDT_AUDIT_GENERATED_(C0)
 70
     0
 62
     7
  6
Continuous
370
    -3
390
F
  0
LAYER
  5
E7
330
2
100
AcDbSymbolTableRecord
100
AcDbLayerTableRecord
  2
$DDT_AUDIT_GENERATED_(E7)
 70
     0
 62
     7
  6
Continuous
370
    -3
390
F
  0
LAYER
  5
165
330
2
100
AcDbSymbolTableRecord
100
AcDbLayerTableRecord
  2
$DDT_AUDIT_GENERATED_(165)
 70
     0
 62
     7
  6
Continuous
370
    -3
390
F
  0
LAYER
  5
178
330
2
100
AcDbSymbolTableRecord
100
AcDbLayerTableRecord
  2
$DDT_AUDIT_GENERATED_(178)
 70
     0
 62
     7
  6
Continuous
370
    -3
390
F
  0
LAYER
  5
1F1
330
2
100
AcDbSymbolTableRecord
100
AcDbLayerTableRecord
  2
$DDT_AUDIT_GENERATED_(1F1)
 70
     0
 62
     7
  6
Continuous
370
    -3
390
F
  0
ENDTAB
  0
TABLE
  2
STYLE
  5
3
330
0
100
AcDbSymbolTable
 70
     2
  0
STYLE
  5
11
330
3
100
AcDbSymbolTableRecord
100
AcDbTextStyleTableRecord
  2
Standard
 70
     0
 40
0.0
 41
1.0
 50
0.0
 71
     0
 42
2.5
  3
txt
  4

  0
STYLE
  5
2A3
330
3
100
AcDbSymbolTableRecord
100
AcDbTextStyleTableRecord
  2
SEACAD_seiso_ttf
 70
     0
 40
0.0
 41
1.0
 50
0.0
 71
     0
 42
0.2
  3
seiso.ttf
  4

  0
ENDTAB
  0
TABLE
  2
VIEW
  5
6
330
0
100
AcDbSymbolTable
 70
     0
  0
ENDTAB
  0
TABLE
  2
UCS
  5
7
330
0
100
AcDbSymbolTable
 70
     0
  0
ENDTAB
  0
TABLE
  2
APPID
  5
9
330
0
100
AcDbSymbolTable
 70
     1
  0
APPID
  5
12
330
9
100
AcDbSymbolTableRecord
100
AcDbRegAppTableRecord
  2
ACAD
 70
     0
  0
ENDTAB
  0
TABLE
  2
DIMSTYLE
  5
A
330
0
100
AcDbSymbolTable
 70
     1
100
AcDbDimStyleTable
  0
DIMSTYLE
105
27
330
A
100
AcDbSymbolTableRecord
100
AcDbDimStyleTableRecord
  2
ISO-25
 70
     0
 41
2.5
 42
0.625
 43
3.75
 44
1.25
 73
     0
 74
     0
 77
     1
 78
     8
140
2.5
141
2.5
143
0.0393700787
147
0.625
171
     3
172
     1
271
     2
272
     2
274
     3
278
    44
283
     0
284
     8
340
11
  0
ENDTAB
  0
TABLE
  2
BLOCK_RECORD
  5
1
330
0
100
AcDbSymbolTable
 70
    14
  0
BLOCK_RECORD
  5
1F
330
1
100
AcDbSymbolTableRecord
100
AcDbBlockTableRecord
  2
*Model_Space
340
22
  0
BLOCK_RECORD
  5
1B
330
1
100
AcDbSymbolTableRecord
100
AcDbBlockTableRecord
  2
*Paper_Space
340
1E
  0
BLOCK_RECORD
  5
5E
330
1
100
AcDbSymbolTableRecord
100
AcDbBlockTableRecord
  2
SEANNOT_GROUP
340
0
102
{BLKREFS
331
5F
102
}
  0
BLOCK_RECORD
  5
65
330
1
100
AcDbSymbolTableRecord
100
AcDbBlockTableRecord
  2
SEANNOT_GROUP1
340
0
102
{BLKREFS
331
66
102
}
  0
BLOCK_RECORD
  5
6B
330
1
100
AcDbSymbolTableRecord
100
AcDbBlockTableRecord
  2
SEANNOT_GROUP2
340
0
102
{BLKREFS
331
6C
102
}
  0
BLOCK_RECORD
  5
71
330
1
100
AcDbSymbolTableRecord
100
AcDbBlockTableRecord
  2
SEANNOT_GROUP3
340
0
102
{BLKREFS
331
72
102
}
  0
BLOCK_RECORD
  5
77
330
1
100
AcDbSymbolTableRecord
100
AcDbBlockTableRecord
  2
SEANNOT_GROUP4
340
0
102
{BLKREFS
331
78
102
}
  0
BLOCK_RECORD
  5
7C
330
1
100
AcDbSymbolTableRecord
100
AcDbBlockTableRecord
  2
SEANNOT_GROUP5
340
0
102
{BLKREFS
331
7D
102
}
  0
BLOCK_RECORD
  5
81
330
1
100
AcDbSymbolTableRecord
100
AcDbBlockTableRecord
  2
SEANNOT_GROUP6
340
0
102
{BLKREFS
331
82
102
}
  0
BLOCK_RECORD
  5
86
330
1
100
AcDbSymbolTableRecord
100
AcDbBlockTableRecord
  2
SEANNOT_GROUP7
340
0
102
{BLKREFS
331
87
102
}
  0
BLOCK_RECORD
  5
8B
330
1
100
AcDbSymbolTableRecord
100
AcDbBlockTableRecord
  2
SEANNOT_GROUP8
340
0
102
{BLKREFS
331
8C
102
}
  0
BLOCK_RECORD
  5
90
330
1
100
AcDbSymbolTableRecord
100
AcDbBlockTableRecord
  2
SEANNOT_GROUP9
340
0
102
{BLKREFS
331
91
102
}
  0
BLOCK_RECORD
  5
95
330
1
100
AcDbSymbolTableRecord
100
AcDbBlockTableRecord
  2
SE
340
0
102
{BLKREFS
331
96
102
}
  0
BLOCK_RECORD
  5
196
330
1
100
AcDbSymbolTableRecord
100
AcDbBlockTableRecord
  2
SE1
340
0
102
{BLKREFS
331
197
102
}
  0
BLOCK_RECORD
  5
1F9
330
1
100
AcDbSymbolTableRecord
100
AcDbBlockTableRecord
  2
SE2
340
0
102
{BLKREFS
331
1FA
102
}
  0
ENDTAB
  0
ENDSEC
  0
SECTION
  2
BLOCKS
  0
BLOCK
  5
20
330
1F
100
AcDbEntity
  8
0
100
AcDbBlockBegin
  2
*Model_Space
 70
     0
 10
0.0
 20
0.0
 30
0.0
  3
*Model_Space
  1

  0
ENDBLK
  5
21
330
1F
100
AcDbEntity
  8
0
100
AcDbBlockEnd
  0
BLOCK
  5
1C
330
1B
100
AcDbEntity
 67
     1
  8
0
100
AcDbBlockBegin
  2
*Paper_Space
 70
     0
 10
0.0
 20
0.0
 30
0.0
  3
*Paper_Space
  1

  0
ENDBLK
  5
1D
330
1B
100
AcDbEntity
 67
     1
  8
0
100
AcDbBlockEnd
  0
BLOCK
  5
63
330
5E
100
AcDbEntity
  8
0
100
AcDbBlockBegin
  2
SEANNOT_GROUP
 70
     0
 10
0.0
 20
0.0
 30
0.0
  3
SEANNOT_GROUP
  1

  0
LINE
  5
61
330
5E
100
AcDbEntity
  8
Default
  6
CENTER2
 62
     7
100
AcDbLine
 10
203.2853885454
 20
532.7049736194
 30
0.0
 11
163.2853894394
 21
532.7049736194
 31
0.0
  0
LINE
  5
62
330
5E
100
AcDbEntity
  8
Default
  6
CENTER2
 62
     7
100
AcDbLine
 10
183.2853889924
 20
552.7049731724
 30
0.0
 11
183.2853889924
 21
512.7049740664
 31
0.0
  0
ENDBLK
  5
64
330
5E
100
AcDbEntity
  8
0
100
AcDbBlockEnd
  0
BLOCK
  5
69
330
65
100
AcDbEntity
  8
0
100
AcDbBlockBegin
  2
SEANNOT_GROUP1
 70
     0
 10
0.0
 20
0.0
 30
0.0
  3
SEANNOT_GROUP1
  1

  0
LINE
  5
67
330
65
100
AcDbEntity
  8
Default
  6
CENTER2
 62
     7
100
AcDbLine
 10
103.2853885454
 20
532.7049736194
 30
0.0
 11
63.2853894394
 21
532.7049736194
 31
0.0
  0
LINE
  5
68
330
65
100
AcDbEntity
  8
Default
  6
CENTER2
 62
     7
100
AcDbLine
 10
83.2853889924
 20
552.7049731724
 30
0.0
 11
83.2853889924
 21
512.7049740664
 31
0.0
  0
ENDBLK
  5
6A
330
65
100
AcDbEntity
  8
0
100
AcDbBlockEnd
  0
BLOCK
  5
6F
330
6B
100
AcDbEntity
  8
0
100
AcDbBlockBegin
  2
SEANNOT_GROUP2
 70
     0
 10
0.0
 20
0.0
 30
0.0
  3
SEANNOT_GROUP2
  1

  0
LINE
  5
6D
330
6B
100
AcDbEntity
  8
Default
  6
CENTER2
 62
     7
100
AcDbLine
 10
303.2853885454
 20
532.7049736194
 30
0.0
 11
263.2853894394
 21
532.7049736194
 31
0.0
  0
LINE
  5
6E
330
6B
100
AcDbEntity
  8
Default
  6
CENTER2
 62
     7
100
AcDbLine
 10
283.2853889924
 20
552.7049731724
 30
0.0
 11
283.2853889924
 21
512.7049740664
 31
0.0
  0
ENDBLK
  5
70
330
6B
100
AcDbEntity
  8
0
100
AcDbBlockEnd
  0
BLOCK
  5
75
330
71
100
AcDbEntity
  8
0
100
AcDbBlockBegin
  2
SEANNOT_GROUP3
 70
     0
 10
0.0
 20
0.0
 30
0.0
  3
SEANNOT_GROUP3
  1

  0
LINE
  5
73
330
71
100
AcDbEntity
  8
Default
  6
CENTER2
 62
     7
100
AcDbLine
 10
415.8980073687
 20
628.2615181794
 30
0.0
 11
375.8980082628
 21
628.2615181794
 31
0.0
  0
LINE
  5
74
330
71
100
AcDbEntity
  8
Default
  6
CENTER2
 62
     7
100
AcDbLine
 10
395.8980078158
 20
648.2615177324
 30
0.0
 11
395.8980078158
 21
608.2615186265
 31
0.0
  0
ENDBLK
  5
76
330
71
100
AcDbEntity
  8
0
100
AcDbBlockEnd
  0
BLOCK
  5
7A
330
77
100
AcDbEntity
  8
0
100
AcDbBlockBegin
  2
SEANNOT_GROUP4
 70
     0
 10
0.0
 20
0.0
 30
0.0
  3
SEANNOT_GROUP4
  1

  0
LINE
  5
79
330
77
100
AcDbEntity
  8
Default
  6
CENTER2
 62
     7
100
AcDbLine
 10
55.4888343186
 20
628.2615181794
 30
0.0
 11
111.0819436662
 21
628.2615181794
 31
0.0
  0
ENDBLK
  5
7B
330
77
100
AcDbEntity
  8
0
100
AcDbBlockEnd
  0
BLOCK
  5
7F
330
7C
100
AcDbEntity
  8
0
100
AcDbBlockBegin
  2
SEANNOT_GROUP5
 70
     0
 10
0.0
 20
0.0
 30
0.0
  3
SEANNOT_GROUP5
  1

  0
LINE
  5
7E
330
7C
100
AcDbEntity
  8
Default
  6
CENTER2
 62
     7
100
AcDbLine
 10
83.2853889924
 20
600.4649635056
 30
0.0
 11
83.2853889924
 21
656.0580728533
 31
0.0
  0
ENDBLK
  5
80
330
7C
100
AcDbEntity
  8
0
100
AcDbBlockEnd
  0
BLOCK
  5
84
330
81
100
AcDbEntity
  8
0
100
AcDbBlockBegin
  2
SEANNOT_GROUP6
 70
     0
 10
0.0
 20
0.0
 30
0.0
  3
SEANNOT_GROUP6
  1

  0
LINE
  5
83
330
81
100
AcDbEntity
  8
Default
  6
CENTER2
 62
     7
100
AcDbLine
 10
215.1493662184
 20
628.2615181794
 30
0.0
 11
149.4330965789
 21
628.2615181794
 31
0.0
  0
ENDBLK
  5
85
330
81
100
AcDbEntity
  8
0
100
AcDbBlockEnd
  0
BLOCK
  5
89
330
86
100
AcDbEntity
  8
0
100
AcDbBlockBegin
  2
SEANNOT_GROUP7
 70
     0
 10
0.0
 20
0.0
 30
0.0
  3
SEANNOT_GROUP7
  1

  0
LINE
  5
88
330
86
100
AcDbEntity
  8
Default
  6
CENTER2
 62
     7
100
AcDbLine
 10
183.2853889924
 20
600.5881759654
 30
0.0
 11
183.2853889924
 21
656.7615181794
 31
0.0
  0
ENDBLK
  5
8A
330
86
100
AcDbEntity
  8
0
100
AcDbBlockEnd
  0
BLOCK
  5
8E
330
8B
100
AcDbEntity
  8
0
100
AcDbBlockBegin
  2
SEANNOT_GROUP8
 70
     0
 10
0.0
 20
0.0
 30
0.0
  3
SEANNOT_GROUP8
  1

  0
LINE
  5
8D
330
8B
100
AcDbEntity
  8
Default
  6
CENTER2
 62
     7
100
AcDbLine
 10
283.2853889924
 20
600.4649635056
 30
0.0
 11
283.2853889924
 21
656.0580728533
 31
0.0
  0
ENDBLK
  5
8F
330
8B
100
AcDbEntity
  8
0
100
AcDbBlockEnd
  0
BLOCK
  5
93
330
90
100
AcDbEntity
  8
0
100
AcDbBlockBegin
  2
SEANNOT_GROUP9
 70
     0
 10
0.0
 20
0.0
 30
0.0
  3
SEANNOT_GROUP9
  1

  0
LINE
  5
92
330
90
100
AcDbEntity
  8
Default
  6
CENTER2
 62
     7
100
AcDbLine
 10
255.4888343186
 20
628.2615181794
 30
0.0
 11
311.0819436662
 21
628.2615181794
 31
0.0
  0
ENDBLK
  5
94
330
90
100
AcDbEntity
  8
0
100
AcDbBlockEnd
  0
BLOCK
  5
194
330
95
100
AcDbEntity
  8
0
100
AcDbBlockBegin
  2
SE
 70
     0
 10
0.0
 20
0.0
 30
0.0
  3
SE
  1

  0
LINE
  5
98
330
95
100
AcDbEntity
  8
$DDT_AUDIT_GENERATED_(97)
  6
Continuous
 62
     7
100
AcDbLine
 10
186.6353889924
 20
606.10514107
 30
0.0
 11
179.9353889924
 21
606.10514107
 31
0.0
  0
LINE
  5
9A
330
95
100
AcDbEntity
  8
$DDT_AUDIT_GENERATED_(99)
  6
Continuous
 62
     7
100
AcDbLine
 10
171.3901862786
 20
611.5934861039
 30
0.0
 11
160.2457198517
 21
645.261521686
 31
0.0
  0
LINE
  5
9B
330
95
100
AcDbEntity
  8
$DDT_AUDIT_GENERATED_(99)
  6
Continuous
 62
     7
100
AcDbLine
 10
206.3250529281
 20
645.2615217401
 30
0.0
 11
195.1806021195
 21
611.5934860055
 31
0.0
  0
LINE
  5
9C
330
95
100
AcDbEntity
  8
$DDT_AUDIT_GENERATED_(99)
  6
Continuous
 62
     7
100
AcDbLine
 10
160.2457250567
 20
645.2615217401
 30
0.0
 11
206.3250529281
 21
645.2615217401
 31
0.0
  0
LINE
  5
9D
330
95
100
AcDbEntity
  8
$DDT_AUDIT_GENERATED_(99)
  6
Continuous
 62
     7
100
AcDbLine
 10
158.2853889924
 20
653.2615181794
 30
0.0
 11
161.5744066414
 21
653.2615181794
 31
0.0
  0
LINE
  5
9E
330
95
100
AcDbEntity
  8
$DDT_AUDIT_GENERATED_(99)
  6
Continuous
 62
     7
100
AcDbLine
 10
204.9963713434
 20
653.2615181794
 30
0.0
 11
208.2853889924
 21
653.2615181794
 31
0.0
  0
LINE
  5
9F
330
95
100
AcDbEntity
  8
$DDT_AUDIT_GENERATED_(99)
  6
Continuous
 62
     7
100
AcDbLine
 10
161.5744066414
 20
653.2615181794
 30
0.0
 11
204.9963713434
 21
653.2615181794
 31
0.0
  0
LINE
  5
A0
330
95
100
AcDbEntity
  8
$DDT_AUDIT_GENERATED_(99)
  6
Continuous
 62
     7
100
AcDbLine
 10
153.8846585898
 20
623.6944485425
 30
0.0
 11
171.3901709541
 21
611.5935008526
 31
0.0
  0
LINE
  5
A1
330
95
100
AcDbEntity
  8
$DDT_AUDIT_GENERATED_(99)
  6
Continuous
 62
     7
100
AcDbLine
 10
160.2457244653
 20
645.2615181794
 30
0.0
 11
153.8846585898
 21
623.6944485425
 31
0.0
  0
LINE
  5
A2
330
95
100
AcDbEntity
  8
$DDT_AUDIT_GENERATED_(99)
  6
Continuous
 62
     7
100
AcDbLine
 10
158.2853889924
 20
603.2615181794
 30
0.0
 11
171.3901758653
 21
611.5934860055
 31
0.0
  0
LINE
  5
A3
330
95
100
AcDbEntity
  8
$DDT_AUDIT_GENERATED_(99)
  6
Continuous
 62
     7
100
AcDbLine
 10
208.2853889924
 20
603.2615181794
 30
0.0
 11
158.2853889924
 21
603.2615181794
 31
0.0
  0
LINE
  5
A4
330
95
100
AcDbEntity
  8
$DDT_AUDIT_GENERATED_(99)
  6
Continuous
 62
     7
100
AcDbLine
 10
195.1806021195
 20
611.5934860055
 30
0.0
 11
208.2853889924
 21
603.2615181794
 31
0.0
  0
LINE
  5
A5
330
95
100
AcDbEntity
  8
$DDT_AUDIT_GENERATED_(99)
  6
Continuous
 62
     7
100
AcDbLine
 10
212.6861205559
 20
623.6944414953
 30
0.0
 11
206.3250529281
 21
645.2615217401
 31
0.0
  0
LINE
  5
A6
330
95
100
AcDbEntity
  8
$DDT_AUDIT_GENERATED_(99)
  6
Continuous
 62
     7
100
AcDbLine
 10
195.1806021195
 20
611.5934860055
 30
0.0
 11
212.686114253
 21
623.6944335359
 31
0.0
  0
LINE
  5
A7
330
95
100
AcDbEntity
  8
$DDT_AUDIT_GENERATED_(99)
  6
Continuous
 62
     7
100
AcDbLine
 10
206.3250529281
 20
645.2615217401
 30
0.0
 11
204.9963713434
 21
653.2615181794
 31
0.0
  0
LINE
  5
A8
330
95
100
AcDbEntity
  8
$DDT_AUDIT_GENERATED_(99)
  6
Continuous
 62
     7
100
AcDbLine
 10
161.5744066414
 20
653.2615181794
 30
0.0
 11
160.2457250567
 21
645.2615217401
 31
0.0
  0
LINE
  5
A9
330
95
100
AcDbEntity
  8
$DDT_AUDIT_GENERATED_(99)
  6
Continuous
 62
     7
100
AcDbLine
 10
153.8846585898
 20
623.6944485425
 30
0.0
 11
158.2853889924
 21
653.2615181794
 31
0.0
  0
LINE
  5
AA
330
95
100
AcDbEntity
  8
$DDT_AUDIT_GENERATED_(99)
  6
Continuous
 62
     7
100
AcDbLine
 10
208.2853889924
 20
653.2615181794
 30
0.0
 11
212.686119395
 21
623.6944485425
 31
0.0
  0
LINE
  5
AB
330
95
100
AcDbEntity
  8
$DDT_AUDIT_GENERATED_(99)
  6
Continuous
 62
     7
100
AcDbLine
 10
158.2853889924
 20
603.2615181794
 30
0.0
 11
153.8846585898
 21
623.6944485425
 31
0.0
  0
LINE
  5
AC
330
95
100
AcDbEntity
  8
$DDT_AUDIT_GENERATED_(99)
  6
Continuous
 62
     7
100
AcDbLine
 10
212.686119395
 20
623.6944485425
 30
0.0
 11
208.2853889924
 21
603.2615181794
 31
0.0
  0
ELLIPSE
  5
AD
330
95
100
AcDbEntity
  8
$DDT_AUDIT_GENERATED_(99)
  6
Continuous
 62
     7
100
AcDbEllipse
 10
183.2853889924
 20
605.8496265217
 30
0.0
 11
-3.249999999999996
 21
0.0
 31
0.0
210
0.0
220
0.0
230
1.0
 40
0.1648477212
 41
0.0
 42
3.638744560091546
  0
ELLIPSE
  5
AE
330
95
100
AcDbEntity
  8
$DDT_AUDIT_GENERATED_(99)
  6
Continuous
 62
     7
100
AcDbEllipse
 10
183.2853889924
 20
605.8496265217
 30
0.0
 11
-3.249999999999996
 21
0.0
 31
0.0
210
0.0
220
0.0
230
1.0
 40
0.1648477212
 41
5.786033400677833
 42
6.283185307179586
  0
LINE
  5
AF
330
95
100
AcDbEntity
  8
$DDT_AUDIT_GENERATED_(99)
  6
Continuous
 62
     7
100
AcDbLine
 10
198.9867559559
 20
637.5090205844
 30
0.0
 11
198.9867559559
 21
643.5507848693
 31
0.0
  0
LINE
  5
B0
330
95
100
AcDbEntity
  8
$DDT_AUDIT_GENERATED_(99)
  6
Continuous
 62
     7
100
AcDbLine
 10
198.9867559559
 20
634.0472186027
 30
0.0
 11
198.9867559559
 21
636.7014350181
 31
0.0
  0
LINE
  5
B1
330
95
100
AcDbEntity
  8
$DDT_AUDIT_GENERATED_(99)
  6
Continuous
 62
     7
100
AcDbLine
 10
167.5840220289
 20
633.2396347706
 30
0.0
 11
167.5840220289
 21
631.1290245733
 31
0.0
  0
LINE
  5
B2
330
95
100
AcDbEntity
  8
$DDT_AUDIT_GENERATED_(99)
  6
Continuous
 62
     7
100
AcDbLine
 10
198.9867559559
 20
634.0472186027
 30
0.0
 11
198.9867559559
 21
633.2396330364
 31
0.0
  0
LINE
  5
B3
330
95
100
AcDbEntity
  8
$DDT_AUDIT_GENERATED_(99)
  6
Continuous
 62
     7
100
AcDbLine
 10
198.9867559559
 20
637.5090205844
 30
0.0
 11
198.9867559559
 21
636.7014350181
 31
0.0
  0
LINE
  5
B4
330
95
100
AcDbEntity
  8
$DDT_AUDIT_GENERATED_(99)
  6
Continuous
 62
     7
100
AcDbLine
 10
195.9867559559
 20
630.6344814096
 30
0.0
 11
170.5840220289
 21
630.6344814096
 31
0.0
  0
LINE
  5
B5
330
95
100
AcDbEntity
  8
$DDT_AUDIT_GENERATED_(99)
  6
Continuous
 62
     7
100
AcDbLine
 10
198.9867559559
 20
631.1290245733
 30
0.0
 11
198.9867559559
 21
633.2396330364
 31
0.0
  0
ELLIPSE
  5
B6
330
95
100
AcDbEntity
  8
$DDT_AUDIT_GENERATED_(99)
  6
Continuous
 62
     7
100
AcDbEllipse
 10
195.9867559559
 20
631.1290245733
 30
0.0
 11
2.999999999999996
 21
0.0
 31
0.0
210
0.0
220
0.0
230
1.0
 40
0.1648477212
 41
4.71238898038469
 42
6.283185307179586
  0
ELLIPSE
  5
B7
330
95
100
AcDbEntity
  8
$DDT_AUDIT_GENERATED_(99)
  6
Continuous
 62
     7
100
AcDbEllipse
 10
170.5840220289
 20
631.1290245733
 30
0.0
 11
2.999999999999999
 21
0.0
 31
0.0
210
0.0
220
0.0
230
1.0
 40
0.1648477212
 41
3.141592653589793
 42
4.71238898038469
  0
ELLIPSE
  5
B8
330
95
100
AcDbEntity
  8
$DDT_AUDIT_GENERATED_(99)
  6
Continuous
 62
     7
100
AcDbEllipse
 10
170.5840220289
 20
646.5047726861
 30
0.0
 11
2.989729114093147
 21
3.070966749201865
 31
0.0
210
0.0
220
0.0
230
1.0
 40
0.0807667168
 41
3.058820871441392
 42
3.284937620350679
  0
ELLIPSE
  5
B9
330
95
100
AcDbEntity
  8
$DDT_AUDIT_GENERATED_(99)
  6
Continuous
 62
     7
100
AcDbEllipse
 10
195.9867559559
 20
646.5047713385
 30
0.0
 11
-2.989729114152958
 21
3.070967079353594
 31
0.0
210
0.0
220
0.0
230
0.9999999999999998
 40
0.0807667079
 41
2.998247686587985
 42
3.22436443549788
  0
ELLIPSE
  5
BA
330
95
100
AcDbEntity
  8
$DDT_AUDIT_GENERATED_(99)
  6
Continuous
 62
     7
100
AcDbEllipse
 10
170.5840220289
 20
642.850605476
 30
0.0
 11
2.664221501931305
 21
5.146880711340223
 31
0.0
210
0.0
220
0.0
230
0.9999999999999996
 40
0.2679491924
 41
-3.619250962652063
 42
-3.393134213742688
  0
ELLIPSE
  5
BB
330
95
100
AcDbEntity
  8
$DDT_AUDIT_GENERATED_(99)
  6
Continuous
 62
     7
100
AcDbEllipse
 10
195.9867559559
 20
642.850605476
 30
0.0
 11
-2.664221501931361
 21
5.146880711340347
 31
0.0
210
0.0
220
0.0
230
1.0
 40
0.2679491924
 41
3.393134213742701
 42
3.619250962652061
  0
LINE
  5
BC
330
95
100
AcDbEntity
  8
$DDT_AUDIT_GENERATED_(99)
  6
Continuous
 62
     7
100
AcDbLine
 10
167.5840220289
 20
643.5507848693
 30
0.0
 11
167.5840220289
 21
633.2396347706
 31
0.0
  0
ELLIPSE
  5
BD
330
95
100
AcDbEntity
  8
$DDT_AUDIT_GENERATED_(99)
  6
Continuous
 62
     7
100
AcDbEllipse
 10
168.5840220289
 20
643.5507848693
 30
0.0
 11
-1.000000000000001
 21
0.0
 31
0.0
210
0.0
220
0.0
230
1.0
 40
0.1648477212
 41
4.71238898038469
 42
6.283185307179586
  0
LINE
  5
BE
330
95
100
AcDbEntity
  8
$DDT_AUDIT_GENERATED_(99)
  6
Continuous
 62
     7
100
AcDbLine
 10
197.9867559559
 20
643.7156325905
 30
0.0
 11
168.5840220289
 21
643.7156325905
 31
0.0
  0
ELLIPSE
  5
BF
330
95
100
AcDbEntity
  8
$DDT_AUDIT_GENERATED_(99)
  6
Continuous
 62
     7
100
AcDbEllipse
 10
197.9867559559
 20
643.5507848693
 30
0.0
 11
-1.000000000000001
 21
0.0
 31
0.0
210
0.0
220
0.0
230
1.0
 40
0.1648477212
 41
3.141592653589793
 42
4.71238898038469
  0
LINE
  5
C1
330
95
100
AcDbEntity
  8
$DDT_AUDIT_GENERATED_(C0)
  6
Continuous
 62
     7
100
AcDbLine
 10
258.8350494682
 20
652.7017915615
 30
0.0
 11
266.4005667915
 21
634.7799439197
 31
0.0
  0
LINE
  5
C2
330
95
100
AcDbEntity
  8
$DDT_AUDIT_GENERATED_(C0)
  6
Continuous
 62
     7
100
AcDbLine
 10
258.7532547387
 20
603.858423131
 30
0.0
 11
266.318772062
 21
621.7802707728
 31
0.0
  0
LINE
  5
C3
330
95
100
AcDbEntity
  8
$DDT_AUDIT_GENERATED_(C0)
  6
Continuous
 62
     7
100
AcDbLine
 10
307.8175232461
 20
603.858423131
 30
0.0
 11
300.2520059228
 21
621.7802707728
 31
0.0
  0
LINE
  5
C4
330
95
100
AcDbEntity
  8
$DDT_AUDIT_GENERATED_(C0)
  6
Continuous
 62
     7
100
AcDbLine
 10
307.7357285166
 20
652.7017915615
 30
0.0
 11
300.1702111933
 21
634.7799439197
 31
0.0
  0
LINE
  5
C5
330
95
100
AcDbEntity
  8
$DDT_AUDIT_GENERATED_(C0)
  6
Continuous
 62
     7
100
AcDbLine
 10
258.288940932
 20
652.5580728533
 30
0.0
 11
258.288940932
 21
603.9649635056
 31
0.0
  0
ARC
  5
C6
330
95
100
AcDbEntity
  8
$DDT_AUDIT_GENERATED_(C0)
  6
Continuous
 62
     7
100
AcDbCircle
 10
258.9888952187
 20
652.5580119532
 30
0.0
 40
0.6999542893291887
100
AcDbArc
 50
90.0049850641
 51
179.9950149359
  0
ARC
  5
C7
330
95
100
AcDbEntity
  8
$DDT_AUDIT_GENERATED_(C0)
  6
Continuous
 62
     7
100
AcDbCircle
 10
258.9888952187
 20
603.9650244057
 30
0.0
 40
0.6999542893291922
100
AcDbArc
 50
180.0049850641
 51
269.9950149359
  0
LINE
  5
C8
330
95
100
AcDbEntity
  8
$DDT_AUDIT_GENERATED_(C0)
  6
Continuous
 62
     7
100
AcDbLine
 10
307.5819436662
 20
653.2579662399
 30
0.0
 11
258.9888343186
 21
653.2579662399
 31
0.0
  0
LINE
  5
C9
330
95
100
AcDbEntity
  8
$DDT_AUDIT_GENERATED_(C0)
  6
Continuous
 62
     7
100
AcDbLine
 10
258.9888343186
 20
603.265070119
 30
0.0
 11
307.5819436662
 21
603.265070119
 31
0.0
  0
ARC
  5
CA
330
95
100
AcDbEntity
  8
$DDT_AUDIT_GENERATED_(C0)
  6
Continuous
 62
     7
100
AcDbCircle
 10
307.5818827662
 20
652.5580119532
 30
0.0
 40
0.6999542893291922
100
AcDbArc
 50
0.0049850641
 51
89.9950149359
  0
ARC
  5
CB
330
95
100
AcDbEntity
  8
$DDT_AUDIT_GENERATED_(C0)
  6
Continuous
 62
     7
100
AcDbCircle
 10
307.5818827662
 20
603.9650244057
 30
0.0
 40
0.6999542893291887
100
AcDbArc
 50
270.0049850641
 51
359.9950149359
  0
LINE
  5
CC
330
95
100
AcDbEntity
  8
$DDT_AUDIT_GENERATED_(C0)
  6
Continuous
 62
     7
100
AcDbLine
 10
308.2818370528
 20
603.9649635056
 30
0.0
 11
308.2818370528
 21
652.5580728533
 31
0.0
  0
ELLIPSE
  5
CD
330
95
100
AcDbEntity
  8
$DDT_AUDIT_GENERATED_(C0)
  6
Continuous
 62
     7
100
AcDbEllipse
 10
265.8168670413
 20
603.3138833742
 30
0.0
 11
-2.746880483089423
 21
-0.0003932636189300787
 31
0.0
210
0.0
220
0.0
230
0.9999999999999999
 40
0.0142969188
 41
0.0
 42
6.283185307179586
  0
LINE
  5
CE
330
95
100
AcDbEntity
  8
$DDT_AUDIT_GENERATED_(C0)
  6
Continuous
 62
     7
100
AcDbLine
 10
266.318772062
 20
634.7427655861
 30
0.0
 11
258.7532547387
 21
652.6646132279
 31
0.0
  0
LINE
  5
CF
330
95
100
AcDbEntity
  8
$DDT_AUDIT_GENERATED_(C0)
  6
Continuous
 62
     7
100
AcDbLine
 10
266.318772062
 20
621.7802707728
 30
0.0
 11
266.318772062
 21
634.7427655861
 31
0.0
  0
LINE
  5
D0
330
95
100
AcDbEntity
  8
$DDT_AUDIT_GENERATED_(C0)
  6
Continuous
 62
     7
100
AcDbLine
 10
300.1702111933
 20
621.7802707728
 30
0.0
 11
300.1702111933
 21
622.4923880178
 31
0.0
  0
LINE
  5
D1
330
95
100
AcDbEntity
  8
$DDT_AUDIT_GENERATED_(C0)
  6
Continuous
 62
     7
100
AcDbLine
 10
300.1702111933
 20
634.0306483411
 30
0.0
 11
300.1702111933
 21
634.7427655861
 31
0.0
  0
LINE
  5
D2
330
95
100
AcDbEntity
  8
$DDT_AUDIT_GENERATED_(C0)
  6
Continuous
 62
     7
100
AcDbLine
 10
266.4005667915
 20
621.7802707728
 30
0.0
 11
267.2591701482
 21
621.7802707728
 31
0.0
  0
LINE
  5
D3
330
95
100
AcDbEntity
  8
$DDT_AUDIT_GENERATED_(C0)
  6
Continuous
 62
     7
100
AcDbLine
 10
299.3116078366
 20
621.7802707728
 30
0.0
 11
300.1702111933
 21
621.7802707728
 31
0.0
  0
LINE
  5
D4
330
95
100
AcDbEntity
  8
$DDT_AUDIT_GENERATED_(C0)
  6
Continuous
 62
     7
100
AcDbLine
 10
300.1702111933
 20
634.7427655861
 30
0.0
 11
299.3116078366
 21
634.7427655861
 31
0.0
  0
LINE
  5
D5
330
95
100
AcDbEntity
  8
$DDT_AUDIT_GENERATED_(C0)
  6
Continuous
 62
     7
100
AcDbLine
 10
267.2591701482
 20
634.7427655861
 30
0.0
 11
266.4005667915
 21
634.7427655861
 31
0.0
  0
LINE
  5
D6
330
95
100
AcDbEntity
  8
$DDT_AUDIT_GENERATED_(C0)
  6
Continuous
 62
     7
100
AcDbLine
 10
266.4005667915
 20
634.7427655861
 30
0.0
 11
266.4005667915
 21
634.0306483411
 31
0.0
  0
LINE
  5
D7
330
95
100
AcDbEntity
  8
$DDT_AUDIT_GENERATED_(C0)
  6
Continuous
 62
     7
100
AcDbLine
 10
266.4005667915
 20
622.4923880178
 30
0.0
 11
266.4005667915
 21
621.7802707728
 31
0.0
  0
ELLIPSE
  5
D8
330
95
100
AcDbEntity
  8
$DDT_AUDIT_GENERATED_(C0)
  6
Continuous
 62
     7
100
AcDbEllipse
 10
266.4005667915
 20
634.7427655861
 30
0.0
 11
-0.184255382788906
 21
-0.07778144967348147
 31
0.0
210
0.0
220
0.0
230
0.9999999999999999
 40
0.1717070045
 41
4.640031239896396
 42
5.098704442671607
  0
LINE
  5
D9
330
95
100
AcDbEntity
  8
$DDT_AUDIT_GENERATED_(C0)
  6
Continuous
 62
     7
100
AcDbLine
 10
266.4005667915
 20
621.7430924392
 30
0.0
 11
258.8350494682
 21
603.8212447973
 31
0.0
  0
ELLIPSE
  5
DA
330
95
100
AcDbEntity
  8
$DDT_AUDIT_GENERATED_(C0)
  6
Continuous
 62
     7
100
AcDbEllipse
 10
266.4005667915
 20
621.7802707728
 30
0.0
 11
0.1842553827888921
 21
-0.07778144967347345
 31
0.0
210
0.0
220
0.0
230
1.0
 40
0.1717070045
 41
4.326073518097456
 42
4.784746720873209
  0
LINE
  5
DB
330
95
100
AcDbEntity
  8
$DDT_AUDIT_GENERATED_(C0)
  6
Continuous
 62
     7
100
AcDbLine
 10
266.4005667915
 20
634.7799439197
 30
0.0
 11
300.1702111933
 21
634.7799439197
 31
0.0
  0
LINE
  5
DC
330
95
100
AcDbEntity
  8
$DDT_AUDIT_GENERATED_(C0)
  6
Continuous
 62
     7
100
AcDbLine
 10
300.1702111933
 20
621.7430924392
 30
0.0
 11
307.7357285166
 21
603.8212447973
 31
0.0
  0
LINE
  5
DD
330
95
100
AcDbEntity
  8
$DDT_AUDIT_GENERATED_(C0)
  6
Continuous
 62
     7
100
AcDbLine
 10
300.1702111933
 20
621.7430924392
 30
0.0
 11
266.4005667915
 21
621.7430924392
 31
0.0
  0
LINE
  5
DE
330
95
100
AcDbEntity
  8
$DDT_AUDIT_GENERATED_(C0)
  6
Continuous
 62
     7
100
AcDbLine
 10
300.2520059228
 20
634.7427655861
 30
0.0
 11
307.8175232461
 21
652.6646132279
 31
0.0
  0
ELLIPSE
  5
DF
330
95
100
AcDbEntity
  8
$DDT_AUDIT_GENERATED_(C0)
  6
Continuous
 62
     7
100
AcDbEllipse
 10
300.1702111933
 20
634.7427655861
 30
0.0
 11
-0.1842553827889337
 21
0.07778144967346065
 31
0.0
210
0.0
220
0.0
230
0.9999999999999999
 40
0.1717070045
 41
4.326073518097216
 42
4.784746720872426
  0
LINE
  5
E0
330
95
100
AcDbEntity
  8
$DDT_AUDIT_GENERATED_(C0)
  6
Continuous
 62
     7
100
AcDbLine
 10
300.2520059228
 20
634.7427655861
 30
0.0
 11
300.2520059228
 21
621.7802707728
 31
0.0
  0
LINE
  5
E1
330
95
100
AcDbEntity
  8
$DDT_AUDIT_GENERATED_(C0)
  6
Continuous
 62
     7
100
AcDbLine
 10
300.1702111933
 20
634.7427655861
 30
0.0
 11
300.2520059228
 21
634.7427655861
 31
0.0
  0
LINE
  5
E2
330
95
100
AcDbEntity
  8
$DDT_AUDIT_GENERATED_(C0)
  6
Continuous
 62
     7
100
AcDbLine
 10
300.1702111933
 20
634.7427655861
 30
0.0
 11
300.1702111933
 21
634.7799439197
 31
0.0
  0
LINE
  5
E3
330
95
100
AcDbEntity
  8
$DDT_AUDIT_GENERATED_(C0)
  6
Continuous
 62
     7
100
AcDbLine
 10
266.4005667915
 20
621.7430924392
 30
0.0
 11
266.4005667915
 21
621.7802707728
 31
0.0
  0
LINE
  5
E4
330
95
100
AcDbEntity
  8
$DDT_AUDIT_GENERATED_(C0)
  6
Continuous
 62
     7
100
AcDbLine
 10
266.4005667915
 20
634.7427655861
 30
0.0
 11
266.4005667915
 21
634.7799439197
 31
0.0
  0
LINE
  5
E5
330
95
100
AcDbEntity
  8
$DDT_AUDIT_GENERATED_(C0)
  6
Continuous
 62
     7
100
AcDbLine
 10
266.318772062
 20
621.7802707728
 30
0.0
 11
266.4005667915
 21
621.7802707728
 31
0.0
  0
LINE
  5
E6
330
95
100
AcDbEntity
  8
$DDT_AUDIT_GENERATED_(C0)
  6
Continuous
 62
     7
100
AcDbLine
 10
266.4005667915
 20
634.7427655861
 30
0.0
 11
266.318772062
 21
634.7427655861
 31
0.0
  0
LINE
  5
E8
330
95
100
AcDbEntity
  8
$DDT_AUDIT_GENERATED_(E7)
  6
Continuous
 62
     7
100
AcDbLine
 10
298.8833223199
 20
624.2011854912
 30
0.0
 11
267.6874556649
 21
624.2011854912
 31
0.0
  0
LINE
  5
E9
330
95
100
AcDbEntity
  8
$DDT_AUDIT_GENERATED_(E7)
  6
Continuous
 62
     7
100
AcDbLine
 10
299.8832842429
 20
631.3239233711
 30
0.0
 11
299.8832842429
 21
625.1991129878
 31
0.0
  0
LINE
  5
EA
330
95
100
AcDbEntity
  8
$DDT_AUDIT_GENERATED_(E7)
  6
Continuous
 62
     7
100
AcDbLine
 10
299.8832842429
 20
625.1991129878
 30
0.0
 11
300.2112180417
 21
622.7760412232
 31
0.0
  0
LINE
  5
EB
330
95
100
AcDbEntity
  8
$DDT_AUDIT_GENERATED_(E7)
  6
Continuous
 62
     7
100
AcDbLine
 10
298.8833223199
 20
624.2011854912
 30
0.0
 11
298.8833223199
 21
625.1991129878
 31
0.0
  0
LINE
  5
EC
330
95
100
AcDbEntity
  8
$DDT_AUDIT_GENERATED_(E7)
  6
Continuous
 62
     7
100
AcDbLine
 10
298.8833223199
 20
631.3239233711
 30
0.0
 11
267.6874556649
 21
631.3239233711
 31
0.0
  0
LINE
  5
ED
330
95
100
AcDbEntity
  8
$DDT_AUDIT_GENERATED_(E7)
  6
Continuous
 62
     7
100
AcDbLine
 10
298.8833223199
 20
625.1991129878
 30
0.0
 11
298.8833223199
 21
631.3239233711
 31
0.0
  0
LINE
  5
EE
330
95
100
AcDbEntity
  8
$DDT_AUDIT_GENERATED_(E7)
  6
Continuous
 62
     7
100
AcDbLine
 10
298.8833223199
 20
631.3239233711
 30
0.0
 11
298.8833223199
 21
632.3218508677
 31
0.0
  0
LINE
  5
EF
330
95
100
AcDbEntity
  8
$DDT_AUDIT_GENERATED_(E7)
  6
Continuous
 62
     7
100
AcDbLine
 10
298.8833223199
 20
632.3218508677
 30
0.0
 11
299.2116444421
 21
634.7477919174
 31
0.0
  0
ELLIPSE
  5
F0
330
95
100
AcDbEntity
  8
$DDT_AUDIT_GENERATED_(E7)
  6
Continuous
 62
     7
100
AcDbEllipse
 10
298.8833223199
 20
631.3239233711
 30
0.0
 11
0.9909657253428239
 21
-0.134115365248438
 31
0.0
210
0.0
220
0.0
230
1.0
 40
0.997889656
 41
0.1348017638118322
 42
1.705036552329819
  0
LINE
  5
F1
330
95
100
AcDbEntity
  8
$DDT_AUDIT_GENERATED_(E7)
  6
Continuous
 62
     7
100
AcDbLine
 10
299.8832842429
 20
631.3239233711
 30
0.0
 11
298.8833223199
 21
631.3239233711
 31
0.0
  0
LINE
  5
F2
330
95
100
AcDbEntity
  8
$DDT_AUDIT_GENERATED_(E7)
  6
Continuous
 62
     7
100
AcDbLine
 10
299.8832842429
 20
625.1991129878
 30
0.0
 11
298.8833223199
 21
625.1991129878
 31
0.0
  0
ELLIPSE
  5
F3
330
95
100
AcDbEntity
  8
$DDT_AUDIT_GENERATED_(E7)
  6
Continuous
 62
     7
100
AcDbEllipse
 10
298.8833223199
 20
625.1991129878
 30
0.0
 11
0.9909657253427961
 21
0.1341153652486512
 31
0.0
210
0.0
220
0.0
230
1.0
 40
0.997889656
 41
4.578148754849584
 42
6.148383543367077
  0
LINE
  5
F4
330
95
100
AcDbEntity
  8
$DDT_AUDIT_GENERATED_(E7)
  6
Continuous
 62
     7
100
AcDbLine
 10
267.6874556649
 20
624.2011854912
 30
0.0
 11
267.3591335428
 21
621.7752444414
 31
0.0
  0
LINE
  5
F5
330
95
100
AcDbEntity
  8
$DDT_AUDIT_GENERATED_(E7)
  6
Continuous
 62
     7
100
AcDbLine
 10
266.6874937419
 20
631.3239233711
 30
0.0
 11
266.3595599431
 21
633.7469951356
 31
0.0
  0
LINE
  5
F6
330
95
100
AcDbEntity
  8
$DDT_AUDIT_GENERATED_(E7)
  6
Continuous
 62
     7
100
AcDbLine
 10
266.6874937419
 20
625.1991129878
 30
0.0
 11
266.6874937419
 21
631.3239233711
 31
0.0
  0
LINE
  5
F7
330
95
100
AcDbEntity
  8
$DDT_AUDIT_GENERATED_(E7)
  6
Continuous
 62
     7
100
AcDbLine
 10
267.6874556649
 20
625.1991129878
 30
0.0
 11
298.8833223199
 21
625.1991129878
 31
0.0
  0
LINE
  5
F8
330
95
100
AcDbEntity
  8
$DDT_AUDIT_GENERATED_(E7)
  6
Continuous
 62
     7
100
AcDbLine
 10
267.6874556649
 20
625.1991129878
 30
0.0
 11
267.6874556649
 21
624.2011854912
 31
0.0
  0
LINE
  5
F9
330
95
100
AcDbEntity
  8
$DDT_AUDIT_GENERATED_(E7)
  6
Continuous
 62
     7
100
AcDbLine
 10
267.6874556649
 20
631.3239233711
 30
0.0
 11
267.6874556649
 21
625.1991129878
 31
0.0
  0
LINE
  5
FA
330
95
100
AcDbEntity
  8
$DDT_AUDIT_GENERATED_(E7)
  6
Continuous
 62
     7
100
AcDbLine
 10
267.6874556649
 20
632.3218508677
 30
0.0
 11
298.8833223199
 21
632.3218508677
 31
0.0
  0
LINE
  5
FB
330
95
100
AcDbEntity
  8
$DDT_AUDIT_GENERATED_(E7)
  6
Continuous
 62
     7
100
AcDbLine
 10
267.6874556649
 20
632.3218508677
 30
0.0
 11
267.6874556649
 21
631.3239233711
 31
0.0
  0
ELLIPSE
  5
FC
330
95
100
AcDbEntity
  8
$DDT_AUDIT_GENERATED_(E7)
  6
Continuous
 62
     7
100
AcDbEllipse
 10
267.6874556649
 20
631.3239233711
 30
0.0
 11
0.99096572534281
 21
0.1341153652488006
 31
0.0
210
0.0
220
0.0
230
0.9999999999999999
 40
0.997889656
 41
1.436556101259577
 42
3.006790889777647
  0
LINE
  5
FD
330
95
100
AcDbEntity
  8
$DDT_AUDIT_GENERATED_(E7)
  6
Continuous
 62
     7
100
AcDbLine
 10
267.6874556649
 20
631.3239233711
 30
0.0
 11
266.6874937419
 21
631.3239233711
 31
0.0
  0
LINE
  5
FE
330
95
100
AcDbEntity
  8
$DDT_AUDIT_GENERATED_(E7)
  6
Continuous
 62
     7
100
AcDbLine
 10
267.6874556649
 20
625.1991129878
 30
0.0
 11
266.6874937419
 21
625.1991129878
 31
0.0
  0
ELLIPSE
  5
FF
330
95
100
AcDbEntity
  8
$DDT_AUDIT_GENERATED_(E7)
  6
Continuous
 62
     7
100
AcDbEllipse
 10
267.6874556649
 20
625.1991129878
 30
0.0
 11
0.9909657253428378
 21
-0.1341153652482997
 31
0.0
210
0.0
220
0.0
230
1.0
 40
0.997889656
 41
3.276394417401906
 42
4.846629205919443
  0
LINE
  5
100
330
95
100
AcDbEntity
  8
$DDT_AUDIT_GENERATED_(E7)
  6
Continuous
 62
     7
100
AcDbLine
 10
299.2116444421
 20
621.7752444414
 30
0.0
 11
298.8833223199
 21
624.2011854912
 31
0.0
  0
LINE
  5
101
330
95
100
AcDbEntity
  8
$DDT_AUDIT_GENERATED_(E7)
  6
Continuous
 62
     7
100
AcDbLine
 10
267.3591335428
 20
621.7752444414
 30
0.0
 11
299.2116444421
 21
621.7752444414
 31
0.0
  0
LINE
  5
102
330
95
100
AcDbEntity
  8
$DDT_AUDIT_GENERATED_(E7)
  6
Continuous
 62
     7
100
AcDbLine
 10
266.3595599431
 20
622.7760412232
 30
0.0
 11
266.6874937419
 21
625.1991129878
 31
0.0
  0
ELLIPSE
  5
103
330
95
100
AcDbEntity
  8
$DDT_AUDIT_GENERATED_(E7)
  6
Continuous
 62
     7
100
AcDbEllipse
 10
267.3595827905
 20
622.7764913868
 30
0.0
 11
0.1342856618286453
 21
0.9922240306332787
 31
0.0
210
0.0
220
0.0
230
1.0
 40
0.9987318335
 41
1.705598090607653
 42
3.275832879125113
  0
ELLIPSE
  5
104
330
95
100
AcDbEntity
  8
$DDT_AUDIT_GENERATED_(E7)
  6
Continuous
 62
     7
100
AcDbEllipse
 10
299.2111951944
 20
622.7764913868
 30
0.0
 11
-0.1342856618285759
 21
0.9922240306332436
 31
0.0
210
0.0
220
0.0
230
1.0
 40
0.9987318335
 41
3.007352428054351
 42
4.577587216571991
  0
LINE
  5
105
330
95
100
AcDbEntity
  8
$DDT_AUDIT_GENERATED_(E7)
  6
Continuous
 62
     7
100
AcDbLine
 10
266.3595599431
 20
633.7469951356
 30
0.0
 11
266.3595599431
 21
622.7760412232
 31
0.0
  0
LINE
  5
106
330
95
100
AcDbEntity
  8
$DDT_AUDIT_GENERATED_(E7)
  6
Continuous
 62
     7
100
AcDbLine
 10
300.2112180417
 20
633.7469951356
 30
0.0
 11
299.8832842429
 21
631.3239233711
 31
0.0
  0
LINE
  5
107
330
95
100
AcDbEntity
  8
$DDT_AUDIT_GENERATED_(E7)
  6
Continuous
 62
     7
100
AcDbLine
 10
300.2112180417
 20
622.7760412232
 30
0.0
 11
300.2112180417
 21
633.7469951356
 31
0.0
  0
LINE
  5
108
330
95
100
AcDbEntity
  8
$DDT_AUDIT_GENERATED_(E7)
  6
Continuous
 62
     7
100
AcDbLine
 10
267.3591335428
 20
634.7477919174
 30
0.0
 11
267.6874556649
 21
632.3218508677
 31
0.0
  0
ELLIPSE
  5
109
330
95
100
AcDbEntity
  8
$DDT_AUDIT_GENERATED_(E7)
  6
Continuous
 62
     7
100
AcDbEllipse
 10
267.3595827905
 20
633.7465449721
 30
0.0
 11
0.1342856618340715
 21
-0.9922240306325051
 31
0.0
210
0.0
220
0.0
230
0.9999999999999999
 40
0.9987318335
 41
3.007352428048722
 42
4.577587216566453
  0
ELLIPSE
  5
10A
330
95
100
AcDbEntity
  8
$DDT_AUDIT_GENERATED_(E7)
  6
Continuous
 62
     7
100
AcDbEllipse
 10
299.2111951944
 20
633.7465449721
 30
0.0
 11
-0.1342856618361116
 21
-0.9922240306321409
 31
0.0
210
0.0
220
0.0
230
0.9999999999999998
 40
0.9987318335
 41
1.70559809061521
 42
3.275832879132553
  0
LINE
  5
10B
330
95
100
AcDbEntity
  8
$DDT_AUDIT_GENERATED_(E7)
  6
Continuous
 62
     7
100
AcDbLine
 10
299.2116444421
 20
634.7477919174
 30
0.0
 11
267.3591335428
 21
634.7477919174
 31
0.0
  0
LINE
  5
10C
330
95
100
AcDbEntity
  8
$DDT_AUDIT_GENERATED_(E7)
  6
Continuous
 62
     7
100
AcDbLine
 10
267.3591335428
 20
634.7482064181
 30
0.0
 11
267.3591335428
 21
634.7477919174
 31
0.0
  0
LINE
  5
10D
330
95
100
AcDbEntity
  8
$DDT_AUDIT_GENERATED_(E7)
  6
Continuous
 62
     7
100
AcDbLine
 10
299.2116444421
 20
634.7477919174
 30
0.0
 11
299.2116444421
 21
634.7482064181
 31
0.0
  0
LINE
  5
10E
330
95
100
AcDbEntity
  8
$DDT_AUDIT_GENERATED_(E7)
  6
Continuous
 62
     7
100
AcDbLine
 10
267.3591335428
 20
621.7748299408
 30
0.0
 11
267.3591335428
 21
621.7752444414
 31
0.0
  0
LINE
  5
10F
330
95
100
AcDbEntity
  8
$DDT_AUDIT_GENERATED_(E7)
  6
Continuous
 62
     7
100
AcDbLine
 10
299.2116444421
 20
621.7752444414
 30
0.0
 11
299.2116444421
 21
621.7748299408
 31
0.0
  0
LINE
  5
110
330
95
100
AcDbEntity
  8
$DDT_AUDIT_GENERATED_(E7)
  6
Continuous
 62
     7
100
AcDbLine
 10
299.2116444421
 20
634.7482064181
 30
0.0
 11
267.3591335428
 21
634.7482064181
 31
0.0
  0
LINE
  5
111
330
95
100
AcDbEntity
  8
$DDT_AUDIT_GENERATED_(E7)
  6
Continuous
 62
     7
100
AcDbLine
 10
267.3591335428
 20
621.7748299408
 30
0.0
 11
299.2116444421
 21
621.7748299408
 31
0.0
  0
LINE
  5
112
330
95
100
AcDbEntity
  8
$DDT_AUDIT_GENERATED_(E7)
  6
Continuous
 62
     7
100
AcDbLine
 10
67.6874556649
 20
632.3218508677
 30
0.0
 11
98.8833223199
 21
632.3218508677
 31
0.0
  0
LINE
  5
113
330
95
100
AcDbEntity
  8
$DDT_AUDIT_GENERATED_(E7)
  6
Continuous
 62
     7
100
AcDbLine
 10
66.6874937419
 20
625.1991129878
 30
0.0
 11
66.6874937419
 21
631.3239233711
 31
0.0
  0
LINE
  5
114
330
95
100
AcDbEntity
  8
$DDT_AUDIT_GENERATED_(E7)
  6
Continuous
 62
     7
100
AcDbLine
 10
66.6874937419
 20
631.3239233711
 30
0.0
 11
66.3595599431
 21
633.7469951356
 31
0.0
  0
LINE
  5
115
330
95
100
AcDbEntity
  8
$DDT_AUDIT_GENERATED_(E7)
  6
Continuous
 62
     7
100
AcDbLine
 10
67.6874556649
 20
632.3218508677
 30
0.0
 11
67.6874556649
 21
631.3239233711
 31
0.0
  0
LINE
  5
116
330
95
100
AcDbEntity
  8
$DDT_AUDIT_GENERATED_(E7)
  6
Continuous
 62
     7
100
AcDbLine
 10
67.6874556649
 20
625.1991129878
 30
0.0
 11
98.8833223199
 21
625.1991129878
 31
0.0
  0
LINE
  5
117
330
95
100
AcDbEntity
  8
$DDT_AUDIT_GENERATED_(E7)
  6
Continuous
 62
     7
100
AcDbLine
 10
67.6874556649
 20
631.3239233711
 30
0.0
 11
67.6874556649
 21
625.1991129878
 31
0.0
  0
LINE
  5
118
330
95
100
AcDbEntity
  8
$DDT_AUDIT_GENERATED_(E7)
  6
Continuous
 62
     7
100
AcDbLine
 10
67.6874556649
 20
625.1991129878
 30
0.0
 11
67.6874556649
 21
624.2011854912
 31
0.0
  0
LINE
  5
119
330
95
100
AcDbEntity
  8
$DDT_AUDIT_GENERATED_(E7)
  6
Continuous
 62
     7
100
AcDbLine
 10
67.6874556649
 20
624.2011854912
 30
0.0
 11
67.3591335428
 21
621.7752444414
 31
0.0
  0
ELLIPSE
  5
11A
330
95
100
AcDbEntity
  8
$DDT_AUDIT_GENERATED_(E7)
  6
Continuous
 62
     7
100
AcDbEllipse
 10
67.6874556649
 20
625.1991129878
 30
0.0
 11
-0.9909657253432681
 21
0.1341153652455712
 31
0.0
210
0.0
220
0.0
230
0.9999999999999999
 40
0.997889656
 41
0.1348017638093663
 42
1.705036552326886
  0
LINE
  5
11B
330
95
100
AcDbEntity
  8
$DDT_AUDIT_GENERATED_(E7)
  6
Continuous
 62
     7
100
AcDbLine
 10
66.6874937419
 20
625.1991129878
 30
0.0
 11
67.6874556649
 21
625.1991129878
 31
0.0
  0
LINE
  5
11C
330
95
100
AcDbEntity
  8
$DDT_AUDIT_GENERATED_(E7)
  6
Continuous
 62
     7
100
AcDbLine
 10
66.6874937419
 20
631.3239233711
 30
0.0
 11
67.6874556649
 21
631.3239233711
 31
0.0
  0
ELLIPSE
  5
11D
330
95
100
AcDbEntity
  8
$DDT_AUDIT_GENERATED_(E7)
  6
Continuous
 62
     7
100
AcDbEllipse
 10
67.6874556649
 20
631.3239233711
 30
0.0
 11
-0.9909657253440036
 21
-0.1341153652402918
 31
0.0
210
0.0
220
0.0
230
1.0
 40
0.997889656
 41
4.578148754858021
 42
6.148383543375481
  0
LINE
  5
11E
330
95
100
AcDbEntity
  8
$DDT_AUDIT_GENERATED_(E7)
  6
Continuous
 62
     7
100
AcDbLine
 10
98.8833223199
 20
632.3218508677
 30
0.0
 11
99.2116444421
 21
634.7477919174
 31
0.0
  0
LINE
  5
11F
330
95
100
AcDbEntity
  8
$DDT_AUDIT_GENERATED_(E7)
  6
Continuous
 62
     7
100
AcDbLine
 10
99.8832842429
 20
625.1991129878
 30
0.0
 11
100.2112180417
 21
622.7760412232
 31
0.0
  0
LINE
  5
120
330
95
100
AcDbEntity
  8
$DDT_AUDIT_GENERATED_(E7)
  6
Continuous
 62
     7
100
AcDbLine
 10
99.8832842429
 20
631.3239233711
 30
0.0
 11
99.8832842429
 21
625.1991129878
 31
0.0
  0
LINE
  5
121
330
95
100
AcDbEntity
  8
$DDT_AUDIT_GENERATED_(E7)
  6
Continuous
 62
     7
100
AcDbLine
 10
98.8833223199
 20
631.3239233711
 30
0.0
 11
67.6874556649
 21
631.3239233711
 31
0.0
  0
LINE
  5
122
330
95
100
AcDbEntity
  8
$DDT_AUDIT_GENERATED_(E7)
  6
Continuous
 62
     7
100
AcDbLine
 10
98.8833223199
 20
631.3239233711
 30
0.0
 11
98.8833223199
 21
632.3218508677
 31
0.0
  0
LINE
  5
123
330
95
100
AcDbEntity
  8
$DDT_AUDIT_GENERATED_(E7)
  6
Continuous
 62
     7
100
AcDbLine
 10
98.8833223199
 20
625.1991129878
 30
0.0
 11
98.8833223199
 21
631.3239233711
 31
0.0
  0
LINE
  5
124
330
95
100
AcDbEntity
  8
$DDT_AUDIT_GENERATED_(E7)
  6
Continuous
 62
     7
100
AcDbLine
 10
98.8833223199
 20
624.2011854912
 30
0.0
 11
67.6874556649
 21
624.2011854912
 31
0.0
  0
LINE
  5
125
330
95
100
AcDbEntity
  8
$DDT_AUDIT_GENERATED_(E7)
  6
Continuous
 62
     7
100
AcDbLine
 10
98.8833223199
 20
624.2011854912
 30
0.0
 11
98.8833223199
 21
625.1991129878
 31
0.0
  0
ELLIPSE
  5
126
330
95
100
AcDbEntity
  8
$DDT_AUDIT_GENERATED_(E7)
  6
Continuous
 62
     7
100
AcDbEllipse
 10
98.8833223199
 20
625.1991129878
 30
0.0
 11
-0.990965725343504
 21
-0.1341153652439625
 31
0.0
210
0.0
220
0.0
230
0.9999999999999999
 40
0.997889656
 41
1.436556101264546
 42
3.006790889782127
  0
LINE
  5
127
330
95
100
AcDbEntity
  8
$DDT_AUDIT_GENERATED_(E7)
  6
Continuous
 62
     7
100
AcDbLine
 10
98.8833223199
 20
625.1991129878
 30
0.0
 11
99.8832842429
 21
625.1991129878
 31
0.0
  0
LINE
  5
128
330
95
100
AcDbEntity
  8
$DDT_AUDIT_GENERATED_(E7)
  6
Continuous
 62
     7
100
AcDbLine
 10
98.8833223199
 20
631.3239233711
 30
0.0
 11
99.8832842429
 21
631.3239233711
 31
0.0
  0
ELLIPSE
  5
129
330
95
100
AcDbEntity
  8
$DDT_AUDIT_GENERATED_(E7)
  6
Continuous
 62
     7
100
AcDbEllipse
 10
98.8833223199
 20
631.3239233711
 30
0.0
 11
-0.9909657253435455
 21
0.1341153652436242
 31
0.0
210
0.0
220
0.0
230
1.0
 40
0.997889656
 41
3.276394417397305
 42
4.846629205914716
  0
LINE
  5
12A
330
95
100
AcDbEntity
  8
$DDT_AUDIT_GENERATED_(E7)
  6
Continuous
 62
     7
100
AcDbLine
 10
67.3591335428
 20
634.7477919174
 30
0.0
 11
67.6874556649
 21
632.3218508677
 31
0.0
  0
LINE
  5
12B
330
95
100
AcDbEntity
  8
$DDT_AUDIT_GENERATED_(E7)
  6
Continuous
 62
     7
100
AcDbLine
 10
99.2116444421
 20
634.7477919174
 30
0.0
 11
67.3591335428
 21
634.7477919174
 31
0.0
  0
LINE
  5
12C
330
95
100
AcDbEntity
  8
$DDT_AUDIT_GENERATED_(E7)
  6
Continuous
 62
     7
100
AcDbLine
 10
100.2112180417
 20
633.7469951356
 30
0.0
 11
99.8832842429
 21
631.3239233711
 31
0.0
  0
ELLIPSE
  5
12D
330
95
100
AcDbEntity
  8
$DDT_AUDIT_GENERATED_(E7)
  6
Continuous
 62
     7
100
AcDbEllipse
 10
99.2111951944
 20
633.7465449721
 30
0.0
 11
-0.1342856618287702
 21
-0.9922240306332615
 31
0.0
210
0.0
220
0.0
230
1.0
 40
0.9987318335
 41
1.705598090607771
 42
3.275832879124427
  0
ELLIPSE
  5
12E
330
95
100
AcDbEntity
  8
$DDT_AUDIT_GENERATED_(E7)
  6
Continuous
 62
     7
100
AcDbEllipse
 10
67.3595827905
 20
633.7465449721
 30
0.0
 11
0.1342856618297417
 21
-0.992224030633133
 31
0.0
210
0.0
220
0.0
230
1.0
 40
0.9987318335
 41
3.007352428053292
 42
4.577587216570838
  0
LINE
  5
12F
330
95
100
AcDbEntity
  8
$DDT_AUDIT_GENERATED_(E7)
  6
Continuous
 62
     7
100
AcDbLine
 10
100.2112180417
 20
622.7760412232
 30
0.0
 11
100.2112180417
 21
633.7469951356
 31
0.0
  0
LINE
  5
130
330
95
100
AcDbEntity
  8
$DDT_AUDIT_GENERATED_(E7)
  6
Continuous
 62
     7
100
AcDbLine
 10
66.3595599431
 20
622.7760412232
 30
0.0
 11
66.6874937419
 21
625.1991129878
 31
0.0
  0
LINE
  5
131
330
95
100
AcDbEntity
  8
$DDT_AUDIT_GENERATED_(E7)
  6
Continuous
 62
     7
100
AcDbLine
 10
66.3595599431
 20
633.7469951356
 30
0.0
 11
66.3595599431
 21
622.7760412232
 31
0.0
  0
LINE
  5
132
330
95
100
AcDbEntity
  8
$DDT_AUDIT_GENERATED_(E7)
  6
Continuous
 62
     7
100
AcDbLine
 10
99.2116444421
 20
621.7752444414
 30
0.0
 11
98.8833223199
 21
624.2011854912
 31
0.0
  0
ELLIPSE
  5
133
330
95
100
AcDbEntity
  8
$DDT_AUDIT_GENERATED_(E7)
  6
Continuous
 62
     7
100
AcDbEllipse
 10
99.2111951944
 20
622.7764913868
 30
0.0
 11
-0.1342856618283123
 21
0.9922240306333237
 31
0.0
210
0.0
220
0.0
230
1.0
 40
0.9987318335
 41
3.007352428055617
 42
4.577587216572162
  0
ELLIPSE
  5
134
330
95
100
AcDbEntity
  8
$DDT_AUDIT_GENERATED_(E7)
  6
Continuous
 62
     7
100
AcDbEllipse
 10
67.3595827905
 20
622.7764913868
 30
0.0
 11
0.1342856618304633
 21
0.992224030632988
 31
0.0
210
0.0
220
0.0
230
0.9999999999999999
 40
0.9987318335
 41
1.705598090609605
 42
3.275832879127179
  0
LINE
  5
135
330
95
100
AcDbEntity
  8
$DDT_AUDIT_GENERATED_(E7)
  6
Continuous
 62
     7
100
AcDbLine
 10
67.3591335428
 20
621.7752444414
 30
0.0
 11
99.2116444421
 21
621.7752444414
 31
0.0
  0
LINE
  5
136
330
95
100
AcDbEntity
  8
$DDT_AUDIT_GENERATED_(E7)
  6
Continuous
 62
     7
100
AcDbLine
 10
99.2116444421
 20
621.7748299408
 30
0.0
 11
99.2116444421
 21
621.7752444414
 31
0.0
  0
LINE
  5
137
330
95
100
AcDbEntity
  8
$DDT_AUDIT_GENERATED_(E7)
  6
Continuous
 62
     7
100
AcDbLine
 10
67.3591335428
 20
621.7752444414
 30
0.0
 11
67.3591335428
 21
621.7748299408
 31
0.0
  0
LINE
  5
138
330
95
100
AcDbEntity
  8
$DDT_AUDIT_GENERATED_(E7)
  6
Continuous
 62
     7
100
AcDbLine
 10
99.2116444421
 20
634.7482064181
 30
0.0
 11
99.2116444421
 21
634.7477919174
 31
0.0
  0
LINE
  5
139
330
95
100
AcDbEntity
  8
$DDT_AUDIT_GENERATED_(E7)
  6
Continuous
 62
     7
100
AcDbLine
 10
67.3591335428
 20
634.7477919174
 30
0.0
 11
67.3591335428
 21
634.7482064181
 31
0.0
  0
LINE
  5
13A
330
95
100
AcDbEntity
  8
$DDT_AUDIT_GENERATED_(E7)
  6
Continuous
 62
     7
100
AcDbLine
 10
67.3591335428
 20
621.7748299408
 30
0.0
 11
99.2116444421
 21
621.7748299408
 31
0.0
  0
LINE
  5
13B
330
95
100
AcDbEntity
  8
$DDT_AUDIT_GENERATED_(E7)
  6
Continuous
 62
     7
100
AcDbLine
 10
99.2116444421
 20
634.7482064181
 30
0.0
 11
67.3591335428
 21
634.7482064181
 31
0.0
  0
LINE
  5
13C
330
95
100
AcDbEntity
  8
$DDT_AUDIT_GENERATED_(C0)
  6
Continuous
 62
     7
100
AcDbLine
 10
58.8350494682
 20
652.7017915615
 30
0.0
 11
66.4005667915
 21
634.7799439197
 31
0.0
  0
LINE
  5
13D
330
95
100
AcDbEntity
  8
$DDT_AUDIT_GENERATED_(C0)
  6
Continuous
 62
     7
100
AcDbLine
 10
58.7532547387
 20
603.858423131
 30
0.0
 11
66.318772062
 21
621.7802707728
 31
0.0
  0
LINE
  5
13E
330
95
100
AcDbEntity
  8
$DDT_AUDIT_GENERATED_(C0)
  6
Continuous
 62
     7
100
AcDbLine
 10
107.8175232461
 20
603.858423131
 30
0.0
 11
100.2520059228
 21
621.7802707728
 31
0.0
  0
LINE
  5
13F
330
95
100
AcDbEntity
  8
$DDT_AUDIT_GENERATED_(C0)
  6
Continuous
 62
     7
100
AcDbLine
 10
107.7357285166
 20
652.7017915615
 30
0.0
 11
100.1702111933
 21
634.7799439197
 31
0.0
  0
LINE
  5
140
330
95
100
AcDbEntity
  8
$DDT_AUDIT_GENERATED_(C0)
  6
Continuous
 62
     7
100
AcDbLine
 10
58.288940932
 20
652.5580728533
 30
0.0
 11
58.288940932
 21
603.9649635056
 31
0.0
  0
ARC
  5
141
330
95
100
AcDbEntity
  8
$DDT_AUDIT_GENERATED_(C0)
  6
Continuous
 62
     7
100
AcDbCircle
 10
58.9888952187
 20
652.5580119532
 30
0.0
 40
0.6999542893291782
100
AcDbArc
 50
90.0049850641
 51
179.9950149359
  0
ARC
  5
142
330
95
100
AcDbEntity
  8
$DDT_AUDIT_GENERATED_(C0)
  6
Continuous
 62
     7
100
AcDbCircle
 10
58.9888952187
 20
603.9650244057
 30
0.0
 40
0.6999542893291922
100
AcDbArc
 50
180.0049850641
 51
269.9950149359
  0
LINE
  5
143
330
95
100
AcDbEntity
  8
$DDT_AUDIT_GENERATED_(C0)
  6
Continuous
 62
     7
100
AcDbLine
 10
107.5819436662
 20
653.2579662399
 30
0.0
 11
58.9888343186
 21
653.2579662399
 31
0.0
  0
LINE
  5
144
330
95
100
AcDbEntity
  8
$DDT_AUDIT_GENERATED_(C0)
  6
Continuous
 62
     7
100
AcDbLine
 10
58.9888343186
 20
603.265070119
 30
0.0
 11
107.5819436662
 21
603.265070119
 31
0.0
  0
ARC
  5
145
330
95
100
AcDbEntity
  8
$DDT_AUDIT_GENERATED_(C0)
  6
Continuous
 62
     7
100
AcDbCircle
 10
107.5818827662
 20
652.5580119532
 30
0.0
 40
0.6999542893291782
100
AcDbArc
 50
0.0049850641
 51
89.9950149359
  0
ARC
  5
146
330
95
100
AcDbEntity
  8
$DDT_AUDIT_GENERATED_(C0)
  6
Continuous
 62
     7
100
AcDbCircle
 10
107.5818827662
 20
603.9650244057
 30
0.0
 40
0.6999542893291852
100
AcDbArc
 50
270.0049850641
 51
359.9950149359
  0
LINE
  5
147
330
95
100
AcDbEntity
  8
$DDT_AUDIT_GENERATED_(C0)
  6
Continuous
 62
     7
100
AcDbLine
 10
108.2818370528
 20
603.9649635056
 30
0.0
 11
108.2818370528
 21
652.5580728533
 31
0.0
  0
ELLIPSE
  5
148
330
95
100
AcDbEntity
  8
$DDT_AUDIT_GENERATED_(C0)
  6
Continuous
 62
     7
100
AcDbEllipse
 10
65.8168670413
 20
603.3138833742
 30
0.0
 11
-2.746880483089423
 21
-0.0003932636189300787
 31
0.0
210
0.0
220
0.0
230
0.9999999999999999
 40
0.0142969188
 41
0.0
 42
6.283185307179586
  0
LINE
  5
149
330
95
100
AcDbEntity
  8
$DDT_AUDIT_GENERATED_(C0)
  6
Continuous
 62
     7
100
AcDbLine
 10
66.318772062
 20
634.7427655861
 30
0.0
 11
58.7532547387
 21
652.6646132279
 31
0.0
  0
LINE
  5
14A
330
95
100
AcDbEntity
  8
$DDT_AUDIT_GENERATED_(C0)
  6
Continuous
 62
     7
100
AcDbLine
 10
66.318772062
 20
621.7802707728
 30
0.0
 11
66.318772062
 21
634.7427655861
 31
0.0
  0
LINE
  5
14B
330
95
100
AcDbEntity
  8
$DDT_AUDIT_GENERATED_(C0)
  6
Continuous
 62
     7
100
AcDbLine
 10
100.1702111933
 20
621.7802707728
 30
0.0
 11
100.1702111933
 21
622.4923880178
 31
0.0
  0
LINE
  5
14C
330
95
100
AcDbEntity
  8
$DDT_AUDIT_GENERATED_(C0)
  6
Continuous
 62
     7
100
AcDbLine
 10
100.1702111933
 20
634.0306483411
 30
0.0
 11
100.1702111933
 21
634.7427655861
 31
0.0
  0
LINE
  5
14D
330
95
100
AcDbEntity
  8
$DDT_AUDIT_GENERATED_(C0)
  6
Continuous
 62
     7
100
AcDbLine
 10
66.4005667915
 20
621.7802707728
 30
0.0
 11
67.2591701482
 21
621.7802707728
 31
0.0
  0
LINE
  5
14E
330
95
100
AcDbEntity
  8
$DDT_AUDIT_GENERATED_(C0)
  6
Continuous
 62
     7
100
AcDbLine
 10
99.3116078366
 20
621.7802707728
 30
0.0
 11
100.1702111933
 21
621.7802707728
 31
0.0
  0
LINE
  5
14F
330
95
100
AcDbEntity
  8
$DDT_AUDIT_GENERATED_(C0)
  6
Continuous
 62
     7
100
AcDbLine
 10
100.1702111933
 20
634.7427655861
 30
0.0
 11
99.3116078366
 21
634.7427655861
 31
0.0
  0
LINE
  5
150
330
95
100
AcDbEntity
  8
$DDT_AUDIT_GENERATED_(C0)
  6
Continuous
 62
     7
100
AcDbLine
 10
67.2591701482
 20
634.7427655861
 30
0.0
 11
66.4005667915
 21
634.7427655861
 31
0.0
  0
LINE
  5
151
330
95
100
AcDbEntity
  8
$DDT_AUDIT_GENERATED_(C0)
  6
Continuous
 62
     7
100
AcDbLine
 10
66.4005667915
 20
634.7427655861
 30
0.0
 11
66.4005667915
 21
634.0306483411
 31
0.0
  0
LINE
  5
152
330
95
100
AcDbEntity
  8
$DDT_AUDIT_GENERATED_(C0)
  6
Continuous
 62
     7
100
AcDbLine
 10
66.4005667915
 20
622.4923880178
 30
0.0
 11
66.4005667915
 21
621.7802707728
 31
0.0
  0
ELLIPSE
  5
153
330
95
100
AcDbEntity
  8
$DDT_AUDIT_GENERATED_(C0)
  6
Continuous
 62
     7
100
AcDbEllipse
 10
66.4005667915
 20
634.7427655861
 30
0.0
 11
-0.184255382788906
 21
-0.07778144967348147
 31
0.0
210
0.0
220
0.0
230
0.9999999999999999
 40
0.1717070045
 41
4.640031239896461
 42
5.098704442671466
  0
LINE
  5
154
330
95
100
AcDbEntity
  8
$DDT_AUDIT_GENERATED_(C0)
  6
Continuous
 62
     7
100
AcDbLine
 10
66.4005667915
 20
621.7430924392
 30
0.0
 11
58.8350494682
 21
603.8212447973
 31
0.0
  0
ELLIPSE
  5
155
330
95
100
AcDbEntity
  8
$DDT_AUDIT_GENERATED_(C0)
  6
Continuous
 62
     7
100
AcDbEllipse
 10
66.4005667915
 20
621.7802707728
 30
0.0
 11
0.1842553827888921
 21
-0.07778144967346955
 31
0.0
210
0.0
220
0.0
230
1.0
 40
0.1717070045
 41
4.326073518097873
 42
4.784746720873207
  0
LINE
  5
156
330
95
100
AcDbEntity
  8
$DDT_AUDIT_GENERATED_(C0)
  6
Continuous
 62
     7
100
AcDbLine
 10
66.4005667915
 20
634.7799439197
 30
0.0
 11
100.1702111933
 21
634.7799439197
 31
0.0
  0
LINE
  5
157
330
95
100
AcDbEntity
  8
$DDT_AUDIT_GENERATED_(C0)
  6
Continuous
 62
     7
100
AcDbLine
 10
100.1702111933
 20
621.7430924392
 30
0.0
 11
107.7357285166
 21
603.8212447973
 31
0.0
  0
LINE
  5
158
330
95
100
AcDbEntity
  8
$DDT_AUDIT_GENERATED_(C0)
  6
Continuous
 62
     7
100
AcDbLine
 10
100.1702111933
 20
621.7430924392
 30
0.0
 11
66.4005667915
 21
621.7430924392
 31
0.0
  0
LINE
  5
159
330
95
100
AcDbEntity
  8
$DDT_AUDIT_GENERATED_(C0)
  6
Continuous
 62
     7
100
AcDbLine
 10
100.2520059228
 20
634.7427655861
 30
0.0
 11
107.8175232461
 21
652.6646132279
 31
0.0
  0
ELLIPSE
  5
15A
330
95
100
AcDbEntity
  8
$DDT_AUDIT_GENERATED_(C0)
  6
Continuous
 62
     7
100
AcDbEllipse
 10
100.1702111933
 20
634.7427655861
 30
0.0
 11
-0.1842553827889475
 21
0.07778144967346584
 31
0.0
210
0.0
220
0.0
230
1.0
 40
0.1717070045
 41
4.326073518097317
 42
4.784746720872355
  0
ELLIPSE
  5
15B
330
95
100
AcDbEntity
  8
$DDT_AUDIT_GENERATED_(C0)
  6
Continuous
 62
     7
100
AcDbEllipse
 10
100.1702111933
 20
621.7802707728
 30
0.0
 11
0.1842553827888505
 21
0.07778144967349535
 31
0.0
210
0.0
220
0.0
230
1.0
 40
0.1717070045
 41
4.640031239895406
 42
5.098704442670893
  0
LINE
  5
15C
330
95
100
AcDbEntity
  8
$DDT_AUDIT_GENERATED_(C0)
  6
Continuous
 62
     7
100
AcDbLine
 10
100.2520059228
 20
634.7427655861
 30
0.0
 11
100.2520059228
 21
621.7802707728
 31
0.0
  0
LINE
  5
15D
330
95
100
AcDbEntity
  8
$DDT_AUDIT_GENERATED_(C0)
  6
Continuous
 62
     7
100
AcDbLine
 10
100.2520059228
 20
621.7802707728
 30
0.0
 11
100.1702111933
 21
621.7802707728
 31
0.0
  0
LINE
  5
15E
330
95
100
AcDbEntity
  8
$DDT_AUDIT_GENERATED_(C0)
  6
Continuous
 62
     7
100
AcDbLine
 10
100.1702111933
 20
634.7427655861
 30
0.0
 11
100.2520059228
 21
634.7427655861
 31
0.0
  0
LINE
  5
15F
330
95
100
AcDbEntity
  8
$DDT_AUDIT_GENERATED_(C0)
  6
Continuous
 62
     7
100
AcDbLine
 10
100.1702111933
 20
621.7430924392
 30
0.0
 11
100.1702111933
 21
621.7802707728
 31
0.0
  0
LINE
  5
160
330
95
100
AcDbEntity
  8
$DDT_AUDIT_GENERATED_(C0)
  6
Continuous
 62
     7
100
AcDbLine
 10
100.1702111933
 20
634.7427655861
 30
0.0
 11
100.1702111933
 21
634.7799439197
 31
0.0
  0
LINE
  5
161
330
95
100
AcDbEntity
  8
$DDT_AUDIT_GENERATED_(C0)
  6
Continuous
 62
     7
100
AcDbLine
 10
66.4005667915
 20
621.7430924392
 30
0.0
 11
66.4005667915
 21
621.7802707728
 31
0.0
  0
LINE
  5
162
330
95
100
AcDbEntity
  8
$DDT_AUDIT_GENERATED_(C0)
  6
Continuous
 62
     7
100
AcDbLine
 10
66.4005667915
 20
634.7427655861
 30
0.0
 11
66.4005667915
 21
634.7799439197
 31
0.0
  0
LINE
  5
163
330
95
100
AcDbEntity
  8
$DDT_AUDIT_GENERATED_(C0)
  6
Continuous
 62
     7
100
AcDbLine
 10
66.318772062
 20
621.7802707728
 30
0.0
 11
66.4005667915
 21
621.7802707728
 31
0.0
  0
LINE
  5
164
330
95
100
AcDbEntity
  8
$DDT_AUDIT_GENERATED_(C0)
  6
Continuous
 62
     7
100
AcDbLine
 10
66.4005667915
 20
634.7427655861
 30
0.0
 11
66.318772062
 21
634.7427655861
 31
0.0
  0
ELLIPSE
  5
166
330
95
100
AcDbEntity
  8
$DDT_AUDIT_GENERATED_(165)
  6
Continuous
 62
     7
100
AcDbEllipse
 10
174.3853889924
 20
637.0135308812
 30
0.0
 11
3.261067986794878
 21
0.0
 31
0.0
210
0.0
220
0.0
230
1.0
 40
0.2299769904
 41
3.906871384269869
 42
4.71238898038469
  0
ELLIPSE
  5
167
330
95
100
AcDbEntity
  8
$DDT_AUDIT_GENERATED_(165)
  6
Continuous
 62
     7
100
AcDbEllipse
 10
192.1853889924
 20
637.0135308812
 30
0.0
 11
-3.261067986794876
 21
0.0
 31
0.0
210
0.0
220
0.0
230
1.0
 40
0.2299769904
 41
1.570796326794897
 42
2.452585466365279
  0
ELLIPSE
  5
168
330
95
100
AcDbEntity
  8
$DDT_AUDIT_GENERATED_(165)
  6
Continuous
 62
     7
100
AcDbEllipse
 10
192.2853889924
 20
637.012139721
 30
0.0
 11
-4.300000000000002
 21
-1.734723475976807E-15
 31
0.0
210
0.0
220
0.0
230
1.0
 40
0.2299765947
 41
1.570796326794897
 42
2.279280166001305
  0
ELLIPSE
  5
169
330
95
100
AcDbEntity
  8
$DDT_AUDIT_GENERATED_(165)
  6
Continuous
 62
     7
100
AcDbEllipse
 10
192.2853889924
 20
637.2070137339
 30
0.0
 11
-4.499999999999999
 21
0.0
 31
0.0
210
0.0
220
0.0
230
1.0
 40
0.2385384466
 41
3.141592653589793
 42
3.154069927427673
  0
LINE
  5
16A
330
95
100
AcDbEntity
  8
$DDT_AUDIT_GENERATED_(165)
  6
Continuous
 62
     7
100
AcDbLine
 10
192.2853889924
 20
636.0232403637
 30
0.0
 11
192.2853889924
 21
636.0181143767
 31
0.0
  0
LINE
  5
16B
330
95
100
AcDbEntity
  8
$DDT_AUDIT_GENERATED_(165)
  6
Continuous
 62
     7
100
AcDbLine
 10
174.2853889924
 20
636.0232403637
 30
0.0
 11
174.2853889924
 21
636.0181143767
 31
0.0
  0
LINE
  5
16C
330
95
100
AcDbEntity
  8
$DDT_AUDIT_GENERATED_(165)
  6
Continuous
 62
     7
100
AcDbLine
 10
169.7853889924
 20
638.8578288744
 30
0.0
 11
169.7853889924
 21
637.2070137339
 31
0.0
  0
LINE
  5
16D
330
95
100
AcDbEntity
  8
$DDT_AUDIT_GENERATED_(165)
  6
Continuous
 62
     7
100
AcDbLine
 10
196.7853889924
 20
637.2070137339
 30
0.0
 11
196.7853889924
 21
638.8578288744
 31
0.0
  0
LINE
  5
16E
330
95
100
AcDbEntity
  8
$DDT_AUDIT_GENERATED_(165)
  6
Continuous
 62
     7
100
AcDbLine
 10
171.3245448297
 20
637.2065564499
 30
0.0
 11
171.3246747
 21
637.2048739387
 31
0.0
  0
ARC
  5
16F
330
95
100
AcDbEntity
  8
$DDT_AUDIT_GENERATED_(165)
  6
Continuous
 62
     7
100
AcDbCircle
 10
169.970446623
 20
637.8679202328
 30
0.0
 40
1.507035764206857
100
AcDbArc
 50
333.8555573387
 51
341.719669508
  0
ARC
  5
170
330
95
100
AcDbEntity
  8
$DDT_AUDIT_GENERATED_(165)
  6
Continuous
 62
     7
100
AcDbCircle
 10
196.6703269272
 20
637.8923110712
 30
0.0
 40
1.58113625795803
100
AcDbArc
 50
198.3192670916
 51
205.7666007874
  0
SPLINE
  5
171
330
95
100
AcDbEntity
  8
$DDT_AUDIT_GENERATED_(165)
  6
Continuous
 62
     7
100
AcDbSpline
210
0.0
220
0.0
230
1.0
 70
     8
 71
     3
 72
    18
 73
    14
 74
     0
 42
0.0000000028149494
 43
0.0000000001
 40
0.0
 40
0.0
 40
0.0
 40
0.0
 40
0.0511916863687231
 40
0.153476223712355
 40
0.2541417543557915
 40
0.3531750669011595
 40
0.4509924662173956
 40
0.5479059179163186
 40
0.6441271929918962
 40
0.7398117081583823
 40
0.8350938377259325
 40
0.9301061081409056
 40
1.0
 40
1.0
 40
1.0
 40
1.0
 10
171.4011241689112
 20
637.3940161828385
 30
0.0
 10
171.4189065371347
 20
637.4396710722585
 30
0.0
 10
171.4654316936489
 20
637.5559430077273
 30
0.0
 10
171.5871920278161
 20
637.7632853329303
 30
0.0
 10
171.7774778770826
 20
637.9916180177288
 30
0.0
 10
172.0137538206499
 20
638.2038028653402
 30
0.0
 10
172.2898133970993
 20
638.3936074991333
 30
0.0
 10
172.6015211797945
 20
638.5586631780714
 30
0.0
 10
172.9432203618035
 20
638.6959502696346
 30
0.0
 10
173.3101725803565
 20
638.8033112320916
 30
0.0
 10
173.6922323253597
 20
638.8781894127505
 30
0.0
 10
174.0617649452694
 20
638.917950577035
 30
0.0
 10
174.277452279826
 20
638.9224330484479
 30
0.0
 10
174.3853889924097
 20
638.9241259232286
 30
0.0
  0
SPLINE
  5
172
330
95
100
AcDbEntity
  8
$DDT_AUDIT_GENERATED_(165)
  6
Continuous
 62
     7
100
AcDbSpline
210
0.0
220
0.0
230
1.0
 70
     8
 71
     3
 72
    18
 73
    14
 74
     0
 42
0.000000002815016
 43
0.0000000001
 40
0.0
 40
0.0
 40
0.0
 40
0.0
 40
0.0493818699210216
 40
0.1442339770292299
 40
0.239270714534613
 40
0.3345594424216871
 40
0.4302070514934814
 40
0.5263043543030644
 40
0.6229341983835618
 40
0.7201923816525088
 40
0.818223993950368
 40
0.9172692819415098
 40
1.0
 40
1.0
 40
1.0
 40
1.0
 10
192.1853889924097
 20
638.9241259232286
 30
0.0
 10
192.2616618066192
 20
638.9232813179315
 30
0.0
 10
192.4510007956455
 20
638.9204199890253
 30
0.0
 10
192.7933681305279
 20
638.8902511473591
 30
0.0
 10
193.1774050141743
 20
638.8225983417844
 30
0.0
 10
193.5478205682078
 20
638.7224941078038
 30
0.0
 10
193.8938371204808
 20
638.5923928937372
 30
0.0
 10
194.2107571762249
 20
638.4346042095638
 30
0.0
 10
194.4927554983321
 20
638.2523627941051
 30
0.0
 10
194.7357127191799
 20
638.0486265617653
 30
0.0
 10
194.9340256201305
 20
637.8292867766378
 30
0.0
 10
195.0822259637352
 20
637.6044433953185
 30
0.0
 10
195.1397443212695
 20
637.4676985753501
 30
0.0
 10
195.1696538159082
 20
637.3940161828385
 30
0.0
  0
LINE
  5
173
330
95
100
AcDbEntity
  8
$DDT_AUDIT_GENERATED_(165)
  6
Continuous
 62
     7
100
AcDbLine
 10
174.3853889924
 20
638.9241259232
 30
0.0
 11
192.1853889924
 21
638.9241259232
 31
0.0
  0
SPLINE
  5
174
330
95
100
AcDbEntity
  8
$DDT_AUDIT_GENERATED_(165)
  6
Continuous
 62
     7
100
AcDbSpline
210
0.0
220
0.0
230
1.0
 70
     8
 71
     3
 72
    17
 73
    13
 74
     0
 42
0.0000000048784801
 43
0.0000000001
 40
0.0
 40
0.0
 40
0.0
 40
0.0
 40
0.0135872614991965
 40
0.1397390910181583
 40
0.2670436568729982
 40
0.3958941239979267
 40
0.5269352155339382
 40
0.6611333479548254
 40
0.7789028460203818
 40
0.8799902712834867
 40
0.9736831052184332
 40
1.0
 40
1.0
 40
1.0
 40
1.0
 10
195.137333543531
 20
636.2637084380382
 30
0.0
 10
195.1526796720291
 20
636.2664726677399
 30
0.0
 10
195.2883191756436
 20
636.2909513209985
 30
0.0
 10
195.5385226171778
 20
636.3513824451215
 30
0.0
 10
195.8534098020088
 20
636.4402761105089
 30
0.0
 10
196.1300041320862
 20
636.5411327371739
 30
0.0
 10
196.3654873487477
 20
636.6530146033641
 30
0.0
 10
196.5488841789503
 20
636.7737393557059
 30
0.0
 10
196.6804661255107
 20
636.9033629646843
 30
0.0
 10
196.7586354149231
 20
637.039271239186
 30
0.0
 10
196.7914654373787
 20
637.157035368433
 30
0.0
 10
196.7822847885686
 20
637.2146589671339
 30
0.0
 10
196.7798468645388
 20
637.2294832799847
 30
0.0
  0
LINE
  5
175
330
95
100
AcDbEntity
  8
$DDT_AUDIT_GENERATED_(165)
  6
Continuous
 62
     7
100
AcDbLine
 10
174.2853889924
 20
636.0181143767
 30
0.0
 11
192.2853889924
 21
636.0181143767
 31
0.0
  0
ARC
  5
176
330
95
100
AcDbEntity
  8
$DDT_AUDIT_GENERATED_(165)
  6
Continuous
 62
     7
100
AcDbCircle
 10
174.1473319267
 20
650.9864222836
 30
0.0
 40
14.96894456365086
100
AcDbArc
 50
259.429865769
 51
270.5284406864
  0
SPLINE
  5
177
330
95
100
AcDbEntity
  8
$DDT_AUDIT_GENERATED_(165)
  6
Continuous
 62
     7
100
AcDbSpline
210
0.0
220
0.0
230
1.0
 70
     8
 71
     3
 72
    16
 73
    12
 74
     0
 42
0.0000000050055773
 43
0.0000000001
 40
0.0
 40
0.0
 40
0.0
 40
0.0
 40
0.0684129210498971
 40
0.1683308750665072
 40
0.2733324149437333
 40
0.3935841817218313
 40
0.5286913630502016
 40
0.666110773072044
 40
0.8003907172009174
 40
0.9321675281874046
 40
1.0
 40
1.0
 40
1.0
 40
1.0
 10
169.7917229758358
 20
637.2119871164633
 30
0.0
 10
169.791061645837
 20
637.1735225300333
 30
0.0
 10
169.7905563401289
 20
637.0937864331025
 30
0.0
 10
169.8500080338286
 20
636.9637106932461
 30
0.0
 10
169.9500377748682
 20
636.8384325669133
 30
0.0
 10
170.09837831209
 20
636.7186103357039
 30
0.0
 10
170.3010095710391
 20
636.6034081980465
 30
0.0
 10
170.5588648589713
 20
636.4946885040373
 30
0.0
 10
170.8594790140322
 20
636.3975867161489
 30
0.0
 10
171.1489465172363
 20
636.3214536260008
 30
0.0
 10
171.329172013983
 20
636.285688861334
 30
0.0
 10
171.4014442334286
 20
636.2714842230491
 30
0.0
  0
ELLIPSE
  5
179
330
95
100
AcDbEntity
  8
$DDT_AUDIT_GENERATED_(178)
  6
Continuous
 62
     7
100
AcDbEllipse
 10
173.8955550142
 20
637.8684161078
 30
0.0
 11
-4.360165977250719
 21
-0.003386406443471948
 31
0.0
210
0.0
220
0.0
230
0.9999999999999999
 40
0.1839761654
 41
0.0004096829076816
 42
0.3401326721779692
  0
LINE
  5
17A
330
95
100
AcDbEntity
  8
$DDT_AUDIT_GENERATED_(178)
  6
Continuous
 62
     7
100
AcDbLine
 10
192.698155841
 20
641.1670876369
 30
0.0
 11
173.8726221438
 21
641.1670876369
 31
0.0
  0
ELLIPSE
  5
17B
330
95
100
AcDbEntity
  8
$DDT_AUDIT_GENERATED_(178)
  6
Continuous
 62
     7
100
AcDbEllipse
 10
192.6735737035
 20
637.6786214793
 30
0.0
 11
4.360016234875008
 21
0.05463547839942504
 31
0.0
210
0.0
220
0.0
230
1.0
 40
0.8000058027
 41
0.10856757004784
 42
1.555133938292278
  0
ELLIPSE
  5
17C
330
95
100
AcDbEntity
  8
$DDT_AUDIT_GENERATED_(178)
  6
Continuous
 62
     7
100
AcDbEllipse
 10
192.6752229706
 20
637.8684161078
 30
0.0
 11
4.360165977250728
 21
-0.003386406443475418
 31
0.0
210
0.0
220
0.0
230
0.9999999999999999
 40
0.1839761654
 41
5.943052635001494
 42
6.28276901165054
  0
LINE
  5
17D
330
95
100
AcDbEntity
  8
$DDT_AUDIT_GENERATED_(178)
  6
Continuous
 62
     7
100
AcDbLine
 10
167.6603889924
 20
643.6139673717
 30
0.0
 11
167.6603889924
 21
638.1108796344
 31
0.0
  0
LINE
  5
17E
330
95
100
AcDbEntity
  8
$DDT_AUDIT_GENERATED_(178)
  6
Continuous
 62
     7
100
AcDbLine
 10
169.5353896581
 20
637.8647010677
 30
0.0
 11
169.535388995
 21
637.8651167194
 31
0.0
  0
LINE
  5
17F
330
95
100
AcDbEntity
  8
$DDT_AUDIT_GENERATED_(178)
  6
Continuous
 62
     7
100
AcDbLine
 10
167.6603889924
 20
637.8647010677
 30
0.0
 11
167.6603889924
 21
638.1108796344
 31
0.0
  0
ELLIPSE
  5
180
330
95
100
AcDbEntity
  8
$DDT_AUDIT_GENERATED_(178)
  6
Continuous
 62
     7
100
AcDbEllipse
 10
173.8972042813
 20
637.6786214793
 30
0.0
 11
-4.360016234875012
 21
0.05463547839942851
 31
0.0
210
0.0
220
0.0
230
1.0
 40
0.8000058027
 41
4.728051368887315
 42
6.174617737131801
  0
ARC
  5
181
330
95
100
AcDbEntity
  8
$DDT_AUDIT_GENERATED_(178)
  6
Continuous
 62
     7
100
AcDbCircle
 10
172.2245492
 20
637.6377135925
 30
0.0
 40
2.698758008840824
100
AcDbArc
 50
169.9022926267
 51
175.1664035779
  0
ARC
  5
182
330
95
100
AcDbEntity
  8
$DDT_AUDIT_GENERATED_(178)
  6
Continuous
 62
     7
100
AcDbCircle
 10
194.3799303655
 20
637.6425096034
 30
0.0
 40
2.664737851694516
100
AcDbArc
 50
4.7830740977
 51
10.1232314817
  0
LINE
  5
183
330
95
100
AcDbEntity
  8
$DDT_AUDIT_GENERATED_(178)
  6
Continuous
 62
     7
100
AcDbLine
 10
198.9103889924
 20
638.1108796344
 30
0.0
 11
198.9103889924
 21
643.6139673717
 31
0.0
  0
LINE
  5
184
330
95
100
AcDbEntity
  8
$DDT_AUDIT_GENERATED_(178)
  6
Continuous
 62
     7
100
AcDbLine
 10
198.9103889924
 20
638.1108796344
 30
0.0
 11
198.9103889924
 21
637.8647010677
 31
0.0
  0
LINE
  5
185
330
95
100
AcDbEntity
  8
$DDT_AUDIT_GENERATED_(178)
  6
Continuous
 62
     7
100
AcDbLine
 10
195.8603889924
 20
630.6852858981
 30
0.0
 11
170.7103889924
 21
630.6852858981
 31
0.0
  0
LINE
  5
186
330
95
100
AcDbEntity
  8
$DDT_AUDIT_GENERATED_(178)
  6
Continuous
 62
     7
100
AcDbLine
 10
198.9103889924
 20
631.1852479772
 30
0.0
 11
198.9103889924
 21
637.8647010677
 31
0.0
  0
ELLIPSE
  5
187
330
95
100
AcDbEntity
  8
$DDT_AUDIT_GENERATED_(178)
  6
Continuous
 62
     7
100
AcDbEllipse
 10
195.8603889924
 20
631.1852479772
 30
0.0
 11
-3.049999999999999
 21
-1.734723475976807E-15
 31
0.0
210
0.0
220
0.0
230
1.0
 40
0.1639219931
 41
1.570796326794897
 42
3.14159265358979
  0
LINE
  5
188
330
95
100
AcDbEntity
  8
$DDT_AUDIT_GENERATED_(178)
  6
Continuous
 62
     7
100
AcDbLine
 10
167.6603889924
 20
631.1852479772
 30
0.0
 11
167.6603889924
 21
637.8647010677
 31
0.0
  0
ELLIPSE
  5
189
330
95
100
AcDbEntity
  8
$DDT_AUDIT_GENERATED_(178)
  6
Continuous
 62
     7
100
AcDbEllipse
 10
170.7103889924
 20
631.1852479772
 30
0.0
 11
-3.050000000000004
 21
0.0
 31
0.0
210
0.0
220
0.0
230
1.0
 40
0.1639219931
 41
0.0
 42
1.570796326794897
  0
ELLIPSE
  5
18A
330
95
100
AcDbEntity
  8
$DDT_AUDIT_GENERATED_(178)
  6
Continuous
 62
     7
100
AcDbEllipse
 10
167.4603889924
 20
639.6798530836
 30
0.0
 11
-0.2000000000000005
 21
7.077671781985373E-13
 31
0.0
210
0.0
220
0.0
230
1.0
 40
0.9895223094
 41
3.141592653589923
 42
3.926990816990697
  0
ELLIPSE
  5
18B
330
95
100
AcDbEntity
  8
$DDT_AUDIT_GENERATED_(178)
  6
Continuous
 62
     7
100
AcDbEllipse
 10
167.4603889924
 20
640.4237420299
 30
0.0
 11
0.2000000000000127
 21
4.093947403305265E-13
 31
0.0
210
0.0
220
0.0
230
1.0
 40
0.9838445218
 41
0.0000000000002305
 42
0.7853981633954495
  0
ELLIPSE
  5
18C
330
95
100
AcDbEntity
  8
$DDT_AUDIT_GENERATED_(178)
  6
Continuous
 62
     7
100
AcDbEllipse
 10
167.7432317049
 20
639.9593307774
 30
0.0
 11
0.1405725504247304
 21
0.1422650978528673
 31
0.0
210
0.0
220
0.0
230
1.0
 40
0.1089219624
 41
3.025631867129703
 42
3.141592653589793
  0
ELLIPSE
  5
18D
330
95
100
AcDbEntity
  8
$DDT_AUDIT_GENERATED_(178)
  6
Continuous
 62
     7
100
AcDbEllipse
 10
199.1103889924
 20
639.6798530836
 30
0.0
 11
-0.1999999999999884
 21
6.938893903907228E-14
 31
0.0
210
0.0
220
0.0
230
1.0
 40
0.9895223094
 41
5.497787143782387
 42
6.283185307179586
  0
ELLIPSE
  5
18E
330
95
100
AcDbEntity
  8
$DDT_AUDIT_GENERATED_(178)
  6
Continuous
 62
     7
100
AcDbEllipse
 10
199.1103889924
 20
640.4237420299
 30
0.0
 11
0.200000000000004
 21
-5.620504062164855E-13
 31
0.0
210
0.0
220
0.0
230
1.0
 40
0.9838445218
 41
2.356194490195138
 42
3.141592653589793
  0
ELLIPSE
  5
18F
330
95
100
AcDbEntity
  8
$DDT_AUDIT_GENERATED_(178)
  6
Continuous
 62
     7
100
AcDbEllipse
 10
198.8275462799
 20
639.9593307774
 30
0.0
 11
-0.1405725504247338
 21
0.1422650978528742
 31
0.0
210
0.0
220
0.0
230
1.0
 40
0.1089219624
 41
3.141592653589793
 42
3.257553440045841
  0
LINE
  5
190
330
95
100
AcDbEntity
  8
$DDT_AUDIT_GENERATED_(178)
  6
Continuous
 62
     7
100
AcDbLine
 10
167.5840220289
 20
639.8354810767
 30
0.0
 11
167.6026591545
 21
639.8170656796
 31
0.0
  0
LINE
  5
191
330
95
100
AcDbEntity
  8
$DDT_AUDIT_GENERATED_(178)
  6
Continuous
 62
     7
100
AcDbLine
 10
167.6603889924
 20
642.6455595179
 30
0.0
 11
167.5840220289
 21
642.5381033517
 31
0.0
  0
LINE
  5
192
330
95
100
AcDbEntity
  8
$DDT_AUDIT_GENERATED_(178)
  6
Continuous
 62
     7
100
AcDbLine
 10
198.9681188304
 20
639.8170656796
 30
0.0
 11
198.9867559559
 21
639.8354810767
 31
0.0
  0
LINE
  5
193
330
95
100
AcDbEntity
  8
$DDT_AUDIT_GENERATED_(178)
  6
Continuous
 62
     7
100
AcDbLine
 10
198.9867559559
 20
642.5381033517
 30
0.0
 11
198.9103889924
 21
642.6455595179
 31
0.0
  0
ENDBLK
  5
195
330
95
100
AcDbEntity
  8
0
100
AcDbBlockEnd
  0
BLOCK
  5
1F7
330
196
100
AcDbEntity
  8
0
100
AcDbBlockBegin
  2
SE1
 70
     0
 10
0.0
 20
0.0
 30
0.0
  3
SE1
  1

  0
LINE
  5
198
330
196
100
AcDbEntity
  8
$DDT_AUDIT_GENERATED_(97)
  6
Continuous
 62
     7
100
AcDbLine
 10
414.9480078158
 20
606.10514107
 30
0.0
 11
413.1480078158
 21
606.10514107
 31
0.0
  0
LINE
  5
199
330
196
100
AcDbEntity
  8
$DDT_AUDIT_GENERATED_(97)
  6
Continuous
 62
     7
100
AcDbLine
 10
414.9480078158
 20
606.10514107
 30
0.0
 11
414.9480078158
 21
606.4018669369
 31
0.0
  0
LINE
  5
19A
330
196
100
AcDbEntity
  8
$DDT_AUDIT_GENERATED_(99)
  6
Continuous
 62
     7
100
AcDbLine
 10
446.4414350657
 20
611.5934861039
 30
0.0
 11
650.678626393
 21
645.261521686
 31
0.0
  0
LINE
  5
19B
330
196
100
AcDbEntity
  8
$DDT_AUDIT_GENERATED_(99)
  6
Continuous
 62
     7
100
AcDbLine
 10
395.8980078158
 20
653.2615181794
 30
0.0
 11
650.6786267213
 21
653.2615181794
 31
0.0
  0
LINE
  5
19C
330
196
100
AcDbEntity
  8
$DDT_AUDIT_GENERATED_(99)
  6
Continuous
 62
     7
100
AcDbLine
 10
435.4141243467
 20
623.6776727808
 30
0.0
 11
446.4414592108
 21
611.5935008526
 31
0.0
  0
LINE
  5
19D
330
196
100
AcDbEntity
  8
$DDT_AUDIT_GENERATED_(99)
  6
Continuous
 62
     7
100
AcDbLine
 10
650.6786267213
 20
645.2615181794
 30
0.0
 11
444.2551492032
 21
624.5816899417
 31
0.0
  0
LINE
  5
19E
330
196
100
AcDbEntity
  8
$DDT_AUDIT_GENERATED_(99)
  6
Continuous
 62
     7
100
AcDbLine
 10
395.8980078158
 20
603.2615181794
 30
0.0
 11
396.0187370059
 21
603.2814201092
 31
0.0
  0
LINE
  5
19F
330
196
100
AcDbEntity
  8
$DDT_AUDIT_GENERATED_(99)
  6
Continuous
 62
     7
100
AcDbLine
 10
402.0911560275
 20
604.2824444414
 30
0.0
 11
446.4414344688
 21
611.5934860055
 31
0.0
  0
LINE
  5
1A0
330
196
100
AcDbEntity
  8
$DDT_AUDIT_GENERATED_(99)
  6
Continuous
 62
     7
100
AcDbLine
 10
650.6786267213
 20
653.2615181794
 30
0.0
 11
650.6786267213
 21
645.2615217401
 31
0.0
  0
LINE
  5
1A1
330
196
100
AcDbEntity
  8
$DDT_AUDIT_GENERATED_(99)
  6
Continuous
 62
     7
100
AcDbLine
 10
422.0195479232
 20
633.7090726438
 30
0.0
 11
402.8878500899
 21
648.0294947304
 31
0.0
  0
LINE
  5
1A2
330
196
100
AcDbEntity
  8
$DDT_AUDIT_GENERATED_(99)
  6
Continuous
 62
     7
100
AcDbLine
 10
395.9674716159
 20
653.2095232679
 30
0.0
 11
395.8980078158
 21
653.2615181794
 31
0.0
  0
LINE
  5
1A3
330
196
100
AcDbEntity
  8
$DDT_AUDIT_GENERATED_(99)
  6
Continuous
 62
     7
100
AcDbLine
 10
395.8980078158
 20
603.2615181794
 30
0.0
 11
395.8980078158
 21
603.465039658
 31
0.0
  0
LINE
  5
1A4
330
196
100
AcDbEntity
  8
$DDT_AUDIT_GENERATED_(99)
  6
Continuous
 62
     7
100
AcDbLine
 10
395.8980078158
 20
653.0579967008
 30
0.0
 11
395.8980078158
 21
653.2615181794
 31
0.0
  0
LINE
  5
1A5
330
196
100
AcDbEntity
  8
$DDT_AUDIT_GENERATED_(99)
  6
Continuous
 62
     7
100
AcDbLine
 10
395.8980078158
 20
603.2615181794
 30
0.0
 11
395.9797068575
 21
603.3037793614
 31
0.0
  0
LINE
  5
1A6
330
196
100
AcDbEntity
  8
$DDT_AUDIT_GENERATED_(99)
  6
Continuous
 62
     7
100
AcDbLine
 10
402.5488864495
 20
606.701876672
 30
0.0
 11
435.3595864524
 21
623.6741560684
 31
0.0
  0
LINE
  5
1A7
330
196
100
AcDbEntity
  8
$DDT_AUDIT_GENERATED_(E7)
  6
Continuous
 62
     7
100
AcDbLine
 10
443.4772444514
 20
625.1991129878
 30
0.0
 11
443.4772444514
 21
631.3239233711
 31
0.0
  0
LINE
  5
1A8
330
196
100
AcDbEntity
  8
$DDT_AUDIT_GENERATED_(E7)
  6
Continuous
 62
     7
100
AcDbLine
 10
443.4772444514
 20
631.3239233711
 30
0.0
 11
405.8997531229
 21
633.7469951356
 31
0.0
  0
ARC
  5
1A9
330
196
100
AcDbEntity
  8
$DDT_AUDIT_GENERATED_(E7)
  6
Continuous
 62
     7
100
AcDbCircle
 10
443.468517916
 20
631.3239233711
 30
0.0
 40
1.000000000000001
100
AcDbArc
 50
0.0
 51
86.3105614093
  0
LINE
  5
1AA
330
196
100
AcDbEntity
  8
$DDT_AUDIT_GENERATED_(E7)
  6
Continuous
 62
     7
100
AcDbLine
 10
444.468517916
 20
631.3239233711
 30
0.0
 11
444.468517916
 21
625.1991129878
 31
0.0
  0
ARC
  5
1AB
330
196
100
AcDbEntity
  8
$DDT_AUDIT_GENERATED_(E7)
  6
Continuous
 62
     7
100
AcDbCircle
 10
443.468517916
 20
625.1991129878
 30
0.0
 40
1.000000000000001
100
AcDbArc
 50
273.6894385907
 51
0.0
  0
LINE
  5
1AC
330
196
100
AcDbEntity
  8
$DDT_AUDIT_GENERATED_(E7)
  6
Continuous
 62
     7
100
AcDbLine
 10
443.532866276
 20
624.2011854912
 30
0.0
 11
405.9108774878
 21
621.7752444414
 31
0.0
  0
ELLIPSE
  5
1AD
330
196
100
AcDbEntity
  8
$DDT_AUDIT_GENERATED_(E7)
  6
Continuous
 62
     7
100
AcDbEllipse
 10
443.468517916
 20
625.1991129878
 30
0.0
 11
-0.06434836000792506
 21
0.997927496647074
 31
0.0
210
0.0
220
0.0
230
1.0
 40
0.0087084511
 41
3.141592653589793
 42
4.711827442107306
  0
LINE
  5
1AE
330
196
100
AcDbEntity
  8
$DDT_AUDIT_GENERATED_(E7)
  6
Continuous
 62
     7
100
AcDbLine
 10
443.4772444514
 20
625.1991129878
 30
0.0
 11
444.468517916
 21
625.1991129878
 31
0.0
  0
LINE
  5
1AF
330
196
100
AcDbEntity
  8
$DDT_AUDIT_GENERATED_(E7)
  6
Continuous
 62
     7
100
AcDbLine
 10
443.4772444514
 20
631.3239233711
 30
0.0
 11
444.468517916
 21
631.3239233711
 31
0.0
  0
ELLIPSE
  5
1B0
330
196
100
AcDbEntity
  8
$DDT_AUDIT_GENERATED_(E7)
  6
Continuous
 62
     7
100
AcDbEllipse
 10
443.468517916
 20
631.3239233711
 30
0.0
 11
-0.06434836000792506
 21
-0.9979274966470734
 31
0.0
210
0.0
220
0.0
230
1.0
 40
0.0087084511
 41
1.571357865072281
 42
3.141592653593043
  0
LINE
  5
1B1
330
196
100
AcDbEntity
  8
$DDT_AUDIT_GENERATED_(E7)
  6
Continuous
 62
     7
100
AcDbLine
 10
405.9108774878
 20
634.7477919174
 30
0.0
 11
443.532866276
 21
632.3218508677
 31
0.0
  0
LINE
  5
1B2
330
196
100
AcDbEntity
  8
$DDT_AUDIT_GENERATED_(E7)
  6
Continuous
 62
     7
100
AcDbLine
 10
405.6980078158
 20
621.9748299408
 30
0.0
 11
405.6980078158
 21
622.7760412232
 31
0.0
  0
LINE
  5
1B3
330
196
100
AcDbEntity
  8
$DDT_AUDIT_GENERATED_(E7)
  6
Continuous
 62
     7
100
AcDbLine
 10
405.6980078158
 20
622.7760412232
 30
0.0
 11
405.6980078158
 21
633.7469951356
 31
0.0
  0
LINE
  5
1B4
330
196
100
AcDbEntity
  8
$DDT_AUDIT_GENERATED_(E7)
  6
Continuous
 62
     7
100
AcDbLine
 10
405.6980078158
 20
633.7469951356
 30
0.0
 11
405.6980078158
 21
634.5482064181
 31
0.0
  0
ELLIPSE
  5
1B5
330
196
100
AcDbEntity
  8
$DDT_AUDIT_GENERATED_(E7)
  6
Continuous
 62
     7
100
AcDbEllipse
 10
405.8980078158
 20
633.7465449721
 30
0.0
 11
0.0
 21
0.001802427281829827
 31
0.0
210
0.0
220
0.0
230
1.0
 40
1.0
 41
-1.318370050580655
 42
-0.0128529364038348
  0
LINE
  5
1B6
330
196
100
AcDbEntity
  8
$DDT_AUDIT_GENERATED_(E7)
  6
Continuous
 62
     7
100
AcDbLine
 10
405.8997531229
 20
622.7760412232
 30
0.0
 11
443.4772444514
 21
625.1991129878
 31
0.0
  0
LINE
  5
1B7
330
196
100
AcDbEntity
  8
$DDT_AUDIT_GENERATED_(E7)
  6
Continuous
 62
     7
100
AcDbLine
 10
405.8997531229
 20
633.7469951356
 30
0.0
 11
405.8997531229
 21
622.7760412232
 31
0.0
  0
ELLIPSE
  5
1B8
330
196
100
AcDbEntity
  8
$DDT_AUDIT_GENERATED_(E7)
  6
Continuous
 62
     7
100
AcDbEllipse
 10
405.8980078158
 20
622.7764913868
 30
0.0
 11
0.01286951620407817
 21
-1.001246951387238
 31
0.0
210
0.0
220
0.0
230
1.0
 40
0.0017370677
 41
0.000089607385454
 42
1.57032439646873
  0
ARC
  5
1B9
330
196
100
AcDbEntity
  8
$DDT_AUDIT_GENERATED_(E7)
  6
Continuous
 62
     7
100
AcDbCircle
 10
405.8980078158
 20
621.9748299408
 30
0.0
 40
0.2000000000000005
100
AcDbArc
 50
180.0
 51
273.6894385907
  0
LINE
  5
1BA
330
196
100
AcDbEntity
  8
$DDT_AUDIT_GENERATED_(E7)
  6
Continuous
 62
     7
100
AcDbLine
 10
405.6980078158
 20
622.7760412232
 30
0.0
 11
405.8997531229
 21
622.7760412232
 31
0.0
  0
LINE
  5
1BB
330
196
100
AcDbEntity
  8
$DDT_AUDIT_GENERATED_(E7)
  6
Continuous
 62
     7
100
AcDbLine
 10
405.6980078158
 20
633.7469951356
 30
0.0
 11
405.8997531229
 21
633.7469951356
 31
0.0
  0
ARC
  5
1BC
330
196
100
AcDbEntity
  8
$DDT_AUDIT_GENERATED_(E7)
  6
Continuous
 62
     7
100
AcDbCircle
 10
405.8980078158
 20
634.5482064181
 30
0.0
 40
0.2000000000000005
100
AcDbArc
 50
86.3105614093
 51
180.0
  0
LINE
  5
1BD
330
196
100
AcDbEntity
  8
$DDT_AUDIT_GENERATED_(C0)
  6
Continuous
 62
     7
100
AcDbLine
 10
401.978409008
 20
652.8365404488
 30
0.0
 11
402.0039020408
 21
652.7017915615
 31
0.0
  0
ELLIPSE
  5
1BE
330
196
100
AcDbEntity
  8
$DDT_AUDIT_GENERATED_(C0)
  6
Continuous
 62
     7
100
AcDbEllipse
 10
402.0660605209
 20
604.0629171483
 30
0.0
 11
-0.001394266521564415
 21
-0.3000550841348766
 31
0.0
210
0.0
220
0.0
230
1.0
 40
0.4516631453
 41
4.722676598473709
 42
5.615708212761758
  0
LINE
  5
1BF
330
196
100
AcDbEntity
  8
$DDT_AUDIT_GENERATED_(C0)
  6
Continuous
 62
     7
100
AcDbLine
 10
401.9305295259
 20
652.4625763028
 30
0.0
 11
401.9305295259
 21
604.0604600561
 31
0.0
  0
LINE
  5
1C0
330
196
100
AcDbEntity
  8
$DDT_AUDIT_GENERATED_(C0)
  6
Continuous
 62
     7
100
AcDbLine
 10
401.572492011
 20
652.4625763028
 30
0.0
 11
396.1014982971
 21
652.5580728533
 31
0.0
  0
ELLIPSE
  5
1C1
330
196
100
AcDbEntity
  8
$DDT_AUDIT_GENERATED_(C0)
  6
Continuous
 62
     7
100
AcDbEllipse
 10
401.7010420434
 20
652.4601192106
 30
0.0
 11
0.0
 21
0.4930184171092064
 31
0.0
210
0.0
220
0.0
230
1.0
 40
1.0
 41
0.1798132658153999
 42
1.551684756168086
  0
ELLIPSE
  5
1C2
330
196
100
AcDbEntity
  8
$DDT_AUDIT_GENERATED_(C0)
  6
Continuous
 62
     7
100
AcDbEllipse
 10
401.6423343902
 20
652.4611439565
 30
0.0
 11
-0.04997863395852543
 21
0.7009787393758432
 31
0.0
210
0.0
220
0.0
230
1.0
 40
0.0098931684
 41
5.473900856798258
 42
6.282306160708597
  0
LINE
  5
1C3
330
196
100
AcDbEntity
  8
$DDT_AUDIT_GENERATED_(C0)
  6
Continuous
 62
     7
100
AcDbLine
 10
401.5923618723
 20
603.3609134992
 30
0.0
 11
396.1014982971
 21
603.265070119
 31
0.0
  0
ELLIPSE
  5
1C4
330
196
100
AcDbEntity
  8
$DDT_AUDIT_GENERATED_(C0)
  6
Continuous
 62
     7
100
AcDbEllipse
 10
401.6423343902
 20
604.0618924024
 30
0.0
 11
-0.04997863395852543
 21
-0.7009787393758362
 31
0.0
210
0.0
220
0.0
230
0.9999999999999998
 40
0.0098931684
 41
0.0008791464530566
 42
0.8092844503810965
  0
ELLIPSE
  5
1C5
330
196
100
AcDbEntity
  8
$DDT_AUDIT_GENERATED_(C0)
  6
Continuous
 62
     7
100
AcDbEllipse
 10
401.7010420434
 20
604.0629171483
 30
0.0
 11
0.006755444852736027
 21
-0.699987993958432
 31
0.0
210
0.0
220
0.0
230
0.9999999999999999
 40
0.1836631007
 41
4.71412667978941
 42
5.476213116169159
  0
LINE
  5
1C6
330
196
100
AcDbEntity
  8
$DDT_AUDIT_GENERATED_(C0)
  6
Continuous
 62
     7
100
AcDbLine
 10
401.572492011
 20
604.0604600561
 30
0.0
 11
401.572492011
 21
652.4625763028
 31
0.0
  0
ARC
  5
1C7
330
196
100
AcDbEntity
  8
$DDT_AUDIT_GENERATED_(C0)
  6
Continuous
 62
     7
100
AcDbCircle
 10
401.5853809098
 20
603.7608525773
 30
0.0
 40
0.3999999999999957
100
AcDbArc
 50
271.0
 51
349.2868769772
  0
LINE
  5
1C8
330
196
100
AcDbEntity
  8
$DDT_AUDIT_GENERATED_(C0)
  6
Continuous
 62
     7
100
AcDbLine
 10
401.572492011
 20
604.0604600561
 30
0.0
 11
401.9305295259
 21
604.0604600561
 31
0.0
  0
LINE
  5
1C9
330
196
100
AcDbEntity
  8
$DDT_AUDIT_GENERATED_(C0)
  6
Continuous
 62
     7
100
AcDbLine
 10
401.572492011
 20
652.4625763028
 30
0.0
 11
401.9305295259
 21
652.4625763028
 31
0.0
  0
ARC
  5
1CA
330
196
100
AcDbEntity
  8
$DDT_AUDIT_GENERATED_(C0)
  6
Continuous
 62
     7
100
AcDbCircle
 10
401.5853809098
 20
652.7621837816
 30
0.0
 40
0.4000000000000469
100
AcDbArc
 50
10.7131230228
 51
89.0
  0
LINE
  5
1CB
330
196
100
AcDbEntity
  8
$DDT_AUDIT_GENERATED_(C0)
  6
Continuous
 62
     7
100
AcDbLine
 10
402.0039020408
 20
603.8212447973
 30
0.0
 11
401.978409008
 21
603.68649591
 31
0.0
  0
LINE
  5
1CC
330
196
100
AcDbEntity
  8
$DDT_AUDIT_GENERATED_(C0)
  6
Continuous
 62
     7
100
AcDbLine
 10
402.0039020408
 20
652.7017915615
 30
0.0
 11
405.3945218649
 21
634.7799439197
 31
0.0
  0
ARC
  5
1CD
330
196
100
AcDbEntity
  8
$DDT_AUDIT_GENERATED_(C0)
  6
Continuous
 62
     7
100
AcDbCircle
 10
401.5825349392
 20
604.0188289991
 30
0.0
 40
0.4420233710907086
100
AcDbArc
 50
273.9348792871
 51
334.3728231951
  0
LINE
  5
1CE
330
196
100
AcDbEntity
  8
$DDT_AUDIT_GENERATED_(C0)
  6
Continuous
 62
     7
100
AcDbLine
 10
402.0039020408
 20
603.8212447973
 30
0.0
 11
401.9884860695
 21
603.7714698158
 31
0.0
  0
SPLINE
  5
1CF
330
196
100
AcDbEntity
  8
$DDT_AUDIT_GENERATED_(C0)
  6
Continuous
 62
     7
100
AcDbSpline
210
0.0
220
0.0
230
1.0
 70
     8
 71
     3
 72
    10
 73
     6
 74
     0
 42
0.0000000223325046
 43
0.0000000001
 40
0.0
 40
0.0
 40
0.0
 40
0.0
 40
0.5
 40
0.5
 40
1.0
 40
1.0
 40
1.0
 40
1.0
 10
401.9884860694547
 20
603.7714698157788
 30
0.0
 10
401.9639179131519
 20
603.7191102590598
 30
0.0
 10
401.9138802977468
 20
603.6713991533215
 30
0.0
 10
401.779786910536
 20
603.6015401954513
 30
0.0
 10
401.6966038550262
 20
603.580397361412
 30
0.0
 10
401.6128677440243
 20
603.5778476145683
 30
0.0
  0
ELLIPSE
  5
1D0
330
196
100
AcDbEntity
  8
$DDT_AUDIT_GENERATED_(C0)
  6
Continuous
 62
     7
100
AcDbEllipse
 10
402.0660605209
 20
652.4601192106
 30
0.0
 11
0.0
 21
0.2501481127397737
 31
0.0
210
0.0
220
0.0
230
1.0
 40
1.0
 41
0.3466397836967208
 42
1.552668937981353
  0
LINE
  5
1D1
330
196
100
AcDbEntity
  8
$DDT_AUDIT_GENERATED_(C0)
  6
Continuous
 62
     7
100
AcDbLine
 10
401.9898972304
 20
652.6646132279
 30
0.0
 11
401.9810753556
 21
652.6953884181
 31
0.0
  0
LINE
  5
1D2
330
196
100
AcDbEntity
  8
$DDT_AUDIT_GENERATED_(C0)
  6
Continuous
 62
     7
100
AcDbLine
 10
401.9898972304
 20
603.858423131
 30
0.0
 11
405.3805170545
 21
621.7802707728
 31
0.0
  0
LINE
  5
1D3
330
196
100
AcDbEntity
  8
$DDT_AUDIT_GENERATED_(C0)
  6
Continuous
 62
     7
100
AcDbLine
 10
401.9810753556
 20
603.8276479408
 30
0.0
 11
401.9898972304
 21
603.858423131
 31
0.0
  0
LINE
  5
1D4
330
196
100
AcDbEntity
  8
$DDT_AUDIT_GENERATED_(C0)
  6
Continuous
 62
     7
100
AcDbLine
 10
401.9884860695
 20
652.7515665431
 30
0.0
 11
402.0039020408
 21
652.7017915615
 31
0.0
  0
SPLINE
  5
1D5
330
196
100
AcDbEntity
  8
$DDT_AUDIT_GENERATED_(C0)
  6
Continuous
 62
     7
100
AcDbSpline
210
0.0
220
0.0
230
1.0
 70
     8
 71
     3
 72
    10
 73
     6
 74
     0
 42
0.0000000223324896
 43
0.0000000001
 40
0.0
 40
0.0
 40
0.0
 40
0.0
 40
0.5
 40
0.5
 40
1.0
 40
1.0
 40
1.0
 40
1.0
 10
401.6128677440243
 20
652.9451887442872
 30
0.0
 10
401.6966087656861
 20
652.94263927067
 30
0.0
 10
401.7797838703066
 20
652.9214973182266
 30
0.0
 10
401.9138793266752
 20
652.8516381404761
 30
0.0
 10
401.9639176681733
 20
652.803926621893
 30
0.0
 10
401.9884860694547
 20
652.7515665430766
 30
0.0
  0
ARC
  5
1D6
330
196
100
AcDbEntity
  8
$DDT_AUDIT_GENERATED_(C0)
  6
Continuous
 62
     7
100
AcDbCircle
 10
401.5825349888
 20
652.5042074328
 30
0.0
 40
0.4420232947863316
100
AcDbArc
 50
25.627171044
 51
86.0651264738
  0
ELLIPSE
  5
1D7
330
196
100
AcDbEntity
  8
$DDT_AUDIT_GENERATED_(C0)
  6
Continuous
 62
     7
100
AcDbEllipse
 10
401.8073879916
 20
603.858423131
 30
0.0
 11
0.1965140491393958
 21
-0.03717833362099771
 31
0.0
210
0.0
220
0.0
230
1.0
 40
0.3831312221
 41
0.0
 42
0.4586732027751996
  0
ELLIPSE
  5
1D8
330
196
100
AcDbEntity
  8
$DDT_AUDIT_GENERATED_(C0)
  6
Continuous
 62
     7
100
AcDbEllipse
 10
401.7985661169
 20
603.8276479408
 30
0.0
 11
0.1830974353526889
 21
-0.08046943001699045
 31
0.0
210
0.0
220
0.0
230
0.9999999999999999
 40
0.6680434953
 41
0.1880965022480657
 42
0.5818919155190773
  0
ELLIPSE
  5
1D9
330
196
100
AcDbEntity
  8
$DDT_AUDIT_GENERATED_(C0)
  6
Continuous
 62
     7
100
AcDbEllipse
 10
401.8073879916
 20
652.6646132279
 30
0.0
 11
-0.1965140491393949
 21
-0.03717833362094913
 31
0.0
210
0.0
220
0.0
230
1.0
 40
0.3831312221
 41
2.682919450814784
 42
3.141592653589793
  0
ELLIPSE
  5
1DA
330
196
100
AcDbEntity
  8
$DDT_AUDIT_GENERATED_(C0)
  6
Continuous
 62
     7
100
AcDbEllipse
 10
401.7985661169
 20
652.6953884181
 30
0.0
 11
0.1830974353526074
 21
0.08046943001708412
 31
0.0
210
0.0
220
0.0
230
1.0
 40
0.6680434953
 41
5.701293391660337
 42
6.095088804929482
  0
LINE
  5
1DB
330
196
100
AcDbEntity
  8
$DDT_AUDIT_GENERATED_(C0)
  6
Continuous
 62
     7
100
AcDbLine
 10
395.8980078158
 20
603.465039658
 30
0.0
 11
395.8980078158
 21
603.9649635056
 31
0.0
  0
LINE
  5
1DC
330
196
100
AcDbEntity
  8
$DDT_AUDIT_GENERATED_(C0)
  6
Continuous
 62
     7
100
AcDbLine
 10
395.8980078158
 20
652.5580728533
 30
0.0
 11
395.8980078158
 21
653.0579967008
 31
0.0
  0
LINE
  5
1DD
330
196
100
AcDbEntity
  8
$DDT_AUDIT_GENERATED_(C0)
  6
Continuous
 62
     7
100
AcDbLine
 10
395.8980078158
 20
603.9649635056
 30
0.0
 11
395.8980078158
 21
652.5580728533
 31
0.0
  0
LINE
  5
1DE
330
196
100
AcDbEntity
  8
$DDT_AUDIT_GENERATED_(C0)
  6
Continuous
 62
     7
100
AcDbLine
 10
396.1014982971
 20
603.9649635056
 30
0.0
 11
401.572492011
 21
604.0604600561
 31
0.0
  0
LINE
  5
1DF
330
196
100
AcDbEntity
  8
$DDT_AUDIT_GENERATED_(C0)
  6
Continuous
 62
     7
100
AcDbLine
 10
396.1014982971
 20
653.2579662399
 30
0.0
 11
401.5923618723
 21
653.1621228596
 31
0.0
  0
ARC
  5
1E0
330
196
100
AcDbEntity
  8
$DDT_AUDIT_GENERATED_(C0)
  6
Continuous
 62
     7
100
AcDbCircle
 10
396.0980078158
 20
603.465039658
 30
0.0
 40
0.2
100
AcDbArc
 50
180.0
 51
271.0
  0
ARC
  5
1E1
330
196
100
AcDbEntity
  8
$DDT_AUDIT_GENERATED_(C0)
  6
Continuous
 62
     7
100
AcDbCircle
 10
396.0980078158
 20
653.0579967008
 30
0.0
 40
0.2000000000000078
100
AcDbArc
 50
89.0
 51
180.0
  0
LINE
  5
1E2
330
196
100
AcDbEntity
  8
$DDT_AUDIT_GENERATED_(C0)
  6
Continuous
 62
     7
100
AcDbLine
 10
405.3805170545
 20
634.7427655861
 30
0.0
 11
401.9898972304
 21
652.6646132279
 31
0.0
  0
LINE
  5
1E3
330
196
100
AcDbEntity
  8
$DDT_AUDIT_GENERATED_(C0)
  6
Continuous
 62
     7
100
AcDbLine
 10
405.3805170545
 20
621.7802707728
 30
0.0
 11
405.3805170545
 21
634.7427655861
 31
0.0
  0
LINE
  5
1E4
330
196
100
AcDbEntity
  8
$DDT_AUDIT_GENERATED_(C0)
  6
Continuous
 62
     7
100
AcDbLine
 10
405.3980078158
 20
634.7427655861
 30
0.0
 11
405.3980078158
 21
621.7802707728
 31
0.0
  0
ELLIPSE
  5
1E5
330
196
100
AcDbEntity
  8
$DDT_AUDIT_GENERATED_(C0)
  6
Continuous
 62
     7
100
AcDbEllipse
 10
405.1980078158
 20
634.7427655861
 30
0.0
 11
-0.1965140491394044
 21
-0.03717833362095607
 31
0.0
210
0.0
220
0.0
230
0.9999999999999999
 40
0.3831312221
 41
2.682919450814666
 42
3.141592653589793
  0
LINE
  5
1E6
330
196
100
AcDbEntity
  8
$DDT_AUDIT_GENERATED_(C0)
  6
Continuous
 62
     7
100
AcDbLine
 10
405.3945218649
 20
621.7430924392
 30
0.0
 11
402.0039020408
 21
603.8212447973
 31
0.0
  0
ELLIPSE
  5
1E7
330
196
100
AcDbEntity
  8
$DDT_AUDIT_GENERATED_(C0)
  6
Continuous
 62
     7
100
AcDbEllipse
 10
405.1980078158
 20
621.7802707728
 30
0.0
 11
0.1965140491393628
 21
-0.03717833362093938
 31
0.0
210
0.0
220
0.0
230
1.0
 40
0.3831312221
 41
0.0
 42
0.4586732027755339
  0
ARC
  5
1E8
330
196
100
AcDbEntity
  8
$DDT_AUDIT_GENERATED_(C0)
  6
Continuous
 62
     7
100
AcDbCircle
 10
405.1980078158
 20
621.7802707728
 30
0.0
 40
0.2000000000000001
100
AcDbArc
 50
349.2868769772
 51
0.0
  0
ARC
  5
1E9
330
196
100
AcDbEntity
  8
$DDT_AUDIT_GENERATED_(C0)
  6
Continuous
 62
     7
100
AcDbCircle
 10
405.1980078158
 20
634.7427655861
 30
0.0
 40
0.2000000000000005
100
AcDbArc
 50
0.0
 51
10.7131230228
  0
LINE
  5
1EA
330
196
100
AcDbEntity
  8
$DDT_AUDIT_GENERATED_(C0)
  6
Continuous
 62
     7
100
AcDbLine
 10
405.3805170545
 20
621.7802707728
 30
0.0
 11
405.3980078158
 21
621.7802707728
 31
0.0
  0
LINE
  5
1EB
330
196
100
AcDbEntity
  8
$DDT_AUDIT_GENERATED_(C0)
  6
Continuous
 62
     7
100
AcDbLine
 10
405.3980078158
 20
634.7427655861
 30
0.0
 11
405.3805170545
 21
634.7427655861
 31
0.0
  0
LINE
  5
1EC
330
196
100
AcDbEntity
  8
$DDT_AUDIT_GENERATED_(165)
  6
Continuous
 62
     7
100
AcDbLine
 10
606.4815718098
 20
637.1007127056
 30
0.0
 11
601.8145263558
 21
636.0232403637
 31
0.0
  0
LINE
  5
1ED
330
196
100
AcDbEntity
  8
$DDT_AUDIT_GENERATED_(165)
  6
Continuous
 62
     7
100
AcDbLine
 10
601.5882745875
 20
636.1335907243
 30
0.0
 11
601.1398816412
 21
637.0951725007
 31
0.0
  0
ARC
  5
1EE
330
196
100
AcDbEntity
  8
$DDT_AUDIT_GENERATED_(165)
  6
Continuous
 62
     7
100
AcDbCircle
 10
606.2575247743
 20
638.0732695892
 30
0.0
 40
0.9980300425849714
100
AcDbArc
 50
282.972847219
 51
310.027152781
  0
LINE
  5
1EF
330
196
100
AcDbEntity
  8
$DDT_AUDIT_GENERATED_(165)
  6
Continuous
 62
     7
100
AcDbLine
 10
607.9903641615
 20
638.2244589336
 30
0.0
 11
606.8994083652
 21
637.3090383273
 31
0.0
  0
ARC
  5
1F0
330
196
100
AcDbEntity
  8
$DDT_AUDIT_GENERATED_(165)
  6
Continuous
 62
     7
100
AcDbCircle
 10
601.7695361449
 20
636.2181143767
 30
0.0
 40
0.2000000000000008
100
AcDbArc
 50
205.0
 51
283.0
  0
LINE
  5
1F2
330
196
100
AcDbEntity
  8
$DDT_AUDIT_GENERATED_(1F1)
  6
Continuous
 62
     7
100
AcDbLine
 10
405.5980078158
 20
622.6615181794
 30
0.0
 11
405.5980078158
 21
633.8615181794
 31
0.0
  0
LINE
  5
1F3
330
196
100
AcDbEntity
  8
$DDT_AUDIT_GENERATED_(1F1)
  6
Continuous
 62
     7
100
AcDbLine
 10
405.6980078158
 20
633.8615181794
 30
0.0
 11
405.5980078158
 21
633.8615181794
 31
0.0
  0
LINE
  5
1F4
330
196
100
AcDbEntity
  8
$DDT_AUDIT_GENERATED_(1F1)
  6
Continuous
 62
     7
100
AcDbLine
 10
405.5980078158
 20
622.6615181794
 30
0.0
 11
405.6980078158
 21
622.6615181794
 31
0.0
  0
LINE
  5
1F5
330
196
100
AcDbEntity
  8
$DDT_AUDIT_GENERATED_(1F1)
  6
Continuous
 62
     7
100
AcDbLine
 10
405.5980078158
 20
633.8615181794
 30
0.0
 11
405.3980078158
 21
633.6615181794
 31
0.0
  0
LINE
  5
1F6
330
196
100
AcDbEntity
  8
$DDT_AUDIT_GENERATED_(1F1)
  6
Continuous
 62
     7
100
AcDbLine
 10
405.3980078158
 20
622.8615181794
 30
0.0
 11
405.5980078158
 21
622.6615181794
 31
0.0
  0
ENDBLK
  5
1F8
330
196
100
AcDbEntity
  8
0
100
AcDbBlockEnd
  0
BLOCK
  5
2A1
330
1F9
100
AcDbEntity
  8
0
100
AcDbBlockBegin
  2
SE2
 70
     0
 10
0.0
 20
0.0
 30
0.0
  3
SE2
  1

  0
LINE
  5
1FB
330
1F9
100
AcDbEntity
  8
$DDT_AUDIT_GENERATED_(99)
  6
Continuous
 62
     7
100
AcDbLine
 10
158.2853889924
 20
532.7049736194
 30
0.0
 11
161.5744066414
 21
277.9243547138
 31
0.0
  0
LINE
  5
1FC
330
1F9
100
AcDbEntity
  8
$DDT_AUDIT_GENERATED_(99)
  6
Continuous
 62
     7
100
AcDbLine
 10
208.2853889924
 20
532.7049736194
 30
0.0
 11
158.2853889924
 21
532.7049736194
 31
0.0
  0
LINE
  5
1FD
330
1F9
100
AcDbEntity
  8
$DDT_AUDIT_GENERATED_(99)
  6
Continuous
 62
     7
100
AcDbLine
 10
204.9963713434
 20
277.9243547138
 30
0.0
 11
208.2853889924
 21
532.7049736194
 31
0.0
  0
LINE
  5
1FE
330
1F9
100
AcDbEntity
  8
$DDT_AUDIT_GENERATED_(99)
  6
Continuous
 62
     7
100
AcDbLine
 10
161.5744066414
 20
277.9243547138
 30
0.0
 11
204.9963713434
 21
277.9243547138
 31
0.0
  0
LINE
  5
1FF
330
1F9
100
AcDbEntity
  8
$DDT_AUDIT_GENERATED_(99)
  6
Continuous
 62
     7
100
AcDbLine
 10
160.2457244653
 20
277.9243547138
 30
0.0
 11
153.8846585898
 21
493.2041657039
 31
0.0
  0
LINE
  5
200
330
1F9
100
AcDbEntity
  8
$DDT_AUDIT_GENERATED_(99)
  6
Continuous
 62
     7
100
AcDbLine
 10
212.6861205559
 20
493.2041649636
 30
0.0
 11
206.3250529281
 21
277.9243547139
 31
0.0
  0
LINE
  5
201
330
1F9
100
AcDbEntity
  8
$DDT_AUDIT_GENERATED_(99)
  6
Continuous
 62
     7
100
AcDbLine
 10
206.3250529281
 20
277.9243547139
 30
0.0
 11
204.9963713434
 21
277.9243547138
 31
0.0
  0
LINE
  5
202
330
1F9
100
AcDbEntity
  8
$DDT_AUDIT_GENERATED_(99)
  6
Continuous
 62
     7
100
AcDbLine
 10
161.5744066414
 20
277.9243547138
 30
0.0
 11
160.2457250567
 21
277.9243547138
 31
0.0
  0
LINE
  5
203
330
1F9
100
AcDbEntity
  8
$DDT_AUDIT_GENERATED_(99)
  6
Continuous
 62
     7
100
AcDbLine
 10
153.8846585898
 20
493.2041657039
 30
0.0
 11
158.2853889924
 21
532.7049736194
 31
0.0
  0
LINE
  5
204
330
1F9
100
AcDbEntity
  8
$DDT_AUDIT_GENERATED_(99)
  6
Continuous
 62
     7
100
AcDbLine
 10
208.2853889924
 20
532.7049736194
 30
0.0
 11
212.686119395
 21
493.2041657039
 31
0.0
  0
ARC
  5
205
330
1F9
100
AcDbEntity
  8
$DDT_AUDIT_GENERATED_(99)
  6
Continuous
 62
     7
100
AcDbCircle
 10
197.9867559559
 20
306.8020936665
 30
0.0
 40
1.000000000000001
100
AcDbArc
 50
0.0
 51
90.0
  0
LINE
  5
206
330
1F9
100
AcDbEntity
  8
$DDT_AUDIT_GENERATED_(99)
  6
Continuous
 62
     7
100
AcDbLine
 10
168.5840220289
 20
287.3020345387
 30
0.0
 11
197.9867559559
 21
287.3020345387
 31
0.0
  0
LINE
  5
207
330
1F9
100
AcDbEntity
  8
$DDT_AUDIT_GENERATED_(99)
  6
Continuous
 62
     7
100
AcDbLine
 10
167.5840220289
 20
288.3020345387
 30
0.0
 11
167.5840220289
 21
306.8020936665
 31
0.0
  0
ARC
  5
208
330
1F9
100
AcDbEntity
  8
$DDT_AUDIT_GENERATED_(99)
  6
Continuous
 62
     7
100
AcDbCircle
 10
168.5840220289
 20
288.3020345387
 30
0.0
 40
1.000000000000001
100
AcDbArc
 50
180.0
 51
270.0
  0
LINE
  5
209
330
1F9
100
AcDbEntity
  8
$DDT_AUDIT_GENERATED_(99)
  6
Continuous
 62
     7
100
AcDbLine
 10
168.5840220289
 20
307.8020936665
 30
0.0
 11
197.9867559559
 21
307.8020936665
 31
0.0
  0
ARC
  5
20A
330
1F9
100
AcDbEntity
  8
$DDT_AUDIT_GENERATED_(99)
  6
Continuous
 62
     7
100
AcDbCircle
 10
168.5840220289
 20
306.8020936665
 30
0.0
 40
1.000000000000001
100
AcDbArc
 50
90.0
 51
180.0
  0
LINE
  5
20B
330
1F9
100
AcDbEntity
  8
$DDT_AUDIT_GENERATED_(99)
  6
Continuous
 62
     7
100
AcDbLine
 10
198.9867559559
 20
288.3020345387
 30
0.0
 11
198.9867559559
 21
306.8020936665
 31
0.0
  0
ARC
  5
20C
330
1F9
100
AcDbEntity
  8
$DDT_AUDIT_GENERATED_(99)
  6
Continuous
 62
     7
100
AcDbCircle
 10
197.9867559559
 20
288.3020345387
 30
0.0
 40
1.000000000000001
100
AcDbArc
 50
270.0
 51
0.0
  0
LINE
  5
20D
330
1F9
100
AcDbEntity
  8
$DDT_AUDIT_GENERATED_(C0)
  6
Continuous
 62
     7
100
AcDbLine
 10
307.486100286
 20
526.6245724271
 30
0.0
 11
259.0846776988
 21
526.6245724271
 31
0.0
  0
ELLIPSE
  5
20E
330
1F9
100
AcDbEntity
  8
$DDT_AUDIT_GENERATED_(C0)
  6
Continuous
 62
     7
100
AcDbEllipse
 10
259.0857632154
 20
526.5676189467
 30
0.0
 11
-0.3000476453569462
 21
0.0002137482650677383
 31
0.0
210
0.0
220
0.0
230
0.9999999999999998
 40
0.189813452
 41
4.716142021730976
 42
5.701711491908414
  0
LINE
  5
20F
330
1F9
100
AcDbEntity
  8
$DDT_AUDIT_GENERATED_(C0)
  6
Continuous
 62
     7
100
AcDbLine
 10
258.3844374825
 20
527.0304894242
 30
0.0
 11
258.288940932
 21
532.5014831381
 31
0.0
  0
ELLIPSE
  5
210
330
1F9
100
AcDbEntity
  8
$DDT_AUDIT_GENERATED_(C0)
  6
Continuous
 62
     7
100
AcDbEllipse
 10
259.0867879613
 20
526.9019393918
 30
0.0
 11
-0.702349408656211
 21
0.1285632465682146
 31
0.0
210
0.0
220
0.0
230
1.0
 40
0.0095835767
 41
0.0019276877343947
 42
0.7640141241071408
  0
ELLIPSE
  5
211
330
1F9
100
AcDbEntity
  8
$DDT_AUDIT_GENERATED_(C0)
  6
Continuous
 62
     7
100
AcDbEllipse
 10
259.0857632154
 20
526.960647045
 30
0.0
 11
-0.6999854475875367
 21
-0.006936696240635379
 31
0.0
210
0.0
220
0.0
230
1.0
 40
0.0713991769
 41
4.713232201356229
 42
5.521637505276093
  0
LINE
  5
212
330
1F9
100
AcDbEntity
  8
$DDT_AUDIT_GENERATED_(C0)
  6
Continuous
 62
     7
100
AcDbLine
 10
259.0846776988
 20
527.0106195628
 30
0.0
 11
307.486100286
 21
527.0106195628
 31
0.0
  0
ARC
  5
213
330
1F9
100
AcDbEntity
  8
$DDT_AUDIT_GENERATED_(C0)
  6
Continuous
 62
     7
100
AcDbCircle
 10
258.7843765605
 20
527.0374703867
 30
0.0
 40
0.3999999999999879
100
AcDbArc
 50
181.0
 51
245.8596227662
  0
LINE
  5
214
330
1F9
100
AcDbEntity
  8
$DDT_AUDIT_GENERATED_(C0)
  6
Continuous
 62
     7
100
AcDbLine
 10
259.0846776988
 20
527.0106195628
 30
0.0
 11
259.0846776988
 21
526.6245724271
 31
0.0
  0
LINE
  5
215
330
1F9
100
AcDbEntity
  8
$DDT_AUDIT_GENERATED_(C0)
  6
Continuous
 62
     7
100
AcDbLine
 10
258.8350494682
 20
526.5990793944
 30
0.0
 11
266.4005667915
 21
523.2084595703
 31
0.0
  0
LINE
  5
216
330
1F9
100
AcDbEntity
  8
$DDT_AUDIT_GENERATED_(C0)
  6
Continuous
 62
     7
100
AcDbLine
 10
258.7335704185
 20
526.6219060795
 30
0.0
 11
258.6207871015
 21
526.6724519093
 31
0.0
  0
LINE
  5
217
330
1F9
100
AcDbEntity
  8
$DDT_AUDIT_GENERATED_(C0)
  6
Continuous
 62
     7
100
AcDbLine
 10
258.7532547387
 20
526.6130842048
 30
0.0
 11
258.7335704185
 21
526.6219060795
 31
0.0
  0
LINE
  5
218
330
1F9
100
AcDbEntity
  8
$DDT_AUDIT_GENERATED_(C0)
  6
Continuous
 62
     7
100
AcDbLine
 10
258.7875365675
 20
526.6144953657
 30
0.0
 11
258.8350494682
 21
526.5990793944
 31
0.0
  0
SPLINE
  5
219
330
1F9
100
AcDbEntity
  8
$DDT_AUDIT_GENERATED_(C0)
  6
Continuous
 62
     7
100
AcDbSpline
210
0.0
220
0.0
230
1.0
 70
     8
 71
     3
 72
    10
 73
     6
 74
     0
 42
0.0000000216607214
 43
0.0000000001
 40
0.0
 40
0.0
 40
0.0
 40
0.0
 40
0.5
 40
0.5
 40
1.0
 40
1.0
 40
1.0
 40
1.0
 10
258.5787938072503
 20
526.9901136911456
 30
0.0
 10
258.5792170105992
 20
526.906372669484
 30
0.0
 10
258.5990713009667
 20
526.8231975648633
 30
0.0
 10
258.6727952384285
 20
526.6891021084947
 30
0.0
 10
258.7255665165752
 20
526.6390637669965
 30
0.0
 10
258.7875365675316
 20
526.6144953657152
 30
0.0
  0
SPLINE
  5
21A
330
1F9
100
AcDbEntity
  8
$DDT_AUDIT_GENERATED_(C0)
  6
Continuous
 62
     7
100
AcDbSpline
210
0.0
220
0.0
230
1.0
 70
     8
 71
     3
 72
    10
 73
     6
 74
     0
 42
0.0000000232415388
 43
0.0000000001
 40
0.0
 40
0.0
 40
0.0
 40
0.0
 40
0.5
 40
0.5
 40
1.0
 40
1.0
 40
1.0
 40
1.0
 10
258.7335704185476
 20
526.621906079524
 30
0.0
 10
258.6823633464561
 20
526.6448554306852
 30
0.0
 10
258.6392729703184
 20
526.6934749395813
 30
0.0
 10
258.5833943287595
 20
526.8250360906524
 30
0.0
 10
258.5715212352392
 20
526.9075743033757
 30
0.0
 10
258.5787938072503
 20
526.9901136911456
 30
0.0
  0
ELLIPSE
  5
21B
330
1F9
100
AcDbEntity
  8
$DDT_AUDIT_GENERATED_(C0)
  6
Continuous
 62
     7
100
AcDbEllipse
 10
258.8350494682
 20
526.7955934435
 30
0.0
 11
-0.08179472949697286
 21
-0.1825092387429559
 31
0.0
210
0.0
220
0.0
230
1.0
 40
0.9075941666
 41
0.0000000000002737
 42
0.458673202774076
  0
ELLIPSE
  5
21C
330
1F9
100
AcDbEntity
  8
$DDT_AUDIT_GENERATED_(C0)
  6
Continuous
 62
     7
100
AcDbEllipse
 10
258.815365148
 20
526.8044153183
 30
0.0
 11
-0.08179472949725042
 21
-0.1825092387427998
 31
0.0
210
0.0
220
0.0
230
1.0
 40
0.6812343566
 41
0.0
 42
0.3937954132727047
  0
LINE
  5
21D
330
1F9
100
AcDbEntity
  8
$DDT_AUDIT_GENERATED_(C0)
  6
Continuous
 62
     7
100
AcDbLine
 10
308.1863405023
 20
527.0304894242
 30
0.0
 11
308.2818370528
 21
532.5014831381
 31
0.0
  0
ARC
  5
21E
330
1F9
100
AcDbEntity
  8
$DDT_AUDIT_GENERATED_(C0)
  6
Continuous
 62
     7
100
AcDbCircle
 10
307.7864014243
 20
527.0374703867
 30
0.0
 40
0.3999999999999879
100
AcDbArc
 50
294.1403772338
 51
359.0
  0
LINE
  5
21F
330
1F9
100
AcDbEntity
  8
$DDT_AUDIT_GENERATED_(C0)
  6
Continuous
 62
     7
100
AcDbLine
 10
307.8372075663
 20
526.6219060795
 30
0.0
 11
307.9499908833
 21
526.6724519093
 31
0.0
  0
ELLIPSE
  5
220
330
1F9
100
AcDbEntity
  8
$DDT_AUDIT_GENERATED_(C0)
  6
Continuous
 62
     7
100
AcDbEllipse
 10
307.4839900236
 20
526.9019393918
 30
0.0
 11
0.7023494086563218
 21
0.1285632465682171
 31
0.0
210
0.0
220
0.0
230
0.9999999999999999
 40
0.0095835767
 41
5.519171183072738
 42
6.281257619446746
  0
ELLIPSE
  5
221
330
1F9
100
AcDbEntity
  8
$DDT_AUDIT_GENERATED_(C0)
  6
Continuous
 62
     7
100
AcDbEllipse
 10
307.4850147695
 20
526.960647045
 30
0.0
 11
0.6999854475875089
 21
-0.006936696240638848
 31
0.0
210
0.0
220
0.0
230
1.0
 40
0.0713991769
 41
0.7615478019034518
 42
1.569953105823358
  0
LINE
  5
222
330
1F9
100
AcDbEntity
  8
$DDT_AUDIT_GENERATED_(C0)
  6
Continuous
 62
     7
100
AcDbLine
 10
307.486100286
 20
527.0106195628
 30
0.0
 11
307.486100286
 21
526.6245724271
 31
0.0
  0
ELLIPSE
  5
223
330
1F9
100
AcDbEntity
  8
$DDT_AUDIT_GENERATED_(C0)
  6
Continuous
 62
     7
100
AcDbEllipse
 10
307.4850147695
 20
526.5676189467
 30
0.0
 11
0.3000476453569045
 21
0.0002137482650538605
 31
0.0
210
0.0
220
0.0
230
0.9999999999999998
 40
0.189813452
 41
0.5814738152709694
 42
1.567043285448809
  0
ELLIPSE
  5
224
330
1F9
100
AcDbEntity
  8
$DDT_AUDIT_GENERATED_(C0)
  6
Continuous
 62
     7
100
AcDbEllipse
 10
307.7357285166
 20
526.7955934435
 30
0.0
 11
0.08179472949697286
 21
-0.1825092387429559
 31
0.0
210
0.0
220
0.0
230
1.0
 40
0.9075941666
 41
5.824512104406035
 42
6.283185307179313
  0
LINE
  5
225
330
1F9
100
AcDbEntity
  8
$DDT_AUDIT_GENERATED_(C0)
  6
Continuous
 62
     7
100
AcDbLine
 10
307.7357285166
 20
526.5990793944
 30
0.0
 11
300.1702111933
 21
523.2084595703
 31
0.0
  0
LINE
  5
226
330
1F9
100
AcDbEntity
  8
$DDT_AUDIT_GENERATED_(C0)
  6
Continuous
 62
     7
100
AcDbLine
 10
307.8175232461
 20
526.6130842048
 30
0.0
 11
307.8372075663
 21
526.6219060795
 31
0.0
  0
ELLIPSE
  5
227
330
1F9
100
AcDbEntity
  8
$DDT_AUDIT_GENERATED_(C0)
  6
Continuous
 62
     7
100
AcDbEllipse
 10
307.7554128368
 20
526.8044153183
 30
0.0
 11
0.08179472949719491
 21
-0.1825092387427122
 31
0.0
210
0.0
220
0.0
230
1.0
 40
0.6812343566
 41
5.889389893907865
 42
6.283185307179586
  0
LINE
  5
228
330
1F9
100
AcDbEntity
  8
$DDT_AUDIT_GENERATED_(C0)
  6
Continuous
 62
     7
100
AcDbLine
 10
307.7832414173
 20
526.6144953657
 30
0.0
 11
307.7357285166
 21
526.5990793944
 31
0.0
  0
SPLINE
  5
229
330
1F9
100
AcDbEntity
  8
$DDT_AUDIT_GENERATED_(C0)
  6
Continuous
 62
     7
100
AcDbSpline
210
0.0
220
0.0
230
1.0
 70
     8
 71
     3
 72
    10
 73
     6
 74
     0
 42
0.0000000216607214
 43
0.0000000001
 40
0.0
 40
0.0
 40
0.0
 40
0.0
 40
0.5
 40
0.5
 40
1.0
 40
1.0
 40
1.0
 40
1.0
 10
307.9919841775694
 20
526.9901136911456
 30
0.0
 10
307.9915609742205
 20
526.9063726694839
 30
0.0
 10
307.971706683853
 20
526.8231975648633
 30
0.0
 10
307.8979827463912
 20
526.6891021084947
 30
0.0
 10
307.8452114682445
 20
526.6390637669965
 30
0.0
 10
307.7832414172881
 20
526.6144953657152
 30
0.0
  0
SPLINE
  5
22A
330
1F9
100
AcDbEntity
  8
$DDT_AUDIT_GENERATED_(C0)
  6
Continuous
 62
     7
100
AcDbSpline
210
0.0
220
0.0
230
1.0
 70
     8
 71
     3
 72
    10
 73
     6
 74
     0
 42
0.0000000232415388
 43
0.0000000001
 40
0.0
 40
0.0
 40
0.0
 40
0.0
 40
0.5
 40
0.5
 40
1.0
 40
1.0
 40
1.0
 40
1.0
 10
307.8372075662721
 20
526.621906079524
 30
0.0
 10
307.8884146383636
 20
526.6448554306852
 30
0.0
 10
307.9315050145013
 20
526.6934749395813
 30
0.0
 10
307.9873836560602
 20
526.8250360906524
 30
0.0
 10
307.9992567495805
 20
526.9075743033757
 30
0.0
 10
307.9919841775694
 20
526.9901136911456
 30
0.0
  0
LINE
  5
22B
330
1F9
100
AcDbEntity
  8
$DDT_AUDIT_GENERATED_(C0)
  6
Continuous
 62
     7
100
AcDbLine
 10
307.5819436662
 20
532.7049736194
 30
0.0
 11
308.0818675138
 21
532.7049736194
 31
0.0
  0
LINE
  5
22C
330
1F9
100
AcDbEntity
  8
$DDT_AUDIT_GENERATED_(C0)
  6
Continuous
 62
     7
100
AcDbLine
 10
258.9888343186
 20
532.7049736194
 30
0.0
 11
307.5819436662
 21
532.7049736194
 31
0.0
  0
LINE
  5
22D
330
1F9
100
AcDbEntity
  8
$DDT_AUDIT_GENERATED_(C0)
  6
Continuous
 62
     7
100
AcDbLine
 10
258.488910471
 20
532.7049736194
 30
0.0
 11
258.9888343186
 21
532.7049736194
 31
0.0
  0
LINE
  5
22E
330
1F9
100
AcDbEntity
  8
$DDT_AUDIT_GENERATED_(C0)
  6
Continuous
 62
     7
100
AcDbLine
 10
258.9888343186
 20
532.5014831381
 30
0.0
 11
259.0846776988
 21
527.0106195628
 31
0.0
  0
LINE
  5
22F
330
1F9
100
AcDbEntity
  8
$DDT_AUDIT_GENERATED_(C0)
  6
Continuous
 62
     7
100
AcDbLine
 10
307.5819436662
 20
532.5014831381
 30
0.0
 11
307.486100286
 21
527.0106195628
 31
0.0
  0
ARC
  5
230
330
1F9
100
AcDbEntity
  8
$DDT_AUDIT_GENERATED_(C0)
  6
Continuous
 62
     7
100
AcDbCircle
 10
308.0818675138
 20
532.5049736194
 30
0.0
 40
0.2000000000000356
100
AcDbArc
 50
359.0
 51
90.0
  0
ARC
  5
231
330
1F9
100
AcDbEntity
  8
$DDT_AUDIT_GENERATED_(C0)
  6
Continuous
 62
     7
100
AcDbCircle
 10
258.488910471
 20
532.5049736194
 30
0.0
 40
0.2000000000000079
100
AcDbArc
 50
90.0
 51
181.0
  0
LINE
  5
232
330
1F9
100
AcDbEntity
  8
$DDT_AUDIT_GENERATED_(C0)
  6
Continuous
 62
     7
100
AcDbLine
 10
266.318772062
 20
523.2224643807
 30
0.0
 11
258.7532547387
 21
526.6130842048
 31
0.0
  0
LINE
  5
233
330
1F9
100
AcDbEntity
  8
$DDT_AUDIT_GENERATED_(C0)
  6
Continuous
 62
     7
100
AcDbLine
 10
300.1702111933
 20
523.2049736194
 30
0.0
 11
266.4005667915
 21
523.2049736194
 31
0.0
  0
ELLIPSE
  5
234
330
1F9
100
AcDbEntity
  8
$DDT_AUDIT_GENERATED_(C0)
  6
Continuous
 62
     7
100
AcDbEllipse
 10
266.4005667915
 20
523.4049736194
 30
0.0
 11
-0.08179472949705613
 21
-0.1825092387428718
 31
0.0
210
0.0
220
0.0
230
1.0
 40
0.9075941666
 41
0.0
 42
0.4586732027745284
  0
LINE
  5
235
330
1F9
100
AcDbEntity
  8
$DDT_AUDIT_GENERATED_(C0)
  6
Continuous
 62
     7
100
AcDbLine
 10
266.4005667915
 20
523.2084595703
 30
0.0
 11
300.1702111933
 21
523.2084595703
 31
0.0
  0
LINE
  5
236
330
1F9
100
AcDbEntity
  8
$DDT_AUDIT_GENERATED_(C0)
  6
Continuous
 62
     7
100
AcDbLine
 10
300.2520059228
 20
523.2224643807
 30
0.0
 11
307.8175232461
 21
526.6130842048
 31
0.0
  0
ELLIPSE
  5
237
330
1F9
100
AcDbEntity
  8
$DDT_AUDIT_GENERATED_(C0)
  6
Continuous
 62
     7
100
AcDbEllipse
 10
300.1702111933
 20
523.4049736194
 30
0.0
 11
-0.08179472949756962
 21
0.182509238742681
 31
0.0
210
0.0
220
0.0
230
1.0
 40
0.9075941666
 41
2.682919450811895
 42
3.141592653589793
  0
ARC
  5
238
330
1F9
100
AcDbEntity
  8
$DDT_AUDIT_GENERATED_(C0)
  6
Continuous
 62
     7
100
AcDbCircle
 10
300.1702111933
 20
523.4049736194
 30
0.0
 40
0.2000000000000005
100
AcDbArc
 50
270.0
 51
294.1403772338
  0
LINE
  5
239
330
1F9
100
AcDbEntity
  8
$DDT_AUDIT_GENERATED_(C0)
  6
Continuous
 62
     7
100
AcDbLine
 10
300.1702111933
 20
523.2049736194
 30
0.0
 11
300.1702111933
 21
523.2084595703
 31
0.0
  0
LINE
  5
23A
330
1F9
100
AcDbEntity
  8
$DDT_AUDIT_GENERATED_(C0)
  6
Continuous
 62
     7
100
AcDbLine
 10
266.4005667915
 20
523.2049736194
 30
0.0
 11
266.4005667915
 21
523.2084595703
 31
0.0
  0
ARC
  5
23B
330
1F9
100
AcDbEntity
  8
$DDT_AUDIT_GENERATED_(C0)
  6
Continuous
 62
     7
100
AcDbCircle
 10
266.4005667915
 20
523.4049736194
 30
0.0
 40
0.2000000000000005
100
AcDbArc
 50
245.8596227662
 51
270.0
  0
LINE
  5
23C
330
1F9
100
AcDbEntity
  8
$DDT_AUDIT_GENERATED_(E7)
  6
Continuous
 62
     7
100
AcDbLine
 10
298.8833223199
 20
484.1344635192
 30
0.0
 11
267.6874556649
 21
484.1344635192
 31
0.0
  0
LINE
  5
23D
330
1F9
100
AcDbEntity
  8
$DDT_AUDIT_GENERATED_(E7)
  6
Continuous
 62
     7
100
AcDbLine
 10
298.8833223199
 20
484.1344635192
 30
0.0
 11
298.8833223199
 21
485.0701151592
 31
0.0
  0
LINE
  5
23E
330
1F9
100
AcDbEntity
  8
$DDT_AUDIT_GENERATED_(E7)
  6
Continuous
 62
     7
100
AcDbLine
 10
298.8833223199
 20
485.0701151592
 30
0.0
 11
299.2116444421
 21
522.6921039474
 31
0.0
  0
ELLIPSE
  5
23F
330
1F9
100
AcDbEntity
  8
$DDT_AUDIT_GENERATED_(E7)
  6
Continuous
 62
     7
100
AcDbEllipse
 10
298.8833223199
 20
485.1344635192
 30
0.0
 11
0.9999619230641744
 21
-0.008726535498375378
 31
0.0
210
0.0
220
0.0
230
0.9999999999999999
 40
0.06434592
 41
4.712950518662072
 42
6.283185307179251
  0
ARC
  5
240
330
1F9
100
AcDbEntity
  8
$DDT_AUDIT_GENERATED_(E7)
  6
Continuous
 62
     7
100
AcDbCircle
 10
298.8833223199
 20
485.1344635192
 30
0.0
 40
1.000000000000003
100
AcDbArc
 50
270.0
 51
359.5
  0
LINE
  5
241
330
1F9
100
AcDbEntity
  8
$DDT_AUDIT_GENERATED_(E7)
  6
Continuous
 62
     7
100
AcDbLine
 10
266.6874937419
 20
485.1257369837
 30
0.0
 11
266.3595599431
 21
522.7032283123
 31
0.0
  0
LINE
  5
242
330
1F9
100
AcDbEntity
  8
$DDT_AUDIT_GENERATED_(E7)
  6
Continuous
 62
     7
100
AcDbLine
 10
267.6874556649
 20
485.0701151592
 30
0.0
 11
298.8833223199
 21
485.0701151592
 31
0.0
  0
LINE
  5
243
330
1F9
100
AcDbEntity
  8
$DDT_AUDIT_GENERATED_(E7)
  6
Continuous
 62
     7
100
AcDbLine
 10
267.6874556649
 20
485.0701151592
 30
0.0
 11
267.6874556649
 21
484.1344635192
 31
0.0
  0
ELLIPSE
  5
244
330
1F9
100
AcDbEntity
  8
$DDT_AUDIT_GENERATED_(E7)
  6
Continuous
 62
     7
100
AcDbEllipse
 10
267.6874556649
 20
485.1344635192
 30
0.0
 11
0.9999619230641604
 21
0.008726535498382315
 31
0.0
210
0.0
220
0.0
230
1.0
 40
0.06434592
 41
3.141592653590018
 42
4.711827442107364
  0
ARC
  5
245
330
1F9
100
AcDbEntity
  8
$DDT_AUDIT_GENERATED_(E7)
  6
Continuous
 62
     7
100
AcDbCircle
 10
267.6874556649
 20
485.1344635192
 30
0.0
 40
1.000000000000001
100
AcDbArc
 50
180.5
 51
270.0
  0
LINE
  5
246
330
1F9
100
AcDbEntity
  8
$DDT_AUDIT_GENERATED_(E7)
  6
Continuous
 62
     7
100
AcDbLine
 10
267.3591335428
 20
522.9049736194
 30
0.0
 11
299.2116444421
 21
522.9049736194
 31
0.0
  0
LINE
  5
247
330
1F9
100
AcDbEntity
  8
$DDT_AUDIT_GENERATED_(E7)
  6
Continuous
 62
     7
100
AcDbLine
 10
299.2116444421
 20
522.9049736194
 30
0.0
 11
300.0112256571
 21
522.9049736194
 31
0.0
  0
LINE
  5
248
330
1F9
100
AcDbEntity
  8
$DDT_AUDIT_GENERATED_(E7)
  6
Continuous
 62
     7
100
AcDbLine
 10
266.5595523278
 20
522.9049736194
 30
0.0
 11
267.3591335428
 21
522.9049736194
 31
0.0
  0
LINE
  5
249
330
1F9
100
AcDbEntity
  8
$DDT_AUDIT_GENERATED_(E7)
  6
Continuous
 62
     7
100
AcDbLine
 10
300.2112180417
 20
522.7032283123
 30
0.0
 11
299.8832842429
 21
485.1257369837
 31
0.0
  0
LINE
  5
24A
330
1F9
100
AcDbEntity
  8
$DDT_AUDIT_GENERATED_(E7)
  6
Continuous
 62
     7
100
AcDbLine
 10
267.3591335428
 20
522.6921039474
 30
0.0
 11
267.6874556649
 21
485.0701151592
 31
0.0
  0
ELLIPSE
  5
24B
330
1F9
100
AcDbEntity
  8
$DDT_AUDIT_GENERATED_(E7)
  6
Continuous
 62
     7
100
AcDbEllipse
 10
267.3595827905
 20
522.7049736194
 30
0.0
 11
-1.000022853375429
 21
-0.001744150755093876
 31
0.0
210
0.0
220
0.0
230
0.9999999999999999
 40
0.0128685567
 41
0.0000898560666688
 42
1.57032464515231
  0
ELLIPSE
  5
24C
330
1F9
100
AcDbEntity
  8
$DDT_AUDIT_GENERATED_(E7)
  6
Continuous
 62
     7
100
AcDbEllipse
 10
299.2111951944
 20
522.7049736194
 30
0.0
 11
1.000022853375415
 21
-0.001744150755093876
 31
0.0
210
0.0
220
0.0
230
0.9999999999999999
 40
0.0128685567
 41
4.712860662027276
 42
6.283095450749665
  0
LINE
  5
24D
330
1F9
100
AcDbEntity
  8
$DDT_AUDIT_GENERATED_(E7)
  6
Continuous
 62
     7
100
AcDbLine
 10
299.2116444421
 20
522.6921039474
 30
0.0
 11
267.3591335428
 21
522.6921039474
 31
0.0
  0
LINE
  5
24E
330
1F9
100
AcDbEntity
  8
$DDT_AUDIT_GENERATED_(E7)
  6
Continuous
 62
     7
100
AcDbLine
 10
267.3591335428
 20
522.6921039474
 30
0.0
 11
267.3591335428
 21
522.9049736194
 31
0.0
  0
LINE
  5
24F
330
1F9
100
AcDbEntity
  8
$DDT_AUDIT_GENERATED_(E7)
  6
Continuous
 62
     7
100
AcDbLine
 10
299.2116444421
 20
522.9049736194
 30
0.0
 11
299.2116444421
 21
522.6921039474
 31
0.0
  0
ARC
  5
250
330
1F9
100
AcDbEntity
  8
$DDT_AUDIT_GENERATED_(E7)
  6
Continuous
 62
     7
100
AcDbCircle
 10
266.5595523278
 20
522.7049736194
 30
0.0
 40
0.2000000000000034
100
AcDbArc
 50
90.0
 51
180.5
  0
ARC
  5
251
330
1F9
100
AcDbEntity
  8
$DDT_AUDIT_GENERATED_(E7)
  6
Continuous
 62
     7
100
AcDbCircle
 10
300.0112256571
 20
522.7049736194
 30
0.0
 40
0.2000000000000005
100
AcDbArc
 50
359.5
 51
90.0
  0
LINE
  5
252
330
1F9
100
AcDbEntity
  8
$DDT_AUDIT_GENERATED_(1F1)
  6
Continuous
 62
     7
100
AcDbLine
 10
277.6853889924
 20
523.0049736194
 30
0.0
 11
288.8853889924
 21
523.0049736194
 31
0.0
  0
LINE
  5
253
330
1F9
100
AcDbEntity
  8
$DDT_AUDIT_GENERATED_(1F1)
  6
Continuous
 62
     7
100
AcDbLine
 10
288.8853889924
 20
522.9049736194
 30
0.0
 11
288.8853889924
 21
523.0049736194
 31
0.0
  0
LINE
  5
254
330
1F9
100
AcDbEntity
  8
$DDT_AUDIT_GENERATED_(1F1)
  6
Continuous
 62
     7
100
AcDbLine
 10
277.6853889924
 20
523.0049736194
 30
0.0
 11
277.6853889924
 21
522.9049736194
 31
0.0
  0
LINE
  5
255
330
1F9
100
AcDbEntity
  8
$DDT_AUDIT_GENERATED_(1F1)
  6
Continuous
 62
     7
100
AcDbLine
 10
288.8853889924
 20
523.0049736194
 30
0.0
 11
288.6853889924
 21
523.2049736194
 31
0.0
  0
LINE
  5
256
330
1F9
100
AcDbEntity
  8
$DDT_AUDIT_GENERATED_(1F1)
  6
Continuous
 62
     7
100
AcDbLine
 10
277.8853889924
 20
523.2049736194
 30
0.0
 11
277.6853889924
 21
523.0049736194
 31
0.0
  0
LINE
  5
257
330
1F9
100
AcDbEntity
  8
$DDT_AUDIT_GENERATED_(E7)
  6
Continuous
 62
     7
100
AcDbLine
 10
67.6874556649
 20
485.0701151592
 30
0.0
 11
98.8833223199
 21
485.0701151592
 31
0.0
  0
LINE
  5
258
330
1F9
100
AcDbEntity
  8
$DDT_AUDIT_GENERATED_(E7)
  6
Continuous
 62
     7
100
AcDbLine
 10
66.6874937419
 20
485.1257369837
 30
0.0
 11
66.3595599431
 21
522.7032283123
 31
0.0
  0
LINE
  5
259
330
1F9
100
AcDbEntity
  8
$DDT_AUDIT_GENERATED_(E7)
  6
Continuous
 62
     7
100
AcDbLine
 10
67.6874556649
 20
485.0701151592
 30
0.0
 11
67.6874556649
 21
484.1344635192
 31
0.0
  0
ARC
  5
25A
330
1F9
100
AcDbEntity
  8
$DDT_AUDIT_GENERATED_(E7)
  6
Continuous
 62
     7
100
AcDbCircle
 10
67.6874556649
 20
485.1344635192
 30
0.0
 40
1.000000000000003
100
AcDbArc
 50
180.5
 51
270.0
  0
ELLIPSE
  5
25B
330
1F9
100
AcDbEntity
  8
$DDT_AUDIT_GENERATED_(E7)
  6
Continuous
 62
     7
100
AcDbEllipse
 10
67.6874556649
 20
485.1344635192
 30
0.0
 11
-0.9999619230641882
 21
-0.008726535498382315
 31
0.0
210
0.0
220
0.0
230
1.0
 40
0.06434592
 41
0.0000000000002273
 42
1.5702347885175
  0
LINE
  5
25C
330
1F9
100
AcDbEntity
  8
$DDT_AUDIT_GENERATED_(E7)
  6
Continuous
 62
     7
100
AcDbLine
 10
98.8833223199
 20
485.0701151592
 30
0.0
 11
99.2116444421
 21
522.6921039474
 31
0.0
  0
LINE
  5
25D
330
1F9
100
AcDbEntity
  8
$DDT_AUDIT_GENERATED_(E7)
  6
Continuous
 62
     7
100
AcDbLine
 10
98.8833223199
 20
484.1344635192
 30
0.0
 11
67.6874556649
 21
484.1344635192
 31
0.0
  0
LINE
  5
25E
330
1F9
100
AcDbEntity
  8
$DDT_AUDIT_GENERATED_(E7)
  6
Continuous
 62
     7
100
AcDbLine
 10
98.8833223199
 20
484.1344635192
 30
0.0
 11
98.8833223199
 21
485.0701151592
 31
0.0
  0
ARC
  5
25F
330
1F9
100
AcDbEntity
  8
$DDT_AUDIT_GENERATED_(E7)
  6
Continuous
 62
     7
100
AcDbCircle
 10
98.8833223199
 20
485.1344635192
 30
0.0
 40
1.000000000000001
100
AcDbArc
 50
270.0
 51
359.5
  0
ELLIPSE
  5
260
330
1F9
100
AcDbEntity
  8
$DDT_AUDIT_GENERATED_(E7)
  6
Continuous
 62
     7
100
AcDbEllipse
 10
98.8833223199
 20
485.1344635192
 30
0.0
 11
-0.9999619230641744
 21
0.008726535498375378
 31
0.0
210
0.0
220
0.0
230
0.9999999999999999
 40
0.06434592
 41
1.571357865072294
 42
3.141592653589458
  0
LINE
  5
261
330
1F9
100
AcDbEntity
  8
$DDT_AUDIT_GENERATED_(E7)
  6
Continuous
 62
     7
100
AcDbLine
 10
67.3591335428
 20
522.6921039474
 30
0.0
 11
67.6874556649
 21
485.0701151592
 31
0.0
  0
LINE
  5
262
330
1F9
100
AcDbEntity
  8
$DDT_AUDIT_GENERATED_(E7)
  6
Continuous
 62
     7
100
AcDbLine
 10
99.2116444421
 20
522.6921039474
 30
0.0
 11
67.3591335428
 21
522.6921039474
 31
0.0
  0
LINE
  5
263
330
1F9
100
AcDbEntity
  8
$DDT_AUDIT_GENERATED_(E7)
  6
Continuous
 62
     7
100
AcDbLine
 10
66.5595523278
 20
522.9049736194
 30
0.0
 11
67.3591335428
 21
522.9049736194
 31
0.0
  0
LINE
  5
264
330
1F9
100
AcDbEntity
  8
$DDT_AUDIT_GENERATED_(E7)
  6
Continuous
 62
     7
100
AcDbLine
 10
99.2116444421
 20
522.9049736194
 30
0.0
 11
100.0112256571
 21
522.9049736194
 31
0.0
  0
LINE
  5
265
330
1F9
100
AcDbEntity
  8
$DDT_AUDIT_GENERATED_(E7)
  6
Continuous
 62
     7
100
AcDbLine
 10
67.3591335428
 20
522.9049736194
 30
0.0
 11
99.2116444421
 21
522.9049736194
 31
0.0
  0
LINE
  5
266
330
1F9
100
AcDbEntity
  8
$DDT_AUDIT_GENERATED_(E7)
  6
Continuous
 62
     7
100
AcDbLine
 10
100.2112180417
 20
522.7032283123
 30
0.0
 11
99.8832842429
 21
485.1257369837
 31
0.0
  0
ELLIPSE
  5
267
330
1F9
100
AcDbEntity
  8
$DDT_AUDIT_GENERATED_(E7)
  6
Continuous
 62
     7
100
AcDbEllipse
 10
99.2111951944
 20
522.7049736194
 30
0.0
 11
1.000022853375429
 21
-0.001744150755093876
 31
0.0
210
0.0
220
0.0
230
0.9999999999999999
 40
0.0128685567
 41
4.712860662027262
 42
6.283095450480315
  0
ELLIPSE
  5
268
330
1F9
100
AcDbEntity
  8
$DDT_AUDIT_GENERATED_(E7)
  6
Continuous
 62
     7
100
AcDbEllipse
 10
67.3595827905
 20
522.7049736194
 30
0.0
 11
-1.000022853375429
 21
-0.001744150755093876
 31
0.0
210
0.0
220
0.0
230
0.9999999999999999
 40
0.0128685567
 41
0.0000898566992718
 42
1.570324645152339
  0
ARC
  5
269
330
1F9
100
AcDbEntity
  8
$DDT_AUDIT_GENERATED_(E7)
  6
Continuous
 62
     7
100
AcDbCircle
 10
100.0112256571
 20
522.7049736194
 30
0.0
 40
0.1999999999999895
100
AcDbArc
 50
359.5
 51
90.0
  0
ARC
  5
26A
330
1F9
100
AcDbEntity
  8
$DDT_AUDIT_GENERATED_(E7)
  6
Continuous
 62
     7
100
AcDbCircle
 10
66.5595523278
 20
522.7049736194
 30
0.0
 40
0.2000000000000005
100
AcDbArc
 50
90.0
 51
180.5
  0
LINE
  5
26B
330
1F9
100
AcDbEntity
  8
$DDT_AUDIT_GENERATED_(E7)
  6
Continuous
 62
     7
100
AcDbLine
 10
99.2116444421
 20
522.6921039474
 30
0.0
 11
99.2116444421
 21
522.9049736194
 31
0.0
  0
LINE
  5
26C
330
1F9
100
AcDbEntity
  8
$DDT_AUDIT_GENERATED_(E7)
  6
Continuous
 62
     7
100
AcDbLine
 10
67.3591335428
 20
522.9049736194
 30
0.0
 11
67.3591335428
 21
522.6921039474
 31
0.0
  0
LINE
  5
26D
330
1F9
100
AcDbEntity
  8
$DDT_AUDIT_GENERATED_(C0)
  6
Continuous
 62
     7
100
AcDbLine
 10
107.486100286
 20
526.6245724271
 30
0.0
 11
59.0846776988
 21
526.6245724271
 31
0.0
  0
ELLIPSE
  5
26E
330
1F9
100
AcDbEntity
  8
$DDT_AUDIT_GENERATED_(C0)
  6
Continuous
 62
     7
100
AcDbEllipse
 10
59.0857632154
 20
526.5676189467
 30
0.0
 11
-0.3000476453569462
 21
0.0002137482650668709
 31
0.0
210
0.0
220
0.0
230
0.9999999999999998
 40
0.189813452
 41
4.716142021730928
 42
5.701711491908371
  0
LINE
  5
26F
330
1F9
100
AcDbEntity
  8
$DDT_AUDIT_GENERATED_(C0)
  6
Continuous
 62
     7
100
AcDbLine
 10
58.3844374825
 20
527.0304894242
 30
0.0
 11
58.288940932
 21
532.5014831381
 31
0.0
  0
ELLIPSE
  5
270
330
1F9
100
AcDbEntity
  8
$DDT_AUDIT_GENERATED_(C0)
  6
Continuous
 62
     7
100
AcDbEllipse
 10
59.0867879613
 20
526.9019393918
 30
0.0
 11
-0.7023494086563082
 21
0.1285632465682085
 31
0.0
210
0.0
220
0.0
230
0.9999999999999998
 40
0.0095835767
 41
0.0019276877421698
 42
0.7640141241066422
  0
ELLIPSE
  5
271
330
1F9
100
AcDbEntity
  8
$DDT_AUDIT_GENERATED_(C0)
  6
Continuous
 62
     7
100
AcDbEllipse
 10
59.0857632154
 20
526.960647045
 30
0.0
 11
-0.6999854475875228
 21
-0.006936696240635379
 31
0.0
210
0.0
220
0.0
230
1.0
 40
0.0713991769
 41
4.713232201356208
 42
5.521637505276129
  0
LINE
  5
272
330
1F9
100
AcDbEntity
  8
$DDT_AUDIT_GENERATED_(C0)
  6
Continuous
 62
     7
100
AcDbLine
 10
59.0846776988
 20
527.0106195628
 30
0.0
 11
107.486100286
 21
527.0106195628
 31
0.0
  0
ARC
  5
273
330
1F9
100
AcDbEntity
  8
$DDT_AUDIT_GENERATED_(C0)
  6
Continuous
 62
     7
100
AcDbCircle
 10
58.7843765605
 20
527.0374703867
 30
0.0
 40
0.3999999999999879
100
AcDbArc
 50
181.0
 51
245.8596227662
  0
LINE
  5
274
330
1F9
100
AcDbEntity
  8
$DDT_AUDIT_GENERATED_(C0)
  6
Continuous
 62
     7
100
AcDbLine
 10
59.0846776988
 20
527.0106195628
 30
0.0
 11
59.0846776988
 21
526.6245724271
 31
0.0
  0
LINE
  5
275
330
1F9
100
AcDbEntity
  8
$DDT_AUDIT_GENERATED_(C0)
  6
Continuous
 62
     7
100
AcDbLine
 10
58.8350494682
 20
526.5990793944
 30
0.0
 11
66.4005667915
 21
523.2084595703
 31
0.0
  0
LINE
  5
276
330
1F9
100
AcDbEntity
  8
$DDT_AUDIT_GENERATED_(C0)
  6
Continuous
 62
     7
100
AcDbLine
 10
58.7335704185
 20
526.6219060795
 30
0.0
 11
58.6207871015
 21
526.6724519093
 31
0.0
  0
LINE
  5
277
330
1F9
100
AcDbEntity
  8
$DDT_AUDIT_GENERATED_(C0)
  6
Continuous
 62
     7
100
AcDbLine
 10
58.7532547387
 20
526.6130842048
 30
0.0
 11
58.7335704185
 21
526.6219060795
 31
0.0
  0
LINE
  5
278
330
1F9
100
AcDbEntity
  8
$DDT_AUDIT_GENERATED_(C0)
  6
Continuous
 62
     7
100
AcDbLine
 10
58.7875365675
 20
526.6144953657
 30
0.0
 11
58.8350494682
 21
526.5990793944
 31
0.0
  0
SPLINE
  5
279
330
1F9
100
AcDbEntity
  8
$DDT_AUDIT_GENERATED_(C0)
  6
Continuous
 62
     7
100
AcDbSpline
210
0.0
220
0.0
230
1.0
 70
     8
 71
     3
 72
    10
 73
     6
 74
     0
 42
0.0000000216607214
 43
0.0000000001
 40
0.0
 40
0.0
 40
0.0
 40
0.0
 40
0.5
 40
0.5
 40
1.0
 40
1.0
 40
1.0
 40
1.0
 10
58.57879380725036
 20
526.9901136911456
 30
0.0
 10
58.57921701059924
 20
526.906372669484
 30
0.0
 10
58.5990713009667
 20
526.8231975648634
 30
0.0
 10
58.67279523842857
 20
526.6891021084947
 30
0.0
 10
58.72556651657518
 20
526.6390637669965
 30
0.0
 10
58.78753656753165
 20
526.6144953657152
 30
0.0
  0
SPLINE
  5
27A
330
1F9
100
AcDbEntity
  8
$DDT_AUDIT_GENERATED_(C0)
  6
Continuous
 62
     7
100
AcDbSpline
210
0.0
220
0.0
230
1.0
 70
     8
 71
     3
 72
    10
 73
     6
 74
     0
 42
0.0000000232415388
 43
0.0000000001
 40
0.0
 40
0.0
 40
0.0
 40
0.0
 40
0.5
 40
0.5
 40
1.0
 40
1.0
 40
1.0
 40
1.0
 10
58.73357041854766
 20
526.621906079524
 30
0.0
 10
58.68236334645616
 20
526.6448554306852
 30
0.0
 10
58.63927297031847
 20
526.6934749395813
 30
0.0
 10
58.58339432875959
 20
526.8250360906524
 30
0.0
 10
58.57152123523932
 20
526.9075743033758
 30
0.0
 10
58.57879380725036
 20
526.9901136911456
 30
0.0
  0
ELLIPSE
  5
27B
330
1F9
100
AcDbEntity
  8
$DDT_AUDIT_GENERATED_(C0)
  6
Continuous
 62
     7
100
AcDbEllipse
 10
58.8350494682
 20
526.7955934435
 30
0.0
 11
-0.08179472949644551
 21
-0.1825092387430626
 31
0.0
210
0.0
220
0.0
230
1.0
 40
0.9075941666
 41
0.0000000000002102
 42
0.4586732027713498
  0
ELLIPSE
  5
27C
330
1F9
100
AcDbEntity
  8
$DDT_AUDIT_GENERATED_(C0)
  6
Continuous
 62
     7
100
AcDbEllipse
 10
58.815365148
 20
526.8044153183
 30
0.0
 11
-0.0817947294972643
 21
-0.1825092387427434
 31
0.0
210
0.0
220
0.0
230
1.0
 40
0.6812343566
 41
0.0
 42
0.3937954132729845
  0
LINE
  5
27D
330
1F9
100
AcDbEntity
  8
$DDT_AUDIT_GENERATED_(C0)
  6
Continuous
 62
     7
100
AcDbLine
 10
108.1863405023
 20
527.0304894242
 30
0.0
 11
108.2818370528
 21
532.5014831381
 31
0.0
  0
ARC
  5
27E
330
1F9
100
AcDbEntity
  8
$DDT_AUDIT_GENERATED_(C0)
  6
Continuous
 62
     7
100
AcDbCircle
 10
107.7864014243
 20
527.0374703867
 30
0.0
 40
0.4000000000000018
100
AcDbArc
 50
294.1403772338
 51
359.0
  0
LINE
  5
27F
330
1F9
100
AcDbEntity
  8
$DDT_AUDIT_GENERATED_(C0)
  6
Continuous
 62
     7
100
AcDbLine
 10
107.8372075663
 20
526.6219060795
 30
0.0
 11
107.9499908833
 21
526.6724519093
 31
0.0
  0
ELLIPSE
  5
280
330
1F9
100
AcDbEntity
  8
$DDT_AUDIT_GENERATED_(C0)
  6
Continuous
 62
     7
100
AcDbEllipse
 10
107.4839900236
 20
526.9019393918
 30
0.0
 11
0.702349408656322
 21
0.1285632465682102
 31
0.0
210
0.0
220
0.0
230
1.0
 40
0.0095835767
 41
5.519171183072967
 42
6.281257619437532
  0
ELLIPSE
  5
281
330
1F9
100
AcDbEntity
  8
$DDT_AUDIT_GENERATED_(C0)
  6
Continuous
 62
     7
100
AcDbEllipse
 10
107.4850147695
 20
526.960647045
 30
0.0
 11
0.699985447587495
 21
-0.006936696240638847
 31
0.0
210
0.0
220
0.0
230
1.0
 40
0.0713991769
 41
0.7615478019034606
 42
1.569953105823419
  0
LINE
  5
282
330
1F9
100
AcDbEntity
  8
$DDT_AUDIT_GENERATED_(C0)
  6
Continuous
 62
     7
100
AcDbLine
 10
107.486100286
 20
527.0106195628
 30
0.0
 11
107.486100286
 21
526.6245724271
 31
0.0
  0
ELLIPSE
  5
283
330
1F9
100
AcDbEntity
  8
$DDT_AUDIT_GENERATED_(C0)
  6
Continuous
 62
     7
100
AcDbEllipse
 10
107.4850147695
 20
526.5676189467
 30
0.0
 11
0.3000476453569323
 21
0.0002137482650642689
 31
0.0
210
0.0
220
0.0
230
0.9999999999999998
 40
0.189813452
 41
0.5814738152711901
 42
1.567043285448708
  0
ELLIPSE
  5
284
330
1F9
100
AcDbEntity
  8
$DDT_AUDIT_GENERATED_(C0)
  6
Continuous
 62
     7
100
AcDbEllipse
 10
107.7357285166
 20
526.7955934435
 30
0.0
 11
0.08179472949705613
 21
-0.1825092387428943
 31
0.0
210
0.0
220
0.0
230
1.0
 40
0.9075941666
 41
5.8245121044058
 42
6.28318530717944
  0
LINE
  5
285
330
1F9
100
AcDbEntity
  8
$DDT_AUDIT_GENERATED_(C0)
  6
Continuous
 62
     7
100
AcDbLine
 10
107.7357285166
 20
526.5990793944
 30
0.0
 11
100.1702111933
 21
523.2084595703
 31
0.0
  0
LINE
  5
286
330
1F9
100
AcDbEntity
  8
$DDT_AUDIT_GENERATED_(C0)
  6
Continuous
 62
     7
100
AcDbLine
 10
107.8175232461
 20
526.6130842048
 30
0.0
 11
107.8372075663
 21
526.6219060795
 31
0.0
  0
ELLIPSE
  5
287
330
1F9
100
AcDbEntity
  8
$DDT_AUDIT_GENERATED_(C0)
  6
Continuous
 62
     7
100
AcDbEllipse
 10
107.7554128368
 20
526.8044153183
 30
0.0
 11
0.08179472949752797
 21
-0.1825092387427686
 31
0.0
210
0.0
220
0.0
230
0.9999999999999998
 40
0.6812343566
 41
5.889389893905937
 42
6.283185307179586
  0
LINE
  5
288
330
1F9
100
AcDbEntity
  8
$DDT_AUDIT_GENERATED_(C0)
  6
Continuous
 62
     7
100
AcDbLine
 10
107.7832414173
 20
526.6144953657
 30
0.0
 11
107.7357285166
 21
526.5990793944
 31
0.0
  0
SPLINE
  5
289
330
1F9
100
AcDbEntity
  8
$DDT_AUDIT_GENERATED_(C0)
  6
Continuous
 62
     7
100
AcDbSpline
210
0.0
220
0.0
230
1.0
 70
     8
 71
     3
 72
    10
 73
     6
 74
     0
 42
0.0000000216607214
 43
0.0000000001
 40
0.0
 40
0.0
 40
0.0
 40
0.0
 40
0.5
 40
0.5
 40
1.0
 40
1.0
 40
1.0
 40
1.0
 10
107.9919841775694
 20
526.9901136911456
 30
0.0
 10
107.9915609742206
 20
526.9063726694839
 30
0.0
 10
107.9717066838531
 20
526.8231975648633
 30
0.0
 10
107.8979827463912
 20
526.6891021084947
 30
0.0
 10
107.8452114682446
 20
526.6390637669965
 30
0.0
 10
107.7832414172882
 20
526.6144953657152
 30
0.0
  0
SPLINE
  5
28A
330
1F9
100
AcDbEntity
  8
$DDT_AUDIT_GENERATED_(C0)
  6
Continuous
 62
     7
100
AcDbSpline
210
0.0
220
0.0
230
1.0
 70
     8
 71
     3
 72
    10
 73
     6
 74
     0
 42
0.0000000232415388
 43
0.0000000001
 40
0.0
 40
0.0
 40
0.0
 40
0.0
 40
0.5
 40
0.5
 40
1.0
 40
1.0
 40
1.0
 40
1.0
 10
107.8372075662721
 20
526.621906079524
 30
0.0
 10
107.8884146383636
 20
526.6448554306852
 30
0.0
 10
107.9315050145013
 20
526.6934749395813
 30
0.0
 10
107.9873836560602
 20
526.8250360906522
 30
0.0
 10
107.9992567495805
 20
526.9075743033757
 30
0.0
 10
107.9919841775694
 20
526.9901136911456
 30
0.0
  0
LINE
  5
28B
330
1F9
100
AcDbEntity
  8
$DDT_AUDIT_GENERATED_(C0)
  6
Continuous
 62
     7
100
AcDbLine
 10
107.5819436662
 20
532.7049736194
 30
0.0
 11
108.0818675138
 21
532.7049736194
 31
0.0
  0
LINE
  5
28C
330
1F9
100
AcDbEntity
  8
$DDT_AUDIT_GENERATED_(C0)
  6
Continuous
 62
     7
100
AcDbLine
 10
58.9888343186
 20
532.7049736194
 30
0.0
 11
107.5819436662
 21
532.7049736194
 31
0.0
  0
LINE
  5
28D
330
1F9
100
AcDbEntity
  8
$DDT_AUDIT_GENERATED_(C0)
  6
Continuous
 62
     7
100
AcDbLine
 10
58.488910471
 20
532.7049736194
 30
0.0
 11
58.9888343186
 21
532.7049736194
 31
0.0
  0
LINE
  5
28E
330
1F9
100
AcDbEntity
  8
$DDT_AUDIT_GENERATED_(C0)
  6
Continuous
 62
     7
100
AcDbLine
 10
58.9888343186
 20
532.5014831381
 30
0.0
 11
59.0846776988
 21
527.0106195628
 31
0.0
  0
LINE
  5
28F
330
1F9
100
AcDbEntity
  8
$DDT_AUDIT_GENERATED_(C0)
  6
Continuous
 62
     7
100
AcDbLine
 10
107.5819436662
 20
532.5014831381
 30
0.0
 11
107.486100286
 21
527.0106195628
 31
0.0
  0
ARC
  5
290
330
1F9
100
AcDbEntity
  8
$DDT_AUDIT_GENERATED_(C0)
  6
Continuous
 62
     7
100
AcDbCircle
 10
108.0818675138
 20
532.5049736194
 30
0.0
 40
0.2000000000000217
100
AcDbArc
 50
359.0
 51
90.0
  0
ARC
  5
291
330
1F9
100
AcDbEntity
  8
$DDT_AUDIT_GENERATED_(C0)
  6
Continuous
 62
     7
100
AcDbCircle
 10
58.488910471
 20
532.5049736194
 30
0.0
 40
0.2000000000000079
100
AcDbArc
 50
90.0
 51
181.0
  0
LINE
  5
292
330
1F9
100
AcDbEntity
  8
$DDT_AUDIT_GENERATED_(C0)
  6
Continuous
 62
     7
100
AcDbLine
 10
66.318772062
 20
523.2224643807
 30
0.0
 11
58.7532547387
 21
526.6130842048
 31
0.0
  0
LINE
  5
293
330
1F9
100
AcDbEntity
  8
$DDT_AUDIT_GENERATED_(C0)
  6
Continuous
 62
     7
100
AcDbLine
 10
100.1702111933
 20
523.2049736194
 30
0.0
 11
66.4005667915
 21
523.2049736194
 31
0.0
  0
ELLIPSE
  5
294
330
1F9
100
AcDbEntity
  8
$DDT_AUDIT_GENERATED_(C0)
  6
Continuous
 62
     7
100
AcDbEllipse
 10
66.4005667915
 20
523.4049736194
 30
0.0
 11
-0.08179472949705613
 21
-0.1825092387428597
 31
0.0
210
0.0
220
0.0
230
0.9999999999999999
 40
0.9075941666
 41
0.0
 42
0.4586732027745048
  0
LINE
  5
295
330
1F9
100
AcDbEntity
  8
$DDT_AUDIT_GENERATED_(C0)
  6
Continuous
 62
     7
100
AcDbLine
 10
66.4005667915
 20
523.2084595703
 30
0.0
 11
100.1702111933
 21
523.2084595703
 31
0.0
  0
LINE
  5
296
330
1F9
100
AcDbEntity
  8
$DDT_AUDIT_GENERATED_(C0)
  6
Continuous
 62
     7
100
AcDbLine
 10
100.2520059228
 20
523.2224643807
 30
0.0
 11
107.8175232461
 21
526.6130842048
 31
0.0
  0
ELLIPSE
  5
297
330
1F9
100
AcDbEntity
  8
$DDT_AUDIT_GENERATED_(C0)
  6
Continuous
 62
     7
100
AcDbEllipse
 10
100.1702111933
 20
523.4049736194
 30
0.0
 11
-0.08179472949756962
 21
0.1825092387426949
 31
0.0
210
0.0
220
0.0
230
1.0
 40
0.9075941666
 41
2.682919450812646
 42
3.141592653589793
  0
ARC
  5
298
330
1F9
100
AcDbEntity
  8
$DDT_AUDIT_GENERATED_(C0)
  6
Continuous
 62
     7
100
AcDbCircle
 10
100.1702111933
 20
523.4049736194
 30
0.0
 40
0.2000000000000005
100
AcDbArc
 50
270.0
 51
294.1403772338
  0
LINE
  5
299
330
1F9
100
AcDbEntity
  8
$DDT_AUDIT_GENERATED_(C0)
  6
Continuous
 62
     7
100
AcDbLine
 10
100.1702111933
 20
523.2049736194
 30
0.0
 11
100.1702111933
 21
523.2084595703
 31
0.0
  0
LINE
  5
29A
330
1F9
100
AcDbEntity
  8
$DDT_AUDIT_GENERATED_(C0)
  6
Continuous
 62
     7
100
AcDbLine
 10
66.4005667915
 20
523.2049736194
 30
0.0
 11
66.4005667915
 21
523.2084595703
 31
0.0
  0
ARC
  5
29B
330
1F9
100
AcDbEntity
  8
$DDT_AUDIT_GENERATED_(C0)
  6
Continuous
 62
     7
100
AcDbCircle
 10
66.4005667915
 20
523.4049736194
 30
0.0
 40
0.2000000000000005
100
AcDbArc
 50
245.8596227662
 51
270.0
  0
LINE
  5
29C
330
1F9
100
AcDbEntity
  8
$DDT_AUDIT_GENERATED_(1F1)
  6
Continuous
 62
     7
100
AcDbLine
 10
88.8853889924
 20
523.0049736194
 30
0.0
 11
77.6853889924
 21
523.0049736194
 31
0.0
  0
LINE
  5
29D
330
1F9
100
AcDbEntity
  8
$DDT_AUDIT_GENERATED_(1F1)
  6
Continuous
 62
     7
100
AcDbLine
 10
88.8853889924
 20
522.9049736194
 30
0.0
 11
88.8853889924
 21
523.0049736194
 31
0.0
  0
LINE
  5
29E
330
1F9
100
AcDbEntity
  8
$DDT_AUDIT_GENERATED_(1F1)
  6
Continuous
 62
     7
100
AcDbLine
 10
77.6853889924
 20
523.0049736194
 30
0.0
 11
77.6853889924
 21
522.9049736194
 31
0.0
  0
LINE
  5
29F
330
1F9
100
AcDbEntity
  8
$DDT_AUDIT_GENERATED_(1F1)
  6
Continuous
 62
     7
100
AcDbLine
 10
88.8853889924
 20
523.0049736194
 30
0.0
 11
88.6853889924
 21
523.2049736194
 31
0.0
  0
LINE
  5
2A0
330
1F9
100
AcDbEntity
  8
$DDT_AUDIT_GENERATED_(1F1)
  6
Continuous
 62
     7
100
AcDbLine
 10
77.8853889924
 20
523.2049736194
 30
0.0
 11
77.6853889924
 21
523.0049736194
 31
0.0
  0
ENDBLK
  5
2A2
330
1F9
100
AcDbEntity
  8
0
100
AcDbBlockEnd
  0
ENDSEC
  0
SECTION
  2
ENTITIES
  0
INSERT
  5
5F
330
1F
100
AcDbEntity
  8
Default
100
AcDbBlockReference
  2
SEANNOT_GROUP
 10
0.0
 20
0.0
 30
0.0
  0
INSERT
  5
66
330
1F
100
AcDbEntity
  8
Default
100
AcDbBlockReference
  2
SEANNOT_GROUP1
 10
0.0
 20
0.0
 30
0.0
  0
INSERT
  5
6C
330
1F
100
AcDbEntity
  8
Default
100
AcDbBlockReference
  2
SEANNOT_GROUP2
 10
0.0
 20
0.0
 30
0.0
  0
INSERT
  5
72
330
1F
100
AcDbEntity
  8
Default
100
AcDbBlockReference
  2
SEANNOT_GROUP3
 10
0.0
 20
0.0
 30
0.0
  0
INSERT
  5
78
330
1F
100
AcDbEntity
  8
Default
100
AcDbBlockReference
  2
SEANNOT_GROUP4
 10
0.0
 20
0.0
 30
0.0
  0
INSERT
  5
7D
330
1F
100
AcDbEntity
  8
Default
100
AcDbBlockReference
  2
SEANNOT_GROUP5
 10
0.0
 20
0.0
 30
0.0
  0
INSERT
  5
82
330
1F
100
AcDbEntity
  8
Default
100
AcDbBlockReference
  2
SEANNOT_GROUP6
 10
0.0
 20
0.0
 30
0.0
  0
INSERT
  5
87
330
1F
100
AcDbEntity
  8
Default
100
AcDbBlockReference
  2
SEANNOT_GROUP7
 10
0.0
 20
0.0
 30
0.0
  0
INSERT
  5
8C
330
1F
100
AcDbEntity
  8
Default
100
AcDbBlockReference
  2
SEANNOT_GROUP8
 10
0.0
 20
0.0
 30
0.0
  0
INSERT
  5
91
330
1F
100
AcDbEntity
  8
Default
100
AcDbBlockReference
  2
SEANNOT_GROUP9
 10
0.0
 20
0.0
 30
0.0
  0
INSERT
  5
96
330
1F
100
AcDbEntity
  8
Default
100
AcDbBlockReference
  2
SE
 10
0.0
 20
0.0
 30
0.0
  0
INSERT
  5
197
330
1F
100
AcDbEntity
  8
Default
100
AcDbBlockReference
  2
SE1
 10
0.0
 20
0.0
 30
0.0
  0
INSERT
  5
1FA
330
1F
100
AcDbEntity
  8
Default
100
AcDbBlockReference
  2
SE2
 10
0.0
 20
0.0
 30
0.0
  0
TEXT
  5
2A4
330
1F
100
AcDbEntity
  8
Default
  6
Continuous
 62
     7
100
AcDbText
 10
5.9362635081
 20
53.4225120485
 30
0.0
 40
10.0
  1
Grohe AG^J
  7
SEACAD_seiso_ttf
 11
5.9362635081
 21
63.4225120485
 31
0.0
100
AcDbText
 73
     3
  0
TEXT
  5
2A5
330
1F
100
AcDbEntity
  8
Default
  6
Continuous
 62
     7
100
AcDbText
 10
5.9362635081
 20
37.0588756849
 30
0.0
 40
10.0
  1
 
  7
SEACAD_seiso_ttf
 11
5.9362635081
 21
47.0588756849
 31
0.0
100
AcDbText
 73
     3
  0
TEXT
  5
2A6
330
1F
100
AcDbEntity
  8
Default
  6
Continuous
 62
     7
100
AcDbText
 10
5.9362635081
 20
20.6952393213
 30
0.0
 40
10.0
  1
ecn: 
  7
SEACAD_seiso_ttf
 11
5.9362635081
 21
30.6952393213
 31
0.0
100
AcDbText
 73
     3
  0
TEXT
  5
2A7
330
1F
100
AcDbEntity
  8
Default
  6
Continuous
 62
     7
100
AcDbText
 10
5.9362635081
 20
4.3316029576
 30
0.0
 40
10.0
  1
unit: mm
  7
SEACAD_seiso_ttf
 11
5.9362635081
 21
14.3316029576
 31
0.0
100
AcDbText
 73
     3
  0
LINE
  5
2A8
330
1F
100
AcDbEntity
  8
Default
  6
Continuous
 62
     7
100
AcDbLine
 10
0.0
 20
0.0
 30
0.0
 11
100.0
 21
0.0
 31
0.0
  0
LINE
  5
2A9
330
1F
100
AcDbEntity
  8
Default
  6
Continuous
 62
     7
100
AcDbLine
 10
0.0
 20
0.0
 30
0.0
 11
0.0
 21
100.0
 31
0.0
  0
TEXT
  5
2AA
330
1F
100
AcDbEntity
  8
Default
  6
Continuous
 62
     7
100
AcDbText
 10
24.3923665681
 20
-18.2375342018
 30
0.0
 40
10.0
  1
100 mm
  7
SEACAD_seiso_ttf
 11
24.3923665681
 21
-8.2375342018
 31
0.0
100
AcDbText
 73
     3
  0
TEXT
  5
2AB
330
1F
100
AcDbEntity
  8
Default
  6
Continuous
 62
     7
100
AcDbText
 10
-7.6150308803
 20
24.6231930421
 30
0.0
 40
10.0
  1
100 mm
 50
90.0
  7
SEACAD_seiso_ttf
 11
-17.6150308803
 21
24.6231930421
 31
0.0
100
AcDbText
 73
     3
  0
TEXT
  5
2AC
330
1F
100
AcDbEntity
  8
Default
  6
Continuous
 62
     7
100
AcDbText
 10
28.4878128572
 20
20.0907663715
 30
0.0
 40
10.0
  1
221386
  7
SEACAD_seiso_ttf
 11
28.4878128572
 21
30.0907663715
 31
0.0
100
AcDbText
 73
     3
  0
TEXT
  5
2AD
330
1F
100
AcDbEntity
  8
Default
  6
Continuous
 62
     7
100
AcDbText
 10
5.9012241913
 20
36.7242780188
 30
0.0
 40
10.0
  1
20348000
  7
SEACAD_seiso_ttf
 11
5.9012241913
 21
46.7242780188
 31
0.0
100
AcDbText
 73
     3
  0
ENDSEC
  0
SECTION
  2
OBJECTS
  0
DICTIONARY
  5
C
330
0
100
AcDbDictionary
281
     1
  3
ACAD_GROUP
350
D
  3
ACAD_LAYOUT
350
1A
  3
ACAD_MLEADERSTYLE
350
2B1
  3
ACAD_MLINESTYLE
350
17
  3
ACAD_PLOTSETTINGS
350
19
  3
ACAD_PLOTSTYLENAME
350
E
  3
ACAD_SCALELIST
350
3B
  3
ACAD_TABLESTYLE
350
2B0
  3
ACAD_VISUALSTYLE
350
2A
  3
AcDbVariableDictionary
350
2AE
  0
DICTIONARY
  5
D
102
{ACAD_REACTORS
330
C
102
}
330
C
100
AcDbDictionary
281
     1
  0
DICTIONARY
  5
1A
102
{ACAD_REACTORS
330
C
102
}
330
C
100
AcDbDictionary
281
     1
  3
Layout1
350
1E
  3
Model
350
22
  0
DICTIONARY
  5
2B1
102
{ACAD_REACTORS
330
C
102
}
330
C
100
AcDbDictionary
281
     1
  0
DICTIONARY
  5
17
102
{ACAD_REACTORS
330
C
102
}
330
C
100
AcDbDictionary
281
     1
  3
Standard
350
18
  0
DICTIONARY
  5
19
102
{ACAD_REACTORS
330
C
102
}
330
C
100
AcDbDictionary
281
     1
  0
ACDBDICTIONARYWDFLT
  5
E
102
{ACAD_REACTORS
330
C
102
}
330
C
100
AcDbDictionary
281
     1
  3
Normal
350
F
100
AcDbDictionaryWithDefault
340
F
  0
DICTIONARY
  5
3B
102
{ACAD_REACTORS
330
C
102
}
330
C
100
AcDbDictionary
281
     1
  3
A0
350
3C
  3
A1
350
3D
  3
A2
350
3E
  3
A3
350
3F
  3
A4
350
40
  3
A5
350
41
  3
A6
350
42
  3
A7
350
43
  3
A8
350
44
  3
A9
350
45
  3
B0
350
46
  3
B1
350
47
  3
B2
350
48
  3
B3
350
49
  3
B4
350
4A
  3
B5
350
4B
  3
B6
350
4C
  3
B7
350
4D
  3
B8
350
4E
  3
B9
350
4F
  3
C0
350
50
  3
C1
350
51
  3
C2
350
52
  3
C3
350
53
  3
C4
350
54
  3
C5
350
55
  3
C6
350
56
  3
C7
350
57
  3
C8
350
58
  3
C9
350
59
  3
D0
350
5A
  3
D1
350
5B
  3
D2
350
5C
  0
DICTIONARY
  5
2B0
102
{ACAD_REACTORS
330
C
102
}
330
C
100
AcDbDictionary
281
     1
  0
DICTIONARY
  5
2A
102
{ACAD_REACTORS
330
C
102
}
330
C
100
AcDbDictionary
281
     1
  3
2dWireframe
350
2F
  3
3D Hidden
350
31
  3
3dWireframe
350
30
  3
Basic
350
32
  3
Brighten
350
36
  3
ColorChange
350
3A
  3
Conceptual
350
34
  3
Dim
350
35
  3
Facepattern
350
39
  3
Flat
350
2B
  3
FlatWithEdges
350
2C
  3
Gouraud
350
2D
  3
GouraudWithEdges
350
2E
  3
Linepattern
350
38
  3
Realistic
350
33
  3
Thicken
350
37
  0
DICTIONARY
  5
2AE
102
{ACAD_REACTORS
330
C
102
}
330
C
100
AcDbDictionary
281
     1
  3
CANNOSCALE
350
2AF
  3
PSOLHEIGHT
350
2B3
  3
PSOLWIDTH
350
2B2
  0
LAYOUT
  5
1E
102
{ACAD_REACTORS
330
1A
102
}
330
1A
100
AcDbPlotSettings
  1

  2
none_device
  4

  6

 40
0.0
 41
0.0
 42
0.0
 43
0.0
 44
0.0
 45
0.0
 46
0.0
 47
0.0
 48
0.0
 49
0.0
140
0.0
141
0.0
142
1.0
143
1.0
 70
   688
 72
     0
 73
     0
 74
     5
  7

 75
    16
147
1.0
148
0.0
149
0.0
100
AcDbLayout
  1
Layout1
 70
     1
 71
     1
 10
0.0
 20
0.0
 11
1682.0
 21
2378.0
 12
0.0
 22
0.0
 32
0.0
 14
0.0
 24
0.0
 34
0.0
 15
1682.0
 25
2378.0
 35
0.0
146
0.0
 13
0.0
 23
0.0
 33
0.0
 16
1.0
 26
0.0
 36
0.0
 17
0.0
 27
1.0
 37
0.0
 76
     0
330
1B
  0
LAYOUT
  5
22
102
{ACAD_REACTORS
330
1A
102
}
330
1A
100
AcDbPlotSettings
  1

  2
none_device
  4

  6

 40
0.0
 41
0.0
 42
0.0
 43
0.0
 44
0.0
 45
0.0
 46
0.0
 47
0.0
 48
0.0
 49
0.0
140
0.0
141
0.0
142
1.0
143
1.0
 70
  1712
 72
     0
 73
     0
 74
     0
  7

 75
     0
147
1.0
148
0.0
149
0.0
100
AcDbLayout
  1
Model
 70
     1
 71
     0
 10
0.0
 20
0.0
 11
1682.0
 21
2378.0
 12
0.0
 22
0.0
 32
0.0
 14
0.0
 24
0.0
 34
0.0
 15
1682.0
 25
2378.0
 35
0.0
146
0.0
 13
0.0
 23
0.0
 33
0.0
 16
1.0
 26
0.0
 36
0.0
 17
0.0
 27
1.0
 37
0.0
 76
     0
330
1F
331
29
  0
MLINESTYLE
  5
18
102
{ACAD_REACTORS
330
17
102
}
330
17
100
AcDbMlineStyle
  2
Standard
 70
     0
  3

 62
   256
 51
90.0
 52
90.0
 71
     2
 49
0.5
 62
   256
  6
BYLAYER
 49
-0.5
 62
   256
  6
BYLAYER
  0
ACDBPLACEHOLDER
  5
F
102
{ACAD_REACTORS
330
E
102
}
330
E
  0
SCALE
  5
3C
102
{ACAD_REACTORS
330
3B
102
}
330
3B
100
AcDbScale
 70
     0
300
1:1
140
1.0
141
1.0
290
     1
  0
SCALE
  5
3D
102
{ACAD_REACTORS
330
3B
102
}
330
3B
100
AcDbScale
 70
     0
300
1:2
140
1.0
141
2.0
290
     0
  0
SCALE
  5
3E
102
{ACAD_REACTORS
330
3B
102
}
330
3B
100
AcDbScale
 70
     0
300
1:4
140
1.0
141
4.0
290
     0
  0
SCALE
  5
3F
102
{ACAD_REACTORS
330
3B
102
}
330
3B
100
AcDbScale
 70
     0
300
1:5
140
1.0
141
5.0
290
     0
  0
SCALE
  5
40
102
{ACAD_REACTORS
330
3B
102
}
330
3B
100
AcDbScale
 70
     0
300
1:8
140
1.0
141
8.0
290
     0
  0
SCALE
  5
41
102
{ACAD_REACTORS
330
3B
102
}
330
3B
100
AcDbScale
 70
     0
300
1:10
140
1.0
141
10.0
290
     0
  0
SCALE
  5
42
102
{ACAD_REACTORS
330
3B
102
}
330
3B
100
AcDbScale
 70
     0
300
1:16
140
1.0
141
16.0
290
     0
  0
SCALE
  5
43
102
{ACAD_REACTORS
330
3B
102
}
330
3B
100
AcDbScale
 70
     0
300
1:20
140
1.0
141
20.0
290
     0
  0
SCALE
  5
44
102
{ACAD_REACTORS
330
3B
102
}
330
3B
100
AcDbScale
 70
     0
300
1:30
140
1.0
141
30.0
290
     0
  0
SCALE
  5
45
102
{ACAD_REACTORS
330
3B
102
}
330
3B
100
AcDbScale
 70
     0
300
1:40
140
1.0
141
40.0
290
     0
  0
SCALE
  5
46
102
{ACAD_REACTORS
330
3B
102
}
330
3B
100
AcDbScale
 70
     0
300
1:50
140
1.0
141
50.0
290
     0
  0
SCALE
  5
47
102
{ACAD_REACTORS
330
3B
102
}
330
3B
100
AcDbScale
 70
     0
300
1:100
140
1.0
141
100.0
290
     0
  0
SCALE
  5
48
102
{ACAD_REACTORS
330
3B
102
}
330
3B
100
AcDbScale
 70
     0
300
2:1
140
2.0
141
1.0
290
     0
  0
SCALE
  5
49
102
{ACAD_REACTORS
330
3B
102
}
330
3B
100
AcDbScale
 70
     0
300
4:1
140
4.0
141
1.0
290
     0
  0
SCALE
  5
4A
102
{ACAD_REACTORS
330
3B
102
}
330
3B
100
AcDbScale
 70
     0
300
8:1
140
8.0
141
1.0
290
     0
  0
SCALE
  5
4B
102
{ACAD_REACTORS
330
3B
102
}
330
3B
100
AcDbScale
 70
     0
300
10:1
140
10.0
141
1.0
290
     0
  0
SCALE
  5
4C
102
{ACAD_REACTORS
330
3B
102
}
330
3B
100
AcDbScale
 70
     0
300
100:1
140
100.0
141
1.0
290
     0
  0
SCALE
  5
4D
102
{ACAD_REACTORS
330
3B
102
}
330
3B
100
AcDbScale
 70
     0
300
1/128" = 1'-0"
140
0.0078125
141
12.0
290
     0
  0
SCALE
  5
4E
102
{ACAD_REACTORS
330
3B
102
}
330
3B
100
AcDbScale
 70
     0
300
1/64" = 1'-0"
140
0.015625
141
12.0
290
     0
  0
SCALE
  5
4F
102
{ACAD_REACTORS
330
3B
102
}
330
3B
100
AcDbScale
 70
     0
300
1/32" = 1'-0"
140
0.03125
141
12.0
290
     0
  0
SCALE
  5
50
102
{ACAD_REACTORS
330
3B
102
}
330
3B
100
AcDbScale
 70
     0
300
1/16" = 1'-0"
140
0.0625
141
12.0
290
     0
  0
SCALE
  5
51
102
{ACAD_REACTORS
330
3B
102
}
330
3B
100
AcDbScale
 70
     0
300
3/32" = 1'-0"
140
0.09375
141
12.0
290
     0
  0
SCALE
  5
52
102
{ACAD_REACTORS
330
3B
102
}
330
3B
100
AcDbScale
 70
     0
300
1/8" = 1'-0"
140
0.125
141
12.0
290
     0
  0
SCALE
  5
53
102
{ACAD_REACTORS
330
3B
102
}
330
3B
100
AcDbScale
 70
     0
300
3/16" = 1'-0"
140
0.1875
141
12.0
290
     0
  0
SCALE
  5
54
102
{ACAD_REACTORS
330
3B
102
}
330
3B
100
AcDbScale
 70
     0
300
1/4" = 1'-0"
140
0.25
141
12.0
290
     0
  0
SCALE
  5
55
102
{ACAD_REACTORS
330
3B
102
}
330
3B
100
AcDbScale
 70
     0
300
3/8" = 1'-0"
140
0.375
141
12.0
290
     0
  0
SCALE
  5
56
102
{ACAD_REACTORS
330
3B
102
}
330
3B
100
AcDbScale
 70
     0
300
1/2" = 1'-0"
140
0.5
141
12.0
290
     0
  0
SCALE
  5
57
102
{ACAD_REACTORS
330
3B
102
}
330
3B
100
AcDbScale
 70
     0
300
3/4" = 1'-0"
140
0.75
141
12.0
290
     0
  0
SCALE
  5
58
102
{ACAD_REACTORS
330
3B
102
}
330
3B
100
AcDbScale
 70
     0
300
1" = 1'-0"
140
1.0
141
12.0
290
     0
  0
SCALE
  5
59
102
{ACAD_REACTORS
330
3B
102
}
330
3B
100
AcDbScale
 70
     0
300
1-1/2" = 1'-0"
140
1.5
141
12.0
290
     0
  0
SCALE
  5
5A
102
{ACAD_REACTORS
330
3B
102
}
330
3B
100
AcDbScale
 70
     0
300
3" = 1'-0"
140
3.0
141
12.0
290
     0
  0
SCALE
  5
5B
102
{ACAD_REACTORS
330
3B
102
}
330
3B
100
AcDbScale
 70
     0
300
6" = 1'-0"
140
6.0
141
12.0
290
     0
  0
SCALE
  5
5C
102
{ACAD_REACTORS
330
3B
102
}
330
3B
100
AcDbScale
 70
     0
300
1'-0" = 1'-0"
140
12.0
141
12.0
290
     0
  0
VISUALSTYLE
  5
2F
102
{ACAD_REACTORS
330
2A
102
}
330
2A
100
AcDbVisualStyle
  2
2dWireframe
 70
     4
 71
     0
 72
     2
 73
     0
 90
        0
 40
-0.6
 41
-30.0
 62
     5
 63
     7
 74
     1
 91
        4
 64
     7
 65
   257
 75
     1
175
     1
 42
1.0
 92
        0
 66
   257
 43
1.0
 76
     1
 77
     6
 78
     2
 67
     7
 79
     5
170
     0
171
     0
290
     0
174
     0
 93
        1
 44
0.0
173
     0
291
     0
 45
0.0
1001
ACAD
1000
AcDbSavedByObjectVersion
1070
     0
  0
VISUALSTYLE
  5
31
102
{ACAD_REACTORS
330
2A
102
}
330
2A
100
AcDbVisualStyle
  2
3D Hidden
 70
     6
 71
     1
 72
     2
 73
     2
 90
        0
 40
-0.6
 41
-30.0
 62
     5
 63
     7
 74
     2
 91
        2
 64
     7
 65
   257
 75
     2
175
     1
 42
40.0
 92
        0
 66
   257
 43
1.0
 76
     1
 77
     6
 78
     2
 67
     7
 79
     3
170
     0
171
     0
290
     0
174
     0
 93
        1
 44
0.0
173
     0
291
     0
 45
0.0
1001
ACAD
1000
AcDbSavedByObjectVersion
1070
     0
  0
VISUALSTYLE
  5
30
102
{ACAD_REACTORS
330
2A
102
}
330
2A
100
AcDbVisualStyle
  2
3dWireframe
 70
     5
 71
     0
 72
     2
 73
     0
 90
        0
 40
-0.6
 41
-30.0
 62
     5
 63
     7
 74
     1
 91
        4
 64
     7
 65
   257
 75
     1
175
     1
 42
1.0
 92
        0
 66
   257
 43
1.0
 76
     1
 77
     6
 78
     2
 67
     7
 79
     5
170
     0
171
     0
290
     0
174
     0
 93
        1
 44
0.0
173
     0
291
     0
 45
0.0
1001
ACAD
1000
AcDbSavedByObjectVersion
1070
     0
  0
VISUALSTYLE
  5
32
102
{ACAD_REACTORS
330
2A
102
}
330
2A
100
AcDbVisualStyle
  2
Basic
 70
     7
 71
     1
 72
     0
 73
     1
 90
        0
 40
-0.6
 41
-30.0
 62
     5
 63
     7
 74
     0
 91
        4
 64
     7
 65
   257
 75
     1
175
     1
 42
1.0
 92
        8
 66
     7
 43
1.0
 76
     1
 77
     6
 78
     2
 67
     7
 79
     5
170
     0
171
     0
290
     0
174
     0
 93
        1
 44
0.0
173
     0
291
     1
 45
0.0
1001
ACAD
1000
AcDbSavedByObjectVersion
1070
     0
  0
VISUALSTYLE
  5
36
102
{ACAD_REACTORS
330
2A
102
}
330
2A
100
AcDbVisualStyle
  2
Brighten
 70
    12
 71
     2
 72
     2
 73
     0
 90
        0
 40
-0.6
 41
-30.0
 62
     5
 63
     7
 74
     1
 91
        4
 64
     7
 65
   257
 75
     1
175
     1
 42
1.0
 92
        8
 66
     7
 43
1.0
 76
     1
 77
     6
 78
     2
 67
     7
 79
     5
170
     0
171
     0
290
     0
174
     0
 93
        1
 44
50.0
173
     0
291
     1
 45
0.0
1001
ACAD
1000
AcDbSavedByObjectVersion
1070
     0
  0
VISUALSTYLE
  5
3A
102
{ACAD_REACTORS
330
2A
102
}
330
2A
100
AcDbVisualStyle
  2
ColorChange
 70
    16
 71
     2
 72
     2
 73
     3
 90
        0
 40
-0.6
 41
-30.0
 62
     5
 63
     8
 74
     1
 91
        4
 64
     7
 65
   257
 75
     1
175
     1
 42
1.0
 92
        8
 66
     8
 43
1.0
 76
     1
 77
     6
 78
     2
 67
     7
 79
     5
170
     0
171
     0
290
     0
174
     0
 93
        1
 44
0.0
173
     0
291
     1
 45
0.0
1001
ACAD
1000
AcDbSavedByObjectVersion
1070
     0
  0
VISUALSTYLE
  5
34
102
{ACAD_REACTORS
330
2A
102
}
330
2A
100
AcDbVisualStyle
  2
Conceptual
 70
     9
 71
     3
 72
     2
 73
     0
 90
        0
 40
-0.6
 41
-30.0
 62
     5
 63
     7
 74
     2
 91
        2
 64
     7
 65
   257
 75
     1
175
     1
 42
40.0
 92
        8
 66
     7
 43
1.0
 76
     1
 77
     6
 78
     2
 67
     7
 79
     3
170
     0
171
     0
290
     0
174
     0
 93
        1
 44
0.0
173
     0
291
     0
 45
0.0
1001
ACAD
1000
AcDbSavedByObjectVersion
1070
     0
  0
VISUALSTYLE
  5
35
102
{ACAD_REACTORS
330
2A
102
}
330
2A
100
AcDbVisualStyle
  2
Dim
 70
    11
 71
     2
 72
     2
 73
     0
 90
        0
 40
-0.6
 41
-30.0
 62
     5
 63
     7
 74
     1
 91
        4
 64
     7
 65
   257
 75
     1
175
     1
 42
1.0
 92
        8
 66
     7
 43
1.0
 76
     1
 77
     6
 78
     2
 67
     7
 79
     5
170
     0
171
     0
290
     0
174
     0
 93
        1
 44
-50.0
173
     0
291
     1
 45
0.0
1001
ACAD
1000
AcDbSavedByObjectVersion
1070
     0
  0
VISUALSTYLE
  5
39
102
{ACAD_REACTORS
330
2A
102
}
330
2A
100
AcDbVisualStyle
  2
Facepattern
 70
    15
 71
     2
 72
     2
 73
     0
 90
        0
 40
-0.6
 41
-30.0
 62
     5
 63
     7
 74
     1
 91
        4
 64
     7
 65
   257
 75
     1
175
     1
 42
1.0
 92
        8
 66
     7
 43
1.0
 76
     1
 77
     6
 78
     2
 67
     7
 79
     5
170
     0
171
     0
290
     0
174
     0
 93
        1
 44
0.0
173
     0
291
     1
 45
0.0
1001
ACAD
1000
AcDbSavedByObjectVersion
1070
     0
  0
VISUALSTYLE
  5
2B
102
{ACAD_REACTORS
330
2A
102
}
330
2A
100
AcDbVisualStyle
  2
Flat
 70
     0
 71
     2
 72
     1
 73
     1
 90
        2
 40
-0.6
 41
30.0
 62
     5
 63
     7
 74
     0
 91
        4
 64
     7
 65
   257
 75
     1
175
     1
 42
1.0
 92
        8
 66
     7
 43
1.0
 76
     1
 77
     6
 78
     2
 67
     7
 79
     5
170
     0
171
     0
290
     0
174
     0
 93
       13
 44
0.0
173
     0
291
     1
 45
0.0
1001
ACAD
1000
AcDbSavedByObjectVersion
1070
     0
  0
VISUALSTYLE
  5
2C
102
{ACAD_REACTORS
330
2A
102
}
330
2A
100
AcDbVisualStyle
  2
FlatWithEdges
 70
     1
 71
     2
 72
     1
 73
     1
 90
        2
 40
-0.6
 41
30.0
 62
     5
 63
     7
 74
     1
 91
        4
 64
     7
 65
   257
 75
     1
175
     1
 42
1.0
 92
        0
 66
   257
 43
1.0
 76
     1
 77
     6
 78
     2
 67
     7
 79
     5
170
     0
171
     0
290
     0
174
     0
 93
       13
 44
0.0
173
     0
291
     1
 45
0.0
1001
ACAD
1000
AcDbSavedByObjectVersion
1070
     0
  0
VISUALSTYLE
  5
2D
102
{ACAD_REACTORS
330
2A
102
}
330
2A
100
AcDbVisualStyle
  2
Gouraud
 70
     2
 71
     2
 72
     2
 73
     1
 90
        2
 40
-0.6
 41
30.0
 62
     5
 63
     7
 74
     0
 91
        4
 64
     7
 65
   257
 75
     1
175
     1
 42
1.0
 92
        0
 66
     7
 43
1.0
 76
     1
 77
     6
 78
     2
 67
     7
 79
     5
170
     0
171
     0
290
     0
174
     0
 93
       13
 44
0.0
173
     0
291
     1
 45
0.0
1001
ACAD
1000
AcDbSavedByObjectVersion
1070
     0
  0
VISUALSTYLE
  5
2E
102
{ACAD_REACTORS
330
2A
102
}
330
2A
100
AcDbVisualStyle
  2
GouraudWithEdges
 70
     3
 71
     2
 72
     2
 73
     1
 90
        2
 40
-0.6
 41
30.0
 62
     5
 63
     7
 74
     1
 91
        4
 64
     7
 65
   257
 75
     1
175
     1
 42
1.0
 92
        0
 66
   257
 43
1.0
 76
     1
 77
     6
 78
     2
 67
     7
 79
     5
170
     0
171
     0
290
     0
174
     0
 93
       13
 44
0.0
173
     0
291
     1
 45
0.0
1001
ACAD
1000
AcDbSavedByObjectVersion
1070
     0
  0
VISUALSTYLE
  5
38
102
{ACAD_REACTORS
330
2A
102
}
330
2A
100
AcDbVisualStyle
  2
Linepattern
 70
    14
 71
     2
 72
     2
 73
     0
 90
        0
 40
-0.6
 41
-30.0
 62
     5
 63
     7
 74
     1
 91
        4
 64
     7
 65
   257
 75
     7
175
     7
 42
1.0
 92
        8
 66
     7
 43
1.0
 76
     1
 77
     6
 78
     2
 67
     7
 79
     5
170
     0
171
     0
290
     0
174
     0
 93
        1
 44
0.0
173
     0
291
     1
 45
0.0
1001
ACAD
1000
AcDbSavedByObjectVersion
1070
     0
  0
VISUALSTYLE
  5
33
102
{ACAD_REACTORS
330
2A
102
}
330
2A
100
AcDbVisualStyle
  2
Realistic
 70
     8
 71
     2
 72
     2
 73
     0
 90
        0
 40
-0.6
 41
-30.0
 62
     5
 63
     7
 74
     1
 91
        0
 64
     7
 65
   257
 75
     1
175
     1
 42
1.0
 92
        8
 66
     8
 43
1.0
 76
     1
 77
     6
 78
     2
 67
     7
 79
     5
170
     0
171
     0
290
     0
174
     0
 93
       13
 44
0.0
173
     0
291
     0
 45
0.0
1001
ACAD
1000
AcDbSavedByObjectVersion
1070
     0
  0
VISUALSTYLE
  5
37
102
{ACAD_REACTORS
330
2A
102
}
330
2A
100
AcDbVisualStyle
  2
Thicken
 70
    13
 71
     2
 72
     2
 73
     0
 90
        0
 40
-0.6
 41
-30.0
 62
     5
 63
     7
 74
     1
 91
        4
 64
     7
 65
   257
 75
     1
175
     1
 42
1.0
 92
       12
 66
     7
 43
1.0
 76
     1
 77
     6
 78
     2
 67
     7
 79
     5
170
     0
171
     0
290
     0
174
     0
 93
        1
 44
0.0
173
     0
291
     1
 45
0.0
1001
ACAD
1000
AcDbSavedByObjectVersion
1070
     0
  0
DICTIONARYVAR
  5
2AF
102
{ACAD_REACTORS
330
2AE
102
}
330
2AE
100
DictionaryVariables
280
     0
  1
1:1
  0
DICTIONARYVAR
  5
2B3
102
{ACAD_REACTORS
330
2AE
102
}
330
2AE
100
DictionaryVariables
280
     0
  1
80.000000
  0
DICTIONARYVAR
  5
2B2
102
{ACAD_REACTORS
330
2AE
102
}
330
2AE
100
DictionaryVariables
280
     0
  1
5.000000
  0
ENDSEC
  0
EOF
