  0
SECTION
  2
HEADER
  9
$ACADVER
  1
AC1015
  9
$ACADMAINTVER
 70
     6
  9
$DWGCODEPAGE
  3
ANSI_1252
  9
$INSBASE
 10
0.0
 20
0.0
 30
0.0
  9
$EXTMIN
 10
0.0
 20
0.0
 30
0.0
  9
$EXTMAX
 10
1682.0
 20
2378.0
 30
0.0
  9
$LIMMIN
 10
0.0
 20
0.0
  9
$LIMMAX
 10
1682.0
 20
2378.0
  9
$ORTHOMODE
 70
     0
  9
$REGENMODE
 70
     1
  9
$FILLMODE
 70
     1
  9
$QTEXTMODE
 70
     0
  9
$MIRRTEXT
 70
     1
  9
$LTSCALE
 40
1.0
  9
$ATTMODE
 70
     1
  9
$TEXTSIZE
 40
2.5
  9
$TRACEWID
 40
1.0
  9
$TEXTSTYLE
  7
Standard
  9
$CLAYER
  8
0
  9
$CELTYPE
  6
ByLayer
  9
$CECOLOR
 62
   256
  9
$CELTSCALE
 40
1.0
  9
$DISPSILH
 70
     0
  9
$DIMSCALE
 40
1.0
  9
$DIMASZ
 40
2.5
  9
$DIMEXO
 40
0.625
  9
$DIMDLI
 40
3.75
  9
$DIMRND
 40
0.0
  9
$DIMDLE
 40
0.0
  9
$DIMEXE
 40
1.25
  9
$DIMTP
 40
0.0
  9
$DIMTM
 40
0.0
  9
$DIMTXT
 40
2.5
  9
$DIMCEN
 40
2.5
  9
$DIMTSZ
 40
0.0
  9
$DIMTOL
 70
     0
  9
$DIMLIM
 70
     0
  9
$DIMTIH
 70
     0
  9
$DIMTOH
 70
     0
  9
$DIMSE1
 70
     0
  9
$DIMSE2
 70
     0
  9
$DIMTAD
 70
     1
  9
$DIMZIN
 70
     8
  9
$DIMBLK
  1

  9
$DIMASO
 70
     1
  9
$DIMSHO
 70
     1
  9
$DIMPOST
  1

  9
$DIMAPOST
  1

  9
$DIMALT
 70
     0
  9
$DIMALTD
 70
     3
  9
$DIMALTF
 40
0.0393700787
  9
$DIMLFAC
 40
1.0
  9
$DIMTOFL
 70
     1
  9
$DIMTVP
 40
0.0
  9
$DIMTIX
 70
     0
  9
$DIMSOXD
 70
     0
  9
$DIMSAH
 70
     0
  9
$DIMBLK1
  1

  9
$DIMBLK2
  1

  9
$DIMSTYLE
  2
ISO-25
  9
$DIMCLRD
 70
     0
  9
$DIMCLRE
 70
     0
  9
$DIMCLRT
 70
     0
  9
$DIMTFAC
 40
1.0
  9
$DIMGAP
 40
0.625
  9
$DIMJUST
 70
     0
  9
$DIMSD1
 70
     0
  9
$DIMSD2
 70
     0
  9
$DIMTOLJ
 70
     0
  9
$DIMTZIN
 70
     8
  9
$DIMALTZ
 70
     0
  9
$DIMALTTZ
 70
     0
  9
$DIMUPT
 70
     0
  9
$DIMDEC
 70
     2
  9
$DIMTDEC
 70
     2
  9
$DIMALTU
 70
     2
  9
$DIMALTTD
 70
     3
  9
$DIMTXSTY
  7
Standard
  9
$DIMAUNIT
 70
     0
  9
$DIMADEC
 70
     0
  9
$DIMALTRND
 40
0.0
  9
$DIMAZIN
 70
     0
  9
$DIMDSEP
 70
    44
  9
$DIMATFIT
 70
     3
  9
$DIMFRAC
 70
     0
  9
$DIMLDRBLK
  1

  9
$DIMLUNIT
 70
     2
  9
$DIMLWD
 70
    -2
  9
$DIMLWE
 70
    -2
  9
$DIMTMOVE
 70
     0
  9
$LUNITS
 70
     2
  9
$LUPREC
 70
     4
  9
$SKETCHINC
 40
1.0
  9
$FILLETRAD
 40
10.0
  9
$AUNITS
 70
     0
  9
$AUPREC
 70
     0
  9
$MENU
  1
.
  9
$ELEVATION
 40
0.0
  9
$PELEVATION
 40
0.0
  9
$THICKNESS
 40
0.0
  9
$LIMCHECK
 70
     0
  9
$CHAMFERA
 40
10.0
  9
$CHAMFERB
 40
10.0
  9
$CHAMFERC
 40
20.0
  9
$CHAMFERD
 40
0.0
  9
$SKPOLY
 70
     0
  9
$TDCREATE
 40
2455671.607196551
  9
$TDUCREATE
 40
2455671.523863218
  9
$TDUPDATE
 40
2455671.607196562
  9
$TDUUPDATE
 40
2455671.523863229
  9
$TDINDWG
 40
0.0000000116
  9
$TDUSRTIMER
 40
0.0000000116
  9
$USRTIMER
 70
     1
  9
$ANGBASE
 50
0.0
  9
$ANGDIR
 70
     0
  9
$PDMODE
 70
     0
  9
$PDSIZE
 40
0.0
  9
$PLINEWID
 40
0.0
  9
$SPLFRAME
 70
     0
  9
$SPLINETYPE
 70
     6
  9
$SPLINESEGS
 70
     8
  9
$HANDSEED
  5
354
  9
$SURFTAB1
 70
     6
  9
$SURFTAB2
 70
     6
  9
$SURFTYPE
 70
     6
  9
$SURFU
 70
     6
  9
$SURFV
 70
     6
  9
$UCSBASE
  2

  9
$UCSNAME
  2

  9
$UCSORG
 10
0.0
 20
0.0
 30
0.0
  9
$UCSXDIR
 10
1.0
 20
0.0
 30
0.0
  9
$UCSYDIR
 10
0.0
 20
1.0
 30
0.0
  9
$UCSORTHOREF
  2

  9
$UCSORTHOVIEW
 70
     0
  9
$UCSORGTOP
 10
0.0
 20
0.0
 30
0.0
  9
$UCSORGBOTTOM
 10
0.0
 20
0.0
 30
0.0
  9
$UCSORGLEFT
 10
0.0
 20
0.0
 30
0.0
  9
$UCSORGRIGHT
 10
0.0
 20
0.0
 30
0.0
  9
$UCSORGFRONT
 10
0.0
 20
0.0
 30
0.0
  9
$UCSORGBACK
 10
0.0
 20
0.0
 30
0.0
  9
$PUCSBASE
  2

  9
$PUCSNAME
  2

  9
$PUCSORG
 10
0.0
 20
0.0
 30
0.0
  9
$PUCSXDIR
 10
1.0
 20
0.0
 30
0.0
  9
$PUCSYDIR
 10
0.0
 20
1.0
 30
0.0
  9
$PUCSORTHOREF
  2

  9
$PUCSORTHOVIEW
 70
     0
  9
$PUCSORGTOP
 10
0.0
 20
0.0
 30
0.0
  9
$PUCSORGBOTTOM
 10
0.0
 20
0.0
 30
0.0
  9
$PUCSORGLEFT
 10
0.0
 20
0.0
 30
0.0
  9
$PUCSORGRIGHT
 10
0.0
 20
0.0
 30
0.0
  9
$PUCSORGFRONT
 10
0.0
 20
0.0
 30
0.0
  9
$PUCSORGBACK
 10
0.0
 20
0.0
 30
0.0
  9
$USERI1
 70
     0
  9
$USERI2
 70
     0
  9
$USERI3
 70
     0
  9
$USERI4
 70
     0
  9
$USERI5
 70
     0
  9
$USERR1
 40
0.0
  9
$USERR2
 40
0.0
  9
$USERR3
 40
0.0
  9
$USERR4
 40
0.0
  9
$USERR5
 40
0.0
  9
$WORLDVIEW
 70
     1
  9
$SHADEDGE
 70
     3
  9
$SHADEDIF
 70
    70
  9
$TILEMODE
 70
     1
  9
$MAXACTVP
 70
    64
  9
$PINSBASE
 10
0.0
 20
0.0
 30
0.0
  9
$PLIMCHECK
 70
     0
  9
$PEXTMIN
 10
0.0
 20
0.0
 30
0.0
  9
$PEXTMAX
 10
1682.0
 20
2378.0
 30
0.0
  9
$PLIMMIN
 10
0.0
 20
0.0
  9
$PLIMMAX
 10
1682.0
 20
2378.0
  9
$UNITMODE
 70
     0
  9
$VISRETAIN
 70
     1
  9
$PLINEGEN
 70
     0
  9
$PSLTSCALE
 70
     1
  9
$TREEDEPTH
 70
  3020
  9
$CMLSTYLE
  2
Standard
  9
$CMLJUST
 70
     0
  9
$CMLSCALE
 40
20.0
  9
$PROXYGRAPHICS
 70
     1
  9
$MEASUREMENT
 70
     1
  9
$CELWEIGHT
370
    -1
  9
$ENDCAPS
280
     0
  9
$JOINSTYLE
280
     0
  9
$LWDISPLAY
290
     0
  9
$INSUNITS
 70
     4
  9
$HYPERLINKBASE
  1

  9
$STYLESHEET
  1

  9
$XEDIT
290
     1
  9
$CEPSNTYPE
380
     0
  9
$PSTYLEMODE
290
     1
  9
$FINGERPRINTGUID
  2
{D03DAE01-04AA-4CE2-B691-FC87FBD7D200}
  9
$VERSIONGUID
  2
{FAEB1C32-E019-11D5-929B-00C0DF256EC4}
  9
$EXTNAMES
290
     1
  9
$PSVPSCALE
 40
0.0
  9
$OLESTARTUP
290
     0
  0
ENDSEC
  0
SECTION
  2
CLASSES
  0
CLASS
  1
ACDBDICTIONARYWDFLT
  2
AcDbDictionaryWithDefault
  3
ObjectDBX Classes
 90
        0
280
     0
281
     0
  0
CLASS
  1
VISUALSTYLE
  2
AcDbVisualStyle
  3
ObjectDBX Classes
 90
     4095
280
     0
281
     0
  0
CLASS
  1
SCALE
  2
AcDbScale
  3
ObjectDBX Classes
 90
     1153
280
     0
281
     0
  0
CLASS
  1
DICTIONARYVAR
  2
AcDbDictionaryVar
  3
ObjectDBX Classes
 90
        0
280
     0
281
     0
  0
CLASS
  1
ACDBPLACEHOLDER
  2
AcDbPlaceHolder
  3
ObjectDBX Classes
 90
        0
280
     0
281
     0
  0
CLASS
  1
LAYOUT
  2
AcDbLayout
  3
ObjectDBX Classes
 90
        0
280
     0
281
     0
  0
ENDSEC
  0
SECTION
  2
TABLES
  0
TABLE
  2
VPORT
  5
8
330
0
100
AcDbSymbolTable
 70
     1
  0
VPORT
  5
29
330
8
100
AcDbSymbolTableRecord
100
AcDbViewportTableRecord
  2
*Active
 70
     0
 10
0.0
 20
0.0
 11
1.0
 21
1.0
 12
344.1869158879
 22
148.5
 13
0.0
 23
0.0
 14
10.0
 24
10.0
 15
10.0
 25
10.0
 16
0.0
 26
0.0
 36
1.0
 17
0.0
 27
0.0
 37
0.0
 40
297.0
 41
1.9729729729
 42
50.0
 43
0.0
 44
0.0
 50
0.0
 51
0.0
 71
     0
 72
   100
 73
     1
 74
     3
 75
     0
 76
     0
 77
     0
 78
     0
281
     0
 65
     1
110
0.0
120
0.0
130
0.0
111
1.0
121
0.0
131
0.0
112
0.0
122
1.0
132
0.0
 79
     0
146
0.0
  0
ENDTAB
  0
TABLE
  2
LTYPE
  5
5
330
0
100
AcDbSymbolTable
 70
     2
  0
LTYPE
  5
14
330
5
100
AcDbSymbolTableRecord
100
AcDbLinetypeTableRecord
  2
ByBlock
 70
     0
  3

 72
    65
 73
     0
 40
0.0
  0
LTYPE
  5
15
330
5
100
AcDbSymbolTableRecord
100
AcDbLinetypeTableRecord
  2
ByLayer
 70
     0
  3

 72
    65
 73
     0
 40
0.0
  0
LTYPE
  5
16
330
5
100
AcDbSymbolTableRecord
100
AcDbLinetypeTableRecord
  2
Continuous
 70
     0
  3
Solid line
 72
    65
 73
     0
 40
0.0
  0
LTYPE
  5
60
330
5
100
AcDbSymbolTableRecord
100
AcDbLinetypeTableRecord
  2
CENTER2
 70
     0
  3
Center (.5x) ___ _ ___ _ ___ _ ___ _ ___ _ ___
 72
    65
 73
     4
 40
28.575
 49
19.05
 74
     4
 75
     0
340
0
 46
0.0
 50
0.0
 44
0.0
 45
0.0
 49
-3.175
 74
     4
 75
     0
340
0
 46
0.0
 50
0.0
 44
0.0
 45
0.0
 49
3.175
 74
     4
 75
     0
340
0
 46
0.0
 50
0.0
 44
0.0
 45
0.0
 49
-3.175
 74
     4
 75
     0
340
0
 46
0.0
 50
0.0
 44
0.0
 45
0.0
  0
ENDTAB
  0
TABLE
  2
LAYER
  5
2
330
0
100
AcDbSymbolTable
 70
    10
  0
LAYER
  5
10
330
2
100
AcDbSymbolTableRecord
100
AcDbLayerTableRecord
  2
0
 70
     0
 62
     7
  6
Continuous
370
    -3
390
F
  0
LAYER
  5
5D
330
2
100
AcDbSymbolTableRecord
100
AcDbLayerTableRecord
  2
Default
 70
     0
 62
     7
  6
Continuous
370
    -3
390
F
  0
LAYER
  5
77
330
2
100
AcDbSymbolTableRecord
100
AcDbLayerTableRecord
  2
$DDT_AUDIT_GENERATED_(77)
 70
     0
 62
     7
  6
Continuous
370
    -3
390
F
  0
LAYER
  5
83
330
2
100
AcDbSymbolTableRecord
100
AcDbLayerTableRecord
  2
$DDT_AUDIT_GENERATED_(83)
 70
     0
 62
     7
  6
Continuous
370
    -3
390
F
  0
LAYER
  5
87
330
2
100
AcDbSymbolTableRecord
100
AcDbLayerTableRecord
  2
$DDT_AUDIT_GENERATED_(87)
 70
     0
 62
     7
  6
Continuous
370
    -3
390
F
  0
LAYER
  5
8E
330
2
100
AcDbSymbolTableRecord
100
AcDbLayerTableRecord
  2
$DDT_AUDIT_GENERATED_(8E)
 70
     0
 62
     7
  6
Continuous
370
    -3
390
F
  0
LAYER
  5
95
330
2
100
AcDbSymbolTableRecord
100
AcDbLayerTableRecord
  2
$DDT_AUDIT_GENERATED_(95)
 70
     0
 62
     7
  6
Continuous
370
    -3
390
F
  0
LAYER
  5
AF
330
2
100
AcDbSymbolTableRecord
100
AcDbLayerTableRecord
  2
$DDT_AUDIT_GENERATED_(AF)
 70
     0
 62
     7
  6
Continuous
370
    -3
390
F
  0
LAYER
  5
BE
330
2
100
AcDbSymbolTableRecord
100
AcDbLayerTableRecord
  2
$DDT_AUDIT_GENERATED_(BE)
 70
     0
 62
     7
  6
Continuous
370
    -3
390
F
  0
LAYER
  5
2E8
330
2
100
AcDbSymbolTableRecord
100
AcDbLayerTableRecord
  2
$DDT_AUDIT_GENERATED_(2E8)
 70
     0
 62
     7
  6
Continuous
370
    -3
390
F
  0
ENDTAB
  0
TABLE
  2
STYLE
  5
3
330
0
100
AcDbSymbolTable
 70
     2
  0
STYLE
  5
11
330
3
100
AcDbSymbolTableRecord
100
AcDbTextStyleTableRecord
  2
Standard
 70
     0
 40
0.0
 41
1.0
 50
0.0
 71
     0
 42
2.5
  3
txt
  4

  0
STYLE
  5
343
330
3
100
AcDbSymbolTableRecord
100
AcDbTextStyleTableRecord
  2
SEACAD_seiso_ttf
 70
     0
 40
0.0
 41
1.0
 50
0.0
 71
     0
 42
0.2
  3
seiso.ttf
  4

  0
ENDTAB
  0
TABLE
  2
VIEW
  5
6
330
0
100
AcDbSymbolTable
 70
     0
  0
ENDTAB
  0
TABLE
  2
UCS
  5
7
330
0
100
AcDbSymbolTable
 70
     0
  0
ENDTAB
  0
TABLE
  2
APPID
  5
9
330
0
100
AcDbSymbolTable
 70
     1
  0
APPID
  5
12
330
9
100
AcDbSymbolTableRecord
100
AcDbRegAppTableRecord
  2
ACAD
 70
     0
  0
ENDTAB
  0
TABLE
  2
DIMSTYLE
  5
A
330
0
100
AcDbSymbolTable
 70
     1
100
AcDbDimStyleTable
  0
DIMSTYLE
105
27
330
A
100
AcDbSymbolTableRecord
100
AcDbDimStyleTableRecord
  2
ISO-25
 70
     0
 41
2.5
 42
0.625
 43
3.75
 44
1.25
 73
     0
 74
     0
 77
     1
 78
     8
140
2.5
141
2.5
143
0.0393700787
147
0.625
171
     3
172
     1
271
     2
272
     2
274
     3
278
    44
283
     0
284
     8
340
11
  0
ENDTAB
  0
TABLE
  2
BLOCK_RECORD
  5
1
330
0
100
AcDbSymbolTable
 70
     7
  0
BLOCK_RECORD
  5
1F
330
1
100
AcDbSymbolTableRecord
100
AcDbBlockTableRecord
  2
*Model_Space
340
22
  0
BLOCK_RECORD
  5
1B
330
1
100
AcDbSymbolTableRecord
100
AcDbBlockTableRecord
  2
*Paper_Space
340
1E
  0
BLOCK_RECORD
  5
5E
330
1
100
AcDbSymbolTableRecord
100
AcDbBlockTableRecord
  2
SEANNOT_GROUP
340
0
102
{BLKREFS
331
5F
102
}
  0
BLOCK_RECORD
  5
65
330
1
100
AcDbSymbolTableRecord
100
AcDbBlockTableRecord
  2
SEANNOT_GROUP1
340
0
102
{BLKREFS
331
66
102
}
  0
BLOCK_RECORD
  5
6B
330
1
100
AcDbSymbolTableRecord
100
AcDbBlockTableRecord
  2
SEANNOT_GROUP2
340
0
102
{BLKREFS
331
6C
102
}
  0
BLOCK_RECORD
  5
75
330
1
100
AcDbSymbolTableRecord
100
AcDbBlockTableRecord
  2
SE
340
0
102
{BLKREFS
331
76
102
}
  0
BLOCK_RECORD
  5
2A5
330
1
100
AcDbSymbolTableRecord
100
AcDbBlockTableRecord
  2
SE1
340
0
102
{BLKREFS
331
2A6
102
}
  0
BLOCK_RECORD
  5
2F9
330
1
100
AcDbSymbolTableRecord
100
AcDbBlockTableRecord
  2
SE2
340
0
102
{BLKREFS
331
2FA
102
}
  0
ENDTAB
  0
ENDSEC
  0
SECTION
  2
BLOCKS
  0
BLOCK
  5
20
330
1F
100
AcDbEntity
  8
0
100
AcDbBlockBegin
  2
*Model_Space
 70
     0
 10
0.0
 20
0.0
 30
0.0
  3
*Model_Space
  1

  0
ENDBLK
  5
21
330
1F
100
AcDbEntity
  8
0
100
AcDbBlockEnd
  0
BLOCK
  5
1C
330
1B
100
AcDbEntity
 67
     1
  8
0
100
AcDbBlockBegin
  2
*Paper_Space
 70
     0
 10
0.0
 20
0.0
 30
0.0
  3
*Paper_Space
  1

  0
ENDBLK
  5
1D
330
1B
100
AcDbEntity
 67
     1
  8
0
100
AcDbBlockEnd
  0
BLOCK
  5
63
330
5E
100
AcDbEntity
  8
0
100
AcDbBlockBegin
  2
SEANNOT_GROUP
 70
     0
 10
0.0
 20
0.0
 30
0.0
  3
SEANNOT_GROUP
  1

  0
LINE
  5
61
330
5E
100
AcDbEntity
  8
Default
  6
CENTER2
 62
     7
100
AcDbLine
 10
168.7500917346
 20
473.1954197801
 30
0.0
 11
128.7500926287
 21
473.1954197801
 31
0.0
  0
LINE
  5
62
330
5E
100
AcDbEntity
  8
Default
  6
CENTER2
 62
     7
100
AcDbLine
 10
148.7500921816
 20
493.1954193331
 30
0.0
 11
148.7500921816
 21
453.1954202272
 31
0.0
  0
ENDBLK
  5
64
330
5E
100
AcDbEntity
  8
0
100
AcDbBlockEnd
  0
BLOCK
  5
69
330
65
100
AcDbEntity
  8
0
100
AcDbBlockBegin
  2
SEANNOT_GROUP1
 70
     0
 10
0.0
 20
0.0
 30
0.0
  3
SEANNOT_GROUP1
  1

  0
LINE
  5
67
330
65
100
AcDbEntity
  8
Default
  6
CENTER2
 62
     7
100
AcDbLine
 10
283.8736751458
 20
473.1954197801
 30
0.0
 11
243.8736760399
 21
473.1954197801
 31
0.0
  0
LINE
  5
68
330
65
100
AcDbEntity
  8
Default
  6
CENTER2
 62
     7
100
AcDbLine
 10
263.8736755929
 20
493.1954193331
 30
0.0
 11
263.8736755929
 21
453.1954202272
 31
0.0
  0
ENDBLK
  5
6A
330
65
100
AcDbEntity
  8
0
100
AcDbBlockEnd
  0
BLOCK
  5
73
330
6B
100
AcDbEntity
  8
0
100
AcDbBlockBegin
  2
SEANNOT_GROUP2
 70
     0
 10
0.0
 20
0.0
 30
0.0
  3
SEANNOT_GROUP2
  1

  0
LINE
  5
6D
330
6B
100
AcDbEntity
  8
Default
  6
CENTER2
 62
     7
100
AcDbLine
 10
283.8736527857
 20
372.1524666419
 30
0.0
 11
243.8736536798
 21
372.1524666419
 31
0.0
  0
LINE
  5
6E
330
6B
100
AcDbEntity
  8
Default
  6
CENTER2
 62
     7
100
AcDbLine
 10
263.8736532327
 20
392.1524661949
 30
0.0
 11
263.8736532327
 21
352.152467089
 31
0.0
  0
LINE
  5
6F
330
6B
100
AcDbEntity
  8
Default
  6
CENTER2
 62
     7
100
AcDbLine
 10
288.8736526739
 20
372.1524666419
 30
0.0
 11
292.1236532327
 21
372.1524666419
 31
0.0
  0
LINE
  5
70
330
6B
100
AcDbEntity
  8
Default
  6
CENTER2
 62
     7
100
AcDbLine
 10
263.8736532327
 20
397.1524660832
 30
0.0
 11
263.8736532327
 21
400.4024666419
 31
0.0
  0
LINE
  5
71
330
6B
100
AcDbEntity
  8
Default
  6
CENTER2
 62
     7
100
AcDbLine
 10
238.8736537915
 20
372.1524666419
 30
0.0
 11
235.6236532327
 21
372.1524666419
 31
0.0
  0
LINE
  5
72
330
6B
100
AcDbEntity
  8
Default
  6
CENTER2
 62
     7
100
AcDbLine
 10
263.8736532327
 20
347.1524672007
 30
0.0
 11
263.8736532327
 21
343.9024666419
 31
0.0
  0
ENDBLK
  5
74
330
6B
100
AcDbEntity
  8
0
100
AcDbBlockEnd
  0
BLOCK
  5
2A3
330
75
100
AcDbEntity
  8
0
100
AcDbBlockBegin
  2
SE
 70
     0
 10
0.0
 20
0.0
 30
0.0
  3
SE
  1

  0
LINE
  5
78
330
75
100
AcDbEntity
  8
$DDT_AUDIT_GENERATED_(77)
  6
Continuous
 62
     7
100
AcDbLine
 10
169.5500693275
 20
480.1954198099
 30
0.0
 11
127.9500693275
 21
480.1954198099
 31
0.0
  0
LINE
  5
79
330
75
100
AcDbEntity
  8
$DDT_AUDIT_GENERATED_(77)
  6
Continuous
 62
     7
100
AcDbLine
 10
169.6000693275
 20
480.4789839009
 30
0.0
 11
127.9000693275
 21
480.4789839009
 31
0.0
  0
LINE
  5
7A
330
75
100
AcDbEntity
  8
$DDT_AUDIT_GENERATED_(77)
  6
Continuous
 62
     7
100
AcDbLine
 10
128.2000693275
 20
577.1954198099
 30
0.0
 11
169.3000693275
 21
577.1954198099
 31
0.0
  0
LINE
  5
7B
330
75
100
AcDbEntity
  8
$DDT_AUDIT_GENERATED_(77)
  6
Continuous
 62
     7
100
AcDbLine
 10
169.6000693275
 20
480.4789839009
 30
0.0
 11
169.6000693275
 21
576.8954198099
 31
0.0
  0
LINE
  5
7C
330
75
100
AcDbEntity
  8
$DDT_AUDIT_GENERATED_(77)
  6
Continuous
 62
     7
100
AcDbLine
 10
127.9000693275
 20
576.8954198099
 30
0.0
 11
127.9000693275
 21
480.4789839009
 31
0.0
  0
LINE
  5
7D
330
75
100
AcDbEntity
  8
$DDT_AUDIT_GENERATED_(77)
  6
Continuous
 62
     7
100
AcDbLine
 10
169.5500693275
 20
479.8492574682
 30
0.0
 11
169.5500693275
 21
480.1954198099
 31
0.0
  0
LINE
  5
7E
330
75
100
AcDbEntity
  8
$DDT_AUDIT_GENERATED_(77)
  6
Continuous
 62
     7
100
AcDbLine
 10
127.9500693275
 20
480.1954198099
 30
0.0
 11
127.9500693275
 21
479.8492579762
 31
0.0
  0
LINE
  5
7F
330
75
100
AcDbEntity
  8
$DDT_AUDIT_GENERATED_(77)
  6
Continuous
 62
     7
100
AcDbLine
 10
127.9000693275
 20
480.4789839009
 30
0.0
 11
127.9500693275
 21
480.1954198099
 31
0.0
  0
LINE
  5
80
330
75
100
AcDbEntity
  8
$DDT_AUDIT_GENERATED_(77)
  6
Continuous
 62
     7
100
AcDbLine
 10
169.5500693275
 20
480.1954198099
 30
0.0
 11
169.6000693275
 21
480.4789839009
 31
0.0
  0
ARC
  5
81
330
75
100
AcDbEntity
  8
$DDT_AUDIT_GENERATED_(77)
  6
Continuous
 62
     7
100
AcDbCircle
 10
169.3000693275
 20
576.8954198099
 30
0.0
 40
0.3000000000000017
100
AcDbArc
 50
0.0
 51
90.0
  0
ARC
  5
82
330
75
100
AcDbEntity
  8
$DDT_AUDIT_GENERATED_(77)
  6
Continuous
 62
     7
100
AcDbCircle
 10
128.2000693275
 20
576.8954198099
 30
0.0
 40
0.2999999999999947
100
AcDbArc
 50
90.0
 51
180.0
  0
LINE
  5
84
330
75
100
AcDbEntity
  8
$DDT_AUDIT_GENERATED_(83)
  6
Continuous
 62
     7
100
AcDbLine
 10
152.2283869624
 20
577.6954198099
 30
0.0
 11
128.4000693275
 21
577.6954198099
 31
0.0
  0
LINE
  5
85
330
75
100
AcDbEntity
  8
$DDT_AUDIT_GENERATED_(83)
  6
Continuous
 62
     7
100
AcDbLine
 10
169.1000693275
 20
577.1954198099
 30
0.0
 11
169.1000693275
 21
577.6954198099
 31
0.0
  0
LINE
  5
86
330
75
100
AcDbEntity
  8
$DDT_AUDIT_GENERATED_(83)
  6
Continuous
 62
     7
100
AcDbLine
 10
128.4000693275
 20
577.6954198099
 30
0.0
 11
128.4000693275
 21
577.1954198099
 31
0.0
  0
LINE
  5
88
330
75
100
AcDbEntity
  8
$DDT_AUDIT_GENERATED_(87)
  6
Continuous
 62
     7
100
AcDbLine
 10
177.7500706059
 20
478.8954197801
 30
0.0
 11
119.7500680492
 21
478.8954197801
 31
0.0
  0
LINE
  5
89
330
75
100
AcDbEntity
  8
$DDT_AUDIT_GENERATED_(87)
  6
Continuous
 62
     7
100
AcDbLine
 10
118.7500639548
 20
473.1954197801
 30
0.0
 11
178.7501204084
 21
473.1954197801
 31
0.0
  0
SPLINE
  5
8A
330
75
100
AcDbEntity
  8
$DDT_AUDIT_GENERATED_(87)
  6
Continuous
 62
     7
100
AcDbSpline
210
0.0
220
0.0
230
1.0
 70
     8
 71
     3
 72
    13
 73
     9
 74
     0
 42
0.0000000063014675
 43
0.0000000001
 40
0.0
 40
0.0
 40
0.0
 40
0.0
 40
0.1294353584734631
 40
0.2550301071986519
 40
0.499999991457085
 40
0.7449698805865113
 40
0.8705646348009904
 40
1.0
 40
1.0
 40
1.0
 40
1.0
 10
178.7500706737863
 20
477.8954197652325
 30
0.0
 10
178.7463896640359
 20
477.9695991441946
 30
0.0
 10
178.7383163351881
 20
478.0935106109483
 30
0.0
 10
178.6582452317483
 20
478.3484561239424
 30
0.0
 10
178.4746967150226
 20
478.620045841701
 30
0.0
 10
178.2031069850702
 20
478.8035943442705
 30
0.0
 10
177.9481614612678
 20
478.8836654422594
 30
0.0
 10
177.824249988696
 20
478.8917387706262
 30
0.0
 10
177.7500706058578
 20
478.8954197801335
 30
0.0
  0
SPLINE
  5
8B
330
75
100
AcDbEntity
  8
$DDT_AUDIT_GENERATED_(87)
  6
Continuous
 62
     7
100
AcDbSpline
210
0.0
220
0.0
230
1.0
 70
     8
 71
     3
 72
    13
 73
     9
 74
     0
 42
0.0000000063014675
 43
0.0000000001
 40
0.0
 40
0.0
 40
0.0
 40
0.0
 40
0.1294353651991215
 40
0.2550301194136423
 40
0.50000000854303
 40
0.7449698928013853
 40
0.8705646415265503
 40
1.0
 40
1.0
 40
1.0
 40
1.0
 10
119.7500680492055
 20
478.8954197801335
 30
0.0
 10
119.6758886663673
 20
478.8917387706262
 30
0.0
 10
119.5519771937953
 20
478.8836654422594
 30
0.0
 10
119.2970316699929
 20
478.8035943442706
 30
0.0
 10
119.0254419400404
 20
478.620045841701
 30
0.0
 10
118.8418934233149
 20
478.3484561239424
 30
0.0
 10
118.7618223198752
 20
478.0935106109483
 30
0.0
 10
118.7537489910274
 20
477.9695991441946
 30
0.0
 10
118.750067981277
 20
477.8954197652325
 30
0.0
  0
LINE
  5
8C
330
75
100
AcDbEntity
  8
$DDT_AUDIT_GENERATED_(87)
  6
Continuous
 62
     7
100
AcDbLine
 10
118.7500639548
 20
477.9004197652
 30
0.0
 11
118.7500639548
 21
473.1954197801
 31
0.0
  0
LINE
  5
8D
330
75
100
AcDbEntity
  8
$DDT_AUDIT_GENERATED_(87)
  6
Continuous
 62
     7
100
AcDbLine
 10
178.7501204084
 20
473.1954197801
 30
0.0
 11
178.7501204084
 21
477.9004197652
 31
0.0
  0
LINE
  5
8F
330
75
100
AcDbEntity
  8
$DDT_AUDIT_GENERATED_(8E)
  6
Continuous
 62
     7
100
AcDbLine
 10
173.4000737825
 20
478.9717331917
 30
0.0
 11
124.1000737825
 21
478.9717331917
 31
0.0
  0
SPLINE
  5
90
330
75
100
AcDbEntity
  8
$DDT_AUDIT_GENERATED_(8E)
  6
Continuous
 62
     7
100
AcDbSpline
210
0.0
220
0.0
230
1.0
 70
     8
 71
     3
 72
    36
 73
    32
 74
     0
 42
0.0000000001196307
 43
0.0000000001
 40
0.0
 40
0.0
 40
0.0
 40
0.0
 40
0.0312500000000001
 40
0.0312500000000001
 40
0.0625000000000001
 40
0.0625000000000001
 40
0.0937500000000002
 40
0.0937500000000002
 40
0.1250000000000002
 40
0.1250000000000002
 40
0.1875000000000003
 40
0.1875000000000003
 40
0.2500000000000004
 40
0.2500000000000004
 40
0.2812500000000005
 40
0.2812500000000005
 40
0.3125000000000006
 40
0.3125000000000006
 40
0.3437500000000006
 40
0.3437500000000006
 40
0.3750000000000007
 40
0.3750000000000007
 40
0.4062500000000007
 40
0.4062500000000007
 40
0.4375000000000007
 40
0.4375000000000007
 40
0.4687500000000007
 40
0.4687500000000007
 40
0.5000000000000007
 40
0.5000000000000007
 40
0.5000563492358077
 40
0.5000563492358077
 40
0.5000563492358077
 40
0.5000563492358077
 10
127.8500737824542
 20
479.8492191365069
 30
0.0
 10
127.8500737824543
 20
479.8492191365069
 30
0.0
 10
127.9855581631106
 20
479.849278353867
 30
0.0
 10
128.516413929644
 20
479.8494479301598
 30
0.0
 10
128.918224317411
 20
479.8495571222969
 30
0.0
 10
129.9672675650368
 20
479.849671465333
 30
0.0
 10
130.6092218841218
 20
479.8496624483512
 30
0.0
 10
132.1258917623105
 20
479.849472083491
 30
0.0
 10
133.0086801491227
 20
479.8493162663175
 30
0.0
 10
135.9012443932695
 20
479.848899662731
 30
0.0
 10
138.2329378960098
 20
479.8487152098016
 30
0.0
 10
143.2626926845741
 20
479.8488636866043
 30
0.0
 10
146.0129609010142
 20
479.8492183422885
 30
0.0
 10
150.1019837559452
 20
479.8492200529308
 30
0.0
 10
151.486389317653
 20
479.8491170642008
 30
0.0
 10
154.1668903880639
 20
479.8489206326107
 30
0.0
 10
155.4697083718035
 20
479.8488277720215
 30
0.0
 10
158.0000623758638
 20
479.848752160758
 30
0.0
 10
159.2242154140336
 20
479.848770030951
 30
0.0
 10
161.4894034060217
 20
479.8489125771136
 30
0.0
 10
162.5451387591889
 20
479.8490360559841
 30
0.0
 10
164.496896651476
 20
479.8493169379653
 30
0.0
 10
165.3637443297331
 20
479.8494702682867
 30
0.0
 10
166.8778954046882
 20
479.849661301044
 30
0.0
 10
167.5322130601186
 20
479.8496715157595
 30
0.0
 10
168.5820576231081
 20
479.8495571299072
 30
0.0
 10
168.9774627749253
 20
479.849449712945
 30
0.0
 10
169.5124432409607
 20
479.8492792563702
 30
0.0
 10
169.6495903427216
 20
479.8492193297223
 30
0.0
 10
169.6500733460538
 20
479.8492191366813
 30
0.0
 10
169.650073785473
 20
479.8492191365228
 30
0.0
 10
169.6500737949235
 20
479.849219136553
 30
0.0
  0
LINE
  5
91
330
75
100
AcDbEntity
  8
$DDT_AUDIT_GENERATED_(8E)
  6
Continuous
 62
     7
100
AcDbLine
 10
127.8503144914
 20
479.8481968992
 30
0.0
 11
124.1014129297
 21
478.9660509199
 31
0.0
  0
LINE
  5
92
330
75
100
AcDbEntity
  8
$DDT_AUDIT_GENERATED_(8E)
  6
Continuous
 62
     7
100
AcDbLine
 10
173.3987346252
 20
478.9660508781
 30
0.0
 11
169.6363749032
 21
479.851363763
 31
0.0
  0
LINE
  5
93
330
75
100
AcDbEntity
  8
$DDT_AUDIT_GENERATED_(8E)
  6
Continuous
 62
     7
100
AcDbLine
 10
124.1000737825
 20
478.9767331917
 30
0.0
 11
124.1000737825
 21
478.8954197801
 31
0.0
  0
LINE
  5
94
330
75
100
AcDbEntity
  8
$DDT_AUDIT_GENERATED_(8E)
  6
Continuous
 62
     7
100
AcDbLine
 10
173.4000737825
 20
478.8954197801
 30
0.0
 11
173.4000737825
 21
478.9767331917
 31
0.0
  0
LINE
  5
96
330
75
100
AcDbEntity
  8
$DDT_AUDIT_GENERATED_(95)
  6
Continuous
 62
     7
100
AcDbLine
 10
169.5998274117
 20
706.747307658
 30
0.0
 11
169.5998013071
 21
706.747307658
 31
0.0
  0
LINE
  5
97
330
75
100
AcDbEntity
  8
$DDT_AUDIT_GENERATED_(95)
  6
Continuous
 62
     7
100
AcDbLine
 10
127.900401963
 20
706.7473076829
 30
0.0
 11
127.9004274262
 21
706.7473076829
 31
0.0
  0
SPLINE
  5
98
330
75
100
AcDbEntity
  8
$DDT_AUDIT_GENERATED_(95)
  6
Continuous
 62
     7
100
AcDbSpline
210
0.0
220
0.0
230
1.0
 70
     8
 71
     3
 72
    15
 73
    11
 74
     0
 42
0.0000000002400921
 43
0.0000000001
 40
0.0217795974903352
 40
0.0217795974903352
 40
0.0217795974903352
 40
0.0217795974903352
 40
0.125
 40
0.25
 40
0.375
 40
0.5
 40
0.625
 40
0.75
 40
0.875
 40
0.9782205753905259
 40
0.9782205753905259
 40
0.9782205753905259
 40
0.9782205753905259
 10
168.2889786701967
 20
773.9322123366594
 30
0.0
 10
168.1432425678057
 20
774.1895836749197
 30
0.0
 10
167.0624657018239
 20
774.7523748630442
 30
0.0
 10
162.9594053071204
 20
775.5007331687934
 30
0.0
 10
156.4401088780284
 20
776.0316024259135
 30
0.0
 10
148.7500752213585
 20
776.2180187710135
 30
0.0
 10
141.0600422510114
 20
776.0316020054184
 30
0.0
 10
134.5407477764924
 20
775.5007323917876
 30
0.0
 10
130.4376881287948
 20
774.7523734953966
 30
0.0
 10
129.3569137055277
 20
774.1895817618004
 30
0.0
 10
129.2111673861852
 20
773.9322143594597
 30
0.0
  0
SPLINE
  5
99
330
75
100
AcDbEntity
  8
$DDT_AUDIT_GENERATED_(95)
  6
Continuous
 62
     7
100
AcDbSpline
210
0.0
220
0.0
230
1.0
 70
     8
 71
     3
 72
    13
 73
     9
 74
     0
 42
0.0000000002218291
 43
0.0000000001
 40
0.1886373412106604
 40
0.1886373412106604
 40
0.1886373412106604
 40
0.1886373412106604
 40
0.25
 40
0.375
 40
0.5
 40
0.625
 40
0.75
 40
0.8113625769227898
 40
0.8113625769227898
 40
0.8113625769227898
 40
0.8113625769227898
 10
162.736079831629
 20
776.257509974688
 30
0.0
 10
162.1308650699289
 20
776.3670515459137
 30
0.0
 10
160.0314073551091
 20
776.6782855398222
 30
0.0
 10
155.3709841636394
 20
777.0577858872355
 30
0.0
 10
148.7500754197814
 20
777.2182852424286
 30
0.0
 10
142.1291673345944
 20
777.0577854836814
 30
0.0
 10
137.468746925978
 20
776.6782849519686
 30
0.0
 10
135.3692911075997
 20
776.3670510037492
 30
0.0
 10
134.764077373248
 20
776.2575095606242
 30
0.0
  0
SPLINE
  5
9A
330
75
100
AcDbEntity
  8
$DDT_AUDIT_GENERATED_(95)
  6
Continuous
 62
     7
100
AcDbSpline
210
0.0
220
0.0
230
1.0
 70
     8
 71
     3
 72
    10
 73
     6
 74
     0
 42
0.0000000025039277
 43
0.0000000001
 40
0.7661812541468009
 40
0.7661812541468009
 40
0.7661812541468009
 40
0.7661812541468009
 40
0.8749999999999991
 40
0.8749999999999991
 40
1.0
 40
1.0
 40
1.0
 40
1.0
 10
160.5592975817113
 20
758.9411248901617
 30
0.0
 10
160.7606991792343
 20
759.0786353037863
 30
0.0
 10
160.8944948865543
 20
759.2042171678336
 30
0.0
 10
161.0293781352146
 20
759.4343970131674
 30
0.0
 10
161.0114162606092
 20
759.5352294070098
 30
0.0
 10
160.8984416178177
 20
759.6131346692044
 30
0.0
  0
ARC
  5
9B
330
75
100
AcDbEntity
  8
$DDT_AUDIT_GENERATED_(95)
  6
Continuous
 62
     7
100
AcDbCircle
 10
148.7500577044
 20
684.9165566748
 30
0.0
 40
75.67801527376157
100
AcDbArc
 50
80.7624988075
 51
99.2374838936
  0
SPLINE
  5
9C
330
75
100
AcDbEntity
  8
$DDT_AUDIT_GENERATED_(95)
  6
Continuous
 62
     7
100
AcDbSpline
210
0.0
220
0.0
230
1.0
 70
     8
 71
     3
 72
    10
 73
     6
 74
     0
 42
0.0000000025004147
 43
0.0000000001
 40
0.0
 40
0.0
 40
0.0
 40
0.0
 40
0.1250000000000002
 40
0.1250000000000002
 40
0.2334789810788707
 40
0.2334789810788707
 40
0.2334789810788707
 40
0.2334789810788707
 10
136.6016963435641
 20
759.6131383370587
 30
0.0
 10
136.4887291122572
 20
759.5352378786047
 30
0.0
 10
136.4706368851693
 20
759.4343199291197
 30
0.0
 10
136.6059979696734
 20
759.2038714100403
 30
0.0
 10
136.7401605756543
 20
759.0781982802611
 30
0.0
 10
136.9407588186351
 20
758.9411938811905
 30
0.0
  0
LINE
  5
9D
330
75
100
AcDbEntity
  8
$DDT_AUDIT_GENERATED_(95)
  6
Continuous
 62
     7
100
AcDbLine
 10
169.5998250129
 20
577.6954198099
 30
0.0
 11
152.2724641232
 21
577.6954198099
 31
0.0
  0
LINE
  5
9E
330
75
100
AcDbEntity
  8
$DDT_AUDIT_GENERATED_(95)
  6
Continuous
 62
     7
100
AcDbLine
 10
128.2003141401
 20
577.6954198099
 30
0.0
 11
152.2724641232
 21
577.6954198099
 31
0.0
  0
ARC
  5
9F
330
75
100
AcDbEntity
  8
$DDT_AUDIT_GENERATED_(95)
  6
Continuous
 62
     7
100
AcDbCircle
 10
153.0662282164
 20
607.8481297305
 30
0.0
 40
30.16315595204725
100
AcDbArc
 50
261.7731543385
 51
268.492048267
  0
LINE
  5
A0
330
75
100
AcDbEntity
  8
$DDT_AUDIT_GENERATED_(95)
  6
Continuous
 62
     7
100
AcDbLine
 10
169.5998325622
 20
682.3699141756
 30
0.0
 11
169.5998325622
 21
706.751729953
 31
0.0
  0
LINE
  5
A1
330
75
100
AcDbEntity
  8
$DDT_AUDIT_GENERATED_(95)
  6
Continuous
 62
     7
100
AcDbLine
 10
169.5998250088
 20
583.3754198099
 30
0.0
 11
169.5998250088
 21
682.369885142
 31
0.0
  0
ARC
  5
A2
330
75
100
AcDbEntity
  8
$DDT_AUDIT_GENERATED_(95)
  6
Continuous
 62
     7
100
AcDbCircle
 10
-20117.0472195251
 20
725.0758548218
 30
0.0
 40
20286.65529819433
100
AcDbArc
 50
359.9482345158
 51
0.0517076133
  0
LINE
  5
A3
330
75
100
AcDbEntity
  8
$DDT_AUDIT_GENERATED_(95)
  6
Continuous
 62
     7
100
AcDbLine
 10
127.9003136422
 20
682.3689903147
 30
0.0
 11
127.9003136422
 21
583.3754198099
 31
0.0
  0
LINE
  5
A4
330
75
100
AcDbEntity
  8
$DDT_AUDIT_GENERATED_(95)
  6
Continuous
 62
     7
100
AcDbLine
 10
169.5998323071
 20
743.3838632827
 30
0.0
 11
169.5998323071
 21
766.6731214622
 31
0.0
  0
LINE
  5
A5
330
75
100
AcDbEntity
  8
$DDT_AUDIT_GENERATED_(95)
  6
Continuous
 62
     7
100
AcDbLine
 10
127.9003050686
 20
706.7552416989
 30
0.0
 11
127.9003050686
 21
682.3690190635
 31
0.0
  0
ARC
  5
A6
330
75
100
AcDbEntity
  8
$DDT_AUDIT_GENERATED_(95)
  6
Continuous
 62
     7
100
AcDbCircle
 10
148.1412734268
 20
766.5463854285
 30
0.0
 40
21.45880995536571
100
AcDbArc
 50
0.2815359813
 51
20.132330623
  0
ARC
  5
A7
330
75
100
AcDbEntity
  8
$DDT_AUDIT_GENERATED_(95)
  6
Continuous
 62
     7
100
AcDbCircle
 10
149.5976789415
 20
766.5033926112
 30
0.0
 40
21.69785075251387
100
AcDbArc
 50
159.97811258
 51
179.6082988297
  0
LINE
  5
A8
330
75
100
AcDbEntity
  8
$DDT_AUDIT_GENERATED_(95)
  6
Continuous
 62
     7
100
AcDbLine
 10
127.9002919528
 20
766.6727365923
 30
0.0
 11
127.9002919528
 21
743.3834794837
 31
0.0
  0
ARC
  5
A9
330
75
100
AcDbEntity
  8
$DDT_AUDIT_GENERATED_(95)
  6
Continuous
 62
     7
100
AcDbCircle
 10
20947.3036655323
 20
725.0768933791
 30
0.0
 40
20819.41139323355
100
AcDbArc
 50
179.9496184117
 51
180.0504436947
  0
ARC
  5
AA
330
75
100
AcDbEntity
  8
$DDT_AUDIT_GENERATED_(95)
  6
Continuous
 62
     7
100
AcDbCircle
 10
161.4971555828
 20
765.2902508849
 30
0.0
 40
11.03933556979948
100
AcDbArc
 50
53.5025155565
 51
83.7331518402
  0
ARC
  5
AB
330
75
100
AcDbEntity
  8
$DDT_AUDIT_GENERATED_(95)
  6
Continuous
 62
     7
100
AcDbCircle
 10
136.0214380031
 20
765.2431694794
 30
0.0
 40
11.08815572322438
100
AcDbArc
 50
96.3349764424
 51
126.4293600295
  0
LINE
  5
AC
330
75
100
AcDbEntity
  8
$DDT_AUDIT_GENERATED_(95)
  6
Continuous
 62
     7
100
AcDbLine
 10
169.5998250129
 20
577.6954198099
 30
0.0
 11
169.5998250129
 21
583.3754198099
 31
0.0
  0
LINE
  5
AD
330
75
100
AcDbEntity
  8
$DDT_AUDIT_GENERATED_(95)
  6
Continuous
 62
     7
100
AcDbLine
 10
127.9003136361
 20
583.3754198099
 30
0.0
 11
127.9003136361
 21
577.9954198099
 31
0.0
  0
ARC
  5
AE
330
75
100
AcDbEntity
  8
$DDT_AUDIT_GENERATED_(95)
  6
Continuous
 62
     7
100
AcDbCircle
 10
128.2003199233
 20
577.9954198094
 30
0.0
 40
0.2999999995076419
100
AcDbArc
 50
180.1547472352
 51
270.0024014516
  0
ELLIPSE
  5
B0
330
75
100
AcDbEntity
  8
$DDT_AUDIT_GENERATED_(AF)
  6
Continuous
 62
     7
100
AcDbEllipse
 10
148.7500693275
 20
752.4517866889
 30
0.0
 11
10.05000000000001
 21
-5.551115123125783E-14
 31
0.0
210
0.0
220
0.0
230
1.0
 40
0.1218693434
 41
0.0
 42
6.283185307179586
  0
ELLIPSE
  5
B1
330
75
100
AcDbEntity
  8
$DDT_AUDIT_GENERATED_(AF)
  6
Continuous
 62
     7
100
AcDbEllipse
 10
148.7500693275
 20
752.4517866889
 30
0.0
 11
10.75000000000001
 21
-5.551115123125783E-14
 31
0.0
210
0.0
220
0.0
230
1.0
 40
0.1218693434
 41
0.0
 42
6.283185307179586
  0
LINE
  5
B2
330
75
100
AcDbEntity
  8
$DDT_AUDIT_GENERATED_(AF)
  6
Continuous
 62
     7
100
AcDbLine
 10
159.7500693275
 20
752.4508605901
 30
0.0
 11
159.7500693275
 21
753.0821778971
 31
0.0
  0
ELLIPSE
  5
B3
330
75
100
AcDbEntity
  8
$DDT_AUDIT_GENERATED_(AF)
  6
Continuous
 62
     7
100
AcDbEllipse
 10
148.7500693275
 20
755.4294251438
 30
0.0
 11
-11.80000000000002
 21
0.0
 31
0.0
210
0.0
220
0.0
230
1.0
 40
0.1218693434
 41
2.77125002149808
 42
3.511935285681506
  0
LINE
  5
B4
330
75
100
AcDbEntity
  8
$DDT_AUDIT_GENERATED_(AF)
  6
Continuous
 62
     7
100
AcDbLine
 10
159.7500693275
 20
753.0821778971
 30
0.0
 11
159.7500693275
 21
754.1470160104
 31
0.0
  0
LINE
  5
B5
330
75
100
AcDbEntity
  8
$DDT_AUDIT_GENERATED_(AF)
  6
Continuous
 62
     7
100
AcDbLine
 10
159.7500693275
 20
754.1470160104
 30
0.0
 11
159.7500693275
 21
755.9499085503
 31
0.0
  0
LINE
  5
B6
330
75
100
AcDbEntity
  8
$DDT_AUDIT_GENERATED_(AF)
  6
Continuous
 62
     7
100
AcDbLine
 10
137.7500693275
 20
753.0821778971
 30
0.0
 11
137.7500693275
 21
752.4508605901
 31
0.0
  0
ELLIPSE
  5
B7
330
75
100
AcDbEntity
  8
$DDT_AUDIT_GENERATED_(AF)
  6
Continuous
 62
     7
100
AcDbEllipse
 10
148.7500693275
 20
755.4294251438
 30
0.0
 11
11.79999999999973
 21
2.220446049250313E-13
 31
0.0
210
0.0
220
0.0
230
1.0
 40
0.1218693434
 41
2.771250021498062
 42
3.511935285681473
  0
LINE
  5
B8
330
75
100
AcDbEntity
  8
$DDT_AUDIT_GENERATED_(AF)
  6
Continuous
 62
     7
100
AcDbLine
 10
137.7500693275
 20
755.9499085503
 30
0.0
 11
137.7500693275
 21
754.1470160104
 31
0.0
  0
LINE
  5
B9
330
75
100
AcDbEntity
  8
$DDT_AUDIT_GENERATED_(AF)
  6
Continuous
 62
     7
100
AcDbLine
 10
137.7500693275
 20
754.1470160104
 30
0.0
 11
137.7500693275
 21
753.0821778971
 31
0.0
  0
LINE
  5
BA
330
75
100
AcDbEntity
  8
$DDT_AUDIT_GENERATED_(AF)
  6
Continuous
 62
     7
100
AcDbLine
 10
137.7500693275
 20
752.4508509372
 30
0.0
 11
138.2459833382
 21
752.1731698732
 31
0.0
  0
LINE
  5
BB
330
75
100
AcDbEntity
  8
$DDT_AUDIT_GENERATED_(AF)
  6
Continuous
 62
     7
100
AcDbLine
 10
159.2541553169
 20
752.1731698732
 30
0.0
 11
159.7500693275
 21
752.4508509372
 31
0.0
  0
LINE
  5
BC
330
75
100
AcDbEntity
  8
$DDT_AUDIT_GENERATED_(AF)
  6
Continuous
 62
     7
100
AcDbLine
 10
136.9500693275
 20
759.762641328
 30
0.0
 11
136.9500693275
 21
755.4294251438
 31
0.0
  0
LINE
  5
BD
330
75
100
AcDbEntity
  8
$DDT_AUDIT_GENERATED_(AF)
  6
Continuous
 62
     7
100
AcDbLine
 10
160.5500693275
 20
755.4294251438
 30
0.0
 11
160.5500693275
 21
759.7620319714
 31
0.0
  0
ELLIPSE
  5
BF
330
75
100
AcDbEntity
  8
$DDT_AUDIT_GENERATED_(BE)
  6
Continuous
 62
     7
100
AcDbEllipse
 10
148.7500693275
 20
752.5510413041
 30
0.0
 11
-8.250000000000004
 21
5.551115123125783E-14
 31
0.0
210
0.0
220
0.0
230
1.0
 40
0.1218693434
 41
0.0
 42
6.283185307179586
  0
ELLIPSE
  5
C0
330
75
100
AcDbEntity
  8
$DDT_AUDIT_GENERATED_(BE)
  6
Continuous
 62
     7
100
AcDbEllipse
 10
148.7500693275
 20
752.5510413041
 30
0.0
 11
-9.399999999999999
 21
5.551115123125783E-14
 31
0.0
210
0.0
220
0.0
230
1.0
 40
0.1218693434
 41
0.0
 42
4.040058797897301
  0
ELLIPSE
  5
C1
330
75
100
AcDbEntity
  8
$DDT_AUDIT_GENERATED_(BE)
  6
Continuous
 62
     7
100
AcDbEllipse
 10
148.7500693275
 20
752.5510413041
 30
0.0
 11
-9.399999999999999
 21
5.551115123125783E-14
 31
0.0
210
0.0
220
0.0
230
1.0
 40
0.1218693434
 41
5.384719162872079
 42
6.283185307179586
  0
LINE
  5
C2
330
75
100
AcDbEntity
  8
$DDT_AUDIT_GENERATED_(BE)
  6
Continuous
 62
     7
100
AcDbLine
 10
149.2500693275
 20
753.1082490516
 30
0.0
 11
149.2500693275
 21
752.9863797082
 31
0.0
  0
LINE
  5
C3
330
75
100
AcDbEntity
  8
$DDT_AUDIT_GENERATED_(BE)
  6
Continuous
 62
     7
100
AcDbLine
 10
149.2500693275
 20
752.9863797082
 30
0.0
 11
148.2500693275
 21
752.9863797082
 31
0.0
  0
LINE
  5
C4
330
75
100
AcDbEntity
  8
$DDT_AUDIT_GENERATED_(BE)
  6
Continuous
 62
     7
100
AcDbLine
 10
149.2500693275
 20
752.9620058395
 30
0.0
 11
149.2500693275
 21
752.8401364961
 31
0.0
  0
LINE
  5
C5
330
75
100
AcDbEntity
  8
$DDT_AUDIT_GENERATED_(BE)
  6
Continuous
 62
     7
100
AcDbLine
 10
149.2500693275
 20
752.8401364961
 30
0.0
 11
148.2500693275
 21
752.8401364961
 31
0.0
  0
LINE
  5
C6
330
75
100
AcDbEntity
  8
$DDT_AUDIT_GENERATED_(BE)
  6
Continuous
 62
     7
100
AcDbLine
 10
148.2500693275
 20
752.9620058395
 30
0.0
 11
149.2500693275
 21
752.9620058395
 31
0.0
  0
LINE
  5
C7
330
75
100
AcDbEntity
  8
$DDT_AUDIT_GENERATED_(BE)
  6
Continuous
 62
     7
100
AcDbLine
 10
149.2500693275
 20
752.8157626274
 30
0.0
 11
149.2500693275
 21
752.693893284
 31
0.0
  0
LINE
  5
C8
330
75
100
AcDbEntity
  8
$DDT_AUDIT_GENERATED_(BE)
  6
Continuous
 62
     7
100
AcDbLine
 10
149.2500693275
 20
752.693893284
 30
0.0
 11
148.2500693275
 21
752.693893284
 31
0.0
  0
LINE
  5
C9
330
75
100
AcDbEntity
  8
$DDT_AUDIT_GENERATED_(BE)
  6
Continuous
 62
     7
100
AcDbLine
 10
148.2500693275
 20
752.8157626274
 30
0.0
 11
149.2500693275
 21
752.8157626274
 31
0.0
  0
LINE
  5
CA
330
75
100
AcDbEntity
  8
$DDT_AUDIT_GENERATED_(BE)
  6
Continuous
 62
     7
100
AcDbLine
 10
149.2500693275
 20
752.6695194153
 30
0.0
 11
149.2500693275
 21
752.5476500719
 31
0.0
  0
LINE
  5
CB
330
75
100
AcDbEntity
  8
$DDT_AUDIT_GENERATED_(BE)
  6
Continuous
 62
     7
100
AcDbLine
 10
149.2500693275
 20
752.5476500719
 30
0.0
 11
148.2500693275
 21
752.5476500719
 31
0.0
  0
LINE
  5
CC
330
75
100
AcDbEntity
  8
$DDT_AUDIT_GENERATED_(BE)
  6
Continuous
 62
     7
100
AcDbLine
 10
148.2500693275
 20
752.6695194153
 30
0.0
 11
149.2500693275
 21
752.6695194153
 31
0.0
  0
LINE
  5
CD
330
75
100
AcDbEntity
  8
$DDT_AUDIT_GENERATED_(BE)
  6
Continuous
 62
     7
100
AcDbLine
 10
149.2500693275
 20
752.5232762032
 30
0.0
 11
149.2500693275
 21
752.4014068598
 31
0.0
  0
LINE
  5
CE
330
75
100
AcDbEntity
  8
$DDT_AUDIT_GENERATED_(BE)
  6
Continuous
 62
     7
100
AcDbLine
 10
149.2500693275
 20
752.4014068598
 30
0.0
 11
148.2500693275
 21
752.4014068598
 31
0.0
  0
LINE
  5
CF
330
75
100
AcDbEntity
  8
$DDT_AUDIT_GENERATED_(BE)
  6
Continuous
 62
     7
100
AcDbLine
 10
148.2500693275
 20
752.5232762032
 30
0.0
 11
149.2500693275
 21
752.5232762032
 31
0.0
  0
LINE
  5
D0
330
75
100
AcDbEntity
  8
$DDT_AUDIT_GENERATED_(BE)
  6
Continuous
 62
     7
100
AcDbLine
 10
149.2500693275
 20
752.3770329912
 30
0.0
 11
149.2500693275
 21
752.2551636478
 31
0.0
  0
LINE
  5
D1
330
75
100
AcDbEntity
  8
$DDT_AUDIT_GENERATED_(BE)
  6
Continuous
 62
     7
100
AcDbLine
 10
149.2500693275
 20
752.2551636478
 30
0.0
 11
148.2500693275
 21
752.2551636478
 31
0.0
  0
LINE
  5
D2
330
75
100
AcDbEntity
  8
$DDT_AUDIT_GENERATED_(BE)
  6
Continuous
 62
     7
100
AcDbLine
 10
148.2500693275
 20
752.3770329912
 30
0.0
 11
149.2500693275
 21
752.3770329912
 31
0.0
  0
LINE
  5
D3
330
75
100
AcDbEntity
  8
$DDT_AUDIT_GENERATED_(BE)
  6
Continuous
 62
     7
100
AcDbLine
 10
149.2500693275
 20
752.1089204357
 30
0.0
 11
148.2500693275
 21
752.1089204357
 31
0.0
  0
LINE
  5
D4
330
75
100
AcDbEntity
  8
$DDT_AUDIT_GENERATED_(BE)
  6
Continuous
 62
     7
100
AcDbLine
 10
149.2500693275
 20
752.2307897791
 30
0.0
 11
149.2500693275
 21
752.1089204357
 31
0.0
  0
LINE
  5
D5
330
75
100
AcDbEntity
  8
$DDT_AUDIT_GENERATED_(BE)
  6
Continuous
 62
     7
100
AcDbLine
 10
148.2500693275
 20
752.2307897791
 30
0.0
 11
149.2500693275
 21
752.2307897791
 31
0.0
  0
LINE
  5
D6
330
75
100
AcDbEntity
  8
$DDT_AUDIT_GENERATED_(BE)
  6
Continuous
 62
     7
100
AcDbLine
 10
150.4500693275
 20
753.1082490516
 30
0.0
 11
150.4500693275
 21
752.9863797082
 31
0.0
  0
LINE
  5
D7
330
75
100
AcDbEntity
  8
$DDT_AUDIT_GENERATED_(BE)
  6
Continuous
 62
     7
100
AcDbLine
 10
150.4500693275
 20
752.9863797082
 30
0.0
 11
149.4500693275
 21
752.9863797082
 31
0.0
  0
LINE
  5
D8
330
75
100
AcDbEntity
  8
$DDT_AUDIT_GENERATED_(BE)
  6
Continuous
 62
     7
100
AcDbLine
 10
149.4500693275
 20
752.9863797082
 30
0.0
 11
149.4500693275
 21
753.1082490516
 31
0.0
  0
LINE
  5
D9
330
75
100
AcDbEntity
  8
$DDT_AUDIT_GENERATED_(BE)
  6
Continuous
 62
     7
100
AcDbLine
 10
150.4500693275
 20
752.9620058395
 30
0.0
 11
150.4500693275
 21
752.8401364961
 31
0.0
  0
LINE
  5
DA
330
75
100
AcDbEntity
  8
$DDT_AUDIT_GENERATED_(BE)
  6
Continuous
 62
     7
100
AcDbLine
 10
150.4500693275
 20
752.8401364961
 30
0.0
 11
149.4500693275
 21
752.8401364961
 31
0.0
  0
LINE
  5
DB
330
75
100
AcDbEntity
  8
$DDT_AUDIT_GENERATED_(BE)
  6
Continuous
 62
     7
100
AcDbLine
 10
149.4500693275
 20
752.8401364961
 30
0.0
 11
149.4500693275
 21
752.9620058395
 31
0.0
  0
LINE
  5
DC
330
75
100
AcDbEntity
  8
$DDT_AUDIT_GENERATED_(BE)
  6
Continuous
 62
     7
100
AcDbLine
 10
149.4500693275
 20
752.9620058395
 30
0.0
 11
150.4500693275
 21
752.9620058395
 31
0.0
  0
LINE
  5
DD
330
75
100
AcDbEntity
  8
$DDT_AUDIT_GENERATED_(BE)
  6
Continuous
 62
     7
100
AcDbLine
 10
150.4500693275
 20
752.8157626274
 30
0.0
 11
150.4500693275
 21
752.693893284
 31
0.0
  0
LINE
  5
DE
330
75
100
AcDbEntity
  8
$DDT_AUDIT_GENERATED_(BE)
  6
Continuous
 62
     7
100
AcDbLine
 10
150.4500693275
 20
752.693893284
 30
0.0
 11
149.4500693275
 21
752.693893284
 31
0.0
  0
LINE
  5
DF
330
75
100
AcDbEntity
  8
$DDT_AUDIT_GENERATED_(BE)
  6
Continuous
 62
     7
100
AcDbLine
 10
149.4500693275
 20
752.693893284
 30
0.0
 11
149.4500693275
 21
752.8157626274
 31
0.0
  0
LINE
  5
E0
330
75
100
AcDbEntity
  8
$DDT_AUDIT_GENERATED_(BE)
  6
Continuous
 62
     7
100
AcDbLine
 10
149.4500693275
 20
752.8157626274
 30
0.0
 11
150.4500693275
 21
752.8157626274
 31
0.0
  0
LINE
  5
E1
330
75
100
AcDbEntity
  8
$DDT_AUDIT_GENERATED_(BE)
  6
Continuous
 62
     7
100
AcDbLine
 10
150.4500693275
 20
752.6695194153
 30
0.0
 11
150.4500693275
 21
752.5476500719
 31
0.0
  0
LINE
  5
E2
330
75
100
AcDbEntity
  8
$DDT_AUDIT_GENERATED_(BE)
  6
Continuous
 62
     7
100
AcDbLine
 10
150.4500693275
 20
752.5476500719
 30
0.0
 11
149.4500693275
 21
752.5476500719
 31
0.0
  0
LINE
  5
E3
330
75
100
AcDbEntity
  8
$DDT_AUDIT_GENERATED_(BE)
  6
Continuous
 62
     7
100
AcDbLine
 10
149.4500693275
 20
752.5476500719
 30
0.0
 11
149.4500693275
 21
752.6695194153
 31
0.0
  0
LINE
  5
E4
330
75
100
AcDbEntity
  8
$DDT_AUDIT_GENERATED_(BE)
  6
Continuous
 62
     7
100
AcDbLine
 10
149.4500693275
 20
752.6695194153
 30
0.0
 11
150.4500693275
 21
752.6695194153
 31
0.0
  0
LINE
  5
E5
330
75
100
AcDbEntity
  8
$DDT_AUDIT_GENERATED_(BE)
  6
Continuous
 62
     7
100
AcDbLine
 10
150.4500693275
 20
752.5232762032
 30
0.0
 11
150.4500693275
 21
752.4014068598
 31
0.0
  0
LINE
  5
E6
330
75
100
AcDbEntity
  8
$DDT_AUDIT_GENERATED_(BE)
  6
Continuous
 62
     7
100
AcDbLine
 10
150.4500693275
 20
752.4014068598
 30
0.0
 11
149.4500693275
 21
752.4014068598
 31
0.0
  0
LINE
  5
E7
330
75
100
AcDbEntity
  8
$DDT_AUDIT_GENERATED_(BE)
  6
Continuous
 62
     7
100
AcDbLine
 10
149.4500693275
 20
752.4014068598
 30
0.0
 11
149.4500693275
 21
752.5232762032
 31
0.0
  0
LINE
  5
E8
330
75
100
AcDbEntity
  8
$DDT_AUDIT_GENERATED_(BE)
  6
Continuous
 62
     7
100
AcDbLine
 10
149.4500693275
 20
752.5232762032
 30
0.0
 11
150.4500693275
 21
752.5232762032
 31
0.0
  0
LINE
  5
E9
330
75
100
AcDbEntity
  8
$DDT_AUDIT_GENERATED_(BE)
  6
Continuous
 62
     7
100
AcDbLine
 10
150.4500693275
 20
752.3770329912
 30
0.0
 11
150.4500693275
 21
752.2551636478
 31
0.0
  0
LINE
  5
EA
330
75
100
AcDbEntity
  8
$DDT_AUDIT_GENERATED_(BE)
  6
Continuous
 62
     7
100
AcDbLine
 10
150.4500693275
 20
752.2551636478
 30
0.0
 11
149.4500693275
 21
752.2551636478
 31
0.0
  0
LINE
  5
EB
330
75
100
AcDbEntity
  8
$DDT_AUDIT_GENERATED_(BE)
  6
Continuous
 62
     7
100
AcDbLine
 10
149.4500693275
 20
752.2551636478
 30
0.0
 11
149.4500693275
 21
752.3770329912
 31
0.0
  0
LINE
  5
EC
330
75
100
AcDbEntity
  8
$DDT_AUDIT_GENERATED_(BE)
  6
Continuous
 62
     7
100
AcDbLine
 10
149.4500693275
 20
752.3770329912
 30
0.0
 11
150.4500693275
 21
752.3770329912
 31
0.0
  0
LINE
  5
ED
330
75
100
AcDbEntity
  8
$DDT_AUDIT_GENERATED_(BE)
  6
Continuous
 62
     7
100
AcDbLine
 10
150.4500693275
 20
752.2307897791
 30
0.0
 11
150.4500693275
 21
752.1089204357
 31
0.0
  0
LINE
  5
EE
330
75
100
AcDbEntity
  8
$DDT_AUDIT_GENERATED_(BE)
  6
Continuous
 62
     7
100
AcDbLine
 10
150.4500693275
 20
752.1089204357
 30
0.0
 11
149.4500693275
 21
752.1089204357
 31
0.0
  0
LINE
  5
EF
330
75
100
AcDbEntity
  8
$DDT_AUDIT_GENERATED_(BE)
  6
Continuous
 62
     7
100
AcDbLine
 10
149.4500693275
 20
752.1089204357
 30
0.0
 11
149.4500693275
 21
752.2307897791
 31
0.0
  0
LINE
  5
F0
330
75
100
AcDbEntity
  8
$DDT_AUDIT_GENERATED_(BE)
  6
Continuous
 62
     7
100
AcDbLine
 10
149.4500693275
 20
752.2307897791
 30
0.0
 11
150.4500693275
 21
752.2307897791
 31
0.0
  0
LINE
  5
F1
330
75
100
AcDbEntity
  8
$DDT_AUDIT_GENERATED_(BE)
  6
Continuous
 62
     7
100
AcDbLine
 10
151.6500693275
 20
753.1082490516
 30
0.0
 11
151.6500693275
 21
752.9863797082
 31
0.0
  0
LINE
  5
F2
330
75
100
AcDbEntity
  8
$DDT_AUDIT_GENERATED_(BE)
  6
Continuous
 62
     7
100
AcDbLine
 10
151.6500693275
 20
752.9863797082
 30
0.0
 11
150.6500693275
 21
752.9863797082
 31
0.0
  0
LINE
  5
F3
330
75
100
AcDbEntity
  8
$DDT_AUDIT_GENERATED_(BE)
  6
Continuous
 62
     7
100
AcDbLine
 10
150.6500693275
 20
752.9863797082
 30
0.0
 11
150.6500693275
 21
753.1082490516
 31
0.0
  0
LINE
  5
F4
330
75
100
AcDbEntity
  8
$DDT_AUDIT_GENERATED_(BE)
  6
Continuous
 62
     7
100
AcDbLine
 10
151.6500693275
 20
752.9620058395
 30
0.0
 11
151.6500693275
 21
752.8401364961
 31
0.0
  0
LINE
  5
F5
330
75
100
AcDbEntity
  8
$DDT_AUDIT_GENERATED_(BE)
  6
Continuous
 62
     7
100
AcDbLine
 10
151.6500693275
 20
752.8401364961
 30
0.0
 11
150.6500693275
 21
752.8401364961
 31
0.0
  0
LINE
  5
F6
330
75
100
AcDbEntity
  8
$DDT_AUDIT_GENERATED_(BE)
  6
Continuous
 62
     7
100
AcDbLine
 10
150.6500693275
 20
752.8401364961
 30
0.0
 11
150.6500693275
 21
752.9620058395
 31
0.0
  0
LINE
  5
F7
330
75
100
AcDbEntity
  8
$DDT_AUDIT_GENERATED_(BE)
  6
Continuous
 62
     7
100
AcDbLine
 10
150.6500693275
 20
752.9620058395
 30
0.0
 11
151.6500693275
 21
752.9620058395
 31
0.0
  0
LINE
  5
F8
330
75
100
AcDbEntity
  8
$DDT_AUDIT_GENERATED_(BE)
  6
Continuous
 62
     7
100
AcDbLine
 10
151.6500693275
 20
752.8157626274
 30
0.0
 11
151.6500693275
 21
752.693893284
 31
0.0
  0
LINE
  5
F9
330
75
100
AcDbEntity
  8
$DDT_AUDIT_GENERATED_(BE)
  6
Continuous
 62
     7
100
AcDbLine
 10
151.6500693275
 20
752.693893284
 30
0.0
 11
150.6500693275
 21
752.693893284
 31
0.0
  0
LINE
  5
FA
330
75
100
AcDbEntity
  8
$DDT_AUDIT_GENERATED_(BE)
  6
Continuous
 62
     7
100
AcDbLine
 10
150.6500693275
 20
752.693893284
 30
0.0
 11
150.6500693275
 21
752.8157626274
 31
0.0
  0
LINE
  5
FB
330
75
100
AcDbEntity
  8
$DDT_AUDIT_GENERATED_(BE)
  6
Continuous
 62
     7
100
AcDbLine
 10
150.6500693275
 20
752.8157626274
 30
0.0
 11
151.6500693275
 21
752.8157626274
 31
0.0
  0
LINE
  5
FC
330
75
100
AcDbEntity
  8
$DDT_AUDIT_GENERATED_(BE)
  6
Continuous
 62
     7
100
AcDbLine
 10
151.6500693275
 20
752.6695194153
 30
0.0
 11
151.6500693275
 21
752.5476500719
 31
0.0
  0
LINE
  5
FD
330
75
100
AcDbEntity
  8
$DDT_AUDIT_GENERATED_(BE)
  6
Continuous
 62
     7
100
AcDbLine
 10
151.6500693275
 20
752.5476500719
 30
0.0
 11
150.6500693275
 21
752.5476500719
 31
0.0
  0
LINE
  5
FE
330
75
100
AcDbEntity
  8
$DDT_AUDIT_GENERATED_(BE)
  6
Continuous
 62
     7
100
AcDbLine
 10
150.6500693275
 20
752.5476500719
 30
0.0
 11
150.6500693275
 21
752.6695194153
 31
0.0
  0
LINE
  5
FF
330
75
100
AcDbEntity
  8
$DDT_AUDIT_GENERATED_(BE)
  6
Continuous
 62
     7
100
AcDbLine
 10
150.6500693275
 20
752.6695194153
 30
0.0
 11
151.6500693275
 21
752.6695194153
 31
0.0
  0
LINE
  5
100
330
75
100
AcDbEntity
  8
$DDT_AUDIT_GENERATED_(BE)
  6
Continuous
 62
     7
100
AcDbLine
 10
151.6500693275
 20
752.5232762032
 30
0.0
 11
151.6500693275
 21
752.4014068598
 31
0.0
  0
LINE
  5
101
330
75
100
AcDbEntity
  8
$DDT_AUDIT_GENERATED_(BE)
  6
Continuous
 62
     7
100
AcDbLine
 10
151.6500693275
 20
752.4014068598
 30
0.0
 11
150.6500693275
 21
752.4014068598
 31
0.0
  0
LINE
  5
102
330
75
100
AcDbEntity
  8
$DDT_AUDIT_GENERATED_(BE)
  6
Continuous
 62
     7
100
AcDbLine
 10
150.6500693275
 20
752.4014068598
 30
0.0
 11
150.6500693275
 21
752.5232762032
 31
0.0
  0
LINE
  5
103
330
75
100
AcDbEntity
  8
$DDT_AUDIT_GENERATED_(BE)
  6
Continuous
 62
     7
100
AcDbLine
 10
150.6500693275
 20
752.5232762032
 30
0.0
 11
151.6500693275
 21
752.5232762032
 31
0.0
  0
LINE
  5
104
330
75
100
AcDbEntity
  8
$DDT_AUDIT_GENERATED_(BE)
  6
Continuous
 62
     7
100
AcDbLine
 10
151.6500693275
 20
752.3770329912
 30
0.0
 11
151.6500693275
 21
752.2551636478
 31
0.0
  0
LINE
  5
105
330
75
100
AcDbEntity
  8
$DDT_AUDIT_GENERATED_(BE)
  6
Continuous
 62
     7
100
AcDbLine
 10
151.6500693275
 20
752.2551636478
 30
0.0
 11
150.6500693275
 21
752.2551636478
 31
0.0
  0
LINE
  5
106
330
75
100
AcDbEntity
  8
$DDT_AUDIT_GENERATED_(BE)
  6
Continuous
 62
     7
100
AcDbLine
 10
150.6500693275
 20
752.2551636478
 30
0.0
 11
150.6500693275
 21
752.3770329912
 31
0.0
  0
LINE
  5
107
330
75
100
AcDbEntity
  8
$DDT_AUDIT_GENERATED_(BE)
  6
Continuous
 62
     7
100
AcDbLine
 10
150.6500693275
 20
752.3770329912
 30
0.0
 11
151.6500693275
 21
752.3770329912
 31
0.0
  0
LINE
  5
108
330
75
100
AcDbEntity
  8
$DDT_AUDIT_GENERATED_(BE)
  6
Continuous
 62
     7
100
AcDbLine
 10
152.8500693275
 20
753.1082490516
 30
0.0
 11
152.8500693275
 21
752.9863797082
 31
0.0
  0
LINE
  5
109
330
75
100
AcDbEntity
  8
$DDT_AUDIT_GENERATED_(BE)
  6
Continuous
 62
     7
100
AcDbLine
 10
152.8500693275
 20
752.9863797082
 30
0.0
 11
151.8500693275
 21
752.9863797082
 31
0.0
  0
LINE
  5
10A
330
75
100
AcDbEntity
  8
$DDT_AUDIT_GENERATED_(BE)
  6
Continuous
 62
     7
100
AcDbLine
 10
151.8500693275
 20
752.9863797082
 30
0.0
 11
151.8500693275
 21
753.1082490516
 31
0.0
  0
LINE
  5
10B
330
75
100
AcDbEntity
  8
$DDT_AUDIT_GENERATED_(BE)
  6
Continuous
 62
     7
100
AcDbLine
 10
152.8500693275
 20
752.9620058395
 30
0.0
 11
152.8500693275
 21
752.8401364961
 31
0.0
  0
LINE
  5
10C
330
75
100
AcDbEntity
  8
$DDT_AUDIT_GENERATED_(BE)
  6
Continuous
 62
     7
100
AcDbLine
 10
152.8500693275
 20
752.8401364961
 30
0.0
 11
151.8500693275
 21
752.8401364961
 31
0.0
  0
LINE
  5
10D
330
75
100
AcDbEntity
  8
$DDT_AUDIT_GENERATED_(BE)
  6
Continuous
 62
     7
100
AcDbLine
 10
151.8500693275
 20
752.8401364961
 30
0.0
 11
151.8500693275
 21
752.9620058395
 31
0.0
  0
LINE
  5
10E
330
75
100
AcDbEntity
  8
$DDT_AUDIT_GENERATED_(BE)
  6
Continuous
 62
     7
100
AcDbLine
 10
151.8500693275
 20
752.9620058395
 30
0.0
 11
152.8500693275
 21
752.9620058395
 31
0.0
  0
LINE
  5
10F
330
75
100
AcDbEntity
  8
$DDT_AUDIT_GENERATED_(BE)
  6
Continuous
 62
     7
100
AcDbLine
 10
152.8500693275
 20
752.8157626274
 30
0.0
 11
152.8500693275
 21
752.693893284
 31
0.0
  0
LINE
  5
110
330
75
100
AcDbEntity
  8
$DDT_AUDIT_GENERATED_(BE)
  6
Continuous
 62
     7
100
AcDbLine
 10
152.8500693275
 20
752.693893284
 30
0.0
 11
151.8500693275
 21
752.693893284
 31
0.0
  0
LINE
  5
111
330
75
100
AcDbEntity
  8
$DDT_AUDIT_GENERATED_(BE)
  6
Continuous
 62
     7
100
AcDbLine
 10
151.8500693275
 20
752.693893284
 30
0.0
 11
151.8500693275
 21
752.8157626274
 31
0.0
  0
LINE
  5
112
330
75
100
AcDbEntity
  8
$DDT_AUDIT_GENERATED_(BE)
  6
Continuous
 62
     7
100
AcDbLine
 10
151.8500693275
 20
752.8157626274
 30
0.0
 11
152.8500693275
 21
752.8157626274
 31
0.0
  0
LINE
  5
113
330
75
100
AcDbEntity
  8
$DDT_AUDIT_GENERATED_(BE)
  6
Continuous
 62
     7
100
AcDbLine
 10
152.8500693275
 20
752.6695194153
 30
0.0
 11
152.8500693275
 21
752.5476500719
 31
0.0
  0
LINE
  5
114
330
75
100
AcDbEntity
  8
$DDT_AUDIT_GENERATED_(BE)
  6
Continuous
 62
     7
100
AcDbLine
 10
152.8500693275
 20
752.5476500719
 30
0.0
 11
151.8500693275
 21
752.5476500719
 31
0.0
  0
LINE
  5
115
330
75
100
AcDbEntity
  8
$DDT_AUDIT_GENERATED_(BE)
  6
Continuous
 62
     7
100
AcDbLine
 10
151.8500693275
 20
752.5476500719
 30
0.0
 11
151.8500693275
 21
752.6695194153
 31
0.0
  0
LINE
  5
116
330
75
100
AcDbEntity
  8
$DDT_AUDIT_GENERATED_(BE)
  6
Continuous
 62
     7
100
AcDbLine
 10
151.8500693275
 20
752.6695194153
 30
0.0
 11
152.8500693275
 21
752.6695194153
 31
0.0
  0
LINE
  5
117
330
75
100
AcDbEntity
  8
$DDT_AUDIT_GENERATED_(BE)
  6
Continuous
 62
     7
100
AcDbLine
 10
152.8500693275
 20
752.5232762032
 30
0.0
 11
152.8500693275
 21
752.4014068598
 31
0.0
  0
LINE
  5
118
330
75
100
AcDbEntity
  8
$DDT_AUDIT_GENERATED_(BE)
  6
Continuous
 62
     7
100
AcDbLine
 10
152.8500693275
 20
752.4014068598
 30
0.0
 11
151.8500693275
 21
752.4014068598
 31
0.0
  0
LINE
  5
119
330
75
100
AcDbEntity
  8
$DDT_AUDIT_GENERATED_(BE)
  6
Continuous
 62
     7
100
AcDbLine
 10
151.8500693275
 20
752.4014068598
 30
0.0
 11
151.8500693275
 21
752.5232762032
 31
0.0
  0
LINE
  5
11A
330
75
100
AcDbEntity
  8
$DDT_AUDIT_GENERATED_(BE)
  6
Continuous
 62
     7
100
AcDbLine
 10
151.8500693275
 20
752.5232762032
 30
0.0
 11
152.8500693275
 21
752.5232762032
 31
0.0
  0
LINE
  5
11B
330
75
100
AcDbEntity
  8
$DDT_AUDIT_GENERATED_(BE)
  6
Continuous
 62
     7
100
AcDbLine
 10
152.8500693275
 20
752.2551636478
 30
0.0
 11
151.8500693275
 21
752.2551636478
 31
0.0
  0
LINE
  5
11C
330
75
100
AcDbEntity
  8
$DDT_AUDIT_GENERATED_(BE)
  6
Continuous
 62
     7
100
AcDbLine
 10
152.8500693275
 20
752.3770329912
 30
0.0
 11
152.8500693275
 21
752.2551636478
 31
0.0
  0
LINE
  5
11D
330
75
100
AcDbEntity
  8
$DDT_AUDIT_GENERATED_(BE)
  6
Continuous
 62
     7
100
AcDbLine
 10
151.8500693275
 20
752.2551636478
 30
0.0
 11
151.8500693275
 21
752.3770329912
 31
0.0
  0
LINE
  5
11E
330
75
100
AcDbEntity
  8
$DDT_AUDIT_GENERATED_(BE)
  6
Continuous
 62
     7
100
AcDbLine
 10
151.8500693275
 20
752.3770329912
 30
0.0
 11
152.8500693275
 21
752.3770329912
 31
0.0
  0
LINE
  5
11F
330
75
100
AcDbEntity
  8
$DDT_AUDIT_GENERATED_(BE)
  6
Continuous
 62
     7
100
AcDbLine
 10
154.0500693275
 20
753.1082490516
 30
0.0
 11
154.0500693275
 21
752.9863797082
 31
0.0
  0
LINE
  5
120
330
75
100
AcDbEntity
  8
$DDT_AUDIT_GENERATED_(BE)
  6
Continuous
 62
     7
100
AcDbLine
 10
154.0500693275
 20
752.9863797082
 30
0.0
 11
153.0500693275
 21
752.9863797082
 31
0.0
  0
LINE
  5
121
330
75
100
AcDbEntity
  8
$DDT_AUDIT_GENERATED_(BE)
  6
Continuous
 62
     7
100
AcDbLine
 10
153.0500693275
 20
752.9863797082
 30
0.0
 11
153.0500693275
 21
753.1082490516
 31
0.0
  0
LINE
  5
122
330
75
100
AcDbEntity
  8
$DDT_AUDIT_GENERATED_(BE)
  6
Continuous
 62
     7
100
AcDbLine
 10
154.0500693275
 20
752.9620058395
 30
0.0
 11
154.0500693275
 21
752.8401364961
 31
0.0
  0
LINE
  5
123
330
75
100
AcDbEntity
  8
$DDT_AUDIT_GENERATED_(BE)
  6
Continuous
 62
     7
100
AcDbLine
 10
154.0500693275
 20
752.8401364961
 30
0.0
 11
153.0500693275
 21
752.8401364961
 31
0.0
  0
LINE
  5
124
330
75
100
AcDbEntity
  8
$DDT_AUDIT_GENERATED_(BE)
  6
Continuous
 62
     7
100
AcDbLine
 10
153.0500693275
 20
752.8401364961
 30
0.0
 11
153.0500693275
 21
752.9620058395
 31
0.0
  0
LINE
  5
125
330
75
100
AcDbEntity
  8
$DDT_AUDIT_GENERATED_(BE)
  6
Continuous
 62
     7
100
AcDbLine
 10
153.0500693275
 20
752.9620058395
 30
0.0
 11
154.0500693275
 21
752.9620058395
 31
0.0
  0
LINE
  5
126
330
75
100
AcDbEntity
  8
$DDT_AUDIT_GENERATED_(BE)
  6
Continuous
 62
     7
100
AcDbLine
 10
154.0500693275
 20
752.8157626274
 30
0.0
 11
154.0500693275
 21
752.693893284
 31
0.0
  0
LINE
  5
127
330
75
100
AcDbEntity
  8
$DDT_AUDIT_GENERATED_(BE)
  6
Continuous
 62
     7
100
AcDbLine
 10
154.0500693275
 20
752.693893284
 30
0.0
 11
153.0500693275
 21
752.693893284
 31
0.0
  0
LINE
  5
128
330
75
100
AcDbEntity
  8
$DDT_AUDIT_GENERATED_(BE)
  6
Continuous
 62
     7
100
AcDbLine
 10
153.0500693275
 20
752.693893284
 30
0.0
 11
153.0500693275
 21
752.8157626274
 31
0.0
  0
LINE
  5
129
330
75
100
AcDbEntity
  8
$DDT_AUDIT_GENERATED_(BE)
  6
Continuous
 62
     7
100
AcDbLine
 10
153.0500693275
 20
752.8157626274
 30
0.0
 11
154.0500693275
 21
752.8157626274
 31
0.0
  0
LINE
  5
12A
330
75
100
AcDbEntity
  8
$DDT_AUDIT_GENERATED_(BE)
  6
Continuous
 62
     7
100
AcDbLine
 10
154.0500693275
 20
752.6695194153
 30
0.0
 11
154.0500693275
 21
752.5476500719
 31
0.0
  0
LINE
  5
12B
330
75
100
AcDbEntity
  8
$DDT_AUDIT_GENERATED_(BE)
  6
Continuous
 62
     7
100
AcDbLine
 10
154.0500693275
 20
752.5476500719
 30
0.0
 11
153.0500693275
 21
752.5476500719
 31
0.0
  0
LINE
  5
12C
330
75
100
AcDbEntity
  8
$DDT_AUDIT_GENERATED_(BE)
  6
Continuous
 62
     7
100
AcDbLine
 10
153.0500693275
 20
752.5476500719
 30
0.0
 11
153.0500693275
 21
752.6695194153
 31
0.0
  0
LINE
  5
12D
330
75
100
AcDbEntity
  8
$DDT_AUDIT_GENERATED_(BE)
  6
Continuous
 62
     7
100
AcDbLine
 10
153.0500693275
 20
752.6695194153
 30
0.0
 11
154.0500693275
 21
752.6695194153
 31
0.0
  0
LINE
  5
12E
330
75
100
AcDbEntity
  8
$DDT_AUDIT_GENERATED_(BE)
  6
Continuous
 62
     7
100
AcDbLine
 10
154.0500693275
 20
752.5232762032
 30
0.0
 11
154.0500693275
 21
752.4014068598
 31
0.0
  0
LINE
  5
12F
330
75
100
AcDbEntity
  8
$DDT_AUDIT_GENERATED_(BE)
  6
Continuous
 62
     7
100
AcDbLine
 10
154.0500693275
 20
752.4014068598
 30
0.0
 11
153.0500693275
 21
752.4014068598
 31
0.0
  0
LINE
  5
130
330
75
100
AcDbEntity
  8
$DDT_AUDIT_GENERATED_(BE)
  6
Continuous
 62
     7
100
AcDbLine
 10
153.0500693275
 20
752.4014068598
 30
0.0
 11
153.0500693275
 21
752.5232762032
 31
0.0
  0
LINE
  5
131
330
75
100
AcDbEntity
  8
$DDT_AUDIT_GENERATED_(BE)
  6
Continuous
 62
     7
100
AcDbLine
 10
153.0500693275
 20
752.5232762032
 30
0.0
 11
154.0500693275
 21
752.5232762032
 31
0.0
  0
LINE
  5
132
330
75
100
AcDbEntity
  8
$DDT_AUDIT_GENERATED_(BE)
  6
Continuous
 62
     7
100
AcDbLine
 10
155.2500693275
 20
753.1082490516
 30
0.0
 11
155.2500693275
 21
752.9863797082
 31
0.0
  0
LINE
  5
133
330
75
100
AcDbEntity
  8
$DDT_AUDIT_GENERATED_(BE)
  6
Continuous
 62
     7
100
AcDbLine
 10
155.2500693275
 20
752.9863797082
 30
0.0
 11
154.2500693275
 21
752.9863797082
 31
0.0
  0
LINE
  5
134
330
75
100
AcDbEntity
  8
$DDT_AUDIT_GENERATED_(BE)
  6
Continuous
 62
     7
100
AcDbLine
 10
154.2500693275
 20
752.9863797082
 30
0.0
 11
154.2500693275
 21
753.1082490516
 31
0.0
  0
LINE
  5
135
330
75
100
AcDbEntity
  8
$DDT_AUDIT_GENERATED_(BE)
  6
Continuous
 62
     7
100
AcDbLine
 10
155.2500693275
 20
752.9620058395
 30
0.0
 11
155.2500693275
 21
752.8401364961
 31
0.0
  0
LINE
  5
136
330
75
100
AcDbEntity
  8
$DDT_AUDIT_GENERATED_(BE)
  6
Continuous
 62
     7
100
AcDbLine
 10
155.2500693275
 20
752.8401364961
 30
0.0
 11
154.2500693275
 21
752.8401364961
 31
0.0
  0
LINE
  5
137
330
75
100
AcDbEntity
  8
$DDT_AUDIT_GENERATED_(BE)
  6
Continuous
 62
     7
100
AcDbLine
 10
154.2500693275
 20
752.8401364961
 30
0.0
 11
154.2500693275
 21
752.9620058395
 31
0.0
  0
LINE
  5
138
330
75
100
AcDbEntity
  8
$DDT_AUDIT_GENERATED_(BE)
  6
Continuous
 62
     7
100
AcDbLine
 10
154.2500693275
 20
752.9620058395
 30
0.0
 11
155.2500693275
 21
752.9620058395
 31
0.0
  0
LINE
  5
139
330
75
100
AcDbEntity
  8
$DDT_AUDIT_GENERATED_(BE)
  6
Continuous
 62
     7
100
AcDbLine
 10
155.2500693275
 20
752.8157626274
 30
0.0
 11
155.2500693275
 21
752.693893284
 31
0.0
  0
LINE
  5
13A
330
75
100
AcDbEntity
  8
$DDT_AUDIT_GENERATED_(BE)
  6
Continuous
 62
     7
100
AcDbLine
 10
155.2500693275
 20
752.693893284
 30
0.0
 11
154.2500693275
 21
752.693893284
 31
0.0
  0
LINE
  5
13B
330
75
100
AcDbEntity
  8
$DDT_AUDIT_GENERATED_(BE)
  6
Continuous
 62
     7
100
AcDbLine
 10
154.2500693275
 20
752.693893284
 30
0.0
 11
154.2500693275
 21
752.8157626274
 31
0.0
  0
LINE
  5
13C
330
75
100
AcDbEntity
  8
$DDT_AUDIT_GENERATED_(BE)
  6
Continuous
 62
     7
100
AcDbLine
 10
154.2500693275
 20
752.8157626274
 30
0.0
 11
155.2500693275
 21
752.8157626274
 31
0.0
  0
LINE
  5
13D
330
75
100
AcDbEntity
  8
$DDT_AUDIT_GENERATED_(BE)
  6
Continuous
 62
     7
100
AcDbLine
 10
155.2500693275
 20
752.6695194153
 30
0.0
 11
155.2500693275
 21
752.5476500719
 31
0.0
  0
LINE
  5
13E
330
75
100
AcDbEntity
  8
$DDT_AUDIT_GENERATED_(BE)
  6
Continuous
 62
     7
100
AcDbLine
 10
155.2500693275
 20
752.5476500719
 30
0.0
 11
154.2500693275
 21
752.5476500719
 31
0.0
  0
LINE
  5
13F
330
75
100
AcDbEntity
  8
$DDT_AUDIT_GENERATED_(BE)
  6
Continuous
 62
     7
100
AcDbLine
 10
154.2500693275
 20
752.5476500719
 30
0.0
 11
154.2500693275
 21
752.6695194153
 31
0.0
  0
LINE
  5
140
330
75
100
AcDbEntity
  8
$DDT_AUDIT_GENERATED_(BE)
  6
Continuous
 62
     7
100
AcDbLine
 10
154.2500693275
 20
752.6695194153
 30
0.0
 11
155.2500693275
 21
752.6695194153
 31
0.0
  0
LINE
  5
141
330
75
100
AcDbEntity
  8
$DDT_AUDIT_GENERATED_(BE)
  6
Continuous
 62
     7
100
AcDbLine
 10
156.186606057
 20
752.9863797082
 30
0.0
 11
155.4500693275
 21
752.9863797082
 31
0.0
  0
LINE
  5
142
330
75
100
AcDbEntity
  8
$DDT_AUDIT_GENERATED_(BE)
  6
Continuous
 62
     7
100
AcDbLine
 10
155.4500693275
 20
752.9863797082
 30
0.0
 11
155.4500693275
 21
753.1082490516
 31
0.0
  0
LINE
  5
143
330
75
100
AcDbEntity
  8
$DDT_AUDIT_GENERATED_(BE)
  6
Continuous
 62
     7
100
AcDbLine
 10
156.4500693275
 20
752.9119988786
 30
0.0
 11
156.4500693275
 21
752.8401364961
 31
0.0
  0
LINE
  5
144
330
75
100
AcDbEntity
  8
$DDT_AUDIT_GENERATED_(BE)
  6
Continuous
 62
     7
100
AcDbLine
 10
156.4500693275
 20
752.8401364961
 30
0.0
 11
155.4500693275
 21
752.8401364961
 31
0.0
  0
LINE
  5
145
330
75
100
AcDbEntity
  8
$DDT_AUDIT_GENERATED_(BE)
  6
Continuous
 62
     7
100
AcDbLine
 10
155.4500693275
 20
752.8401364961
 30
0.0
 11
155.4500693275
 21
752.9620058395
 31
0.0
  0
LINE
  5
146
330
75
100
AcDbEntity
  8
$DDT_AUDIT_GENERATED_(BE)
  6
Continuous
 62
     7
100
AcDbLine
 10
155.4500693275
 20
752.9620058395
 30
0.0
 11
156.2794084629
 21
752.9620058395
 31
0.0
  0
LINE
  5
147
330
75
100
AcDbEntity
  8
$DDT_AUDIT_GENERATED_(BE)
  6
Continuous
 62
     7
100
AcDbLine
 10
156.4500693275
 20
752.8157626274
 30
0.0
 11
156.4500693275
 21
752.693893284
 31
0.0
  0
LINE
  5
148
330
75
100
AcDbEntity
  8
$DDT_AUDIT_GENERATED_(BE)
  6
Continuous
 62
     7
100
AcDbLine
 10
156.4500693275
 20
752.693893284
 30
0.0
 11
155.4500693275
 21
752.693893284
 31
0.0
  0
LINE
  5
149
330
75
100
AcDbEntity
  8
$DDT_AUDIT_GENERATED_(BE)
  6
Continuous
 62
     7
100
AcDbLine
 10
155.4500693275
 20
752.693893284
 30
0.0
 11
155.4500693275
 21
752.8157626274
 31
0.0
  0
LINE
  5
14A
330
75
100
AcDbEntity
  8
$DDT_AUDIT_GENERATED_(BE)
  6
Continuous
 62
     7
100
AcDbLine
 10
155.4500693275
 20
752.8157626274
 30
0.0
 11
156.4500693275
 21
752.8157626274
 31
0.0
  0
LINE
  5
14B
330
75
100
AcDbEntity
  8
$DDT_AUDIT_GENERATED_(BE)
  6
Continuous
 62
     7
100
AcDbLine
 10
156.6516700668
 20
752.8401364961
 30
0.0
 11
156.6500693275
 21
752.8401364961
 31
0.0
  0
LINE
  5
14C
330
75
100
AcDbEntity
  8
$DDT_AUDIT_GENERATED_(BE)
  6
Continuous
 62
     7
100
AcDbLine
 10
156.6500693275
 20
752.8401364961
 30
0.0
 11
156.6500693275
 21
752.8407855078
 31
0.0
  0
LINE
  5
14D
330
75
100
AcDbEntity
  8
$DDT_AUDIT_GENERATED_(BE)
  6
Continuous
 62
     7
100
AcDbLine
 10
156.6500693275
 20
752.7575701761
 30
0.0
 11
156.6500693275
 21
752.8157626274
 31
0.0
  0
LINE
  5
14E
330
75
100
AcDbEntity
  8
$DDT_AUDIT_GENERATED_(BE)
  6
Continuous
 62
     7
100
AcDbLine
 10
156.6500693275
 20
752.8157626274
 30
0.0
 11
156.7089739964
 21
752.8157626274
 31
0.0
  0
ELLIPSE
  5
14F
330
75
100
AcDbEntity
  8
$DDT_AUDIT_GENERATED_(BE)
  6
Continuous
 62
     7
100
AcDbEllipse
 10
148.7500693271
 20
753.0473143799
 30
0.0
 11
8.250000000469726
 21
-1.909583602355269E-11
 31
0.0
210
0.0
220
0.0
230
1.0
 40
0.1218693434
 41
-0.3852141216510798
 42
-0.2923273931450776
  0
LINE
  5
150
330
75
100
AcDbEntity
  8
$DDT_AUDIT_GENERATED_(BE)
  6
Continuous
 62
     7
100
AcDbLine
 10
155.9091544646
 20
752.5476500719
 30
0.0
 11
155.9091544646
 21
752.6695194153
 31
0.0
  0
LINE
  5
151
330
75
100
AcDbEntity
  8
$DDT_AUDIT_GENERATED_(BE)
  6
Continuous
 62
     7
100
AcDbLine
 10
155.9091544646
 20
752.5476500719
 30
0.0
 11
155.4500693275
 21
752.5476500719
 31
0.0
  0
LINE
  5
152
330
75
100
AcDbEntity
  8
$DDT_AUDIT_GENERATED_(BE)
  6
Continuous
 62
     7
100
AcDbLine
 10
155.4500693275
 20
752.5476500719
 30
0.0
 11
155.4500693275
 21
752.6695194153
 31
0.0
  0
LINE
  5
153
330
75
100
AcDbEntity
  8
$DDT_AUDIT_GENERATED_(BE)
  6
Continuous
 62
     7
100
AcDbLine
 10
155.4500693275
 20
752.6695194153
 30
0.0
 11
156.3954927952
 21
752.6695194153
 31
0.0
  0
ELLIPSE
  5
154
330
75
100
AcDbEntity
  8
$DDT_AUDIT_GENERATED_(BE)
  6
Continuous
 62
     7
100
AcDbEllipse
 10
148.7500693369
 20
753.0473143791
 30
0.0
 11
8.249999990434121
 21
6.519229600598919E-10
 31
0.0
210
0.0
220
0.0
230
1.0
 40
0.1218693434
 41
-0.6634394345987777
 42
-0.6230179601558454
  0
LINE
  5
155
330
75
100
AcDbEntity
  8
$DDT_AUDIT_GENERATED_(BE)
  6
Continuous
 62
     7
100
AcDbLine
 10
155.0724502082
 20
752.4014068598
 30
0.0
 11
155.0724502082
 21
752.5232762032
 31
0.0
  0
LINE
  5
156
330
75
100
AcDbEntity
  8
$DDT_AUDIT_GENERATED_(BE)
  6
Continuous
 62
     7
100
AcDbLine
 10
155.0724502082
 20
752.4014068598
 30
0.0
 11
154.2500693275
 21
752.4014068598
 31
0.0
  0
LINE
  5
157
330
75
100
AcDbEntity
  8
$DDT_AUDIT_GENERATED_(BE)
  6
Continuous
 62
     7
100
AcDbLine
 10
154.2500693275
 20
752.4014068598
 30
0.0
 11
154.2500693275
 21
752.5232762032
 31
0.0
  0
LINE
  5
158
330
75
100
AcDbEntity
  8
$DDT_AUDIT_GENERATED_(BE)
  6
Continuous
 62
     7
100
AcDbLine
 10
154.2500693275
 20
752.5232762032
 30
0.0
 11
155.2500693275
 21
752.5232762032
 31
0.0
  0
LINE
  5
159
330
75
100
AcDbEntity
  8
$DDT_AUDIT_GENERATED_(BE)
  6
Continuous
 62
     7
100
AcDbLine
 10
155.2500693275
 20
752.5232762032
 30
0.0
 11
155.2500693275
 21
752.4281449501
 31
0.0
  0
ELLIPSE
  5
15A
330
75
100
AcDbEntity
  8
$DDT_AUDIT_GENERATED_(BE)
  6
Continuous
 62
     7
100
AcDbEllipse
 10
148.7500691744
 20
753.047314391
 30
0.0
 11
8.250000154915698
 21
-9.743428286412836E-9
 31
0.0
210
0.0
220
0.0
230
1.0
 40
0.1218693428
 41
-0.5482706290620945
 42
-0.5201031985470701
  0
LINE
  5
15B
330
75
100
AcDbEntity
  8
$DDT_AUDIT_GENERATED_(BE)
  6
Continuous
 62
     7
100
AcDbLine
 10
155.4500693275
 20
752.4606618921
 30
0.0
 11
155.4500693275
 21
752.5232762032
 31
0.0
  0
LINE
  5
15C
330
75
100
AcDbEntity
  8
$DDT_AUDIT_GENERATED_(BE)
  6
Continuous
 62
     7
100
AcDbLine
 10
155.4500693275
 20
752.5232762032
 30
0.0
 11
155.7908434327
 21
752.5232762032
 31
0.0
  0
ELLIPSE
  5
15D
330
75
100
AcDbEntity
  8
$DDT_AUDIT_GENERATED_(BE)
  6
Continuous
 62
     7
100
AcDbEllipse
 10
148.7500692481
 20
753.0473143911
 30
0.0
 11
8.250000086688253
 21
-7.453704320425913E-9
 31
0.0
210
0.0
220
0.0
230
1.0
 40
0.1218693435
 41
-0.8731388700540013
 42
-0.8410686669313057
  0
LINE
  5
15E
330
75
100
AcDbEntity
  8
$DDT_AUDIT_GENERATED_(BE)
  6
Continuous
 62
     7
100
AcDbLine
 10
153.8306696858
 20
752.2551636478
 30
0.0
 11
153.8306696858
 21
752.3770329912
 31
0.0
  0
LINE
  5
15F
330
75
100
AcDbEntity
  8
$DDT_AUDIT_GENERATED_(BE)
  6
Continuous
 62
     7
100
AcDbLine
 10
153.8306696858
 20
752.2551636478
 30
0.0
 11
153.0500693275
 21
752.2551636478
 31
0.0
  0
LINE
  5
160
330
75
100
AcDbEntity
  8
$DDT_AUDIT_GENERATED_(BE)
  6
Continuous
 62
     7
100
AcDbLine
 10
153.0500693275
 20
752.2551636478
 30
0.0
 11
153.0500693275
 21
752.3770329912
 31
0.0
  0
LINE
  5
161
330
75
100
AcDbEntity
  8
$DDT_AUDIT_GENERATED_(BE)
  6
Continuous
 62
     7
100
AcDbLine
 10
153.0500693275
 20
752.3770329912
 30
0.0
 11
154.0500693275
 21
752.3770329912
 31
0.0
  0
LINE
  5
162
330
75
100
AcDbEntity
  8
$DDT_AUDIT_GENERATED_(BE)
  6
Continuous
 62
     7
100
AcDbLine
 10
154.0500693275
 20
752.3770329912
 30
0.0
 11
154.0500693275
 21
752.2768099732
 31
0.0
  0
ELLIPSE
  5
163
330
75
100
AcDbEntity
  8
$DDT_AUDIT_GENERATED_(BE)
  6
Continuous
 62
     7
100
AcDbEllipse
 10
148.7500693552
 20
753.047314377
 30
0.0
 11
8.249999971208702
 21
2.183087044471677E-9
 31
0.0
210
0.0
220
0.0
230
1.0
 40
0.1218693434
 41
-0.729727657392842
 42
-0.6976574539631084
  0
LINE
  5
164
330
75
100
AcDbEntity
  8
$DDT_AUDIT_GENERATED_(BE)
  6
Continuous
 62
     7
100
AcDbLine
 10
154.2500693275
 20
752.2979170053
 30
0.0
 11
154.2500693275
 21
752.3770329912
 31
0.0
  0
LINE
  5
165
330
75
100
AcDbEntity
  8
$DDT_AUDIT_GENERATED_(BE)
  6
Continuous
 62
     7
100
AcDbLine
 10
154.2500693275
 20
752.3770329912
 30
0.0
 11
154.8992562657
 21
752.3770329912
 31
0.0
  0
LINE
  5
166
330
75
100
AcDbEntity
  8
$DDT_AUDIT_GENERATED_(BE)
  6
Continuous
 62
     7
100
AcDbLine
 10
151.6500693275
 20
752.2307897791
 30
0.0
 11
151.6500693275
 21
752.1089204357
 31
0.0
  0
LINE
  5
167
330
75
100
AcDbEntity
  8
$DDT_AUDIT_GENERATED_(BE)
  6
Continuous
 62
     7
100
AcDbLine
 10
151.6500693275
 20
752.1089204357
 30
0.0
 11
150.6500693275
 21
752.1089204357
 31
0.0
  0
LINE
  5
168
330
75
100
AcDbEntity
  8
$DDT_AUDIT_GENERATED_(BE)
  6
Continuous
 62
     7
100
AcDbLine
 10
150.6500693275
 20
752.1089204357
 30
0.0
 11
150.6500693275
 21
752.2307897791
 31
0.0
  0
LINE
  5
169
330
75
100
AcDbEntity
  8
$DDT_AUDIT_GENERATED_(BE)
  6
Continuous
 62
     7
100
AcDbLine
 10
150.6500693275
 20
752.2307897791
 30
0.0
 11
151.6500693275
 21
752.2307897791
 31
0.0
  0
ELLIPSE
  5
16A
330
75
100
AcDbEntity
  8
$DDT_AUDIT_GENERATED_(BE)
  6
Continuous
 62
     7
100
AcDbEllipse
 10
148.7500693057
 20
753.0473143843
 30
0.0
 11
8.25000002692202
 21
-2.300049040115937E-9
 31
0.0
210
0.0
220
0.0
230
1.0
 40
0.1218693436
 41
-1.050693122319137
 42
-1.022525691573152
  0
LINE
  5
16B
330
75
100
AcDbEntity
  8
$DDT_AUDIT_GENERATED_(BE)
  6
Continuous
 62
     7
100
AcDbLine
 10
151.8500693275
 20
752.1155716418
 30
0.0
 11
151.8500693275
 21
752.2307897791
 31
0.0
  0
LINE
  5
16C
330
75
100
AcDbEntity
  8
$DDT_AUDIT_GENERATED_(BE)
  6
Continuous
 62
     7
100
AcDbLine
 10
151.8500693275
 20
752.2307897791
 30
0.0
 11
152.8500693275
 21
752.2307897791
 31
0.0
  0
LINE
  5
16D
330
75
100
AcDbEntity
  8
$DDT_AUDIT_GENERATED_(BE)
  6
Continuous
 62
     7
100
AcDbLine
 10
152.8500693275
 20
752.2307897791
 30
0.0
 11
152.8500693275
 21
752.1748413748
 31
0.0
  0
ELLIPSE
  5
16E
330
75
100
AcDbEntity
  8
$DDT_AUDIT_GENERATED_(BE)
  6
Continuous
 62
     7
100
AcDbEllipse
 10
148.7500693345
 20
753.0473143787
 30
0.0
 11
8.24999999203448
 21
7.280287483979464E-10
 31
0.0
210
0.0
220
0.0
230
1.0
 40
0.1218693434
 41
-0.9477783673344602
 42
-0.9073568928914062
  0
LINE
  5
16F
330
75
100
AcDbEntity
  8
$DDT_AUDIT_GENERATED_(BE)
  6
Continuous
 62
     7
100
AcDbLine
 10
153.0500693275
 20
752.1892598626
 30
0.0
 11
153.0500693275
 21
752.2307897791
 31
0.0
  0
LINE
  5
170
330
75
100
AcDbEntity
  8
$DDT_AUDIT_GENERATED_(BE)
  6
Continuous
 62
     7
100
AcDbLine
 10
153.0500693275
 20
752.2307897791
 30
0.0
 11
153.5638516242
 21
752.2307897791
 31
0.0
  0
ELLIPSE
  5
171
330
75
100
AcDbEntity
  8
$DDT_AUDIT_GENERATED_(BE)
  6
Continuous
 62
     7
100
AcDbEllipse
 10
148.7500693053
 20
753.0473144169
 30
0.0
 11
8.250000153515343
 21
-2.734756865407917E-9
 31
0.0
210
0.0
220
0.0
230
1.0
 40
0.1218693456
 41
-1.510153101156993
 42
-1.485845701752594
  0
LINE
  5
172
330
75
100
AcDbEntity
  8
$DDT_AUDIT_GENERATED_(BE)
  6
Continuous
 62
     7
100
AcDbLine
 10
148.2500693275
 20
752.084546567
 30
0.0
 11
149.2500693275
 21
752.084546567
 31
0.0
  0
LINE
  5
173
330
75
100
AcDbEntity
  8
$DDT_AUDIT_GENERATED_(BE)
  6
Continuous
 62
     7
100
AcDbLine
 10
149.2500693275
 20
752.084546567
 30
0.0
 11
149.2500693275
 21
752.0437405007
 31
0.0
  0
ELLIPSE
  5
174
330
75
100
AcDbEntity
  8
$DDT_AUDIT_GENERATED_(BE)
  6
Continuous
 62
     7
100
AcDbEllipse
 10
148.7500692597
 20
753.0473144169
 30
0.0
 11
8.250000163260136
 21
-8.180733868101697E-9
 31
0.0
210
0.0
220
0.0
230
1.0
 40
0.1218693455
 41
-1.363248871958111
 42
-1.338407250429507
  0
LINE
  5
175
330
75
100
AcDbEntity
  8
$DDT_AUDIT_GENERATED_(BE)
  6
Continuous
 62
     7
100
AcDbLine
 10
149.4500693275
 20
752.0455179844
 30
0.0
 11
149.4500693275
 21
752.084546567
 31
0.0
  0
LINE
  5
176
330
75
100
AcDbEntity
  8
$DDT_AUDIT_GENERATED_(BE)
  6
Continuous
 62
     7
100
AcDbLine
 10
149.4500693275
 20
752.084546567
 30
0.0
 11
150.4500693275
 21
752.084546567
 31
0.0
  0
LINE
  5
177
330
75
100
AcDbEntity
  8
$DDT_AUDIT_GENERATED_(BE)
  6
Continuous
 62
     7
100
AcDbLine
 10
150.4500693275
 20
752.084546567
 30
0.0
 11
150.4500693275
 21
752.0634694279
 31
0.0
  0
ELLIPSE
  5
178
330
75
100
AcDbEntity
  8
$DDT_AUDIT_GENERATED_(BE)
  6
Continuous
 62
     7
100
AcDbEllipse
 10
148.7500693282
 20
753.0473143797
 30
0.0
 11
8.249999998818751
 21
7.754907827006718E-11
 31
0.0
210
0.0
220
0.0
230
1.0
 40
0.1218693434
 41
-1.278468933688698
 42
-1.185582205167965
  0
LINE
  5
179
330
75
100
AcDbEntity
  8
$DDT_AUDIT_GENERATED_(BE)
  6
Continuous
 62
     7
100
AcDbLine
 10
150.6500693275
 20
752.068919086
 30
0.0
 11
150.6500693275
 21
752.084546567
 31
0.0
  0
LINE
  5
17A
330
75
100
AcDbEntity
  8
$DDT_AUDIT_GENERATED_(BE)
  6
Continuous
 62
     7
100
AcDbLine
 10
150.6500693275
 20
752.084546567
 30
0.0
 11
151.1275680131
 21
752.084546567
 31
0.0
  0
LINE
  5
17B
330
75
100
AcDbEntity
  8
$DDT_AUDIT_GENERATED_(BE)
  6
Continuous
 62
     7
100
AcDbLine
 10
148.2500693275
 20
752.9863797082
 30
0.0
 11
148.2500693275
 21
753.1082490516
 31
0.0
  0
LINE
  5
17C
330
75
100
AcDbEntity
  8
$DDT_AUDIT_GENERATED_(BE)
  6
Continuous
 62
     7
100
AcDbLine
 10
148.0500693275
 20
752.9863797082
 30
0.0
 11
147.0500693275
 21
752.9863797082
 31
0.0
  0
LINE
  5
17D
330
75
100
AcDbEntity
  8
$DDT_AUDIT_GENERATED_(BE)
  6
Continuous
 62
     7
100
AcDbLine
 10
147.0500693275
 20
752.9863797082
 30
0.0
 11
147.0500693275
 21
753.1082490516
 31
0.0
  0
LINE
  5
17E
330
75
100
AcDbEntity
  8
$DDT_AUDIT_GENERATED_(BE)
  6
Continuous
 62
     7
100
AcDbLine
 10
148.0500693275
 20
753.1082490516
 30
0.0
 11
148.0500693275
 21
752.9863797082
 31
0.0
  0
LINE
  5
17F
330
75
100
AcDbEntity
  8
$DDT_AUDIT_GENERATED_(BE)
  6
Continuous
 62
     7
100
AcDbLine
 10
146.8500693275
 20
752.9863797082
 30
0.0
 11
145.8500693275
 21
752.9863797082
 31
0.0
  0
LINE
  5
180
330
75
100
AcDbEntity
  8
$DDT_AUDIT_GENERATED_(BE)
  6
Continuous
 62
     7
100
AcDbLine
 10
145.8500693275
 20
752.9863797082
 30
0.0
 11
145.8500693275
 21
753.1082490516
 31
0.0
  0
LINE
  5
181
330
75
100
AcDbEntity
  8
$DDT_AUDIT_GENERATED_(BE)
  6
Continuous
 62
     7
100
AcDbLine
 10
146.8500693275
 20
753.1082490516
 30
0.0
 11
146.8500693275
 21
752.9863797082
 31
0.0
  0
LINE
  5
182
330
75
100
AcDbEntity
  8
$DDT_AUDIT_GENERATED_(BE)
  6
Continuous
 62
     7
100
AcDbLine
 10
145.6500693275
 20
752.9863797082
 30
0.0
 11
144.6500693275
 21
752.9863797082
 31
0.0
  0
LINE
  5
183
330
75
100
AcDbEntity
  8
$DDT_AUDIT_GENERATED_(BE)
  6
Continuous
 62
     7
100
AcDbLine
 10
144.6500693275
 20
752.9863797082
 30
0.0
 11
144.6500693275
 21
753.1082490516
 31
0.0
  0
LINE
  5
184
330
75
100
AcDbEntity
  8
$DDT_AUDIT_GENERATED_(BE)
  6
Continuous
 62
     7
100
AcDbLine
 10
145.6500693275
 20
753.1082490516
 30
0.0
 11
145.6500693275
 21
752.9863797082
 31
0.0
  0
LINE
  5
185
330
75
100
AcDbEntity
  8
$DDT_AUDIT_GENERATED_(BE)
  6
Continuous
 62
     7
100
AcDbLine
 10
144.4500693275
 20
752.9863797082
 30
0.0
 11
143.4500693275
 21
752.9863797082
 31
0.0
  0
LINE
  5
186
330
75
100
AcDbEntity
  8
$DDT_AUDIT_GENERATED_(BE)
  6
Continuous
 62
     7
100
AcDbLine
 10
143.4500693275
 20
752.9863797082
 30
0.0
 11
143.4500693275
 21
753.1082490516
 31
0.0
  0
LINE
  5
187
330
75
100
AcDbEntity
  8
$DDT_AUDIT_GENERATED_(BE)
  6
Continuous
 62
     7
100
AcDbLine
 10
144.4500693275
 20
753.1082490516
 30
0.0
 11
144.4500693275
 21
752.9863797082
 31
0.0
  0
LINE
  5
188
330
75
100
AcDbEntity
  8
$DDT_AUDIT_GENERATED_(BE)
  6
Continuous
 62
     7
100
AcDbLine
 10
143.2500693275
 20
752.9863797082
 30
0.0
 11
142.2500693275
 21
752.9863797082
 31
0.0
  0
LINE
  5
189
330
75
100
AcDbEntity
  8
$DDT_AUDIT_GENERATED_(BE)
  6
Continuous
 62
     7
100
AcDbLine
 10
142.2500693275
 20
752.9863797082
 30
0.0
 11
142.2500693275
 21
753.1082490516
 31
0.0
  0
LINE
  5
18A
330
75
100
AcDbEntity
  8
$DDT_AUDIT_GENERATED_(BE)
  6
Continuous
 62
     7
100
AcDbLine
 10
143.2500693275
 20
753.1082490516
 30
0.0
 11
143.2500693275
 21
752.9863797082
 31
0.0
  0
LINE
  5
18B
330
75
100
AcDbEntity
  8
$DDT_AUDIT_GENERATED_(BE)
  6
Continuous
 62
     7
100
AcDbLine
 10
142.0500693275
 20
752.9863797082
 30
0.0
 11
141.313532598
 21
752.9863797082
 31
0.0
  0
LINE
  5
18C
330
75
100
AcDbEntity
  8
$DDT_AUDIT_GENERATED_(BE)
  6
Continuous
 62
     7
100
AcDbLine
 10
142.0500693275
 20
753.1082490516
 30
0.0
 11
142.0500693275
 21
752.9863797082
 31
0.0
  0
LINE
  5
18D
330
75
100
AcDbEntity
  8
$DDT_AUDIT_GENERATED_(BE)
  6
Continuous
 62
     7
100
AcDbLine
 10
148.2500693275
 20
752.8401364961
 30
0.0
 11
148.2500693275
 21
752.9620058395
 31
0.0
  0
LINE
  5
18E
330
75
100
AcDbEntity
  8
$DDT_AUDIT_GENERATED_(BE)
  6
Continuous
 62
     7
100
AcDbLine
 10
148.0500693275
 20
752.8401364961
 30
0.0
 11
147.0500693275
 21
752.8401364961
 31
0.0
  0
LINE
  5
18F
330
75
100
AcDbEntity
  8
$DDT_AUDIT_GENERATED_(BE)
  6
Continuous
 62
     7
100
AcDbLine
 10
147.0500693275
 20
752.8401364961
 30
0.0
 11
147.0500693275
 21
752.9620058395
 31
0.0
  0
LINE
  5
190
330
75
100
AcDbEntity
  8
$DDT_AUDIT_GENERATED_(BE)
  6
Continuous
 62
     7
100
AcDbLine
 10
147.0500693275
 20
752.9620058395
 30
0.0
 11
148.0500693275
 21
752.9620058395
 31
0.0
  0
LINE
  5
191
330
75
100
AcDbEntity
  8
$DDT_AUDIT_GENERATED_(BE)
  6
Continuous
 62
     7
100
AcDbLine
 10
148.0500693275
 20
752.9620058395
 30
0.0
 11
148.0500693275
 21
752.8401364961
 31
0.0
  0
LINE
  5
192
330
75
100
AcDbEntity
  8
$DDT_AUDIT_GENERATED_(BE)
  6
Continuous
 62
     7
100
AcDbLine
 10
146.8500693275
 20
752.8401364961
 30
0.0
 11
145.8500693275
 21
752.8401364961
 31
0.0
  0
LINE
  5
193
330
75
100
AcDbEntity
  8
$DDT_AUDIT_GENERATED_(BE)
  6
Continuous
 62
     7
100
AcDbLine
 10
145.8500693275
 20
752.8401364961
 30
0.0
 11
145.8500693275
 21
752.9620058395
 31
0.0
  0
LINE
  5
194
330
75
100
AcDbEntity
  8
$DDT_AUDIT_GENERATED_(BE)
  6
Continuous
 62
     7
100
AcDbLine
 10
145.8500693275
 20
752.9620058395
 30
0.0
 11
146.8500693275
 21
752.9620058395
 31
0.0
  0
LINE
  5
195
330
75
100
AcDbEntity
  8
$DDT_AUDIT_GENERATED_(BE)
  6
Continuous
 62
     7
100
AcDbLine
 10
146.8500693275
 20
752.9620058395
 30
0.0
 11
146.8500693275
 21
752.8401364961
 31
0.0
  0
LINE
  5
196
330
75
100
AcDbEntity
  8
$DDT_AUDIT_GENERATED_(BE)
  6
Continuous
 62
     7
100
AcDbLine
 10
145.6500693275
 20
752.8401364961
 30
0.0
 11
144.6500693275
 21
752.8401364961
 31
0.0
  0
LINE
  5
197
330
75
100
AcDbEntity
  8
$DDT_AUDIT_GENERATED_(BE)
  6
Continuous
 62
     7
100
AcDbLine
 10
144.6500693275
 20
752.8401364961
 30
0.0
 11
144.6500693275
 21
752.9620058395
 31
0.0
  0
LINE
  5
198
330
75
100
AcDbEntity
  8
$DDT_AUDIT_GENERATED_(BE)
  6
Continuous
 62
     7
100
AcDbLine
 10
144.6500693275
 20
752.9620058395
 30
0.0
 11
145.6500693275
 21
752.9620058395
 31
0.0
  0
LINE
  5
199
330
75
100
AcDbEntity
  8
$DDT_AUDIT_GENERATED_(BE)
  6
Continuous
 62
     7
100
AcDbLine
 10
145.6500693275
 20
752.9620058395
 30
0.0
 11
145.6500693275
 21
752.8401364961
 31
0.0
  0
LINE
  5
19A
330
75
100
AcDbEntity
  8
$DDT_AUDIT_GENERATED_(BE)
  6
Continuous
 62
     7
100
AcDbLine
 10
144.4500693275
 20
752.8401364961
 30
0.0
 11
143.4500693275
 21
752.8401364961
 31
0.0
  0
LINE
  5
19B
330
75
100
AcDbEntity
  8
$DDT_AUDIT_GENERATED_(BE)
  6
Continuous
 62
     7
100
AcDbLine
 10
143.4500693275
 20
752.8401364961
 30
0.0
 11
143.4500693275
 21
752.9620058395
 31
0.0
  0
LINE
  5
19C
330
75
100
AcDbEntity
  8
$DDT_AUDIT_GENERATED_(BE)
  6
Continuous
 62
     7
100
AcDbLine
 10
143.4500693275
 20
752.9620058395
 30
0.0
 11
144.4500693275
 21
752.9620058395
 31
0.0
  0
LINE
  5
19D
330
75
100
AcDbEntity
  8
$DDT_AUDIT_GENERATED_(BE)
  6
Continuous
 62
     7
100
AcDbLine
 10
144.4500693275
 20
752.9620058395
 30
0.0
 11
144.4500693275
 21
752.8401364961
 31
0.0
  0
LINE
  5
19E
330
75
100
AcDbEntity
  8
$DDT_AUDIT_GENERATED_(BE)
  6
Continuous
 62
     7
100
AcDbLine
 10
143.2500693275
 20
752.8401364961
 30
0.0
 11
142.2500693275
 21
752.8401364961
 31
0.0
  0
LINE
  5
19F
330
75
100
AcDbEntity
  8
$DDT_AUDIT_GENERATED_(BE)
  6
Continuous
 62
     7
100
AcDbLine
 10
142.2500693275
 20
752.8401364961
 30
0.0
 11
142.2500693275
 21
752.9620058395
 31
0.0
  0
LINE
  5
1A0
330
75
100
AcDbEntity
  8
$DDT_AUDIT_GENERATED_(BE)
  6
Continuous
 62
     7
100
AcDbLine
 10
142.2500693275
 20
752.9620058395
 30
0.0
 11
143.2500693275
 21
752.9620058395
 31
0.0
  0
LINE
  5
1A1
330
75
100
AcDbEntity
  8
$DDT_AUDIT_GENERATED_(BE)
  6
Continuous
 62
     7
100
AcDbLine
 10
143.2500693275
 20
752.9620058395
 30
0.0
 11
143.2500693275
 21
752.8401364961
 31
0.0
  0
LINE
  5
1A2
330
75
100
AcDbEntity
  8
$DDT_AUDIT_GENERATED_(BE)
  6
Continuous
 62
     7
100
AcDbLine
 10
142.0500693275
 20
752.8401364961
 30
0.0
 11
141.0500693275
 21
752.8401364961
 31
0.0
  0
LINE
  5
1A3
330
75
100
AcDbEntity
  8
$DDT_AUDIT_GENERATED_(BE)
  6
Continuous
 62
     7
100
AcDbLine
 10
141.0500693275
 20
752.8401364961
 30
0.0
 11
141.0500693275
 21
752.9119988786
 31
0.0
  0
LINE
  5
1A4
330
75
100
AcDbEntity
  8
$DDT_AUDIT_GENERATED_(BE)
  6
Continuous
 62
     7
100
AcDbLine
 10
141.2207301922
 20
752.9620058395
 30
0.0
 11
142.0500693275
 21
752.9620058395
 31
0.0
  0
LINE
  5
1A5
330
75
100
AcDbEntity
  8
$DDT_AUDIT_GENERATED_(BE)
  6
Continuous
 62
     7
100
AcDbLine
 10
142.0500693275
 20
752.9620058395
 30
0.0
 11
142.0500693275
 21
752.8401364961
 31
0.0
  0
LINE
  5
1A6
330
75
100
AcDbEntity
  8
$DDT_AUDIT_GENERATED_(BE)
  6
Continuous
 62
     7
100
AcDbLine
 10
148.2500693275
 20
752.693893284
 30
0.0
 11
148.2500693275
 21
752.8157626274
 31
0.0
  0
LINE
  5
1A7
330
75
100
AcDbEntity
  8
$DDT_AUDIT_GENERATED_(BE)
  6
Continuous
 62
     7
100
AcDbLine
 10
148.0500693275
 20
752.693893284
 30
0.0
 11
147.0500693275
 21
752.693893284
 31
0.0
  0
LINE
  5
1A8
330
75
100
AcDbEntity
  8
$DDT_AUDIT_GENERATED_(BE)
  6
Continuous
 62
     7
100
AcDbLine
 10
147.0500693275
 20
752.693893284
 30
0.0
 11
147.0500693275
 21
752.8157626274
 31
0.0
  0
LINE
  5
1A9
330
75
100
AcDbEntity
  8
$DDT_AUDIT_GENERATED_(BE)
  6
Continuous
 62
     7
100
AcDbLine
 10
147.0500693275
 20
752.8157626274
 30
0.0
 11
148.0500693275
 21
752.8157626274
 31
0.0
  0
LINE
  5
1AA
330
75
100
AcDbEntity
  8
$DDT_AUDIT_GENERATED_(BE)
  6
Continuous
 62
     7
100
AcDbLine
 10
148.0500693275
 20
752.8157626274
 30
0.0
 11
148.0500693275
 21
752.693893284
 31
0.0
  0
LINE
  5
1AB
330
75
100
AcDbEntity
  8
$DDT_AUDIT_GENERATED_(BE)
  6
Continuous
 62
     7
100
AcDbLine
 10
146.8500693275
 20
752.693893284
 30
0.0
 11
145.8500693275
 21
752.693893284
 31
0.0
  0
LINE
  5
1AC
330
75
100
AcDbEntity
  8
$DDT_AUDIT_GENERATED_(BE)
  6
Continuous
 62
     7
100
AcDbLine
 10
145.8500693275
 20
752.693893284
 30
0.0
 11
145.8500693275
 21
752.8157626274
 31
0.0
  0
LINE
  5
1AD
330
75
100
AcDbEntity
  8
$DDT_AUDIT_GENERATED_(BE)
  6
Continuous
 62
     7
100
AcDbLine
 10
145.8500693275
 20
752.8157626274
 30
0.0
 11
146.8500693275
 21
752.8157626274
 31
0.0
  0
LINE
  5
1AE
330
75
100
AcDbEntity
  8
$DDT_AUDIT_GENERATED_(BE)
  6
Continuous
 62
     7
100
AcDbLine
 10
146.8500693275
 20
752.8157626274
 30
0.0
 11
146.8500693275
 21
752.693893284
 31
0.0
  0
LINE
  5
1AF
330
75
100
AcDbEntity
  8
$DDT_AUDIT_GENERATED_(BE)
  6
Continuous
 62
     7
100
AcDbLine
 10
145.6500693275
 20
752.693893284
 30
0.0
 11
144.6500693275
 21
752.693893284
 31
0.0
  0
LINE
  5
1B0
330
75
100
AcDbEntity
  8
$DDT_AUDIT_GENERATED_(BE)
  6
Continuous
 62
     7
100
AcDbLine
 10
144.6500693275
 20
752.693893284
 30
0.0
 11
144.6500693275
 21
752.8157626274
 31
0.0
  0
LINE
  5
1B1
330
75
100
AcDbEntity
  8
$DDT_AUDIT_GENERATED_(BE)
  6
Continuous
 62
     7
100
AcDbLine
 10
144.6500693275
 20
752.8157626274
 30
0.0
 11
145.6500693275
 21
752.8157626274
 31
0.0
  0
LINE
  5
1B2
330
75
100
AcDbEntity
  8
$DDT_AUDIT_GENERATED_(BE)
  6
Continuous
 62
     7
100
AcDbLine
 10
145.6500693275
 20
752.8157626274
 30
0.0
 11
145.6500693275
 21
752.693893284
 31
0.0
  0
LINE
  5
1B3
330
75
100
AcDbEntity
  8
$DDT_AUDIT_GENERATED_(BE)
  6
Continuous
 62
     7
100
AcDbLine
 10
144.4500693275
 20
752.693893284
 30
0.0
 11
143.4500693275
 21
752.693893284
 31
0.0
  0
LINE
  5
1B4
330
75
100
AcDbEntity
  8
$DDT_AUDIT_GENERATED_(BE)
  6
Continuous
 62
     7
100
AcDbLine
 10
143.4500693275
 20
752.693893284
 30
0.0
 11
143.4500693275
 21
752.8157626274
 31
0.0
  0
LINE
  5
1B5
330
75
100
AcDbEntity
  8
$DDT_AUDIT_GENERATED_(BE)
  6
Continuous
 62
     7
100
AcDbLine
 10
143.4500693275
 20
752.8157626274
 30
0.0
 11
144.4500693275
 21
752.8157626274
 31
0.0
  0
LINE
  5
1B6
330
75
100
AcDbEntity
  8
$DDT_AUDIT_GENERATED_(BE)
  6
Continuous
 62
     7
100
AcDbLine
 10
144.4500693275
 20
752.8157626274
 30
0.0
 11
144.4500693275
 21
752.693893284
 31
0.0
  0
LINE
  5
1B7
330
75
100
AcDbEntity
  8
$DDT_AUDIT_GENERATED_(BE)
  6
Continuous
 62
     7
100
AcDbLine
 10
143.2500693275
 20
752.693893284
 30
0.0
 11
142.2500693275
 21
752.693893284
 31
0.0
  0
LINE
  5
1B8
330
75
100
AcDbEntity
  8
$DDT_AUDIT_GENERATED_(BE)
  6
Continuous
 62
     7
100
AcDbLine
 10
142.2500693275
 20
752.693893284
 30
0.0
 11
142.2500693275
 21
752.8157626274
 31
0.0
  0
LINE
  5
1B9
330
75
100
AcDbEntity
  8
$DDT_AUDIT_GENERATED_(BE)
  6
Continuous
 62
     7
100
AcDbLine
 10
142.2500693275
 20
752.8157626274
 30
0.0
 11
143.2500693275
 21
752.8157626274
 31
0.0
  0
LINE
  5
1BA
330
75
100
AcDbEntity
  8
$DDT_AUDIT_GENERATED_(BE)
  6
Continuous
 62
     7
100
AcDbLine
 10
143.2500693275
 20
752.8157626274
 30
0.0
 11
143.2500693275
 21
752.693893284
 31
0.0
  0
LINE
  5
1BB
330
75
100
AcDbEntity
  8
$DDT_AUDIT_GENERATED_(BE)
  6
Continuous
 62
     7
100
AcDbLine
 10
148.2500693275
 20
752.5476500719
 30
0.0
 11
148.2500693275
 21
752.6695194153
 31
0.0
  0
LINE
  5
1BC
330
75
100
AcDbEntity
  8
$DDT_AUDIT_GENERATED_(BE)
  6
Continuous
 62
     7
100
AcDbLine
 10
148.0500693275
 20
752.5476500719
 30
0.0
 11
147.0500693275
 21
752.5476500719
 31
0.0
  0
LINE
  5
1BD
330
75
100
AcDbEntity
  8
$DDT_AUDIT_GENERATED_(BE)
  6
Continuous
 62
     7
100
AcDbLine
 10
147.0500693275
 20
752.5476500719
 30
0.0
 11
147.0500693275
 21
752.6695194153
 31
0.0
  0
LINE
  5
1BE
330
75
100
AcDbEntity
  8
$DDT_AUDIT_GENERATED_(BE)
  6
Continuous
 62
     7
100
AcDbLine
 10
147.0500693275
 20
752.6695194153
 30
0.0
 11
148.0500693275
 21
752.6695194153
 31
0.0
  0
LINE
  5
1BF
330
75
100
AcDbEntity
  8
$DDT_AUDIT_GENERATED_(BE)
  6
Continuous
 62
     7
100
AcDbLine
 10
148.0500693275
 20
752.6695194153
 30
0.0
 11
148.0500693275
 21
752.5476500719
 31
0.0
  0
LINE
  5
1C0
330
75
100
AcDbEntity
  8
$DDT_AUDIT_GENERATED_(BE)
  6
Continuous
 62
     7
100
AcDbLine
 10
146.8500693275
 20
752.5476500719
 30
0.0
 11
145.8500693275
 21
752.5476500719
 31
0.0
  0
LINE
  5
1C1
330
75
100
AcDbEntity
  8
$DDT_AUDIT_GENERATED_(BE)
  6
Continuous
 62
     7
100
AcDbLine
 10
145.8500693275
 20
752.5476500719
 30
0.0
 11
145.8500693275
 21
752.6695194153
 31
0.0
  0
LINE
  5
1C2
330
75
100
AcDbEntity
  8
$DDT_AUDIT_GENERATED_(BE)
  6
Continuous
 62
     7
100
AcDbLine
 10
145.8500693275
 20
752.6695194153
 30
0.0
 11
146.8500693275
 21
752.6695194153
 31
0.0
  0
LINE
  5
1C3
330
75
100
AcDbEntity
  8
$DDT_AUDIT_GENERATED_(BE)
  6
Continuous
 62
     7
100
AcDbLine
 10
146.8500693275
 20
752.6695194153
 30
0.0
 11
146.8500693275
 21
752.5476500719
 31
0.0
  0
LINE
  5
1C4
330
75
100
AcDbEntity
  8
$DDT_AUDIT_GENERATED_(BE)
  6
Continuous
 62
     7
100
AcDbLine
 10
145.6500693275
 20
752.5476500719
 30
0.0
 11
144.6500693275
 21
752.5476500719
 31
0.0
  0
LINE
  5
1C5
330
75
100
AcDbEntity
  8
$DDT_AUDIT_GENERATED_(BE)
  6
Continuous
 62
     7
100
AcDbLine
 10
144.6500693275
 20
752.5476500719
 30
0.0
 11
144.6500693275
 21
752.6695194153
 31
0.0
  0
LINE
  5
1C6
330
75
100
AcDbEntity
  8
$DDT_AUDIT_GENERATED_(BE)
  6
Continuous
 62
     7
100
AcDbLine
 10
144.6500693275
 20
752.6695194153
 30
0.0
 11
145.6500693275
 21
752.6695194153
 31
0.0
  0
LINE
  5
1C7
330
75
100
AcDbEntity
  8
$DDT_AUDIT_GENERATED_(BE)
  6
Continuous
 62
     7
100
AcDbLine
 10
145.6500693275
 20
752.6695194153
 30
0.0
 11
145.6500693275
 21
752.5476500719
 31
0.0
  0
LINE
  5
1C8
330
75
100
AcDbEntity
  8
$DDT_AUDIT_GENERATED_(BE)
  6
Continuous
 62
     7
100
AcDbLine
 10
144.4500693275
 20
752.5476500719
 30
0.0
 11
143.4500693275
 21
752.5476500719
 31
0.0
  0
LINE
  5
1C9
330
75
100
AcDbEntity
  8
$DDT_AUDIT_GENERATED_(BE)
  6
Continuous
 62
     7
100
AcDbLine
 10
143.4500693275
 20
752.5476500719
 30
0.0
 11
143.4500693275
 21
752.6695194153
 31
0.0
  0
LINE
  5
1CA
330
75
100
AcDbEntity
  8
$DDT_AUDIT_GENERATED_(BE)
  6
Continuous
 62
     7
100
AcDbLine
 10
143.4500693275
 20
752.6695194153
 30
0.0
 11
144.4500693275
 21
752.6695194153
 31
0.0
  0
LINE
  5
1CB
330
75
100
AcDbEntity
  8
$DDT_AUDIT_GENERATED_(BE)
  6
Continuous
 62
     7
100
AcDbLine
 10
144.4500693275
 20
752.6695194153
 30
0.0
 11
144.4500693275
 21
752.5476500719
 31
0.0
  0
LINE
  5
1CC
330
75
100
AcDbEntity
  8
$DDT_AUDIT_GENERATED_(BE)
  6
Continuous
 62
     7
100
AcDbLine
 10
142.2500693275
 20
752.5476500719
 30
0.0
 11
142.2500693275
 21
752.6695194153
 31
0.0
  0
LINE
  5
1CD
330
75
100
AcDbEntity
  8
$DDT_AUDIT_GENERATED_(BE)
  6
Continuous
 62
     7
100
AcDbLine
 10
143.2500693275
 20
752.5476500719
 30
0.0
 11
142.2500693275
 21
752.5476500719
 31
0.0
  0
LINE
  5
1CE
330
75
100
AcDbEntity
  8
$DDT_AUDIT_GENERATED_(BE)
  6
Continuous
 62
     7
100
AcDbLine
 10
142.2500693275
 20
752.6695194153
 30
0.0
 11
143.2500693275
 21
752.6695194153
 31
0.0
  0
LINE
  5
1CF
330
75
100
AcDbEntity
  8
$DDT_AUDIT_GENERATED_(BE)
  6
Continuous
 62
     7
100
AcDbLine
 10
143.2500693275
 20
752.6695194153
 30
0.0
 11
143.2500693275
 21
752.5476500719
 31
0.0
  0
LINE
  5
1D0
330
75
100
AcDbEntity
  8
$DDT_AUDIT_GENERATED_(BE)
  6
Continuous
 62
     7
100
AcDbLine
 10
148.2500693275
 20
752.4014068598
 30
0.0
 11
148.2500693275
 21
752.5232762032
 31
0.0
  0
LINE
  5
1D1
330
75
100
AcDbEntity
  8
$DDT_AUDIT_GENERATED_(BE)
  6
Continuous
 62
     7
100
AcDbLine
 10
148.0500693275
 20
752.4014068598
 30
0.0
 11
147.0500693275
 21
752.4014068598
 31
0.0
  0
LINE
  5
1D2
330
75
100
AcDbEntity
  8
$DDT_AUDIT_GENERATED_(BE)
  6
Continuous
 62
     7
100
AcDbLine
 10
147.0500693275
 20
752.4014068598
 30
0.0
 11
147.0500693275
 21
752.5232762032
 31
0.0
  0
LINE
  5
1D3
330
75
100
AcDbEntity
  8
$DDT_AUDIT_GENERATED_(BE)
  6
Continuous
 62
     7
100
AcDbLine
 10
147.0500693275
 20
752.5232762032
 30
0.0
 11
148.0500693275
 21
752.5232762032
 31
0.0
  0
LINE
  5
1D4
330
75
100
AcDbEntity
  8
$DDT_AUDIT_GENERATED_(BE)
  6
Continuous
 62
     7
100
AcDbLine
 10
148.0500693275
 20
752.5232762032
 30
0.0
 11
148.0500693275
 21
752.4014068598
 31
0.0
  0
LINE
  5
1D5
330
75
100
AcDbEntity
  8
$DDT_AUDIT_GENERATED_(BE)
  6
Continuous
 62
     7
100
AcDbLine
 10
146.8500693275
 20
752.4014068598
 30
0.0
 11
145.8500693275
 21
752.4014068598
 31
0.0
  0
LINE
  5
1D6
330
75
100
AcDbEntity
  8
$DDT_AUDIT_GENERATED_(BE)
  6
Continuous
 62
     7
100
AcDbLine
 10
145.8500693275
 20
752.4014068598
 30
0.0
 11
145.8500693275
 21
752.5232762032
 31
0.0
  0
LINE
  5
1D7
330
75
100
AcDbEntity
  8
$DDT_AUDIT_GENERATED_(BE)
  6
Continuous
 62
     7
100
AcDbLine
 10
145.8500693275
 20
752.5232762032
 30
0.0
 11
146.8500693275
 21
752.5232762032
 31
0.0
  0
LINE
  5
1D8
330
75
100
AcDbEntity
  8
$DDT_AUDIT_GENERATED_(BE)
  6
Continuous
 62
     7
100
AcDbLine
 10
146.8500693275
 20
752.5232762032
 30
0.0
 11
146.8500693275
 21
752.4014068598
 31
0.0
  0
LINE
  5
1D9
330
75
100
AcDbEntity
  8
$DDT_AUDIT_GENERATED_(BE)
  6
Continuous
 62
     7
100
AcDbLine
 10
145.6500693275
 20
752.4014068598
 30
0.0
 11
144.6500693275
 21
752.4014068598
 31
0.0
  0
LINE
  5
1DA
330
75
100
AcDbEntity
  8
$DDT_AUDIT_GENERATED_(BE)
  6
Continuous
 62
     7
100
AcDbLine
 10
144.6500693275
 20
752.4014068598
 30
0.0
 11
144.6500693275
 21
752.5232762032
 31
0.0
  0
LINE
  5
1DB
330
75
100
AcDbEntity
  8
$DDT_AUDIT_GENERATED_(BE)
  6
Continuous
 62
     7
100
AcDbLine
 10
144.6500693275
 20
752.5232762032
 30
0.0
 11
145.6500693275
 21
752.5232762032
 31
0.0
  0
LINE
  5
1DC
330
75
100
AcDbEntity
  8
$DDT_AUDIT_GENERATED_(BE)
  6
Continuous
 62
     7
100
AcDbLine
 10
145.6500693275
 20
752.5232762032
 30
0.0
 11
145.6500693275
 21
752.4014068598
 31
0.0
  0
LINE
  5
1DD
330
75
100
AcDbEntity
  8
$DDT_AUDIT_GENERATED_(BE)
  6
Continuous
 62
     7
100
AcDbLine
 10
144.4500693275
 20
752.4014068598
 30
0.0
 11
143.4500693275
 21
752.4014068598
 31
0.0
  0
LINE
  5
1DE
330
75
100
AcDbEntity
  8
$DDT_AUDIT_GENERATED_(BE)
  6
Continuous
 62
     7
100
AcDbLine
 10
143.4500693275
 20
752.4014068598
 30
0.0
 11
143.4500693275
 21
752.5232762032
 31
0.0
  0
LINE
  5
1DF
330
75
100
AcDbEntity
  8
$DDT_AUDIT_GENERATED_(BE)
  6
Continuous
 62
     7
100
AcDbLine
 10
143.4500693275
 20
752.5232762032
 30
0.0
 11
144.4500693275
 21
752.5232762032
 31
0.0
  0
LINE
  5
1E0
330
75
100
AcDbEntity
  8
$DDT_AUDIT_GENERATED_(BE)
  6
Continuous
 62
     7
100
AcDbLine
 10
144.4500693275
 20
752.5232762032
 30
0.0
 11
144.4500693275
 21
752.4014068598
 31
0.0
  0
LINE
  5
1E1
330
75
100
AcDbEntity
  8
$DDT_AUDIT_GENERATED_(BE)
  6
Continuous
 62
     7
100
AcDbLine
 10
148.2500693275
 20
752.2551636478
 30
0.0
 11
148.2500693275
 21
752.3770329912
 31
0.0
  0
LINE
  5
1E2
330
75
100
AcDbEntity
  8
$DDT_AUDIT_GENERATED_(BE)
  6
Continuous
 62
     7
100
AcDbLine
 10
148.0500693275
 20
752.2551636478
 30
0.0
 11
147.0500693275
 21
752.2551636478
 31
0.0
  0
LINE
  5
1E3
330
75
100
AcDbEntity
  8
$DDT_AUDIT_GENERATED_(BE)
  6
Continuous
 62
     7
100
AcDbLine
 10
147.0500693275
 20
752.2551636478
 30
0.0
 11
147.0500693275
 21
752.3770329912
 31
0.0
  0
LINE
  5
1E4
330
75
100
AcDbEntity
  8
$DDT_AUDIT_GENERATED_(BE)
  6
Continuous
 62
     7
100
AcDbLine
 10
147.0500693275
 20
752.3770329912
 30
0.0
 11
148.0500693275
 21
752.3770329912
 31
0.0
  0
LINE
  5
1E5
330
75
100
AcDbEntity
  8
$DDT_AUDIT_GENERATED_(BE)
  6
Continuous
 62
     7
100
AcDbLine
 10
148.0500693275
 20
752.3770329912
 30
0.0
 11
148.0500693275
 21
752.2551636478
 31
0.0
  0
LINE
  5
1E6
330
75
100
AcDbEntity
  8
$DDT_AUDIT_GENERATED_(BE)
  6
Continuous
 62
     7
100
AcDbLine
 10
146.8500693275
 20
752.2551636478
 30
0.0
 11
145.8500693275
 21
752.2551636478
 31
0.0
  0
LINE
  5
1E7
330
75
100
AcDbEntity
  8
$DDT_AUDIT_GENERATED_(BE)
  6
Continuous
 62
     7
100
AcDbLine
 10
145.8500693275
 20
752.2551636478
 30
0.0
 11
145.8500693275
 21
752.3770329912
 31
0.0
  0
LINE
  5
1E8
330
75
100
AcDbEntity
  8
$DDT_AUDIT_GENERATED_(BE)
  6
Continuous
 62
     7
100
AcDbLine
 10
145.8500693275
 20
752.3770329912
 30
0.0
 11
146.8500693275
 21
752.3770329912
 31
0.0
  0
LINE
  5
1E9
330
75
100
AcDbEntity
  8
$DDT_AUDIT_GENERATED_(BE)
  6
Continuous
 62
     7
100
AcDbLine
 10
146.8500693275
 20
752.3770329912
 30
0.0
 11
146.8500693275
 21
752.2551636478
 31
0.0
  0
LINE
  5
1EA
330
75
100
AcDbEntity
  8
$DDT_AUDIT_GENERATED_(BE)
  6
Continuous
 62
     7
100
AcDbLine
 10
145.6500693275
 20
752.2551636478
 30
0.0
 11
144.6500693275
 21
752.2551636478
 31
0.0
  0
LINE
  5
1EB
330
75
100
AcDbEntity
  8
$DDT_AUDIT_GENERATED_(BE)
  6
Continuous
 62
     7
100
AcDbLine
 10
144.6500693275
 20
752.2551636478
 30
0.0
 11
144.6500693275
 21
752.3770329912
 31
0.0
  0
LINE
  5
1EC
330
75
100
AcDbEntity
  8
$DDT_AUDIT_GENERATED_(BE)
  6
Continuous
 62
     7
100
AcDbLine
 10
144.6500693275
 20
752.3770329912
 30
0.0
 11
145.6500693275
 21
752.3770329912
 31
0.0
  0
LINE
  5
1ED
330
75
100
AcDbEntity
  8
$DDT_AUDIT_GENERATED_(BE)
  6
Continuous
 62
     7
100
AcDbLine
 10
145.6500693275
 20
752.3770329912
 30
0.0
 11
145.6500693275
 21
752.2551636478
 31
0.0
  0
LINE
  5
1EE
330
75
100
AcDbEntity
  8
$DDT_AUDIT_GENERATED_(BE)
  6
Continuous
 62
     7
100
AcDbLine
 10
148.2500693275
 20
752.1089204357
 30
0.0
 11
148.2500693275
 21
752.2307897791
 31
0.0
  0
LINE
  5
1EF
330
75
100
AcDbEntity
  8
$DDT_AUDIT_GENERATED_(BE)
  6
Continuous
 62
     7
100
AcDbLine
 10
148.0500693275
 20
752.1089204357
 30
0.0
 11
147.0500693275
 21
752.1089204357
 31
0.0
  0
LINE
  5
1F0
330
75
100
AcDbEntity
  8
$DDT_AUDIT_GENERATED_(BE)
  6
Continuous
 62
     7
100
AcDbLine
 10
147.0500693275
 20
752.1089204357
 30
0.0
 11
147.0500693275
 21
752.2307897791
 31
0.0
  0
LINE
  5
1F1
330
75
100
AcDbEntity
  8
$DDT_AUDIT_GENERATED_(BE)
  6
Continuous
 62
     7
100
AcDbLine
 10
147.0500693275
 20
752.2307897791
 30
0.0
 11
148.0500693275
 21
752.2307897791
 31
0.0
  0
LINE
  5
1F2
330
75
100
AcDbEntity
  8
$DDT_AUDIT_GENERATED_(BE)
  6
Continuous
 62
     7
100
AcDbLine
 10
148.0500693275
 20
752.2307897791
 30
0.0
 11
148.0500693275
 21
752.1089204357
 31
0.0
  0
LINE
  5
1F3
330
75
100
AcDbEntity
  8
$DDT_AUDIT_GENERATED_(BE)
  6
Continuous
 62
     7
100
AcDbLine
 10
146.8500693275
 20
752.1089204357
 30
0.0
 11
145.8500693275
 21
752.1089204357
 31
0.0
  0
LINE
  5
1F4
330
75
100
AcDbEntity
  8
$DDT_AUDIT_GENERATED_(BE)
  6
Continuous
 62
     7
100
AcDbLine
 10
145.8500693275
 20
752.1089204357
 30
0.0
 11
145.8500693275
 21
752.2307897791
 31
0.0
  0
LINE
  5
1F5
330
75
100
AcDbEntity
  8
$DDT_AUDIT_GENERATED_(BE)
  6
Continuous
 62
     7
100
AcDbLine
 10
145.8500693275
 20
752.2307897791
 30
0.0
 11
146.8500693275
 21
752.2307897791
 31
0.0
  0
LINE
  5
1F6
330
75
100
AcDbEntity
  8
$DDT_AUDIT_GENERATED_(BE)
  6
Continuous
 62
     7
100
AcDbLine
 10
146.8500693275
 20
752.2307897791
 30
0.0
 11
146.8500693275
 21
752.1089204357
 31
0.0
  0
LINE
  5
1F7
330
75
100
AcDbEntity
  8
$DDT_AUDIT_GENERATED_(BE)
  6
Continuous
 62
     7
100
AcDbLine
 10
148.2500693275
 20
752.0437405007
 30
0.0
 11
148.2500693275
 21
752.084546567
 31
0.0
  0
ELLIPSE
  5
1F8
330
75
100
AcDbEntity
  8
$DDT_AUDIT_GENERATED_(BE)
  6
Continuous
 62
     7
100
AcDbEllipse
 10
148.7500693507
 20
753.0473144185
 30
0.0
 11
-8.250000159888311
 21
-2.853384195589115E-9
 31
0.0
210
0.0
220
0.0
230
1.0
 40
0.1218693457
 41
1.485845701695195
 42
1.510153101080903
  0
LINE
  5
1F9
330
75
100
AcDbEntity
  8
$DDT_AUDIT_GENERATED_(BE)
  6
Continuous
 62
     7
100
AcDbLine
 10
147.0500693275
 20
752.0634694279
 30
0.0
 11
147.0500693275
 21
752.084546567
 31
0.0
  0
LINE
  5
1FA
330
75
100
AcDbEntity
  8
$DDT_AUDIT_GENERATED_(BE)
  6
Continuous
 62
     7
100
AcDbLine
 10
147.0500693275
 20
752.084546567
 30
0.0
 11
148.0500693275
 21
752.084546567
 31
0.0
  0
LINE
  5
1FB
330
75
100
AcDbEntity
  8
$DDT_AUDIT_GENERATED_(BE)
  6
Continuous
 62
     7
100
AcDbLine
 10
148.0500693275
 20
752.084546567
 30
0.0
 11
148.0500693275
 21
752.0455179844
 31
0.0
  0
ELLIPSE
  5
1FC
330
75
100
AcDbEntity
  8
$DDT_AUDIT_GENERATED_(BE)
  6
Continuous
 62
     7
100
AcDbEllipse
 10
148.7500693957
 20
753.0473144169
 30
0.0
 11
-8.250000163276692
 21
-8.223088876491147E-9
 31
0.0
210
0.0
220
0.0
230
1.0
 40
0.1218693455
 41
1.338407250382767
 42
1.363248871911569
  0
LINE
  5
1FD
330
75
100
AcDbEntity
  8
$DDT_AUDIT_GENERATED_(BE)
  6
Continuous
 62
     7
100
AcDbLine
 10
146.3725706419
 20
752.084546567
 30
0.0
 11
146.8500693275
 21
752.084546567
 31
0.0
  0
LINE
  5
1FE
330
75
100
AcDbEntity
  8
$DDT_AUDIT_GENERATED_(BE)
  6
Continuous
 62
     7
100
AcDbLine
 10
146.8500693275
 20
752.084546567
 30
0.0
 11
146.8500693275
 21
752.068919086
 31
0.0
  0
ELLIPSE
  5
1FF
330
75
100
AcDbEntity
  8
$DDT_AUDIT_GENERATED_(BE)
  6
Continuous
 62
     7
100
AcDbEllipse
 10
148.750069327
 20
753.0473143797
 30
0.0
 11
-8.249999999126086
 21
6.450395773072159E-11
 31
0.0
210
0.0
220
0.0
230
1.0
 40
0.1218693434
 41
1.185582205159064
 42
1.278468933676677
  0
LINE
  5
200
330
75
100
AcDbEntity
  8
$DDT_AUDIT_GENERATED_(BE)
  6
Continuous
 62
     7
100
AcDbLine
 10
144.6500693275
 20
752.1748413749
 30
0.0
 11
144.6500693275
 21
752.2307897791
 31
0.0
  0
LINE
  5
201
330
75
100
AcDbEntity
  8
$DDT_AUDIT_GENERATED_(BE)
  6
Continuous
 62
     7
100
AcDbLine
 10
144.6500693275
 20
752.2307897791
 30
0.0
 11
145.6500693275
 21
752.2307897791
 31
0.0
  0
LINE
  5
202
330
75
100
AcDbEntity
  8
$DDT_AUDIT_GENERATED_(BE)
  6
Continuous
 62
     7
100
AcDbLine
 10
145.6500693275
 20
752.2307897791
 30
0.0
 11
145.6500693275
 21
752.1155716418
 31
0.0
  0
ELLIPSE
  5
203
330
75
100
AcDbEntity
  8
$DDT_AUDIT_GENERATED_(BE)
  6
Continuous
 62
     7
100
AcDbEllipse
 10
148.7500693209
 20
753.0473143788
 30
0.0
 11
-8.249999992523266
 21
6.903366767119223E-10
 31
0.0
210
0.0
220
0.0
230
1.0
 40
0.1218693434
 41
0.9073568928770835
 42
0.9477783673181642
  0
LINE
  5
204
330
75
100
AcDbEntity
  8
$DDT_AUDIT_GENERATED_(BE)
  6
Continuous
 62
     7
100
AcDbLine
 10
143.4500693275
 20
752.2768099732
 30
0.0
 11
143.4500693275
 21
752.3770329912
 31
0.0
  0
LINE
  5
205
330
75
100
AcDbEntity
  8
$DDT_AUDIT_GENERATED_(BE)
  6
Continuous
 62
     7
100
AcDbLine
 10
143.4500693275
 20
752.3770329912
 30
0.0
 11
144.4500693275
 21
752.3770329912
 31
0.0
  0
LINE
  5
206
330
75
100
AcDbEntity
  8
$DDT_AUDIT_GENERATED_(BE)
  6
Continuous
 62
     7
100
AcDbLine
 10
144.4500693275
 20
752.3770329912
 30
0.0
 11
144.4500693275
 21
752.2551636478
 31
0.0
  0
LINE
  5
207
330
75
100
AcDbEntity
  8
$DDT_AUDIT_GENERATED_(BE)
  6
Continuous
 62
     7
100
AcDbLine
 10
144.4500693275
 20
752.2551636478
 30
0.0
 11
143.6694689693
 21
752.2551636478
 31
0.0
  0
LINE
  5
208
330
75
100
AcDbEntity
  8
$DDT_AUDIT_GENERATED_(BE)
  6
Continuous
 62
     7
100
AcDbLine
 10
143.6694689693
 20
752.2551636478
 30
0.0
 11
143.6694689693
 21
752.3770329912
 31
0.0
  0
ELLIPSE
  5
209
330
75
100
AcDbEntity
  8
$DDT_AUDIT_GENERATED_(BE)
  6
Continuous
 62
     7
100
AcDbEllipse
 10
148.7500694177
 20
753.0473143984
 30
0.0
 11
-8.250000111478448
 21
-9.585054971950058E-9
 31
0.0
210
0.0
220
0.0
230
1.0
 40
0.121869344
 41
1.022525688008914
 42
1.050693118525784
  0
LINE
  5
20A
330
75
100
AcDbEntity
  8
$DDT_AUDIT_GENERATED_(BE)
  6
Continuous
 62
     7
100
AcDbLine
 10
143.9362870308
 20
752.2307897791
 30
0.0
 11
144.4500693275
 21
752.2307897791
 31
0.0
  0
LINE
  5
20B
330
75
100
AcDbEntity
  8
$DDT_AUDIT_GENERATED_(BE)
  6
Continuous
 62
     7
100
AcDbLine
 10
144.4500693275
 20
752.2307897791
 30
0.0
 11
144.4500693275
 21
752.1892598626
 31
0.0
  0
ELLIPSE
  5
20C
330
75
100
AcDbEntity
  8
$DDT_AUDIT_GENERATED_(BE)
  6
Continuous
 62
     7
100
AcDbEllipse
 10
148.7500692612
 20
753.047314373
 30
0.0
 11
-8.249999931080756
 21
5.311140416353055E-9
 31
0.0
210
0.0
220
0.0
230
1.0
 40
0.1218693435
 41
0.6976574554943001
 42
0.7297276590232418
  0
LINE
  5
20D
330
75
100
AcDbEntity
  8
$DDT_AUDIT_GENERATED_(BE)
  6
Continuous
 62
     7
100
AcDbLine
 10
142.2500693275
 20
752.4281449501
 30
0.0
 11
142.2500693275
 21
752.5232762032
 31
0.0
  0
LINE
  5
20E
330
75
100
AcDbEntity
  8
$DDT_AUDIT_GENERATED_(BE)
  6
Continuous
 62
     7
100
AcDbLine
 10
142.2500693275
 20
752.5232762032
 30
0.0
 11
143.2500693275
 21
752.5232762032
 31
0.0
  0
LINE
  5
20F
330
75
100
AcDbEntity
  8
$DDT_AUDIT_GENERATED_(BE)
  6
Continuous
 62
     7
100
AcDbLine
 10
143.2500693275
 20
752.5232762032
 30
0.0
 11
143.2500693275
 21
752.4014068598
 31
0.0
  0
LINE
  5
210
330
75
100
AcDbEntity
  8
$DDT_AUDIT_GENERATED_(BE)
  6
Continuous
 62
     7
100
AcDbLine
 10
143.2500693275
 20
752.4014068598
 30
0.0
 11
142.4276884469
 21
752.4014068598
 31
0.0
  0
LINE
  5
211
330
75
100
AcDbEntity
  8
$DDT_AUDIT_GENERATED_(BE)
  6
Continuous
 62
     7
100
AcDbLine
 10
142.4276884469
 20
752.4014068598
 30
0.0
 11
142.4276884469
 21
752.5232762032
 31
0.0
  0
ELLIPSE
  5
212
330
75
100
AcDbEntity
  8
$DDT_AUDIT_GENERATED_(BE)
  6
Continuous
 62
     7
100
AcDbEllipse
 10
148.7500694068
 20
753.0473143911
 30
0.0
 11
-8.250000086465482
 21
-7.431832926840798E-9
 31
0.0
210
0.0
220
0.0
230
1.0
 40
0.1218693435
 41
0.8410686669466809
 42
0.8731388700698182
  0
LINE
  5
213
330
75
100
AcDbEntity
  8
$DDT_AUDIT_GENERATED_(BE)
  6
Continuous
 62
     7
100
AcDbLine
 10
142.6008823894
 20
752.3770329912
 30
0.0
 11
143.2500693275
 21
752.3770329912
 31
0.0
  0
LINE
  5
214
330
75
100
AcDbEntity
  8
$DDT_AUDIT_GENERATED_(BE)
  6
Continuous
 62
     7
100
AcDbLine
 10
143.2500693275
 20
752.3770329912
 30
0.0
 11
143.2500693275
 21
752.2979170053
 31
0.0
  0
LINE
  5
215
330
75
100
AcDbEntity
  8
$DDT_AUDIT_GENERATED_(BE)
  6
Continuous
 62
     7
100
AcDbLine
 10
142.0500693275
 20
752.693893284
 30
0.0
 11
141.0500693275
 21
752.693893284
 31
0.0
  0
LINE
  5
216
330
75
100
AcDbEntity
  8
$DDT_AUDIT_GENERATED_(BE)
  6
Continuous
 62
     7
100
AcDbLine
 10
141.0500693275
 20
752.693893284
 30
0.0
 11
141.0500693275
 21
752.8157626274
 31
0.0
  0
LINE
  5
217
330
75
100
AcDbEntity
  8
$DDT_AUDIT_GENERATED_(BE)
  6
Continuous
 62
     7
100
AcDbLine
 10
141.0500693275
 20
752.8157626274
 30
0.0
 11
142.0500693275
 21
752.8157626274
 31
0.0
  0
LINE
  5
218
330
75
100
AcDbEntity
  8
$DDT_AUDIT_GENERATED_(BE)
  6
Continuous
 62
     7
100
AcDbLine
 10
142.0500693275
 20
752.8157626274
 30
0.0
 11
142.0500693275
 21
752.693893284
 31
0.0
  0
ELLIPSE
  5
219
330
75
100
AcDbEntity
  8
$DDT_AUDIT_GENERATED_(BE)
  6
Continuous
 62
     7
100
AcDbEllipse
 10
148.7500691432
 20
753.0473143667
 30
0.0
 11
-8.249999813543296
 21
1.151984063696432E-8
 31
0.0
210
0.0
220
0.0
230
1.0
 40
0.1218693442
 41
0.5201032089420244
 42
0.5482706401266472
  0
LINE
  5
21A
330
75
100
AcDbEntity
  8
$DDT_AUDIT_GENERATED_(BE)
  6
Continuous
 62
     7
100
AcDbLine
 10
141.1046458599
 20
752.6695194153
 30
0.0
 11
142.0500693275
 21
752.6695194153
 31
0.0
  0
LINE
  5
21B
330
75
100
AcDbEntity
  8
$DDT_AUDIT_GENERATED_(BE)
  6
Continuous
 62
     7
100
AcDbLine
 10
142.0500693275
 20
752.6695194153
 30
0.0
 11
142.0500693275
 21
752.5476500719
 31
0.0
  0
LINE
  5
21C
330
75
100
AcDbEntity
  8
$DDT_AUDIT_GENERATED_(BE)
  6
Continuous
 62
     7
100
AcDbLine
 10
142.0500693275
 20
752.5476500719
 30
0.0
 11
141.5909841905
 21
752.5476500719
 31
0.0
  0
LINE
  5
21D
330
75
100
AcDbEntity
  8
$DDT_AUDIT_GENERATED_(BE)
  6
Continuous
 62
     7
100
AcDbLine
 10
141.5909841905
 20
752.5476500719
 30
0.0
 11
141.5909841905
 21
752.6695194153
 31
0.0
  0
ELLIPSE
  5
21E
330
75
100
AcDbEntity
  8
$DDT_AUDIT_GENERATED_(BE)
  6
Continuous
 62
     7
100
AcDbEllipse
 10
148.7500693182
 20
753.047314379
 30
0.0
 11
-8.249999990411213
 21
7.651657085716579E-10
 31
0.0
210
0.0
220
0.0
230
1.0
 40
0.1218693434
 41
0.6230179601624091
 42
0.6634394346051772
  0
LINE
  5
21F
330
75
100
AcDbEntity
  8
$DDT_AUDIT_GENERATED_(BE)
  6
Continuous
 62
     7
100
AcDbLine
 10
141.7092952224
 20
752.5232762032
 30
0.0
 11
142.0500693275
 21
752.5232762032
 31
0.0
  0
LINE
  5
220
330
75
100
AcDbEntity
  8
$DDT_AUDIT_GENERATED_(BE)
  6
Continuous
 62
     7
100
AcDbLine
 10
142.0500693275
 20
752.5232762032
 30
0.0
 11
142.0500693275
 21
752.4606618921
 31
0.0
  0
LINE
  5
221
330
75
100
AcDbEntity
  8
$DDT_AUDIT_GENERATED_(BE)
  6
Continuous
 62
     7
100
AcDbLine
 10
140.8500693275
 20
752.8407855078
 30
0.0
 11
140.8500693275
 21
752.8401364961
 31
0.0
  0
LINE
  5
222
330
75
100
AcDbEntity
  8
$DDT_AUDIT_GENERATED_(BE)
  6
Continuous
 62
     7
100
AcDbLine
 10
140.8500693275
 20
752.8401364961
 30
0.0
 11
140.8484685883
 21
752.8401364961
 31
0.0
  0
ELLIPSE
  5
223
330
75
100
AcDbEntity
  8
$DDT_AUDIT_GENERATED_(BE)
  6
Continuous
 62
     7
100
AcDbEllipse
 10
148.7500693273
 20
753.0473143799
 30
0.0
 11
-8.249999999795062
 21
8.659739592076221E-12
 31
0.0
210
0.0
220
0.0
230
1.0
 40
0.1218693434
 41
0.2923273931570762
 42
0.3852141216670931
  0
LINE
  5
224
330
75
100
AcDbEntity
  8
$DDT_AUDIT_GENERATED_(BE)
  6
Continuous
 62
     7
100
AcDbLine
 10
140.7911646586
 20
752.8157626274
 30
0.0
 11
140.8500693275
 21
752.8157626274
 31
0.0
  0
LINE
  5
225
330
75
100
AcDbEntity
  8
$DDT_AUDIT_GENERATED_(BE)
  6
Continuous
 62
     7
100
AcDbLine
 10
140.8500693275
 20
752.8157626274
 30
0.0
 11
140.8500693275
 21
752.7575701761
 31
0.0
  0
LINE
  5
226
330
75
100
AcDbEntity
  8
$DDT_AUDIT_GENERATED_(BE)
  6
Continuous
 62
     7
100
AcDbLine
 10
148.2500693275
 20
753.1082490516
 30
0.0
 11
149.2500693275
 21
753.1082490516
 31
0.0
  0
LINE
  5
227
330
75
100
AcDbEntity
  8
$DDT_AUDIT_GENERATED_(BE)
  6
Continuous
 62
     7
100
AcDbLine
 10
148.2500693275
 20
753.1326229203
 30
0.0
 11
148.2500693275
 21
753.2544922637
 31
0.0
  0
LINE
  5
228
330
75
100
AcDbEntity
  8
$DDT_AUDIT_GENERATED_(BE)
  6
Continuous
 62
     7
100
AcDbLine
 10
148.2500693275
 20
753.2544922637
 30
0.0
 11
149.2500693275
 21
753.2544922637
 31
0.0
  0
LINE
  5
229
330
75
100
AcDbEntity
  8
$DDT_AUDIT_GENERATED_(BE)
  6
Continuous
 62
     7
100
AcDbLine
 10
149.2500693275
 20
753.1326229203
 30
0.0
 11
148.2500693275
 21
753.1326229203
 31
0.0
  0
LINE
  5
22A
330
75
100
AcDbEntity
  8
$DDT_AUDIT_GENERATED_(BE)
  6
Continuous
 62
     7
100
AcDbLine
 10
148.2500693275
 20
753.2788661324
 30
0.0
 11
148.2500693275
 21
753.4007354758
 31
0.0
  0
LINE
  5
22B
330
75
100
AcDbEntity
  8
$DDT_AUDIT_GENERATED_(BE)
  6
Continuous
 62
     7
100
AcDbLine
 10
148.2500693275
 20
753.4007354758
 30
0.0
 11
149.2500693275
 21
753.4007354758
 31
0.0
  0
LINE
  5
22C
330
75
100
AcDbEntity
  8
$DDT_AUDIT_GENERATED_(BE)
  6
Continuous
 62
     7
100
AcDbLine
 10
149.2500693275
 20
753.2788661324
 30
0.0
 11
148.2500693275
 21
753.2788661324
 31
0.0
  0
LINE
  5
22D
330
75
100
AcDbEntity
  8
$DDT_AUDIT_GENERATED_(BE)
  6
Continuous
 62
     7
100
AcDbLine
 10
148.2500693275
 20
753.4251093444
 30
0.0
 11
148.2500693275
 21
753.5469786878
 31
0.0
  0
LINE
  5
22E
330
75
100
AcDbEntity
  8
$DDT_AUDIT_GENERATED_(BE)
  6
Continuous
 62
     7
100
AcDbLine
 10
148.2500693275
 20
753.5469786878
 30
0.0
 11
149.2500693275
 21
753.5469786878
 31
0.0
  0
LINE
  5
22F
330
75
100
AcDbEntity
  8
$DDT_AUDIT_GENERATED_(BE)
  6
Continuous
 62
     7
100
AcDbLine
 10
149.2500693275
 20
753.4251093444
 30
0.0
 11
148.2500693275
 21
753.4251093444
 31
0.0
  0
LINE
  5
230
330
75
100
AcDbEntity
  8
$DDT_AUDIT_GENERATED_(BE)
  6
Continuous
 62
     7
100
AcDbLine
 10
147.0500693275
 20
753.1082490516
 30
0.0
 11
148.0500693275
 21
753.1082490516
 31
0.0
  0
LINE
  5
231
330
75
100
AcDbEntity
  8
$DDT_AUDIT_GENERATED_(BE)
  6
Continuous
 62
     7
100
AcDbLine
 10
147.0500693275
 20
753.1326229203
 30
0.0
 11
147.0500693275
 21
753.2544922637
 31
0.0
  0
LINE
  5
232
330
75
100
AcDbEntity
  8
$DDT_AUDIT_GENERATED_(BE)
  6
Continuous
 62
     7
100
AcDbLine
 10
147.0500693275
 20
753.2544922637
 30
0.0
 11
148.0500693275
 21
753.2544922637
 31
0.0
  0
LINE
  5
233
330
75
100
AcDbEntity
  8
$DDT_AUDIT_GENERATED_(BE)
  6
Continuous
 62
     7
100
AcDbLine
 10
148.0500693275
 20
753.2544922637
 30
0.0
 11
148.0500693275
 21
753.1326229203
 31
0.0
  0
LINE
  5
234
330
75
100
AcDbEntity
  8
$DDT_AUDIT_GENERATED_(BE)
  6
Continuous
 62
     7
100
AcDbLine
 10
148.0500693275
 20
753.1326229203
 30
0.0
 11
147.0500693275
 21
753.1326229203
 31
0.0
  0
LINE
  5
235
330
75
100
AcDbEntity
  8
$DDT_AUDIT_GENERATED_(BE)
  6
Continuous
 62
     7
100
AcDbLine
 10
147.0500693275
 20
753.2788661324
 30
0.0
 11
147.0500693275
 21
753.4007354758
 31
0.0
  0
LINE
  5
236
330
75
100
AcDbEntity
  8
$DDT_AUDIT_GENERATED_(BE)
  6
Continuous
 62
     7
100
AcDbLine
 10
147.0500693275
 20
753.4007354758
 30
0.0
 11
148.0500693275
 21
753.4007354758
 31
0.0
  0
LINE
  5
237
330
75
100
AcDbEntity
  8
$DDT_AUDIT_GENERATED_(BE)
  6
Continuous
 62
     7
100
AcDbLine
 10
148.0500693275
 20
753.4007354758
 30
0.0
 11
148.0500693275
 21
753.2788661324
 31
0.0
  0
LINE
  5
238
330
75
100
AcDbEntity
  8
$DDT_AUDIT_GENERATED_(BE)
  6
Continuous
 62
     7
100
AcDbLine
 10
148.0500693275
 20
753.2788661324
 30
0.0
 11
147.0500693275
 21
753.2788661324
 31
0.0
  0
LINE
  5
239
330
75
100
AcDbEntity
  8
$DDT_AUDIT_GENERATED_(BE)
  6
Continuous
 62
     7
100
AcDbLine
 10
147.0500693275
 20
753.4251093444
 30
0.0
 11
147.0500693275
 21
753.5348862561
 31
0.0
  0
LINE
  5
23A
330
75
100
AcDbEntity
  8
$DDT_AUDIT_GENERATED_(BE)
  6
Continuous
 62
     7
100
AcDbLine
 10
147.6195451303
 20
753.5469786878
 30
0.0
 11
148.0500693275
 21
753.5469786878
 31
0.0
  0
LINE
  5
23B
330
75
100
AcDbEntity
  8
$DDT_AUDIT_GENERATED_(BE)
  6
Continuous
 62
     7
100
AcDbLine
 10
148.0500693275
 20
753.5469786878
 30
0.0
 11
148.0500693275
 21
753.4251093444
 31
0.0
  0
LINE
  5
23C
330
75
100
AcDbEntity
  8
$DDT_AUDIT_GENERATED_(BE)
  6
Continuous
 62
     7
100
AcDbLine
 10
148.0500693275
 20
753.4251093444
 30
0.0
 11
147.0500693275
 21
753.4251093444
 31
0.0
  0
LINE
  5
23D
330
75
100
AcDbEntity
  8
$DDT_AUDIT_GENERATED_(BE)
  6
Continuous
 62
     7
100
AcDbLine
 10
145.8500693275
 20
753.1082490516
 30
0.0
 11
146.8500693275
 21
753.1082490516
 31
0.0
  0
LINE
  5
23E
330
75
100
AcDbEntity
  8
$DDT_AUDIT_GENERATED_(BE)
  6
Continuous
 62
     7
100
AcDbLine
 10
145.8500693275
 20
753.1326229203
 30
0.0
 11
145.8500693275
 21
753.2544922637
 31
0.0
  0
LINE
  5
23F
330
75
100
AcDbEntity
  8
$DDT_AUDIT_GENERATED_(BE)
  6
Continuous
 62
     7
100
AcDbLine
 10
145.8500693275
 20
753.2544922637
 30
0.0
 11
146.8500693275
 21
753.2544922637
 31
0.0
  0
LINE
  5
240
330
75
100
AcDbEntity
  8
$DDT_AUDIT_GENERATED_(BE)
  6
Continuous
 62
     7
100
AcDbLine
 10
146.8500693275
 20
753.2544922637
 30
0.0
 11
146.8500693275
 21
753.1326229203
 31
0.0
  0
LINE
  5
241
330
75
100
AcDbEntity
  8
$DDT_AUDIT_GENERATED_(BE)
  6
Continuous
 62
     7
100
AcDbLine
 10
146.8500693275
 20
753.1326229203
 30
0.0
 11
145.8500693275
 21
753.1326229203
 31
0.0
  0
LINE
  5
242
330
75
100
AcDbEntity
  8
$DDT_AUDIT_GENERATED_(BE)
  6
Continuous
 62
     7
100
AcDbLine
 10
145.8500693275
 20
753.2788661324
 30
0.0
 11
145.8500693275
 21
753.4007354758
 31
0.0
  0
LINE
  5
243
330
75
100
AcDbEntity
  8
$DDT_AUDIT_GENERATED_(BE)
  6
Continuous
 62
     7
100
AcDbLine
 10
145.8500693275
 20
753.4007354758
 30
0.0
 11
146.8500693275
 21
753.4007354758
 31
0.0
  0
LINE
  5
244
330
75
100
AcDbEntity
  8
$DDT_AUDIT_GENERATED_(BE)
  6
Continuous
 62
     7
100
AcDbLine
 10
146.8500693275
 20
753.4007354758
 30
0.0
 11
146.8500693275
 21
753.2788661324
 31
0.0
  0
LINE
  5
245
330
75
100
AcDbEntity
  8
$DDT_AUDIT_GENERATED_(BE)
  6
Continuous
 62
     7
100
AcDbLine
 10
146.8500693275
 20
753.2788661324
 30
0.0
 11
145.8500693275
 21
753.2788661324
 31
0.0
  0
LINE
  5
246
330
75
100
AcDbEntity
  8
$DDT_AUDIT_GENERATED_(BE)
  6
Continuous
 62
     7
100
AcDbLine
 10
145.8500693275
 20
753.4251093444
 30
0.0
 11
145.8500693275
 21
753.4922995546
 31
0.0
  0
LINE
  5
247
330
75
100
AcDbEntity
  8
$DDT_AUDIT_GENERATED_(BE)
  6
Continuous
 62
     7
100
AcDbLine
 10
146.8500693275
 20
753.529436598
 30
0.0
 11
146.8500693275
 21
753.4251093444
 31
0.0
  0
LINE
  5
248
330
75
100
AcDbEntity
  8
$DDT_AUDIT_GENERATED_(BE)
  6
Continuous
 62
     7
100
AcDbLine
 10
146.8500693275
 20
753.4251093444
 30
0.0
 11
145.8500693275
 21
753.4251093444
 31
0.0
  0
LINE
  5
249
330
75
100
AcDbEntity
  8
$DDT_AUDIT_GENERATED_(BE)
  6
Continuous
 62
     7
100
AcDbLine
 10
144.6500693275
 20
753.1082490516
 30
0.0
 11
145.6500693275
 21
753.1082490516
 31
0.0
  0
LINE
  5
24A
330
75
100
AcDbEntity
  8
$DDT_AUDIT_GENERATED_(BE)
  6
Continuous
 62
     7
100
AcDbLine
 10
144.6500693275
 20
753.1326229203
 30
0.0
 11
144.6500693275
 21
753.2544922637
 31
0.0
  0
LINE
  5
24B
330
75
100
AcDbEntity
  8
$DDT_AUDIT_GENERATED_(BE)
  6
Continuous
 62
     7
100
AcDbLine
 10
144.6500693275
 20
753.2544922637
 30
0.0
 11
145.6500693275
 21
753.2544922637
 31
0.0
  0
LINE
  5
24C
330
75
100
AcDbEntity
  8
$DDT_AUDIT_GENERATED_(BE)
  6
Continuous
 62
     7
100
AcDbLine
 10
145.6500693275
 20
753.2544922637
 30
0.0
 11
145.6500693275
 21
753.1326229203
 31
0.0
  0
LINE
  5
24D
330
75
100
AcDbEntity
  8
$DDT_AUDIT_GENERATED_(BE)
  6
Continuous
 62
     7
100
AcDbLine
 10
145.6500693275
 20
753.1326229203
 30
0.0
 11
144.6500693275
 21
753.1326229203
 31
0.0
  0
LINE
  5
24E
330
75
100
AcDbEntity
  8
$DDT_AUDIT_GENERATED_(BE)
  6
Continuous
 62
     7
100
AcDbLine
 10
144.6500693275
 20
753.2788661324
 30
0.0
 11
144.6500693275
 21
753.4007354758
 31
0.0
  0
LINE
  5
24F
330
75
100
AcDbEntity
  8
$DDT_AUDIT_GENERATED_(BE)
  6
Continuous
 62
     7
100
AcDbLine
 10
144.6500693275
 20
753.4007354758
 30
0.0
 11
145.6500693275
 21
753.4007354758
 31
0.0
  0
LINE
  5
250
330
75
100
AcDbEntity
  8
$DDT_AUDIT_GENERATED_(BE)
  6
Continuous
 62
     7
100
AcDbLine
 10
145.6500693275
 20
753.4007354758
 30
0.0
 11
145.6500693275
 21
753.2788661324
 31
0.0
  0
LINE
  5
251
330
75
100
AcDbEntity
  8
$DDT_AUDIT_GENERATED_(BE)
  6
Continuous
 62
     7
100
AcDbLine
 10
145.6500693275
 20
753.2788661324
 30
0.0
 11
144.6500693275
 21
753.2788661324
 31
0.0
  0
LINE
  5
252
330
75
100
AcDbEntity
  8
$DDT_AUDIT_GENERATED_(BE)
  6
Continuous
 62
     7
100
AcDbLine
 10
145.6500693275
 20
753.4827840421
 30
0.0
 11
145.6500693275
 21
753.4251093444
 31
0.0
  0
LINE
  5
253
330
75
100
AcDbEntity
  8
$DDT_AUDIT_GENERATED_(BE)
  6
Continuous
 62
     7
100
AcDbLine
 10
145.6500693275
 20
753.4251093444
 30
0.0
 11
144.6730077155
 21
753.4251093444
 31
0.0
  0
LINE
  5
254
330
75
100
AcDbEntity
  8
$DDT_AUDIT_GENERATED_(BE)
  6
Continuous
 62
     7
100
AcDbLine
 10
143.4500693275
 20
753.1082490516
 30
0.0
 11
144.4500693275
 21
753.1082490516
 31
0.0
  0
LINE
  5
255
330
75
100
AcDbEntity
  8
$DDT_AUDIT_GENERATED_(BE)
  6
Continuous
 62
     7
100
AcDbLine
 10
143.4500693275
 20
753.1326229203
 30
0.0
 11
143.4500693275
 21
753.2544922637
 31
0.0
  0
LINE
  5
256
330
75
100
AcDbEntity
  8
$DDT_AUDIT_GENERATED_(BE)
  6
Continuous
 62
     7
100
AcDbLine
 10
143.4500693275
 20
753.2544922637
 30
0.0
 11
144.4500693275
 21
753.2544922637
 31
0.0
  0
LINE
  5
257
330
75
100
AcDbEntity
  8
$DDT_AUDIT_GENERATED_(BE)
  6
Continuous
 62
     7
100
AcDbLine
 10
144.4500693275
 20
753.2544922637
 30
0.0
 11
144.4500693275
 21
753.1326229203
 31
0.0
  0
LINE
  5
258
330
75
100
AcDbEntity
  8
$DDT_AUDIT_GENERATED_(BE)
  6
Continuous
 62
     7
100
AcDbLine
 10
144.4500693275
 20
753.1326229203
 30
0.0
 11
143.4500693275
 21
753.1326229203
 31
0.0
  0
LINE
  5
259
330
75
100
AcDbEntity
  8
$DDT_AUDIT_GENERATED_(BE)
  6
Continuous
 62
     7
100
AcDbLine
 10
143.4500693275
 20
753.2788661324
 30
0.0
 11
143.4500693275
 21
753.3215457107
 31
0.0
  0
LINE
  5
25A
330
75
100
AcDbEntity
  8
$DDT_AUDIT_GENERATED_(BE)
  6
Continuous
 62
     7
100
AcDbLine
 10
144.3397064542
 20
753.4007354758
 30
0.0
 11
144.4500693275
 21
753.4007354758
 31
0.0
  0
LINE
  5
25B
330
75
100
AcDbEntity
  8
$DDT_AUDIT_GENERATED_(BE)
  6
Continuous
 62
     7
100
AcDbLine
 10
144.4500693275
 20
753.4007354758
 30
0.0
 11
144.4500693275
 21
753.2788661324
 31
0.0
  0
LINE
  5
25C
330
75
100
AcDbEntity
  8
$DDT_AUDIT_GENERATED_(BE)
  6
Continuous
 62
     7
100
AcDbLine
 10
144.4500693275
 20
753.2788661324
 30
0.0
 11
143.4500693275
 21
753.2788661324
 31
0.0
  0
LINE
  5
25D
330
75
100
AcDbEntity
  8
$DDT_AUDIT_GENERATED_(BE)
  6
Continuous
 62
     7
100
AcDbLine
 10
142.2500693275
 20
753.1082490516
 30
0.0
 11
143.2500693275
 21
753.1082490516
 31
0.0
  0
LINE
  5
25E
330
75
100
AcDbEntity
  8
$DDT_AUDIT_GENERATED_(BE)
  6
Continuous
 62
     7
100
AcDbLine
 10
142.2500693275
 20
753.1326229203
 30
0.0
 11
142.2500693275
 21
753.1702107338
 31
0.0
  0
LINE
  5
25F
330
75
100
AcDbEntity
  8
$DDT_AUDIT_GENERATED_(BE)
  6
Continuous
 62
     7
100
AcDbLine
 10
142.8556213985
 20
753.2544922637
 30
0.0
 11
143.2500693275
 21
753.2544922637
 31
0.0
  0
LINE
  5
260
330
75
100
AcDbEntity
  8
$DDT_AUDIT_GENERATED_(BE)
  6
Continuous
 62
     7
100
AcDbLine
 10
143.2500693275
 20
753.2544922637
 30
0.0
 11
143.2500693275
 21
753.1326229203
 31
0.0
  0
LINE
  5
261
330
75
100
AcDbEntity
  8
$DDT_AUDIT_GENERATED_(BE)
  6
Continuous
 62
     7
100
AcDbLine
 10
143.2500693275
 20
753.1326229203
 30
0.0
 11
142.2500693275
 21
753.1326229203
 31
0.0
  0
LINE
  5
262
330
75
100
AcDbEntity
  8
$DDT_AUDIT_GENERATED_(BE)
  6
Continuous
 62
     7
100
AcDbLine
 10
143.2500693275
 20
753.3004386787
 30
0.0
 11
143.2500693275
 21
753.2788661324
 31
0.0
  0
LINE
  5
263
330
75
100
AcDbEntity
  8
$DDT_AUDIT_GENERATED_(BE)
  6
Continuous
 62
     7
100
AcDbLine
 10
143.2500693275
 20
753.2788661324
 30
0.0
 11
143.0583519152
 21
753.2788661324
 31
0.0
  0
LINE
  5
264
330
75
100
AcDbEntity
  8
$DDT_AUDIT_GENERATED_(BE)
  6
Continuous
 62
     7
100
AcDbLine
 10
141.8829205669
 20
753.1082490516
 30
0.0
 11
142.0500693275
 21
753.1082490516
 31
0.0
  0
LINE
  5
265
330
75
100
AcDbEntity
  8
$DDT_AUDIT_GENERATED_(BE)
  6
Continuous
 62
     7
100
AcDbLine
 10
142.0500693275
 20
753.1376937919
 30
0.0
 11
142.0500693275
 21
753.1326229203
 31
0.0
  0
LINE
  5
266
330
75
100
AcDbEntity
  8
$DDT_AUDIT_GENERATED_(BE)
  6
Continuous
 62
     7
100
AcDbLine
 10
142.0500693275
 20
753.1326229203
 30
0.0
 11
142.0203692736
 21
753.1326229203
 31
0.0
  0
LINE
  5
267
330
75
100
AcDbEntity
  8
$DDT_AUDIT_GENERATED_(BE)
  6
Continuous
 62
     7
100
AcDbLine
 10
149.4500693275
 20
753.1082490516
 30
0.0
 11
150.4500693275
 21
753.1082490516
 31
0.0
  0
LINE
  5
268
330
75
100
AcDbEntity
  8
$DDT_AUDIT_GENERATED_(BE)
  6
Continuous
 62
     7
100
AcDbLine
 10
150.6500693275
 20
753.1082490516
 30
0.0
 11
151.6500693275
 21
753.1082490516
 31
0.0
  0
LINE
  5
269
330
75
100
AcDbEntity
  8
$DDT_AUDIT_GENERATED_(BE)
  6
Continuous
 62
     7
100
AcDbLine
 10
151.8500693275
 20
753.1082490516
 30
0.0
 11
152.8500693275
 21
753.1082490516
 31
0.0
  0
LINE
  5
26A
330
75
100
AcDbEntity
  8
$DDT_AUDIT_GENERATED_(BE)
  6
Continuous
 62
     7
100
AcDbLine
 10
153.0500693275
 20
753.1082490516
 30
0.0
 11
154.0500693275
 21
753.1082490516
 31
0.0
  0
LINE
  5
26B
330
75
100
AcDbEntity
  8
$DDT_AUDIT_GENERATED_(BE)
  6
Continuous
 62
     7
100
AcDbLine
 10
154.2500693275
 20
753.1082490516
 30
0.0
 11
155.2500693275
 21
753.1082490516
 31
0.0
  0
LINE
  5
26C
330
75
100
AcDbEntity
  8
$DDT_AUDIT_GENERATED_(BE)
  6
Continuous
 62
     7
100
AcDbLine
 10
155.4500693275
 20
753.1082490516
 30
0.0
 11
155.6172180882
 21
753.1082490516
 31
0.0
  0
LINE
  5
26D
330
75
100
AcDbEntity
  8
$DDT_AUDIT_GENERATED_(BE)
  6
Continuous
 62
     7
100
AcDbLine
 10
149.2500693275
 20
753.2544922637
 30
0.0
 11
149.2500693275
 21
753.1326229203
 31
0.0
  0
LINE
  5
26E
330
75
100
AcDbEntity
  8
$DDT_AUDIT_GENERATED_(BE)
  6
Continuous
 62
     7
100
AcDbLine
 10
149.4500693275
 20
753.2544922637
 30
0.0
 11
150.4500693275
 21
753.2544922637
 31
0.0
  0
LINE
  5
26F
330
75
100
AcDbEntity
  8
$DDT_AUDIT_GENERATED_(BE)
  6
Continuous
 62
     7
100
AcDbLine
 10
150.4500693275
 20
753.2544922637
 30
0.0
 11
150.4500693275
 21
753.1326229203
 31
0.0
  0
LINE
  5
270
330
75
100
AcDbEntity
  8
$DDT_AUDIT_GENERATED_(BE)
  6
Continuous
 62
     7
100
AcDbLine
 10
150.4500693275
 20
753.1326229203
 30
0.0
 11
149.4500693275
 21
753.1326229203
 31
0.0
  0
LINE
  5
271
330
75
100
AcDbEntity
  8
$DDT_AUDIT_GENERATED_(BE)
  6
Continuous
 62
     7
100
AcDbLine
 10
149.4500693275
 20
753.1326229203
 30
0.0
 11
149.4500693275
 21
753.2544922637
 31
0.0
  0
LINE
  5
272
330
75
100
AcDbEntity
  8
$DDT_AUDIT_GENERATED_(BE)
  6
Continuous
 62
     7
100
AcDbLine
 10
150.6500693275
 20
753.2544922637
 30
0.0
 11
151.6500693275
 21
753.2544922637
 31
0.0
  0
LINE
  5
273
330
75
100
AcDbEntity
  8
$DDT_AUDIT_GENERATED_(BE)
  6
Continuous
 62
     7
100
AcDbLine
 10
151.6500693275
 20
753.2544922637
 30
0.0
 11
151.6500693275
 21
753.1326229203
 31
0.0
  0
LINE
  5
274
330
75
100
AcDbEntity
  8
$DDT_AUDIT_GENERATED_(BE)
  6
Continuous
 62
     7
100
AcDbLine
 10
151.6500693275
 20
753.1326229203
 30
0.0
 11
150.6500693275
 21
753.1326229203
 31
0.0
  0
LINE
  5
275
330
75
100
AcDbEntity
  8
$DDT_AUDIT_GENERATED_(BE)
  6
Continuous
 62
     7
100
AcDbLine
 10
150.6500693275
 20
753.1326229203
 30
0.0
 11
150.6500693275
 21
753.2544922637
 31
0.0
  0
LINE
  5
276
330
75
100
AcDbEntity
  8
$DDT_AUDIT_GENERATED_(BE)
  6
Continuous
 62
     7
100
AcDbLine
 10
151.8500693275
 20
753.2544922637
 30
0.0
 11
152.8500693275
 21
753.2544922637
 31
0.0
  0
LINE
  5
277
330
75
100
AcDbEntity
  8
$DDT_AUDIT_GENERATED_(BE)
  6
Continuous
 62
     7
100
AcDbLine
 10
152.8500693275
 20
753.2544922637
 30
0.0
 11
152.8500693275
 21
753.1326229203
 31
0.0
  0
LINE
  5
278
330
75
100
AcDbEntity
  8
$DDT_AUDIT_GENERATED_(BE)
  6
Continuous
 62
     7
100
AcDbLine
 10
152.8500693275
 20
753.1326229203
 30
0.0
 11
151.8500693275
 21
753.1326229203
 31
0.0
  0
LINE
  5
279
330
75
100
AcDbEntity
  8
$DDT_AUDIT_GENERATED_(BE)
  6
Continuous
 62
     7
100
AcDbLine
 10
151.8500693275
 20
753.1326229203
 30
0.0
 11
151.8500693275
 21
753.2544922637
 31
0.0
  0
LINE
  5
27A
330
75
100
AcDbEntity
  8
$DDT_AUDIT_GENERATED_(BE)
  6
Continuous
 62
     7
100
AcDbLine
 10
153.0500693275
 20
753.2544922637
 30
0.0
 11
154.0500693275
 21
753.2544922637
 31
0.0
  0
LINE
  5
27B
330
75
100
AcDbEntity
  8
$DDT_AUDIT_GENERATED_(BE)
  6
Continuous
 62
     7
100
AcDbLine
 10
154.0500693275
 20
753.2544922637
 30
0.0
 11
154.0500693275
 21
753.1326229203
 31
0.0
  0
LINE
  5
27C
330
75
100
AcDbEntity
  8
$DDT_AUDIT_GENERATED_(BE)
  6
Continuous
 62
     7
100
AcDbLine
 10
154.0500693275
 20
753.1326229203
 30
0.0
 11
153.0500693275
 21
753.1326229203
 31
0.0
  0
LINE
  5
27D
330
75
100
AcDbEntity
  8
$DDT_AUDIT_GENERATED_(BE)
  6
Continuous
 62
     7
100
AcDbLine
 10
153.0500693275
 20
753.1326229203
 30
0.0
 11
153.0500693275
 21
753.2544922637
 31
0.0
  0
LINE
  5
27E
330
75
100
AcDbEntity
  8
$DDT_AUDIT_GENERATED_(BE)
  6
Continuous
 62
     7
100
AcDbLine
 10
154.2500693275
 20
753.2544922637
 30
0.0
 11
154.6445172565
 21
753.2544922637
 31
0.0
  0
LINE
  5
27F
330
75
100
AcDbEntity
  8
$DDT_AUDIT_GENERATED_(BE)
  6
Continuous
 62
     7
100
AcDbLine
 10
155.2500693275
 20
753.1702107338
 30
0.0
 11
155.2500693275
 21
753.1326229203
 31
0.0
  0
LINE
  5
280
330
75
100
AcDbEntity
  8
$DDT_AUDIT_GENERATED_(BE)
  6
Continuous
 62
     7
100
AcDbLine
 10
155.2500693275
 20
753.1326229203
 30
0.0
 11
154.2500693275
 21
753.1326229203
 31
0.0
  0
LINE
  5
281
330
75
100
AcDbEntity
  8
$DDT_AUDIT_GENERATED_(BE)
  6
Continuous
 62
     7
100
AcDbLine
 10
154.2500693275
 20
753.1326229203
 30
0.0
 11
154.2500693275
 21
753.2544922637
 31
0.0
  0
LINE
  5
282
330
75
100
AcDbEntity
  8
$DDT_AUDIT_GENERATED_(BE)
  6
Continuous
 62
     7
100
AcDbLine
 10
155.4797693815
 20
753.1326229203
 30
0.0
 11
155.4500693275
 21
753.1326229203
 31
0.0
  0
LINE
  5
283
330
75
100
AcDbEntity
  8
$DDT_AUDIT_GENERATED_(BE)
  6
Continuous
 62
     7
100
AcDbLine
 10
155.4500693275
 20
753.1326229203
 30
0.0
 11
155.4500693275
 21
753.1376937919
 31
0.0
  0
LINE
  5
284
330
75
100
AcDbEntity
  8
$DDT_AUDIT_GENERATED_(BE)
  6
Continuous
 62
     7
100
AcDbLine
 10
149.2500693275
 20
753.4007354758
 30
0.0
 11
149.2500693275
 21
753.2788661324
 31
0.0
  0
LINE
  5
285
330
75
100
AcDbEntity
  8
$DDT_AUDIT_GENERATED_(BE)
  6
Continuous
 62
     7
100
AcDbLine
 10
149.4500693275
 20
753.4007354758
 30
0.0
 11
150.4500693275
 21
753.4007354758
 31
0.0
  0
LINE
  5
286
330
75
100
AcDbEntity
  8
$DDT_AUDIT_GENERATED_(BE)
  6
Continuous
 62
     7
100
AcDbLine
 10
150.4500693275
 20
753.4007354758
 30
0.0
 11
150.4500693275
 21
753.2788661324
 31
0.0
  0
LINE
  5
287
330
75
100
AcDbEntity
  8
$DDT_AUDIT_GENERATED_(BE)
  6
Continuous
 62
     7
100
AcDbLine
 10
150.4500693275
 20
753.2788661324
 30
0.0
 11
149.4500693275
 21
753.2788661324
 31
0.0
  0
LINE
  5
288
330
75
100
AcDbEntity
  8
$DDT_AUDIT_GENERATED_(BE)
  6
Continuous
 62
     7
100
AcDbLine
 10
149.4500693275
 20
753.2788661324
 30
0.0
 11
149.4500693275
 21
753.4007354758
 31
0.0
  0
LINE
  5
289
330
75
100
AcDbEntity
  8
$DDT_AUDIT_GENERATED_(BE)
  6
Continuous
 62
     7
100
AcDbLine
 10
150.6500693275
 20
753.4007354758
 30
0.0
 11
151.6500693275
 21
753.4007354758
 31
0.0
  0
LINE
  5
28A
330
75
100
AcDbEntity
  8
$DDT_AUDIT_GENERATED_(BE)
  6
Continuous
 62
     7
100
AcDbLine
 10
151.6500693275
 20
753.4007354758
 30
0.0
 11
151.6500693275
 21
753.2788661324
 31
0.0
  0
LINE
  5
28B
330
75
100
AcDbEntity
  8
$DDT_AUDIT_GENERATED_(BE)
  6
Continuous
 62
     7
100
AcDbLine
 10
151.6500693275
 20
753.2788661324
 30
0.0
 11
150.6500693275
 21
753.2788661324
 31
0.0
  0
LINE
  5
28C
330
75
100
AcDbEntity
  8
$DDT_AUDIT_GENERATED_(BE)
  6
Continuous
 62
     7
100
AcDbLine
 10
150.6500693275
 20
753.2788661324
 30
0.0
 11
150.6500693275
 21
753.4007354758
 31
0.0
  0
LINE
  5
28D
330
75
100
AcDbEntity
  8
$DDT_AUDIT_GENERATED_(BE)
  6
Continuous
 62
     7
100
AcDbLine
 10
151.8500693275
 20
753.4007354758
 30
0.0
 11
152.8500693275
 21
753.4007354758
 31
0.0
  0
LINE
  5
28E
330
75
100
AcDbEntity
  8
$DDT_AUDIT_GENERATED_(BE)
  6
Continuous
 62
     7
100
AcDbLine
 10
152.8500693275
 20
753.4007354758
 30
0.0
 11
152.8500693275
 21
753.2788661324
 31
0.0
  0
LINE
  5
28F
330
75
100
AcDbEntity
  8
$DDT_AUDIT_GENERATED_(BE)
  6
Continuous
 62
     7
100
AcDbLine
 10
152.8500693275
 20
753.2788661324
 30
0.0
 11
151.8500693275
 21
753.2788661324
 31
0.0
  0
LINE
  5
290
330
75
100
AcDbEntity
  8
$DDT_AUDIT_GENERATED_(BE)
  6
Continuous
 62
     7
100
AcDbLine
 10
151.8500693275
 20
753.2788661324
 30
0.0
 11
151.8500693275
 21
753.4007354758
 31
0.0
  0
LINE
  5
291
330
75
100
AcDbEntity
  8
$DDT_AUDIT_GENERATED_(BE)
  6
Continuous
 62
     7
100
AcDbLine
 10
153.0500693275
 20
753.4007354758
 30
0.0
 11
153.1604322008
 21
753.4007354758
 31
0.0
  0
LINE
  5
292
330
75
100
AcDbEntity
  8
$DDT_AUDIT_GENERATED_(BE)
  6
Continuous
 62
     7
100
AcDbLine
 10
154.0500693275
 20
753.3215457107
 30
0.0
 11
154.0500693275
 21
753.2788661324
 31
0.0
  0
LINE
  5
293
330
75
100
AcDbEntity
  8
$DDT_AUDIT_GENERATED_(BE)
  6
Continuous
 62
     7
100
AcDbLine
 10
154.0500693275
 20
753.2788661324
 30
0.0
 11
153.0500693275
 21
753.2788661324
 31
0.0
  0
LINE
  5
294
330
75
100
AcDbEntity
  8
$DDT_AUDIT_GENERATED_(BE)
  6
Continuous
 62
     7
100
AcDbLine
 10
153.0500693275
 20
753.2788661324
 30
0.0
 11
153.0500693275
 21
753.4007354758
 31
0.0
  0
LINE
  5
295
330
75
100
AcDbEntity
  8
$DDT_AUDIT_GENERATED_(BE)
  6
Continuous
 62
     7
100
AcDbLine
 10
154.4417867399
 20
753.2788661324
 30
0.0
 11
154.2500693275
 21
753.2788661324
 31
0.0
  0
LINE
  5
296
330
75
100
AcDbEntity
  8
$DDT_AUDIT_GENERATED_(BE)
  6
Continuous
 62
     7
100
AcDbLine
 10
154.2500693275
 20
753.2788661324
 30
0.0
 11
154.2500693275
 21
753.3004386787
 31
0.0
  0
LINE
  5
297
330
75
100
AcDbEntity
  8
$DDT_AUDIT_GENERATED_(BE)
  6
Continuous
 62
     7
100
AcDbLine
 10
149.2500693275
 20
753.5469786878
 30
0.0
 11
149.2500693275
 21
753.4251093444
 31
0.0
  0
LINE
  5
298
330
75
100
AcDbEntity
  8
$DDT_AUDIT_GENERATED_(BE)
  6
Continuous
 62
     7
100
AcDbLine
 10
149.4500693275
 20
753.5469786878
 30
0.0
 11
149.8805935248
 21
753.5469786878
 31
0.0
  0
LINE
  5
299
330
75
100
AcDbEntity
  8
$DDT_AUDIT_GENERATED_(BE)
  6
Continuous
 62
     7
100
AcDbLine
 10
150.4500693275
 20
753.5348862561
 30
0.0
 11
150.4500693275
 21
753.4251093444
 31
0.0
  0
LINE
  5
29A
330
75
100
AcDbEntity
  8
$DDT_AUDIT_GENERATED_(BE)
  6
Continuous
 62
     7
100
AcDbLine
 10
150.4500693275
 20
753.4251093444
 30
0.0
 11
149.4500693275
 21
753.4251093444
 31
0.0
  0
LINE
  5
29B
330
75
100
AcDbEntity
  8
$DDT_AUDIT_GENERATED_(BE)
  6
Continuous
 62
     7
100
AcDbLine
 10
149.4500693275
 20
753.4251093444
 30
0.0
 11
149.4500693275
 21
753.5469786878
 31
0.0
  0
LINE
  5
29C
330
75
100
AcDbEntity
  8
$DDT_AUDIT_GENERATED_(BE)
  6
Continuous
 62
     7
100
AcDbLine
 10
151.6500693275
 20
753.4922995546
 30
0.0
 11
151.6500693275
 21
753.4251093444
 31
0.0
  0
LINE
  5
29D
330
75
100
AcDbEntity
  8
$DDT_AUDIT_GENERATED_(BE)
  6
Continuous
 62
     7
100
AcDbLine
 10
151.6500693275
 20
753.4251093444
 30
0.0
 11
150.6500693275
 21
753.4251093444
 31
0.0
  0
LINE
  5
29E
330
75
100
AcDbEntity
  8
$DDT_AUDIT_GENERATED_(BE)
  6
Continuous
 62
     7
100
AcDbLine
 10
150.6500693275
 20
753.4251093444
 30
0.0
 11
150.6500693275
 21
753.529436598
 31
0.0
  0
LINE
  5
29F
330
75
100
AcDbEntity
  8
$DDT_AUDIT_GENERATED_(BE)
  6
Continuous
 62
     7
100
AcDbLine
 10
152.8271309396
 20
753.4251093444
 30
0.0
 11
151.8500693275
 21
753.4251093444
 31
0.0
  0
LINE
  5
2A0
330
75
100
AcDbEntity
  8
$DDT_AUDIT_GENERATED_(BE)
  6
Continuous
 62
     7
100
AcDbLine
 10
151.8500693275
 20
753.4251093444
 30
0.0
 11
151.8500693275
 21
753.4827840421
 31
0.0
  0
LINE
  5
2A1
330
75
100
AcDbEntity
  8
$DDT_AUDIT_GENERATED_(BE)
  6
Continuous
 62
     7
100
AcDbLine
 10
158.1500693275
 20
752.5510413041
 30
0.0
 11
158.1500693275
 21
752.8851089019
 31
0.0
  0
LINE
  5
2A2
330
75
100
AcDbEntity
  8
$DDT_AUDIT_GENERATED_(BE)
  6
Continuous
 62
     7
100
AcDbLine
 10
139.3500693275
 20
752.8851089019
 30
0.0
 11
139.3500693275
 21
752.5510413041
 31
0.0
  0
ENDBLK
  5
2A4
330
75
100
AcDbEntity
  8
0
100
AcDbBlockEnd
  0
BLOCK
  5
2F7
330
2A5
100
AcDbEntity
  8
0
100
AcDbBlockBegin
  2
SE1
 70
     0
 10
0.0
 20
0.0
 30
0.0
  3
SE1
  1

  0
LINE
  5
2A7
330
2A5
100
AcDbEntity
  8
$DDT_AUDIT_GENERATED_(77)
  6
Continuous
 62
     7
100
AcDbLine
 10
284.6736532328
 20
480.1954198099
 30
0.0
 11
243.0736532328
 21
480.1954198099
 31
0.0
  0
LINE
  5
2A8
330
2A5
100
AcDbEntity
  8
$DDT_AUDIT_GENERATED_(77)
  6
Continuous
 62
     7
100
AcDbLine
 10
284.7236532328
 20
480.4789839009
 30
0.0
 11
243.0236532328
 21
480.4789839009
 31
0.0
  0
ARC
  5
2A9
330
2A5
100
AcDbEntity
  8
$DDT_AUDIT_GENERATED_(77)
  6
Continuous
 62
     7
100
AcDbCircle
 10
222.4407021559
 20
490.1954198061
 30
0.0
 40
20.83795515322061
100
AcDbArc
 50
351.0272109335
 51
8.9727874253
  0
LINE
  5
2AA
330
2A5
100
AcDbEntity
  8
$DDT_AUDIT_GENERATED_(77)
  6
Continuous
 62
     7
100
AcDbLine
 10
243.3236532328
 20
577.1954198099
 30
0.0
 11
284.4236532328
 21
577.1954198099
 31
0.0
  0
LINE
  5
2AB
330
2A5
100
AcDbEntity
  8
$DDT_AUDIT_GENERATED_(77)
  6
Continuous
 62
     7
100
AcDbLine
 10
284.7236532328
 20
480.4789839009
 30
0.0
 11
284.7236532328
 21
576.8954198099
 31
0.0
  0
LINE
  5
2AC
330
2A5
100
AcDbEntity
  8
$DDT_AUDIT_GENERATED_(77)
  6
Continuous
 62
     7
100
AcDbLine
 10
243.0236532328
 20
486.9858992851
 30
0.0
 11
243.0236532328
 21
480.4789839009
 31
0.0
  0
LINE
  5
2AD
330
2A5
100
AcDbEntity
  8
$DDT_AUDIT_GENERATED_(77)
  6
Continuous
 62
     7
100
AcDbLine
 10
243.0236532328
 20
576.8954198099
 30
0.0
 11
243.0236532328
 21
493.4409877601
 31
0.0
  0
LINE
  5
2AE
330
2A5
100
AcDbEntity
  8
$DDT_AUDIT_GENERATED_(77)
  6
Continuous
 62
     7
100
AcDbLine
 10
284.6736532328
 20
479.8491572306
 30
0.0
 11
284.6736532328
 21
480.1954198099
 31
0.0
  0
LINE
  5
2AF
330
2A5
100
AcDbEntity
  8
$DDT_AUDIT_GENERATED_(77)
  6
Continuous
 62
     7
100
AcDbLine
 10
243.0736532328
 20
480.1954198099
 30
0.0
 11
243.0736532328
 21
479.8491666973
 31
0.0
  0
LINE
  5
2B0
330
2A5
100
AcDbEntity
  8
$DDT_AUDIT_GENERATED_(77)
  6
Continuous
 62
     7
100
AcDbLine
 10
243.0236532328
 20
480.4789839009
 30
0.0
 11
243.0736532328
 21
480.1954198099
 31
0.0
  0
LINE
  5
2B1
330
2A5
100
AcDbEntity
  8
$DDT_AUDIT_GENERATED_(77)
  6
Continuous
 62
     7
100
AcDbLine
 10
284.6736532328
 20
480.1954198099
 30
0.0
 11
284.7236532328
 21
480.4789839009
 31
0.0
  0
ARC
  5
2B2
330
2A5
100
AcDbEntity
  8
$DDT_AUDIT_GENERATED_(77)
  6
Continuous
 62
     7
100
AcDbCircle
 10
284.4236532328
 20
576.8954198099
 30
0.0
 40
0.3000000000000017
100
AcDbArc
 50
0.0
 51
90.0
  0
ARC
  5
2B3
330
2A5
100
AcDbEntity
  8
$DDT_AUDIT_GENERATED_(77)
  6
Continuous
 62
     7
100
AcDbCircle
 10
243.3236532328
 20
576.8954198099
 30
0.0
 40
0.2999999999999947
100
AcDbArc
 50
90.0
 51
180.0
  0
LINE
  5
2B4
330
2A5
100
AcDbEntity
  8
$DDT_AUDIT_GENERATED_(83)
  6
Continuous
 62
     7
100
AcDbLine
 10
284.2236532328
 20
577.6954198099
 30
0.0
 11
243.5236532328
 21
577.6954198099
 31
0.0
  0
LINE
  5
2B5
330
2A5
100
AcDbEntity
  8
$DDT_AUDIT_GENERATED_(83)
  6
Continuous
 62
     7
100
AcDbLine
 10
284.2236532328
 20
577.1954198099
 30
0.0
 11
284.2236532328
 21
577.6954198099
 31
0.0
  0
LINE
  5
2B6
330
2A5
100
AcDbEntity
  8
$DDT_AUDIT_GENERATED_(83)
  6
Continuous
 62
     7
100
AcDbLine
 10
243.5236532328
 20
577.6954198099
 30
0.0
 11
243.5236532328
 21
577.1954198099
 31
0.0
  0
LINE
  5
2B7
330
2A5
100
AcDbEntity
  8
$DDT_AUDIT_GENERATED_(87)
  6
Continuous
 62
     7
100
AcDbLine
 10
234.8736532476
 20
478.8954197801
 30
0.0
 11
292.8736545109
 21
478.8954197801
 31
0.0
  0
LINE
  5
2B8
330
2A5
100
AcDbEntity
  8
$DDT_AUDIT_GENERATED_(87)
  6
Continuous
 62
     7
100
AcDbLine
 10
233.8736473661
 20
473.1954197801
 30
0.0
 11
293.8737038197
 21
473.1954197801
 31
0.0
  0
SPLINE
  5
2B9
330
2A5
100
AcDbEntity
  8
$DDT_AUDIT_GENERATED_(87)
  6
Continuous
 62
     7
100
AcDbSpline
210
0.0
220
0.0
230
1.0
 70
     8
 71
     3
 72
    13
 73
     9
 74
     0
 42
0.0000000063014675
 43
0.0000000001
 40
0.0
 40
0.0
 40
0.0
 40
0.0
 40
0.1294353584796121
 40
0.2550301072098068
 40
0.4999999914726229
 40
0.7449698805975513
 40
0.8705646348070479
 40
1.0
 40
1.0
 40
1.0
 40
1.0
 10
293.8736545787784
 20
477.8954197652325
 30
0.0
 10
293.8699735690284
 20
477.9695991441945
 30
0.0
 10
293.8619002401815
 20
478.0935106109476
 30
0.0
 10
293.7818291367507
 20
478.3484561239392
 30
0.0
 10
293.598280620047
 20
478.6200458416958
 30
0.0
 10
293.326690890119
 20
478.8035943442694
 30
0.0
 10
293.0717453663387
 20
478.8836654422593
 30
0.0
 10
292.9478338937782
 20
478.8917387706262
 30
0.0
 10
292.8736545109471
 20
478.8954197801335
 30
0.0
  0
SPLINE
  5
2BA
330
2A5
100
AcDbEntity
  8
$DDT_AUDIT_GENERATED_(87)
  6
Continuous
 62
     7
100
AcDbSpline
210
0.0
220
0.0
230
1.0
 70
     8
 71
     3
 72
    13
 73
     9
 74
     0
 42
0.0000000063014676
 43
0.0000000001
 40
0.0
 40
0.0
 40
0.0
 40
0.0
 40
0.1294353618362314
 40
0.2550301133060648
 40
0.4999999999999997
 40
0.7449698866939336
 40
0.8705646381637674
 40
1.0
 40
1.0
 40
1.0
 40
1.0
 10
234.8736532476398
 20
478.8954197801335
 30
0.0
 10
234.7994738687064
 20
478.8917387706022
 30
0.0
 10
234.675562402329
 20
478.883665442209
 30
0.0
 10
234.4206168906904
 20
478.8035943436176
 30
0.0
 10
234.1490271740357
 20
478.6200458388366
 30
0.0
 10
233.9654786692547
 20
478.3484561221819
 30
0.0
 10
233.8854075706633
 20
478.0935106105433
 30
0.0
 10
233.87733424227
 20
477.9695991441658
 30
0.0
 10
233.8736532327388
 20
477.8954197652325
 30
0.0
  0
LINE
  5
2BB
330
2A5
100
AcDbEntity
  8
$DDT_AUDIT_GENERATED_(87)
  6
Continuous
 62
     7
100
AcDbLine
 10
233.8736473661
 20
477.9004197652
 30
0.0
 11
233.8736473661
 21
473.1954197801
 31
0.0
  0
LINE
  5
2BC
330
2A5
100
AcDbEntity
  8
$DDT_AUDIT_GENERATED_(87)
  6
Continuous
 62
     7
100
AcDbLine
 10
293.8737038197
 20
473.1954197801
 30
0.0
 11
293.8737038197
 21
477.9004197652
 31
0.0
  0
SPLINE
  5
2BD
330
2A5
100
AcDbEntity
  8
$DDT_AUDIT_GENERATED_(8E)
  6
Continuous
 62
     7
100
AcDbSpline
210
0.0
220
0.0
230
1.0
 70
     8
 71
     3
 72
    20
 73
    16
 74
     0
 42
0.0000000001196595
 43
0.0000000001
 40
0.0
 40
0.0
 40
0.0
 40
0.0
 40
0.0312500000000001
 40
0.0312500000000001
 40
0.0625000000000001
 40
0.0625000000000001
 40
0.0937500000000002
 40
0.0937500000000002
 40
0.1250000000000002
 40
0.1250000000000002
 40
0.1875000000000003
 40
0.1875000000000003
 40
0.2500000000000004
 40
0.2500000000000004
 40
0.2500884412083735
 40
0.2500884412083735
 40
0.2500884412083735
 40
0.2500884412083735
 10
263.8736532327376
 20
479.8492191365069
 30
0.0
 10
265.2544090451672
 20
479.8492191365069
 30
0.0
 10
266.6120914743272
 20
479.849278353867
 30
0.0
 10
269.2831968243676
 20
479.8494479301598
 30
0.0
 10
270.6104489228969
 20
479.8495571222969
 30
0.0
 10
273.1414933249073
 20
479.849671465333
 30
0.0
 10
274.3419356309365
 20
479.8496624483512
 30
0.0
 10
276.6138265489372
 20
479.849472083491
 30
0.0
 10
277.6894959565953
 20
479.8493162663175
 30
0.0
 10
280.5815411329802
 20
479.848899662731
 30
0.0
 10
282.1386722593168
 20
479.8487152098016
 30
0.0
 10
284.2233391266737
 20
479.8488636866043
 30
0.0
 10
284.7722028053693
 20
479.8492183422885
 30
0.0
 10
284.773652334652
 20
479.8492194843305
 30
0.0
 10
284.773653290961
 20
479.8492194851148
 30
0.0
 10
284.7736531554301
 20
479.8492194850721
 30
0.0
  0
SPLINE
  5
2BE
330
2A5
100
AcDbEntity
  8
$DDT_AUDIT_GENERATED_(8E)
  6
Continuous
 62
     7
100
AcDbSpline
210
0.0
220
0.0
230
1.0
 70
     8
 71
     3
 72
    20
 73
    16
 74
     0
 42
0.0000000001195438
 43
0.0000000001
 40
0.7501513000374789
 40
0.7501513000374789
 40
0.7501513000374789
 40
0.7501513000374789
 40
0.7812500000000004
 40
0.7812500000000004
 40
0.8125000000000004
 40
0.8125000000000004
 40
0.8437500000000003
 40
0.8437500000000003
 40
0.8750000000000003
 40
0.8750000000000003
 40
0.9062500000000002
 40
0.9062500000000002
 40
0.9375000000000002
 40
0.9375000000000002
 40
1.0
 40
1.0
 40
1.0
 40
1.0
 10
242.9736532516088
 20
479.8492194852715
 30
0.0
 10
242.9735634606623
 20
479.8492195917723
 30
0.0
 10
243.1081153335674
 20
479.8491177083791
 30
0.0
 10
243.6352407724365
 20
479.8489224987825
 30
0.0
 10
244.034693247986
 20
479.8488278950086
 30
0.0
 10
245.0828053900037
 20
479.8487520854236
 30
0.0
 10
245.7240745668139
 20
479.8487692896231
 30
0.0
 10
247.2373414800488
 20
479.8489110442302
 30
0.0
 10
248.1192710804487
 20
479.8490370030653
 30
0.0
 10
250.0473689956602
 20
479.8493147756969
 30
0.0
 10
251.098551076142
 20
479.8494678968794
 30
0.0
 10
253.3781109709545
 20
479.8496613901287
 30
0.0
 10
254.5975753181456
 20
479.8496713988317
 30
0.0
 10
258.3689204624756
 20
479.8495023310092
 30
0.0
 10
261.1121416078784
 20
479.8492191365069
 30
0.0
 10
263.8736532327376
 20
479.8492191365069
 30
0.0
  0
LINE
  5
2BF
330
2A5
100
AcDbEntity
  8
$DDT_AUDIT_GENERATED_(8E)
  6
Continuous
 62
     7
100
AcDbLine
 10
243.0094083811
 20
479.7667993203
 30
0.0
 11
239.226113995
 21
478.9602400552
 31
0.0
  0
LINE
  5
2C0
330
2A5
100
AcDbEntity
  8
$DDT_AUDIT_GENERATED_(8E)
  6
Continuous
 62
     7
100
AcDbLine
 10
288.5211924704
 20
478.9602400552
 30
0.0
 11
284.6914405209
 21
479.7767035928
 31
0.0
  0
ARC
  5
2C1
330
2A5
100
AcDbEntity
  8
$DDT_AUDIT_GENERATED_(95)
  6
Continuous
 62
     7
100
AcDbCircle
 10
279.4170267039
 20
591.4061768282
 30
0.0
 40
5.349793373316135
100
AcDbArc
 50
352.7165568953
 51
22.4938526943
  0
LINE
  5
2C2
330
2A5
100
AcDbEntity
  8
$DDT_AUDIT_GENERATED_(95)
  6
Continuous
 62
     7
100
AcDbLine
 10
284.7236532328
 20
590.7279408671
 30
0.0
 11
284.7236532328
 21
583.3754198099
 31
0.0
  0
LINE
  5
2C3
330
2A5
100
AcDbEntity
  8
$DDT_AUDIT_GENERATED_(95)
  6
Continuous
 62
     7
100
AcDbLine
 10
243.0236532328
 20
587.4954198099
 30
0.0
 11
243.0236532328
 21
589.9506865631
 31
0.0
  0
SPLINE
  5
2C4
330
2A5
100
AcDbEntity
  8
$DDT_AUDIT_GENERATED_(95)
  6
Continuous
 62
     7
100
AcDbSpline
210
0.0
220
0.0
230
1.0
 70
     8
 71
     5
 72
    17
 73
    11
 74
     0
 42
0.0000000001113008
 43
0.0000000001
 40
0.0665620418152213
 40
0.0665620418152213
 40
0.0665620418152213
 40
0.0665620418152213
 40
0.0665620418152213
 40
0.0665620418152213
 40
0.1250003412509731
 40
0.1875003168758961
 40
0.250000292500924
 40
0.312500268125847
 40
0.37500024375077
 40
0.3816396391748824
 40
0.3816396391748824
 40
0.3816396391748824
 40
0.3816396391748824
 40
0.3816396391748824
 40
0.3816396391748824
 10
282.2021979386773
 20
596.7971833521043
 30
0.0
 10
281.8261567659283
 20
597.3876845399856
 30
0.0
 10
280.9501320499564
 20
598.8000271013079
 30
0.0
 10
279.4477163468726
 20
601.4034549177416
 30
0.0
 10
277.4903131675058
 20
605.4557608989533
 30
0.0
 10
275.5869472473199
 20
611.0026603191675
 30
0.0
 10
274.5211777408014
 20
615.7937763136032
 30
0.0
 10
273.9489123653137
 20
619.4600060927957
 30
0.0
 10
273.6438864559295
 20
621.9534901752883
 30
0.0
 10
273.5033912620644
 20
623.2645531017006
 30
0.0
 10
273.4900785952593
 20
623.3904661585848
 30
0.0
  0
LINE
  5
2C5
330
2A5
100
AcDbEntity
  8
$DDT_AUDIT_GENERATED_(95)
  6
Continuous
 62
     7
100
AcDbLine
 10
272.3736532328
 20
682.3753499562
 30
0.0
 11
272.3493541789
 21
682.3753499566
 31
0.0
  0
SPLINE
  5
2C6
330
2A5
100
AcDbEntity
  8
$DDT_AUDIT_GENERATED_(95)
  6
Continuous
 62
     7
100
AcDbSpline
210
0.0
220
0.0
230
1.0
 70
     8
 71
     5
 72
    12
 73
     6
 74
     0
 42
0.0000000001646663
 43
0.0000000001
 40
0.0
 40
0.0
 40
0.0
 40
0.0
 40
0.0
 40
0.0
 40
0.0227874187630218
 40
0.0227874187630218
 40
0.0227874187630218
 40
0.0227874187630218
 40
0.0227874187630218
 40
0.0227874187630218
 10
302.7898207613414
 20
734.9472868787275
 30
0.0
 10
302.51289758128
 20
734.9132848749097
 30
0.0
 10
302.2370954382184
 20
734.8794205163445
 30
0.0
 10
301.9624091797095
 20
734.8456160255572
 30
0.0
 10
301.6888355359469
 20
734.8117969273209
 30
0.0
 10
301.4163729858249
 20
734.7778919325629
 30
0.0
  0
SPLINE
  5
2C7
330
2A5
100
AcDbEntity
  8
$DDT_AUDIT_GENERATED_(95)
  6
Continuous
 62
     7
100
AcDbSpline
210
0.0
220
0.0
230
1.0
 70
     8
 71
     5
 72
    12
 73
     6
 74
     0
 42
0.000000000224085
 43
0.0000000001
 40
0.3407279324148076
 40
0.3407279324148076
 40
0.3407279324148076
 40
0.3407279324148076
 40
0.3407279324148076
 40
0.3407279324148076
 40
0.5915886078027573
 40
0.5915886078027573
 40
0.5915886078027573
 40
0.5915886078027573
 40
0.5915886078027573
 40
0.5915886078027573
 10
284.7909535759628
 20
730.8514162275545
 30
0.0
 10
282.6078516195573
 20
729.8413672616448
 30
0.0
 10
280.6313690080131
 20
728.6465682856758
 30
0.0
 10
278.8897928919399
 20
727.2603756779195
 30
0.0
 10
277.4096465722973
 20
725.6991520743156
 30
0.0
 10
276.1940325380485
 20
723.9834951667618
 30
0.0
  0
LINE
  5
2C8
330
2A5
100
AcDbEntity
  8
$DDT_AUDIT_GENERATED_(95)
  6
Continuous
 62
     7
100
AcDbLine
 10
272.3736532328
 20
682.3753499562
 30
0.0
 11
272.3736532328
 21
706.747307746
 31
0.0
  0
LINE
  5
2C9
330
2A5
100
AcDbEntity
  8
$DDT_AUDIT_GENERATED_(95)
  6
Continuous
 62
     7
100
AcDbLine
 10
478.7437934561
 20
756.5517371833
 30
0.0
 11
302.7898207613
 21
734.9472868787
 31
0.0
  0
SPLINE
  5
2CA
330
2A5
100
AcDbEntity
  8
$DDT_AUDIT_GENERATED_(95)
  6
Continuous
 62
     7
100
AcDbSpline
210
0.0
220
0.0
230
1.0
 70
     8
 71
     5
 72
    12
 73
     6
 74
     0
 42
0.0000000022846652
 43
0.0000000001
 40
0.0
 40
0.0
 40
0.0
 40
0.0
 40
0.0
 40
0.0
 40
0.8712077666430939
 40
0.8712077666430939
 40
0.8712077666430939
 40
0.8712077666430939
 40
0.8712077666430939
 40
0.8712077666430939
 10
243.0236532328462
 20
589.9506865631377
 30
0.0
 10
243.0236532328485
 20
590.8542193260469
 30
0.0
 10
243.0236532328495
 20
591.5958822114864
 30
0.0
 10
242.8187106000501
 20
592.3487973841109
 30
0.0
 10
242.9870571222531
 20
592.9376279043336
 30
0.0
 10
243.3941302082819
 20
593.5975284232468
 30
0.0
  0
LINE
  5
2CB
330
2A5
100
AcDbEntity
  8
$DDT_AUDIT_GENERATED_(95)
  6
Continuous
 62
     7
100
AcDbLine
 10
255.3736532328
 20
682.375349897
 30
0.0
 11
255.3736532328
 21
706.747307746
 31
0.0
  0
LINE
  5
2CC
330
2A5
100
AcDbEntity
  8
$DDT_AUDIT_GENERATED_(95)
  6
Continuous
 62
     7
100
AcDbLine
 10
255.3941723323
 20
682.3753498979
 30
0.0
 11
255.3736532328
 21
682.375349897
 31
0.0
  0
SPLINE
  5
2CD
330
2A5
100
AcDbEntity
  8
$DDT_AUDIT_GENERATED_(95)
  6
Continuous
 62
     7
100
AcDbSpline
210
0.0
220
0.0
230
1.0
 70
     8
 71
     5
 72
    12
 73
     6
 74
     0
 42
0.0000000001257372
 43
0.0000000001
 40
0.0
 40
0.0
 40
0.0
 40
0.0
 40
0.0
 40
0.0
 40
1.0
 40
1.0
 40
1.0
 40
1.0
 40
1.0
 40
1.0
 10
255.3736532328469
 20
706.7473077460214
 30
0.0
 10
255.3736532328469
 20
724.294291880732
 30
0.0
 10
255.3736532328469
 20
736.7470398406116
 30
0.0
 10
269.3261984123827
 20
747.9660984898811
 30
0.0
 10
283.3018595211159
 20
749.6820939024446
 30
0.0
 10
300.7180510969338
 20
751.8205333376835
 30
0.0
  0
LINE
  5
2CE
330
2A5
100
AcDbEntity
  8
$DDT_AUDIT_GENERATED_(95)
  6
Continuous
 62
     7
100
AcDbLine
 10
509.9974075761
 20
776.1558799192
 30
0.0
 11
490.5582433351
 21
773.7690500586
 31
0.0
  0
LINE
  5
2CF
330
2A5
100
AcDbEntity
  8
$DDT_AUDIT_GENERATED_(95)
  6
Continuous
 62
     7
100
AcDbLine
 10
490.558243147
 20
773.7690515909
 30
0.0
 11
300.8826727998
 21
750.4797995008
 31
0.0
  0
SPLINE
  5
2D0
330
2A5
100
AcDbEntity
  8
$DDT_AUDIT_GENERATED_(95)
  6
Continuous
 62
     7
100
AcDbSpline
210
0.0
220
0.0
230
1.0
 70
     8
 71
     3
 72
    19
 73
    15
 74
     0
 42
0.0000000001394409
 43
0.0000000001
 40
0.0
 40
0.0
 40
0.0
 40
0.0
 40
0.0481843789099799
 40
0.0815332653980708
 40
0.1392091726824961
 40
0.2755330821166774
 40
0.3957211873919061
 40
0.5047217625724463
 40
0.5578651549669373
 40
0.6112305722592093
 40
0.7204781213972744
 40
0.7801015054046884
 40
0.8478757137737609
 40
1.0
 40
1.0
 40
1.0
 40
1.0
 10
300.8826724816317
 20
750.4798020920999
 30
0.0
 10
299.7440113699694
 20
750.3392099619941
 30
0.0
 10
297.8172718377712
 20
750.1013116438384
 30
0.0
 10
294.5303984753271
 20
749.6713502226274
 30
0.0
 10
289.1764740774899
 20
748.8759806533727
 30
0.0
 10
281.8368323143039
 20
747.3153280522602
 30
0.0
 10
273.6928299813422
 20
744.1034008478775
 30
0.0
 10
268.0600134620869
 20
740.3069069291998
 30
0.0
 10
264.4338453605239
 20
736.6561482514874
 30
0.0
 10
261.3219219310654
 20
732.5510871165268
 30
0.0
 10
259.0467138343366
 20
727.692280914584
 30
0.0
 10
257.6444791499426
 20
722.2263282406121
 30
0.0
 10
256.7242771513682
 20
715.6189308262029
 30
0.0
 10
256.7243863468776
 20
710.3750138928345
 30
0.0
 10
256.7244617396588
 20
706.7473076835214
 30
0.0
  0
LINE
  5
2D1
330
2A5
100
AcDbEntity
  8
$DDT_AUDIT_GENERATED_(95)
  6
Continuous
 62
     7
100
AcDbLine
 10
490.3936213186
 20
775.1097906235
 30
0.0
 11
300.7180510969
 21
751.8205333377
 31
0.0
  0
LINE
  5
2D2
330
2A5
100
AcDbEntity
  8
$DDT_AUDIT_GENERATED_(95)
  6
Continuous
 62
     7
100
AcDbLine
 10
507.1302106052
 20
777.1647853901
 30
0.0
 11
490.3936212574
 21
775.1097906159
 31
0.0
  0
SPLINE
  5
2D3
330
2A5
100
AcDbEntity
  8
$DDT_AUDIT_GENERATED_(95)
  6
Continuous
 62
     7
100
AcDbSpline
210
0.0
220
0.0
230
1.0
 70
     8
 71
     3
 72
    14
 73
    10
 74
     0
 42
0.000000000468108
 43
0.0000000001
 40
0.5000245538662785
 40
0.5000245538662785
 40
0.5000245538662785
 40
0.5000245538662785
 40
0.6250000000000002
 40
0.6250000000000002
 40
0.7500000000000001
 40
0.7500000000000001
 40
0.8750000000000001
 40
0.8750000000000001
 40
1.0
 40
1.0
 40
1.0
 40
1.0
 10
502.9336200469675
 20
760.5763810664505
 30
0.0
 10
502.9336188997993
 20
760.5763809022983
 30
0.0
 10
502.664681848732
 20
760.5517339228229
 30
0.0
 10
501.6365414792001
 20
760.4580507502309
 30
0.0
 10
500.8643761140021
 20
760.3874830231234
 30
0.0
 10
498.9394701398047
 20
760.2126702675284
 30
0.0
 10
497.764383472311
 20
760.105864018112
 30
0.0
 10
495.1883446561566
 20
759.8731969103065
 30
0.0
 10
493.7635705347672
 20
759.7447367551395
 30
0.0
 10
492.2963749576038
 20
759.6131383370587
 30
0.0
  0
ARC
  5
2D4
330
2A5
100
AcDbEntity
  8
$DDT_AUDIT_GENERATED_(95)
  6
Continuous
 62
     7
100
AcDbCircle
 10
497.7641364946
 20
703.8789837854
 30
0.0
 40
56.0017178291319
100
AcDbArc
 50
95.603034211
 51
109.8548549873
  0
LINE
  5
2D5
330
2A5
100
AcDbEntity
  8
$DDT_AUDIT_GENERATED_(95)
  6
Continuous
 62
     7
100
AcDbLine
 10
284.4257319287
 20
577.6954198099
 30
0.0
 11
243.3215913602
 21
577.6954198099
 31
0.0
  0
LINE
  5
2D6
330
2A5
100
AcDbEntity
  8
$DDT_AUDIT_GENERATED_(95)
  6
Continuous
 62
     7
100
AcDbLine
 10
284.7236532328
 20
577.9953739434
 30
0.0
 11
284.7236532328
 21
583.3754198099
 31
0.0
  0
LINE
  5
2D7
330
2A5
100
AcDbEntity
  8
$DDT_AUDIT_GENERATED_(95)
  6
Continuous
 62
     7
100
AcDbLine
 10
243.0236532328
 20
577.9953739434
 30
0.0
 11
243.0236532328
 21
579.4954198099
 31
0.0
  0
ARC
  5
2D8
330
2A5
100
AcDbEntity
  8
$DDT_AUDIT_GENERATED_(95)
  6
Continuous
 62
     7
100
AcDbCircle
 10
284.4236713924
 20
577.9954016047
 30
0.0
 40
0.2999818416598277
100
AcDbArc
 50
270.032027711
 51
359.9947167505
  0
SPLINE
  5
2D9
330
2A5
100
AcDbEntity
  8
$DDT_AUDIT_GENERATED_(95)
  6
Continuous
 62
     7
100
AcDbSpline
210
0.0
220
0.0
230
1.0
 70
     8
 71
     3
 72
    12
 73
     8
 74
     0
 42
0.0000000209093632
 43
0.0000000001
 40
0.0
 40
0.0
 40
0.0
 40
0.0
 40
0.2256977104089848
 40
0.5000290997958413
 40
0.7498430738338095
 40
0.8749099756957318
 40
1.0
 40
1.0
 40
1.0
 40
1.0
 10
243.3234673867379
 20
577.6954198099355
 30
0.0
 10
243.2812548458267
 20
577.7013049985248
 30
0.0
 10
243.1877337427798
 20
577.714343524911
 30
0.0
 10
243.0943405759869
 20
577.7912080155961
 30
0.0
 10
243.0456290697626
 20
577.8733679348089
 30
0.0
 10
243.0263701411614
 20
577.9423308986602
 30
0.0
 10
243.024558924823
 20
577.977691838978
 30
0.0
 10
243.0236532328469
 20
577.9953968766546
 30
0.0
  0
ARC
  5
2DA
330
2A5
100
AcDbEntity
  8
$DDT_AUDIT_GENERATED_(95)
  6
Continuous
 62
     7
100
AcDbCircle
 10
222.1976809526
 20
583.5324431566
 30
0.0
 40
21.2136436973703
100
AcDbArc
 50
349.0295234379
 51
359.575892886
  0
ARC
  5
2DB
330
2A5
100
AcDbEntity
  8
$DDT_AUDIT_GENERATED_(95)
  6
Continuous
 62
     7
100
AcDbCircle
 10
222.3111912848
 20
583.4712179069
 30
0.0
 40
21.09976968846632
100
AcDbArc
 50
359.7398623026
 51
10.9949544503
  0
SPLINE
  5
2DC
330
2A5
100
AcDbEntity
  8
$DDT_AUDIT_GENERATED_(95)
  6
Continuous
 62
     7
100
AcDbSpline
210
0.0
220
0.0
230
1.0
 70
     8
 71
     3
 72
    10
 73
     6
 74
     0
 42
0.000000002862294
 43
0.0000000001
 40
0.0
 40
0.0
 40
0.0
 40
0.0
 40
0.2948951575369599
 40
0.5271273032931736
 40
0.7449420471914997
 40
0.7449420471914997
 40
0.7449420471914997
 40
0.7449420471914997
 10
284.4534593056835
 20
590.9819554321738
 30
0.0
 10
284.5064981211058
 20
591.4145720648718
 30
0.0
 10
284.5708619785145
 20
592.067698544354
 30
0.0
 10
284.5930921012209
 20
592.8812920570115
 30
0.0
 10
284.4437239328543
 20
593.3133491921552
 30
0.0
 10
284.3383539816398
 20
593.528328559142
 30
0.0
  0
SPLINE
  5
2DD
330
2A5
100
AcDbEntity
  8
$DDT_AUDIT_GENERATED_(95)
  6
Continuous
 62
     7
100
AcDbSpline
210
0.0
220
0.0
230
1.0
 70
     8
 71
     3
 72
     8
 73
     4
 74
     0
 42
0.0000000024040441
 43
0.0000000001
 40
0.9494890940516542
 40
0.9494890940516542
 40
0.9494890940516542
 40
0.9494890940516542
 40
1.0
 40
1.0
 40
1.0
 40
1.0
 10
283.9581924190215
 20
594.1662552451775
 30
0.0
 10
283.9203891033847
 20
594.2228004746214
 30
0.0
 10
283.8810635103201
 20
594.2806826525882
 30
0.0
 10
283.8402790019151
 20
594.3401540071993
 30
0.0
  0
SPLINE
  5
2DE
330
2A5
100
AcDbEntity
  8
$DDT_AUDIT_GENERATED_(95)
  6
Continuous
 62
     7
100
AcDbSpline
210
0.0
220
0.0
230
1.0
 70
     8
 71
     3
 72
    11
 73
     7
 74
     0
 42
0.0000000023618384
 43
0.0000000001
 40
0.0
 40
0.0
 40
0.0
 40
0.0
 40
0.2403955470586801
 40
0.4843422498936487
 40
0.7355717925167083
 40
1.0
 40
1.0
 40
1.0
 40
1.0
 10
284.3782901351707
 20
593.4597055314338
 30
0.0
 10
284.3041243857654
 20
593.5917093617675
 30
0.0
 10
284.1666376510864
 20
593.8329840647693
 30
0.0
 10
283.6685462728247
 20
594.5757700161073
 30
0.0
 10
282.9524406405151
 20
595.6335328752959
 30
0.0
 10
282.4039973990124
 20
596.4867130516409
 30
0.0
 10
282.0690435596017
 20
597.0071751359743
 30
0.0
  0
ARC
  5
2DF
330
2A5
100
AcDbEntity
  8
$DDT_AUDIT_GENERATED_(95)
  6
Continuous
 62
     7
100
AcDbCircle
 10
869.1952154065
 20
664.6661033644
 30
0.0
 40
597.1085324077087
100
AcDbArc
 50
178.3004531986
 51
184.0254597194
  0
SPLINE
  5
2E0
330
2A5
100
AcDbEntity
  8
$DDT_AUDIT_GENERATED_(95)
  6
Continuous
 62
     7
100
AcDbSpline
210
0.0
220
0.0
230
1.0
 70
     8
 71
     3
 72
     8
 73
     4
 74
     0
 42
0.0000000005830498
 43
0.0000000001
 40
0.8639965977075064
 40
0.8639965977075064
 40
0.8639965977075064
 40
0.8639965977075064
 40
0.961627437612742
 40
0.961627437612742
 40
0.961627437612742
 40
0.961627437612742
 10
274.9511107797231
 20
721.9595629536594
 30
0.0
 10
275.2125642775603
 20
722.4431485582239
 30
0.0
 10
275.4953641626914
 20
722.9035818526309
 30
0.0
 10
275.8114641659999
 20
723.3951137867354
 30
0.0
  0
SPLINE
  5
2E1
330
2A5
100
AcDbEntity
  8
$DDT_AUDIT_GENERATED_(95)
  6
Continuous
 62
     7
100
AcDbSpline
210
0.0
220
0.0
230
1.0
 70
     8
 71
     3
 72
    12
 73
     8
 74
     0
 42
0.000000000108051
 43
0.0000000001
 40
0.0
 40
0.0
 40
0.0
 40
0.0
 40
0.0699804192374632
 40
0.132406135563919
 40
0.1871653848804115
 40
0.2340347595119624
 40
0.2638285195591961
 40
0.2638285195591961
 40
0.2638285195591961
 40
0.2638285195591961
 10
255.3735952707458
 20
676.2711393097538
 30
0.0
 10
255.3735519431087
 20
673.8965352512107
 30
0.0
 10
255.3733176443397
 20
670.1174541202129
 30
0.0
 10
255.3718341431559
 20
664.2343594246713
 30
0.0
 10
255.36801006747
 20
659.1974500797788
 30
0.0
 10
255.3609173599891
 20
655.138191292024
 30
0.0
 10
255.353568424745
 20
652.7732477682653
 30
0.0
 10
255.3500033271759
 20
651.8541249742146
 30
0.0
  0
ARC
  5
2E2
330
2A5
100
AcDbEntity
  8
$DDT_AUDIT_GENERATED_(95)
  6
Continuous
 62
     7
100
AcDbCircle
 10
306.0423763653
 20
679.4516778581
 30
0.0
 40
55.61954292301111
100
AcDbArc
 50
93.3561104173
 51
112.4677013169
  0
SPLINE
  5
2E3
330
2A5
100
AcDbEntity
  8
$DDT_AUDIT_GENERATED_(95)
  6
Continuous
 62
     7
100
AcDbSpline
210
0.0
220
0.0
230
1.0
 70
     8
 71
     3
 72
    19
 73
    15
 74
     0
 42
0.0000000006298654
 43
0.0000000001
 40
0.0
 40
0.0
 40
0.0
 40
0.0
 40
0.1313103285226447
 40
0.2371217844593626
 40
0.3200913705364509
 40
0.3844666750683706
 40
0.4385215904108785
 40
0.484466330316436
 40
0.5229778656762082
 40
0.5697897791268024
 40
0.6408632442441294
 40
0.7359374055275818
 40
0.855243897426981
 40
1.0
 40
1.0
 40
1.0
 40
1.0
 10
272.3736532328468
 20
706.7473077460218
 30
0.0
 10
272.3734659985535
 20
707.6057838281624
 30
0.0
 10
272.3770958016424
 20
708.9117075664514
 30
0.0
 10
272.4239313655838
 20
710.8614769123262
 30
0.0
 10
272.5069215525109
 20
712.3750734593508
 30
0.0
 10
272.6024318335118
 20
713.5048851906955
 30
0.0
 10
272.699247636281
 20
714.3758125280584
 30
0.0
 10
272.7964636667098
 20
715.0886702956302
 30
0.0
 10
272.8935784710688
 20
715.7020822643551
 30
0.0
 10
273.0220495590195
 20
716.4151742334257
 30
0.0
 10
273.2392579818435
 20
717.4272539765275
 30
0.0
 10
273.600574895194
 20
718.7569850147969
 30
0.0
 10
274.1922654127565
 20
720.4403439596525
 30
0.0
 10
274.7275432990025
 20
721.508005779864
 30
0.0
 10
275.0811425269215
 20
722.2019805777403
 30
0.0
  0
SPLINE
  5
2E4
330
2A5
100
AcDbEntity
  8
$DDT_AUDIT_GENERATED_(95)
  6
Continuous
 62
     7
100
AcDbSpline
210
0.0
220
0.0
230
1.0
 70
     8
 71
     3
 72
    15
 73
    11
 74
     0
 42
0.0000000007530976
 43
0.0000000001
 40
0.0
 40
0.0
 40
0.0
 40
0.0
 40
0.2103626101549414
 40
0.3957309251806176
 40
0.5534126042765933
 40
0.6829104391471448
 40
0.7864700164590297
 40
0.8693346114763683
 40
0.9386351149503437
 40
1.0
 40
1.0
 40
1.0
 40
1.0
 10
502.7920911669406
 20
760.5282264617991
 30
0.0
 10
503.7534170802344
 20
760.8688795084813
 30
0.0
 10
505.2709139537186
 20
761.42165726668
 30
0.0
 10
507.5205008122687
 20
762.4865482809374
 30
0.0
 10
509.2993437707077
 20
763.5600063031758
 30
0.0
 10
510.6510684885492
 20
764.64001777594
 30
0.0
 10
511.5715190853462
 20
765.7002824162837
 30
0.0
 10
512.0893049347427
 20
766.7114300754463
 30
0.0
 10
512.2571693146255
 20
767.6689739426204
 30
0.0
 10
512.2232840957181
 20
768.204979384956
 30
0.0
 10
512.1989446021254
 20
768.5014966093015
 30
0.0
  0
SPLINE
  5
2E5
330
2A5
100
AcDbEntity
  8
$DDT_AUDIT_GENERATED_(95)
  6
Continuous
 62
     7
100
AcDbSpline
210
0.0
220
0.0
230
1.0
 70
     8
 71
     3
 72
    36
 73
    32
 74
     0
 42
0.0000000001092648
 43
0.0000000001
 40
0.0
 40
0.0
 40
0.0
 40
0.0
 40
0.0839266948735422
 40
0.161400536400019
 40
0.2321716202878004
 40
0.2961801806565523
 40
0.3535848149788733
 40
0.4034753457671095
 40
0.4470184598448685
 40
0.4852596307875978
 40
0.5205161406385342
 40
0.541980553978008
 40
0.5623396737738106
 40
0.5815499416584194
 40
0.5996299773602756
 40
0.616603360684519
 40
0.6325653167233005
 40
0.65280823597289
 40
0.6765050910662512
 40
0.705771640539111
 40
0.7405731769706341
 40
0.7809123907197942
 40
0.8109432811027013
 40
0.8432767344771049
 40
0.8785719459242126
 40
0.906512411025248
 40
0.9359824707335929
 40
0.9512898128925872
 40
0.9670859305510099
 40
0.9833106773169731
 40
0.9962776664149293
 40
0.9962776664149293
 40
0.9962776664149293
 40
0.9962776664149293
 10
255.3942060333612
 20
682.3753498969925
 30
0.0
 10
255.3943827014489
 20
679.3154452190171
 30
0.0
 10
255.3942589449485
 20
674.3632827474081
 30
0.0
 10
255.3928548150586
 20
666.5207558841714
 30
0.0
 10
255.3846621435264
 20
659.5201655306709
 30
0.0
 10
255.363177535316
 20
653.1423564830188
 30
0.0
 10
255.3208355830608
 20
647.4664743791709
 30
0.0
 10
255.2527646806575
 20
642.466993082825
 30
0.0
 10
255.1561383562297
 20
638.1037711731439
 30
0.0
 10
255.0285498482328
 20
634.2266182699185
 30
0.0
 10
254.8833145650981
 20
631.0825481592075
 30
0.0
 10
254.7306280870858
 20
628.5325773817493
 30
0.0
 10
254.5858656555657
 20
626.5151438859309
 30
0.0
 10
254.4238297784561
 20
624.6117554230904
 30
0.0
 10
254.2459202332055
 20
622.8226841317002
 30
0.0
 10
254.0529783130783
 20
621.143904227311
 30
0.0
 10
253.8263293295778
 20
619.3969215027406
 30
0.0
 10
253.5241737663905
 20
617.4388930957275
 30
0.0
 10
253.0818058560855
 20
615.0654971899315
 30
0.0
 10
252.4385496039709
 20
612.2557980426581
 30
0.0
 10
251.4978419246817
 20
608.9872851979754
 30
0.0
 10
250.3395407433491
 20
605.8220815357472
 30
0.0
 10
249.0463597171364
 20
602.9048377463247
 30
0.0
 10
247.723509827285
 20
600.320968239634
 30
0.0
 10
246.3996760136695
 20
598.0456154891416
 30
0.0
 10
245.2015376285461
 20
596.1693250058148
 30
0.0
 10
244.400412484616
 20
594.9945139231785
 30
0.0
 10
243.8911024042704
 20
594.2733495381169
 30
0.0
 10
243.5949950054076
 20
593.8626371504303
 30
0.0
 10
243.4216790057309
 20
593.6283041526144
 30
0.0
 10
243.4005816188962
 20
593.6027856254783
 30
0.0
 10
243.3964884082626
 20
593.5990323800273
 30
0.0
  0
ARC
  5
2E6
330
2A5
100
AcDbEntity
  8
$DDT_AUDIT_GENERATED_(95)
  6
Continuous
 62
     7
100
AcDbCircle
 10
491.4084957288
 20
766.6655851391
 30
0.0
 40
20.87135210478085
100
AcDbArc
 50
5.0464438103
 51
27.0459137812
  0
ARC
  5
2E7
330
2A5
100
AcDbEntity
  8
$DDT_AUDIT_GENERATED_(95)
  6
Continuous
 62
     7
100
AcDbCircle
 10
506.4751404161
 20
770.7245692645
 30
0.0
 40
6.473445813223397
100
AcDbArc
 50
57.0361298516
 51
84.192102353
  0
LINE
  5
2E9
330
2A5
100
AcDbEntity
  8
$DDT_AUDIT_GENERATED_(2E8)
  6
Continuous
 62
     7
100
AcDbLine
 10
243.2236532328
 20
580.0454198099
 30
0.0
 11
243.2236532328
 21
586.2867528164
 31
0.0
  0
LINE
  5
2EA
330
2A5
100
AcDbEntity
  8
$DDT_AUDIT_GENERATED_(AF)
  6
Continuous
 62
     7
100
AcDbLine
 10
480.919328309
 20
751.1416912473
 30
0.0
 11
502.2590705693
 21
753.7618821305
 31
0.0
  0
SPLINE
  5
2EB
330
2A5
100
AcDbEntity
  8
$DDT_AUDIT_GENERATED_(AF)
  6
Continuous
 62
     7
100
AcDbSpline
210
0.0
220
0.0
230
1.0
 70
     8
 71
     3
 72
    10
 73
     6
 74
     0
 42
0.0000000019260148
 43
0.0000000001
 40
0.0
 40
0.0
 40
0.0
 40
0.0
 40
0.5
 40
0.5
 40
1.0
 40
1.0
 40
1.0
 40
1.0
 10
494.1177247520213
 20
753.0821778970961
 30
0.0
 10
493.2757252948346
 20
752.8639808715757
 30
0.0
 10
492.4271298549809
 20
752.7000829364328
 30
0.0
 10
490.7156447312801
 20
752.4899593654358
 30
0.0
 10
489.8527552399771
 20
752.4437321445296
 30
0.0
 10
488.9832766981821
 20
752.4517469473268
 30
0.0
  0
LINE
  5
2EC
330
2A5
100
AcDbEntity
  8
$DDT_AUDIT_GENERATED_(AF)
  6
Continuous
 62
     7
100
AcDbLine
 10
495.4625885808
 20
755.9499085503
 30
0.0
 11
486.984594237
 21
754.9089417374
 31
0.0
  0
LINE
  5
2ED
330
2A5
100
AcDbEntity
  8
$DDT_AUDIT_GENERATED_(AF)
  6
Continuous
 62
     7
100
AcDbLine
 10
495.4625885808
 20
755.9499085503
 30
0.0
 11
495.6839559497
 21
754.1470160104
 31
0.0
  0
SPLINE
  5
2EE
330
2A5
100
AcDbEntity
  8
$DDT_AUDIT_GENERATED_(AF)
  6
Continuous
 62
     7
100
AcDbSpline
210
0.0
220
0.0
230
1.0
 70
     8
 71
     3
 72
    14
 73
    10
 74
     0
 42
0.0000000049320844
 43
0.0000000001
 40
0.0
 40
0.0
 40
0.0
 40
0.0
 40
0.1249999999999997
 40
0.1249999999999997
 40
0.2499999999999994
 40
0.2499999999999994
 40
0.4999999999999996
 40
0.4999999999999996
 40
1.0
 40
1.0
 40
1.0
 40
1.0
 10
495.6839559497011
 20
754.1470160103855
 30
0.0
 10
495.6942447922909
 20
754.0632201119913
 30
0.0
 10
495.6725517112371
 20
753.9758832724181
 30
0.0
 10
495.594407678163
 20
753.8260636773869
 30
0.0
 10
495.538924838481
 20
753.7597874821105
 30
0.0
 10
495.3565036391806
 20
753.5851418415813
 30
0.0
 10
495.2103787261481
 20
753.495273680972
 30
0.0
 10
494.7639777208442
 20
753.2678205285935
 30
0.0
 10
494.4411039196573
 20
753.1659788685708
 30
0.0
 10
494.1177247520213
 20
753.0821778970961
 30
0.0
  0
SPLINE
  5
2EF
330
2A5
100
AcDbEntity
  8
$DDT_AUDIT_GENERATED_(AF)
  6
Continuous
 62
     7
100
AcDbSpline
210
0.0
220
0.0
230
1.0
 70
     8
 71
     3
 72
    14
 73
    10
 74
     0
 42
0.0000000049319876
 43
0.0000000001
 40
0.0
 40
0.0
 40
0.0
 40
0.0
 40
0.4999999999999996
 40
0.4999999999999996
 40
0.7499999999999993
 40
0.7499999999999993
 40
0.8749999999999997
 40
0.8749999999999997
 40
1.0
 40
1.0
 40
1.0
 40
1.0
 10
488.9832766981821
 20
752.4517469473268
 30
0.0
 10
488.6477966118689
 20
752.4548393833156
 30
0.0
 10
488.3125191072194
 20
752.4751975981912
 30
0.0
 10
487.82189838459
 20
752.5885500989212
 30
0.0
 10
487.6597936688675
 20
752.6401937549728
 30
0.0
 10
487.4418336657457
 20
752.76446419893
 30
0.0
 10
487.3714983873291
 20
752.8153754124463
 30
0.0
 10
487.2586695609547
 20
752.9422751948547
 30
0.0
 10
487.2162992330167
 20
753.021855980544
 30
0.0
 10
487.2059616058395
 20
753.1060491975371
 30
0.0
  0
LINE
  5
2F0
330
2A5
100
AcDbEntity
  8
$DDT_AUDIT_GENERATED_(AF)
  6
Continuous
 62
     7
100
AcDbLine
 10
487.2059616058
 20
753.1060491975
 30
0.0
 11
486.984594237
 21
754.9089417374
 31
0.0
  0
LINE
  5
2F1
330
2A5
100
AcDbEntity
  8
$DDT_AUDIT_GENERATED_(AF)
  6
Continuous
 62
     7
100
AcDbLine
 10
480.3347292116
 20
751.3898388417
 30
0.0
 11
480.919328309
 21
751.1416912473
 31
0.0
  0
LINE
  5
2F2
330
2A5
100
AcDbEntity
  8
$DDT_AUDIT_GENERATED_(AF)
  6
Continuous
 62
     7
100
AcDbLine
 10
502.2590705693
 20
753.7618821305
 30
0.0
 11
502.7662722386
 21
754.1440860027
 31
0.0
  0
ARC
  5
2F3
330
2A5
100
AcDbEntity
  8
$DDT_AUDIT_GENERATED_(AF)
  6
Continuous
 62
     7
100
AcDbCircle
 10
502.1644572155
 20
754.9427215127
 30
0.0
 40
0.9999999999999977
100
AcDbArc
 50
307.0
 51
7.0
  0
ARC
  5
2F4
330
2A5
100
AcDbEntity
  8
$DDT_AUDIT_GENERATED_(AF)
  6
Continuous
 62
     7
100
AcDbCircle
 10
480.72546034
 20
752.3103436952
 30
0.0
 40
1.000000000000025
100
AcDbArc
 50
187.0
 51
247.0
  0
LINE
  5
2F5
330
2A5
100
AcDbEntity
  8
$DDT_AUDIT_GENERATED_(AF)
  6
Continuous
 62
     7
100
AcDbLine
 10
479.1790758575
 20
756.6991255838
 30
0.0
 11
479.7329141884
 21
752.1884743518
 31
0.0
  0
LINE
  5
2F6
330
2A5
100
AcDbEntity
  8
$DDT_AUDIT_GENERATED_(AF)
  6
Continuous
 62
     7
100
AcDbLine
 10
503.1570033671
 20
755.0645908561
 30
0.0
 11
502.4852573838
 21
760.5355228563
 31
0.0
  0
ENDBLK
  5
2F8
330
2A5
100
AcDbEntity
  8
0
100
AcDbBlockEnd
  0
BLOCK
  5
341
330
2F9
100
AcDbEntity
  8
0
100
AcDbBlockBegin
  2
SE2
 70
     0
 10
0.0
 20
0.0
 30
0.0
  3
SE2
  1

  0
ARC
  5
2FB
330
2F9
100
AcDbEntity
  8
$DDT_AUDIT_GENERATED_(77)
  6
Continuous
 62
     7
100
AcDbCircle
 10
263.8736532328
 20
372.152462187
 30
0.0
 40
20.85
100
AcDbArc
 50
269.4860305074
 51
274.6415425837
  0
ARC
  5
2FC
330
2F9
100
AcDbEntity
  8
$DDT_AUDIT_GENERATED_(77)
  6
Continuous
 62
     7
100
AcDbCircle
 10
263.8736532328
 20
372.152462187
 30
0.0
 40
20.85
100
AcDbArc
 50
249.9413789122
 51
252.6670965706
  0
ARC
  5
2FD
330
2F9
100
AcDbEntity
  8
$DDT_AUDIT_GENERATED_(77)
  6
Continuous
 62
     7
100
AcDbCircle
 10
263.8736532328
 20
372.152462187
 30
0.0
 40
20.85
100
AcDbArc
 50
248.3803620079
 51
248.5874395392
  0
ARC
  5
2FE
330
2F9
100
AcDbEntity
  8
$DDT_AUDIT_GENERATED_(77)
  6
Continuous
 62
     7
100
AcDbCircle
 10
263.8736532328
 20
372.152462187
 30
0.0
 40
20.85
100
AcDbArc
 50
242.6313834498
 51
247.9301874024
  0
ARC
  5
2FF
330
2F9
100
AcDbEntity
  8
$DDT_AUDIT_GENERATED_(77)
  6
Continuous
 62
     7
100
AcDbCircle
 10
263.8736532328
 20
372.152462187
 30
0.0
 40
20.85
100
AcDbArc
 50
209.9895225902
 51
211.7902116156
  0
ARC
  5
300
330
2F9
100
AcDbEntity
  8
$DDT_AUDIT_GENERATED_(77)
  6
Continuous
 62
     7
100
AcDbCircle
 10
263.8736532328
 20
372.152462187
 30
0.0
 40
20.85
100
AcDbArc
 50
149.5959245318
 51
152.0780969158
  0
ARC
  5
301
330
2F9
100
AcDbEntity
  8
$DDT_AUDIT_GENERATED_(77)
  6
Continuous
 62
     7
100
AcDbCircle
 10
263.8736532328
 20
372.152462187
 30
0.0
 40
20.85
100
AcDbArc
 50
148.2104802366
 51
148.3255827535
  0
ARC
  5
302
330
2F9
100
AcDbEntity
  8
$DDT_AUDIT_GENERATED_(77)
  6
Continuous
 62
     7
100
AcDbCircle
 10
263.8736532328
 20
372.152462187
 30
0.0
 40
20.85
100
AcDbArc
 50
111.3881431818
 51
112.197681801
  0
ARC
  5
303
330
2F9
100
AcDbEntity
  8
$DDT_AUDIT_GENERATED_(77)
  6
Continuous
 62
     7
100
AcDbCircle
 10
263.8736532328
 20
372.152462187
 30
0.0
 40
20.85
100
AcDbArc
 50
105.3689006016
 51
110.3565137716
  0
ARC
  5
304
330
2F9
100
AcDbEntity
  8
$DDT_AUDIT_GENERATED_(77)
  6
Continuous
 62
     7
100
AcDbCircle
 10
263.8736532328
 20
372.152462187
 30
0.0
 40
20.85
100
AcDbArc
 50
85.357687707
 51
93.8551170235
  0
ARC
  5
305
330
2F9
100
AcDbEntity
  8
$DDT_AUDIT_GENERATED_(87)
  6
Continuous
 62
     7
100
AcDbCircle
 10
263.8736532327
 20
372.1524666419
 30
0.0
 40
24.7499999999987
100
AcDbArc
 50
57.4625160741
 51
302.5594661015
  0
SPLINE
  5
306
330
2F9
100
AcDbEntity
  8
$DDT_AUDIT_GENERATED_(87)
  6
Continuous
 62
     7
100
AcDbSpline
210
0.0
220
0.0
230
1.0
 70
     8
 71
     3
 72
    20
 73
    16
 74
     0
 42
0.0000000000527167
 43
0.0000000001
 40
0.0
 40
0.0
 40
0.0
 40
0.0
 40
0.0625
 40
0.0625
 40
0.125
 40
0.125
 40
0.1875
 40
0.1875
 40
0.25
 40
0.25
 40
0.3125
 40
0.3125
 40
0.375
 40
0.375
 40
0.3776179655658448
 40
0.3776179655658448
 40
0.3776179655658448
 40
0.3776179655658448
 10
233.8736473660701
 20
372.1524621870183
 30
0.0
 10
233.8736443744752
 20
376.0794566988866
 30
0.0
 10
234.6544618186764
 20
380.0049067009361
 30
0.0
 10
237.6600477682913
 20
387.2610486982024
 30
0.0
 10
239.8836337039783
 20
390.588885711395
 30
0.0
 10
245.4372383712733
 20
396.1424988401978
 30
0.0
 10
248.7650719965947
 20
398.3660898461925
 30
0.0
 10
256.0212094145259
 20
401.3716868513002
 30
0.0
 10
259.9466582269133
 20
402.1525102763369
 30
0.0
 10
267.80064725065
 20
402.1525162595266
 30
0.0
 10
271.7260972526996
 20
401.3716988153254
 30
0.0
 10
278.9822392499658
 20
398.3661128657105
 30
0.0
 10
282.3100762631584
 20
396.1425269300235
 30
0.0
 10
285.2031961710576
 20
393.2494114300936
 30
0.0
 10
285.318538865557
 20
393.1321314472363
 30
0.0
 10
285.432898595162
 20
393.0139030798143
 30
0.0
  0
SPLINE
  5
307
330
2F9
100
AcDbEntity
  8
$DDT_AUDIT_GENERATED_(87)
  6
Continuous
 62
     7
100
AcDbSpline
210
0.0
220
0.0
230
1.0
 70
     8
 71
     3
 72
    20
 73
    16
 74
     0
 42
0.0000000000527167
 43
0.0000000001
 40
0.6223867443381557
 40
0.6223867443381557
 40
0.6223867443381557
 40
0.6223867443381557
 40
0.625
 40
0.625
 40
0.6875
 40
0.6875
 40
0.75
 40
0.75
 40
0.8125
 40
0.8125
 40
0.875
 40
0.875
 40
0.9375
 40
0.9375
 40
1.0
 40
1.0
 40
1.0
 40
1.0
 10
285.4323131475651
 20
351.2904617550428
 30
0.0
 10
285.3181558085102
 20
351.1724493211713
 30
0.0
 10
285.203019058863
 20
351.0553818940623
 30
0.0
 10
282.3101128144918
 20
348.1624712420405
 30
0.0
 10
278.9822791891705
 20
345.9388802360459
 30
0.0
 10
271.7261417712394
 20
342.9332832309381
 30
0.0
 10
267.8006929588519
 20
342.1524598059015
 30
0.0
 10
259.9467039351152
 20
342.1524538227118
 30
0.0
 10
256.0212539330656
 20
342.933271266913
 30
0.0
 10
248.7651119357994
 20
345.9388572165278
 30
0.0
 10
245.4372749226069
 20
348.162443152215
 30
0.0
 10
239.8836617938039
 20
353.7160478195099
 30
0.0
 10
237.6600707878093
 20
357.0438814448314
 30
0.0
 10
234.6544737827016
 20
364.3000188627624
 30
0.0
 10
233.8736503576649
 20
368.2254676751498
 30
0.0
 10
233.8736473660701
 20
372.1524621870183
 30
0.0
  0
SPLINE
  5
308
330
2F9
100
AcDbEntity
  8
$DDT_AUDIT_GENERATED_(8E)
  6
Continuous
 62
     7
100
AcDbSpline
210
0.0
220
0.0
230
1.0
 70
     8
 71
     3
 72
    10
 73
     6
 74
     0
 42
0.0000000000642562
 43
0.0000000001
 40
0.0
 40
0.0
 40
0.0
 40
0.0
 40
0.0625
 40
0.0625
 40
0.0893996634990911
 40
0.0893996634990911
 40
0.0893996634990911
 40
0.0893996634990911
 10
263.8736532327376
 20
396.802466641945
 30
0.0
 10
267.1003306873623
 20
396.8024666419452
 30
0.0
 10
270.3257385821942
 20
396.1608931218192
 30
0.0
 10
274.5898325560514
 20
394.3946475666144
 30
0.0
 10
275.8271680741695
 20
393.7534897569242
 30
0.0
 10
277.0023771752093
 20
393.0136013429079
 30
0.0
  0
SPLINE
  5
309
330
2F9
100
AcDbEntity
  8
$DDT_AUDIT_GENERATED_(8E)
  6
Continuous
 62
     7
100
AcDbSpline
210
0.0
220
0.0
230
1.0
 70
     8
 71
     3
 72
    26
 73
    22
 74
     0
 42
0.0000000000641708
 43
0.0000000001
 40
0.410601089721068
 40
0.410601089721068
 40
0.410601089721068
 40
0.410601089721068
 40
0.4375
 40
0.4375
 40
0.5
 40
0.5
 40
0.5625
 40
0.5625
 40
0.625
 40
0.625
 40
0.6875
 40
0.6875
 40
0.75
 40
0.75
 40
0.8125
 40
0.8125
 40
0.875
 40
0.875
 40
0.9375
 40
0.9375
 40
1.0
 40
1.0
 40
1.0
 40
1.0
 10
277.0022784536229
 20
351.2912697881457
 30
0.0
 10
275.8270987806246
 20
350.5514076208033
 30
0.0
 10
274.5897966297256
 20
349.9102708361027
 30
0.0
 10
270.3257385821955
 20
348.1440401620694
 30
0.0
 10
267.1003306873637
 20
347.5024666419433
 30
0.0
 10
260.6469757781144
 20
347.502466641943
 30
0.0
 10
257.4215678832825
 20
348.144040162069
 30
0.0
 10
251.4594453665958
 20
350.6136321690105
 30
0.0
 10
248.7250765853567
 20
352.4406789768278
 30
0.0
 10
244.1618655676229
 20
357.0038899945613
 30
0.0
 10
242.3348187598054
 20
359.7382587758003
 30
0.0
 10
239.8652267528636
 20
365.700381292487
 30
0.0
 10
239.2236532327375
 20
368.9257891873188
 30
0.0
 10
239.2236532327373
 20
375.3791440965681
 30
0.0
 10
239.8652267528633
 20
378.6045519914
 30
0.0
 10
242.3348187598047
 20
384.5666745080867
 30
0.0
 10
244.161865567622
 20
387.3010432893258
 30
0.0
 10
248.7250765853556
 20
391.8642543070596
 30
0.0
 10
251.4594453665946
 20
393.691301114877
 30
0.0
 10
257.4215678832812
 20
396.1608931218188
 30
0.0
 10
260.646975778113
 20
396.802466641945
 30
0.0
 10
263.8736532327376
 20
396.802466641945
 30
0.0
  0
ARC
  5
30A
330
2F9
100
AcDbEntity
  8
$DDT_AUDIT_GENERATED_(8E)
  6
Continuous
 62
     7
100
AcDbCircle
 10
263.8736532327
 20
372.1524666419
 30
0.0
 40
20.9
100
AcDbArc
 50
87.0399919056
 51
167.4332692165
  0
ARC
  5
30B
330
2F9
100
AcDbEntity
  8
$DDT_AUDIT_GENERATED_(8E)
  6
Continuous
 62
     7
100
AcDbCircle
 10
263.8736532327
 20
372.1524666419
 30
0.0
 40
20.9
100
AcDbArc
 50
171.3262047244
 51
185.1521082868
  0
ARC
  5
30C
330
2F9
100
AcDbEntity
  8
$DDT_AUDIT_GENERATED_(8E)
  6
Continuous
 62
     7
100
AcDbCircle
 10
263.8736532327
 20
372.1524666419
 30
0.0
 40
20.9
100
AcDbArc
 50
193.3561003535
 51
274.4404255586
  0
ARC
  5
30D
330
2F9
100
AcDbEntity
  8
$DDT_AUDIT_GENERATED_(95)
  6
Continuous
 62
     7
100
AcDbCircle
 10
263.8737190536
 20
372.1618514345
 30
0.0
 40
20.84036483140228
100
AcDbArc
 50
90.1194413491
 51
110.0626842703
  0
ARC
  5
30E
330
2F9
100
AcDbEntity
  8
$DDT_AUDIT_GENERATED_(95)
  6
Continuous
 62
     7
100
AcDbCircle
 10
263.8773606103
 20
372.1490022095
 30
0.0
 40
20.85370766229054
100
AcDbArc
 50
148.1903134436
 51
151.9990124018
  0
ARC
  5
30F
330
2F9
100
AcDbEntity
  8
$DDT_AUDIT_GENERATED_(95)
  6
Continuous
 62
     7
100
AcDbCircle
 10
263.8773606103
 20
372.1490022095
 30
0.0
 40
20.85370766229054
100
AcDbArc
 50
110.0599715906
 51
112.2098374192
  0
SPLINE
  5
310
330
2F9
100
AcDbEntity
  8
$DDT_AUDIT_GENERATED_(95)
  6
Continuous
 62
     7
100
AcDbSpline
210
0.0
220
0.0
230
1.0
 70
     8
 71
     5
 72
    12
 73
     6
 74
     0
 42
0.0000000030987354
 43
0.0000000001
 40
0.1647551548603335
 40
0.1647551548603335
 40
0.1647551548603335
 40
0.1647551548603335
 40
0.1647551548603335
 40
0.1647551548603335
 40
0.7884422393096172
 40
0.7884422393096172
 40
0.7884422393096172
 40
0.7884422393096172
 40
0.7884422393096172
 40
0.7884422393096172
 10
256.1812207744769
 20
391.5047100134402
 30
0.0
 10
255.8295666365687
 20
391.3096499723845
 30
0.0
 10
255.5915390979928
 20
391.0579316634849
 30
0.0
 10
255.4645924648553
 20
390.688175961707
 30
0.0
 10
255.4082278416905
 20
390.2708426279457
 30
0.0
 10
255.3859632357582
 20
389.8193081282518
 30
0.0
  0
ARC
  5
311
330
2F9
100
AcDbEntity
  8
$DDT_AUDIT_GENERATED_(95)
  6
Continuous
 62
     7
100
AcDbCircle
 10
288.0174135727
 20
5766.3573861346
 30
0.0
 40
5374.635200918534
100
AcDbArc
 50
269.7283559419
 51
270.1371489929
  0
SPLINE
  5
312
330
2F9
100
AcDbEntity
  8
$DDT_AUDIT_GENERATED_(95)
  6
Continuous
 62
     7
100
AcDbSpline
210
0.0
220
0.0
230
1.0
 70
     8
 71
     5
 72
    12
 73
     6
 74
     0
 42
0.0000000102521715
 43
0.0000000001
 40
0.9104795734489447
 40
0.9104795734489447
 40
0.9104795734489447
 40
0.9104795734489447
 40
0.9104795734489447
 40
0.9104795734489447
 40
0.9145945970913255
 40
0.9145945970913255
 40
0.9145945970913255
 40
0.9145945970913255
 40
0.9145945970913255
 40
0.9145945970913255
 10
301.7539529846231
 20
393.002215478301
 30
0.0
 10
301.754755720919
 20
393.002215466447
 30
0.0
 10
301.755558457217
 20
393.0022128522401
 30
0.0
 10
301.7563611933618
 20
393.0022076356805
 30
0.0
 10
301.7571639291983
 20
393.0021998167697
 30
0.0
 10
301.7579666645711
 20
393.0021893955096
 30
0.0
  0
ARC
  5
313
330
2F9
100
AcDbEntity
  8
$DDT_AUDIT_GENERATED_(95)
  6
Continuous
 62
     7
100
AcDbCircle
 10
263.8777084042
 20
372.1561519037
 30
0.0
 40
20.85405550015799
100
AcDbArc
 50
247.0594231622
 51
249.9393473294
  0
ARC
  5
314
330
2F9
100
AcDbEntity
  8
$DDT_AUDIT_GENERATED_(95)
  6
Continuous
 62
     7
100
AcDbCircle
 10
263.8777084042
 20
372.1561519037
 30
0.0
 40
20.85405550015799
100
AcDbArc
 50
207.9619848633
 51
211.9026224537
  0
LINE
  5
315
330
2F9
100
AcDbEntity
  8
$DDT_AUDIT_GENERATED_(95)
  6
Continuous
 62
     7
100
AcDbLine
 10
255.3736532328
 20
355.2901881202
 30
0.0
 11
255.3736532328
 21
389.0147362538
 31
0.0
  0
SPLINE
  5
316
330
2F9
100
AcDbEntity
  8
$DDT_AUDIT_GENERATED_(95)
  6
Continuous
 62
     7
100
AcDbSpline
210
0.0
220
0.0
230
1.0
 70
     8
 71
     5
 72
    28
 73
    22
 74
     0
 42
0.00000000025302
 43
0.0000000001
 40
0.0
 40
0.0
 40
0.0
 40
0.0
 40
0.0
 40
0.0
 40
0.048505976163888
 40
0.0974332388371129
 40
0.1359931743203164
 40
0.1683816451858678
 40
0.184949842391448
 40
0.2714864352401827
 40
0.3302658200847085
 40
0.3761164949288822
 40
0.4510779092169049
 40
0.500421521260031
 40
0.5046662876663472
 40
0.5343718627003288
 40
0.5763341519618764
 40
0.6388739468660208
 40
0.7047220156613473
 40
0.7694112157997332
 40
1.0
 40
1.0
 40
1.0
 40
1.0
 40
1.0
 40
1.0
 10
261.1954890371363
 20
389.0145656220506
 30
0.0
 10
261.4396080563009
 20
389.0147364877814
 30
0.0
 10
261.9436411394898
 20
389.0147362653554
 30
0.0
 10
262.6847806041709
 20
389.0147356199113
 30
0.0
 10
263.6644405918929
 20
389.0147354595533
 30
0.0
 10
264.8176216217119
 20
389.0147360803743
 30
0.0
 10
266.2764853747539
 20
389.0147368050174
 30
0.0
 10
267.8844032298219
 20
389.0147368507103
 30
0.0
 10
269.6282713906078
 20
389.0147357009524
 30
0.0
 10
271.7721183172169
 20
389.0147344524083
 30
0.0
 10
274.2688236044239
 20
389.0147354722894
 30
0.0
 10
276.1670841604589
 20
389.0147372653944
 30
0.0
 10
277.8566111111348
 20
389.0147383214704
 30
0.0
 10
279.5347707340619
 20
389.0147379839514
 30
0.0
 10
281.1224891667798
 20
389.0147362551693
 30
0.0
 10
282.8643489300728
 20
389.0147322837483
 30
0.0
 10
285.1435754358819
 20
389.0147224152013
 30
0.0
 10
289.1862818315499
 20
389.0146963001274
 30
0.0
 10
292.9037423289659
 20
389.0146713530044
 30
0.0
 10
296.0825336798069
 20
389.0146888959014
 30
0.0
 10
298.6842421149058
 20
389.0147362538304
 30
0.0
 10
300.7180510969338
 20
389.0147362538304
 30
0.0
  0
SPLINE
  5
317
330
2F9
100
AcDbEntity
  8
$DDT_AUDIT_GENERATED_(95)
  6
Continuous
 62
     7
100
AcDbSpline
210
0.0
220
0.0
230
1.0
 70
     8
 71
     5
 72
    23
 73
    17
 74
     0
 42
0.0000000017033729
 43
0.0000000001
 40
0.0083246676050847
 40
0.0083246676050847
 40
0.0083246676050847
 40
0.0083246676050847
 40
0.0083246676050847
 40
0.0083246676050847
 40
0.1497589311003597
 40
0.2600091050000626
 40
0.3170461693210298
 40
0.3601562391083144
 40
0.4699006760261936
 40
0.5652205836805677
 40
0.627291397115337
 40
0.6593839241009469
 40
0.799895335356997
 40
0.852791215209079
 40
0.9575101054791508
 40
1.0
 40
1.0
 40
1.0
 40
1.0
 40
1.0
 40
1.0
 10
255.3736556895026
 20
389.0147363054382
 30
0.0
 10
255.3736826992835
 20
389.0147366452795
 30
0.0
 10
255.3741690791622
 20
389.0147395752805
 30
0.0
 10
255.3815256499565
 20
389.0147423905397
 30
0.0
 10
255.4146722491844
 20
389.01474022763
 30
0.0
 10
255.5258294490019
 20
389.0147357115243
 30
0.0
 10
255.6992783768638
 20
389.0147334937504
 30
0.0
 10
255.9299971371208
 20
389.0147341791734
 30
0.0
 10
256.2359907446609
 20
389.0147363131894
 30
0.0
 10
256.7634932314579
 20
389.0147380115104
 30
0.0
 10
257.3648579344278
 20
389.0147368200234
 30
0.0
 10
258.1204759166359
 20
389.0147320491154
 30
0.0
 10
259.0000044828439
 20
389.0147242704964
 30
0.0
 10
259.9587395082909
 20
389.0147207960534
 30
0.0
 10
260.5740392420239
 20
389.0147229127064
 30
0.0
 10
261.0544987388338
 20
389.0147327182933
 30
0.0
 10
261.1954890371363
 20
389.0145656220506
 30
0.0
  0
ARC
  5
318
330
2F9
100
AcDbEntity
  8
$DDT_AUDIT_GENERATED_(95)
  6
Continuous
 62
     7
100
AcDbCircle
 10
260.5325773465
 20
275.2538162307
 30
0.0
 40
116.5459932739767
100
AcDbArc
 50
89.0150796319
 51
91.8724549687
  0
LINE
  5
319
330
2F9
100
AcDbEntity
  8
$DDT_AUDIT_GENERATED_(95)
  6
Continuous
 62
     7
100
AcDbLine
 10
490.55825396
 20
391.7375696513
 30
0.0
 11
300.882674376
 21
391.7375653178
 31
0.0
  0
SPLINE
  5
31A
330
2F9
100
AcDbEntity
  8
$DDT_AUDIT_GENERATED_(95)
  6
Continuous
 62
     7
100
AcDbSpline
210
0.0
220
0.0
230
1.0
 70
     8
 71
     5
 72
    12
 73
     6
 74
     0
 42
0.0000000101522799
 43
0.0000000001
 40
0.0895215971852228
 40
0.0895215971852228
 40
0.0895215971852228
 40
0.0895215971852228
 40
0.0895215971852228
 40
0.0895215971852228
 40
0.1631592195417239
 40
0.1631592195417239
 40
0.1631592195417239
 40
0.1631592195417239
 40
0.1631592195417239
 40
0.1631592195417239
 10
491.429530304272
 20
393.0022285104872
 30
0.0
 10
491.4151655136793
 20
393.0022289451867
 30
0.0
 10
491.4008007224771
 20
393.0013960106204
 30
0.0
 10
491.3864368203244
 20
392.9997297065523
 30
0.0
 10
491.3720746968813
 20
392.9972301130229
 30
0.0
 10
491.3577152416715
 20
392.993897390299
 30
0.0
  0
ARC
  5
31B
330
2F9
100
AcDbEntity
  8
$DDT_AUDIT_GENERATED_(95)
  6
Continuous
 62
     7
100
AcDbCircle
 10
491.3648092691
 20
372.1524613635
 30
0.0
 40
20.83800324499591
100
AcDbArc
 50
73.0765490268
 51
73.4713429716
  0
ARC
  5
31C
330
2F9
100
AcDbEntity
  8
$DDT_AUDIT_GENERATED_(95)
  6
Continuous
 62
     7
100
AcDbCircle
 10
491.3648092691
 20
372.1524613635
 30
0.0
 40
20.83800324499591
100
AcDbArc
 50
286.528674108
 51
286.7000123682
  0
ARC
  5
31D
330
2F9
100
AcDbEntity
  8
$DDT_AUDIT_GENERATED_(95)
  6
Continuous
 62
     7
100
AcDbCircle
 10
263.8738019277
 20
372.1440818702
 30
0.0
 40
20.84137510500456
100
AcDbArc
 50
249.9380532334
 51
269.8763378726
  0
SPLINE
  5
31E
330
2F9
100
AcDbEntity
  8
$DDT_AUDIT_GENERATED_(95)
  6
Continuous
 62
     7
100
AcDbSpline
210
0.0
220
0.0
230
1.0
 70
     8
 71
     5
 72
    15
 73
     9
 74
     0
 42
0.000000002957385
 43
0.0000000001
 40
0.2764739315782559
 40
0.2764739315782559
 40
0.2764739315782559
 40
0.2764739315782559
 40
0.2764739315782559
 40
0.2764739315782559
 40
0.3749999810188102
 40
0.499999974690754
 40
0.7499999620376203
 40
0.9160892268804064
 40
0.9160892268804064
 40
0.9160892268804064
 40
0.9160892268804064
 40
0.9160892268804064
 40
0.9160892268804064
 10
255.905869257276
 20
352.9928766084245
 30
0.0
 10
255.8566441712491
 20
353.0370036438752
 30
0.0
 10
255.7514165672335
 20
353.144352092024
 30
0.0
 10
255.5640199939632
 20
353.4056617835632
 30
0.0
 10
255.4335710278817
 20
353.8273835037314
 30
0.0
 10
255.3897165371651
 20
354.2528080434528
 30
0.0
 10
255.3775438191801
 20
354.6176951130107
 30
0.0
 10
255.3746583725417
 20
354.8968367370417
 30
0.0
 10
255.3740987284779
 20
355.0082577582838
 30
0.0
  0
LINE
  5
31F
330
2F9
100
AcDbEntity
  8
$DDT_AUDIT_GENERATED_(95)
  6
Continuous
 62
     7
100
AcDbLine
 10
255.3736532328
 20
355.2901881202
 30
0.0
 11
300.7180510969
 21
355.2901881202
 31
0.0
  0
LINE
  5
320
330
2F9
100
AcDbEntity
  8
$DDT_AUDIT_GENERATED_(95)
  6
Continuous
 62
     7
100
AcDbLine
 10
300.7180510969
 20
389.0147362538
 30
0.0
 11
490.3936296892
 21
389.01474654
 31
0.0
  0
SPLINE
  5
321
330
2F9
100
AcDbEntity
  8
$DDT_AUDIT_GENERATED_(95)
  6
Continuous
 62
     7
100
AcDbSpline
210
0.0
220
0.0
230
1.0
 70
     8
 71
     5
 72
    12
 73
     6
 74
     0
 42
0.0000000101522177
 43
0.0000000001
 40
0.8368407370036958
 40
0.8368407370036958
 40
0.8368407370036958
 40
0.8368407370036958
 40
0.8368407370036958
 40
0.8368407370036958
 40
0.9105267118300417
 40
0.9105267118300417
 40
0.9105267118300417
 40
0.9105267118300417
 40
0.9105267118300417
 40
0.9105267118300417
 10
491.3577069500904
 20
351.3110385583141
 30
0.0
 10
491.3720758757838
 20
351.3077028330696
 30
0.0
 10
491.3864474768643
 20
351.3052012593691
 30
0.0
 10
491.4008208623861
 20
351.303533991718
 30
0.0
 10
491.4151951412919
 20
351.3027011035259
 30
0.0
 10
491.4295694225534
 20
351.3027025870542
 30
0.0
  0
ARC
  5
322
330
2F9
100
AcDbEntity
  8
$DDT_AUDIT_GENERATED_(95)
  6
Continuous
 62
     7
100
AcDbCircle
 10
490.4153883979
 20
372.1524619062
 30
0.0
 40
19.58565317702399
100
AcDbArc
 50
270.4179108805
 51
89.5820612105
  0
LINE
  5
323
330
2F9
100
AcDbEntity
  8
$DDT_AUDIT_GENERATED_(95)
  6
Continuous
 62
     7
100
AcDbLine
 10
490.558243147
 20
352.5673254599
 30
0.0
 11
300.8826727998
 21
352.5673273488
 31
0.0
  0
SPLINE
  5
324
330
2F9
100
AcDbEntity
  8
$DDT_AUDIT_GENERATED_(95)
  6
Continuous
 62
     7
100
AcDbSpline
210
0.0
220
0.0
230
1.0
 70
     8
 71
     3
 72
     8
 73
     4
 74
     0
 42
0.0000000102386681
 43
0.0000000001
 40
0.9106442588447237
 40
0.9106442588447237
 40
0.9106442588447237
 40
0.9106442588447237
 40
0.9148111266794519
 40
0.9148111266794519
 40
0.9148111266794519
 40
0.9148111266794519
 10
301.7540000430754
 20
351.3027229428173
 30
0.0
 10
301.755356576393
 20
351.3027224830176
 30
0.0
 10
301.756713109759
 20
351.3027309447509
 30
0.0
 10
301.7580696414374
 20
351.3027483289113
 30
0.0
  0
ARC
  5
325
330
2F9
100
AcDbEntity
  8
$DDT_AUDIT_GENERATED_(95)
  6
Continuous
 62
     7
100
AcDbCircle
 10
278.8036949011
 20
-519.014540276
 30
0.0
 40
871.8614687866966
100
AcDbArc
 50
88.5488893281
 51
91.4511274732
  0
LINE
  5
326
330
2F9
100
AcDbEntity
  8
$DDT_AUDIT_GENERATED_(95)
  6
Continuous
 62
     7
100
AcDbLine
 10
490.3936213186
 20
355.2901986716
 30
0.0
 11
300.7180510969
 21
355.2901881202
 31
0.0
  0
ARC
  5
327
330
2F9
100
AcDbEntity
  8
$DDT_AUDIT_GENERATED_(95)
  6
Continuous
 62
     7
100
AcDbCircle
 10
490.2706175708
 20
372.1524726363
 30
0.0
 40
16.86272246600793
100
AcDbArc
 50
270.4179428689
 51
89.5820286889
  0
ARC
  5
328
330
2F9
100
AcDbEntity
  8
$DDT_AUDIT_GENERATED_(95)
  6
Continuous
 62
     7
100
AcDbCircle
 10
282.7943746338
 20
-640.072231282
 30
0.0
 40
1033.248452907667
100
AcDbArc
 50
88.9483708494
 51
91.0516647272
  0
LINE
  5
329
330
2F9
100
AcDbEntity
  8
$DDT_AUDIT_GENERATED_(95)
  6
Continuous
 62
     7
100
AcDbLine
 10
246.1715326848
 20
383.1623563197
 30
0.0
 11
246.1355464767
 21
383.107458684
 31
0.0
  0
ARC
  5
32A
330
2F9
100
AcDbEntity
  8
$DDT_AUDIT_GENERATED_(95)
  6
Continuous
 62
     7
100
AcDbCircle
 10
263.8931308804
 20
372.1353095712
 30
0.0
 40
20.87224958166953
100
AcDbArc
 50
112.3796686046
 51
148.1085683271
  0
LINE
  5
32B
330
2F9
100
AcDbEntity
  8
$DDT_AUDIT_GENERATED_(95)
  6
Continuous
 62
     7
100
AcDbLine
 10
256.0038338894
 20
391.459215854
 30
0.0
 11
255.9898024759
 21
391.4533892565
 31
0.0
  0
ARC
  5
32C
330
2F9
100
AcDbEntity
  8
$DDT_AUDIT_GENERATED_(95)
  6
Continuous
 62
     7
100
AcDbCircle
 10
263.6436505871
 20
372.0846880367
 30
0.0
 40
20.67861528656253
100
AcDbArc
 50
151.5329561306
 51
179.812286342
  0
SPLINE
  5
32D
330
2F9
100
AcDbEntity
  8
$DDT_AUDIT_GENERATED_(95)
  6
Continuous
 62
     7
100
AcDbSpline
210
0.0
220
0.0
230
1.0
 70
     8
 71
     3
 72
    45
 73
    41
 74
     0
 42
0.0000000041070406
 43
0.0000000001
 40
0.0355746951377371
 40
0.0355746951377371
 40
0.0355746951377371
 40
0.0355746951377371
 40
0.0545572899859331
 40
0.106722724332279
 40
0.1558880192419716
 40
0.2018395789004645
 40
0.2445290286727139
 40
0.2832826556660867
 40
0.3188947822612038
 40
0.3513577162624249
 40
0.3806552390412539
 40
0.4100819911660162
 40
0.4353717680388148
 40
0.4565031906091738
 40
0.4734597339836004
 40
0.4862313708357544
 40
0.4948219892987039
 40
0.4992950335062059
 40
0.4998315950720159
 40
0.5000382879760308
 40
0.500223410268597
 40
0.5004096140108081
 40
0.5006192265443705
 40
0.501160289138611
 40
0.5052797112520939
 40
0.512848633043522
 40
0.5239566965014394
 40
0.5386392478882274
 40
0.5569201257412396
 40
0.5788200613298776
 40
0.6043593416995301
 40
0.6335586404582625
 40
0.6664384173317447
 40
0.7030161111153814
 40
0.7432999154191439
 40
0.7872811877511596
 40
0.8349327304467529
 40
0.8862248777059605
 40
0.9411801657477527
 40
1.0
 40
1.0
 40
1.0
 40
1.0
 10
255.3774152155341
 20
389.5691328976692
 30
0.0
 10
255.3776590418488
 20
389.580918785761
 30
0.0
 10
255.3786280745122
 20
389.6247212491375
 30
0.0
 10
255.380918134896
 20
389.7043407412072
 30
0.0
 10
255.3847845610325
 20
389.8024307328717
 30
0.0
 10
255.3897005207374
 20
389.8980330372694
 30
0.0
 10
255.3956438696036
 20
389.9897276788632
 30
0.0
 10
255.402622286224
 20
390.0775424858883
 30
0.0
 10
255.4106266727394
 20
390.1613324445887
 30
0.0
 10
255.4197203708733
 20
390.2416176141276
 30
0.0
 10
255.4303183787982
 20
390.3212713644554
 30
0.0
 10
255.4425778214449
 20
390.3999859026652
 30
0.0
 10
255.4569665003344
 20
390.4781844681285
 30
0.0
 10
255.472457633449
 20
390.5510183500727
 30
0.0
 10
255.4899325268505
 20
390.620637292051
 30
0.0
 10
255.5065786801694
 20
390.6808289770155
 30
0.0
 10
255.5276058299865
 20
390.7438000181677
 30
0.0
 10
255.5404792184752
 20
390.7812653667229
 30
0.0
 10
255.5574248989093
 20
390.8233597198317
 30
0.0
 10
255.561670264869
 20
390.8336158715079
 30
0.0
 10
255.5646958330513
 20
390.8408142617888
 30
0.0
 10
255.5677354203938
 20
390.8479356040967
 30
0.0
 10
255.5720285391722
 20
390.8578439851467
 30
0.0
 10
255.588451654065
 20
390.8947701153331
 30
0.0
 10
255.6064447205059
 20
390.9305982200339
 30
0.0
 10
255.6330402143059
 20
390.9809669686712
 30
0.0
 10
255.6607388310855
 20
391.0271039698525
 30
0.0
 10
255.692241419537
 20
391.0755044834081
 30
0.0
 10
255.7261338965785
 20
391.1223680469731
 30
0.0
 10
255.7629348766417
 20
391.1687242619883
 30
0.0
 10
255.8025077404491
 20
391.2139536836466
 30
0.0
 10
255.8449861071713
 20
391.2581064405145
 30
0.0
 10
255.8904304646166
 20
391.3010471510598
 30
0.0
 10
255.938932326845
 20
391.3427291650733
 30
0.0
 10
255.9905836643316
 20
391.3831076657979
 30
0.0
 10
256.0454485404594
 20
391.4221509370997
 30
0.0
 10
256.1037374492572
 20
391.4599359163223
 30
0.0
 10
256.1650961037628
 20
391.4962493559546
 30
0.0
 10
256.2316740964997
 20
391.5323248157285
 30
0.0
 10
256.2727463090951
 20
391.5525035909438
 30
0.0
 10
256.2979475252581
 20
391.5647795306348
 30
0.0
  0
ARC
  5
32E
330
2F9
100
AcDbEntity
  8
$DDT_AUDIT_GENERATED_(95)
  6
Continuous
 62
     7
100
AcDbCircle
 10
268.1859880788
 20
389.1749525065
 30
0.0
 40
12.81366418529649
100
AcDbArc
 50
177.1180251923
 51
180.8247816684
  0
ARC
  5
32F
330
2F9
100
AcDbEntity
  8
$DDT_AUDIT_GENERATED_(95)
  6
Continuous
 62
     7
100
AcDbCircle
 10
257.7414899452
 20
388.6494399588
 30
0.0
 40
3.251326857445587
100
AcDbArc
 50
108.22714959
 51
118.6585108763
  0
LINE
  5
330
330
2F9
100
AcDbEntity
  8
$DDT_AUDIT_GENERATED_(95)
  6
Continuous
 62
     7
100
AcDbLine
 10
491.4295227756
 20
393.0022251666
 30
0.0
 11
301.7539452758
 21
393.0022251666
 31
0.0
  0
LINE
  5
331
330
2F9
100
AcDbEntity
  8
$DDT_AUDIT_GENERATED_(95)
  6
Continuous
 62
     7
100
AcDbLine
 10
497.4386584205
 20
392.1118156504
 30
0.0
 11
497.3201785235
 21
392.1518870629
 31
0.0
  0
ARC
  5
332
330
2F9
100
AcDbEntity
  8
$DDT_AUDIT_GENERATED_(95)
  6
Continuous
 62
     7
100
AcDbCircle
 10
491.3311262822
 20
372.1503704136
 30
0.0
 40
20.87489508385469
100
AcDbArc
 50
286.6725829995
 51
72.9876480424
  0
ARC
  5
333
330
2F9
100
AcDbEntity
  8
$DDT_AUDIT_GENERATED_(95)
  6
Continuous
 62
     7
100
AcDbCircle
 10
263.900934318
 20
372.1791112583
 30
0.0
 40
20.88395911387115
100
AcDbArc
 50
211.9047471239
 51
246.8793772869
  0
LINE
  5
334
330
2F9
100
AcDbEntity
  8
$DDT_AUDIT_GENERATED_(95)
  6
Continuous
 62
     7
100
AcDbLine
 10
246.135559488
 20
361.197444552
 30
0.0
 11
246.1719587211
 21
361.1417577461
 31
0.0
  0
ARC
  5
335
330
2F9
100
AcDbEntity
  8
$DDT_AUDIT_GENERATED_(95)
  6
Continuous
 62
     7
100
AcDbCircle
 10
263.7064714286
 20
372.2362813803
 30
0.0
 40
20.74149462021943
100
AcDbArc
 50
180.2316139885
 51
208.4233437972
  0
SPLINE
  5
336
330
2F9
100
AcDbEntity
  8
$DDT_AUDIT_GENERATED_(95)
  6
Continuous
 62
     7
100
AcDbSpline
210
0.0
220
0.0
230
1.0
 70
     8
 71
     3
 72
    47
 73
    43
 74
     0
 42
0.000000004145988
 43
0.0000000001
 40
0.0
 40
0.0
 40
0.0
 40
0.0
 40
0.0554957750719632
 40
0.1075418721410847
 40
0.1563215635642545
 40
0.2018731459739824
 40
0.2441822887805817
 40
0.282558230637086
 40
0.3177726824649483
 40
0.3498250138700122
 40
0.3787235825726563
 40
0.4077514121264877
 40
0.4327452141660561
 40
0.453726434977992
 40
0.4707159013181871
 40
0.4837349383786914
 40
0.4928095595146937
 40
0.4979898375273367
 40
0.4986994416783908
 40
0.4991966601921926
 40
0.4993801185824588
 40
0.4995361852321402
 40
0.4996109271261946
 40
0.4996873574291996
 40
0.4998559933536215
 40
0.500309676619854
 40
0.5029633067933948
 40
0.5097998004533569
 40
0.5204672448199047
 40
0.5349705972517963
 40
0.5533008957162469
 40
0.5754428670893983
 40
0.6013764702506983
 40
0.6310772678857889
 40
0.6645172503452756
 40
0.7016677773663327
 40
0.7425059260654758
 40
0.7870191940382585
 40
0.8351957707392815
 40
0.8869776411203859
 40
0.9421357192449865
 40
0.968680644257156
 40
0.968680644257156
 40
0.968680644257156
 40
0.968680644257156
 10
256.2979475237655
 20
352.7401448441265
 30
0.0
 10
256.2753207357563
 20
352.7511521997891
 30
0.0
 10
256.2383965397696
 20
352.7692430676979
 30
0.0
 10
256.1789584397791
 20
352.8010238588508
 30
0.0
 10
256.1243361332776
 20
352.8325615948709
 30
0.0
 10
256.0725801800321
 20
352.8648910384725
 30
0.0
 10
256.0242175849583
 20
352.8976083540689
 30
0.0
 10
255.9789857136082
 20
352.930720534598
 30
0.0
 10
255.9367686868694
 20
352.9641302523921
 30
0.0
 10
255.8971473112825
 20
352.9980043760975
 30
0.0
 10
255.8586104557698
 20
353.0335811580004
 30
0.0
 10
255.8212453425764
 20
353.070934126134
 30
0.0
 10
255.7849221961563
 20
353.1105107363886
 30
0.0
 10
255.7515712496818
 20
353.1499692712819
 30
0.0
 10
255.720702599475
 20
353.1898984937285
 30
0.0
 10
255.6934541250721
 20
353.2277700443751
 30
0.0
 10
255.6674603025606
 20
353.26781064326
 30
0.0
 10
255.6497738317055
 20
353.2963815385423
 30
0.0
 10
255.6336114490393
 20
353.3250719401458
 30
0.0
 10
255.6287111563982
 20
353.3339635881397
 30
0.0
 10
255.6246030486881
 20
353.3415665859393
 30
0.0
 10
255.6221641519989
 20
353.3461341133282
 30
0.0
 10
255.6203183887472
 20
353.3496220411179
 30
0.0
 10
255.6184526636698
 20
353.3531676137935
 30
0.0
 10
255.6147997174492
 20
353.3601747402779
 30
0.0
 10
255.6033050205933
 20
353.3826989105757
 30
0.0
 10
255.5890312095084
 20
353.4128139807879
 30
0.0
 10
255.5692699199438
 20
353.4571695221963
 30
0.0
 10
255.5495378574787
 20
353.506948763327
 30
0.0
 10
255.5287159306388
 20
353.5649337060358
 30
0.0
 10
255.5084880650613
 20
353.628874133542
 30
0.0
 10
255.488777612448
 20
353.6997421384701
 30
0.0
 10
255.4700673353846
 20
353.777424500467
 30
0.0
 10
255.4525680329816
 20
353.8622377030598
 30
0.0
 10
255.4365311844078
 20
353.9543322103221
 30
0.0
 10
255.422145277893
 20
354.0538641096389
 30
0.0
 10
255.4095686781552
 20
354.1609322782065
 30
0.0
 10
255.3989187646412
 20
354.2755005301249
 30
0.0
 10
255.3902538590689
 20
354.3977073261166
 30
0.0
 10
255.3836193571131
 20
354.5264288982454
 30
0.0
 10
255.379699292245
 20
354.638715760431
 30
0.0
 10
255.3781454933893
 20
354.7033454702419
 30
0.0
 10
255.3776801171097
 20
354.724914104945
 30
0.0
  0
ARC
  5
337
330
2F9
100
AcDbEntity
  8
$DDT_AUDIT_GENERATED_(95)
  6
Continuous
 62
     7
100
AcDbCircle
 10
491.3431588996
 20
372.9457512211
 30
0.0
 40
21.63471402963795
100
AcDbArc
 50
270.0385937828
 51
286.0377047274
  0
ARC
  5
338
330
2F9
100
AcDbEntity
  8
$DDT_AUDIT_GENERATED_(95)
  6
Continuous
 62
     7
100
AcDbCircle
 10
491.343158365
 20
371.3591907818
 30
0.0
 40
21.63471722485576
100
AcDbArc
 50
73.9622962505
 51
89.96138155
  0
LINE
  5
339
330
2F9
100
AcDbEntity
  8
$DDT_AUDIT_GENERATED_(95)
  6
Continuous
 62
     7
100
AcDbLine
 10
301.7539924004
 20
351.3026848123
 30
0.0
 11
491.4295611782
 21
351.3026848123
 31
0.0
  0
SPLINE
  5
33A
330
2F9
100
AcDbEntity
  8
$DDT_AUDIT_GENERATED_(95)
  6
Continuous
 62
     7
100
AcDbSpline
210
0.0
220
0.0
230
1.0
 70
     8
 71
     3
 72
    45
 73
    41
 74
     0
 42
0.0000000002636436
 43
0.0000000001
 40
0.0
 40
0.0
 40
0.0
 40
0.0
 40
0.0336203344476965
 40
0.0650414048264612
 40
0.0944259238814562
 40
0.1219212002397326
 40
0.1476627639689453
 40
0.1717759945558714
 40
0.1943765777953425
 40
0.2231737178590657
 40
0.2495533990307729
 40
0.2737219740481973
 40
0.295848608712681
 40
0.3143054608388943
 40
0.3312633479623345
 40
0.3474388764360308
 40
0.3635273564957109
 40
0.3795553076647432
 40
0.4061980140405675
 40
0.4328480984695533
 40
0.4595977700743355
 40
0.4776705522050635
 40
0.4958430584137715
 40
0.5141319895852798
 40
0.5326974130353794
 40
0.5527411303176754
 40
0.574172070263364
 40
0.5973975679628821
 40
0.6224875057795948
 40
0.6495160132896571
 40
0.6791080599992683
 40
0.7108764734123139
 40
0.7449121422700152
 40
0.7813133909073556
 40
0.8201908344670048
 40
0.8525593734230282
 40
0.8866141341927117
 40
0.9224509814503048
 40
0.9601925701810444
 40
1.0
 40
1.0
 40
1.0
 40
1.0
 10
263.8286567098255
 20
351.3027550804599
 30
0.0
 10
263.828370146673
 20
351.3027253757596
 30
0.0
 10
263.8294284338118
 20
351.3026686806032
 30
0.0
 10
263.8449504408634
 20
351.3022780296488
 30
0.0
 10
263.8864764944395
 20
351.3017670961823
 30
0.0
 10
263.9603403672602
 20
351.301173874475
 30
0.0
 10
264.0703282574596
 20
351.3005509669297
 30
0.0
 10
264.2177043826872
 20
351.2999310017173
 30
0.0
 10
264.4224854462075
 20
351.2992719226955
 30
0.0
 10
264.6997284436442
 20
351.2986019149926
 30
0.0
 10
265.0660563278031
 20
351.2979604402235
 30
0.0
 10
265.4789856794436
 20
351.2974312154979
 30
0.0
 10
265.9145070250346
 20
351.2970225382772
 30
0.0
 10
266.3563918230268
 20
351.296717447406
 30
0.0
 10
266.7965467356435
 20
351.2964939136382
 30
0.0
 10
267.2555445500523
 20
351.296328474913
 30
0.0
 10
267.7424683461902
 20
351.2962135428489
 30
0.0
 10
268.3786752352652
 20
351.2961314615837
 30
0.0
 10
269.1963300935163
 20
351.2961244963429
 30
0.0
 10
270.2310999720443
 20
351.2962391741821
 30
0.0
 10
271.2297039023638
 20
351.2964404942805
 30
0.0
 10
272.1593654266644
 20
351.2966806045264
 30
0.0
 10
272.9962806061348
 20
351.2969268031935
 30
0.0
 10
273.8706179155192
 20
351.2972082671119
 30
0.0
 10
274.8030731869805
 20
351.2975275087378
 30
0.0
 10
275.8158643735359
 20
351.2978889129866
 30
0.0
 10
276.936986470464
 20
351.2982982166502
 30
0.0
 10
278.1759237493954
 20
351.2987524590545
 30
0.0
 10
279.5450249307972
 20
351.2992466015655
 30
0.0
 10
281.0603953594953
 20
351.2997731558975
 30
0.0
 10
282.729605884878
 20
351.3003170526145
 30
0.0
 10
284.5596224343274
 20
351.3008583982408
 30
0.0
 10
286.5461671051295
 20
351.3013710764702
 30
0.0
 10
288.6935117945472
 20
351.3018300211075
 30
0.0
 10
290.8259787782031
 20
351.3021809672447
 30
0.0
 10
292.9223999794943
 20
351.3024314851336
 30
0.0
 10
294.9691536668638
 20
351.3025964771354
 30
0.0
 10
297.1153406110626
 20
351.3026955078023
 30
0.0
 10
299.4354485889149
 20
351.3027364974844
 30
0.0
 10
300.8782455178679
 20
351.3027408357728
 30
0.0
 10
301.7580591553278
 20
351.3027414850505
 30
0.0
  0
ARC
  5
33B
330
2F9
100
AcDbEntity
  8
$DDT_AUDIT_GENERATED_(95)
  6
Continuous
 62
     7
100
AcDbCircle
 10
257.3797049604
 20
354.8102334288
 30
0.0
 40
2.336665244463887
100
AcDbArc
 50
230.9423362995
 51
253.7182620116
  0
LINE
  5
33C
330
2F9
100
AcDbEntity
  8
$DDT_AUDIT_GENERATED_(95)
  6
Continuous
 62
     7
100
AcDbLine
 10
255.3736532996
 20
355.2901881151
 30
0.0
 11
255.3762641354
 21
355.0082698892
 31
0.0
  0
LINE
  5
33D
330
2F9
100
AcDbEntity
  8
$DDT_AUDIT_GENERATED_(2E8)
  6
Continuous
 62
     7
100
AcDbLine
 10
243.2236532328
 20
375.602462187
 30
0.0
 11
243.2236532328
 21
374.9980195896
 31
0.0
  0
LINE
  5
33E
330
2F9
100
AcDbEntity
  8
$DDT_AUDIT_GENERATED_(2E8)
  6
Continuous
 62
     7
100
AcDbLine
 10
243.2236532328
 20
369.3013227235
 30
0.0
 11
243.2236532328
 21
368.702462187
 31
0.0
  0
ARC
  5
33F
330
2F9
100
AcDbEntity
  8
$DDT_AUDIT_GENERATED_(2E8)
  6
Continuous
 62
     7
100
AcDbCircle
 10
243.5236532328
 20
375.602462187
 30
0.0
 40
0.2999999999999999
100
AcDbArc
 50
136.7716168247
 51
180.0
  0
ARC
  5
340
330
2F9
100
AcDbEntity
  8
$DDT_AUDIT_GENERATED_(2E8)
  6
Continuous
 62
     7
100
AcDbCircle
 10
243.5236532328
 20
368.702462187
 30
0.0
 40
0.2999999999999982
100
AcDbArc
 50
180.0
 51
220.9157158227
  0
ENDBLK
  5
342
330
2F9
100
AcDbEntity
  8
0
100
AcDbBlockEnd
  0
ENDSEC
  0
SECTION
  2
ENTITIES
  0
INSERT
  5
5F
330
1F
100
AcDbEntity
  8
Default
100
AcDbBlockReference
  2
SEANNOT_GROUP
 10
0.0
 20
0.0
 30
0.0
  0
INSERT
  5
66
330
1F
100
AcDbEntity
  8
Default
100
AcDbBlockReference
  2
SEANNOT_GROUP1
 10
0.0
 20
0.0
 30
0.0
  0
INSERT
  5
6C
330
1F
100
AcDbEntity
  8
Default
100
AcDbBlockReference
  2
SEANNOT_GROUP2
 10
0.0
 20
0.0
 30
0.0
  0
INSERT
  5
76
330
1F
100
AcDbEntity
  8
Default
100
AcDbBlockReference
  2
SE
 10
0.0
 20
0.0
 30
0.0
  0
INSERT
  5
2A6
330
1F
100
AcDbEntity
  8
Default
100
AcDbBlockReference
  2
SE1
 10
0.0
 20
0.0
 30
0.0
  0
INSERT
  5
2FA
330
1F
100
AcDbEntity
  8
Default
100
AcDbBlockReference
  2
SE2
 10
0.0
 20
0.0
 30
0.0
  0
TEXT
  5
344
330
1F
100
AcDbEntity
  8
Default
  6
Continuous
 62
     7
100
AcDbText
 10
5.9362635081
 20
53.4225120485
 30
0.0
 40
10.0
  1
Grohe AG^J
  7
SEACAD_seiso_ttf
 11
5.9362635081
 21
63.4225120485
 31
0.0
100
AcDbText
 73
     3
  0
TEXT
  5
345
330
1F
100
AcDbEntity
  8
Default
  6
Continuous
 62
     7
100
AcDbText
 10
5.9362635081
 20
37.0588756849
 30
0.0
 40
10.0
  1
 
  7
SEACAD_seiso_ttf
 11
5.9362635081
 21
47.0588756849
 31
0.0
100
AcDbText
 73
     3
  0
TEXT
  5
346
330
1F
100
AcDbEntity
  8
Default
  6
Continuous
 62
     7
100
AcDbText
 10
5.9362635081
 20
20.6952393213
 30
0.0
 40
10.0
  1
ecn: 
  7
SEACAD_seiso_ttf
 11
5.9362635081
 21
30.6952393213
 31
0.0
100
AcDbText
 73
     3
  0
TEXT
  5
347
330
1F
100
AcDbEntity
  8
Default
  6
Continuous
 62
     7
100
AcDbText
 10
5.9362635081
 20
4.3316029576
 30
0.0
 40
10.0
  1
unit: mm
  7
SEACAD_seiso_ttf
 11
5.9362635081
 21
14.3316029576
 31
0.0
100
AcDbText
 73
     3
  0
LINE
  5
348
330
1F
100
AcDbEntity
  8
Default
  6
Continuous
 62
     7
100
AcDbLine
 10
0.0
 20
0.0
 30
0.0
 11
100.0
 21
0.0
 31
0.0
  0
LINE
  5
349
330
1F
100
AcDbEntity
  8
Default
  6
Continuous
 62
     7
100
AcDbLine
 10
0.0
 20
0.0
 30
0.0
 11
0.0
 21
100.0
 31
0.0
  0
TEXT
  5
34A
330
1F
100
AcDbEntity
  8
Default
  6
Continuous
 62
     7
100
AcDbText
 10
24.3923665681
 20
-18.2375342018
 30
0.0
 40
10.0
  1
100 mm
  7
SEACAD_seiso_ttf
 11
24.3923665681
 21
-8.2375342018
 31
0.0
100
AcDbText
 73
     3
  0
TEXT
  5
34B
330
1F
100
AcDbEntity
  8
Default
  6
Continuous
 62
     7
100
AcDbText
 10
-7.6150308803
 20
24.6231930421
 30
0.0
 40
10.0
  1
100 mm
 50
90.0
  7
SEACAD_seiso_ttf
 11
-17.6150308803
 21
24.6231930421
 31
0.0
100
AcDbText
 73
     3
  0
TEXT
  5
34C
330
1F
100
AcDbEntity
  8
Default
  6
Continuous
 62
     7
100
AcDbText
 10
28.4878128572
 20
20.0907663715
 30
0.0
 40
10.0
  1
221002
  7
SEACAD_seiso_ttf
 11
28.4878128572
 21
30.0907663715
 31
0.0
100
AcDbText
 73
     3
  0
TEXT
  5
34D
330
1F
100
AcDbEntity
  8
Default
  6
Continuous
 62
     7
100
AcDbText
 10
5.9012241913
 20
36.7242780188
 30
0.0
 40
10.0
  1
13292000
  7
SEACAD_seiso_ttf
 11
5.9012241913
 21
46.7242780188
 31
0.0
100
AcDbText
 73
     3
  0
ENDSEC
  0
SECTION
  2
OBJECTS
  0
DICTIONARY
  5
C
330
0
100
AcDbDictionary
281
     1
  3
ACAD_GROUP
350
D
  3
ACAD_LAYOUT
350
1A
  3
ACAD_MLEADERSTYLE
350
351
  3
ACAD_MLINESTYLE
350
17
  3
ACAD_PLOTSETTINGS
350
19
  3
ACAD_PLOTSTYLENAME
350
E
  3
ACAD_SCALELIST
350
3B
  3
ACAD_TABLESTYLE
350
350
  3
ACAD_VISUALSTYLE
350
2A
  3
AcDbVariableDictionary
350
34E
  0
DICTIONARY
  5
D
102
{ACAD_REACTORS
330
C
102
}
330
C
100
AcDbDictionary
281
     1
  0
DICTIONARY
  5
1A
102
{ACAD_REACTORS
330
C
102
}
330
C
100
AcDbDictionary
281
     1
  3
Layout1
350
1E
  3
Model
350
22
  0
DICTIONARY
  5
351
102
{ACAD_REACTORS
330
C
102
}
330
C
100
AcDbDictionary
281
     1
  0
DICTIONARY
  5
17
102
{ACAD_REACTORS
330
C
102
}
330
C
100
AcDbDictionary
281
     1
  3
Standard
350
18
  0
DICTIONARY
  5
19
102
{ACAD_REACTORS
330
C
102
}
330
C
100
AcDbDictionary
281
     1
  0
ACDBDICTIONARYWDFLT
  5
E
102
{ACAD_REACTORS
330
C
102
}
330
C
100
AcDbDictionary
281
     1
  3
Normal
350
F
100
AcDbDictionaryWithDefault
340
F
  0
DICTIONARY
  5
3B
102
{ACAD_REACTORS
330
C
102
}
330
C
100
AcDbDictionary
281
     1
  3
A0
350
3C
  3
A1
350
3D
  3
A2
350
3E
  3
A3
350
3F
  3
A4
350
40
  3
A5
350
41
  3
A6
350
42
  3
A7
350
43
  3
A8
350
44
  3
A9
350
45
  3
B0
350
46
  3
B1
350
47
  3
B2
350
48
  3
B3
350
49
  3
B4
350
4A
  3
B5
350
4B
  3
B6
350
4C
  3
B7
350
4D
  3
B8
350
4E
  3
B9
350
4F
  3
C0
350
50
  3
C1
350
51
  3
C2
350
52
  3
C3
350
53
  3
C4
350
54
  3
C5
350
55
  3
C6
350
56
  3
C7
350
57
  3
C8
350
58
  3
C9
350
59
  3
D0
350
5A
  3
D1
350
5B
  3
D2
350
5C
  0
DICTIONARY
  5
350
102
{ACAD_REACTORS
330
C
102
}
330
C
100
AcDbDictionary
281
     1
  0
DICTIONARY
  5
2A
102
{ACAD_REACTORS
330
C
102
}
330
C
100
AcDbDictionary
281
     1
  3
2dWireframe
350
2F
  3
3D Hidden
350
31
  3
3dWireframe
350
30
  3
Basic
350
32
  3
Brighten
350
36
  3
ColorChange
350
3A
  3
Conceptual
350
34
  3
Dim
350
35
  3
Facepattern
350
39
  3
Flat
350
2B
  3
FlatWithEdges
350
2C
  3
Gouraud
350
2D
  3
GouraudWithEdges
350
2E
  3
Linepattern
350
38
  3
Realistic
350
33
  3
Thicken
350
37
  0
DICTIONARY
  5
34E
102
{ACAD_REACTORS
330
C
102
}
330
C
100
AcDbDictionary
281
     1
  3
CANNOSCALE
350
34F
  3
PSOLHEIGHT
350
353
  3
PSOLWIDTH
350
352
  0
LAYOUT
  5
1E
102
{ACAD_REACTORS
330
1A
102
}
330
1A
100
AcDbPlotSettings
  1

  2
none_device
  4

  6

 40
0.0
 41
0.0
 42
0.0
 43
0.0
 44
0.0
 45
0.0
 46
0.0
 47
0.0
 48
0.0
 49
0.0
140
0.0
141
0.0
142
1.0
143
1.0
 70
   688
 72
     0
 73
     0
 74
     5
  7

 75
    16
147
1.0
148
0.0
149
0.0
100
AcDbLayout
  1
Layout1
 70
     1
 71
     1
 10
0.0
 20
0.0
 11
1682.0
 21
2378.0
 12
0.0
 22
0.0
 32
0.0
 14
0.0
 24
0.0
 34
0.0
 15
1682.0
 25
2378.0
 35
0.0
146
0.0
 13
0.0
 23
0.0
 33
0.0
 16
1.0
 26
0.0
 36
0.0
 17
0.0
 27
1.0
 37
0.0
 76
     0
330
1B
  0
LAYOUT
  5
22
102
{ACAD_REACTORS
330
1A
102
}
330
1A
100
AcDbPlotSettings
  1

  2
none_device
  4

  6

 40
0.0
 41
0.0
 42
0.0
 43
0.0
 44
0.0
 45
0.0
 46
0.0
 47
0.0
 48
0.0
 49
0.0
140
0.0
141
0.0
142
1.0
143
1.0
 70
  1712
 72
     0
 73
     0
 74
     0
  7

 75
     0
147
1.0
148
0.0
149
0.0
100
AcDbLayout
  1
Model
 70
     1
 71
     0
 10
0.0
 20
0.0
 11
1682.0
 21
2378.0
 12
0.0
 22
0.0
 32
0.0
 14
0.0
 24
0.0
 34
0.0
 15
1682.0
 25
2378.0
 35
0.0
146
0.0
 13
0.0
 23
0.0
 33
0.0
 16
1.0
 26
0.0
 36
0.0
 17
0.0
 27
1.0
 37
0.0
 76
     0
330
1F
331
29
  0
MLINESTYLE
  5
18
102
{ACAD_REACTORS
330
17
102
}
330
17
100
AcDbMlineStyle
  2
Standard
 70
     0
  3

 62
   256
 51
90.0
 52
90.0
 71
     2
 49
0.5
 62
   256
  6
BYLAYER
 49
-0.5
 62
   256
  6
BYLAYER
  0
ACDBPLACEHOLDER
  5
F
102
{ACAD_REACTORS
330
E
102
}
330
E
  0
SCALE
  5
3C
102
{ACAD_REACTORS
330
3B
102
}
330
3B
100
AcDbScale
 70
     0
300
1:1
140
1.0
141
1.0
290
     1
  0
SCALE
  5
3D
102
{ACAD_REACTORS
330
3B
102
}
330
3B
100
AcDbScale
 70
     0
300
1:2
140
1.0
141
2.0
290
     0
  0
SCALE
  5
3E
102
{ACAD_REACTORS
330
3B
102
}
330
3B
100
AcDbScale
 70
     0
300
1:4
140
1.0
141
4.0
290
     0
  0
SCALE
  5
3F
102
{ACAD_REACTORS
330
3B
102
}
330
3B
100
AcDbScale
 70
     0
300
1:5
140
1.0
141
5.0
290
     0
  0
SCALE
  5
40
102
{ACAD_REACTORS
330
3B
102
}
330
3B
100
AcDbScale
 70
     0
300
1:8
140
1.0
141
8.0
290
     0
  0
SCALE
  5
41
102
{ACAD_REACTORS
330
3B
102
}
330
3B
100
AcDbScale
 70
     0
300
1:10
140
1.0
141
10.0
290
     0
  0
SCALE
  5
42
102
{ACAD_REACTORS
330
3B
102
}
330
3B
100
AcDbScale
 70
     0
300
1:16
140
1.0
141
16.0
290
     0
  0
SCALE
  5
43
102
{ACAD_REACTORS
330
3B
102
}
330
3B
100
AcDbScale
 70
     0
300
1:20
140
1.0
141
20.0
290
     0
  0
SCALE
  5
44
102
{ACAD_REACTORS
330
3B
102
}
330
3B
100
AcDbScale
 70
     0
300
1:30
140
1.0
141
30.0
290
     0
  0
SCALE
  5
45
102
{ACAD_REACTORS
330
3B
102
}
330
3B
100
AcDbScale
 70
     0
300
1:40
140
1.0
141
40.0
290
     0
  0
SCALE
  5
46
102
{ACAD_REACTORS
330
3B
102
}
330
3B
100
AcDbScale
 70
     0
300
1:50
140
1.0
141
50.0
290
     0
  0
SCALE
  5
47
102
{ACAD_REACTORS
330
3B
102
}
330
3B
100
AcDbScale
 70
     0
300
1:100
140
1.0
141
100.0
290
     0
  0
SCALE
  5
48
102
{ACAD_REACTORS
330
3B
102
}
330
3B
100
AcDbScale
 70
     0
300
2:1
140
2.0
141
1.0
290
     0
  0
SCALE
  5
49
102
{ACAD_REACTORS
330
3B
102
}
330
3B
100
AcDbScale
 70
     0
300
4:1
140
4.0
141
1.0
290
     0
  0
SCALE
  5
4A
102
{ACAD_REACTORS
330
3B
102
}
330
3B
100
AcDbScale
 70
     0
300
8:1
140
8.0
141
1.0
290
     0
  0
SCALE
  5
4B
102
{ACAD_REACTORS
330
3B
102
}
330
3B
100
AcDbScale
 70
     0
300
10:1
140
10.0
141
1.0
290
     0
  0
SCALE
  5
4C
102
{ACAD_REACTORS
330
3B
102
}
330
3B
100
AcDbScale
 70
     0
300
100:1
140
100.0
141
1.0
290
     0
  0
SCALE
  5
4D
102
{ACAD_REACTORS
330
3B
102
}
330
3B
100
AcDbScale
 70
     0
300
1/128" = 1'-0"
140
0.0078125
141
12.0
290
     0
  0
SCALE
  5
4E
102
{ACAD_REACTORS
330
3B
102
}
330
3B
100
AcDbScale
 70
     0
300
1/64" = 1'-0"
140
0.015625
141
12.0
290
     0
  0
SCALE
  5
4F
102
{ACAD_REACTORS
330
3B
102
}
330
3B
100
AcDbScale
 70
     0
300
1/32" = 1'-0"
140
0.03125
141
12.0
290
     0
  0
SCALE
  5
50
102
{ACAD_REACTORS
330
3B
102
}
330
3B
100
AcDbScale
 70
     0
300
1/16" = 1'-0"
140
0.0625
141
12.0
290
     0
  0
SCALE
  5
51
102
{ACAD_REACTORS
330
3B
102
}
330
3B
100
AcDbScale
 70
     0
300
3/32" = 1'-0"
140
0.09375
141
12.0
290
     0
  0
SCALE
  5
52
102
{ACAD_REACTORS
330
3B
102
}
330
3B
100
AcDbScale
 70
     0
300
1/8" = 1'-0"
140
0.125
141
12.0
290
     0
  0
SCALE
  5
53
102
{ACAD_REACTORS
330
3B
102
}
330
3B
100
AcDbScale
 70
     0
300
3/16" = 1'-0"
140
0.1875
141
12.0
290
     0
  0
SCALE
  5
54
102
{ACAD_REACTORS
330
3B
102
}
330
3B
100
AcDbScale
 70
     0
300
1/4" = 1'-0"
140
0.25
141
12.0
290
     0
  0
SCALE
  5
55
102
{ACAD_REACTORS
330
3B
102
}
330
3B
100
AcDbScale
 70
     0
300
3/8" = 1'-0"
140
0.375
141
12.0
290
     0
  0
SCALE
  5
56
102
{ACAD_REACTORS
330
3B
102
}
330
3B
100
AcDbScale
 70
     0
300
1/2" = 1'-0"
140
0.5
141
12.0
290
     0
  0
SCALE
  5
57
102
{ACAD_REACTORS
330
3B
102
}
330
3B
100
AcDbScale
 70
     0
300
3/4" = 1'-0"
140
0.75
141
12.0
290
     0
  0
SCALE
  5
58
102
{ACAD_REACTORS
330
3B
102
}
330
3B
100
AcDbScale
 70
     0
300
1" = 1'-0"
140
1.0
141
12.0
290
     0
  0
SCALE
  5
59
102
{ACAD_REACTORS
330
3B
102
}
330
3B
100
AcDbScale
 70
     0
300
1-1/2" = 1'-0"
140
1.5
141
12.0
290
     0
  0
SCALE
  5
5A
102
{ACAD_REACTORS
330
3B
102
}
330
3B
100
AcDbScale
 70
     0
300
3" = 1'-0"
140
3.0
141
12.0
290
     0
  0
SCALE
  5
5B
102
{ACAD_REACTORS
330
3B
102
}
330
3B
100
AcDbScale
 70
     0
300
6" = 1'-0"
140
6.0
141
12.0
290
     0
  0
SCALE
  5
5C
102
{ACAD_REACTORS
330
3B
102
}
330
3B
100
AcDbScale
 70
     0
300
1'-0" = 1'-0"
140
12.0
141
12.0
290
     0
  0
VISUALSTYLE
  5
2F
102
{ACAD_REACTORS
330
2A
102
}
330
2A
100
AcDbVisualStyle
  2
2dWireframe
 70
     4
 71
     0
 72
     2
 73
     0
 90
        0
 40
-0.6
 41
-30.0
 62
     5
 63
     7
 74
     1
 91
        4
 64
     7
 65
   257
 75
     1
175
     1
 42
1.0
 92
        0
 66
   257
 43
1.0
 76
     1
 77
     6
 78
     2
 67
     7
 79
     5
170
     0
171
     0
290
     0
174
     0
 93
        1
 44
0.0
173
     0
291
     0
 45
0.0
1001
ACAD
1000
AcDbSavedByObjectVersion
1070
     0
  0
VISUALSTYLE
  5
31
102
{ACAD_REACTORS
330
2A
102
}
330
2A
100
AcDbVisualStyle
  2
3D Hidden
 70
     6
 71
     1
 72
     2
 73
     2
 90
        0
 40
-0.6
 41
-30.0
 62
     5
 63
     7
 74
     2
 91
        2
 64
     7
 65
   257
 75
     2
175
     1
 42
40.0
 92
        0
 66
   257
 43
1.0
 76
     1
 77
     6
 78
     2
 67
     7
 79
     3
170
     0
171
     0
290
     0
174
     0
 93
        1
 44
0.0
173
     0
291
     0
 45
0.0
1001
ACAD
1000
AcDbSavedByObjectVersion
1070
     0
  0
VISUALSTYLE
  5
30
102
{ACAD_REACTORS
330
2A
102
}
330
2A
100
AcDbVisualStyle
  2
3dWireframe
 70
     5
 71
     0
 72
     2
 73
     0
 90
        0
 40
-0.6
 41
-30.0
 62
     5
 63
     7
 74
     1
 91
        4
 64
     7
 65
   257
 75
     1
175
     1
 42
1.0
 92
        0
 66
   257
 43
1.0
 76
     1
 77
     6
 78
     2
 67
     7
 79
     5
170
     0
171
     0
290
     0
174
     0
 93
        1
 44
0.0
173
     0
291
     0
 45
0.0
1001
ACAD
1000
AcDbSavedByObjectVersion
1070
     0
  0
VISUALSTYLE
  5
32
102
{ACAD_REACTORS
330
2A
102
}
330
2A
100
AcDbVisualStyle
  2
Basic
 70
     7
 71
     1
 72
     0
 73
     1
 90
        0
 40
-0.6
 41
-30.0
 62
     5
 63
     7
 74
     0
 91
        4
 64
     7
 65
   257
 75
     1
175
     1
 42
1.0
 92
        8
 66
     7
 43
1.0
 76
     1
 77
     6
 78
     2
 67
     7
 79
     5
170
     0
171
     0
290
     0
174
     0
 93
        1
 44
0.0
173
     0
291
     1
 45
0.0
1001
ACAD
1000
AcDbSavedByObjectVersion
1070
     0
  0
VISUALSTYLE
  5
36
102
{ACAD_REACTORS
330
2A
102
}
330
2A
100
AcDbVisualStyle
  2
Brighten
 70
    12
 71
     2
 72
     2
 73
     0
 90
        0
 40
-0.6
 41
-30.0
 62
     5
 63
     7
 74
     1
 91
        4
 64
     7
 65
   257
 75
     1
175
     1
 42
1.0
 92
        8
 66
     7
 43
1.0
 76
     1
 77
     6
 78
     2
 67
     7
 79
     5
170
     0
171
     0
290
     0
174
     0
 93
        1
 44
50.0
173
     0
291
     1
 45
0.0
1001
ACAD
1000
AcDbSavedByObjectVersion
1070
     0
  0
VISUALSTYLE
  5
3A
102
{ACAD_REACTORS
330
2A
102
}
330
2A
100
AcDbVisualStyle
  2
ColorChange
 70
    16
 71
     2
 72
     2
 73
     3
 90
        0
 40
-0.6
 41
-30.0
 62
     5
 63
     8
 74
     1
 91
        4
 64
     7
 65
   257
 75
     1
175
     1
 42
1.0
 92
        8
 66
     8
 43
1.0
 76
     1
 77
     6
 78
     2
 67
     7
 79
     5
170
     0
171
     0
290
     0
174
     0
 93
        1
 44
0.0
173
     0
291
     1
 45
0.0
1001
ACAD
1000
AcDbSavedByObjectVersion
1070
     0
  0
VISUALSTYLE
  5
34
102
{ACAD_REACTORS
330
2A
102
}
330
2A
100
AcDbVisualStyle
  2
Conceptual
 70
     9
 71
     3
 72
     2
 73
     0
 90
        0
 40
-0.6
 41
-30.0
 62
     5
 63
     7
 74
     2
 91
        2
 64
     7
 65
   257
 75
     1
175
     1
 42
40.0
 92
        8
 66
     7
 43
1.0
 76
     1
 77
     6
 78
     2
 67
     7
 79
     3
170
     0
171
     0
290
     0
174
     0
 93
        1
 44
0.0
173
     0
291
     0
 45
0.0
1001
ACAD
1000
AcDbSavedByObjectVersion
1070
     0
  0
VISUALSTYLE
  5
35
102
{ACAD_REACTORS
330
2A
102
}
330
2A
100
AcDbVisualStyle
  2
Dim
 70
    11
 71
     2
 72
     2
 73
     0
 90
        0
 40
-0.6
 41
-30.0
 62
     5
 63
     7
 74
     1
 91
        4
 64
     7
 65
   257
 75
     1
175
     1
 42
1.0
 92
        8
 66
     7
 43
1.0
 76
     1
 77
     6
 78
     2
 67
     7
 79
     5
170
     0
171
     0
290
     0
174
     0
 93
        1
 44
-50.0
173
     0
291
     1
 45
0.0
1001
ACAD
1000
AcDbSavedByObjectVersion
1070
     0
  0
VISUALSTYLE
  5
39
102
{ACAD_REACTORS
330
2A
102
}
330
2A
100
AcDbVisualStyle
  2
Facepattern
 70
    15
 71
     2
 72
     2
 73
     0
 90
        0
 40
-0.6
 41
-30.0
 62
     5
 63
     7
 74
     1
 91
        4
 64
     7
 65
   257
 75
     1
175
     1
 42
1.0
 92
        8
 66
     7
 43
1.0
 76
     1
 77
     6
 78
     2
 67
     7
 79
     5
170
     0
171
     0
290
     0
174
     0
 93
        1
 44
0.0
173
     0
291
     1
 45
0.0
1001
ACAD
1000
AcDbSavedByObjectVersion
1070
     0
  0
VISUALSTYLE
  5
2B
102
{ACAD_REACTORS
330
2A
102
}
330
2A
100
AcDbVisualStyle
  2
Flat
 70
     0
 71
     2
 72
     1
 73
     1
 90
        2
 40
-0.6
 41
30.0
 62
     5
 63
     7
 74
     0
 91
        4
 64
     7
 65
   257
 75
     1
175
     1
 42
1.0
 92
        8
 66
     7
 43
1.0
 76
     1
 77
     6
 78
     2
 67
     7
 79
     5
170
     0
171
     0
290
     0
174
     0
 93
       13
 44
0.0
173
     0
291
     1
 45
0.0
1001
ACAD
1000
AcDbSavedByObjectVersion
1070
     0
  0
VISUALSTYLE
  5
2C
102
{ACAD_REACTORS
330
2A
102
}
330
2A
100
AcDbVisualStyle
  2
FlatWithEdges
 70
     1
 71
     2
 72
     1
 73
     1
 90
        2
 40
-0.6
 41
30.0
 62
     5
 63
     7
 74
     1
 91
        4
 64
     7
 65
   257
 75
     1
175
     1
 42
1.0
 92
        0
 66
   257
 43
1.0
 76
     1
 77
     6
 78
     2
 67
     7
 79
     5
170
     0
171
     0
290
     0
174
     0
 93
       13
 44
0.0
173
     0
291
     1
 45
0.0
1001
ACAD
1000
AcDbSavedByObjectVersion
1070
     0
  0
VISUALSTYLE
  5
2D
102
{ACAD_REACTORS
330
2A
102
}
330
2A
100
AcDbVisualStyle
  2
Gouraud
 70
     2
 71
     2
 72
     2
 73
     1
 90
        2
 40
-0.6
 41
30.0
 62
     5
 63
     7
 74
     0
 91
        4
 64
     7
 65
   257
 75
     1
175
     1
 42
1.0
 92
        0
 66
     7
 43
1.0
 76
     1
 77
     6
 78
     2
 67
     7
 79
     5
170
     0
171
     0
290
     0
174
     0
 93
       13
 44
0.0
173
     0
291
     1
 45
0.0
1001
ACAD
1000
AcDbSavedByObjectVersion
1070
     0
  0
VISUALSTYLE
  5
2E
102
{ACAD_REACTORS
330
2A
102
}
330
2A
100
AcDbVisualStyle
  2
GouraudWithEdges
 70
     3
 71
     2
 72
     2
 73
     1
 90
        2
 40
-0.6
 41
30.0
 62
     5
 63
     7
 74
     1
 91
        4
 64
     7
 65
   257
 75
     1
175
     1
 42
1.0
 92
        0
 66
   257
 43
1.0
 76
     1
 77
     6
 78
     2
 67
     7
 79
     5
170
     0
171
     0
290
     0
174
     0
 93
       13
 44
0.0
173
     0
291
     1
 45
0.0
1001
ACAD
1000
AcDbSavedByObjectVersion
1070
     0
  0
VISUALSTYLE
  5
38
102
{ACAD_REACTORS
330
2A
102
}
330
2A
100
AcDbVisualStyle
  2
Linepattern
 70
    14
 71
     2
 72
     2
 73
     0
 90
        0
 40
-0.6
 41
-30.0
 62
     5
 63
     7
 74
     1
 91
        4
 64
     7
 65
   257
 75
     7
175
     7
 42
1.0
 92
        8
 66
     7
 43
1.0
 76
     1
 77
     6
 78
     2
 67
     7
 79
     5
170
     0
171
     0
290
     0
174
     0
 93
        1
 44
0.0
173
     0
291
     1
 45
0.0
1001
ACAD
1000
AcDbSavedByObjectVersion
1070
     0
  0
VISUALSTYLE
  5
33
102
{ACAD_REACTORS
330
2A
102
}
330
2A
100
AcDbVisualStyle
  2
Realistic
 70
     8
 71
     2
 72
     2
 73
     0
 90
        0
 40
-0.6
 41
-30.0
 62
     5
 63
     7
 74
     1
 91
        0
 64
     7
 65
   257
 75
     1
175
     1
 42
1.0
 92
        8
 66
     8
 43
1.0
 76
     1
 77
     6
 78
     2
 67
     7
 79
     5
170
     0
171
     0
290
     0
174
     0
 93
       13
 44
0.0
173
     0
291
     0
 45
0.0
1001
ACAD
1000
AcDbSavedByObjectVersion
1070
     0
  0
VISUALSTYLE
  5
37
102
{ACAD_REACTORS
330
2A
102
}
330
2A
100
AcDbVisualStyle
  2
Thicken
 70
    13
 71
     2
 72
     2
 73
     0
 90
        0
 40
-0.6
 41
-30.0
 62
     5
 63
     7
 74
     1
 91
        4
 64
     7
 65
   257
 75
     1
175
     1
 42
1.0
 92
       12
 66
     7
 43
1.0
 76
     1
 77
     6
 78
     2
 67
     7
 79
     5
170
     0
171
     0
290
     0
174
     0
 93
        1
 44
0.0
173
     0
291
     1
 45
0.0
1001
ACAD
1000
AcDbSavedByObjectVersion
1070
     0
  0
DICTIONARYVAR
  5
34F
102
{ACAD_REACTORS
330
34E
102
}
330
34E
100
DictionaryVariables
280
     0
  1
1:1
  0
DICTIONARYVAR
  5
353
102
{ACAD_REACTORS
330
34E
102
}
330
34E
100
DictionaryVariables
280
     0
  1
80.000000
  0
DICTIONARYVAR
  5
352
102
{ACAD_REACTORS
330
34E
102
}
330
34E
100
DictionaryVariables
280
     0
  1
5.000000
  0
ENDSEC
  0
EOF
