  0
SECTION
  2
HEADER
  9
$ACADVER
  1
AC1015
  9
$ACADMAINTVER
 70
     6
  9
$DWGCODEPAGE
  3
ANSI_1252
  9
$INSBASE
 10
0.0
 20
0.0
 30
0.0
  9
$EXTMIN
 10
0.0
 20
0.0
 30
0.0
  9
$EXTMAX
 10
1682.0
 20
2378.0
 30
0.0
  9
$LIMMIN
 10
0.0
 20
0.0
  9
$LIMMAX
 10
1682.0
 20
2378.0
  9
$ORTHOMODE
 70
     0
  9
$REGENMODE
 70
     1
  9
$FILLMODE
 70
     1
  9
$QTEXTMODE
 70
     0
  9
$MIRRTEXT
 70
     1
  9
$LTSCALE
 40
1.0
  9
$ATTMODE
 70
     1
  9
$TEXTSIZE
 40
2.5
  9
$TRACEWID
 40
1.0
  9
$TEXTSTYLE
  7
Standard
  9
$CLAYER
  8
0
  9
$CELTYPE
  6
ByLayer
  9
$CECOLOR
 62
   256
  9
$CELTSCALE
 40
1.0
  9
$DISPSILH
 70
     0
  9
$DIMSCALE
 40
1.0
  9
$DIMASZ
 40
2.5
  9
$DIMEXO
 40
0.625
  9
$DIMDLI
 40
3.75
  9
$DIMRND
 40
0.0
  9
$DIMDLE
 40
0.0
  9
$DIMEXE
 40
1.25
  9
$DIMTP
 40
0.0
  9
$DIMTM
 40
0.0
  9
$DIMTXT
 40
2.5
  9
$DIMCEN
 40
2.5
  9
$DIMTSZ
 40
0.0
  9
$DIMTOL
 70
     0
  9
$DIMLIM
 70
     0
  9
$DIMTIH
 70
     0
  9
$DIMTOH
 70
     0
  9
$DIMSE1
 70
     0
  9
$DIMSE2
 70
     0
  9
$DIMTAD
 70
     1
  9
$DIMZIN
 70
     8
  9
$DIMBLK
  1

  9
$DIMASO
 70
     1
  9
$DIMSHO
 70
     1
  9
$DIMPOST
  1

  9
$DIMAPOST
  1

  9
$DIMALT
 70
     0
  9
$DIMALTD
 70
     3
  9
$DIMALTF
 40
0.0393700787
  9
$DIMLFAC
 40
1.0
  9
$DIMTOFL
 70
     1
  9
$DIMTVP
 40
0.0
  9
$DIMTIX
 70
     0
  9
$DIMSOXD
 70
     0
  9
$DIMSAH
 70
     0
  9
$DIMBLK1
  1

  9
$DIMBLK2
  1

  9
$DIMSTYLE
  2
ISO-25
  9
$DIMCLRD
 70
     0
  9
$DIMCLRE
 70
     0
  9
$DIMCLRT
 70
     0
  9
$DIMTFAC
 40
1.0
  9
$DIMGAP
 40
0.625
  9
$DIMJUST
 70
     0
  9
$DIMSD1
 70
     0
  9
$DIMSD2
 70
     0
  9
$DIMTOLJ
 70
     0
  9
$DIMTZIN
 70
     8
  9
$DIMALTZ
 70
     0
  9
$DIMALTTZ
 70
     0
  9
$DIMUPT
 70
     0
  9
$DIMDEC
 70
     2
  9
$DIMTDEC
 70
     2
  9
$DIMALTU
 70
     2
  9
$DIMALTTD
 70
     3
  9
$DIMTXSTY
  7
Standard
  9
$DIMAUNIT
 70
     0
  9
$DIMADEC
 70
     0
  9
$DIMALTRND
 40
0.0
  9
$DIMAZIN
 70
     0
  9
$DIMDSEP
 70
    44
  9
$DIMATFIT
 70
     3
  9
$DIMFRAC
 70
     0
  9
$DIMLDRBLK
  1

  9
$DIMLUNIT
 70
     2
  9
$DIMLWD
 70
    -2
  9
$DIMLWE
 70
    -2
  9
$DIMTMOVE
 70
     0
  9
$LUNITS
 70
     2
  9
$LUPREC
 70
     4
  9
$SKETCHINC
 40
1.0
  9
$FILLETRAD
 40
10.0
  9
$AUNITS
 70
     0
  9
$AUPREC
 70
     0
  9
$MENU
  1
.
  9
$ELEVATION
 40
0.0
  9
$PELEVATION
 40
0.0
  9
$THICKNESS
 40
0.0
  9
$LIMCHECK
 70
     0
  9
$CHAMFERA
 40
10.0
  9
$CHAMFERB
 40
10.0
  9
$CHAMFERC
 40
20.0
  9
$CHAMFERD
 40
0.0
  9
$SKPOLY
 70
     0
  9
$TDCREATE
 40
2455684.643254954
  9
$TDUCREATE
 40
2455684.55992162
  9
$TDUPDATE
 40
2455684.643254965
  9
$TDUUPDATE
 40
2455684.559921632
  9
$TDINDWG
 40
0.0000000116
  9
$TDUSRTIMER
 40
0.0000000116
  9
$USRTIMER
 70
     1
  9
$ANGBASE
 50
0.0
  9
$ANGDIR
 70
     0
  9
$PDMODE
 70
     0
  9
$PDSIZE
 40
0.0
  9
$PLINEWID
 40
0.0
  9
$SPLFRAME
 70
     0
  9
$SPLINETYPE
 70
     6
  9
$SPLINESEGS
 70
     8
  9
$HANDSEED
  5
F1
  9
$SURFTAB1
 70
     6
  9
$SURFTAB2
 70
     6
  9
$SURFTYPE
 70
     6
  9
$SURFU
 70
     6
  9
$SURFV
 70
     6
  9
$UCSBASE
  2

  9
$UCSNAME
  2

  9
$UCSORG
 10
0.0
 20
0.0
 30
0.0
  9
$UCSXDIR
 10
1.0
 20
0.0
 30
0.0
  9
$UCSYDIR
 10
0.0
 20
1.0
 30
0.0
  9
$UCSORTHOREF
  2

  9
$UCSORTHOVIEW
 70
     0
  9
$UCSORGTOP
 10
0.0
 20
0.0
 30
0.0
  9
$UCSORGBOTTOM
 10
0.0
 20
0.0
 30
0.0
  9
$UCSORGLEFT
 10
0.0
 20
0.0
 30
0.0
  9
$UCSORGRIGHT
 10
0.0
 20
0.0
 30
0.0
  9
$UCSORGFRONT
 10
0.0
 20
0.0
 30
0.0
  9
$UCSORGBACK
 10
0.0
 20
0.0
 30
0.0
  9
$PUCSBASE
  2

  9
$PUCSNAME
  2

  9
$PUCSORG
 10
0.0
 20
0.0
 30
0.0
  9
$PUCSXDIR
 10
1.0
 20
0.0
 30
0.0
  9
$PUCSYDIR
 10
0.0
 20
1.0
 30
0.0
  9
$PUCSORTHOREF
  2

  9
$PUCSORTHOVIEW
 70
     0
  9
$PUCSORGTOP
 10
0.0
 20
0.0
 30
0.0
  9
$PUCSORGBOTTOM
 10
0.0
 20
0.0
 30
0.0
  9
$PUCSORGLEFT
 10
0.0
 20
0.0
 30
0.0
  9
$PUCSORGRIGHT
 10
0.0
 20
0.0
 30
0.0
  9
$PUCSORGFRONT
 10
0.0
 20
0.0
 30
0.0
  9
$PUCSORGBACK
 10
0.0
 20
0.0
 30
0.0
  9
$USERI1
 70
     0
  9
$USERI2
 70
     0
  9
$USERI3
 70
     0
  9
$USERI4
 70
     0
  9
$USERI5
 70
     0
  9
$USERR1
 40
0.0
  9
$USERR2
 40
0.0
  9
$USERR3
 40
0.0
  9
$USERR4
 40
0.0
  9
$USERR5
 40
0.0
  9
$WORLDVIEW
 70
     1
  9
$SHADEDGE
 70
     3
  9
$SHADEDIF
 70
    70
  9
$TILEMODE
 70
     1
  9
$MAXACTVP
 70
    64
  9
$PINSBASE
 10
0.0
 20
0.0
 30
0.0
  9
$PLIMCHECK
 70
     0
  9
$PEXTMIN
 10
0.0
 20
0.0
 30
0.0
  9
$PEXTMAX
 10
1682.0
 20
2378.0
 30
0.0
  9
$PLIMMIN
 10
0.0
 20
0.0
  9
$PLIMMAX
 10
1682.0
 20
2378.0
  9
$UNITMODE
 70
     0
  9
$VISRETAIN
 70
     1
  9
$PLINEGEN
 70
     0
  9
$PSLTSCALE
 70
     1
  9
$TREEDEPTH
 70
  3020
  9
$CMLSTYLE
  2
Standard
  9
$CMLJUST
 70
     0
  9
$CMLSCALE
 40
20.0
  9
$PROXYGRAPHICS
 70
     1
  9
$MEASUREMENT
 70
     1
  9
$CELWEIGHT
370
    -1
  9
$ENDCAPS
280
     0
  9
$JOINSTYLE
280
     0
  9
$LWDISPLAY
290
     0
  9
$INSUNITS
 70
     4
  9
$HYPERLINKBASE
  1

  9
$STYLESHEET
  1

  9
$XEDIT
290
     1
  9
$CEPSNTYPE
380
     0
  9
$PSTYLEMODE
290
     1
  9
$FINGERPRINTGUID
  2
{F4506ECE-005A-4155-B7A7-E19CFD218A55}
  9
$VERSIONGUID
  2
{FAEB1C32-E019-11D5-929B-00C0DF256EC4}
  9
$EXTNAMES
290
     1
  9
$PSVPSCALE
 40
0.0
  9
$OLESTARTUP
290
     0
  0
ENDSEC
  0
SECTION
  2
CLASSES
  0
CLASS
  1
ACDBDICTIONARYWDFLT
  2
AcDbDictionaryWithDefault
  3
ObjectDBX Classes
 90
        0
280
     0
281
     0
  0
CLASS
  1
VISUALSTYLE
  2
AcDbVisualStyle
  3
ObjectDBX Classes
 90
     4095
280
     0
281
     0
  0
CLASS
  1
SCALE
  2
AcDbScale
  3
ObjectDBX Classes
 90
     1153
280
     0
281
     0
  0
CLASS
  1
DICTIONARYVAR
  2
AcDbDictionaryVar
  3
ObjectDBX Classes
 90
        0
280
     0
281
     0
  0
CLASS
  1
ACDBPLACEHOLDER
  2
AcDbPlaceHolder
  3
ObjectDBX Classes
 90
        0
280
     0
281
     0
  0
CLASS
  1
LAYOUT
  2
AcDbLayout
  3
ObjectDBX Classes
 90
        0
280
     0
281
     0
  0
ENDSEC
  0
SECTION
  2
TABLES
  0
TABLE
  2
VPORT
  5
8
330
0
100
AcDbSymbolTable
 70
     1
  0
VPORT
  5
29
330
8
100
AcDbSymbolTableRecord
100
AcDbViewportTableRecord
  2
*Active
 70
     0
 10
0.0
 20
0.0
 11
1.0
 21
1.0
 12
344.1869158879
 22
148.5
 13
0.0
 23
0.0
 14
10.0
 24
10.0
 15
10.0
 25
10.0
 16
0.0
 26
0.0
 36
1.0
 17
0.0
 27
0.0
 37
0.0
 40
297.0
 41
1.9729729729
 42
50.0
 43
0.0
 44
0.0
 50
0.0
 51
0.0
 71
     0
 72
   100
 73
     1
 74
     3
 75
     0
 76
     0
 77
     0
 78
     0
281
     0
 65
     1
110
0.0
120
0.0
130
0.0
111
1.0
121
0.0
131
0.0
112
0.0
122
1.0
132
0.0
 79
     0
146
0.0
  0
ENDTAB
  0
TABLE
  2
LTYPE
  5
5
330
0
100
AcDbSymbolTable
 70
     2
  0
LTYPE
  5
14
330
5
100
AcDbSymbolTableRecord
100
AcDbLinetypeTableRecord
  2
ByBlock
 70
     0
  3

 72
    65
 73
     0
 40
0.0
  0
LTYPE
  5
15
330
5
100
AcDbSymbolTableRecord
100
AcDbLinetypeTableRecord
  2
ByLayer
 70
     0
  3

 72
    65
 73
     0
 40
0.0
  0
LTYPE
  5
16
330
5
100
AcDbSymbolTableRecord
100
AcDbLinetypeTableRecord
  2
Continuous
 70
     0
  3
Solid line
 72
    65
 73
     0
 40
0.0
  0
LTYPE
  5
60
330
5
100
AcDbSymbolTableRecord
100
AcDbLinetypeTableRecord
  2
CENTER2
 70
     0
  3
Center (.5x) ___ _ ___ _ ___ _ ___ _ ___ _ ___
 72
    65
 73
     4
 40
28.575
 49
19.05
 74
     4
 75
     0
340
0
 46
0.0
 50
0.0
 44
0.0
 45
0.0
 49
-3.175
 74
     4
 75
     0
340
0
 46
0.0
 50
0.0
 44
0.0
 45
0.0
 49
3.175
 74
     4
 75
     0
340
0
 46
0.0
 50
0.0
 44
0.0
 45
0.0
 49
-3.175
 74
     4
 75
     0
340
0
 46
0.0
 50
0.0
 44
0.0
 45
0.0
  0
ENDTAB
  0
TABLE
  2
LAYER
  5
2
330
0
100
AcDbSymbolTable
 70
     6
  0
LAYER
  5
10
330
2
100
AcDbSymbolTableRecord
100
AcDbLayerTableRecord
  2
0
 70
     0
 62
     7
  6
Continuous
370
    -3
390
F
  0
LAYER
  5
5D
330
2
100
AcDbSymbolTableRecord
100
AcDbLayerTableRecord
  2
Default
 70
     0
 62
     7
  6
Continuous
370
    -3
390
F
  0
LAYER
  5
77
330
2
100
AcDbSymbolTableRecord
100
AcDbLayerTableRecord
  2
$DDT_AUDIT_GENERATED_(77)
 70
     0
 62
     7
  6
Continuous
370
    -3
390
F
  0
LAYER
  5
7E
330
2
100
AcDbSymbolTableRecord
100
AcDbLayerTableRecord
  2
$DDT_AUDIT_GENERATED_(7E)
 70
     0
 62
     7
  6
Continuous
370
    -3
390
F
  0
LAYER
  5
81
330
2
100
AcDbSymbolTableRecord
100
AcDbLayerTableRecord
  2
$DDT_AUDIT_GENERATED_(81)
 70
     0
 62
     7
  6
Continuous
370
    -3
390
F
  0
LAYER
  5
90
330
2
100
AcDbSymbolTableRecord
100
AcDbLayerTableRecord
  2
$DDT_AUDIT_GENERATED_(90)
 70
     0
 62
     7
  6
Continuous
370
    -3
390
F
  0
ENDTAB
  0
TABLE
  2
STYLE
  5
3
330
0
100
AcDbSymbolTable
 70
     2
  0
STYLE
  5
11
330
3
100
AcDbSymbolTableRecord
100
AcDbTextStyleTableRecord
  2
Standard
 70
     0
 40
0.0
 41
1.0
 50
0.0
 71
     0
 42
2.5
  3
txt
  4

  0
STYLE
  5
E0
330
3
100
AcDbSymbolTableRecord
100
AcDbTextStyleTableRecord
  2
SEACAD_seiso_ttf
 70
     0
 40
0.0
 41
1.0
 50
0.0
 71
     0
 42
0.2
  3
seiso.ttf
  4

  0
ENDTAB
  0
TABLE
  2
VIEW
  5
6
330
0
100
AcDbSymbolTable
 70
     0
  0
ENDTAB
  0
TABLE
  2
UCS
  5
7
330
0
100
AcDbSymbolTable
 70
     0
  0
ENDTAB
  0
TABLE
  2
APPID
  5
9
330
0
100
AcDbSymbolTable
 70
     1
  0
APPID
  5
12
330
9
100
AcDbSymbolTableRecord
100
AcDbRegAppTableRecord
  2
ACAD
 70
     0
  0
ENDTAB
  0
TABLE
  2
DIMSTYLE
  5
A
330
0
100
AcDbSymbolTable
 70
     1
100
AcDbDimStyleTable
  0
DIMSTYLE
105
27
330
A
100
AcDbSymbolTableRecord
100
AcDbDimStyleTableRecord
  2
ISO-25
 70
     0
 41
2.5
 42
0.625
 43
3.75
 44
1.25
 73
     0
 74
     0
 77
     1
 78
     8
140
2.5
141
2.5
143
0.0393700787
147
0.625
171
     3
172
     1
271
     2
272
     2
274
     3
278
    44
283
     0
284
     8
340
11
  0
ENDTAB
  0
TABLE
  2
BLOCK_RECORD
  5
1
330
0
100
AcDbSymbolTable
 70
     8
  0
BLOCK_RECORD
  5
1F
330
1
100
AcDbSymbolTableRecord
100
AcDbBlockTableRecord
  2
*Model_Space
340
22
  0
BLOCK_RECORD
  5
1B
330
1
100
AcDbSymbolTableRecord
100
AcDbBlockTableRecord
  2
*Paper_Space
340
1E
  0
BLOCK_RECORD
  5
5E
330
1
100
AcDbSymbolTableRecord
100
AcDbBlockTableRecord
  2
SEANNOT_GROUP
340
0
102
{BLKREFS
331
5F
102
}
  0
BLOCK_RECORD
  5
65
330
1
100
AcDbSymbolTableRecord
100
AcDbBlockTableRecord
  2
SEANNOT_GROUP1
340
0
102
{BLKREFS
331
66
102
}
  0
BLOCK_RECORD
  5
6A
330
1
100
AcDbSymbolTableRecord
100
AcDbBlockTableRecord
  2
SEANNOT_GROUP2
340
0
102
{BLKREFS
331
6B
102
}
  0
BLOCK_RECORD
  5
6F
330
1
100
AcDbSymbolTableRecord
100
AcDbBlockTableRecord
  2
SEANNOT_GROUP3
340
0
102
{BLKREFS
331
70
102
}
  0
BLOCK_RECORD
  5
75
330
1
100
AcDbSymbolTableRecord
100
AcDbBlockTableRecord
  2
SE
340
0
102
{BLKREFS
331
76
102
}
  0
BLOCK_RECORD
  5
9D
330
1
100
AcDbSymbolTableRecord
100
AcDbBlockTableRecord
  2
SE1
340
0
102
{BLKREFS
331
9E
102
}
  0
BLOCK_RECORD
  5
BC
330
1
100
AcDbSymbolTableRecord
100
AcDbBlockTableRecord
  2
SE2
340
0
102
{BLKREFS
331
BD
102
}
  0
ENDTAB
  0
ENDSEC
  0
SECTION
  2
BLOCKS
  0
BLOCK
  5
20
330
1F
100
AcDbEntity
  8
0
100
AcDbBlockBegin
  2
*Model_Space
 70
     0
 10
0.0
 20
0.0
 30
0.0
  3
*Model_Space
  1

  0
ENDBLK
  5
21
330
1F
100
AcDbEntity
  8
0
100
AcDbBlockEnd
  0
BLOCK
  5
1C
330
1B
100
AcDbEntity
 67
     1
  8
0
100
AcDbBlockBegin
  2
*Paper_Space
 70
     0
 10
0.0
 20
0.0
 30
0.0
  3
*Paper_Space
  1

  0
ENDBLK
  5
1D
330
1B
100
AcDbEntity
 67
     1
  8
0
100
AcDbBlockEnd
  0
BLOCK
  5
63
330
5E
100
AcDbEntity
  8
0
100
AcDbBlockBegin
  2
SEANNOT_GROUP
 70
     0
 10
0.0
 20
0.0
 30
0.0
  3
SEANNOT_GROUP
  1

  0
LINE
  5
61
330
5E
100
AcDbEntity
  8
Default
  6
CENTER2
 62
     7
100
AcDbLine
 10
303.6510562958
 20
212.8769204977
 30
0.0
 11
263.6510571899
 21
212.8769204977
 31
0.0
  0
LINE
  5
62
330
5E
100
AcDbEntity
  8
Default
  6
CENTER2
 62
     7
100
AcDbLine
 10
283.6510567428
 20
232.8769200507
 30
0.0
 11
283.6510567428
 21
192.8769209448
 31
0.0
  0
ENDBLK
  5
64
330
5E
100
AcDbEntity
  8
0
100
AcDbBlockEnd
  0
BLOCK
  5
68
330
65
100
AcDbEntity
  8
0
100
AcDbBlockBegin
  2
SEANNOT_GROUP1
 70
     0
 10
0.0
 20
0.0
 30
0.0
  3
SEANNOT_GROUP1
  1

  0
LINE
  5
67
330
65
100
AcDbEntity
  8
Default
  6
CENTER2
 62
     7
100
AcDbLine
 10
107.9883721777
 20
212.8769204977
 30
0.0
 11
212.9783089722
 21
212.8769204977
 31
0.0
  0
ENDBLK
  5
69
330
65
100
AcDbEntity
  8
0
100
AcDbBlockEnd
  0
BLOCK
  5
6D
330
6A
100
AcDbEntity
  8
0
100
AcDbBlockBegin
  2
SEANNOT_GROUP2
 70
     0
 10
0.0
 20
0.0
 30
0.0
  3
SEANNOT_GROUP2
  1

  0
LINE
  5
6C
330
6A
100
AcDbEntity
  8
Default
  6
CENTER2
 62
     7
100
AcDbLine
 10
160.483340575
 20
160.3819521005
 30
0.0
 11
160.483340575
 21
265.3718888949
 31
0.0
  0
ENDBLK
  5
6E
330
6A
100
AcDbEntity
  8
0
100
AcDbBlockEnd
  0
BLOCK
  5
73
330
6F
100
AcDbEntity
  8
0
100
AcDbBlockBegin
  2
SEANNOT_GROUP3
 70
     0
 10
0.0
 20
0.0
 30
0.0
  3
SEANNOT_GROUP3
  1

  0
LINE
  5
71
330
6F
100
AcDbEntity
  8
Default
  6
CENTER2
 62
     7
100
AcDbLine
 10
180.4833401279
 20
125.4568706767
 30
0.0
 11
140.483341022
 21
125.4568706767
 31
0.0
  0
LINE
  5
72
330
6F
100
AcDbEntity
  8
Default
  6
CENTER2
 62
     7
100
AcDbLine
 10
160.483340575
 20
145.4568702296
 30
0.0
 11
160.483340575
 21
105.4568711237
 31
0.0
  0
ENDBLK
  5
74
330
6F
100
AcDbEntity
  8
0
100
AcDbBlockEnd
  0
BLOCK
  5
9B
330
75
100
AcDbEntity
  8
0
100
AcDbBlockBegin
  2
SE
 70
     0
 10
0.0
 20
0.0
 30
0.0
  3
SE
  1

  0
LINE
  5
78
330
75
100
AcDbEntity
  8
$DDT_AUDIT_GENERATED_(77)
  6
Continuous
 62
     7
100
AcDbLine
 10
296.5010567428
 20
192.3769204977
 30
0.0
 11
295.6510567428
 21
192.3769204977
 31
0.0
  0
LINE
  5
79
330
75
100
AcDbEntity
  8
$DDT_AUDIT_GENERATED_(77)
  6
Continuous
 62
     7
100
AcDbLine
 10
295.6510567428
 20
196.8123006624
 30
0.0
 11
296.5010567428
 21
196.8123006624
 31
0.0
  0
LINE
  5
7A
330
75
100
AcDbEntity
  8
$DDT_AUDIT_GENERATED_(77)
  6
Continuous
 62
     7
100
AcDbLine
 10
296.5010567428
 20
209.1961611267
 30
0.0
 11
295.6510567428
 21
209.1961611267
 31
0.0
  0
LINE
  5
7B
330
75
100
AcDbEntity
  8
$DDT_AUDIT_GENERATED_(77)
  6
Continuous
 62
     7
100
AcDbLine
 10
295.6510567428
 20
216.5576798687
 30
0.0
 11
296.5010567428
 21
216.5576798687
 31
0.0
  0
LINE
  5
7C
330
75
100
AcDbEntity
  8
$DDT_AUDIT_GENERATED_(77)
  6
Continuous
 62
     7
100
AcDbLine
 10
296.5010567428
 20
228.941540333
 30
0.0
 11
295.6510567428
 21
228.941540333
 31
0.0
  0
LINE
  5
7D
330
75
100
AcDbEntity
  8
$DDT_AUDIT_GENERATED_(77)
  6
Continuous
 62
     7
100
AcDbLine
 10
295.6510567428
 20
233.3769204977
 30
0.0
 11
296.5010567428
 21
233.3769204977
 31
0.0
  0
LINE
  5
7F
330
75
100
AcDbEntity
  8
$DDT_AUDIT_GENERATED_(7E)
  6
Continuous
 62
     7
100
AcDbLine
 10
313.2066571153
 20
188.0956087859
 30
0.0
 11
313.5010567428
 21
188.0956087859
 31
0.0
  0
LINE
  5
80
330
75
100
AcDbEntity
  8
$DDT_AUDIT_GENERATED_(7E)
  6
Continuous
 62
     7
100
AcDbLine
 10
313.5010567428
 20
188.0956087859
 30
0.0
 11
313.5010567428
 21
188.0994626882
 31
0.0
  0
LINE
  5
82
330
75
100
AcDbEntity
  8
$DDT_AUDIT_GENERATED_(81)
  6
Continuous
 62
     7
100
AcDbLine
 10
295.6316374185
 20
187.7798238762
 30
0.0
 11
290.8444396648
 21
163.8438351074
 31
0.0
  0
LINE
  5
83
330
75
100
AcDbEntity
  8
$DDT_AUDIT_GENERATED_(81)
  6
Continuous
 62
     7
100
AcDbLine
 10
295.6510567428
 20
237.7779009841
 30
0.0
 11
295.6510567428
 21
187.9759400113
 31
0.0
  0
ARC
  5
84
330
75
100
AcDbEntity
  8
$DDT_AUDIT_GENERATED_(81)
  6
Continuous
 62
     7
100
AcDbCircle
 10
294.6510567428
 20
237.7779009841
 30
0.0
 40
0.9999999999999991
100
AcDbArc
 50
0.0
 51
11.309932474
  0
ARC
  5
85
330
75
100
AcDbEntity
  8
$DDT_AUDIT_GENERATED_(81)
  6
Continuous
 62
     7
100
AcDbCircle
 10
294.6510567428
 20
187.9759400113
 30
0.0
 40
1.000000000000001
100
AcDbArc
 50
348.690067526
 51
0.0
  0
LINE
  5
86
330
75
100
AcDbEntity
  8
$DDT_AUDIT_GENERATED_(81)
  6
Continuous
 62
     7
100
AcDbLine
 10
290.8444396648
 20
261.910005888
 30
0.0
 11
295.6316374185
 21
237.9740171193
 31
0.0
  0
LINE
  5
87
330
75
100
AcDbEntity
  8
$DDT_AUDIT_GENERATED_(81)
  6
Continuous
 62
     7
100
AcDbLine
 10
289.8900359374
 20
163.0402939176
 30
0.0
 11
283.8562921325
 21
162.8822947755
 31
0.0
  0
ARC
  5
88
330
75
100
AcDbEntity
  8
$DDT_AUDIT_GENERATED_(81)
  6
Continuous
 62
     7
100
AcDbCircle
 10
289.8638589891
 20
164.0399512426
 30
0.0
 40
0.9999999999999972
100
AcDbArc
 50
271.5
 51
348.690067526
  0
ARC
  5
89
330
75
100
AcDbEntity
  8
$DDT_AUDIT_GENERATED_(81)
  6
Continuous
 62
     7
100
AcDbCircle
 10
289.8638589891
 20
261.7138897529
 30
0.0
 40
0.9999999999999972
100
AcDbArc
 50
11.309932474
 51
88.5
  0
LINE
  5
8A
330
75
100
AcDbEntity
  8
$DDT_AUDIT_GENERATED_(81)
  6
Continuous
 62
     7
100
AcDbLine
 10
283.6510567428
 20
261.8718888949
 30
0.0
 11
283.6510567428
 21
262.6716147549
 31
0.0
  0
LINE
  5
8B
330
75
100
AcDbEntity
  8
$DDT_AUDIT_GENERATED_(81)
  6
Continuous
 62
     7
100
AcDbLine
 10
283.6510567428
 20
163.8819521005
 30
0.0
 11
283.6510567428
 21
261.8718888949
 31
0.0
  0
LINE
  5
8C
330
75
100
AcDbEntity
  8
$DDT_AUDIT_GENERATED_(81)
  6
Continuous
 62
     7
100
AcDbLine
 10
283.6510567428
 20
163.0822262405
 30
0.0
 11
283.6510567428
 21
163.8819521005
 31
0.0
  0
LINE
  5
8D
330
75
100
AcDbEntity
  8
$DDT_AUDIT_GENERATED_(81)
  6
Continuous
 62
     7
100
AcDbLine
 10
283.8562921325
 20
262.8715462199
 30
0.0
 11
289.8900359374
 21
262.7135470779
 31
0.0
  0
ARC
  5
8E
330
75
100
AcDbEntity
  8
$DDT_AUDIT_GENERATED_(81)
  6
Continuous
 62
     7
100
AcDbCircle
 10
283.8510567428
 20
262.6716147549
 30
0.0
 40
0.1999999999999938
100
AcDbArc
 50
88.5
 51
180.0
  0
ARC
  5
8F
330
75
100
AcDbEntity
  8
$DDT_AUDIT_GENERATED_(81)
  6
Continuous
 62
     7
100
AcDbCircle
 10
283.8510567428
 20
163.0822262405
 30
0.0
 40
0.1999999999999939
100
AcDbArc
 50
180.0
 51
271.5
  0
LINE
  5
91
330
75
100
AcDbEntity
  8
$DDT_AUDIT_GENERATED_(90)
  6
Continuous
 62
     7
100
AcDbLine
 10
323.6510567428
 20
236.5345125662
 30
0.0
 11
323.6510567428
 21
189.2193284293
 31
0.0
  0
LINE
  5
92
330
75
100
AcDbEntity
  8
$DDT_AUDIT_GENERATED_(90)
  6
Continuous
 62
     7
100
AcDbLine
 10
322.6641463384
 20
188.2194141017
 30
0.0
 11
296.8049836215
 21
187.8808991185
 31
0.0
  0
ARC
  5
93
330
75
100
AcDbEntity
  8
$DDT_AUDIT_GENERATED_(90)
  6
Continuous
 62
     7
100
AcDbCircle
 10
322.6510567428
 20
236.5345125662
 30
0.0
 40
1.0
100
AcDbArc
 50
0.0
 51
89.25
  0
ARC
  5
94
330
75
100
AcDbEntity
  8
$DDT_AUDIT_GENERATED_(90)
  6
Continuous
 62
     7
100
AcDbCircle
 10
322.6510567428
 20
189.2193284293
 30
0.0
 40
1.000000000000001
100
AcDbArc
 50
270.75
 51
0.0
  0
LINE
  5
95
330
75
100
AcDbEntity
  8
$DDT_AUDIT_GENERATED_(90)
  6
Continuous
 62
     7
100
AcDbLine
 10
296.5010567428
 20
188.1808734168
 30
0.0
 11
296.5010567428
 21
188.8808134461
 31
0.0
  0
LINE
  5
96
330
75
100
AcDbEntity
  8
$DDT_AUDIT_GENERATED_(90)
  6
Continuous
 62
     7
100
AcDbLine
 10
296.5010567428
 20
188.8808134461
 30
0.0
 11
296.5010567428
 21
236.8730275494
 31
0.0
  0
LINE
  5
97
330
75
100
AcDbEntity
  8
$DDT_AUDIT_GENERATED_(90)
  6
Continuous
 62
     7
100
AcDbLine
 10
296.5010567428
 20
236.8730275494
 30
0.0
 11
296.5010567428
 21
237.5729675787
 31
0.0
  0
LINE
  5
98
330
75
100
AcDbEntity
  8
$DDT_AUDIT_GENERATED_(90)
  6
Continuous
 62
     7
100
AcDbLine
 10
296.8049836215
 20
237.8729418769
 30
0.0
 11
322.6641463384
 21
237.5344268938
 31
0.0
  0
ARC
  5
99
330
75
100
AcDbEntity
  8
$DDT_AUDIT_GENERATED_(90)
  6
Continuous
 62
     7
100
AcDbCircle
 10
296.8010567428
 20
188.1808734168
 30
0.0
 40
0.2999999999999999
100
AcDbArc
 50
180.0
 51
270.75
  0
ARC
  5
9A
330
75
100
AcDbEntity
  8
$DDT_AUDIT_GENERATED_(90)
  6
Continuous
 62
     7
100
AcDbCircle
 10
296.8010567428
 20
237.5729675787
 30
0.0
 40
0.2999999999999999
100
AcDbArc
 50
89.25
 51
180.0
  0
ENDBLK
  5
9C
330
75
100
AcDbEntity
  8
0
100
AcDbBlockEnd
  0
BLOCK
  5
BA
330
9D
100
AcDbEntity
  8
0
100
AcDbBlockBegin
  2
SE1
 70
     0
 10
0.0
 20
0.0
 30
0.0
  3
SE1
  1

  0
LINE
  5
9F
330
9D
100
AcDbEntity
  8
$DDT_AUDIT_GENERATED_(7E)
  6
Continuous
 62
     7
100
AcDbLine
 10
157.133340575
 20
188.0956087859
 30
0.0
 11
163.833340575
 21
188.0956087859
 31
0.0
  0
ELLIPSE
  5
A0
330
9D
100
AcDbEntity
  8
$DDT_AUDIT_GENERATED_(81)
  6
Continuous
 62
     7
100
AcDbEllipse
 10
209.4777605981
 20
163.8825004745
 30
0.0
 11
-0.7073976666839287
 21
0.7073976670045264
 31
0.0
210
0.0
220
0.0
230
1.0
 40
0.9995887947
 41
2.356537106757054
 42
3.926648200875753
  0
ELLIPSE
  5
A1
330
9D
100
AcDbEntity
  8
$DDT_AUDIT_GENERATED_(81)
  6
Continuous
 62
     7
100
AcDbEllipse
 10
111.4889205518
 20
163.8825004745
 30
0.0
 11
0.707397666682874
 21
0.707397667005588
 31
0.0
210
0.0
220
0.0
230
0.9999999999999998
 40
0.9995887947
 41
2.356537106302319
 42
3.926648200421071
  0
ELLIPSE
  5
A2
330
9D
100
AcDbEntity
  8
$DDT_AUDIT_GENERATED_(81)
  6
Continuous
 62
     7
100
AcDbEllipse
 10
209.4777605981
 20
261.8713405209
 30
0.0
 11
-0.707397666363907
 21
-0.7073976673240348
 31
0.0
210
0.0
220
0.0
230
1.0
 40
0.9995887947
 41
2.356537105852154
 42
3.926648199970183
  0
ELLIPSE
  5
A3
330
9D
100
AcDbEntity
  8
$DDT_AUDIT_GENERATED_(81)
  6
Continuous
 62
     7
100
AcDbEllipse
 10
111.4889205518
 20
261.8713405209
 30
0.0
 11
0.7073976669003806
 21
-0.7073976667879012
 31
0.0
210
0.0
220
0.0
230
1.0
 40
0.9995887947
 41
2.356537106451068
 42
3.926648200569565
  0
LINE
  5
A4
330
9D
100
AcDbEntity
  8
$DDT_AUDIT_GENERATED_(81)
  6
Continuous
 62
     7
100
AcDbLine
 10
111.4883721777
 20
262.8716147549
 30
0.0
 11
111.4883721777
 21
262.8715462199
 31
0.0
  0
LINE
  5
A5
330
9D
100
AcDbEntity
  8
$DDT_AUDIT_GENERATED_(81)
  6
Continuous
 62
     7
100
AcDbLine
 10
209.4783089722
 20
262.8715462199
 30
0.0
 11
209.4783089722
 21
262.8716147549
 31
0.0
  0
LINE
  5
A6
330
9D
100
AcDbEntity
  8
$DDT_AUDIT_GENERATED_(81)
  6
Continuous
 62
     7
100
AcDbLine
 10
110.4886463178
 20
261.8718888949
 30
0.0
 11
110.4887148528
 21
261.8718888949
 31
0.0
  0
LINE
  5
A7
330
9D
100
AcDbEntity
  8
$DDT_AUDIT_GENERATED_(81)
  6
Continuous
 62
     7
100
AcDbLine
 10
210.4779662971
 20
261.8718888949
 30
0.0
 11
210.4780348321
 21
261.8718888949
 31
0.0
  0
LINE
  5
A8
330
9D
100
AcDbEntity
  8
$DDT_AUDIT_GENERATED_(81)
  6
Continuous
 62
     7
100
AcDbLine
 10
110.4886463178
 20
163.8819521005
 30
0.0
 11
110.4887148528
 21
163.8819521005
 31
0.0
  0
LINE
  5
A9
330
9D
100
AcDbEntity
  8
$DDT_AUDIT_GENERATED_(81)
  6
Continuous
 62
     7
100
AcDbLine
 10
210.4779662971
 20
163.8819521005
 30
0.0
 11
210.4780348321
 21
163.8819521005
 31
0.0
  0
LINE
  5
AA
330
9D
100
AcDbEntity
  8
$DDT_AUDIT_GENERATED_(81)
  6
Continuous
 62
     7
100
AcDbLine
 10
111.4883721777
 20
162.8822262405
 30
0.0
 11
111.4883721777
 21
162.8822947755
 31
0.0
  0
LINE
  5
AB
330
9D
100
AcDbEntity
  8
$DDT_AUDIT_GENERATED_(81)
  6
Continuous
 62
     7
100
AcDbLine
 10
209.4783089722
 20
162.8822947755
 30
0.0
 11
209.4783089722
 21
162.8822262405
 31
0.0
  0
LINE
  5
AC
330
9D
100
AcDbEntity
  8
$DDT_AUDIT_GENERATED_(81)
  6
Continuous
 62
     7
100
AcDbLine
 10
209.4783089722
 20
262.8716147549
 30
0.0
 11
111.4883721777
 21
262.8716147549
 31
0.0
  0
LINE
  5
AD
330
9D
100
AcDbEntity
  8
$DDT_AUDIT_GENERATED_(81)
  6
Continuous
 62
     7
100
AcDbLine
 10
110.4886463178
 20
261.8718888949
 30
0.0
 11
110.4886463178
 21
163.8819521005
 31
0.0
  0
LINE
  5
AE
330
9D
100
AcDbEntity
  8
$DDT_AUDIT_GENERATED_(81)
  6
Continuous
 62
     7
100
AcDbLine
 10
210.4780348321
 20
163.8819521005
 30
0.0
 11
210.4780348321
 21
261.8718888949
 31
0.0
  0
LINE
  5
AF
330
9D
100
AcDbEntity
  8
$DDT_AUDIT_GENERATED_(81)
  6
Continuous
 62
     7
100
AcDbLine
 10
111.4883721777
 20
162.8822262405
 30
0.0
 11
209.4783089722
 21
162.8822262405
 31
0.0
  0
ELLIPSE
  5
B0
330
9D
100
AcDbEntity
  8
$DDT_AUDIT_GENERATED_(90)
  6
Continuous
 62
     7
100
AcDbEllipse
 10
160.483340575
 20
188.0556087859
 30
0.0
 11
-3.249999999999999
 21
0.0
 31
0.0
210
0.0
220
0.0
230
1.0
 40
0.0130907171
 41
5.060013143986467
 42
6.283185307179586
  0
ELLIPSE
  5
B1
330
9D
100
AcDbEntity
  8
$DDT_AUDIT_GENERATED_(90)
  6
Continuous
 62
     7
100
AcDbEllipse
 10
160.483340575
 20
188.0556087859
 30
0.0
 11
-3.249999999999999
 21
0.0
 31
0.0
210
0.0
220
0.0
230
1.0
 40
0.0130907171
 41
0.0
 42
4.364764816782904
  0
LINE
  5
B2
330
9D
100
AcDbEntity
  8
$DDT_AUDIT_GENERATED_(90)
  6
Continuous
 62
     7
100
AcDbLine
 10
184.4794476266
 20
237.8729418769
 30
0.0
 11
136.4872335233
 21
237.8729418769
 31
0.0
  0
ARC
  5
B3
330
9D
100
AcDbEntity
  8
$DDT_AUDIT_GENERATED_(90)
  6
Continuous
 62
     7
100
AcDbCircle
 10
184.4793962333
 20
236.872976156
 30
0.0
 40
0.9999657222224462
100
AcDbArc
 50
0.0029447217
 51
89.9970552783
  0
ARC
  5
B4
330
9D
100
AcDbEntity
  8
$DDT_AUDIT_GENERATED_(90)
  6
Continuous
 62
     7
100
AcDbCircle
 10
136.4872849166
 20
236.872976156
 30
0.0
 40
0.9999657222224462
100
AcDbArc
 50
90.0029447217
 51
179.9970552783
  0
LINE
  5
B5
330
9D
100
AcDbEntity
  8
$DDT_AUDIT_GENERATED_(90)
  6
Continuous
 62
     7
100
AcDbLine
 10
185.4793619542
 20
188.8808134461
 30
0.0
 11
185.4793619542
 21
236.8730275494
 31
0.0
  0
LINE
  5
B6
330
9D
100
AcDbEntity
  8
$DDT_AUDIT_GENERATED_(90)
  6
Continuous
 62
     7
100
AcDbLine
 10
135.4873191957
 20
236.8730275494
 30
0.0
 11
135.4873191957
 21
188.8808134461
 31
0.0
  0
ARC
  5
B7
330
9D
100
AcDbEntity
  8
$DDT_AUDIT_GENERATED_(90)
  6
Continuous
 62
     7
100
AcDbCircle
 10
184.4793962333
 20
188.8808648394
 30
0.0
 40
0.9999657222224462
100
AcDbArc
 50
270.0029447217
 51
359.9970552783
  0
ARC
  5
B8
330
9D
100
AcDbEntity
  8
$DDT_AUDIT_GENERATED_(90)
  6
Continuous
 62
     7
100
AcDbCircle
 10
136.4872849166
 20
188.8808648394
 30
0.0
 40
0.9999657222224462
100
AcDbArc
 50
180.0029447217
 51
269.9970552783
  0
LINE
  5
B9
330
9D
100
AcDbEntity
  8
$DDT_AUDIT_GENERATED_(90)
  6
Continuous
 62
     7
100
AcDbLine
 10
136.4872335233
 20
187.8808991185
 30
0.0
 11
184.4794476266
 21
187.8808991185
 31
0.0
  0
ENDBLK
  5
BB
330
9D
100
AcDbEntity
  8
0
100
AcDbBlockEnd
  0
BLOCK
  5
DE
330
BC
100
AcDbEntity
  8
0
100
AcDbBlockBegin
  2
SE2
 70
     0
 10
0.0
 20
0.0
 30
0.0
  3
SE2
  1

  0
LINE
  5
BE
330
BC
100
AcDbEntity
  8
$DDT_AUDIT_GENERATED_(77)
  6
Continuous
 62
     7
100
AcDbLine
 10
174.0084279886
 20
113.4568706767
 30
0.0
 11
174.0084279886
 21
112.6068706767
 31
0.0
  0
LINE
  5
BF
330
BC
100
AcDbEntity
  8
$DDT_AUDIT_GENERATED_(77)
  6
Continuous
 62
     7
100
AcDbLine
 10
181.1582531613
 20
112.6068706767
 30
0.0
 11
181.1582531613
 21
113.4568706767
 31
0.0
  0
LINE
  5
C0
330
BC
100
AcDbEntity
  8
$DDT_AUDIT_GENERATED_(77)
  6
Continuous
 62
     7
100
AcDbLine
 10
139.8084279886
 20
113.4568706767
 30
0.0
 11
139.8084279886
 21
112.6068706767
 31
0.0
  0
LINE
  5
C1
330
BC
100
AcDbEntity
  8
$DDT_AUDIT_GENERATED_(77)
  6
Continuous
 62
     7
100
AcDbLine
 10
146.9582531613
 20
112.6068706767
 30
0.0
 11
146.9582531613
 21
113.4568706767
 31
0.0
  0
LINE
  5
C2
330
BC
100
AcDbEntity
  8
$DDT_AUDIT_GENERATED_(77)
  6
Continuous
 62
     7
100
AcDbLine
 10
165.0385573645
 20
112.6068706767
 30
0.0
 11
165.0385573645
 21
113.4568706767
 31
0.0
  0
LINE
  5
C3
330
BC
100
AcDbEntity
  8
$DDT_AUDIT_GENERATED_(77)
  6
Continuous
 62
     7
100
AcDbLine
 10
155.9281237854
 20
113.4568706767
 30
0.0
 11
155.9281237854
 21
112.6068706767
 31
0.0
  0
LINE
  5
C4
330
BC
100
AcDbEntity
  8
$DDT_AUDIT_GENERATED_(77)
  6
Continuous
 62
     7
100
AcDbLine
 10
139.483340575
 20
113.4568706767
 30
0.0
 11
139.483340575
 21
112.6068706767
 31
0.0
  0
LINE
  5
C5
330
BC
100
AcDbEntity
  8
$DDT_AUDIT_GENERATED_(77)
  6
Continuous
 62
     7
100
AcDbLine
 10
181.483340575
 20
112.6068706767
 30
0.0
 11
181.483340575
 21
113.4568706767
 31
0.0
  0
LINE
  5
C6
330
BC
100
AcDbEntity
  8
$DDT_AUDIT_GENERATED_(81)
  6
Continuous
 62
     7
100
AcDbLine
 10
135.3862439534
 20
113.476290001
 30
0.0
 11
111.4502551846
 21
118.2634877547
 31
0.0
  0
LINE
  5
C7
330
BC
100
AcDbEntity
  8
$DDT_AUDIT_GENERATED_(81)
  6
Continuous
 62
     7
100
AcDbLine
 10
185.3843210614
 20
113.4568706767
 30
0.0
 11
135.5823600885
 21
113.4568706767
 31
0.0
  0
ARC
  5
C8
330
BC
100
AcDbEntity
  8
$DDT_AUDIT_GENERATED_(81)
  6
Continuous
 62
     7
100
AcDbCircle
 10
185.3843210614
 20
114.4568706767
 30
0.0
 40
0.9999999999999991
100
AcDbArc
 50
270.0
 51
281.309932474
  0
ARC
  5
C9
330
BC
100
AcDbEntity
  8
$DDT_AUDIT_GENERATED_(81)
  6
Continuous
 62
     7
100
AcDbCircle
 10
135.5823600885
 20
114.4568706767
 30
0.0
 40
0.9999999999999991
100
AcDbArc
 50
258.690067526
 51
270.0
  0
LINE
  5
CA
330
BC
100
AcDbEntity
  8
$DDT_AUDIT_GENERATED_(81)
  6
Continuous
 62
     7
100
AcDbLine
 10
209.5164259653
 20
118.2634877547
 30
0.0
 11
185.5804371965
 21
113.476290001
 31
0.0
  0
LINE
  5
CB
330
BC
100
AcDbEntity
  8
$DDT_AUDIT_GENERATED_(81)
  6
Continuous
 62
     7
100
AcDbLine
 10
110.6467139948
 20
119.2178914821
 30
0.0
 11
110.4887148528
 21
125.251635287
 31
0.0
  0
ARC
  5
CC
330
BC
100
AcDbEntity
  8
$DDT_AUDIT_GENERATED_(81)
  6
Continuous
 62
     7
100
AcDbCircle
 10
111.6463713198
 20
119.2440684304
 30
0.0
 40
0.9999999999999972
100
AcDbArc
 50
181.5
 51
258.690067526
  0
ARC
  5
CD
330
BC
100
AcDbEntity
  8
$DDT_AUDIT_GENERATED_(81)
  6
Continuous
 62
     7
100
AcDbCircle
 10
209.3203098301
 20
119.2440684304
 30
0.0
 40
1.000000000000002
100
AcDbArc
 50
281.309932474
 51
358.5
  0
LINE
  5
CE
330
BC
100
AcDbEntity
  8
$DDT_AUDIT_GENERATED_(81)
  6
Continuous
 62
     7
100
AcDbLine
 10
111.4883721777
 20
125.4568706767
 30
0.0
 11
209.4783089722
 21
125.4568706767
 31
0.0
  0
LINE
  5
CF
330
BC
100
AcDbEntity
  8
$DDT_AUDIT_GENERATED_(81)
  6
Continuous
 62
     7
100
AcDbLine
 10
110.6886463178
 20
125.4568706767
 30
0.0
 11
111.4883721777
 21
125.4568706767
 31
0.0
  0
LINE
  5
D0
330
BC
100
AcDbEntity
  8
$DDT_AUDIT_GENERATED_(81)
  6
Continuous
 62
     7
100
AcDbLine
 10
209.4783089722
 20
125.4568706767
 30
0.0
 11
210.2780348321
 21
125.4568706767
 31
0.0
  0
LINE
  5
D1
330
BC
100
AcDbEntity
  8
$DDT_AUDIT_GENERATED_(81)
  6
Continuous
 62
     7
100
AcDbLine
 10
210.4779662971
 20
125.251635287
 30
0.0
 11
210.3199671551
 21
119.2178914821
 31
0.0
  0
ARC
  5
D2
330
BC
100
AcDbEntity
  8
$DDT_AUDIT_GENERATED_(81)
  6
Continuous
 62
     7
100
AcDbCircle
 10
110.6886463178
 20
125.2568706767
 30
0.0
 40
0.1999999999999939
100
AcDbArc
 50
90.0
 51
181.5
  0
ARC
  5
D3
330
BC
100
AcDbEntity
  8
$DDT_AUDIT_GENERATED_(81)
  6
Continuous
 62
     7
100
AcDbCircle
 10
210.2780348321
 20
125.2568706767
 30
0.0
 40
0.2000000000000001
100
AcDbArc
 50
358.5
 51
90.0
  0
LINE
  5
D4
330
BC
100
AcDbEntity
  8
$DDT_AUDIT_GENERATED_(90)
  6
Continuous
 62
     7
100
AcDbLine
 10
184.1409326434
 20
85.4568706767
 30
0.0
 11
136.8257485065
 21
85.4568706767
 31
0.0
  0
LINE
  5
D5
330
BC
100
AcDbEntity
  8
$DDT_AUDIT_GENERATED_(90)
  6
Continuous
 62
     7
100
AcDbLine
 10
135.8258341789
 20
86.4437810811
 30
0.0
 11
135.4873191957
 21
112.302943798
 31
0.0
  0
ARC
  5
D6
330
BC
100
AcDbEntity
  8
$DDT_AUDIT_GENERATED_(90)
  6
Continuous
 62
     7
100
AcDbCircle
 10
136.8257485065
 20
86.4568706767
 30
0.0
 40
0.9999999999999966
100
AcDbArc
 50
180.75
 51
270.0
  0
ARC
  5
D7
330
BC
100
AcDbEntity
  8
$DDT_AUDIT_GENERATED_(90)
  6
Continuous
 62
     7
100
AcDbCircle
 10
184.1409326434
 20
86.4568706767
 30
0.0
 40
1.0
100
AcDbArc
 50
270.0
 51
359.25
  0
LINE
  5
D8
330
BC
100
AcDbEntity
  8
$DDT_AUDIT_GENERATED_(90)
  6
Continuous
 62
     7
100
AcDbLine
 10
135.787293494
 20
112.6068706767
 30
0.0
 11
136.4872335233
 21
112.6068706767
 31
0.0
  0
LINE
  5
D9
330
BC
100
AcDbEntity
  8
$DDT_AUDIT_GENERATED_(90)
  6
Continuous
 62
     7
100
AcDbLine
 10
184.4794476266
 20
112.6068706767
 30
0.0
 11
185.1793876559
 21
112.6068706767
 31
0.0
  0
LINE
  5
DA
330
BC
100
AcDbEntity
  8
$DDT_AUDIT_GENERATED_(90)
  6
Continuous
 62
     7
100
AcDbLine
 10
136.4872335233
 20
112.6068706767
 30
0.0
 11
184.4794476266
 21
112.6068706767
 31
0.0
  0
LINE
  5
DB
330
BC
100
AcDbEntity
  8
$DDT_AUDIT_GENERATED_(90)
  6
Continuous
 62
     7
100
AcDbLine
 10
185.4793619542
 20
112.302943798
 30
0.0
 11
185.140846971
 21
86.4437810811
 31
0.0
  0
ARC
  5
DC
330
BC
100
AcDbEntity
  8
$DDT_AUDIT_GENERATED_(90)
  6
Continuous
 62
     7
100
AcDbCircle
 10
135.787293494
 20
112.3068706767
 30
0.0
 40
0.2999999999999999
100
AcDbArc
 50
90.0
 51
180.75
  0
ARC
  5
DD
330
BC
100
AcDbEntity
  8
$DDT_AUDIT_GENERATED_(90)
  6
Continuous
 62
     7
100
AcDbCircle
 10
185.1793876559
 20
112.3068706767
 30
0.0
 40
0.3000000000000014
100
AcDbArc
 50
359.25
 51
90.0
  0
ENDBLK
  5
DF
330
BC
100
AcDbEntity
  8
0
100
AcDbBlockEnd
  0
ENDSEC
  0
SECTION
  2
ENTITIES
  0
INSERT
  5
5F
330
1F
100
AcDbEntity
  8
Default
100
AcDbBlockReference
  2
SEANNOT_GROUP
 10
0.0
 20
0.0
 30
0.0
  0
INSERT
  5
66
330
1F
100
AcDbEntity
  8
Default
100
AcDbBlockReference
  2
SEANNOT_GROUP1
 10
0.0
 20
0.0
 30
0.0
  0
INSERT
  5
6B
330
1F
100
AcDbEntity
  8
Default
100
AcDbBlockReference
  2
SEANNOT_GROUP2
 10
0.0
 20
0.0
 30
0.0
  0
INSERT
  5
70
330
1F
100
AcDbEntity
  8
Default
100
AcDbBlockReference
  2
SEANNOT_GROUP3
 10
0.0
 20
0.0
 30
0.0
  0
INSERT
  5
76
330
1F
100
AcDbEntity
  8
Default
100
AcDbBlockReference
  2
SE
 10
0.0
 20
0.0
 30
0.0
  0
INSERT
  5
9E
330
1F
100
AcDbEntity
  8
Default
100
AcDbBlockReference
  2
SE1
 10
0.0
 20
0.0
 30
0.0
  0
INSERT
  5
BD
330
1F
100
AcDbEntity
  8
Default
100
AcDbBlockReference
  2
SE2
 10
0.0
 20
0.0
 30
0.0
  0
TEXT
  5
E1
330
1F
100
AcDbEntity
  8
Default
  6
Continuous
 62
     7
100
AcDbText
 10
5.9362635081
 20
53.4225120485
 30
0.0
 40
10.0
  1
Grohe AG^J
  7
SEACAD_seiso_ttf
 11
5.9362635081
 21
63.4225120485
 31
0.0
100
AcDbText
 73
     3
  0
TEXT
  5
E2
330
1F
100
AcDbEntity
  8
Default
  6
Continuous
 62
     7
100
AcDbText
 10
5.9362635081
 20
37.0588756849
 30
0.0
 40
10.0
  1
 
  7
SEACAD_seiso_ttf
 11
5.9362635081
 21
47.0588756849
 31
0.0
100
AcDbText
 73
     3
  0
TEXT
  5
E3
330
1F
100
AcDbEntity
  8
Default
  6
Continuous
 62
     7
100
AcDbText
 10
5.9362635081
 20
20.6952393213
 30
0.0
 40
10.0
  1
ecn: 
  7
SEACAD_seiso_ttf
 11
5.9362635081
 21
30.6952393213
 31
0.0
100
AcDbText
 73
     3
  0
TEXT
  5
E4
330
1F
100
AcDbEntity
  8
Default
  6
Continuous
 62
     7
100
AcDbText
 10
5.9362635081
 20
4.3316029576
 30
0.0
 40
10.0
  1
unit: mm
  7
SEACAD_seiso_ttf
 11
5.9362635081
 21
14.3316029576
 31
0.0
100
AcDbText
 73
     3
  0
LINE
  5
E5
330
1F
100
AcDbEntity
  8
Default
  6
Continuous
 62
     7
100
AcDbLine
 10
0.0
 20
0.0
 30
0.0
 11
100.0
 21
0.0
 31
0.0
  0
LINE
  5
E6
330
1F
100
AcDbEntity
  8
Default
  6
Continuous
 62
     7
100
AcDbLine
 10
0.0
 20
0.0
 30
0.0
 11
0.0
 21
100.0
 31
0.0
  0
TEXT
  5
E7
330
1F
100
AcDbEntity
  8
Default
  6
Continuous
 62
     7
100
AcDbText
 10
24.3923665681
 20
-18.2375342018
 30
0.0
 40
10.0
  1
100 mm
  7
SEACAD_seiso_ttf
 11
24.3923665681
 21
-8.2375342018
 31
0.0
100
AcDbText
 73
     3
  0
TEXT
  5
E8
330
1F
100
AcDbEntity
  8
Default
  6
Continuous
 62
     7
100
AcDbText
 10
-7.6150308803
 20
24.6231930421
 30
0.0
 40
10.0
  1
100 mm
 50
90.0
  7
SEACAD_seiso_ttf
 11
-17.6150308803
 21
24.6231930421
 31
0.0
100
AcDbText
 73
     3
  0
TEXT
  5
E9
330
1F
100
AcDbEntity
  8
Default
  6
Continuous
 62
     7
100
AcDbText
 10
28.4878128572
 20
20.0907663715
 30
0.0
 40
10.0
  1
220787
  7
SEACAD_seiso_ttf
 11
28.4878128572
 21
30.0907663715
 31
0.0
100
AcDbText
 73
     3
  0
TEXT
  5
EA
330
1F
100
AcDbEntity
  8
Default
  6
Continuous
 62
     7
100
AcDbText
 10
5.9012241913
 20
36.7242780188
 30
0.0
 40
10.0
  1
19798000
  7
SEACAD_seiso_ttf
 11
5.9012241913
 21
46.7242780188
 31
0.0
100
AcDbText
 73
     3
  0
ENDSEC
  0
SECTION
  2
OBJECTS
  0
DICTIONARY
  5
C
330
0
100
AcDbDictionary
281
     1
  3
ACAD_GROUP
350
D
  3
ACAD_LAYOUT
350
1A
  3
ACAD_MLEADERSTYLE
350
EE
  3
ACAD_MLINESTYLE
350
17
  3
ACAD_PLOTSETTINGS
350
19
  3
ACAD_PLOTSTYLENAME
350
E
  3
ACAD_SCALELIST
350
3B
  3
ACAD_TABLESTYLE
350
ED
  3
ACAD_VISUALSTYLE
350
2A
  3
AcDbVariableDictionary
350
EB
  0
DICTIONARY
  5
D
102
{ACAD_REACTORS
330
C
102
}
330
C
100
AcDbDictionary
281
     1
  0
DICTIONARY
  5
1A
102
{ACAD_REACTORS
330
C
102
}
330
C
100
AcDbDictionary
281
     1
  3
Layout1
350
1E
  3
Model
350
22
  0
DICTIONARY
  5
EE
102
{ACAD_REACTORS
330
C
102
}
330
C
100
AcDbDictionary
281
     1
  0
DICTIONARY
  5
17
102
{ACAD_REACTORS
330
C
102
}
330
C
100
AcDbDictionary
281
     1
  3
Standard
350
18
  0
DICTIONARY
  5
19
102
{ACAD_REACTORS
330
C
102
}
330
C
100
AcDbDictionary
281
     1
  0
ACDBDICTIONARYWDFLT
  5
E
102
{ACAD_REACTORS
330
C
102
}
330
C
100
AcDbDictionary
281
     1
  3
Normal
350
F
100
AcDbDictionaryWithDefault
340
F
  0
DICTIONARY
  5
3B
102
{ACAD_REACTORS
330
C
102
}
330
C
100
AcDbDictionary
281
     1
  3
A0
350
3C
  3
A1
350
3D
  3
A2
350
3E
  3
A3
350
3F
  3
A4
350
40
  3
A5
350
41
  3
A6
350
42
  3
A7
350
43
  3
A8
350
44
  3
A9
350
45
  3
B0
350
46
  3
B1
350
47
  3
B2
350
48
  3
B3
350
49
  3
B4
350
4A
  3
B5
350
4B
  3
B6
350
4C
  3
B7
350
4D
  3
B8
350
4E
  3
B9
350
4F
  3
C0
350
50
  3
C1
350
51
  3
C2
350
52
  3
C3
350
53
  3
C4
350
54
  3
C5
350
55
  3
C6
350
56
  3
C7
350
57
  3
C8
350
58
  3
C9
350
59
  3
D0
350
5A
  3
D1
350
5B
  3
D2
350
5C
  0
DICTIONARY
  5
ED
102
{ACAD_REACTORS
330
C
102
}
330
C
100
AcDbDictionary
281
     1
  0
DICTIONARY
  5
2A
102
{ACAD_REACTORS
330
C
102
}
330
C
100
AcDbDictionary
281
     1
  3
2dWireframe
350
2F
  3
3D Hidden
350
31
  3
3dWireframe
350
30
  3
Basic
350
32
  3
Brighten
350
36
  3
ColorChange
350
3A
  3
Conceptual
350
34
  3
Dim
350
35
  3
Facepattern
350
39
  3
Flat
350
2B
  3
FlatWithEdges
350
2C
  3
Gouraud
350
2D
  3
GouraudWithEdges
350
2E
  3
Linepattern
350
38
  3
Realistic
350
33
  3
Thicken
350
37
  0
DICTIONARY
  5
EB
102
{ACAD_REACTORS
330
C
102
}
330
C
100
AcDbDictionary
281
     1
  3
CANNOSCALE
350
EC
  3
PSOLHEIGHT
350
F0
  3
PSOLWIDTH
350
EF
  0
LAYOUT
  5
1E
102
{ACAD_REACTORS
330
1A
102
}
330
1A
100
AcDbPlotSettings
  1

  2
none_device
  4

  6

 40
0.0
 41
0.0
 42
0.0
 43
0.0
 44
0.0
 45
0.0
 46
0.0
 47
0.0
 48
0.0
 49
0.0
140
0.0
141
0.0
142
1.0
143
1.0
 70
   688
 72
     0
 73
     0
 74
     5
  7

 75
    16
147
1.0
148
0.0
149
0.0
100
AcDbLayout
  1
Layout1
 70
     1
 71
     1
 10
0.0
 20
0.0
 11
1682.0
 21
2378.0
 12
0.0
 22
0.0
 32
0.0
 14
0.0
 24
0.0
 34
0.0
 15
1682.0
 25
2378.0
 35
0.0
146
0.0
 13
0.0
 23
0.0
 33
0.0
 16
1.0
 26
0.0
 36
0.0
 17
0.0
 27
1.0
 37
0.0
 76
     0
330
1B
  0
LAYOUT
  5
22
102
{ACAD_REACTORS
330
1A
102
}
330
1A
100
AcDbPlotSettings
  1

  2
none_device
  4

  6

 40
0.0
 41
0.0
 42
0.0
 43
0.0
 44
0.0
 45
0.0
 46
0.0
 47
0.0
 48
0.0
 49
0.0
140
0.0
141
0.0
142
1.0
143
1.0
 70
  1712
 72
     0
 73
     0
 74
     0
  7

 75
     0
147
1.0
148
0.0
149
0.0
100
AcDbLayout
  1
Model
 70
     1
 71
     0
 10
0.0
 20
0.0
 11
1682.0
 21
2378.0
 12
0.0
 22
0.0
 32
0.0
 14
0.0
 24
0.0
 34
0.0
 15
1682.0
 25
2378.0
 35
0.0
146
0.0
 13
0.0
 23
0.0
 33
0.0
 16
1.0
 26
0.0
 36
0.0
 17
0.0
 27
1.0
 37
0.0
 76
     0
330
1F
331
29
  0
MLINESTYLE
  5
18
102
{ACAD_REACTORS
330
17
102
}
330
17
100
AcDbMlineStyle
  2
Standard
 70
     0
  3

 62
   256
 51
90.0
 52
90.0
 71
     2
 49
0.5
 62
   256
  6
BYLAYER
 49
-0.5
 62
   256
  6
BYLAYER
  0
ACDBPLACEHOLDER
  5
F
102
{ACAD_REACTORS
330
E
102
}
330
E
  0
SCALE
  5
3C
102
{ACAD_REACTORS
330
3B
102
}
330
3B
100
AcDbScale
 70
     0
300
1:1
140
1.0
141
1.0
290
     1
  0
SCALE
  5
3D
102
{ACAD_REACTORS
330
3B
102
}
330
3B
100
AcDbScale
 70
     0
300
1:2
140
1.0
141
2.0
290
     0
  0
SCALE
  5
3E
102
{ACAD_REACTORS
330
3B
102
}
330
3B
100
AcDbScale
 70
     0
300
1:4
140
1.0
141
4.0
290
     0
  0
SCALE
  5
3F
102
{ACAD_REACTORS
330
3B
102
}
330
3B
100
AcDbScale
 70
     0
300
1:5
140
1.0
141
5.0
290
     0
  0
SCALE
  5
40
102
{ACAD_REACTORS
330
3B
102
}
330
3B
100
AcDbScale
 70
     0
300
1:8
140
1.0
141
8.0
290
     0
  0
SCALE
  5
41
102
{ACAD_REACTORS
330
3B
102
}
330
3B
100
AcDbScale
 70
     0
300
1:10
140
1.0
141
10.0
290
     0
  0
SCALE
  5
42
102
{ACAD_REACTORS
330
3B
102
}
330
3B
100
AcDbScale
 70
     0
300
1:16
140
1.0
141
16.0
290
     0
  0
SCALE
  5
43
102
{ACAD_REACTORS
330
3B
102
}
330
3B
100
AcDbScale
 70
     0
300
1:20
140
1.0
141
20.0
290
     0
  0
SCALE
  5
44
102
{ACAD_REACTORS
330
3B
102
}
330
3B
100
AcDbScale
 70
     0
300
1:30
140
1.0
141
30.0
290
     0
  0
SCALE
  5
45
102
{ACAD_REACTORS
330
3B
102
}
330
3B
100
AcDbScale
 70
     0
300
1:40
140
1.0
141
40.0
290
     0
  0
SCALE
  5
46
102
{ACAD_REACTORS
330
3B
102
}
330
3B
100
AcDbScale
 70
     0
300
1:50
140
1.0
141
50.0
290
     0
  0
SCALE
  5
47
102
{ACAD_REACTORS
330
3B
102
}
330
3B
100
AcDbScale
 70
     0
300
1:100
140
1.0
141
100.0
290
     0
  0
SCALE
  5
48
102
{ACAD_REACTORS
330
3B
102
}
330
3B
100
AcDbScale
 70
     0
300
2:1
140
2.0
141
1.0
290
     0
  0
SCALE
  5
49
102
{ACAD_REACTORS
330
3B
102
}
330
3B
100
AcDbScale
 70
     0
300
4:1
140
4.0
141
1.0
290
     0
  0
SCALE
  5
4A
102
{ACAD_REACTORS
330
3B
102
}
330
3B
100
AcDbScale
 70
     0
300
8:1
140
8.0
141
1.0
290
     0
  0
SCALE
  5
4B
102
{ACAD_REACTORS
330
3B
102
}
330
3B
100
AcDbScale
 70
     0
300
10:1
140
10.0
141
1.0
290
     0
  0
SCALE
  5
4C
102
{ACAD_REACTORS
330
3B
102
}
330
3B
100
AcDbScale
 70
     0
300
100:1
140
100.0
141
1.0
290
     0
  0
SCALE
  5
4D
102
{ACAD_REACTORS
330
3B
102
}
330
3B
100
AcDbScale
 70
     0
300
1/128" = 1'-0"
140
0.0078125
141
12.0
290
     0
  0
SCALE
  5
4E
102
{ACAD_REACTORS
330
3B
102
}
330
3B
100
AcDbScale
 70
     0
300
1/64" = 1'-0"
140
0.015625
141
12.0
290
     0
  0
SCALE
  5
4F
102
{ACAD_REACTORS
330
3B
102
}
330
3B
100
AcDbScale
 70
     0
300
1/32" = 1'-0"
140
0.03125
141
12.0
290
     0
  0
SCALE
  5
50
102
{ACAD_REACTORS
330
3B
102
}
330
3B
100
AcDbScale
 70
     0
300
1/16" = 1'-0"
140
0.0625
141
12.0
290
     0
  0
SCALE
  5
51
102
{ACAD_REACTORS
330
3B
102
}
330
3B
100
AcDbScale
 70
     0
300
3/32" = 1'-0"
140
0.09375
141
12.0
290
     0
  0
SCALE
  5
52
102
{ACAD_REACTORS
330
3B
102
}
330
3B
100
AcDbScale
 70
     0
300
1/8" = 1'-0"
140
0.125
141
12.0
290
     0
  0
SCALE
  5
53
102
{ACAD_REACTORS
330
3B
102
}
330
3B
100
AcDbScale
 70
     0
300
3/16" = 1'-0"
140
0.1875
141
12.0
290
     0
  0
SCALE
  5
54
102
{ACAD_REACTORS
330
3B
102
}
330
3B
100
AcDbScale
 70
     0
300
1/4" = 1'-0"
140
0.25
141
12.0
290
     0
  0
SCALE
  5
55
102
{ACAD_REACTORS
330
3B
102
}
330
3B
100
AcDbScale
 70
     0
300
3/8" = 1'-0"
140
0.375
141
12.0
290
     0
  0
SCALE
  5
56
102
{ACAD_REACTORS
330
3B
102
}
330
3B
100
AcDbScale
 70
     0
300
1/2" = 1'-0"
140
0.5
141
12.0
290
     0
  0
SCALE
  5
57
102
{ACAD_REACTORS
330
3B
102
}
330
3B
100
AcDbScale
 70
     0
300
3/4" = 1'-0"
140
0.75
141
12.0
290
     0
  0
SCALE
  5
58
102
{ACAD_REACTORS
330
3B
102
}
330
3B
100
AcDbScale
 70
     0
300
1" = 1'-0"
140
1.0
141
12.0
290
     0
  0
SCALE
  5
59
102
{ACAD_REACTORS
330
3B
102
}
330
3B
100
AcDbScale
 70
     0
300
1-1/2" = 1'-0"
140
1.5
141
12.0
290
     0
  0
SCALE
  5
5A
102
{ACAD_REACTORS
330
3B
102
}
330
3B
100
AcDbScale
 70
     0
300
3" = 1'-0"
140
3.0
141
12.0
290
     0
  0
SCALE
  5
5B
102
{ACAD_REACTORS
330
3B
102
}
330
3B
100
AcDbScale
 70
     0
300
6" = 1'-0"
140
6.0
141
12.0
290
     0
  0
SCALE
  5
5C
102
{ACAD_REACTORS
330
3B
102
}
330
3B
100
AcDbScale
 70
     0
300
1'-0" = 1'-0"
140
12.0
141
12.0
290
     0
  0
VISUALSTYLE
  5
2F
102
{ACAD_REACTORS
330
2A
102
}
330
2A
100
AcDbVisualStyle
  2
2dWireframe
 70
     4
 71
     0
 72
     2
 73
     0
 90
        0
 40
-0.6
 41
-30.0
 62
     5
 63
     7
 74
     1
 91
        4
 64
     7
 65
   257
 75
     1
175
     1
 42
1.0
 92
        0
 66
   257
 43
1.0
 76
     1
 77
     6
 78
     2
 67
     7
 79
     5
170
     0
171
     0
290
     0
174
     0
 93
        1
 44
0.0
173
     0
291
     0
 45
0.0
1001
ACAD
1000
AcDbSavedByObjectVersion
1070
     0
  0
VISUALSTYLE
  5
31
102
{ACAD_REACTORS
330
2A
102
}
330
2A
100
AcDbVisualStyle
  2
3D Hidden
 70
     6
 71
     1
 72
     2
 73
     2
 90
        0
 40
-0.6
 41
-30.0
 62
     5
 63
     7
 74
     2
 91
        2
 64
     7
 65
   257
 75
     2
175
     1
 42
40.0
 92
        0
 66
   257
 43
1.0
 76
     1
 77
     6
 78
     2
 67
     7
 79
     3
170
     0
171
     0
290
     0
174
     0
 93
        1
 44
0.0
173
     0
291
     0
 45
0.0
1001
ACAD
1000
AcDbSavedByObjectVersion
1070
     0
  0
VISUALSTYLE
  5
30
102
{ACAD_REACTORS
330
2A
102
}
330
2A
100
AcDbVisualStyle
  2
3dWireframe
 70
     5
 71
     0
 72
     2
 73
     0
 90
        0
 40
-0.6
 41
-30.0
 62
     5
 63
     7
 74
     1
 91
        4
 64
     7
 65
   257
 75
     1
175
     1
 42
1.0
 92
        0
 66
   257
 43
1.0
 76
     1
 77
     6
 78
     2
 67
     7
 79
     5
170
     0
171
     0
290
     0
174
     0
 93
        1
 44
0.0
173
     0
291
     0
 45
0.0
1001
ACAD
1000
AcDbSavedByObjectVersion
1070
     0
  0
VISUALSTYLE
  5
32
102
{ACAD_REACTORS
330
2A
102
}
330
2A
100
AcDbVisualStyle
  2
Basic
 70
     7
 71
     1
 72
     0
 73
     1
 90
        0
 40
-0.6
 41
-30.0
 62
     5
 63
     7
 74
     0
 91
        4
 64
     7
 65
   257
 75
     1
175
     1
 42
1.0
 92
        8
 66
     7
 43
1.0
 76
     1
 77
     6
 78
     2
 67
     7
 79
     5
170
     0
171
     0
290
     0
174
     0
 93
        1
 44
0.0
173
     0
291
     1
 45
0.0
1001
ACAD
1000
AcDbSavedByObjectVersion
1070
     0
  0
VISUALSTYLE
  5
36
102
{ACAD_REACTORS
330
2A
102
}
330
2A
100
AcDbVisualStyle
  2
Brighten
 70
    12
 71
     2
 72
     2
 73
     0
 90
        0
 40
-0.6
 41
-30.0
 62
     5
 63
     7
 74
     1
 91
        4
 64
     7
 65
   257
 75
     1
175
     1
 42
1.0
 92
        8
 66
     7
 43
1.0
 76
     1
 77
     6
 78
     2
 67
     7
 79
     5
170
     0
171
     0
290
     0
174
     0
 93
        1
 44
50.0
173
     0
291
     1
 45
0.0
1001
ACAD
1000
AcDbSavedByObjectVersion
1070
     0
  0
VISUALSTYLE
  5
3A
102
{ACAD_REACTORS
330
2A
102
}
330
2A
100
AcDbVisualStyle
  2
ColorChange
 70
    16
 71
     2
 72
     2
 73
     3
 90
        0
 40
-0.6
 41
-30.0
 62
     5
 63
     8
 74
     1
 91
        4
 64
     7
 65
   257
 75
     1
175
     1
 42
1.0
 92
        8
 66
     8
 43
1.0
 76
     1
 77
     6
 78
     2
 67
     7
 79
     5
170
     0
171
     0
290
     0
174
     0
 93
        1
 44
0.0
173
     0
291
     1
 45
0.0
1001
ACAD
1000
AcDbSavedByObjectVersion
1070
     0
  0
VISUALSTYLE
  5
34
102
{ACAD_REACTORS
330
2A
102
}
330
2A
100
AcDbVisualStyle
  2
Conceptual
 70
     9
 71
     3
 72
     2
 73
     0
 90
        0
 40
-0.6
 41
-30.0
 62
     5
 63
     7
 74
     2
 91
        2
 64
     7
 65
   257
 75
     1
175
     1
 42
40.0
 92
        8
 66
     7
 43
1.0
 76
     1
 77
     6
 78
     2
 67
     7
 79
     3
170
     0
171
     0
290
     0
174
     0
 93
        1
 44
0.0
173
     0
291
     0
 45
0.0
1001
ACAD
1000
AcDbSavedByObjectVersion
1070
     0
  0
VISUALSTYLE
  5
35
102
{ACAD_REACTORS
330
2A
102
}
330
2A
100
AcDbVisualStyle
  2
Dim
 70
    11
 71
     2
 72
     2
 73
     0
 90
        0
 40
-0.6
 41
-30.0
 62
     5
 63
     7
 74
     1
 91
        4
 64
     7
 65
   257
 75
     1
175
     1
 42
1.0
 92
        8
 66
     7
 43
1.0
 76
     1
 77
     6
 78
     2
 67
     7
 79
     5
170
     0
171
     0
290
     0
174
     0
 93
        1
 44
-50.0
173
     0
291
     1
 45
0.0
1001
ACAD
1000
AcDbSavedByObjectVersion
1070
     0
  0
VISUALSTYLE
  5
39
102
{ACAD_REACTORS
330
2A
102
}
330
2A
100
AcDbVisualStyle
  2
Facepattern
 70
    15
 71
     2
 72
     2
 73
     0
 90
        0
 40
-0.6
 41
-30.0
 62
     5
 63
     7
 74
     1
 91
        4
 64
     7
 65
   257
 75
     1
175
     1
 42
1.0
 92
        8
 66
     7
 43
1.0
 76
     1
 77
     6
 78
     2
 67
     7
 79
     5
170
     0
171
     0
290
     0
174
     0
 93
        1
 44
0.0
173
     0
291
     1
 45
0.0
1001
ACAD
1000
AcDbSavedByObjectVersion
1070
     0
  0
VISUALSTYLE
  5
2B
102
{ACAD_REACTORS
330
2A
102
}
330
2A
100
AcDbVisualStyle
  2
Flat
 70
     0
 71
     2
 72
     1
 73
     1
 90
        2
 40
-0.6
 41
30.0
 62
     5
 63
     7
 74
     0
 91
        4
 64
     7
 65
   257
 75
     1
175
     1
 42
1.0
 92
        8
 66
     7
 43
1.0
 76
     1
 77
     6
 78
     2
 67
     7
 79
     5
170
     0
171
     0
290
     0
174
     0
 93
       13
 44
0.0
173
     0
291
     1
 45
0.0
1001
ACAD
1000
AcDbSavedByObjectVersion
1070
     0
  0
VISUALSTYLE
  5
2C
102
{ACAD_REACTORS
330
2A
102
}
330
2A
100
AcDbVisualStyle
  2
FlatWithEdges
 70
     1
 71
     2
 72
     1
 73
     1
 90
        2
 40
-0.6
 41
30.0
 62
     5
 63
     7
 74
     1
 91
        4
 64
     7
 65
   257
 75
     1
175
     1
 42
1.0
 92
        0
 66
   257
 43
1.0
 76
     1
 77
     6
 78
     2
 67
     7
 79
     5
170
     0
171
     0
290
     0
174
     0
 93
       13
 44
0.0
173
     0
291
     1
 45
0.0
1001
ACAD
1000
AcDbSavedByObjectVersion
1070
     0
  0
VISUALSTYLE
  5
2D
102
{ACAD_REACTORS
330
2A
102
}
330
2A
100
AcDbVisualStyle
  2
Gouraud
 70
     2
 71
     2
 72
     2
 73
     1
 90
        2
 40
-0.6
 41
30.0
 62
     5
 63
     7
 74
     0
 91
        4
 64
     7
 65
   257
 75
     1
175
     1
 42
1.0
 92
        0
 66
     7
 43
1.0
 76
     1
 77
     6
 78
     2
 67
     7
 79
     5
170
     0
171
     0
290
     0
174
     0
 93
       13
 44
0.0
173
     0
291
     1
 45
0.0
1001
ACAD
1000
AcDbSavedByObjectVersion
1070
     0
  0
VISUALSTYLE
  5
2E
102
{ACAD_REACTORS
330
2A
102
}
330
2A
100
AcDbVisualStyle
  2
GouraudWithEdges
 70
     3
 71
     2
 72
     2
 73
     1
 90
        2
 40
-0.6
 41
30.0
 62
     5
 63
     7
 74
     1
 91
        4
 64
     7
 65
   257
 75
     1
175
     1
 42
1.0
 92
        0
 66
   257
 43
1.0
 76
     1
 77
     6
 78
     2
 67
     7
 79
     5
170
     0
171
     0
290
     0
174
     0
 93
       13
 44
0.0
173
     0
291
     1
 45
0.0
1001
ACAD
1000
AcDbSavedByObjectVersion
1070
     0
  0
VISUALSTYLE
  5
38
102
{ACAD_REACTORS
330
2A
102
}
330
2A
100
AcDbVisualStyle
  2
Linepattern
 70
    14
 71
     2
 72
     2
 73
     0
 90
        0
 40
-0.6
 41
-30.0
 62
     5
 63
     7
 74
     1
 91
        4
 64
     7
 65
   257
 75
     7
175
     7
 42
1.0
 92
        8
 66
     7
 43
1.0
 76
     1
 77
     6
 78
     2
 67
     7
 79
     5
170
     0
171
     0
290
     0
174
     0
 93
        1
 44
0.0
173
     0
291
     1
 45
0.0
1001
ACAD
1000
AcDbSavedByObjectVersion
1070
     0
  0
VISUALSTYLE
  5
33
102
{ACAD_REACTORS
330
2A
102
}
330
2A
100
AcDbVisualStyle
  2
Realistic
 70
     8
 71
     2
 72
     2
 73
     0
 90
        0
 40
-0.6
 41
-30.0
 62
     5
 63
     7
 74
     1
 91
        0
 64
     7
 65
   257
 75
     1
175
     1
 42
1.0
 92
        8
 66
     8
 43
1.0
 76
     1
 77
     6
 78
     2
 67
     7
 79
     5
170
     0
171
     0
290
     0
174
     0
 93
       13
 44
0.0
173
     0
291
     0
 45
0.0
1001
ACAD
1000
AcDbSavedByObjectVersion
1070
     0
  0
VISUALSTYLE
  5
37
102
{ACAD_REACTORS
330
2A
102
}
330
2A
100
AcDbVisualStyle
  2
Thicken
 70
    13
 71
     2
 72
     2
 73
     0
 90
        0
 40
-0.6
 41
-30.0
 62
     5
 63
     7
 74
     1
 91
        4
 64
     7
 65
   257
 75
     1
175
     1
 42
1.0
 92
       12
 66
     7
 43
1.0
 76
     1
 77
     6
 78
     2
 67
     7
 79
     5
170
     0
171
     0
290
     0
174
     0
 93
        1
 44
0.0
173
     0
291
     1
 45
0.0
1001
ACAD
1000
AcDbSavedByObjectVersion
1070
     0
  0
DICTIONARYVAR
  5
EC
102
{ACAD_REACTORS
330
EB
102
}
330
EB
100
DictionaryVariables
280
     0
  1
1:1
  0
DICTIONARYVAR
  5
F0
102
{ACAD_REACTORS
330
EB
102
}
330
EB
100
DictionaryVariables
280
     0
  1
80.000000
  0
DICTIONARYVAR
  5
EF
102
{ACAD_REACTORS
330
EB
102
}
330
EB
100
DictionaryVariables
280
     0
  1
5.000000
  0
ENDSEC
  0
EOF
