  0
SECTION
  2
HEADER
  9
$ACADVER
  1
AC1015
  9
$ACADMAINTVER
 70
     6
  9
$DWGCODEPAGE
  3
ANSI_1252
  9
$INSBASE
 10
0.0
 20
0.0
 30
0.0
  9
$EXTMIN
 10
0.0
 20
0.0
 30
0.0
  9
$EXTMAX
 10
1682.0
 20
2378.0
 30
0.0
  9
$LIMMIN
 10
0.0
 20
0.0
  9
$LIMMAX
 10
1682.0
 20
2378.0
  9
$ORTHOMODE
 70
     0
  9
$REGENMODE
 70
     1
  9
$FILLMODE
 70
     1
  9
$QTEXTMODE
 70
     0
  9
$MIRRTEXT
 70
     1
  9
$LTSCALE
 40
1.0
  9
$ATTMODE
 70
     1
  9
$TEXTSIZE
 40
2.5
  9
$TRACEWID
 40
1.0
  9
$TEXTSTYLE
  7
Standard
  9
$CLAYER
  8
0
  9
$CELTYPE
  6
ByLayer
  9
$CECOLOR
 62
   256
  9
$CELTSCALE
 40
1.0
  9
$DISPSILH
 70
     0
  9
$DIMSCALE
 40
1.0
  9
$DIMASZ
 40
2.5
  9
$DIMEXO
 40
0.625
  9
$DIMDLI
 40
3.75
  9
$DIMRND
 40
0.0
  9
$DIMDLE
 40
0.0
  9
$DIMEXE
 40
1.25
  9
$DIMTP
 40
0.0
  9
$DIMTM
 40
0.0
  9
$DIMTXT
 40
2.5
  9
$DIMCEN
 40
2.5
  9
$DIMTSZ
 40
0.0
  9
$DIMTOL
 70
     0
  9
$DIMLIM
 70
     0
  9
$DIMTIH
 70
     0
  9
$DIMTOH
 70
     0
  9
$DIMSE1
 70
     0
  9
$DIMSE2
 70
     0
  9
$DIMTAD
 70
     1
  9
$DIMZIN
 70
     8
  9
$DIMBLK
  1

  9
$DIMASO
 70
     1
  9
$DIMSHO
 70
     1
  9
$DIMPOST
  1

  9
$DIMAPOST
  1

  9
$DIMALT
 70
     0
  9
$DIMALTD
 70
     3
  9
$DIMALTF
 40
0.0393700787
  9
$DIMLFAC
 40
1.0
  9
$DIMTOFL
 70
     1
  9
$DIMTVP
 40
0.0
  9
$DIMTIX
 70
     0
  9
$DIMSOXD
 70
     0
  9
$DIMSAH
 70
     0
  9
$DIMBLK1
  1

  9
$DIMBLK2
  1

  9
$DIMSTYLE
  2
ISO-25
  9
$DIMCLRD
 70
     0
  9
$DIMCLRE
 70
     0
  9
$DIMCLRT
 70
     0
  9
$DIMTFAC
 40
1.0
  9
$DIMGAP
 40
0.625
  9
$DIMJUST
 70
     0
  9
$DIMSD1
 70
     0
  9
$DIMSD2
 70
     0
  9
$DIMTOLJ
 70
     0
  9
$DIMTZIN
 70
     8
  9
$DIMALTZ
 70
     0
  9
$DIMALTTZ
 70
     0
  9
$DIMUPT
 70
     0
  9
$DIMDEC
 70
     2
  9
$DIMTDEC
 70
     2
  9
$DIMALTU
 70
     2
  9
$DIMALTTD
 70
     3
  9
$DIMTXSTY
  7
Standard
  9
$DIMAUNIT
 70
     0
  9
$DIMADEC
 70
     0
  9
$DIMALTRND
 40
0.0
  9
$DIMAZIN
 70
     0
  9
$DIMDSEP
 70
    44
  9
$DIMATFIT
 70
     3
  9
$DIMFRAC
 70
     0
  9
$DIMLDRBLK
  1

  9
$DIMLUNIT
 70
     2
  9
$DIMLWD
 70
    -2
  9
$DIMLWE
 70
    -2
  9
$DIMTMOVE
 70
     0
  9
$LUNITS
 70
     2
  9
$LUPREC
 70
     4
  9
$SKETCHINC
 40
1.0
  9
$FILLETRAD
 40
10.0
  9
$AUNITS
 70
     0
  9
$AUPREC
 70
     0
  9
$MENU
  1
.
  9
$ELEVATION
 40
0.0
  9
$PELEVATION
 40
0.0
  9
$THICKNESS
 40
0.0
  9
$LIMCHECK
 70
     0
  9
$CHAMFERA
 40
10.0
  9
$CHAMFERB
 40
10.0
  9
$CHAMFERC
 40
20.0
  9
$CHAMFERD
 40
0.0
  9
$SKPOLY
 70
     0
  9
$TDCREATE
 40
2455684.595091053
  9
$TDUCREATE
 40
2455684.51175772
  9
$TDUPDATE
 40
2455684.595091065
  9
$TDUUPDATE
 40
2455684.511757731
  9
$TDINDWG
 40
0.0000000116
  9
$TDUSRTIMER
 40
0.0000000116
  9
$USRTIMER
 70
     1
  9
$ANGBASE
 50
0.0
  9
$ANGDIR
 70
     0
  9
$PDMODE
 70
     0
  9
$PDSIZE
 40
0.0
  9
$PLINEWID
 40
0.0
  9
$SPLFRAME
 70
     0
  9
$SPLINETYPE
 70
     6
  9
$SPLINESEGS
 70
     8
  9
$HANDSEED
  5
1D8
  9
$SURFTAB1
 70
     6
  9
$SURFTAB2
 70
     6
  9
$SURFTYPE
 70
     6
  9
$SURFU
 70
     6
  9
$SURFV
 70
     6
  9
$UCSBASE
  2

  9
$UCSNAME
  2

  9
$UCSORG
 10
0.0
 20
0.0
 30
0.0
  9
$UCSXDIR
 10
1.0
 20
0.0
 30
0.0
  9
$UCSYDIR
 10
0.0
 20
1.0
 30
0.0
  9
$UCSORTHOREF
  2

  9
$UCSORTHOVIEW
 70
     0
  9
$UCSORGTOP
 10
0.0
 20
0.0
 30
0.0
  9
$UCSORGBOTTOM
 10
0.0
 20
0.0
 30
0.0
  9
$UCSORGLEFT
 10
0.0
 20
0.0
 30
0.0
  9
$UCSORGRIGHT
 10
0.0
 20
0.0
 30
0.0
  9
$UCSORGFRONT
 10
0.0
 20
0.0
 30
0.0
  9
$UCSORGBACK
 10
0.0
 20
0.0
 30
0.0
  9
$PUCSBASE
  2

  9
$PUCSNAME
  2

  9
$PUCSORG
 10
0.0
 20
0.0
 30
0.0
  9
$PUCSXDIR
 10
1.0
 20
0.0
 30
0.0
  9
$PUCSYDIR
 10
0.0
 20
1.0
 30
0.0
  9
$PUCSORTHOREF
  2

  9
$PUCSORTHOVIEW
 70
     0
  9
$PUCSORGTOP
 10
0.0
 20
0.0
 30
0.0
  9
$PUCSORGBOTTOM
 10
0.0
 20
0.0
 30
0.0
  9
$PUCSORGLEFT
 10
0.0
 20
0.0
 30
0.0
  9
$PUCSORGRIGHT
 10
0.0
 20
0.0
 30
0.0
  9
$PUCSORGFRONT
 10
0.0
 20
0.0
 30
0.0
  9
$PUCSORGBACK
 10
0.0
 20
0.0
 30
0.0
  9
$USERI1
 70
     0
  9
$USERI2
 70
     0
  9
$USERI3
 70
     0
  9
$USERI4
 70
     0
  9
$USERI5
 70
     0
  9
$USERR1
 40
0.0
  9
$USERR2
 40
0.0
  9
$USERR3
 40
0.0
  9
$USERR4
 40
0.0
  9
$USERR5
 40
0.0
  9
$WORLDVIEW
 70
     1
  9
$SHADEDGE
 70
     3
  9
$SHADEDIF
 70
    70
  9
$TILEMODE
 70
     1
  9
$MAXACTVP
 70
    64
  9
$PINSBASE
 10
0.0
 20
0.0
 30
0.0
  9
$PLIMCHECK
 70
     0
  9
$PEXTMIN
 10
0.0
 20
0.0
 30
0.0
  9
$PEXTMAX
 10
1682.0
 20
2378.0
 30
0.0
  9
$PLIMMIN
 10
0.0
 20
0.0
  9
$PLIMMAX
 10
1682.0
 20
2378.0
  9
$UNITMODE
 70
     0
  9
$VISRETAIN
 70
     1
  9
$PLINEGEN
 70
     0
  9
$PSLTSCALE
 70
     1
  9
$TREEDEPTH
 70
  3020
  9
$CMLSTYLE
  2
Standard
  9
$CMLJUST
 70
     0
  9
$CMLSCALE
 40
20.0
  9
$PROXYGRAPHICS
 70
     1
  9
$MEASUREMENT
 70
     1
  9
$CELWEIGHT
370
    -1
  9
$ENDCAPS
280
     0
  9
$JOINSTYLE
280
     0
  9
$LWDISPLAY
290
     0
  9
$INSUNITS
 70
     4
  9
$HYPERLINKBASE
  1

  9
$STYLESHEET
  1

  9
$XEDIT
290
     1
  9
$CEPSNTYPE
380
     0
  9
$PSTYLEMODE
290
     1
  9
$FINGERPRINTGUID
  2
{459474B0-20D1-49FB-98BA-AFAABB09DE04}
  9
$VERSIONGUID
  2
{FAEB1C32-E019-11D5-929B-00C0DF256EC4}
  9
$EXTNAMES
290
     1
  9
$PSVPSCALE
 40
0.0
  9
$OLESTARTUP
290
     0
  0
ENDSEC
  0
SECTION
  2
CLASSES
  0
CLASS
  1
ACDBDICTIONARYWDFLT
  2
AcDbDictionaryWithDefault
  3
ObjectDBX Classes
 90
        0
280
     0
281
     0
  0
CLASS
  1
VISUALSTYLE
  2
AcDbVisualStyle
  3
ObjectDBX Classes
 90
     4095
280
     0
281
     0
  0
CLASS
  1
SCALE
  2
AcDbScale
  3
ObjectDBX Classes
 90
     1153
280
     0
281
     0
  0
CLASS
  1
DICTIONARYVAR
  2
AcDbDictionaryVar
  3
ObjectDBX Classes
 90
        0
280
     0
281
     0
  0
CLASS
  1
ACDBPLACEHOLDER
  2
AcDbPlaceHolder
  3
ObjectDBX Classes
 90
        0
280
     0
281
     0
  0
CLASS
  1
LAYOUT
  2
AcDbLayout
  3
ObjectDBX Classes
 90
        0
280
     0
281
     0
  0
ENDSEC
  0
SECTION
  2
TABLES
  0
TABLE
  2
VPORT
  5
8
330
0
100
AcDbSymbolTable
 70
     1
  0
VPORT
  5
29
330
8
100
AcDbSymbolTableRecord
100
AcDbViewportTableRecord
  2
*Active
 70
     0
 10
0.0
 20
0.0
 11
1.0
 21
1.0
 12
344.1869158879
 22
148.5
 13
0.0
 23
0.0
 14
10.0
 24
10.0
 15
10.0
 25
10.0
 16
0.0
 26
0.0
 36
1.0
 17
0.0
 27
0.0
 37
0.0
 40
297.0
 41
1.9729729729
 42
50.0
 43
0.0
 44
0.0
 50
0.0
 51
0.0
 71
     0
 72
   100
 73
     1
 74
     3
 75
     0
 76
     0
 77
     0
 78
     0
281
     0
 65
     1
110
0.0
120
0.0
130
0.0
111
1.0
121
0.0
131
0.0
112
0.0
122
1.0
132
0.0
 79
     0
146
0.0
  0
ENDTAB
  0
TABLE
  2
LTYPE
  5
5
330
0
100
AcDbSymbolTable
 70
     2
  0
LTYPE
  5
14
330
5
100
AcDbSymbolTableRecord
100
AcDbLinetypeTableRecord
  2
ByBlock
 70
     0
  3

 72
    65
 73
     0
 40
0.0
  0
LTYPE
  5
15
330
5
100
AcDbSymbolTableRecord
100
AcDbLinetypeTableRecord
  2
ByLayer
 70
     0
  3

 72
    65
 73
     0
 40
0.0
  0
LTYPE
  5
16
330
5
100
AcDbSymbolTableRecord
100
AcDbLinetypeTableRecord
  2
Continuous
 70
     0
  3
Solid line
 72
    65
 73
     0
 40
0.0
  0
LTYPE
  5
60
330
5
100
AcDbSymbolTableRecord
100
AcDbLinetypeTableRecord
  2
CENTER2
 70
     0
  3
Center (.5x) ___ _ ___ _ ___ _ ___ _ ___ _ ___
 72
    65
 73
     4
 40
28.575
 49
19.05
 74
     4
 75
     0
340
0
 46
0.0
 50
0.0
 44
0.0
 45
0.0
 49
-3.175
 74
     4
 75
     0
340
0
 46
0.0
 50
0.0
 44
0.0
 45
0.0
 49
3.175
 74
     4
 75
     0
340
0
 46
0.0
 50
0.0
 44
0.0
 45
0.0
 49
-3.175
 74
     4
 75
     0
340
0
 46
0.0
 50
0.0
 44
0.0
 45
0.0
  0
ENDTAB
  0
TABLE
  2
LAYER
  5
2
330
0
100
AcDbSymbolTable
 70
     9
  0
LAYER
  5
10
330
2
100
AcDbSymbolTableRecord
100
AcDbLayerTableRecord
  2
0
 70
     0
 62
     7
  6
Continuous
370
    -3
390
F
  0
LAYER
  5
5D
330
2
100
AcDbSymbolTableRecord
100
AcDbLayerTableRecord
  2
Default
 70
     0
 62
     7
  6
Continuous
370
    -3
390
F
  0
LAYER
  5
77
330
2
100
AcDbSymbolTableRecord
100
AcDbLayerTableRecord
  2
$DDT_AUDIT_GENERATED_(77)
 70
     0
 62
     7
  6
Continuous
370
    -3
390
F
  0
LAYER
  5
7F
330
2
100
AcDbSymbolTableRecord
100
AcDbLayerTableRecord
  2
$DDT_AUDIT_GENERATED_(7F)
 70
     0
 62
     7
  6
Continuous
370
    -3
390
F
  0
LAYER
  5
85
330
2
100
AcDbSymbolTableRecord
100
AcDbLayerTableRecord
  2
$DDT_AUDIT_GENERATED_(85)
 70
     0
 62
     7
  6
Continuous
370
    -3
390
F
  0
LAYER
  5
99
330
2
100
AcDbSymbolTableRecord
100
AcDbLayerTableRecord
  2
$DDT_AUDIT_GENERATED_(99)
 70
     0
 62
     7
  6
Continuous
370
    -3
390
F
  0
LAYER
  5
104
330
2
100
AcDbSymbolTableRecord
100
AcDbLayerTableRecord
  2
$DDT_AUDIT_GENERATED_(104)
 70
     0
 62
     7
  6
Continuous
370
    -3
390
F
  0
LAYER
  5
177
330
2
100
AcDbSymbolTableRecord
100
AcDbLayerTableRecord
  2
$DDT_AUDIT_GENERATED_(177)
 70
     0
 62
     7
  6
Continuous
370
    -3
390
F
  0
LAYER
  5
1C2
330
2
100
AcDbSymbolTableRecord
100
AcDbLayerTableRecord
  2
DV3_Standard
 70
     0
 62
     7
  6
Continuous
370
    -3
390
F
  0
ENDTAB
  0
TABLE
  2
STYLE
  5
3
330
0
100
AcDbSymbolTable
 70
     2
  0
STYLE
  5
11
330
3
100
AcDbSymbolTableRecord
100
AcDbTextStyleTableRecord
  2
Standard
 70
     0
 40
0.0
 41
1.0
 50
0.0
 71
     0
 42
2.5
  3
txt
  4

  0
STYLE
  5
1C7
330
3
100
AcDbSymbolTableRecord
100
AcDbTextStyleTableRecord
  2
SEACAD_seiso_ttf
 70
     0
 40
0.0
 41
1.0
 50
0.0
 71
     0
 42
0.2
  3
seiso.ttf
  4

  0
ENDTAB
  0
TABLE
  2
VIEW
  5
6
330
0
100
AcDbSymbolTable
 70
     0
  0
ENDTAB
  0
TABLE
  2
UCS
  5
7
330
0
100
AcDbSymbolTable
 70
     0
  0
ENDTAB
  0
TABLE
  2
APPID
  5
9
330
0
100
AcDbSymbolTable
 70
     1
  0
APPID
  5
12
330
9
100
AcDbSymbolTableRecord
100
AcDbRegAppTableRecord
  2
ACAD
 70
     0
  0
ENDTAB
  0
TABLE
  2
DIMSTYLE
  5
A
330
0
100
AcDbSymbolTable
 70
     1
100
AcDbDimStyleTable
  0
DIMSTYLE
105
27
330
A
100
AcDbSymbolTableRecord
100
AcDbDimStyleTableRecord
  2
ISO-25
 70
     0
 41
2.5
 42
0.625
 43
3.75
 44
1.25
 73
     0
 74
     0
 77
     1
 78
     8
140
2.5
141
2.5
143
0.0393700787
147
0.625
171
     3
172
     1
271
     2
272
     2
274
     3
278
    44
283
     0
284
     8
340
11
  0
ENDTAB
  0
TABLE
  2
BLOCK_RECORD
  5
1
330
0
100
AcDbSymbolTable
 70
     8
  0
BLOCK_RECORD
  5
1F
330
1
100
AcDbSymbolTableRecord
100
AcDbBlockTableRecord
  2
*Model_Space
340
22
  0
BLOCK_RECORD
  5
1B
330
1
100
AcDbSymbolTableRecord
100
AcDbBlockTableRecord
  2
*Paper_Space
340
1E
  0
BLOCK_RECORD
  5
5E
330
1
100
AcDbSymbolTableRecord
100
AcDbBlockTableRecord
  2
SEANNOT_GROUP
340
0
102
{BLKREFS
331
5F
102
}
  0
BLOCK_RECORD
  5
65
330
1
100
AcDbSymbolTableRecord
100
AcDbBlockTableRecord
  2
SEANNOT_GROUP1
340
0
102
{BLKREFS
331
66
102
}
  0
BLOCK_RECORD
  5
6A
330
1
100
AcDbSymbolTableRecord
100
AcDbBlockTableRecord
  2
SEANNOT_GROUP2
340
0
102
{BLKREFS
331
6B
102
}
  0
BLOCK_RECORD
  5
6F
330
1
100
AcDbSymbolTableRecord
100
AcDbBlockTableRecord
  2
SEANNOT_GROUP3
340
0
102
{BLKREFS
331
70
102
}
  0
BLOCK_RECORD
  5
75
330
1
100
AcDbSymbolTableRecord
100
AcDbBlockTableRecord
  2
SE
340
0
102
{BLKREFS
331
76
102
}
  0
BLOCK_RECORD
  5
A3
330
1
100
AcDbSymbolTableRecord
100
AcDbBlockTableRecord
  2
SE1
340
0
102
{BLKREFS
331
A4
102
}
  0
BLOCK_RECORD
  5
1A4
330
1
100
AcDbSymbolTableRecord
100
AcDbBlockTableRecord
  2
SE2
340
0
102
{BLKREFS
331
1A5
102
}
  0
ENDTAB
  0
ENDSEC
  0
SECTION
  2
BLOCKS
  0
BLOCK
  5
20
330
1F
100
AcDbEntity
  8
0
100
AcDbBlockBegin
  2
*Model_Space
 70
     0
 10
0.0
 20
0.0
 30
0.0
  3
*Model_Space
  1

  0
ENDBLK
  5
21
330
1F
100
AcDbEntity
  8
0
100
AcDbBlockEnd
  0
BLOCK
  5
1C
330
1B
100
AcDbEntity
 67
     1
  8
0
100
AcDbBlockBegin
  2
*Paper_Space
 70
     0
 10
0.0
 20
0.0
 30
0.0
  3
*Paper_Space
  1

  0
ENDBLK
  5
1D
330
1B
100
AcDbEntity
 67
     1
  8
0
100
AcDbBlockEnd
  0
BLOCK
  5
63
330
5E
100
AcDbEntity
  8
0
100
AcDbBlockBegin
  2
SEANNOT_GROUP
 70
     0
 10
0.0
 20
0.0
 30
0.0
  3
SEANNOT_GROUP
  1

  0
LINE
  5
61
330
5E
100
AcDbEntity
  8
Default
  6
CENTER2
 62
     7
100
AcDbLine
 10
460.9270543038
 20
337.6231983481
 30
0.0
 11
420.9270551978
 21
337.6231983481
 31
0.0
  0
LINE
  5
62
330
5E
100
AcDbEntity
  8
Default
  6
CENTER2
 62
     7
100
AcDbLine
 10
440.9270547508
 20
357.6231979011
 30
0.0
 11
440.9270547508
 21
317.6231987951
 31
0.0
  0
ENDBLK
  5
64
330
5E
100
AcDbEntity
  8
0
100
AcDbBlockEnd
  0
BLOCK
  5
68
330
65
100
AcDbEntity
  8
0
100
AcDbBlockBegin
  2
SEANNOT_GROUP1
 70
     0
 10
0.0
 20
0.0
 30
0.0
  3
SEANNOT_GROUP1
  1

  0
LINE
  5
67
330
65
100
AcDbEntity
  8
Default
  6
CENTER2
 62
     7
100
AcDbLine
 10
325.6372800226
 20
337.6231983481
 30
0.0
 11
147.5372800226
 21
337.6231983481
 31
0.0
  0
ENDBLK
  5
69
330
65
100
AcDbEntity
  8
0
100
AcDbBlockEnd
  0
BLOCK
  5
6D
330
6A
100
AcDbEntity
  8
0
100
AcDbBlockBegin
  2
SEANNOT_GROUP2
 70
     0
 10
0.0
 20
0.0
 30
0.0
  3
SEANNOT_GROUP2
  1

  0
LINE
  5
6C
330
6A
100
AcDbEntity
  8
Default
  6
CENTER2
 62
     7
100
AcDbLine
 10
236.5872800226
 20
236.5731983481
 30
0.0
 11
236.5872800226
 21
438.6731983481
 31
0.0
  0
ENDBLK
  5
6E
330
6A
100
AcDbEntity
  8
0
100
AcDbBlockEnd
  0
BLOCK
  5
73
330
6F
100
AcDbEntity
  8
0
100
AcDbBlockBegin
  2
SEANNOT_GROUP3
 70
     0
 10
0.0
 20
0.0
 30
0.0
  3
SEANNOT_GROUP3
  1

  0
LINE
  5
71
330
6F
100
AcDbEntity
  8
Default
  6
CENTER2
 62
     7
100
AcDbLine
 10
256.5872795755
 20
158.4035615855
 30
0.0
 11
216.5872804696
 21
158.4035615855
 31
0.0
  0
LINE
  5
72
330
6F
100
AcDbEntity
  8
Default
  6
CENTER2
 62
     7
100
AcDbLine
 10
236.5872800226
 20
178.4035611384
 30
0.0
 11
236.5872800226
 21
138.4035620325
 31
0.0
  0
ENDBLK
  5
74
330
6F
100
AcDbEntity
  8
0
100
AcDbBlockEnd
  0
BLOCK
  5
A1
330
75
100
AcDbEntity
  8
0
100
AcDbBlockBegin
  2
SE
 70
     0
 10
0.0
 20
0.0
 30
0.0
  3
SE
  1

  0
LINE
  5
78
330
75
100
AcDbEntity
  8
$DDT_AUDIT_GENERATED_(77)
  6
Continuous
 62
     7
100
AcDbLine
 10
513.1270547508
 20
362.6231983481
 30
0.0
 11
458.1270547508
 21
362.6231983481
 31
0.0
  0
LINE
  5
79
330
75
100
AcDbEntity
  8
$DDT_AUDIT_GENERATED_(77)
  6
Continuous
 62
     7
100
AcDbLine
 10
513.6270547508
 20
402.1231983481
 30
0.0
 11
513.6270547508
 21
363.1231983481
 31
0.0
  0
LINE
  5
7A
330
75
100
AcDbEntity
  8
$DDT_AUDIT_GENERATED_(77)
  6
Continuous
 62
     7
100
AcDbLine
 10
458.1270547508
 20
402.6231983481
 30
0.0
 11
513.1270547508
 21
402.6231983481
 31
0.0
  0
ARC
  5
7B
330
75
100
AcDbEntity
  8
$DDT_AUDIT_GENERATED_(77)
  6
Continuous
 62
     7
100
AcDbCircle
 10
513.1270547508
 20
402.1231983481
 30
0.0
 40
0.5000000000000004
100
AcDbArc
 50
0.0
 51
90.0
  0
ARC
  5
7C
330
75
100
AcDbEntity
  8
$DDT_AUDIT_GENERATED_(77)
  6
Continuous
 62
     7
100
AcDbCircle
 10
458.1270547508
 20
402.1231983481
 30
0.0
 40
0.5000000000000004
100
AcDbArc
 50
90.0
 51
107.4576031237
  0
ARC
  5
7D
330
75
100
AcDbEntity
  8
$DDT_AUDIT_GENERATED_(77)
  6
Continuous
 62
     7
100
AcDbCircle
 10
513.1270547508
 20
363.1231983481
 30
0.0
 40
0.5000000000000004
100
AcDbArc
 50
270.0
 51
0.0
  0
ARC
  5
7E
330
75
100
AcDbEntity
  8
$DDT_AUDIT_GENERATED_(77)
  6
Continuous
 62
     7
100
AcDbCircle
 10
458.1270547508
 20
363.1231983481
 30
0.0
 40
0.5000000000000004
100
AcDbArc
 50
252.5423968763
 51
270.0
  0
LINE
  5
80
330
75
100
AcDbEntity
  8
$DDT_AUDIT_GENERATED_(7F)
  6
Continuous
 62
     7
100
AcDbLine
 10
454.4270547508
 20
324.2231983481
 30
0.0
 11
457.4270547508
 21
324.2231983481
 31
0.0
  0
LINE
  5
81
330
75
100
AcDbEntity
  8
$DDT_AUDIT_GENERATED_(7F)
  6
Continuous
 62
     7
100
AcDbLine
 10
457.9270547508
 20
323.7231983481
 30
0.0
 11
457.9270547508
 21
271.5231983481
 31
0.0
  0
LINE
  5
82
330
75
100
AcDbEntity
  8
$DDT_AUDIT_GENERATED_(7F)
  6
Continuous
 62
     7
100
AcDbLine
 10
457.4270547508
 20
271.0231983481
 30
0.0
 11
454.4270547508
 21
271.0231983481
 31
0.0
  0
ARC
  5
83
330
75
100
AcDbEntity
  8
$DDT_AUDIT_GENERATED_(7F)
  6
Continuous
 62
     7
100
AcDbCircle
 10
457.4270547508
 20
271.5231983481
 30
0.0
 40
0.5000000000000004
100
AcDbArc
 50
270.0
 51
0.0
  0
ARC
  5
84
330
75
100
AcDbEntity
  8
$DDT_AUDIT_GENERATED_(7F)
  6
Continuous
 62
     7
100
AcDbCircle
 10
457.4270547508
 20
323.7231983481
 30
0.0
 40
0.5000000000000004
100
AcDbArc
 50
0.0
 51
90.0
  0
LINE
  5
86
330
75
100
AcDbEntity
  8
$DDT_AUDIT_GENERATED_(85)
  6
Continuous
 62
     7
100
AcDbLine
 10
440.9270547508
 20
240.0731983481
 30
0.0
 11
440.9270547508
 21
435.1731983481
 31
0.0
  0
LINE
  5
87
330
75
100
AcDbEntity
  8
$DDT_AUDIT_GENERATED_(85)
  6
Continuous
 62
     7
100
AcDbLine
 10
440.9270547508
 20
239.3731983481
 30
0.0
 11
440.9270547508
 21
240.0731983481
 31
0.0
  0
LINE
  5
88
330
75
100
AcDbEntity
  8
$DDT_AUDIT_GENERATED_(85)
  6
Continuous
 62
     7
100
AcDbLine
 10
440.9270547508
 20
435.8731983481
 30
0.0
 11
447.4902087297
 21
435.8731983481
 31
0.0
  0
LINE
  5
89
330
75
100
AcDbEntity
  8
$DDT_AUDIT_GENERATED_(85)
  6
Continuous
 62
     7
100
AcDbLine
 10
440.9270547508
 20
435.1731983481
 30
0.0
 11
440.9270547508
 21
435.8731983481
 31
0.0
  0
LINE
  5
8A
330
75
100
AcDbEntity
  8
$DDT_AUDIT_GENERATED_(85)
  6
Continuous
 62
     7
100
AcDbLine
 10
447.9777008711
 20
435.485211396
 30
0.0
 11
454.4110359494
 21
410.684950216
 31
0.0
  0
LINE
  5
8B
330
75
100
AcDbEntity
  8
$DDT_AUDIT_GENERATED_(85)
  6
Continuous
 62
     7
100
AcDbLine
 10
447.9741899283
 20
435.4987459462
 30
0.0
 11
447.9777008711
 21
435.485211396
 31
0.0
  0
LINE
  5
8C
330
75
100
AcDbEntity
  8
$DDT_AUDIT_GENERATED_(85)
  6
Continuous
 62
     7
100
AcDbLine
 10
447.9748451527
 20
239.8248257769
 30
0.0
 11
447.9624077726
 21
239.767385968
 31
0.0
  0
LINE
  5
8D
330
75
100
AcDbEntity
  8
$DDT_AUDIT_GENERATED_(85)
  6
Continuous
 62
     7
100
AcDbLine
 10
447.4737322768
 20
239.3731983481
 30
0.0
 11
440.9270547508
 21
239.3731983481
 31
0.0
  0
ARC
  5
8E
330
75
100
AcDbEntity
  8
$DDT_AUDIT_GENERATED_(85)
  6
Continuous
 62
     7
100
AcDbCircle
 10
447.4902087297
 20
435.3731983481
 30
0.0
 40
0.5000000000000004
100
AcDbArc
 50
14.5423297066
 51
90.0
  0
ARC
  5
8F
330
75
100
AcDbEntity
  8
$DDT_AUDIT_GENERATED_(85)
  6
Continuous
 62
     7
100
AcDbCircle
 10
447.4737322768
 20
239.8731983481
 30
0.0
 40
0.5000000000000084
100
AcDbArc
 50
270.0
 51
347.7824156474
  0
LINE
  5
90
330
75
100
AcDbEntity
  8
$DDT_AUDIT_GENERATED_(85)
  6
Continuous
 62
     7
100
AcDbLine
 10
454.4270547508
 20
410.559402618
 30
0.0
 11
454.4270547508
 21
269.6767105372
 31
0.0
  0
LINE
  5
91
330
75
100
AcDbEntity
  8
$DDT_AUDIT_GENERATED_(85)
  6
Continuous
 62
     7
100
AcDbLine
 10
454.4157302466
 20
269.5708981571
 30
0.0
 11
447.9748451527
 21
239.8248257769
 31
0.0
  0
ARC
  5
92
330
75
100
AcDbEntity
  8
$DDT_AUDIT_GENERATED_(85)
  6
Continuous
 62
     7
100
AcDbCircle
 10
453.9270547508
 20
410.559402618
 30
0.0
 40
0.5000000000000004
100
AcDbArc
 50
0.0
 51
14.5423297066
  0
ARC
  5
93
330
75
100
AcDbEntity
  8
$DDT_AUDIT_GENERATED_(85)
  6
Continuous
 62
     7
100
AcDbCircle
 10
453.9270547508
 20
269.6767105372
 30
0.0
 40
0.5000000000000008
100
AcDbArc
 50
347.7824156474
 51
0.0
  0
LINE
  5
94
330
75
100
AcDbEntity
  8
$DDT_AUDIT_GENERATED_(7F)
  6
Continuous
 62
     7
100
AcDbLine
 10
454.4270547508
 20
409.2231983481
 30
0.0
 11
457.4770547508
 21
409.2231983481
 31
0.0
  0
LINE
  5
95
330
75
100
AcDbEntity
  8
$DDT_AUDIT_GENERATED_(7F)
  6
Continuous
 62
     7
100
AcDbLine
 10
457.9770547508
 20
408.7231983481
 30
0.0
 11
457.9770547508
 21
356.5231983481
 31
0.0
  0
LINE
  5
96
330
75
100
AcDbEntity
  8
$DDT_AUDIT_GENERATED_(7F)
  6
Continuous
 62
     7
100
AcDbLine
 10
457.4770547508
 20
356.0231983481
 30
0.0
 11
454.4270547508
 21
356.0231983481
 31
0.0
  0
ARC
  5
97
330
75
100
AcDbEntity
  8
$DDT_AUDIT_GENERATED_(7F)
  6
Continuous
 62
     7
100
AcDbCircle
 10
457.4770547508
 20
356.5231983481
 30
0.0
 40
0.5000000000000004
100
AcDbArc
 50
270.0
 51
0.0
  0
ARC
  5
98
330
75
100
AcDbEntity
  8
$DDT_AUDIT_GENERATED_(7F)
  6
Continuous
 62
     7
100
AcDbCircle
 10
457.4770547508
 20
408.7231983481
 30
0.0
 40
0.5000000000000004
100
AcDbArc
 50
0.0
 51
90.0
  0
LINE
  5
9A
330
75
100
AcDbEntity
  8
$DDT_AUDIT_GENERATED_(99)
  6
Continuous
 62
     7
100
AcDbLine
 10
513.1270547508
 20
277.6222571764
 30
0.0
 11
458.1270547508
 21
277.6222571764
 31
0.0
  0
LINE
  5
9B
330
75
100
AcDbEntity
  8
$DDT_AUDIT_GENERATED_(99)
  6
Continuous
 62
     7
100
AcDbLine
 10
513.6270547508
 20
317.1222571764
 30
0.0
 11
513.6270547508
 21
278.1222571764
 31
0.0
  0
LINE
  5
9C
330
75
100
AcDbEntity
  8
$DDT_AUDIT_GENERATED_(99)
  6
Continuous
 62
     7
100
AcDbLine
 10
458.1270547508
 20
317.6222571764
 30
0.0
 11
513.1270547508
 21
317.6222571764
 31
0.0
  0
ARC
  5
9D
330
75
100
AcDbEntity
  8
$DDT_AUDIT_GENERATED_(99)
  6
Continuous
 62
     7
100
AcDbCircle
 10
513.1270547508
 20
317.1222571764
 30
0.0
 40
0.5000000000000004
100
AcDbArc
 50
0.0
 51
90.0
  0
ARC
  5
9E
330
75
100
AcDbEntity
  8
$DDT_AUDIT_GENERATED_(99)
  6
Continuous
 62
     7
100
AcDbCircle
 10
458.1270547508
 20
317.1222571764
 30
0.0
 40
0.5000000000000004
100
AcDbArc
 50
90.0
 51
113.5781784782
  0
ARC
  5
9F
330
75
100
AcDbEntity
  8
$DDT_AUDIT_GENERATED_(99)
  6
Continuous
 62
     7
100
AcDbCircle
 10
513.1270547508
 20
278.1222571764
 30
0.0
 40
0.5000000000000004
100
AcDbArc
 50
270.0
 51
0.0
  0
ARC
  5
A0
330
75
100
AcDbEntity
  8
$DDT_AUDIT_GENERATED_(99)
  6
Continuous
 62
     7
100
AcDbCircle
 10
458.1270547508
 20
278.1222571764
 30
0.0
 40
0.5000000000000004
100
AcDbArc
 50
246.4218215218
 51
270.0
  0
ENDBLK
  5
A2
330
75
100
AcDbEntity
  8
0
100
AcDbBlockEnd
  0
BLOCK
  5
1A2
330
A3
100
AcDbEntity
  8
0
100
AcDbBlockBegin
  2
SE1
 70
     0
 10
0.0
 20
0.0
 30
0.0
  3
SE1
  1

  0
LINE
  5
A5
330
A3
100
AcDbEntity
  8
$DDT_AUDIT_GENERATED_(77)
  6
Continuous
 62
     7
100
AcDbLine
 10
256.5872800226
 20
402.1231983481
 30
0.0
 11
256.5872800226
 21
363.1231983481
 31
0.0
  0
LINE
  5
A6
330
A3
100
AcDbEntity
  8
$DDT_AUDIT_GENERATED_(77)
  6
Continuous
 62
     7
100
AcDbLine
 10
256.0872800226
 20
362.6231983481
 30
0.0
 11
217.0872800226
 21
362.6231983481
 31
0.0
  0
LINE
  5
A7
330
A3
100
AcDbEntity
  8
$DDT_AUDIT_GENERATED_(77)
  6
Continuous
 62
     7
100
AcDbLine
 10
256.0872800226
 20
402.1231983481
 30
0.0
 11
217.0872800226
 21
402.1231983481
 31
0.0
  0
LINE
  5
A8
330
A3
100
AcDbEntity
  8
$DDT_AUDIT_GENERATED_(77)
  6
Continuous
 62
     7
100
AcDbLine
 10
217.0872800226
 20
402.1231983481
 30
0.0
 11
217.0872800226
 21
363.1231983481
 31
0.0
  0
LINE
  5
A9
330
A3
100
AcDbEntity
  8
$DDT_AUDIT_GENERATED_(77)
  6
Continuous
 62
     7
100
AcDbLine
 10
256.0872800226
 20
363.1231983481
 30
0.0
 11
256.0872800226
 21
402.1231983481
 31
0.0
  0
LINE
  5
AA
330
A3
100
AcDbEntity
  8
$DDT_AUDIT_GENERATED_(77)
  6
Continuous
 62
     7
100
AcDbLine
 10
217.0872800226
 20
363.1231983481
 30
0.0
 11
256.0872800226
 21
363.1231983481
 31
0.0
  0
LINE
  5
AB
330
A3
100
AcDbEntity
  8
$DDT_AUDIT_GENERATED_(77)
  6
Continuous
 62
     7
100
AcDbLine
 10
216.5872800226
 20
363.1231983481
 30
0.0
 11
216.5872800226
 21
402.1231983481
 31
0.0
  0
LINE
  5
AC
330
A3
100
AcDbEntity
  8
$DDT_AUDIT_GENERATED_(77)
  6
Continuous
 62
     7
100
AcDbLine
 10
217.0872800226
 20
402.6231983481
 30
0.0
 11
256.0872800226
 21
402.6231983481
 31
0.0
  0
ARC
  5
AD
330
A3
100
AcDbEntity
  8
$DDT_AUDIT_GENERATED_(77)
  6
Continuous
 62
     7
100
AcDbCircle
 10
217.0872800226
 20
402.1231983481
 30
0.0
 40
0.5000000000000004
100
AcDbArc
 50
90.0
 51
180.0
  0
LINE
  5
AE
330
A3
100
AcDbEntity
  8
$DDT_AUDIT_GENERATED_(77)
  6
Continuous
 62
     7
100
AcDbLine
 10
217.0872800226
 20
402.1231983481
 30
0.0
 11
216.5872800226
 21
402.1231983481
 31
0.0
  0
LINE
  5
AF
330
A3
100
AcDbEntity
  8
$DDT_AUDIT_GENERATED_(77)
  6
Continuous
 62
     7
100
AcDbLine
 10
217.0872800226
 20
402.6231983481
 30
0.0
 11
217.0872800226
 21
402.1231983481
 31
0.0
  0
ARC
  5
B0
330
A3
100
AcDbEntity
  8
$DDT_AUDIT_GENERATED_(77)
  6
Continuous
 62
     7
100
AcDbCircle
 10
217.0872800226
 20
363.1231983481
 30
0.0
 40
0.5000000000000004
100
AcDbArc
 50
180.0
 51
270.0
  0
LINE
  5
B1
330
A3
100
AcDbEntity
  8
$DDT_AUDIT_GENERATED_(77)
  6
Continuous
 62
     7
100
AcDbLine
 10
217.0872800226
 20
363.1231983481
 30
0.0
 11
216.5872800226
 21
363.1231983481
 31
0.0
  0
LINE
  5
B2
330
A3
100
AcDbEntity
  8
$DDT_AUDIT_GENERATED_(77)
  6
Continuous
 62
     7
100
AcDbLine
 10
256.0872800226
 20
402.6231983481
 30
0.0
 11
256.0872800226
 21
402.1231983481
 31
0.0
  0
ARC
  5
B3
330
A3
100
AcDbEntity
  8
$DDT_AUDIT_GENERATED_(77)
  6
Continuous
 62
     7
100
AcDbCircle
 10
256.0872800226
 20
402.1231983481
 30
0.0
 40
0.5000000000000004
100
AcDbArc
 50
0.0
 51
90.0
  0
LINE
  5
B4
330
A3
100
AcDbEntity
  8
$DDT_AUDIT_GENERATED_(77)
  6
Continuous
 62
     7
100
AcDbLine
 10
217.0872800226
 20
363.1231983481
 30
0.0
 11
217.0872800226
 21
362.6231983481
 31
0.0
  0
LINE
  5
B5
330
A3
100
AcDbEntity
  8
$DDT_AUDIT_GENERATED_(77)
  6
Continuous
 62
     7
100
AcDbLine
 10
256.5872800226
 20
402.1231983481
 30
0.0
 11
256.0872800226
 21
402.1231983481
 31
0.0
  0
LINE
  5
B6
330
A3
100
AcDbEntity
  8
$DDT_AUDIT_GENERATED_(77)
  6
Continuous
 62
     7
100
AcDbLine
 10
256.0872800226
 20
363.1231983481
 30
0.0
 11
256.0872800226
 21
362.6231983481
 31
0.0
  0
LINE
  5
B7
330
A3
100
AcDbEntity
  8
$DDT_AUDIT_GENERATED_(77)
  6
Continuous
 62
     7
100
AcDbLine
 10
256.5872800226
 20
363.1231983481
 30
0.0
 11
256.0872800226
 21
363.1231983481
 31
0.0
  0
ARC
  5
B8
330
A3
100
AcDbEntity
  8
$DDT_AUDIT_GENERATED_(77)
  6
Continuous
 62
     7
100
AcDbCircle
 10
256.0872800226
 20
363.1231983481
 30
0.0
 40
0.5000000000000004
100
AcDbArc
 50
270.0
 51
0.0
  0
LINE
  5
B9
330
A3
100
AcDbEntity
  8
$DDT_AUDIT_GENERATED_(77)
  6
Continuous
 62
     7
100
AcDbLine
 10
255.0283746497
 20
363.8821078334
 30
0.0
 11
218.1461853955
 21
363.8821078334
 31
0.0
  0
LINE
  5
BA
330
A3
100
AcDbEntity
  8
$DDT_AUDIT_GENERATED_(77)
  6
Continuous
 62
     7
100
AcDbLine
 10
218.1461853955
 20
363.8821078334
 30
0.0
 11
218.1383176342
 21
363.8742400721
 31
0.0
  0
LINE
  5
BB
330
A3
100
AcDbEntity
  8
$DDT_AUDIT_GENERATED_(77)
  6
Continuous
 62
     7
100
AcDbLine
 10
217.8461895078
 20
364.182103721
 30
0.0
 11
217.8461895078
 21
401.0642929752
 31
0.0
  0
LINE
  5
BC
330
A3
100
AcDbEntity
  8
$DDT_AUDIT_GENERATED_(77)
  6
Continuous
 62
     7
100
AcDbLine
 10
217.8461895078
 20
401.0642929752
 30
0.0
 11
217.8383217465
 21
401.0721607365
 31
0.0
  0
LINE
  5
BD
330
A3
100
AcDbEntity
  8
$DDT_AUDIT_GENERATED_(77)
  6
Continuous
 62
     7
100
AcDbLine
 10
255.0283746497
 20
401.0642929752
 30
0.0
 11
254.9531657055
 21
401.0642929752
 31
0.0
  0
LINE
  5
BE
330
A3
100
AcDbEntity
  8
$DDT_AUDIT_GENERATED_(77)
  6
Continuous
 62
     7
100
AcDbLine
 10
218.2213943397
 20
401.0642929752
 30
0.0
 11
218.1461853955
 21
401.0642929752
 31
0.0
  0
LINE
  5
BF
330
A3
100
AcDbEntity
  8
$DDT_AUDIT_GENERATED_(77)
  6
Continuous
 62
     7
100
AcDbLine
 10
255.0283746497
 20
364.182103721
 30
0.0
 11
255.0283746497
 21
364.2573126652
 31
0.0
  0
LINE
  5
C0
330
A3
100
AcDbEntity
  8
$DDT_AUDIT_GENERATED_(77)
  6
Continuous
 62
     7
100
AcDbLine
 10
255.0283746497
 20
400.989084031
 30
0.0
 11
255.0283746497
 21
401.0642929752
 31
0.0
  0
LINE
  5
C1
330
A3
100
AcDbEntity
  8
$DDT_AUDIT_GENERATED_(77)
  6
Continuous
 62
     7
100
AcDbLine
 10
218.1461853955
 20
401.0642929752
 30
0.0
 11
218.1461853955
 21
400.989084031
 31
0.0
  0
LINE
  5
C2
330
A3
100
AcDbEntity
  8
$DDT_AUDIT_GENERATED_(77)
  6
Continuous
 62
     7
100
AcDbLine
 10
218.1461853955
 20
364.2573126652
 30
0.0
 11
218.1461853955
 21
364.182103721
 31
0.0
  0
LINE
  5
C3
330
A3
100
AcDbEntity
  8
$DDT_AUDIT_GENERATED_(77)
  6
Continuous
 62
     7
100
AcDbLine
 10
218.1461853955
 20
364.182103721
 30
0.0
 11
218.2213943397
 21
364.182103721
 31
0.0
  0
LINE
  5
C4
330
A3
100
AcDbEntity
  8
$DDT_AUDIT_GENERATED_(77)
  6
Continuous
 62
     7
100
AcDbLine
 10
233.9529108035
 20
364.182103721
 30
0.0
 11
239.2216492416
 21
364.182103721
 31
0.0
  0
LINE
  5
C5
330
A3
100
AcDbEntity
  8
$DDT_AUDIT_GENERATED_(77)
  6
Continuous
 62
     7
100
AcDbLine
 10
254.9531657055
 20
364.182103721
 30
0.0
 11
255.0283746497
 21
364.182103721
 31
0.0
  0
LINE
  5
C6
330
A3
100
AcDbEntity
  8
$DDT_AUDIT_GENERATED_(77)
  6
Continuous
 62
     7
100
AcDbLine
 10
255.3283705373
 20
401.0642929752
 30
0.0
 11
255.3283705373
 21
364.182103721
 31
0.0
  0
LINE
  5
C7
330
A3
100
AcDbEntity
  8
$DDT_AUDIT_GENERATED_(77)
  6
Continuous
 62
     7
100
AcDbLine
 10
255.3283705373
 20
364.182103721
 30
0.0
 11
255.3362382986
 21
364.1742359598
 31
0.0
  0
LINE
  5
C8
330
A3
100
AcDbEntity
  8
$DDT_AUDIT_GENERATED_(77)
  6
Continuous
 62
     7
100
AcDbLine
 10
255.0283746497
 20
401.3642888629
 30
0.0
 11
255.0362424109
 21
401.3721566241
 31
0.0
  0
LINE
  5
C9
330
A3
100
AcDbEntity
  8
$DDT_AUDIT_GENERATED_(77)
  6
Continuous
 62
     7
100
AcDbLine
 10
218.1461853955
 20
401.3642888629
 30
0.0
 11
255.0283746497
 21
401.3642888629
 31
0.0
  0
ARC
  5
CA
330
A3
100
AcDbEntity
  8
$DDT_AUDIT_GENERATED_(77)
  6
Continuous
 62
     7
100
AcDbCircle
 10
255.0283664249
 20
401.0642847505
 30
0.0
 40
0.3000041124948759
100
AcDbArc
 50
0.001570782
 51
89.998429218
  0
LINE
  5
CB
330
A3
100
AcDbEntity
  8
$DDT_AUDIT_GENERATED_(77)
  6
Continuous
 62
     7
100
AcDbLine
 10
255.0283746497
 20
401.0642929752
 30
0.0
 11
255.0283746497
 21
401.3642888629
 31
0.0
  0
LINE
  5
CC
330
A3
100
AcDbEntity
  8
$DDT_AUDIT_GENERATED_(77)
  6
Continuous
 62
     7
100
AcDbLine
 10
255.3283705373
 20
401.0642929752
 30
0.0
 11
255.0283746497
 21
401.0642929752
 31
0.0
  0
ARC
  5
CD
330
A3
100
AcDbEntity
  8
$DDT_AUDIT_GENERATED_(77)
  6
Continuous
 62
     7
100
AcDbCircle
 10
218.1461936202
 20
401.0642847505
 30
0.0
 40
0.3000041124948793
100
AcDbArc
 50
90.001570782
 51
179.998429218
  0
LINE
  5
CE
330
A3
100
AcDbEntity
  8
$DDT_AUDIT_GENERATED_(77)
  6
Continuous
 62
     7
100
AcDbLine
 10
218.1461853955
 20
401.0642929752
 30
0.0
 11
218.1461853955
 21
401.3642888629
 31
0.0
  0
LINE
  5
CF
330
A3
100
AcDbEntity
  8
$DDT_AUDIT_GENERATED_(77)
  6
Continuous
 62
     7
100
AcDbLine
 10
255.3283705373
 20
364.182103721
 30
0.0
 11
255.0283746497
 21
364.182103721
 31
0.0
  0
ARC
  5
D0
330
A3
100
AcDbEntity
  8
$DDT_AUDIT_GENERATED_(77)
  6
Continuous
 62
     7
100
AcDbCircle
 10
255.0283664249
 20
364.1821119457
 30
0.0
 40
0.3000041124948793
100
AcDbArc
 50
270.001570782
 51
359.998429218
  0
LINE
  5
D1
330
A3
100
AcDbEntity
  8
$DDT_AUDIT_GENERATED_(77)
  6
Continuous
 62
     7
100
AcDbLine
 10
218.1461853955
 20
401.0642929752
 30
0.0
 11
217.8461895078
 21
401.0642929752
 31
0.0
  0
LINE
  5
D2
330
A3
100
AcDbEntity
  8
$DDT_AUDIT_GENERATED_(77)
  6
Continuous
 62
     7
100
AcDbLine
 10
255.0283746497
 20
363.8821078334
 30
0.0
 11
255.0283746497
 21
364.182103721
 31
0.0
  0
LINE
  5
D3
330
A3
100
AcDbEntity
  8
$DDT_AUDIT_GENERATED_(77)
  6
Continuous
 62
     7
100
AcDbLine
 10
218.1461853955
 20
364.182103721
 30
0.0
 11
217.8461895078
 21
364.182103721
 31
0.0
  0
LINE
  5
D4
330
A3
100
AcDbEntity
  8
$DDT_AUDIT_GENERATED_(77)
  6
Continuous
 62
     7
100
AcDbLine
 10
218.1461853955
 20
363.8821078334
 30
0.0
 11
218.1461853955
 21
364.182103721
 31
0.0
  0
ARC
  5
D5
330
A3
100
AcDbEntity
  8
$DDT_AUDIT_GENERATED_(77)
  6
Continuous
 62
     7
100
AcDbCircle
 10
218.1461936202
 20
364.1821119457
 30
0.0
 40
0.3000041124948793
100
AcDbArc
 50
180.001570782
 51
269.998429218
  0
LINE
  5
D6
330
A3
100
AcDbEntity
  8
$DDT_AUDIT_GENERATED_(77)
  6
Continuous
 62
     7
100
AcDbLine
 10
217.6383244881
 20
364.1742359598
 30
0.0
 11
217.6383244881
 21
401.0721607365
 31
0.0
  0
ELLIPSE
  5
D7
330
A3
100
AcDbEntity
  8
$DDT_AUDIT_GENERATED_(77)
  6
Continuous
 62
     7
100
AcDbEllipse
 10
218.1383313421
 20
364.1742496676
 30
0.0
 11
0.3535630835045085
 21
0.3535630835045085
 31
0.0
210
0.0
220
0.0
230
1.0
 40
0.9999725851
 41
2.356208197850975
 42
3.926977109328497
  0
ELLIPSE
  5
D8
330
A3
100
AcDbEntity
  8
$DDT_AUDIT_GENERATED_(77)
  6
Continuous
 62
     7
100
AcDbEllipse
 10
218.1383313421
 20
401.0721470286
 30
0.0
 11
0.3535630835045085
 21
-0.3535630835045085
 31
0.0
210
0.0
220
0.0
230
0.9999999999999998
 40
0.9999725851
 41
2.356208197851089
 42
3.926977109328497
  0
LINE
  5
D9
330
A3
100
AcDbEntity
  8
$DDT_AUDIT_GENERATED_(77)
  6
Continuous
 62
     7
100
AcDbLine
 10
255.0362424109
 20
363.6742428136
 30
0.0
 11
218.1383176342
 21
363.6742428136
 31
0.0
  0
LINE
  5
DA
330
A3
100
AcDbEntity
  8
$DDT_AUDIT_GENERATED_(77)
  6
Continuous
 62
     7
100
AcDbLine
 10
218.1383176342
 20
401.5721538826
 30
0.0
 11
255.0362424109
 21
401.5721538826
 31
0.0
  0
ELLIPSE
  5
DB
330
A3
100
AcDbEntity
  8
$DDT_AUDIT_GENERATED_(77)
  6
Continuous
 62
     7
100
AcDbEllipse
 10
255.0362287031
 20
364.1742496676
 30
0.0
 11
-0.3535630835045085
 21
0.3535630835045084
 31
0.0
210
0.0
220
0.0
230
0.9999999999999999
 40
0.9999725851
 41
2.356208197851032
 42
3.926977109328668
  0
ELLIPSE
  5
DC
330
A3
100
AcDbEntity
  8
$DDT_AUDIT_GENERATED_(77)
  6
Continuous
 62
     7
100
AcDbEllipse
 10
255.0362287031
 20
401.0721470286
 30
0.0
 11
-0.3535630835045084
 21
-0.3535630835045086
 31
0.0
210
0.0
220
0.0
230
1.0
 40
0.9999725851
 41
2.356208197851032
 42
3.92697710932844
  0
LINE
  5
DD
330
A3
100
AcDbEntity
  8
$DDT_AUDIT_GENERATED_(77)
  6
Continuous
 62
     7
100
AcDbLine
 10
255.536235557
 20
401.0721607365
 30
0.0
 11
255.536235557
 21
364.1742359598
 31
0.0
  0
LINE
  5
DE
330
A3
100
AcDbEntity
  8
$DDT_AUDIT_GENERATED_(77)
  6
Continuous
 62
     7
100
AcDbLine
 10
255.3362382986
 20
401.0721607365
 30
0.0
 11
255.3283705373
 21
401.0642929752
 31
0.0
  0
LINE
  5
DF
330
A3
100
AcDbEntity
  8
$DDT_AUDIT_GENERATED_(77)
  6
Continuous
 62
     7
100
AcDbLine
 10
255.3362382986
 20
364.1742359598
 30
0.0
 11
255.3362382986
 21
401.0721607365
 31
0.0
  0
ARC
  5
E0
330
A3
100
AcDbEntity
  8
$DDT_AUDIT_GENERATED_(77)
  6
Continuous
 62
     7
100
AcDbCircle
 10
255.0362478935
 20
401.0721662191
 30
0.0
 40
0.2999904050867713
100
AcDbArc
 50
359.9989528599
 51
90.0010471401
  0
LINE
  5
E1
330
A3
100
AcDbEntity
  8
$DDT_AUDIT_GENERATED_(77)
  6
Continuous
 62
     7
100
AcDbLine
 10
255.0362424109
 20
363.8742400721
 30
0.0
 11
255.0283746497
 21
363.8821078334
 31
0.0
  0
ARC
  5
E2
330
A3
100
AcDbEntity
  8
$DDT_AUDIT_GENERATED_(77)
  6
Continuous
 62
     7
100
AcDbCircle
 10
255.0362478935
 20
364.1742304771
 30
0.0
 40
0.2999904050867574
100
AcDbArc
 50
269.9989528599
 51
0.0010471401
  0
LINE
  5
E3
330
A3
100
AcDbEntity
  8
$DDT_AUDIT_GENERATED_(77)
  6
Continuous
 62
     7
100
AcDbLine
 10
218.1383176342
 20
401.3721566241
 30
0.0
 11
218.1461853955
 21
401.3642888629
 31
0.0
  0
LINE
  5
E4
330
A3
100
AcDbEntity
  8
$DDT_AUDIT_GENERATED_(77)
  6
Continuous
 62
     7
100
AcDbLine
 10
255.0362424109
 20
401.3721566241
 30
0.0
 11
218.1383176342
 21
401.3721566241
 31
0.0
  0
LINE
  5
E5
330
A3
100
AcDbEntity
  8
$DDT_AUDIT_GENERATED_(77)
  6
Continuous
 62
     7
100
AcDbLine
 10
218.1383176342
 20
363.8742400721
 30
0.0
 11
255.0362424109
 21
363.8742400721
 31
0.0
  0
ARC
  5
E6
330
A3
100
AcDbEntity
  8
$DDT_AUDIT_GENERATED_(77)
  6
Continuous
 62
     7
100
AcDbCircle
 10
218.1383121516
 20
401.0721662191
 30
0.0
 40
0.2999904050867574
100
AcDbArc
 50
89.9989528599
 51
180.0010471401
  0
LINE
  5
E7
330
A3
100
AcDbEntity
  8
$DDT_AUDIT_GENERATED_(77)
  6
Continuous
 62
     7
100
AcDbLine
 10
217.8383217465
 20
364.1742359598
 30
0.0
 11
217.8461895078
 21
364.182103721
 31
0.0
  0
ARC
  5
E8
330
A3
100
AcDbEntity
  8
$DDT_AUDIT_GENERATED_(77)
  6
Continuous
 62
     7
100
AcDbCircle
 10
218.1383121516
 20
364.1742304771
 30
0.0
 40
0.2999904050867678
100
AcDbArc
 50
179.9989528599
 51
270.0010471401
  0
LINE
  5
E9
330
A3
100
AcDbEntity
  8
$DDT_AUDIT_GENERATED_(77)
  6
Continuous
 62
     7
100
AcDbLine
 10
217.8383217465
 20
401.0721607365
 30
0.0
 11
217.8383217465
 21
364.1742359598
 31
0.0
  0
LINE
  5
EA
330
A3
100
AcDbEntity
  8
$DDT_AUDIT_GENERATED_(77)
  6
Continuous
 62
     7
100
AcDbLine
 10
217.6383244881
 20
401.0721607365
 30
0.0
 11
217.8383217465
 21
401.0721607365
 31
0.0
  0
LINE
  5
EB
330
A3
100
AcDbEntity
  8
$DDT_AUDIT_GENERATED_(77)
  6
Continuous
 62
     7
100
AcDbLine
 10
217.8383217465
 20
364.1742359598
 30
0.0
 11
217.6383244881
 21
364.1742359598
 31
0.0
  0
LINE
  5
EC
330
A3
100
AcDbEntity
  8
$DDT_AUDIT_GENERATED_(77)
  6
Continuous
 62
     7
100
AcDbLine
 10
218.1383176342
 20
401.5721538826
 30
0.0
 11
218.1383176342
 21
401.3721566241
 31
0.0
  0
LINE
  5
ED
330
A3
100
AcDbEntity
  8
$DDT_AUDIT_GENERATED_(77)
  6
Continuous
 62
     7
100
AcDbLine
 10
218.1383176342
 20
363.8742400721
 30
0.0
 11
218.1383176342
 21
363.6742428136
 31
0.0
  0
LINE
  5
EE
330
A3
100
AcDbEntity
  8
$DDT_AUDIT_GENERATED_(77)
  6
Continuous
 62
     7
100
AcDbLine
 10
255.0362424109
 20
401.5721538826
 30
0.0
 11
255.0362424109
 21
401.3721566241
 31
0.0
  0
LINE
  5
EF
330
A3
100
AcDbEntity
  8
$DDT_AUDIT_GENERATED_(77)
  6
Continuous
 62
     7
100
AcDbLine
 10
255.0362424109
 20
363.8742400721
 30
0.0
 11
255.0362424109
 21
363.6742428136
 31
0.0
  0
LINE
  5
F0
330
A3
100
AcDbEntity
  8
$DDT_AUDIT_GENERATED_(77)
  6
Continuous
 62
     7
100
AcDbLine
 10
255.536235557
 20
401.0721607365
 30
0.0
 11
255.3362382986
 21
401.0721607365
 31
0.0
  0
LINE
  5
F1
330
A3
100
AcDbEntity
  8
$DDT_AUDIT_GENERATED_(77)
  6
Continuous
 62
     7
100
AcDbLine
 10
255.3362382986
 20
364.1742359598
 30
0.0
 11
255.536235557
 21
364.1742359598
 31
0.0
  0
LINE
  5
F2
330
A3
100
AcDbEntity
  8
$DDT_AUDIT_GENERATED_(7F)
  6
Continuous
 62
     7
100
AcDbLine
 10
210.4872800226
 20
324.2231983481
 30
0.0
 11
262.6872800226
 21
324.2231983481
 31
0.0
  0
LINE
  5
F3
330
A3
100
AcDbEntity
  8
$DDT_AUDIT_GENERATED_(7F)
  6
Continuous
 62
     7
100
AcDbLine
 10
263.1872800226
 20
323.7231983481
 30
0.0
 11
263.1872800226
 21
271.5231983481
 31
0.0
  0
LINE
  5
F4
330
A3
100
AcDbEntity
  8
$DDT_AUDIT_GENERATED_(7F)
  6
Continuous
 62
     7
100
AcDbLine
 10
210.4872800226
 20
323.7231983481
 30
0.0
 11
210.4872800226
 21
271.5231983481
 31
0.0
  0
LINE
  5
F5
330
A3
100
AcDbEntity
  8
$DDT_AUDIT_GENERATED_(7F)
  6
Continuous
 62
     7
100
AcDbLine
 10
210.4872800226
 20
271.5231983481
 30
0.0
 11
262.6872800226
 21
271.5231983481
 31
0.0
  0
LINE
  5
F6
330
A3
100
AcDbEntity
  8
$DDT_AUDIT_GENERATED_(7F)
  6
Continuous
 62
     7
100
AcDbLine
 10
262.6872800226
 20
323.7231983481
 30
0.0
 11
210.4872800226
 21
323.7231983481
 31
0.0
  0
LINE
  5
F7
330
A3
100
AcDbEntity
  8
$DDT_AUDIT_GENERATED_(7F)
  6
Continuous
 62
     7
100
AcDbLine
 10
262.6872800226
 20
271.5231983481
 30
0.0
 11
262.6872800226
 21
323.7231983481
 31
0.0
  0
LINE
  5
F8
330
A3
100
AcDbEntity
  8
$DDT_AUDIT_GENERATED_(7F)
  6
Continuous
 62
     7
100
AcDbLine
 10
262.6872800226
 20
271.0231983481
 30
0.0
 11
210.4872800226
 21
271.0231983481
 31
0.0
  0
LINE
  5
F9
330
A3
100
AcDbEntity
  8
$DDT_AUDIT_GENERATED_(7F)
  6
Continuous
 62
     7
100
AcDbLine
 10
209.9872800226
 20
271.5231983481
 30
0.0
 11
209.9872800226
 21
323.7231983481
 31
0.0
  0
ARC
  5
FA
330
A3
100
AcDbEntity
  8
$DDT_AUDIT_GENERATED_(7F)
  6
Continuous
 62
     7
100
AcDbCircle
 10
210.4872800226
 20
271.5231983481
 30
0.0
 40
0.5000000000000004
100
AcDbArc
 50
180.0
 51
270.0
  0
ARC
  5
FB
330
A3
100
AcDbEntity
  8
$DDT_AUDIT_GENERATED_(7F)
  6
Continuous
 62
     7
100
AcDbCircle
 10
262.6872800226
 20
271.5231983481
 30
0.0
 40
0.5000000000000004
100
AcDbArc
 50
270.0
 51
0.0
  0
LINE
  5
FC
330
A3
100
AcDbEntity
  8
$DDT_AUDIT_GENERATED_(7F)
  6
Continuous
 62
     7
100
AcDbLine
 10
262.6872800226
 20
271.5231983481
 30
0.0
 11
262.6872800226
 21
271.0231983481
 31
0.0
  0
LINE
  5
FD
330
A3
100
AcDbEntity
  8
$DDT_AUDIT_GENERATED_(7F)
  6
Continuous
 62
     7
100
AcDbLine
 10
209.9872800226
 20
323.7231983481
 30
0.0
 11
210.4872800226
 21
323.7231983481
 31
0.0
  0
ARC
  5
FE
330
A3
100
AcDbEntity
  8
$DDT_AUDIT_GENERATED_(7F)
  6
Continuous
 62
     7
100
AcDbCircle
 10
210.4872800226
 20
323.7231983481
 30
0.0
 40
0.5000000000000004
100
AcDbArc
 50
90.0
 51
180.0
  0
LINE
  5
FF
330
A3
100
AcDbEntity
  8
$DDT_AUDIT_GENERATED_(7F)
  6
Continuous
 62
     7
100
AcDbLine
 10
262.6872800226
 20
271.5231983481
 30
0.0
 11
263.1872800226
 21
271.5231983481
 31
0.0
  0
LINE
  5
100
330
A3
100
AcDbEntity
  8
$DDT_AUDIT_GENERATED_(7F)
  6
Continuous
 62
     7
100
AcDbLine
 10
210.4872800226
 20
324.2231983481
 30
0.0
 11
210.4872800226
 21
323.7231983481
 31
0.0
  0
LINE
  5
101
330
A3
100
AcDbEntity
  8
$DDT_AUDIT_GENERATED_(7F)
  6
Continuous
 62
     7
100
AcDbLine
 10
262.6872800226
 20
323.7231983481
 30
0.0
 11
263.1872800226
 21
323.7231983481
 31
0.0
  0
LINE
  5
102
330
A3
100
AcDbEntity
  8
$DDT_AUDIT_GENERATED_(7F)
  6
Continuous
 62
     7
100
AcDbLine
 10
262.6872800226
 20
324.2231983481
 30
0.0
 11
262.6872800226
 21
323.7231983481
 31
0.0
  0
ARC
  5
103
330
A3
100
AcDbEntity
  8
$DDT_AUDIT_GENERATED_(7F)
  6
Continuous
 62
     7
100
AcDbCircle
 10
262.6872800226
 20
323.7231983481
 30
0.0
 40
0.5000000000000004
100
AcDbArc
 50
0.0
 51
90.0
  0
LINE
  5
105
330
A3
100
AcDbEntity
  8
$DDT_AUDIT_GENERATED_(104)
  6
Continuous
 62
     7
100
AcDbLine
 10
218.3925622405
 20
401.1178704388
 30
0.0
 11
254.7819978047
 21
401.1178704388
 31
0.0
  0
LINE
  5
106
330
A3
100
AcDbEntity
  8
$DDT_AUDIT_GENERATED_(104)
  6
Continuous
 62
     7
100
AcDbLine
 10
255.0819521132
 20
400.8179161302
 30
0.0
 11
255.0819521132
 21
364.428480566
 31
0.0
  0
LINE
  5
107
330
A3
100
AcDbEntity
  8
$DDT_AUDIT_GENERATED_(104)
  6
Continuous
 62
     7
100
AcDbLine
 10
254.7819978047
 20
364.1285262575
 30
0.0
 11
239.4644294936
 21
364.1285262575
 31
0.0
  0
LINE
  5
108
330
A3
100
AcDbEntity
  8
$DDT_AUDIT_GENERATED_(104)
  6
Continuous
 62
     7
100
AcDbLine
 10
218.3925622405
 20
400.8179161302
 30
0.0
 11
218.3925622405
 21
364.428480566
 31
0.0
  0
LINE
  5
109
330
A3
100
AcDbEntity
  8
$DDT_AUDIT_GENERATED_(104)
  6
Continuous
 62
     7
100
AcDbLine
 10
218.3925622405
 20
364.428480566
 30
0.0
 11
233.7101305515
 21
364.428480566
 31
0.0
  0
LINE
  5
10A
330
A3
100
AcDbEntity
  8
$DDT_AUDIT_GENERATED_(104)
  6
Continuous
 62
     7
100
AcDbLine
 10
254.7819978047
 20
400.8179161302
 30
0.0
 11
218.3925622405
 21
400.8179161302
 31
0.0
  0
LINE
  5
10B
330
A3
100
AcDbEntity
  8
$DDT_AUDIT_GENERATED_(104)
  6
Continuous
 62
     7
100
AcDbLine
 10
254.7819978047
 20
364.428480566
 30
0.0
 11
254.7819978047
 21
400.8179161302
 31
0.0
  0
LINE
  5
10C
330
A3
100
AcDbEntity
  8
$DDT_AUDIT_GENERATED_(104)
  6
Continuous
 62
     7
100
AcDbLine
 10
218.0926079319
 20
364.428480566
 30
0.0
 11
218.0926079319
 21
400.8179161302
 31
0.0
  0
LINE
  5
10D
330
A3
100
AcDbEntity
  8
$DDT_AUDIT_GENERATED_(104)
  6
Continuous
 62
     7
100
AcDbLine
 10
218.3925622405
 20
364.428480566
 30
0.0
 11
218.3925622405
 21
364.128480566
 31
0.0
  0
LINE
  5
10E
330
A3
100
AcDbEntity
  8
$DDT_AUDIT_GENERATED_(104)
  6
Continuous
 62
     7
100
AcDbLine
 10
218.0925622405
 20
364.428480566
 30
0.0
 11
218.3925622405
 21
364.428480566
 31
0.0
  0
LINE
  5
10F
330
A3
100
AcDbEntity
  8
$DDT_AUDIT_GENERATED_(104)
  6
Continuous
 62
     7
100
AcDbLine
 10
254.7819978047
 20
364.428480566
 30
0.0
 11
254.7819978047
 21
364.128480566
 31
0.0
  0
LINE
  5
110
330
A3
100
AcDbEntity
  8
$DDT_AUDIT_GENERATED_(104)
  6
Continuous
 62
     7
100
AcDbLine
 10
218.0925622405
 20
400.8179161302
 30
0.0
 11
218.3925622405
 21
400.8179161302
 31
0.0
  0
LINE
  5
111
330
A3
100
AcDbEntity
  8
$DDT_AUDIT_GENERATED_(104)
  6
Continuous
 62
     7
100
AcDbLine
 10
254.7819978047
 20
364.428480566
 30
0.0
 11
255.0819978047
 21
364.428480566
 31
0.0
  0
LINE
  5
112
330
A3
100
AcDbEntity
  8
$DDT_AUDIT_GENERATED_(104)
  6
Continuous
 62
     7
100
AcDbLine
 10
218.3925622405
 20
401.1179161302
 30
0.0
 11
218.3925622405
 21
400.8179161302
 31
0.0
  0
LINE
  5
113
330
A3
100
AcDbEntity
  8
$DDT_AUDIT_GENERATED_(104)
  6
Continuous
 62
     7
100
AcDbLine
 10
254.7819978047
 20
400.8179161302
 30
0.0
 11
255.0819978047
 21
400.8179161302
 31
0.0
  0
LINE
  5
114
330
A3
100
AcDbEntity
  8
$DDT_AUDIT_GENERATED_(104)
  6
Continuous
 62
     7
100
AcDbLine
 10
254.7819978047
 20
401.1179161302
 30
0.0
 11
254.7819978047
 21
400.8179161302
 31
0.0
  0
LINE
  5
115
330
A3
100
AcDbEntity
  8
$DDT_AUDIT_GENERATED_(104)
  6
Continuous
 62
     7
100
AcDbLine
 10
233.7101305515
 20
364.1285262575
 30
0.0
 11
218.3925622405
 21
364.1285262575
 31
0.0
  0
LINE
  5
116
330
A3
100
AcDbEntity
  8
$DDT_AUDIT_GENERATED_(104)
  6
Continuous
 62
     7
100
AcDbLine
 10
239.4644294936
 20
364.428480566
 30
0.0
 11
254.7819978047
 21
364.428480566
 31
0.0
  0
LINE
  5
117
330
A3
100
AcDbEntity
  8
$DDT_AUDIT_GENERATED_(104)
  6
Continuous
 62
     7
100
AcDbLine
 10
239.4644294936
 20
364.428480566
 30
0.0
 11
239.4644294936
 21
364.128480566
 31
0.0
  0
LINE
  5
118
330
A3
100
AcDbEntity
  8
$DDT_AUDIT_GENERATED_(104)
  6
Continuous
 62
     7
100
AcDbLine
 10
233.7101305515
 20
364.128480566
 30
0.0
 11
233.7101305515
 21
364.428480566
 31
0.0
  0
ARC
  5
119
330
A3
100
AcDbEntity
  8
$DDT_AUDIT_GENERATED_(104)
  6
Continuous
 62
     7
100
AcDbCircle
 10
236.5872800226
 20
353.8231983481
 30
0.0
 40
10.98863048791796
100
AcDbArc
 50
74.821344099
 51
105.178655901
  0
LINE
  5
11A
330
A3
100
AcDbEntity
  8
$DDT_AUDIT_GENERATED_(104)
  6
Continuous
 62
     7
100
AcDbLine
 10
233.7101305515
 20
364.428480566
 30
0.0
 11
233.7886794519
 21
364.1389463362
 31
0.0
  0
LINE
  5
11B
330
A3
100
AcDbEntity
  8
$DDT_AUDIT_GENERATED_(104)
  6
Continuous
 62
     7
100
AcDbLine
 10
239.4644294936
 20
364.428480566
 30
0.0
 11
239.3858805933
 21
364.1389463362
 31
0.0
  0
ARC
  5
11C
330
A3
100
AcDbEntity
  8
$DDT_AUDIT_GENERATED_(104)
  6
Continuous
 62
     7
100
AcDbCircle
 10
218.3925622405
 20
364.428480566
 30
0.0
 40
0.3000000000000017
100
AcDbArc
 50
180.0
 51
270.0
  0
ARC
  5
11D
330
A3
100
AcDbEntity
  8
$DDT_AUDIT_GENERATED_(104)
  6
Continuous
 62
     7
100
AcDbCircle
 10
254.7819978047
 20
364.428480566
 30
0.0
 40
0.2999999999999947
100
AcDbArc
 50
270.0
 51
0.0
  0
ARC
  5
11E
330
A3
100
AcDbEntity
  8
$DDT_AUDIT_GENERATED_(104)
  6
Continuous
 62
     7
100
AcDbCircle
 10
218.3925622405
 20
400.8179161302
 30
0.0
 40
0.2999999999999947
100
AcDbArc
 50
90.0
 51
180.0
  0
ARC
  5
11F
330
A3
100
AcDbEntity
  8
$DDT_AUDIT_GENERATED_(104)
  6
Continuous
 62
     7
100
AcDbCircle
 10
254.7819978047
 20
400.8179161302
 30
0.0
 40
0.3000000000000017
100
AcDbArc
 50
0.0
 51
90.0
  0
ARC
  5
120
330
A3
100
AcDbEntity
  8
$DDT_AUDIT_GENERATED_(104)
  6
Continuous
 62
     7
100
AcDbCircle
 10
233.7101305515
 20
364.428480566
 30
0.0
 40
0.2999999999999947
100
AcDbArc
 50
270.0
 51
285.178655901
  0
ARC
  5
121
330
A3
100
AcDbEntity
  8
$DDT_AUDIT_GENERATED_(104)
  6
Continuous
 62
     7
100
AcDbCircle
 10
236.5872800226
 20
353.8231983481
 30
0.0
 40
10.68863048791796
100
AcDbArc
 50
90.0
 51
105.178655901
  0
ARC
  5
122
330
A3
100
AcDbEntity
  8
$DDT_AUDIT_GENERATED_(104)
  6
Continuous
 62
     7
100
AcDbCircle
 10
236.5872800226
 20
353.8231983481
 30
0.0
 40
10.68863048791797
100
AcDbArc
 50
74.821344099
 51
90.0
  0
ARC
  5
123
330
A3
100
AcDbEntity
  8
$DDT_AUDIT_GENERATED_(104)
  6
Continuous
 62
     7
100
AcDbCircle
 10
239.4644294936
 20
364.428480566
 30
0.0
 40
0.2999999999999907
100
AcDbArc
 50
254.821344099
 51
270.0
  0
LINE
  5
124
330
A3
100
AcDbEntity
  8
$DDT_AUDIT_GENERATED_(104)
  6
Continuous
 62
     7
100
AcDbLine
 10
218.3933519773
 20
316.116929267
 30
0.0
 11
254.7827875415
 21
316.116929267
 31
0.0
  0
LINE
  5
125
330
A3
100
AcDbEntity
  8
$DDT_AUDIT_GENERATED_(104)
  6
Continuous
 62
     7
100
AcDbLine
 10
255.0827418501
 20
315.8169749585
 30
0.0
 11
255.0827418501
 21
279.4275393943
 31
0.0
  0
LINE
  5
126
330
A3
100
AcDbEntity
  8
$DDT_AUDIT_GENERATED_(104)
  6
Continuous
 62
     7
100
AcDbLine
 10
254.7827875415
 20
279.1275850857
 30
0.0
 11
239.4652192305
 21
279.1275850857
 31
0.0
  0
LINE
  5
127
330
A3
100
AcDbEntity
  8
$DDT_AUDIT_GENERATED_(104)
  6
Continuous
 62
     7
100
AcDbLine
 10
218.0933976688
 20
279.4275393943
 30
0.0
 11
218.0933976688
 21
315.8169749585
 31
0.0
  0
LINE
  5
128
330
A3
100
AcDbEntity
  8
$DDT_AUDIT_GENERATED_(104)
  6
Continuous
 62
     7
100
AcDbLine
 10
233.7109202884
 20
279.1275850857
 30
0.0
 11
218.3933519773
 21
279.1275850857
 31
0.0
  0
ARC
  5
129
330
A3
100
AcDbEntity
  8
$DDT_AUDIT_GENERATED_(104)
  6
Continuous
 62
     7
100
AcDbCircle
 10
218.3933519773
 20
279.4275393943
 30
0.0
 40
0.3000000000000017
100
AcDbArc
 50
180.0
 51
270.0
  0
ARC
  5
12A
330
A3
100
AcDbEntity
  8
$DDT_AUDIT_GENERATED_(104)
  6
Continuous
 62
     7
100
AcDbCircle
 10
254.7827875415
 20
279.4275393943
 30
0.0
 40
0.3000000000000017
100
AcDbArc
 50
270.0
 51
0.0
  0
ARC
  5
12B
330
A3
100
AcDbEntity
  8
$DDT_AUDIT_GENERATED_(104)
  6
Continuous
 62
     7
100
AcDbCircle
 10
218.3933519773
 20
315.8169749585
 30
0.0
 40
0.3000000000000017
100
AcDbArc
 50
90.0
 51
180.0
  0
ARC
  5
12C
330
A3
100
AcDbEntity
  8
$DDT_AUDIT_GENERATED_(104)
  6
Continuous
 62
     7
100
AcDbCircle
 10
254.7827875415
 20
315.8169749585
 30
0.0
 40
0.3000000000000017
100
AcDbArc
 50
0.0
 51
90.0
  0
ARC
  5
12D
330
A3
100
AcDbEntity
  8
$DDT_AUDIT_GENERATED_(104)
  6
Continuous
 62
     7
100
AcDbCircle
 10
233.7109202884
 20
279.4275393943
 30
0.0
 40
0.3000000000000017
100
AcDbArc
 50
270.0
 51
285.178655901
  0
ARC
  5
12E
330
A3
100
AcDbEntity
  8
$DDT_AUDIT_GENERATED_(104)
  6
Continuous
 62
     7
100
AcDbCircle
 10
236.5880697594
 20
268.8222571764
 30
0.0
 40
10.68863048791795
100
AcDbArc
 50
90.0
 51
105.178655901
  0
ARC
  5
12F
330
A3
100
AcDbEntity
  8
$DDT_AUDIT_GENERATED_(104)
  6
Continuous
 62
     7
100
AcDbCircle
 10
236.5880697594
 20
268.8222571764
 30
0.0
 40
10.68863048791796
100
AcDbArc
 50
74.821344099
 51
90.0
  0
ARC
  5
130
330
A3
100
AcDbEntity
  8
$DDT_AUDIT_GENERATED_(104)
  6
Continuous
 62
     7
100
AcDbCircle
 10
239.4652192305
 20
279.4275393943
 30
0.0
 40
0.3000000000000007
100
AcDbArc
 50
254.821344099
 51
270.0
  0
LINE
  5
131
330
A3
100
AcDbEntity
  8
$DDT_AUDIT_GENERATED_(85)
  6
Continuous
 62
     7
100
AcDbLine
 10
322.8372800226
 20
435.1731983481
 30
0.0
 11
322.8372800226
 21
240.0731983481
 31
0.0
  0
LINE
  5
132
330
A3
100
AcDbEntity
  8
$DDT_AUDIT_GENERATED_(85)
  6
Continuous
 62
     7
100
AcDbLine
 10
322.2648189218
 20
435.3596637979
 30
0.0
 11
264.3648032165
 21
410.559402618
 31
0.0
  0
ARC
  5
133
330
A3
100
AcDbEntity
  8
$DDT_AUDIT_GENERATED_(85)
  6
Continuous
 62
     7
100
AcDbCircle
 10
322.1372800226
 20
435.1731983481
 30
0.0
 40
0.700000000000145
100
AcDbArc
 50
68.8005462711
 51
90.0
  0
ARC
  5
134
330
A3
100
AcDbEntity
  8
$DDT_AUDIT_GENERATED_(85)
  6
Continuous
 62
     7
100
AcDbCircle
 10
322.1372800226
 20
435.1731983481
 30
0.0
 40
0.7000000000000091
100
AcDbArc
 50
0.0
 51
68.8005462711
  0
ARC
  5
135
330
A3
100
AcDbEntity
  8
$DDT_AUDIT_GENERATED_(85)
  6
Continuous
 62
     7
100
AcDbCircle
 10
322.1372800226
 20
240.0731983481
 30
0.0
 40
0.6999999999999751
100
AcDbArc
 50
270.0
 51
314.5367318562
  0
ARC
  5
136
330
A3
100
AcDbEntity
  8
$DDT_AUDIT_GENERATED_(85)
  6
Continuous
 62
     7
100
AcDbCircle
 10
322.1372800226
 20
240.0731983481
 30
0.0
 40
0.6999999999999923
100
AcDbArc
 50
314.5367318562
 51
0.0
  0
LINE
  5
137
330
A3
100
AcDbEntity
  8
$DDT_AUDIT_GENERATED_(85)
  6
Continuous
 62
     7
100
AcDbLine
 10
322.2775532984
 20
239.8248257769
 30
0.0
 11
264.3095874535
 21
269.5708981571
 31
0.0
  0
LINE
  5
138
330
A3
100
AcDbEntity
  8
$DDT_AUDIT_GENERATED_(85)
  6
Continuous
 62
     7
100
AcDbLine
 10
150.9649568863
 20
435.485211396
 30
0.0
 11
208.8649725916
 21
410.684950216
 31
0.0
  0
LINE
  5
139
330
A3
100
AcDbEntity
  8
$DDT_AUDIT_GENERATED_(85)
  6
Continuous
 62
     7
100
AcDbLine
 10
151.0372800226
 20
435.8731983481
 30
0.0
 11
322.1372800226
 21
435.8731983481
 31
0.0
  0
LINE
  5
13A
330
A3
100
AcDbEntity
  8
$DDT_AUDIT_GENERATED_(85)
  6
Continuous
 62
     7
100
AcDbLine
 10
322.1372800226
 20
239.3731983481
 30
0.0
 11
151.0372800226
 21
239.3731983481
 31
0.0
  0
ARC
  5
13B
330
A3
100
AcDbEntity
  8
$DDT_AUDIT_GENERATED_(85)
  6
Continuous
 62
     7
100
AcDbCircle
 10
151.0372800226
 20
435.1731983481
 30
0.0
 40
0.6999999999999923
100
AcDbArc
 50
111.1994537289
 51
180.0
  0
ARC
  5
13C
330
A3
100
AcDbEntity
  8
$DDT_AUDIT_GENERATED_(85)
  6
Continuous
 62
     7
100
AcDbCircle
 10
151.0372800226
 20
435.1731983481
 30
0.0
 40
0.6999999999998144
100
AcDbArc
 50
90.0
 51
111.1994537289
  0
ARC
  5
13D
330
A3
100
AcDbEntity
  8
$DDT_AUDIT_GENERATED_(85)
  6
Continuous
 62
     7
100
AcDbCircle
 10
151.0372800226
 20
240.0731983481
 30
0.0
 40
0.7000000000000043
100
AcDbArc
 50
180.0
 51
225.4632681438
  0
ARC
  5
13E
330
A3
100
AcDbEntity
  8
$DDT_AUDIT_GENERATED_(85)
  6
Continuous
 62
     7
100
AcDbCircle
 10
151.0372800226
 20
240.0731983481
 30
0.0
 40
0.7000000000000062
100
AcDbArc
 50
225.4632681438
 51
270.0
  0
LINE
  5
13F
330
A3
100
AcDbEntity
  8
$DDT_AUDIT_GENERATED_(85)
  6
Continuous
 62
     7
100
AcDbLine
 10
150.8417909837
 20
239.930638157
 30
0.0
 11
208.8097568286
 21
269.6767105372
 31
0.0
  0
LINE
  5
140
330
A3
100
AcDbEntity
  8
$DDT_AUDIT_GENERATED_(85)
  6
Continuous
 62
     7
100
AcDbLine
 10
150.7820642595
 20
435.1731983481
 30
0.0
 11
150.7820642595
 21
240.0731983481
 31
0.0
  0
LINE
  5
141
330
A3
100
AcDbEntity
  8
$DDT_AUDIT_GENERATED_(85)
  6
Continuous
 62
     7
100
AcDbLine
 10
150.3372800226
 20
240.0731983481
 30
0.0
 11
150.3372800226
 21
435.1731983481
 31
0.0
  0
LINE
  5
142
330
A3
100
AcDbEntity
  8
$DDT_AUDIT_GENERATED_(85)
  6
Continuous
 62
     7
100
AcDbLine
 10
264.3095874535
 20
269.6767105372
 30
0.0
 11
264.3095874535
 21
410.559402618
 31
0.0
  0
LINE
  5
143
330
A3
100
AcDbEntity
  8
$DDT_AUDIT_GENERATED_(85)
  6
Continuous
 62
     7
100
AcDbLine
 10
208.8649725916
 20
269.6767105372
 30
0.0
 11
264.3095874535
 21
269.6767105372
 31
0.0
  0
LINE
  5
144
330
A3
100
AcDbEntity
  8
$DDT_AUDIT_GENERATED_(85)
  6
Continuous
 62
     7
100
AcDbLine
 10
264.3095874535
 20
410.559402618
 30
0.0
 11
208.8649725916
 21
410.559402618
 31
0.0
  0
LINE
  5
145
330
A3
100
AcDbEntity
  8
$DDT_AUDIT_GENERATED_(85)
  6
Continuous
 62
     7
100
AcDbLine
 10
208.8649725916
 20
410.559402618
 30
0.0
 11
208.8649725916
 21
269.6767105372
 31
0.0
  0
LINE
  5
146
330
A3
100
AcDbEntity
  8
$DDT_AUDIT_GENERATED_(85)
  6
Continuous
 62
     7
100
AcDbLine
 10
208.8097568286
 20
410.559402618
 30
0.0
 11
150.9097411233
 21
435.3596637979
 31
0.0
  0
LINE
  5
147
330
A3
100
AcDbEntity
  8
$DDT_AUDIT_GENERATED_(85)
  6
Continuous
 62
     7
100
AcDbLine
 10
208.8097568286
 20
269.6767105372
 30
0.0
 11
208.8097568286
 21
410.559402618
 31
0.0
  0
ELLIPSE
  5
148
330
A3
100
AcDbEntity
  8
$DDT_AUDIT_GENERATED_(85)
  6
Continuous
 62
     7
100
AcDbEllipse
 10
208.8649725916
 20
410.559402618
 30
0.0
 11
-0.1968655475966564
 21
-0.4596128329038274
 31
0.0
210
0.0
220
0.0
230
1.0
 40
0.1016075851
 41
4.479475665524314
 42
4.755883017964921
  0
LINE
  5
149
330
A3
100
AcDbEntity
  8
$DDT_AUDIT_GENERATED_(85)
  6
Continuous
 62
     7
100
AcDbLine
 10
208.8649725916
 20
269.5708981571
 30
0.0
 11
150.8970067467
 21
239.8248257769
 31
0.0
  0
LINE
  5
14A
330
A3
100
AcDbEntity
  8
$DDT_AUDIT_GENERATED_(85)
  6
Continuous
 62
     7
100
AcDbLine
 10
264.3095874535
 20
410.684950216
 30
0.0
 11
322.2096031588
 21
435.485211396
 31
0.0
  0
LINE
  5
14B
330
A3
100
AcDbEntity
  8
$DDT_AUDIT_GENERATED_(85)
  6
Continuous
 62
     7
100
AcDbLine
 10
208.8649725916
 20
410.684950216
 30
0.0
 11
264.3095874535
 21
410.684950216
 31
0.0
  0
LINE
  5
14C
330
A3
100
AcDbEntity
  8
$DDT_AUDIT_GENERATED_(85)
  6
Continuous
 62
     7
100
AcDbLine
 10
264.3095874535
 20
269.5708981571
 30
0.0
 11
208.8649725916
 21
269.5708981571
 31
0.0
  0
ELLIPSE
  5
14D
330
A3
100
AcDbEntity
  8
$DDT_AUDIT_GENERATED_(85)
  6
Continuous
 62
     7
100
AcDbEllipse
 10
264.3095874535
 20
410.559402618
 30
0.0
 11
-0.1968655475965385
 21
0.4596128329037164
 31
0.0
210
0.0
220
0.0
230
1.0
 40
0.1016075851
 41
4.668894942804899
 42
4.945302295245601
  0
LINE
  5
14E
330
A3
100
AcDbEntity
  8
$DDT_AUDIT_GENERATED_(85)
  6
Continuous
 62
     7
100
AcDbLine
 10
264.3648032165
 20
269.6767105372
 30
0.0
 11
322.3327690615
 21
239.930638157
 31
0.0
  0
ELLIPSE
  5
14F
330
A3
100
AcDbEntity
  8
$DDT_AUDIT_GENERATED_(85)
  6
Continuous
 62
     7
100
AcDbEllipse
 10
264.3095874535
 20
269.6767105372
 30
0.0
 11
0.2282732183215772
 21
0.4448497923986057
 31
0.0
210
0.0
220
0.0
230
0.9999999999999999
 40
0.0983759927
 41
4.52297594446712
 42
4.762827483670397
  0
LINE
  5
150
330
A3
100
AcDbEntity
  8
$DDT_AUDIT_GENERATED_(85)
  6
Continuous
 62
     7
100
AcDbLine
 10
264.3648032165
 20
410.559402618
 30
0.0
 11
264.3648032165
 21
269.6767105372
 31
0.0
  0
LINE
  5
151
330
A3
100
AcDbEntity
  8
$DDT_AUDIT_GENERATED_(85)
  6
Continuous
 62
     7
100
AcDbLine
 10
264.3095874535
 20
410.559402618
 30
0.0
 11
264.3648032165
 21
410.559402618
 31
0.0
  0
LINE
  5
152
330
A3
100
AcDbEntity
  8
$DDT_AUDIT_GENERATED_(85)
  6
Continuous
 62
     7
100
AcDbLine
 10
264.3648032165
 20
269.6767105372
 30
0.0
 11
264.3095874535
 21
269.6767105372
 31
0.0
  0
LINE
  5
153
330
A3
100
AcDbEntity
  8
$DDT_AUDIT_GENERATED_(85)
  6
Continuous
 62
     7
100
AcDbLine
 10
264.3095874535
 20
410.559402618
 30
0.0
 11
264.3095874535
 21
410.684950216
 31
0.0
  0
LINE
  5
154
330
A3
100
AcDbEntity
  8
$DDT_AUDIT_GENERATED_(85)
  6
Continuous
 62
     7
100
AcDbLine
 10
264.3095874535
 20
269.5708981571
 30
0.0
 11
264.3095874535
 21
269.6767105372
 31
0.0
  0
LINE
  5
155
330
A3
100
AcDbEntity
  8
$DDT_AUDIT_GENERATED_(85)
  6
Continuous
 62
     7
100
AcDbLine
 10
208.8649725916
 20
410.559402618
 30
0.0
 11
208.8649725916
 21
410.684950216
 31
0.0
  0
LINE
  5
156
330
A3
100
AcDbEntity
  8
$DDT_AUDIT_GENERATED_(85)
  6
Continuous
 62
     7
100
AcDbLine
 10
208.8649725916
 20
410.559402618
 30
0.0
 11
208.8097568286
 21
410.559402618
 31
0.0
  0
LINE
  5
157
330
A3
100
AcDbEntity
  8
$DDT_AUDIT_GENERATED_(85)
  6
Continuous
 62
     7
100
AcDbLine
 10
209.6090988537
 20
271.1443319467
 30
0.0
 11
209.6090988537
 21
324.1020647496
 31
0.0
  0
LINE
  5
158
330
A3
100
AcDbEntity
  8
$DDT_AUDIT_GENERATED_(85)
  6
Continuous
 62
     7
100
AcDbLine
 10
210.042903897
 20
270.5795074552
 30
0.0
 11
263.1316561481
 21
270.5795074552
 31
0.0
  0
ELLIPSE
  5
159
330
A3
100
AcDbEntity
  8
$DDT_AUDIT_GENERATED_(85)
  6
Continuous
 62
     7
100
AcDbEllipse
 10
210.0442753026
 20
271.0801936282
 30
0.0
 11
0.3545231217175337
 21
0.3545231217175331
 31
0.0
210
0.0
220
0.0
230
0.9999999999999998
 40
0.9972646886
 41
2.357564018062717
 42
3.925621289116984
  0
ELLIPSE
  5
15A
330
A3
100
AcDbEntity
  8
$DDT_AUDIT_GENERATED_(85)
  6
Continuous
 62
     7
100
AcDbEllipse
 10
210.1097850267
 20
271.1457033523
 30
0.0
 11
0.3545231217175337
 21
0.3545231217175331
 31
0.0
210
0.0
220
0.0
230
0.9999999999999998
 40
0.9972646886
 41
2.357564018062603
 42
3.925621289116927
  0
LINE
  5
15B
330
A3
100
AcDbEntity
  8
$DDT_AUDIT_GENERATED_(85)
  6
Continuous
 62
     7
100
AcDbLine
 10
210.1084136211
 20
409.601379517
 30
0.0
 11
263.066146424
 21
409.601379517
 31
0.0
  0
LINE
  5
15C
330
A3
100
AcDbEntity
  8
$DDT_AUDIT_GENERATED_(85)
  6
Continuous
 62
     7
100
AcDbLine
 10
209.5435891296
 20
409.1675744737
 30
0.0
 11
209.5435891296
 21
356.0788222225
 31
0.0
  0
ELLIPSE
  5
15D
330
A3
100
AcDbEntity
  8
$DDT_AUDIT_GENERATED_(85)
  6
Continuous
 62
     7
100
AcDbEllipse
 10
210.0442753026
 20
409.1662030681
 30
0.0
 11
0.3545231217175331
 21
-0.3545231217175337
 31
0.0
210
0.0
220
0.0
230
0.9999999999999998
 40
0.9972646886
 41
2.357564018062774
 42
3.925621289116814
  0
ELLIPSE
  5
15E
330
A3
100
AcDbEntity
  8
$DDT_AUDIT_GENERATED_(85)
  6
Continuous
 62
     7
100
AcDbEllipse
 10
210.1097850267
 20
409.100693344
 30
0.0
 11
0.3545231217175331
 21
-0.3545231217175337
 31
0.0
210
0.0
220
0.0
230
0.9999999999999998
 40
0.9972646886
 41
2.357564018062774
 42
3.925621289116757
  0
LINE
  5
15F
330
A3
100
AcDbEntity
  8
$DDT_AUDIT_GENERATED_(85)
  6
Continuous
 62
     7
100
AcDbLine
 10
263.5654611914
 20
409.1020647496
 30
0.0
 11
263.5654611914
 21
356.1443319467
 31
0.0
  0
LINE
  5
160
330
A3
100
AcDbEntity
  8
$DDT_AUDIT_GENERATED_(85)
  6
Continuous
 62
     7
100
AcDbLine
 10
263.1316561481
 20
409.6668892411
 30
0.0
 11
210.042903897
 21
409.6668892411
 31
0.0
  0
ELLIPSE
  5
161
330
A3
100
AcDbEntity
  8
$DDT_AUDIT_GENERATED_(85)
  6
Continuous
 62
     7
100
AcDbEllipse
 10
263.1302847425
 20
409.1662030681
 30
0.0
 11
-0.3545231217175337
 21
-0.3545231217175331
 31
0.0
210
0.0
220
0.0
230
0.9999999999999998
 40
0.9972646886
 41
2.357564018062603
 42
3.925621289116984
  0
ELLIPSE
  5
162
330
A3
100
AcDbEntity
  8
$DDT_AUDIT_GENERATED_(85)
  6
Continuous
 62
     7
100
AcDbEllipse
 10
263.0647750184
 20
409.100693344
 30
0.0
 11
-0.3545231217175337
 21
-0.3545231217175331
 31
0.0
210
0.0
220
0.0
230
0.9999999999999998
 40
0.9972646886
 41
2.357564018062717
 42
3.925621289116757
  0
LINE
  5
163
330
A3
100
AcDbEntity
  8
$DDT_AUDIT_GENERATED_(85)
  6
Continuous
 62
     7
100
AcDbLine
 10
263.066146424
 20
355.6450171793
 30
0.0
 11
210.1084136211
 21
355.6450171793
 31
0.0
  0
LINE
  5
164
330
A3
100
AcDbEntity
  8
$DDT_AUDIT_GENERATED_(85)
  6
Continuous
 62
     7
100
AcDbLine
 10
263.6309709155
 20
356.0788222225
 30
0.0
 11
263.6309709155
 21
409.1675744737
 31
0.0
  0
ELLIPSE
  5
165
330
A3
100
AcDbEntity
  8
$DDT_AUDIT_GENERATED_(85)
  6
Continuous
 62
     7
100
AcDbEllipse
 10
263.1302847425
 20
356.0801936282
 30
0.0
 11
-0.3545231217175331
 21
0.3545231217175337
 31
0.0
210
0.0
220
0.0
230
0.9999999999999998
 40
0.9972646886
 41
2.357564018062717
 42
3.925621289116871
  0
ELLIPSE
  5
166
330
A3
100
AcDbEntity
  8
$DDT_AUDIT_GENERATED_(85)
  6
Continuous
 62
     7
100
AcDbEllipse
 10
263.0647750184
 20
356.1457033523
 30
0.0
 11
-0.3545231217175331
 21
0.3545231217175337
 31
0.0
210
0.0
220
0.0
230
0.9999999999999998
 40
0.9972646886
 41
2.357564018062831
 42
3.925621289116984
  0
LINE
  5
167
330
A3
100
AcDbEntity
  8
$DDT_AUDIT_GENERATED_(85)
  6
Continuous
 62
     7
100
AcDbLine
 10
209.6090988537
 20
356.1443319467
 30
0.0
 11
209.6090988537
 21
409.1020647496
 31
0.0
  0
LINE
  5
168
330
A3
100
AcDbEntity
  8
$DDT_AUDIT_GENERATED_(85)
  6
Continuous
 62
     7
100
AcDbLine
 10
210.042903897
 20
355.5795074552
 30
0.0
 11
263.1316561481
 21
355.5795074552
 31
0.0
  0
ELLIPSE
  5
169
330
A3
100
AcDbEntity
  8
$DDT_AUDIT_GENERATED_(85)
  6
Continuous
 62
     7
100
AcDbEllipse
 10
210.0442753026
 20
356.0801936282
 30
0.0
 11
0.3545231217175337
 21
0.3545231217175331
 31
0.0
210
0.0
220
0.0
230
0.9999999999999998
 40
0.9972646886
 41
2.357564018062887
 42
3.925621289116814
  0
ELLIPSE
  5
16A
330
A3
100
AcDbEntity
  8
$DDT_AUDIT_GENERATED_(85)
  6
Continuous
 62
     7
100
AcDbEllipse
 10
210.1097850267
 20
356.1457033523
 30
0.0
 11
0.3545231217175337
 21
0.3545231217175331
 31
0.0
210
0.0
220
0.0
230
0.9999999999999998
 40
0.9972646886
 41
2.357564018062887
 42
3.925621289116757
  0
LINE
  5
16B
330
A3
100
AcDbEntity
  8
$DDT_AUDIT_GENERATED_(85)
  6
Continuous
 62
     7
100
AcDbLine
 10
210.1084136211
 20
324.601379517
 30
0.0
 11
263.066146424
 21
324.601379517
 31
0.0
  0
LINE
  5
16C
330
A3
100
AcDbEntity
  8
$DDT_AUDIT_GENERATED_(85)
  6
Continuous
 62
     7
100
AcDbLine
 10
209.5435891296
 20
324.1675744737
 30
0.0
 11
209.5435891296
 21
271.0788222225
 31
0.0
  0
ELLIPSE
  5
16D
330
A3
100
AcDbEntity
  8
$DDT_AUDIT_GENERATED_(85)
  6
Continuous
 62
     7
100
AcDbEllipse
 10
210.0442753026
 20
324.1662030681
 30
0.0
 11
0.3545231217175331
 21
-0.3545231217175337
 31
0.0
210
0.0
220
0.0
230
0.9999999999999998
 40
0.9972646886
 41
2.357564018062887
 42
3.925621289116814
  0
ELLIPSE
  5
16E
330
A3
100
AcDbEntity
  8
$DDT_AUDIT_GENERATED_(85)
  6
Continuous
 62
     7
100
AcDbEllipse
 10
210.1097850267
 20
324.100693344
 30
0.0
 11
0.3545231217175331
 21
-0.3545231217175337
 31
0.0
210
0.0
220
0.0
230
0.9999999999999998
 40
0.9972646886
 41
2.357564018062831
 42
3.925621289116871
  0
LINE
  5
16F
330
A3
100
AcDbEntity
  8
$DDT_AUDIT_GENERATED_(85)
  6
Continuous
 62
     7
100
AcDbLine
 10
263.5654611914
 20
324.1020647496
 30
0.0
 11
263.5654611914
 21
271.1443319467
 31
0.0
  0
LINE
  5
170
330
A3
100
AcDbEntity
  8
$DDT_AUDIT_GENERATED_(85)
  6
Continuous
 62
     7
100
AcDbLine
 10
263.1316561481
 20
324.6668892411
 30
0.0
 11
210.042903897
 21
324.6668892411
 31
0.0
  0
ELLIPSE
  5
171
330
A3
100
AcDbEntity
  8
$DDT_AUDIT_GENERATED_(85)
  6
Continuous
 62
     7
100
AcDbEllipse
 10
263.1302847425
 20
324.1662030681
 30
0.0
 11
-0.3545231217175337
 21
-0.3545231217175331
 31
0.0
210
0.0
220
0.0
230
0.9999999999999998
 40
0.9972646886
 41
2.357564018062831
 42
3.925621289116871
  0
ELLIPSE
  5
172
330
A3
100
AcDbEntity
  8
$DDT_AUDIT_GENERATED_(85)
  6
Continuous
 62
     7
100
AcDbEllipse
 10
263.0647750184
 20
324.100693344
 30
0.0
 11
-0.3545231217175337
 21
-0.3545231217175331
 31
0.0
210
0.0
220
0.0
230
0.9999999999999998
 40
0.9972646886
 41
2.357564018062717
 42
3.925621289116757
  0
LINE
  5
173
330
A3
100
AcDbEntity
  8
$DDT_AUDIT_GENERATED_(85)
  6
Continuous
 62
     7
100
AcDbLine
 10
263.066146424
 20
270.6450171793
 30
0.0
 11
210.1084136211
 21
270.6450171793
 31
0.0
  0
LINE
  5
174
330
A3
100
AcDbEntity
  8
$DDT_AUDIT_GENERATED_(85)
  6
Continuous
 62
     7
100
AcDbLine
 10
263.6309709155
 20
271.0788222225
 30
0.0
 11
263.6309709155
 21
324.1675744737
 31
0.0
  0
ELLIPSE
  5
175
330
A3
100
AcDbEntity
  8
$DDT_AUDIT_GENERATED_(85)
  6
Continuous
 62
     7
100
AcDbEllipse
 10
263.1302847425
 20
271.0801936282
 30
0.0
 11
-0.3545231217175331
 21
0.3545231217175337
 31
0.0
210
0.0
220
0.0
230
0.9999999999999998
 40
0.9972646886
 41
2.357564018062831
 42
3.925621289116871
  0
ELLIPSE
  5
176
330
A3
100
AcDbEntity
  8
$DDT_AUDIT_GENERATED_(85)
  6
Continuous
 62
     7
100
AcDbEllipse
 10
263.0647750184
 20
271.1457033523
 30
0.0
 11
-0.3545231217175331
 21
0.3545231217175337
 31
0.0
210
0.0
220
0.0
230
0.9999999999999998
 40
0.9972646886
 41
2.357564018062717
 42
3.925621289116984
  0
LINE
  5
178
330
A3
100
AcDbEntity
  8
$DDT_AUDIT_GENERATED_(177)
  6
Continuous
 62
     7
100
AcDbLine
 10
263.1872800226
 20
357.0731835885
 30
0.0
 11
263.5654611914
 21
356.6950024196
 31
0.0
  0
LINE
  5
179
330
A3
100
AcDbEntity
  8
$DDT_AUDIT_GENERATED_(177)
  6
Continuous
 62
     7
100
AcDbLine
 10
262.515475951
 20
355.6450171793
 30
0.0
 11
262.1372947822
 21
356.0231983481
 31
0.0
  0
LINE
  5
17A
330
A3
100
AcDbEntity
  8
$DDT_AUDIT_GENERATED_(177)
  6
Continuous
 62
     7
100
AcDbLine
 10
211.0372652629
 20
356.0231983481
 30
0.0
 11
210.6590840941
 21
355.6450171793
 31
0.0
  0
LINE
  5
17B
330
A3
100
AcDbEntity
  8
$DDT_AUDIT_GENERATED_(177)
  6
Continuous
 62
     7
100
AcDbLine
 10
209.6090988537
 20
356.6950024196
 30
0.0
 11
209.9872800226
 21
357.0731835885
 31
0.0
  0
LINE
  5
17C
330
A3
100
AcDbEntity
  8
$DDT_AUDIT_GENERATED_(177)
  6
Continuous
 62
     7
100
AcDbLine
 10
209.9872800226
 20
408.1732131078
 30
0.0
 11
209.6090988537
 21
408.5513942766
 31
0.0
  0
LINE
  5
17D
330
A3
100
AcDbEntity
  8
$DDT_AUDIT_GENERATED_(177)
  6
Continuous
 62
     7
100
AcDbLine
 10
210.6590840941
 20
409.601379517
 30
0.0
 11
211.0372652629
 21
409.2231983481
 31
0.0
  0
LINE
  5
17E
330
A3
100
AcDbEntity
  8
$DDT_AUDIT_GENERATED_(177)
  6
Continuous
 62
     7
100
AcDbLine
 10
262.1372947822
 20
409.2231983481
 30
0.0
 11
262.515475951
 21
409.601379517
 31
0.0
  0
LINE
  5
17F
330
A3
100
AcDbEntity
  8
$DDT_AUDIT_GENERATED_(177)
  6
Continuous
 62
     7
100
AcDbLine
 10
263.5654611914
 20
408.5513942766
 30
0.0
 11
263.1872800226
 21
408.1732131078
 31
0.0
  0
LINE
  5
180
330
A3
100
AcDbEntity
  8
$DDT_AUDIT_GENERATED_(7F)
  6
Continuous
 62
     7
100
AcDbLine
 10
210.4872800226
 20
409.2231983481
 30
0.0
 11
262.6872800226
 21
409.2231983481
 31
0.0
  0
LINE
  5
181
330
A3
100
AcDbEntity
  8
$DDT_AUDIT_GENERATED_(7F)
  6
Continuous
 62
     7
100
AcDbLine
 10
263.1872800226
 20
408.7231983481
 30
0.0
 11
263.1872800226
 21
356.5231983481
 31
0.0
  0
LINE
  5
182
330
A3
100
AcDbEntity
  8
$DDT_AUDIT_GENERATED_(7F)
  6
Continuous
 62
     7
100
AcDbLine
 10
210.4872800226
 20
408.7231983481
 30
0.0
 11
210.4872800226
 21
356.5231983481
 31
0.0
  0
LINE
  5
183
330
A3
100
AcDbEntity
  8
$DDT_AUDIT_GENERATED_(7F)
  6
Continuous
 62
     7
100
AcDbLine
 10
210.4872800226
 20
356.5231983481
 30
0.0
 11
262.6872800226
 21
356.5231983481
 31
0.0
  0
LINE
  5
184
330
A3
100
AcDbEntity
  8
$DDT_AUDIT_GENERATED_(7F)
  6
Continuous
 62
     7
100
AcDbLine
 10
262.6872800226
 20
408.7231983481
 30
0.0
 11
210.4872800226
 21
408.7231983481
 31
0.0
  0
LINE
  5
185
330
A3
100
AcDbEntity
  8
$DDT_AUDIT_GENERATED_(7F)
  6
Continuous
 62
     7
100
AcDbLine
 10
262.6872800226
 20
356.5231983481
 30
0.0
 11
262.6872800226
 21
408.7231983481
 31
0.0
  0
LINE
  5
186
330
A3
100
AcDbEntity
  8
$DDT_AUDIT_GENERATED_(7F)
  6
Continuous
 62
     7
100
AcDbLine
 10
262.6872800226
 20
356.0231983481
 30
0.0
 11
210.4872800226
 21
356.0231983481
 31
0.0
  0
LINE
  5
187
330
A3
100
AcDbEntity
  8
$DDT_AUDIT_GENERATED_(7F)
  6
Continuous
 62
     7
100
AcDbLine
 10
209.9872800226
 20
356.5231983481
 30
0.0
 11
209.9872800226
 21
408.7231983481
 31
0.0
  0
ARC
  5
188
330
A3
100
AcDbEntity
  8
$DDT_AUDIT_GENERATED_(7F)
  6
Continuous
 62
     7
100
AcDbCircle
 10
210.4872800226
 20
356.5231983481
 30
0.0
 40
0.5000000000000004
100
AcDbArc
 50
180.0
 51
270.0
  0
LINE
  5
189
330
A3
100
AcDbEntity
  8
$DDT_AUDIT_GENERATED_(7F)
  6
Continuous
 62
     7
100
AcDbLine
 10
210.4872800226
 20
356.5231983481
 30
0.0
 11
210.4872800226
 21
356.0231983481
 31
0.0
  0
LINE
  5
18A
330
A3
100
AcDbEntity
  8
$DDT_AUDIT_GENERATED_(7F)
  6
Continuous
 62
     7
100
AcDbLine
 10
209.9872800226
 20
356.5231983481
 30
0.0
 11
210.4872800226
 21
356.5231983481
 31
0.0
  0
ARC
  5
18B
330
A3
100
AcDbEntity
  8
$DDT_AUDIT_GENERATED_(7F)
  6
Continuous
 62
     7
100
AcDbCircle
 10
262.6872800226
 20
356.5231983481
 30
0.0
 40
0.5000000000000004
100
AcDbArc
 50
270.0
 51
0.0
  0
LINE
  5
18C
330
A3
100
AcDbEntity
  8
$DDT_AUDIT_GENERATED_(7F)
  6
Continuous
 62
     7
100
AcDbLine
 10
262.6872800226
 20
356.5231983481
 30
0.0
 11
262.6872800226
 21
356.0231983481
 31
0.0
  0
LINE
  5
18D
330
A3
100
AcDbEntity
  8
$DDT_AUDIT_GENERATED_(7F)
  6
Continuous
 62
     7
100
AcDbLine
 10
209.9872800226
 20
408.7231983481
 30
0.0
 11
210.4872800226
 21
408.7231983481
 31
0.0
  0
ARC
  5
18E
330
A3
100
AcDbEntity
  8
$DDT_AUDIT_GENERATED_(7F)
  6
Continuous
 62
     7
100
AcDbCircle
 10
210.4872800226
 20
408.7231983481
 30
0.0
 40
0.5000000000000004
100
AcDbArc
 50
90.0
 51
180.0
  0
LINE
  5
18F
330
A3
100
AcDbEntity
  8
$DDT_AUDIT_GENERATED_(7F)
  6
Continuous
 62
     7
100
AcDbLine
 10
262.6872800226
 20
356.5231983481
 30
0.0
 11
263.1872800226
 21
356.5231983481
 31
0.0
  0
LINE
  5
190
330
A3
100
AcDbEntity
  8
$DDT_AUDIT_GENERATED_(7F)
  6
Continuous
 62
     7
100
AcDbLine
 10
210.4872800226
 20
409.2231983481
 30
0.0
 11
210.4872800226
 21
408.7231983481
 31
0.0
  0
LINE
  5
191
330
A3
100
AcDbEntity
  8
$DDT_AUDIT_GENERATED_(7F)
  6
Continuous
 62
     7
100
AcDbLine
 10
262.6872800226
 20
408.7231983481
 30
0.0
 11
263.1872800226
 21
408.7231983481
 31
0.0
  0
LINE
  5
192
330
A3
100
AcDbEntity
  8
$DDT_AUDIT_GENERATED_(7F)
  6
Continuous
 62
     7
100
AcDbLine
 10
262.6872800226
 20
409.2231983481
 30
0.0
 11
262.6872800226
 21
408.7231983481
 31
0.0
  0
ARC
  5
193
330
A3
100
AcDbEntity
  8
$DDT_AUDIT_GENERATED_(7F)
  6
Continuous
 62
     7
100
AcDbCircle
 10
262.6872800226
 20
408.7231983481
 30
0.0
 40
0.5000000000000004
100
AcDbArc
 50
0.0
 51
90.0
  0
LINE
  5
194
330
A3
100
AcDbEntity
  8
$DDT_AUDIT_GENERATED_(177)
  6
Continuous
 62
     7
100
AcDbLine
 10
262.1372947822
 20
324.2231983481
 30
0.0
 11
262.515475951
 21
324.601379517
 31
0.0
  0
LINE
  5
195
330
A3
100
AcDbEntity
  8
$DDT_AUDIT_GENERATED_(177)
  6
Continuous
 62
     7
100
AcDbLine
 10
263.5654611914
 20
323.5513942766
 30
0.0
 11
263.1872800226
 21
323.1732131078
 31
0.0
  0
LINE
  5
196
330
A3
100
AcDbEntity
  8
$DDT_AUDIT_GENERATED_(177)
  6
Continuous
 62
     7
100
AcDbLine
 10
263.1872800226
 20
272.0731835885
 30
0.0
 11
263.5654611914
 21
271.6950024196
 31
0.0
  0
LINE
  5
197
330
A3
100
AcDbEntity
  8
$DDT_AUDIT_GENERATED_(177)
  6
Continuous
 62
     7
100
AcDbLine
 10
262.515475951
 20
270.6450171793
 30
0.0
 11
262.1372947822
 21
271.0231983481
 31
0.0
  0
LINE
  5
198
330
A3
100
AcDbEntity
  8
$DDT_AUDIT_GENERATED_(177)
  6
Continuous
 62
     7
100
AcDbLine
 10
209.9872800226
 20
323.1732131078
 30
0.0
 11
209.6090988537
 21
323.5513942766
 31
0.0
  0
LINE
  5
199
330
A3
100
AcDbEntity
  8
$DDT_AUDIT_GENERATED_(177)
  6
Continuous
 62
     7
100
AcDbLine
 10
210.6590840941
 20
324.601379517
 30
0.0
 11
211.0372652629
 21
324.2231983481
 31
0.0
  0
LINE
  5
19A
330
A3
100
AcDbEntity
  8
$DDT_AUDIT_GENERATED_(99)
  6
Continuous
 62
     7
100
AcDbLine
 10
256.5880697594
 20
317.1222571764
 30
0.0
 11
256.5880697594
 21
278.1222571764
 31
0.0
  0
LINE
  5
19B
330
A3
100
AcDbEntity
  8
$DDT_AUDIT_GENERATED_(99)
  6
Continuous
 62
     7
100
AcDbLine
 10
256.0880697594
 20
277.6222571764
 30
0.0
 11
217.0880697594
 21
277.6222571764
 31
0.0
  0
LINE
  5
19C
330
A3
100
AcDbEntity
  8
$DDT_AUDIT_GENERATED_(99)
  6
Continuous
 62
     7
100
AcDbLine
 10
216.5880697594
 20
278.1222571764
 30
0.0
 11
216.5880697594
 21
317.1222571764
 31
0.0
  0
LINE
  5
19D
330
A3
100
AcDbEntity
  8
$DDT_AUDIT_GENERATED_(99)
  6
Continuous
 62
     7
100
AcDbLine
 10
217.0880697594
 20
317.6222571764
 30
0.0
 11
256.0880697594
 21
317.6222571764
 31
0.0
  0
ARC
  5
19E
330
A3
100
AcDbEntity
  8
$DDT_AUDIT_GENERATED_(99)
  6
Continuous
 62
     7
100
AcDbCircle
 10
217.0880697594
 20
317.1222571764
 30
0.0
 40
0.5000000000000004
100
AcDbArc
 50
90.0
 51
180.0
  0
ARC
  5
19F
330
A3
100
AcDbEntity
  8
$DDT_AUDIT_GENERATED_(99)
  6
Continuous
 62
     7
100
AcDbCircle
 10
217.0880697594
 20
278.1222571764
 30
0.0
 40
0.5000000000000004
100
AcDbArc
 50
180.0
 51
270.0
  0
ARC
  5
1A0
330
A3
100
AcDbEntity
  8
$DDT_AUDIT_GENERATED_(99)
  6
Continuous
 62
     7
100
AcDbCircle
 10
256.0880697594
 20
317.1222571764
 30
0.0
 40
0.5000000000000004
100
AcDbArc
 50
0.0
 51
90.0
  0
ARC
  5
1A1
330
A3
100
AcDbEntity
  8
$DDT_AUDIT_GENERATED_(99)
  6
Continuous
 62
     7
100
AcDbCircle
 10
256.0880697594
 20
278.1222571764
 30
0.0
 40
0.5000000000000004
100
AcDbArc
 50
270.0
 51
0.0
  0
ENDBLK
  5
1A3
330
A3
100
AcDbEntity
  8
0
100
AcDbBlockEnd
  0
BLOCK
  5
1C5
330
1A4
100
AcDbEntity
  8
0
100
AcDbBlockBegin
  2
SE2
 70
     0
 10
0.0
 20
0.0
 30
0.0
  3
SE2
  1

  0
LINE
  5
1A6
330
1A4
100
AcDbEntity
  8
$DDT_AUDIT_GENERATED_(77)
  6
Continuous
 62
     7
100
AcDbLine
 10
256.5872800226
 20
141.2035615855
 30
0.0
 11
256.5872800226
 21
86.2035615855
 31
0.0
  0
LINE
  5
1A7
330
1A4
100
AcDbEntity
  8
$DDT_AUDIT_GENERATED_(77)
  6
Continuous
 62
     7
100
AcDbLine
 10
256.0872800226
 20
85.7035615855
 30
0.0
 11
217.0872800226
 21
85.7035615855
 31
0.0
  0
LINE
  5
1A8
330
1A4
100
AcDbEntity
  8
$DDT_AUDIT_GENERATED_(77)
  6
Continuous
 62
     7
100
AcDbLine
 10
216.5872800226
 20
86.2035615855
 30
0.0
 11
216.5872800226
 21
141.2035615855
 31
0.0
  0
ARC
  5
1A9
330
1A4
100
AcDbEntity
  8
$DDT_AUDIT_GENERATED_(77)
  6
Continuous
 62
     7
100
AcDbCircle
 10
217.0872800226
 20
86.2035615855
 30
0.0
 40
0.5000000000000004
100
AcDbArc
 50
180.0
 51
270.0
  0
ARC
  5
1AA
330
1A4
100
AcDbEntity
  8
$DDT_AUDIT_GENERATED_(77)
  6
Continuous
 62
     7
100
AcDbCircle
 10
217.0872800226
 20
141.2035615855
 30
0.0
 40
0.5000000000000004
100
AcDbArc
 50
162.5423968763
 51
180.0
  0
ARC
  5
1AB
330
1A4
100
AcDbEntity
  8
$DDT_AUDIT_GENERATED_(77)
  6
Continuous
 62
     7
100
AcDbCircle
 10
256.0872800226
 20
86.2035615855
 30
0.0
 40
0.5000000000000004
100
AcDbArc
 50
270.0
 51
0.0
  0
ARC
  5
1AC
330
1A4
100
AcDbEntity
  8
$DDT_AUDIT_GENERATED_(77)
  6
Continuous
 62
     7
100
AcDbCircle
 10
256.0872800226
 20
141.2035615855
 30
0.0
 40
0.5000000000000004
100
AcDbArc
 50
0.0
 51
17.4576031237
  0
LINE
  5
1AD
330
1A4
100
AcDbEntity
  8
$DDT_AUDIT_GENERATED_(85)
  6
Continuous
 62
     7
100
AcDbLine
 10
322.8372800226
 20
158.4035615855
 30
0.0
 11
322.8372800226
 21
151.851082982
 31
0.0
  0
LINE
  5
1AE
330
1A4
100
AcDbEntity
  8
$DDT_AUDIT_GENERATED_(85)
  6
Continuous
 62
     7
100
AcDbLine
 10
322.1372800226
 20
158.4035615855
 30
0.0
 11
322.8372800226
 21
158.4035615855
 31
0.0
  0
LINE
  5
1AF
330
1A4
100
AcDbEntity
  8
$DDT_AUDIT_GENERATED_(85)
  6
Continuous
 62
     7
100
AcDbLine
 10
151.0372800226
 20
158.4035615855
 30
0.0
 11
322.1372800226
 21
158.4035615855
 31
0.0
  0
LINE
  5
1B0
330
1A4
100
AcDbEntity
  8
$DDT_AUDIT_GENERATED_(85)
  6
Continuous
 62
     7
100
AcDbLine
 10
150.3372800226
 20
158.4035615855
 30
0.0
 11
151.0372800226
 21
158.4035615855
 31
0.0
  0
LINE
  5
1B1
330
1A4
100
AcDbEntity
  8
$DDT_AUDIT_GENERATED_(85)
  6
Continuous
 62
     7
100
AcDbLine
 10
322.2648189218
 20
151.3399547965
 30
0.0
 11
264.3648032165
 21
144.9066197181
 31
0.0
  0
LINE
  5
1B2
330
1A4
100
AcDbEntity
  8
$DDT_AUDIT_GENERATED_(85)
  6
Continuous
 62
     7
100
AcDbLine
 10
322.3924957856
 20
151.3541411147
 30
0.0
 11
322.2648189218
 21
151.3399547965
 31
0.0
  0
LINE
  5
1B3
330
1A4
100
AcDbEntity
  8
$DDT_AUDIT_GENERATED_(85)
  6
Continuous
 62
     7
100
AcDbLine
 10
150.3372800226
 20
151.851082982
 30
0.0
 11
150.3372800226
 21
158.4035615855
 31
0.0
  0
LINE
  5
1B4
330
1A4
100
AcDbEntity
  8
$DDT_AUDIT_GENERATED_(85)
  6
Continuous
 62
     7
100
AcDbLine
 10
150.9097411233
 20
151.3399547965
 30
0.0
 11
150.7820642595
 21
151.3541411147
 31
0.0
  0
ARC
  5
1B5
330
1A4
100
AcDbEntity
  8
$DDT_AUDIT_GENERATED_(85)
  6
Continuous
 62
     7
100
AcDbCircle
 10
150.8372800226
 20
151.851082982
 30
0.0
 40
0.5000000000000004
100
AcDbArc
 50
180.0
 51
263.6598082541
  0
ARC
  5
1B6
330
1A4
100
AcDbEntity
  8
$DDT_AUDIT_GENERATED_(85)
  6
Continuous
 62
     7
100
AcDbCircle
 10
322.3372800226
 20
151.851082982
 30
0.0
 40
0.5000000000000004
100
AcDbArc
 50
276.3401917459
 51
0.0
  0
LINE
  5
1B7
330
1A4
100
AcDbEntity
  8
$DDT_AUDIT_GENERATED_(85)
  6
Continuous
 62
     7
100
AcDbLine
 10
264.3095874535
 20
144.9035615855
 30
0.0
 11
208.8649725916
 21
144.9035615855
 31
0.0
  0
LINE
  5
1B8
330
1A4
100
AcDbEntity
  8
$DDT_AUDIT_GENERATED_(85)
  6
Continuous
 62
     7
100
AcDbLine
 10
208.8097568286
 20
144.9066197181
 30
0.0
 11
150.9097411233
 21
151.3399547965
 31
0.0
  0
ARC
  5
1B9
330
1A4
100
AcDbEntity
  8
$DDT_AUDIT_GENERATED_(85)
  6
Continuous
 62
     7
100
AcDbCircle
 10
264.3095874535
 20
145.4035615855
 30
0.0
 40
0.5000000000000004
100
AcDbArc
 50
270.0
 51
276.3401917459
  0
ARC
  5
1BA
330
1A4
100
AcDbEntity
  8
$DDT_AUDIT_GENERATED_(85)
  6
Continuous
 62
     7
100
AcDbCircle
 10
208.8649725916
 20
145.4035615855
 30
0.0
 40
0.5000000000000004
100
AcDbArc
 50
263.6598082541
 51
270.0
  0
LINE
  5
1BB
330
1A4
100
AcDbEntity
  8
$DDT_AUDIT_GENERATED_(7F)
  6
Continuous
 62
     7
100
AcDbLine
 10
262.6872800226
 20
141.3535615855
 30
0.0
 11
210.4872800226
 21
141.3535615855
 31
0.0
  0
ARC
  5
1BC
330
1A4
100
AcDbEntity
  8
$DDT_AUDIT_GENERATED_(7F)
  6
Continuous
 62
     7
100
AcDbCircle
 10
210.4872800226
 20
141.8535615855
 30
0.0
 40
0.5000000000000004
100
AcDbArc
 50
180.0
 51
270.0
  0
ARC
  5
1BD
330
1A4
100
AcDbEntity
  8
$DDT_AUDIT_GENERATED_(7F)
  6
Continuous
 62
     7
100
AcDbCircle
 10
262.6872800226
 20
141.8535615855
 30
0.0
 40
0.5000000000000004
100
AcDbArc
 50
270.0
 51
0.0
  0
LINE
  5
1BE
330
1A4
100
AcDbEntity
  8
$DDT_AUDIT_GENERATED_(99)
  6
Continuous
 62
     7
100
AcDbLine
 10
256.5880697594
 20
141.2035615855
 30
0.0
 11
256.5880697594
 21
86.2035615855
 31
0.0
  0
LINE
  5
1BF
330
1A4
100
AcDbEntity
  8
$DDT_AUDIT_GENERATED_(99)
  6
Continuous
 62
     7
100
AcDbLine
 10
256.0880697594
 20
85.7035615855
 30
0.0
 11
256.0872800226
 21
85.7035615855
 31
0.0
  0
ARC
  5
1C0
330
1A4
100
AcDbEntity
  8
$DDT_AUDIT_GENERATED_(99)
  6
Continuous
 62
     7
100
AcDbCircle
 10
256.0880697594
 20
86.2035615855
 30
0.0
 40
0.5000000000000004
100
AcDbArc
 50
270.0
 51
0.0
  0
ARC
  5
1C1
330
1A4
100
AcDbEntity
  8
$DDT_AUDIT_GENERATED_(99)
  6
Continuous
 62
     7
100
AcDbCircle
 10
256.0880697594
 20
141.2035615855
 30
0.0
 40
0.5000000000000004
100
AcDbArc
 50
0.0
 51
17.4576031237
  0
LINE
  5
1C3
330
1A4
100
AcDbEntity
  8
DV3_Standard
  6
Continuous
 62
     7
100
AcDbLine
 10
209.9872800226
 20
141.8535615855
 30
0.0
 11
209.9872800226
 21
144.9035615855
 31
0.0
  0
LINE
  5
1C4
330
1A4
100
AcDbEntity
  8
DV3_Standard
  6
Continuous
 62
     7
100
AcDbLine
 10
263.1872800226
 20
141.8535615855
 30
0.0
 11
263.1872800226
 21
144.9035615855
 31
0.0
  0
ENDBLK
  5
1C6
330
1A4
100
AcDbEntity
  8
0
100
AcDbBlockEnd
  0
ENDSEC
  0
SECTION
  2
ENTITIES
  0
INSERT
  5
5F
330
1F
100
AcDbEntity
  8
Default
100
AcDbBlockReference
  2
SEANNOT_GROUP
 10
0.0
 20
0.0
 30
0.0
  0
INSERT
  5
66
330
1F
100
AcDbEntity
  8
Default
100
AcDbBlockReference
  2
SEANNOT_GROUP1
 10
0.0
 20
0.0
 30
0.0
  0
INSERT
  5
6B
330
1F
100
AcDbEntity
  8
Default
100
AcDbBlockReference
  2
SEANNOT_GROUP2
 10
0.0
 20
0.0
 30
0.0
  0
INSERT
  5
70
330
1F
100
AcDbEntity
  8
Default
100
AcDbBlockReference
  2
SEANNOT_GROUP3
 10
0.0
 20
0.0
 30
0.0
  0
INSERT
  5
76
330
1F
100
AcDbEntity
  8
Default
100
AcDbBlockReference
  2
SE
 10
0.0
 20
0.0
 30
0.0
  0
INSERT
  5
A4
330
1F
100
AcDbEntity
  8
Default
100
AcDbBlockReference
  2
SE1
 10
0.0
 20
0.0
 30
0.0
  0
INSERT
  5
1A5
330
1F
100
AcDbEntity
  8
Default
100
AcDbBlockReference
  2
SE2
 10
0.0
 20
0.0
 30
0.0
  0
TEXT
  5
1C8
330
1F
100
AcDbEntity
  8
Default
  6
Continuous
 62
     7
100
AcDbText
 10
5.9362635081
 20
53.4225120485
 30
0.0
 40
10.0
  1
Grohe AG^J
  7
SEACAD_seiso_ttf
 11
5.9362635081
 21
63.4225120485
 31
0.0
100
AcDbText
 73
     3
  0
TEXT
  5
1C9
330
1F
100
AcDbEntity
  8
Default
  6
Continuous
 62
     7
100
AcDbText
 10
5.9362635081
 20
37.0588756849
 30
0.0
 40
10.0
  1
 
  7
SEACAD_seiso_ttf
 11
5.9362635081
 21
47.0588756849
 31
0.0
100
AcDbText
 73
     3
  0
TEXT
  5
1CA
330
1F
100
AcDbEntity
  8
Default
  6
Continuous
 62
     7
100
AcDbText
 10
5.9362635081
 20
20.6952393213
 30
0.0
 40
10.0
  1
ecn: 
  7
SEACAD_seiso_ttf
 11
5.9362635081
 21
30.6952393213
 31
0.0
100
AcDbText
 73
     3
  0
TEXT
  5
1CB
330
1F
100
AcDbEntity
  8
Default
  6
Continuous
 62
     7
100
AcDbText
 10
5.9362635081
 20
4.3316029576
 30
0.0
 40
10.0
  1
unit: mm
  7
SEACAD_seiso_ttf
 11
5.9362635081
 21
14.3316029576
 31
0.0
100
AcDbText
 73
     3
  0
LINE
  5
1CC
330
1F
100
AcDbEntity
  8
Default
  6
Continuous
 62
     7
100
AcDbLine
 10
0.0
 20
0.0
 30
0.0
 11
100.0
 21
0.0
 31
0.0
  0
LINE
  5
1CD
330
1F
100
AcDbEntity
  8
Default
  6
Continuous
 62
     7
100
AcDbLine
 10
0.0
 20
0.0
 30
0.0
 11
0.0
 21
100.0
 31
0.0
  0
TEXT
  5
1CE
330
1F
100
AcDbEntity
  8
Default
  6
Continuous
 62
     7
100
AcDbText
 10
24.3923665681
 20
-18.2375342018
 30
0.0
 40
10.0
  1
100 mm
  7
SEACAD_seiso_ttf
 11
24.3923665681
 21
-8.2375342018
 31
0.0
100
AcDbText
 73
     3
  0
TEXT
  5
1CF
330
1F
100
AcDbEntity
  8
Default
  6
Continuous
 62
     7
100
AcDbText
 10
-7.6150308803
 20
24.6231930421
 30
0.0
 40
10.0
  1
100 mm
 50
90.0
  7
SEACAD_seiso_ttf
 11
-17.6150308803
 21
24.6231930421
 31
0.0
100
AcDbText
 73
     3
  0
TEXT
  5
1D0
330
1F
100
AcDbEntity
  8
Default
  6
Continuous
 62
     7
100
AcDbText
 10
28.4878128572
 20
20.0907663715
 30
0.0
 40
10.0
  1
221621
  7
SEACAD_seiso_ttf
 11
28.4878128572
 21
30.0907663715
 31
0.0
100
AcDbText
 73
     3
  0
TEXT
  5
1D1
330
1F
100
AcDbEntity
  8
Default
  6
Continuous
 62
     7
100
AcDbText
 10
5.9012241913
 20
36.7242780188
 30
0.0
 40
10.0
  1
19792000
  7
SEACAD_seiso_ttf
 11
5.9012241913
 21
46.7242780188
 31
0.0
100
AcDbText
 73
     3
  0
ENDSEC
  0
SECTION
  2
OBJECTS
  0
DICTIONARY
  5
C
330
0
100
AcDbDictionary
281
     1
  3
ACAD_GROUP
350
D
  3
ACAD_LAYOUT
350
1A
  3
ACAD_MLEADERSTYLE
350
1D5
  3
ACAD_MLINESTYLE
350
17
  3
ACAD_PLOTSETTINGS
350
19
  3
ACAD_PLOTSTYLENAME
350
E
  3
ACAD_SCALELIST
350
3B
  3
ACAD_TABLESTYLE
350
1D4
  3
ACAD_VISUALSTYLE
350
2A
  3
AcDbVariableDictionary
350
1D2
  0
DICTIONARY
  5
D
102
{ACAD_REACTORS
330
C
102
}
330
C
100
AcDbDictionary
281
     1
  0
DICTIONARY
  5
1A
102
{ACAD_REACTORS
330
C
102
}
330
C
100
AcDbDictionary
281
     1
  3
Layout1
350
1E
  3
Model
350
22
  0
DICTIONARY
  5
1D5
102
{ACAD_REACTORS
330
C
102
}
330
C
100
AcDbDictionary
281
     1
  0
DICTIONARY
  5
17
102
{ACAD_REACTORS
330
C
102
}
330
C
100
AcDbDictionary
281
     1
  3
Standard
350
18
  0
DICTIONARY
  5
19
102
{ACAD_REACTORS
330
C
102
}
330
C
100
AcDbDictionary
281
     1
  0
ACDBDICTIONARYWDFLT
  5
E
102
{ACAD_REACTORS
330
C
102
}
330
C
100
AcDbDictionary
281
     1
  3
Normal
350
F
100
AcDbDictionaryWithDefault
340
F
  0
DICTIONARY
  5
3B
102
{ACAD_REACTORS
330
C
102
}
330
C
100
AcDbDictionary
281
     1
  3
A0
350
3C
  3
A1
350
3D
  3
A2
350
3E
  3
A3
350
3F
  3
A4
350
40
  3
A5
350
41
  3
A6
350
42
  3
A7
350
43
  3
A8
350
44
  3
A9
350
45
  3
B0
350
46
  3
B1
350
47
  3
B2
350
48
  3
B3
350
49
  3
B4
350
4A
  3
B5
350
4B
  3
B6
350
4C
  3
B7
350
4D
  3
B8
350
4E
  3
B9
350
4F
  3
C0
350
50
  3
C1
350
51
  3
C2
350
52
  3
C3
350
53
  3
C4
350
54
  3
C5
350
55
  3
C6
350
56
  3
C7
350
57
  3
C8
350
58
  3
C9
350
59
  3
D0
350
5A
  3
D1
350
5B
  3
D2
350
5C
  0
DICTIONARY
  5
1D4
102
{ACAD_REACTORS
330
C
102
}
330
C
100
AcDbDictionary
281
     1
  0
DICTIONARY
  5
2A
102
{ACAD_REACTORS
330
C
102
}
330
C
100
AcDbDictionary
281
     1
  3
2dWireframe
350
2F
  3
3D Hidden
350
31
  3
3dWireframe
350
30
  3
Basic
350
32
  3
Brighten
350
36
  3
ColorChange
350
3A
  3
Conceptual
350
34
  3
Dim
350
35
  3
Facepattern
350
39
  3
Flat
350
2B
  3
FlatWithEdges
350
2C
  3
Gouraud
350
2D
  3
GouraudWithEdges
350
2E
  3
Linepattern
350
38
  3
Realistic
350
33
  3
Thicken
350
37
  0
DICTIONARY
  5
1D2
102
{ACAD_REACTORS
330
C
102
}
330
C
100
AcDbDictionary
281
     1
  3
CANNOSCALE
350
1D3
  3
PSOLHEIGHT
350
1D7
  3
PSOLWIDTH
350
1D6
  0
LAYOUT
  5
1E
102
{ACAD_REACTORS
330
1A
102
}
330
1A
100
AcDbPlotSettings
  1

  2
none_device
  4

  6

 40
0.0
 41
0.0
 42
0.0
 43
0.0
 44
0.0
 45
0.0
 46
0.0
 47
0.0
 48
0.0
 49
0.0
140
0.0
141
0.0
142
1.0
143
1.0
 70
   688
 72
     0
 73
     0
 74
     5
  7

 75
    16
147
1.0
148
0.0
149
0.0
100
AcDbLayout
  1
Layout1
 70
     1
 71
     1
 10
0.0
 20
0.0
 11
1682.0
 21
2378.0
 12
0.0
 22
0.0
 32
0.0
 14
0.0
 24
0.0
 34
0.0
 15
1682.0
 25
2378.0
 35
0.0
146
0.0
 13
0.0
 23
0.0
 33
0.0
 16
1.0
 26
0.0
 36
0.0
 17
0.0
 27
1.0
 37
0.0
 76
     0
330
1B
  0
LAYOUT
  5
22
102
{ACAD_REACTORS
330
1A
102
}
330
1A
100
AcDbPlotSettings
  1

  2
none_device
  4

  6

 40
0.0
 41
0.0
 42
0.0
 43
0.0
 44
0.0
 45
0.0
 46
0.0
 47
0.0
 48
0.0
 49
0.0
140
0.0
141
0.0
142
1.0
143
1.0
 70
  1712
 72
     0
 73
     0
 74
     0
  7

 75
     0
147
1.0
148
0.0
149
0.0
100
AcDbLayout
  1
Model
 70
     1
 71
     0
 10
0.0
 20
0.0
 11
1682.0
 21
2378.0
 12
0.0
 22
0.0
 32
0.0
 14
0.0
 24
0.0
 34
0.0
 15
1682.0
 25
2378.0
 35
0.0
146
0.0
 13
0.0
 23
0.0
 33
0.0
 16
1.0
 26
0.0
 36
0.0
 17
0.0
 27
1.0
 37
0.0
 76
     0
330
1F
331
29
  0
MLINESTYLE
  5
18
102
{ACAD_REACTORS
330
17
102
}
330
17
100
AcDbMlineStyle
  2
Standard
 70
     0
  3

 62
   256
 51
90.0
 52
90.0
 71
     2
 49
0.5
 62
   256
  6
BYLAYER
 49
-0.5
 62
   256
  6
BYLAYER
  0
ACDBPLACEHOLDER
  5
F
102
{ACAD_REACTORS
330
E
102
}
330
E
  0
SCALE
  5
3C
102
{ACAD_REACTORS
330
3B
102
}
330
3B
100
AcDbScale
 70
     0
300
1:1
140
1.0
141
1.0
290
     1
  0
SCALE
  5
3D
102
{ACAD_REACTORS
330
3B
102
}
330
3B
100
AcDbScale
 70
     0
300
1:2
140
1.0
141
2.0
290
     0
  0
SCALE
  5
3E
102
{ACAD_REACTORS
330
3B
102
}
330
3B
100
AcDbScale
 70
     0
300
1:4
140
1.0
141
4.0
290
     0
  0
SCALE
  5
3F
102
{ACAD_REACTORS
330
3B
102
}
330
3B
100
AcDbScale
 70
     0
300
1:5
140
1.0
141
5.0
290
     0
  0
SCALE
  5
40
102
{ACAD_REACTORS
330
3B
102
}
330
3B
100
AcDbScale
 70
     0
300
1:8
140
1.0
141
8.0
290
     0
  0
SCALE
  5
41
102
{ACAD_REACTORS
330
3B
102
}
330
3B
100
AcDbScale
 70
     0
300
1:10
140
1.0
141
10.0
290
     0
  0
SCALE
  5
42
102
{ACAD_REACTORS
330
3B
102
}
330
3B
100
AcDbScale
 70
     0
300
1:16
140
1.0
141
16.0
290
     0
  0
SCALE
  5
43
102
{ACAD_REACTORS
330
3B
102
}
330
3B
100
AcDbScale
 70
     0
300
1:20
140
1.0
141
20.0
290
     0
  0
SCALE
  5
44
102
{ACAD_REACTORS
330
3B
102
}
330
3B
100
AcDbScale
 70
     0
300
1:30
140
1.0
141
30.0
290
     0
  0
SCALE
  5
45
102
{ACAD_REACTORS
330
3B
102
}
330
3B
100
AcDbScale
 70
     0
300
1:40
140
1.0
141
40.0
290
     0
  0
SCALE
  5
46
102
{ACAD_REACTORS
330
3B
102
}
330
3B
100
AcDbScale
 70
     0
300
1:50
140
1.0
141
50.0
290
     0
  0
SCALE
  5
47
102
{ACAD_REACTORS
330
3B
102
}
330
3B
100
AcDbScale
 70
     0
300
1:100
140
1.0
141
100.0
290
     0
  0
SCALE
  5
48
102
{ACAD_REACTORS
330
3B
102
}
330
3B
100
AcDbScale
 70
     0
300
2:1
140
2.0
141
1.0
290
     0
  0
SCALE
  5
49
102
{ACAD_REACTORS
330
3B
102
}
330
3B
100
AcDbScale
 70
     0
300
4:1
140
4.0
141
1.0
290
     0
  0
SCALE
  5
4A
102
{ACAD_REACTORS
330
3B
102
}
330
3B
100
AcDbScale
 70
     0
300
8:1
140
8.0
141
1.0
290
     0
  0
SCALE
  5
4B
102
{ACAD_REACTORS
330
3B
102
}
330
3B
100
AcDbScale
 70
     0
300
10:1
140
10.0
141
1.0
290
     0
  0
SCALE
  5
4C
102
{ACAD_REACTORS
330
3B
102
}
330
3B
100
AcDbScale
 70
     0
300
100:1
140
100.0
141
1.0
290
     0
  0
SCALE
  5
4D
102
{ACAD_REACTORS
330
3B
102
}
330
3B
100
AcDbScale
 70
     0
300
1/128" = 1'-0"
140
0.0078125
141
12.0
290
     0
  0
SCALE
  5
4E
102
{ACAD_REACTORS
330
3B
102
}
330
3B
100
AcDbScale
 70
     0
300
1/64" = 1'-0"
140
0.015625
141
12.0
290
     0
  0
SCALE
  5
4F
102
{ACAD_REACTORS
330
3B
102
}
330
3B
100
AcDbScale
 70
     0
300
1/32" = 1'-0"
140
0.03125
141
12.0
290
     0
  0
SCALE
  5
50
102
{ACAD_REACTORS
330
3B
102
}
330
3B
100
AcDbScale
 70
     0
300
1/16" = 1'-0"
140
0.0625
141
12.0
290
     0
  0
SCALE
  5
51
102
{ACAD_REACTORS
330
3B
102
}
330
3B
100
AcDbScale
 70
     0
300
3/32" = 1'-0"
140
0.09375
141
12.0
290
     0
  0
SCALE
  5
52
102
{ACAD_REACTORS
330
3B
102
}
330
3B
100
AcDbScale
 70
     0
300
1/8" = 1'-0"
140
0.125
141
12.0
290
     0
  0
SCALE
  5
53
102
{ACAD_REACTORS
330
3B
102
}
330
3B
100
AcDbScale
 70
     0
300
3/16" = 1'-0"
140
0.1875
141
12.0
290
     0
  0
SCALE
  5
54
102
{ACAD_REACTORS
330
3B
102
}
330
3B
100
AcDbScale
 70
     0
300
1/4" = 1'-0"
140
0.25
141
12.0
290
     0
  0
SCALE
  5
55
102
{ACAD_REACTORS
330
3B
102
}
330
3B
100
AcDbScale
 70
     0
300
3/8" = 1'-0"
140
0.375
141
12.0
290
     0
  0
SCALE
  5
56
102
{ACAD_REACTORS
330
3B
102
}
330
3B
100
AcDbScale
 70
     0
300
1/2" = 1'-0"
140
0.5
141
12.0
290
     0
  0
SCALE
  5
57
102
{ACAD_REACTORS
330
3B
102
}
330
3B
100
AcDbScale
 70
     0
300
3/4" = 1'-0"
140
0.75
141
12.0
290
     0
  0
SCALE
  5
58
102
{ACAD_REACTORS
330
3B
102
}
330
3B
100
AcDbScale
 70
     0
300
1" = 1'-0"
140
1.0
141
12.0
290
     0
  0
SCALE
  5
59
102
{ACAD_REACTORS
330
3B
102
}
330
3B
100
AcDbScale
 70
     0
300
1-1/2" = 1'-0"
140
1.5
141
12.0
290
     0
  0
SCALE
  5
5A
102
{ACAD_REACTORS
330
3B
102
}
330
3B
100
AcDbScale
 70
     0
300
3" = 1'-0"
140
3.0
141
12.0
290
     0
  0
SCALE
  5
5B
102
{ACAD_REACTORS
330
3B
102
}
330
3B
100
AcDbScale
 70
     0
300
6" = 1'-0"
140
6.0
141
12.0
290
     0
  0
SCALE
  5
5C
102
{ACAD_REACTORS
330
3B
102
}
330
3B
100
AcDbScale
 70
     0
300
1'-0" = 1'-0"
140
12.0
141
12.0
290
     0
  0
VISUALSTYLE
  5
2F
102
{ACAD_REACTORS
330
2A
102
}
330
2A
100
AcDbVisualStyle
  2
2dWireframe
 70
     4
 71
     0
 72
     2
 73
     0
 90
        0
 40
-0.6
 41
-30.0
 62
     5
 63
     7
 74
     1
 91
        4
 64
     7
 65
   257
 75
     1
175
     1
 42
1.0
 92
        0
 66
   257
 43
1.0
 76
     1
 77
     6
 78
     2
 67
     7
 79
     5
170
     0
171
     0
290
     0
174
     0
 93
        1
 44
0.0
173
     0
291
     0
 45
0.0
1001
ACAD
1000
AcDbSavedByObjectVersion
1070
     0
  0
VISUALSTYLE
  5
31
102
{ACAD_REACTORS
330
2A
102
}
330
2A
100
AcDbVisualStyle
  2
3D Hidden
 70
     6
 71
     1
 72
     2
 73
     2
 90
        0
 40
-0.6
 41
-30.0
 62
     5
 63
     7
 74
     2
 91
        2
 64
     7
 65
   257
 75
     2
175
     1
 42
40.0
 92
        0
 66
   257
 43
1.0
 76
     1
 77
     6
 78
     2
 67
     7
 79
     3
170
     0
171
     0
290
     0
174
     0
 93
        1
 44
0.0
173
     0
291
     0
 45
0.0
1001
ACAD
1000
AcDbSavedByObjectVersion
1070
     0
  0
VISUALSTYLE
  5
30
102
{ACAD_REACTORS
330
2A
102
}
330
2A
100
AcDbVisualStyle
  2
3dWireframe
 70
     5
 71
     0
 72
     2
 73
     0
 90
        0
 40
-0.6
 41
-30.0
 62
     5
 63
     7
 74
     1
 91
        4
 64
     7
 65
   257
 75
     1
175
     1
 42
1.0
 92
        0
 66
   257
 43
1.0
 76
     1
 77
     6
 78
     2
 67
     7
 79
     5
170
     0
171
     0
290
     0
174
     0
 93
        1
 44
0.0
173
     0
291
     0
 45
0.0
1001
ACAD
1000
AcDbSavedByObjectVersion
1070
     0
  0
VISUALSTYLE
  5
32
102
{ACAD_REACTORS
330
2A
102
}
330
2A
100
AcDbVisualStyle
  2
Basic
 70
     7
 71
     1
 72
     0
 73
     1
 90
        0
 40
-0.6
 41
-30.0
 62
     5
 63
     7
 74
     0
 91
        4
 64
     7
 65
   257
 75
     1
175
     1
 42
1.0
 92
        8
 66
     7
 43
1.0
 76
     1
 77
     6
 78
     2
 67
     7
 79
     5
170
     0
171
     0
290
     0
174
     0
 93
        1
 44
0.0
173
     0
291
     1
 45
0.0
1001
ACAD
1000
AcDbSavedByObjectVersion
1070
     0
  0
VISUALSTYLE
  5
36
102
{ACAD_REACTORS
330
2A
102
}
330
2A
100
AcDbVisualStyle
  2
Brighten
 70
    12
 71
     2
 72
     2
 73
     0
 90
        0
 40
-0.6
 41
-30.0
 62
     5
 63
     7
 74
     1
 91
        4
 64
     7
 65
   257
 75
     1
175
     1
 42
1.0
 92
        8
 66
     7
 43
1.0
 76
     1
 77
     6
 78
     2
 67
     7
 79
     5
170
     0
171
     0
290
     0
174
     0
 93
        1
 44
50.0
173
     0
291
     1
 45
0.0
1001
ACAD
1000
AcDbSavedByObjectVersion
1070
     0
  0
VISUALSTYLE
  5
3A
102
{ACAD_REACTORS
330
2A
102
}
330
2A
100
AcDbVisualStyle
  2
ColorChange
 70
    16
 71
     2
 72
     2
 73
     3
 90
        0
 40
-0.6
 41
-30.0
 62
     5
 63
     8
 74
     1
 91
        4
 64
     7
 65
   257
 75
     1
175
     1
 42
1.0
 92
        8
 66
     8
 43
1.0
 76
     1
 77
     6
 78
     2
 67
     7
 79
     5
170
     0
171
     0
290
     0
174
     0
 93
        1
 44
0.0
173
     0
291
     1
 45
0.0
1001
ACAD
1000
AcDbSavedByObjectVersion
1070
     0
  0
VISUALSTYLE
  5
34
102
{ACAD_REACTORS
330
2A
102
}
330
2A
100
AcDbVisualStyle
  2
Conceptual
 70
     9
 71
     3
 72
     2
 73
     0
 90
        0
 40
-0.6
 41
-30.0
 62
     5
 63
     7
 74
     2
 91
        2
 64
     7
 65
   257
 75
     1
175
     1
 42
40.0
 92
        8
 66
     7
 43
1.0
 76
     1
 77
     6
 78
     2
 67
     7
 79
     3
170
     0
171
     0
290
     0
174
     0
 93
        1
 44
0.0
173
     0
291
     0
 45
0.0
1001
ACAD
1000
AcDbSavedByObjectVersion
1070
     0
  0
VISUALSTYLE
  5
35
102
{ACAD_REACTORS
330
2A
102
}
330
2A
100
AcDbVisualStyle
  2
Dim
 70
    11
 71
     2
 72
     2
 73
     0
 90
        0
 40
-0.6
 41
-30.0
 62
     5
 63
     7
 74
     1
 91
        4
 64
     7
 65
   257
 75
     1
175
     1
 42
1.0
 92
        8
 66
     7
 43
1.0
 76
     1
 77
     6
 78
     2
 67
     7
 79
     5
170
     0
171
     0
290
     0
174
     0
 93
        1
 44
-50.0
173
     0
291
     1
 45
0.0
1001
ACAD
1000
AcDbSavedByObjectVersion
1070
     0
  0
VISUALSTYLE
  5
39
102
{ACAD_REACTORS
330
2A
102
}
330
2A
100
AcDbVisualStyle
  2
Facepattern
 70
    15
 71
     2
 72
     2
 73
     0
 90
        0
 40
-0.6
 41
-30.0
 62
     5
 63
     7
 74
     1
 91
        4
 64
     7
 65
   257
 75
     1
175
     1
 42
1.0
 92
        8
 66
     7
 43
1.0
 76
     1
 77
     6
 78
     2
 67
     7
 79
     5
170
     0
171
     0
290
     0
174
     0
 93
        1
 44
0.0
173
     0
291
     1
 45
0.0
1001
ACAD
1000
AcDbSavedByObjectVersion
1070
     0
  0
VISUALSTYLE
  5
2B
102
{ACAD_REACTORS
330
2A
102
}
330
2A
100
AcDbVisualStyle
  2
Flat
 70
     0
 71
     2
 72
     1
 73
     1
 90
        2
 40
-0.6
 41
30.0
 62
     5
 63
     7
 74
     0
 91
        4
 64
     7
 65
   257
 75
     1
175
     1
 42
1.0
 92
        8
 66
     7
 43
1.0
 76
     1
 77
     6
 78
     2
 67
     7
 79
     5
170
     0
171
     0
290
     0
174
     0
 93
       13
 44
0.0
173
     0
291
     1
 45
0.0
1001
ACAD
1000
AcDbSavedByObjectVersion
1070
     0
  0
VISUALSTYLE
  5
2C
102
{ACAD_REACTORS
330
2A
102
}
330
2A
100
AcDbVisualStyle
  2
FlatWithEdges
 70
     1
 71
     2
 72
     1
 73
     1
 90
        2
 40
-0.6
 41
30.0
 62
     5
 63
     7
 74
     1
 91
        4
 64
     7
 65
   257
 75
     1
175
     1
 42
1.0
 92
        0
 66
   257
 43
1.0
 76
     1
 77
     6
 78
     2
 67
     7
 79
     5
170
     0
171
     0
290
     0
174
     0
 93
       13
 44
0.0
173
     0
291
     1
 45
0.0
1001
ACAD
1000
AcDbSavedByObjectVersion
1070
     0
  0
VISUALSTYLE
  5
2D
102
{ACAD_REACTORS
330
2A
102
}
330
2A
100
AcDbVisualStyle
  2
Gouraud
 70
     2
 71
     2
 72
     2
 73
     1
 90
        2
 40
-0.6
 41
30.0
 62
     5
 63
     7
 74
     0
 91
        4
 64
     7
 65
   257
 75
     1
175
     1
 42
1.0
 92
        0
 66
     7
 43
1.0
 76
     1
 77
     6
 78
     2
 67
     7
 79
     5
170
     0
171
     0
290
     0
174
     0
 93
       13
 44
0.0
173
     0
291
     1
 45
0.0
1001
ACAD
1000
AcDbSavedByObjectVersion
1070
     0
  0
VISUALSTYLE
  5
2E
102
{ACAD_REACTORS
330
2A
102
}
330
2A
100
AcDbVisualStyle
  2
GouraudWithEdges
 70
     3
 71
     2
 72
     2
 73
     1
 90
        2
 40
-0.6
 41
30.0
 62
     5
 63
     7
 74
     1
 91
        4
 64
     7
 65
   257
 75
     1
175
     1
 42
1.0
 92
        0
 66
   257
 43
1.0
 76
     1
 77
     6
 78
     2
 67
     7
 79
     5
170
     0
171
     0
290
     0
174
     0
 93
       13
 44
0.0
173
     0
291
     1
 45
0.0
1001
ACAD
1000
AcDbSavedByObjectVersion
1070
     0
  0
VISUALSTYLE
  5
38
102
{ACAD_REACTORS
330
2A
102
}
330
2A
100
AcDbVisualStyle
  2
Linepattern
 70
    14
 71
     2
 72
     2
 73
     0
 90
        0
 40
-0.6
 41
-30.0
 62
     5
 63
     7
 74
     1
 91
        4
 64
     7
 65
   257
 75
     7
175
     7
 42
1.0
 92
        8
 66
     7
 43
1.0
 76
     1
 77
     6
 78
     2
 67
     7
 79
     5
170
     0
171
     0
290
     0
174
     0
 93
        1
 44
0.0
173
     0
291
     1
 45
0.0
1001
ACAD
1000
AcDbSavedByObjectVersion
1070
     0
  0
VISUALSTYLE
  5
33
102
{ACAD_REACTORS
330
2A
102
}
330
2A
100
AcDbVisualStyle
  2
Realistic
 70
     8
 71
     2
 72
     2
 73
     0
 90
        0
 40
-0.6
 41
-30.0
 62
     5
 63
     7
 74
     1
 91
        0
 64
     7
 65
   257
 75
     1
175
     1
 42
1.0
 92
        8
 66
     8
 43
1.0
 76
     1
 77
     6
 78
     2
 67
     7
 79
     5
170
     0
171
     0
290
     0
174
     0
 93
       13
 44
0.0
173
     0
291
     0
 45
0.0
1001
ACAD
1000
AcDbSavedByObjectVersion
1070
     0
  0
VISUALSTYLE
  5
37
102
{ACAD_REACTORS
330
2A
102
}
330
2A
100
AcDbVisualStyle
  2
Thicken
 70
    13
 71
     2
 72
     2
 73
     0
 90
        0
 40
-0.6
 41
-30.0
 62
     5
 63
     7
 74
     1
 91
        4
 64
     7
 65
   257
 75
     1
175
     1
 42
1.0
 92
       12
 66
     7
 43
1.0
 76
     1
 77
     6
 78
     2
 67
     7
 79
     5
170
     0
171
     0
290
     0
174
     0
 93
        1
 44
0.0
173
     0
291
     1
 45
0.0
1001
ACAD
1000
AcDbSavedByObjectVersion
1070
     0
  0
DICTIONARYVAR
  5
1D3
102
{ACAD_REACTORS
330
1D2
102
}
330
1D2
100
DictionaryVariables
280
     0
  1
1:1
  0
DICTIONARYVAR
  5
1D7
102
{ACAD_REACTORS
330
1D2
102
}
330
1D2
100
DictionaryVariables
280
     0
  1
80.000000
  0
DICTIONARYVAR
  5
1D6
102
{ACAD_REACTORS
330
1D2
102
}
330
1D2
100
DictionaryVariables
280
     0
  1
5.000000
  0
ENDSEC
  0
EOF
