  0
SECTION
  2
HEADER
  9
$ACADVER
  1
AC1015
  9
$ACADMAINTVER
 70
     6
  9
$DWGCODEPAGE
  3
ANSI_1252
  9
$INSBASE
 10
0.0
 20
0.0
 30
0.0
  9
$EXTMIN
 10
0.0
 20
0.0
 30
0.0
  9
$EXTMAX
 10
1682.0
 20
2378.0
 30
0.0
  9
$LIMMIN
 10
0.0
 20
0.0
  9
$LIMMAX
 10
1682.0
 20
2378.0
  9
$ORTHOMODE
 70
     0
  9
$REGENMODE
 70
     1
  9
$FILLMODE
 70
     1
  9
$QTEXTMODE
 70
     0
  9
$MIRRTEXT
 70
     1
  9
$LTSCALE
 40
1.0
  9
$ATTMODE
 70
     1
  9
$TEXTSIZE
 40
2.5
  9
$TRACEWID
 40
1.0
  9
$TEXTSTYLE
  7
Standard
  9
$CLAYER
  8
0
  9
$CELTYPE
  6
ByLayer
  9
$CECOLOR
 62
   256
  9
$CELTSCALE
 40
1.0
  9
$DISPSILH
 70
     0
  9
$DIMSCALE
 40
1.0
  9
$DIMASZ
 40
2.5
  9
$DIMEXO
 40
0.625
  9
$DIMDLI
 40
3.75
  9
$DIMRND
 40
0.0
  9
$DIMDLE
 40
0.0
  9
$DIMEXE
 40
1.25
  9
$DIMTP
 40
0.0
  9
$DIMTM
 40
0.0
  9
$DIMTXT
 40
2.5
  9
$DIMCEN
 40
2.5
  9
$DIMTSZ
 40
0.0
  9
$DIMTOL
 70
     0
  9
$DIMLIM
 70
     0
  9
$DIMTIH
 70
     0
  9
$DIMTOH
 70
     0
  9
$DIMSE1
 70
     0
  9
$DIMSE2
 70
     0
  9
$DIMTAD
 70
     1
  9
$DIMZIN
 70
     8
  9
$DIMBLK
  1

  9
$DIMASO
 70
     1
  9
$DIMSHO
 70
     1
  9
$DIMPOST
  1

  9
$DIMAPOST
  1

  9
$DIMALT
 70
     0
  9
$DIMALTD
 70
     3
  9
$DIMALTF
 40
0.0393700787
  9
$DIMLFAC
 40
1.0
  9
$DIMTOFL
 70
     1
  9
$DIMTVP
 40
0.0
  9
$DIMTIX
 70
     0
  9
$DIMSOXD
 70
     0
  9
$DIMSAH
 70
     0
  9
$DIMBLK1
  1

  9
$DIMBLK2
  1

  9
$DIMSTYLE
  2
ISO-25
  9
$DIMCLRD
 70
     0
  9
$DIMCLRE
 70
     0
  9
$DIMCLRT
 70
     0
  9
$DIMTFAC
 40
1.0
  9
$DIMGAP
 40
0.625
  9
$DIMJUST
 70
     0
  9
$DIMSD1
 70
     0
  9
$DIMSD2
 70
     0
  9
$DIMTOLJ
 70
     0
  9
$DIMTZIN
 70
     8
  9
$DIMALTZ
 70
     0
  9
$DIMALTTZ
 70
     0
  9
$DIMUPT
 70
     0
  9
$DIMDEC
 70
     2
  9
$DIMTDEC
 70
     2
  9
$DIMALTU
 70
     2
  9
$DIMALTTD
 70
     3
  9
$DIMTXSTY
  7
Standard
  9
$DIMAUNIT
 70
     0
  9
$DIMADEC
 70
     0
  9
$DIMALTRND
 40
0.0
  9
$DIMAZIN
 70
     0
  9
$DIMDSEP
 70
    44
  9
$DIMATFIT
 70
     3
  9
$DIMFRAC
 70
     0
  9
$DIMLDRBLK
  1

  9
$DIMLUNIT
 70
     2
  9
$DIMLWD
 70
    -2
  9
$DIMLWE
 70
    -2
  9
$DIMTMOVE
 70
     0
  9
$LUNITS
 70
     2
  9
$LUPREC
 70
     4
  9
$SKETCHINC
 40
1.0
  9
$FILLETRAD
 40
10.0
  9
$AUNITS
 70
     0
  9
$AUPREC
 70
     0
  9
$MENU
  1
.
  9
$ELEVATION
 40
0.0
  9
$PELEVATION
 40
0.0
  9
$THICKNESS
 40
0.0
  9
$LIMCHECK
 70
     0
  9
$CHAMFERA
 40
10.0
  9
$CHAMFERB
 40
10.0
  9
$CHAMFERC
 40
20.0
  9
$CHAMFERD
 40
0.0
  9
$SKPOLY
 70
     0
  9
$TDCREATE
 40
2455684.606004421
  9
$TDUCREATE
 40
2455684.522671088
  9
$TDUPDATE
 40
2455684.606004433
  9
$TDUUPDATE
 40
2455684.5226711
  9
$TDINDWG
 40
0.0000000116
  9
$TDUSRTIMER
 40
0.0000000116
  9
$USRTIMER
 70
     1
  9
$ANGBASE
 50
0.0
  9
$ANGDIR
 70
     0
  9
$PDMODE
 70
     0
  9
$PDSIZE
 40
0.0
  9
$PLINEWID
 40
0.0
  9
$SPLFRAME
 70
     0
  9
$SPLINETYPE
 70
     6
  9
$SPLINESEGS
 70
     8
  9
$HANDSEED
  5
37A
  9
$SURFTAB1
 70
     6
  9
$SURFTAB2
 70
     6
  9
$SURFTYPE
 70
     6
  9
$SURFU
 70
     6
  9
$SURFV
 70
     6
  9
$UCSBASE
  2

  9
$UCSNAME
  2

  9
$UCSORG
 10
0.0
 20
0.0
 30
0.0
  9
$UCSXDIR
 10
1.0
 20
0.0
 30
0.0
  9
$UCSYDIR
 10
0.0
 20
1.0
 30
0.0
  9
$UCSORTHOREF
  2

  9
$UCSORTHOVIEW
 70
     0
  9
$UCSORGTOP
 10
0.0
 20
0.0
 30
0.0
  9
$UCSORGBOTTOM
 10
0.0
 20
0.0
 30
0.0
  9
$UCSORGLEFT
 10
0.0
 20
0.0
 30
0.0
  9
$UCSORGRIGHT
 10
0.0
 20
0.0
 30
0.0
  9
$UCSORGFRONT
 10
0.0
 20
0.0
 30
0.0
  9
$UCSORGBACK
 10
0.0
 20
0.0
 30
0.0
  9
$PUCSBASE
  2

  9
$PUCSNAME
  2

  9
$PUCSORG
 10
0.0
 20
0.0
 30
0.0
  9
$PUCSXDIR
 10
1.0
 20
0.0
 30
0.0
  9
$PUCSYDIR
 10
0.0
 20
1.0
 30
0.0
  9
$PUCSORTHOREF
  2

  9
$PUCSORTHOVIEW
 70
     0
  9
$PUCSORGTOP
 10
0.0
 20
0.0
 30
0.0
  9
$PUCSORGBOTTOM
 10
0.0
 20
0.0
 30
0.0
  9
$PUCSORGLEFT
 10
0.0
 20
0.0
 30
0.0
  9
$PUCSORGRIGHT
 10
0.0
 20
0.0
 30
0.0
  9
$PUCSORGFRONT
 10
0.0
 20
0.0
 30
0.0
  9
$PUCSORGBACK
 10
0.0
 20
0.0
 30
0.0
  9
$USERI1
 70
     0
  9
$USERI2
 70
     0
  9
$USERI3
 70
     0
  9
$USERI4
 70
     0
  9
$USERI5
 70
     0
  9
$USERR1
 40
0.0
  9
$USERR2
 40
0.0
  9
$USERR3
 40
0.0
  9
$USERR4
 40
0.0
  9
$USERR5
 40
0.0
  9
$WORLDVIEW
 70
     1
  9
$SHADEDGE
 70
     3
  9
$SHADEDIF
 70
    70
  9
$TILEMODE
 70
     1
  9
$MAXACTVP
 70
    64
  9
$PINSBASE
 10
0.0
 20
0.0
 30
0.0
  9
$PLIMCHECK
 70
     0
  9
$PEXTMIN
 10
0.0
 20
0.0
 30
0.0
  9
$PEXTMAX
 10
1682.0
 20
2378.0
 30
0.0
  9
$PLIMMIN
 10
0.0
 20
0.0
  9
$PLIMMAX
 10
1682.0
 20
2378.0
  9
$UNITMODE
 70
     0
  9
$VISRETAIN
 70
     1
  9
$PLINEGEN
 70
     0
  9
$PSLTSCALE
 70
     1
  9
$TREEDEPTH
 70
  3020
  9
$CMLSTYLE
  2
Standard
  9
$CMLJUST
 70
     0
  9
$CMLSCALE
 40
20.0
  9
$PROXYGRAPHICS
 70
     1
  9
$MEASUREMENT
 70
     1
  9
$CELWEIGHT
370
    -1
  9
$ENDCAPS
280
     0
  9
$JOINSTYLE
280
     0
  9
$LWDISPLAY
290
     0
  9
$INSUNITS
 70
     4
  9
$HYPERLINKBASE
  1

  9
$STYLESHEET
  1

  9
$XEDIT
290
     1
  9
$CEPSNTYPE
380
     0
  9
$PSTYLEMODE
290
     1
  9
$FINGERPRINTGUID
  2
{60B153B2-20D5-4F2A-B673-334773137821}
  9
$VERSIONGUID
  2
{FAEB1C32-E019-11D5-929B-00C0DF256EC4}
  9
$EXTNAMES
290
     1
  9
$PSVPSCALE
 40
0.0
  9
$OLESTARTUP
290
     0
  0
ENDSEC
  0
SECTION
  2
CLASSES
  0
CLASS
  1
ACDBDICTIONARYWDFLT
  2
AcDbDictionaryWithDefault
  3
ObjectDBX Classes
 90
        0
280
     0
281
     0
  0
CLASS
  1
VISUALSTYLE
  2
AcDbVisualStyle
  3
ObjectDBX Classes
 90
     4095
280
     0
281
     0
  0
CLASS
  1
SCALE
  2
AcDbScale
  3
ObjectDBX Classes
 90
     1153
280
     0
281
     0
  0
CLASS
  1
DICTIONARYVAR
  2
AcDbDictionaryVar
  3
ObjectDBX Classes
 90
        0
280
     0
281
     0
  0
CLASS
  1
ACDBPLACEHOLDER
  2
AcDbPlaceHolder
  3
ObjectDBX Classes
 90
        0
280
     0
281
     0
  0
CLASS
  1
LAYOUT
  2
AcDbLayout
  3
ObjectDBX Classes
 90
        0
280
     0
281
     0
  0
ENDSEC
  0
SECTION
  2
TABLES
  0
TABLE
  2
VPORT
  5
8
330
0
100
AcDbSymbolTable
 70
     1
  0
VPORT
  5
29
330
8
100
AcDbSymbolTableRecord
100
AcDbViewportTableRecord
  2
*Active
 70
     0
 10
0.0
 20
0.0
 11
1.0
 21
1.0
 12
344.1869158879
 22
148.5
 13
0.0
 23
0.0
 14
10.0
 24
10.0
 15
10.0
 25
10.0
 16
0.0
 26
0.0
 36
1.0
 17
0.0
 27
0.0
 37
0.0
 40
297.0
 41
1.9729729729
 42
50.0
 43
0.0
 44
0.0
 50
0.0
 51
0.0
 71
     0
 72
   100
 73
     1
 74
     3
 75
     0
 76
     0
 77
     0
 78
     0
281
     0
 65
     1
110
0.0
120
0.0
130
0.0
111
1.0
121
0.0
131
0.0
112
0.0
122
1.0
132
0.0
 79
     0
146
0.0
  0
ENDTAB
  0
TABLE
  2
LTYPE
  5
5
330
0
100
AcDbSymbolTable
 70
     2
  0
LTYPE
  5
14
330
5
100
AcDbSymbolTableRecord
100
AcDbLinetypeTableRecord
  2
ByBlock
 70
     0
  3

 72
    65
 73
     0
 40
0.0
  0
LTYPE
  5
15
330
5
100
AcDbSymbolTableRecord
100
AcDbLinetypeTableRecord
  2
ByLayer
 70
     0
  3

 72
    65
 73
     0
 40
0.0
  0
LTYPE
  5
16
330
5
100
AcDbSymbolTableRecord
100
AcDbLinetypeTableRecord
  2
Continuous
 70
     0
  3
Solid line
 72
    65
 73
     0
 40
0.0
  0
LTYPE
  5
60
330
5
100
AcDbSymbolTableRecord
100
AcDbLinetypeTableRecord
  2
CENTER2
 70
     0
  3
Center (.5x) ___ _ ___ _ ___ _ ___ _ ___ _ ___
 72
    65
 73
     4
 40
28.575
 49
19.05
 74
     4
 75
     0
340
0
 46
0.0
 50
0.0
 44
0.0
 45
0.0
 49
-3.175
 74
     4
 75
     0
340
0
 46
0.0
 50
0.0
 44
0.0
 45
0.0
 49
3.175
 74
     4
 75
     0
340
0
 46
0.0
 50
0.0
 44
0.0
 45
0.0
 49
-3.175
 74
     4
 75
     0
340
0
 46
0.0
 50
0.0
 44
0.0
 45
0.0
  0
ENDTAB
  0
TABLE
  2
LAYER
  5
2
330
0
100
AcDbSymbolTable
 70
     5
  0
LAYER
  5
10
330
2
100
AcDbSymbolTableRecord
100
AcDbLayerTableRecord
  2
0
 70
     0
 62
     7
  6
Continuous
370
    -3
390
F
  0
LAYER
  5
5D
330
2
100
AcDbSymbolTableRecord
100
AcDbLayerTableRecord
  2
Default
 70
     0
 62
     7
  6
Continuous
370
    -3
390
F
  0
LAYER
  5
77
330
2
100
AcDbSymbolTableRecord
100
AcDbLayerTableRecord
  2
$DDT_AUDIT_GENERATED_(77)
 70
     0
 62
     7
  6
Continuous
370
    -3
390
F
  0
LAYER
  5
8A
330
2
100
AcDbSymbolTableRecord
100
AcDbLayerTableRecord
  2
$DDT_AUDIT_GENERATED_(8A)
 70
     0
 62
     7
  6
Continuous
370
    -3
390
F
  0
LAYER
  5
E6
330
2
100
AcDbSymbolTableRecord
100
AcDbLayerTableRecord
  2
$DDT_AUDIT_GENERATED_(E6)
 70
     0
 62
     7
  6
Continuous
370
    -3
390
F
  0
ENDTAB
  0
TABLE
  2
STYLE
  5
3
330
0
100
AcDbSymbolTable
 70
     2
  0
STYLE
  5
11
330
3
100
AcDbSymbolTableRecord
100
AcDbTextStyleTableRecord
  2
Standard
 70
     0
 40
0.0
 41
1.0
 50
0.0
 71
     0
 42
2.5
  3
txt
  4

  0
STYLE
  5
369
330
3
100
AcDbSymbolTableRecord
100
AcDbTextStyleTableRecord
  2
SEACAD_seiso_ttf
 70
     0
 40
0.0
 41
1.0
 50
0.0
 71
     0
 42
0.2
  3
seiso.ttf
  4

  0
ENDTAB
  0
TABLE
  2
VIEW
  5
6
330
0
100
AcDbSymbolTable
 70
     0
  0
ENDTAB
  0
TABLE
  2
UCS
  5
7
330
0
100
AcDbSymbolTable
 70
     0
  0
ENDTAB
  0
TABLE
  2
APPID
  5
9
330
0
100
AcDbSymbolTable
 70
     1
  0
APPID
  5
12
330
9
100
AcDbSymbolTableRecord
100
AcDbRegAppTableRecord
  2
ACAD
 70
     0
  0
ENDTAB
  0
TABLE
  2
DIMSTYLE
  5
A
330
0
100
AcDbSymbolTable
 70
     1
100
AcDbDimStyleTable
  0
DIMSTYLE
105
27
330
A
100
AcDbSymbolTableRecord
100
AcDbDimStyleTableRecord
  2
ISO-25
 70
     0
 41
2.5
 42
0.625
 43
3.75
 44
1.25
 73
     0
 74
     0
 77
     1
 78
     8
140
2.5
141
2.5
143
0.0393700787
147
0.625
171
     3
172
     1
271
     2
272
     2
274
     3
278
    44
283
     0
284
     8
340
11
  0
ENDTAB
  0
TABLE
  2
BLOCK_RECORD
  5
1
330
0
100
AcDbSymbolTable
 70
     8
  0
BLOCK_RECORD
  5
1F
330
1
100
AcDbSymbolTableRecord
100
AcDbBlockTableRecord
  2
*Model_Space
340
22
  0
BLOCK_RECORD
  5
1B
330
1
100
AcDbSymbolTableRecord
100
AcDbBlockTableRecord
  2
*Paper_Space
340
1E
  0
BLOCK_RECORD
  5
5E
330
1
100
AcDbSymbolTableRecord
100
AcDbBlockTableRecord
  2
SEANNOT_GROUP
340
0
102
{BLKREFS
331
5F
102
}
  0
BLOCK_RECORD
  5
65
330
1
100
AcDbSymbolTableRecord
100
AcDbBlockTableRecord
  2
SEANNOT_GROUP1
340
0
102
{BLKREFS
331
66
102
}
  0
BLOCK_RECORD
  5
6A
330
1
100
AcDbSymbolTableRecord
100
AcDbBlockTableRecord
  2
SEANNOT_GROUP2
340
0
102
{BLKREFS
331
6B
102
}
  0
BLOCK_RECORD
  5
6F
330
1
100
AcDbSymbolTableRecord
100
AcDbBlockTableRecord
  2
SEANNOT_GROUP3
340
0
102
{BLKREFS
331
70
102
}
  0
BLOCK_RECORD
  5
75
330
1
100
AcDbSymbolTableRecord
100
AcDbBlockTableRecord
  2
SE
340
0
102
{BLKREFS
331
76
102
}
  0
BLOCK_RECORD
  5
119
330
1
100
AcDbSymbolTableRecord
100
AcDbBlockTableRecord
  2
SE1
340
0
102
{BLKREFS
331
11A
102
}
  0
BLOCK_RECORD
  5
272
330
1
100
AcDbSymbolTableRecord
100
AcDbBlockTableRecord
  2
SE2
340
0
102
{BLKREFS
331
273
102
}
  0
ENDTAB
  0
ENDSEC
  0
SECTION
  2
BLOCKS
  0
BLOCK
  5
20
330
1F
100
AcDbEntity
  8
0
100
AcDbBlockBegin
  2
*Model_Space
 70
     0
 10
0.0
 20
0.0
 30
0.0
  3
*Model_Space
  1

  0
ENDBLK
  5
21
330
1F
100
AcDbEntity
  8
0
100
AcDbBlockEnd
  0
BLOCK
  5
1C
330
1B
100
AcDbEntity
 67
     1
  8
0
100
AcDbBlockBegin
  2
*Paper_Space
 70
     0
 10
0.0
 20
0.0
 30
0.0
  3
*Paper_Space
  1

  0
ENDBLK
  5
1D
330
1B
100
AcDbEntity
 67
     1
  8
0
100
AcDbBlockEnd
  0
BLOCK
  5
63
330
5E
100
AcDbEntity
  8
0
100
AcDbBlockBegin
  2
SEANNOT_GROUP
 70
     0
 10
0.0
 20
0.0
 30
0.0
  3
SEANNOT_GROUP
  1

  0
LINE
  5
61
330
5E
100
AcDbEntity
  8
Default
  6
CENTER2
 62
     7
100
AcDbLine
 10
358.6482591858
 20
262.9207570768
 30
0.0
 11
318.6482600799
 21
262.9207570768
 31
0.0
  0
LINE
  5
62
330
5E
100
AcDbEntity
  8
Default
  6
CENTER2
 62
     7
100
AcDbLine
 10
338.6482596328
 20
282.9207566298
 30
0.0
 11
338.6482596328
 21
242.9207575238
 31
0.0
  0
ENDBLK
  5
64
330
5E
100
AcDbEntity
  8
0
100
AcDbBlockEnd
  0
BLOCK
  5
68
330
65
100
AcDbEntity
  8
0
100
AcDbBlockBegin
  2
SEANNOT_GROUP1
 70
     0
 10
0.0
 20
0.0
 30
0.0
  3
SEANNOT_GROUP1
  1

  0
LINE
  5
67
330
65
100
AcDbEntity
  8
Default
  6
CENTER2
 62
     7
100
AcDbLine
 10
202.1883236057
 20
168.5775299312
 30
0.0
 11
202.1883236057
 21
357.2639842224
 31
0.0
  0
ENDBLK
  5
69
330
65
100
AcDbEntity
  8
0
100
AcDbBlockEnd
  0
BLOCK
  5
6D
330
6A
100
AcDbEntity
  8
0
100
AcDbBlockBegin
  2
SEANNOT_GROUP2
 70
     0
 10
0.0
 20
0.0
 30
0.0
  3
SEANNOT_GROUP2
  1

  0
LINE
  5
6C
330
6A
100
AcDbEntity
  8
Default
  6
CENTER2
 62
     7
100
AcDbLine
 10
113.6492398143
 20
262.9207570768
 30
0.0
 11
284.0315507513
 21
262.9207570768
 31
0.0
  0
ENDBLK
  5
6E
330
6A
100
AcDbEntity
  8
0
100
AcDbBlockEnd
  0
BLOCK
  5
73
330
6F
100
AcDbEntity
  8
0
100
AcDbBlockBegin
  2
SEANNOT_GROUP3
 70
     0
 10
0.0
 20
0.0
 30
0.0
  3
SEANNOT_GROUP3
  1

  0
LINE
  5
71
330
6F
100
AcDbEntity
  8
Default
  6
CENTER2
 62
     7
100
AcDbLine
 10
222.1883231587
 20
128.761426879
 30
0.0
 11
182.1883240528
 21
128.761426879
 31
0.0
  0
LINE
  5
72
330
6F
100
AcDbEntity
  8
Default
  6
CENTER2
 62
     7
100
AcDbLine
 10
202.1883236057
 20
148.7614264319
 30
0.0
 11
202.1883236057
 21
108.761427326
 31
0.0
  0
ENDBLK
  5
74
330
6F
100
AcDbEntity
  8
0
100
AcDbBlockEnd
  0
BLOCK
  5
117
330
75
100
AcDbEntity
  8
0
100
AcDbBlockBegin
  2
SE
 70
     0
 10
0.0
 20
0.0
 30
0.0
  3
SE
  1

  0
LINE
  5
78
330
75
100
AcDbEntity
  8
$DDT_AUDIT_GENERATED_(77)
  6
Continuous
 62
     7
100
AcDbLine
 10
383.0010184314
 20
277.4078631184
 30
0.0
 11
383.0010184314
 21
277.9207570768
 31
0.0
  0
LINE
  5
79
330
75
100
AcDbEntity
  8
$DDT_AUDIT_GENERATED_(77)
  6
Continuous
 62
     7
100
AcDbLine
 10
370.3553816992
 20
236.9164317206
 30
0.0
 11
359.4754954096
 21
236.8214843913
 31
0.0
  0
LINE
  5
7A
330
75
100
AcDbEntity
  8
$DDT_AUDIT_GENERATED_(77)
  6
Continuous
 62
     7
100
AcDbLine
 10
370.3553816992
 20
237.4164126821
 30
0.0
 11
370.3553816992
 21
288.4251014715
 31
0.0
  0
LINE
  5
7B
330
75
100
AcDbEntity
  8
$DDT_AUDIT_GENERATED_(77)
  6
Continuous
 62
     7
100
AcDbLine
 10
370.3553816992
 20
288.4251014715
 30
0.0
 11
359.4754954102
 21
288.5200488007
 31
0.0
  0
LINE
  5
7C
330
75
100
AcDbEntity
  8
$DDT_AUDIT_GENERATED_(77)
  6
Continuous
 62
     7
100
AcDbLine
 10
359.4754954096
 20
237.3214653529
 30
0.0
 11
370.3553816992
 21
237.4164126821
 31
0.0
  0
LINE
  5
7D
330
75
100
AcDbEntity
  8
$DDT_AUDIT_GENERATED_(77)
  6
Continuous
 62
     7
100
AcDbLine
 10
359.4754954102
 20
289.0200297623
 30
0.0
 11
370.3553816992
 21
288.925082433
 31
0.0
  0
LINE
  5
7E
330
75
100
AcDbEntity
  8
$DDT_AUDIT_GENERATED_(77)
  6
Continuous
 62
     7
100
AcDbLine
 10
370.8510184314
 20
288.4251014715
 30
0.0
 11
370.8510184314
 21
237.4164126821
 31
0.0
  0
ELLIPSE
  5
7F
330
75
100
AcDbEntity
  8
$DDT_AUDIT_GENERATED_(77)
  6
Continuous
 62
     7
100
AcDbEllipse
 10
370.3510184314
 20
288.4251014715
 30
0.0
 11
0.0
 21
0.004363267749226907
 31
0.0
210
0.0
220
0.0
230
1.0
 40
1.0
 41
-1.570796326794897
 42
-0.0087266462599382
  0
ARC
  5
80
330
75
100
AcDbEntity
  8
$DDT_AUDIT_GENERATED_(77)
  6
Continuous
 62
     7
100
AcDbCircle
 10
370.3510184314
 20
288.4251014715
 30
0.0
 40
0.5000000000000004
100
AcDbArc
 50
0.0
 51
89.5
  0
LINE
  5
81
330
75
100
AcDbEntity
  8
$DDT_AUDIT_GENERATED_(77)
  6
Continuous
 62
     7
100
AcDbLine
 10
370.8510184314
 20
288.4251014715
 30
0.0
 11
370.3553816992
 21
288.4251014715
 31
0.0
  0
LINE
  5
82
330
75
100
AcDbEntity
  8
$DDT_AUDIT_GENERATED_(77)
  6
Continuous
 62
     7
100
AcDbLine
 10
370.8510184314
 20
237.4164126821
 30
0.0
 11
370.3553816992
 21
237.4164126821
 31
0.0
  0
ARC
  5
83
330
75
100
AcDbEntity
  8
$DDT_AUDIT_GENERATED_(77)
  6
Continuous
 62
     7
100
AcDbCircle
 10
370.3510184314
 20
237.4164126821
 30
0.0
 40
0.5000000000000014
100
AcDbArc
 50
270.5
 51
0.0
  0
ELLIPSE
  5
84
330
75
100
AcDbEntity
  8
$DDT_AUDIT_GENERATED_(77)
  6
Continuous
 62
     7
100
AcDbEllipse
 10
370.3510184314
 20
237.4164126821
 30
0.0
 11
0.004363267749177281
 21
-0.4999809615320872
 31
0.0
210
0.0
220
0.0
230
1.0
 40
0.0087262032
 41
0.0
 42
1.570720174373018
  0
LINE
  5
85
330
75
100
AcDbEntity
  8
$DDT_AUDIT_GENERATED_(77)
  6
Continuous
 62
     7
100
AcDbLine
 10
371.1872929412
 20
286.542461284
 30
0.0
 11
371.1872929412
 21
239.2990528697
 31
0.0
  0
ARC
  5
86
330
75
100
AcDbEntity
  8
$DDT_AUDIT_GENERATED_(77)
  6
Continuous
 62
     7
100
AcDbCircle
 10
363.0010184314
 20
262.9207570768
 30
0.0
 40
25.0
100
AcDbArc
 50
36.8698976458
 51
70.8858668002
  0
ARC
  5
87
330
75
100
AcDbEntity
  8
$DDT_AUDIT_GENERATED_(77)
  6
Continuous
 62
     7
100
AcDbCircle
 10
363.0010184314
 20
262.9207570768
 30
0.0
 40
25.0
100
AcDbArc
 50
289.1141331998
 51
293.0988148594
  0
ARC
  5
88
330
75
100
AcDbEntity
  8
$DDT_AUDIT_GENERATED_(77)
  6
Continuous
 62
     7
100
AcDbCircle
 10
371.3510184314
 20
287.0148953681
 30
0.0
 40
0.5000000000000011
100
AcDbArc
 50
180.0
 51
250.8858668002
  0
ARC
  5
89
330
75
100
AcDbEntity
  8
$DDT_AUDIT_GENERATED_(77)
  6
Continuous
 62
     7
100
AcDbCircle
 10
371.3510184314
 20
238.8266187855
 30
0.0
 40
0.5000000000000004
100
AcDbArc
 50
109.1141331998
 51
180.0
  0
SPLINE
  5
8B
330
75
100
AcDbEntity
  8
$DDT_AUDIT_GENERATED_(8A)
  6
Continuous
 62
     7
100
AcDbSpline
210
0.0
220
0.0
230
1.0
 70
    12
 71
     2
 72
     6
 73
     3
 74
     0
 42
0.0000000106710815
 43
0.0000000001
 40
0.0
 40
0.0
 40
0.0
 40
1.0
 40
1.0
 40
1.0
 10
405.2961691030028
 20
171.4975556265189
 30
0.0
 41
1.0
 10
405.326560165659
 20
171.0299861758311
 30
0.0
 41
0.729678387587471
 10
405.7951162125331
 20
171.0299861758314
 30
0.0
 41
1.0
  0
SPLINE
  5
8C
330
75
100
AcDbEntity
  8
$DDT_AUDIT_GENERATED_(8A)
  6
Continuous
 62
     7
100
AcDbSpline
210
0.0
220
0.0
230
1.0
 70
    12
 71
     3
 72
     8
 73
     4
 74
     0
 42
0.0000004585747902
 43
0.0000000001
 40
0.0
 40
0.0
 40
0.0
 40
0.0
 40
0.0458574790182635
 40
0.0458574790182635
 40
0.0458574790182635
 40
0.0458574790182635
 10
405.7951162125331
 20
171.0299861758314
 30
0.0
 41
1.0
 10
405.795117343443
 20
171.0299861758314
 30
0.0
 41
1.0
 10
405.7954105884638
 20
171.0300006885319
 30
0.0
 41
1.0
 10
405.7959806082217
 20
171.0300692827691
 30
0.0
 41
1.0
  0
SPLINE
  5
8D
330
75
100
AcDbEntity
  8
$DDT_AUDIT_GENERATED_(8A)
  6
Continuous
 62
     7
100
AcDbSpline
210
0.0
220
0.0
230
1.0
 70
    12
 71
     3
 72
    18
 73
    14
 74
     0
 42
0.0000000157231374
 43
0.0000000001
 40
0.0458574790182635
 40
0.0458574790182635
 40
0.0458574790182635
 40
0.0458574790182635
 40
0.5
 40
0.5
 40
0.6249999999999994
 40
0.6249999999999994
 40
0.7499999999999999
 40
0.7499999999999999
 40
0.8124999999999997
 40
0.8124999999999997
 40
0.8749999999999994
 40
0.8749999999999994
 40
1.0
 40
1.0
 40
1.0
 40
1.0
 10
405.7959806082217
 20
171.0300692827691
 30
0.0
 41
1.0
 10
405.8016257116031
 20
171.0307485952922
 30
0.0
 41
1.0
 10
405.8344158513393
 20
171.0367320236941
 30
0.0
 41
1.0
 10
405.8918481180384
 20
171.1001372803782
 30
0.0
 41
1.0
 10
405.9044465080328
 20
171.1153496270578
 30
0.0
 41
1.0
 10
405.9378963084666
 20
171.1655389116666
 30
0.0
 41
1.0
 10
405.957805118621
 20
171.200309313799
 30
0.0
 41
1.0
 10
405.9874531572572
 20
171.2758226692269
 30
0.0
 41
1.0
 10
405.9974563486821
 20
171.3058856052199
 30
0.0
 41
1.0
 10
406.0127698327054
 20
171.362781539577
 30
0.0
 41
1.0
 10
406.0187206175399
 20
171.3906143315522
 30
0.0
 41
1.0
 10
406.0329248950866
 20
171.4694309861577
 30
0.0
 41
1.0
 10
406.0376470755575
 20
171.5155890147401
 30
0.0
 41
1.0
 10
406.040264827977
 20
171.5509557002333
 30
0.0
 41
1.0
  0
LINE
  5
8E
330
75
100
AcDbEntity
  8
$DDT_AUDIT_GENERATED_(8A)
  6
Continuous
 62
     7
100
AcDbLine
 10
405.2848296921
 20
171.6720135649
 30
0.0
 11
405.296169103
 21
171.4975556265
 31
0.0
  0
ELLIPSE
  5
8F
330
75
100
AcDbEntity
  8
$DDT_AUDIT_GENERATED_(8A)
  6
Continuous
 62
     7
100
AcDbEllipse
 10
405.7837768431
 20
171.7044441142
 30
0.0
 11
-0.4989471509800059
 21
-0.03243054931610645
 31
0.0
210
0.0
220
0.0
230
1.0
 40
0.3900771492
 41
0.0
 42
2.085164576409707
  0
LINE
  5
90
330
75
100
AcDbEntity
  8
$DDT_AUDIT_GENERATED_(8A)
  6
Continuous
 62
     7
100
AcDbLine
 10
406.040264828
 20
171.5509557002
 30
0.0
 11
406.0384795812
 21
172.0571731802
 31
0.0
  0
ARC
  5
91
330
75
100
AcDbEntity
  8
$DDT_AUDIT_GENERATED_(8A)
  6
Continuous
 62
     7
100
AcDbCircle
 10
465.4014004852
 20
172.1521255238
 30
0.0
 40
60.11848793356732
100
AcDbArc
 50
180.1233743045
 51
180.4575744051
  0
ELLIPSE
  5
92
330
75
100
AcDbEntity
  8
$DDT_AUDIT_GENERATED_(8A)
  6
Continuous
 62
     7
100
AcDbEllipse
 10
405.7696141206
 20
172.0435796778
 30
0.0
 11
-0.4995178155036277
 21
-0.02195340534665024
 31
0.0
210
0.0
220
0.0
230
1.0
 40
0.0042135985
 41
4.143844534903335
 42
6.05474952806085
  0
LINE
  5
93
330
75
100
AcDbEntity
  8
$DDT_AUDIT_GENERATED_(8A)
  6
Continuous
 62
     7
100
AcDbLine
 10
406.0384795811
 20
172.0571731811
 30
0.0
 11
406.0120357952
 21
172.8139317434
 31
0.0
  0
LINE
  5
94
330
75
100
AcDbEntity
  8
$DDT_AUDIT_GENERATED_(8A)
  6
Continuous
 62
     7
100
AcDbLine
 10
405.2937078713
 20
172.7918460493
 30
0.0
 11
405.2830519257
 21
172.0226732165
 31
0.0
  0
ELLIPSE
  5
95
330
75
100
AcDbEntity
  8
$DDT_AUDIT_GENERATED_(8A)
  6
Continuous
 62
     7
100
AcDbEllipse
 10
405.7431703346
 20
172.8003382409
 30
0.0
 11
-0.4998258334073941
 21
-0.01319606985443478
 31
0.0
210
0.0
220
0.0
230
0.9999999999999998
 40
0.0154081664
 41
4.14401648754556
 42
5.830006892160844
  0
LINE
  5
96
330
75
100
AcDbEntity
  8
$DDT_AUDIT_GENERATED_(8A)
  6
Continuous
 62
     7
100
AcDbLine
 10
406.0120357952
 20
172.8139317434
 30
0.0
 11
403.9983321341
 21
249.0867250054
 31
0.0
  0
LINE
  5
97
330
75
100
AcDbEntity
  8
$DDT_AUDIT_GENERATED_(8A)
  6
Continuous
 62
     7
100
AcDbLine
 10
403.2800042103
 20
249.0646393113
 30
0.0
 11
405.2937078713
 21
172.7918460493
 31
0.0
  0
ELLIPSE
  5
98
330
75
100
AcDbEntity
  8
$DDT_AUDIT_GENERATED_(8A)
  6
Continuous
 62
     7
100
AcDbEllipse
 10
403.7294666736
 20
249.0731315028
 30
0.0
 11
-0.4998258334054095
 21
-0.01319606988998273
 31
0.0
210
0.0
220
0.0
230
1.0
 40
0.0154081665
 41
4.144016487547749
 42
5.830006892163651
  0
SPLINE
  5
99
330
75
100
AcDbEntity
  8
$DDT_AUDIT_GENERATED_(8A)
  6
Continuous
 62
     7
100
AcDbSpline
210
0.0
220
0.0
230
1.0
 70
    12
 71
     3
 72
    16
 73
    12
 74
     0
 42
0.0000000037719063
 43
0.0000000001
 40
0.0
 40
0.0
 40
0.0
 40
0.0
 40
0.125
 40
0.125
 40
0.1875
 40
0.1875
 40
0.25
 40
0.25
 40
0.5
 40
0.5
 40
1.0
 40
1.0
 40
1.0
 40
1.0
 10
403.9983321341346
 20
249.0867250053944
 30
0.0
 41
1.0
 10
403.9923467158278
 20
249.3134143383016
 30
0.0
 41
1.0
 10
403.9856261052497
 20
249.5029228684532
 30
0.0
 41
1.0
 10
403.9744424009835
 20
249.7314144595704
 30
0.0
 41
1.0
 10
403.9705905630627
 20
249.7968547063157
 30
0.0
 41
1.0
 10
403.9617030355043
 20
249.9286222827454
 30
0.0
 41
1.0
 10
403.956760059118
 20
249.992737289553
 30
0.0
 41
1.0
 10
403.9295491141509
 20
250.3044684165782
 30
0.0
 41
1.0
 10
403.8999463599662
 20
250.5233202195677
 30
0.0
 41
1.0
 10
403.7849770335864
 20
251.1269757591545
 30
0.0
 41
1.0
 10
403.6727720158729
 20
251.4519213700265
 30
0.0
 41
1.0
 10
403.5389772661509
 20
251.6655315843397
 30
0.0
 41
1.0
  0
ARC
  5
9A
330
75
100
AcDbEntity
  8
$DDT_AUDIT_GENERATED_(8A)
  6
Continuous
 62
     7
100
AcDbCircle
 10
362.4579281151
 20
249.4554097828
 30
0.0
 40
40.82394638301399
100
AcDbArc
 50
359.4515512907
 51
2.81377395
  0
ELLIPSE
  5
9B
330
75
100
AcDbEntity
  8
$DDT_AUDIT_GENERATED_(8A)
  6
Continuous
 62
     7
100
AcDbEllipse
 10
403.2701118056
 20
251.6519380817
 30
0.0
 11
-0.4237239842638796
 21
-0.265439230640277
 31
0.0
210
0.0
220
0.0
230
1.0
 40
0.297338933
 41
1.299628190627457
 42
2.060236626114859
  0
SPLINE
  5
9C
330
75
100
AcDbEntity
  8
$DDT_AUDIT_GENERATED_(8A)
  6
Continuous
 62
     7
100
AcDbSpline
210
0.0
220
0.0
230
1.0
 70
    12
 71
     3
 72
    10
 73
     6
 74
     0
 42
0.0000001129446832
 43
0.0000000001
 40
0.0
 40
0.0
 40
0.0
 40
0.0
 40
0.5000000000000009
 40
0.5000000000000009
 40
1.0
 40
1.0
 40
1.0
 40
1.0
 10
403.1712390399494
 20
251.4783334603111
 30
0.0
 41
1.0
 10
403.1819479663244
 20
251.4928705229129
 30
0.0
 41
1.0
 10
403.1916051964496
 20
251.49370916875
 30
0.0
 41
1.0
 10
403.2069805169871
 20
251.4920135744281
 30
0.0
 41
1.0
 10
403.2200564495447
 20
251.488679232137
 30
0.0
 41
1.0
 10
403.2326557177844
 20
251.4594524998781
 30
0.0
 41
1.0
  0
ELLIPSE
  5
9D
330
75
100
AcDbEntity
  8
$DDT_AUDIT_GENERATED_(8A)
  6
Continuous
 62
     7
100
AcDbEllipse
 10
403.0825181402
 20
251.8171296218
 30
0.0
 11
-0.2767431311457291
 21
-0.7506085793298444
 31
0.0
210
0.0
220
0.0
230
0.9999999999999999
 40
0.2684472026
 41
1.203616139698536
 42
1.740269121581037
  0
SPLINE
  5
9E
330
75
100
AcDbEntity
  8
$DDT_AUDIT_GENERATED_(8A)
  6
Continuous
 62
     7
100
AcDbSpline
210
0.0
220
0.0
230
1.0
 70
    12
 71
     3
 72
    14
 73
    10
 74
     0
 42
0.0000000135514097
 43
0.0000000001
 40
0.0
 40
0.0
 40
0.0
 40
0.0
 40
0.5
 40
0.5
 40
0.75
 40
0.75
 40
0.875
 40
0.875
 40
1.0
 40
1.0
 40
1.0
 40
1.0
 10
403.3278064558954
 20
251.8705026919274
 30
0.0
 41
1.0
 10
403.2365040239847
 20
251.9039448021707
 30
0.0
 41
1.0
 10
403.1382669762885
 20
251.9134320200913
 30
0.0
 41
1.0
 10
402.9806395307592
 20
251.8911842690325
 30
0.0
 41
1.0
 10
402.926965240694
 20
251.8778410686177
 30
0.0
 41
1.0
 10
402.8364111749849
 20
251.8466330604703
 30
0.0
 41
1.0
 10
402.8077617795424
 20
251.8357500506067
 30
0.0
 41
1.0
 10
402.7333909263368
 20
251.8039832558669
 30
0.0
 41
1.0
 10
402.684680205765
 20
251.7817608470647
 30
0.0
 41
1.0
 10
402.6244453061834
 20
251.7531949665152
 30
0.0
 41
1.0
  0
SPLINE
  5
9F
330
75
100
AcDbEntity
  8
$DDT_AUDIT_GENERATED_(8A)
  6
Continuous
 62
     7
100
AcDbSpline
210
0.0
220
0.0
230
1.0
 70
    12
 71
     3
 72
    14
 73
    10
 74
     0
 42
0.0000000218288799
 43
0.0000000001
 40
0.0
 40
0.0
 40
0.0
 40
0.0
 40
0.125
 40
0.125
 40
0.25
 40
0.25
 40
0.5
 40
0.5
 40
1.0
 40
1.0
 40
1.0
 40
1.0
 10
402.7658386144732
 20
251.3228780700817
 30
0.0
 41
1.0
 10
402.8261984145709
 20
251.3512944183426
 30
0.0
 41
1.0
 10
402.8659917723658
 20
251.3749943039971
 30
0.0
 41
1.0
 10
402.9231858715677
 20
251.4081497647446
 30
0.0
 41
1.0
 10
402.9428911795676
 20
251.4200419556751
 30
0.0
 41
1.0
 10
403.0019928849758
 20
251.4542947484774
 30
0.0
 41
1.0
 10
403.0316398028979
 20
251.4699292133479
 30
0.0
 41
1.0
 10
403.1097886401124
 20
251.5019198390423
 30
0.0
 41
1.0
 10
403.1447430136648
 20
251.5007543243109
 30
0.0
 41
1.0
 10
403.1712390399494
 20
251.4783334603111
 30
0.0
 41
1.0
  0
ELLIPSE
  5
A0
330
75
100
AcDbEntity
  8
$DDT_AUDIT_GENERATED_(8A)
  6
Continuous
 62
     7
100
AcDbEllipse
 10
402.3775686275
 20
251.7020486166
 30
0.0
 11
0.3407511858488921
 21
-0.7238015123930929
 31
0.0
210
0.0
220
0.0
230
1.0
 40
0.3072675556
 41
0.8820843912420951
 42
1.4971301618249
  0
LINE
  5
A1
330
75
100
AcDbEntity
  8
$DDT_AUDIT_GENERATED_(8A)
  6
Continuous
 62
     7
100
AcDbLine
 10
402.6244453062
 20
251.7531949665
 30
0.0
 11
373.0611068414
 21
237.8016966845
 31
0.0
  0
LINE
  5
A2
330
75
100
AcDbEntity
  8
$DDT_AUDIT_GENERATED_(8A)
  6
Continuous
 62
     7
100
AcDbLine
 10
405.7951162125
 20
171.0299861758
 30
0.0
 11
407.0265601657
 21
171.0299861758
 31
0.0
  0
LINE
  5
A3
330
75
100
AcDbEntity
  8
$DDT_AUDIT_GENERATED_(8A)
  6
Continuous
 62
     7
100
AcDbLine
 10
407.4567447804
 20
172.0571731811
 30
0.0
 11
406.0384795811
 21
172.0571731811
 31
0.0
  0
ARC
  5
A4
330
75
100
AcDbEntity
  8
$DDT_AUDIT_GENERATED_(8A)
  6
Continuous
 62
     7
100
AcDbCircle
 10
403.1037377357
 20
251.4283920584
 30
0.0
 40
0.4956496783610628
100
AcDbArc
 50
28.5836830982
 51
63.1233812711
  0
ARC
  5
A5
330
75
100
AcDbEntity
  8
$DDT_AUDIT_GENERATED_(8A)
  6
Continuous
 62
     7
100
AcDbCircle
 10
-2846.0940957885
 20
645.2567307132
 30
0.0
 40
3273.38191195626
100
AcDbArc
 50
353.0940504079
 51
353.6677520764
  0
ARC
  5
A6
330
75
100
AcDbEntity
  8
$DDT_AUDIT_GENERATED_(8A)
  6
Continuous
 62
     7
100
AcDbCircle
 10
-2442.179347131
 20
605.8886855817
 30
0.0
 40
2867.444826832879
100
AcDbArc
 50
352.9080992272
 51
353.559550961
  0
LINE
  5
A7
330
75
100
AcDbEntity
  8
$DDT_AUDIT_GENERATED_(8A)
  6
Continuous
 62
     7
100
AcDbLine
 10
403.2800042103
 20
249.0646393113
 30
0.0
 11
401.0987299541
 21
237.324172535
 31
0.0
  0
LINE
  5
A8
330
75
100
AcDbEntity
  8
$DDT_AUDIT_GENERATED_(8A)
  6
Continuous
 62
     7
100
AcDbLine
 10
397.8787854738
 20
240.1881116156
 30
0.0
 11
402.7658386145
 21
251.3228780701
 31
0.0
  0
ELLIPSE
  5
A9
330
75
100
AcDbEntity
  8
$DDT_AUDIT_GENERATED_(8A)
  6
Continuous
 62
     7
100
AcDbEllipse
 10
406.8571081123
 20
284.2049066984
 30
0.0
 11
-0.09132321745196348
 21
-0.7947704511078856
 31
0.0
210
0.0
220
0.0
230
0.9999999999999999
 40
0.3831664243
 41
1.666525220200427
 42
3.141592653589793
  0
LINE
  5
AA
330
75
100
AcDbEntity
  8
$DDT_AUDIT_GENERATED_(8A)
  6
Continuous
 62
     7
100
AcDbLine
 10
406.9484313297
 20
284.9996771495
 30
0.0
 11
389.1727588438
 21
287.0421934529
 31
0.0
  0
LINE
  5
AB
330
75
100
AcDbEntity
  8
$DDT_AUDIT_GENERATED_(8A)
  6
Continuous
 62
     7
100
AcDbLine
 10
407.168972097
 20
284.2460412644
 30
0.0
 11
407.3170309458
 21
284.2232392422
 31
0.0
  0
ELLIPSE
  5
AC
330
75
100
AcDbEntity
  8
$DDT_AUDIT_GENERATED_(8A)
  6
Continuous
 62
     7
100
AcDbEllipse
 10
406.8868462089
 20
284.201489638
 30
0.0
 11
-0.09132321745203287
 21
-0.7947704511078544
 31
0.0
210
0.0
220
0.0
230
1.0
 40
0.5331994373
 41
1.659305275126631
 42
3.141592653589772
  0
LINE
  5
AD
330
75
100
AcDbEntity
  8
$DDT_AUDIT_GENERATED_(8A)
  6
Continuous
 62
     7
100
AcDbLine
 10
406.9781694264
 20
284.9962600891
 30
0.0
 11
406.9484313297
 21
284.9996771495
 31
0.0
  0
LINE
  5
AE
330
75
100
AcDbEntity
  8
$DDT_AUDIT_GENERATED_(8A)
  6
Continuous
 62
     7
100
AcDbLine
 10
407.1178833831
 20
284.980206236
 30
0.0
 11
406.9781694264
 21
284.9962600891
 31
0.0
  0
LINE
  5
AF
330
75
100
AcDbEntity
  8
$DDT_AUDIT_GENERATED_(8A)
  6
Continuous
 62
     7
100
AcDbLine
 10
407.3170309458
 20
284.2232392422
 30
0.0
 11
407.4567449025
 21
284.2071853891
 31
0.0
  0
ARC
  5
B0
330
75
100
AcDbEntity
  8
$DDT_AUDIT_GENERATED_(8A)
  6
Continuous
 62
     7
100
AcDbCircle
 10
407.0265601657
 20
171.8299861758
 30
0.0
 40
0.7999999999999952
100
AcDbArc
 50
270.0
 51
360.0
  0
ARC
  5
B1
330
75
100
AcDbEntity
  8
$DDT_AUDIT_GENERATED_(8A)
  6
Continuous
 62
     7
100
AcDbCircle
 10
407.0272572247
 20
171.8375629741
 30
0.0
 40
0.7993029693216048
100
AcDbArc
 50
344.0731854494
 51
359.9847451885
  0
ARC
  5
B2
330
75
100
AcDbEntity
  8
$DDT_AUDIT_GENERATED_(8A)
  6
Continuous
 62
     7
100
AcDbCircle
 10
407.0272572247
 20
171.8375629741
 30
0.0
 40
0.7993029693216048
100
AcDbArc
 50
273.1715796576
 51
344.0731854494
  0
ARC
  5
B3
330
75
100
AcDbEntity
  8
$DDT_AUDIT_GENERATED_(8A)
  6
Continuous
 62
     7
100
AcDbCircle
 10
407.0134483955
 20
171.2029641115
 30
0.0
 40
0.1734741616041153
100
AcDbArc
 50
274.3347448833
 51
289.5435914105
  0
SPLINE
  5
B4
330
75
100
AcDbEntity
  8
$DDT_AUDIT_GENERATED_(8A)
  6
Continuous
 62
     7
100
AcDbSpline
210
0.0
220
0.0
230
1.0
 70
     8
 71
     3
 72
    10
 73
     6
 74
     0
 42
0.0000000261565037
 43
0.0000000001
 40
0.0
 40
0.0
 40
0.0
 40
0.0
 40
0.5
 40
0.5
 40
1.0
 40
1.0
 40
1.0
 40
1.0
 10
407.826560165659
 20
171.8373501622973
 30
0.0
 10
407.8265601656563
 20
171.8283051737328
 30
0.0
 10
407.7920091262381
 20
171.8194009737233
 30
0.0
 10
407.6637092864436
 20
171.8037727031318
 30
0.0
 10
407.5698815791491
 20
171.797040907703
 30
0.0
 10
407.4557123058764
 20
171.792194647968
 30
0.0
  0
SPLINE
  5
B5
330
75
100
AcDbEntity
  8
$DDT_AUDIT_GENERATED_(8A)
  6
Continuous
 62
     7
100
AcDbSpline
210
0.0
220
0.0
230
1.0
 70
     8
 71
     3
 72
    20
 73
    16
 74
     0
 42
0.0000000109439985
 43
0.0000000001
 40
0.0
 40
0.0
 40
0.0
 40
0.0
 40
0.125
 40
0.125
 40
0.25
 40
0.25
 40
0.5
 40
0.5
 40
0.75
 40
0.75
 40
0.875
 40
0.875
 40
0.99609375
 40
0.99609375
 40
1.0
 40
1.0
 40
1.0
 40
1.0
 10
407.4557123058764
 20
171.792194647968
 30
0.0
 10
407.4543058611829
 20
171.7442203969401
 30
0.0
 10
407.4514490130366
 20
171.6962516448037
 30
0.0
 10
407.442017996876
 20
171.6018520974307
 30
0.0
 10
407.435443828862
 20
171.5554213021939
 30
0.0
 10
407.4089205755781
 20
171.4207262905114
 30
0.0
 10
407.3820570513883
 20
171.3373370072291
 30
0.0
 10
407.3116090349928
 20
171.1991935007017
 30
0.0
 10
407.2682624793459
 20
171.1449527123198
 30
0.0
 10
407.1973856998518
 20
171.0889007965543
 30
0.0
 10
407.1728243601918
 20
171.074378661112
 30
0.0
 10
407.1234762115557
 20
171.052520345106
 30
0.0
 10
407.0987204341789
 20
171.0449737852257
 30
0.0
 10
407.0730822799117
 20
171.0397997607664
 30
0.0
 10
407.0722810031116
 20
171.0396407095714
 30
0.0
 10
407.0714796549964
 20
171.0394842727914
 30
0.0
  0
LINE
  5
B6
330
75
100
AcDbEntity
  8
$DDT_AUDIT_GENERATED_(8A)
  6
Continuous
 62
     7
100
AcDbLine
 10
407.8265601657
 20
171.8373501623
 30
0.0
 11
407.8265601657
 21
172.0354235769
 31
0.0
  0
ELLIPSE
  5
B7
330
75
100
AcDbEntity
  8
$DDT_AUDIT_GENERATED_(8A)
  6
Continuous
 62
     7
100
AcDbEllipse
 10
407.0265601657
 20
172.0354235769
 30
0.0
 11
0.8000000000000229
 21
0.0
 31
0.0
210
0.0
220
0.0
230
1.0
 40
0.032245846
 41
0.0
 42
1.003053014785483
  0
ARC
  5
B8
330
75
100
AcDbEntity
  8
$DDT_AUDIT_GENERATED_(8A)
  6
Continuous
 62
     7
100
AcDbCircle
 10
397.6874076277
 20
171.9627475976
 30
0.0
 40
9.769793477538496
100
AcDbArc
 50
358.9997270025
 51
0.5537754362
  0
LINE
  5
B9
330
75
100
AcDbEntity
  8
$DDT_AUDIT_GENERATED_(8A)
  6
Continuous
 62
     7
100
AcDbLine
 10
407.8265601657
 20
172.0354235769
 30
0.0
 11
407.8265601657
 21
284.1854357849
 31
0.0
  0
ELLIPSE
  5
BA
330
75
100
AcDbEntity
  8
$DDT_AUDIT_GENERATED_(8A)
  6
Continuous
 62
     7
100
AcDbEllipse
 10
407.0265601657
 20
284.1854357849
 30
0.0
 11
0.7999999999999952
 21
-3.469446951953614E-15
 31
0.0
210
0.0
220
0.0
230
1.0
 40
0.032245846
 41
0.0000000000001345
 42
1.003052833766225
  0
LINE
  5
BB
330
75
100
AcDbEntity
  8
$DDT_AUDIT_GENERATED_(8A)
  6
Continuous
 62
     7
100
AcDbLine
 10
407.4567449025
 20
284.2071853891
 30
0.0
 11
407.4567447804
 21
172.0571731811
 31
0.0
  0
ARC
  5
BC
330
75
100
AcDbEntity
  8
$DDT_AUDIT_GENERATED_(8A)
  6
Continuous
 62
     7
100
AcDbCircle
 10
407.0265601657
 20
284.1854357849
 30
0.0
 40
0.7999999999999952
100
AcDbArc
 50
0.0
 51
83.4451672605
  0
ELLIPSE
  5
BD
330
75
100
AcDbEntity
  8
$DDT_AUDIT_GENERATED_(8A)
  6
Continuous
 62
     7
100
AcDbEllipse
 10
407.0265601657
 20
284.1854357849
 30
0.0
 11
0.09132321745199123
 21
0.7947704511078526
 31
0.0
210
0.0
220
0.0
230
1.0
 40
0.5331994373
 41
4.800897928716389
 42
6.283185307179586
  0
ELLIPSE
  5
BE
330
75
100
AcDbEntity
  8
$DDT_AUDIT_GENERATED_(8A)
  6
Continuous
 62
     7
100
AcDbEllipse
 10
397.4905154868
 20
240.5672821621
 30
0.0
 11
0.09132321745203287
 21
-0.7947704511078388
 31
0.0
210
0.0
220
0.0
230
0.9999999999999999
 40
0.503411338
 41
0.0
 42
1.01659052836643
  0
LINE
  5
BF
330
75
100
AcDbEntity
  8
$DDT_AUDIT_GENERATED_(8A)
  6
Continuous
 62
     7
100
AcDbLine
 10
397.8787854738
 20
240.1881116156
 30
0.0
 11
373.0907880703
 21
237.3398430697
 31
0.0
  0
LINE
  5
C0
330
75
100
AcDbEntity
  8
$DDT_AUDIT_GENERATED_(8A)
  6
Continuous
 62
     7
100
AcDbLine
 10
397.5818387043
 20
239.772511711
 30
0.0
 11
397.7024617731
 21
239.7863719227
 31
0.0
  0
ELLIPSE
  5
C1
330
75
100
AcDbEntity
  8
$DDT_AUDIT_GENERATED_(8A)
  6
Continuous
 62
     7
100
AcDbEllipse
 10
397.6111385557
 20
240.5811423738
 30
0.0
 11
0.09132321745197737
 21
-0.7947704511078457
 31
0.0
210
0.0
220
0.0
230
1.0
 40
0.5025792164
 41
0.0
 42
1.016802723624872
  0
LINE
  5
C2
330
75
100
AcDbEntity
  8
$DDT_AUDIT_GENERATED_(8A)
  6
Continuous
 62
     7
100
AcDbLine
 10
397.9988743072
 20
240.2020557471
 30
0.0
 11
397.8787854738
 21
240.1881116156
 31
0.0
  0
SPLINE
  5
C3
330
75
100
AcDbEntity
  8
$DDT_AUDIT_GENERATED_(8A)
  6
Continuous
 62
     7
100
AcDbSpline
210
0.0
220
0.0
230
1.0
 70
     8
 71
     3
 72
    14
 73
    10
 74
     0
 42
0.0000000019994429
 43
0.0000000001
 40
0.0
 40
0.0
 40
0.0
 40
0.0
 40
0.25
 40
0.25
 40
0.5
 40
0.5
 40
0.75
 40
0.75
 40
1.0
 40
1.0
 40
1.0
 40
1.0
 10
397.7024617731411
 20
239.7863719227298
 30
0.0
 10
398.0876865772567
 20
239.830635890168
 30
0.0
 10
398.4654742352296
 20
239.8735205925367
 30
0.0
 10
399.2208854887032
 20
239.8524823884903
 30
0.0
 10
399.6008896395593
 20
239.795470080311
 30
0.0
 10
400.3275008145364
 20
239.3738494374226
 30
0.0
 10
400.6200104200485
 20
238.986312821302
 30
0.0
 10
400.933817424896
 20
238.1635256326439
 30
0.0
 10
400.9881316122083
 20
237.7255151169885
 30
0.0
 10
401.0199026117234
 20
237.2807670117116
 30
0.0
  0
ELLIPSE
  5
C4
330
75
100
AcDbEntity
  8
$DDT_AUDIT_GENERATED_(8A)
  6
Continuous
 62
     7
100
AcDbEllipse
 10
401.8178698954
 20
237.3377600415
 30
0.0
 11
-0.7979665698843175
 21
-0.05700309944793592
 31
0.0
210
0.0
220
0.0
230
1.0
 40
0.1069965257
 41
5.82725147696849
 42
6.283067371407604
  0
SPLINE
  5
C5
330
75
100
AcDbEntity
  8
$DDT_AUDIT_GENERATED_(8A)
  6
Continuous
 62
     7
100
AcDbSpline
210
0.0
220
0.0
230
1.0
 70
     8
 71
     3
 72
    14
 73
    10
 74
     0
 42
0.0000000018745213
 43
0.0000000001
 40
0.0
 40
0.0
 40
0.0
 40
0.0
 40
0.25
 40
0.25
 40
0.5
 40
0.5
 40
0.75
 40
0.75
 40
1.0
 40
1.0
 40
1.0
 40
1.0
 10
401.098729954106
 20
237.3241725350422
 30
0.0
 10
401.0656179091864
 20
237.7876965437044
 30
0.0
 10
401.0465132886877
 20
238.2580413812026
 30
0.0
 10
400.8976654709374
 20
239.1759336632121
 30
0.0
 10
400.7608867300911
 20
239.6563008301584
 30
0.0
 10
400.0603587145519
 20
240.217877594334
 30
0.0
 10
399.621208316009
 20
240.2792018088115
 30
0.0
 10
398.800413021516
 20
240.3006459880387
 30
0.0
 10
398.3979274740089
 20
240.24886113445
 30
0.0
 10
397.9988743071756
 20
240.2020557471017
 30
0.0
  0
LINE
  5
C6
330
75
100
AcDbEntity
  8
$DDT_AUDIT_GENERATED_(8A)
  6
Continuous
 62
     7
100
AcDbLine
 10
401.0199026117
 20
237.2807670117
 30
0.0
 11
401.0386067445
 21
237.0005660269
 31
0.0
  0
ELLIPSE
  5
C7
330
75
100
AcDbEntity
  8
$DDT_AUDIT_GENERATED_(8A)
  6
Continuous
 62
     7
100
AcDbEllipse
 10
401.836922186
 20
237.0524549058
 30
0.0
 11
-0.7983154415683869
 21
-0.05188887889907846
 31
0.0
210
0.0
220
0.0
230
0.9999999999999997
 40
0.0940516783
 41
5.827895629019648
 42
6.283185307179586
  0
LINE
  5
C8
330
75
100
AcDbEntity
  8
$DDT_AUDIT_GENERATED_(8A)
  6
Continuous
 62
     7
100
AcDbLine
 10
401.1177822448
 20
237.0388673994
 30
0.0
 11
401.0987299541
 21
237.324172535
 31
0.0
  0
LINE
  5
C9
330
75
100
AcDbEntity
  8
$DDT_AUDIT_GENERATED_(8A)
  6
Continuous
 62
     7
100
AcDbLine
 10
405.2937078713
 20
172.7918460494
 30
0.0
 11
401.1177822448
 21
237.0388673994
 31
0.0
  0
LINE
  5
CA
330
75
100
AcDbEntity
  8
$DDT_AUDIT_GENERATED_(8A)
  6
Continuous
 62
     7
100
AcDbLine
 10
401.0386067445
 20
237.000566027
 30
0.0
 11
405.2848296921
 21
171.6720135649
 31
0.0
  0
LINE
  5
CB
330
75
100
AcDbEntity
  8
$DDT_AUDIT_GENERATED_(8A)
  6
Continuous
 62
     7
100
AcDbLine
 10
373.0907880225
 20
237.3806137598
 30
0.0
 11
402.7658386145
 21
251.3228780701
 31
0.0
  0
LINE
  5
CC
330
75
100
AcDbEntity
  8
$DDT_AUDIT_GENERATED_(8A)
  6
Continuous
 62
     7
100
AcDbLine
 10
373.0907880703
 20
237.3806137823
 30
0.0
 11
373.0907880703
 21
237.3398430697
 31
0.0
  0
LINE
  5
CD
330
75
100
AcDbEntity
  8
$DDT_AUDIT_GENERATED_(8A)
  6
Continuous
 62
     7
100
AcDbLine
 10
373.0165513779
 20
236.9498336998
 30
0.0
 11
397.5818387043
 21
239.772511711
 31
0.0
  0
SPLINE
  5
CE
330
75
100
AcDbEntity
  8
$DDT_AUDIT_GENERATED_(8A)
  6
Continuous
 62
     7
100
AcDbSpline
210
0.0
220
0.0
230
1.0
 70
     8
 71
     3
 72
    10
 73
     6
 74
     0
 42
0.0000000243178749
 43
0.0000000001
 40
0.0
 40
0.0
 40
0.0
 40
0.0
 40
0.5
 40
0.5
 40
1.0
 40
1.0
 40
1.0
 40
1.0
 10
373.0907880702763
 20
237.339843069684
 30
0.0
 10
373.0848823714294
 20
237.21745829762
 30
0.0
 10
373.074597157257
 20
237.1193829086622
 30
0.0
 10
373.0484327821184
 20
236.9858150745366
 30
0.0
 10
373.0329892502146
 20
236.9517224959714
 30
0.0
 10
373.016551377892
 20
236.9498336997958
 30
0.0
  0
LINE
  5
CF
330
75
100
AcDbEntity
  8
$DDT_AUDIT_GENERATED_(8A)
  6
Continuous
 62
     7
100
AcDbLine
 10
372.7937205735
 20
237.1485263126
 30
0.0
 11
372.7937205735
 21
237.4346357063
 31
0.0
  0
LINE
  5
D0
330
75
100
AcDbEntity
  8
$DDT_AUDIT_GENERATED_(8A)
  6
Continuous
 62
     7
100
AcDbLine
 10
372.7937205735
 20
237.4346357063
 30
0.0
 11
372.7937205735
 21
237.4754061469
 31
0.0
  0
LINE
  5
D1
330
75
100
AcDbEntity
  8
$DDT_AUDIT_GENERATED_(8A)
  6
Continuous
 62
     7
100
AcDbLine
 10
372.7937205735
 20
237.4754061469
 30
0.0
 11
372.7937205735
 21
237.8016191241
 31
0.0
  0
LINE
  5
D2
330
75
100
AcDbEntity
  8
$DDT_AUDIT_GENERATED_(8A)
  6
Continuous
 62
     7
100
AcDbLine
 10
372.7937205735
 20
237.8016191241
 30
0.0
 11
372.7937205735
 21
260.988164174
 31
0.0
  0
ARC
  5
D3
330
75
100
AcDbEntity
  8
$DDT_AUDIT_GENERATED_(8A)
  6
Continuous
 62
     7
100
AcDbCircle
 10
363.462026531
 20
236.9131897993
 30
0.0
 40
9.640100277705068
100
AcDbArc
 50
2.7792157114
 51
5.2885790986
  0
LINE
  5
D4
330
75
100
AcDbEntity
  8
$DDT_AUDIT_GENERATED_(8A)
  6
Continuous
 62
     7
100
AcDbLine
 10
373.0610897776
 20
237.801738139
 30
0.0
 11
372.7937205735
 21
237.8016191241
 31
0.0
  0
SPLINE
  5
D5
330
75
100
AcDbEntity
  8
$DDT_AUDIT_GENERATED_(8A)
  6
Continuous
 62
     7
100
AcDbSpline
210
0.0
220
0.0
230
1.0
 70
     8
 71
     3
 72
    10
 73
     6
 74
     0
 42
0.0000000279397645
 43
0.0000000001
 40
0.0
 40
0.0
 40
0.0
 40
0.0
 40
0.5
 40
0.5
 40
1.0
 40
1.0
 40
1.0
 40
1.0
 10
373.0907880465122
 20
237.3806136351245
 30
0.0
 10
373.0302396080162
 20
237.362393698793
 30
0.0
 10
372.9519446467145
 20
237.3629300879863
 30
0.0
 10
372.832585186462
 20
237.4010170482498
 30
0.0
 10
372.7937205735291
 20
237.4378656475519
 30
0.0
 10
372.7937205735291
 20
237.4754061469305
 30
0.0
  0
ELLIPSE
  5
D6
330
75
100
AcDbEntity
  8
$DDT_AUDIT_GENERATED_(8A)
  6
Continuous
 62
     7
100
AcDbEllipse
 10
372.9937205735
 20
237.4346357063
 30
0.0
 11
0.2000000000000196
 21
-6.938893903907228E-15
 31
0.0
210
0.0
220
0.0
230
1.0
 40
0.5420892157
 41
3.141592653589793
 42
5.219138099356883
  0
ARC
  5
D7
330
75
100
AcDbEntity
  8
$DDT_AUDIT_GENERATED_(8A)
  6
Continuous
 62
     7
100
AcDbCircle
 10
372.9937205735
 20
237.1485263126
 30
0.0
 40
0.1999999999999868
100
AcDbArc
 50
180.0
 51
276.5548327395
  0
LINE
  5
D8
330
75
100
AcDbEntity
  8
$DDT_AUDIT_GENERATED_(8A)
  6
Continuous
 62
     7
100
AcDbLine
 10
388.6503479632
 20
286.421421577
 30
0.0
 11
388.9803184202
 21
286.9494846929
 31
0.0
  0
LINE
  5
D9
330
75
100
AcDbEntity
  8
$DDT_AUDIT_GENERATED_(8A)
  6
Continuous
 62
     7
100
AcDbLine
 10
372.8241109543
 20
261.0941480269
 30
0.0
 11
388.6503479632
 21
286.421421577
 31
0.0
  0
SPLINE
  5
DA
330
75
100
AcDbEntity
  8
$DDT_AUDIT_GENERATED_(8A)
  6
Continuous
 62
     7
100
AcDbSpline
210
0.0
220
0.0
230
1.0
 70
     8
 71
     3
 72
    14
 73
    10
 74
     0
 42
0.0000000004312857
 43
0.0000000001
 40
0.0
 40
0.0
 40
0.0
 40
0.0
 40
0.064985156924296
 40
0.064985156924296
 40
0.064985156924296
 40
0.3410085483005695
 40
0.3410085483005695
 40
0.3410085483005695
 40
1.0
 40
1.0
 40
1.0
 40
1.0
 10
373.0660277429416
 20
260.988225723564
 30
0.0
 10
373.0659287233632
 20
260.4859676120168
 30
0.0
 10
373.065829223737
 20
259.9837095008285
 30
0.0
 10
373.0657292374189
 20
259.4814513900068
 30
0.0
 10
373.065304547168
 20
257.3481182774382
 30
0.0
 10
373.0648710795143
 20
255.2147851714124
 30
0.0
 10
373.0644283017253
 20
253.0814520725323
 30
0.0
 10
373.063371192846
 20
247.9882305575333
 30
0.0
 10
373.0622611182177
 20
242.8950090820111
 30
0.0
 10
373.0610897776382
 20
237.8017381389634
 30
0.0
  0
ELLIPSE
  5
DB
330
75
100
AcDbEntity
  8
$DDT_AUDIT_GENERATED_(8A)
  6
Continuous
 62
     7
100
AcDbEllipse
 10
372.9937205735
 20
260.988164174
 30
0.0
 11
0.1999999999999919
 21
1.457167719820518E-12
 31
0.0
210
0.0
220
0.0
230
1.0
 40
0.0003300745
 41
1.200881686925125
 42
3.141592653589793
  0
SPLINE
  5
DC
330
75
100
AcDbEntity
  8
$DDT_AUDIT_GENERATED_(8A)
  6
Continuous
 62
     7
100
AcDbSpline
210
0.0
220
0.0
230
1.0
 70
     8
 71
     3
 72
    14
 73
    10
 74
     0
 42
0.0000000005438114
 43
0.0000000001
 40
0.0
 40
0.0
 40
0.0
 40
0.0
 40
0.0644610065530993
 40
0.0644610065530993
 40
0.0644610065530993
 40
0.3858809348523835
 40
0.3858809348523835
 40
0.3858809348523835
 40
1.0
 40
1.0
 40
1.0
 40
1.0
 10
388.8974800498074
 20
286.3191865096356
 30
0.0
 10
389.2900306560932
 20
286.2745212833003
 30
0.0
 10
389.682583796746
 20
286.2298620530631
 30
0.0
 10
390.0751395711878
 20
286.1852090838596
 30
0.0
 10
392.0325283088295
 20
285.9625573622147
 30
0.0
 10
393.9899822485774
 20
285.7400603947218
 30
0.0
 10
395.9475157995205
 20
285.5177574418828
 30
0.0
 10
399.6876654739481
 20
285.0930156456135
 30
0.0
 10
403.428100730634
 20
284.6689641764297
 30
0.0
 10
407.1689720969888
 20
284.2460412644318
 30
0.0
  0
SPLINE
  5
DD
330
75
100
AcDbEntity
  8
$DDT_AUDIT_GENERATED_(8A)
  6
Continuous
 62
     7
100
AcDbSpline
210
0.0
220
0.0
230
1.0
 70
     8
 71
     3
 72
     8
 73
     4
 74
     0
 42
0.0000000003347699
 43
0.0000000001
 40
0.0
 40
0.0
 40
0.0
 40
0.0
 40
1.0
 40
1.0
 40
1.0
 40
1.0
 10
388.8974800498074
 20
286.3191865096356
 30
0.0
 10
383.6406093064585
 20
277.9087798390782
 30
0.0
 10
378.3607188613572
 20
269.4606596957208
 30
0.0
 10
373.0660277429416
 20
260.988225723564
 30
0.0
  0
SPLINE
  5
DE
330
75
100
AcDbEntity
  8
$DDT_AUDIT_GENERATED_(8A)
  6
Continuous
 62
     7
100
AcDbSpline
210
0.0
220
0.0
230
1.0
 70
     8
 71
     3
 72
    10
 73
     6
 74
     0
 42
0.0000000124883591
 43
0.0000000001
 40
0.0
 40
0.0
 40
0.0
 40
0.0
 40
0.5
 40
0.5
 40
1.0
 40
1.0
 40
1.0
 40
1.0
 10
389.1727588437946
 20
287.042193452853
 30
0.0
 10
389.1930197144381
 20
287.0398653744852
 30
0.0
 10
389.1722319809097
 20
286.9575560572935
 30
0.0
 10
389.0716495759693
 20
286.6944218854695
 30
0.0
 10
388.9926867376205
 20
286.515378468262
 30
0.0
 10
388.8974800498074
 20
286.3191865096356
 30
0.0
  0
ARC
  5
DF
330
75
100
AcDbEntity
  8
$DDT_AUDIT_GENERATED_(8A)
  6
Continuous
 62
     7
100
AcDbCircle
 10
389.1499280394
 20
286.8435008401
 30
0.0
 40
0.1999999999999958
100
AcDbArc
 50
83.4451672601
 51
148.0
  0
ELLIPSE
  5
E0
330
75
100
AcDbEntity
  8
$DDT_AUDIT_GENERATED_(8A)
  6
Continuous
 62
     7
100
AcDbEllipse
 10
388.8199575824
 20
286.3154377241
 30
0.0
 11
0.1696096192312646
 21
-0.1059838528466861
 31
0.0
210
0.0
220
0.0
230
1.0
 40
0.2334800345
 41
1.246353072231274
 42
3.141592653589723
  0
ELLIPSE
  5
E1
330
75
100
AcDbEntity
  8
$DDT_AUDIT_GENERATED_(8A)
  6
Continuous
 62
     7
100
AcDbEllipse
 10
372.9937205735
 20
260.988164174
 30
0.0
 11
0.1696096192318475
 21
-0.1059838528457268
 31
0.0
210
0.0
220
0.0
230
0.9999999999999998
 40
0.20154176
 41
1.259348946370588
 42
3.141592653589793
  0
ARC
  5
E2
330
75
100
AcDbEntity
  8
$DDT_AUDIT_GENERATED_(8A)
  6
Continuous
 62
     7
100
AcDbCircle
 10
372.9937205735
 20
260.988164174
 30
0.0
 40
0.2000000000000057
100
AcDbArc
 50
147.9999999999
 51
180.0
  0
LINE
  5
E3
330
75
100
AcDbEntity
  8
$DDT_AUDIT_GENERATED_(8A)
  6
Continuous
 62
     7
100
AcDbLine
 10
372.7937205735
 20
237.7585941182
 30
0.0
 11
372.7937205735
 21
237.7586948651
 31
0.0
  0
SPLINE
  5
E4
330
75
100
AcDbEntity
  8
$DDT_AUDIT_GENERATED_(8A)
  6
Continuous
 62
     7
100
AcDbSpline
210
0.0
220
0.0
230
1.0
 70
     8
 71
     3
 72
    17
 73
    13
 74
     0
 42
0.000000001914106
 43
0.0000000001
 40
0.0
 40
0.0
 40
0.0
 40
0.0
 40
0.1371637080659572
 40
0.2518544245529721
 40
0.3443301360633451
 40
0.4506069810184147
 40
0.529050930598968
 40
0.5628511454690468
 40
0.6060358899772524
 40
0.7216747943512433
 40
0.863094089069749
 40
1.0
 40
1.0
 40
1.0
 40
1.0
 10
397.7024617731411
 20
239.7863719227298
 30
0.0
 10
397.9618851182771
 20
239.8182474123972
 30
0.0
 10
398.3631377839405
 20
239.8610079267668
 30
0.0
 10
398.9725927059604
 20
239.8665761398549
 30
0.0
 10
399.5088951213424
 20
239.7771664677393
 30
0.0
 10
399.9575910038474
 20
239.5845432430944
 30
0.0
 10
400.2529327197097
 20
239.3419017416409
 30
0.0
 10
400.431129519913
 20
239.1397060018621
 30
0.0
 10
400.6252723861004
 20
238.8672227779775
 30
0.0
 10
400.8438874778322
 20
238.3920799719025
 30
0.0
 10
400.9902031312416
 20
237.7072555264087
 30
0.0
 10
401.0237215412078
 20
237.2610240679938
 30
0.0
 10
401.0386067444675
 20
237.0005660269507
 30
0.0
  0
ARC
  5
E5
330
75
100
AcDbEntity
  8
$DDT_AUDIT_GENERATED_(8A)
  6
Continuous
 62
     7
100
AcDbCircle
 10
405.7912990074
 20
171.4816193531
 30
0.0
 40
0.4514845521675113
100
AcDbArc
 50
264.9716362457
 51
270.6866843647
  0
ELLIPSE
  5
E7
330
75
100
AcDbEntity
  8
$DDT_AUDIT_GENERATED_(E6)
  6
Continuous
 62
     7
100
AcDbEllipse
 10
359.7210371632
 20
289.3035841036
 30
0.0
 11
-0.003094254575175537
 21
-1.001428714854367
 31
0.0
210
0.0
220
0.0
230
1.0
 40
0.2619013672
 41
4.098024535512659
 42
4.724186157138475
  0
LINE
  5
E8
330
75
100
AcDbEntity
  8
$DDT_AUDIT_GENERATED_(E6)
  6
Continuous
 62
     7
100
AcDbLine
 10
359.4587433611
 20
236.5489334744
 30
0.0
 11
359.4587433617
 21
289.2925806792
 31
0.0
  0
LINE
  5
E9
330
75
100
AcDbEntity
  8
$DDT_AUDIT_GENERATED_(E6)
  6
Continuous
 62
     7
100
AcDbLine
 10
359.4587433617
 20
289.2925806792
 30
0.0
 11
359.4754954102
 21
289.2925806792
 31
0.0
  0
LINE
  5
EA
330
75
100
AcDbEntity
  8
$DDT_AUDIT_GENERATED_(E6)
  6
Continuous
 62
     7
100
AcDbLine
 10
359.4587433611
 20
236.5489334744
 30
0.0
 11
359.4754954096
 21
236.5489334744
 31
0.0
  0
LINE
  5
EB
330
75
100
AcDbEntity
  8
$DDT_AUDIT_GENERATED_(E6)
  6
Continuous
 62
     7
100
AcDbLine
 10
338.6482596328
 20
172.0775299312
 30
0.0
 11
345.1237931217
 21
172.2470977433
 31
0.0
  0
LINE
  5
EC
330
75
100
AcDbEntity
  8
$DDT_AUDIT_GENERATED_(E6)
  6
Continuous
 62
     7
100
AcDbLine
 10
338.6482596328
 20
171.0778726062
 30
0.0
 11
338.6482596328
 21
172.0775299312
 31
0.0
  0
LINE
  5
ED
330
75
100
AcDbEntity
  8
$DDT_AUDIT_GENERATED_(E6)
  6
Continuous
 62
     7
100
AcDbLine
 10
338.6482596328
 20
354.7636415474
 30
0.0
 11
345.0926003009
 21
354.5948905481
 31
0.0
  0
LINE
  5
EE
330
75
100
AcDbEntity
  8
$DDT_AUDIT_GENERATED_(E6)
  6
Continuous
 62
     7
100
AcDbLine
 10
338.6482596328
 20
353.7639842224
 30
0.0
 11
338.6482596328
 21
172.0775299312
 31
0.0
  0
LINE
  5
EF
330
75
100
AcDbEntity
  8
$DDT_AUDIT_GENERATED_(E6)
  6
Continuous
 62
     7
100
AcDbLine
 10
338.6482596328
 20
353.7639842224
 30
0.0
 11
338.6482596328
 21
354.7636415474
 31
0.0
  0
LINE
  5
F0
330
75
100
AcDbEntity
  8
$DDT_AUDIT_GENERATED_(E6)
  6
Continuous
 62
     7
100
AcDbLine
 10
359.5085049782
 20
289.8815091739
 30
0.0
 11
345.8929939688
 21
353.3087135389
 31
0.0
  0
ELLIPSE
  5
F1
330
75
100
AcDbEntity
  8
$DDT_AUDIT_GENERATED_(E6)
  6
Continuous
 62
     7
100
AcDbEllipse
 10
359.0252570268
 20
289.8815091739
 30
0.0
 11
-0.4913958528123401
 21
0.09235862622862175
 31
0.0
210
0.0
220
0.0
230
1.0
 40
0.5709934659
 41
3.140963058842126
 42
3.459587841243436
  0
ARC
  5
F2
330
75
100
AcDbEntity
  8
$DDT_AUDIT_GENERATED_(E6)
  6
Continuous
 62
     7
100
AcDbCircle
 10
358.5756696165
 20
290.1187394578
 30
0.0
 40
0.9625279318900432
100
AcDbArc
 50
345.7315213735
 51
9.2490975094
  0
ELLIPSE
  5
F3
330
75
100
AcDbEntity
  8
$DDT_AUDIT_GENERATED_(E6)
  6
Continuous
 62
     7
100
AcDbEllipse
 10
359.7210371626
 20
236.53793005
 30
0.0
 11
0.003094254549917963
 21
-1.001428714853085
 31
0.0
210
0.0
220
0.0
230
1.0
 40
0.2619013672
 41
4.700591803637464
 42
5.326752477197403
  0
LINE
  5
F4
330
75
100
AcDbEntity
  8
$DDT_AUDIT_GENERATED_(E6)
  6
Continuous
 62
     7
100
AcDbLine
 10
359.5256834124
 20
235.5680709176
 30
0.0
 11
345.8638564939
 21
171.925104682
 31
0.0
  0
ELLIPSE
  5
F5
330
75
100
AcDbEntity
  8
$DDT_AUDIT_GENERATED_(E6)
  6
Continuous
 62
     7
100
AcDbEllipse
 10
359.0252568804
 20
235.9600057551
 30
0.0
 11
-0.4913958860255224
 21
-0.09235844951711175
 31
0.0
210
0.0
220
0.0
230
1.0
 40
0.5709927296
 41
2.823597671258211
 42
3.140331462843918
  0
ARC
  5
F6
330
75
100
AcDbEntity
  8
$DDT_AUDIT_GENERATED_(E6)
  6
Continuous
 62
     7
100
AcDbCircle
 10
358.575625718
 20
235.7227735922
 30
0.0
 40
0.9625707974719245
100
AcDbArc
 50
350.7514127121
 51
14.2679451573
  0
LINE
  5
F7
330
75
100
AcDbEntity
  8
$DDT_AUDIT_GENERATED_(E6)
  6
Continuous
 62
     7
100
AcDbLine
 10
345.8638564939
 20
171.925104682
 30
0.0
 11
345.8538400638
 21
171.8784436222
 31
0.0
  0
LINE
  5
F8
330
75
100
AcDbEntity
  8
$DDT_AUDIT_GENERATED_(E6)
  6
Continuous
 62
     7
100
AcDbLine
 10
345.8638564968
 20
353.916409483
 30
0.0
 11
359.5256836249
 21
290.2734437029
 31
0.0
  0
LINE
  5
F9
330
75
100
AcDbEntity
  8
$DDT_AUDIT_GENERATED_(E6)
  6
Continuous
 62
     7
100
AcDbLine
 10
345.8538400682
 20
353.9630705349
 30
0.0
 11
345.8638564968
 21
353.916409483
 31
0.0
  0
LINE
  5
FA
330
75
100
AcDbEntity
  8
$DDT_AUDIT_GENERATED_(E6)
  6
Continuous
 62
     7
100
AcDbLine
 10
345.0926002957
 20
171.2466236054
 30
0.0
 11
338.6482596328
 21
171.0778726062
 31
0.0
  0
ARC
  5
FB
330
75
100
AcDbEntity
  8
$DDT_AUDIT_GENERATED_(E6)
  6
Continuous
 62
     7
100
AcDbCircle
 10
326.1410473484
 20
172.175234638
 30
0.0
 40
18.98288179911308
100
AcDbArc
 50
357.8984053725
 51
0.2169039723
  0
ELLIPSE
  5
FC
330
75
100
AcDbEntity
  8
$DDT_AUDIT_GENERATED_(E6)
  6
Continuous
 62
     7
100
AcDbEllipse
 10
345.1148489492
 20
172.2475489994
 30
0.0
 11
-0.02226982404972266
 21
-1.00092543593229
 31
0.0
210
0.0
220
0.0
230
1.0
 40
0.0208853554
 41
0.0010121748374692
 42
0.6959622893752997
  0
LINE
  5
FD
330
75
100
AcDbEntity
  8
$DDT_AUDIT_GENERATED_(E6)
  6
Continuous
 62
     7
100
AcDbLine
 10
345.1237931257
 20
353.5944164103
 30
0.0
 11
338.6482596328
 21
353.7639842224
 31
0.0
  0
ARC
  5
FE
330
75
100
AcDbEntity
  8
$DDT_AUDIT_GENERATED_(E6)
  6
Continuous
 62
     7
100
AcDbCircle
 10
326.129266598
 20
353.6660857618
 30
0.0
 40
18.99466173712604
100
AcDbArc
 50
359.7838149916
 51
2.1008756481
  0
ELLIPSE
  5
FF
330
75
100
AcDbEntity
  8
$DDT_AUDIT_GENERATED_(E6)
  6
Continuous
 62
     7
100
AcDbEllipse
 10
345.1148489553
 20
353.5939651541
 30
0.0
 11
-0.02226982502787772
 21
1.00092543595795
 31
0.0
210
0.0
220
0.0
230
0.9999999999999999
 40
0.0208853554
 41
5.587223078994969
 42
6.282173132388734
  0
LINE
  5
100
330
75
100
AcDbEntity
  8
$DDT_AUDIT_GENERATED_(E6)
  6
Continuous
 62
     7
100
AcDbLine
 10
345.8929939666
 20
172.5328006348
 30
0.0
 11
359.5085048319
 21
235.9600057551
 31
0.0
  0
ELLIPSE
  5
101
330
75
100
AcDbEntity
  8
$DDT_AUDIT_GENERATED_(E6)
  6
Continuous
 62
     7
100
AcDbEllipse
 10
344.0778857796
 20
172.1814808536
 30
0.0
 11
0.5413222272219951
 21
2.050794684437501
 31
0.0
210
0.0
220
0.0
230
0.9999999999999998
 40
0.8482835295
 41
4.920023885673147
 42
5.100624608280968
  0
ARC
  5
102
330
75
100
AcDbEntity
  8
$DDT_AUDIT_GENERATED_(E6)
  6
Continuous
 62
     7
100
AcDbCircle
 10
344.121320625
 20
172.2533366359
 30
0.0
 40
1.773180044446488
100
AcDbArc
 50
349.3325004648
 51
356.8180425668
  0
ELLIPSE
  5
103
330
75
100
AcDbEntity
  8
$DDT_AUDIT_GENERATED_(E6)
  6
Continuous
 62
     7
100
AcDbEllipse
 10
344.0778857818
 20
353.6600333122
 30
0.0
 11
0.5413222355234795
 21
-2.050794666711375
 31
0.0
210
0.0
220
0.0
230
1.0
 40
0.8482835355
 41
1.182560694876848
 42
1.363161407255064
  0
ARC
  5
104
330
75
100
AcDbEntity
  8
$DDT_AUDIT_GENERATED_(E6)
  6
Continuous
 62
     7
100
AcDbCircle
 10
344.1228733963
 20
353.5883661156
 30
0.0
 40
1.771619204880054
100
AcDbArc
 50
3.1786547257
 51
10.6708016804
  0
LINE
  5
105
330
75
100
AcDbEntity
  8
$DDT_AUDIT_GENERATED_(E6)
  6
Continuous
 62
     7
100
AcDbLine
 10
345.1407388029
 20
172.5328006348
 30
0.0
 11
345.1407388051
 21
353.3087135389
 31
0.0
  0
ELLIPSE
  5
106
330
75
100
AcDbEntity
  8
$DDT_AUDIT_GENERATED_(E6)
  6
Continuous
 62
     7
100
AcDbEllipse
 10
344.0988273404
 20
353.6600333122
 30
0.0
 11
0.3725182259637846
 21
-1.58135413095109
 31
0.0
210
0.0
220
0.0
230
1.0
 40
0.6153216633
 41
1.20517087455403
 42
1.385771586931482
  0
ELLIPSE
  5
107
330
75
100
AcDbEntity
  8
$DDT_AUDIT_GENERATED_(E6)
  6
Continuous
 62
     7
100
AcDbEllipse
 10
344.0988273383
 20
172.1814808536
 30
0.0
 11
0.3725182229835852
 21
1.581354153868536
 31
0.0
210
0.0
220
0.0
230
0.9999999999999999
 40
0.6153216551
 41
4.897413706916323
 42
5.078014429523722
  0
LINE
  5
108
330
75
100
AcDbEntity
  8
$DDT_AUDIT_GENERATED_(E6)
  6
Continuous
 62
     7
100
AcDbLine
 10
345.8929939688
 20
353.3087135389
 30
0.0
 11
345.8929939666
 21
172.5328006348
 31
0.0
  0
LINE
  5
109
330
75
100
AcDbEntity
  8
$DDT_AUDIT_GENERATED_(E6)
  6
Continuous
 62
     7
100
AcDbLine
 10
345.8929939666
 20
172.5328006348
 30
0.0
 11
345.1407388029
 21
172.5328006348
 31
0.0
  0
LINE
  5
10A
330
75
100
AcDbEntity
  8
$DDT_AUDIT_GENERATED_(E6)
  6
Continuous
 62
     7
100
AcDbLine
 10
345.1407388051
 20
353.3087135389
 30
0.0
 11
345.8929939688
 21
353.3087135389
 31
0.0
  0
ELLIPSE
  5
10B
330
75
100
AcDbEntity
  8
$DDT_AUDIT_GENERATED_(E6)
  6
Continuous
 62
     7
100
AcDbEllipse
 10
345.102851563
 20
172.2470977433
 30
0.0
 11
0.794559606503327
 21
-0.093139850296603
 31
0.0
210
0.0
220
0.0
230
1.0
 40
0.0030486769
 41
0.1196224363634149
 42
1.544794464747545
  0
ELLIPSE
  5
10C
330
75
100
AcDbEntity
  8
$DDT_AUDIT_GENERATED_(E6)
  6
Continuous
 62
     7
100
AcDbEllipse
 10
345.1028515671
 20
353.5944164103
 30
0.0
 11
0.7945596069571583
 21
0.09313984642508877
 31
0.0
210
0.0
220
0.0
230
0.9999999999999997
 40
0.0030486767
 41
-1.544794464732695
 42
-0.1196224456020722
  0
ELLIPSE
  5
10D
330
75
100
AcDbEntity
  8
$DDT_AUDIT_GENERATED_(E6)
  6
Continuous
 62
     7
100
AcDbEllipse
 10
345.0816751672
 20
172.0930105252
 30
0.0
 11
0.7821813266863932
 21
-0.1679058432071945
 31
0.0
210
0.0
220
0.0
230
0.9999999999999998
 40
0.7574132998
 41
4.910784259854866
 42
6.283185307179586
  0
ELLIPSE
  5
10E
330
75
100
AcDbEntity
  8
$DDT_AUDIT_GENERATED_(E6)
  6
Continuous
 62
     7
100
AcDbEllipse
 10
345.0816751709
 20
353.7485036362
 30
0.0
 11
-0.7821813259101668
 21
-0.1679058468232048
 31
0.0
210
0.0
220
0.0
230
1.0
 40
0.7574133398
 41
3.141592653589793
 42
4.513993689220985
  0
ARC
  5
10F
330
75
100
AcDbEntity
  8
$DDT_AUDIT_GENERATED_(E6)
  6
Continuous
 62
     7
100
AcDbCircle
 10
345.0716587371
 20
172.0463494654
 30
0.0
 40
0.8000000000000038
100
AcDbArc
 50
271.5
 51
347.8845449533
  0
ARC
  5
110
330
75
100
AcDbEntity
  8
$DDT_AUDIT_GENERATED_(E6)
  6
Continuous
 62
     7
100
AcDbCircle
 10
345.0716587423
 20
353.7951646881
 30
0.0
 40
0.8000000000000174
100
AcDbArc
 50
12.1154553113
 51
88.5
  0
ARC
  5
111
330
75
100
AcDbEntity
  8
$DDT_AUDIT_GENERATED_(E6)
  6
Continuous
 62
     7
100
AcDbCircle
 10
362.2665028888
 20
236.5302715433
 30
0.0
 40
2.791070233722769
100
AcDbArc
 50
179.6169000204
 51
189.8591970189
  0
ARC
  5
112
330
75
100
AcDbEntity
  8
$DDT_AUDIT_GENERATED_(E6)
  6
Continuous
 62
     7
100
AcDbCircle
 10
362.2426821944
 20
289.313217011
 30
0.0
 40
2.767263730931129
100
AcDbArc
 50
170.0966292882
 51
180.4272761079
  0
LINE
  5
113
330
75
100
AcDbEntity
  8
$DDT_AUDIT_GENERATED_(E6)
  6
Continuous
 62
     7
100
AcDbLine
 10
359.4754954096
 20
236.5489334744
 30
0.0
 11
359.4754954102
 21
289.2925806792
 31
0.0
  0
ARC
  5
114
330
75
100
AcDbEntity
  8
$DDT_AUDIT_GENERATED_(E6)
  6
Continuous
 62
     7
100
AcDbCircle
 10
362.2665051674
 20
236.530271628
 30
0.0
 40
2.791072147502959
100
AcDbArc
 50
179.6169024138
 51
189.8591777711
  0
ARC
  5
115
330
75
100
AcDbEntity
  8
$DDT_AUDIT_GENERATED_(E6)
  6
Continuous
 62
     7
100
AcDbCircle
 10
358.4045464312
 20
290.0457170931
 30
0.0
 40
1.141024079427681
100
AcDbArc
 50
347.0304465242
 51
11.504221196
  0
ARC
  5
116
330
75
100
AcDbEntity
  8
$DDT_AUDIT_GENERATED_(E6)
  6
Continuous
 62
     7
100
AcDbCircle
 10
358.3749722039
 20
235.7873189084
 30
0.0
 40
1.171048239401876
100
AcDbArc
 50
349.2185893104
 51
13.1131573565
  0
ENDBLK
  5
118
330
75
100
AcDbEntity
  8
0
100
AcDbBlockEnd
  0
BLOCK
  5
270
330
119
100
AcDbEntity
  8
0
100
AcDbBlockBegin
  2
SE1
 70
     0
 10
0.0
 20
0.0
 30
0.0
  3
SE1
  1

  0
LINE
  5
11B
330
119
100
AcDbEntity
  8
$DDT_AUDIT_GENERATED_(77)
  6
Continuous
 62
     7
100
AcDbLine
 10
176.1393807727
 20
236.3718370969
 30
0.0
 11
187.1149452063
 21
236.3718370969
 31
0.0
  0
LINE
  5
11C
330
119
100
AcDbEntity
  8
$DDT_AUDIT_GENERATED_(77)
  6
Continuous
 62
     7
100
AcDbLine
 10
217.2617020052
 20
236.3718370969
 30
0.0
 11
228.2372664388
 21
236.3718370969
 31
0.0
  0
LINE
  5
11D
330
119
100
AcDbEntity
  8
$DDT_AUDIT_GENERATED_(77)
  6
Continuous
 62
     7
100
AcDbLine
 10
227.6926718151
 20
236.9164317206
 30
0.0
 11
217.25330688
 21
236.9164317206
 31
0.0
  0
LINE
  5
11E
330
119
100
AcDbEntity
  8
$DDT_AUDIT_GENERATED_(77)
  6
Continuous
 62
     7
100
AcDbLine
 10
187.1233403315
 20
236.9164317206
 30
0.0
 11
176.6839753963
 21
236.9164317206
 31
0.0
  0
LINE
  5
11F
330
119
100
AcDbEntity
  8
$DDT_AUDIT_GENERATED_(77)
  6
Continuous
 62
     7
100
AcDbLine
 10
228.2372664388
 20
236.3718370969
 30
0.0
 11
227.6926718151
 21
236.9164317206
 31
0.0
  0
LINE
  5
120
330
119
100
AcDbEntity
  8
$DDT_AUDIT_GENERATED_(77)
  6
Continuous
 62
     7
100
AcDbLine
 10
176.6839753963
 20
236.9164317206
 30
0.0
 11
176.1393807727
 21
236.3718370969
 31
0.0
  0
LINE
  5
121
330
119
100
AcDbEntity
  8
$DDT_AUDIT_GENERATED_(77)
  6
Continuous
 62
     7
100
AcDbLine
 10
228.2372664388
 20
289.4696770567
 30
0.0
 11
176.1393807727
 21
289.4696770567
 31
0.0
  0
LINE
  5
122
330
119
100
AcDbEntity
  8
$DDT_AUDIT_GENERATED_(77)
  6
Continuous
 62
     7
100
AcDbLine
 10
228.7372474003
 20
236.8718180585
 30
0.0
 11
228.7372474003
 21
288.9696960952
 31
0.0
  0
LINE
  5
123
330
119
100
AcDbEntity
  8
$DDT_AUDIT_GENERATED_(77)
  6
Continuous
 62
     7
100
AcDbLine
 10
175.6393998111
 20
288.9696960952
 30
0.0
 11
175.6393998111
 21
236.8718180585
 31
0.0
  0
ELLIPSE
  5
124
330
119
100
AcDbEntity
  8
$DDT_AUDIT_GENERATED_(77)
  6
Continuous
 62
     7
100
AcDbEllipse
 10
228.2372283611
 20
288.9696580175
 30
0.0
 11
-0.3535803155654449
 21
-0.3535803155654444
 31
0.0
210
0.0
220
0.0
230
1.0
 40
0.9999238505
 41
2.356232566403262
 42
3.92695274077627
  0
ELLIPSE
  5
125
330
119
100
AcDbEntity
  8
$DDT_AUDIT_GENERATED_(77)
  6
Continuous
 62
     7
100
AcDbEllipse
 10
228.2372283611
 20
236.8718561361
 30
0.0
 11
-0.3535803155654488
 21
0.3535803155654403
 31
0.0
210
0.0
220
0.0
230
1.0
 40
0.9999238505
 41
2.356232566403305
 42
3.9269527407762
  0
ELLIPSE
  5
126
330
119
100
AcDbEntity
  8
$DDT_AUDIT_GENERATED_(77)
  6
Continuous
 62
     7
100
AcDbEllipse
 10
176.1394188503
 20
288.9696580175
 30
0.0
 11
0.3535803155654405
 21
-0.3535803155654488
 31
0.0
210
0.0
220
0.0
230
0.9999999999999998
 40
0.9999238505
 41
2.356232566403273
 42
3.926952740776394
  0
ELLIPSE
  5
127
330
119
100
AcDbEntity
  8
$DDT_AUDIT_GENERATED_(77)
  6
Continuous
 62
     7
100
AcDbEllipse
 10
176.1394188503
 20
236.8718561361
 30
0.0
 11
0.3535803155654443
 21
0.353580315565445
 31
0.0
210
0.0
220
0.0
230
1.0
 40
0.9999238505
 41
2.356232566403316
 42
3.926952740776211
  0
LINE
  5
128
330
119
100
AcDbEntity
  8
$DDT_AUDIT_GENERATED_(77)
  6
Continuous
 62
     7
100
AcDbLine
 10
176.1839944348
 20
237.4164126821
 30
0.0
 11
176.1839944348
 21
288.4251014715
 31
0.0
  0
LINE
  5
129
330
119
100
AcDbEntity
  8
$DDT_AUDIT_GENERATED_(77)
  6
Continuous
 62
     7
100
AcDbLine
 10
176.1839944348
 20
288.4251014715
 30
0.0
 11
175.6393998111
 21
288.9696960952
 31
0.0
  0
LINE
  5
12A
330
119
100
AcDbEntity
  8
$DDT_AUDIT_GENERATED_(77)
  6
Continuous
 62
     7
100
AcDbLine
 10
175.6393998111
 20
236.8718180585
 30
0.0
 11
176.1839944348
 21
237.4164126821
 31
0.0
  0
LINE
  5
12B
330
119
100
AcDbEntity
  8
$DDT_AUDIT_GENERATED_(77)
  6
Continuous
 62
     7
100
AcDbLine
 10
227.6926718151
 20
288.925082433
 30
0.0
 11
228.2372664388
 21
289.4696770567
 31
0.0
  0
LINE
  5
12C
330
119
100
AcDbEntity
  8
$DDT_AUDIT_GENERATED_(77)
  6
Continuous
 62
     7
100
AcDbLine
 10
176.6839753963
 20
288.925082433
 30
0.0
 11
227.6926718151
 21
288.925082433
 31
0.0
  0
LINE
  5
12D
330
119
100
AcDbEntity
  8
$DDT_AUDIT_GENERATED_(77)
  6
Continuous
 62
     7
100
AcDbLine
 10
176.1393807727
 20
289.4696770567
 30
0.0
 11
176.6839753963
 21
288.925082433
 31
0.0
  0
LINE
  5
12E
330
119
100
AcDbEntity
  8
$DDT_AUDIT_GENERATED_(77)
  6
Continuous
 62
     7
100
AcDbLine
 10
227.6926718151
 20
262.5463839011
 30
0.0
 11
227.6926718151
 21
288.4251014715
 31
0.0
  0
LINE
  5
12F
330
119
100
AcDbEntity
  8
$DDT_AUDIT_GENERATED_(77)
  6
Continuous
 62
     7
100
AcDbLine
 10
227.6926718151
 20
288.4251014715
 30
0.0
 11
176.6839753963
 21
288.4251014715
 31
0.0
  0
LINE
  5
130
330
119
100
AcDbEntity
  8
$DDT_AUDIT_GENERATED_(77)
  6
Continuous
 62
     7
100
AcDbLine
 10
176.6839753963
 20
288.4251014715
 30
0.0
 11
176.6839753963
 21
262.5463839011
 31
0.0
  0
LINE
  5
131
330
119
100
AcDbEntity
  8
$DDT_AUDIT_GENERATED_(77)
  6
Continuous
 62
     7
100
AcDbLine
 10
228.1926527767
 20
288.4251014715
 30
0.0
 11
228.1926527767
 21
237.4164126821
 31
0.0
  0
LINE
  5
132
330
119
100
AcDbEntity
  8
$DDT_AUDIT_GENERATED_(77)
  6
Continuous
 62
     7
100
AcDbLine
 10
228.7372474003
 20
288.9696960952
 30
0.0
 11
228.1926527767
 21
288.4251014715
 31
0.0
  0
LINE
  5
133
330
119
100
AcDbEntity
  8
$DDT_AUDIT_GENERATED_(77)
  6
Continuous
 62
     7
100
AcDbLine
 10
228.1926527767
 20
237.4164126821
 30
0.0
 11
228.7372474003
 21
236.8718180585
 31
0.0
  0
ARC
  5
134
330
119
100
AcDbEntity
  8
$DDT_AUDIT_GENERATED_(77)
  6
Continuous
 62
     7
100
AcDbCircle
 10
227.6926337375
 20
288.4250633938
 30
0.0
 40
0.5000190406427251
100
AcDbArc
 50
0.0043632124
 51
89.9956367876
  0
LINE
  5
135
330
119
100
AcDbEntity
  8
$DDT_AUDIT_GENERATED_(77)
  6
Continuous
 62
     7
100
AcDbLine
 10
227.6926718151
 20
288.4251014715
 30
0.0
 11
227.6926718151
 21
288.925082433
 31
0.0
  0
LINE
  5
136
330
119
100
AcDbEntity
  8
$DDT_AUDIT_GENERATED_(77)
  6
Continuous
 62
     7
100
AcDbLine
 10
228.1926527767
 20
288.4251014715
 30
0.0
 11
227.6926718151
 21
288.4251014715
 31
0.0
  0
ARC
  5
137
330
119
100
AcDbEntity
  8
$DDT_AUDIT_GENERATED_(77)
  6
Continuous
 62
     7
100
AcDbCircle
 10
176.684013474
 20
288.4250633938
 30
0.0
 40
0.5000190406427198
100
AcDbArc
 50
90.0043632124
 51
179.9956367876
  0
LINE
  5
138
330
119
100
AcDbEntity
  8
$DDT_AUDIT_GENERATED_(77)
  6
Continuous
 62
     7
100
AcDbLine
 10
176.6839753963
 20
288.4251014715
 30
0.0
 11
176.6839753963
 21
288.925082433
 31
0.0
  0
LINE
  5
139
330
119
100
AcDbEntity
  8
$DDT_AUDIT_GENERATED_(77)
  6
Continuous
 62
     7
100
AcDbLine
 10
228.1926527767
 20
237.4164126821
 30
0.0
 11
228.0106513422
 21
237.4164126821
 31
0.0
  0
ARC
  5
13A
330
119
100
AcDbEntity
  8
$DDT_AUDIT_GENERATED_(77)
  6
Continuous
 62
     7
100
AcDbCircle
 10
227.6926337375
 20
237.4164507598
 30
0.0
 40
0.5000190406427216
100
AcDbArc
 50
270.0043632124
 51
359.9956367876
  0
LINE
  5
13B
330
119
100
AcDbEntity
  8
$DDT_AUDIT_GENERATED_(77)
  6
Continuous
 62
     7
100
AcDbLine
 10
176.6839753963
 20
288.4251014715
 30
0.0
 11
176.1839944348
 21
288.4251014715
 31
0.0
  0
LINE
  5
13C
330
119
100
AcDbEntity
  8
$DDT_AUDIT_GENERATED_(77)
  6
Continuous
 62
     7
100
AcDbLine
 10
227.6926718151
 20
236.9164317206
 30
0.0
 11
227.6926718151
 21
237.0995927495
 31
0.0
  0
LINE
  5
13D
330
119
100
AcDbEntity
  8
$DDT_AUDIT_GENERATED_(77)
  6
Continuous
 62
     7
100
AcDbLine
 10
176.3636884901
 20
237.4164126821
 30
0.0
 11
176.1839944348
 21
237.4164126821
 31
0.0
  0
LINE
  5
13E
330
119
100
AcDbEntity
  8
$DDT_AUDIT_GENERATED_(77)
  6
Continuous
 62
     7
100
AcDbLine
 10
176.6839753963
 20
236.9164317206
 30
0.0
 11
176.6839753963
 21
237.0995927495
 31
0.0
  0
ARC
  5
13F
330
119
100
AcDbEntity
  8
$DDT_AUDIT_GENERATED_(77)
  6
Continuous
 62
     7
100
AcDbCircle
 10
176.684013474
 20
237.4164507598
 30
0.0
 40
0.5000190406427146
100
AcDbArc
 50
180.0043632124
 51
269.9956367876
  0
LINE
  5
140
330
119
100
AcDbEntity
  8
$DDT_AUDIT_GENERATED_(8A)
  6
Continuous
 62
     7
100
AcDbLine
 10
213.7359541489
 20
284.2232392422
 30
0.0
 11
213.6473176203
 21
284.2071853891
 31
0.0
  0
SPLINE
  5
141
330
119
100
AcDbEntity
  8
$DDT_AUDIT_GENERATED_(8A)
  6
Continuous
 62
     7
100
AcDbSpline
210
0.0
220
0.0
230
1.0
 70
     8
 71
     3
 72
    11
 73
     7
 74
     0
 42
0.0000000012979263
 43
0.0000000001
 40
0.0
 40
0.0
 40
0.0
 40
0.0
 40
0.5035304155633419
 40
0.5035304155633419
 40
0.5035304155633419
 40
1.0
 40
1.0
 40
1.0
 40
1.0
 10
213.0773130057193
 20
284.9996771495266
 30
0.0
 10
214.3232659594257
 20
285.3425448987799
 30
0.0
 10
215.5698082479155
 20
285.6853847440886
 30
0.0
 10
216.8167584895539
 20
286.0282052455297
 30
0.0
 10
218.0462231890412
 20
286.3662184963459
 30
0.0
 10
219.2760870692525
 20
286.7042128283827
 30
0.0
 10
220.5062398839954
 20
287.042193452853
 30
0.0
  0
LINE
  5
142
330
119
100
AcDbEntity
  8
$DDT_AUDIT_GENERATED_(8A)
  6
Continuous
 62
     7
100
AcDbLine
 10
213.0618116959
 20
284.9962600891
 30
0.0
 11
213.0773130057
 21
284.9996771495
 31
0.0
  0
ARC
  5
143
330
119
100
AcDbEntity
  8
$DDT_AUDIT_GENERATED_(8A)
  6
Continuous
 62
     7
100
AcDbCircle
 10
5094.8073521136
 20
791.4802391601
 30
0.0
 40
4907.279657272372
100
AcDbArc
 50
185.9328959818
 51
186.3130716022
  0
LINE
  5
144
330
119
100
AcDbEntity
  8
$DDT_AUDIT_GENERATED_(8A)
  6
Continuous
 62
     7
100
AcDbLine
 10
213.8128732021
 20
284.2460412644
 30
0.0
 11
213.7359541489
 21
284.2232392422
 31
0.0
  0
ELLIPSE
  5
145
330
119
100
AcDbEntity
  8
$DDT_AUDIT_GENERATED_(8A)
  6
Continuous
 62
     7
100
AcDbEllipse
 10
213.0773130057
 20
284.2049066984
 30
0.0
 11
0.2122579531472195
 21
-0.7713277911016673
 31
0.0
210
0.0
220
0.0
230
0.9999999999999998
 40
0.9176412901
 41
1.375175642601561
 42
2.85024307599084
  0
ELLIPSE
  5
146
330
119
100
AcDbEntity
  8
$DDT_AUDIT_GENERATED_(8A)
  6
Continuous
 62
     7
100
AcDbEllipse
 10
213.0618116959
 20
284.201489638
 30
0.0
 11
0.1425763449608205
 21
-0.7871924706560636
 31
0.0
210
0.0
220
0.0
230
1.0
 40
0.8404593947
 41
1.447050053507837
 42
2.929337431970924
  0
LINE
  5
147
330
119
100
AcDbEntity
  8
$DDT_AUDIT_GENERATED_(8A)
  6
Continuous
 62
     7
100
AcDbLine
 10
212.9731751674
 20
284.980206236
 30
0.0
 11
213.0618116959
 21
284.9962600891
 31
0.0
  0
LINE
  5
148
330
119
100
AcDbEntity
  8
$DDT_AUDIT_GENERATED_(8A)
  6
Continuous
 62
     7
100
AcDbLine
 10
202.1883236057
 20
284.980206236
 30
0.0
 11
212.9731751674
 21
284.980206236
 31
0.0
  0
LINE
  5
149
330
119
100
AcDbEntity
  8
$DDT_AUDIT_GENERATED_(8A)
  6
Continuous
 62
     7
100
AcDbLine
 10
202.1883236057
 20
284.1854357849
 30
0.0
 11
202.1883236057
 21
171.8299861758
 31
0.0
  0
LINE
  5
14A
330
119
100
AcDbEntity
  8
$DDT_AUDIT_GENERATED_(8A)
  6
Continuous
 62
     7
100
AcDbLine
 10
216.5914287993
 20
172.0354235769
 30
0.0
 11
212.9731751674
 21
284.1854357849
 31
0.0
  0
SPLINE
  5
14B
330
119
100
AcDbEntity
  8
$DDT_AUDIT_GENERATED_(8A)
  6
Continuous
 62
     7
100
AcDbSpline
210
0.0
220
0.0
230
1.0
 70
     8
 71
     3
 72
    14
 73
    10
 74
     0
 42
0.0000000504158257
 43
0.0000000001
 40
0.0
 40
0.0
 40
0.0
 40
0.0
 40
0.14525756153158
 40
0.14525756153158
 40
0.14525756153158
 40
0.572859560346086
 40
0.572859560346086
 40
0.572859560346086
 40
1.0
 40
1.0
 40
1.0
 40
1.0
 10
216.5888849989301
 20
171.8373501622972
 30
0.0
 10
216.5902315691764
 20
171.8468607781748
 30
0.0
 10
216.5911699220358
 20
171.85643162424
 30
0.0
 10
216.5918701563196
 20
171.8660115374832
 30
0.0
 10
216.5939296735218
 20
171.8941878158759
 30
0.0
 10
216.5940314764937
 20
171.9224981302308
 30
0.0
 10
216.5936554308979
 20
171.9507470747222
 30
0.0
 10
216.5932796007991
 20
171.9789798308613
 30
0.0
 10
216.5923392690254
 20
172.0072030026139
 30
0.0
 10
216.5914287992595
 20
172.0354235768865
 30
0.0
  0
SPLINE
  5
14C
330
119
100
AcDbEntity
  8
$DDT_AUDIT_GENERATED_(8A)
  6
Continuous
 62
     7
100
AcDbSpline
210
0.0
220
0.0
230
1.0
 70
     8
 71
     3
 72
    17
 73
    13
 74
     0
 42
0.0000000425747941
 43
0.0000000001
 40
0.0
 40
0.0
 40
0.0
 40
0.0
 40
0.1915937046413717
 40
0.1915937046413717
 40
0.1915937046413717
 40
0.5499420501182793
 40
0.5499420501182793
 40
0.5499420501182793
 40
0.9087829487429022
 40
0.9087829487429022
 40
0.9087829487429022
 40
1.0
 40
1.0
 40
1.0
 40
1.0
 10
216.3542656626323
 20
171.8299861758313
 30
0.0
 10
216.3692652618161
 20
171.8299861758313
 30
0.0
 10
216.3842648892374
 20
171.8299854095743
 30
0.0
 10
216.399264446956
 20
171.8300206788472
 30
0.0
 10
216.4273179981604
 20
171.8300866426823
 30
0.0
 10
216.4553746635585
 20
171.8302630317492
 30
0.0
 10
216.4834204690396
 20
171.8309255129383
 30
0.0
 10
216.5114972945415
 20
171.8315887268638
 30
0.0
 10
216.5395922210915
 20
171.8326827453811
 30
0.0
 10
216.5675686961851
 20
171.8351454317835
 30
0.0
 10
216.5746845187517
 20
171.8357718166093
 30
0.0
 10
216.5817932867413
 20
171.8364928950205
 30
0.0
 10
216.5888849989301
 20
171.8373501622972
 30
0.0
  0
LINE
  5
14D
330
119
100
AcDbEntity
  8
$DDT_AUDIT_GENERATED_(8A)
  6
Continuous
 62
     7
100
AcDbLine
 10
202.1883236057
 20
171.8299861758
 30
0.0
 11
216.3542656626
 21
171.8299861758
 31
0.0
  0
LINE
  5
14E
330
119
100
AcDbEntity
  8
$DDT_AUDIT_GENERATED_(8A)
  6
Continuous
 62
     7
100
AcDbLine
 10
212.9731751674
 20
284.1854357849
 30
0.0
 11
202.1883236057
 21
284.1854357849
 31
0.0
  0
LINE
  5
14F
330
119
100
AcDbEntity
  8
$DDT_AUDIT_GENERATED_(8A)
  6
Continuous
 62
     7
100
AcDbLine
 10
202.1883236057
 20
171.0299861758
 30
0.0
 11
202.1883236057
 21
171.8299861758
 31
0.0
  0
LINE
  5
150
330
119
100
AcDbEntity
  8
$DDT_AUDIT_GENERATED_(8A)
  6
Continuous
 62
     7
100
AcDbLine
 10
202.1883236057
 20
284.1854357849
 30
0.0
 11
202.1883236057
 21
284.980206236
 31
0.0
  0
ELLIPSE
  5
151
330
119
100
AcDbEntity
  8
$DDT_AUDIT_GENERATED_(8A)
  6
Continuous
 62
     7
100
AcDbEllipse
 10
212.9731751674
 20
284.1854357849
 30
0.0
 11
-0.1425763449607719
 21
0.7871924706560618
 31
0.0
210
0.0
220
0.0
230
0.9999999999999999
 40
0.8404593947
 41
4.588642707097685
 42
6.070930085560858
  0
LINE
  5
152
330
119
100
AcDbEntity
  8
$DDT_AUDIT_GENERATED_(8A)
  6
Continuous
 62
     7
100
AcDbLine
 10
216.3542656626
 20
171.0299861758
 30
0.0
 11
202.1883236057
 21
171.0299861758
 31
0.0
  0
LINE
  5
153
330
119
100
AcDbEntity
  8
$DDT_AUDIT_GENERATED_(8A)
  6
Continuous
 62
     7
100
AcDbLine
 10
217.2655713042
 20
172.0571731811
 30
0.0
 11
218.1705967277
 21
172.0571731811
 31
0.0
  0
LINE
  5
154
330
119
100
AcDbEntity
  8
$DDT_AUDIT_GENERATED_(8A)
  6
Continuous
 62
     7
100
AcDbLine
 10
213.6473176203
 20
284.2071853891
 30
0.0
 11
217.2655713301
 21
172.0571731811
 31
0.0
  0
ARC
  5
155
330
119
100
AcDbEntity
  8
$DDT_AUDIT_GENERATED_(8A)
  6
Continuous
 62
     7
100
AcDbCircle
 10
216.4089162029
 20
173.6306993342
 30
0.0
 40
2.601287299325509
100
AcDbArc
 50
268.7961822996
 51
275.0436703143
  0
SPLINE
  5
156
330
119
100
AcDbEntity
  8
$DDT_AUDIT_GENERATED_(8A)
  6
Continuous
 62
     7
100
AcDbSpline
210
0.0
220
0.0
230
1.0
 70
     8
 71
     3
 72
    16
 73
    12
 74
     0
 42
0.0000000092864287
 43
0.0000000001
 40
0.0
 40
0.0
 40
0.0
 40
0.0
 40
0.0891056403844794
 40
0.1838371839198905
 40
0.2838523111872717
 40
0.3891441755393661
 40
0.500167938912852
 40
0.6645037550714252
 40
0.7499210987573968
 40
0.8760849457385962
 40
1.0
 40
1.0
 40
1.0
 40
1.0
 10
217.2631716853983
 20
171.7921946479679
 30
0.0
 10
217.2599861953333
 20
171.7580211353048
 30
0.0
 10
217.2534140914752
 20
171.6875164814409
 30
0.0
 10
217.2322668823358
 20
171.5805666894668
 30
0.0
 10
217.1981811233911
 20
171.471511527205
 30
0.0
 10
217.1473104068878
 20
171.3641822658028
 30
0.0
 10
217.0681919786196
 20
171.249408786692
 30
0.0
 10
216.9732388530539
 20
171.163048459906
 30
0.0
 10
216.8632311304752
 20
171.0988464120996
 30
0.0
 10
216.7583272058694
 20
171.0588592068628
 30
0.0
 10
216.6776060420933
 20
171.0459037508911
 30
0.0
 10
216.6376083959916
 20
171.0394842727914
 30
0.0
  0
ARC
  5
157
330
119
100
AcDbEntity
  8
$DDT_AUDIT_GENERATED_(8A)
  6
Continuous
 62
     7
100
AcDbCircle
 10
214.9310571148
 20
171.9458144021
 30
0.0
 40
2.337168671571233
100
AcDbArc
 50
356.2312888515
 51
2.7309987277
  0
LINE
  5
158
330
119
100
AcDbEntity
  8
$DDT_AUDIT_GENERATED_(8A)
  6
Continuous
 62
     7
100
AcDbLine
 10
216.3542656626
 20
171.8299861758
 30
0.0
 11
216.3542656626
 21
171.0299861758
 31
0.0
  0
LINE
  5
159
330
119
100
AcDbEntity
  8
$DDT_AUDIT_GENERATED_(8A)
  6
Continuous
 62
     7
100
AcDbLine
 10
216.5888849989
 20
171.8373501623
 30
0.0
 11
216.637608396
 21
171.0394842728
 31
0.0
  0
ARC
  5
15A
330
119
100
AcDbEntity
  8
$DDT_AUDIT_GENERATED_(8A)
  6
Continuous
 62
     7
100
AcDbCircle
 10
230.0957825689
 20
368.4727015876
 30
0.0
 40
197.0987004323806
100
AcDbArc
 50
266.0705208847
 51
266.2669723761
  0
LINE
  5
15B
330
119
100
AcDbEntity
  8
$DDT_AUDIT_GENERATED_(8A)
  6
Continuous
 62
     7
100
AcDbLine
 10
216.5914287993
 20
172.0354235769
 30
0.0
 11
217.2655713301
 21
172.0571731836
 31
0.0
  0
LINE
  5
15C
330
119
100
AcDbEntity
  8
$DDT_AUDIT_GENERATED_(8A)
  6
Continuous
 62
     7
100
AcDbLine
 10
212.9731751674
 20
284.1854357849
 30
0.0
 11
213.6473176203
 21
284.2071853891
 31
0.0
  0
LINE
  5
15D
330
119
100
AcDbEntity
  8
$DDT_AUDIT_GENERATED_(8A)
  6
Continuous
 62
     7
100
AcDbLine
 10
212.9731751674
 20
284.1854357849
 30
0.0
 11
212.9731751674
 21
284.980206236
 31
0.0
  0
LINE
  5
15E
330
119
100
AcDbEntity
  8
$DDT_AUDIT_GENERATED_(8A)
  6
Continuous
 62
     7
100
AcDbLine
 10
217.1036925263
 20
250.6280006423
 30
0.0
 11
217.3504917476
 21
251.3228780701
 31
0.0
  0
LINE
  5
15F
330
119
100
AcDbEntity
  8
$DDT_AUDIT_GENERATED_(8A)
  6
Continuous
 62
     7
100
AcDbLine
 10
217.2144064335
 20
239.4399169032
 30
0.0
 11
227.9327834463
 21
237.3398430697
 31
0.0
  0
LINE
  5
160
330
119
100
AcDbEntity
  8
$DDT_AUDIT_GENERATED_(8A)
  6
Continuous
 62
     7
100
AcDbLine
 10
217.5219533817
 20
251.7531949665
 30
0.0
 11
228.0926169607
 21
237.8016966836
 31
0.0
  0
SPLINE
  5
161
330
119
100
AcDbEntity
  8
$DDT_AUDIT_GENERATED_(8A)
  6
Continuous
 62
     7
100
AcDbSpline
210
0.0
220
0.0
230
1.0
 70
     8
 71
     3
 72
    15
 73
    11
 74
     0
 42
0.0000000319164991
 43
0.0000000001
 40
0.0
 40
0.0
 40
0.0
 40
0.0
 40
0.0950855310695009
 40
0.1912751608194331
 40
0.2899054230384001
 40
0.3922283106158257
 40
0.4993776357674005
 40
0.6169264743706524
 40
0.7488812391513271
 40
1.0
 40
1.0
 40
1.0
 40
1.0
 10
217.2859562622217
 20
251.8705026919274
 30
0.0
 10
217.2926739680212
 20
251.8777963691278
 30
0.0
 10
217.3061873831822
 20
251.8924684150615
 30
0.0
 10
217.3282527040077
 20
251.9036030221109
 30
0.0
 10
217.3516057295534
 20
251.9067573220068
 30
0.0
 10
217.3763679645422
 20
251.9011316608849
 30
0.0
 10
217.4028599779472
 20
251.8867539451853
 30
0.0
 10
217.4316973602336
 20
251.8626221277311
 30
0.0
 10
217.4718485183914
 20
251.8196245004036
 30
0.0
 10
217.5021135453463
 20
251.7794988219696
 30
0.0
 10
217.5219533817157
 20
251.7531949665152
 30
0.0
  0
ARC
  5
162
330
119
100
AcDbEntity
  8
$DDT_AUDIT_GENERATED_(8A)
  6
Continuous
 62
     7
100
AcDbCircle
 10
5300.1220404489
 20
808.5009994704
 30
0.0
 40
5113.334586038406
100
AcDbArc
 50
185.8849630679
 51
186.2518341137
  0
ARC
  5
163
330
119
100
AcDbEntity
  8
$DDT_AUDIT_GENERATED_(8A)
  6
Continuous
 62
     7
100
AcDbCircle
 10
218.1703852052
 20
251.3658654246
 30
0.0
 40
1.018269771082677
100
AcDbArc
 50
150.291793492
 51
162.8850590075
  0
ARC
  5
164
330
119
100
AcDbEntity
  8
$DDT_AUDIT_GENERATED_(8A)
  6
Continuous
 62
     7
100
AcDbCircle
 10
225.3054697496
 20
249.7075391825
 30
0.0
 40
8.341321232392335
100
AcDbArc
 50
166.4240515188
 51
184.2682630353
  0
LINE
  5
165
330
119
100
AcDbEntity
  8
$DDT_AUDIT_GENERATED_(8A)
  6
Continuous
 62
     7
100
AcDbLine
 10
218.1630560573
 20
172.8139317434
 30
0.0
 11
216.9872830686
 21
249.0867250054
 31
0.0
  0
LINE
  5
166
330
119
100
AcDbEntity
  8
$DDT_AUDIT_GENERATED_(8A)
  6
Continuous
 62
     7
100
AcDbLine
 10
218.1705967277
 20
172.0571731811
 30
0.0
 11
218.1630560573
 21
172.8139317434
 31
0.0
  0
ARC
  5
167
330
119
100
AcDbEntity
  8
$DDT_AUDIT_GENERATED_(8A)
  6
Continuous
 62
     7
100
AcDbCircle
 10
216.6651948936
 20
171.9703782248
 30
0.0
 40
1.507901869102397
100
AcDbArc
 50
343.8501931333
 51
3.2997736352
  0
LINE
  5
168
330
119
100
AcDbEntity
  8
$DDT_AUDIT_GENERATED_(8A)
  6
Continuous
 62
     7
100
AcDbLine
 10
217.1400763956
 20
171.0299861758
 30
0.0
 11
216.3542656626
 21
171.0299861758
 31
0.0
  0
SPLINE
  5
169
330
119
100
AcDbEntity
  8
$DDT_AUDIT_GENERATED_(8A)
  6
Continuous
 62
     7
100
AcDbSpline
210
0.0
220
0.0
230
1.0
 70
     8
 71
     3
 72
    16
 73
    12
 74
     0
 42
0.0000000082848757
 43
0.0000000001
 40
0.0
 40
0.0
 40
0.0
 40
0.0
 40
0.1020174566499095
 40
0.2029327568220728
 40
0.3028663708587957
 40
0.4018279172311724
 40
0.4999648980763579
 40
0.6080615831354509
 40
0.7500973454834995
 40
0.8966262260016111
 40
1.0
 40
1.0
 40
1.0
 40
1.0
 10
217.140076422063
 20
171.0299861758314
 30
0.0
 10
217.1819422664314
 20
171.0299840992801
 30
0.0
 10
217.2652217035725
 20
171.0299799686119
 30
0.0
 10
217.3887003720316
 20
171.0340618049592
 30
0.0
 10
217.5092269569214
 20
171.0461630043392
 30
0.0
 10
217.6254847907393
 20
171.0698565842705
 30
0.0
 10
217.7393317760361
 20
171.1095630150192
 30
0.0
 10
217.8581400509838
 20
171.1762130804996
 30
0.0
 10
217.9742000291241
 20
171.282567784813
 30
0.0
 10
218.0624562763716
 20
171.4157060967889
 30
0.0
 10
218.0986286120824
 20
171.5113797172031
 30
0.0
 10
218.1135915217962
 20
171.5509557002332
 30
0.0
  0
SPLINE
  5
16A
330
119
100
AcDbEntity
  8
$DDT_AUDIT_GENERATED_(8A)
  6
Continuous
 62
     7
100
AcDbSpline
210
0.0
220
0.0
230
1.0
 70
     8
 71
     3
 72
    11
 73
     7
 74
     0
 42
0.0000001794906572
 43
0.0000000001
 40
0.0
 40
0.0
 40
0.0
 40
0.0
 40
0.2127594296885131
 40
0.3951875348182896
 40
0.6446423162341268
 40
1.0
 40
1.0
 40
1.0
 40
1.0
 10
217.2456285215173
 20
251.4783334603111
 30
0.0
 10
217.2472694020564
 20
251.4828279197965
 30
0.0
 10
217.2503172365806
 20
251.4911761014351
 30
0.0
 10
217.2504467242985
 20
251.4948722650711
 30
0.0
 10
217.2448320058878
 20
251.4827685003522
 30
0.0
 10
217.2391495494713
 20
251.4680817203649
 30
0.0
 10
217.23581082108
 20
251.459452499878
 30
0.0
  0
SPLINE
  5
16B
330
119
100
AcDbEntity
  8
$DDT_AUDIT_GENERATED_(8A)
  6
Continuous
 62
     7
100
AcDbSpline
210
0.0
220
0.0
230
1.0
 70
     8
 71
     3
 72
    15
 73
    11
 74
     0
 42
0.0000000443995486
 43
0.0000000001
 40
0.0
 40
0.0
 40
0.0
 40
0.0
 40
0.1353992294118986
 40
0.3018663365389611
 40
0.4993258008036786
 40
0.6361826311481205
 40
0.7334787959373579
 40
0.8385103857437433
 40
0.9231671028521246
 40
1.0
 40
1.0
 40
1.0
 40
1.0
 10
217.3504917476154
 20
251.3228780700817
 30
0.0
 10
217.3444015795201
 20
251.3317985799239
 30
0.0
 10
217.3308238306673
 20
251.3516864451489
 30
0.0
 10
217.3123501048684
 20
251.3886844269862
 30
0.0
 10
217.2969307317184
 20
251.4270323301548
 30
0.0
 10
217.2860716842957
 20
251.4592933877709
 30
0.0
 10
217.2779999392233
 20
251.4820790108838
 30
0.0
 10
217.2697419962514
 20
251.4954290713521
 30
0.0
 10
217.2589891828896
 20
251.4969238686911
 30
0.0
 10
217.2499358708944
 20
251.4843268300795
 30
0.0
 10
217.2456285215173
 20
251.4783334603111
 30
0.0
  0
ELLIPSE
  5
16C
330
119
100
AcDbEntity
  8
$DDT_AUDIT_GENERATED_(8A)
  6
Continuous
 62
     7
100
AcDbEllipse
 10
216.7627195861
 20
251.7020486166
 30
0.0
 11
0.6375247027426232
 21
0.4832827882233841
 31
0.0
210
0.0
220
0.0
230
0.9999999999999997
 40
0.8609828581
 41
5.016218019922378
 42
5.631263790505127
  0
ELLIPSE
  5
16D
330
119
100
AcDbEntity
  8
$DDT_AUDIT_GENERATED_(8A)
  6
Continuous
 62
     7
100
AcDbEllipse
 10
216.5263610032
 20
251.8171296218
 30
0.0
 11
0.6229932549357501
 21
-0.5018758853585423
 31
0.0
210
0.0
220
0.0
230
1.0
 40
0.9038213005
 41
0.2621619257220562
 42
0.79881490760466
  0
ELLIPSE
  5
16E
330
119
100
AcDbEntity
  8
$DDT_AUDIT_GENERATED_(8A)
  6
Continuous
 62
     7
100
AcDbEllipse
 10
216.7758691484
 20
251.6519380817
 30
0.0
 11
-0.4693139754148781
 21
0.1724656269772688
 31
0.0
210
0.0
220
0.0
230
1.0
 40
0.5068678866
 41
3.054580215772167
 42
3.815188651260939
  0
ELLIPSE
  5
16F
330
119
100
AcDbEntity
  8
$DDT_AUDIT_GENERATED_(8A)
  6
Continuous
 62
     7
100
AcDbEllipse
 10
216.5659440355
 20
249.0731315028
 30
0.0
 11
-0.4999406022121594
 21
-0.007706767129567887
 31
0.0
210
0.0
220
0.0
230
1.0
 40
0.0263890067
 41
3.161045107240755
 42
3.709558350265243
  0
ELLIPSE
  5
170
330
119
100
AcDbEntity
  8
$DDT_AUDIT_GENERATED_(8A)
  6
Continuous
 62
     7
100
AcDbEllipse
 10
217.7417170242
 20
172.8003382409
 30
0.0
 11
-0.499940602208978
 21
-0.007706767072193643
 31
0.0
210
0.0
220
0.0
230
1.0
 40
0.0263890066
 41
3.161045415416067
 42
3.709558350273856
  0
SPLINE
  5
171
330
119
100
AcDbEntity
  8
$DDT_AUDIT_GENERATED_(8A)
  6
Continuous
 62
     7
100
AcDbSpline
210
0.0
220
0.0
230
1.0
 70
     8
 71
     3
 72
    10
 73
     6
 74
     0
 42
0.0000000373564653
 43
0.0000000001
 40
0.7009980797284701
 40
0.7009980797284701
 40
0.7009980797284701
 40
0.7009980797284701
 40
0.75
 40
0.75
 40
1.0
 40
1.0
 40
1.0
 40
1.0
 10
218.2490184743332
 20
172.0461974377017
 30
0.0
 10
218.2486876250035
 20
172.0469082725966
 30
0.0
 10
218.2475685242222
 20
172.047607833708
 30
0.0
 10
218.2360193623536
 20
172.0517754654786
 30
0.0
 10
218.2072338132031
 20
172.0548096589914
 30
0.0
 10
218.1705967277486
 20
172.057173181107
 30
0.0
  0
ELLIPSE
  5
172
330
119
100
AcDbEntity
  8
$DDT_AUDIT_GENERATED_(8A)
  6
Continuous
 62
     7
100
AcDbEllipse
 10
217.7127733331
 20
171.7044441142
 30
0.0
 11
-0.4602431817497792
 21
0.1953873426058794
 31
0.0
210
0.0
220
0.0
230
0.9999999999999999
 40
0.0597229436
 41
3.155954930593227
 42
3.681309693211634
  0
SPLINE
  5
173
330
119
100
AcDbEntity
  8
$DDT_AUDIT_GENERATED_(8A)
  6
Continuous
 62
     7
100
AcDbSpline
210
0.0
220
0.0
230
1.0
 70
    12
 71
     3
 72
    18
 73
    14
 74
     0
 42
0.0000000082805404
 43
0.0000000001
 40
0.0
 40
0.0
 40
0.0
 40
0.0
 40
0.5
 40
0.5
 40
0.6249999999999994
 40
0.6249999999999994
 40
0.7499999999999999
 40
0.7499999999999999
 40
0.8124999999999997
 40
0.8124999999999997
 40
0.8749999999999994
 40
0.8749999999999994
 40
1.0
 40
1.0
 40
1.0
 40
1.0
 10
187.2365707893804
 20
171.0299861758314
 30
0.0
 41
1.0
 10
187.0519201085474
 20
171.0299861758313
 30
0.0
 41
1.0
 10
186.8676648504543
 20
171.0317114888125
 30
0.0
 41
1.0
 10
186.6654216862801
 20
171.1001372803782
 30
0.0
 41
1.0
 10
186.628623599679
 20
171.1153496270578
 30
0.0
 41
1.0
 10
186.5401798332809
 20
171.1655389116666
 30
0.0
 41
1.0
 10
186.4904243672851
 20
171.200309313799
 30
0.0
 41
1.0
 10
186.4163327952794
 20
171.2758226692269
 30
0.0
 41
1.0
 10
186.3914665876968
 20
171.3058856052199
 30
0.0
 41
1.0
 10
186.351027697182
 20
171.362781539577
 30
0.0
 41
1.0
 10
186.3342965948505
 20
171.3906143315522
 30
0.0
 41
1.0
 10
186.2922598394204
 20
171.4694309861577
 30
0.0
 41
1.0
 10
186.2749237998146
 20
171.5155890147401
 30
0.0
 41
1.0
 10
186.2630556896472
 20
171.5509557002333
 30
0.0
 41
1.0
  0
ELLIPSE
  5
174
330
119
100
AcDbEntity
  8
$DDT_AUDIT_GENERATED_(8A)
  6
Continuous
 62
     7
100
AcDbEllipse
 10
186.6638738783
 20
171.7044441142
 30
0.0
 11
0.4602431817403718
 21
0.1953873426091129
 31
0.0
210
0.0
220
0.0
230
1.0
 40
0.0597229436
 41
2.601875613957552
 42
3.127230376570975
  0
LINE
  5
175
330
119
100
AcDbEntity
  8
$DDT_AUDIT_GENERATED_(8A)
  6
Continuous
 62
     7
100
AcDbLine
 10
186.2630556896
 20
171.5509557002
 30
0.0
 11
186.2060504837
 21
172.0571731802
 31
0.0
  0
ELLIPSE
  5
176
330
119
100
AcDbEntity
  8
$DDT_AUDIT_GENERATED_(8A)
  6
Continuous
 62
     7
100
AcDbEllipse
 10
186.6273895169
 20
172.0435796778
 30
0.0
 11
0.4999955528834954
 21
-0.002108832914321512
 31
0.0
210
0.0
220
0.0
230
1.0
 40
0.0439064209
 41
2.573233392501061
 42
3.118336938172817
  0
LINE
  5
177
330
119
100
AcDbEntity
  8
$DDT_AUDIT_GENERATED_(8A)
  6
Continuous
 62
     7
100
AcDbLine
 10
186.2060504837
 20
172.0571731811
 30
0.0
 11
186.2135911542
 21
172.8139317434
 31
0.0
  0
ELLIPSE
  5
178
330
119
100
AcDbEntity
  8
$DDT_AUDIT_GENERATED_(8A)
  6
Continuous
 62
     7
100
AcDbEllipse
 10
186.6349301873
 20
172.8003382409
 30
0.0
 11
0.4999406022163122
 21
-0.00770676707383122
 31
0.0
210
0.0
220
0.0
230
1.0
 40
0.0263890066
 41
-3.709558350263703
 42
-3.161045415410353
  0
LINE
  5
179
330
119
100
AcDbEntity
  8
$DDT_AUDIT_GENERATED_(8A)
  6
Continuous
 62
     7
100
AcDbLine
 10
186.2135911542
 20
172.8139317434
 30
0.0
 11
187.3893641429
 21
249.0867250054
 31
0.0
  0
ELLIPSE
  5
17A
330
119
100
AcDbEntity
  8
$DDT_AUDIT_GENERATED_(8A)
  6
Continuous
 62
     7
100
AcDbEllipse
 10
187.810703176
 20
249.0731315028
 30
0.0
 11
0.4999406022121455
 21
-0.007706767129602582
 31
0.0
210
0.0
220
0.0
230
0.9999999999999999
 40
0.0263890067
 41
-3.709558350265197
 42
-3.161045107242204
  0
ARC
  5
17B
330
119
100
AcDbEntity
  8
$DDT_AUDIT_GENERATED_(8A)
  6
Continuous
 62
     7
100
AcDbCircle
 10
178.531423033
 20
249.663601025
 30
0.0
 40
8.876705844428992
100
AcDbArc
 50
356.2738574663
 51
13.0338279796
  0
ELLIPSE
  5
17C
330
119
100
AcDbEntity
  8
$DDT_AUDIT_GENERATED_(8A)
  6
Continuous
 62
     7
100
AcDbEllipse
 10
187.6007780631
 20
251.6519380817
 30
0.0
 11
0.4693139754104961
 21
0.1724656269894327
 31
0.0
210
0.0
220
0.0
230
1.0
 40
0.5068678866
 41
2.467996655905611
 42
3.228605091392989
  0
SPLINE
  5
17D
330
119
100
AcDbEntity
  8
$DDT_AUDIT_GENERATED_(8A)
  6
Continuous
 62
     7
100
AcDbSpline
210
0.0
220
0.0
230
1.0
 70
    12
 71
     3
 72
    10
 73
     6
 74
     0
 42
0.0000001849712438
 43
0.0000000001
 40
0.0
 40
0.0
 40
0.0
 40
0.0
 40
0.5000000000000009
 40
0.5000000000000009
 40
1.0
 40
1.0
 40
1.0
 40
1.0
 10
187.1310186899263
 20
251.4783334603111
 30
0.0
 41
1.0
 10
187.1254922406937
 20
251.4928705229129
 30
0.0
 41
1.0
 10
187.1260003509213
 20
251.49370916875
 30
0.0
 41
1.0
 10
187.1275576851722
 20
251.4920135744281
 30
0.0
 41
1.0
 10
187.1296310450514
 20
251.488679232137
 30
0.0
 41
1.0
 10
187.1408363903637
 20
251.4594524998781
 30
0.0
 41
1.0
  0
ELLIPSE
  5
17E
330
119
100
AcDbEntity
  8
$DDT_AUDIT_GENERATED_(8A)
  6
Continuous
 62
     7
100
AcDbEllipse
 10
187.8502862083
 20
251.8171296218
 30
0.0
 11
-0.622993254934992
 21
-0.5018758853592431
 31
0.0
210
0.0
220
0.0
230
1.0
 40
0.9038213005
 41
5.484370399573523
 42
6.021023381455856
  0
SPLINE
  5
17F
330
119
100
AcDbEntity
  8
$DDT_AUDIT_GENERATED_(8A)
  6
Continuous
 62
     7
100
AcDbSpline
210
0.0
220
0.0
230
1.0
 70
    12
 71
     3
 72
    14
 73
    10
 74
     0
 42
0.0000000312675747
 43
0.0000000001
 40
0.0
 40
0.0
 40
0.0
 40
0.0
 40
0.5
 40
0.5
 40
0.75
 40
0.75
 40
0.875
 40
0.875
 40
1.0
 40
1.0
 40
1.0
 40
1.0
 10
187.0906909492219
 20
251.8705026919274
 30
0.0
 41
1.0
 10
187.0635574048754
 20
251.9039448021707
 30
0.0
 41
1.0
 10
187.0324082974261
 20
251.9134320200913
 30
0.0
 41
1.0
 10
186.9797702903818
 20
251.8911842690325
 30
0.0
 41
1.0
 10
186.9614378151755
 20
251.8778410686177
 30
0.0
 41
1.0
 10
186.9299060529088
 20
251.8466330604703
 30
0.0
 41
1.0
 10
186.9198598395916
 20
251.8357500506067
 30
0.0
 41
1.0
 10
186.8935402101339
 20
251.8039832558669
 30
0.0
 41
1.0
 10
186.8762045061057
 20
251.7817608470647
 30
0.0
 41
1.0
 10
186.8546938297279
 20
251.7531949665152
 30
0.0
 41
1.0
  0
SPLINE
  5
180
330
119
100
AcDbEntity
  8
$DDT_AUDIT_GENERATED_(8A)
  6
Continuous
 62
     7
100
AcDbSpline
210
0.0
220
0.0
230
1.0
 70
    12
 71
     3
 72
    14
 73
    10
 74
     0
 42
0.0000000428261817
 43
0.0000000001
 40
0.0
 40
0.0
 40
0.0
 40
0.0
 40
0.125
 40
0.125
 40
0.25
 40
0.25
 40
0.5
 40
0.5
 40
1.0
 40
1.0
 40
1.0
 40
1.0
 10
187.0261554638282
 20
251.3228780700817
 30
0.0
 41
1.0
 10
187.0476965597279
 20
251.3512944183426
 30
0.0
 41
1.0
 10
187.0582900303887
 20
251.3749943039971
 30
0.0
 41
1.0
 10
187.072792105415
 20
251.4081497647446
 30
0.0
 41
1.0
 10
187.0769185079817
 20
251.4200419556751
 30
0.0
 41
1.0
 10
187.0889401161188
 20
251.4542947484774
 30
0.0
 41
1.0
 10
187.093906759541
 20
251.4699292133479
 30
0.0
 41
1.0
 10
187.1082746932971
 20
251.5019198390423
 30
0.0
 41
1.0
 10
187.1171895461128
 20
251.5007543243109
 30
0.0
 41
1.0
 10
187.1310186899263
 20
251.4783334603111
 30
0.0
 41
1.0
  0
ELLIPSE
  5
181
330
119
100
AcDbEntity
  8
$DDT_AUDIT_GENERATED_(8A)
  6
Continuous
 62
     7
100
AcDbEllipse
 10
187.6139276253
 20
251.7020486166
 30
0.0
 11
-0.6375247027426006
 21
0.4832827882234013
 31
0.0
210
0.0
220
0.0
230
1.0
 40
0.8609828581
 41
0.651921516674453
 42
1.266967287257206
  0
LINE
  5
182
330
119
100
AcDbEntity
  8
$DDT_AUDIT_GENERATED_(8A)
  6
Continuous
 62
     7
100
AcDbLine
 10
186.8546938297
 20
251.7531949665
 30
0.0
 11
176.2840302514
 21
237.8016966845
 31
0.0
  0
LINE
  5
183
330
119
100
AcDbEntity
  8
$DDT_AUDIT_GENERATED_(8A)
  6
Continuous
 62
     7
100
AcDbLine
 10
187.2365707894
 20
171.0299861758
 30
0.0
 11
188.0223815488
 21
171.0299861758
 31
0.0
  0
LINE
  5
184
330
119
100
AcDbEntity
  8
$DDT_AUDIT_GENERATED_(8A)
  6
Continuous
 62
     7
100
AcDbLine
 10
187.1110758813
 20
172.0571731811
 30
0.0
 11
186.2060504837
 21
172.0571731811
 31
0.0
  0
ARC
  5
185
330
119
100
AcDbEntity
  8
$DDT_AUDIT_GENERATED_(8A)
  6
Continuous
 62
     7
100
AcDbCircle
 10
186.1239463251
 20
251.3302245052
 30
0.0
 40
1.107472657616791
100
AcDbArc
 50
17.6239207286
 51
29.1992267719
  0
ARC
  5
186
330
119
100
AcDbEntity
  8
$DDT_AUDIT_GENERATED_(8A)
  6
Continuous
 62
     7
100
AcDbCircle
 10
-4895.7453932377
 20
808.5009994704
 30
0.0
 40
5113.334586038683
100
AcDbArc
 50
353.7481658863
 51
354.1150369321
  0
ARC
  5
187
330
119
100
AcDbEntity
  8
$DDT_AUDIT_GENERATED_(8A)
  6
Continuous
 62
     7
100
AcDbCircle
 10
-4690.4307049023
 20
791.4802391601
 30
0.0
 40
4907.279657272545
100
AcDbArc
 50
353.6869283978
 51
354.0671040182
  0
LINE
  5
188
330
119
100
AcDbEntity
  8
$DDT_AUDIT_GENERATED_(8A)
  6
Continuous
 62
     7
100
AcDbLine
 10
187.2729546851
 20
250.6280006423
 30
0.0
 11
187.0261554638
 21
251.3228780701
 31
0.0
  0
ELLIPSE
  5
189
330
119
100
AcDbEntity
  8
$DDT_AUDIT_GENERATED_(8A)
  6
Continuous
 62
     7
100
AcDbEllipse
 10
191.2993342057
 20
284.2049066984
 30
0.0
 11
-0.2122579531472473
 21
-0.7713277911016534
 31
0.0
210
0.0
220
0.0
230
0.9999999999999998
 40
0.9176412901
 41
3.432942231188952
 42
4.908009664578052
  0
SPLINE
  5
18A
330
119
100
AcDbEntity
  8
$DDT_AUDIT_GENERATED_(8A)
  6
Continuous
 62
     7
100
AcDbSpline
210
0.0
220
0.0
230
1.0
 70
     8
 71
     3
 72
    11
 73
     7
 74
     0
 42
0.0000000012979263
 43
0.0000000001
 40
0.0
 40
0.0
 40
0.0
 40
0.0
 40
0.5035304155633857
 40
0.5035304155633857
 40
0.5035304155633857
 40
1.0
 40
1.0
 40
1.0
 40
1.0
 10
191.2993342057244
 20
284.9996771495266
 30
0.0
 10
190.053381252018
 20
285.34254489878
 30
0.0
 10
188.8068389635282
 20
285.6853847440887
 30
0.0
 10
187.5598887218898
 20
286.0282052455297
 30
0.0
 10
186.3304240224028
 20
286.3662184963459
 30
0.0
 10
185.1005601421917
 20
286.7042128283826
 30
0.0
 10
183.870407327449
 20
287.042193452853
 30
0.0
  0
LINE
  5
18B
330
119
100
AcDbEntity
  8
$DDT_AUDIT_GENERATED_(8A)
  6
Continuous
 62
     7
100
AcDbLine
 10
190.5637740093
 20
284.2460412644
 30
0.0
 11
190.6406930626
 21
284.2232392422
 31
0.0
  0
ELLIPSE
  5
18C
330
119
100
AcDbEntity
  8
$DDT_AUDIT_GENERATED_(8A)
  6
Continuous
 62
     7
100
AcDbEllipse
 10
191.3148355155
 20
284.201489638
 30
0.0
 11
-0.1425763449608257
 21
-0.7871924706560549
 31
0.0
210
0.0
220
0.0
230
1.0
 40
0.8404593947
 41
3.353847875208656
 42
4.836135253671693
  0
LINE
  5
18D
330
119
100
AcDbEntity
  8
$DDT_AUDIT_GENERATED_(8A)
  6
Continuous
 62
     7
100
AcDbLine
 10
191.3148355155
 20
284.9962600891
 30
0.0
 11
191.2993342057
 21
284.9996771495
 31
0.0
  0
LINE
  5
18E
330
119
100
AcDbEntity
  8
$DDT_AUDIT_GENERATED_(8A)
  6
Continuous
 62
     7
100
AcDbLine
 10
191.4034720441
 20
284.980206236
 30
0.0
 11
191.3148355155
 21
284.9962600891
 31
0.0
  0
LINE
  5
18F
330
119
100
AcDbEntity
  8
$DDT_AUDIT_GENERATED_(8A)
  6
Continuous
 62
     7
100
AcDbLine
 10
190.6406930626
 20
284.2232392422
 30
0.0
 11
190.7293295911
 21
284.2071853891
 31
0.0
  0
LINE
  5
190
330
119
100
AcDbEntity
  8
$DDT_AUDIT_GENERATED_(8A)
  6
Continuous
 62
     7
100
AcDbLine
 10
202.1883236057
 20
171.8299861758
 30
0.0
 11
188.0223815488
 21
171.8299861758
 31
0.0
  0
LINE
  5
191
330
119
100
AcDbEntity
  8
$DDT_AUDIT_GENERATED_(8A)
  6
Continuous
 62
     7
100
AcDbLine
 10
188.0223815488
 20
171.8299861758
 30
0.0
 11
188.0223815488
 21
171.0299861758
 31
0.0
  0
LINE
  5
192
330
119
100
AcDbEntity
  8
$DDT_AUDIT_GENERATED_(8A)
  6
Continuous
 62
     7
100
AcDbLine
 10
188.0223815488
 20
171.0299861758
 30
0.0
 11
202.1883236057
 21
171.0299861758
 31
0.0
  0
SPLINE
  5
193
330
119
100
AcDbEntity
  8
$DDT_AUDIT_GENERATED_(8A)
  6
Continuous
 62
     7
100
AcDbSpline
210
0.0
220
0.0
230
1.0
 70
     8
 71
     3
 72
    17
 73
    13
 74
     0
 42
0.0000000425747941
 43
0.0000000001
 40
0.0
 40
0.0
 40
0.0
 40
0.0
 40
0.1915937046413717
 40
0.1915937046413717
 40
0.1915937046413717
 40
0.5499420501182793
 40
0.5499420501182793
 40
0.5499420501182793
 40
0.9087829487429022
 40
0.9087829487429022
 40
0.9087829487429022
 40
1.0
 40
1.0
 40
1.0
 40
1.0
 10
188.0223815488111
 20
171.8299861758314
 30
0.0
 10
188.0073819496273
 20
171.8299861758314
 30
0.0
 10
187.992382322206
 20
171.8299854095744
 30
0.0
 10
187.9773827644874
 20
171.8300206788473
 30
0.0
 10
187.949329213283
 20
171.8300866426824
 30
0.0
 10
187.9212725478849
 20
171.8302630317492
 30
0.0
 10
187.8932267424038
 20
171.8309255129384
 30
0.0
 10
187.8651499169019
 20
171.8315887268639
 30
0.0
 10
187.8370549903519
 20
171.8326827453811
 30
0.0
 10
187.8090785152584
 20
171.8351454317836
 30
0.0
 10
187.8019626926917
 20
171.8357718166093
 30
0.0
 10
187.7948539247022
 20
171.8364928950205
 30
0.0
 10
187.7877622125133
 20
171.8373501622973
 30
0.0
  0
ARC
  5
194
330
119
100
AcDbEntity
  8
$DDT_AUDIT_GENERATED_(8A)
  6
Continuous
 62
     7
100
AcDbCircle
 10
-39.1448329469
 20
185.2950566614
 30
0.0
 40
227.3312838348672
100
AcDbArc
 50
356.4047165877
 51
356.6061826178
  0
ARC
  5
195
330
119
100
AcDbEntity
  8
$DDT_AUDIT_GENERATED_(8A)
  6
Continuous
 62
     7
100
AcDbCircle
 10
187.9677310076
 20
173.6306993063
 30
0.0
 40
2.601287271437321
100
AcDbArc
 50
264.9563296522
 51
271.2038177339
  0
LINE
  5
196
330
119
100
AcDbEntity
  8
$DDT_AUDIT_GENERATED_(8A)
  6
Continuous
 62
     7
100
AcDbLine
 10
187.7877622125
 20
171.8373501623
 30
0.0
 11
187.113475526
 21
171.792194648
 31
0.0
  0
SPLINE
  5
197
330
119
100
AcDbEntity
  8
$DDT_AUDIT_GENERATED_(8A)
  6
Continuous
 62
     7
100
AcDbSpline
210
0.0
220
0.0
230
1.0
 70
     8
 71
     3
 72
    20
 73
    16
 74
     0
 42
0.0000000092852409
 43
0.0000000001
 40
0.0
 40
0.0
 40
0.0
 40
0.0
 40
0.125
 40
0.125
 40
0.25
 40
0.25
 40
0.5
 40
0.5
 40
0.75
 40
0.75
 40
0.875
 40
0.875
 40
0.99609375
 40
0.99609375
 40
1.0
 40
1.0
 40
1.0
 40
1.0
 10
187.1134755260451
 20
171.792194647968
 30
0.0
 10
187.1170916817372
 20
171.7442203969401
 30
0.0
 10
187.1229857149828
 20
171.6962516448037
 30
0.0
 10
187.1405671835498
 20
171.6018520974307
 30
0.0
 10
187.1522546188712
 20
171.5554213021939
 30
0.0
 10
187.1978634984029
 20
171.4207262905114
 30
0.0
 10
187.2425019387051
 20
171.3373370072291
 30
0.0
 10
187.3572012663101
 20
171.1991935007017
 30
0.0
 10
187.4268733848361
 20
171.1449527123198
 30
0.0
 10
187.5398382638767
 20
171.0889007965543
 30
0.0
 10
187.57884085655
 20
171.074378661112
 30
0.0
 10
187.6569893942181
 20
171.052520345106
 30
0.0
 10
187.6960927709835
 20
171.0449737852257
 30
0.0
 10
187.7365124401336
 20
171.0397997607664
 30
0.0
 10
187.7377756101304
 20
171.0396407095714
 30
0.0
 10
187.7390388154518
 20
171.0394842727914
 30
0.0
  0
SPLINE
  5
198
330
119
100
AcDbEntity
  8
$DDT_AUDIT_GENERATED_(8A)
  6
Continuous
 62
     7
100
AcDbSpline
210
0.0
220
0.0
230
1.0
 70
     8
 71
     3
 72
    14
 73
    10
 74
     0
 42
0.0000000504158257
 43
0.0000000001
 40
0.0
 40
0.0
 40
0.0
 40
0.0
 40
0.14525756153158
 40
0.14525756153158
 40
0.14525756153158
 40
0.572859560346086
 40
0.572859560346086
 40
0.572859560346086
 40
1.0
 40
1.0
 40
1.0
 40
1.0
 10
187.7877622125133
 20
171.8373501622973
 30
0.0
 10
187.786415642267
 20
171.8468607781749
 30
0.0
 10
187.7854772894076
 20
171.8564316242401
 30
0.0
 10
187.7847770551238
 20
171.8660115374833
 30
0.0
 10
187.7827175379216
 20
171.8941878158759
 30
0.0
 10
187.7826157349498
 20
171.9224981302308
 30
0.0
 10
187.7829917805454
 20
171.9507470747222
 30
0.0
 10
187.7833676106443
 20
171.9789798308614
 30
0.0
 10
187.7843079424181
 20
172.007203002614
 30
0.0
 10
187.7852184121839
 20
172.0354235768866
 30
0.0
  0
LINE
  5
199
330
119
100
AcDbEntity
  8
$DDT_AUDIT_GENERATED_(8A)
  6
Continuous
 62
     7
100
AcDbLine
 10
187.7852184122
 20
172.0354235769
 30
0.0
 11
187.1110758814
 21
172.0571731836
 31
0.0
  0
ARC
  5
19A
330
119
100
AcDbEntity
  8
$DDT_AUDIT_GENERATED_(8A)
  6
Continuous
 62
     7
100
AcDbCircle
 10
189.4455900824
 20
171.945814402
 30
0.0
 40
2.337168657350503
100
AcDbArc
 50
177.2690012525
 51
183.7687111683
  0
LINE
  5
19B
330
119
100
AcDbEntity
  8
$DDT_AUDIT_GENERATED_(8A)
  6
Continuous
 62
     7
100
AcDbLine
 10
187.7852184122
 20
172.0354235769
 30
0.0
 11
191.4034720441
 21
284.1854357849
 31
0.0
  0
LINE
  5
19C
330
119
100
AcDbEntity
  8
$DDT_AUDIT_GENERATED_(8A)
  6
Continuous
 62
     7
100
AcDbLine
 10
191.4034720441
 20
284.1854357849
 30
0.0
 11
190.7293295911
 21
284.2071853891
 31
0.0
  0
LINE
  5
19D
330
119
100
AcDbEntity
  8
$DDT_AUDIT_GENERATED_(8A)
  6
Continuous
 62
     7
100
AcDbLine
 10
190.7293295911
 20
284.2071853891
 30
0.0
 11
187.1110758813
 21
172.0571731811
 31
0.0
  0
LINE
  5
19E
330
119
100
AcDbEntity
  8
$DDT_AUDIT_GENERATED_(8A)
  6
Continuous
 62
     7
100
AcDbLine
 10
191.4034720441
 20
284.1854357849
 30
0.0
 11
191.4034720441
 21
284.980206236
 31
0.0
  0
ELLIPSE
  5
19F
330
119
100
AcDbEntity
  8
$DDT_AUDIT_GENERATED_(8A)
  6
Continuous
 62
     7
100
AcDbEllipse
 10
191.4034720441
 20
284.1854357849
 30
0.0
 11
0.1425763449607858
 21
0.7871924706560566
 31
0.0
210
0.0
220
0.0
230
1.0
 40
0.8404593947
 41
0.2122552216184581
 42
1.694542600081776
  0
LINE
  5
1A0
330
119
100
AcDbEntity
  8
$DDT_AUDIT_GENERATED_(8A)
  6
Continuous
 62
     7
100
AcDbLine
 10
202.1883236057
 20
284.980206236
 30
0.0
 11
191.4034720441
 21
284.980206236
 31
0.0
  0
LINE
  5
1A1
330
119
100
AcDbEntity
  8
$DDT_AUDIT_GENERATED_(8A)
  6
Continuous
 62
     7
100
AcDbLine
 10
191.4034720441
 20
284.1854357849
 30
0.0
 11
202.1883236057
 21
284.1854357849
 31
0.0
  0
LINE
  5
1A2
330
119
100
AcDbEntity
  8
$DDT_AUDIT_GENERATED_(8A)
  6
Continuous
 62
     7
100
AcDbLine
 10
187.162240778
 20
239.4399169032
 30
0.0
 11
176.4438637651
 21
237.3398430697
 31
0.0
  0
LINE
  5
1A3
330
119
100
AcDbEntity
  8
$DDT_AUDIT_GENERATED_(8A)
  6
Continuous
 62
     7
100
AcDbLine
 10
227.9590845617
 20
237.3806137598
 30
0.0
 11
217.3504917476
 21
251.3228780701
 31
0.0
  0
LINE
  5
1A4
330
119
100
AcDbEntity
  8
$DDT_AUDIT_GENERATED_(8A)
  6
Continuous
 62
     7
100
AcDbLine
 10
227.9327834463
 20
237.3398430697
 30
0.0
 11
227.9590845446
 21
237.3806137823
 31
0.0
  0
ARC
  5
1A5
330
119
100
AcDbEntity
  8
$DDT_AUDIT_GENERATED_(8A)
  6
Continuous
 62
     7
100
AcDbCircle
 10
227.2916597148
 20
237.8239901898
 30
0.0
 40
0.8012730913126893
100
AcDbArc
 50
326.4035371621
 51
358.4086417647
  0
LINE
  5
1A6
330
119
100
AcDbEntity
  8
$DDT_AUDIT_GENERATED_(8A)
  6
Continuous
 62
     7
100
AcDbLine
 10
176.4175626498
 20
237.3806137598
 30
0.0
 11
187.0261554638
 21
251.3228780701
 31
0.0
  0
LINE
  5
1A7
330
119
100
AcDbEntity
  8
$DDT_AUDIT_GENERATED_(8A)
  6
Continuous
 62
     7
100
AcDbLine
 10
176.4175626669
 20
237.3806137823
 30
0.0
 11
176.4438637651
 21
237.3398430697
 31
0.0
  0
LINE
  5
1A8
330
119
100
AcDbEntity
  8
$DDT_AUDIT_GENERATED_(8A)
  6
Continuous
 62
     7
100
AcDbLine
 10
177.1622451435
 20
236.9498336998
 30
0.0
 11
187.1540340801
 21
238.9075456249
 31
0.0
  0
ARC
  5
1A9
330
119
100
AcDbEntity
  8
$DDT_AUDIT_GENERATED_(8A)
  6
Continuous
 62
     7
100
AcDbCircle
 10
177.1582671018
 20
237.7991256173
 30
0.0
 40
0.8493012339342787
100
AcDbArc
 50
212.7365462132
 51
270.268368664
  0
ARC
  5
1AA
330
119
100
AcDbEntity
  8
$DDT_AUDIT_GENERATED_(8A)
  6
Continuous
 62
     7
100
AcDbCircle
 10
177.0873587448
 20
237.8247421166
 30
0.0
 40
0.8036645991880956
100
AcDbArc
 50
181.6402500291
 51
213.5475710441
  0
LINE
  5
1AB
330
119
100
AcDbEntity
  8
$DDT_AUDIT_GENERATED_(8A)
  6
Continuous
 62
     7
100
AcDbLine
 10
227.2144020679
 20
236.9498336998
 30
0.0
 11
217.2226131313
 21
238.9075456249
 31
0.0
  0
ARC
  5
1AC
330
119
100
AcDbEntity
  8
$DDT_AUDIT_GENERATED_(8A)
  6
Continuous
 62
     7
100
AcDbCircle
 10
227.2183801097
 20
237.7991256173
 30
0.0
 40
0.8493012339335327
100
AcDbArc
 50
269.731631336
 51
327.2634537868
  0
LINE
  5
1AD
330
119
100
AcDbEntity
  8
$DDT_AUDIT_GENERATED_(8A)
  6
Continuous
 62
     7
100
AcDbLine
 10
177.1622451435
 20
236.9498336998
 30
0.0
 11
187.1238552352
 21
236.9498336998
 31
0.0
  0
LINE
  5
1AE
330
119
100
AcDbEntity
  8
$DDT_AUDIT_GENERATED_(8A)
  6
Continuous
 62
     7
100
AcDbLine
 10
217.2527919763
 20
236.9498336998
 30
0.0
 11
227.2144020679
 21
236.9498336998
 31
0.0
  0
SPLINE
  5
1AF
330
119
100
AcDbEntity
  8
$DDT_AUDIT_GENERATED_(8A)
  6
Continuous
 62
     7
100
AcDbSpline
210
0.0
220
0.0
230
1.0
 70
     8
 71
     3
 72
    17
 73
    13
 74
     0
 42
0.0000000004312856
 43
0.0000000001
 40
0.0
 40
0.0
 40
0.0
 40
0.0
 40
0.0172514619601576
 40
0.0172514619601576
 40
0.0172514619601576
 40
0.086257309801038
 40
0.086257309801038
 40
0.086257309801038
 40
0.3622807011802742
 40
0.3622807011802742
 40
0.3622807011802742
 40
1.0
 40
1.0
 40
1.0
 40
1.0
 10
228.0926237671188
 20
237.8017381389633
 30
0.0
 10
228.0925645604254
 20
237.9351209717973
 30
0.0
 10
228.0925047330895
 20
238.0684542881924
 30
0.0
 10
228.0924449577334
 20
238.2017876046203
 30
0.0
 10
228.092205856309
 20
238.7351208703328
 30
0.0
 10
228.0919675865587
 20
239.2684541365729
 30
0.0
 10
228.0917301413982
 20
239.8017874033287
 30
0.0
 10
228.0907803607564
 20
241.9351204704124
 30
0.0
 10
228.0898437726896
 20
244.0684535458239
 30
0.0
 10
228.0889199305389
 20
246.2017866288449
 30
0.0
 10
228.0867855028529
 20
251.1305996214249
 30
0.0
 10
228.0847190869378
 20
256.0594126555661
 30
0.0
 10
228.0827154167013
 20
260.9882257235595
 30
0.0
  0
LINE
  5
1B0
330
119
100
AcDbEntity
  8
$DDT_AUDIT_GENERATED_(8A)
  6
Continuous
 62
     7
100
AcDbLine
 10
176.2726962572
 20
237.8017061563
 30
0.0
 11
176.2840234282
 21
237.8017012183
 31
0.0
  0
LINE
  5
1B1
330
119
100
AcDbEntity
  8
$DDT_AUDIT_GENERATED_(8A)
  6
Continuous
 62
     7
100
AcDbLine
 10
176.3969415333
 20
237.3673107738
 30
0.0
 11
176.4175628212
 21
237.3806135187
 31
0.0
  0
LINE
  5
1B2
330
119
100
AcDbEntity
  8
$DDT_AUDIT_GENERATED_(8A)
  6
Continuous
 62
     7
100
AcDbLine
 10
176.4227426175
 20
237.3262178632
 30
0.0
 11
176.4438637651
 21
237.3398430697
 31
0.0
  0
LINE
  5
1B3
330
119
100
AcDbEntity
  8
$DDT_AUDIT_GENERATED_(8A)
  6
Continuous
 62
     7
100
AcDbLine
 10
177.1622451435
 20
236.9485263126
 30
0.0
 11
177.1622451435
 21
236.9498336998
 31
0.0
  0
LINE
  5
1B4
330
119
100
AcDbEntity
  8
$DDT_AUDIT_GENERATED_(8A)
  6
Continuous
 62
     7
100
AcDbLine
 10
227.2144020679
 20
236.9485263126
 30
0.0
 11
227.2144020679
 21
236.9498336998
 31
0.0
  0
LINE
  5
1B5
330
119
100
AcDbEntity
  8
$DDT_AUDIT_GENERATED_(8A)
  6
Continuous
 62
     7
100
AcDbLine
 10
227.9539045939
 20
237.3262178632
 30
0.0
 11
227.9327834463
 21
237.3398430697
 31
0.0
  0
LINE
  5
1B6
330
119
100
AcDbEntity
  8
$DDT_AUDIT_GENERATED_(8A)
  6
Continuous
 62
     7
100
AcDbLine
 10
228.0926237832
 20
237.8017012183
 30
0.0
 11
228.1039509542
 21
237.8017061563
 31
0.0
  0
LINE
  5
1B7
330
119
100
AcDbEntity
  8
$DDT_AUDIT_GENERATED_(8A)
  6
Continuous
 62
     7
100
AcDbLine
 10
227.9797056781
 20
237.3673107738
 30
0.0
 11
227.9590843903
 21
237.3806135187
 31
0.0
  0
LINE
  5
1B8
330
119
100
AcDbEntity
  8
$DDT_AUDIT_GENERATED_(8A)
  6
Continuous
 62
     7
100
AcDbLine
 10
228.0827154167
 20
260.9882257236
 30
0.0
 11
228.096243774
 21
260.9882301889
 31
0.0
  0
SPLINE
  5
1B9
330
119
100
AcDbEntity
  8
$DDT_AUDIT_GENERATED_(8A)
  6
Continuous
 62
     7
100
AcDbSpline
210
0.0
220
0.0
230
1.0
 70
     8
 71
     3
 72
    14
 73
    10
 74
     0
 42
0.0000000004312856
 43
0.0000000001
 40
0.0
 40
0.0
 40
0.0
 40
0.0
 40
0.064985156924296
 40
0.064985156924296
 40
0.064985156924296
 40
0.3410085483005695
 40
0.3410085483005695
 40
0.3410085483005695
 40
1.0
 40
1.0
 40
1.0
 40
1.0
 10
176.2939317947423
 20
260.988225723564
 30
0.0
 10
176.2937276158426
 20
260.4859676120168
 30
0.0
 10
176.2935227850788
 20
259.9837095008285
 30
0.0
 10
176.2933172970496
 20
259.4814513900068
 30
0.0
 10
176.2924444900056
 20
257.3481182774382
 30
0.0
 10
176.2915598261589
 20
255.2147851714124
 30
0.0
 10
176.2906628837069
 20
253.0814520725323
 30
0.0
 10
176.2885214803805
 20
247.9882305575333
 30
0.0
 10
176.2863101157316
 20
242.8950090820111
 30
0.0
 10
176.2840234443247
 20
237.8017381389634
 30
0.0
  0
LINE
  5
1BA
330
119
100
AcDbEntity
  8
$DDT_AUDIT_GENERATED_(8A)
  6
Continuous
 62
     7
100
AcDbLine
 10
176.2804034374
 20
260.9882301889
 30
0.0
 11
176.2939317947
 21
260.9882257236
 31
0.0
  0
ARC
  5
1BB
330
119
100
AcDbEntity
  8
$DDT_AUDIT_GENERATED_(8A)
  6
Continuous
 62
     7
100
AcDbCircle
 10
1907.4823402134
 20
6624.3365260915
 30
0.0
 40
6568.451622625455
100
AcDbArc
 50
254.7784955648
 51
254.8475255466
  0
ARC
  5
1BC
330
119
100
AcDbEntity
  8
$DDT_AUDIT_GENERATED_(8A)
  6
Continuous
 62
     7
100
AcDbCircle
 10
846.7357211629
 20
98.9765258163
 30
0.0
 40
689.7390693863917
100
AcDbArc
 50
164.2396791031
 51
166.4149561275
  0
ARC
  5
1BD
330
119
100
AcDbEntity
  8
$DDT_AUDIT_GENERATED_(8A)
  6
Continuous
 62
     7
100
AcDbCircle
 10
183.8800350735
 20
286.0519419261
 30
0.0
 40
0.9902983286092064
100
AcDbArc
 50
90.5570421422
 51
164.3439029685
  0
LINE
  5
1BE
330
119
100
AcDbEntity
  8
$DDT_AUDIT_GENERATED_(8A)
  6
Continuous
 62
     7
100
AcDbLine
 10
202.1883236057
 20
287.0421934529
 30
0.0
 11
202.1883236057
 21
284.980206236
 31
0.0
  0
LINE
  5
1BF
330
119
100
AcDbEntity
  8
$DDT_AUDIT_GENERATED_(8A)
  6
Continuous
 62
     7
100
AcDbLine
 10
202.1883236057
 20
287.0421934529
 30
0.0
 11
183.8704073274
 21
287.0421934529
 31
0.0
  0
LINE
  5
1C0
330
119
100
AcDbEntity
  8
$DDT_AUDIT_GENERATED_(8A)
  6
Continuous
 62
     7
100
AcDbLine
 10
220.506239884
 20
287.0421934529
 30
0.0
 11
202.1883236057
 21
287.0421934529
 31
0.0
  0
ARC
  5
1C1
330
119
100
AcDbEntity
  8
$DDT_AUDIT_GENERATED_(8A)
  6
Continuous
 62
     7
100
AcDbCircle
 10
-1503.1056930079
 20
6624.3365261134
 30
0.0
 40
6568.451622648134
100
AcDbArc
 50
285.1524744534
 51
285.2215044352
  0
ARC
  5
1C2
330
119
100
AcDbEntity
  8
$DDT_AUDIT_GENERATED_(8A)
  6
Continuous
 62
     7
100
AcDbCircle
 10
220.5022254709
 20
286.0592704722
 30
0.0
 40
0.9829311784106533
100
AcDbArc
 50
15.333058622
 51
89.7659962673
  0
ARC
  5
1C3
330
119
100
AcDbEntity
  8
$DDT_AUDIT_GENERATED_(8A)
  6
Continuous
 62
     7
100
AcDbCircle
 10
-442.3590739494
 20
98.9765258169
 30
0.0
 40
689.7390693842651
100
AcDbArc
 50
13.5850438725
 51
15.7603208969
  0
LINE
  5
1C4
330
119
100
AcDbEntity
  8
$DDT_AUDIT_GENERATED_(8A)
  6
Continuous
 62
     7
100
AcDbLine
 10
183.8704073275
 20
287.0421934529
 30
0.0
 11
183.8704073275
 21
287.0435008401
 31
0.0
  0
LINE
  5
1C5
330
119
100
AcDbEntity
  8
$DDT_AUDIT_GENERATED_(8A)
  6
Continuous
 62
     7
100
AcDbLine
 10
202.1883236057
 20
287.0421934529
 30
0.0
 11
202.1883236057
 21
287.0435008401
 31
0.0
  0
ELLIPSE
  5
1C6
330
119
100
AcDbEntity
  8
$DDT_AUDIT_GENERATED_(8A)
  6
Continuous
 62
     7
100
AcDbEllipse
 10
176.4804034265
 20
260.988164174
 30
0.0
 11
0.1943607481280883
 21
-0.04715823986415832
 31
0.0
210
0.0
220
0.0
230
1.0
 40
0.51904528
 41
3.141592653589793
 42
3.578317771295471
  0
LINE
  5
1C7
330
119
100
AcDbEntity
  8
$DDT_AUDIT_GENERATED_(8A)
  6
Continuous
 62
     7
100
AcDbLine
 10
220.506239884
 20
287.0421934529
 30
0.0
 11
220.506239884
 21
287.0435008401
 31
0.0
  0
ELLIPSE
  5
1C8
330
119
100
AcDbEntity
  8
$DDT_AUDIT_GENERATED_(8A)
  6
Continuous
 62
     7
100
AcDbEllipse
 10
227.8962437849
 20
260.988164174
 30
0.0
 11
-0.1943607481289453
 21
-0.04715823986070449
 31
0.0
210
0.0
220
0.0
230
1.0
 40
0.51904528
 41
2.704867535881261
 42
3.141592653589921
  0
LINE
  5
1C9
330
119
100
AcDbEntity
  8
$DDT_AUDIT_GENERATED_(8A)
  6
Continuous
 62
     7
100
AcDbLine
 10
217.2358968951
 20
251.4641596307
 30
0.0
 11
217.2154346267
 21
251.4182938442
 31
0.0
  0
LINE
  5
1CA
330
119
100
AcDbEntity
  8
$DDT_AUDIT_GENERATED_(8A)
  6
Continuous
 62
     7
100
AcDbLine
 10
217.2362767818
 20
251.4650111397
 30
0.0
 11
217.2358968951
 21
251.4641596307
 31
0.0
  0
ARC
  5
1CB
330
119
100
AcDbEntity
  8
$DDT_AUDIT_GENERATED_(8A)
  6
Continuous
 62
     7
100
AcDbCircle
 10
225.2154929621
 20
249.6790647343
 30
0.0
 40
8.171616662735877
100
AcDbArc
 50
167.0139808355
 51
184.1964455426
  0
LINE
  5
1CC
330
119
100
AcDbEntity
  8
$DDT_AUDIT_GENERATED_(8A)
  6
Continuous
 62
     7
100
AcDbLine
 10
218.2415571222
 20
172.8083027343
 30
0.0
 11
217.0657841335
 21
249.0810959962
 31
0.0
  0
LINE
  5
1CD
330
119
100
AcDbEntity
  8
$DDT_AUDIT_GENERATED_(8A)
  6
Continuous
 62
     7
100
AcDbLine
 10
218.2491193469
 20
172.0461919357
 30
0.0
 11
218.2415571219
 21
172.8083027347
 31
0.0
  0
ARC
  5
1CE
330
119
100
AcDbEntity
  8
$DDT_AUDIT_GENERATED_(8A)
  6
Continuous
 62
     7
100
AcDbCircle
 10
216.9197137132
 20
171.9606464392
 30
0.0
 40
1.332154278425139
100
AcDbArc
 50
340.202784315
 51
3.6819157862
  0
SPLINE
  5
1CF
330
119
100
AcDbEntity
  8
$DDT_AUDIT_GENERATED_(8A)
  6
Continuous
 62
     7
100
AcDbSpline
210
0.0
220
0.0
230
1.0
 70
     8
 71
     3
 72
    12
 73
     8
 74
     0
 42
0.0000000086352917
 43
0.0000000001
 40
0.0
 40
0.0
 40
0.0
 40
0.0
 40
0.3041484687429968
 40
0.469151551598747
 40
0.6167897611668579
 40
0.803365056782898
 40
1.0
 40
1.0
 40
1.0
 40
1.0
 10
217.2092587786175
 20
171.0301672256728
 30
0.0
 10
217.3369819303502
 20
171.0315180575737
 30
0.0
 10
217.5037670057219
 20
171.037391947639
 30
0.0
 10
217.7379588278587
 20
171.0929519943099
 30
0.0
 10
217.9101723065255
 20
171.17675984907
 30
0.0
 10
218.0704505683056
 20
171.3148569553888
 30
0.0
 10
218.1358222700699
 20
171.4360092473248
 30
0.0
 10
218.1730177288578
 20
171.5090596381361
 30
0.0
  0
SPLINE
  5
1D0
330
119
100
AcDbEntity
  8
$DDT_AUDIT_GENERATED_(8A)
  6
Continuous
 62
     7
100
AcDbSpline
210
0.0
220
0.0
230
1.0
 70
     8
 71
     3
 72
    12
 73
     8
 74
     0
 42
0.0000000086352917
 43
0.0000000001
 40
0.0
 40
0.0
 40
0.0
 40
0.0
 40
0.1966349432170857
 40
0.3832102388331434
 40
0.530848448401256
 40
0.695851531256999
 40
1.0
 40
1.0
 40
1.0
 40
1.0
 10
186.2036294825856
 20
171.5090596381362
 30
0.0
 10
186.2408249413735
 20
171.4360092473249
 30
0.0
 10
186.3061966431379
 20
171.3148569553889
 30
0.0
 10
186.4664749049179
 20
171.1767598490701
 30
0.0
 10
186.6386883835847
 20
171.0929519943099
 30
0.0
 10
186.8728802057215
 20
171.0373919476391
 30
0.0
 10
187.0396652810932
 20
171.0315180575737
 30
0.0
 10
187.1673884328259
 20
171.0301672256728
 30
0.0
  0
ARC
  5
1D1
330
119
100
AcDbEntity
  8
$DDT_AUDIT_GENERATED_(8A)
  6
Continuous
 62
     7
100
AcDbCircle
 10
187.4569334982
 20
171.9606464392
 30
0.0
 40
1.332154278425915
100
AcDbArc
 50
176.3180842139
 51
199.797215685
  0
LINE
  5
1D2
330
119
100
AcDbEntity
  8
$DDT_AUDIT_GENERATED_(8A)
  6
Continuous
 62
     7
100
AcDbLine
 10
186.1350900896
 20
172.8083027347
 30
0.0
 11
186.1275278645
 21
172.0461919357
 31
0.0
  0
LINE
  5
1D3
330
119
100
AcDbEntity
  8
$DDT_AUDIT_GENERATED_(8A)
  6
Continuous
 62
     7
100
AcDbLine
 10
187.3108630779
 20
249.0810959962
 30
0.0
 11
186.1350900892
 21
172.8083027343
 31
0.0
  0
ARC
  5
1D4
330
119
100
AcDbEntity
  8
$DDT_AUDIT_GENERATED_(8A)
  6
Continuous
 62
     7
100
AcDbCircle
 10
179.1611542493
 20
249.6790647343
 30
0.0
 40
8.171616662735174
100
AcDbArc
 50
355.8035544574
 51
12.9860191645
  0
LINE
  5
1D5
330
119
100
AcDbEntity
  8
$DDT_AUDIT_GENERATED_(8A)
  6
Continuous
 62
     7
100
AcDbLine
 10
187.1615774325
 20
251.4177638
 30
0.0
 11
187.1407612821
 21
251.464338996
 31
0.0
  0
SPLINE
  5
1D6
330
119
100
AcDbEntity
  8
$DDT_AUDIT_GENERATED_(8A)
  6
Continuous
 62
     7
100
AcDbSpline
210
0.0
220
0.0
230
1.0
 70
     8
 71
     3
 72
     8
 73
     4
 74
     0
 42
0.0000000004312847
 43
0.0000000001
 40
0.0
 40
0.0
 40
0.0
 40
0.0
 40
1.0
 40
1.0
 40
1.0
 40
1.0
 10
176.2803825954081
 20
260.9882301960476
 30
0.0
 10
176.2792961350793
 20
257.3617370427487
 30
0.0
 10
176.2765423056896
 20
249.6328913144011
 30
0.0
 10
176.2721211072391
 20
237.801693011005
 30
0.0
  0
SPLINE
  5
1D7
330
119
100
AcDbEntity
  8
$DDT_AUDIT_GENERATED_(8A)
  6
Continuous
 62
     7
100
AcDbSpline
210
0.0
220
0.0
230
1.0
 70
     8
 71
     3
 72
    10
 73
     6
 74
     0
 42
0.0000000170900967
 43
0.0000000001
 40
0.0
 40
0.0
 40
0.0
 40
0.0
 40
0.2403304214367911
 40
0.7458897498103391
 40
1.0
 40
1.0
 40
1.0
 40
1.0
 10
176.272352667073
 20
237.8442546701058
 30
0.0
 10
176.2722164539351
 20
237.7932340566649
 30
0.0
 10
176.2735823163235
 20
237.6591087559013
 30
0.0
 10
176.3351232554633
 20
237.4587384831764
 30
0.0
 10
176.409695202085
 20
237.3444960654861
 30
0.0
 10
176.4398202856458
 20
237.2997448736288
 30
0.0
  0
LINE
  5
1D8
330
119
100
AcDbEntity
  8
$DDT_AUDIT_GENERATED_(8A)
  6
Continuous
 62
     7
100
AcDbLine
 10
176.3964416947
 20
237.3669883038
 30
0.0
 11
176.4227426175
 21
237.3262178632
 31
0.0
  0
LINE
  5
1D9
330
119
100
AcDbEntity
  8
$DDT_AUDIT_GENERATED_(8A)
  6
Continuous
 62
     7
100
AcDbLine
 10
177.1622451435
 20
236.9485263126
 30
0.0
 11
187.1238350813
 21
236.9485263126
 31
0.0
  0
LINE
  5
1DA
330
119
100
AcDbEntity
  8
$DDT_AUDIT_GENERATED_(8A)
  6
Continuous
 62
     7
100
AcDbLine
 10
217.2528121301
 20
236.9485263126
 30
0.0
 11
227.2144020679
 21
236.9485263126
 31
0.0
  0
LINE
  5
1DB
330
119
100
AcDbEntity
  8
$DDT_AUDIT_GENERATED_(8A)
  6
Continuous
 62
     7
100
AcDbLine
 10
228.1043941468
 20
237.801692937
 30
0.0
 11
228.0963510617
 21
260.9882302455
 31
0.0
  0
LINE
  5
1DC
330
119
100
AcDbEntity
  8
$DDT_AUDIT_GENERATED_(8A)
  6
Continuous
 62
     7
100
AcDbLine
 10
227.9539045939
 20
237.3262178632
 30
0.0
 11
227.9802055167
 21
237.3669883038
 31
0.0
  0
SPLINE
  5
1DD
330
119
100
AcDbEntity
  8
$DDT_AUDIT_GENERATED_(8A)
  6
Continuous
 62
     7
100
AcDbSpline
210
0.0
220
0.0
230
1.0
 70
     8
 71
     3
 72
    10
 73
     6
 74
     0
 42
0.0000000170902525
 43
0.0000000001
 40
0.0
 40
0.0
 40
0.0
 40
0.0
 40
0.2225767460998559
 40
0.7374351455228896
 40
1.0
 40
1.0
 40
1.0
 40
1.0
 10
227.9368269257979
 20
237.2997448736289
 30
0.0
 10
227.9632437719891
 20
237.3389087193563
 30
0.0
 10
228.0358597627165
 20
237.4497785719456
 30
0.0
 10
228.1025187468927
 20
237.648785212922
 30
0.0
 10
228.1042941404963
 20
237.788527051407
 30
0.0
 10
228.1042945443705
 20
237.8442546701057
 30
0.0
  0
LINE
  5
1DE
330
119
100
AcDbEntity
  8
$DDT_AUDIT_GENERATED_(8A)
  6
Continuous
 62
     7
100
AcDbLine
 10
202.1883236057
 20
287.0435008401
 30
0.0
 11
183.8704073275
 21
287.0435008401
 31
0.0
  0
LINE
  5
1DF
330
119
100
AcDbEntity
  8
$DDT_AUDIT_GENERATED_(8A)
  6
Continuous
 62
     7
100
AcDbLine
 10
220.506239884
 20
287.0435008401
 30
0.0
 11
202.1883236057
 21
287.0435008401
 31
0.0
  0
ARC
  5
1E0
330
119
100
AcDbEntity
  8
$DDT_AUDIT_GENERATED_(8A)
  6
Continuous
 62
     7
100
AcDbCircle
 10
176.4804034265
 20
260.988164174
 30
0.0
 40
0.1999999999999609
100
AcDbArc
 50
166.3617341567
 51
179.9810881273
  0
ARC
  5
1E1
330
119
100
AcDbEntity
  8
$DDT_AUDIT_GENERATED_(8A)
  6
Continuous
 62
     7
100
AcDbCircle
 10
227.8962437849
 20
260.988164174
 30
0.0
 40
0.1999999999999993
100
AcDbArc
 50
0.0189118728
 51
13.6382658433
  0
LINE
  5
1E2
330
119
100
AcDbEntity
  8
$DDT_AUDIT_GENERATED_(E6)
  6
Continuous
 62
     7
100
AcDbLine
 10
175.3883236057
 20
236.6200718442
 30
0.0
 11
175.3883236057
 21
289.2214423094
 31
0.0
  0
LINE
  5
1E3
330
119
100
AcDbEntity
  8
$DDT_AUDIT_GENERATED_(E6)
  6
Continuous
 62
     7
100
AcDbLine
 10
175.8876383731
 20
236.1207570768
 30
0.0
 11
175.8146869815
 21
236.0478056852
 31
0.0
  0
ELLIPSE
  5
1E4
330
119
100
AcDbEntity
  8
$DDT_AUDIT_GENERATED_(E6)
  6
Continuous
 62
     7
100
AcDbEllipse
 10
175.8890097787
 20
236.6214432498
 30
0.0
 11
0.3545231217175329
 21
0.354523121717534
 31
0.0
210
0.0
220
0.0
230
1.0
 40
0.9972646886
 41
2.357564018062828
 42
3.925621289116812
  0
LINE
  5
1E5
330
119
100
AcDbEntity
  8
$DDT_AUDIT_GENERATED_(E6)
  6
Continuous
 62
     7
100
AcDbLine
 10
228.4890088383
 20
236.1207570768
 30
0.0
 11
217.2655724955
 21
236.1207570768
 31
0.0
  0
LINE
  5
1E6
330
119
100
AcDbEntity
  8
$DDT_AUDIT_GENERATED_(E6)
  6
Continuous
 62
     7
100
AcDbLine
 10
187.111074716
 20
236.1207570768
 30
0.0
 11
175.8876383731
 21
236.1207570768
 31
0.0
  0
LINE
  5
1E7
330
119
100
AcDbEntity
  8
$DDT_AUDIT_GENERATED_(E6)
  6
Continuous
 62
     7
100
AcDbLine
 10
228.9883236057
 20
236.6200718442
 30
0.0
 11
229.0594619564
 21
236.5489334935
 31
0.0
  0
ELLIPSE
  5
1E8
330
119
100
AcDbEntity
  8
$DDT_AUDIT_GENERATED_(E6)
  6
Continuous
 62
     7
100
AcDbEllipse
 10
228.4876374327
 20
236.6214432498
 30
0.0
 11
-0.3545231217175341
 21
0.3545231217175328
 31
0.0
210
0.0
220
0.0
230
1.0
 40
0.9972646886
 41
2.357564018062771
 42
3.925621289116755
  0
LINE
  5
1E9
330
119
100
AcDbEntity
  8
$DDT_AUDIT_GENERATED_(E6)
  6
Continuous
 62
     7
100
AcDbLine
 10
228.9883236057
 20
289.2214423094
 30
0.0
 11
228.9883236057
 21
236.6200718442
 31
0.0
  0
LINE
  5
1EA
330
119
100
AcDbEntity
  8
$DDT_AUDIT_GENERATED_(E6)
  6
Continuous
 62
     7
100
AcDbLine
 10
228.4890088383
 20
289.7207570768
 30
0.0
 11
228.561960246
 21
289.7937084844
 31
0.0
  0
ELLIPSE
  5
1EB
330
119
100
AcDbEntity
  8
$DDT_AUDIT_GENERATED_(E6)
  6
Continuous
 62
     7
100
AcDbEllipse
 10
228.4876374327
 20
289.2200709038
 30
0.0
 11
-0.3545231217175328
 21
-0.3545231217175341
 31
0.0
210
0.0
220
0.0
230
1.0
 40
0.9972646886
 41
2.357564018062714
 42
3.925621289116755
  0
LINE
  5
1EC
330
119
100
AcDbEntity
  8
$DDT_AUDIT_GENERATED_(E6)
  6
Continuous
 62
     7
100
AcDbLine
 10
175.8876383731
 20
289.7207570768
 30
0.0
 11
228.4890088383
 21
289.7207570768
 31
0.0
  0
LINE
  5
1ED
330
119
100
AcDbEntity
  8
$DDT_AUDIT_GENERATED_(E6)
  6
Continuous
 62
     7
100
AcDbLine
 10
175.3883236057
 20
289.2214423094
 30
0.0
 11
175.3171852359
 21
289.2925806792
 31
0.0
  0
ELLIPSE
  5
1EE
330
119
100
AcDbEntity
  8
$DDT_AUDIT_GENERATED_(E6)
  6
Continuous
 62
     7
100
AcDbEllipse
 10
175.8890097787
 20
289.2200709038
 30
0.0
 11
0.354523121717534
 21
-0.3545231217175329
 31
0.0
210
0.0
220
0.0
230
1.0
 40
0.9972646886
 41
2.357564018062658
 42
3.925621289116755
  0
LINE
  5
1EF
330
119
100
AcDbEntity
  8
$DDT_AUDIT_GENERATED_(E6)
  6
Continuous
 62
     7
100
AcDbLine
 10
228.5619602298
 20
235.443549766
 30
0.0
 11
217.2760118937
 21
235.443549766
 31
0.0
  0
LINE
  5
1F0
330
119
100
AcDbEntity
  8
$DDT_AUDIT_GENERATED_(E6)
  6
Continuous
 62
     7
100
AcDbLine
 10
187.1006353177
 20
235.4435497659
 30
0.0
 11
175.8146869815
 21
235.4435497658
 31
0.0
  0
ELLIPSE
  5
1F1
330
119
100
AcDbEntity
  8
$DDT_AUDIT_GENERATED_(E6)
  6
Continuous
 62
     7
100
AcDbEllipse
 10
175.8062896395
 20
236.4337819586
 30
0.0
 11
0.9515820656071893
 21
-0.3163311119973311
 31
0.0
210
0.0
220
0.0
230
0.9999999999999997
 40
0.9860911395
 41
4.530633126843234
 42
5.037539531602727
  0
LINE
  5
1F2
330
119
100
AcDbEntity
  8
$DDT_AUDIT_GENERATED_(E6)
  6
Continuous
 62
     7
100
AcDbLine
 10
175.3171852359
 20
236.5489334744
 30
0.0
 11
175.3883236057
 21
236.6200718442
 31
0.0
  0
ELLIPSE
  5
1F3
330
119
100
AcDbEntity
  8
$DDT_AUDIT_GENERATED_(E6)
  6
Continuous
 62
     7
100
AcDbEllipse
 10
175.8054965789
 20
236.53793005
 30
0.0
 11
-0.1486065049106575
 21
0.4811867390907137
 31
0.0
210
0.0
220
0.0
230
1.0
 40
0.9666757022
 41
1.258764581156869
 42
1.884925254716818
  0
LINE
  5
1F4
330
119
100
AcDbEntity
  8
$DDT_AUDIT_GENERATED_(E6)
  6
Continuous
 62
     7
100
AcDbLine
 10
228.5619602298
 20
236.0478056854
 30
0.0
 11
228.4890088383
 21
236.1207570768
 31
0.0
  0
LINE
  5
1F5
330
119
100
AcDbEntity
  8
$DDT_AUDIT_GENERATED_(E6)
  6
Continuous
 62
     7
100
AcDbLine
 10
175.8146869815
 20
236.0478056852
 30
0.0
 11
187.1099501436
 21
236.0478056852
 31
0.0
  0
LINE
  5
1F6
330
119
100
AcDbEntity
  8
$DDT_AUDIT_GENERATED_(E6)
  6
Continuous
 62
     7
100
AcDbLine
 10
217.2666970678
 20
236.0478056853
 30
0.0
 11
228.5619602298
 21
236.0478056854
 31
0.0
  0
ELLIPSE
  5
1F7
330
119
100
AcDbEntity
  8
$DDT_AUDIT_GENERATED_(E6)
  6
Continuous
 62
     7
100
AcDbEllipse
 10
175.677155559
 20
289.3035841036
 30
0.0
 11
-0.3296826021492172
 21
-0.9476024307933877
 31
0.0
210
0.0
220
0.0
230
1.0
 40
0.9824533075
 41
4.426573257117155
 42
5.052734878742969
  0
LINE
  5
1F8
330
119
100
AcDbEntity
  8
$DDT_AUDIT_GENERATED_(E6)
  6
Continuous
 62
     7
100
AcDbLine
 10
174.6895294487
 20
236.5489334744
 30
0.0
 11
174.6895294487
 21
289.2925806792
 31
0.0
  0
ELLIPSE
  5
1F9
330
119
100
AcDbEntity
  8
$DDT_AUDIT_GENERATED_(E6)
  6
Continuous
 62
     7
100
AcDbEllipse
 10
228.5703575718
 20
236.5387231107
 30
0.0
 11
-0.4839621023338299
 21
-0.13741507389535
 31
0.0
210
0.0
220
0.0
230
1.0
 40
0.9738260531
 41
1.28430614530222
 42
1.79121146367007
  0
LINE
  5
1FA
330
119
100
AcDbEntity
  8
$DDT_AUDIT_GENERATED_(E6)
  6
Continuous
 62
     7
100
AcDbLine
 10
175.3171852359
 20
289.2925806792
 30
0.0
 11
175.3171852359
 21
236.5489334744
 31
0.0
  0
LINE
  5
1FB
330
119
100
AcDbEntity
  8
$DDT_AUDIT_GENERATED_(E6)
  6
Continuous
 62
     7
100
AcDbLine
 10
229.6871177437
 20
289.2925806601
 30
0.0
 11
229.6871177437
 21
236.5489334935
 31
0.0
  0
ELLIPSE
  5
1FC
330
119
100
AcDbEntity
  8
$DDT_AUDIT_GENERATED_(E6)
  6
Continuous
 62
     7
100
AcDbEllipse
 10
228.6994916333
 20
236.5379300691
 30
0.0
 11
0.3296826021824823
 21
0.9476024307812637
 31
0.0
210
0.0
220
0.0
230
0.9999999999999998
 40
0.9824533075
 41
4.42657309686853
 42
5.052734878777771
  0
ELLIPSE
  5
1FD
330
119
100
AcDbEntity
  8
$DDT_AUDIT_GENERATED_(E6)
  6
Continuous
 62
     7
100
AcDbEllipse
 10
228.5703575882
 20
289.4077322135
 30
0.0
 11
-0.951582065016908
 21
0.3163311139202113
 31
0.0
210
0.0
220
0.0
230
1.0
 40
0.9860911391
 41
4.530635148931841
 42
5.037539533729811
  0
LINE
  5
1FE
330
119
100
AcDbEntity
  8
$DDT_AUDIT_GENERATED_(E6)
  6
Continuous
 62
     7
100
AcDbLine
 10
175.8146869653
 20
290.3979644062
 30
0.0
 11
228.561960246
 21
290.397964406
 31
0.0
  0
LINE
  5
1FF
330
119
100
AcDbEntity
  8
$DDT_AUDIT_GENERATED_(E6)
  6
Continuous
 62
     7
100
AcDbLine
 10
175.8146869653
 20
289.7937084846
 30
0.0
 11
175.8876383731
 21
289.7207570768
 31
0.0
  0
ELLIPSE
  5
200
330
119
100
AcDbEntity
  8
$DDT_AUDIT_GENERATED_(E6)
  6
Continuous
 62
     7
100
AcDbEllipse
 10
175.8062896231
 20
289.3027910595
 30
0.0
 11
0.4839621020442074
 21
0.1374150751074464
 31
0.0
210
0.0
220
0.0
230
0.9999999999999999
 40
0.9738260524
 41
1.284306142568745
 42
1.791211614383186
  0
LINE
  5
201
330
119
100
AcDbEntity
  8
$DDT_AUDIT_GENERATED_(E6)
  6
Continuous
 62
     7
100
AcDbLine
 10
229.0594619564
 20
289.2925806601
 30
0.0
 11
228.9883236057
 21
289.2214423094
 31
0.0
  0
LINE
  5
202
330
119
100
AcDbEntity
  8
$DDT_AUDIT_GENERATED_(E6)
  6
Continuous
 62
     7
100
AcDbLine
 10
229.0594619564
 20
236.5489334935
 30
0.0
 11
229.0594619564
 21
289.2925806601
 31
0.0
  0
ELLIPSE
  5
203
330
119
100
AcDbEntity
  8
$DDT_AUDIT_GENERATED_(E6)
  6
Continuous
 62
     7
100
AcDbEllipse
 10
228.5711506135
 20
289.3035840846
 30
0.0
 11
0.1486065048940215
 21
-0.481186739096428
 31
0.0
210
0.0
220
0.0
230
0.9999999999999998
 40
0.9666757022
 41
1.258764581190742
 42
1.884927311820433
  0
LINE
  5
204
330
119
100
AcDbEntity
  8
$DDT_AUDIT_GENERATED_(E6)
  6
Continuous
 62
     7
100
AcDbLine
 10
228.561960246
 20
289.7937084844
 30
0.0
 11
175.8146869653
 21
289.7937084846
 31
0.0
  0
LINE
  5
205
330
119
100
AcDbEntity
  8
$DDT_AUDIT_GENERATED_(E6)
  6
Continuous
 62
     7
100
AcDbLine
 10
228.561960246
 20
289.7937084844
 30
0.0
 11
228.561960246
 21
290.397964406
 31
0.0
  0
LINE
  5
206
330
119
100
AcDbEntity
  8
$DDT_AUDIT_GENERATED_(E6)
  6
Continuous
 62
     7
100
AcDbLine
 10
229.6871177437
 20
289.2925806601
 30
0.0
 11
229.0594619564
 21
289.2925806601
 31
0.0
  0
LINE
  5
207
330
119
100
AcDbEntity
  8
$DDT_AUDIT_GENERATED_(E6)
  6
Continuous
 62
     7
100
AcDbLine
 10
175.8146869653
 20
289.7937084846
 30
0.0
 11
175.8146869653
 21
290.3979644062
 31
0.0
  0
LINE
  5
208
330
119
100
AcDbEntity
  8
$DDT_AUDIT_GENERATED_(E6)
  6
Continuous
 62
     7
100
AcDbLine
 10
229.6871177437
 20
236.5489334935
 30
0.0
 11
229.0594619564
 21
236.5489334935
 31
0.0
  0
LINE
  5
209
330
119
100
AcDbEntity
  8
$DDT_AUDIT_GENERATED_(E6)
  6
Continuous
 62
     7
100
AcDbLine
 10
175.3171852359
 20
289.2925806792
 30
0.0
 11
174.6895294487
 21
289.2925806792
 31
0.0
  0
LINE
  5
20A
330
119
100
AcDbEntity
  8
$DDT_AUDIT_GENERATED_(E6)
  6
Continuous
 62
     7
100
AcDbLine
 10
228.5619602298
 20
235.443549766
 30
0.0
 11
228.5619602298
 21
236.0478056854
 31
0.0
  0
LINE
  5
20B
330
119
100
AcDbEntity
  8
$DDT_AUDIT_GENERATED_(E6)
  6
Continuous
 62
     7
100
AcDbLine
 10
175.3171852359
 20
236.5489334744
 30
0.0
 11
174.6895294487
 21
236.5489334744
 31
0.0
  0
LINE
  5
20C
330
119
100
AcDbEntity
  8
$DDT_AUDIT_GENERATED_(E6)
  6
Continuous
 62
     7
100
AcDbLine
 10
175.8146869815
 20
235.4435497658
 30
0.0
 11
175.8146869815
 21
236.0478056852
 31
0.0
  0
LINE
  5
20D
330
119
100
AcDbEntity
  8
$DDT_AUDIT_GENERATED_(E6)
  6
Continuous
 62
     7
100
AcDbLine
 10
281.5312080763
 20
353.7639842224
 30
0.0
 11
281.3616402687
 21
353.5944164148
 31
0.0
  0
LINE
  5
20E
330
119
100
AcDbEntity
  8
$DDT_AUDIT_GENERATED_(E6)
  6
Continuous
 62
     7
100
AcDbLine
 10
280.5315507513
 20
354.7636415474
 30
0.0
 11
123.8450964601
 21
354.7636415474
 31
0.0
  0
ELLIPSE
  5
20F
330
119
100
AcDbEntity
  8
$DDT_AUDIT_GENERATED_(E6)
  6
Continuous
 62
     7
100
AcDbEllipse
 10
280.5308652838
 20
353.7632987549
 30
0.0
 11
-0.707591479943354
 21
-0.7075914799433565
 31
0.0
210
0.0
220
0.0
230
0.9999999999999998
 40
0.999315002
 41
2.356537106530471
 42
3.926648200649169
  0
LINE
  5
210
330
119
100
AcDbEntity
  8
$DDT_AUDIT_GENERATED_(E6)
  6
Continuous
 62
     7
100
AcDbLine
 10
281.5312080763
 20
172.0775299312
 30
0.0
 11
281.5312080763
 21
353.7639842224
 31
0.0
  0
ELLIPSE
  5
211
330
119
100
AcDbEntity
  8
$DDT_AUDIT_GENERATED_(E6)
  6
Continuous
 62
     7
100
AcDbEllipse
 10
280.5308652838
 20
172.0782153987
 30
0.0
 11
-0.7075914799433565
 21
0.707591479943354
 31
0.0
210
0.0
220
0.0
230
0.9999999999999998
 40
0.999315002
 41
2.356537106530471
 42
3.926648200649084
  0
LINE
  5
212
330
119
100
AcDbEntity
  8
$DDT_AUDIT_GENERATED_(E6)
  6
Continuous
 62
     7
100
AcDbLine
 10
280.5315507513
 20
171.0778726062
 30
0.0
 11
280.3627997524
 21
171.2466236051
 31
0.0
  0
LINE
  5
213
330
119
100
AcDbEntity
  8
$DDT_AUDIT_GENERATED_(E6)
  6
Continuous
 62
     7
100
AcDbLine
 10
122.8454391351
 20
172.0775299312
 30
0.0
 11
123.0150069472
 21
172.2470977433
 31
0.0
  0
LINE
  5
214
330
119
100
AcDbEntity
  8
$DDT_AUDIT_GENERATED_(E6)
  6
Continuous
 62
     7
100
AcDbLine
 10
123.8450964601
 20
171.0778726062
 30
0.0
 11
186.7268287139
 21
171.0778726062
 31
0.0
  0
ELLIPSE
  5
215
330
119
100
AcDbEntity
  8
$DDT_AUDIT_GENERATED_(E6)
  6
Continuous
 62
     7
100
AcDbEllipse
 10
123.8457819276
 20
172.0782153987
 30
0.0
 11
0.707591479943354
 21
0.7075914799433565
 31
0.0
210
0.0
220
0.0
230
0.9999999999999998
 40
0.999315002
 41
2.356537106530471
 42
3.926648200649069
  0
LINE
  5
216
330
119
100
AcDbEntity
  8
$DDT_AUDIT_GENERATED_(E6)
  6
Continuous
 62
     7
100
AcDbLine
 10
123.8450964601
 20
354.7636415474
 30
0.0
 11
124.0138474594
 21
354.5948905481
 31
0.0
  0
LINE
  5
217
330
119
100
AcDbEntity
  8
$DDT_AUDIT_GENERATED_(E6)
  6
Continuous
 62
     7
100
AcDbLine
 10
122.8454391351
 20
353.7639842224
 30
0.0
 11
122.8454391351
 21
172.0775299312
 31
0.0
  0
ELLIPSE
  5
218
330
119
100
AcDbEntity
  8
$DDT_AUDIT_GENERATED_(E6)
  6
Continuous
 62
     7
100
AcDbEllipse
 10
123.8457819276
 20
353.7632987549
 30
0.0
 11
0.7075914799433565
 21
-0.707591479943354
 31
0.0
210
0.0
220
0.0
230
0.9999999999999998
 40
0.999315002
 41
2.356537106530471
 42
3.926648200649055
  0
ELLIPSE
  5
219
330
119
100
AcDbEntity
  8
$DDT_AUDIT_GENERATED_(E6)
  6
Continuous
 62
     7
100
AcDbEllipse
 10
228.5711506135
 20
236.5379300691
 30
0.0
 11
-0.1486065049036492
 21
-0.4811867390931424
 31
0.0
210
0.0
220
0.0
230
1.0
 40
0.9666757022
 41
1.256666290509383
 42
1.882828072418647
  0
ELLIPSE
  5
21A
330
119
100
AcDbEntity
  8
$DDT_AUDIT_GENERATED_(E6)
  6
Continuous
 62
     7
100
AcDbEllipse
 10
229.3714070802
 20
235.9600048677
 30
0.0
 11
-0.4081336666780754
 21
0.2888371688753166
 31
0.0
210
0.0
220
0.0
230
1.0
 40
0.1516445119
 41
4.501303751676195
 42
6.209270030019701
  0
ARC
  5
21B
330
119
100
AcDbEntity
  8
$DDT_AUDIT_GENERATED_(E6)
  6
Continuous
 62
     7
100
AcDbCircle
 10
228.5860157861
 20
236.5177938268
 30
0.0
 40
0.4646920415192687
100
AcDbArc
 50
298.3600327131
 51
325.2054261405
  0
ELLIPSE
  5
21C
330
119
100
AcDbEntity
  8
$DDT_AUDIT_GENERATED_(E6)
  6
Continuous
 62
     7
100
AcDbEllipse
 10
228.5703575718
 20
236.4337819588
 30
0.0
 11
0.9515820655040808
 21
0.3163311122961615
 31
0.0
210
0.0
220
0.0
230
1.0
 40
0.9860911395
 41
4.387238428854651
 42
4.894143747222439
  0
ELLIPSE
  5
21D
330
119
100
AcDbEntity
  8
$DDT_AUDIT_GENERATED_(E6)
  6
Continuous
 62
     7
100
AcDbEllipse
 10
229.0491546484
 20
235.6730115475
 30
0.0
 11
0.2398071707321245
 21
-0.4387396960219836
 31
0.0
210
0.0
220
0.0
230
1.0
 40
0.1024143718
 41
3.213122447358973
 42
4.897613682251166
  0
LINE
  5
21E
330
119
100
AcDbEntity
  8
$DDT_AUDIT_GENERATED_(E6)
  6
Continuous
 62
     7
100
AcDbLine
 10
229.4997481001
 20
235.9600048677
 30
0.0
 11
280.7668163075
 21
172.5327989487
 31
0.0
  0
ARC
  5
21F
330
119
100
AcDbEntity
  8
$DDT_AUDIT_GENERATED_(E6)
  6
Continuous
 62
     7
100
AcDbCircle
 10
228.1530371126
 20
237.0532886643
 30
0.0
 40
1.734618097382896
100
AcDbArc
 50
301.1049946969
 51
320.9296972175
  0
ELLIPSE
  5
220
330
119
100
AcDbEntity
  8
$DDT_AUDIT_GENERATED_(E6)
  6
Continuous
 62
     7
100
AcDbEllipse
 10
228.6994916333
 20
289.3035840846
 30
0.0
 11
-0.3296826021635842
 21
0.9476024307881125
 31
0.0
210
0.0
220
0.0
230
1.0
 40
0.9824533075
 41
4.372043082011317
 42
4.998205812640991
  0
LINE
  5
221
330
119
100
AcDbEntity
  8
$DDT_AUDIT_GENERATED_(E6)
  6
Continuous
 62
     7
100
AcDbLine
 10
229.0491538435
 20
290.2734442253
 30
0.0
 11
280.490618149
 21
353.916410163
 31
0.0
  0
ELLIPSE
  5
222
330
119
100
AcDbEntity
  8
$DDT_AUDIT_GENERATED_(E6)
  6
Continuous
 62
     7
100
AcDbEllipse
 10
228.5703575882
 20
289.3027910593
 30
0.0
 11
0.4839621019928839
 21
-0.1374150752724325
 31
0.0
210
0.0
220
0.0
230
1.0
 40
0.9738260524
 41
1.350382126559746
 42
1.857286511357809
  0
ELLIPSE
  5
223
330
119
100
AcDbEntity
  8
$DDT_AUDIT_GENERATED_(E6)
  6
Continuous
 62
     7
100
AcDbEllipse
 10
229.0491538435
 20
290.1685030711
 30
0.0
 11
-0.2398067663985579
 21
-0.4387399170231368
 31
0.0
210
0.0
220
0.0
230
1.0
 40
0.1024142032
 41
4.527164180101688
 42
6.211655533686114
  0
ARC
  5
224
330
119
100
AcDbEntity
  8
$DDT_AUDIT_GENERATED_(E6)
  6
Continuous
 62
     7
100
AcDbCircle
 10
228.5855740748
 20
289.3232260592
 30
0.0
 40
0.4653368502976501
100
AcDbArc
 50
34.8135741842
 51
61.621073078
  0
ELLIPSE
  5
225
330
119
100
AcDbEntity
  8
$DDT_AUDIT_GENERATED_(E6)
  6
Continuous
 62
     7
100
AcDbEllipse
 10
229.3714065311
 20
289.8815100618
 30
0.0
 11
0.4081333967141215
 21
0.2888375503403238
 31
0.0
210
0.0
220
0.0
230
1.0
 40
0.1516447076
 41
3.215507944183117
 42
4.923474067351811
  0
ARC
  5
226
330
119
100
AcDbEntity
  8
$DDT_AUDIT_GENERATED_(E6)
  6
Continuous
 62
     7
100
AcDbCircle
 10
228.152985232
 20
288.7881654966
 30
0.0
 40
1.734696250703188
100
AcDbArc
 50
39.0707924829
 51
58.8945925019
  0
LINE
  5
227
330
119
100
AcDbEntity
  8
$DDT_AUDIT_GENERATED_(E6)
  6
Continuous
 62
     7
100
AcDbLine
 10
174.8768989995
 20
289.8815091739
 30
0.0
 11
123.6098309137
 21
353.3087135389
 31
0.0
  0
ELLIPSE
  5
228
330
119
100
AcDbEntity
  8
$DDT_AUDIT_GENERATED_(E6)
  6
Continuous
 62
     7
100
AcDbEllipse
 10
175.8062896231
 20
289.4077322137
 30
0.0
 11
-0.951582065124735
 21
-0.316331113608355
 31
0.0
210
0.0
220
0.0
230
1.0
 40
0.9860911391
 41
4.387238427365265
 42
4.894143899179618
  0
ELLIPSE
  5
229
330
119
100
AcDbEntity
  8
$DDT_AUDIT_GENERATED_(E6)
  6
Continuous
 62
     7
100
AcDbEllipse
 10
175.8054965789
 20
289.3035841037
 30
0.0
 11
0.1486065048865622
 21
0.4811867390989762
 31
0.0
210
0.0
220
0.0
230
1.0
 40
0.9666757022
 41
1.256666450757733
 42
1.882828072383534
  0
ARC
  5
22A
330
119
100
AcDbEntity
  8
$DDT_AUDIT_GENERATED_(E6)
  6
Continuous
 62
     7
100
AcDbCircle
 10
175.7906314032
 20
289.3237203391
 30
0.0
 40
0.4646920426706359
100
AcDbArc
 50
118.360041354
 51
145.2054351559
  0
ELLIPSE
  5
22B
330
119
100
AcDbEntity
  8
$DDT_AUDIT_GENERATED_(E6)
  6
Continuous
 62
     7
100
AcDbEllipse
 10
175.3274924117
 20
290.1685025487
 30
0.0
 11
-0.2398072371039596
 21
0.4387396597443204
 31
0.0
210
0.0
220
0.0
230
1.0
 40
0.1024144022
 41
3.213122450713013
 42
4.897613670731667
  0
ELLIPSE
  5
22C
330
119
100
AcDbEntity
  8
$DDT_AUDIT_GENERATED_(E6)
  6
Continuous
 62
     7
100
AcDbEllipse
 10
175.0052400193
 20
289.8815091739
 30
0.0
 11
0.408133712287935
 21
-0.2888371044275032
 31
0.0
210
0.0
220
0.0
230
1.0
 40
0.1516444789
 41
4.501303727739783
 42
6.209270032287573
  0
ARC
  5
22D
330
119
100
AcDbEntity
  8
$DDT_AUDIT_GENERATED_(E6)
  6
Continuous
 62
     7
100
AcDbCircle
 10
176.2236101062
 20
288.7882255457
 30
0.0
 40
1.734618083864294
100
AcDbArc
 50
121.1050010871
 51
140.9297040181
  0
ELLIPSE
  5
22E
330
119
100
AcDbEntity
  8
$DDT_AUDIT_GENERATED_(E6)
  6
Continuous
 62
     7
100
AcDbEllipse
 10
175.677155559
 20
236.53793005
 30
0.0
 11
0.3296826021963427
 21
-0.9476024307761843
 31
0.0
210
0.0
220
0.0
230
0.9999999999999999
 40
0.9824533075
 41
4.372043081976996
 42
4.998203755536994
  0
LINE
  5
22F
330
119
100
AcDbEntity
  8
$DDT_AUDIT_GENERATED_(E6)
  6
Continuous
 62
     7
100
AcDbLine
 10
175.3274916074
 20
235.5680709176
 30
0.0
 11
123.8860282468
 21
171.925104682
 31
0.0
  0
ELLIPSE
  5
230
330
119
100
AcDbEntity
  8
$DDT_AUDIT_GENERATED_(E6)
  6
Continuous
 62
     7
100
AcDbEllipse
 10
175.8062896395
 20
236.5387231106
 30
0.0
 11
-0.4839621023822599
 21
0.13741507373978
 31
0.0
210
0.0
220
0.0
230
0.9999999999999999
 40
0.9738260531
 41
1.350380103210453
 42
1.857286507969886
  0
ELLIPSE
  5
231
330
119
100
AcDbEntity
  8
$DDT_AUDIT_GENERATED_(E6)
  6
Continuous
 62
     7
100
AcDbEllipse
 10
175.3274916074
 20
235.6730120696
 30
0.0
 11
0.2398076411669128
 21
0.4387394388905147
 31
0.0
210
0.0
220
0.0
230
0.9999999999999999
 40
0.1024145707
 41
4.527164388388179
 42
6.211655489792658
  0
ELLIPSE
  5
232
330
119
100
AcDbEntity
  8
$DDT_AUDIT_GENERATED_(E6)
  6
Continuous
 62
     7
100
AcDbEllipse
 10
175.0052394706
 20
235.9600057551
 30
0.0
 11
-0.4081339820650036
 21
-0.288836723225716
 31
0.0
210
0.0
220
0.0
230
1.0
 40
0.1516442833
 41
3.215507915057002
 42
4.923474374680806
  0
ARC
  5
233
330
119
100
AcDbEntity
  8
$DDT_AUDIT_GENERATED_(E6)
  6
Continuous
 62
     7
100
AcDbCircle
 10
175.7910730785
 20
236.5182881604
 30
0.0
 40
0.4653368629137831
100
AcDbArc
 50
214.8134583777
 51
241.6209590687
  0
ARC
  5
234
330
119
100
AcDbEntity
  8
$DDT_AUDIT_GENERATED_(E6)
  6
Continuous
 62
     7
100
AcDbCircle
 10
176.2236622513
 20
237.0533482101
 30
0.0
 40
1.734696070953647
100
AcDbArc
 50
219.0707075302
 51
238.8945105185
  0
LINE
  5
235
330
119
100
AcDbEntity
  8
$DDT_AUDIT_GENERATED_(E6)
  6
Continuous
 62
     7
100
AcDbLine
 10
280.7668163075
 20
353.3087152287
 30
0.0
 11
229.499747551
 21
289.8815100618
 31
0.0
  0
LINE
  5
236
330
119
100
AcDbEntity
  8
$DDT_AUDIT_GENERATED_(E6)
  6
Continuous
 62
     7
100
AcDbLine
 10
280.7668163075
 20
172.5327989487
 30
0.0
 11
280.7668163075
 21
353.3087152287
 31
0.0
  0
LINE
  5
237
330
119
100
AcDbEntity
  8
$DDT_AUDIT_GENERATED_(E6)
  6
Continuous
 62
     7
100
AcDbLine
 10
281.3616402688
 20
172.2470977387
 30
0.0
 11
281.5312080763
 21
172.0775299312
 31
0.0
  0
ELLIPSE
  5
238
330
119
100
AcDbEntity
  8
$DDT_AUDIT_GENERATED_(E6)
  6
Continuous
 62
     7
100
AcDbEllipse
 10
281.3884799476
 20
353.6600350018
 30
0.0
 11
-0.006000362564581586
 21
-1.597880475078306
 31
0.0
210
0.0
220
0.0
230
1.0
 40
0.0166566984
 41
-1.529656209308953
 42
-1.349056552437638
  0
LINE
  5
239
330
119
100
AcDbEntity
  8
$DDT_AUDIT_GENERATED_(E6)
  6
Continuous
 62
     7
100
AcDbLine
 10
281.3611965357
 20
353.3087152287
 30
0.0
 11
281.3611965357
 21
172.5327989487
 31
0.0
  0
ELLIPSE
  5
23A
330
119
100
AcDbEntity
  8
$DDT_AUDIT_GENERATED_(E6)
  6
Continuous
 62
     7
100
AcDbEllipse
 10
281.3884799476
 20
172.1814791677
 30
0.0
 11
0.0
 21
0.3523776001461058
 31
0.0
210
0.0
220
0.0
230
1.0
 40
1.0
 41
0.0775042052457406
 42
0.3882628151331209
  0
LINE
  5
23B
330
119
100
AcDbEntity
  8
$DDT_AUDIT_GENERATED_(E6)
  6
Continuous
 62
     7
100
AcDbLine
 10
280.4906181603
 20
171.9251040035
 30
0.0
 11
229.0491546484
 21
235.5680703956
 31
0.0
  0
ARC
  5
23C
330
119
100
AcDbEntity
  8
$DDT_AUDIT_GENERATED_(E6)
  6
Continuous
 62
     7
100
AcDbCircle
 10
280.1853593966
 20
172.3220356501
 30
0.0
 40
0.5007371015881223
100
AcDbArc
 50
307.5619466649
 51
340.5032683906
  0
ELLIPSE
  5
23D
330
119
100
AcDbEntity
  8
$DDT_AUDIT_GENERATED_(E6)
  6
Continuous
 62
     7
100
AcDbEllipse
 10
280.5887540876
 20
172.1814791677
 30
0.0
 11
-0.6152593252073402
 21
-2.101474267104664
 31
0.0
210
0.0
220
0.0
230
1.0
 40
0.033488943
 41
1.567959376894582
 42
1.748559046319416
  0
ARC
  5
23E
330
119
100
AcDbEntity
  8
$DDT_AUDIT_GENERATED_(E6)
  6
Continuous
 62
     7
100
AcDbCircle
 10
280.1854829525
 20
353.5195681579
 30
0.0
 40
0.5005907161969448
100
AcDbArc
 50
19.4917774423
 51
52.4430097339
  0
ELLIPSE
  5
23F
330
119
100
AcDbEntity
  8
$DDT_AUDIT_GENERATED_(E6)
  6
Continuous
 62
     7
100
AcDbEllipse
 10
280.5887540876
 20
353.6600350018
 30
0.0
 11
0.6152593196291912
 21
-2.101474252084346
 31
0.0
210
0.0
220
0.0
230
1.0
 40
0.0334889443
 41
1.393033609498799
 42
1.573633266369167
  0
ELLIPSE
  5
240
330
119
100
AcDbEntity
  8
$DDT_AUDIT_GENERATED_(E6)
  6
Continuous
 62
     7
100
AcDbEllipse
 10
280.3615316834
 20
172.2475489991
 30
0.0
 11
-0.280447622811042
 21
0.9609430788130452
 31
0.0
210
0.0
220
0.0
230
1.0
 40
0.9986607503
 41
2.858540765806721
 42
3.553485615857721
  0
ARC
  5
241
330
119
100
AcDbEntity
  8
$DDT_AUDIT_GENERATED_(E6)
  6
Continuous
 62
     7
100
AcDbCircle
 10
280.3606116441
 20
172.2470576299
 30
0.0
 40
1.001028625475726
100
AcDbArc
 50
309.8997100744
 51
0.0022957039
  0
LINE
  5
242
330
119
100
AcDbEntity
  8
$DDT_AUDIT_GENERATED_(E6)
  6
Continuous
 62
     7
100
AcDbLine
 10
280.3627997523
 20
354.5948905484
 30
0.0
 11
280.5315507513
 21
354.7636415474
 31
0.0
  0
ELLIPSE
  5
243
330
119
100
AcDbEntity
  8
$DDT_AUDIT_GENERATED_(E6)
  6
Continuous
 62
     7
100
AcDbEllipse
 10
280.3615316833
 20
353.5939651543
 30
0.0
 11
-0.2804476256637323
 21
-0.9609430780123801
 31
0.0
210
0.0
220
0.0
230
1.0
 40
0.9986607503
 41
2.729699767041323
 42
3.424644544319639
  0
ARC
  5
244
330
119
100
AcDbEntity
  8
$DDT_AUDIT_GENERATED_(E6)
  6
Continuous
 62
     7
100
AcDbCircle
 10
280.3606116182
 20
353.5944565115
 30
0.0
 40
1.001028651372621
100
AcDbArc
 50
359.9977049937
 51
50.100293401
  0
ELLIPSE
  5
245
330
119
100
AcDbEntity
  8
$DDT_AUDIT_GENERATED_(E6)
  6
Continuous
 62
     7
100
AcDbEllipse
 10
124.0151155283
 20
172.0796431562
 30
0.0
 11
0.0826741564364103
 21
0.1837417580877881
 31
0.0
210
0.0
220
0.0
230
1.0
 40
0.9915667036
 41
2.866292714422645
 42
3.561242828998587
  0
LINE
  5
246
330
119
100
AcDbEntity
  8
$DDT_AUDIT_GENERATED_(E6)
  6
Continuous
 62
     7
100
AcDbLine
 10
124.0138474593
 20
171.8784436222
 30
0.0
 11
186.1334671083
 21
171.8784436221
 31
0.0
  0
LINE
  5
247
330
119
100
AcDbEntity
  8
$DDT_AUDIT_GENERATED_(E6)
  6
Continuous
 62
     7
100
AcDbLine
 10
218.2431801031
 20
171.8784436221
 30
0.0
 11
280.3627997525
 21
171.878443622
 31
0.0
  0
ELLIPSE
  5
248
330
119
100
AcDbEntity
  8
$DDT_AUDIT_GENERATED_(E6)
  6
Continuous
 62
     7
100
AcDbEllipse
 10
280.3615316835
 20
172.079643156
 30
0.0
 11
-0.08267415648452459
 21
0.1837417580665135
 31
0.0
210
0.0
220
0.0
230
1.0
 40
0.9915667036
 41
2.721942477917882
 42
3.416887327969532
  0
LINE
  5
249
330
119
100
AcDbEntity
  8
$DDT_AUDIT_GENERATED_(E6)
  6
Continuous
 62
     7
100
AcDbLine
 10
123.8860282563
 20
353.916409483
 30
0.0
 11
175.3274924118
 21
290.2734437029
 31
0.0
  0
ELLIPSE
  5
24A
330
119
100
AcDbEntity
  8
$DDT_AUDIT_GENERATED_(E6)
  6
Continuous
 62
     7
100
AcDbEllipse
 10
124.0151155285
 20
353.7618710008
 30
0.0
 11
0.08267415634620467
 21
-0.1837417581622008
 31
0.0
210
0.0
220
0.0
230
1.0
 40
0.9915667035
 41
2.721942478805357
 42
3.416892532168505
  0
LINE
  5
24B
330
119
100
AcDbEntity
  8
$DDT_AUDIT_GENERATED_(E6)
  6
Continuous
 62
     7
100
AcDbLine
 10
280.3627997523
 20
353.9630705351
 30
0.0
 11
124.0138474595
 21
353.9630705349
 31
0.0
  0
ELLIPSE
  5
24C
330
119
100
AcDbEntity
  8
$DDT_AUDIT_GENERATED_(E6)
  6
Continuous
 62
     7
100
AcDbEllipse
 10
280.3615316833
 20
353.7618710011
 30
0.0
 11
-0.0826741563914324
 21
-0.1837417581421752
 31
0.0
210
0.0
220
0.0
230
0.9999999999999999
 40
0.9915667035
 41
2.866298051343571
 42
3.561242828622138
  0
LINE
  5
24D
330
119
100
AcDbEntity
  8
$DDT_AUDIT_GENERATED_(E6)
  6
Continuous
 62
     7
100
AcDbLine
 10
124.0138474593
 20
171.2466236054
 30
0.0
 11
123.8450964601
 21
171.0778726062
 31
0.0
  0
LINE
  5
24E
330
119
100
AcDbEntity
  8
$DDT_AUDIT_GENERATED_(E6)
  6
Continuous
 62
     7
100
AcDbLine
 10
280.3627997524
 20
171.2466236051
 30
0.0
 11
217.9745242123
 21
171.2466236052
 31
0.0
  0
LINE
  5
24F
330
119
100
AcDbEntity
  8
$DDT_AUDIT_GENERATED_(E6)
  6
Continuous
 62
     7
100
AcDbLine
 10
186.4021229991
 20
171.2466236053
 30
0.0
 11
124.0138474593
 21
171.2466236054
 31
0.0
  0
LINE
  5
250
330
119
100
AcDbEntity
  8
$DDT_AUDIT_GENERATED_(E6)
  6
Continuous
 62
     7
100
AcDbLine
 10
124.0138474594
 20
354.5948905481
 30
0.0
 11
280.3627997523
 21
354.5948905484
 31
0.0
  0
ARC
  5
251
330
119
100
AcDbEntity
  8
$DDT_AUDIT_GENERATED_(E6)
  6
Continuous
 62
     7
100
AcDbCircle
 10
124.0160356066
 20
172.2470576425
 30
0.0
 40
1.001028660245114
100
AcDbArc
 50
179.9977047583
 51
230.0999873678
  0
ELLIPSE
  5
252
330
119
100
AcDbEntity
  8
$DDT_AUDIT_GENERATED_(E6)
  6
Continuous
 62
     7
100
AcDbEllipse
 10
124.0151155283
 20
172.2475489994
 30
0.0
 11
0.2804476225308911
 21
0.9609430788947992
 31
0.0
210
0.0
220
0.0
230
0.9999999999999999
 40
0.9986607503
 41
2.729694426505494
 42
3.424644541081026
  0
LINE
  5
253
330
119
100
AcDbEntity
  8
$DDT_AUDIT_GENERATED_(E6)
  6
Continuous
 62
     7
100
AcDbLine
 10
123.0150069473
 20
353.5944164103
 30
0.0
 11
122.8454391351
 21
353.7639842224
 31
0.0
  0
ARC
  5
254
330
119
100
AcDbEntity
  8
$DDT_AUDIT_GENERATED_(E6)
  6
Continuous
 62
     7
100
AcDbCircle
 10
124.0160355807
 20
353.5944565231
 30
0.0
 40
1.001028634165534
100
AcDbArc
 50
129.9000084286
 51
180.0022959356
  0
ELLIPSE
  5
255
330
119
100
AcDbEntity
  8
$DDT_AUDIT_GENERATED_(E6)
  6
Continuous
 62
     7
100
AcDbEllipse
 10
124.0151155284
 20
353.5939651541
 30
0.0
 11
0.2804476253376181
 21
-0.9609430781073319
 31
0.0
210
0.0
220
0.0
230
0.9999999999999999
 40
0.9986607503
 41
2.858540763199507
 42
3.553490816563468
  0
LINE
  5
256
330
119
100
AcDbEntity
  8
$DDT_AUDIT_GENERATED_(E6)
  6
Continuous
 62
     7
100
AcDbLine
 10
123.6098309137
 20
172.5328006348
 30
0.0
 11
174.8768984508
 21
235.9600057551
 31
0.0
  0
ELLIPSE
  5
257
330
119
100
AcDbEntity
  8
$DDT_AUDIT_GENERATED_(E6)
  6
Continuous
 62
     7
100
AcDbEllipse
 10
123.7878931336
 20
172.1814808536
 30
0.0
 11
-0.6152593253259121
 21
2.101474267424949
 31
0.0
210
0.0
220
0.0
230
0.9999999999999998
 40
0.033488943
 41
1.393033607228014
 42
1.57363432983573
  0
ARC
  5
258
330
119
100
AcDbEntity
  8
$DDT_AUDIT_GENERATED_(E6)
  6
Continuous
 62
     7
100
AcDbCircle
 10
124.1911639915
 20
172.3219449306
 30
0.0
 40
0.5005896579052345
100
AcDbArc
 50
199.4917556307
 51
232.4428374471
  0
ELLIPSE
  5
259
330
119
100
AcDbEntity
  8
$DDT_AUDIT_GENERATED_(E6)
  6
Continuous
 62
     7
100
AcDbEllipse
 10
123.7878931336
 20
353.6600333122
 30
0.0
 11
0.6152593197357586
 21
2.101474252368563
 31
0.0
210
0.0
220
0.0
230
1.0
 40
0.0334889443
 41
1.567958331762257
 42
1.748559044140524
  0
ARC
  5
25A
330
119
100
AcDbEntity
  8
$DDT_AUDIT_GENERATED_(E6)
  6
Continuous
 62
     7
100
AcDbCircle
 10
124.1912875739
 20
353.5194795381
 30
0.0
 40
0.5007360903103558
100
AcDbArc
 50
127.5621156059
 51
160.5032895067
  0
LINE
  5
25B
330
119
100
AcDbEntity
  8
$DDT_AUDIT_GENERATED_(E6)
  6
Continuous
 62
     7
100
AcDbLine
 10
123.0154506855
 20
172.5328006348
 30
0.0
 11
123.0154506855
 21
353.3087135389
 31
0.0
  0
ELLIPSE
  5
25C
330
119
100
AcDbEntity
  8
$DDT_AUDIT_GENERATED_(E6)
  6
Continuous
 62
     7
100
AcDbEllipse
 10
122.9881672736
 20
353.6600333122
 30
0.0
 11
0.006000362565400374
 21
-1.597880475505548
 31
0.0
210
0.0
220
0.0
230
0.9999999999999999
 40
0.0166566984
 41
1.349056552396148
 42
1.529657264773606
  0
ELLIPSE
  5
25D
330
119
100
AcDbEntity
  8
$DDT_AUDIT_GENERATED_(E6)
  6
Continuous
 62
     7
100
AcDbEllipse
 10
122.9881672736
 20
172.1814808536
 30
0.0
 11
0.0
 21
0.07089389455630561
 31
0.0
210
0.0
220
0.0
230
1.0
 40
1.0
 41
-0.3882717263918207
 42
-0.0775042052095671
  0
LINE
  5
25E
330
119
100
AcDbEntity
  8
$DDT_AUDIT_GENERATED_(E6)
  6
Continuous
 62
     7
100
AcDbLine
 10
123.6098309137
 20
353.3087135389
 30
0.0
 11
123.6098309137
 21
172.5328006348
 31
0.0
  0
LINE
  5
25F
330
119
100
AcDbEntity
  8
$DDT_AUDIT_GENERATED_(E6)
  6
Continuous
 62
     7
100
AcDbLine
 10
123.6098309137
 20
172.5328006348
 30
0.0
 11
123.0154506855
 21
172.5328006348
 31
0.0
  0
LINE
  5
260
330
119
100
AcDbEntity
  8
$DDT_AUDIT_GENERATED_(E6)
  6
Continuous
 62
     7
100
AcDbLine
 10
123.0154506855
 20
353.3087135389
 30
0.0
 11
123.6098309137
 21
353.3087135389
 31
0.0
  0
ELLIPSE
  5
261
330
119
100
AcDbEntity
  8
$DDT_AUDIT_GENERATED_(E6)
  6
Continuous
 62
     7
100
AcDbEllipse
 10
123.8147328072
 20
172.2470977433
 30
0.0
 11
-0.7999962311335124
 21
0.002455640890658417
 31
0.0
210
0.0
220
0.0
230
1.0
 40
0.1164242718
 41
0.0263592339687755
 42
1.451531262356774
  0
ELLIPSE
  5
262
330
119
100
AcDbEntity
  8
$DDT_AUDIT_GENERATED_(E6)
  6
Continuous
 62
     7
100
AcDbEllipse
 10
123.8147328073
 20
353.5944164103
 30
0.0
 11
-0.7999962311338316
 21
-0.002455640787185631
 31
0.0
210
0.0
220
0.0
230
1.0
 40
0.116424267
 41
4.831654054091066
 42
6.256826073225803
  0
ELLIPSE
  5
263
330
119
100
AcDbEntity
  8
$DDT_AUDIT_GENERATED_(E6)
  6
Continuous
 62
     7
100
AcDbEllipse
 10
123.8860282467
 20
172.0930105252
 30
0.0
 11
-0.5155783430905171
 21
-0.6117017019234423
 31
0.0
210
0.0
220
0.0
230
1.0
 40
0.1370396595
 41
0.0372166172223328
 42
1.409617664636794
  0
ELLIPSE
  5
264
330
119
100
AcDbEntity
  8
$DDT_AUDIT_GENERATED_(E6)
  6
Continuous
 62
     7
100
AcDbEllipse
 10
123.8860282562
 20
353.7485036362
 30
0.0
 11
-0.5155783054474616
 21
0.6117017336512293
 31
0.0
210
0.0
220
0.0
230
1.0
 40
0.1370396527
 41
4.873567654472843
 42
6.245968690199206
  0
LINE
  5
265
330
119
100
AcDbEntity
  8
$DDT_AUDIT_GENERATED_(E6)
  6
Continuous
 62
     7
100
AcDbLine
 10
124.0138474593
 20
171.8784436222
 30
0.0
 11
124.0138474593
 21
171.2466236054
 31
0.0
  0
LINE
  5
266
330
119
100
AcDbEntity
  8
$DDT_AUDIT_GENERATED_(E6)
  6
Continuous
 62
     7
100
AcDbLine
 10
124.0138474594
 20
354.5948905481
 30
0.0
 11
124.0138474595
 21
353.9630705349
 31
0.0
  0
LINE
  5
267
330
119
100
AcDbEntity
  8
$DDT_AUDIT_GENERATED_(E6)
  6
Continuous
 62
     7
100
AcDbLine
 10
280.3627997525
 20
171.878443622
 30
0.0
 11
280.3627997524
 21
171.2466236051
 31
0.0
  0
LINE
  5
268
330
119
100
AcDbEntity
  8
$DDT_AUDIT_GENERATED_(E6)
  6
Continuous
 62
     7
100
AcDbLine
 10
280.3627997523
 20
354.5948905484
 30
0.0
 11
280.3627997523
 21
353.9630705351
 31
0.0
  0
ELLIPSE
  5
269
330
119
100
AcDbEntity
  8
$DDT_AUDIT_GENERATED_(E6)
  6
Continuous
 62
     7
100
AcDbEllipse
 10
280.4906181603
 20
172.0930098467
 30
0.0
 11
0.5155750994682018
 21
-0.611704435825311
 31
0.0
210
0.0
220
0.0
230
1.0
 40
0.1370388135
 41
4.873568369284427
 42
6.245968712067696
  0
ELLIPSE
  5
26A
330
119
100
AcDbEntity
  8
$DDT_AUDIT_GENERATED_(E6)
  6
Continuous
 62
     7
100
AcDbEllipse
 10
280.490618149
 20
353.7485043162
 30
0.0
 11
0.5155750547015947
 21
0.6117044735568511
 31
0.0
210
0.0
220
0.0
230
1.0
 40
0.1370388048
 41
0.0372165948234463
 42
1.409616924365328
  0
ELLIPSE
  5
26B
330
119
100
AcDbEntity
  8
$DDT_AUDIT_GENERATED_(E6)
  6
Continuous
 62
     7
100
AcDbEllipse
 10
280.5619144088
 20
172.2470977387
 30
0.0
 11
0.7999962311766445
 21
0.002455626833500202
 31
0.0
210
0.0
220
0.0
230
0.9999999999999999
 40
0.1164236144
 41
4.831654871475955
 42
6.256826075258062
  0
ELLIPSE
  5
26C
330
119
100
AcDbEntity
  8
$DDT_AUDIT_GENERATED_(E6)
  6
Continuous
 62
     7
100
AcDbEllipse
 10
280.5619144087
 20
353.5944164148
 30
0.0
 11
0.7999962311770749
 21
-0.002455626699232605
 31
0.0
210
0.0
220
0.0
230
0.9999999999999997
 40
0.1164236081
 41
0.0263592319028507
 42
1.451530424613581
  0
LINE
  5
26D
330
119
100
AcDbEntity
  8
$DDT_AUDIT_GENERATED_(E6)
  6
Continuous
 62
     7
100
AcDbLine
 10
280.7668163075
 20
172.5327989487
 30
0.0
 11
281.3611965357
 21
172.5327989487
 31
0.0
  0
LINE
  5
26E
330
119
100
AcDbEntity
  8
$DDT_AUDIT_GENERATED_(E6)
  6
Continuous
 62
     7
100
AcDbLine
 10
281.3611965357
 20
353.3087152287
 30
0.0
 11
280.7668163075
 21
353.3087152287
 31
0.0
  0
LINE
  5
26F
330
119
100
AcDbEntity
  8
$DDT_AUDIT_GENERATED_(E6)
  6
Continuous
 62
     7
100
AcDbLine
 10
217.6498184975
 20
171.0778726062
 30
0.0
 11
280.5315507513
 21
171.0778726062
 31
0.0
  0
ENDBLK
  5
271
330
119
100
AcDbEntity
  8
0
100
AcDbBlockEnd
  0
BLOCK
  5
367
330
272
100
AcDbEntity
  8
0
100
AcDbBlockBegin
  2
SE2
 70
     0
 10
0.0
 20
0.0
 30
0.0
  3
SE2
  1

  0
LINE
  5
274
330
272
100
AcDbEntity
  8
$DDT_AUDIT_GENERATED_(77)
  6
Continuous
 62
     7
100
AcDbLine
 10
191.789398554
 20
84.4086680804
 30
0.0
 11
212.5919622966
 21
84.4086680804
 31
0.0
  0
LINE
  5
275
330
272
100
AcDbEntity
  8
$DDT_AUDIT_GENERATED_(77)
  6
Continuous
 62
     7
100
AcDbLine
 10
176.1839944348
 20
97.0543048127
 30
0.0
 11
176.08934901
 21
107.8995962761
 31
0.0
  0
LINE
  5
276
330
272
100
AcDbEntity
  8
$DDT_AUDIT_GENERATED_(77)
  6
Continuous
 62
     7
100
AcDbLine
 10
227.6926718151
 20
97.0543048127
 30
0.0
 11
227.7873172399
 21
107.8995962793
 31
0.0
  0
LINE
  5
277
330
272
100
AcDbEntity
  8
$DDT_AUDIT_GENERATED_(77)
  6
Continuous
 62
     7
100
AcDbLine
 10
176.6839753963
 20
97.0543048127
 30
0.0
 11
227.6926718151
 21
97.0543048127
 31
0.0
  0
LINE
  5
278
330
272
100
AcDbEntity
  8
$DDT_AUDIT_GENERATED_(77)
  6
Continuous
 62
     7
100
AcDbLine
 10
176.5893299716
 20
107.8995962761
 30
0.0
 11
176.6839753963
 21
97.0543048127
 31
0.0
  0
LINE
  5
279
330
272
100
AcDbEntity
  8
$DDT_AUDIT_GENERATED_(77)
  6
Continuous
 62
     7
100
AcDbLine
 10
227.6926718151
 20
96.5586680804
 30
0.0
 11
176.6839753963
 21
96.5586680804
 31
0.0
  0
LINE
  5
27A
330
272
100
AcDbEntity
  8
$DDT_AUDIT_GENERATED_(77)
  6
Continuous
 62
     7
100
AcDbLine
 10
228.2872982014
 20
107.8995962793
 30
0.0
 11
228.1926527767
 21
97.0543048127
 31
0.0
  0
ELLIPSE
  5
27B
330
272
100
AcDbEntity
  8
$DDT_AUDIT_GENERATED_(77)
  6
Continuous
 62
     7
100
AcDbEllipse
 10
227.6926718151
 20
97.0586680804
 30
0.0
 11
0.4999809615320872
 21
-0.00436326774917725
 31
0.0
210
0.0
220
0.0
230
1.0
 40
0.0087262032
 41
4.712465132806567
 42
6.283185307177979
  0
LINE
  5
27C
330
272
100
AcDbEntity
  8
$DDT_AUDIT_GENERATED_(77)
  6
Continuous
 62
     7
100
AcDbLine
 10
227.6926718151
 20
96.5586680804
 30
0.0
 11
227.6926718151
 21
97.0543048127
 31
0.0
  0
ARC
  5
27D
330
272
100
AcDbEntity
  8
$DDT_AUDIT_GENERATED_(77)
  6
Continuous
 62
     7
100
AcDbCircle
 10
227.6926718151
 20
97.0586680804
 30
0.0
 40
0.5000000000000014
100
AcDbArc
 50
270.0
 51
359.5
  0
ELLIPSE
  5
27E
330
272
100
AcDbEntity
  8
$DDT_AUDIT_GENERATED_(77)
  6
Continuous
 62
     7
100
AcDbEllipse
 10
176.6839753963
 20
97.0586680804
 30
0.0
 11
0.4999809615320872
 21
0.004363267749177311
 31
0.0
210
0.0
220
0.0
230
1.0
 40
0.0087262032
 41
3.141592653591387
 42
4.712312827962812
  0
LINE
  5
27F
330
272
100
AcDbEntity
  8
$DDT_AUDIT_GENERATED_(77)
  6
Continuous
 62
     7
100
AcDbLine
 10
176.6839753963
 20
96.5586680804
 30
0.0
 11
176.6839753963
 21
97.0543048127
 31
0.0
  0
ARC
  5
280
330
272
100
AcDbEntity
  8
$DDT_AUDIT_GENERATED_(77)
  6
Continuous
 62
     7
100
AcDbCircle
 10
176.6839753963
 20
97.0586680804
 30
0.0
 40
0.5000000000000004
100
AcDbArc
 50
180.5
 51
270.0
  0
LINE
  5
281
330
272
100
AcDbEntity
  8
$DDT_AUDIT_GENERATED_(77)
  6
Continuous
 62
     7
100
AcDbLine
 10
225.8100278129
 20
96.2223935706
 30
0.0
 11
178.5666193986
 21
96.2223935706
 31
0.0
  0
ARC
  5
282
330
272
100
AcDbEntity
  8
$DDT_AUDIT_GENERATED_(77)
  6
Continuous
 62
     7
100
AcDbCircle
 10
202.1883236057
 20
104.4086680804
 30
0.0
 40
25.0
100
AcDbArc
 50
317.14739402
 51
340.8858668002
  0
ARC
  5
283
330
272
100
AcDbEntity
  8
$DDT_AUDIT_GENERATED_(77)
  6
Continuous
 62
     7
100
AcDbCircle
 10
202.1883236057
 20
104.4086680804
 30
0.0
 40
25.0
100
AcDbArc
 50
199.1141331998
 51
222.9303694159
  0
ARC
  5
284
330
272
100
AcDbEntity
  8
$DDT_AUDIT_GENERATED_(77)
  6
Continuous
 62
     7
100
AcDbCircle
 10
226.282461897
 20
96.0586680804
 30
0.0
 40
0.500000000000001
100
AcDbArc
 50
90.0
 51
160.8858668002
  0
ARC
  5
285
330
272
100
AcDbEntity
  8
$DDT_AUDIT_GENERATED_(77)
  6
Continuous
 62
     7
100
AcDbCircle
 10
178.0941853144
 20
96.0586680804
 30
0.0
 40
0.5000000000000004
100
AcDbArc
 50
19.1141331998
 51
90.0
  0
LINE
  5
286
330
272
100
AcDbEntity
  8
$DDT_AUDIT_GENERATED_(8A)
  6
Continuous
 62
     7
100
AcDbLine
 10
213.7359541489
 20
60.092655566
 30
0.0
 11
213.6473176203
 21
59.9529416093
 31
0.0
  0
SPLINE
  5
287
330
272
100
AcDbEntity
  8
$DDT_AUDIT_GENERATED_(8A)
  6
Continuous
 62
     7
100
AcDbSpline
210
0.0
220
0.0
230
1.0
 70
     8
 71
     3
 72
    11
 73
     7
 74
     0
 42
0.0000000005190598
 43
0.0000000001
 40
0.0
 40
0.0
 40
0.0
 40
0.0
 40
0.5035304155633419
 40
0.5035304155633419
 40
0.5035304155633419
 40
1.0
 40
1.0
 40
1.0
 40
1.0
 10
213.0773130057193
 20
60.46125518206299
 30
0.0
 10
214.3232659594257
 20
63.44517497099966
 30
0.0
 10
215.5698082479155
 20
66.42885191664536
 30
0.0
 10
216.8167584895539
 20
69.41236051589644
 30
0.0
 10
218.0462231890412
 20
72.35403242942547
 30
0.0
 10
219.2760870692525
 20
75.29553969603029
 30
0.0
 10
220.5062398839954
 20
78.23692766801241
 30
0.0
  0
LINE
  5
288
330
272
100
AcDbEntity
  8
$DDT_AUDIT_GENERATED_(8A)
  6
Continuous
 62
     7
100
AcDbLine
 10
213.0618116959
 20
60.4315170854
 30
0.0
 11
213.0773130057
 21
60.4612551821
 31
0.0
  0
ARC
  5
289
330
272
100
AcDbEntity
  8
$DDT_AUDIT_GENERATED_(8A)
  6
Continuous
 62
     7
100
AcDbCircle
 10
-7.0301022201
 20
263.4119648928
 30
0.0
 40
300.0836163707293
100
AcDbArc
 50
317.3865463983
 51
318.3753036784
  0
LINE
  5
28A
330
272
100
AcDbEntity
  8
$DDT_AUDIT_GENERATED_(8A)
  6
Continuous
 62
     7
100
AcDbLine
 10
213.8128732021
 20
60.2407144148
 30
0.0
 11
213.7359541489
 21
60.092655566
 31
0.0
  0
ELLIPSE
  5
28B
330
272
100
AcDbEntity
  8
$DDT_AUDIT_GENERATED_(8A)
  6
Continuous
 62
     7
100
AcDbEllipse
 10
213.0773130057
 20
60.5525783995
 30
0.0
 11
0.7382282965069601
 21
-0.3082514918641282
 31
0.0
210
0.0
220
0.0
230
0.9999999999999998
 40
0.1054417096
 41
4.756388360151994
 42
6.231455793541351
  0
ELLIPSE
  5
28C
330
272
100
AcDbEntity
  8
$DDT_AUDIT_GENERATED_(8A)
  6
Continuous
 62
     7
100
AcDbEllipse
 10
213.0618116959
 20
60.5228403029
 30
0.0
 11
0.6755249915830781
 21
-0.4285626975678996
 31
0.0
210
0.0
220
0.0
230
1.0
 40
0.0965731123
 41
4.773579854044748
 42
6.255867232509165
  0
LINE
  5
28D
330
272
100
AcDbEntity
  8
$DDT_AUDIT_GENERATED_(8A)
  6
Continuous
 62
     7
100
AcDbLine
 10
212.9731751674
 20
60.2918031287
 30
0.0
 11
213.0618116959
 21
60.4315170854
 31
0.0
  0
LINE
  5
28E
330
272
100
AcDbEntity
  8
$DDT_AUDIT_GENERATED_(8A)
  6
Continuous
 62
     7
100
AcDbLine
 10
202.1883236057
 20
60.2918031287
 30
0.0
 11
212.9731751674
 21
60.2918031287
 31
0.0
  0
LINE
  5
28F
330
272
100
AcDbEntity
  8
$DDT_AUDIT_GENERATED_(8A)
  6
Continuous
 62
     7
100
AcDbLine
 10
216.5914287993
 20
59.5831263461
 30
0.0
 11
212.9731751674
 21
59.5831263461
 31
0.0
  0
LINE
  5
290
330
272
100
AcDbEntity
  8
$DDT_AUDIT_GENERATED_(8A)
  6
Continuous
 62
     7
100
AcDbLine
 10
212.9731751674
 20
59.5831263461
 30
0.0
 11
202.1883236057
 21
59.5831263461
 31
0.0
  0
LINE
  5
291
330
272
100
AcDbEntity
  8
$DDT_AUDIT_GENERATED_(8A)
  6
Continuous
 62
     7
100
AcDbLine
 10
202.1883236057
 20
59.5831263461
 30
0.0
 11
202.1883236057
 21
60.2918031287
 31
0.0
  0
ELLIPSE
  5
292
330
272
100
AcDbEntity
  8
$DDT_AUDIT_GENERATED_(8A)
  6
Continuous
 62
     7
100
AcDbEllipse
 10
212.9731751674
 20
60.3831263461
 30
0.0
 11
0.675524991583064
 21
-0.4285626975678857
 31
0.0
210
0.0
220
0.0
230
0.9999999999999999
 40
0.0965731123
 41
4.773579854044764
 42
6.255867232507385
  0
LINE
  5
293
330
272
100
AcDbEntity
  8
$DDT_AUDIT_GENERATED_(8A)
  6
Continuous
 62
     7
100
AcDbLine
 10
217.2655713042
 20
59.9529416907
 30
0.0
 11
218.1705967277
 21
61.3712069307
 31
0.0
  0
LINE
  5
294
330
272
100
AcDbEntity
  8
$DDT_AUDIT_GENERATED_(8A)
  6
Continuous
 62
     7
100
AcDbLine
 10
213.6473176203
 20
59.9529416093
 30
0.0
 11
217.2655713301
 21
59.9529417314
 31
0.0
  0
SPLINE
  5
295
330
272
100
AcDbEntity
  8
$DDT_AUDIT_GENERATED_(8A)
  6
Continuous
 62
     7
100
AcDbSpline
210
0.0
220
0.0
230
1.0
 70
     8
 71
     3
 72
     8
 73
     4
 74
     0
 42
0.0000018869280372
 43
0.0000000001
 40
0.0
 40
0.0
 40
0.0
 40
0.0
 40
0.4925823241601041
 40
0.4925823241601041
 40
0.4925823241601041
 40
0.4925823241601041
 10
217.265571330138
 20
59.95294173138538
 30
0.0
 10
217.2669742745606
 20
59.952941671243
 30
0.0
 10
217.2681036751054
 20
59.95268425095286
 30
0.0
 10
217.268055737453
 20
59.95267322766105
 30
0.0
  0
ELLIPSE
  5
296
330
272
100
AcDbEntity
  8
$DDT_AUDIT_GENERATED_(8A)
  6
Continuous
 62
     7
100
AcDbEllipse
 10
216.5914287993
 20
60.3831263461
 30
0.0
 11
6.347402184471102E-12
 21
-0.800000000000245
 31
0.0
210
0.0
220
0.0
230
1.0
 40
0.9994799675
 41
0.0000000000000238
 42
1.003053014777688
  0
ELLIPSE
  5
297
330
272
100
AcDbEntity
  8
$DDT_AUDIT_GENERATED_(8A)
  6
Continuous
 62
     7
100
AcDbEllipse
 10
212.9731751674
 20
60.3831263461
 30
0.0
 11
2.949519767880231E-13
 21
-0.7999999999999813
 31
0.0
210
0.0
220
0.0
230
1.0
 40
0.9994799675
 41
0.0000000000000221
 42
1.003052833765782
  0
LINE
  5
298
330
272
100
AcDbEntity
  8
$DDT_AUDIT_GENERATED_(8A)
  6
Continuous
 62
     7
100
AcDbLine
 10
212.9731751674
 20
59.5831263461
 30
0.0
 11
212.9731751674
 21
60.2918031287
 31
0.0
  0
LINE
  5
299
330
272
100
AcDbEntity
  8
$DDT_AUDIT_GENERATED_(8A)
  6
Continuous
 62
     7
100
AcDbLine
 10
217.5219533817
 20
64.7852412056
 30
0.0
 11
228.0926169607
 21
94.3485796723
 31
0.0
  0
ARC
  5
29A
330
272
100
AcDbEntity
  8
$DDT_AUDIT_GENERATED_(8A)
  6
Continuous
 62
     7
100
AcDbCircle
 10
229.9170724898
 20
60.2350635618
 30
0.0
 40
13.20390450940426
100
AcDbArc
 50
159.8421013952
 51
163.0618441254
  0
ARC
  5
29B
330
272
100
AcDbEntity
  8
$DDT_AUDIT_GENERATED_(8A)
  6
Continuous
 62
     7
100
AcDbCircle
 10
-69.7606973603
 20
323.2919102966
 30
0.0
 40
386.8387249328209
100
AcDbArc
 50
317.1262666186
 51
317.8851819891
  0
ARC
  5
29C
330
272
100
AcDbEntity
  8
$DDT_AUDIT_GENERATED_(8A)
  6
Continuous
 62
     7
100
AcDbCircle
 10
216.3784628343
 20
64.339035074
 30
0.0
 40
0.9432248009202862
100
AcDbArc
 50
330.2302595115
 51
344.1789428479
  0
SPLINE
  5
29D
330
272
100
AcDbEntity
  8
$DDT_AUDIT_GENERATED_(8A)
  6
Continuous
 62
     7
100
AcDbSpline
210
0.0
220
0.0
230
1.0
 70
     8
 71
     3
 72
    15
 73
    11
 74
     0
 42
0.0000000194634689
 43
0.0000000001
 40
0.0
 40
0.0
 40
0.0
 40
0.0
 40
0.2500041853665075
 40
0.3811735886051665
 40
0.4999625304949555
 40
0.6303542132196112
 40
0.7494422545352204
 40
0.842379277951379
 40
0.9255718283230513
 40
1.0
 40
1.0
 40
1.0
 40
1.0
 10
216.9872830685868
 20
63.41135437767084
 30
0.0
 10
216.9841446028787
 20
63.41765303859084
 30
0.0
 10
216.9793594820421
 20
63.42725641056143
 30
0.0
 10
216.9855376868184
 20
63.4593236075297
 30
0.0
 10
216.9984489325687
 20
63.49651754971378
 30
0.0
 10
217.021437114424
 20
63.54882835136713
 30
0.0
 10
217.0550007588504
 20
63.61633671639893
 30
0.0
 10
217.0958940252285
 20
63.69292849314159
 30
0.0
 10
217.1401893118029
 20
63.77264467037222
 30
0.0
 10
217.1789197503205
 20
63.83925567168284
 30
0.0
 10
217.1972081814938
 20
63.87070924565444
 30
0.0
  0
LINE
  5
29E
330
272
100
AcDbEntity
  8
$DDT_AUDIT_GENERATED_(8A)
  6
Continuous
 62
     7
100
AcDbLine
 10
218.1630560573
 20
61.3976507166
 30
0.0
 11
216.9872830686
 21
63.4113543777
 31
0.0
  0
LINE
  5
29F
330
272
100
AcDbEntity
  8
$DDT_AUDIT_GENERATED_(8A)
  6
Continuous
 62
     7
100
AcDbLine
 10
218.1705967277
 20
61.3712069307
 30
0.0
 11
218.1630560573
 21
61.3976507166
 31
0.0
  0
SPLINE
  5
2A0
330
272
100
AcDbEntity
  8
$DDT_AUDIT_GENERATED_(8A)
  6
Continuous
 62
     7
100
AcDbSpline
210
0.0
220
0.0
230
1.0
 70
     8
 71
     3
 72
     8
 73
     4
 74
     0
 42
0.0000004640417004
 43
0.0000000001
 40
0.7733293322611708
 40
0.7733293322611708
 40
0.7733293322611708
 40
0.7733293322611708
 40
1.0
 40
1.0
 40
1.0
 40
1.0
 10
218.1702557439925
 20
61.36649602110647
 30
0.0
 10
218.170934666257
 20
61.36790904979511
 30
0.0
 10
218.1708214096546
 20
61.36956283389226
 30
0.0
 10
218.1705967277486
 20
61.37120693065609
 30
0.0
  0
ELLIPSE
  5
2A1
330
272
100
AcDbEntity
  8
$DDT_AUDIT_GENERATED_(8A)
  6
Continuous
 62
     7
100
AcDbEllipse
 10
216.7627195861
 20
65.0321178843
 30
0.0
 11
-0.7534562418963272
 21
0.268893457613481
 31
0.0
210
0.0
220
0.0
230
1.0
 40
0.4053334027
 41
3.021352772604402
 42
3.211585371753538
  0
ELLIPSE
  5
2A2
330
272
100
AcDbEntity
  8
$DDT_AUDIT_GENERATED_(8A)
  6
Continuous
 62
     7
100
AcDbEllipse
 10
216.5263610032
 20
64.3271683716
 30
0.0
 11
-0.7668884911963669
 21
0.2277762983072529
 31
0.0
210
0.0
220
0.0
230
1.0
 40
0.3332313853
 41
3.070772812070473
 42
3.244556500187051
  0
ELLIPSE
  5
2A3
330
272
100
AcDbEntity
  8
$DDT_AUDIT_GENERATED_(8A)
  6
Continuous
 62
     7
100
AcDbEllipse
 10
216.7758691484
 20
64.1395747062
 30
0.0
 11
-0.4312712019590003
 21
0.2529923919009081
 31
0.0
210
0.0
220
0.0
230
1.0
 40
0.809119586
 41
3.09531172130747
 42
3.321438417154325
  0
ELLIPSE
  5
2A4
330
272
100
AcDbEntity
  8
$DDT_AUDIT_GENERATED_(8A)
  6
Continuous
 62
     7
100
AcDbEllipse
 10
216.5659440355
 20
63.6802198382
 30
0.0
 11
-0.4317855886340327
 21
-0.2521134773229433
 31
0.0
210
0.0
220
0.0
230
1.0
 40
0.9995329953
 41
2.044936977062074
 42
2.652030206178535
  0
ELLIPSE
  5
2A5
330
272
100
AcDbEntity
  8
$DDT_AUDIT_GENERATED_(8A)
  6
Continuous
 62
     7
100
AcDbEllipse
 10
217.7417170242
 20
61.6665161772
 30
0.0
 11
-0.4317855866078185
 21
-0.2521134807904752
 31
0.0
210
0.0
220
0.0
230
1.0
 40
0.9995329953
 41
2.044936969028282
 42
3.156650875188821
  0
ARC
  5
2A6
330
272
100
AcDbEntity
  8
$DDT_AUDIT_GENERATED_(8A)
  6
Continuous
 62
     7
100
AcDbCircle
 10
217.7498914616
 20
61.6401638935
 30
0.0
 40
0.4993303203717453
100
AcDbArc
 50
327.4092104307
 51
4.5504355991
  0
ELLIPSE
  5
2A7
330
272
100
AcDbEntity
  8
$DDT_AUDIT_GENERATED_(8A)
  6
Continuous
 62
     7
100
AcDbEllipse
 10
186.6273895169
 20
61.6400723912
 30
0.0
 11
0.4977133366247354
 21
-0.04776436556895577
 31
0.0
210
0.0
220
0.0
230
1.0
 40
0.9990267622
 41
3.157787527178473
 42
3.805719177219844
  0
LINE
  5
2A8
330
272
100
AcDbEntity
  8
$DDT_AUDIT_GENERATED_(8A)
  6
Continuous
 62
     7
100
AcDbLine
 10
186.2060504837
 20
61.3712069307
 30
0.0
 11
186.2135911542
 21
61.3976507166
 31
0.0
  0
ELLIPSE
  5
2A9
330
272
100
AcDbEntity
  8
$DDT_AUDIT_GENERATED_(8A)
  6
Continuous
 62
     7
100
AcDbEllipse
 10
186.6349301873
 20
61.6665161772
 30
0.0
 11
0.4317855910620539
 21
-0.2521134731670593
 31
0.0
210
0.0
220
0.0
230
1.0
 40
0.9995329953
 41
3.126534414320148
 42
4.23824832049159
  0
LINE
  5
2AA
330
272
100
AcDbEntity
  8
$DDT_AUDIT_GENERATED_(8A)
  6
Continuous
 62
     7
100
AcDbLine
 10
186.2135911542
 20
61.3976507166
 30
0.0
 11
187.3893641429
 21
63.4113543777
 31
0.0
  0
ELLIPSE
  5
2AB
330
272
100
AcDbEntity
  8
$DDT_AUDIT_GENERATED_(8A)
  6
Continuous
 62
     7
100
AcDbEllipse
 10
187.810703176
 20
63.6802198382
 30
0.0
 11
0.4317855886194749
 21
-0.2521134773478678
 31
0.0
210
0.0
220
0.0
230
1.0
 40
0.9995329953
 41
3.631155101058707
 42
4.238248330175226
  0
SPLINE
  5
2AC
330
272
100
AcDbEntity
  8
$DDT_AUDIT_GENERATED_(8A)
  6
Continuous
 62
     7
100
AcDbSpline
210
0.0
220
0.0
230
1.0
 70
    12
 71
     3
 72
    16
 73
    12
 74
     0
 42
0.000000019496148
 43
0.0000000001
 40
0.0
 40
0.0
 40
0.0
 40
0.0
 40
0.125
 40
0.125
 40
0.1875
 40
0.1875
 40
0.25
 40
0.25
 40
0.5
 40
0.5
 40
1.0
 40
1.0
 40
1.0
 40
1.0
 10
187.3893641428568
 20
63.41135437767084
 30
0.0
 41
1.0
 10
187.3928583118742
 20
63.41733979597763
 30
0.0
 41
1.0
 10
187.3946837887133
 20
63.42406040655574
 30
0.0
 41
1.0
 10
187.3949189657104
 20
63.43524411082188
 30
0.0
 41
1.0
 10
187.3945722994909
 20
63.43909594874267
 30
0.0
 41
1.0
 10
187.3931521455407
 20
63.4479834763011
 30
0.0
 41
1.0
 10
187.3920664447809
 20
63.45292645268744
 30
0.0
 41
1.0
 10
187.3847598220595
 20
63.48013739765457
 30
0.0
 41
1.0
 10
187.37293040398
 20
63.50974015183927
 30
0.0
 41
1.0
 10
187.3190415260672
 20
63.624709478219
 30
0.0
 41
1.0
 10
187.2579246991885
 20
63.7369144959325
 30
0.0
 41
1.0
 10
187.1794390299498
 20
63.87070924565444
 30
0.0
 41
1.0
  0
ELLIPSE
  5
2AD
330
272
100
AcDbEntity
  8
$DDT_AUDIT_GENERATED_(8A)
  6
Continuous
 62
     7
100
AcDbEllipse
 10
187.6007780631
 20
64.1395747062
 30
0.0
 11
0.4312712019473239
 21
0.2529923919240701
 31
0.0
210
0.0
220
0.0
230
1.0
 40
0.809119586
 41
2.961746889984036
 42
3.187873585831698
  0
ELLIPSE
  5
2AE
330
272
100
AcDbEntity
  8
$DDT_AUDIT_GENERATED_(8A)
  6
Continuous
 62
     7
100
AcDbEllipse
 10
187.8502862083
 20
64.3271683716
 30
0.0
 11
0.766888491196155
 21
0.2277762983070725
 31
0.0
210
0.0
220
0.0
230
0.9999999999999997
 40
0.3332313853
 41
3.038628806992743
 42
3.21241249510866
  0
ARC
  5
2AF
330
272
100
AcDbEntity
  8
$DDT_AUDIT_GENERATED_(8A)
  6
Continuous
 62
     7
100
AcDbCircle
 10
174.0599859189
 20
60.1009904665
 30
0.0
 40
13.62522497098143
100
AcDbArc
 50
16.9879489677
 51
20.1081055117
  0
ELLIPSE
  5
2B0
330
272
100
AcDbEntity
  8
$DDT_AUDIT_GENERATED_(8A)
  6
Continuous
 62
     7
100
AcDbEllipse
 10
187.6139276253
 20
65.0321178843
 30
0.0
 11
0.7534562418963116
 21
0.2688934576134811
 31
0.0
210
0.0
220
0.0
230
1.0
 40
0.4053334027
 41
3.071599935425626
 42
3.686645706008552
  0
LINE
  5
2B1
330
272
100
AcDbEntity
  8
$DDT_AUDIT_GENERATED_(8A)
  6
Continuous
 62
     7
100
AcDbLine
 10
186.8546938297
 20
64.7852412056
 30
0.0
 11
176.2840302514
 21
94.3485796704
 31
0.0
  0
LINE
  5
2B2
330
272
100
AcDbEntity
  8
$DDT_AUDIT_GENERATED_(8A)
  6
Continuous
 62
     7
100
AcDbLine
 10
187.1110758813
 20
59.9529417314
 30
0.0
 11
186.2060504837
 21
61.3712069307
 31
0.0
  0
ARC
  5
2B3
330
272
100
AcDbEntity
  8
$DDT_AUDIT_GENERATED_(8A)
  6
Continuous
 62
     7
100
AcDbCircle
 10
187.9925010364
 20
64.3366465546
 30
0.0
 40
0.9371058649730053
100
AcDbArc
 50
195.7752889168
 51
209.8155087239
  0
ARC
  5
2B4
330
272
100
AcDbEntity
  8
$DDT_AUDIT_GENERATED_(8A)
  6
Continuous
 62
     7
100
AcDbCircle
 10
474.1373445719
 20
323.2919102966
 30
0.0
 40
386.8387249329215
100
AcDbArc
 50
222.1148180109
 51
222.8737333814
  0
ARC
  5
2B5
330
272
100
AcDbEntity
  8
$DDT_AUDIT_GENERATED_(8A)
  6
Continuous
 62
     7
100
AcDbCircle
 10
411.4067494315
 20
263.4119648928
 30
0.0
 40
300.0836163706873
100
AcDbArc
 50
221.6246963216
 51
222.6134536017
  0
ELLIPSE
  5
2B6
330
272
100
AcDbEntity
  8
$DDT_AUDIT_GENERATED_(8A)
  6
Continuous
 62
     7
100
AcDbEllipse
 10
191.2993342057
 20
60.5525783995
 30
0.0
 11
-0.7382282965069601
 21
-0.3082514918640867
 31
0.0
210
0.0
220
0.0
230
1.0
 40
0.1054417096
 41
0.0517295136382496
 42
1.52679694702761
  0
SPLINE
  5
2B7
330
272
100
AcDbEntity
  8
$DDT_AUDIT_GENERATED_(8A)
  6
Continuous
 62
     7
100
AcDbSpline
210
0.0
220
0.0
230
1.0
 70
     8
 71
     3
 72
    11
 73
     7
 74
     0
 42
0.0000000005190598
 43
0.0000000001
 40
0.0
 40
0.0
 40
0.0
 40
0.0
 40
0.5035304155633857
 40
0.5035304155633857
 40
0.5035304155633857
 40
1.0
 40
1.0
 40
1.0
 40
1.0
 10
191.2993342057244
 20
60.46125518206297
 30
0.0
 10
190.053381252018
 20
63.44517497099966
 30
0.0
 10
188.8068389635282
 20
66.42885191664533
 30
0.0
 10
187.5598887218898
 20
69.41236051589644
 30
0.0
 10
186.3304240224028
 20
72.35403242942495
 30
0.0
 10
185.1005601421917
 20
75.29553969602925
 30
0.0
 10
183.870407327449
 20
78.23692766801082
 30
0.0
  0
LINE
  5
2B8
330
272
100
AcDbEntity
  8
$DDT_AUDIT_GENERATED_(8A)
  6
Continuous
 62
     7
100
AcDbLine
 10
190.5637740093
 20
60.2407144148
 30
0.0
 11
190.6406930626
 21
60.092655566
 31
0.0
  0
ELLIPSE
  5
2B9
330
272
100
AcDbEntity
  8
$DDT_AUDIT_GENERATED_(8A)
  6
Continuous
 62
     7
100
AcDbEllipse
 10
191.3148355155
 20
60.5228403029
 30
0.0
 11
-0.6755249915830798
 21
-0.4285626975678858
 31
0.0
210
0.0
220
0.0
230
0.9999999999999997
 40
0.0965731123
 41
0.0273180746723962
 42
1.509605453134845
  0
LINE
  5
2BA
330
272
100
AcDbEntity
  8
$DDT_AUDIT_GENERATED_(8A)
  6
Continuous
 62
     7
100
AcDbLine
 10
191.3148355155
 20
60.4315170854
 30
0.0
 11
191.2993342057
 21
60.4612551821
 31
0.0
  0
LINE
  5
2BB
330
272
100
AcDbEntity
  8
$DDT_AUDIT_GENERATED_(8A)
  6
Continuous
 62
     7
100
AcDbLine
 10
191.4034720441
 20
60.2918031287
 30
0.0
 11
191.3148355155
 21
60.4315170854
 31
0.0
  0
LINE
  5
2BC
330
272
100
AcDbEntity
  8
$DDT_AUDIT_GENERATED_(8A)
  6
Continuous
 62
     7
100
AcDbLine
 10
190.6406930626
 20
60.092655566
 30
0.0
 11
190.7293295911
 21
59.9529416093
 31
0.0
  0
ELLIPSE
  5
2BD
330
272
100
AcDbEntity
  8
$DDT_AUDIT_GENERATED_(8A)
  6
Continuous
 62
     7
100
AcDbEllipse
 10
187.7852184122
 20
60.3831263461
 30
0.0
 11
-4.055734500961809E-12
 21
-0.7999999999999258
 31
0.0
210
0.0
220
0.0
230
1.0
 40
0.9994799675
 41
5.280132292399385
 42
6.283185307179586
  0
SPLINE
  5
2BE
330
272
100
AcDbEntity
  8
$DDT_AUDIT_GENERATED_(8A)
  6
Continuous
 62
     7
100
AcDbSpline
210
0.0
220
0.0
230
1.0
 70
     8
 71
     3
 72
     8
 73
     4
 74
     0
 42
0.0000018867643392
 43
0.0000000001
 40
0.0
 40
0.0
 40
0.0
 40
0.0
 40
0.492639461105329
 40
0.492639461105329
 40
0.492639461105329
 40
0.492639461105329
 10
187.1110758813055
 20
59.95294173138538
 30
0.0
 10
187.1096727741117
 20
59.95294161616256
 30
0.0
 10
187.1085432742952
 20
59.95268413534641
 30
0.0
 10
187.1085914906909
 20
59.95267318130492
 30
0.0
  0
LINE
  5
2BF
330
272
100
AcDbEntity
  8
$DDT_AUDIT_GENERATED_(8A)
  6
Continuous
 62
     7
100
AcDbLine
 10
187.7852184122
 20
59.5831263461
 30
0.0
 11
191.4034720441
 21
59.5831263461
 31
0.0
  0
ELLIPSE
  5
2C0
330
272
100
AcDbEntity
  8
$DDT_AUDIT_GENERATED_(8A)
  6
Continuous
 62
     7
100
AcDbEllipse
 10
191.4034720441
 20
60.3831263461
 30
0.0
 11
5.070645706152173E-12
 21
-0.8000000000001062
 31
0.0
210
0.0
220
0.0
230
1.0
 40
0.9994799675
 41
5.280132473406875
 42
6.283185307179586
  0
LINE
  5
2C1
330
272
100
AcDbEntity
  8
$DDT_AUDIT_GENERATED_(8A)
  6
Continuous
 62
     7
100
AcDbLine
 10
190.7293295911
 20
59.9529416093
 30
0.0
 11
187.1110758813
 21
59.9529417314
 31
0.0
  0
LINE
  5
2C2
330
272
100
AcDbEntity
  8
$DDT_AUDIT_GENERATED_(8A)
  6
Continuous
 62
     7
100
AcDbLine
 10
191.4034720441
 20
59.5831263461
 30
0.0
 11
191.4034720441
 21
60.2918031287
 31
0.0
  0
ELLIPSE
  5
2C3
330
272
100
AcDbEntity
  8
$DDT_AUDIT_GENERATED_(8A)
  6
Continuous
 62
     7
100
AcDbEllipse
 10
191.4034720441
 20
60.3831263461
 30
0.0
 11
-0.6755249915830642
 21
-0.4285626975678858
 31
0.0
210
0.0
220
0.0
230
0.9999999999999999
 40
0.0965731123
 41
0.0273180746713963
 42
1.509605453134867
  0
LINE
  5
2C4
330
272
100
AcDbEntity
  8
$DDT_AUDIT_GENERATED_(8A)
  6
Continuous
 62
     7
100
AcDbLine
 10
202.1883236057
 20
60.2918031287
 30
0.0
 11
191.4034720441
 21
60.2918031287
 31
0.0
  0
LINE
  5
2C5
330
272
100
AcDbEntity
  8
$DDT_AUDIT_GENERATED_(8A)
  6
Continuous
 62
     7
100
AcDbLine
 10
191.4034720441
 20
59.5831263461
 30
0.0
 11
202.1883236057
 21
59.5831263461
 31
0.0
  0
SPLINE
  5
2C6
330
272
100
AcDbEntity
  8
$DDT_AUDIT_GENERATED_(8A)
  6
Continuous
 62
     7
100
AcDbSpline
210
0.0
220
0.0
230
1.0
 70
     8
 71
     3
 72
     8
 73
     4
 74
     0
 42
0.0000001619764195
 43
0.0000000001
 40
0.7476812387990361
 40
0.7476812387990361
 40
0.7476812387990361
 40
0.7476812387990361
 40
0.9998902608066216
 40
0.9998902608066216
 40
0.9998902608066216
 40
0.9998902608066216
 10
228.0813241037313
 20
94.33896021823283
 30
0.0
 10
228.0876381789548
 20
94.34196329928899
 30
0.0
 10
228.0914146861739
 20
94.34518520853327
 30
0.0
 10
228.0926221923763
 20
94.34859228667949
 30
0.0
  0
LINE
  5
2C7
330
272
100
AcDbEntity
  8
$DDT_AUDIT_GENERATED_(8A)
  6
Continuous
 62
     7
100
AcDbLine
 10
176.4175626498
 20
94.3188984893
 30
0.0
 11
187.0261554638
 21
64.6438478973
 31
0.0
  0
LINE
  5
2C8
330
272
100
AcDbEntity
  8
$DDT_AUDIT_GENERATED_(8A)
  6
Continuous
 62
     7
100
AcDbLine
 10
176.4723360806
 20
94.6159659383
 30
0.0
 11
176.4804034265
 21
94.6159659383
 31
0.0
  0
LINE
  5
2C9
330
272
100
AcDbEntity
  8
$DDT_AUDIT_GENERATED_(8A)
  6
Continuous
 62
     7
100
AcDbLine
 10
228.0926237671
 20
94.3485967342
 30
0.0
 11
228.0827154167
 21
94.3436587689
 31
0.0
  0
ARC
  5
2CA
330
272
100
AcDbEntity
  8
$DDT_AUDIT_GENERATED_(8A)
  6
Continuous
 62
     7
100
AcDbCircle
 10
176.4723364935
 20
94.4159651638
 30
0.0
 40
0.2000007745248607
100
AcDbArc
 50
90.0001183084
 51
199.6845176268
  0
ARC
  5
2CB
330
272
100
AcDbEntity
  8
$DDT_AUDIT_GENERATED_(8A)
  6
Continuous
 62
     7
100
AcDbCircle
 10
227.9043107179
 20
94.4159651638
 30
0.0
 40
0.2000007745344223
100
AcDbArc
 50
340.3154823746
 51
89.9994704801
  0
LINE
  5
2CC
330
272
100
AcDbEntity
  8
$DDT_AUDIT_GENERATED_(8A)
  6
Continuous
 62
     7
100
AcDbLine
 10
227.8962437849
 20
94.6159659383
 30
0.0
 11
227.9043125663
 21
94.6159659383
 31
0.0
  0
ARC
  5
2CD
330
272
100
AcDbEntity
  8
$DDT_AUDIT_GENERATED_(8A)
  6
Continuous
 62
     7
100
AcDbCircle
 10
227.8962437849
 20
94.4159659304
 30
0.0
 40
0.2000000078778152
100
AcDbArc
 50
338.8054534075
 51
90.0
  0
LINE
  5
2CE
330
272
100
AcDbEntity
  8
$DDT_AUDIT_GENERATED_(8A)
  6
Continuous
 62
     7
100
AcDbLine
 10
202.1883236057
 20
79.8295390104
 30
0.0
 11
202.1883236057
 21
78.4293680916
 31
0.0
  0
ARC
  5
2CF
330
272
100
AcDbEntity
  8
$DDT_AUDIT_GENERATED_(8A)
  6
Continuous
 62
     7
100
AcDbCircle
 10
-62.3036957555
 20
206.8627993846
 30
0.0
 40
311.1626261291008
100
AcDbArc
 50
335.6887720005
 51
338.8487404612
  0
SPLINE
  5
2D0
330
272
100
AcDbEntity
  8
$DDT_AUDIT_GENERATED_(8A)
  6
Continuous
 62
     7
100
AcDbSpline
210
0.0
220
0.0
230
1.0
 70
     8
 71
     3
 72
    10
 73
     6
 74
     0
 42
0.0000000114084086
 43
0.0000000001
 40
0.0
 40
0.0
 40
0.0
 40
0.0
 40
0.5
 40
0.5
 40
1.0
 40
1.0
 40
1.0
 40
1.0
 10
220.5062398839954
 20
78.42936809160669
 30
0.0
 10
220.6839556844236
 20
78.42936809160669
 30
0.0
 10
220.8543529979698
 20
78.4677329418832
 30
0.0
 10
221.1243960879352
 20
78.58732048895395
 30
0.0
 10
221.2243871515402
 20
78.66784890653177
 30
0.0
 10
221.2658428438108
 20
78.75933854864226
 30
0.0
  0
LINE
  5
2D1
330
272
100
AcDbEntity
  8
$DDT_AUDIT_GENERATED_(8A)
  6
Continuous
 62
     7
100
AcDbLine
 10
202.1883236057
 20
78.4293680916
 30
0.0
 11
220.506239884
 21
78.4293680916
 31
0.0
  0
LINE
  5
2D2
330
272
100
AcDbEntity
  8
$DDT_AUDIT_GENERATED_(8A)
  6
Continuous
 62
     7
100
AcDbLine
 10
227.8962437849
 20
94.5855755575
 30
0.0
 11
227.1834405875
 21
94.5855755575
 31
0.0
  0
LINE
  5
2D3
330
272
100
AcDbEntity
  8
$DDT_AUDIT_GENERATED_(8A)
  6
Continuous
 62
     7
100
AcDbLine
 10
176.4804034265
 20
94.6159659383
 30
0.0
 11
177.193206624
 21
94.6159659383
 31
0.0
  0
LINE
  5
2D4
330
272
100
AcDbEntity
  8
$DDT_AUDIT_GENERATED_(8A)
  6
Continuous
 62
     7
100
AcDbLine
 10
183.8704073275
 20
78.4293680916
 30
0.0
 11
202.1883236057
 21
78.4293680916
 31
0.0
  0
SPLINE
  5
2D5
330
272
100
AcDbEntity
  8
$DDT_AUDIT_GENERATED_(8A)
  6
Continuous
 62
     7
100
AcDbSpline
210
0.0
220
0.0
230
1.0
 70
     8
 71
     3
 72
    10
 73
     6
 74
     0
 42
0.0000000114084086
 43
0.0000000001
 40
0.0
 40
0.0
 40
0.0
 40
0.0
 40
0.5
 40
0.5
 40
1.0
 40
1.0
 40
1.0
 40
1.0
 10
183.1108043676329
 20
78.75933854864223
 30
0.0
 10
183.1522600599037
 20
78.6678489065313
 30
0.0
 10
183.2522511235094
 20
78.58732048895328
 30
0.0
 10
183.5222942134762
 20
78.46773294188245
 30
0.0
 10
183.6926915270238
 20
78.42936809160611
 30
0.0
 10
183.8704073274527
 20
78.42936809160669
 30
0.0
  0
ARC
  5
2D6
330
272
100
AcDbEntity
  8
$DDT_AUDIT_GENERATED_(8A)
  6
Continuous
 62
     7
100
AcDbCircle
 10
466.6803429669
 20
206.8627993846
 30
0.0
 40
311.1626261291112
100
AcDbArc
 50
201.1512595388
 51
204.3112279995
  0
LINE
  5
2D7
330
272
100
AcDbEntity
  8
$DDT_AUDIT_GENERATED_(8A)
  6
Continuous
 62
     7
100
AcDbLine
 10
176.2939317947
 20
94.3436587689
 30
0.0
 11
176.2840234443
 21
94.3485967342
 31
0.0
  0
ARC
  5
2D8
330
272
100
AcDbEntity
  8
$DDT_AUDIT_GENERATED_(8A)
  6
Continuous
 62
     7
100
AcDbCircle
 10
176.4804034265
 20
94.4159659304
 30
0.0
 40
0.1999999876810209
100
AcDbArc
 50
90.0
 51
201.1945465925
  0
SPLINE
  5
2D9
330
272
100
AcDbEntity
  8
$DDT_AUDIT_GENERATED_(8A)
  6
Continuous
 62
     7
100
AcDbSpline
210
0.0
220
0.0
230
1.0
 70
     8
 71
     3
 72
    14
 73
    10
 74
     0
 42
0.0000000005049631
 43
0.0000000001
 40
0.0
 40
0.0
 40
0.0
 40
0.0
 40
0.0644610065530993
 40
0.0644610065530993
 40
0.0644610065530993
 40
0.3858809348523835
 40
0.3858809348523835
 40
0.3858809348523835
 40
1.0
 40
1.0
 40
1.0
 40
1.0
 10
182.9264779895603
 20
78.51220646199796
 30
0.0
 10
183.0906652944192
 20
78.11965585571218
 30
0.0
 10
183.2548481713072
 20
77.72710271505939
 30
0.0
 10
183.4190264533956
 20
77.33454694061764
 30
0.0
 10
184.2376635522442
 20
75.37715820297593
 30
0.0
 10
185.0561868784571
 20
73.419704263228
 30
0.0
 10
185.8745724557375
 20
71.46217071228494
 30
0.0
 10
187.4382159237876
 20
67.72202103785737
 30
0.0
 10
189.0013644258008
 20
63.98158578117144
 30
0.0
 10
190.5637740093251
 20
60.24071441481663
 30
0.0
  0
ARC
  5
2DA
330
272
100
AcDbEntity
  8
$DDT_AUDIT_GENERATED_(8A)
  6
Continuous
 62
     7
100
AcDbCircle
 10
466.6273168855
 20
206.6730129214
 30
0.0
 40
311.3058918532731
100
AcDbArc
 50
201.1513454951
 51
204.3108976221
  0
SPLINE
  5
2DB
330
272
100
AcDbEntity
  8
$DDT_AUDIT_GENERATED_(8A)
  6
Continuous
 62
     7
100
AcDbSpline
210
0.0
220
0.0
230
1.0
 70
     8
 71
     3
 72
    10
 73
     6
 74
     0
 42
0.0000000095729792
 43
0.0000000001
 40
0.0
 40
0.0
 40
0.0
 40
0.0
 40
0.5
 40
0.5
 40
1.0
 40
1.0
 40
1.0
 40
1.0
 10
183.870407327449
 20
78.23692766801082
 30
0.0
 10
183.6486471132901
 20
78.2166667973673
 30
0.0
 10
183.4320629970607
 20
78.2374545308957
 30
0.0
 10
183.0926255061352
 20
78.33803693583613
 30
0.0
 10
182.9705093377125
 20
78.41699977418487
 30
0.0
 10
182.9264779895603
 20
78.51220646199796
 30
0.0
  0
LINE
  5
2DC
330
272
100
AcDbEntity
  8
$DDT_AUDIT_GENERATED_(8A)
  6
Continuous
 62
     7
100
AcDbLine
 10
202.1883236057
 20
78.236927668
 30
0.0
 11
202.1883236057
 21
60.2918031287
 31
0.0
  0
LINE
  5
2DD
330
272
100
AcDbEntity
  8
$DDT_AUDIT_GENERATED_(8A)
  6
Continuous
 62
     7
100
AcDbLine
 10
202.1883236057
 20
78.236927668
 30
0.0
 11
183.8704073274
 21
78.236927668
 31
0.0
  0
LINE
  5
2DE
330
272
100
AcDbEntity
  8
$DDT_AUDIT_GENERATED_(8A)
  6
Continuous
 62
     7
100
AcDbLine
 10
220.506239884
 20
78.236927668
 30
0.0
 11
202.1883236057
 21
78.236927668
 31
0.0
  0
SPLINE
  5
2DF
330
272
100
AcDbEntity
  8
$DDT_AUDIT_GENERATED_(8A)
  6
Continuous
 62
     7
100
AcDbSpline
210
0.0
220
0.0
230
1.0
 70
     8
 71
     3
 72
    14
 73
    10
 74
     0
 42
0.0000000005049631
 43
0.0000000001
 40
0.0
 40
0.0
 40
0.0
 40
0.0
 40
0.0644610065530993
 40
0.0644610065530993
 40
0.0644610065530993
 40
0.3858809348523835
 40
0.3858809348523835
 40
0.3858809348523835
 40
1.0
 40
1.0
 40
1.0
 40
1.0
 10
221.4501692218834
 20
78.51220646199799
 30
0.0
 10
221.2859819170245
 20
78.11965585571221
 30
0.0
 10
221.1217990401366
 20
77.72710271505942
 30
0.0
 10
220.9576207580481
 20
77.33454694061764
 30
0.0
 10
220.1389836591996
 20
75.37715820297596
 30
0.0
 10
219.3204603329866
 20
73.419704263228
 30
0.0
 10
218.5020747557063
 20
71.46217071228494
 30
0.0
 10
216.9384312876561
 20
67.7220210378574
 30
0.0
 10
215.3752827856429
 20
63.98158578117144
 30
0.0
 10
213.8128732021186
 20
60.24071441481665
 30
0.0
  0
SPLINE
  5
2E0
330
272
100
AcDbEntity
  8
$DDT_AUDIT_GENERATED_(8A)
  6
Continuous
 62
     7
100
AcDbSpline
210
0.0
220
0.0
230
1.0
 70
     8
 71
     3
 72
    12
 73
     8
 74
     0
 42
0.00000000965682
 43
0.0000000001
 40
0.0
 40
0.0
 40
0.0
 40
0.0
 40
0.2500000000000012
 40
0.2500000000000012
 40
0.5000000000000023
 40
0.5000000000000023
 40
1.0
 40
1.0
 40
1.0
 40
1.0
 10
221.4501692218834
 20
78.51220646199799
 30
0.0
 10
221.4281150140554
 20
78.46451979856911
 30
0.0
 10
221.3873999305069
 20
78.42186276715854
 30
0.0
 10
221.2726715636215
 20
78.34552344833831
 30
0.0
 10
221.1998480284604
 20
78.3131493978532
 30
0.0
 10
220.9451493311308
 20
78.23751285551522
 30
0.0
 10
220.7282813550056
 20
78.21664110065437
 30
0.0
 10
220.5062398839954
 20
78.23692766801241
 30
0.0
  0
ARC
  5
2E1
330
272
100
AcDbEntity
  8
$DDT_AUDIT_GENERATED_(8A)
  6
Continuous
 62
     7
100
AcDbCircle
 10
-62.250669674
 20
206.6730129214
 30
0.0
 40
311.3058918532411
100
AcDbArc
 50
335.6891023779
 51
338.8486545049
  0
LINE
  5
2E2
330
272
100
AcDbEntity
  8
$DDT_AUDIT_GENERATED_(8A)
  6
Continuous
 62
     7
100
AcDbLine
 10
183.8704073275
 20
78.4293680916
 30
0.0
 11
183.8704073275
 21
78.236927668
 31
0.0
  0
ELLIPSE
  5
2E3
330
272
100
AcDbEntity
  8
$DDT_AUDIT_GENERATED_(8A)
  6
Continuous
 62
     7
100
AcDbEllipse
 10
183.1108043676
 20
78.5897289294
 30
0.0
 11
-0.1821710622638174
 21
-0.08254516384180456
 31
0.0
210
0.0
220
0.0
230
1.0
 40
0.8246094003
 41
4.354805765456172
 42
6.250045346810884
  0
LINE
  5
2E4
330
272
100
AcDbEntity
  8
$DDT_AUDIT_GENERATED_(8A)
  6
Continuous
 62
     7
100
AcDbLine
 10
202.1883236057
 20
78.4293680916
 30
0.0
 11
202.1883236057
 21
78.236927668
 31
0.0
  0
ELLIPSE
  5
2E5
330
272
100
AcDbEntity
  8
$DDT_AUDIT_GENERATED_(8A)
  6
Continuous
 62
     7
100
AcDbEllipse
 10
176.4804034265
 20
94.4159659383
 30
0.0
 11
-0.1864384244678816
 21
-0.07239277506719545
 31
0.0
210
0.0
220
0.0
230
1.0
 40
0.8306460837
 41
4.400388893006414
 42
6.282632600060383
  0
LINE
  5
2E6
330
272
100
AcDbEntity
  8
$DDT_AUDIT_GENERATED_(8A)
  6
Continuous
 62
     7
100
AcDbLine
 10
220.506239884
 20
78.4293680916
 30
0.0
 11
220.506239884
 21
78.236927668
 31
0.0
  0
LINE
  5
2E7
330
272
100
AcDbEntity
  8
$DDT_AUDIT_GENERATED_(8A)
  6
Continuous
 62
     7
100
AcDbLine
 10
176.4804034265
 20
94.6159659383
 30
0.0
 11
176.4804034265
 21
94.5855755575
 31
0.0
  0
ELLIPSE
  5
2E8
330
272
100
AcDbEntity
  8
$DDT_AUDIT_GENERATED_(8A)
  6
Continuous
 62
     7
100
AcDbEllipse
 10
221.2658428438
 20
78.5897289294
 30
0.0
 11
-0.1821710622638903
 21
0.08254516384165188
 31
0.0
210
0.0
220
0.0
230
1.0
 40
0.8246094003
 41
3.174732613952685
 42
5.069972195312598
  0
ELLIPSE
  5
2E9
330
272
100
AcDbEntity
  8
$DDT_AUDIT_GENERATED_(8A)
  6
Continuous
 62
     7
100
AcDbEllipse
 10
227.8962437849
 20
94.4159659383
 30
0.0
 11
-0.1864384244700777
 21
0.0723927750615888
 31
0.0
210
0.0
220
0.0
230
0.9999999999999999
 40
0.8306460837
 41
3.142145360365508
 42
5.024389067737929
  0
LINE
  5
2EA
330
272
100
AcDbEntity
  8
$DDT_AUDIT_GENERATED_(8A)
  6
Continuous
 62
     7
100
AcDbLine
 10
227.8962437849
 20
94.6159659383
 30
0.0
 11
227.8962437849
 21
94.5855755575
 31
0.0
  0
LINE
  5
2EB
330
272
100
AcDbEntity
  8
$DDT_AUDIT_GENERATED_(8A)
  6
Continuous
 62
     7
100
AcDbLine
 10
202.1883221371
 20
79.8295390104
 30
0.0
 11
219.3237053702
 21
79.8295373085
 31
0.0
  0
LINE
  5
2EC
330
272
100
AcDbEntity
  8
$DDT_AUDIT_GENERATED_(8A)
  6
Continuous
 62
     7
100
AcDbLine
 10
185.0528707001
 20
79.8295407123
 30
0.0
 11
202.1883221371
 21
79.8295390104
 31
0.0
  0
LINE
  5
2ED
330
272
100
AcDbEntity
  8
$DDT_AUDIT_GENERATED_(8A)
  6
Continuous
 62
     7
100
AcDbLine
 10
222.0265019784
 20
86.0286665827
 30
0.0
 11
223.3675464063
 21
89.2519697175
 31
0.0
  0
LINE
  5
2EE
330
272
100
AcDbEntity
  8
$DDT_AUDIT_GENERATED_(8A)
  6
Continuous
 62
     7
100
AcDbLine
 10
185.0198556964
 20
79.9030651318
 30
0.0
 11
185.0528616388
 21
79.8295608416
 31
0.0
  0
LINE
  5
2EF
330
272
100
AcDbEntity
  8
$DDT_AUDIT_GENERATED_(8A)
  6
Continuous
 62
     7
100
AcDbLine
 10
182.3621676441
 20
86.0002058588
 30
0.0
 11
185.0198556964
 21
79.9030651318
 31
0.0
  0
LINE
  5
2F0
330
272
100
AcDbEntity
  8
$DDT_AUDIT_GENERATED_(8A)
  6
Continuous
 62
     7
100
AcDbLine
 10
219.3237053702
 20
79.8295396489
 30
0.0
 11
222.0265019784
 21
86.0286665827
 31
0.0
  0
ARC
  5
2F1
330
272
100
AcDbEntity
  8
$DDT_AUDIT_GENERATED_(8A)
  6
Continuous
 62
     7
100
AcDbCircle
 10
698.6606628213
 20
-91.8313107795
 30
0.0
 40
508.6907236086268
100
AcDbArc
 50
158.6857263313
 51
159.1268209132
  0
SPLINE
  5
2F2
330
272
100
AcDbEntity
  8
$DDT_AUDIT_GENERATED_(8A)
  6
Continuous
 62
     7
100
AcDbSpline
210
0.0
220
0.0
230
1.0
 70
     8
 71
     3
 72
    10
 73
     6
 74
     0
 42
0.0000000007915247
 43
0.0000000001
 40
0.0
 40
0.0
 40
0.0
 40
0.0
 40
0.25
 40
0.25
 40
0.275370734529549
 40
0.275370734529549
 40
0.275370734529549
 40
0.275370734529549
 10
224.8984386828095
 20
92.915921807244
 30
0.0
 10
224.4743151299008
 20
91.7978515887036
 30
0.0
 10
224.0863918875711
 20
90.77933498853213
 30
0.0
 10
223.7218907158785
 20
89.83498712450195
 30
0.0
 10
223.6889090509897
 20
89.74968263489292
 30
0.0
 10
223.656556092717
 20
89.66614864099363
 30
0.0
  0
SPLINE
  5
2F3
330
272
100
AcDbEntity
  8
$DDT_AUDIT_GENERATED_(8A)
  6
Continuous
 62
     7
100
AcDbSpline
210
0.0
220
0.0
230
1.0
 70
     8
 71
     3
 72
    14
 73
    10
 74
     0
 42
0.0000000185828722
 43
0.0000000001
 40
0.0
 40
0.0
 40
0.0
 40
0.0
 40
0.25
 40
0.25
 40
0.5
 40
0.5
 40
0.75
 40
0.75
 40
1.0
 40
1.0
 40
1.0
 40
1.0
 10
224.7901489055864
 20
93.26950826800523
 30
0.0
 10
224.8250955089769
 20
93.28369891281133
 30
0.0
 10
224.8575049813869
 20
93.29261750113044
 30
0.0
 10
224.9140531491107
 20
93.29205548414666
 30
0.0
 10
224.9387505820197
 20
93.28222993724985
 30
0.0
 10
224.9672513933786
 20
93.22716798804967
 30
0.0
 10
224.9696811075916
 20
93.17995737875714
 30
0.0
 10
224.9482621744917
 20
93.05935757687456
 30
0.0
 10
224.9258914156422
 20
92.98829242374792
 30
0.0
 10
224.8984386828095
 20
92.915921807244
 30
0.0
  0
ARC
  5
2F4
330
272
100
AcDbEntity
  8
$DDT_AUDIT_GENERATED_(8A)
  6
Continuous
 62
     7
100
AcDbCircle
 10
202.1883236057
 20
191.944125489
 30
0.0
 40
101.2300478642445
100
AcDbArc
 50
257.0987194468
 51
257.2649559285
  0
ARC
  5
2F5
330
272
100
AcDbEntity
  8
$DDT_AUDIT_GENERATED_(8A)
  6
Continuous
 62
     7
100
AcDbCircle
 10
202.1883236057
 20
191.944125489
 30
0.0
 40
101.2300478642445
100
AcDbArc
 50
282.7255502308
 51
282.9012805531
  0
SPLINE
  5
2F6
330
272
100
AcDbEntity
  8
$DDT_AUDIT_GENERATED_(8A)
  6
Continuous
 62
     7
100
AcDbSpline
210
0.0
220
0.0
230
1.0
 70
     8
 71
     3
 72
    14
 73
    10
 74
     0
 42
0.0000000185793801
 43
0.0000000001
 40
0.0
 40
0.0
 40
0.0
 40
0.0
 40
0.25
 40
0.25
 40
0.5
 40
0.5
 40
0.75
 40
0.75
 40
1.0
 40
1.0
 40
1.0
 40
1.0
 10
179.4782085286374
 20
92.91592180723119
 30
0.0
 10
179.4508444540342
 20
92.98805870380426
 30
0.0
 10
179.4285187140758
 20
93.05908135833776
 30
0.0
 10
179.4071151104849
 20
93.1786482226416
 30
0.0
 10
179.4091146167992
 20
93.22599628019503
 30
0.0
 10
179.4374894185295
 20
93.28205670865364
 30
0.0
 10
179.4617684618108
 20
93.29191551852287
 30
0.0
 10
179.5188336034416
 20
93.29274360545567
 30
0.0
 10
179.5514485216784
 20
93.28374081107185
 30
0.0
 10
179.5864983058471
 20
93.26950826800915
 30
0.0
  0
SPLINE
  5
2F7
330
272
100
AcDbEntity
  8
$DDT_AUDIT_GENERATED_(8A)
  6
Continuous
 62
     7
100
AcDbSpline
210
0.0
220
0.0
230
1.0
 70
     8
 71
     3
 72
    10
 73
     6
 74
     0
 42
0.0000000007926681
 43
0.0000000001
 40
0.7239734368706165
 40
0.7239734368706165
 40
0.7239734368706165
 40
0.7239734368706165
 40
0.75
 40
0.75
 40
1.0
 40
1.0
 40
1.0
 40
1.0
 10
180.7212662773545
 20
89.66311264986673
 30
0.0
 10
180.6880117215891
 20
89.74897229380171
 30
0.0
 10
180.6540761462293
 20
89.83674529924055
 30
0.0
 10
180.2872269077628
 20
90.78722512726142
 30
0.0
 10
179.9023865840522
 20
91.79770790973568
 30
0.0
 10
179.4782085286374
 20
92.91592180723119
 30
0.0
  0
SPLINE
  5
2F8
330
272
100
AcDbEntity
  8
$DDT_AUDIT_GENERATED_(8A)
  6
Continuous
 62
     7
100
AcDbSpline
210
0.0
220
0.0
230
1.0
 70
     8
 71
     3
 72
    10
 73
     6
 74
     0
 42
0.0000000007741689
 43
0.0000000001
 40
0.0
 40
0.0
 40
0.0
 40
0.0
 40
0.25
 40
0.25
 40
0.2692784731686748
 40
0.2692784731686748
 40
0.2692784731686748
 40
0.2692784731686748
 10
179.5206014490376
 20
92.87835359715655
 30
0.0
 10
179.9526787035398
 20
91.73930916341918
 30
0.0
 10
180.3479571607055
 20
90.70146951830529
 30
0.0
 10
180.7110431846072
 20
89.7607850486311
 30
0.0
 10
180.7366837427242
 20
89.69444033695548
 30
0.0
 10
180.7619579574358
 20
89.62912851238866
 30
0.0
  0
ARC
  5
2F9
330
272
100
AcDbEntity
  8
$DDT_AUDIT_GENERATED_(8A)
  6
Continuous
 62
     7
100
AcDbCircle
 10
-294.2840156092
 20
-91.8313107793
 30
0.0
 40
508.6907236079456
100
AcDbArc
 50
20.8723980338
 51
21.3142736687
  0
SPLINE
  5
2FA
330
272
100
AcDbEntity
  8
$DDT_AUDIT_GENERATED_(8A)
  6
Continuous
 62
     7
100
AcDbSpline
210
0.0
220
0.0
230
1.0
 70
     8
 71
     3
 72
    16
 73
    12
 74
     0
 42
0.0000000230886703
 43
0.0000000001
 40
0.0
 40
0.0
 40
0.0
 40
0.0
 40
0.2500000000000022
 40
0.2500000000000022
 40
0.5000000000000044
 40
0.5000000000000044
 40
0.6250000000000039
 40
0.6250000000000039
 40
0.7500000000000033
 40
0.7500000000000033
 40
1.0
 40
1.0
 40
1.0
 40
1.0
 10
179.6126209351078
 20
93.06928455983665
 30
0.0
 10
179.586840382716
 20
93.09132764102188
 30
0.0
 10
179.5620590448687
 20
93.11045319290149
 30
0.0
 10
179.5161178405956
 20
93.1371490416002
 30
0.0
 10
179.4942486067441
 20
93.14559390641988
 30
0.0
 10
179.4716147295303
 20
93.13305192606613
 30
0.0
 10
179.465994553914
 20
93.1241863913038
 30
0.0
 10
179.4619285667777
 20
93.09350748365486
 30
0.0
 10
179.4636897830634
 20
93.07181791722408
 30
0.0
 10
179.4783132596096
 20
92.99651128682743
 30
0.0
 10
179.4985355084831
 20
92.93664161892268
 30
0.0
 10
179.5206014490376
 20
92.87835359715655
 30
0.0
  0
ARC
  5
2FB
330
272
100
AcDbEntity
  8
$DDT_AUDIT_GENERATED_(8A)
  6
Continuous
 62
     7
100
AcDbCircle
 10
202.1883236057
 20
189.6589143424
 30
0.0
 40
99.19283710329151
100
AcDbArc
 50
282.9105166513
 51
283.1554665423
  0
ARC
  5
2FC
330
272
100
AcDbEntity
  8
$DDT_AUDIT_GENERATED_(8A)
  6
Continuous
 62
     7
100
AcDbCircle
 10
202.1883236057
 20
189.6589143424
 30
0.0
 40
99.19283710329151
100
AcDbArc
 50
256.8445334577
 51
257.0720578144
  0
SPLINE
  5
2FD
330
272
100
AcDbEntity
  8
$DDT_AUDIT_GENERATED_(8A)
  6
Continuous
 62
     7
100
AcDbSpline
210
0.0
220
0.0
230
1.0
 70
     8
 71
     3
 72
    16
 73
    12
 74
     0
 42
0.0000000230890123
 43
0.0000000001
 40
0.0
 40
0.0
 40
0.0
 40
0.0
 40
0.249999999999995
 40
0.249999999999995
 40
0.3749999999999936
 40
0.3749999999999936
 40
0.4999999999999922
 40
0.4999999999999922
 40
0.7499999999999961
 40
0.7499999999999961
 40
1.0
 40
1.0
 40
1.0
 40
1.0
 10
224.8560457624072
 20
92.8783535971641
 30
0.0
 10
224.8780590004233
 20
92.93650240317159
 30
0.0
 10
224.8981044600608
 20
92.99562441937046
 30
0.0
 10
224.9129357436952
 20
93.07156080727185
 30
0.0
 10
224.9146977576216
 20
93.0933196690806
 30
0.0
 10
224.9107371314896
 20
93.12388897646603
 30
0.0
 10
224.9051615052789
 20
93.13287229603662
 30
0.0
 10
224.8827883415217
 20
93.14558960002825
 30
0.0
 10
224.8611488521241
 20
93.13744968120562
 30
0.0
 10
224.8147682526433
 20
93.11061615891794
 30
0.0
 10
224.7898591584244
 20
93.09137238435267
 30
0.0
 10
224.7640262763299
 20
93.06928455982586
 30
0.0
  0
SPLINE
  5
2FE
330
272
100
AcDbEntity
  8
$DDT_AUDIT_GENERATED_(8A)
  6
Continuous
 62
     7
100
AcDbSpline
210
0.0
220
0.0
230
1.0
 70
     8
 71
     3
 72
    10
 73
     6
 74
     0
 42
0.0000000007754985
 43
0.0000000001
 40
0.7297772911667435
 40
0.7297772911667435
 40
0.7297772911667435
 40
0.7297772911667435
 40
0.75
 40
0.75
 40
1.0
 40
1.0
 40
1.0
 40
1.0
 10
223.6124475160778
 20
89.62333479356005
 30
0.0
 10
223.6390090371855
 20
89.69196871251565
 30
0.0
 10
223.6659865621265
 20
89.76177250804793
 30
0.0
 10
224.0318596693264
 20
90.7097276704126
 30
0.0
 10
224.423913505846
 20
91.73916416669614
 30
0.0
 10
224.8560457624072
 20
92.8783535971641
 30
0.0
  0
ELLIPSE
  5
2FF
330
272
100
AcDbEntity
  8
$DDT_AUDIT_GENERATED_(8A)
  6
Continuous
 62
     7
100
AcDbEllipse
 10
225.3237217367
 20
92.7015015052
 30
0.0
 11
0.4674948873642296
 21
-0.1773373347289525
 31
0.0
210
0.0
220
0.0
230
1.0
 40
0.3101351137
 41
2.815713107208252
 42
3.144932648807711
  0
ELLIPSE
  5
300
330
272
100
AcDbEntity
  8
$DDT_AUDIT_GENERATED_(8A)
  6
Continuous
 62
     7
100
AcDbEllipse
 10
225.213404061
 20
93.0617094352
 30
0.0
 11
-0.18811555334141
 21
0.4632629259837262
 31
0.0
210
0.0
220
0.0
230
1.0
 40
0.8836314919
 41
0.7904219882960665
 42
1.210900324716565
  0
ELLIPSE
  5
301
330
272
100
AcDbEntity
  8
$DDT_AUDIT_GENERATED_(8A)
  6
Continuous
 62
     7
100
AcDbEllipse
 10
179.1632431504
 20
93.0617094352
 30
0.0
 11
0.1881155533422392
 21
0.4632629259836014
 31
0.0
210
0.0
220
0.0
230
0.9999999999999999
 40
0.8836314919
 41
5.072284982479508
 42
5.492763318883128
  0
ELLIPSE
  5
302
330
272
100
AcDbEntity
  8
$DDT_AUDIT_GENERATED_(8A)
  6
Continuous
 62
     7
100
AcDbEllipse
 10
179.0529254748
 20
92.7015015052
 30
0.0
 11
-0.4674948873614193
 21
-0.1773373347346563
 31
0.0
210
0.0
220
0.0
230
1.0
 40
0.3101351137
 41
3.138252658379055
 42
3.467472199971701
  0
LINE
  5
303
330
272
100
AcDbEntity
  8
$DDT_AUDIT_GENERATED_(8A)
  6
Continuous
 62
     7
100
AcDbLine
 10
177.193206624
 20
94.6159659383
 30
0.0
 11
177.19537837
 21
94.6159659383
 31
0.0
  0
LINE
  5
304
330
272
100
AcDbEntity
  8
$DDT_AUDIT_GENERATED_(8A)
  6
Continuous
 62
     7
100
AcDbLine
 10
177.2233084066
 20
94.6159659383
 30
0.0
 11
179.2273264085
 21
94.6159659383
 31
0.0
  0
ARC
  5
305
330
272
100
AcDbEntity
  8
$DDT_AUDIT_GENERATED_(8A)
  6
Continuous
 62
     7
100
AcDbCircle
 10
216.6836576685
 20
97.770223445
 30
0.0
 40
10.75066509916345
100
AcDbArc
 50
314.1242075932
 51
341.8853506769
  0
ARC
  5
306
330
272
100
AcDbEntity
  8
$DDT_AUDIT_GENERATED_(8A)
  6
Continuous
 62
     7
100
AcDbCircle
 10
187.700109181
 20
97.7753261806
 30
0.0
 40
10.75901872404851
100
AcDbArc
 50
198.1286880217
 51
226.998218428
  0
LINE
  5
307
330
272
100
AcDbEntity
  8
$DDT_AUDIT_GENERATED_(8A)
  6
Continuous
 62
     7
100
AcDbLine
 10
226.9014796747
 20
94.4276326049
 30
0.0
 11
225.1080649314
 21
94.4276326049
 31
0.0
  0
LINE
  5
308
330
272
100
AcDbEntity
  8
$DDT_AUDIT_GENERATED_(8A)
  6
Continuous
 62
     7
100
AcDbLine
 10
179.2824424831
 20
94.4276326049
 30
0.0
 11
177.4751675368
 21
94.4276326049
 31
0.0
  0
LINE
  5
309
330
272
100
AcDbEntity
  8
$DDT_AUDIT_GENERATED_(8A)
  6
Continuous
 62
     7
100
AcDbLine
 10
227.1834405875
 20
94.6159659383
 30
0.0
 11
227.8962437849
 21
94.6159659383
 31
0.0
  0
LINE
  5
30A
330
272
100
AcDbEntity
  8
$DDT_AUDIT_GENERATED_(8A)
  6
Continuous
 62
     7
100
AcDbLine
 10
227.1812688414
 20
94.6159659383
 30
0.0
 11
227.1834405875
 21
94.6159659383
 31
0.0
  0
LINE
  5
30B
330
272
100
AcDbEntity
  8
$DDT_AUDIT_GENERATED_(8A)
  6
Continuous
 62
     7
100
AcDbLine
 10
225.174571805
 20
94.6159659383
 30
0.0
 11
227.152063388
 21
94.6159659383
 31
0.0
  0
LINE
  5
30C
330
272
100
AcDbEntity
  8
$DDT_AUDIT_GENERATED_(8A)
  6
Continuous
 62
     7
100
AcDbLine
 10
177.193206624
 20
94.5855755575
 30
0.0
 11
176.4804034265
 21
94.5855755575
 31
0.0
  0
LINE
  5
30D
330
272
100
AcDbEntity
  8
$DDT_AUDIT_GENERATED_(8A)
  6
Continuous
 62
     7
100
AcDbLine
 10
177.193206624
 20
94.5855755575
 30
0.0
 11
177.193206624
 21
94.6159659383
 31
0.0
  0
LINE
  5
30E
330
272
100
AcDbEntity
  8
$DDT_AUDIT_GENERATED_(8A)
  6
Continuous
 62
     7
100
AcDbLine
 10
227.1834405875
 20
94.6159659383
 30
0.0
 11
227.1834405875
 21
94.5855755575
 31
0.0
  0
LINE
  5
30F
330
272
100
AcDbEntity
  8
$DDT_AUDIT_GENERATED_(8A)
  6
Continuous
 62
     7
100
AcDbLine
 10
181.0090986924
 20
89.2519714375
 30
0.0
 11
182.3621676441
 21
86.0002058588
 31
0.0
  0
ARC
  5
310
330
272
100
AcDbEntity
  8
$DDT_AUDIT_GENERATED_(8A)
  6
Continuous
 62
     7
100
AcDbCircle
 10
187.3605460352
 20
97.8279022908
 30
0.0
 40
10.67180740772695
100
AcDbArc
 50
197.6872889647
 51
233.47586451
  0
ARC
  5
311
330
272
100
AcDbEntity
  8
$DDT_AUDIT_GENERATED_(8A)
  6
Continuous
 62
     7
100
AcDbCircle
 10
216.6655951177
 20
98.0786693586
 30
0.0
 40
11.0827242873375
100
AcDbArc
 50
307.208736598
 51
341.6280973916
  0
ARC
  5
312
330
272
100
AcDbEntity
  8
$DDT_AUDIT_GENERATED_(8A)
  6
Continuous
 62
     7
100
AcDbCircle
 10
202.188323914
 20
122.8584376138
 30
0.0
 40
39.72347101957072
100
AcDbArc
 50
237.7803447376
 51
302.2196506092
  0
LINE
  5
313
330
272
100
AcDbEntity
  8
$DDT_AUDIT_GENERATED_(8A)
  6
Continuous
 62
     7
100
AcDbLine
 10
227.1834405875
 20
94.5855755575
 30
0.0
 11
227.1770086994
 21
94.5858722806
 31
0.0
  0
SPLINE
  5
314
330
272
100
AcDbEntity
  8
$DDT_AUDIT_GENERATED_(8A)
  6
Continuous
 62
     7
100
AcDbSpline
210
0.0
220
0.0
230
1.0
 70
     8
 71
     3
 72
    10
 73
     6
 74
     0
 42
0.0000000349010624
 43
0.0000000001
 40
0.2823147336866091
 40
0.2823147336866091
 40
0.2823147336866091
 40
0.2823147336866091
 40
0.5
 40
0.5
 40
1.0
 40
1.0
 40
1.0
 40
1.0
 10
223.1755885281729
 20
89.22794700260177
 30
0.0
 10
223.1898390520374
 20
89.2401115270941
 30
0.0
 10
223.2062808810385
 20
89.24964520325129
 30
0.0
 10
223.2661698531189
 20
89.27093481166962
 30
0.0
 10
223.3168022861955
 20
89.2694724675407
 30
0.0
 10
223.3675464063389
 20
89.25196971748947
 30
0.0
  0
SPLINE
  5
315
330
272
100
AcDbEntity
  8
$DDT_AUDIT_GENERATED_(8A)
  6
Continuous
 62
     7
100
AcDbSpline
210
0.0
220
0.0
230
1.0
 70
     8
 71
     3
 72
    10
 73
     6
 74
     0
 42
0.0000000348907071
 43
0.0000000001
 40
0.0
 40
0.0
 40
0.0
 40
0.0
 40
0.5
 40
0.5
 40
0.7151539335915285
 40
0.7151539335915285
 40
0.7151539335915285
 40
0.7151539335915285
 10
181.0090986923933
 20
89.2519714375317
 30
0.0
 10
181.0598428175986
 20
89.2694741834618
 30
0.0
 10
181.110475255726
 20
89.27093652347867
 30
0.0
 10
181.1701530006162
 20
89.24972200034716
 30
0.0
 10
181.1864234468044
 20
89.24033453969135
 30
0.0
 10
181.2005585688258
 20
89.22837200126561
 30
0.0
  0
LINE
  5
316
330
272
100
AcDbEntity
  8
$DDT_AUDIT_GENERATED_(8A)
  6
Continuous
 62
     7
100
AcDbLine
 10
177.193206624
 20
94.5855755575
 30
0.0
 11
177.1996385121
 21
94.5858722806
 31
0.0
  0
ELLIPSE
  5
317
330
272
100
AcDbEntity
  8
$DDT_AUDIT_GENERATED_(8A)
  6
Continuous
 62
     7
100
AcDbEllipse
 10
227.1812688414
 20
94.4159659383
 30
0.0
 11
1.735948122775955E-14
 21
-0.1999999999999919
 31
0.0
210
0.0
220
0.0
230
1.0
 40
0.0403776192
 41
3.141592653591163
 42
3.697292009428398
  0
ARC
  5
318
330
272
100
AcDbEntity
  8
$DDT_AUDIT_GENERATED_(8A)
  6
Continuous
 62
     7
100
AcDbCircle
 10
227.1560121305
 20
94.3034345489
 30
0.0
 40
0.2832171043362668
100
AcDbArc
 50
85.7484223726
 51
153.9901298639
  0
ARC
  5
319
330
272
100
AcDbEntity
  8
$DDT_AUDIT_GENERATED_(8A)
  6
Continuous
 62
     7
100
AcDbCircle
 10
177.220635081
 20
94.3034345489
 30
0.0
 40
0.2832171043362483
100
AcDbArc
 50
26.0098701361
 51
94.2515776274
  0
ELLIPSE
  5
31A
330
272
100
AcDbEntity
  8
$DDT_AUDIT_GENERATED_(8A)
  6
Continuous
 62
     7
100
AcDbEllipse
 10
177.19537837
 20
94.4159659383
 30
0.0
 11
0.0
 21
0.1699597422043167
 31
0.0
210
0.0
220
0.0
230
1.0
 40
1.0
 41
-0.0250682206598438
 42
0.0
  0
ARC
  5
31B
330
272
100
AcDbEntity
  8
$DDT_AUDIT_GENERATED_(8A)
  6
Continuous
 62
     7
100
AcDbCircle
 10
227.1816976045
 20
94.3133340388
 30
0.0
 40
0.3026322031668348
100
AcDbArc
 50
90.0811754961
 51
157.8098605722
  0
ARC
  5
31C
330
272
100
AcDbEntity
  8
$DDT_AUDIT_GENERATED_(8A)
  6
Continuous
 62
     7
100
AcDbCircle
 10
177.194949607
 20
94.3133340388
 30
0.0
 40
0.3026322031668391
100
AcDbArc
 50
22.1901394278
 51
89.9188245039
  0
LINE
  5
31D
330
272
100
AcDbEntity
  8
$DDT_AUDIT_GENERATED_(8A)
  6
Continuous
 62
     7
100
AcDbLine
 10
209.5186995754
 20
83.7914223528
 30
0.0
 11
209.5074291028
 21
84.4086680604
 31
0.0
  0
LINE
  5
31E
330
272
100
AcDbEntity
  8
$DDT_AUDIT_GENERATED_(8A)
  6
Continuous
 62
     7
100
AcDbLine
 10
194.8910077015
 20
83.7898253164
 30
0.0
 11
194.9012315943
 21
84.4086680804
 31
0.0
  0
ARC
  5
31F
330
272
100
AcDbEntity
  8
$DDT_AUDIT_GENERATED_(8A)
  6
Continuous
 62
     7
100
AcDbCircle
 10
1118.6547016153
 20
77.5746181196
 30
0.0
 40
911.1457199536204
100
AcDbArc
 50
179.5702487718
 51
179.6260209983
  0
LINE
  5
320
330
272
100
AcDbEntity
  8
$DDT_AUDIT_GENERATED_(8A)
  6
Continuous
 62
     7
100
AcDbLine
 10
209.4754156172
 20
84.4086680804
 30
0.0
 11
209.4856476727
 21
83.7893312325
 31
0.0
  0
ARC
  5
321
330
272
100
AcDbEntity
  8
$DDT_AUDIT_GENERATED_(8A)
  6
Continuous
 62
     7
100
AcDbCircle
 10
-714.2755396876
 20
77.5746312179
 30
0.0
 40
911.1432052190008
100
AcDbArc
 50
0.3740603433
 51
0.4297614908
  0
LINE
  5
322
330
272
100
AcDbEntity
  8
$DDT_AUDIT_GENERATED_(8A)
  6
Continuous
 62
     7
100
AcDbLine
 10
194.8692181087
 20
84.4086680604
 30
0.0
 11
194.8579421435
 21
83.7911215444
 31
0.0
  0
ARC
  5
323
330
272
100
AcDbEntity
  8
$DDT_AUDIT_GENERATED_(8A)
  6
Continuous
 62
     7
100
AcDbCircle
 10
216.5938101762
 20
60.3831259691
 30
0.0
 40
0.7999995487621158
100
AcDbArc
 50
270.0011677846
 51
327.3558440491
  0
ARC
  5
324
330
272
100
AcDbEntity
  8
$DDT_AUDIT_GENERATED_(8A)
  6
Continuous
 62
     7
100
AcDbCircle
 10
1275.3620407298
 20
-614.2141469102
 30
0.0
 40
1254.616962206955
100
AcDbArc
 50
147.4201117087
 51
147.4989150338
  0
ARC
  5
325
330
272
100
AcDbEntity
  8
$DDT_AUDIT_GENERATED_(8A)
  6
Continuous
 62
     7
100
AcDbCircle
 10
229.4609748517
 20
60.4073494178
 30
0.0
 40
12.71952489338588
100
AcDbArc
 50
160.1357607511
 51
163.0036446292
  0
ARC
  5
326
330
272
100
AcDbEntity
  8
$DDT_AUDIT_GENERATED_(8A)
  6
Continuous
 62
     7
100
AcDbCircle
 10
216.4091290598
 20
64.3362964691
 30
0.0
 40
0.912075105656849
100
AcDbArc
 50
335.1593329846
 51
346.7653428538
  0
LINE
  5
327
330
272
100
AcDbEntity
  8
$DDT_AUDIT_GENERATED_(8A)
  6
Continuous
 62
     7
100
AcDbLine
 10
218.169594796
 20
61.9252062575
 30
0.0
 11
217.1132603307
 21
63.7343519008
 31
0.0
  0
LINE
  5
328
330
272
100
AcDbEntity
  8
$DDT_AUDIT_GENERATED_(8A)
  6
Continuous
 62
     7
100
AcDbLine
 10
218.2476985033
 20
61.679526473
 30
0.0
 11
218.2381981759
 21
61.7094047153
 31
0.0
  0
ARC
  5
329
330
272
100
AcDbEntity
  8
$DDT_AUDIT_GENERATED_(8A)
  6
Continuous
 62
     7
100
AcDbCircle
 10
217.7432382724
 20
61.6383096717
 30
0.0
 40
0.5062195191443581
100
AcDbArc
 50
327.4611420412
 51
9.0641680097
  0
ARC
  5
32A
330
272
100
AcDbEntity
  8
$DDT_AUDIT_GENERATED_(8A)
  6
Continuous
 62
     7
100
AcDbCircle
 10
186.6371532617
 20
61.6390876291
 30
0.0
 40
0.5097963339166827
100
AcDbArc
 50
171.0884712597
 51
190.4653071327
  0
ARC
  5
32B
330
272
100
AcDbEntity
  8
$DDT_AUDIT_GENERATED_(8A)
  6
Continuous
 62
     7
100
AcDbCircle
 10
186.6371532617
 20
61.6390876291
 30
0.0
 40
0.5097963339166827
100
AcDbArc
 50
209.4230581686
 51
212.3862186895
  0
LINE
  5
32C
330
272
100
AcDbEntity
  8
$DDT_AUDIT_GENERATED_(8A)
  6
Continuous
 62
     7
100
AcDbLine
 10
186.1384490355
 20
61.7094047153
 30
0.0
 11
186.1289487081
 21
61.679526473
 31
0.0
  0
LINE
  5
32D
330
272
100
AcDbEntity
  8
$DDT_AUDIT_GENERATED_(8A)
  6
Continuous
 62
     7
100
AcDbLine
 10
187.2633868807
 20
63.7343519008
 30
0.0
 11
186.2070524155
 21
61.9252062575
 31
0.0
  0
ARC
  5
32E
330
272
100
AcDbEntity
  8
$DDT_AUDIT_GENERATED_(8A)
  6
Continuous
 62
     7
100
AcDbCircle
 10
187.9675181517
 20
64.3362964691
 30
0.0
 40
0.9120751056549954
100
AcDbArc
 50
193.2346571462
 51
204.8406670155
  0
ARC
  5
32F
330
272
100
AcDbEntity
  8
$DDT_AUDIT_GENERATED_(8A)
  6
Continuous
 62
     7
100
AcDbCircle
 10
174.9156723597
 20
60.4073494178
 30
0.0
 40
12.71952489338372
100
AcDbArc
 50
16.9963553708
 51
19.8642392489
  0
SPLINE
  5
330
330
272
100
AcDbEntity
  8
$DDT_AUDIT_GENERATED_(8A)
  6
Continuous
 62
     7
100
AcDbSpline
210
0.0
220
0.0
230
1.0
 70
     8
 71
     3
 72
     8
 73
     4
 74
     0
 42
0.0000000003180413
 43
0.0000000001
 40
0.0
 40
0.0
 40
0.0
 40
0.0
 40
1.0
 40
1.0
 40
1.0
 40
1.0
 10
176.2957734634133
 20
94.3373942503087
 30
0.0
 10
179.4489273591682
 20
85.53005239482926
 30
0.0
 10
182.9764663899837
 20
75.6607042659688
 30
0.0
 10
186.8783905558599
 20
64.72934986372739
 30
0.0
  0
ARC
  5
331
330
272
100
AcDbEntity
  8
$DDT_AUDIT_GENERATED_(8A)
  6
Continuous
 62
     7
100
AcDbCircle
 10
-906.5184746916
 20
-636.8903435751
 30
0.0
 40
1296.769171515813
100
AcDbArc
 50
32.5025077402
 51
32.5786396548
  0
ARC
  5
332
330
272
100
AcDbEntity
  8
$DDT_AUDIT_GENERATED_(8A)
  6
Continuous
 62
     7
100
AcDbCircle
 10
187.7828370353
 20
60.383125969
 30
0.0
 40
0.7999996228485804
100
AcDbArc
 50
212.6499008022
 51
269.9988322154
  0
SPLINE
  5
333
330
272
100
AcDbEntity
  8
$DDT_AUDIT_GENERATED_(8A)
  6
Continuous
 62
     7
100
AcDbSpline
210
0.0
220
0.0
230
1.0
 70
     8
 71
     3
 72
    45
 73
    41
 74
     0
 42
0.0000000002249946
 43
0.0000000001
 40
0.0
 40
0.0
 40
0.0
 40
0.0
 40
0.0052551938125646
 40
0.0321487453980128
 40
0.0590539837846377
 40
0.0859726242844781
 40
0.1129060451562505
 40
0.139856284806503
 40
0.1668257379714493
 40
0.1936933004005871
 40
0.2204280489642406
 40
0.2472184871152872
 40
0.2740625576853511
 40
0.3009553937068896
 40
0.3278895575173085
 40
0.3548558012931473
 40
0.3818438888810297
 40
0.4088402579348951
 40
0.4358352894616511
 40
0.462821546150582
 40
0.489794217827794
 40
0.5167145576810034
 40
0.5434539882333949
 40
0.5702269842894532
 40
0.5970721238015366
 40
0.6239802285891847
 40
0.6509390061327304
 40
0.677933728182409
 40
0.7049474385860953
 40
0.7319583310845837
 40
0.7589503174826541
 40
0.7859091613722614
 40
0.8128234469179624
 40
0.8396828261154455
 40
0.8663967523194789
 40
0.893099893218382
 40
0.9198714536477173
 40
0.9467037549403808
 40
0.9735868443808919
 40
1.0
 40
1.0
 40
1.0
 40
1.0
 10
223.1728994476067
 20
89.2318805198237
 30
0.0
 10
223.1226645336283
 20
89.18907350724528
 30
0.0
 10
222.8588974696567
 20
88.96471783068108
 30
0.0
 10
222.2700646556508
 20
88.53284868467907
 30
0.0
 10
221.454751595612
 20
87.98180514944734
 30
0.0
 10
220.5703526046645
 20
87.44939798554796
 30
0.0
 10
219.6355083314137
 20
86.9432375583
 30
0.0
 10
218.6484159558372
 20
86.4633393924602
 30
0.0
 10
217.6145714776318
 20
86.01228829918145
 30
0.0
 10
216.5386794310504
 20
85.59217548835666
 30
0.0
 10
215.4238528504719
 20
85.2038345259165
 30
0.0
 10
214.2714368968726
 20
84.84745028909337
 30
0.0
 10
213.0820996521613
 20
84.52333186452215
 30
0.0
 10
211.8593533717792
 20
84.2326206145198
 30
0.0
 10
210.6069317410167
 20
83.97637845226777
 30
0.0
 10
209.3287628706545
 20
83.75556648013463
 30
0.0
 10
208.0289770835947
 20
83.57103570254503
 30
0.0
 10
206.7118092267405
 20
83.42349963282355
 30
0.0
 10
205.3815331272576
 20
83.31352323228802
 30
0.0
 10
204.0423460535153
 20
83.24152307135115
 30
0.0
 10
202.6989826226755
 20
83.20777995655753
 30
0.0
 10
201.3582250111907
 20
83.21239544889053
 30
0.0
 10
200.0232268537642
 20
83.25512761792214
 30
0.0
 10
198.6957341698704
 20
83.33545030895223
 30
0.0
 10
197.3755224782225
 20
83.45335435627597
 30
0.0
 10
196.0661318757751
 20
83.60865032725413
 30
0.0
 10
194.7719538216121
 20
83.80096042862057
 30
0.0
 10
193.4974624208316
 20
84.0297452406409
 30
0.0
 10
192.2472203625142
 20
84.29428681362303
 30
0.0
 10
191.0257266627916
 20
84.59369849336423
 30
0.0
 10
189.8373331518241
 20
84.9269401919584
 30
0.0
 10
188.6861301647878
 20
85.29285850339235
 30
0.0
 10
187.5759791565678
 20
85.69018330132916
 30
0.0
 10
186.5116930094141
 20
86.11708032348831
 30
0.0
 10
185.4955354316236
 20
86.57231225693654
 30
0.0
 10
184.5288942453132
 20
87.05451370736567
 30
0.0
 10
183.6099429798447
 20
87.56459164791697
 30
0.0
 10
182.7483641525737
 20
88.09691179486093
 30
0.0
 10
181.92397662748
 20
88.66303808082517
 30
0.0
 10
181.4687272267662
 20
89.02084626016766
 30
0.0
 10
181.2026675324294
 20
89.23169115576285
 30
0.0
  0
ARC
  5
334
330
272
100
AcDbEntity
  8
$DDT_AUDIT_GENERATED_(8A)
  6
Continuous
 62
     7
100
AcDbCircle
 10
215.9057049796
 20
98.2630820943
 30
0.0
 40
11.57295178611472
100
AcDbArc
 50
308.7588231959
 51
315.4058994347
  0
ARC
  5
335
330
272
100
AcDbEntity
  8
$DDT_AUDIT_GENERATED_(8A)
  6
Continuous
 62
     7
100
AcDbCircle
 10
186.6107772507
 20
96.2037406111
 30
0.0
 40
8.802203355394779
100
AcDbArc
 50
224.8960341539
 51
232.294648478
  0
ELLIPSE
  5
336
330
272
100
AcDbEntity
  8
$DDT_AUDIT_GENERATED_(E6)
  6
Continuous
 62
     7
100
AcDbEllipse
 10
228.5703575882
 20
107.6981661592
 30
0.0
 11
-1.001403720129104
 21
0.001866592451576992
 31
0.0
210
0.0
220
0.0
230
0.9999999999999999
 40
0.2122606413
 41
4.214265913169798
 42
4.721170297967764
  0
LINE
  5
337
330
272
100
AcDbEntity
  8
$DDT_AUDIT_GENERATED_(E6)
  6
Continuous
 62
     7
100
AcDbLine
 10
175.8146869653
 20
107.9107329474
 30
0.0
 11
228.561960246
 21
107.9107329506
 31
0.0
  0
LINE
  5
338
330
272
100
AcDbEntity
  8
$DDT_AUDIT_GENERATED_(E6)
  6
Continuous
 62
     7
100
AcDbLine
 10
228.561960246
 20
107.9107329506
 30
0.0
 11
228.561960246
 21
107.8995962793
 31
0.0
  0
LINE
  5
339
330
272
100
AcDbEntity
  8
$DDT_AUDIT_GENERATED_(E6)
  6
Continuous
 62
     7
100
AcDbLine
 10
175.8146869653
 20
107.9107329474
 30
0.0
 11
175.8146869653
 21
107.8995962761
 31
0.0
  0
LINE
  5
33A
330
272
100
AcDbEntity
  8
$DDT_AUDIT_GENERATED_(E6)
  6
Continuous
 62
     7
100
AcDbLine
 10
281.5312080763
 20
128.761426879
 30
0.0
 11
281.3616402687
 21
122.2858935611
 31
0.0
  0
LINE
  5
33B
330
272
100
AcDbEntity
  8
$DDT_AUDIT_GENERATED_(E6)
  6
Continuous
 62
     7
100
AcDbLine
 10
280.5315507513
 20
128.761426879
 30
0.0
 11
123.8450964601
 21
128.761426879
 31
0.0
  0
LINE
  5
33C
330
272
100
AcDbEntity
  8
$DDT_AUDIT_GENERATED_(E6)
  6
Continuous
 62
     7
100
AcDbLine
 10
280.5315507513
 20
128.761426879
 30
0.0
 11
281.5312080763
 21
128.761426879
 31
0.0
  0
LINE
  5
33D
330
272
100
AcDbEntity
  8
$DDT_AUDIT_GENERATED_(E6)
  6
Continuous
 62
     7
100
AcDbLine
 10
123.8450964601
 20
128.761426879
 30
0.0
 11
124.0138474594
 21
122.3170862109
 31
0.0
  0
LINE
  5
33E
330
272
100
AcDbEntity
  8
$DDT_AUDIT_GENERATED_(E6)
  6
Continuous
 62
     7
100
AcDbLine
 10
122.8454391351
 20
128.761426879
 30
0.0
 11
123.8450964601
 21
128.761426879
 31
0.0
  0
LINE
  5
33F
330
272
100
AcDbEntity
  8
$DDT_AUDIT_GENERATED_(E6)
  6
Continuous
 62
     7
100
AcDbLine
 10
229.0491538435
 20
107.8840030024
 30
0.0
 11
280.490618149
 21
121.5458301708
 31
0.0
  0
ELLIPSE
  5
340
330
272
100
AcDbEntity
  8
$DDT_AUDIT_GENERATED_(E6)
  6
Continuous
 62
     7
100
AcDbEllipse
 10
229.0491538435
 20
108.3728663311
 30
0.0
 11
0.05826579605503962
 21
0.496593492718217
 31
0.0
210
0.0
220
0.0
230
0.9999999999999998
 40
0.4770916488
 41
3.142243103954523
 42
3.382736720817288
  0
ARC
  5
341
330
272
100
AcDbEntity
  8
$DDT_AUDIT_GENERATED_(E6)
  6
Continuous
 62
     7
100
AcDbCircle
 10
229.2300759956
 20
109.0565298052
 30
0.0
 40
1.186402936773974
100
AcDbArc
 50
261.2283767968
 51
283.1382709062
  0
LINE
  5
342
330
272
100
AcDbEntity
  8
$DDT_AUDIT_GENERATED_(E6)
  6
Continuous
 62
     7
100
AcDbLine
 10
174.8768989995
 20
107.9011815336
 30
0.0
 11
123.6098309137
 21
121.516692543
 31
0.0
  0
ELLIPSE
  5
343
330
272
100
AcDbEntity
  8
$DDT_AUDIT_GENERATED_(E6)
  6
Continuous
 62
     7
100
AcDbEllipse
 10
175.8062896231
 20
107.6981661559
 30
0.0
 11
-1.00140372013563
 21
-0.001866592581861787
 31
0.0
210
0.0
220
0.0
230
0.9999999999999999
 40
0.2122606413
 41
4.703607662773974
 42
5.210513134588346
  0
ELLIPSE
  5
344
330
272
100
AcDbEntity
  8
$DDT_AUDIT_GENERATED_(E6)
  6
Continuous
 62
     7
100
AcDbEllipse
 10
175.3274924117
 20
108.3728662156
 30
0.0
 11
-0.05826594263406637
 21
0.4965934755199325
 31
0.0
210
0.0
220
0.0
230
1.0
 40
0.4770925754
 41
2.900448445599292
 42
3.141927697095961
  0
ARC
  5
345
330
272
100
AcDbEntity
  8
$DDT_AUDIT_GENERATED_(E6)
  6
Continuous
 62
     7
100
AcDbCircle
 10
175.1465680873
 20
109.0564733502
 30
0.0
 40
1.186347587571186
100
AcDbArc
 50
256.8612275298
 51
278.7721418327
  0
LINE
  5
346
330
272
100
AcDbEntity
  8
$DDT_AUDIT_GENERATED_(E6)
  6
Continuous
 62
     7
100
AcDbLine
 10
280.7668163075
 20
121.5166929156
 30
0.0
 11
229.499747551
 21
107.9011817275
 31
0.0
  0
LINE
  5
347
330
272
100
AcDbEntity
  8
$DDT_AUDIT_GENERATED_(E6)
  6
Continuous
 62
     7
100
AcDbLine
 10
281.3616402687
 20
122.2858935611
 30
0.0
 11
281.3611965357
 21
122.2689480793
 31
0.0
  0
ARC
  5
348
330
272
100
AcDbEntity
  8
$DDT_AUDIT_GENERATED_(E6)
  6
Continuous
 62
     7
100
AcDbCircle
 10
279.3739303034
 20
114.3613808068
 30
0.0
 40
7.270715536214655
100
AcDbArc
 50
79.8326549921
 51
81.1651402624
  0
ELLIPSE
  5
349
330
272
100
AcDbEntity
  8
$DDT_AUDIT_GENERATED_(E6)
  6
Continuous
 62
     7
100
AcDbEllipse
 10
280.5887540876
 20
123.3318011026
 30
0.0
 11
-0.1416791120736894
 21
1.821326818255129
 31
0.0
210
0.0
220
0.0
230
0.9999999999999998
 40
0.3309930216
 41
3.021817289115788
 42
3.202416945986235
  0
LINE
  5
34A
330
272
100
AcDbEntity
  8
$DDT_AUDIT_GENERATED_(E6)
  6
Continuous
 62
     7
100
AcDbLine
 10
280.3627997523
 20
122.3170862208
 30
0.0
 11
280.5315507513
 21
128.761426879
 31
0.0
  0
ELLIPSE
  5
34B
330
272
100
AcDbEntity
  8
$DDT_AUDIT_GENERATED_(E6)
  6
Continuous
 62
     7
100
AcDbEllipse
 10
280.3615316833
 20
122.2948375663
 30
0.0
 11
0.9997952549883615
 21
-0.02090935059327608
 31
0.0
210
0.0
220
0.0
230
1.0
 40
0.0222700027
 41
0.8750489672150044
 42
1.569993744494002
  0
ARC
  5
34C
330
272
100
AcDbEntity
  8
$DDT_AUDIT_GENERATED_(E6)
  6
Continuous
 62
     7
100
AcDbCircle
 10
283.5582845406
 20
189.8044921244
 30
0.0
 40
67.55432183079066
100
AcDbArc
 50
267.8319940337
 51
268.1366012989
  0
LINE
  5
34D
330
272
100
AcDbEntity
  8
$DDT_AUDIT_GENERATED_(E6)
  6
Continuous
 62
     7
100
AcDbLine
 10
123.8860282563
 20
121.545830015
 30
0.0
 11
175.3274924118
 21
107.8840028869
 31
0.0
  0
ELLIPSE
  5
34E
330
272
100
AcDbEntity
  8
$DDT_AUDIT_GENERATED_(E6)
  6
Continuous
 62
     7
100
AcDbEllipse
 10
124.0151155285
 20
121.5126562305
 30
0.0
 11
-0.200072520507702
 21
0.0002871211458796307
 31
0.0
210
0.0
220
0.0
230
1.0
 40
0.2158680192
 41
4.719036858524641
 42
5.413986911888744
  0
LINE
  5
34F
330
272
100
AcDbEntity
  8
$DDT_AUDIT_GENERATED_(E6)
  6
Continuous
 62
     7
100
AcDbLine
 10
280.3627997523
 20
121.5558464535
 30
0.0
 11
124.0138474595
 21
121.5558464436
 31
0.0
  0
ELLIPSE
  5
350
330
272
100
AcDbEntity
  8
$DDT_AUDIT_GENERATED_(E6)
  6
Continuous
 62
     7
100
AcDbEllipse
 10
280.3615316833
 20
121.5126562404
 30
0.0
 11
0.2000725205083126
 21
0.0002871211723584744
 31
0.0
210
0.0
220
0.0
230
1.0
 40
0.2158680192
 41
0.8692036713479149
 42
1.564148448626966
  0
LINE
  5
351
330
272
100
AcDbEntity
  8
$DDT_AUDIT_GENERATED_(E6)
  6
Continuous
 62
     7
100
AcDbLine
 10
124.0138474594
 20
122.3170862109
 30
0.0
 11
280.3627997523
 21
122.3170862208
 31
0.0
  0
LINE
  5
352
330
272
100
AcDbEntity
  8
$DDT_AUDIT_GENERATED_(E6)
  6
Continuous
 62
     7
100
AcDbLine
 10
123.0150069473
 20
122.2858933861
 30
0.0
 11
122.8454391351
 21
128.761426879
 31
0.0
  0
SPLINE
  5
353
330
272
100
AcDbEntity
  8
$DDT_AUDIT_GENERATED_(E6)
  6
Continuous
 62
     7
100
AcDbSpline
210
0.0
220
0.0
230
1.0
 70
     8
 71
     3
 72
    10
 73
     6
 74
     0
 42
0.0000000278145837
 43
0.0000000001
 40
0.0
 40
0.0
 40
0.0
 40
0.0
 40
0.5
 40
0.5
 40
1.0
 40
1.0
 40
1.0
 40
1.0
 10
123.0150069473006
 20
122.2858933860616
 30
0.0
 10
123.0149969460625
 20
122.2862753179344
 30
0.0
 10
123.0475299184925
 20
122.2870794066752
 30
0.0
 10
123.1705307339043
 20
122.2909578928089
 30
0.0
 10
123.2611216914722
 20
122.2940670849242
 30
0.0
 10
123.3739260191149
 20
122.2985257493185
 30
0.0
  0
ELLIPSE
  5
354
330
272
100
AcDbEntity
  8
$DDT_AUDIT_GENERATED_(E6)
  6
Continuous
 62
     7
100
AcDbEllipse
 10
124.0151155284
 20
122.2948375565
 30
0.0
 11
-0.9997952549876954
 21
-0.02090935061854766
 31
0.0
210
0.0
220
0.0
230
1.0
 40
0.0222700027
 41
4.713191562685083
 42
5.408141616049434
  0
ELLIPSE
  5
355
330
272
100
AcDbEntity
  8
$DDT_AUDIT_GENERATED_(E6)
  6
Continuous
 62
     7
100
AcDbEllipse
 10
123.7878931336
 20
123.33180073
 30
0.0
 11
0.1416791120525672
 21
1.821326818241653
 31
0.0
210
0.0
220
0.0
230
0.9999999999999999
 40
0.3309930217
 41
3.080768361170657
 42
3.26136907354881
  0
ARC
  5
356
330
272
100
AcDbEntity
  8
$DDT_AUDIT_GENERATED_(E6)
  6
Continuous
 62
     7
100
AcDbCircle
 10
125.0109420343
 20
114.3123073916
 30
0.0
 40
7.320469967877235
100
AcDbArc
 50
98.8394878352
 51
100.1629050422
  0
LINE
  5
357
330
272
100
AcDbEntity
  8
$DDT_AUDIT_GENERATED_(E6)
  6
Continuous
 62
     7
100
AcDbLine
 10
123.0154506855
 20
122.2689477067
 30
0.0
 11
123.0150069473
 21
122.2858933861
 31
0.0
  0
ARC
  5
358
330
272
100
AcDbEntity
  8
$DDT_AUDIT_GENERATED_(E6)
  6
Continuous
 62
     7
100
AcDbCircle
 10
123.8151765455
 20
122.2898892654
 30
0.0
 40
0.8000000000000033
100
AcDbArc
 50
181.5
 51
255.1267232051
  0
ELLIPSE
  5
359
330
272
100
AcDbEntity
  8
$DDT_AUDIT_GENERATED_(E6)
  6
Continuous
 62
     7
100
AcDbEllipse
 10
123.8147328073
 20
122.3068349447
 30
0.0
 11
-0.7997258599804353
 21
-0.02094155864679209
 31
0.0
210
0.0
220
0.0
230
0.9999999999999999
 40
0.9931948931
 41
0.0000000000000059
 42
1.425172019133985
  0
ELLIPSE
  5
35A
330
272
100
AcDbEntity
  8
$DDT_AUDIT_GENERATED_(E6)
  6
Continuous
 62
     7
100
AcDbEllipse
 10
123.8860282562
 20
122.3280113409
 30
0.0
 11
-0.1424323411502865
 21
0.7872185390312147
 31
0.0
210
0.0
220
0.0
230
0.9999999999999999
 40
0.6383926427
 41
1.493017435130434
 42
2.865418470855509
  0
LINE
  5
35B
330
272
100
AcDbEntity
  8
$DDT_AUDIT_GENERATED_(E6)
  6
Continuous
 62
     7
100
AcDbLine
 10
124.0138474594
 20
122.3170862109
 30
0.0
 11
124.0138474595
 21
121.5558464436
 31
0.0
  0
LINE
  5
35C
330
272
100
AcDbEntity
  8
$DDT_AUDIT_GENERATED_(E6)
  6
Continuous
 62
     7
100
AcDbLine
 10
280.3627997523
 20
122.3170862208
 30
0.0
 11
280.3627997523
 21
121.5558464535
 31
0.0
  0
ELLIPSE
  5
35D
330
272
100
AcDbEntity
  8
$DDT_AUDIT_GENERATED_(E6)
  6
Continuous
 62
     7
100
AcDbEllipse
 10
280.490618149
 20
122.3280114967
 30
0.0
 11
0.1424308537308072
 21
0.7872188081502614
 31
0.0
210
0.0
220
0.0
230
1.0
 40
0.6383886932
 41
3.41776563018948
 42
4.790165959732084
  0
ELLIPSE
  5
35E
330
272
100
AcDbEntity
  8
$DDT_AUDIT_GENERATED_(E6)
  6
Continuous
 62
     7
100
AcDbEllipse
 10
280.5619144087
 20
122.3068351197
 30
0.0
 11
0.7997258599804491
 21
-0.02094155864670872
 31
0.0
210
0.0
220
0.0
230
0.9999999999999998
 40
0.9931949704
 41
4.858014114470206
 42
6.283185307179584
  0
ARC
  5
35F
330
272
100
AcDbEntity
  8
$DDT_AUDIT_GENERATED_(E6)
  6
Continuous
 62
     7
100
AcDbCircle
 10
280.5614706757
 20
122.2898896379
 30
0.0
 40
0.800000000000003
100
AcDbArc
 50
284.8732767949
 51
358.5
  0
ARC
  5
360
330
272
100
AcDbEntity
  8
$DDT_AUDIT_GENERATED_(E6)
  6
Continuous
 62
     7
100
AcDbCircle
 10
228.572825572
 20
104.1436719011
 30
0.0
 40
3.755940094090614
100
AcDbArc
 50
83.6093353415
 51
90.1657476354
  0
LINE
  5
361
330
272
100
AcDbEntity
  8
$DDT_AUDIT_GENERATED_(E6)
  6
Continuous
 62
     7
100
AcDbLine
 10
175.8146869653
 20
107.8995962761
 30
0.0
 11
228.561960246
 21
107.8995962793
 31
0.0
  0
ARC
  5
362
330
272
100
AcDbEntity
  8
$DDT_AUDIT_GENERATED_(E6)
  6
Continuous
 62
     7
100
AcDbCircle
 10
175.8030432648
 20
104.1579871985
 30
0.0
 40
3.741627194830383
100
AcDbArc
 50
89.8216989716
 51
96.4032316412
  0
ARC
  5
363
330
272
100
AcDbEntity
  8
$DDT_AUDIT_GENERATED_(E6)
  6
Continuous
 62
     7
100
AcDbCircle
 10
228.5728256346
 20
104.1436741587
 30
0.0
 40
3.755938145246318
100
AcDbArc
 50
83.6093225303
 51
90.1657489238
  0
ARC
  5
364
330
272
100
AcDbEntity
  8
$DDT_AUDIT_GENERATED_(E6)
  6
Continuous
 62
     7
100
AcDbCircle
 10
175.803043241
 20
104.1579887141
 30
0.0
 40
3.741625988058509
100
AcDbArc
 50
89.8216983022
 51
96.4032438247
  0
ARC
  5
365
330
272
100
AcDbEntity
  8
$DDT_AUDIT_GENERATED_(E6)
  6
Continuous
 62
     7
100
AcDbCircle
 10
229.1772220942
 20
109.1189898464
 30
0.0
 40
1.256265618600359
100
AcDbArc
 50
261.4942283361
 51
284.8035632532
  0
ARC
  5
366
330
272
100
AcDbEntity
  8
$DDT_AUDIT_GENERATED_(E6)
  6
Continuous
 62
     7
100
AcDbCircle
 10
175.196535484
 20
109.2090686047
 30
0.0
 40
1.346034271461913
100
AcDbArc
 50
256.2733518322
 51
278.0906265473
  0
ENDBLK
  5
368
330
272
100
AcDbEntity
  8
0
100
AcDbBlockEnd
  0
ENDSEC
  0
SECTION
  2
ENTITIES
  0
INSERT
  5
5F
330
1F
100
AcDbEntity
  8
Default
100
AcDbBlockReference
  2
SEANNOT_GROUP
 10
0.0
 20
0.0
 30
0.0
  0
INSERT
  5
66
330
1F
100
AcDbEntity
  8
Default
100
AcDbBlockReference
  2
SEANNOT_GROUP1
 10
0.0
 20
0.0
 30
0.0
  0
INSERT
  5
6B
330
1F
100
AcDbEntity
  8
Default
100
AcDbBlockReference
  2
SEANNOT_GROUP2
 10
0.0
 20
0.0
 30
0.0
  0
INSERT
  5
70
330
1F
100
AcDbEntity
  8
Default
100
AcDbBlockReference
  2
SEANNOT_GROUP3
 10
0.0
 20
0.0
 30
0.0
  0
INSERT
  5
76
330
1F
100
AcDbEntity
  8
Default
100
AcDbBlockReference
  2
SE
 10
0.0
 20
0.0
 30
0.0
  0
INSERT
  5
11A
330
1F
100
AcDbEntity
  8
Default
100
AcDbBlockReference
  2
SE1
 10
0.0
 20
0.0
 30
0.0
  0
INSERT
  5
273
330
1F
100
AcDbEntity
  8
Default
100
AcDbBlockReference
  2
SE2
 10
0.0
 20
0.0
 30
0.0
  0
TEXT
  5
36A
330
1F
100
AcDbEntity
  8
Default
  6
Continuous
 62
     7
100
AcDbText
 10
5.9362635081
 20
53.4225120485
 30
0.0
 40
10.0
  1
Grohe AG^J
  7
SEACAD_seiso_ttf
 11
5.9362635081
 21
63.4225120485
 31
0.0
100
AcDbText
 73
     3
  0
TEXT
  5
36B
330
1F
100
AcDbEntity
  8
Default
  6
Continuous
 62
     7
100
AcDbText
 10
5.9362635081
 20
37.0588756849
 30
0.0
 40
10.0
  1
 
  7
SEACAD_seiso_ttf
 11
5.9362635081
 21
47.0588756849
 31
0.0
100
AcDbText
 73
     3
  0
TEXT
  5
36C
330
1F
100
AcDbEntity
  8
Default
  6
Continuous
 62
     7
100
AcDbText
 10
5.9362635081
 20
20.6952393213
 30
0.0
 40
10.0
  1
ecn: 
  7
SEACAD_seiso_ttf
 11
5.9362635081
 21
30.6952393213
 31
0.0
100
AcDbText
 73
     3
  0
TEXT
  5
36D
330
1F
100
AcDbEntity
  8
Default
  6
Continuous
 62
     7
100
AcDbText
 10
5.9362635081
 20
4.3316029576
 30
0.0
 40
10.0
  1
unit: mm
  7
SEACAD_seiso_ttf
 11
5.9362635081
 21
14.3316029576
 31
0.0
100
AcDbText
 73
     3
  0
LINE
  5
36E
330
1F
100
AcDbEntity
  8
Default
  6
Continuous
 62
     7
100
AcDbLine
 10
0.0
 20
0.0
 30
0.0
 11
100.0
 21
0.0
 31
0.0
  0
LINE
  5
36F
330
1F
100
AcDbEntity
  8
Default
  6
Continuous
 62
     7
100
AcDbLine
 10
0.0
 20
0.0
 30
0.0
 11
0.0
 21
100.0
 31
0.0
  0
TEXT
  5
370
330
1F
100
AcDbEntity
  8
Default
  6
Continuous
 62
     7
100
AcDbText
 10
24.3923665681
 20
-18.2375342018
 30
0.0
 40
10.0
  1
100 mm
  7
SEACAD_seiso_ttf
 11
24.3923665681
 21
-8.2375342018
 31
0.0
100
AcDbText
 73
     3
  0
TEXT
  5
371
330
1F
100
AcDbEntity
  8
Default
  6
Continuous
 62
     7
100
AcDbText
 10
-7.6150308803
 20
24.6231930421
 30
0.0
 40
10.0
  1
100 mm
 50
90.0
  7
SEACAD_seiso_ttf
 11
-17.6150308803
 21
24.6231930421
 31
0.0
100
AcDbText
 73
     3
  0
TEXT
  5
372
330
1F
100
AcDbEntity
  8
Default
  6
Continuous
 62
     7
100
AcDbText
 10
28.4878128572
 20
20.0907663715
 30
0.0
 40
10.0
  1
221387
  7
SEACAD_seiso_ttf
 11
28.4878128572
 21
30.0907663715
 31
0.0
100
AcDbText
 73
     3
  0
TEXT
  5
373
330
1F
100
AcDbEntity
  8
Default
  6
Continuous
 62
     7
100
AcDbText
 10
5.9012241913
 20
36.7242780188
 30
0.0
 40
10.0
  1
19789000
  7
SEACAD_seiso_ttf
 11
5.9012241913
 21
46.7242780188
 31
0.0
100
AcDbText
 73
     3
  0
ENDSEC
  0
SECTION
  2
OBJECTS
  0
DICTIONARY
  5
C
330
0
100
AcDbDictionary
281
     1
  3
ACAD_GROUP
350
D
  3
ACAD_LAYOUT
350
1A
  3
ACAD_MLEADERSTYLE
350
377
  3
ACAD_MLINESTYLE
350
17
  3
ACAD_PLOTSETTINGS
350
19
  3
ACAD_PLOTSTYLENAME
350
E
  3
ACAD_SCALELIST
350
3B
  3
ACAD_TABLESTYLE
350
376
  3
ACAD_VISUALSTYLE
350
2A
  3
AcDbVariableDictionary
350
374
  0
DICTIONARY
  5
D
102
{ACAD_REACTORS
330
C
102
}
330
C
100
AcDbDictionary
281
     1
  0
DICTIONARY
  5
1A
102
{ACAD_REACTORS
330
C
102
}
330
C
100
AcDbDictionary
281
     1
  3
Layout1
350
1E
  3
Model
350
22
  0
DICTIONARY
  5
377
102
{ACAD_REACTORS
330
C
102
}
330
C
100
AcDbDictionary
281
     1
  0
DICTIONARY
  5
17
102
{ACAD_REACTORS
330
C
102
}
330
C
100
AcDbDictionary
281
     1
  3
Standard
350
18
  0
DICTIONARY
  5
19
102
{ACAD_REACTORS
330
C
102
}
330
C
100
AcDbDictionary
281
     1
  0
ACDBDICTIONARYWDFLT
  5
E
102
{ACAD_REACTORS
330
C
102
}
330
C
100
AcDbDictionary
281
     1
  3
Normal
350
F
100
AcDbDictionaryWithDefault
340
F
  0
DICTIONARY
  5
3B
102
{ACAD_REACTORS
330
C
102
}
330
C
100
AcDbDictionary
281
     1
  3
A0
350
3C
  3
A1
350
3D
  3
A2
350
3E
  3
A3
350
3F
  3
A4
350
40
  3
A5
350
41
  3
A6
350
42
  3
A7
350
43
  3
A8
350
44
  3
A9
350
45
  3
B0
350
46
  3
B1
350
47
  3
B2
350
48
  3
B3
350
49
  3
B4
350
4A
  3
B5
350
4B
  3
B6
350
4C
  3
B7
350
4D
  3
B8
350
4E
  3
B9
350
4F
  3
C0
350
50
  3
C1
350
51
  3
C2
350
52
  3
C3
350
53
  3
C4
350
54
  3
C5
350
55
  3
C6
350
56
  3
C7
350
57
  3
C8
350
58
  3
C9
350
59
  3
D0
350
5A
  3
D1
350
5B
  3
D2
350
5C
  0
DICTIONARY
  5
376
102
{ACAD_REACTORS
330
C
102
}
330
C
100
AcDbDictionary
281
     1
  0
DICTIONARY
  5
2A
102
{ACAD_REACTORS
330
C
102
}
330
C
100
AcDbDictionary
281
     1
  3
2dWireframe
350
2F
  3
3D Hidden
350
31
  3
3dWireframe
350
30
  3
Basic
350
32
  3
Brighten
350
36
  3
ColorChange
350
3A
  3
Conceptual
350
34
  3
Dim
350
35
  3
Facepattern
350
39
  3
Flat
350
2B
  3
FlatWithEdges
350
2C
  3
Gouraud
350
2D
  3
GouraudWithEdges
350
2E
  3
Linepattern
350
38
  3
Realistic
350
33
  3
Thicken
350
37
  0
DICTIONARY
  5
374
102
{ACAD_REACTORS
330
C
102
}
330
C
100
AcDbDictionary
281
     1
  3
CANNOSCALE
350
375
  3
PSOLHEIGHT
350
379
  3
PSOLWIDTH
350
378
  0
LAYOUT
  5
1E
102
{ACAD_REACTORS
330
1A
102
}
330
1A
100
AcDbPlotSettings
  1

  2
none_device
  4

  6

 40
0.0
 41
0.0
 42
0.0
 43
0.0
 44
0.0
 45
0.0
 46
0.0
 47
0.0
 48
0.0
 49
0.0
140
0.0
141
0.0
142
1.0
143
1.0
 70
   688
 72
     0
 73
     0
 74
     5
  7

 75
    16
147
1.0
148
0.0
149
0.0
100
AcDbLayout
  1
Layout1
 70
     1
 71
     1
 10
0.0
 20
0.0
 11
1682.0
 21
2378.0
 12
0.0
 22
0.0
 32
0.0
 14
0.0
 24
0.0
 34
0.0
 15
1682.0
 25
2378.0
 35
0.0
146
0.0
 13
0.0
 23
0.0
 33
0.0
 16
1.0
 26
0.0
 36
0.0
 17
0.0
 27
1.0
 37
0.0
 76
     0
330
1B
  0
LAYOUT
  5
22
102
{ACAD_REACTORS
330
1A
102
}
330
1A
100
AcDbPlotSettings
  1

  2
none_device
  4

  6

 40
0.0
 41
0.0
 42
0.0
 43
0.0
 44
0.0
 45
0.0
 46
0.0
 47
0.0
 48
0.0
 49
0.0
140
0.0
141
0.0
142
1.0
143
1.0
 70
  1712
 72
     0
 73
     0
 74
     0
  7

 75
     0
147
1.0
148
0.0
149
0.0
100
AcDbLayout
  1
Model
 70
     1
 71
     0
 10
0.0
 20
0.0
 11
1682.0
 21
2378.0
 12
0.0
 22
0.0
 32
0.0
 14
0.0
 24
0.0
 34
0.0
 15
1682.0
 25
2378.0
 35
0.0
146
0.0
 13
0.0
 23
0.0
 33
0.0
 16
1.0
 26
0.0
 36
0.0
 17
0.0
 27
1.0
 37
0.0
 76
     0
330
1F
331
29
  0
MLINESTYLE
  5
18
102
{ACAD_REACTORS
330
17
102
}
330
17
100
AcDbMlineStyle
  2
Standard
 70
     0
  3

 62
   256
 51
90.0
 52
90.0
 71
     2
 49
0.5
 62
   256
  6
BYLAYER
 49
-0.5
 62
   256
  6
BYLAYER
  0
ACDBPLACEHOLDER
  5
F
102
{ACAD_REACTORS
330
E
102
}
330
E
  0
SCALE
  5
3C
102
{ACAD_REACTORS
330
3B
102
}
330
3B
100
AcDbScale
 70
     0
300
1:1
140
1.0
141
1.0
290
     1
  0
SCALE
  5
3D
102
{ACAD_REACTORS
330
3B
102
}
330
3B
100
AcDbScale
 70
     0
300
1:2
140
1.0
141
2.0
290
     0
  0
SCALE
  5
3E
102
{ACAD_REACTORS
330
3B
102
}
330
3B
100
AcDbScale
 70
     0
300
1:4
140
1.0
141
4.0
290
     0
  0
SCALE
  5
3F
102
{ACAD_REACTORS
330
3B
102
}
330
3B
100
AcDbScale
 70
     0
300
1:5
140
1.0
141
5.0
290
     0
  0
SCALE
  5
40
102
{ACAD_REACTORS
330
3B
102
}
330
3B
100
AcDbScale
 70
     0
300
1:8
140
1.0
141
8.0
290
     0
  0
SCALE
  5
41
102
{ACAD_REACTORS
330
3B
102
}
330
3B
100
AcDbScale
 70
     0
300
1:10
140
1.0
141
10.0
290
     0
  0
SCALE
  5
42
102
{ACAD_REACTORS
330
3B
102
}
330
3B
100
AcDbScale
 70
     0
300
1:16
140
1.0
141
16.0
290
     0
  0
SCALE
  5
43
102
{ACAD_REACTORS
330
3B
102
}
330
3B
100
AcDbScale
 70
     0
300
1:20
140
1.0
141
20.0
290
     0
  0
SCALE
  5
44
102
{ACAD_REACTORS
330
3B
102
}
330
3B
100
AcDbScale
 70
     0
300
1:30
140
1.0
141
30.0
290
     0
  0
SCALE
  5
45
102
{ACAD_REACTORS
330
3B
102
}
330
3B
100
AcDbScale
 70
     0
300
1:40
140
1.0
141
40.0
290
     0
  0
SCALE
  5
46
102
{ACAD_REACTORS
330
3B
102
}
330
3B
100
AcDbScale
 70
     0
300
1:50
140
1.0
141
50.0
290
     0
  0
SCALE
  5
47
102
{ACAD_REACTORS
330
3B
102
}
330
3B
100
AcDbScale
 70
     0
300
1:100
140
1.0
141
100.0
290
     0
  0
SCALE
  5
48
102
{ACAD_REACTORS
330
3B
102
}
330
3B
100
AcDbScale
 70
     0
300
2:1
140
2.0
141
1.0
290
     0
  0
SCALE
  5
49
102
{ACAD_REACTORS
330
3B
102
}
330
3B
100
AcDbScale
 70
     0
300
4:1
140
4.0
141
1.0
290
     0
  0
SCALE
  5
4A
102
{ACAD_REACTORS
330
3B
102
}
330
3B
100
AcDbScale
 70
     0
300
8:1
140
8.0
141
1.0
290
     0
  0
SCALE
  5
4B
102
{ACAD_REACTORS
330
3B
102
}
330
3B
100
AcDbScale
 70
     0
300
10:1
140
10.0
141
1.0
290
     0
  0
SCALE
  5
4C
102
{ACAD_REACTORS
330
3B
102
}
330
3B
100
AcDbScale
 70
     0
300
100:1
140
100.0
141
1.0
290
     0
  0
SCALE
  5
4D
102
{ACAD_REACTORS
330
3B
102
}
330
3B
100
AcDbScale
 70
     0
300
1/128" = 1'-0"
140
0.0078125
141
12.0
290
     0
  0
SCALE
  5
4E
102
{ACAD_REACTORS
330
3B
102
}
330
3B
100
AcDbScale
 70
     0
300
1/64" = 1'-0"
140
0.015625
141
12.0
290
     0
  0
SCALE
  5
4F
102
{ACAD_REACTORS
330
3B
102
}
330
3B
100
AcDbScale
 70
     0
300
1/32" = 1'-0"
140
0.03125
141
12.0
290
     0
  0
SCALE
  5
50
102
{ACAD_REACTORS
330
3B
102
}
330
3B
100
AcDbScale
 70
     0
300
1/16" = 1'-0"
140
0.0625
141
12.0
290
     0
  0
SCALE
  5
51
102
{ACAD_REACTORS
330
3B
102
}
330
3B
100
AcDbScale
 70
     0
300
3/32" = 1'-0"
140
0.09375
141
12.0
290
     0
  0
SCALE
  5
52
102
{ACAD_REACTORS
330
3B
102
}
330
3B
100
AcDbScale
 70
     0
300
1/8" = 1'-0"
140
0.125
141
12.0
290
     0
  0
SCALE
  5
53
102
{ACAD_REACTORS
330
3B
102
}
330
3B
100
AcDbScale
 70
     0
300
3/16" = 1'-0"
140
0.1875
141
12.0
290
     0
  0
SCALE
  5
54
102
{ACAD_REACTORS
330
3B
102
}
330
3B
100
AcDbScale
 70
     0
300
1/4" = 1'-0"
140
0.25
141
12.0
290
     0
  0
SCALE
  5
55
102
{ACAD_REACTORS
330
3B
102
}
330
3B
100
AcDbScale
 70
     0
300
3/8" = 1'-0"
140
0.375
141
12.0
290
     0
  0
SCALE
  5
56
102
{ACAD_REACTORS
330
3B
102
}
330
3B
100
AcDbScale
 70
     0
300
1/2" = 1'-0"
140
0.5
141
12.0
290
     0
  0
SCALE
  5
57
102
{ACAD_REACTORS
330
3B
102
}
330
3B
100
AcDbScale
 70
     0
300
3/4" = 1'-0"
140
0.75
141
12.0
290
     0
  0
SCALE
  5
58
102
{ACAD_REACTORS
330
3B
102
}
330
3B
100
AcDbScale
 70
     0
300
1" = 1'-0"
140
1.0
141
12.0
290
     0
  0
SCALE
  5
59
102
{ACAD_REACTORS
330
3B
102
}
330
3B
100
AcDbScale
 70
     0
300
1-1/2" = 1'-0"
140
1.5
141
12.0
290
     0
  0
SCALE
  5
5A
102
{ACAD_REACTORS
330
3B
102
}
330
3B
100
AcDbScale
 70
     0
300
3" = 1'-0"
140
3.0
141
12.0
290
     0
  0
SCALE
  5
5B
102
{ACAD_REACTORS
330
3B
102
}
330
3B
100
AcDbScale
 70
     0
300
6" = 1'-0"
140
6.0
141
12.0
290
     0
  0
SCALE
  5
5C
102
{ACAD_REACTORS
330
3B
102
}
330
3B
100
AcDbScale
 70
     0
300
1'-0" = 1'-0"
140
12.0
141
12.0
290
     0
  0
VISUALSTYLE
  5
2F
102
{ACAD_REACTORS
330
2A
102
}
330
2A
100
AcDbVisualStyle
  2
2dWireframe
 70
     4
 71
     0
 72
     2
 73
     0
 90
        0
 40
-0.6
 41
-30.0
 62
     5
 63
     7
 74
     1
 91
        4
 64
     7
 65
   257
 75
     1
175
     1
 42
1.0
 92
        0
 66
   257
 43
1.0
 76
     1
 77
     6
 78
     2
 67
     7
 79
     5
170
     0
171
     0
290
     0
174
     0
 93
        1
 44
0.0
173
     0
291
     0
 45
0.0
1001
ACAD
1000
AcDbSavedByObjectVersion
1070
     0
  0
VISUALSTYLE
  5
31
102
{ACAD_REACTORS
330
2A
102
}
330
2A
100
AcDbVisualStyle
  2
3D Hidden
 70
     6
 71
     1
 72
     2
 73
     2
 90
        0
 40
-0.6
 41
-30.0
 62
     5
 63
     7
 74
     2
 91
        2
 64
     7
 65
   257
 75
     2
175
     1
 42
40.0
 92
        0
 66
   257
 43
1.0
 76
     1
 77
     6
 78
     2
 67
     7
 79
     3
170
     0
171
     0
290
     0
174
     0
 93
        1
 44
0.0
173
     0
291
     0
 45
0.0
1001
ACAD
1000
AcDbSavedByObjectVersion
1070
     0
  0
VISUALSTYLE
  5
30
102
{ACAD_REACTORS
330
2A
102
}
330
2A
100
AcDbVisualStyle
  2
3dWireframe
 70
     5
 71
     0
 72
     2
 73
     0
 90
        0
 40
-0.6
 41
-30.0
 62
     5
 63
     7
 74
     1
 91
        4
 64
     7
 65
   257
 75
     1
175
     1
 42
1.0
 92
        0
 66
   257
 43
1.0
 76
     1
 77
     6
 78
     2
 67
     7
 79
     5
170
     0
171
     0
290
     0
174
     0
 93
        1
 44
0.0
173
     0
291
     0
 45
0.0
1001
ACAD
1000
AcDbSavedByObjectVersion
1070
     0
  0
VISUALSTYLE
  5
32
102
{ACAD_REACTORS
330
2A
102
}
330
2A
100
AcDbVisualStyle
  2
Basic
 70
     7
 71
     1
 72
     0
 73
     1
 90
        0
 40
-0.6
 41
-30.0
 62
     5
 63
     7
 74
     0
 91
        4
 64
     7
 65
   257
 75
     1
175
     1
 42
1.0
 92
        8
 66
     7
 43
1.0
 76
     1
 77
     6
 78
     2
 67
     7
 79
     5
170
     0
171
     0
290
     0
174
     0
 93
        1
 44
0.0
173
     0
291
     1
 45
0.0
1001
ACAD
1000
AcDbSavedByObjectVersion
1070
     0
  0
VISUALSTYLE
  5
36
102
{ACAD_REACTORS
330
2A
102
}
330
2A
100
AcDbVisualStyle
  2
Brighten
 70
    12
 71
     2
 72
     2
 73
     0
 90
        0
 40
-0.6
 41
-30.0
 62
     5
 63
     7
 74
     1
 91
        4
 64
     7
 65
   257
 75
     1
175
     1
 42
1.0
 92
        8
 66
     7
 43
1.0
 76
     1
 77
     6
 78
     2
 67
     7
 79
     5
170
     0
171
     0
290
     0
174
     0
 93
        1
 44
50.0
173
     0
291
     1
 45
0.0
1001
ACAD
1000
AcDbSavedByObjectVersion
1070
     0
  0
VISUALSTYLE
  5
3A
102
{ACAD_REACTORS
330
2A
102
}
330
2A
100
AcDbVisualStyle
  2
ColorChange
 70
    16
 71
     2
 72
     2
 73
     3
 90
        0
 40
-0.6
 41
-30.0
 62
     5
 63
     8
 74
     1
 91
        4
 64
     7
 65
   257
 75
     1
175
     1
 42
1.0
 92
        8
 66
     8
 43
1.0
 76
     1
 77
     6
 78
     2
 67
     7
 79
     5
170
     0
171
     0
290
     0
174
     0
 93
        1
 44
0.0
173
     0
291
     1
 45
0.0
1001
ACAD
1000
AcDbSavedByObjectVersion
1070
     0
  0
VISUALSTYLE
  5
34
102
{ACAD_REACTORS
330
2A
102
}
330
2A
100
AcDbVisualStyle
  2
Conceptual
 70
     9
 71
     3
 72
     2
 73
     0
 90
        0
 40
-0.6
 41
-30.0
 62
     5
 63
     7
 74
     2
 91
        2
 64
     7
 65
   257
 75
     1
175
     1
 42
40.0
 92
        8
 66
     7
 43
1.0
 76
     1
 77
     6
 78
     2
 67
     7
 79
     3
170
     0
171
     0
290
     0
174
     0
 93
        1
 44
0.0
173
     0
291
     0
 45
0.0
1001
ACAD
1000
AcDbSavedByObjectVersion
1070
     0
  0
VISUALSTYLE
  5
35
102
{ACAD_REACTORS
330
2A
102
}
330
2A
100
AcDbVisualStyle
  2
Dim
 70
    11
 71
     2
 72
     2
 73
     0
 90
        0
 40
-0.6
 41
-30.0
 62
     5
 63
     7
 74
     1
 91
        4
 64
     7
 65
   257
 75
     1
175
     1
 42
1.0
 92
        8
 66
     7
 43
1.0
 76
     1
 77
     6
 78
     2
 67
     7
 79
     5
170
     0
171
     0
290
     0
174
     0
 93
        1
 44
-50.0
173
     0
291
     1
 45
0.0
1001
ACAD
1000
AcDbSavedByObjectVersion
1070
     0
  0
VISUALSTYLE
  5
39
102
{ACAD_REACTORS
330
2A
102
}
330
2A
100
AcDbVisualStyle
  2
Facepattern
 70
    15
 71
     2
 72
     2
 73
     0
 90
        0
 40
-0.6
 41
-30.0
 62
     5
 63
     7
 74
     1
 91
        4
 64
     7
 65
   257
 75
     1
175
     1
 42
1.0
 92
        8
 66
     7
 43
1.0
 76
     1
 77
     6
 78
     2
 67
     7
 79
     5
170
     0
171
     0
290
     0
174
     0
 93
        1
 44
0.0
173
     0
291
     1
 45
0.0
1001
ACAD
1000
AcDbSavedByObjectVersion
1070
     0
  0
VISUALSTYLE
  5
2B
102
{ACAD_REACTORS
330
2A
102
}
330
2A
100
AcDbVisualStyle
  2
Flat
 70
     0
 71
     2
 72
     1
 73
     1
 90
        2
 40
-0.6
 41
30.0
 62
     5
 63
     7
 74
     0
 91
        4
 64
     7
 65
   257
 75
     1
175
     1
 42
1.0
 92
        8
 66
     7
 43
1.0
 76
     1
 77
     6
 78
     2
 67
     7
 79
     5
170
     0
171
     0
290
     0
174
     0
 93
       13
 44
0.0
173
     0
291
     1
 45
0.0
1001
ACAD
1000
AcDbSavedByObjectVersion
1070
     0
  0
VISUALSTYLE
  5
2C
102
{ACAD_REACTORS
330
2A
102
}
330
2A
100
AcDbVisualStyle
  2
FlatWithEdges
 70
     1
 71
     2
 72
     1
 73
     1
 90
        2
 40
-0.6
 41
30.0
 62
     5
 63
     7
 74
     1
 91
        4
 64
     7
 65
   257
 75
     1
175
     1
 42
1.0
 92
        0
 66
   257
 43
1.0
 76
     1
 77
     6
 78
     2
 67
     7
 79
     5
170
     0
171
     0
290
     0
174
     0
 93
       13
 44
0.0
173
     0
291
     1
 45
0.0
1001
ACAD
1000
AcDbSavedByObjectVersion
1070
     0
  0
VISUALSTYLE
  5
2D
102
{ACAD_REACTORS
330
2A
102
}
330
2A
100
AcDbVisualStyle
  2
Gouraud
 70
     2
 71
     2
 72
     2
 73
     1
 90
        2
 40
-0.6
 41
30.0
 62
     5
 63
     7
 74
     0
 91
        4
 64
     7
 65
   257
 75
     1
175
     1
 42
1.0
 92
        0
 66
     7
 43
1.0
 76
     1
 77
     6
 78
     2
 67
     7
 79
     5
170
     0
171
     0
290
     0
174
     0
 93
       13
 44
0.0
173
     0
291
     1
 45
0.0
1001
ACAD
1000
AcDbSavedByObjectVersion
1070
     0
  0
VISUALSTYLE
  5
2E
102
{ACAD_REACTORS
330
2A
102
}
330
2A
100
AcDbVisualStyle
  2
GouraudWithEdges
 70
     3
 71
     2
 72
     2
 73
     1
 90
        2
 40
-0.6
 41
30.0
 62
     5
 63
     7
 74
     1
 91
        4
 64
     7
 65
   257
 75
     1
175
     1
 42
1.0
 92
        0
 66
   257
 43
1.0
 76
     1
 77
     6
 78
     2
 67
     7
 79
     5
170
     0
171
     0
290
     0
174
     0
 93
       13
 44
0.0
173
     0
291
     1
 45
0.0
1001
ACAD
1000
AcDbSavedByObjectVersion
1070
     0
  0
VISUALSTYLE
  5
38
102
{ACAD_REACTORS
330
2A
102
}
330
2A
100
AcDbVisualStyle
  2
Linepattern
 70
    14
 71
     2
 72
     2
 73
     0
 90
        0
 40
-0.6
 41
-30.0
 62
     5
 63
     7
 74
     1
 91
        4
 64
     7
 65
   257
 75
     7
175
     7
 42
1.0
 92
        8
 66
     7
 43
1.0
 76
     1
 77
     6
 78
     2
 67
     7
 79
     5
170
     0
171
     0
290
     0
174
     0
 93
        1
 44
0.0
173
     0
291
     1
 45
0.0
1001
ACAD
1000
AcDbSavedByObjectVersion
1070
     0
  0
VISUALSTYLE
  5
33
102
{ACAD_REACTORS
330
2A
102
}
330
2A
100
AcDbVisualStyle
  2
Realistic
 70
     8
 71
     2
 72
     2
 73
     0
 90
        0
 40
-0.6
 41
-30.0
 62
     5
 63
     7
 74
     1
 91
        0
 64
     7
 65
   257
 75
     1
175
     1
 42
1.0
 92
        8
 66
     8
 43
1.0
 76
     1
 77
     6
 78
     2
 67
     7
 79
     5
170
     0
171
     0
290
     0
174
     0
 93
       13
 44
0.0
173
     0
291
     0
 45
0.0
1001
ACAD
1000
AcDbSavedByObjectVersion
1070
     0
  0
VISUALSTYLE
  5
37
102
{ACAD_REACTORS
330
2A
102
}
330
2A
100
AcDbVisualStyle
  2
Thicken
 70
    13
 71
     2
 72
     2
 73
     0
 90
        0
 40
-0.6
 41
-30.0
 62
     5
 63
     7
 74
     1
 91
        4
 64
     7
 65
   257
 75
     1
175
     1
 42
1.0
 92
       12
 66
     7
 43
1.0
 76
     1
 77
     6
 78
     2
 67
     7
 79
     5
170
     0
171
     0
290
     0
174
     0
 93
        1
 44
0.0
173
     0
291
     1
 45
0.0
1001
ACAD
1000
AcDbSavedByObjectVersion
1070
     0
  0
DICTIONARYVAR
  5
375
102
{ACAD_REACTORS
330
374
102
}
330
374
100
DictionaryVariables
280
     0
  1
1:1
  0
DICTIONARYVAR
  5
379
102
{ACAD_REACTORS
330
374
102
}
330
374
100
DictionaryVariables
280
     0
  1
80.000000
  0
DICTIONARYVAR
  5
378
102
{ACAD_REACTORS
330
374
102
}
330
374
100
DictionaryVariables
280
     0
  1
5.000000
  0
ENDSEC
  0
EOF
