  0
SECTION
  2
HEADER
  9
$ACADVER
  1
AC1015
  9
$ACADMAINTVER
 70
     6
  9
$DWGCODEPAGE
  3
ANSI_1252
  9
$INSBASE
 10
0.0
 20
0.0
 30
0.0
  9
$EXTMIN
 10
0.0
 20
0.0
 30
0.0
  9
$EXTMAX
 10
1682.0
 20
2378.0
 30
0.0
  9
$LIMMIN
 10
0.0
 20
0.0
  9
$LIMMAX
 10
1682.0
 20
2378.0
  9
$ORTHOMODE
 70
     0
  9
$REGENMODE
 70
     1
  9
$FILLMODE
 70
     1
  9
$QTEXTMODE
 70
     0
  9
$MIRRTEXT
 70
     1
  9
$LTSCALE
 40
1.0
  9
$ATTMODE
 70
     1
  9
$TEXTSIZE
 40
2.5
  9
$TRACEWID
 40
1.0
  9
$TEXTSTYLE
  7
Standard
  9
$CLAYER
  8
0
  9
$CELTYPE
  6
ByLayer
  9
$CECOLOR
 62
   256
  9
$CELTSCALE
 40
1.0
  9
$DISPSILH
 70
     0
  9
$DIMSCALE
 40
1.0
  9
$DIMASZ
 40
2.5
  9
$DIMEXO
 40
0.625
  9
$DIMDLI
 40
3.75
  9
$DIMRND
 40
0.0
  9
$DIMDLE
 40
0.0
  9
$DIMEXE
 40
1.25
  9
$DIMTP
 40
0.0
  9
$DIMTM
 40
0.0
  9
$DIMTXT
 40
2.5
  9
$DIMCEN
 40
2.5
  9
$DIMTSZ
 40
0.0
  9
$DIMTOL
 70
     0
  9
$DIMLIM
 70
     0
  9
$DIMTIH
 70
     0
  9
$DIMTOH
 70
     0
  9
$DIMSE1
 70
     0
  9
$DIMSE2
 70
     0
  9
$DIMTAD
 70
     1
  9
$DIMZIN
 70
     8
  9
$DIMBLK
  1

  9
$DIMASO
 70
     1
  9
$DIMSHO
 70
     1
  9
$DIMPOST
  1

  9
$DIMAPOST
  1

  9
$DIMALT
 70
     0
  9
$DIMALTD
 70
     3
  9
$DIMALTF
 40
0.0393700787
  9
$DIMLFAC
 40
1.0
  9
$DIMTOFL
 70
     1
  9
$DIMTVP
 40
0.0
  9
$DIMTIX
 70
     0
  9
$DIMSOXD
 70
     0
  9
$DIMSAH
 70
     0
  9
$DIMBLK1
  1

  9
$DIMBLK2
  1

  9
$DIMSTYLE
  2
ISO-25
  9
$DIMCLRD
 70
     0
  9
$DIMCLRE
 70
     0
  9
$DIMCLRT
 70
     0
  9
$DIMTFAC
 40
1.0
  9
$DIMGAP
 40
0.625
  9
$DIMJUST
 70
     0
  9
$DIMSD1
 70
     0
  9
$DIMSD2
 70
     0
  9
$DIMTOLJ
 70
     0
  9
$DIMTZIN
 70
     8
  9
$DIMALTZ
 70
     0
  9
$DIMALTTZ
 70
     0
  9
$DIMUPT
 70
     0
  9
$DIMDEC
 70
     2
  9
$DIMTDEC
 70
     2
  9
$DIMALTU
 70
     2
  9
$DIMALTTD
 70
     3
  9
$DIMTXSTY
  7
Standard
  9
$DIMAUNIT
 70
     0
  9
$DIMADEC
 70
     0
  9
$DIMALTRND
 40
0.0
  9
$DIMAZIN
 70
     0
  9
$DIMDSEP
 70
    44
  9
$DIMATFIT
 70
     3
  9
$DIMFRAC
 70
     0
  9
$DIMLDRBLK
  1

  9
$DIMLUNIT
 70
     2
  9
$DIMLWD
 70
    -2
  9
$DIMLWE
 70
    -2
  9
$DIMTMOVE
 70
     0
  9
$LUNITS
 70
     2
  9
$LUPREC
 70
     4
  9
$SKETCHINC
 40
1.0
  9
$FILLETRAD
 40
10.0
  9
$AUNITS
 70
     0
  9
$AUPREC
 70
     0
  9
$MENU
  1
.
  9
$ELEVATION
 40
0.0
  9
$PELEVATION
 40
0.0
  9
$THICKNESS
 40
0.0
  9
$LIMCHECK
 70
     0
  9
$CHAMFERA
 40
10.0
  9
$CHAMFERB
 40
10.0
  9
$CHAMFERC
 40
20.0
  9
$CHAMFERD
 40
0.0
  9
$SKPOLY
 70
     0
  9
$TDCREATE
 40
2455660.413193727
  9
$TDUCREATE
 40
2455660.329860393
  9
$TDUPDATE
 40
2455660.413193739
  9
$TDUUPDATE
 40
2455660.329860405
  9
$TDINDWG
 40
0.0000000116
  9
$TDUSRTIMER
 40
0.0000000116
  9
$USRTIMER
 70
     1
  9
$ANGBASE
 50
0.0
  9
$ANGDIR
 70
     0
  9
$PDMODE
 70
     0
  9
$PDSIZE
 40
0.0
  9
$PLINEWID
 40
0.0
  9
$SPLFRAME
 70
     0
  9
$SPLINETYPE
 70
     6
  9
$SPLINESEGS
 70
     8
  9
$HANDSEED
  5
21F
  9
$SURFTAB1
 70
     6
  9
$SURFTAB2
 70
     6
  9
$SURFTYPE
 70
     6
  9
$SURFU
 70
     6
  9
$SURFV
 70
     6
  9
$UCSBASE
  2

  9
$UCSNAME
  2

  9
$UCSORG
 10
0.0
 20
0.0
 30
0.0
  9
$UCSXDIR
 10
1.0
 20
0.0
 30
0.0
  9
$UCSYDIR
 10
0.0
 20
1.0
 30
0.0
  9
$UCSORTHOREF
  2

  9
$UCSORTHOVIEW
 70
     0
  9
$UCSORGTOP
 10
0.0
 20
0.0
 30
0.0
  9
$UCSORGBOTTOM
 10
0.0
 20
0.0
 30
0.0
  9
$UCSORGLEFT
 10
0.0
 20
0.0
 30
0.0
  9
$UCSORGRIGHT
 10
0.0
 20
0.0
 30
0.0
  9
$UCSORGFRONT
 10
0.0
 20
0.0
 30
0.0
  9
$UCSORGBACK
 10
0.0
 20
0.0
 30
0.0
  9
$PUCSBASE
  2

  9
$PUCSNAME
  2

  9
$PUCSORG
 10
0.0
 20
0.0
 30
0.0
  9
$PUCSXDIR
 10
1.0
 20
0.0
 30
0.0
  9
$PUCSYDIR
 10
0.0
 20
1.0
 30
0.0
  9
$PUCSORTHOREF
  2

  9
$PUCSORTHOVIEW
 70
     0
  9
$PUCSORGTOP
 10
0.0
 20
0.0
 30
0.0
  9
$PUCSORGBOTTOM
 10
0.0
 20
0.0
 30
0.0
  9
$PUCSORGLEFT
 10
0.0
 20
0.0
 30
0.0
  9
$PUCSORGRIGHT
 10
0.0
 20
0.0
 30
0.0
  9
$PUCSORGFRONT
 10
0.0
 20
0.0
 30
0.0
  9
$PUCSORGBACK
 10
0.0
 20
0.0
 30
0.0
  9
$USERI1
 70
     0
  9
$USERI2
 70
     0
  9
$USERI3
 70
     0
  9
$USERI4
 70
     0
  9
$USERI5
 70
     0
  9
$USERR1
 40
0.0
  9
$USERR2
 40
0.0
  9
$USERR3
 40
0.0
  9
$USERR4
 40
0.0
  9
$USERR5
 40
0.0
  9
$WORLDVIEW
 70
     1
  9
$SHADEDGE
 70
     3
  9
$SHADEDIF
 70
    70
  9
$TILEMODE
 70
     1
  9
$MAXACTVP
 70
    64
  9
$PINSBASE
 10
0.0
 20
0.0
 30
0.0
  9
$PLIMCHECK
 70
     0
  9
$PEXTMIN
 10
0.0
 20
0.0
 30
0.0
  9
$PEXTMAX
 10
1682.0
 20
2378.0
 30
0.0
  9
$PLIMMIN
 10
0.0
 20
0.0
  9
$PLIMMAX
 10
1682.0
 20
2378.0
  9
$UNITMODE
 70
     0
  9
$VISRETAIN
 70
     1
  9
$PLINEGEN
 70
     0
  9
$PSLTSCALE
 70
     1
  9
$TREEDEPTH
 70
  3020
  9
$CMLSTYLE
  2
Standard
  9
$CMLJUST
 70
     0
  9
$CMLSCALE
 40
20.0
  9
$PROXYGRAPHICS
 70
     1
  9
$MEASUREMENT
 70
     1
  9
$CELWEIGHT
370
    -1
  9
$ENDCAPS
280
     0
  9
$JOINSTYLE
280
     0
  9
$LWDISPLAY
290
     0
  9
$INSUNITS
 70
     4
  9
$HYPERLINKBASE
  1

  9
$STYLESHEET
  1

  9
$XEDIT
290
     1
  9
$CEPSNTYPE
380
     0
  9
$PSTYLEMODE
290
     1
  9
$FINGERPRINTGUID
  2
{0BF0300C-13AB-4A20-9435-5DB6F93CEA26}
  9
$VERSIONGUID
  2
{FAEB1C32-E019-11D5-929B-00C0DF256EC4}
  9
$EXTNAMES
290
     1
  9
$PSVPSCALE
 40
0.0
  9
$OLESTARTUP
290
     0
  0
ENDSEC
  0
SECTION
  2
CLASSES
  0
CLASS
  1
ACDBDICTIONARYWDFLT
  2
AcDbDictionaryWithDefault
  3
ObjectDBX Classes
 90
        0
280
     0
281
     0
  0
CLASS
  1
VISUALSTYLE
  2
AcDbVisualStyle
  3
ObjectDBX Classes
 90
     4095
280
     0
281
     0
  0
CLASS
  1
SCALE
  2
AcDbScale
  3
ObjectDBX Classes
 90
     1153
280
     0
281
     0
  0
CLASS
  1
DICTIONARYVAR
  2
AcDbDictionaryVar
  3
ObjectDBX Classes
 90
        0
280
     0
281
     0
  0
CLASS
  1
ACDBPLACEHOLDER
  2
AcDbPlaceHolder
  3
ObjectDBX Classes
 90
        0
280
     0
281
     0
  0
CLASS
  1
LAYOUT
  2
AcDbLayout
  3
ObjectDBX Classes
 90
        0
280
     0
281
     0
  0
ENDSEC
  0
SECTION
  2
TABLES
  0
TABLE
  2
VPORT
  5
8
330
0
100
AcDbSymbolTable
 70
     1
  0
VPORT
  5
29
330
8
100
AcDbSymbolTableRecord
100
AcDbViewportTableRecord
  2
*Active
 70
     0
 10
0.0
 20
0.0
 11
1.0
 21
1.0
 12
344.1869158879
 22
148.5
 13
0.0
 23
0.0
 14
10.0
 24
10.0
 15
10.0
 25
10.0
 16
0.0
 26
0.0
 36
1.0
 17
0.0
 27
0.0
 37
0.0
 40
297.0
 41
1.9729729729
 42
50.0
 43
0.0
 44
0.0
 50
0.0
 51
0.0
 71
     0
 72
   100
 73
     1
 74
     3
 75
     0
 76
     0
 77
     0
 78
     0
281
     0
 65
     1
110
0.0
120
0.0
130
0.0
111
1.0
121
0.0
131
0.0
112
0.0
122
1.0
132
0.0
 79
     0
146
0.0
  0
ENDTAB
  0
TABLE
  2
LTYPE
  5
5
330
0
100
AcDbSymbolTable
 70
     2
  0
LTYPE
  5
14
330
5
100
AcDbSymbolTableRecord
100
AcDbLinetypeTableRecord
  2
ByBlock
 70
     0
  3

 72
    65
 73
     0
 40
0.0
  0
LTYPE
  5
15
330
5
100
AcDbSymbolTableRecord
100
AcDbLinetypeTableRecord
  2
ByLayer
 70
     0
  3

 72
    65
 73
     0
 40
0.0
  0
LTYPE
  5
16
330
5
100
AcDbSymbolTableRecord
100
AcDbLinetypeTableRecord
  2
Continuous
 70
     0
  3
Solid line
 72
    65
 73
     0
 40
0.0
  0
LTYPE
  5
60
330
5
100
AcDbSymbolTableRecord
100
AcDbLinetypeTableRecord
  2
CENTER2
 70
     0
  3
Center (.5x) ___ _ ___ _ ___ _ ___ _ ___ _ ___
 72
    65
 73
     4
 40
28.575
 49
19.05
 74
     4
 75
     0
340
0
 46
0.0
 50
0.0
 44
0.0
 45
0.0
 49
-3.175
 74
     4
 75
     0
340
0
 46
0.0
 50
0.0
 44
0.0
 45
0.0
 49
3.175
 74
     4
 75
     0
340
0
 46
0.0
 50
0.0
 44
0.0
 45
0.0
 49
-3.175
 74
     4
 75
     0
340
0
 46
0.0
 50
0.0
 44
0.0
 45
0.0
  0
ENDTAB
  0
TABLE
  2
LAYER
  5
2
330
0
100
AcDbSymbolTable
 70
     9
  0
LAYER
  5
10
330
2
100
AcDbSymbolTableRecord
100
AcDbLayerTableRecord
  2
0
 70
     0
 62
     7
  6
Continuous
370
    -3
390
F
  0
LAYER
  5
5D
330
2
100
AcDbSymbolTableRecord
100
AcDbLayerTableRecord
  2
Default
 70
     0
 62
     7
  6
Continuous
370
    -3
390
F
  0
LAYER
  5
77
330
2
100
AcDbSymbolTableRecord
100
AcDbLayerTableRecord
  2
$DDT_AUDIT_GENERATED_(77)
 70
     0
 62
     7
  6
Continuous
370
    -3
390
F
  0
LAYER
  5
92
330
2
100
AcDbSymbolTableRecord
100
AcDbLayerTableRecord
  2
$DDT_AUDIT_GENERATED_(92)
 70
     0
 62
     7
  6
Continuous
370
    -3
390
F
  0
LAYER
  5
97
330
2
100
AcDbSymbolTableRecord
100
AcDbLayerTableRecord
  2
$DDT_AUDIT_GENERATED_(97)
 70
     0
 62
     7
  6
Continuous
370
    -3
390
F
  0
LAYER
  5
C2
330
2
100
AcDbSymbolTableRecord
100
AcDbLayerTableRecord
  2
02636038_GEHÄUSE
 70
     0
 62
     7
  6
Continuous
370
    -3
390
F
  0
LAYER
  5
D8
330
2
100
AcDbSymbolTableRecord
100
AcDbLayerTableRecord
  2
$DDT_AUDIT_GENERATED_(D8)
 70
     0
 62
     7
  6
Continuous
370
    -3
390
F
  0
LAYER
  5
157
330
2
100
AcDbSymbolTableRecord
100
AcDbLayerTableRecord
  2
$DDT_AUDIT_GENERATED_(157)
 70
     0
 62
     7
  6
Continuous
370
    -3
390
F
  0
LAYER
  5
1C2
330
2
100
AcDbSymbolTableRecord
100
AcDbLayerTableRecord
  2
$DDT_AUDIT_GENERATED_(1C2)
 70
     0
 62
     7
  6
Continuous
370
    -3
390
F
  0
ENDTAB
  0
TABLE
  2
STYLE
  5
3
330
0
100
AcDbSymbolTable
 70
     2
  0
STYLE
  5
11
330
3
100
AcDbSymbolTableRecord
100
AcDbTextStyleTableRecord
  2
Standard
 70
     0
 40
0.0
 41
1.0
 50
0.0
 71
     0
 42
2.5
  3
txt
  4

  0
STYLE
  5
20E
330
3
100
AcDbSymbolTableRecord
100
AcDbTextStyleTableRecord
  2
SEACAD_seiso_ttf
 70
     0
 40
0.0
 41
1.0
 50
0.0
 71
     0
 42
0.2
  3
seiso.ttf
  4

  0
ENDTAB
  0
TABLE
  2
VIEW
  5
6
330
0
100
AcDbSymbolTable
 70
     0
  0
ENDTAB
  0
TABLE
  2
UCS
  5
7
330
0
100
AcDbSymbolTable
 70
     0
  0
ENDTAB
  0
TABLE
  2
APPID
  5
9
330
0
100
AcDbSymbolTable
 70
     1
  0
APPID
  5
12
330
9
100
AcDbSymbolTableRecord
100
AcDbRegAppTableRecord
  2
ACAD
 70
     0
  0
ENDTAB
  0
TABLE
  2
DIMSTYLE
  5
A
330
0
100
AcDbSymbolTable
 70
     1
100
AcDbDimStyleTable
  0
DIMSTYLE
105
27
330
A
100
AcDbSymbolTableRecord
100
AcDbDimStyleTableRecord
  2
ISO-25
 70
     0
 41
2.5
 42
0.625
 43
3.75
 44
1.25
 73
     0
 74
     0
 77
     1
 78
     8
140
2.5
141
2.5
143
0.0393700787
147
0.625
171
     3
172
     1
271
     2
272
     2
274
     3
278
    44
283
     0
284
     8
340
11
  0
ENDTAB
  0
TABLE
  2
BLOCK_RECORD
  5
1
330
0
100
AcDbSymbolTable
 70
     7
  0
BLOCK_RECORD
  5
1F
330
1
100
AcDbSymbolTableRecord
100
AcDbBlockTableRecord
  2
*Model_Space
340
22
  0
BLOCK_RECORD
  5
1B
330
1
100
AcDbSymbolTableRecord
100
AcDbBlockTableRecord
  2
*Paper_Space
340
1E
  0
BLOCK_RECORD
  5
5E
330
1
100
AcDbSymbolTableRecord
100
AcDbBlockTableRecord
  2
SEANNOT_GROUP
340
0
102
{BLKREFS
331
5F
102
}
  0
BLOCK_RECORD
  5
65
330
1
100
AcDbSymbolTableRecord
100
AcDbBlockTableRecord
  2
SEANNOT_GROUP1
340
0
102
{BLKREFS
331
66
102
}
  0
BLOCK_RECORD
  5
6B
330
1
100
AcDbSymbolTableRecord
100
AcDbBlockTableRecord
  2
SEANNOT_GROUP2
340
0
102
{BLKREFS
331
6C
102
}
  0
BLOCK_RECORD
  5
75
330
1
100
AcDbSymbolTableRecord
100
AcDbBlockTableRecord
  2
SE
340
0
102
{BLKREFS
331
76
102
}
  0
BLOCK_RECORD
  5
15D
330
1
100
AcDbSymbolTableRecord
100
AcDbBlockTableRecord
  2
SE1
340
0
102
{BLKREFS
331
15E
102
}
  0
BLOCK_RECORD
  5
1CF
330
1
100
AcDbSymbolTableRecord
100
AcDbBlockTableRecord
  2
SE2
340
0
102
{BLKREFS
331
1D0
102
}
  0
ENDTAB
  0
ENDSEC
  0
SECTION
  2
BLOCKS
  0
BLOCK
  5
20
330
1F
100
AcDbEntity
  8
0
100
AcDbBlockBegin
  2
*Model_Space
 70
     0
 10
0.0
 20
0.0
 30
0.0
  3
*Model_Space
  1

  0
ENDBLK
  5
21
330
1F
100
AcDbEntity
  8
0
100
AcDbBlockEnd
  0
BLOCK
  5
1C
330
1B
100
AcDbEntity
 67
     1
  8
0
100
AcDbBlockBegin
  2
*Paper_Space
 70
     0
 10
0.0
 20
0.0
 30
0.0
  3
*Paper_Space
  1

  0
ENDBLK
  5
1D
330
1B
100
AcDbEntity
 67
     1
  8
0
100
AcDbBlockEnd
  0
BLOCK
  5
63
330
5E
100
AcDbEntity
  8
0
100
AcDbBlockBegin
  2
SEANNOT_GROUP
 70
     0
 10
0.0
 20
0.0
 30
0.0
  3
SEANNOT_GROUP
  1

  0
LINE
  5
61
330
5E
100
AcDbEntity
  8
Default
  6
CENTER2
 62
     7
100
AcDbLine
 10
51.3500025126
 20
328.7777671274
 30
0.0
 11
11.3500034067
 21
328.7777671274
 31
0.0
  0
LINE
  5
62
330
5E
100
AcDbEntity
  8
Default
  6
CENTER2
 62
     7
100
AcDbLine
 10
31.3500029596
 20
348.7777666804
 30
0.0
 11
31.3500029596
 21
308.7777675744
 31
0.0
  0
ENDBLK
  5
64
330
5E
100
AcDbEntity
  8
0
100
AcDbBlockEnd
  0
BLOCK
  5
69
330
65
100
AcDbEntity
  8
0
100
AcDbBlockBegin
  2
SEANNOT_GROUP1
 70
     0
 10
0.0
 20
0.0
 30
0.0
  3
SEANNOT_GROUP1
  1

  0
LINE
  5
67
330
65
100
AcDbEntity
  8
Default
  6
CENTER2
 62
     7
100
AcDbLine
 10
265.4658798396
 20
328.7777671274
 30
0.0
 11
225.4658807337
 21
328.7777671274
 31
0.0
  0
LINE
  5
68
330
65
100
AcDbEntity
  8
Default
  6
CENTER2
 62
     7
100
AcDbLine
 10
245.4658802866
 20
348.7777666804
 30
0.0
 11
245.4658802866
 21
308.7777675744
 31
0.0
  0
ENDBLK
  5
6A
330
65
100
AcDbEntity
  8
0
100
AcDbBlockEnd
  0
BLOCK
  5
73
330
6B
100
AcDbEntity
  8
0
100
AcDbBlockBegin
  2
SEANNOT_GROUP2
 70
     0
 10
0.0
 20
0.0
 30
0.0
  3
SEANNOT_GROUP2
  1

  0
LINE
  5
6D
330
6B
100
AcDbEntity
  8
Default
  6
CENTER2
 62
     7
100
AcDbLine
 10
31.3500029596
 20
220.5967141726
 30
0.0
 11
31.3500029596
 21
260.5967132786
 31
0.0
  0
LINE
  5
6E
330
6B
100
AcDbEntity
  8
Default
  6
CENTER2
 62
     7
100
AcDbLine
 10
51.3500025126
 20
240.5967137256
 30
0.0
 11
11.3500034067
 21
240.5967137256
 31
0.0
  0
LINE
  5
6F
330
6B
100
AcDbEntity
  8
Default
  6
CENTER2
 62
     7
100
AcDbLine
 10
31.3500029596
 20
215.5967142844
 30
0.0
 11
31.3500029596
 21
211.9134570457
 31
0.0
  0
LINE
  5
70
330
6B
100
AcDbEntity
  8
Default
  6
CENTER2
 62
     7
100
AcDbLine
 10
56.3500024008
 20
240.5967137256
 30
0.0
 11
59.8500029596
 21
240.5967137256
 31
0.0
  0
LINE
  5
71
330
6B
100
AcDbEntity
  8
Default
  6
CENTER2
 62
     7
100
AcDbLine
 10
31.3500029596
 20
265.5967131668
 30
0.0
 11
31.3500029596
 21
269.2799704055
 31
0.0
  0
LINE
  5
72
330
6B
100
AcDbEntity
  8
Default
  6
CENTER2
 62
     7
100
AcDbLine
 10
6.3500035184
 20
240.5967137256
 30
0.0
 11
2.8500029596
 21
240.5967137256
 31
0.0
  0
ENDBLK
  5
74
330
6B
100
AcDbEntity
  8
0
100
AcDbBlockEnd
  0
BLOCK
  5
15B
330
75
100
AcDbEntity
  8
0
100
AcDbBlockBegin
  2
SE
 70
     0
 10
0.0
 20
0.0
 30
0.0
  3
SE
  1

  0
ARC
  5
78
330
75
100
AcDbEntity
  8
$DDT_AUDIT_GENERATED_(77)
  6
Continuous
 62
     7
100
AcDbCircle
 10
31.3500229042
 20
441.9152764461
 30
0.0
 40
17.0267308840828
100
AcDbArc
 50
220.9373943547
 51
319.0621588771
  0
SPLINE
  5
79
330
75
100
AcDbEntity
  8
$DDT_AUDIT_GENERATED_(77)
  6
Continuous
 62
     7
100
AcDbSpline
210
0.0
220
0.0
230
1.0
 70
     8
 71
     3
 72
    26
 73
    22
 74
     0
 42
0.0000000006440585
 43
0.0000000001
 40
0.0
 40
0.0
 40
0.0
 40
0.0
 40
0.0312500000000002
 40
0.0312500000000002
 40
0.0625000000000005
 40
0.0625000000000005
 40
0.1250000000000006
 40
0.1250000000000006
 40
0.1875000000000007
 40
0.1875000000000007
 40
0.2500000000000009
 40
0.2500000000000009
 40
0.5000000000000008
 40
0.5000000000000008
 40
0.7500000000000006
 40
0.7500000000000006
 40
0.8750000000000004
 40
0.8750000000000004
 40
0.9375000000000002
 40
0.9375000000000002
 40
1.0
 40
1.0
 40
1.0
 40
1.0
 10
44.15004690427791
 20
431.2225006429101
 30
0.0
 10
44.96883093815932
 20
431.2994810928242
 30
0.0
 10
45.6537900064516
 20
431.3811455396989
 30
0.0
 10
46.80712167068754
 20
431.5472074074094
 30
0.0
 10
47.28373563384515
 20
431.6296907768358
 30
0.0
 10
48.40667358425911
 20
431.882439232585
 30
0.0
 10
48.74636597878644
 20
432.0502072299271
 30
0.0
 10
49.17510173171475
 20
432.3970771086209
 30
0.0
 10
49.30514623685422
 20
432.5743377282982
 30
0.0
 10
49.66490351225646
 20
432.9328951587839
 30
0.0
 10
49.840185462426
 20
433.1121903882959
 30
0.0
 10
50.7162511143803
 20
434.0136567500837
 30
0.0
 10
51.41711981995709
 20
434.7365897011497
 30
0.0
 10
52.8120776970256
 20
436.1858316243763
 30
0.0
 10
53.50781184286297
 20
436.9121082708228
 30
0.0
 10
54.54995678676668
 20
438.0033132053621
 30
0.0
 10
54.89708090234905
 20
438.367368760706
 30
0.0
 10
55.41749044399003
 20
438.9138414634316
 30
0.0
 10
55.59091026539234
 20
439.0960729285985
 30
0.0
 10
55.93766787433592
 20
439.4606975605006
 30
0.0
 10
56.11214010089203
 20
439.6442096991789
 30
0.0
 10
56.28423992992011
 20
439.8252862124332
 30
0.0
  0
ARC
  5
7A
330
75
100
AcDbEntity
  8
$DDT_AUDIT_GENERATED_(77)
  6
Continuous
 62
     7
100
AcDbCircle
 10
31.3494198669
 20
613.7275540918
 30
0.0
 40
182.9534109737824
100
AcDbArc
 50
265.9881237326
 51
274.0120684943
  0
SPLINE
  5
7B
330
75
100
AcDbEntity
  8
$DDT_AUDIT_GENERATED_(77)
  6
Continuous
 62
     7
100
AcDbSpline
210
0.0
220
0.0
230
1.0
 70
     8
 71
     3
 72
    18
 73
    14
 74
     0
 42
0.0000000006440055
 43
0.0000000001
 40
0.0
 40
0.0
 40
0.0
 40
0.0
 40
0.4999999999999998
 40
0.4999999999999998
 40
0.7499999999999997
 40
0.7499999999999997
 40
0.8124999999999998
 40
0.8124999999999998
 40
0.8749999999999998
 40
0.8749999999999998
 40
0.9374999999999999
 40
0.9374999999999999
 40
1.0
 40
1.0
 40
1.0
 40
1.0
 10
6.41576678154912
 20
439.8252849079212
 30
0.0
 10
7.801579631213501
 20
438.3661430553029
 30
0.0
 10
9.189275569083797
 20
436.9115903382936
 30
0.0
 10
11.28086033253811
 20
434.7388401775291
 30
0.0
 10
11.98123737276387
 20
434.0160878560139
 30
0.0
 10
12.85712472414299
 20
433.1151261657684
 30
0.0
 10
13.03212704442067
 20
432.9359131180868
 30
0.0
 10
13.39195374550106
 20
432.5775205089283
 30
0.0
 10
13.52243969135462
 20
432.4008383780347
 30
0.0
 10
13.9485773156483
 20
432.0530512357735
 30
0.0
 10
14.29115881095307
 20
431.8833488954655
 30
0.0
 10
15.78475939639678
 20
431.5470900873279
 30
0.0
 10
16.91626267705482
 20
431.3719868320818
 30
0.0
 10
18.54940513231616
 20
431.2224576979517
 30
0.0
  0
ARC
  5
7C
330
75
100
AcDbEntity
  8
$DDT_AUDIT_GENERATED_(77)
  6
Continuous
 62
     7
100
AcDbCircle
 10
43.5699867155
 20
430.9084609214
 30
0.0
 40
0.6596141063929847
100
AcDbArc
 50
346.8754636761
 51
28.4307427819
  0
ARC
  5
7D
330
75
100
AcDbEntity
  8
$DDT_AUDIT_GENERATED_(77)
  6
Continuous
 62
     7
100
AcDbCircle
 10
19.1289498542
 20
430.9092347707
 30
0.0
 40
0.6587721053311963
100
AcDbArc
 50
151.6103845639
 51
193.2017757989
  0
ELLIPSE
  5
7E
330
75
100
AcDbEntity
  8
$DDT_AUDIT_GENERATED_(77)
  6
Continuous
 62
     7
100
AcDbEllipse
 10
31.3500029596
 20
451.8445709574
 30
0.0
 11
24.49999999999996
 21
-1.387778780781446E-14
 31
0.0
210
0.0
220
0.0
230
1.0
 40
0.1218693913
 41
-0.0948219397294956
 42
0.299728693133565
  0
ELLIPSE
  5
7F
330
75
100
AcDbEntity
  8
$DDT_AUDIT_GENERATED_(77)
  6
Continuous
 62
     7
100
AcDbEllipse
 10
31.3500029596
 20
451.8445709574
 30
0.0
 11
24.49999999999996
 21
-1.387778780781446E-14
 31
0.0
210
0.0
220
0.0
230
1.0
 40
0.1218693913
 41
2.841864892285578
 42
3.235494702038475
  0
SPLINE
  5
80
330
75
100
AcDbEntity
  8
$DDT_AUDIT_GENERATED_(77)
  6
Continuous
 62
     7
100
AcDbSpline
210
0.0
220
0.0
230
1.0
 70
     8
 71
     3
 72
    18
 73
    14
 74
     0
 42
0.0000000002363084
 43
0.0000000001
 40
0.0
 40
0.0
 40
0.0
 40
0.0
 40
0.2499999999999999
 40
0.2499999999999999
 40
0.375
 40
0.375
 40
0.40625
 40
0.40625
 40
0.4375
 40
0.4375
 40
0.4531249999999999
 40
0.4531249999999999
 40
0.454452202125289
 40
0.454452202125289
 40
0.454452202125289
 40
0.454452202125289
 10
6.958061157929782
 20
451.5646114663149
 30
0.0
 10
8.805060872634316
 20
449.1729156822528
 30
0.0
 10
10.64861454962071
 20
446.7811804596258
 30
0.0
 10
13.40590801618236
 20
443.1934856519391
 30
0.0
 10
14.32454145906174
 20
441.9975821003028
 30
0.0
 10
15.46845798025259
 20
440.5026527960889
 30
0.0
 10
15.65280958549604
 20
440.2026213116201
 30
0.0
 10
16.31196710737911
 20
439.6094005355838
 30
0.0
 10
16.78785545402714
 20
439.3162373448485
 30
0.0
 10
18.41778751585562
 20
438.8980767621061
 30
0.0
 10
19.12151605729954
 20
438.7682390177546
 30
0.0
 10
20.04329840700488
 20
438.6452018287982
 30
0.0
 10
20.11638741951612
 20
438.6356524318375
 30
0.0
 10
20.19037327994958
 20
438.6261892526997
 30
0.0
  0
SPLINE
  5
81
330
75
100
AcDbEntity
  8
$DDT_AUDIT_GENERATED_(77)
  6
Continuous
 62
     7
100
AcDbSpline
210
0.0
220
0.0
230
1.0
 70
     8
 71
     3
 72
    16
 73
    12
 74
     0
 42
0.0000000000453874
 43
0.0000000001
 40
0.454452202125289
 40
0.454452202125289
 40
0.454452202125289
 40
0.454452202125289
 40
0.4687499999999999
 40
0.4687499999999999
 40
0.4999999999999999
 40
0.4999999999999999
 40
0.5312499999999999
 40
0.5312499999999999
 40
0.546875
 40
0.546875
 40
0.5532566248907383
 40
0.5532566248907383
 40
0.5532566248907383
 40
0.5532566248907383
 10
20.19037327994958
 20
438.6261892526997
 30
0.0
 10
20.98741455791907
 20
438.5242434978016
 30
0.0
 10
21.88853959666407
 20
438.4323037595603
 30
0.0
 10
24.99100912881292
 20
438.1829614455835
 30
0.0
 10
27.46528269904321
 20
438.0777733365913
 30
0.0
 10
32.53746377420459
 20
438.0244752207657
 30
0.0
 10
35.12449528152855
 20
438.0745748190432
 30
0.0
 10
38.63516981853621
 20
438.2594564234697
 30
0.0
 10
39.73499875385433
 20
438.3381059174635
 30
0.0
 10
41.14257427017788
 20
438.4701255362004
 30
0.0
 10
41.53888464537028
 20
438.5109653445397
 30
0.0
 10
41.91692820740857
 20
438.5541592786258
 30
0.0
  0
SPLINE
  5
82
330
75
100
AcDbEntity
  8
$DDT_AUDIT_GENERATED_(77)
  6
Continuous
 62
     7
100
AcDbSpline
210
0.0
220
0.0
230
1.0
 70
     8
 71
     3
 72
    18
 73
    14
 74
     0
 42
0.0000000002254346
 43
0.0000000001
 40
0.5532566248907383
 40
0.5532566248907383
 40
0.5532566248907383
 40
0.5532566248907383
 40
0.5625
 40
0.5625
 40
0.578125
 40
0.578125
 40
0.59375
 40
0.59375
 40
0.625
 40
0.625
 40
0.75
 40
0.75
 40
1.0
 40
1.0
 40
1.0
 40
1.0
 10
41.91692820740857
 20
438.5541592786258
 30
0.0
 10
42.46450010506631
 20
438.6167229269191
 30
0.0
 10
42.97374883534605
 20
438.6842254528519
 30
0.0
 10
44.18840984913168
 20
438.8774722157408
 30
0.0
 10
44.79284737147115
 20
439.0150920287176
 30
0.0
 10
45.71741580300419
 20
439.301864923875
 30
0.0
 10
46.04551265204083
 20
439.4497422632415
 30
0.0
 10
46.80373063077175
 20
439.900940324744
 30
0.0
 10
47.00894984882618
 20
440.2099443444074
 30
0.0
 10
48.1773737465363
 20
441.7441226511108
 30
0.0
 10
49.12353383743567
 20
442.9713310839162
 30
0.0
 10
51.95252373219073
 20
446.6530687357039
 30
0.0
 10
53.84431319339972
 20
449.1074941941273
 30
0.0
 10
55.7398080171695
 20
451.5618772422554
 30
0.0
  0
ELLIPSE
  5
83
330
75
100
AcDbEntity
  8
$DDT_AUDIT_GENERATED_(77)
  6
Continuous
 62
     7
100
AcDbEllipse
 10
31.3500029596
 20
451.3482978846
 30
0.0
 11
24.99999999999995
 21
-1.387778780781446E-14
 31
0.0
210
0.0
220
0.0
230
1.0
 40
0.1218693913
 41
3.141592653589816
 42
3.235494702038491
  0
ELLIPSE
  5
84
330
75
100
AcDbEntity
  8
$DDT_AUDIT_GENERATED_(77)
  6
Continuous
 62
     7
100
AcDbEllipse
 10
31.3500029596
 20
451.3482978846
 30
0.0
 11
24.99999999999995
 21
-1.387778780781446E-14
 31
0.0
210
0.0
220
0.0
230
1.0
 40
0.1218693913
 41
-0.0948025917936339
 42
-0.000000000000014
  0
SPLINE
  5
85
330
75
100
AcDbEntity
  8
$DDT_AUDIT_GENERATED_(77)
  6
Continuous
 62
     7
100
AcDbSpline
210
0.0
220
0.0
230
1.0
 70
     8
 71
     3
 72
    36
 73
    32
 74
     0
 42
0.0000000001627678
 43
0.0000000001
 40
0.0
 40
0.0
 40
0.0
 40
0.0
 40
0.2499999999999984
 40
0.2499999999999984
 40
0.3749999999999976
 40
0.3749999999999976
 40
0.4062499999999974
 40
0.4062499999999974
 40
0.4374999999999972
 40
0.4374999999999972
 40
0.4531249999999971
 40
0.4531249999999971
 40
0.4687499999999969
 40
0.4687499999999969
 40
0.4999999999999968
 40
0.4999999999999968
 40
0.5312499999999967
 40
0.5312499999999967
 40
0.5468749999999967
 40
0.5468749999999967
 40
0.5624999999999968
 40
0.5624999999999968
 40
0.5781249999999969
 40
0.5781249999999969
 40
0.5937499999999971
 40
0.5937499999999971
 40
0.6249999999999973
 40
0.6249999999999973
 40
0.7499999999999982
 40
0.7499999999999982
 40
1.0
 40
1.0
 40
1.0
 40
1.0
 10
56.23760803119706
 20
451.0597769688251
 30
0.0
 10
54.36643876534382
 20
448.6566122066361
 30
0.0
 10
52.49798836574102
 20
446.2579981371194
 30
0.0
 10
49.69737753420962
 20
442.6729963094787
 30
0.0
 10
48.76345080519486
 20
441.4774578764279
 30
0.0
 10
47.59698687683144
 20
439.9932566371999
 30
0.0
 10
47.41075862248844
 20
439.6986292922639
 30
0.0
 10
46.58077721694944
 20
439.1482658744528
 30
0.0
 10
45.91841355841379
 20
438.8809235505598
 30
0.0
 10
43.97204947973044
 20
438.5533502257666
 30
0.0
 10
43.14404043000686
 20
438.4511607484209
 30
0.0
 10
41.28563258324636
 20
438.2620096872857
 30
0.0
 10
40.27419864747976
 20
438.1797111278716
 30
0.0
 10
36.98111564424539
 20
437.9736158876171
 30
0.0
 10
34.46222196001616
 20
437.8921409960371
 30
0.0
 10
29.38430948812951
 20
437.8717614768772
 30
0.0
 10
26.83303233551839
 20
437.9313644839656
 30
0.0
 10
23.38830325805571
 20
438.1131772449061
 30
0.0
 10
22.30859703156906
 20
438.1883359790685
 30
0.0
 10
20.33676914208182
 20
438.3643702788441
 30
0.0
 10
19.44592686428122
 20
438.462250805953
 30
0.0
 10
17.96650808143869
 20
438.6699898761684
 30
0.0
 10
17.37462126364193
 20
438.7868137697706
 30
0.0
 10
16.47703619201564
 20
439.0341378443005
 30
0.0
 10
16.15354614193273
 20
439.166458901229
 30
0.0
 10
15.40316018250958
 20
439.5773201510847
 30
0.0
 10
15.19882426845692
 20
439.8703519959458
 30
0.0
 10
14.02222180138511
 20
441.3722293336792
 30
0.0
 10
13.07501352691388
 20
442.5802321674124
 30
0.0
 10
10.24286987766456
 20
446.205834116157
 30
0.0
 10
8.352724081330615
 20
448.6319490749167
 30
0.0
 10
6.46026349357702
 20
451.0625074844806
 30
0.0
  0
SPLINE
  5
86
330
75
100
AcDbEntity
  8
$DDT_AUDIT_GENERATED_(77)
  6
Continuous
 62
     7
100
AcDbSpline
210
0.0
220
0.0
230
1.0
 70
     8
 71
     3
 72
    16
 73
    12
 74
     0
 42
0.0000000001326749
 43
0.0000000001
 40
0.0
 40
0.0
 40
0.0
 40
0.0
 40
0.0312499999999998
 40
0.0312499999999998
 40
0.0624999999999997
 40
0.0624999999999997
 40
0.1249999999999997
 40
0.1249999999999997
 40
0.2499999999999996
 40
0.2499999999999996
 40
0.3749173986658084
 40
0.3749173986658084
 40
0.3749173986658084
 40
0.3749173986658084
 10
6.41576678154912
 20
439.8252849079212
 30
0.0
 10
6.469734314984238
 20
439.1046035678791
 30
0.0
 10
6.549626108443979
 20
438.3569312654628
 30
0.0
 10
6.758770882421286
 20
436.9051941342875
 30
0.0
 10
6.888475872343119
 20
436.1833125002433
 30
0.0
 10
7.352237216959711
 20
434.0316393971316
 30
0.0
 10
7.761348044049661
 20
432.6162146021311
 30
0.0
 10
9.307501410924859
 20
428.4284932416424
 30
0.0
 10
10.7816746785452
 20
425.6875196829162
 30
0.0
 10
14.72341828021435
 20
420.7021600942438
 30
0.0
 10
17.22730966834957
 20
418.4016266510677
 30
0.0
 10
20.34945563075666
 20
416.6557468088707
 30
0.0
  0
SPLINE
  5
87
330
75
100
AcDbEntity
  8
$DDT_AUDIT_GENERATED_(77)
  6
Continuous
 62
     7
100
AcDbSpline
210
0.0
220
0.0
230
1.0
 70
     8
 71
     3
 72
    20
 73
    16
 74
     0
 42
0.0000000001328618
 43
0.0000000001
 40
0.6257814333360023
 40
0.6257814333360023
 40
0.6257814333360023
 40
0.6257814333360023
 40
0.6874999999999993
 40
0.6874999999999993
 40
0.7499999999999994
 40
0.7499999999999994
 40
0.8124999999999996
 40
0.8124999999999996
 40
0.8749999999999997
 40
0.8749999999999997
 40
0.9374999999999998
 40
0.9374999999999998
 40
0.9687499999999998
 40
0.9687499999999998
 40
0.9999919255234154
 40
0.9999919255234154
 40
0.9999919255234154
 40
0.9999919255234154
 10
42.36135822832122
 20
416.6618431122735
 30
0.0
 10
43.90159167050008
 20
417.5241840696754
 30
0.0
 10
45.30915851570936
 20
418.5384223668045
 30
0.0
 10
47.81394448899714
 20
420.7239076335197
 30
0.0
 10
48.92535086422627
 20
421.9067007187026
 30
0.0
 10
50.90865451430811
 20
424.4059143805972
 30
0.0
 10
51.77586266545535
 20
425.7224797290957
 30
0.0
 10
53.25990227232106
 20
428.3987665472608
 30
0.0
 10
53.88349485887306
 20
429.7681700373789
 30
0.0
 10
54.92256770622267
 20
432.5629166644065
 30
0.0
 10
55.33713815910677
 20
433.9876165280293
 30
0.0
 10
55.80822961260839
 20
436.1646993122968
 30
0.0
 10
55.93927107156475
 20
436.8935156223014
 30
0.0
 10
56.15003022551088
 20
438.3554161924613
 30
0.0
 10
56.23055773633668
 20
439.0973446309723
 30
0.0
 10
56.28419834505721
 20
439.8247222430528
 30
0.0
  0
SPLINE
  5
88
330
75
100
AcDbEntity
  8
$DDT_AUDIT_GENERATED_(77)
  6
Continuous
 62
     7
100
AcDbSpline
210
0.0
220
0.0
230
1.0
 70
     8
 71
     3
 72
    40
 73
    36
 74
     0
 42
0.0000000001153287
 43
0.0000000001
 40
0.0
 40
0.0
 40
0.0
 40
0.0
 40
0.03125
 40
0.03125
 40
0.0625
 40
0.0625
 40
0.1250000000000001
 40
0.1250000000000001
 40
0.1875000000000002
 40
0.1875000000000002
 40
0.2500000000000003
 40
0.2500000000000003
 40
0.3750000000000005
 40
0.3750000000000005
 40
0.4375000000000005
 40
0.4375000000000005
 40
0.5000000000000004
 40
0.5000000000000004
 40
0.5625000000000003
 40
0.5625000000000003
 40
0.6250000000000002
 40
0.6250000000000002
 40
0.6875000000000002
 40
0.6875000000000002
 40
0.7500000000000001
 40
0.7500000000000001
 40
0.8125
 40
0.8125
 40
0.8749999999999999
 40
0.8749999999999999
 40
0.9374999999999999
 40
0.9374999999999999
 40
0.96875
 40
0.96875
 40
1.0
 40
1.0
 40
1.0
 40
1.0
 10
56.28423992992011
 20
439.8252862124332
 30
0.0
 10
56.23819453629398
 20
438.9940703631283
 30
0.0
 10
56.16603884446052
 20
438.1439518610214
 30
0.0
 10
55.97371880333457
 20
436.4749849777447
 30
0.0
 10
55.85295989731862
 20
435.6449884711336
 30
0.0
 10
55.41625920547003
 20
433.1683137459402
 30
0.0
 10
55.02643311754117
 20
431.5350231984778
 30
0.0
 10
54.03318801008724
 20
428.3081513780032
 30
0.0
 10
53.43047824462595
 20
426.7138658512047
 30
0.0
 10
51.9740873752129
 20
423.5721590833546
 30
0.0
 10
51.12122633574808
 20
422.0293004209153
 30
0.0
 10
48.18419838811071
 20
417.6281370375789
 30
0.0
 10
45.67105676456716
 20
414.8976772773889
 30
0.0
 10
40.92790821065138
 20
411.7828073221595
 30
0.0
 10
39.1654724477237
 20
410.9070263610132
 30
0.0
 10
35.41883506540126
 20
409.6996677403422
 30
0.0
 10
33.40217558638431
 20
409.3619386379347
 30
0.0
 10
29.33646244252312
 20
409.3574490563842
 30
0.0
 10
27.36724400388088
 20
409.6784597103007
 30
0.0
 10
23.57350788550222
 20
410.8879393920215
 30
0.0
 10
21.83462553651687
 20
411.7472461075893
 30
0.0
 10
18.64037136122384
 20
413.834011105312
 30
0.0
 10
17.23310032652798
 20
415.0273509051672
 30
0.0
 10
14.69653985980869
 20
417.6331546799404
 30
0.0
 10
13.56715910625877
 20
419.0550111423433
 30
0.0
 10
11.60736809387566
 20
421.9814613478431
 30
0.0
 10
10.76493861277553
 20
423.4981251150738
 30
0.0
 10
9.308392104700983
 20
426.620532495087
 30
0.0
 10
8.691984441787113
 20
428.2338335794608
 30
0.0
 10
7.682920266279939
 20
431.4980824240155
 30
0.0
 10
7.288669811929307
 20
433.1445265573757
 30
0.0
 10
6.848555270982882
 20
435.6351262916647
 30
0.0
 10
6.726995104286246
 20
436.4680300662678
 30
0.0
 10
6.533986962998783
 20
438.1419411587455
 30
0.0
 10
6.462193917018189
 20
438.9977971576696
 30
0.0
 10
6.41576678154912
 20
439.8252849079212
 30
0.0
  0
SPLINE
  5
89
330
75
100
AcDbEntity
  8
$DDT_AUDIT_GENERATED_(77)
  6
Continuous
 62
     7
100
AcDbSpline
210
0.0
220
0.0
230
1.0
 70
     8
 71
     3
 72
    26
 73
    22
 74
     0
 42
0.0000000002070183
 43
0.0000000001
 40
0.0
 40
0.0
 40
0.0
 40
0.0
 40
0.0625
 40
0.0625
 40
0.125
 40
0.125
 40
0.1875000000000001
 40
0.1875000000000001
 40
0.2500000000000001
 40
0.2500000000000001
 40
0.2812500000000001
 40
0.2812500000000001
 40
0.3125000000000001
 40
0.3125000000000001
 40
0.3749999999999999
 40
0.3749999999999999
 40
0.4374999999999999
 40
0.4374999999999999
 40
0.4999999999999999
 40
0.4999999999999999
 40
0.5456463585011041
 40
0.5456463585011041
 40
0.5456463585011041
 40
0.5456463585011041
 10
43.59999999999999
 20
423.9112152807269
 30
0.0
 10
43.59999999999999
 20
424.1491682042887
 30
0.0
 10
43.26913429609756
 20
424.0716777081291
 30
0.0
 10
42.09065380186294
 20
423.7013910953852
 30
0.0
 10
41.23558683980877
 20
423.4181998381089
 30
0.0
 10
39.09286058168495
 20
422.9084300620405
 30
0.0
 10
37.76841336575946
 20
422.6732609891866
 30
0.0
 10
34.83828992859276
 20
422.3501906901885
 30
0.0
 10
33.18765283889935
 20
422.2586101517471
 30
0.0
 10
30.7165790945569
 20
422.2491298798934
 30
0.0
 10
29.87727232395668
 20
422.2672316972722
 30
0.0
 10
28.26469749310138
 20
422.3426507027766
 30
0.0
 10
27.47936248729296
 20
422.4004638409448
 30
0.0
 10
25.20848012769832
 20
422.6310298603396
 30
0.0
 10
23.86821277771166
 20
422.8577276779835
 30
0.0
 10
21.65121900962602
 20
423.3649495581458
 30
0.0
 10
20.76474604777504
 20
423.6502946486347
 30
0.0
 10
19.5223018561853
 20
424.0452653818222
 30
0.0
 10
19.14838628381791
 20
424.1506427809056
 30
0.0
 10
19.07227454277327
 20
423.8113211607625
 30
0.0
 10
19.22464180356888
 20
423.4909263130391
 30
0.0
 10
19.54199055797373
 20
423.0536146047712
 30
0.0
  0
SPLINE
  5
8A
330
75
100
AcDbEntity
  8
$DDT_AUDIT_GENERATED_(77)
  6
Continuous
 62
     7
100
AcDbSpline
210
0.0
220
0.0
230
1.0
 70
     8
 71
     3
 72
     8
 73
     4
 74
     0
 42
0.0000000004196299
 43
0.0000000001
 40
0.9591044035763736
 40
0.9591044035763736
 40
0.9591044035763736
 40
0.9591044035763736
 40
1.0
 40
1.0
 40
1.0
 40
1.0
 10
43.16556156072116
 20
423.0643127829305
 30
0.0
 10
43.44920645962094
 20
423.4568941595162
 30
0.0
 10
43.59999999999999
 20
423.7555156530502
 30
0.0
 10
43.59999999999999
 20
423.9112152807269
 30
0.0
  0
LINE
  5
8B
330
75
100
AcDbEntity
  8
$DDT_AUDIT_GENERATED_(77)
  6
Continuous
 62
     7
100
AcDbLine
 10
56.0500029596
 20
328.7777671274
 30
0.0
 11
6.6500029596
 21
328.7777671274
 31
0.0
  0
LINE
  5
8C
330
75
100
AcDbEntity
  8
$DDT_AUDIT_GENERATED_(77)
  6
Continuous
 62
     7
100
AcDbLine
 10
6.3500029596
 20
451.3482978846
 30
0.0
 11
6.3500029596
 21
329.0777671274
 31
0.0
  0
LINE
  5
8D
330
75
100
AcDbEntity
  8
$DDT_AUDIT_GENERATED_(77)
  6
Continuous
 62
     7
100
AcDbLine
 10
56.3500029596
 20
329.0777671274
 30
0.0
 11
56.3500029596
 21
451.3482978846
 31
0.0
  0
SPLINE
  5
8E
330
75
100
AcDbEntity
  8
$DDT_AUDIT_GENERATED_(77)
  6
Continuous
 62
     7
100
AcDbSpline
210
0.0
220
0.0
230
1.0
 70
     8
 71
     3
 72
    15
 73
    11
 74
     0
 42
0.0000000015114064
 43
0.0000000001
 40
0.6505895326178867
 40
0.6505895326178867
 40
0.6505895326178867
 40
0.6505895326178867
 40
0.6725384357464725
 40
0.729722361913757
 40
0.7881007431901632
 40
0.848136594514138
 40
0.8954042153555962
 40
0.9353800675492926
 40
0.9715652284642013
 40
1.0
 40
1.0
 40
1.0
 40
1.0
 10
7.987358817760192
 20
452.7808284748261
 30
0.0
 10
7.929469593991323
 20
452.760094225272
 30
0.0
 10
7.72618337014181
 20
452.684742540382
 30
0.0
 10
7.406661000770684
 20
452.5497285714492
 30
0.0
 10
7.058814063743313
 20
452.365936445667
 30
0.0
 10
6.784663801874431
 20
452.1737775464965
 30
0.0
 10
6.580880007040789
 20
451.9711565393553
 30
0.0
 10
6.445617708068577
 20
451.7673836982711
 30
0.0
 10
6.363553332556449
 20
451.5552028405531
 30
0.0
 10
6.357144393958437
 20
451.4248309629763
 30
0.0
 10
6.354439630549102
 20
451.3564155379452
 30
0.0
  0
SPLINE
  5
8F
330
75
100
AcDbEntity
  8
$DDT_AUDIT_GENERATED_(77)
  6
Continuous
 62
     7
100
AcDbSpline
210
0.0
220
0.0
230
1.0
 70
     8
 71
     3
 72
    15
 73
    11
 74
     0
 42
0.0000000016179768
 43
0.0000000001
 40
0.0
 40
0.0
 40
0.0
 40
0.0
 40
0.0182672975806048
 40
0.0574018155258972
 40
0.0973698915462322
 40
0.1414361028705169
 40
0.1928757819228379
 40
0.2530353304747436
 40
0.3174729878171921
 40
0.3690198694791516
 40
0.3690198694791516
 40
0.3690198694791516
 40
0.3690198694791516
 10
56.34131052425059
 20
451.3510430019653
 30
0.0
 10
56.34346047952044
 20
451.392080880821
 30
0.0
 10
56.34851859462535
 20
451.50116204297
 30
0.0
 10
56.28694300010473
 20
451.6957068590855
 30
0.0
 10
56.17430760327116
 20
451.8983175464528
 30
0.0
 10
56.01053106041104
 20
452.0861728286696
 30
0.0
 10
55.78876577696866
 20
452.2683434687485
 30
0.0
 10
55.4923209639856
 20
452.4502494140672
 30
0.0
 10
55.14090794839564
 20
452.617621991415
 30
0.0
 10
54.87356490556699
 20
452.7224858740857
 30
0.0
 10
54.74746938785357
 20
452.7682717011746
 30
0.0
  0
ARC
  5
90
330
75
100
AcDbEntity
  8
$DDT_AUDIT_GENERATED_(77)
  6
Continuous
 62
     7
100
AcDbCircle
 10
56.0500029596
 20
329.0777671274
 30
0.0
 40
0.299999999999999
100
AcDbArc
 50
270.0
 51
1.0931949019
  0
ARC
  5
91
330
75
100
AcDbEntity
  8
$DDT_AUDIT_GENERATED_(77)
  6
Continuous
 62
     7
100
AcDbCircle
 10
6.6500029596
 20
329.0777671274
 30
0.0
 40
0.3000000000000013
100
AcDbArc
 50
179.3283437306
 51
270.0
  0
ELLIPSE
  5
93
330
75
100
AcDbEntity
  8
$DDT_AUDIT_GENERATED_(92)
  6
Continuous
 62
     7
100
AcDbEllipse
 10
31.35
 20
451.8445715855
 30
0.0
 11
-23.6493128864244
 21
0.0
 31
0.0
210
0.0
220
0.0
230
1.0
 40
0.1218693434
 41
6.249951112583338
 42
6.283185307179586
  0
ELLIPSE
  5
94
330
75
100
AcDbEntity
  8
$DDT_AUDIT_GENERATED_(92)
  6
Continuous
 62
     7
100
AcDbEllipse
 10
31.35
 20
451.8445715855
 30
0.0
 11
-23.6493128864244
 21
0.0
 31
0.0
210
0.0
220
0.0
230
1.0
 40
0.1218693434
 41
0.0
 42
3.17482684818604
  0
ARC
  5
95
330
75
100
AcDbEntity
  8
$DDT_AUDIT_GENERATED_(92)
  6
Continuous
 62
     7
100
AcDbCircle
 10
31.35
 20
445.492276215
 30
0.0
 40
24.5
100
AcDbArc
 50
15.2592067034
 51
18.6738641027
  0
ARC
  5
96
330
75
100
AcDbEntity
  8
$DDT_AUDIT_GENERATED_(92)
  6
Continuous
 62
     7
100
AcDbCircle
 10
31.35
 20
445.492276215
 30
0.0
 40
24.5
100
AcDbArc
 50
161.3306798006
 51
164.7407932966
  0
LINE
  5
98
330
75
100
AcDbEntity
  8
$DDT_AUDIT_GENERATED_(97)
  6
Continuous
 62
     7
100
AcDbLine
 10
8.0988266658
 20
483.8535427109
 30
0.0
 11
8.0988616982
 21
483.8546773248
 31
0.0
  0
ARC
  5
99
330
75
100
AcDbEntity
  8
$DDT_AUDIT_GENERATED_(97)
  6
Continuous
 62
     7
100
AcDbCircle
 10
8.5936705283
 20
483.8456088898
 30
0.0
 40
0.4948919223644477
100
AcDbArc
 50
116.2555471314
 51
178.9500492756
  0
ARC
  5
9A
330
75
100
AcDbEntity
  8
$DDT_AUDIT_GENERATED_(97)
  6
Continuous
 62
     7
100
AcDbCircle
 10
9.0320912026
 20
480.9095676264
 30
0.0
 40
1.060013214301922
100
AcDbArc
 50
176.5131505569
 51
182.0282146517
  0
ARC
  5
9B
330
75
100
AcDbEntity
  8
$DDT_AUDIT_GENERATED_(97)
  6
Continuous
 62
     7
100
AcDbCircle
 10
-21.9559158342
 20
541.0995857923
 30
0.0
 40
67.41874075854865
100
AcDbArc
 50
296.711569157
 51
302.5530721647
  0
ARC
  5
9C
330
75
100
AcDbEntity
  8
$DDT_AUDIT_GENERATED_(97)
  6
Continuous
 62
     7
100
AcDbCircle
 10
14.4170496609
 20
484.7652093308
 30
0.0
 40
0.501752688250546
100
AcDbArc
 50
159.3998304681
 51
258.9406382969
  0
SPLINE
  5
9D
330
75
100
AcDbEntity
  8
$DDT_AUDIT_GENERATED_(97)
  6
Continuous
 62
     7
100
AcDbSpline
210
0.0
220
0.0
230
1.0
 70
    12
 71
     2
 72
     6
 73
     3
 74
     0
 42
0.0000003284678541
 43
0.0000000001
 40
0.713452771066401
 40
0.713452771066401
 40
0.713452771066401
 40
1.0
 40
1.0
 40
1.0
 10
31.35091658624312
 20
488.9832007447279
 30
0.0
 41
0.9782480416808662
 10
31.35091221868903
 20
488.9894739932221
 30
0.0
 41
0.9847558526637853
 10
31.35090221050109
 20
488.9870235110959
 30
0.0
 41
1.0
  0
ARC
  5
9E
330
75
100
AcDbEntity
  8
$DDT_AUDIT_GENERATED_(97)
  6
Continuous
 62
     7
100
AcDbCircle
 10
27.5451591412
 20
569.2346645269
 30
0.0
 40
90.42014638256515
100
AcDbArc
 50
257.7427007649
 51
272.4122660395
  0
SPLINE
  5
9F
330
75
100
AcDbEntity
  8
$DDT_AUDIT_GENERATED_(97)
  6
Continuous
 62
     7
100
AcDbSpline
210
0.0
220
0.0
230
1.0
 70
    12
 71
     3
 72
   140
 73
   136
 74
     0
 42
0.0000000005806314
 43
0.0000000001
 40
0.0
 40
0.0
 40
0.0
 40
0.0
 40
0.0157194533715449
 40
0.0157194533715449
 40
0.0314392148330125
 40
0.0314392148330125
 40
0.0628787377559476
 40
0.0628787377559476
 40
0.0943182606788824
 40
0.0943182606788824
 40
0.1257577836018175
 40
0.1257577836018175
 40
0.1571973065247521
 40
0.1571973065247521
 40
0.1886368294476872
 40
0.1886368294476872
 40
0.2200763523706195
 40
0.2200763523706195
 40
0.2515158752935546
 40
0.2515158752935546
 40
0.2593757560242881
 40
0.2593757560242881
 40
0.2672356367550222
 40
0.2672356367550222
 40
0.28295539821649
 40
0.28295539821649
 40
0.2986751596779564
 40
0.2986751596779564
 40
0.3143949211394229
 40
0.3143949211394229
 40
0.3301146826008921
 40
0.3301146826008921
 40
0.3340446229662588
 40
0.3340446229662588
 40
0.3379745633316253
 40
0.3379745633316253
 40
0.3458344440623586
 40
0.3458344440623586
 40
0.3536943247930946
 40
0.3536943247930946
 40
0.3615542055238278
 40
0.3615542055238278
 40
0.3772739669852943
 40
0.3772739669852943
 40
0.3929937284467607
 40
0.3929937284467607
 40
0.4008536091774967
 40
0.4008536091774967
 40
0.4087134899082299
 40
0.4087134899082299
 40
0.4401530128311656
 40
0.4401530128311656
 40
0.4715925357540985
 40
0.4715925357540985
 40
0.487312297215565
 40
0.487312297215565
 40
0.5030320586770342
 40
0.5030320586770342
 40
0.5187518201385034
 40
0.5187518201385034
 40
0.5226817605038672
 40
0.5226817605038672
 40
0.5266117008692338
 40
0.5266117008692338
 40
0.5344715815999671
 40
0.5344715815999671
 40
0.5501913430614334
 40
0.5501913430614334
 40
0.5580512237921667
 40
0.5580512237921667
 40
0.5659111045229027
 40
0.5659111045229027
 40
0.5973506274458356
 40
0.5973506274458356
 40
0.6287901503687713
 40
0.6287901503687713
 40
0.6602296732917069
 40
0.6602296732917069
 40
0.6759494347531734
 40
0.6759494347531734
 40
0.6798793751185399
 40
0.6798793751185399
 40
0.6838093154839066
 40
0.6838093154839066
 40
0.6916691962146426
 40
0.6916691962146426
 40
0.707388957676109
 40
0.707388957676109
 40
0.7231087191375756
 40
0.7231087191375756
 40
0.7388284805990448
 40
0.7388284805990448
 40
0.7545482420605111
 40
0.7545482420605111
 40
0.7859877649834469
 40
0.7859877649834469
 40
0.8174272879063713
 40
0.8174272879063713
 40
0.8331470493678574
 40
0.8331470493678574
 40
0.841006930098585
 40
0.841006930098585
 40
0.8449368704639488
 40
0.8449368704639488
 40
0.8488668108293125
 40
0.8488668108293125
 40
0.8645865722907706
 40
0.8645865722907706
 40
0.8724464530215263
 40
0.8724464530215263
 40
0.8763763933868901
 40
0.8763763933868901
 40
0.8803063337522539
 40
0.8803063337522539
 40
0.896026095213709
 40
0.896026095213709
 40
0.9117458566751949
 40
0.9117458566751949
 40
0.9274656181366502
 40
0.9274656181366502
 40
0.9431853795981053
 40
0.9431853795981053
 40
0.9746249025210466
 40
0.9746249025210466
 40
0.990344663982533
 40
0.990344663982533
 40
0.9982045447132605
 40
0.9982045447132605
 40
0.9991870298045931
 40
0.9991870298045931
 40
0.9996782723502606
 40
0.9996782723502606
 40
0.9999238936231086
 40
0.9999238936231086
 40
1.0
 40
1.0
 40
1.0
 40
1.0
 10
14.32080049254152
 20
484.2727747079936
 30
0.0
 41
1.0
 10
14.33736049773178
 20
484.2827460386248
 30
0.0
 41
1.0
 10
14.35403384915365
 20
484.2928138476408
 30
0.0
 41
1.0
 10
14.38743735099232
 20
484.3129516629036
 30
0.0
 41
1.0
 10
14.40417041272342
 20
484.3230348519288
 30
0.0
 41
1.0
 10
14.45444060407462
 20
484.3533218507392
 30
0.0
 41
1.0
 10
14.48805320127013
 20
484.3735653485815
 30
0.0
 41
1.0
 10
14.55522272174852
 20
484.4140785815351
 30
0.0
 41
1.0
 10
14.58877935195232
 20
484.4343478946262
 30
0.0
 41
1.0
 10
14.65556104893782
 20
484.4747467387467
 30
0.0
 41
1.0
 10
14.68875454943552
 20
484.4948574753932
 30
0.0
 41
1.0
 10
14.75473525463792
 20
484.5348508430156
 30
0.0
 41
1.0
 10
14.78754514519662
 20
484.5547399409099
 30
0.0
 41
1.0
 10
14.85296195593303
 20
484.5942964656814
 30
0.0
 41
1.0
 10
14.88557082092643
 20
484.6139637754168
 30
0.0
 41
1.0
 10
14.95073303242142
 20
484.6530699574563
 30
0.0
 41
1.0
 10
14.98325497170602
 20
484.6724995798015
 30
0.0
 41
1.0
 10
15.04828585824943
 20
484.7112492570551
 30
0.0
 41
1.0
 10
15.08080173503422
 20
484.7305712000673
 30
0.0
 41
1.0
 10
15.12156303379692
 20
484.7548377978712
 30
0.0
 41
1.0
 10
15.12972120121432
 20
484.7596971624388
 30
0.0
 41
1.0
 10
15.14605259735882
 20
484.769433842175
 30
0.0
 41
1.0
 10
15.15422430917552
 20
484.7743113143555
 30
0.0
 41
1.0
 10
15.17898635451952
 20
484.7889530234932
 30
0.0
 41
1.0
 10
15.19582243290472
 20
484.7987258646233
 30
0.0
 41
1.0
 10
15.23140186923842
 20
484.8182129238496
 30
0.0
 41
1.0
 10
15.25014905821152
 20
484.8279268804238
 30
0.0
 41
1.0
 10
15.29081842583331
 20
484.847238962678
 30
0.0
 41
1.0
 10
15.31273757382132
 20
484.8568378360342
 30
0.0
 41
1.0
 10
15.36102281530262
 20
484.8758681524755
 30
0.0
 41
1.0
 10
15.38738900339882
 20
484.8852998849846
 30
0.0
 41
1.0
 10
15.42394987580131
 20
484.8969475478944
 30
0.0
 41
1.0
 10
15.43144281527221
 20
484.8992698921073
 30
0.0
 41
1.0
 10
15.44680770311572
 20
484.9038995001328
 30
0.0
 41
1.0
 10
15.45467817797581
 20
484.9062069307586
 30
0.0
 41
1.0
 10
15.47885432618122
 20
484.9131087291159
 30
0.0
 41
1.0
 10
15.49572464823842
 20
484.9176826878204
 30
0.0
 41
1.0
 10
15.53097633844402
 20
484.9267828527086
 30
0.0
 41
1.0
 10
15.54935771616692
 20
484.9313090657472
 30
0.0
 41
1.0
 10
15.58763908383631
 20
484.9403176967962
 30
0.0
 41
1.0
 10
15.60755148147302
 20
484.9448025310228
 30
0.0
 41
1.0
 10
15.66937373882751
 20
484.9581496829094
 30
0.0
 41
1.0
 10
15.71341878104142
 20
484.9669189993595
 30
0.0
 41
1.0
 10
15.80708483016072
 20
484.9841777192596
 30
0.0
 41
1.0
 10
15.85669976196462
 20
484.9926600474377
 30
0.0
 41
1.0
 10
15.93528905700342
 20
485.0051659011161
 30
0.0
 41
1.0
 10
15.96218109272312
 20
485.0092986883057
 30
0.0
 41
1.0
 10
16.01736132893572
 20
485.0174940141816
 30
0.0
 41
1.0
 10
16.04565089074662
 20
485.0215563772971
 30
0.0
 41
1.0
 10
16.19058728771781
 20
485.0416975161895
 30
0.0
 41
1.0
 10
16.31765664044872
 20
485.0572703265844
 30
0.0
 41
1.0
 10
16.59304130562912
 20
485.087571669488
 30
0.0
 41
1.0
 10
16.74135913088922
 20
485.1023016987218
 30
0.0
 41
1.0
 10
16.97926769514432
 20
485.1238841542521
 30
0.0
 41
1.0
 10
17.06113397909292
 20
485.1309940498009
 30
0.0
 41
1.0
 10
17.23002231863692
 20
485.1450376536515
 30
0.0
 41
1.0
 10
17.31705376492612
 20
485.1519686145532
 30
0.0
 41
1.0
 10
17.49641712147582
 20
485.1656309450196
 30
0.0
 41
1.0
 10
17.58874899762122
 20
485.1723623787973
 30
0.0
 41
1.0
 10
17.70757099126272
 20
485.1806474616938
 30
0.0
 41
1.0
 10
17.73149602824472
 20
485.1822973421285
 30
0.0
 41
1.0
 10
17.77960314642091
 20
485.1855784327818
 30
0.0
 41
1.0
 10
17.80379452147702
 20
485.1872102933104
 30
0.0
 41
1.0
 10
17.87678195335552
 20
485.1920799855984
 30
0.0
 41
1.0
 10
17.92599129495532
 20
485.1952919198008
 30
0.0
 41
1.0
 10
18.07527220120222
 20
485.2048258337057
 30
0.0
 41
1.0
 10
18.17699640200992
 20
485.2110459247892
 30
0.0
 41
1.0
 10
18.33289247666672
 20
485.2201803971552
 30
0.0
 41
1.0
 10
18.38541045997972
 20
485.2231924357925
 30
0.0
 41
1.0
 10
18.49154318739152
 20
485.2291540888359
 30
0.0
 41
1.0
 10
18.54515750322412
 20
485.2321037944832
 30
0.0
 41
1.0
 10
18.81594441635202
 20
485.2467046872824
 30
0.0
 41
1.0
 10
19.04127302402662
 20
485.2579230078983
 30
0.0
 41
1.0
 10
19.50891663101772
 20
485.2795212972007
 30
0.0
 41
1.0
 10
19.75121619178342
 20
485.2898836063773
 30
0.0
 41
1.0
 10
20.25278524283282
 20
485.3096521675992
 30
0.0
 41
1.0
 10
20.51207803431502
 20
485.3190545316155
 30
0.0
 41
1.0
 10
20.91420771237762
 20
485.3323719454958
 30
0.0
 41
1.0
 10
21.05045025472902
 20
485.3366807089208
 30
0.0
 41
1.0
 10
21.22355288767261
 20
485.3419006085724
 30
0.0
 41
1.0
 10
21.25831339883081
 20
485.3429362910488
 30
0.0
 41
1.0
 10
21.32811569167882
 20
485.3449910001749
 30
0.0
 41
1.0
 10
21.3631658134046
 20
485.3460102552673
 30
0.0
 41
1.0
 10
21.46854669578439
 20
485.3490374613648
 30
0.0
 41
1.0
 10
21.53916730704016
 20
485.3510166279869
 30
0.0
 41
1.0
 10
21.75212121731689
 20
485.3568382879398
 30
0.0
 41
1.0
 10
21.89554822135513
 20
485.3605644392227
 30
0.0
 41
1.0
 10
22.18526318641928
 20
485.3677153932533
 30
0.0
 41
1.0
 10
22.33154804292515
 20
485.3711414942531
 30
0.0
 41
1.0
 10
22.6269091365959
 20
485.3777021886197
 30
0.0
 41
1.0
 10
22.77598341333335
 20
485.3808350971483
 30
0.0
 41
1.0
 10
23.07688511394027
 20
485.3868111761407
 30
0.0
 41
1.0
 10
23.22872167870624
 20
485.3896556623903
 30
0.0
 41
1.0
 10
23.68841341868911
 20
485.397798128228
 30
0.0
 41
1.0
 10
24.00043760821787
 20
485.4027044351141
 30
0.0
 41
1.0
 10
24.63606513183159
 20
485.4117117209817
 30
0.0
 41
1.0
 10
24.95967710376198
 20
485.4158101788724
 30
0.0
 41
1.0
 10
25.45432166674171
 20
485.421583027005
 30
0.0
 41
1.0
 10
25.62074230278093
 20
485.4234455004131
 30
0.0
 41
1.0
 10
25.87276219099484
 20
485.4261821791059
 30
0.0
 41
1.0
 10
25.95716708489801
 20
485.4270849493104
 30
0.0
 41
1.0
 10
26.08438295673564
 20
485.4284299130063
 30
0.0
 41
1.0
 10
26.12689613407266
 20
485.4288767740484
 30
0.0
 41
1.0
 10
26.21210037478018
 20
485.429768047108
 30
0.0
 41
1.0
 10
26.25473843333505
 20
485.4302119059013
 30
0.0
 41
1.0
 10
26.46810869386271
 20
485.4324246677035
 30
0.0
 41
1.0
 10
26.63938092137467
 20
485.4341731603275
 30
0.0
 41
1.0
 10
26.89715527000631
 20
485.4368201733168
 30
0.0
 41
1.0
 10
26.98322443378045
 20
485.4377066182943
 30
0.0
 41
1.0
 10
27.11254556589684
 20
485.439050133588
 30
0.0
 41
1.0
 10
27.15569033692789
 20
485.4395004621112
 30
0.0
 41
1.0
 10
27.24202948003501
 20
485.4404065409966
 30
0.0
 41
1.0
 10
27.28522646857273
 20
485.4408619765548
 30
0.0
 41
1.0
 10
27.50134725316157
 20
485.4431458439288
 30
0.0
 41
1.0
 10
27.67467804570363
 20
485.4449933648643
 30
0.0
 41
1.0
 10
28.02218495301266
 20
485.4486084746758
 30
0.0
 41
1.0
 10
28.19636117590342
 20
485.4503759881055
 30
0.0
 41
1.0
 10
28.54554794767838
 20
485.4537372333876
 30
0.0
 41
1.0
 10
28.72055860803149
 20
485.4553311191532
 30
0.0
 41
1.0
 10
29.07141161478747
 20
485.4582777343081
 30
0.0
 41
1.0
 10
29.24725431892724
 20
485.4596304510115
 30
0.0
 41
1.0
 10
29.77603414951348
 20
485.4632533575195
 30
0.0
 41
1.0
 10
30.13022678690512
 20
485.465090270134
 30
0.0
 41
1.0
 10
30.66400249636191
 20
485.4667592356046
 30
0.0
 41
1.0
 10
30.84234142427461
 20
485.4671346932217
 30
0.0
 41
1.0
 10
31.11045717771397
 20
485.4673853436808
 30
0.0
 41
1.0
 10
31.19993023176706
 20
485.4674166220028
 30
0.0
 41
1.0
 10
31.30069929627447
 20
485.4673875614618
 30
0.0
 41
1.0
 10
31.31189741233262
 20
485.4673834387188
 30
0.0
 41
1.0
 10
31.3286969107664
 20
485.4673758978277
 30
0.0
 41
1.0
 10
31.3342971309698
 20
485.4673731580618
 30
0.0
 41
1.0
 10
31.3426980416369
 20
485.4673687071608
 30
0.0
 41
1.0
 10
31.34549844192107
 20
485.4673671666498
 30
0.0
 41
1.0
 10
31.34916667998262
 20
485.4673650740835
 30
0.0
 41
1.0
 10
31.35003442980371
 20
485.4673645735971
 30
0.0
 41
1.0
 10
31.35090220552065
 20
485.4673642477242
 30
0.0
 41
1.0
  0
ARC
  5
A0
330
75
100
AcDbEntity
  8
$DDT_AUDIT_GENERATED_(97)
  6
Continuous
 62
     7
100
AcDbCircle
 10
-1198.6403770628
 20
534.7063789749
 30
0.0
 40
1207.81021554371
100
AcDbArc
 50
357.4502179356
 51
357.586943397
  0
LINE
  5
A1
330
75
100
AcDbEntity
  8
$DDT_AUDIT_GENERATED_(97)
  6
Continuous
 62
     7
100
AcDbLine
 10
31.3509022105
 20
482.686574996
 30
0.0
 11
31.3509022055
 21
485.4673642477
 31
0.0
  0
ARC
  5
A2
330
75
100
AcDbEntity
  8
$DDT_AUDIT_GENERATED_(97)
  6
Continuous
 62
     7
100
AcDbCircle
 10
31.3500239152
 20
574.8913827878
 30
0.0
 40
92.20480779601154
100
AcDbArc
 50
259.356992917
 51
270.0005457699
  0
ARC
  5
A3
330
75
100
AcDbEntity
  8
$DDT_AUDIT_GENERATED_(97)
  6
Continuous
 62
     7
100
AcDbCircle
 10
54.1081805037
 20
483.8456565826
 30
0.0
 40
0.4948444474356555
100
AcDbArc
 50
1.0445284141
 51
63.7153120785
  0
LINE
  5
A4
330
75
100
AcDbEntity
  8
$DDT_AUDIT_GENERATED_(97)
  6
Continuous
 62
     7
100
AcDbLine
 10
54.6029427228
 20
483.8546773248
 30
0.0
 11
54.6029777552
 21
483.8535427109
 31
0.0
  0
ARC
  5
A5
330
75
100
AcDbEntity
  8
$DDT_AUDIT_GENERATED_(97)
  6
Continuous
 62
     7
100
AcDbCircle
 10
53.6696298141
 20
480.9095665647
 30
0.0
 40
1.060096528742872
100
AcDbArc
 50
357.972002234
 51
3.4866325574
  0
ARC
  5
A6
330
75
100
AcDbEntity
  8
$DDT_AUDIT_GENERATED_(97)
  6
Continuous
 62
     7
100
AcDbCircle
 10
48.2847158325
 20
484.7652310506
 30
0.0
 40
0.501781473176157
100
AcDbArc
 50
281.0632483507
 51
20.5960696526
  0
ARC
  5
A7
330
75
100
AcDbEntity
  8
$DDT_AUDIT_GENERATED_(97)
  6
Continuous
 62
     7
100
AcDbCircle
 10
84.6577202554
 20
541.0995857926
 30
0.0
 40
67.41874075886844
100
AcDbArc
 50
237.4469278353
 51
243.288430843
  0
SPLINE
  5
A8
330
75
100
AcDbEntity
  8
$DDT_AUDIT_GENERATED_(97)
  6
Continuous
 62
     7
100
AcDbSpline
210
0.0
220
0.0
230
1.0
 70
    12
 71
     3
 72
     8
 73
     4
 74
     0
 42
0.0000000001273479
 43
0.0000000001
 40
0.8958910748830321
 40
0.8958910748830321
 40
0.8958910748830321
 40
0.8958910748830321
 40
0.902441660550123
 40
0.902441660550123
 40
0.902441660550123
 40
0.902441660550123
 10
40.78011531472614
 20
488.8169098467583
 30
0.0
 41
1.0
 10
40.61102718478708
 20
488.823837854074
 30
0.0
 41
1.0
 10
40.43967071760749
 20
488.8305514016949
 30
0.0
 41
1.0
 10
40.26612537023899
 20
488.8370580018804
 30
0.0
 41
1.0
  0
SPLINE
  5
A9
330
75
100
AcDbEntity
  8
$DDT_AUDIT_GENERATED_(97)
  6
Continuous
 62
     7
100
AcDbSpline
210
0.0
220
0.0
230
1.0
 70
    12
 71
     3
 72
    46
 73
    42
 74
     0
 42
0.0000000001090641
 43
0.0000000001
 40
0.9048209944694864
 40
0.9048209944694864
 40
0.9048209944694864
 40
0.9048209944694864
 40
0.9111461256116618
 40
0.9111461256116618
 40
0.9190525589282775
 40
0.9190525589282775
 40
0.9269589922448943
 40
0.9269589922448943
 40
0.9348654255615099
 40
0.9348654255615099
 40
0.9427718588781256
 40
0.9427718588781256
 40
0.9467250755364336
 40
0.9467250755364336
 40
0.9477133797010111
 40
0.9477133797010111
 40
0.9487016838655874
 40
0.9487016838655874
 40
0.9506782921947412
 40
0.9506782921947412
 40
0.958584725511358
 40
0.958584725511358
 40
0.9664911588279738
 40
0.9664911588279738
 40
0.9743975921445894
 40
0.9743975921445894
 40
0.9823040254612062
 40
0.9823040254612062
 40
0.9902104587778219
 40
0.9902104587778219
 40
0.9981168920944375
 40
0.9981168920944375
 40
0.9991051962590151
 40
0.9991051962590151
 40
0.9995993483413032
 40
0.9995993483413032
 40
0.9998464243824473
 40
0.9998464243824473
 40
0.9999699624030199
 40
0.9999699624030199
 40
1.0
 40
1.0
 40
1.0
 40
1.0
 10
40.07615608624246
 20
488.8440666270722
 30
0.0
 41
1.0
 10
39.90706094854554
 20
488.8502053154873
 30
0.0
 41
1.0
 10
39.73595444496461
 20
488.8561538395379
 30
0.0
 41
1.0
 10
39.34655586760001
 20
488.8691212433224
 30
0.0
 41
1.0
 10
39.12716119637658
 20
488.8760358781026
 30
0.0
 41
1.0
 10
38.68227175650836
 20
488.8892884146313
 30
0.0
 41
1.0
 10
38.45677722119452
 20
488.8956263384343
 30
0.0
 41
1.0
 10
37.99953573840681
 20
488.9077110524334
 30
0.0
 41
1.0
 10
37.76777872043529
 20
488.9134568905073
 30
0.0
 41
1.0
 10
37.29780726106204
 20
488.924338050274
 30
0.0
 41
1.0
 10
37.05959253605984
 20
488.9294733451548
 30
0.0
 41
1.0
 10
36.69734591566267
 20
488.9367106980512
 30
0.0
 41
1.0
 10
36.57577691525679
 20
488.939045610208
 30
0.0
 41
1.0
 10
36.42278690234078
 20
488.9418669861751
 30
0.0
 41
1.0
 10
36.3921263999808
 20
488.9424265976121
 30
0.0
 41
1.0
 10
36.33077541661621
 20
488.9435347830735
 30
0.0
 41
1.0
 10
36.3000822679539
 20
488.9440834112787
 30
0.0
 41
1.0
 10
36.20795018930683
 20
488.9457130070122
 30
0.0
 41
1.0
 10
36.14645862442043
 20
488.9467776849616
 30
0.0
 41
1.0
 10
35.83865454913401
 20
488.9519939161655
 30
0.0
 41
1.0
 10
35.59130664127937
 20
488.9558250320887
 30
0.0
 41
1.0
 10
35.09448834433518
 20
488.9628303933161
 30
0.0
 41
1.0
 10
34.84501765523006
 20
488.9660045457541
 30
0.0
 41
1.0
 10
34.34396782581583
 20
488.9717003220301
 30
0.0
 41
1.0
 10
34.09238872622253
 20
488.974221958482
 30
0.0
 41
1.0
 10
33.58706839823886
 20
488.9785960904974
 30
0.0
 41
1.0
 10
33.33331950893781
 20
488.9804462151611
 30
0.0
 41
1.0
 10
32.82363471433503
 20
488.9834696214651
 30
0.0
 41
1.0
 10
32.56769958937897
 20
488.9846431446175
 30
0.0
 41
1.0
 10
32.05364196327066
 20
488.986313236401
 30
0.0
 41
1.0
 10
31.79551945861939
 20
488.9868098039742
 30
0.0
 41
1.0
 10
31.50390172789579
 20
488.9869878060352
 30
0.0
 41
1.0
 10
31.47148267751966
 20
488.9870022979903
 30
0.0
 41
1.0
 10
31.42282848513363
 20
488.9870161079672
 30
0.0
 41
1.0
 10
31.40660615154112
 20
488.9870193899683
 30
0.0
 41
1.0
 10
31.38226624746115
 20
488.9870223311403
 30
0.0
 41
1.0
 10
31.37415187881933
 20
488.9870229812263
 30
0.0
 41
1.0
 10
31.36197872499891
 20
488.9870234609173
 30
0.0
 41
1.0
 10
31.3579207402491
 20
488.9870235382423
 30
0.0
 41
1.0
 10
31.3528757469306
 20
488.9870235317202
 30
0.0
 41
1.0
 10
31.35188898533189
 20
488.9870235255622
 30
0.0
 41
1.0
 10
31.35090221059374
 20
488.9870236576954
 30
0.0
 41
1.0
  0
ARC
  5
AA
330
75
100
AcDbEntity
  8
$DDT_AUDIT_GENERATED_(97)
  6
Continuous
 62
     7
100
AcDbCircle
 10
35.1566452798
 20
569.2346645269
 30
0.0
 40
90.42014638256515
100
AcDbArc
 50
267.5877339605
 51
282.2572992351
  0
SPLINE
  5
AB
330
75
100
AcDbEntity
  8
$DDT_AUDIT_GENERATED_(97)
  6
Continuous
 62
     7
100
AcDbSpline
210
0.0
220
0.0
230
1.0
 70
     8
 71
     3
 72
    21
 73
    17
 74
     0
 42
0.0000000005805075
 43
0.0000000001
 40
0.0
 40
0.0
 40
0.0
 40
0.0
 40
0.1403469123061349
 40
0.2021685260533163
 40
0.2638266549220825
 40
0.2929734067465167
 40
0.3212194417742704
 40
0.3800874522049583
 40
0.503559871457825
 40
0.5658046960960342
 40
0.6282232737391801
 40
0.7520783012189192
 40
0.87549275589027
 40
0.9377562263296819
 40
0.9687450293468065
 40
1.0
 40
1.0
 40
1.0
 40
1.0
 10
48.38100392846863
 20
484.2727747079936
 30
0.0
 10
48.23123792858934
 20
484.3632658863849
 30
0.0
 10
48.01549745204202
 20
484.4936379862191
 30
0.0
 10
47.74144353445144
 20
484.6587855530938
 30
0.0
 10
47.58548055963486
 20
484.75223258754
 30
0.0
 10
47.45947639936895
 20
484.8263479842523
 30
0.0
 10
47.29936057089718
 20
484.8971215917029
 30
0.0
 10
46.81531591896403
 20
485.0179155423232
 30
0.0
 10
45.70970091004497
 20
485.1365733537023
 30
0.0
 10
44.14382190434236
 20
485.2364235511308
 30
0.0
 10
42.28566779794817
 20
485.3225779856662
 30
0.0
 10
39.48517202109959
 20
485.4002099162433
 30
0.0
 10
36.22699131843275
 20
485.4319464604591
 30
0.0
 10
33.81259435396677
 20
485.4579245496876
 30
0.0
 10
32.40917960117001
 20
485.4664697162024
 30
0.0
 10
31.70466555478568
 20
485.4670652217098
 30
0.0
 10
31.35090220552065
 20
485.4673642477242
 30
0.0
  0
ARC
  5
AC
330
75
100
AcDbEntity
  8
$DDT_AUDIT_GENERATED_(97)
  6
Continuous
 62
     7
100
AcDbCircle
 10
1261.8862205445
 20
534.7299572444
 30
0.0
 40
1208.354764907874
100
AcDbArc
 50
182.413087495
 51
182.5497513405
  0
ARC
  5
AD
330
75
100
AcDbEntity
  8
$DDT_AUDIT_GENERATED_(97)
  6
Continuous
 62
     7
100
AcDbCircle
 10
31.3523316229
 20
574.8854657648
 30
0.0
 40
92.19889077992366
100
AcDbArc
 50
269.9991117106
 51
280.6433496025
  0
SPLINE
  5
AE
330
75
100
AcDbEntity
  8
$DDT_AUDIT_GENERATED_(97)
  6
Continuous
 62
     7
100
AcDbSpline
210
0.0
220
0.0
230
1.0
 70
     8
 71
     3
 72
    11
 73
     7
 74
     0
 42
0.0000000498317297
 43
0.0000000001
 40
0.0
 40
0.0
 40
0.0
 40
0.0
 40
0.9999382739948266
 40
0.9999382739948266
 40
0.9999382739948266
 40
1.0
 40
1.0
 40
1.0
 40
1.0
 10
56.28251619378207
 20
455.3660608633363
 30
0.0
 10
56.27987997296207
 20
455.4328834725189
 30
0.0
 10
56.27672841332055
 20
455.4996987514045
 30
0.0
 10
56.27306140171835
 20
455.5665020193338
 30
0.0
 10
56.2730611753544
 20
455.5665061430871
 30
0.0
 10
56.27306138468262
 20
455.5665038224398
 30
0.0
 10
56.27306137554222
 20
455.5665047239528
 30
0.0
  0
ARC
  5
AF
330
75
100
AcDbEntity
  8
$DDT_AUDIT_GENERATED_(97)
  6
Continuous
 62
     7
100
AcDbCircle
 10
40.2891104649
 20
453.9993348906
 30
0.0
 40
16.06059488312982
100
AcDbArc
 50
5.5997505588
 51
6.0849294205
  0
SPLINE
  5
B0
330
75
100
AcDbEntity
  8
$DDT_AUDIT_GENERATED_(97)
  6
Continuous
 62
     7
100
AcDbSpline
210
0.0
220
0.0
230
1.0
 70
     8
 71
     3
 72
    11
 73
     7
 74
     0
 42
0.0000000498317298
 43
0.0000000001
 40
0.0
 40
0.0
 40
0.0
 40
0.0
 40
0.0000617285417404
 40
0.0000617285417404
 40
0.0000617285417404
 40
1.0
 40
1.0
 40
1.0
 40
1.0
 10
6.428743045515821
 20
455.5665047247983
 30
0.0
 10
6.42874303635118
 20
455.566503822883
 30
0.0
 10
6.428743245645297
 20
455.5665061428948
 30
0.0
 10
6.428743019272043
 20
455.5665020189718
 30
0.0
 10
6.425076007678318
 20
455.4996987511632
 30
0.0
 10
6.421924448043431
 20
455.4328834723982
 30
0.0
 10
6.419288227228197
 20
455.3660608633363
 30
0.0
  0
ARC
  5
B1
330
75
100
AcDbEntity
  8
$DDT_AUDIT_GENERATED_(97)
  6
Continuous
 62
     7
100
AcDbCircle
 10
22.2372546481
 20
454.1021626635
 30
0.0
 40
15.87618772762005
100
AcDbArc
 50
174.2206949582
 51
174.7077950583
  0
SPLINE
  5
B2
330
75
100
AcDbEntity
  8
$DDT_AUDIT_GENERATED_(97)
  6
Continuous
 62
     7
100
AcDbSpline
210
0.0
220
0.0
230
1.0
 70
     8
 71
     3
 72
    14
 73
    10
 74
     0
 42
0.0000000003400649
 43
0.0000000001
 40
0.0
 40
0.0
 40
0.0
 40
0.0
 40
0.2500000000000002
 40
0.2500000000000002
 40
0.5000000000000004
 40
0.5000000000000004
 40
0.6250000000000004
 40
0.6250000000000004
 40
0.7468894120162216
 40
0.7468894120162216
 40
0.7468894120162216
 40
0.7468894120162216
 10
31.3502415553016
 20
451.3663125164861
 30
0.0
 10
28.3330199648435
 20
451.3663127381379
 30
0.0
 10
25.39025489340907
 20
451.4323418928371
 30
0.0
 10
19.76041049539835
 20
451.6933271330469
 30
0.0
 10
17.14519221894703
 20
451.8872770776908
 30
0.0
 10
13.78153123753156
 20
452.2536783983256
 30
0.0
 10
12.74768859792773
 20
452.3890741400473
 30
0.0
 10
10.94196656057408
 20
452.6733799703295
 30
0.0
 10
10.15888902715303
 20
452.8221346135543
 30
0.0
 10
9.484094357055044
 20
452.9792722796569
 30
0.0
  0
SPLINE
  5
B3
330
75
100
AcDbEntity
  8
$DDT_AUDIT_GENERATED_(97)
  6
Continuous
 62
     7
100
AcDbSpline
210
0.0
220
0.0
230
1.0
 70
     8
 71
     3
 72
    16
 73
    12
 74
     0
 42
0.0000000003347707
 43
0.0000000001
 40
0.2811293587950465
 40
0.2811293587950465
 40
0.2811293587950465
 40
0.2811293587950465
 40
0.5000000000000003
 40
0.5000000000000003
 40
0.6250000000000003
 40
0.6250000000000003
 40
0.7500000000000002
 40
0.7500000000000002
 40
0.8750000000000001
 40
0.8750000000000001
 40
1.0
 40
1.0
 40
1.0
 40
1.0
 10
52.73998910799335
 20
452.8733358308969
 30
0.0
 10
51.42376626526864
 20
452.5949439662633
 30
0.0
 10
49.74035183950863
 20
452.342446250161
 30
0.0
 10
46.65229417642505
 20
452.0069558622645
 30
0.0
 10
45.43151504319173
 20
451.8970821735568
 30
0.0
 10
42.87765525569178
 20
451.7082330870452
 30
0.0
 10
41.54164571940186
 20
451.6286097161992
 30
0.0
 10
38.75160677772001
 20
451.4989303915611
 30
0.0
 10
37.28901331093527
 20
451.4489695552875
 30
0.0
 10
34.34916962627648
 20
451.3830284529072
 30
0.0
 10
32.86017373288907
 20
451.366312627312
 30
0.0
 10
31.35156286570426
 20
451.3663125263225
 30
0.0
  0
ARC
  5
B4
330
75
100
AcDbEntity
  8
$DDT_AUDIT_GENERATED_(97)
  6
Continuous
 62
     7
100
AcDbCircle
 10
8.6243489299
 20
483.6662547371
 30
0.0
 40
0.6727902071848892
100
AcDbArc
 50
110.248548698
 51
174.4170371578
  0
SPLINE
  5
B5
330
75
100
AcDbEntity
  8
$DDT_AUDIT_GENERATED_(97)
  6
Continuous
 62
     7
100
AcDbSpline
210
0.0
220
0.0
230
1.0
 70
     8
 71
     3
 72
    60
 73
    56
 74
     0
 42
0.0000000004169936
 43
0.0000000001
 40
0.0
 40
0.0
 40
0.0
 40
0.0
 40
0.0168780710866714
 40
0.0331335276234993
 40
0.0489402609367174
 40
0.0643052077173498
 40
0.0790239725014478
 40
0.0932203632260033
 40
0.1070081130984561
 40
0.1202562762753909
 40
0.1328972395476386
 40
0.1509064892072678
 40
0.1678567067630345
 40
0.1840255060638948
 40
0.1979833317896839
 40
0.2098294361858674
 40
0.219512606751989
 40
0.2280243872384099
 40
0.2379570211432073
 40
0.2494053907465022
 40
0.2638016643368969
 40
0.2801120793855856
 40
0.2976267350093588
 40
0.3153329713362807
 40
0.3332248024256547
 40
0.3563165097714989
 40
0.379709455271589
 40
0.4034040515176304
 40
0.4268443297562339
 40
0.4481565452261299
 40
0.4671881003814715
 40
0.4839392312830011
 40
0.496363928562861
 40
0.5077593382438862
 40
0.520340291611578
 40
0.5343071813695596
 40
0.5496599527110837
 40
0.5663987027609043
 40
0.5845234889318979
 40
0.6180568574625314
 40
0.6493853302419507
 40
0.6785073556696491
 40
0.6931694634545212
 40
0.7072011638737876
 40
0.7217869966273364
 40
0.7389369921082014
 40
0.7596894092592786
 40
0.7832923390738568
 40
0.8097458248616431
 40
0.8357737751174393
 40
0.8640741670204908
 40
0.8946469752810926
 40
0.9274922175884378
 40
0.9626099182783321
 40
1.0
 40
1.0
 40
1.0
 40
1.0
 10
31.35092230677575
 20
488.9830372996614
 30
0.0
 10
30.74435258888592
 20
488.9819645468099
 30
0.0
 10
29.73992056354833
 20
488.9797914206324
 30
0.0
 10
28.1267747947342
 20
488.9652363349015
 30
0.0
 10
26.63354103078594
 20
488.943764182587
 30
0.0
 10
25.22382502807355
 20
488.9153986988102
 30
0.0
 10
23.92308611340499
 20
488.8811951495776
 30
0.0
 10
22.72923751089816
 20
488.8424856705316
 30
0.0
 10
21.64269734387764
 20
488.7999918222883
 30
0.0
 10
20.66965853934636
 20
488.7544840173201
 30
0.0
 10
19.67781242142335
 20
488.6998614301365
 30
0.0
 10
18.71379763048987
 20
488.6356981071251
 30
0.0
 10
17.83881497227275
 20
488.5619047882706
 30
0.0
 10
17.17723928487399
 20
488.4894769330389
 30
0.0
 10
16.70385123326438
 20
488.4209459719929
 30
0.0
 10
16.392725014012
 20
488.3597821499599
 30
0.0
 10
16.18628662936507
 20
488.3044314458473
 30
0.0
 10
16.03437999798199
 20
488.2475565703148
 30
0.0
 10
15.92099880843543
 20
488.1901978485191
 30
0.0
 10
15.80464141415437
 20
488.1249375939776
 30
0.0
 10
15.65300540570806
 20
488.0496633799779
 30
0.0
 10
15.48438197964067
 20
487.9647349968815
 30
0.0
 10
15.31316577578767
 20
487.8757637477528
 30
0.0
 10
15.13539886284217
 20
487.7840107557029
 30
0.0
 10
14.93884808903974
 20
487.6829216562158
 30
0.0
 10
14.72367956952326
 20
487.5722654667953
 30
0.0
 10
14.49068981088849
 20
487.4521043356769
 30
0.0
 10
14.25701502781718
 20
487.3317426494766
 30
0.0
 10
14.0311394099794
 20
487.21533046387
 30
0.0
 10
13.82069994450871
 20
487.1068221786578
 30
0.0
 10
13.63241239567592
 20
487.0097668235229
 30
0.0
 10
13.47356012109101
 20
486.927846454181
 30
0.0
 10
13.33999156595114
 20
486.8589408198418
 30
0.0
 10
13.22025048595869
 20
486.7971634767131
 30
0.0
 10
13.09543509845794
 20
486.7327666133675
 30
0.0
 10
12.95762788187545
 20
486.6616602029753
 30
0.0
 10
12.80617684906182
 20
486.583503307914
 30
0.0
 10
12.6411054672142
 20
486.4982945514014
 30
0.0
 10
12.4163329188532
 20
486.3822546724026
 30
0.0
 10
12.14370698045945
 20
486.2414516948281
 30
0.0
 10
11.83493482593462
 20
486.0819439389569
 30
0.0
 10
11.588226340685
 20
485.9544014153105
 30
0.0
 10
11.3982647818139
 20
485.8561985694659
 30
0.0
 10
11.25603428740704
 20
485.7826656139816
 30
0.0
 10
11.10559228046583
 20
485.7048706296659
 30
0.0
 10
10.93305700009377
 20
485.6156139215926
 30
0.0
 10
10.73088929857063
 20
485.5110022293483
 30
0.0
 10
10.49816567139814
 20
485.3905508304578
 30
0.0
 10
10.24817871604314
 20
485.2611200583101
 30
0.0
 10
9.982808487577433
 20
485.1236835858352
 30
0.0
 10
9.704141730804306
 20
484.97930001469
 30
0.0
 10
9.40279841878134
 20
484.82307128877
 30
0.0
 10
9.081181398488166
 20
484.6563070269237
 30
0.0
 10
8.729268784233787
 20
484.4736683103575
 30
0.0
 10
8.50938348615475
 20
484.359497340846
 30
0.0
 10
8.374691582068245
 20
484.2895561629891
 30
0.0
  0
ARC
  5
B6
330
75
100
AcDbEntity
  8
$DDT_AUDIT_GENERATED_(97)
  6
Continuous
 62
     7
100
AcDbCircle
 10
54.0782329312
 20
483.6671683892
 30
0.0
 40
0.6716501908576324
100
AcDbArc
 50
5.0383044652
 51
69.7693721864
  0
ARC
  5
B7
330
75
100
AcDbEntity
  8
$DDT_AUDIT_GENERATED_(97)
  6
Continuous
 62
     7
100
AcDbCircle
 10
31.5751644669
 20
233.3507389874
 30
0.0
 40
255.6325681394678
100
AcDbArc
 50
89.143100351
 51
90.050269098
  0
ARC
  5
B8
330
75
100
AcDbEntity
  8
$DDT_AUDIT_GENERATED_(97)
  6
Continuous
 62
     7
100
AcDbCircle
 10
33.5429447561
 20
330.871600197
 30
0.0
 40
158.0940044488457
100
AcDbArc
 50
88.6350540011
 51
89.3276138036
  0
ARC
  5
B9
330
75
100
AcDbEntity
  8
$DDT_AUDIT_GENERATED_(97)
  6
Continuous
 62
     7
100
AcDbCircle
 10
34.0002623443
 20
324.1519215461
 30
0.0
 40
164.8020387832768
100
AcDbArc
 50
87.6255667177
 51
88.8496517494
  0
SPLINE
  5
BA
330
75
100
AcDbEntity
  8
$DDT_AUDIT_GENERATED_(97)
  6
Continuous
 62
     7
100
AcDbSpline
210
0.0
220
0.0
230
1.0
 70
     8
 71
     3
 72
    54
 73
    50
 74
     0
 42
0.0000000006895253
 43
0.0000000001
 40
0.0
 40
0.0
 40
0.0
 40
0.0
 40
0.039395285018363
 40
0.076042254600567
 40
0.1099408132060101
 40
0.1410909529791285
 40
0.169492757048396
 40
0.1951461527582762
 40
0.2180511659777734
 40
0.2382078044992752
 40
0.2604081764218943
 40
0.2826234042364035
 40
0.3053173039959551
 40
0.328489854626748
 40
0.3521410447678111
 40
0.3823780745372457
 40
0.4122631823684732
 40
0.4396185995544123
 40
0.4643854211154135
 40
0.4820291098701092
 40
0.4981469403432732
 40
0.5153056703979885
 40
0.5347843066734173
 40
0.5557621081448457
 40
0.5788964944196331
 40
0.603989457005103
 40
0.6297766203649356
 40
0.6560340987002092
 40
0.6827616455908393
 40
0.7083923216801308
 40
0.7344416878196784
 40
0.7599369962473523
 40
0.7826626019678967
 40
0.8025358989366025
 40
0.8165718150197597
 40
0.8287184877526478
 40
0.8396401155033149
 40
0.8514666767620758
 40
0.8644110037502779
 40
0.8784959433536423
 40
0.8940829518853117
 40
0.9048277965119753
 40
0.9169533960971749
 40
0.930523464032649
 40
0.9456153589873912
 40
0.962009111063292
 40
0.9797457153443546
 40
0.9940476402982671
 40
1.0
 40
1.0
 40
1.0
 40
1.0
 10
54.32736951017309
 20
484.2894294928581
 30
0.0
 10
54.20026408259808
 20
484.3554293525373
 30
0.0
 10
53.99375425657452
 20
484.4626515299927
 30
0.0
 10
53.66491593026281
 20
484.6333354042028
 30
0.0
 10
53.36766053678011
 20
484.7874751466697
 30
0.0
 10
53.09274042234807
 20
484.9300163684624
 30
0.0
 10
52.84237032186598
 20
485.059772239475
 30
0.0
 10
52.61604113900083
 20
485.1770091285121
 30
0.0
 10
52.41395288605304
 20
485.2816658447038
 30
0.0
 10
52.22199690740246
 20
485.381050284438
 30
0.0
 10
52.03209048135113
 20
485.4793511063787
 30
0.0
 10
51.83472513083463
 20
485.5814868107547
 30
0.0
 10
51.63450976514854
 20
485.6850801141717
 30
0.0
 10
51.43002395428855
 20
485.7908277589646
 30
0.0
 10
51.20332313144005
 20
485.9080222122533
 30
0.0
 10
50.95691833799538
 20
486.0354129051938
 30
0.0
 10
50.69953262467387
 20
486.1684048743949
 30
0.0
 10
50.45822751494338
 20
486.2930466515913
 30
0.0
 10
50.25296439838599
 20
486.3990442285097
 30
0.0
 10
50.08077732464843
 20
486.4879364627154
 30
0.0
 10
49.93108229818428
 20
486.5652112076976
 30
0.0
 10
49.77580131808607
 20
486.645347600827
 30
0.0
 10
49.60598734385438
 20
486.7329687158333
 30
0.0
 10
49.41838108985662
 20
486.8297577240651
 30
0.0
 10
49.21405853837957
 20
486.9351716994754
 30
0.0
 10
48.99528020314715
 20
487.04797010411
 30
0.0
 10
48.76735184969618
 20
487.1654732310498
 30
0.0
 10
48.53464464905669
 20
487.2854471479694
 30
0.0
 10
48.30231292888053
 20
487.4051268362619
 30
0.0
 10
48.07078495120412
 20
487.5244641993161
 30
0.0
 10
47.84294504481561
 20
487.6418748430154
 30
0.0
 10
47.62277183759831
 20
487.7549971840805
 30
0.0
 10
47.41892858763974
 20
487.8602287229622
 30
0.0
 10
47.2477116614367
 20
487.9491392941788
 30
0.0
 10
47.10219117914232
 20
488.0230714879646
 30
0.0
 10
46.98025519368802
 20
488.0835177557495
 30
0.0
 10
46.86648362109194
 20
488.1411897183601
 30
0.0
 10
46.76180441011797
 20
488.199769603519
 30
0.0
 10
46.63046332687724
 20
488.2651803031581
 30
0.0
 10
46.41020795117795
 20
488.3368593361184
 30
0.0
 10
46.10206878161982
 20
488.4019834117211
 30
0.0
 10
45.73107973420101
 20
488.4606643380091
 30
0.0
 10
45.3154340376369
 20
488.51412585774
 30
0.0
 10
44.77309666163882
 20
488.5714251703408
 30
0.0
 10
44.07980957729555
 20
488.6314357741618
 30
0.0
 10
43.2117135132145
 20
488.6928567514838
 30
0.0
 10
42.26036850003062
 20
488.7476805672521
 30
0.0
 10
41.42570857838533
 20
488.7888853234007
 30
0.0
 10
40.98147749233395
 20
488.8064348552879
 30
0.0
 10
40.82798074893303
 20
488.8124640221565
 30
0.0
  0
ARC
  5
BB
330
75
100
AcDbEntity
  8
$DDT_AUDIT_GENERATED_(97)
  6
Continuous
 62
     7
100
AcDbCircle
 10
1256.3356275052
 20
534.7464824137
 30
0.0
 40
1202.670853597301
100
AcDbArc
 50
182.4310999017
 51
183.7684088853
  0
ARC
  5
BC
330
75
100
AcDbEntity
  8
$DDT_AUDIT_GENERATED_(97)
  6
Continuous
 62
     7
100
AcDbCircle
 10
-1194.5359157895
 20
534.796936187
 30
0.0
 40
1203.574282028638
100
AcDbArc
 50
356.231975283
 51
357.5683204355
  0
SPLINE
  5
BD
330
75
100
AcDbEntity
  8
$DDT_AUDIT_GENERATED_(97)
  6
Continuous
 62
     7
100
AcDbSpline
210
0.0
220
0.0
230
1.0
 70
     8
 71
     3
 72
    15
 73
    11
 74
     0
 42
0.0000000032869843
 43
0.0000000001
 40
0.0
 40
0.0
 40
0.0
 40
0.0
 40
0.1033695271525737
 40
0.2457523503570978
 40
0.3955893215859279
 40
0.5434676651850434
 40
0.6890252677489915
 40
0.833000932096242
 40
0.975963034020153
 40
1.0
 40
1.0
 40
1.0
 40
1.0
 10
6.612833655894393
 20
454.128635815159
 30
0.0
 10
6.665347468666247
 20
454.0748778222879
 30
0.0
 10
6.7727935213098
 20
453.9669590003705
 30
0.0
 10
7.022354775083492
 20
453.8013836094672
 30
0.0
 10
7.349161691798625
 20
453.6314359484469
 30
0.0
 10
7.745569334903765
 20
453.4669709981649
 30
0.0
 10
8.199824555099045
 20
453.3096820799293
 30
0.0
 10
8.709893631847862
 20
453.1606017377445
 30
0.0
 10
9.124276825901445
 20
453.0513296372343
 30
0.0
 10
9.355918140721315
 20
452.9997430577502
 30
0.0
 10
9.394825940353464
 20
452.9910925922451
 30
0.0
  0
LINE
  5
BE
330
75
100
AcDbEntity
  8
$DDT_AUDIT_GENERATED_(97)
  6
Continuous
 62
     7
100
AcDbLine
 10
31.3502415333
 20
451.3640763632
 30
0.0
 11
31.3515647633
 21
451.3640763718
 31
0.0
  0
SPLINE
  5
BF
330
75
100
AcDbEntity
  8
$DDT_AUDIT_GENERATED_(97)
  6
Continuous
 62
     7
100
AcDbSpline
210
0.0
220
0.0
230
1.0
 70
     8
 71
     3
 72
    13
 73
     9
 74
     0
 42
0.0000000078131108
 43
0.0000000001
 40
0.0
 40
0.0
 40
0.0
 40
0.0
 40
0.2071084055728069
 40
0.4186964885490768
 40
0.6385061375918283
 40
0.8402462629657496
 40
0.9648805944685622
 40
1.0
 40
1.0
 40
1.0
 40
1.0
 10
6.418901817250459
 20
455.3592640250843
 30
0.0
 10
6.414877455499533
 20
455.2317170345532
 30
0.0
 10
6.408834543753176
 20
455.015737938806
 30
0.0
 10
6.418303554204738
 20
454.7177145634275
 30
0.0
 10
6.445898824627309
 20
454.4755781046852
 30
0.0
 10
6.498756664913737
 20
454.3020126135805
 30
0.0
 10
6.554219803898628
 20
454.1820594414065
 30
0.0
 10
6.602355325247021
 20
454.1395187210272
 30
0.0
 10
6.614750064496064
 20
454.1286003917821
 30
0.0
  0
SPLINE
  5
C0
330
75
100
AcDbEntity
  8
$DDT_AUDIT_GENERATED_(97)
  6
Continuous
 62
     7
100
AcDbSpline
210
0.0
220
0.0
230
1.0
 70
     8
 71
     3
 72
    16
 73
    12
 74
     0
 42
0.000000002805031
 43
0.0000000001
 40
0.0
 40
0.0
 40
0.0
 40
0.0
 40
0.0651192094172961
 40
0.1913243542540442
 40
0.3172450032246775
 40
0.4443742159829408
 40
0.5726603872105658
 40
0.702438092217777
 40
0.8342382969281613
 40
0.9685760334929144
 40
1.0
 40
1.0
 40
1.0
 40
1.0
 10
52.79539086925645
 20
452.8784126300563
 30
0.0
 10
52.91911158542534
 20
452.9040566350264
 30
0.0
 10
53.22694197308929
 20
452.9681777372766
 30
0.0
 10
53.72543744966772
 20
453.0895460186852
 30
0.0
 10
54.25201423223536
 20
453.2336608854661
 30
0.0
 10
54.72491392965977
 20
453.3842015438441
 30
0.0
 10
55.14069670032222
 20
453.5405487767587
 30
0.0
 10
55.50192947383992
 20
453.7046224421483
 30
0.0
 10
55.80100351852538
 20
453.8799010356262
 30
0.0
 10
55.9978401516215
 20
454.0223504794379
 30
0.0
 10
56.06982236402014
 20
454.1098863828975
 30
0.0
 10
56.08565818082827
 20
454.129282651708
 30
0.0
  0
SPLINE
  5
C1
330
75
100
AcDbEntity
  8
$DDT_AUDIT_GENERATED_(97)
  6
Continuous
 62
     7
100
AcDbSpline
210
0.0
220
0.0
230
1.0
 70
     8
 71
     3
 72
    14
 73
    10
 74
     0
 42
0.0000000077808867
 43
0.0000000001
 40
0.0
 40
0.0
 40
0.0
 40
0.0
 40
0.0034016262974578
 40
0.1189806257249433
 40
0.2595252970782729
 40
0.4531151825807949
 40
0.6652374213548068
 40
0.888684526486452
 40
1.0
 40
1.0
 40
1.0
 40
1.0
 10
56.09168643137476
 20
454.127385095764
 30
0.0
 10
56.09300419906523
 20
454.1283629882738
 30
0.0
 10
56.13276419098205
 20
454.157862820941
 30
0.0
 10
56.17581903730733
 20
454.2480101735369
 30
0.0
 10
56.23465752965398
 20
454.3860305582734
 30
0.0
 10
56.26951637814602
 20
454.5779601742751
 30
0.0
 10
56.28960810156936
 20
454.8357719713226
 30
0.0
 10
56.29235924590573
 20
455.1085168763385
 30
0.0
 10
56.28431722574649
 20
455.2933732001173
 30
0.0
 10
56.28101731051251
 20
455.3659563714016
 30
0.0
  0
ELLIPSE
  5
C3
330
75
100
AcDbEntity
  8
02636038_GEHÄUSE
  6
Continuous
 62
     7
100
AcDbEllipse
 10
31.35
 20
416.204879195
 30
0.0
 11
-10.02278736572427
 21
-1.387778780781446E-14
 31
0.0
210
0.0
220
0.0
230
1.0
 40
0.2588190451
 41
3.061901348746206
 42
6.283185307179586
  0
ELLIPSE
  5
C4
330
75
100
AcDbEntity
  8
02636038_GEHÄUSE
  6
Continuous
 62
     7
100
AcDbEllipse
 10
31.35
 20
416.204879195
 30
0.0
 11
-10.02278736572427
 21
-1.387778780781446E-14
 31
0.0
210
0.0
220
0.0
230
1.0
 40
0.2588190451
 41
0.0
 42
0.0796913048437792
  0
ELLIPSE
  5
C5
330
75
100
AcDbEntity
  8
02636038_GEHÄUSE
  6
Continuous
 62
     7
100
AcDbEllipse
 10
31.35
 20
416.204879195
 30
0.0
 11
10.75000000000001
 21
0.0
 31
0.0
210
0.0
220
0.0
230
1.0
 40
0.2588190451
 41
5.767028548778637
 42
6.283185307179586
  0
ELLIPSE
  5
C6
330
75
100
AcDbEntity
  8
02636038_GEHÄUSE
  6
Continuous
 62
     7
100
AcDbEllipse
 10
31.35
 20
416.204879195
 30
0.0
 11
10.75000000000001
 21
0.0
 31
0.0
210
0.0
220
0.0
230
1.0
 40
0.2588190451
 41
-0.9485794581121114
 42
-0.9217342681419289
  0
ELLIPSE
  5
C7
330
75
100
AcDbEntity
  8
02636038_GEHÄUSE
  6
Continuous
 62
     7
100
AcDbEllipse
 10
31.35
 20
416.204879195
 30
0.0
 11
10.75000000000001
 21
0.0
 31
0.0
210
0.0
220
0.0
230
1.0
 40
0.2588190451
 41
4.06332692173173
 42
4.088809817770697
  0
ELLIPSE
  5
C8
330
75
100
AcDbEntity
  8
02636038_GEHÄUSE
  6
Continuous
 62
     7
100
AcDbEllipse
 10
31.35
 20
416.204879195
 30
0.0
 11
10.75000000000001
 21
0.0
 31
0.0
210
0.0
220
0.0
230
1.0
 40
0.2588190451
 41
0.0
 42
3.657749411990755
  0
LINE
  5
C9
330
75
100
AcDbEntity
  8
02636038_GEHÄUSE
  6
Continuous
 62
     7
100
AcDbLine
 10
42.35
 20
415.8421654915
 30
0.0
 11
42.35
 21
417.181038188
 31
0.0
  0
ELLIPSE
  5
CA
330
75
100
AcDbEntity
  8
02636038_GEHÄUSE
  6
Continuous
 62
     7
100
AcDbEllipse
 10
31.35
 20
419.1026566739
 30
0.0
 11
-11.79999999999987
 21
0.0
 31
0.0
210
0.0
220
0.0
230
1.0
 40
0.2588190451
 41
2.771250021498072
 42
3.511935285681515
  0
LINE
  5
CB
330
75
100
AcDbEntity
  8
02636038_GEHÄUSE
  6
Continuous
 62
     7
100
AcDbLine
 10
42.35
 20
417.181038188
 30
0.0
 11
42.35
 21
418.4534906225
 31
0.0
  0
LINE
  5
CC
330
75
100
AcDbEntity
  8
02636038_GEHÄUSE
  6
Continuous
 62
     7
100
AcDbLine
 10
42.35
 20
418.4534906225
 30
0.0
 11
42.35
 21
420.208029153
 31
0.0
  0
LINE
  5
CD
330
75
100
AcDbEntity
  8
02636038_GEHÄUSE
  6
Continuous
 62
     7
100
AcDbLine
 10
20.35
 20
417.181038188
 30
0.0
 11
20.35
 21
415.8421654915
 31
0.0
  0
ELLIPSE
  5
CE
330
75
100
AcDbEntity
  8
02636038_GEHÄUSE
  6
Continuous
 62
     7
100
AcDbEllipse
 10
31.35
 20
419.1026566739
 30
0.0
 11
11.79999999999998
 21
0.0
 31
0.0
210
0.0
220
0.0
230
1.0
 40
0.2588190451
 41
2.771250021498088
 42
3.511935285681515
  0
LINE
  5
CF
330
75
100
AcDbEntity
  8
02636038_GEHÄUSE
  6
Continuous
 62
     7
100
AcDbLine
 10
20.35
 20
420.208029153
 30
0.0
 11
20.35
 21
418.4534906225
 31
0.0
  0
LINE
  5
D0
330
75
100
AcDbEntity
  8
02636038_GEHÄUSE
  6
Continuous
 62
     7
100
AcDbLine
 10
20.35
 20
418.4534906225
 30
0.0
 11
20.35
 21
417.181038188
 31
0.0
  0
LINE
  5
D1
330
75
100
AcDbEntity
  8
02636038_GEHÄUSE
  6
Continuous
 62
     7
100
AcDbLine
 10
21.3406637872
 20
415.1542646332
 30
0.0
 11
21.8278438683
 21
414.9136070738
 31
0.0
  0
LINE
  5
D2
330
75
100
AcDbEntity
  8
02636038_GEHÄUSE
  6
Continuous
 62
     7
100
AcDbLine
 10
40.8721561317
 20
414.9136070738
 30
0.0
 11
41.3593362128
 21
415.1542646332
 31
0.0
  0
ARC
  5
D3
330
75
100
AcDbEntity
  8
02636038_GEHÄUSE
  6
Continuous
 62
     7
100
AcDbCircle
 10
39.3615779356
 20
419.3311786602
 30
0.0
 40
4.631219576939746
100
AcDbArc
 50
293.2513588277
 51
301.2981893607
  0
ARC
  5
D4
330
75
100
AcDbEntity
  8
02636038_GEHÄUSE
  6
Continuous
 62
     7
100
AcDbCircle
 10
39.3615779356
 20
419.3311786602
 30
0.0
 40
4.631219576939746
100
AcDbArc
 50
302.0968121046
 51
310.1896950492
  0
ARC
  5
D5
330
75
100
AcDbEntity
  8
02636038_GEHÄUSE
  6
Continuous
 62
     7
100
AcDbCircle
 10
23.1075456236
 20
418.9550825855
 30
0.0
 40
4.19150046177512
100
AcDbArc
 50
228.9081039339
 51
245.5731562607
  0
LINE
  5
D6
330
75
100
AcDbEntity
  8
02636038_GEHÄUSE
  6
Continuous
 62
     7
100
AcDbLine
 10
19.55
 20
424.0169179897
 30
0.0
 11
19.55
 21
419.1026566739
 31
0.0
  0
LINE
  5
D7
330
75
100
AcDbEntity
  8
02636038_GEHÄUSE
  6
Continuous
 62
     7
100
AcDbLine
 10
43.15
 20
419.1026566739
 30
0.0
 11
43.15
 21
424.0154681968
 31
0.0
  0
ELLIPSE
  5
D9
330
75
100
AcDbEntity
  8
$DDT_AUDIT_GENERATED_(D8)
  6
Continuous
 62
     7
100
AcDbEllipse
 10
31.35
 20
416.1082866124
 30
0.0
 11
-10.0
 21
-4.163336342344337E-14
 31
0.0
210
0.0
220
0.0
230
1.0
 40
0.2588190451
 41
2.986268318090013
 42
6.283185307179586
  0
ELLIPSE
  5
DA
330
75
100
AcDbEntity
  8
$DDT_AUDIT_GENERATED_(D8)
  6
Continuous
 62
     7
100
AcDbEllipse
 10
31.35
 20
416.1082866124
 30
0.0
 11
-10.0
 21
-4.163336342344337E-14
 31
0.0
210
0.0
220
0.0
230
1.0
 40
0.2588190451
 41
0.0
 42
0.1553243354997789
  0
ELLIPSE
  5
DB
330
75
100
AcDbEntity
  8
$DDT_AUDIT_GENERATED_(D8)
  6
Continuous
 62
     7
100
AcDbEllipse
 10
31.3500000004
 20
416.0599903211
 30
0.0
 11
-9.971132486915259
 21
6.453171330633723E-12
 31
0.0
210
0.0
220
0.0
230
1.0
 40
0.2588190451
 41
6.182726912378523
 42
6.283185307179576
  0
LINE
  5
DC
330
75
100
AcDbEntity
  8
$DDT_AUDIT_GENERATED_(D8)
  6
Continuous
 62
     7
100
AcDbLine
 10
21.4291389958
 20
416.3188093662
 30
0.0
 11
22.8520108335
 21
413.9522910918
 31
0.0
  0
ELLIPSE
  5
DD
330
75
100
AcDbEntity
  8
$DDT_AUDIT_GENERATED_(D8)
  6
Continuous
 62
     7
100
AcDbEllipse
 10
31.35
 20
413.6934720467
 30
0.0
 11
-8.556624327026137
 21
-1.249000902703301E-13
 31
0.0
210
0.0
220
0.0
230
1.0
 40
0.2588190451
 41
5.614923346408008
 42
6.166049104553738
  0
LINE
  5
DE
330
75
100
AcDbEntity
  8
$DDT_AUDIT_GENERATED_(D8)
  6
Continuous
 62
     7
100
AcDbLine
 10
24.6339074527
 20
415.0656993028
 30
0.0
 11
23.6277851276
 21
417.6926211967
 31
0.0
  0
ELLIPSE
  5
DF
330
75
100
AcDbEntity
  8
$DDT_AUDIT_GENERATED_(D8)
  6
Continuous
 62
     7
100
AcDbEllipse
 10
31.35
 20
416.0599903211
 30
0.0
 11
-9.971132486506569
 21
-5.717648576819556E-12
 31
0.0
210
0.0
220
0.0
230
1.0
 40
0.2588190451
 41
-0.8858565582021143
 42
-0.6849397685954086
  0
LINE
  5
E0
330
75
100
AcDbEntity
  8
$DDT_AUDIT_GENERATED_(D8)
  6
Continuous
 62
     7
100
AcDbLine
 10
25.0419986899
 20
418.0586466005
 30
0.0
 11
26.0481210151
 21
415.4317247066
 31
0.0
  0
ELLIPSE
  5
E1
330
75
100
AcDbEntity
  8
$DDT_AUDIT_GENERATED_(D8)
  6
Continuous
 62
     7
100
AcDbEllipse
 10
31.35
 20
413.6934720467
 30
0.0
 11
-8.556624327025494
 21
-1.526556658859590E-13
 31
0.0
210
0.0
220
0.0
230
1.0
 40
0.2588190451
 41
4.829525183010507
 42
5.380650941156262
  0
LINE
  5
E2
330
75
100
AcDbEntity
  8
$DDT_AUDIT_GENERATED_(D8)
  6
Continuous
 62
     7
100
AcDbLine
 10
30.35
 20
415.892913488
 30
0.0
 11
30.35
 21
418.6276980928
 31
0.0
  0
ELLIPSE
  5
E3
330
75
100
AcDbEntity
  8
$DDT_AUDIT_GENERATED_(D8)
  6
Continuous
 62
     7
100
AcDbEllipse
 10
31.35
 20
416.0599903211
 30
0.0
 11
-9.971132486557275
 21
-6.938893903907228E-14
 31
0.0
210
0.0
220
0.0
230
1.0
 40
0.2588190451
 41
4.611930585581758
 42
4.812847375187662
  0
LINE
  5
E4
330
75
100
AcDbEntity
  8
$DDT_AUDIT_GENERATED_(D8)
  6
Continuous
 62
     7
100
AcDbLine
 10
32.35
 20
418.6276980928
 30
0.0
 11
32.35
 21
415.892913488
 31
0.0
  0
ELLIPSE
  5
E5
330
75
100
AcDbEntity
  8
$DDT_AUDIT_GENERATED_(D8)
  6
Continuous
 62
     7
100
AcDbEllipse
 10
31.35
 20
413.6934720467
 30
0.0
 11
8.556624327025892
 21
2.775557561562891E-14
 31
0.0
210
0.0
220
0.0
230
1.0
 40
0.2588190451
 41
0.9025343660232904
 42
1.453660124169049
  0
LINE
  5
E6
330
75
100
AcDbEntity
  8
$DDT_AUDIT_GENERATED_(D8)
  6
Continuous
 62
     7
100
AcDbLine
 10
36.6518789849
 20
415.4317247066
 30
0.0
 11
37.6580013101
 21
418.0586466005
 31
0.0
  0
ELLIPSE
  5
E7
330
75
100
AcDbEntity
  8
$DDT_AUDIT_GENERATED_(D8)
  6
Continuous
 62
     7
100
AcDbEllipse
 10
31.35
 20
416.0599903211
 30
0.0
 11
9.97113248653751
 21
-4.302114220422482E-13
 31
0.0
210
0.0
220
0.0
230
1.0
 40
0.2588190451
 41
0.6849397685944169
 42
0.8858565582006941
  0
LINE
  5
E8
330
75
100
AcDbEntity
  8
$DDT_AUDIT_GENERATED_(D8)
  6
Continuous
 62
     7
100
AcDbLine
 10
39.0722148724
 20
417.6926211967
 30
0.0
 11
38.0660925473
 21
415.0656993028
 31
0.0
  0
ELLIPSE
  5
E9
330
75
100
AcDbEntity
  8
$DDT_AUDIT_GENERATED_(D8)
  6
Continuous
 62
     7
100
AcDbEllipse
 10
31.35
 20
413.6934720467
 30
0.0
 11
8.556624327026064
 21
2.220446049250313E-13
 31
0.0
210
0.0
220
0.0
230
1.0
 40
0.2588190451
 41
0.1171362026258315
 42
0.6682619607715913
  0
LINE
  5
EA
330
75
100
AcDbEntity
  8
$DDT_AUDIT_GENERATED_(D8)
  6
Continuous
 62
     7
100
AcDbLine
 10
39.8479891665
 20
413.9522910918
 30
0.0
 11
41.2708610042
 21
416.3188093662
 31
0.0
  0
ELLIPSE
  5
EB
330
75
100
AcDbEntity
  8
$DDT_AUDIT_GENERATED_(D8)
  6
Continuous
 62
     7
100
AcDbEllipse
 10
31.35
 20
416.0599903211
 30
0.0
 11
-9.971132486540098
 21
0.0
 31
0.0
210
0.0
220
0.0
230
1.0
 40
0.2588190451
 41
3.041134258786665
 42
3.242051048392921
  0
LINE
  5
EC
330
75
100
AcDbEntity
  8
$DDT_AUDIT_GENERATED_(D8)
  6
Continuous
 62
     7
100
AcDbLine
 10
41.2708610042
 20
415.801171276
 30
0.0
 11
39.8479891665
 21
413.4346530016
 31
0.0
  0
ELLIPSE
  5
ED
330
75
100
AcDbEntity
  8
$DDT_AUDIT_GENERATED_(D8)
  6
Continuous
 62
     7
100
AcDbEllipse
 10
31.35
 20
413.6934720467
 30
0.0
 11
8.556624327026411
 21
1.942890293094024E-13
 31
0.0
210
0.0
220
0.0
230
1.0
 40
0.2588190451
 41
5.614923346407997
 42
6.166049104553731
  0
ELLIPSE
  5
EE
330
75
100
AcDbEntity
  8
$DDT_AUDIT_GENERATED_(D8)
  6
Continuous
 62
     7
100
AcDbEllipse
 10
31.35
 20
416.0599903211
 30
0.0
 11
9.97113248650772
 21
5.509481759702339E-12
 31
0.0
210
0.0
220
0.0
230
1.0
 40
0.2588190451
 41
-0.8858565582020441
 42
-0.861033906726016
  0
LINE
  5
EF
330
75
100
AcDbEntity
  8
$DDT_AUDIT_GENERATED_(D8)
  6
Continuous
 62
     7
100
AcDbLine
 10
37.6580013101
 20
414.0613340417
 30
0.0
 11
36.6518789849
 21
411.9552193868
 31
0.0
  0
ELLIPSE
  5
F0
330
75
100
AcDbEntity
  8
$DDT_AUDIT_GENERATED_(D8)
  6
Continuous
 62
     7
100
AcDbEllipse
 10
31.35
 20
413.6934720467
 30
0.0
 11
8.556624327025887
 21
8.326672684688674E-14
 31
0.0
210
0.0
220
0.0
230
1.0
 40
0.2588190451
 41
4.829525183010532
 42
5.380650941156278
  0
ELLIPSE
  5
F1
330
75
100
AcDbEntity
  8
$DDT_AUDIT_GENERATED_(D8)
  6
Continuous
 62
     7
100
AcDbEllipse
 10
31.35
 20
413.6934720467
 30
0.0
 11
-8.556624327026173
 21
-9.714451465470120E-14
 31
0.0
210
0.0
220
0.0
230
1.0
 40
0.2588190451
 41
0.9025343660232904
 42
1.453660124169027
  0
LINE
  5
F2
330
75
100
AcDbEntity
  8
$DDT_AUDIT_GENERATED_(D8)
  6
Continuous
 62
     7
100
AcDbLine
 10
26.0481210151
 20
411.9552193868
 30
0.0
 11
25.0419986899
 21
414.0613340417
 31
0.0
  0
ELLIPSE
  5
F3
330
75
100
AcDbEntity
  8
$DDT_AUDIT_GENERATED_(D8)
  6
Continuous
 62
     7
100
AcDbEllipse
 10
31.35
 20
416.0599903211
 30
0.0
 11
-9.971132486559121
 21
-4.066191827689636E-12
 31
0.0
210
0.0
220
0.0
230
1.0
 40
0.2588190451
 41
0.8610339067237849
 42
0.8858565581997112
  0
ELLIPSE
  5
F4
330
75
100
AcDbEntity
  8
$DDT_AUDIT_GENERATED_(D8)
  6
Continuous
 62
     7
100
AcDbEllipse
 10
31.35
 20
413.6934720467
 30
0.0
 11
-8.556624327025711
 21
-1.387778780781446E-14
 31
0.0
210
0.0
220
0.0
230
1.0
 40
0.2588190451
 41
0.1171362026258619
 42
0.6682619607716024
  0
LINE
  5
F5
330
75
100
AcDbEntity
  8
$DDT_AUDIT_GENERATED_(D8)
  6
Continuous
 62
     7
100
AcDbLine
 10
22.8520108335
 20
413.4346530016
 30
0.0
 11
21.4291389958
 21
415.801171276
 31
0.0
  0
ELLIPSE
  5
F6
330
75
100
AcDbEntity
  8
$DDT_AUDIT_GENERATED_(D8)
  6
Continuous
 62
     7
100
AcDbEllipse
 10
31.3500000004
 20
416.0599903211
 30
0.0
 11
9.971132486911772
 21
6.397660179402465E-12
 31
0.0
210
0.0
220
0.0
230
1.0
 40
0.2588190451
 41
3.141592653589793
 42
3.242051048390879
  0
LINE
  5
F7
330
75
100
AcDbEntity
  8
$DDT_AUDIT_GENERATED_(D8)
  6
Continuous
 62
     7
100
AcDbLine
 10
37.8477241921
 20
412.3777626797
 30
0.0
 11
38.0660925473
 21
412.3212447906
 31
0.0
  0
LINE
  5
F8
330
75
100
AcDbEntity
  8
$DDT_AUDIT_GENERATED_(D8)
  6
Continuous
 62
     7
100
AcDbLine
 10
39.8479891665
 20
413.4346530016
 30
0.0
 11
39.5391696771
 21
413.4346530016
 31
0.0
  0
ELLIPSE
  5
F9
330
75
100
AcDbEntity
  8
$DDT_AUDIT_GENERATED_(D8)
  6
Continuous
 62
     7
100
AcDbEllipse
 10
31.35
 20
413.6934720467
 30
0.0
 11
8.250000000000034
 21
1.110223024625157E-13
 31
0.0
210
0.0
220
0.0
230
1.0
 40
0.2588190451
 41
5.619298060471819
 42
6.161674390489887
  0
LINE
  5
FA
330
75
100
AcDbEntity
  8
$DDT_AUDIT_GENERATED_(D8)
  6
Continuous
 62
     7
100
AcDbLine
 10
36.6518789849
 20
411.9552193868
 30
0.0
 11
36.4335106298
 21
412.0117372759
 31
0.0
  0
ELLIPSE
  5
FB
330
75
100
AcDbEntity
  8
$DDT_AUDIT_GENERATED_(D8)
  6
Continuous
 62
     7
100
AcDbEllipse
 10
31.35
 20
413.6934720467
 30
0.0
 11
8.250000000000709
 21
-5.551115123125783E-14
 31
0.0
210
0.0
220
0.0
230
1.0
 40
0.2588190451
 41
4.833899897074423
 42
5.376276227092461
  0
LINE
  5
FC
330
75
100
AcDbEntity
  8
$DDT_AUDIT_GENERATED_(D8)
  6
Continuous
 62
     7
100
AcDbLine
 10
32.35
 20
411.5739589707
 30
0.0
 11
32.35
 21
411.4940306053
 31
0.0
  0
LINE
  5
FD
330
75
100
AcDbEntity
  8
$DDT_AUDIT_GENERATED_(D8)
  6
Continuous
 62
     7
100
AcDbLine
 10
39.5391696771
 20
413.9522910918
 30
0.0
 11
39.8479891665
 21
413.9522910918
 31
0.0
  0
LINE
  5
FE
330
75
100
AcDbEntity
  8
$DDT_AUDIT_GENERATED_(D8)
  6
Continuous
 62
     7
100
AcDbLine
 10
38.0660925473
 20
415.0656993028
 30
0.0
 11
37.8477241921
 21
415.0091814136
 31
0.0
  0
ELLIPSE
  5
FF
330
75
100
AcDbEntity
  8
$DDT_AUDIT_GENERATED_(D8)
  6
Continuous
 62
     7
100
AcDbEllipse
 10
31.35
 20
413.6934720467
 30
0.0
 11
8.250000000000957
 21
2.081668171172169E-13
 31
0.0
210
0.0
220
0.0
230
1.0
 40
0.2588190451
 41
0.1215109166896712
 42
0.6638872467077153
  0
LINE
  5
100
330
75
100
AcDbEntity
  8
$DDT_AUDIT_GENERATED_(D8)
  6
Continuous
 62
     7
100
AcDbLine
 10
36.4335106298
 20
415.3752068174
 30
0.0
 11
36.6518789849
 21
415.4317247066
 31
0.0
  0
LINE
  5
101
330
75
100
AcDbEntity
  8
$DDT_AUDIT_GENERATED_(D8)
  6
Continuous
 62
     7
100
AcDbLine
 10
32.35
 20
415.892913488
 30
0.0
 11
32.35
 21
415.8129851227
 31
0.0
  0
ELLIPSE
  5
102
330
75
100
AcDbEntity
  8
$DDT_AUDIT_GENERATED_(D8)
  6
Continuous
 62
     7
100
AcDbEllipse
 10
31.35
 20
413.6934720467
 30
0.0
 11
8.250000000000739
 21
1.804112415015879E-13
 31
0.0
210
0.0
220
0.0
230
1.0
 40
0.2588190451
 41
0.9069090800871112
 42
1.449285410105159
  0
LINE
  5
103
330
75
100
AcDbEntity
  8
$DDT_AUDIT_GENERATED_(D8)
  6
Continuous
 62
     7
100
AcDbLine
 10
30.35
 20
415.8129851227
 30
0.0
 11
30.35
 21
415.892913488
 31
0.0
  0
LINE
  5
104
330
75
100
AcDbEntity
  8
$DDT_AUDIT_GENERATED_(D8)
  6
Continuous
 62
     7
100
AcDbLine
 10
26.0481210151
 20
415.4317247066
 30
0.0
 11
26.2664893702
 21
415.3752068174
 31
0.0
  0
ELLIPSE
  5
105
330
75
100
AcDbEntity
  8
$DDT_AUDIT_GENERATED_(D8)
  6
Continuous
 62
     7
100
AcDbEllipse
 10
31.35
 20
413.6934720467
 30
0.0
 11
-8.250000000000728
 21
5.551115123125783E-14
 31
0.0
210
0.0
220
0.0
230
1.0
 40
0.2588190451
 41
4.833899897074421
 42
5.37627622709246
  0
LINE
  5
106
330
75
100
AcDbEntity
  8
$DDT_AUDIT_GENERATED_(D8)
  6
Continuous
 62
     7
100
AcDbLine
 10
24.8522758079
 20
415.0091814136
 30
0.0
 11
24.6339074527
 21
415.0656993028
 31
0.0
  0
LINE
  5
107
330
75
100
AcDbEntity
  8
$DDT_AUDIT_GENERATED_(D8)
  6
Continuous
 62
     7
100
AcDbLine
 10
22.8520108335
 20
413.9522910918
 30
0.0
 11
23.1608303229
 21
413.9522910918
 31
0.0
  0
ELLIPSE
  5
108
330
75
100
AcDbEntity
  8
$DDT_AUDIT_GENERATED_(D8)
  6
Continuous
 62
     7
100
AcDbEllipse
 10
31.35
 20
413.6934720467
 30
0.0
 11
-8.250000000000034
 21
-1.110223024625157E-13
 31
0.0
210
0.0
220
0.0
230
1.0
 40
0.2588190451
 41
5.619298060471818
 42
6.161674390489892
  0
LINE
  5
109
330
75
100
AcDbEntity
  8
$DDT_AUDIT_GENERATED_(D8)
  6
Continuous
 62
     7
100
AcDbLine
 10
23.1608303229
 20
413.4346530016
 30
0.0
 11
22.8520108335
 21
413.4346530016
 31
0.0
  0
LINE
  5
10A
330
75
100
AcDbEntity
  8
$DDT_AUDIT_GENERATED_(D8)
  6
Continuous
 62
     7
100
AcDbLine
 10
24.6339074527
 20
412.3212447906
 30
0.0
 11
24.8522758079
 21
412.3777626797
 31
0.0
  0
ELLIPSE
  5
10B
330
75
100
AcDbEntity
  8
$DDT_AUDIT_GENERATED_(D8)
  6
Continuous
 62
     7
100
AcDbEllipse
 10
31.35
 20
413.6934720467
 30
0.0
 11
-8.250000000000236
 21
-2.775557561562891E-14
 31
0.0
210
0.0
220
0.0
230
1.0
 40
0.2588190451
 41
0.1215109166896767
 42
0.6638872467077697
  0
LINE
  5
10C
330
75
100
AcDbEntity
  8
$DDT_AUDIT_GENERATED_(D8)
  6
Continuous
 62
     7
100
AcDbLine
 10
26.2664893702
 20
412.0117372759
 30
0.0
 11
26.0481210151
 21
411.9552193868
 31
0.0
  0
LINE
  5
10D
330
75
100
AcDbEntity
  8
$DDT_AUDIT_GENERATED_(D8)
  6
Continuous
 62
     7
100
AcDbLine
 10
30.35
 20
411.4940306053
 30
0.0
 11
30.35
 21
411.5739589707
 31
0.0
  0
ELLIPSE
  5
10E
330
75
100
AcDbEntity
  8
$DDT_AUDIT_GENERATED_(D8)
  6
Continuous
 62
     7
100
AcDbEllipse
 10
31.35
 20
413.6934720467
 30
0.0
 11
-8.249999999999424
 21
6.938893903907228E-14
 31
0.0
210
0.0
220
0.0
230
1.0
 40
0.2588190451
 41
0.9069090800871346
 42
1.449285410105257
  0
ELLIPSE
  5
10F
330
75
100
AcDbEntity
  8
$DDT_AUDIT_GENERATED_(D8)
  6
Continuous
 62
     7
100
AcDbEllipse
 10
31.35
 20
416.1082866124
 30
0.0
 11
-8.250000000000005
 21
-2.775557561562891E-14
 31
0.0
210
0.0
220
0.0
230
1.0
 40
0.2588190451
 41
1.904601129796561
 42
2.540599058969495
  0
ELLIPSE
  5
110
330
75
100
AcDbEntity
  8
$DDT_AUDIT_GENERATED_(D8)
  6
Continuous
 62
     7
100
AcDbEllipse
 10
31.35
 20
416.1082866124
 30
0.0
 11
-8.250000000000005
 21
-2.775557561562891E-14
 31
0.0
210
0.0
220
0.0
230
1.0
 40
0.2588190451
 41
0.600993594620296
 42
1.236991523793234
  0
LINE
  5
111
330
75
100
AcDbEntity
  8
$DDT_AUDIT_GENERATED_(D8)
  6
Continuous
 62
     7
100
AcDbLine
 10
23.1608303229
 20
413.9522910918
 30
0.0
 11
23.1608303229
 21
413.4346530016
 31
0.0
  0
LINE
  5
112
330
75
100
AcDbEntity
  8
$DDT_AUDIT_GENERATED_(D8)
  6
Continuous
 62
     7
100
AcDbLine
 10
24.8522758079
 20
412.3777626797
 30
0.0
 11
24.8522758079
 21
414.7442809541
 31
0.0
  0
ELLIPSE
  5
113
330
75
100
AcDbEntity
  8
$DDT_AUDIT_GENERATED_(D8)
  6
Continuous
 62
     7
100
AcDbEllipse
 10
31.35
 20
416.0599903211
 30
0.0
 11
-8.249999999999682
 21
4.163336342344337E-14
 31
0.0
210
0.0
220
0.0
230
1.0
 40
0.2588190451
 41
0.6638872467077814
 42
0.9069090800871492
  0
LINE
  5
114
330
75
100
AcDbEntity
  8
$DDT_AUDIT_GENERATED_(D8)
  6
Continuous
 62
     7
100
AcDbLine
 10
26.2664893702
 20
414.3782555503
 30
0.0
 11
26.2664893702
 21
412.0117372759
 31
0.0
  0
LINE
  5
115
330
75
100
AcDbEntity
  8
$DDT_AUDIT_GENERATED_(D8)
  6
Continuous
 62
     7
100
AcDbLine
 10
30.35
 20
411.5739589707
 30
0.0
 11
30.35
 21
413.0435125857
 31
0.0
  0
LINE
  5
116
330
75
100
AcDbEntity
  8
$DDT_AUDIT_GENERATED_(D8)
  6
Continuous
 62
     7
100
AcDbLine
 10
32.35
 20
413.0435125857
 30
0.0
 11
32.35
 21
411.5739589707
 31
0.0
  0
LINE
  5
117
330
75
100
AcDbEntity
  8
$DDT_AUDIT_GENERATED_(D8)
  6
Continuous
 62
     7
100
AcDbLine
 10
36.4335106298
 20
412.0117372759
 30
0.0
 11
36.4335106298
 21
414.3782555503
 31
0.0
  0
ELLIPSE
  5
118
330
75
100
AcDbEntity
  8
$DDT_AUDIT_GENERATED_(D8)
  6
Continuous
 62
     7
100
AcDbEllipse
 10
31.35
 20
416.0599903211
 30
0.0
 11
8.250000000014957
 21
-2.817190924986335E-12
 31
0.0
210
0.0
220
0.0
230
1.0
 40
0.2588190451
 41
-0.906909080086284
 42
-0.6638872467072128
  0
LINE
  5
119
330
75
100
AcDbEntity
  8
$DDT_AUDIT_GENERATED_(D8)
  6
Continuous
 62
     7
100
AcDbLine
 10
37.8477241921
 20
414.7442809541
 30
0.0
 11
37.8477241921
 21
412.3777626797
 31
0.0
  0
LINE
  5
11A
330
75
100
AcDbEntity
  8
$DDT_AUDIT_GENERATED_(D8)
  6
Continuous
 62
     7
100
AcDbLine
 10
39.5391696771
 20
413.4346530016
 30
0.0
 11
39.5391696771
 21
413.9522910918
 31
0.0
  0
LINE
  5
11B
330
75
100
AcDbEntity
  8
$DDT_AUDIT_GENERATED_(D8)
  6
Continuous
 62
     7
100
AcDbLine
 10
37.8477241921
 20
415.0091814136
 30
0.0
 11
37.8477241921
 21
417.3756996881
 31
0.0
  0
ELLIPSE
  5
11C
330
75
100
AcDbEntity
  8
$DDT_AUDIT_GENERATED_(D8)
  6
Continuous
 62
     7
100
AcDbEllipse
 10
31.35
 20
416.0599903211
 30
0.0
 11
8.249999999992569
 21
-9.714451465470120E-13
 31
0.0
210
0.0
220
0.0
230
1.0
 40
0.2588190451
 41
0.663887246708021
 42
0.7360303797285777
  0
ELLIPSE
  5
11D
330
75
100
AcDbEntity
  8
$DDT_AUDIT_GENERATED_(D8)
  6
Continuous
 62
     7
100
AcDbEllipse
 10
31.35
 20
416.0599903211
 30
0.0
 11
8.24999999999824
 21
1.665334536937735E-13
 31
0.0
210
0.0
220
0.0
230
1.0
 40
0.2588190451
 41
1.449285410105176
 42
1.692307243484585
  0
ELLIPSE
  5
11E
330
75
100
AcDbEntity
  8
$DDT_AUDIT_GENERATED_(D8)
  6
Continuous
 62
     7
100
AcDbEllipse
 10
31.35
 20
416.0599903211
 30
0.0
 11
-8.250000000019227
 21
3.594347042223944E-12
 31
0.0
210
0.0
220
0.0
230
1.0
 40
0.2588190451
 41
-0.7383555905506132
 42
-0.6638872467070671
  0
LINE
  5
11F
330
75
100
AcDbEntity
  8
$DDT_AUDIT_GENERATED_(D8)
  6
Continuous
 62
     7
100
AcDbLine
 10
24.8522758079
 20
417.3756996881
 30
0.0
 11
24.8522758079
 21
415.0091814136
 31
0.0
  0
ELLIPSE
  5
120
330
75
100
AcDbEntity
  8
$DDT_AUDIT_GENERATED_(D8)
  6
Continuous
 62
     7
100
AcDbEllipse
 10
31.35
 20
416.1082866124
 30
0.0
 11
7.000000000000353
 21
9.714451465470120E-14
 31
0.0
210
0.0
220
0.0
230
1.0
 40
0.2588190451
 41
1.426659527650764
 42
1.513622325714209
  0
LINE
  5
121
330
75
100
AcDbEntity
  8
$DDT_AUDIT_GENERATED_(D8)
  6
Continuous
 62
     7
100
AcDbLine
 10
32.35
 20
417.0036617644
 30
0.0
 11
32.0216355026
 21
416.798485031
 31
0.0
  0
ELLIPSE
  5
122
330
75
100
AcDbEntity
  8
$DDT_AUDIT_GENERATED_(D8)
  6
Continuous
 62
     7
100
AcDbEllipse
 10
31.35
 20
416.1082866124
 30
0.0
 11
2.749999999996977
 21
-9.992007221626409E-13
 31
0.0
210
0.0
220
0.0
230
1.0
 40
0.2588190451
 41
1.324069633640889
 42
1.424823938251335
  0
LINE
  5
123
330
75
100
AcDbEntity
  8
$DDT_AUDIT_GENERATED_(D8)
  6
Continuous
 62
     7
100
AcDbLine
 10
31.75
 20
416.8124694539
 30
0.0
 11
31.75
 21
417.9170595776
 31
0.0
  0
LINE
  5
124
330
75
100
AcDbEntity
  8
$DDT_AUDIT_GENERATED_(D8)
  6
Continuous
 62
     7
100
AcDbLine
 10
24.8522758079
 20
416.6928264765
 30
0.0
 11
25.5956363943
 21
416.6131334948
 31
0.0
  0
LINE
  5
125
330
75
100
AcDbEntity
  8
$DDT_AUDIT_GENERATED_(D8)
  6
Continuous
 62
     7
100
AcDbLine
 10
25.7493433897
 20
416.2118142304
 30
0.0
 11
24.8522758079
 21
416.2118142304
 31
0.0
  0
ELLIPSE
  5
126
330
75
100
AcDbEntity
  8
$DDT_AUDIT_GENERATED_(D8)
  6
Continuous
 62
     7
100
AcDbEllipse
 10
31.35
 20
416.1082866124
 30
0.0
 11
-6.999999999998784
 21
-4.163336342344337E-14
 31
0.0
210
0.0
220
0.0
230
1.0
 40
0.2588190451
 41
-0.5534950795933744
 42
-0.4498730827794217
  0
LINE
  5
127
330
75
100
AcDbEntity
  8
$DDT_AUDIT_GENERATED_(D8)
  6
Continuous
 62
     7
100
AcDbLine
 10
25.5061239768
 20
416.8468447677
 30
0.0
 11
25.046483902
 21
416.8961211064
 31
0.0
  0
ELLIPSE
  5
128
330
75
100
AcDbEntity
  8
$DDT_AUDIT_GENERATED_(D8)
  6
Continuous
 62
     7
100
AcDbEllipse
 10
31.35
 20
416.1082866124
 30
0.0
 11
-7.000000000000751
 21
0.0
 31
0.0
210
0.0
220
0.0
230
1.0
 40
0.2588190451
 41
-1.513622325714197
 42
-1.42721180662071
  0
LINE
  5
129
330
75
100
AcDbEntity
  8
$DDT_AUDIT_GENERATED_(D8)
  6
Continuous
 62
     7
100
AcDbLine
 10
30.95
 20
417.9170595776
 30
0.0
 11
30.95
 21
416.8124694539
 31
0.0
  0
ELLIPSE
  5
12A
330
75
100
AcDbEntity
  8
$DDT_AUDIT_GENERATED_(D8)
  6
Continuous
 62
     7
100
AcDbEllipse
 10
31.35
 20
416.1082866124
 30
0.0
 11
-2.749999999923519
 21
-8.007483565108942E-12
 31
0.0
210
0.0
220
0.0
230
1.0
 40
0.2588190451
 41
-1.424823938257575
 42
-1.324069633644555
  0
LINE
  5
12B
330
75
100
AcDbEntity
  8
$DDT_AUDIT_GENERATED_(D8)
  6
Continuous
 62
     7
100
AcDbLine
 10
30.6783644974
 20
416.798485031
 30
0.0
 11
30.35
 21
417.0036617644
 31
0.0
  0
LINE
  5
12C
330
75
100
AcDbEntity
  8
$DDT_AUDIT_GENERATED_(D8)
  6
Continuous
 62
     7
100
AcDbLine
 10
24.8522758079
 20
416.0047589944
 30
0.0
 11
25.828646431
 21
416.0047589944
 31
0.0
  0
LINE
  5
12D
330
75
100
AcDbEntity
  8
$DDT_AUDIT_GENERATED_(D8)
  6
Continuous
 62
     7
100
AcDbLine
 10
25.9671009099
 20
415.6432630881
 30
0.0
 11
24.8522758079
 21
415.5237467483
 31
0.0
  0
ELLIPSE
  5
12E
330
75
100
AcDbEntity
  8
$DDT_AUDIT_GENERATED_(D8)
  6
Continuous
 62
     7
100
AcDbEllipse
 10
31.35
 20
416.1082866124
 30
0.0
 11
-7.000000000010925
 21
-1.817990202823694E-12
 31
0.0
210
0.0
220
0.0
230
1.0
 40
0.2588190451
 41
0.4498730827790116
 42
0.7282241623161522
  0
LINE
  5
12F
330
75
100
AcDbEntity
  8
$DDT_AUDIT_GENERATED_(D8)
  6
Continuous
 62
     7
100
AcDbLine
 10
25.046483902
 20
415.3204521184
 30
0.0
 11
26.0587506615
 21
415.4289735517
 31
0.0
  0
LINE
  5
130
330
75
100
AcDbEntity
  8
$DDT_AUDIT_GENERATED_(D8)
  6
Continuous
 62
     7
100
AcDbLine
 10
27.554024585
 20
415.5892764242
 30
0.0
 11
28.6469685236
 21
415.7064469641
 31
0.0
  0
LINE
  5
131
330
75
100
AcDbEntity
  8
$DDT_AUDIT_GENERATED_(D8)
  6
Continuous
 62
     7
100
AcDbLine
 10
28.6469685236
 20
415.5551007483
 30
0.0
 11
26.1254976473
 21
414.9024960639
 31
0.0
  0
ELLIPSE
  5
132
330
75
100
AcDbEntity
  8
$DDT_AUDIT_GENERATED_(D8)
  6
Continuous
 62
     7
100
AcDbEllipse
 10
31.35
 20
416.1082866124
 30
0.0
 11
-7.000000000010965
 21
-2.220446049250313E-12
 31
0.0
210
0.0
220
0.0
230
1.0
 40
0.2588190451
 41
0.8425721644776218
 42
1.120923244014693
  0
LINE
  5
133
330
75
100
AcDbEntity
  8
$DDT_AUDIT_GENERATED_(D8)
  6
Continuous
 62
     7
100
AcDbLine
 10
26.6911830722
 20
414.7560859023
 30
0.0
 11
28.6469685236
 21
415.2622804253
 31
0.0
  0
LINE
  5
134
330
75
100
AcDbEntity
  8
$DDT_AUDIT_GENERATED_(D8)
  6
Continuous
 62
     7
100
AcDbLine
 10
28.6469685236
 20
414.6898431024
 30
0.0
 11
28.3060412614
 21
414.4768165951
 31
0.0
  0
ELLIPSE
  5
135
330
75
100
AcDbEntity
  8
$DDT_AUDIT_GENERATED_(D8)
  6
Continuous
 62
     7
100
AcDbEllipse
 10
31.35
 20
416.1082866124
 30
0.0
 11
6.999999999993022
 21
1.609823385706477E-12
 31
0.0
210
0.0
220
0.0
230
1.0
 40
0.2588190451
 41
-1.120923244016037
 42
-0.8425721644784421
  0
LINE
  5
136
330
75
100
AcDbEntity
  8
$DDT_AUDIT_GENERATED_(D8)
  6
Continuous
 62
     7
100
AcDbLine
 10
34.3939587386
 20
414.4768165951
 30
0.0
 11
34.0530314764
 21
414.6898431024
 31
0.0
  0
LINE
  5
137
330
75
100
AcDbEntity
  8
$DDT_AUDIT_GENERATED_(D8)
  6
Continuous
 62
     7
100
AcDbLine
 10
34.0530314764
 20
415.2622804253
 30
0.0
 11
36.0088169278
 21
414.7560859023
 31
0.0
  0
ELLIPSE
  5
138
330
75
100
AcDbEntity
  8
$DDT_AUDIT_GENERATED_(D8)
  6
Continuous
 62
     7
100
AcDbEllipse
 10
31.35
 20
416.1082866124
 30
0.0
 11
6.999999999999461
 21
1.804112415015879E-13
 31
0.0
210
0.0
220
0.0
230
1.0
 40
0.2588190451
 41
-0.7282241623167964
 42
-0.4498730827794217
  0
LINE
  5
139
330
75
100
AcDbEntity
  8
$DDT_AUDIT_GENERATED_(D8)
  6
Continuous
 62
     7
100
AcDbLine
 10
36.5745023527
 20
414.9024960639
 30
0.0
 11
34.0530314764
 21
415.5551007483
 31
0.0
  0
LINE
  5
13A
330
75
100
AcDbEntity
  8
$DDT_AUDIT_GENERATED_(D8)
  6
Continuous
 62
     7
100
AcDbLine
 10
34.0530314764
 20
415.7064469641
 30
0.0
 11
35.145975415
 21
415.5892764242
 31
0.0
  0
LINE
  5
13B
330
75
100
AcDbEntity
  8
$DDT_AUDIT_GENERATED_(D8)
  6
Continuous
 62
     7
100
AcDbLine
 10
36.6412493385
 20
415.4289735517
 30
0.0
 11
37.653516098
 21
415.3204521184
 31
0.0
  0
LINE
  5
13C
330
75
100
AcDbEntity
  8
$DDT_AUDIT_GENERATED_(D8)
  6
Continuous
 62
     7
100
AcDbLine
 10
37.8477241921
 20
415.5237467483
 30
0.0
 11
36.7328990901
 21
415.6432630881
 31
0.0
  0
LINE
  5
13D
330
75
100
AcDbEntity
  8
$DDT_AUDIT_GENERATED_(D8)
  6
Continuous
 62
     7
100
AcDbLine
 10
36.871353569
 20
416.0047589944
 30
0.0
 11
37.8477241921
 21
416.0047589944
 31
0.0
  0
LINE
  5
13E
330
75
100
AcDbEntity
  8
$DDT_AUDIT_GENERATED_(D8)
  6
Continuous
 62
     7
100
AcDbLine
 10
37.8477241921
 20
416.2118142304
 30
0.0
 11
36.9506566103
 21
416.2118142304
 31
0.0
  0
LINE
  5
13F
330
75
100
AcDbEntity
  8
$DDT_AUDIT_GENERATED_(D8)
  6
Continuous
 62
     7
100
AcDbLine
 10
37.1043636057
 20
416.6131334948
 30
0.0
 11
37.8477241921
 21
416.6928264765
 31
0.0
  0
ELLIPSE
  5
140
330
75
100
AcDbEntity
  8
$DDT_AUDIT_GENERATED_(D8)
  6
Continuous
 62
     7
100
AcDbEllipse
 10
31.35
 20
416.1082866124
 30
0.0
 11
6.999999999989377
 21
-1.498801083243961E-12
 31
0.0
210
0.0
220
0.0
230
1.0
 40
0.2588190451
 41
0.4498730827797454
 42
0.5567865711919906
  0
LINE
  5
141
330
75
100
AcDbEntity
  8
$DDT_AUDIT_GENERATED_(D8)
  6
Continuous
 62
     7
100
AcDbLine
 10
37.653516098
 20
416.8961211064
 30
0.0
 11
37.1938760232
 21
416.8468447677
 31
0.0
  0
ELLIPSE
  5
142
330
75
100
AcDbEntity
  8
$DDT_AUDIT_GENERATED_(D8)
  6
Continuous
 62
     7
100
AcDbEllipse
 10
31.35
 20
416.1082866124
 30
0.0
 11
-2.703031476359755
 21
-1.387778780781446E-14
 31
0.0
210
0.0
220
0.0
230
1.0
 40
0.2588190451
 41
4.332465103224407
 42
5.096833458661724
  0
ELLIPSE
  5
143
330
75
100
AcDbEntity
  8
$DDT_AUDIT_GENERATED_(D8)
  6
Continuous
 62
     7
100
AcDbEllipse
 10
31.35
 20
413.6934720467
 30
0.0
 11
-2.703031476359755
 21
-1.387778780781446E-14
 31
0.0
210
0.0
220
0.0
230
1.0
 40
0.2588190451
 41
0.0
 42
6.283185307179586
  0
ELLIPSE
  5
144
330
75
100
AcDbEntity
  8
$DDT_AUDIT_GENERATED_(D8)
  6
Continuous
 62
     7
100
AcDbEllipse
 10
31.35
 20
413.6934720467
 30
0.0
 11
-1.75
 21
-1.387778780781446E-14
 31
0.0
210
0.0
220
0.0
230
1.0
 40
0.2588190451
 41
0.0
 42
6.283185307179586
  0
LINE
  5
145
330
75
100
AcDbEntity
  8
$DDT_AUDIT_GENERATED_(D8)
  6
Continuous
 62
     7
100
AcDbLine
 10
36.5745023527
 20
414.9024960639
 30
0.0
 11
36.5745023527
 21
415.4116981605
 31
0.0
  0
LINE
  5
146
330
75
100
AcDbEntity
  8
$DDT_AUDIT_GENERATED_(D8)
  6
Continuous
 62
     7
100
AcDbLine
 10
34.3939587386
 20
414.4768165951
 30
0.0
 11
34.3939587386
 21
415.1740419568
 31
0.0
  0
LINE
  5
147
330
75
100
AcDbEntity
  8
$DDT_AUDIT_GENERATED_(D8)
  6
Continuous
 62
     7
100
AcDbLine
 10
28.3060412614
 20
415.1740419568
 30
0.0
 11
28.3060412614
 21
414.4768165951
 31
0.0
  0
LINE
  5
148
330
75
100
AcDbEntity
  8
$DDT_AUDIT_GENERATED_(D8)
  6
Continuous
 62
     7
100
AcDbLine
 10
26.1254976473
 20
415.4116981605
 30
0.0
 11
26.1254976473
 21
414.9024960639
 31
0.0
  0
LINE
  5
149
330
75
100
AcDbEntity
  8
$DDT_AUDIT_GENERATED_(D8)
  6
Continuous
 62
     7
100
AcDbLine
 10
30.6783644974
 20
417.911661233
 30
0.0
 11
30.6783644974
 21
416.798485031
 31
0.0
  0
LINE
  5
14A
330
75
100
AcDbEntity
  8
$DDT_AUDIT_GENERATED_(D8)
  6
Continuous
 62
     7
100
AcDbLine
 10
32.0216355026
 20
417.911661233
 30
0.0
 11
32.0216355026
 21
416.798485031
 31
0.0
  0
LINE
  5
14B
330
75
100
AcDbEntity
  8
$DDT_AUDIT_GENERATED_(D8)
  6
Continuous
 62
     7
100
AcDbLine
 10
25.0419986899
 20
414.0613340417
 30
0.0
 11
26.2664893702
 21
414.3782555503
 31
0.0
  0
LINE
  5
14C
330
75
100
AcDbEntity
  8
$DDT_AUDIT_GENERATED_(D8)
  6
Continuous
 62
     7
100
AcDbLine
 10
21.4291389958
 20
415.801171276
 30
0.0
 11
21.7403694937
 21
415.801171276
 31
0.0
  0
LINE
  5
14D
330
75
100
AcDbEntity
  8
$DDT_AUDIT_GENERATED_(D8)
  6
Continuous
 62
     7
100
AcDbLine
 10
23.6277851276
 20
417.6926211967
 30
0.0
 11
24.8522758079
 21
417.3756996881
 31
0.0
  0
LINE
  5
14E
330
75
100
AcDbEntity
  8
$DDT_AUDIT_GENERATED_(D8)
  6
Continuous
 62
     7
100
AcDbLine
 10
37.8477241921
 20
417.3756996881
 30
0.0
 11
39.0722148724
 21
417.6926211967
 31
0.0
  0
LINE
  5
14F
330
75
100
AcDbEntity
  8
$DDT_AUDIT_GENERATED_(D8)
  6
Continuous
 62
     7
100
AcDbLine
 10
40.9596305063
 20
415.801171276
 30
0.0
 11
41.2708610042
 21
415.801171276
 31
0.0
  0
LINE
  5
150
330
75
100
AcDbEntity
  8
$DDT_AUDIT_GENERATED_(D8)
  6
Continuous
 62
     7
100
AcDbLine
 10
36.4335106298
 20
414.3782555503
 30
0.0
 11
37.6580013101
 21
414.0613340417
 31
0.0
  0
LINE
  5
151
330
75
100
AcDbEntity
  8
$DDT_AUDIT_GENERATED_(D8)
  6
Continuous
 62
     7
100
AcDbLine
 10
41.35
 20
416.1082866124
 30
0.0
 11
41.35
 21
416.3797050092
 31
0.0
  0
LINE
  5
152
330
75
100
AcDbEntity
  8
$DDT_AUDIT_GENERATED_(D8)
  6
Continuous
 62
     7
100
AcDbLine
 10
21.35
 20
416.3797050092
 30
0.0
 11
21.35
 21
416.1082866124
 31
0.0
  0
LINE
  5
153
330
75
100
AcDbEntity
  8
$DDT_AUDIT_GENERATED_(D8)
  6
Continuous
 62
     7
100
AcDbLine
 10
21.4703859214
 20
415.7078921562
 30
0.0
 11
22.8963853833
 21
413.3508695522
 31
0.0
  0
LINE
  5
154
330
75
100
AcDbEntity
  8
$DDT_AUDIT_GENERATED_(D8)
  6
Continuous
 62
     7
100
AcDbLine
 10
39.8036146167
 20
413.3508695522
 30
0.0
 11
41.2296140786
 21
415.7078921562
 31
0.0
  0
LINE
  5
155
330
75
100
AcDbEntity
  8
$DDT_AUDIT_GENERATED_(D8)
  6
Continuous
 62
     7
100
AcDbLine
 10
34.0530314764
 20
413.6934720467
 30
0.0
 11
34.0530314764
 21
415.7108684823
 31
0.0
  0
LINE
  5
156
330
75
100
AcDbEntity
  8
$DDT_AUDIT_GENERATED_(D8)
  6
Continuous
 62
     7
100
AcDbLine
 10
28.6469685236
 20
415.7108684823
 30
0.0
 11
28.6469685236
 21
413.6934720467
 31
0.0
  0
ELLIPSE
  5
158
330
75
100
AcDbEntity
  8
$DDT_AUDIT_GENERATED_(157)
  6
Continuous
 62
     7
100
AcDbEllipse
 10
31.35
 20
464.5175419745
 30
0.0
 11
-6.376776370829652E-16
 21
3.829126358332463
 31
0.0
210
0.0
220
0.0
230
1.0
 40
0.9009888098
 41
0.0
 42
6.283185307179586
  0
LINE
  5
159
330
75
100
AcDbEntity
  8
$DDT_AUDIT_GENERATED_(157)
  6
Continuous
 62
     7
100
AcDbLine
 10
27.9
 20
464.7956924596
 30
0.0
 11
27.9
 21
464.5175419745
 31
0.0
  0
LINE
  5
15A
330
75
100
AcDbEntity
  8
$DDT_AUDIT_GENERATED_(157)
  6
Continuous
 62
     7
100
AcDbLine
 10
34.8
 20
464.5175419745
 30
0.0
 11
34.8
 21
464.7956924596
 31
0.0
  0
ENDBLK
  5
15C
330
75
100
AcDbEntity
  8
0
100
AcDbBlockEnd
  0
BLOCK
  5
1CD
330
15D
100
AcDbEntity
  8
0
100
AcDbBlockBegin
  2
SE1
 70
     0
 10
0.0
 20
0.0
 30
0.0
  3
SE1
  1

  0
LINE
  5
15F
330
15D
100
AcDbEntity
  8
$DDT_AUDIT_GENERATED_(77)
  6
Continuous
 62
     7
100
AcDbLine
 10
262.8198519673
 20
451.564610067
 30
0.0
 11
236.2223763994
 21
454.8303707278
 31
0.0
  0
LINE
  5
160
330
15D
100
AcDbEntity
  8
$DDT_AUDIT_GENERATED_(77)
  6
Continuous
 62
     7
100
AcDbLine
 10
262.8198405708
 20
451.5646114663
 30
0.0
 11
372.9348754596
 21
438.044179868
 31
0.0
  0
SPLINE
  5
161
330
15D
100
AcDbEntity
  8
$DDT_AUDIT_GENERATED_(77)
  6
Continuous
 62
     7
100
AcDbSpline
210
0.0
220
0.0
230
1.0
 70
     8
 71
     3
 72
    26
 73
    22
 74
     0
 42
0.0000000001893835
 43
0.0000000001
 40
0.252390259733006
 40
0.252390259733006
 40
0.252390259733006
 40
0.252390259733006
 40
0.28125
 40
0.28125
 40
0.3125
 40
0.3125
 40
0.3749999999999999
 40
0.3749999999999999
 40
0.4374999999999999
 40
0.4374999999999999
 40
0.4999999999999999
 40
0.4999999999999999
 40
0.5624999999999999
 40
0.5624999999999999
 40
0.6249999999999999
 40
0.6249999999999999
 40
0.6874999999999999
 40
0.6874999999999999
 40
0.7499999999999999
 40
0.7499999999999999
 40
0.7523322914589329
 40
0.7523322914589329
 40
0.7523322914589329
 40
0.7523322914589329
 10
372.7254995265925
 20
422.2519372762146
 30
0.0
 10
372.7252643344541
 20
422.2520137487986
 30
0.0
 10
372.6452239887848
 20
422.2701160334635
 30
0.0
 10
372.3217691790373
 20
422.3426507027766
 30
0.0
 10
372.0657531032859
 20
422.4004638409448
 30
0.0
 10
371.0447817337349
 20
422.6310298603397
 30
0.0
 10
370.0512156685
 20
422.8577276779836
 30
0.0
 10
367.6576762322788
 20
423.3649495581458
 30
0.0
 10
366.2474718770145
 20
423.6502946486347
 30
0.0
 10
363.2281091809516
 20
424.0452653818222
 30
0.0
 10
361.5731462969665
 20
424.1506427809056
 30
0.0
 10
358.280981125528
 20
423.75844092496
 30
0.0
 10
356.6763978475465
 20
423.2301793845934
 30
0.0
 10
353.9284240024612
 20
421.8186930205449
 30
0.0
 10
352.7620126100981
 20
420.9626433215069
 30
0.0
 10
350.8355448716732
 20
419.3832178231931
 30
0.0
 10
350.0857167245786
 20
418.6436441615862
 30
0.0
 10
349.0222007648143
 20
417.5626510088399
 30
0.0
 10
348.7321168714352
 20
417.2399244699544
 30
0.0
 10
348.7108972365272
 20
417.2169212756152
 30
0.0
 10
348.7105107322917
 20
417.2165045225321
 30
0.0
 10
348.7105001076207
 20
417.2164964812258
 30
0.0
  0
ARC
  5
162
330
15D
100
AcDbEntity
  8
$DDT_AUDIT_GENERATED_(77)
  6
Continuous
 62
     7
100
AcDbCircle
 10
86.2976444594
 20
378.2986575012
 30
0.0
 40
139.106174558252
100
AcDbArc
 50
350.5627535538
 51
355.4372311804
  0
LINE
  5
163
330
15D
100
AcDbEntity
  8
$DDT_AUDIT_GENERATED_(77)
  6
Continuous
 62
     7
100
AcDbLine
 10
220.5803874504
 20
328.7777671274
 30
0.0
 11
270.3513731228
 21
328.7777671274
 31
0.0
  0
ARC
  5
164
330
15D
100
AcDbEntity
  8
$DDT_AUDIT_GENERATED_(77)
  6
Continuous
 62
     7
100
AcDbCircle
 10
367.1297442027
 20
434.5377422518
 30
0.0
 40
13.26265766229773
100
AcDbArc
 50
313.1456323963
 51
341.6470835386
  0
ARC
  5
165
330
15D
100
AcDbEntity
  8
$DDT_AUDIT_GENERATED_(77)
  6
Continuous
 62
     7
100
AcDbCircle
 10
364.7009910034
 20
436.8153110773
 30
0.0
 40
16.58585855164544
100
AcDbArc
 50
298.7342694989
 51
314.0285863819
  0
SPLINE
  5
166
330
15D
100
AcDbEntity
  8
$DDT_AUDIT_GENERATED_(77)
  6
Continuous
 62
     7
100
AcDbSpline
210
0.0
220
0.0
230
1.0
 70
     8
 71
     3
 72
    20
 73
    16
 74
     0
 42
0.0000000001570673
 43
0.0000000001
 40
0.0
 40
0.0
 40
0.0
 40
0.0
 40
0.060862461261661
 40
0.1794222167210304
 40
0.2910445935965865
 40
0.3957378620912168
 40
0.4931562377452251
 40
0.5835622069055081
 40
0.6623433793239429
 40
0.7348663734251423
 40
0.8007222587437517
 40
0.8606573096509332
 40
0.9141728397596776
 40
0.9674750678362832
 40
1.0
 40
1.0
 40
1.0
 40
1.0
 10
285.159986899237
 20
413.740660621961
 30
0.0
 10
286.5786938170187
 20
413.8178214443676
 30
0.0
 10
290.1320192108838
 20
414.0110801424372
 30
0.0
 10
296.457312987663
 20
414.3551013935311
 30
0.0
 10
303.5064381666392
 20
414.7384889387646
 30
0.0
 10
310.1662482015067
 20
415.1007076858199
 30
0.0
 10
316.3621890085986
 20
415.4376795791116
 30
0.0
 10
322.0125312723073
 20
415.7450362755973
 30
0.0
 10
327.1342584618362
 20
416.023455788105
 30
0.0
 10
331.7367491435815
 20
416.2742360493201
 30
0.0
 10
335.937162351998
 20
416.5011967094595
 30
0.0
 10
339.743416357155
 20
416.7130156276151
 30
0.0
 10
343.2554726314498
 20
416.8890200981133
 30
0.0
 10
346.2793661348888
 20
417.0459950755214
 30
0.0
 10
347.9741368817608
 20
417.1651507414651
 30
0.0
 10
348.7315417778048
 20
417.2184545325524
 30
0.0
  0
LINE
  5
167
330
15D
100
AcDbEntity
  8
$DDT_AUDIT_GENERATED_(77)
  6
Continuous
 62
     7
100
AcDbLine
 10
379.5884333205
 20
430.789541798
 30
0.0
 11
373.2095200963
 21
437.9249447817
 31
0.0
  0
LINE
  5
168
330
15D
100
AcDbEntity
  8
$DDT_AUDIT_GENERATED_(77)
  6
Continuous
 62
     7
100
AcDbLine
 10
223.5211253554
 20
355.4897975779
 30
0.0
 11
220.2826236067
 21
329.1143279448
 31
0.0
  0
LINE
  5
169
330
15D
100
AcDbEntity
  8
$DDT_AUDIT_GENERATED_(77)
  6
Continuous
 62
     7
100
AcDbLine
 10
235.6651660587
 20
454.3950326664
 30
0.0
 11
224.9626489734
 21
367.2300606255
 31
0.0
  0
LINE
  5
16A
330
15D
100
AcDbEntity
  8
$DDT_AUDIT_GENERATED_(77)
  6
Continuous
 62
     7
100
AcDbLine
 10
270.6491369666
 20
329.04120631
 30
0.0
 11
280.5110121204
 21
409.3597019691
 31
0.0
  0
ARC
  5
16B
330
15D
100
AcDbEntity
  8
$DDT_AUDIT_GENERATED_(77)
  6
Continuous
 62
     7
100
AcDbCircle
 10
379.2198663587
 20
430.4516096067
 30
0.0
 40
0.500000000001766
100
AcDbArc
 50
340.2634242049
 51
42.620689273
  0
ARC
  5
16C
330
15D
100
AcDbEntity
  8
$DDT_AUDIT_GENERATED_(77)
  6
Continuous
 62
     7
100
AcDbCircle
 10
236.1614391316
 20
454.3340979708
 30
0.0
 40
0.5000000000000054
100
AcDbArc
 50
82.9999972367
 51
172.9999972367
  0
ARC
  5
16D
330
15D
100
AcDbEntity
  8
$DDT_AUDIT_GENERATED_(77)
  6
Continuous
 62
     7
100
AcDbCircle
 10
372.8758011697
 20
437.5476969336
 30
0.0
 40
0.4999815712369906
100
AcDbArc
 50
44.985734244
 51
83.0830440747
  0
ARC
  5
16E
330
15D
100
AcDbEntity
  8
$DDT_AUDIT_GENERATED_(77)
  6
Continuous
 62
     7
100
AcDbCircle
 10
285.4594297785
 20
408.7566816163
 30
0.0
 40
4.983664835698513
100
AcDbArc
 50
93.4620104708
 51
173.0503032556
  0
ARC
  5
16F
330
15D
100
AcDbEntity
  8
$DDT_AUDIT_GENERATED_(77)
  6
Continuous
 62
     7
100
AcDbCircle
 10
220.5803874504
 20
329.0777671274
 30
0.0
 40
0.3
100
AcDbArc
 50
172.9999972367
 51
270.0
  0
ARC
  5
170
330
15D
100
AcDbEntity
  8
$DDT_AUDIT_GENERATED_(77)
  6
Continuous
 62
     7
100
AcDbCircle
 10
270.3513731228
 20
329.0777671274
 30
0.0
 40
0.3
100
AcDbArc
 50
270.0
 51
353.0155666187
  0
LINE
  5
171
330
15D
100
AcDbEntity
  8
$DDT_AUDIT_GENERATED_(92)
  6
Continuous
 62
     7
100
AcDbLine
 10
237.0667147885
 20
454.726697819
 30
0.0
 11
284.0127837773
 21
448.9624453521
 31
0.0
  0
ARC
  5
172
330
15D
100
AcDbEntity
  8
$DDT_AUDIT_GENERATED_(92)
  6
Continuous
 62
     7
100
AcDbCircle
 10
259.7597854851
 20
445.492276215
 30
0.0
 40
24.49999999999999
100
AcDbArc
 50
120.7520013062
 51
157.8572685595
  0
ARC
  5
173
330
15D
100
AcDbEntity
  8
$DDT_AUDIT_GENERATED_(92)
  6
Continuous
 62
     7
100
AcDbCircle
 10
259.7597854851
 20
445.492276215
 30
0.0
 40
24.5
100
AcDbArc
 50
8.1427314405
 51
14.4251237998
  0
LINE
  5
174
330
15D
100
AcDbEntity
  8
$DDT_AUDIT_GENERATED_(97)
  6
Continuous
 62
     7
100
AcDbLine
 10
267.957364669
 20
483.8535427109
 30
0.0
 11
267.9574058353
 21
483.8546773248
 31
0.0
  0
SPLINE
  5
175
330
15D
100
AcDbEntity
  8
$DDT_AUDIT_GENERATED_(97)
  6
Continuous
 62
     7
100
AcDbSpline
210
0.0
220
0.0
230
1.0
 70
     8
 71
     3
 72
    14
 73
    10
 74
     0
 42
0.0000000200340982
 43
0.0000000001
 40
0.0
 40
0.0
 40
0.0
 40
0.0
 40
0.087923372709656
 40
0.1958947355466061
 40
0.3248831368658905
 40
0.4742875620209999
 40
0.6410103364142201
 40
0.819014525494063
 40
1.0
 40
1.0
 40
1.0
 40
1.0
 10
267.9574058352736
 20
483.8546773248075
 30
0.0
 10
267.9560817522037
 20
483.8772796609149
 30
0.0
 10
267.9531318203168
 20
483.9276380779842
 30
0.0
 10
267.9467452448592
 20
484.009060117497
 30
0.0
 10
267.9377024273194
 20
484.0999976483945
 30
0.0
 10
267.925559471654
 20
484.1924152953779
 30
0.0
 10
267.9107687444985
 20
484.2727538796073
 30
0.0
 10
267.8944186395831
 20
484.3299210554845
 30
0.0
 10
267.8842094057624
 20
484.3369512461188
 30
0.0
 10
267.8790624068487
 20
484.3404955336199
 30
0.0
  0
LINE
  5
176
330
15D
100
AcDbEntity
  8
$DDT_AUDIT_GENERATED_(97)
  6
Continuous
 62
     7
100
AcDbLine
 10
267.8790624234
 20
484.3404955345
 30
0.0
 11
242.4711858375
 21
483.0089255437
 31
0.0
  0
ARC
  5
177
330
15D
100
AcDbEntity
  8
$DDT_AUDIT_GENERATED_(97)
  6
Continuous
 62
     7
100
AcDbCircle
 10
242.497353806
 20
482.5096107874
 30
0.0
 40
0.4999999884904529
100
AcDbArc
 50
92.999998972
 51
166.6601229896
  0
SPLINE
  5
178
330
15D
100
AcDbEntity
  8
$DDT_AUDIT_GENERATED_(97)
  6
Continuous
 62
     7
100
AcDbSpline
210
0.0
220
0.0
230
1.0
 70
     8
 71
     3
 72
    10
 73
     6
 74
     0
 42
0.0000000908104565
 43
0.0000000001
 40
0.0
 40
0.0
 40
0.0
 40
0.0
 40
0.4999310748782213
 40
0.4999310748782213
 40
1.0
 40
1.0
 40
1.0
 40
1.0
 10
267.5382805323693
 20
480.8720520298112
 30
0.0
 10
267.5318733520443
 20
480.8782269506019
 30
0.0
 10
267.5240288398643
 20
480.8878047370773
 30
0.0
 10
267.5132565589248
 20
480.9182552882173
 30
0.0
 10
267.5095074774674
 20
480.9385653477783
 30
0.0
 10
267.51495680274
 20
480.974037042321
 30
0.0
  0
SPLINE
  5
179
330
15D
100
AcDbEntity
  8
$DDT_AUDIT_GENERATED_(97)
  6
Continuous
 62
     7
100
AcDbSpline
210
0.0
220
0.0
230
1.0
 70
    12
 71
     3
 72
    18
 73
    14
 74
     0
 42
0.0000000027913972
 43
0.0000000001
 40
0.0
 40
0.0
 40
0.0
 40
0.0
 40
0.5015640488146963
 40
0.5015640488146963
 40
0.75243768448579
 40
0.75243768448579
 40
0.8779225672530815
 40
0.8779225672530815
 40
0.9389612836265407
 40
0.9389612836265407
 40
0.9694806418132703
 40
0.9694806418132703
 40
1.0
 40
1.0
 40
1.0
 40
1.0
 10
270.846350120676
 20
479.5188064016947
 30
0.0
 41
1.0
 10
270.2695322576635
 20
479.7036729740837
 30
0.0
 41
1.0
 10
269.6979809121399
 20
479.8957486324136
 30
0.0
 41
1.0
 10
268.851686571589
 20
480.1923997181426
 30
0.0
 41
1.0
 10
268.5714911521816
 20
480.2929348462729
 30
0.0
 41
1.0
 10
268.1563375614053
 20
480.4501918506459
 30
0.0
 41
1.0
 10
268.0188899221049
 20
480.5040674344074
 30
0.0
 41
1.0
 10
267.8185680835485
 20
480.5912745270745
 30
0.0
 41
1.0
 10
267.7535659878298
 20
480.6209226776526
 30
0.0
 41
1.0
 10
267.6589215873109
 20
480.6704076741121
 30
0.0
 41
1.0
 10
267.6291390994667
 20
480.6869973724953
 30
0.0
 41
1.0
 10
267.563608645862
 20
480.7277658942604
 30
0.0
 41
1.0
 10
267.528947309433
 20
480.7521367092447
 30
0.0
 41
1.0
 10
267.5044374598949
 20
480.7803245127716
 30
0.0
 41
1.0
  0
SPLINE
  5
17A
330
15D
100
AcDbEntity
  8
$DDT_AUDIT_GENERATED_(97)
  6
Continuous
 62
     7
100
AcDbSpline
210
0.0
220
0.0
230
1.0
 70
    12
 71
     3
 72
    78
 73
    74
 74
     0
 42
0.0000000026423316
 43
0.0000000001
 40
0.0
 40
0.0
 40
0.0
 40
0.0
 40
0.2578429717473381
 40
0.2578429717473381
 40
0.3867644577566736
 40
0.3867644577566736
 40
0.5156859437660116
 40
0.5156859437660116
 40
0.6446074297753471
 40
0.6446074297753471
 40
0.7090681727799923
 40
0.7090681727799923
 40
0.7735289157846601
 40
0.7735289157846601
 40
0.805759287287006
 40
0.805759287287006
 40
0.837989658789328
 40
0.837989658789328
 40
0.8702200302916743
 40
0.8702200302916743
 40
0.9024504017939965
 40
0.9024504017939965
 40
0.9185655875451572
 40
0.9185655875451572
 40
0.9346807732963425
 40
0.9346807732963425
 40
0.9507959590475031
 40
0.9507959590475031
 40
0.9588535519230715
 40
0.9588535519230715
 40
0.9669111447986648
 40
0.9669111447986648
 40
0.9709399412364607
 40
0.9709399412364607
 40
0.9714435407911851
 40
0.9714435407911851
 40
0.9715694406798724
 40
0.9715694406798724
 40
0.9716323906242041
 40
0.9716323906242041
 40
0.9716638655963813
 40
0.9716638655963813
 40
0.9716953405685352
 40
0.9716953405685352
 40
0.9717268155407134
 40
0.9717268155407134
 40
0.9717582905128912
 40
0.9717582905128912
 40
0.9718212404572225
 40
0.9718212404572225
 40
0.9719471403459096
 40
0.9719471403459096
 40
0.9724507399006342
 40
0.9724507399006342
 40
0.9729543394553587
 40
0.9729543394553587
 40
0.9749687376742572
 40
0.9749687376742572
 40
0.9830263305498255
 40
0.9830263305498255
 40
0.9850407287687238
 40
0.9850407287687238
 40
0.9870551269876221
 40
0.9870551269876221
 40
0.9910839234254178
 40
0.9910839234254178
 40
0.993098321644316
 40
0.993098321644316
 40
0.9951127198632144
 40
0.9951127198632144
 40
0.9991415163009871
 40
0.9991415163009871
 40
1.0
 40
1.0
 40
1.0
 40
1.0
 10
271.3143579265147
 20
480.8757296515931
 30
0.0
 41
1.0
 10
270.9802716595072
 20
480.8718816000438
 30
0.0
 41
1.0
 10
270.6462424156917
 20
480.8683680904788
 30
0.0
 41
1.0
 10
270.1451704329176
 20
480.8635345697594
 30
0.0
 41
1.0
 10
269.9781420541596
 20
480.8619969265654
 30
0.0
 41
1.0
 10
269.6440974188815
 20
480.8590776404965
 30
0.0
 41
1.0
 10
269.4770788247135
 20
480.8576949249405
 30
0.0
 41
1.0
 10
269.1431462079034
 20
480.8551273165605
 30
0.0
 41
1.0
 10
268.9762238819598
 20
480.8539386804426
 30
0.0
 41
1.0
 10
268.7261433825755
 20
480.8524060556683
 30
0.0
 41
1.0
 10
268.6428282797305
 20
480.8519377023108
 30
0.0
 41
1.0
 10
268.4764330351635
 20
480.8511312596358
 30
0.0
 41
1.0
 10
268.3933893923844
 20
480.8507918724613
 30
0.0
 41
1.0
 10
268.2692360267997
 20
480.8504492445871
 30
0.0
 41
1.0
 10
268.2279214279055
 20
480.8503632347853
 30
0.0
 41
1.0
 10
268.1454895738055
 20
480.8502700901309
 30
0.0
 41
1.0
 10
268.1043714438337
 20
480.8502626144983
 30
0.0
 41
1.0
 10
268.0224277018346
 20
480.8503636408917
 30
0.0
 41
1.0
 10
267.9815999024017
 20
480.8504712890801
 30
0.0
 41
1.0
 10
267.9004117928116
 20
480.8508707404696
 30
0.0
 41
1.0
 10
267.8600446308664
 20
480.8511598750339
 30
0.0
 41
1.0
 10
267.8001230308554
 20
480.8518401978108
 30
0.0
 41
1.0
 10
267.7802533736534
 20
480.8521089378725
 30
0.0
 41
1.0
 10
267.7409442830866
 20
480.8527655619238
 30
0.0
 41
1.0
 10
267.7214902120394
 20
480.8531528269334
 30
0.0
 41
1.0
 10
267.6832023384084
 20
480.8541098017417
 30
0.0
 41
1.0
 10
267.6643608821353
 20
480.8546772596384
 30
0.0
 41
1.0
 10
267.6368923738817
 20
480.8557619355339
 30
0.0
 41
1.0
 10
267.6278703959945
 20
480.8561630053998
 30
0.0
 41
1.0
 10
267.6102072525044
 20
480.8570770472614
 30
0.0
 41
1.0
 10
267.6016106307454
 20
480.8575872586313
 30
0.0
 41
1.0
 10
267.5892442013144
 20
480.8584690039731
 30
0.0
 41
1.0
 10
267.5852103994314
 20
480.85878251475
 30
0.0
 41
1.0
 10
267.5807967329226
 20
480.8591628022458
 30
0.0
 41
1.0
 10
267.5803080527046
 20
480.8592054396748
 30
0.0
 41
1.0
 10
267.5796994460636
 20
480.859259233913
 30
0.0
 41
1.0
 10
267.5795778718073
 20
480.8592700255199
 30
0.0
 41
1.0
 10
267.5793955718916
 20
480.8592862262979
 30
0.0
 41
1.0
 10
267.5793348970885
 20
480.8592916473698
 30
0.0
 41
1.0
 10
267.5792438173055
 20
480.8592997628279
 30
0.0
 41
1.0
 10
267.5792135107465
 20
480.8593024799858
 30
0.0
 41
1.0
 10
267.5791528146444
 20
480.8593078953039
 30
0.0
 41
1.0
 10
267.5791224953716
 20
480.8593106098529
 30
0.0
 41
1.0
 10
267.5790618232656
 20
480.8593160301758
 30
0.0
 41
1.0
 10
267.5790314533344
 20
480.859318736509
 30
0.0
 41
1.0
 10
267.5789708054674
 20
480.8593241618299
 30
0.0
 41
1.0
 10
267.5789404315544
 20
480.8593268658319
 30
0.0
 41
1.0
 10
267.5788494964756
 20
480.8593350112989
 30
0.0
 41
1.0
 10
267.5787888140096
 20
480.8593404314259
 30
0.0
 41
1.0
 10
267.5786070929264
 20
480.8593567522379
 30
0.0
 41
1.0
 10
267.5784859838465
 20
480.8593676407558
 30
0.0
 41
1.0
 10
267.5778813009545
 20
480.8594222486889
 30
0.0
 41
1.0
 10
267.5773995621246
 20
480.8594663220348
 30
0.0
 41
1.0
 10
267.5764402787133
 20
480.8595552784909
 30
0.0
 41
1.0
 10
267.5759627060963
 20
480.8596001559988
 30
0.0
 41
1.0
 10
267.5735856248073
 20
480.8598266241598
 30
0.0
 41
1.0
 10
267.5717173511086
 20
480.8600144765967
 30
0.0
 41
1.0
 10
267.5625774448105
 20
480.8609901265016
 30
0.0
 41
1.0
 10
267.5559460074352
 20
480.8618770672685
 30
0.0
 41
1.0
 10
267.5490371175725
 20
480.8632014818044
 30
0.0
 41
1.0
 10
267.5477257354766
 20
480.8634773688744
 30
0.0
 41
1.0
 10
267.5452654138113
 20
480.8640545366973
 30
0.0
 41
1.0
 10
267.5441121829992
 20
480.8643570486093
 30
0.0
 41
1.0
 10
267.5409703929454
 20
480.8652976623991
 30
0.0
 41
1.0
 10
267.5392967952004
 20
480.8659675771593
 30
0.0
 41
1.0
 10
267.5375337673354
 20
480.8670485157831
 30
0.0
 41
1.0
 10
267.5370706627291
 20
480.8674215074662
 30
0.0
 41
1.0
 10
267.5364164298031
 20
480.8681951729771
 30
0.0
 41
1.0
 10
267.5362290324402
 20
480.8685929436672
 30
0.0
 41
1.0
 10
267.5360923235613
 20
480.8698022487712
 30
0.0
 41
1.0
 10
267.5365627353563
 20
480.8706363815282
 30
0.0
 41
1.0
 10
267.537779174651
 20
480.8716803755387
 30
0.0
 41
1.0
 10
267.5380180788793
 20
480.8718653422504
 30
0.0
 41
1.0
 10
267.5382805323693
 20
480.8720520298112
 30
0.0
 41
1.0
  0
ARC
  5
17B
330
15D
100
AcDbEntity
  8
$DDT_AUDIT_GENERATED_(97)
  6
Continuous
 62
     7
100
AcDbCircle
 10
-83.3931030834
 20
7804.0867188463
 30
0.0
 40
7331.796272071273
100
AcDbArc
 50
272.773014422
 51
273.2761381071
  0
ARC
  5
17C
330
15D
100
AcDbEntity
  8
$DDT_AUDIT_GENERATED_(97)
  6
Continuous
 62
     7
100
AcDbCircle
 10
332.7102067637
 20
484.5862200082
 30
0.0
 40
2.912885672996555
100
AcDbArc
 50
353.8226435296
 51
7.0106369737
  0
ARC
  5
17D
330
15D
100
AcDbEntity
  8
$DDT_AUDIT_GENERATED_(97)
  6
Continuous
 62
     7
100
AcDbCircle
 10
356.566292366
 20
488.4877087265
 30
0.0
 40
0.500000016042817
100
AcDbArc
 50
55.4538474918
 51
92.9999973393
  0
LINE
  5
17E
330
15D
100
AcDbEntity
  8
$DDT_AUDIT_GENERATED_(97)
  6
Continuous
 62
     7
100
AcDbLine
 10
356.5401247471
 20
488.987023533
 30
0.0
 11
267.8790624068
 21
484.3404955336
 31
0.0
  0
ARC
  5
17F
330
15D
100
AcDbEntity
  8
$DDT_AUDIT_GENERATED_(97)
  6
Continuous
 62
     7
100
AcDbCircle
 10
290.9239451989
 20
475.9052310906
 30
0.0
 40
3.000000035352119
100
AcDbArc
 50
94.8148241607
 51
174.7699729273
  0
ARC
  5
180
330
15D
100
AcDbEntity
  8
$DDT_AUDIT_GENERATED_(97)
  6
Continuous
 62
     7
100
AcDbCircle
 10
295.2950288664
 20
559.2216220446
 30
0.0
 40
83.36831960531032
100
AcDbArc
 50
252.9467100078
 51
264.9361367747
  0
ARC
  5
181
330
15D
100
AcDbEntity
  8
$DDT_AUDIT_GENERATED_(97)
  6
Continuous
 62
     7
100
AcDbCircle
 10
360.2436884649
 20
485.9559404489
 30
0.0
 40
0.5000001138631787
100
AcDbArc
 50
282.2712948469
 51
55.4537764096
  0
ARC
  5
182
330
15D
100
AcDbEntity
  8
$DDT_AUDIT_GENERATED_(97)
  6
Continuous
 62
     7
100
AcDbCircle
 10
387.2286503322
 20
-328.1353325608
 30
0.0
 40
814.0465664236423
100
AcDbArc
 50
91.8921712954
 51
93.6358309785
  0
LINE
  5
183
330
15D
100
AcDbEntity
  8
$DDT_AUDIT_GENERATED_(97)
  6
Continuous
 62
     7
100
AcDbLine
 10
267.957364669
 20
483.8535427109
 30
0.0
 11
267.5149568027
 21
480.9740370423
 31
0.0
  0
ARC
  5
184
330
15D
100
AcDbEntity
  8
$DDT_AUDIT_GENERATED_(97)
  6
Continuous
 62
     7
100
AcDbCircle
 10
318.9202245193
 20
742.1367615404
 30
0.0
 40
259.9915429375105
100
AcDbArc
 50
273.6980692619
 51
279.1691882339
  0
LINE
  5
185
330
15D
100
AcDbEntity
  8
$DDT_AUDIT_GENERATED_(97)
  6
Continuous
 62
     7
100
AcDbLine
 10
335.6061789645
 20
484.272774708
 30
0.0
 11
335.6893360369
 21
482.686574996
 31
0.0
  0
LINE
  5
186
330
15D
100
AcDbEntity
  8
$DDT_AUDIT_GENERATED_(97)
  6
Continuous
 62
     7
100
AcDbLine
 10
290.6721382057
 20
478.8946446491
 30
0.0
 11
335.6893360369
 21
482.686574996
 31
0.0
  0
LINE
  5
187
330
15D
100
AcDbEntity
  8
$DDT_AUDIT_GENERATED_(97)
  6
Continuous
 62
     7
100
AcDbLine
 10
287.2237497438
 20
468.392811238
 30
0.0
 11
287.9364348949
 21
476.1786945397
 31
0.0
  0
LINE
  5
188
330
15D
100
AcDbEntity
  8
$DDT_AUDIT_GENERATED_(97)
  6
Continuous
 62
     7
100
AcDbLine
 10
261.0868215122
 20
455.1143713954
 30
0.0
 11
239.7911294622
 21
472.3972939484
 31
0.0
  0
LINE
  5
189
330
15D
100
AcDbEntity
  8
$DDT_AUDIT_GENERATED_(97)
  6
Continuous
 62
     7
100
AcDbLine
 10
285.6899725322
 20
451.636730021
 30
0.0
 11
286.5310539006
 21
460.8253056483
 31
0.0
  0
SPLINE
  5
18A
330
15D
100
AcDbEntity
  8
$DDT_AUDIT_GENERATED_(97)
  6
Continuous
 62
     7
100
AcDbSpline
210
0.0
220
0.0
230
1.0
 70
     8
 71
     3
 72
     8
 73
     4
 74
     0
 42
0.0000000162574547
 43
0.0000000001
 40
0.9764640160299103
 40
0.9764640160299103
 40
0.9764640160299103
 40
0.9764640160299103
 40
1.0
 40
1.0
 40
1.0
 40
1.0
 10
285.6756040404335
 20
451.6384995293964
 30
0.0
 10
285.6851797140853
 20
451.6373202697457
 30
0.0
 10
285.6899723614829
 20
451.6367300484418
 30
0.0
 10
285.6899725322128
 20
451.6367300209905
 30
0.0
  0
LINE
  5
18B
330
15D
100
AcDbEntity
  8
$DDT_AUDIT_GENERATED_(97)
  6
Continuous
 62
     7
100
AcDbLine
 10
285.3546607022
 20
451.3663125165
 30
0.0
 11
263.6282601414
 21
454.0339790693
 31
0.0
  0
ARC
  5
18C
330
15D
100
AcDbEntity
  8
$DDT_AUDIT_GENERATED_(97)
  6
Continuous
 62
     7
100
AcDbCircle
 10
264.2376068584
 20
458.9967098275
 30
0.0
 40
4.99999999999956
100
AcDbArc
 50
230.9382882293
 51
263.0
  0
ARC
  5
18D
330
15D
100
AcDbEntity
  8
$DDT_AUDIT_GENERATED_(97)
  6
Continuous
 62
     7
100
AcDbCircle
 10
285.3912215052
 20
451.664076362
 30
0.0
 40
0.299999997525656
100
AcDbArc
 50
263.0
 51
354.7699735849
  0
LINE
  5
18E
330
15D
100
AcDbEntity
  8
$DDT_AUDIT_GENERATED_(97)
  6
Continuous
 62
     7
100
AcDbLine
 10
242.0136601288
 20
482.6367492065
 30
0.0
 11
239.6623307823
 21
472.7205026417
 31
0.0
  0
ARC
  5
18F
330
15D
100
AcDbEntity
  8
$DDT_AUDIT_GENERATED_(97)
  6
Continuous
 62
     7
100
AcDbCircle
 10
242.4907889326
 20
482.5261613162
 30
0.0
 40
0.4821980680098425
100
AcDbArc
 50
110.5532304974
 51
168.128965066
  0
LINE
  5
190
330
15D
100
AcDbEntity
  8
$DDT_AUDIT_GENERATED_(97)
  6
Continuous
 62
     7
100
AcDbLine
 10
356.7046290842
 20
488.9353046305
 30
0.0
 11
356.7039181762
 21
488.9485103411
 31
0.0
  0
ARC
  5
191
330
15D
100
AcDbEntity
  8
$DDT_AUDIT_GENERATED_(97)
  6
Continuous
 62
     7
100
AcDbCircle
 10
355.1895307095
 20
493.0381523071
 30
0.0
 40
4.373730255321081
100
AcDbArc
 50
288.0724246256
 51
290.2701714057
  0
ARC
  5
192
330
15D
100
AcDbEntity
  8
$DDT_AUDIT_GENERATED_(97)
  6
Continuous
 62
     7
100
AcDbCircle
 10
360.2428264948
 20
485.955067776
 30
0.0
 40
0.5012084754388377
100
AcDbArc
 50
35.4681763114
 51
55.4298571649
  0
LINE
  5
193
330
15D
100
AcDbEntity
  8
$DDT_AUDIT_GENERATED_(97)
  6
Continuous
 62
     7
100
AcDbLine
 10
360.5270438331
 20
486.3678999574
 30
0.0
 11
356.8227139351
 21
488.9182105286
 31
0.0
  0
ARC
  5
194
330
15D
100
AcDbEntity
  8
$DDT_AUDIT_GENERATED_(97)
  6
Continuous
 62
     7
100
AcDbCircle
 10
360.2428264878
 20
485.9550677701
 30
0.0
 40
0.501208484228401
100
AcDbArc
 50
35.4680929719
 51
39.507652966
  0
ARC
  5
195
330
15D
100
AcDbEntity
  8
$DDT_AUDIT_GENERATED_(97)
  6
Continuous
 62
     7
100
AcDbCircle
 10
360.2428264878
 20
485.9550677701
 30
0.0
 40
0.501208484228401
100
AcDbArc
 50
43.068679407
 51
55.4298568853
  0
LINE
  5
196
330
15D
100
AcDbEntity
  8
$DDT_AUDIT_GENERATED_(97)
  6
Continuous
 62
     7
100
AcDbLine
 10
287.1788057244
 20
468.0578970215
 30
0.0
 11
287.9225505916
 21
476.1823455799
 31
0.0
  0
LINE
  5
197
330
15D
100
AcDbEntity
  8
$DDT_AUDIT_GENERATED_(97)
  6
Continuous
 62
     7
100
AcDbLine
 10
285.6754126086
 20
451.6396072063
 30
0.0
 11
286.5517527565
 21
461.2099175707
 31
0.0
  0
ARC
  5
198
330
15D
100
AcDbEntity
  8
$DDT_AUDIT_GENERATED_(97)
  6
Continuous
 62
     7
100
AcDbCircle
 10
239.9542367394
 20
472.6512862261
 30
0.0
 40
0.2999999999999801
100
AcDbArc
 50
170.1081951818
 51
230.9382882293
  0
LINE
  5
199
330
15D
100
AcDbEntity
  8
02636038_GEHÄUSE
  6
Continuous
 62
     7
100
AcDbLine
 10
372.0474112014
 20
418.9871839299
 30
0.0
 11
351.2800059362
 21
413.4225744602
 31
0.0
  0
SPLINE
  5
19A
330
15D
100
AcDbEntity
  8
02636038_GEHÄUSE
  6
Continuous
 62
     7
100
AcDbSpline
210
0.0
220
0.0
230
1.0
 70
     8
 71
     3
 72
    10
 73
     6
 74
     0
 42
0.0000000019260148
 43
0.0000000001
 40
0.0
 40
0.0
 40
0.0
 40
0.0
 40
0.5
 40
0.5
 40
1.0
 40
1.0
 40
1.0
 40
1.0
 10
364.079892947868
 20
417.1810381879728
 30
0.0
 10
363.2764549281801
 20
416.8477809654421
 30
0.0
 10
362.4589281446882
 20
416.5673764149123
 30
0.0
 10
360.7933426255213
 20
416.1211050601516
 30
0.0
 10
359.9452843011136
 20
415.955236713091
 30
0.0
 10
359.0831520197593
 20
415.8421654914985
 30
0.0
  0
LINE
  5
19B
330
15D
100
AcDbEntity
  8
02636038_GEHÄUSE
  6
Continuous
 62
     7
100
AcDbLine
 10
365.0125576866
 20
420.208029153
 30
0.0
 11
356.7619451803
 21
417.9972841948
 31
0.0
  0
LINE
  5
19C
330
15D
100
AcDbEntity
  8
02636038_GEHÄUSE
  6
Continuous
 62
     7
100
AcDbLine
 10
365.0125576866
 20
420.208029153
 30
0.0
 11
365.482684869
 21
418.4534906225
 31
0.0
  0
SPLINE
  5
19D
330
15D
100
AcDbEntity
  8
02636038_GEHÄUSE
  6
Continuous
 62
     7
100
AcDbSpline
210
0.0
220
0.0
230
1.0
 70
     8
 71
     3
 72
    14
 73
    10
 74
     0
 42
0.0000000049320844
 43
0.0000000001
 40
0.0
 40
0.0
 40
0.0
 40
0.0
 40
0.1249999999999997
 40
0.1249999999999997
 40
0.2499999999999994
 40
0.2499999999999994
 40
0.4999999999999996
 40
0.4999999999999996
 40
1.0
 40
1.0
 40
1.0
 40
1.0
 10
365.4826848689502
 20
418.4534906225437
 30
0.0
 10
365.5045357162584
 20
418.371942150201
 30
0.0
 10
365.4952086895697
 20
418.2824361733872
 30
0.0
 10
365.4386760064787
 20
418.1231990649515
 30
0.0
 10
365.3929569855949
 20
418.049846146203
 30
0.0
 10
365.2366170722279
 20
417.8515120210545
 30
0.0
 10
365.1044214673936
 20
417.7421817939323
 30
0.0
 10
364.6940201665268
 20
417.4548151878174
 30
0.0
 10
364.3884621706105
 20
417.3090292956995
 30
0.0
 10
364.079892947868
 20
417.1810381879728
 30
0.0
  0
SPLINE
  5
19E
330
15D
100
AcDbEntity
  8
02636038_GEHÄUSE
  6
Continuous
 62
     7
100
AcDbSpline
210
0.0
220
0.0
230
1.0
 70
     8
 71
     3
 72
    14
 73
    10
 74
     0
 42
0.0000000049319876
 43
0.0000000001
 40
0.0
 40
0.0
 40
0.0
 40
0.0
 40
0.4999999999999996
 40
0.4999999999999996
 40
0.7499999999999993
 40
0.7499999999999993
 40
0.8749999999999997
 40
0.8749999999999997
 40
1.0
 40
1.0
 40
1.0
 40
1.0
 10
359.0831520197593
 20
415.8421654914985
 30
0.0
 10
358.7505064186786
 20
415.7985380281903
 30
0.0
 10
358.4156584957626
 20
415.772036508314
 30
0.0
 10
357.9140368412516
 20
415.8160046629353
 30
0.0
 10
357.7463223097215
 20
415.8445851105089
 30
0.0
 10
357.513188375324
 20
415.9373119935283
 30
0.0
 10
357.4364521235432
 20
415.9779389638104
 30
0.0
 10
357.3070603033221
 20
416.0879010286154
 30
0.0
 10
357.2540268157819
 20
416.1608105296411
 30
0.0
 10
357.232072362593
 20
416.2427456644032
 30
0.0
  0
LINE
  5
19F
330
15D
100
AcDbEntity
  8
02636038_GEHÄUSE
  6
Continuous
 62
     7
100
AcDbLine
 10
357.2320723626
 20
416.2427456644
 30
0.0
 11
356.7619451803
 21
417.9972841948
 31
0.0
  0
LINE
  5
1A0
330
15D
100
AcDbEntity
  8
02636038_GEHÄUSE
  6
Continuous
 62
     7
100
AcDbLine
 10
350.6665606467
 20
413.5869466301
 30
0.0
 11
351.2800059362
 21
413.4225744602
 31
0.0
  0
LINE
  5
1A1
330
15D
100
AcDbEntity
  8
02636038_GEHÄUSE
  6
Continuous
 62
     7
100
AcDbLine
 10
372.0474112014
 20
418.9871839299
 30
0.0
 11
372.4964843209
 21
419.4362570494
 31
0.0
  0
ARC
  5
1A2
330
15D
100
AcDbEntity
  8
02636038_GEHÄUSE
  6
Continuous
 62
     7
100
AcDbCircle
 10
371.7893775397
 20
420.1433638306
 30
0.0
 40
0.9999999999999966
100
AcDbArc
 50
315.0
 51
15.0
  0
ARC
  5
1A3
330
15D
100
AcDbEntity
  8
02636038_GEHÄUSE
  6
Continuous
 62
     7
100
AcDbCircle
 10
350.9253796918
 20
414.5528724564
 30
0.0
 40
0.9999999999999875
100
AcDbArc
 50
195.0
 51
255.0
  0
LINE
  5
1A4
330
15D
100
AcDbEntity
  8
02636038_GEHÄUSE
  6
Continuous
 62
     7
100
AcDbLine
 10
349.0729533722
 20
417.6025182935
 30
0.0
 11
349.9594538656
 21
414.2940534113
 31
0.0
  0
LINE
  5
1A5
330
15D
100
AcDbEntity
  8
02636038_GEHÄUSE
  6
Continuous
 62
     7
100
AcDbLine
 10
372.755303366
 20
420.4021828757
 30
0.0
 11
372.2297630046
 21
422.3635262056
 31
0.0
  0
LINE
  5
1A6
330
15D
100
AcDbEntity
  8
$DDT_AUDIT_GENERATED_(D8)
  6
Continuous
 62
     7
100
AcDbLine
 10
371.3488487362
 20
418.6964770634
 30
0.0
 11
352.0303322104
 21
413.5200961614
 31
0.0
  0
LINE
  5
1A7
330
15D
100
AcDbEntity
  8
$DDT_AUDIT_GENERATED_(D8)
  6
Continuous
 62
     7
100
AcDbLine
 10
361.7025314255
 20
416.0599903211
 30
0.0
 11
362.6684572518
 21
416.3188093662
 31
0.0
  0
LINE
  5
1A8
330
15D
100
AcDbEntity
  8
$DDT_AUDIT_GENERATED_(D8)
  6
Continuous
 62
     7
100
AcDbLine
 10
362.6684572518
 20
416.3188093662
 30
0.0
 11
363.3025639123
 21
413.9522910918
 31
0.0
  0
LINE
  5
1A9
330
15D
100
AcDbEntity
  8
$DDT_AUDIT_GENERATED_(D8)
  6
Continuous
 62
     7
100
AcDbLine
 10
363.3025639123
 20
413.9522910918
 30
0.0
 11
367.4578599254
 21
415.0656993028
 31
0.0
  0
LINE
  5
1AA
330
15D
100
AcDbEntity
  8
$DDT_AUDIT_GENERATED_(D8)
  6
Continuous
 62
     7
100
AcDbLine
 10
367.4578599254
 20
415.0656993028
 30
0.0
 11
367.7955928032
 21
417.6926211967
 31
0.0
  0
LINE
  5
1AB
330
15D
100
AcDbEntity
  8
$DDT_AUDIT_GENERATED_(D8)
  6
Continuous
 62
     7
100
AcDbLine
 10
367.7955928032
 20
417.6926211967
 30
0.0
 11
369.161618207
 21
418.0586466005
 31
0.0
  0
LINE
  5
1AC
330
15D
100
AcDbEntity
  8
$DDT_AUDIT_GENERATED_(D8)
  6
Continuous
 62
     7
100
AcDbLine
 10
369.161618207
 20
418.0586466005
 30
0.0
 11
368.8238853292
 21
415.4317247066
 31
0.0
  0
LINE
  5
1AD
330
15D
100
AcDbEntity
  8
$DDT_AUDIT_GENERATED_(D8)
  6
Continuous
 62
     7
100
AcDbLine
 10
368.8238853292
 20
415.4317247066
 30
0.0
 11
370.5450652935
 21
415.892913488
 31
0.0
  0
LINE
  5
1AE
330
15D
100
AcDbEntity
  8
$DDT_AUDIT_GENERATED_(D8)
  6
Continuous
 62
     7
100
AcDbLine
 10
370.5450652935
 20
415.892913488
 30
0.0
 11
371.2853472885
 21
418.6276980928
 31
0.0
  0
LINE
  5
1AF
330
15D
100
AcDbEntity
  8
$DDT_AUDIT_GENERATED_(D8)
  6
Continuous
 62
     7
100
AcDbLine
 10
371.2853472885
 20
418.6276980928
 30
0.0
 11
371.3339058116
 21
418.6407093098
 31
0.0
  0
LINE
  5
1B0
330
15D
100
AcDbEntity
  8
$DDT_AUDIT_GENERATED_(D8)
  6
Continuous
 62
     7
100
AcDbLine
 10
352.1197155626
 20
413.4922825494
 30
0.0
 11
352.0711570394
 21
413.4792713323
 31
0.0
  0
LINE
  5
1B1
330
15D
100
AcDbEntity
  8
$DDT_AUDIT_GENERATED_(D8)
  6
Continuous
 62
     7
100
AcDbLine
 10
352.1197155626
 20
413.4922825494
 30
0.0
 11
354.1282108786
 21
411.4940306053
 31
0.0
  0
LINE
  5
1B2
330
15D
100
AcDbEntity
  8
$DDT_AUDIT_GENERATED_(D8)
  6
Continuous
 62
     7
100
AcDbLine
 10
354.1282108786
 20
411.4940306053
 30
0.0
 11
355.8493908429
 21
411.9552193868
 31
0.0
  0
LINE
  5
1B3
330
15D
100
AcDbEntity
  8
$DDT_AUDIT_GENERATED_(D8)
  6
Continuous
 62
     7
100
AcDbLine
 10
355.8493908429
 20
411.9552193868
 30
0.0
 11
354.2434446441
 21
414.0613340417
 31
0.0
  0
LINE
  5
1B4
330
15D
100
AcDbEntity
  8
$DDT_AUDIT_GENERATED_(D8)
  6
Continuous
 62
     7
100
AcDbLine
 10
354.2434446441
 20
414.0613340417
 30
0.0
 11
355.6094700479
 21
414.4273594455
 31
0.0
  0
LINE
  5
1B5
330
15D
100
AcDbEntity
  8
$DDT_AUDIT_GENERATED_(D8)
  6
Continuous
 62
     7
100
AcDbLine
 10
355.6094700479
 20
414.4273594455
 30
0.0
 11
357.2154162467
 21
412.3212447906
 31
0.0
  0
LINE
  5
1B6
330
15D
100
AcDbEntity
  8
$DDT_AUDIT_GENERATED_(D8)
  6
Continuous
 62
     7
100
AcDbLine
 10
357.2154162467
 20
412.3212447906
 30
0.0
 11
361.3707122597
 21
413.4346530016
 31
0.0
  0
LINE
  5
1B7
330
15D
100
AcDbEntity
  8
$DDT_AUDIT_GENERATED_(D8)
  6
Continuous
 62
     7
100
AcDbLine
 10
361.3707122597
 20
413.4346530016
 30
0.0
 11
360.7366055992
 21
415.801171276
 31
0.0
  0
LINE
  5
1B8
330
15D
100
AcDbEntity
  8
$DDT_AUDIT_GENERATED_(D8)
  6
Continuous
 62
     7
100
AcDbLine
 10
360.7366055992
 20
415.801171276
 30
0.0
 11
361.7025314255
 21
416.0599903211
 31
0.0
  0
LINE
  5
1B9
330
15D
100
AcDbEntity
  8
$DDT_AUDIT_GENERATED_(D8)
  6
Continuous
 62
     7
100
AcDbLine
 10
368.8238853292
 20
415.4317247066
 30
0.0
 11
368.6129576953
 21
415.3752068174
 31
0.0
  0
LINE
  5
1BA
330
15D
100
AcDbEntity
  8
$DDT_AUDIT_GENERATED_(D8)
  6
Continuous
 62
     7
100
AcDbLine
 10
356.0603184767
 20
412.0117372759
 30
0.0
 11
355.8493908429
 21
411.9552193868
 31
0.0
  0
LINE
  5
1BB
330
15D
100
AcDbEntity
  8
$DDT_AUDIT_GENERATED_(D8)
  6
Continuous
 62
     7
100
AcDbLine
 10
355.4262118162
 20
414.3782555503
 30
0.0
 11
356.0603184767
 21
412.0117372759
 31
0.0
  0
LINE
  5
1BC
330
15D
100
AcDbEntity
  8
$DDT_AUDIT_GENERATED_(D8)
  6
Continuous
 62
     7
100
AcDbLine
 10
368.6129576953
 20
415.3752068174
 30
0.0
 11
367.9788510348
 21
417.7417250918
 31
0.0
  0
LINE
  5
1BD
330
15D
100
AcDbEntity
  8
$DDT_AUDIT_GENERATED_(D8)
  6
Continuous
 62
     7
100
AcDbLine
 10
363.3025639123
 20
413.9522910918
 30
0.0
 11
361.3707122597
 21
413.4346530016
 31
0.0
  0
LINE
  5
1BE
330
15D
100
AcDbEntity
  8
$DDT_AUDIT_GENERATED_(D8)
  6
Continuous
 62
     7
100
AcDbLine
 10
371.3488487362
 20
418.6964770634
 30
0.0
 11
371.3229668317
 21
418.7930696461
 31
0.0
  0
LINE
  5
1BF
330
15D
100
AcDbEntity
  8
$DDT_AUDIT_GENERATED_(D8)
  6
Continuous
 62
     7
100
AcDbLine
 10
352.0044503059
 20
413.616688744
 30
0.0
 11
352.0303322104
 21
413.5200961614
 31
0.0
  0
LINE
  5
1C0
330
15D
100
AcDbEntity
  8
$DDT_AUDIT_GENERATED_(D8)
  6
Continuous
 62
     7
100
AcDbLine
 10
352.0303322104
 20
413.5200961614
 30
0.0
 11
352.0711570394
 21
413.4792713323
 31
0.0
  0
LINE
  5
1C1
330
15D
100
AcDbEntity
  8
$DDT_AUDIT_GENERATED_(D8)
  6
Continuous
 62
     7
100
AcDbLine
 10
371.3339058116
 20
418.6407093098
 30
0.0
 11
371.3488487362
 21
418.6964770634
 31
0.0
  0
LINE
  5
1C3
330
15D
100
AcDbEntity
  8
$DDT_AUDIT_GENERATED_(1C2)
  6
Continuous
 62
     7
100
AcDbLine
 10
213.748896805
 20
388.9475905202
 30
0.0
 11
202.3785243891
 21
388.9475905202
 31
0.0
  0
LINE
  5
1C4
330
15D
100
AcDbEntity
  8
$DDT_AUDIT_GENERATED_(1C2)
  6
Continuous
 62
     7
100
AcDbLine
 10
202.3785243891
 20
384.9475905202
 30
0.0
 11
213.748896805
 21
384.9475905202
 31
0.0
  0
ARC
  5
1C5
330
15D
100
AcDbEntity
  8
$DDT_AUDIT_GENERATED_(1C2)
  6
Continuous
 62
     7
100
AcDbCircle
 10
213.748896805
 20
383.9475905202
 30
0.0
 40
1.000000000000001
100
AcDbArc
 50
18.0
 51
90.0
  0
ARC
  5
1C6
330
15D
100
AcDbEntity
  8
$DDT_AUDIT_GENERATED_(1C2)
  6
Continuous
 62
     7
100
AcDbCircle
 10
213.748896805
 20
383.9475905202
 30
0.0
 40
5.000000000000004
100
AcDbArc
 50
18.0
 51
90.0
  0
LINE
  5
1C7
330
15D
100
AcDbEntity
  8
$DDT_AUDIT_GENERATED_(1C2)
  6
Continuous
 62
     7
100
AcDbLine
 10
224.8507747337
 20
365.9598634749
 30
0.0
 11
218.5041793865
 21
385.4926754921
 31
0.0
  0
LINE
  5
1C8
330
15D
100
AcDbEntity
  8
$DDT_AUDIT_GENERATED_(1C2)
  6
Continuous
 62
     7
100
AcDbLine
 10
214.6999533213
 20
384.2566075146
 30
0.0
 11
223.6976973597
 21
356.5643988161
 31
0.0
  0
ARC
  5
1C9
330
15D
100
AcDbEntity
  8
$DDT_AUDIT_GENERATED_(1C2)
  6
Continuous
 62
     7
100
AcDbCircle
 10
202.3785243891
 20
386.9475905202
 30
0.0
 40
2.000000000000002
100
AcDbArc
 50
90.0
 51
270.0
  0
LINE
  5
1CA
330
15D
100
AcDbEntity
  8
$DDT_AUDIT_GENERATED_(157)
  6
Continuous
 62
     7
100
AcDbLine
 10
287.3036715996
 20
468.3466683328
 30
0.0
 11
286.7681544021
 21
460.6884156162
 31
0.0
  0
LINE
  5
1CB
330
15D
100
AcDbEntity
  8
$DDT_AUDIT_GENERATED_(157)
  6
Continuous
 62
     7
100
AcDbLine
 10
286.5172646054
 20
460.8332669078
 30
0.0
 11
286.7681544021
 21
460.6884156162
 31
0.0
  0
LINE
  5
1CC
330
15D
100
AcDbEntity
  8
$DDT_AUDIT_GENERATED_(157)
  6
Continuous
 62
     7
100
AcDbLine
 10
287.3036715996
 20
468.3466683328
 30
0.0
 11
287.210183361
 21
468.4006437926
 31
0.0
  0
ENDBLK
  5
1CE
330
15D
100
AcDbEntity
  8
0
100
AcDbBlockEnd
  0
BLOCK
  5
20C
330
1CF
100
AcDbEntity
  8
0
100
AcDbBlockBegin
  2
SE2
 70
     0
 10
0.0
 20
0.0
 30
0.0
  3
SE2
  1

  0
SPLINE
  5
1D1
330
1CF
100
AcDbEntity
  8
$DDT_AUDIT_GENERATED_(77)
  6
Continuous
 62
     7
100
AcDbSpline
210
0.0
220
0.0
230
1.0
 70
     8
 71
     3
 72
     8
 73
     4
 74
     0
 42
0.0000000000873102
 43
0.0000000001
 40
0.0546834794926217
 40
0.0546834794926217
 40
0.0546834794926217
 40
0.0546834794926217
 40
0.3334858415112015
 40
0.3334858415112015
 40
0.3334858415112015
 40
0.3334858415112015
 10
55.82911451437899
 20
218.9262608352639
 30
0.0
 10
55.05537642958628
 20
208.3101957915231
 30
0.0
 10
54.28025868289532
 20
197.6943188344456
 30
0.0
 10
53.50263879907392
 20
187.0787338336451
 30
0.0
  0
SPLINE
  5
1D2
330
1CF
100
AcDbEntity
  8
$DDT_AUDIT_GENERATED_(77)
  6
Continuous
 62
     7
100
AcDbSpline
210
0.0
220
0.0
230
1.0
 70
     8
 71
     3
 72
    12
 73
     8
 74
     0
 42
0.0000000000873024
 43
0.0000000001
 40
0.6583328314314477
 40
0.6583328314314477
 40
0.6583328314314477
 40
0.6583328314314477
 40
0.75
 40
0.75
 40
0.875
 40
0.875
 40
0.9450117388922631
 40
0.9450117388922631
 40
0.9450117388922631
 40
0.9450117388922631
 10
9.265417293963969
 20
186.1510942138753
 30
0.0
 10
9.009752394259579
 20
189.6408155581795
 30
0.0
 10
8.754357546986835
 20
193.1305685888698
 30
0.0
 10
8.151213630018916
 20
201.3791131897023
 30
0.0
 10
7.803656933328296
 20
206.1379234959564
 30
0.0
 10
7.261971930271352
 20
213.5621984718164
 30
0.0
 10
7.067145324320498
 20
216.2339105080536
 30
0.0
 10
6.872729051914411
 20
218.9012491255392
 30
0.0
  0
SPLINE
  5
1D3
330
1CF
100
AcDbEntity
  8
$DDT_AUDIT_GENERATED_(77)
  6
Continuous
 62
     7
100
AcDbSpline
210
0.0
220
0.0
230
1.0
 70
     8
 71
     3
 72
    16
 73
    12
 74
     0
 42
0.0000000000872996
 43
0.0000000001
 40
0.4194848899858248
 40
0.4194848899858248
 40
0.4194848899858248
 40
0.4194848899858248
 40
0.5000000000000008
 40
0.5000000000000008
 40
0.7500000000000006
 40
0.7500000000000006
 40
0.8750000000000004
 40
0.8750000000000004
 40
0.9375000000000002
 40
0.9375000000000002
 40
0.9453846020976846
 40
0.9453846020976846
 40
0.9453846020976846
 40
0.9453846020976846
 10
51.439766623159
 20
158.8544872246256
 30
0.0
 10
51.66498641418243
 20
161.9205532917449
 30
0.0
 10
51.88996838461672
 20
164.9866233442417
 30
0.0
 10
52.8120776970256
 20
177.5729141936672
 30
0.0
 10
53.50781184286297
 20
187.0931239008033
 30
0.0
 10
54.54995678676668
 20
201.37340847075
 30
0.0
 10
54.89708090234905
 20
206.1334977161162
 30
0.0
 10
55.41749044399003
 20
213.2736221237965
 30
0.0
 10
55.59091026539234
 20
215.6536615987677
 30
0.0
 10
55.78616143603104
 20
218.3339480806858
 30
0.0
 10
55.80805120372533
 20
218.6344464378865
 30
0.0
 10
55.8299514146134
 20
218.9350971875211
 30
0.0
  0
SPLINE
  5
1D4
330
1CF
100
AcDbEntity
  8
$DDT_AUDIT_GENERATED_(77)
  6
Continuous
 62
     7
100
AcDbSpline
210
0.0
220
0.0
230
1.0
 70
     8
 71
     3
 72
    10
 73
     6
 74
     0
 42
0.0000000000873384
 43
0.0000000001
 40
0.0548134420334763
 40
0.0548134420334763
 40
0.0548134420334763
 40
0.0548134420334763
 40
0.4999999999999998
 40
0.4999999999999998
 40
0.5617157202649208
 40
0.5617157202649208
 40
0.5617157202649208
 40
0.5617157202649208
 10
6.871608046799621
 20
218.9136277518958
 30
0.0
 10
8.105917642318682
 20
201.968023015505
 30
0.0
 10
9.342138182670073
 20
185.0222689400725
 30
0.0
 10
10.7557769582823
 20
165.7273704511127
 30
0.0
 10
10.92808242759393
 20
163.3782098184961
 30
0.0
 10
11.10053895438016
 20
161.0290527730874
 30
0.0
  0
SPLINE
  5
1D5
330
1CF
100
AcDbEntity
  8
$DDT_AUDIT_GENERATED_(77)
  6
Continuous
 62
     7
100
AcDbSpline
210
0.0
220
0.0
230
1.0
 70
     8
 71
     3
 72
    10
 73
     6
 74
     0
 42
0.0000000670420118
 43
0.0000000001
 40
0.3793911288622502
 40
0.3793911288622502
 40
0.3793911288622502
 40
0.3793911288622502
 40
0.5
 40
0.5
 40
0.999807993888054
 40
0.999807993888054
 40
0.999807993888054
 40
0.999807993888054
 10
18.4708720603665
 20
111.9964614010883
 30
0.0
 10
18.47175454323935
 20
111.9953569551628
 30
0.0
 10
18.47348647838461
 20
111.9950249221618
 30
0.0
 10
18.4867937073508
 20
111.9973815350379
 30
0.0
 10
18.51217692190763
 20
112.0128459458369
 30
0.0
 10
18.54936227174745
 20
112.0401398018684
 30
0.0
  0
ELLIPSE
  5
1D6
330
1CF
100
AcDbEntity
  8
$DDT_AUDIT_GENERATED_(77)
  6
Continuous
 62
     7
100
AcDbEllipse
 10
31.3500029596
 20
225.5837743095
 30
0.0
 11
24.99999999999957
 21
4.744468706796568E-12
 31
0.0
210
0.0
220
0.0
230
1.0
 40
0.9925461458
 41
-0.0546483476237509
 42
3.190994486147645
  0
SPLINE
  5
1D7
330
1CF
100
AcDbEntity
  8
$DDT_AUDIT_GENERATED_(77)
  6
Continuous
 62
     7
100
AcDbSpline
210
0.0
220
0.0
230
1.0
 70
     8
 71
     3
 72
     8
 73
     4
 74
     0
 42
0.0000000000420356
 43
0.0000000001
 40
0.0031035309193718
 40
0.0031035309193718
 40
0.0031035309193718
 40
0.0031035309193718
 40
0.2337581686821296
 40
0.2337581686821296
 40
0.2337581686821296
 40
0.2337581686821296
 10
56.16792250558273
 20
222.499939553309
 30
0.0
 10
54.44160911896064
 20
204.2917577308069
 30
0.0
 10
52.71759591429416
 20
186.082876740527
 30
0.0
 10
50.9948286655955
 20
167.8730170764014
 30
0.0
  0
SPLINE
  5
1D8
330
1CF
100
AcDbEntity
  8
$DDT_AUDIT_GENERATED_(77)
  6
Continuous
 62
     7
100
AcDbSpline
210
0.0
220
0.0
230
1.0
 70
     8
 71
     3
 72
     8
 73
     4
 74
     0
 42
0.0000000000415606
 43
0.0000000001
 40
0.7621201060959515
 40
0.7621201060959515
 40
0.7621201060959515
 40
0.7621201060959515
 40
0.9974073409539805
 40
0.9974073409539805
 40
0.9974073409539805
 40
0.9974073409539805
 10
11.85634410672449
 20
166.2753071780446
 30
0.0
 10
10.07917711850793
 20
185.0632315710683
 30
0.0
 10
8.300182923451068
 20
203.8500339615031
 30
0.0
 10
6.51914080774911
 20
222.6361551832096
 30
0.0
  0
SPLINE
  5
1D9
330
1CF
100
AcDbEntity
  8
$DDT_AUDIT_GENERATED_(77)
  6
Continuous
 62
     7
100
AcDbSpline
210
0.0
220
0.0
230
1.0
 70
     8
 71
     3
 72
    30
 73
    26
 74
     0
 42
0.0000000011078676
 43
0.0000000001
 40
0.1148795699913653
 40
0.1148795699913653
 40
0.1148795699913653
 40
0.1148795699913653
 40
0.1250000000000001
 40
0.1250000000000001
 40
0.2500000000000006
 40
0.2500000000000006
 40
0.3750000000000011
 40
0.3750000000000011
 40
0.4375000000000013
 40
0.4375000000000013
 40
0.4687500000000014
 40
0.4687500000000014
 40
0.5000000000000016
 40
0.5000000000000016
 40
0.5312500000000017
 40
0.5312500000000017
 40
0.5625000000000018
 40
0.5625000000000018
 40
0.6250000000000021
 40
0.6250000000000021
 40
0.7500000000000019
 40
0.7500000000000019
 40
0.875000000000001
 40
0.875000000000001
 40
0.8850515138810765
 40
0.8850515138810765
 40
0.8850515138810765
 40
0.8850515138810765
 10
33.3565720609951
 20
262.1918264562439
 30
0.0
 10
33.3856121941065
 20
262.1787213258738
 30
0.0
 10
33.41304868912977
 20
262.1656261499547
 30
0.0
 10
33.76155363119662
 20
261.9913529128454
 30
0.0
 10
33.86604037336479
 20
261.8402013666865
 30
0.0
 10
33.83057869060735
 20
261.5648746686265
 30
0.0
 10
33.69003743479564
 20
261.4428752690404
 30
0.0
 10
33.20343802828105
 20
261.2804123679744
 30
0.0
 10
33.00049010670877
 20
261.2309452183409
 30
0.0
 10
32.55361710826438
 20
261.1657494682296
 30
0.0
 10
32.37750723774633
 20
261.1452332781893
 30
0.0
 10
31.94128050639075
 20
261.1125204320193
 30
0.0
 10
31.67142053631625
 20
261.1003810008276
 30
0.0
 10
31.0852697952315
 20
261.0989503294488
 30
0.0
 10
30.8073825290794
 20
261.1099891645952
 30
0.0
 10
30.36011386140054
 20
261.141491202603
 30
0.0
 10
30.18102143296549
 20
261.1615153933494
 30
0.0
 10
29.72026229313882
 20
261.226497897955
 30
0.0
 10
29.51044717947568
 20
261.2768085371882
 30
0.0
 10
29.01725159776626
 20
261.4384833293415
 30
0.0
 10
28.87200586282963
 20
261.5616519338019
 30
0.0
 10
28.83223136680039
 20
261.8371536833012
 30
0.0
 10
28.93320079017159
 20
261.9873943204506
 30
0.0
 10
29.28113140690874
 20
262.1628104235663
 30
0.0
 10
29.30829689645269
 20
262.1758827760644
 30
0.0
 10
29.33699858744798
 20
262.1889460459594
 30
0.0
  0
ELLIPSE
  5
1DA
330
1CF
100
AcDbEntity
  8
$DDT_AUDIT_GENERATED_(77)
  6
Continuous
 62
     7
100
AcDbEllipse
 10
31.3500029596
 20
240.5967137256
 30
0.0
 11
-4.420322864560427E-12
 21
-25.18325667992569
 31
0.0
210
0.0
220
0.0
230
1.0
 40
0.9927230746
 41
1.57079632679507
 42
3.061507192322064
  0
ELLIPSE
  5
1DB
330
1CF
100
AcDbEntity
  8
$DDT_AUDIT_GENERATED_(77)
  6
Continuous
 62
     7
100
AcDbEllipse
 10
31.3500029596
 20
240.5967137256
 30
0.0
 11
-4.420322864560427E-12
 21
-25.18325667992569
 31
0.0
210
0.0
220
0.0
230
1.0
 40
0.9927230746
 41
3.221678352389382
 42
4.712388980384864
  0
LINE
  5
1DC
330
1CF
100
AcDbEntity
  8
$DDT_AUDIT_GENERATED_(77)
  6
Continuous
 62
     7
100
AcDbLine
 10
56.3500029596
 20
225.5837743095
 30
0.0
 11
56.3500029596
 21
240.5967137256
 31
0.0
  0
LINE
  5
1DD
330
1CF
100
AcDbEntity
  8
$DDT_AUDIT_GENERATED_(77)
  6
Continuous
 62
     7
100
AcDbLine
 10
6.3500029596
 20
240.5967137256
 30
0.0
 11
6.3500029596
 21
225.5837743095
 31
0.0
  0
SPLINE
  5
1DE
330
1CF
100
AcDbEntity
  8
$DDT_AUDIT_GENERATED_(77)
  6
Continuous
 62
     7
100
AcDbSpline
210
0.0
220
0.0
230
1.0
 70
     8
 71
     3
 72
    25
 73
    21
 74
     0
 42
0.0000000002081355
 43
0.0000000001
 40
0.0
 40
0.0
 40
0.0
 40
0.0
 40
0.011023835758244
 40
0.0313035614752052
 40
0.049725936730274
 40
0.0693498647894024
 40
0.0893041116243686
 40
0.111417019743722
 40
0.1342296434780652
 40
0.1578053469372463
 40
0.1819954788360194
 40
0.2070641291981222
 40
0.233969366609507
 40
0.2632803161506697
 40
0.2959666363326589
 40
0.3339063753700757
 40
0.3857157747619546
 40
0.6179180871385942
 40
0.8893771580424068
 40
1.0
 40
1.0
 40
1.0
 40
1.0
 10
44.21853779125836
 20
112.0050834695429
 30
0.0
 10
44.34806354920184
 20
112.1494320659494
 30
0.0
 10
44.65943529186137
 20
112.498404586909
 30
0.0
 10
45.16558037054465
 20
113.1403909551631
 30
0.0
 10
45.70046822277485
 20
113.9000800372058
 30
0.0
 10
46.18035566270158
 20
114.6978876422031
 30
0.0
 10
46.64327630288533
 20
115.5703604767971
 30
0.0
 10
47.07759094541281
 20
116.5147210788099
 30
0.0
 10
47.47974559642218
 20
117.535479133229
 30
0.0
 10
47.83638413734418
 20
118.6082029971458
 30
0.0
 10
48.14327500649298
 20
119.7335794618581
 30
0.0
 10
48.40645203981369
 20
120.9245149222171
 30
0.0
 10
48.63113193342152
 20
122.2066159502092
 30
0.0
 10
48.82211318061038
 20
123.6173238379709
 30
0.0
 10
48.98538001937985
 20
125.2093705259881
 30
0.0
 10
49.13485512389153
 20
127.1640314058569
 30
0.0
 10
49.52963851483558
 20
132.3078688626509
 30
0.0
 10
50.1740813612691
 20
141.1102327298367
 30
0.0
 10
50.88739014561814
 20
151.1991230683498
 30
0.0
 10
51.3062269698481
 20
156.9157077689161
 30
0.0
 10
51.44839542397552
 20
158.8591957483406
 30
0.0
  0
ARC
  5
1DF
330
1CF
100
AcDbEntity
  8
$DDT_AUDIT_GENERATED_(77)
  6
Continuous
 62
     7
100
AcDbCircle
 10
31.3488593997
 20
123.8329657626
 30
0.0
 40
17.48296576262156
100
AcDbArc
 50
222.5892526149
 51
317.4150420279
  0
SPLINE
  5
1E0
330
1CF
100
AcDbEntity
  8
$DDT_AUDIT_GENERATED_(77)
  6
Continuous
 62
     7
100
AcDbSpline
210
0.0
220
0.0
230
1.0
 70
     8
 71
     3
 72
    24
 73
    20
 74
     0
 42
0.0000000001990947
 43
0.0000000001
 40
0.0
 40
0.0
 40
0.0
 40
0.0
 40
0.2861310664586835
 40
0.5214417611471457
 40
0.6259513923359716
 40
0.6792388170730717
 40
0.7208242270260957
 40
0.7527630499082285
 40
0.7800493552585076
 40
0.8057370795296274
 40
0.829940356198921
 40
0.8529377689681075
 40
0.8773605164342382
 40
0.9006980793937961
 40
0.9231620603581921
 40
0.9447900286518748
 40
0.9655001312339128
 40
0.9854982778137966
 40
1.0
 40
1.0
 40
1.0
 40
1.0
 10
11.0992854907899
 20
161.0343650134715
 30
0.0
 10
11.48319072538231
 20
155.7793046258334
 30
0.0
 10
12.0733975663253
 20
147.7381184036633
 30
0.0
 10
12.84950142205775
 20
137.0805061679411
 30
0.0
 10
13.34481224661739
 20
130.5381152825704
 30
0.0
 10
13.55196797957736
 20
127.204597979215
 30
0.0
 10
13.72057377575438
 20
125.0884912358842
 30
0.0
 10
13.89933347517501
 20
123.4102914796019
 30
0.0
 10
14.09615143694085
 20
122.0024342141269
 30
0.0
 10
14.33116333149299
 20
120.7318996850742
 30
0.0
 10
14.60725866379187
 20
119.5433137432937
 30
0.0
 10
14.93516228772017
 20
118.3899409101221
 30
0.0
 10
15.32007183750022
 20
117.2694904604584
 30
0.0
 10
15.76780344434559
 20
116.1820218145128
 30
0.0
 10
16.2607261313112
 20
115.1666567117618
 30
0.0
 10
16.7964759826883
 20
114.2207872489298
 30
0.0
 10
17.36726270208673
 20
113.3543586059327
 30
0.0
 10
17.93746212204909
 20
112.5994890399659
 30
0.0
 10
18.29560675693923
 20
112.1980833532372
 30
0.0
 10
18.47419188255749
 20
111.9994565157253
 30
0.0
  0
ELLIPSE
  5
1E1
330
1CF
100
AcDbEntity
  8
$DDT_AUDIT_GENERATED_(92)
  6
Continuous
 62
     7
100
AcDbEllipse
 10
31.35
 20
225.5228447294
 30
0.0
 11
23.64931288642416
 21
-1.838806884535416E-11
 31
0.0
210
0.0
220
0.0
230
1.0
 40
0.9925461516
 41
0.4600446848607919
 42
2.676998308340919
  0
LINE
  5
1E2
330
1CF
100
AcDbEntity
  8
$DDT_AUDIT_GENERATED_(97)
  6
Continuous
 62
     7
100
AcDbLine
 10
31.3515296892
 20
244.0517261255
 30
0.0
 11
32.5728545979
 21
244.0197638495
 31
0.0
  0
LINE
  5
1E3
330
1CF
100
AcDbEntity
  8
$DDT_AUDIT_GENERATED_(97)
  6
Continuous
 62
     7
100
AcDbLine
 10
8.0988266658
 20
218.1052293433
 30
0.0
 11
8.0988616982
 21
218.105188177
 31
0.0
  0
ARC
  5
1E4
330
1CF
100
AcDbEntity
  8
$DDT_AUDIT_GENERATED_(97)
  6
Continuous
 62
     7
100
AcDbCircle
 10
8.7625309119
 20
215.5103820178
 30
0.0
 40
2.678334525143372
100
AcDbArc
 50
93.5657186604
 51
104.3468780353
  0
SPLINE
  5
1E5
330
1CF
100
AcDbEntity
  8
$DDT_AUDIT_GENERATED_(97)
  6
Continuous
 62
     7
100
AcDbSpline
210
0.0
220
0.0
230
1.0
 70
     8
 71
     3
 72
    10
 73
     6
 74
     0
 42
0.0000002900430173
 43
0.0000000001
 40
0.0
 40
0.0
 40
0.0
 40
0.0
 40
0.4999310748782213
 40
0.4999310748782213
 40
1.0
 40
1.0
 40
1.0
 40
1.0
 10
7.972742065408128
 20
218.5243134798717
 30
0.0
 10
7.972406217231623
 20
218.5307206601967
 30
0.0
 10
7.972066790018328
 20
218.5385651723767
 30
0.0
 10
7.97212954216503
 20
218.5493374533162
 30
0.0
 10
7.972460569547827
 20
218.5530865347736
 30
0.0
 10
7.974040301714225
 20
218.5476372095009
 30
0.0
  0
SPLINE
  5
1E6
330
1CF
100
AcDbEntity
  8
$DDT_AUDIT_GENERATED_(97)
  6
Continuous
 62
     7
100
AcDbSpline
210
0.0
220
0.0
230
1.0
 70
     8
 71
     3
 72
     9
 73
     5
 74
     0
 42
0.0000000587658537
 43
0.0000000001
 40
0.7807407849443558
 40
0.7807407849443558
 40
0.7807407849443558
 40
0.7807407849443558
 40
0.8429516512393253
 40
1.0
 40
1.0
 40
1.0
 40
1.0
 10
13.91484692041697
 20
150.4477393137683
 30
0.0
 10
13.91444770752636
 20
150.4487294001897
 30
0.0
 10
13.91691990240675
 20
150.452561077964
 30
0.0
 10
13.93466756192143
 20
150.4576410827623
 30
0.0
 10
13.94737979483862
 20
150.4612797377189
 30
0.0
  0
ELLIPSE
  5
1E7
330
1CF
100
AcDbEntity
  8
$DDT_AUDIT_GENERATED_(97)
  6
Continuous
 62
     7
100
AcDbEllipse
 10
-1227.0192223606
 20
210.0313519829
 30
0.0
 11
1236.189021942105
 21
0.2671169158389789
 31
0.0
210
0.0
220
0.0
230
0.9999999999999998
 40
0.1518704456
 41
0.0415959264366554
 42
0.0439547131963296
  0
ARC
  5
1E8
330
1CF
100
AcDbEntity
  8
$DDT_AUDIT_GENERATED_(97)
  6
Continuous
 62
     7
100
AcDbCircle
 10
53.9349849878
 20
215.4831712803
 30
0.0
 40
2.705760547845388
100
AcDbArc
 50
75.7079203017
 51
86.3794846249
  0
LINE
  5
1E9
330
1CF
100
AcDbEntity
  8
$DDT_AUDIT_GENERATED_(97)
  6
Continuous
 62
     7
100
AcDbLine
 10
54.6029427228
 20
218.105188177
 30
0.0
 11
54.6029777552
 21
218.1052293433
 31
0.0
  0
SPLINE
  5
1EA
330
1CF
100
AcDbEntity
  8
$DDT_AUDIT_GENERATED_(97)
  6
Continuous
 62
     7
100
AcDbSpline
210
0.0
220
0.0
230
1.0
 70
     8
 71
     3
 72
    10
 73
     6
 74
     0
 42
0.0000002900630989
 43
0.0000000001
 40
0.0
 40
0.0
 40
0.0
 40
0.0
 40
0.4999602785231705
 40
0.4999602785231705
 40
1.0
 40
1.0
 40
1.0
 40
1.0
 10
54.72776411929603
 20
218.5476372095009
 30
0.0
 10
54.72934350824203
 20
218.5530853508152
 30
0.0
 10
54.72967470083333
 20
218.5493387890028
 30
0.0
 10
54.72973778165144
 20
218.5385685176815
 30
0.0
 10
54.72939827676453
 20
218.5307220526254
 30
0.0
 10
54.72906235560203
 20
218.5243134798717
 30
0.0
  0
SPLINE
  5
1EB
330
1CF
100
AcDbEntity
  8
$DDT_AUDIT_GENERATED_(97)
  6
Continuous
 62
     7
100
AcDbSpline
210
0.0
220
0.0
230
1.0
 70
     8
 71
     3
 72
    10
 73
     6
 74
     0
 42
0.000000059857362
 43
0.0000000001
 40
0.0
 40
0.0
 40
0.0
 40
0.0
 40
0.0832082138359025
 40
0.167741570842401
 40
0.2191549175028087
 40
0.2191549175028087
 40
0.2191549175028087
 40
0.2191549175028087
 10
48.75442527496064
 20
150.4612795805
 30
0.0
 10
48.76200612315957
 20
150.4592936072723
 30
0.0
 10
48.77728821001426
 20
150.455290058838
 30
0.0
 10
48.78583636491491
 20
150.4509297528073
 30
0.0
 10
48.78677672607004
 20
150.4486040367583
 30
0.0
 10
48.78647439942336
 20
150.4477842500465
 30
0.0
  0
ARC
  5
1EC
330
1CF
100
AcDbEntity
  8
$DDT_AUDIT_GENERATED_(97)
  6
Continuous
 62
     7
100
AcDbCircle
 10
85.3710967448
 20
209.6655206365
 30
0.0
 40
31.90463648463403
100
AcDbArc
 50
163.8355160707
 51
164.6610189502
  0
ARC
  5
1ED
330
1CF
100
AcDbEntity
  8
$DDT_AUDIT_GENERATED_(97)
  6
Continuous
 62
     7
100
AcDbCircle
 10
31.4313679347
 20
225.2837467092
 30
0.0
 40
24.91125305991028
100
AcDbArc
 50
337.8427894614
 51
353.2643944786
  0
ARC
  5
1EE
330
1CF
100
AcDbEntity
  8
$DDT_AUDIT_GENERATED_(97)
  6
Continuous
 62
     7
100
AcDbCircle
 10
37.239166322
 20
224.534815154
 30
0.0
 40
19.05580249893254
100
AcDbArc
 50
353.4525500671
 51
354.2766923462
  0
ARC
  5
1EF
330
1CF
100
AcDbEntity
  8
$DDT_AUDIT_GENERATED_(97)
  6
Continuous
 62
     7
100
AcDbCircle
 10
39.8212552188
 20
224.3391640009
 30
0.0
 40
16.46719370968622
100
AcDbArc
 50
354.0581105145
 51
1.538042498
  0
SPLINE
  5
1F0
330
1CF
100
AcDbEntity
  8
$DDT_AUDIT_GENERATED_(97)
  6
Continuous
 62
     7
100
AcDbSpline
210
0.0
220
0.0
230
1.0
 70
     8
 71
     3
 72
    11
 73
     7
 74
     0
 42
0.0000000400192896
 43
0.0000000001
 40
0.0
 40
0.0
 40
0.0
 40
0.0
 40
0.9999382739948266
 40
0.9999382739948266
 40
0.9999382739948266
 40
1.0
 40
1.0
 40
1.0
 40
1.0
 10
56.28251619378207
 20
224.7811547075721
 30
0.0
 10
56.27987997296207
 20
224.8643914095919
 30
0.0
 10
56.27672841332055
 20
224.9476192729433
 30
0.0
 10
56.27306140171835
 20
225.0308324674572
 30
0.0
 10
56.2730611753544
 20
225.0308376041924
 30
0.0
 10
56.27306138468262
 20
225.0308455257512
 30
0.0
 10
56.27306137554222
 20
225.0308520549029
 30
0.0
  0
ARC
  5
1F1
330
1CF
100
AcDbEntity
  8
$DDT_AUDIT_GENERATED_(97)
  6
Continuous
 62
     7
100
AcDbCircle
 10
35.0816159146
 20
223.896385889
 30
0.0
 40
21.22179008018751
100
AcDbArc
 50
3.0643560976
 51
47.3254674122
  0
ARC
  5
1F2
330
1CF
100
AcDbEntity
  8
$DDT_AUDIT_GENERATED_(97)
  6
Continuous
 62
     7
100
AcDbCircle
 10
31.7174200609
 20
220.0787172903
 30
0.0
 40
26.30921214733482
100
AcDbArc
 50
47.5744565313
 51
88.1362795762
  0
ARC
  5
1F3
330
1CF
100
AcDbEntity
  8
$DDT_AUDIT_GENERATED_(97)
  6
Continuous
 62
     7
100
AcDbCircle
 10
31.2704194386
 20
225.2837274679
 30
0.0
 40
24.9112338731193
100
AcDbArc
 50
186.7355661707
 51
202.1629057003
  0
ARC
  5
1F4
330
1CF
100
AcDbEntity
  8
$DDT_AUDIT_GENERATED_(97)
  6
Continuous
 62
     7
100
AcDbCircle
 10
25.4626281484
 20
224.5348140844
 30
0.0
 40
19.05579249127425
100
AcDbArc
 50
185.7233074373
 51
186.5474501492
  0
ARC
  5
1F5
330
1CF
100
AcDbEntity
  8
$DDT_AUDIT_GENERATED_(97)
  6
Continuous
 62
     7
100
AcDbCircle
 10
23.035829584
 20
224.3451344921
 30
0.0
 40
16.62226098610743
100
AcDbArc
 50
178.4968961836
 51
185.9069508039
  0
SPLINE
  5
1F6
330
1CF
100
AcDbEntity
  8
$DDT_AUDIT_GENERATED_(97)
  6
Continuous
 62
     7
100
AcDbSpline
210
0.0
220
0.0
230
1.0
 70
     8
 71
     3
 72
    11
 73
     7
 74
     0
 42
0.0000000400192895
 43
0.0000000001
 40
0.0
 40
0.0
 40
0.0
 40
0.0
 40
0.0000617285417404
 40
0.0000617285417404
 40
0.0000617285417404
 40
1.0
 40
1.0
 40
1.0
 40
1.0
 10
6.428743045515821
 20
225.0308520551056
 30
0.0
 10
6.42874303635118
 20
225.0308455257361
 30
0.0
 10
6.428743245645297
 20
225.0308376039527
 30
0.0
 10
6.428743019272043
 20
225.0308324670065
 30
0.0
 10
6.425076007678318
 20
224.9476192726428
 30
0.0
 10
6.421924448043431
 20
224.8643914094416
 30
0.0
 10
6.419288227228197
 20
224.7811547075721
 30
0.0
  0
ARC
  5
1F7
330
1CF
100
AcDbEntity
  8
$DDT_AUDIT_GENERATED_(97)
  6
Continuous
 62
     7
100
AcDbCircle
 10
27.5561088897
 20
223.9265325174
 30
0.0
 40
21.15620734341421
100
AcDbArc
 50
132.6022825864
 51
177.0078939035
  0
ARC
  5
1F8
330
1CF
100
AcDbEntity
  8
$DDT_AUDIT_GENERATED_(97)
  6
Continuous
 62
     7
100
AcDbCircle
 10
31.0356076131
 20
219.9524570118
 30
0.0
 40
26.43701101739417
100
AcDbArc
 50
91.9627660215
 51
132.3228837684
  0
SPLINE
  5
1F9
330
1CF
100
AcDbEntity
  8
$DDT_AUDIT_GENERATED_(97)
  6
Continuous
 62
     7
100
AcDbSpline
210
0.0
220
0.0
230
1.0
 70
     8
 71
     3
 72
     8
 73
     4
 74
     0
 42
0.0000002202938767
 43
0.0000000001
 40
0.7107820370820445
 40
0.7107820370820445
 40
0.7107820370820445
 40
0.7107820370820445
 40
0.9997349074605117
 40
0.9997349074605117
 40
0.9997349074605117
 40
0.9997349074605117
 10
30.13324224334698
 20
246.3807091432318
 30
0.0
 10
30.13198390308168
 20
246.3836329174943
 30
0.0
 10
30.13093024854461
 20
246.3814064430959
 30
0.0
 10
30.13014137018877
 20
246.3739777778779
 30
0.0
  0
SPLINE
  5
1FA
330
1CF
100
AcDbEntity
  8
$DDT_AUDIT_GENERATED_(97)
  6
Continuous
 62
     7
100
AcDbSpline
210
0.0
220
0.0
230
1.0
 70
     8
 71
     3
 72
     8
 73
     4
 74
     0
 42
0.0000002313827988
 43
0.0000000001
 40
0.7666635191853786
 40
0.7666635191853786
 40
0.7666635191853786
 40
0.7666635191853786
 40
1.0
 40
1.0
 40
1.0
 40
1.0
 10
32.57068095928828
 20
246.3820237687179
 30
0.0
 10
32.57162678160628
 20
246.3827519344665
 30
0.0
 10
32.5724298222116
 20
246.3800959443276
 30
0.0
 10
32.57305672603092
 20
246.3740121110682
 30
0.0
  0
ARC
  5
1FB
330
1CF
100
AcDbEntity
  8
$DDT_AUDIT_GENERATED_(97)
  6
Continuous
 62
     7
100
AcDbCircle
 10
28.3709173915
 20
220.5586456353
 30
0.0
 40
20.50028571134253
100
AcDbArc
 50
185.8138962994
 51
185.8211316716
  0
ARC
  5
1FC
330
1CF
100
AcDbEntity
  8
$DDT_AUDIT_GENERATED_(97)
  6
Continuous
 62
     7
100
AcDbCircle
 10
25852.1559367488
 20
2440.0126830673
 30
0.0
 40
25939.48313807409
100
AcDbArc
 50
184.9140669094
 51
185.0638381633
  0
LINE
  5
1FD
330
1CF
100
AcDbEntity
  8
$DDT_AUDIT_GENERATED_(97)
  6
Continuous
 62
     7
100
AcDbLine
 10
8.0060015676
 20
218.1441357753
 30
0.0
 11
8.0186833741
 21
217.9966842139
 31
0.0
  0
SPLINE
  5
1FE
330
1CF
100
AcDbEntity
  8
$DDT_AUDIT_GENERATED_(97)
  6
Continuous
 62
     7
100
AcDbSpline
210
0.0
220
0.0
230
1.0
 70
     8
 71
     3
 72
    42
 73
    38
 74
     0
 42
0.0000000002888214
 43
0.0000000001
 40
0.0
 40
0.0
 40
0.0
 40
0.0
 40
0.0650434844065157
 40
0.1227151106493797
 40
0.1730467056701866
 40
0.2160364339055129
 40
0.2516749183624022
 40
0.2800964886853987
 40
0.2976843399834845
 40
0.3105879788440449
 40
0.319523762709483
 40
0.3300624542597748
 40
0.3432902964265717
 40
0.359210627035348
 40
0.3769468873254804
 40
0.4070645236596163
 40
0.433754640242706
 40
0.462578825586714
 40
0.4828992345386479
 40
0.5053524224065106
 40
0.5294082934533512
 40
0.549567112122573
 40
0.5645676859605985
 40
0.5743313496584332
 40
0.5806782538592213
 40
0.5912862733692267
 40
0.6072477434409151
 40
0.631912163856105
 40
0.66364590371842
 40
0.7025505796948139
 40
0.7480579183822597
 40
0.782159857598639
 40
0.8194954462871303
 40
0.860285003244728
 40
0.9038740840838166
 40
0.9502838627350949
 40
1.0
 40
1.0
 40
1.0
 40
1.0
 10
13.9152932868606
 20
150.4477360541967
 30
0.0
 10
13.98909462613022
 20
149.6264628423732
 30
0.0
 10
14.10606263343595
 20
148.3232552620618
 30
0.0
 10
14.28815942929747
 20
146.2993730511781
 30
0.0
 10
14.44127248413223
 20
144.5740408480421
 30
0.0
 10
14.57352626790546
 20
143.0917551817575
 30
0.0
 10
14.68390896864089
 20
141.8630091102122
 30
0.0
 10
14.76748990730425
 20
140.9254940390346
 30
0.0
 10
14.8389171849056
 20
140.2503800184213
 30
0.0
 10
14.89541734413757
 20
139.79961040039
 30
0.0
 10
14.94843421594437
 20
139.4302897798034
 30
0.0
 10
15.00893717912641
 20
139.0582676971444
 30
0.0
 10
15.09393779095894
 20
138.6087148513884
 30
0.0
 10
15.21089180607979
 20
138.0808788384321
 30
0.0
 10
15.39588322510529
 20
137.3689974295659
 30
0.0
 10
15.65501708009461
 20
136.5486149595226
 30
0.0
 10
16.0104125665281
 20
135.6265553812262
 30
0.0
 10
16.37204130312837
 20
134.8294644014965
 30
0.0
 10
16.75011180086236
 20
134.0949265334447
 30
0.0
 10
17.13184792039498
 20
133.4248146002564
 30
0.0
 10
17.54372150058698
 20
132.7748804906579
 30
0.0
 10
17.93538228977442
 20
132.2148320339343
 30
0.0
 10
18.24786843016907
 20
131.8011677125697
 30
0.0
 10
18.47151443003757
 20
131.52032325919
 30
0.0
 10
18.66753725280222
 20
131.2823694024117
 30
0.0
 10
18.91409228902154
 20
130.993473666737
 30
0.0
 10
19.30994174636181
 20
130.5543138982449
 30
0.0
 10
19.8942912498167
 20
129.9574714707813
 30
0.0
 10
20.70802069386317
 20
129.216526964124
 30
0.0
 10
21.76342623700852
 20
128.3878809537209
 30
0.0
 10
22.91018109919627
 20
127.6384488076499
 30
0.0
 10
24.09627241233638
 20
126.9916954595734
 30
0.0
 10
25.27697976658342
 20
126.4564307639425
 30
0.0
 10
26.60431207113099
 20
125.9842847963019
 30
0.0
 10
28.0633456404231
 20
125.6175434732184
 30
0.0
 10
29.69135325912103
 20
125.3683720239872
 30
0.0
 10
30.7199153108116
 20
125.334764261015
 30
0.0
 10
31.35102605076312
 20
125.3189053354137
 30
0.0
  0
ARC
  5
1FF
330
1CF
100
AcDbEntity
  8
$DDT_AUDIT_GENERATED_(97)
  6
Continuous
 62
     7
100
AcDbCircle
 10
41.2632290212
 20
219.6522760571
 30
0.0
 40
13.51326184429107
100
AcDbArc
 50
355.0209368748
 51
355.0319138016
  0
ARC
  5
200
330
1CF
100
AcDbEntity
  8
$DDT_AUDIT_GENERATED_(97)
  6
Continuous
 62
     7
100
AcDbCircle
 10
-24401.7748428696
 20
2318.8757622114
 30
0.0
 40
24546.5278404024
100
AcDbArc
 50
354.9319130088
 51
355.0905300002
  0
SPLINE
  5
201
330
1CF
100
AcDbEntity
  8
$DDT_AUDIT_GENERATED_(97)
  6
Continuous
 62
     7
100
AcDbSpline
210
0.0
220
0.0
230
1.0
 70
     8
 71
     3
 72
    43
 73
    39
 74
     0
 42
0.0000000002888468
 43
0.0000000001
 40
0.0
 40
0.0
 40
0.0
 40
0.0
 40
0.0506020290948077
 40
0.0959374891829276
 40
0.1364597131514652
 40
0.1722136735714835
 40
0.2026472833384227
 40
0.2278917116574873
 40
0.2514226516373432
 40
0.2758077821369093
 40
0.3042340152226496
 40
0.3338924564849675
 40
0.3637188382067148
 40
0.3883039418447582
 40
0.4032270057494079
 40
0.4146215637996948
 40
0.4283835680172255
 40
0.4467715074805774
 40
0.4675571665215462
 40
0.4922791304781617
 40
0.5181680849909996
 40
0.5424250210567308
 40
0.5651450696373105
 40
0.5914621716504196
 40
0.6155198450810424
 40
0.635736857535671
 40
0.6500418132776806
 40
0.6563545819372467
 40
0.6649031206681445
 40
0.6781511115273219
 40
0.6959861246658146
 40
0.718296294921765
 40
0.7449697268008237
 40
0.782826163484079
 40
0.8272601432497559
 40
0.8782623524331822
 40
0.9358319159477592
 40
1.0
 40
1.0
 40
1.0
 40
1.0
 10
31.35077834978553
 20
125.318905335405
 30
0.0
 10
31.99314744285717
 20
125.3353233258606
 30
0.0
 10
33.01916472928217
 20
125.3692519765858
 30
0.0
 10
34.60857478777999
 20
125.6137581424808
 30
0.0
 10
35.9665318226155
 20
125.9493998335563
 30
0.0
 10
37.13504074514166
 20
126.3481550071407
 30
0.0
 10
38.10729917210823
 20
126.759909775226
 30
0.0
 10
38.9274490929291
 20
127.1651732622992
 30
0.0
 10
39.66527102004089
 20
127.5766552779597
 30
0.0
 10
40.41366082384496
 20
128.0425464163645
 30
0.0
 10
41.19425201234835
 20
128.5882789209985
 30
0.0
 10
41.98993895135827
 20
129.2188958874872
 30
0.0
 10
42.71238923658802
 20
129.8674709265398
 30
0.0
 10
43.2774713238156
 20
130.4344243770325
 30
0.0
 10
43.6751991479254
 20
130.8667972441789
 30
0.0
 10
43.97910941810825
 20
131.2154658384519
 30
0.0
 10
44.29944504327124
 20
131.6026852208823
 30
0.0
 10
44.67312515336327
 20
132.0860757812554
 30
0.0
 10
45.09998514723915
 20
132.6874698343641
 30
0.0
 10
45.54493930370604
 20
133.3811295585971
 30
0.0
 10
45.97361845575183
 20
134.1314162688012
 30
0.0
 10
46.35396470380154
 20
134.8813994451194
 30
0.0
 10
46.70021109747371
 20
135.6530161289504
 30
0.0
 10
47.00574950189348
 20
136.4392545310802
 30
0.0
 10
47.25873214021731
 20
137.2134188388792
 30
0.0
 10
47.43753035099238
 20
137.8650372282202
 30
0.0
 10
47.54519758441041
 20
138.3234279605009
 30
0.0
 10
47.61481298789406
 20
138.6524255803297
 30
0.0
 10
47.67685759969937
 20
138.9703686288064
 30
0.0
 10
47.75361490524146
 20
139.4204930968093
 30
0.0
 10
47.83812756736575
 20
140.0299011588142
 30
0.0
 10
47.92184038400276
 20
140.7953430901261
 30
0.0
 10
48.01160591143462
 20
141.7923949322783
 30
0.0
 10
48.12374010986225
 20
143.0432169371492
 30
0.0
 10
48.260588769517
 20
144.5754221861864
 30
0.0
 10
48.41574610006209
 20
146.3237759739258
 30
0.0
 10
48.59763027437049
 20
148.34432788978
 30
0.0
 10
48.71369571495511
 20
149.6374643567778
 30
0.0
 10
48.78651113414958
 20
150.4477360541967
 30
0.0
  0
ARC
  5
202
330
1CF
100
AcDbEntity
  8
$DDT_AUDIT_GENERATED_(97)
  6
Continuous
 62
     7
100
AcDbCircle
 10
30.9073215861
 20
224.2316166537
 30
0.0
 40
22.13590764785885
100
AcDbArc
 50
92.0011259314
 51
95.5682438272
  0
ARC
  5
203
330
1CF
100
AcDbEntity
  8
$DDT_AUDIT_GENERATED_(97)
  6
Continuous
 62
     7
100
AcDbCircle
 10
31.353614176
 20
218.0991746599
 30
0.0
 40
28.30918364339416
100
AcDbArc
 50
87.5057296204
 51
92.4727789964
  0
LINE
  5
204
330
1CF
100
AcDbEntity
  8
$DDT_AUDIT_GENERATED_(97)
  6
Continuous
 62
     7
100
AcDbLine
 10
32.8710992657
 20
246.3537209691
 30
0.0
 11
32.5699939473
 21
246.3700358242
 31
0.0
  0
LINE
  5
205
330
1CF
100
AcDbEntity
  8
$DDT_AUDIT_GENERATED_(1C2)
  6
Continuous
 62
     7
100
AcDbLine
 10
33.35
 20
272.3136972072
 30
0.0
 11
33.35
 21
283.6840696232
 31
0.0
  0
LINE
  5
206
330
1CF
100
AcDbEntity
  8
$DDT_AUDIT_GENERATED_(1C2)
  6
Continuous
 62
     7
100
AcDbLine
 10
29.35
 20
283.6840696232
 30
0.0
 11
29.35
 21
272.3136972072
 31
0.0
  0
LINE
  5
207
330
1CF
100
AcDbEntity
  8
$DDT_AUDIT_GENERATED_(1C2)
  6
Continuous
 62
     7
100
AcDbLine
 10
29.35
 20
272.3136972072
 30
0.0
 11
29.35
 21
269.4605276583
 31
0.0
  0
LINE
  5
208
330
1CF
100
AcDbEntity
  8
$DDT_AUDIT_GENERATED_(1C2)
  6
Continuous
 62
     7
100
AcDbLine
 10
33.35
 20
269.4605276583
 30
0.0
 11
33.35
 21
272.3136972072
 31
0.0
  0
LINE
  5
209
330
1CF
100
AcDbEntity
  8
$DDT_AUDIT_GENERATED_(1C2)
  6
Continuous
 62
     7
100
AcDbLine
 10
33.35
 20
261.3304512742
 30
0.0
 11
33.35
 21
269.4605276583
 31
0.0
  0
LINE
  5
20A
330
1CF
100
AcDbEntity
  8
$DDT_AUDIT_GENERATED_(1C2)
  6
Continuous
 62
     7
100
AcDbLine
 10
29.35
 20
269.4605276583
 30
0.0
 11
29.35
 21
261.3357329249
 31
0.0
  0
ARC
  5
20B
330
1CF
100
AcDbEntity
  8
$DDT_AUDIT_GENERATED_(1C2)
  6
Continuous
 62
     7
100
AcDbCircle
 10
31.35
 20
283.6840696232
 30
0.0
 40
2.000000000000002
100
AcDbArc
 50
0.0
 51
180.0
  0
ENDBLK
  5
20D
330
1CF
100
AcDbEntity
  8
0
100
AcDbBlockEnd
  0
ENDSEC
  0
SECTION
  2
ENTITIES
  0
INSERT
  5
5F
330
1F
100
AcDbEntity
  8
Default
100
AcDbBlockReference
  2
SEANNOT_GROUP
 10
0.0
 20
0.0
 30
0.0
  0
INSERT
  5
66
330
1F
100
AcDbEntity
  8
Default
100
AcDbBlockReference
  2
SEANNOT_GROUP1
 10
0.0
 20
0.0
 30
0.0
  0
INSERT
  5
6C
330
1F
100
AcDbEntity
  8
Default
100
AcDbBlockReference
  2
SEANNOT_GROUP2
 10
0.0
 20
0.0
 30
0.0
  0
INSERT
  5
76
330
1F
100
AcDbEntity
  8
Default
100
AcDbBlockReference
  2
SE
 10
0.0
 20
0.0
 30
0.0
  0
INSERT
  5
15E
330
1F
100
AcDbEntity
  8
Default
100
AcDbBlockReference
  2
SE1
 10
0.0
 20
0.0
 30
0.0
  0
INSERT
  5
1D0
330
1F
100
AcDbEntity
  8
Default
100
AcDbBlockReference
  2
SE2
 10
0.0
 20
0.0
 30
0.0
  0
TEXT
  5
20F
330
1F
100
AcDbEntity
  8
Default
  6
Continuous
 62
     7
100
AcDbText
 10
5.9362635081
 20
53.4225120485
 30
0.0
 40
10.0
  1
Grohe AG^J
  7
SEACAD_seiso_ttf
 11
5.9362635081
 21
63.4225120485
 31
0.0
100
AcDbText
 73
     3
  0
TEXT
  5
210
330
1F
100
AcDbEntity
  8
Default
  6
Continuous
 62
     7
100
AcDbText
 10
5.9362635081
 20
37.0588756849
 30
0.0
 40
10.0
  1
 
  7
SEACAD_seiso_ttf
 11
5.9362635081
 21
47.0588756849
 31
0.0
100
AcDbText
 73
     3
  0
TEXT
  5
211
330
1F
100
AcDbEntity
  8
Default
  6
Continuous
 62
     7
100
AcDbText
 10
5.9362635081
 20
20.6952393213
 30
0.0
 40
10.0
  1
ecn: 
  7
SEACAD_seiso_ttf
 11
5.9362635081
 21
30.6952393213
 31
0.0
100
AcDbText
 73
     3
  0
TEXT
  5
212
330
1F
100
AcDbEntity
  8
Default
  6
Continuous
 62
     7
100
AcDbText
 10
5.9362635081
 20
4.3316029576
 30
0.0
 40
10.0
  1
unit: mm
  7
SEACAD_seiso_ttf
 11
5.9362635081
 21
14.3316029576
 31
0.0
100
AcDbText
 73
     3
  0
LINE
  5
213
330
1F
100
AcDbEntity
  8
Default
  6
Continuous
 62
     7
100
AcDbLine
 10
0.0
 20
0.0
 30
0.0
 11
100.0
 21
0.0
 31
0.0
  0
LINE
  5
214
330
1F
100
AcDbEntity
  8
Default
  6
Continuous
 62
     7
100
AcDbLine
 10
0.0
 20
0.0
 30
0.0
 11
0.0
 21
100.0
 31
0.0
  0
TEXT
  5
215
330
1F
100
AcDbEntity
  8
Default
  6
Continuous
 62
     7
100
AcDbText
 10
24.3923665681
 20
-18.2375342018
 30
0.0
 40
10.0
  1
100 mm
  7
SEACAD_seiso_ttf
 11
24.3923665681
 21
-8.2375342018
 31
0.0
100
AcDbText
 73
     3
  0
TEXT
  5
216
330
1F
100
AcDbEntity
  8
Default
  6
Continuous
 62
     7
100
AcDbText
 10
-7.6150308803
 20
24.6231930421
 30
0.0
 40
10.0
  1
100 mm
 50
90.0
  7
SEACAD_seiso_ttf
 11
-17.6150308803
 21
24.6231930421
 31
0.0
100
AcDbText
 73
     3
  0
TEXT
  5
217
330
1F
100
AcDbEntity
  8
Default
  6
Continuous
 62
     7
100
AcDbText
 10
28.4878128572
 20
20.0907663715
 30
0.0
 40
10.0
  1
219665
  7
SEACAD_seiso_ttf
 11
28.4878128572
 21
30.0907663715
 31
0.0
100
AcDbText
 73
     3
  0
TEXT
  5
218
330
1F
100
AcDbEntity
  8
Default
  6
Continuous
 62
     7
100
AcDbText
 10
5.9012241913
 20
36.7242780188
 30
0.0
 40
10.0
  1
33177002
  7
SEACAD_seiso_ttf
 11
5.9012241913
 21
46.7242780188
 31
0.0
100
AcDbText
 73
     3
  0
ENDSEC
  0
SECTION
  2
OBJECTS
  0
DICTIONARY
  5
C
330
0
100
AcDbDictionary
281
     1
  3
ACAD_GROUP
350
D
  3
ACAD_LAYOUT
350
1A
  3
ACAD_MLEADERSTYLE
350
21C
  3
ACAD_MLINESTYLE
350
17
  3
ACAD_PLOTSETTINGS
350
19
  3
ACAD_PLOTSTYLENAME
350
E
  3
ACAD_SCALELIST
350
3B
  3
ACAD_TABLESTYLE
350
21B
  3
ACAD_VISUALSTYLE
350
2A
  3
AcDbVariableDictionary
350
219
  0
DICTIONARY
  5
D
102
{ACAD_REACTORS
330
C
102
}
330
C
100
AcDbDictionary
281
     1
  0
DICTIONARY
  5
1A
102
{ACAD_REACTORS
330
C
102
}
330
C
100
AcDbDictionary
281
     1
  3
Layout1
350
1E
  3
Model
350
22
  0
DICTIONARY
  5
21C
102
{ACAD_REACTORS
330
C
102
}
330
C
100
AcDbDictionary
281
     1
  0
DICTIONARY
  5
17
102
{ACAD_REACTORS
330
C
102
}
330
C
100
AcDbDictionary
281
     1
  3
Standard
350
18
  0
DICTIONARY
  5
19
102
{ACAD_REACTORS
330
C
102
}
330
C
100
AcDbDictionary
281
     1
  0
ACDBDICTIONARYWDFLT
  5
E
102
{ACAD_REACTORS
330
C
102
}
330
C
100
AcDbDictionary
281
     1
  3
Normal
350
F
100
AcDbDictionaryWithDefault
340
F
  0
DICTIONARY
  5
3B
102
{ACAD_REACTORS
330
C
102
}
330
C
100
AcDbDictionary
281
     1
  3
A0
350
3C
  3
A1
350
3D
  3
A2
350
3E
  3
A3
350
3F
  3
A4
350
40
  3
A5
350
41
  3
A6
350
42
  3
A7
350
43
  3
A8
350
44
  3
A9
350
45
  3
B0
350
46
  3
B1
350
47
  3
B2
350
48
  3
B3
350
49
  3
B4
350
4A
  3
B5
350
4B
  3
B6
350
4C
  3
B7
350
4D
  3
B8
350
4E
  3
B9
350
4F
  3
C0
350
50
  3
C1
350
51
  3
C2
350
52
  3
C3
350
53
  3
C4
350
54
  3
C5
350
55
  3
C6
350
56
  3
C7
350
57
  3
C8
350
58
  3
C9
350
59
  3
D0
350
5A
  3
D1
350
5B
  3
D2
350
5C
  0
DICTIONARY
  5
21B
102
{ACAD_REACTORS
330
C
102
}
330
C
100
AcDbDictionary
281
     1
  0
DICTIONARY
  5
2A
102
{ACAD_REACTORS
330
C
102
}
330
C
100
AcDbDictionary
281
     1
  3
2dWireframe
350
2F
  3
3D Hidden
350
31
  3
3dWireframe
350
30
  3
Basic
350
32
  3
Brighten
350
36
  3
ColorChange
350
3A
  3
Conceptual
350
34
  3
Dim
350
35
  3
Facepattern
350
39
  3
Flat
350
2B
  3
FlatWithEdges
350
2C
  3
Gouraud
350
2D
  3
GouraudWithEdges
350
2E
  3
Linepattern
350
38
  3
Realistic
350
33
  3
Thicken
350
37
  0
DICTIONARY
  5
219
102
{ACAD_REACTORS
330
C
102
}
330
C
100
AcDbDictionary
281
     1
  3
CANNOSCALE
350
21A
  3
PSOLHEIGHT
350
21E
  3
PSOLWIDTH
350
21D
  0
LAYOUT
  5
1E
102
{ACAD_REACTORS
330
1A
102
}
330
1A
100
AcDbPlotSettings
  1

  2
none_device
  4

  6

 40
0.0
 41
0.0
 42
0.0
 43
0.0
 44
0.0
 45
0.0
 46
0.0
 47
0.0
 48
0.0
 49
0.0
140
0.0
141
0.0
142
1.0
143
1.0
 70
   688
 72
     0
 73
     0
 74
     5
  7

 75
    16
147
1.0
148
0.0
149
0.0
100
AcDbLayout
  1
Layout1
 70
     1
 71
     1
 10
0.0
 20
0.0
 11
1682.0
 21
2378.0
 12
0.0
 22
0.0
 32
0.0
 14
0.0
 24
0.0
 34
0.0
 15
1682.0
 25
2378.0
 35
0.0
146
0.0
 13
0.0
 23
0.0
 33
0.0
 16
1.0
 26
0.0
 36
0.0
 17
0.0
 27
1.0
 37
0.0
 76
     0
330
1B
  0
LAYOUT
  5
22
102
{ACAD_REACTORS
330
1A
102
}
330
1A
100
AcDbPlotSettings
  1

  2
none_device
  4

  6

 40
0.0
 41
0.0
 42
0.0
 43
0.0
 44
0.0
 45
0.0
 46
0.0
 47
0.0
 48
0.0
 49
0.0
140
0.0
141
0.0
142
1.0
143
1.0
 70
  1712
 72
     0
 73
     0
 74
     0
  7

 75
     0
147
1.0
148
0.0
149
0.0
100
AcDbLayout
  1
Model
 70
     1
 71
     0
 10
0.0
 20
0.0
 11
1682.0
 21
2378.0
 12
0.0
 22
0.0
 32
0.0
 14
0.0
 24
0.0
 34
0.0
 15
1682.0
 25
2378.0
 35
0.0
146
0.0
 13
0.0
 23
0.0
 33
0.0
 16
1.0
 26
0.0
 36
0.0
 17
0.0
 27
1.0
 37
0.0
 76
     0
330
1F
331
29
  0
MLINESTYLE
  5
18
102
{ACAD_REACTORS
330
17
102
}
330
17
100
AcDbMlineStyle
  2
Standard
 70
     0
  3

 62
   256
 51
90.0
 52
90.0
 71
     2
 49
0.5
 62
   256
  6
BYLAYER
 49
-0.5
 62
   256
  6
BYLAYER
  0
ACDBPLACEHOLDER
  5
F
102
{ACAD_REACTORS
330
E
102
}
330
E
  0
SCALE
  5
3C
102
{ACAD_REACTORS
330
3B
102
}
330
3B
100
AcDbScale
 70
     0
300
1:1
140
1.0
141
1.0
290
     1
  0
SCALE
  5
3D
102
{ACAD_REACTORS
330
3B
102
}
330
3B
100
AcDbScale
 70
     0
300
1:2
140
1.0
141
2.0
290
     0
  0
SCALE
  5
3E
102
{ACAD_REACTORS
330
3B
102
}
330
3B
100
AcDbScale
 70
     0
300
1:4
140
1.0
141
4.0
290
     0
  0
SCALE
  5
3F
102
{ACAD_REACTORS
330
3B
102
}
330
3B
100
AcDbScale
 70
     0
300
1:5
140
1.0
141
5.0
290
     0
  0
SCALE
  5
40
102
{ACAD_REACTORS
330
3B
102
}
330
3B
100
AcDbScale
 70
     0
300
1:8
140
1.0
141
8.0
290
     0
  0
SCALE
  5
41
102
{ACAD_REACTORS
330
3B
102
}
330
3B
100
AcDbScale
 70
     0
300
1:10
140
1.0
141
10.0
290
     0
  0
SCALE
  5
42
102
{ACAD_REACTORS
330
3B
102
}
330
3B
100
AcDbScale
 70
     0
300
1:16
140
1.0
141
16.0
290
     0
  0
SCALE
  5
43
102
{ACAD_REACTORS
330
3B
102
}
330
3B
100
AcDbScale
 70
     0
300
1:20
140
1.0
141
20.0
290
     0
  0
SCALE
  5
44
102
{ACAD_REACTORS
330
3B
102
}
330
3B
100
AcDbScale
 70
     0
300
1:30
140
1.0
141
30.0
290
     0
  0
SCALE
  5
45
102
{ACAD_REACTORS
330
3B
102
}
330
3B
100
AcDbScale
 70
     0
300
1:40
140
1.0
141
40.0
290
     0
  0
SCALE
  5
46
102
{ACAD_REACTORS
330
3B
102
}
330
3B
100
AcDbScale
 70
     0
300
1:50
140
1.0
141
50.0
290
     0
  0
SCALE
  5
47
102
{ACAD_REACTORS
330
3B
102
}
330
3B
100
AcDbScale
 70
     0
300
1:100
140
1.0
141
100.0
290
     0
  0
SCALE
  5
48
102
{ACAD_REACTORS
330
3B
102
}
330
3B
100
AcDbScale
 70
     0
300
2:1
140
2.0
141
1.0
290
     0
  0
SCALE
  5
49
102
{ACAD_REACTORS
330
3B
102
}
330
3B
100
AcDbScale
 70
     0
300
4:1
140
4.0
141
1.0
290
     0
  0
SCALE
  5
4A
102
{ACAD_REACTORS
330
3B
102
}
330
3B
100
AcDbScale
 70
     0
300
8:1
140
8.0
141
1.0
290
     0
  0
SCALE
  5
4B
102
{ACAD_REACTORS
330
3B
102
}
330
3B
100
AcDbScale
 70
     0
300
10:1
140
10.0
141
1.0
290
     0
  0
SCALE
  5
4C
102
{ACAD_REACTORS
330
3B
102
}
330
3B
100
AcDbScale
 70
     0
300
100:1
140
100.0
141
1.0
290
     0
  0
SCALE
  5
4D
102
{ACAD_REACTORS
330
3B
102
}
330
3B
100
AcDbScale
 70
     0
300
1/128" = 1'-0"
140
0.0078125
141
12.0
290
     0
  0
SCALE
  5
4E
102
{ACAD_REACTORS
330
3B
102
}
330
3B
100
AcDbScale
 70
     0
300
1/64" = 1'-0"
140
0.015625
141
12.0
290
     0
  0
SCALE
  5
4F
102
{ACAD_REACTORS
330
3B
102
}
330
3B
100
AcDbScale
 70
     0
300
1/32" = 1'-0"
140
0.03125
141
12.0
290
     0
  0
SCALE
  5
50
102
{ACAD_REACTORS
330
3B
102
}
330
3B
100
AcDbScale
 70
     0
300
1/16" = 1'-0"
140
0.0625
141
12.0
290
     0
  0
SCALE
  5
51
102
{ACAD_REACTORS
330
3B
102
}
330
3B
100
AcDbScale
 70
     0
300
3/32" = 1'-0"
140
0.09375
141
12.0
290
     0
  0
SCALE
  5
52
102
{ACAD_REACTORS
330
3B
102
}
330
3B
100
AcDbScale
 70
     0
300
1/8" = 1'-0"
140
0.125
141
12.0
290
     0
  0
SCALE
  5
53
102
{ACAD_REACTORS
330
3B
102
}
330
3B
100
AcDbScale
 70
     0
300
3/16" = 1'-0"
140
0.1875
141
12.0
290
     0
  0
SCALE
  5
54
102
{ACAD_REACTORS
330
3B
102
}
330
3B
100
AcDbScale
 70
     0
300
1/4" = 1'-0"
140
0.25
141
12.0
290
     0
  0
SCALE
  5
55
102
{ACAD_REACTORS
330
3B
102
}
330
3B
100
AcDbScale
 70
     0
300
3/8" = 1'-0"
140
0.375
141
12.0
290
     0
  0
SCALE
  5
56
102
{ACAD_REACTORS
330
3B
102
}
330
3B
100
AcDbScale
 70
     0
300
1/2" = 1'-0"
140
0.5
141
12.0
290
     0
  0
SCALE
  5
57
102
{ACAD_REACTORS
330
3B
102
}
330
3B
100
AcDbScale
 70
     0
300
3/4" = 1'-0"
140
0.75
141
12.0
290
     0
  0
SCALE
  5
58
102
{ACAD_REACTORS
330
3B
102
}
330
3B
100
AcDbScale
 70
     0
300
1" = 1'-0"
140
1.0
141
12.0
290
     0
  0
SCALE
  5
59
102
{ACAD_REACTORS
330
3B
102
}
330
3B
100
AcDbScale
 70
     0
300
1-1/2" = 1'-0"
140
1.5
141
12.0
290
     0
  0
SCALE
  5
5A
102
{ACAD_REACTORS
330
3B
102
}
330
3B
100
AcDbScale
 70
     0
300
3" = 1'-0"
140
3.0
141
12.0
290
     0
  0
SCALE
  5
5B
102
{ACAD_REACTORS
330
3B
102
}
330
3B
100
AcDbScale
 70
     0
300
6" = 1'-0"
140
6.0
141
12.0
290
     0
  0
SCALE
  5
5C
102
{ACAD_REACTORS
330
3B
102
}
330
3B
100
AcDbScale
 70
     0
300
1'-0" = 1'-0"
140
12.0
141
12.0
290
     0
  0
VISUALSTYLE
  5
2F
102
{ACAD_REACTORS
330
2A
102
}
330
2A
100
AcDbVisualStyle
  2
2dWireframe
 70
     4
 71
     0
 72
     2
 73
     0
 90
        0
 40
-0.6
 41
-30.0
 62
     5
 63
     7
 74
     1
 91
        4
 64
     7
 65
   257
 75
     1
175
     1
 42
1.0
 92
        0
 66
   257
 43
1.0
 76
     1
 77
     6
 78
     2
 67
     7
 79
     5
170
     0
171
     0
290
     0
174
     0
 93
        1
 44
0.0
173
     0
291
     0
 45
0.0
1001
ACAD
1000
AcDbSavedByObjectVersion
1070
     0
  0
VISUALSTYLE
  5
31
102
{ACAD_REACTORS
330
2A
102
}
330
2A
100
AcDbVisualStyle
  2
3D Hidden
 70
     6
 71
     1
 72
     2
 73
     2
 90
        0
 40
-0.6
 41
-30.0
 62
     5
 63
     7
 74
     2
 91
        2
 64
     7
 65
   257
 75
     2
175
     1
 42
40.0
 92
        0
 66
   257
 43
1.0
 76
     1
 77
     6
 78
     2
 67
     7
 79
     3
170
     0
171
     0
290
     0
174
     0
 93
        1
 44
0.0
173
     0
291
     0
 45
0.0
1001
ACAD
1000
AcDbSavedByObjectVersion
1070
     0
  0
VISUALSTYLE
  5
30
102
{ACAD_REACTORS
330
2A
102
}
330
2A
100
AcDbVisualStyle
  2
3dWireframe
 70
     5
 71
     0
 72
     2
 73
     0
 90
        0
 40
-0.6
 41
-30.0
 62
     5
 63
     7
 74
     1
 91
        4
 64
     7
 65
   257
 75
     1
175
     1
 42
1.0
 92
        0
 66
   257
 43
1.0
 76
     1
 77
     6
 78
     2
 67
     7
 79
     5
170
     0
171
     0
290
     0
174
     0
 93
        1
 44
0.0
173
     0
291
     0
 45
0.0
1001
ACAD
1000
AcDbSavedByObjectVersion
1070
     0
  0
VISUALSTYLE
  5
32
102
{ACAD_REACTORS
330
2A
102
}
330
2A
100
AcDbVisualStyle
  2
Basic
 70
     7
 71
     1
 72
     0
 73
     1
 90
        0
 40
-0.6
 41
-30.0
 62
     5
 63
     7
 74
     0
 91
        4
 64
     7
 65
   257
 75
     1
175
     1
 42
1.0
 92
        8
 66
     7
 43
1.0
 76
     1
 77
     6
 78
     2
 67
     7
 79
     5
170
     0
171
     0
290
     0
174
     0
 93
        1
 44
0.0
173
     0
291
     1
 45
0.0
1001
ACAD
1000
AcDbSavedByObjectVersion
1070
     0
  0
VISUALSTYLE
  5
36
102
{ACAD_REACTORS
330
2A
102
}
330
2A
100
AcDbVisualStyle
  2
Brighten
 70
    12
 71
     2
 72
     2
 73
     0
 90
        0
 40
-0.6
 41
-30.0
 62
     5
 63
     7
 74
     1
 91
        4
 64
     7
 65
   257
 75
     1
175
     1
 42
1.0
 92
        8
 66
     7
 43
1.0
 76
     1
 77
     6
 78
     2
 67
     7
 79
     5
170
     0
171
     0
290
     0
174
     0
 93
        1
 44
50.0
173
     0
291
     1
 45
0.0
1001
ACAD
1000
AcDbSavedByObjectVersion
1070
     0
  0
VISUALSTYLE
  5
3A
102
{ACAD_REACTORS
330
2A
102
}
330
2A
100
AcDbVisualStyle
  2
ColorChange
 70
    16
 71
     2
 72
     2
 73
     3
 90
        0
 40
-0.6
 41
-30.0
 62
     5
 63
     8
 74
     1
 91
        4
 64
     7
 65
   257
 75
     1
175
     1
 42
1.0
 92
        8
 66
     8
 43
1.0
 76
     1
 77
     6
 78
     2
 67
     7
 79
     5
170
     0
171
     0
290
     0
174
     0
 93
        1
 44
0.0
173
     0
291
     1
 45
0.0
1001
ACAD
1000
AcDbSavedByObjectVersion
1070
     0
  0
VISUALSTYLE
  5
34
102
{ACAD_REACTORS
330
2A
102
}
330
2A
100
AcDbVisualStyle
  2
Conceptual
 70
     9
 71
     3
 72
     2
 73
     0
 90
        0
 40
-0.6
 41
-30.0
 62
     5
 63
     7
 74
     2
 91
        2
 64
     7
 65
   257
 75
     1
175
     1
 42
40.0
 92
        8
 66
     7
 43
1.0
 76
     1
 77
     6
 78
     2
 67
     7
 79
     3
170
     0
171
     0
290
     0
174
     0
 93
        1
 44
0.0
173
     0
291
     0
 45
0.0
1001
ACAD
1000
AcDbSavedByObjectVersion
1070
     0
  0
VISUALSTYLE
  5
35
102
{ACAD_REACTORS
330
2A
102
}
330
2A
100
AcDbVisualStyle
  2
Dim
 70
    11
 71
     2
 72
     2
 73
     0
 90
        0
 40
-0.6
 41
-30.0
 62
     5
 63
     7
 74
     1
 91
        4
 64
     7
 65
   257
 75
     1
175
     1
 42
1.0
 92
        8
 66
     7
 43
1.0
 76
     1
 77
     6
 78
     2
 67
     7
 79
     5
170
     0
171
     0
290
     0
174
     0
 93
        1
 44
-50.0
173
     0
291
     1
 45
0.0
1001
ACAD
1000
AcDbSavedByObjectVersion
1070
     0
  0
VISUALSTYLE
  5
39
102
{ACAD_REACTORS
330
2A
102
}
330
2A
100
AcDbVisualStyle
  2
Facepattern
 70
    15
 71
     2
 72
     2
 73
     0
 90
        0
 40
-0.6
 41
-30.0
 62
     5
 63
     7
 74
     1
 91
        4
 64
     7
 65
   257
 75
     1
175
     1
 42
1.0
 92
        8
 66
     7
 43
1.0
 76
     1
 77
     6
 78
     2
 67
     7
 79
     5
170
     0
171
     0
290
     0
174
     0
 93
        1
 44
0.0
173
     0
291
     1
 45
0.0
1001
ACAD
1000
AcDbSavedByObjectVersion
1070
     0
  0
VISUALSTYLE
  5
2B
102
{ACAD_REACTORS
330
2A
102
}
330
2A
100
AcDbVisualStyle
  2
Flat
 70
     0
 71
     2
 72
     1
 73
     1
 90
        2
 40
-0.6
 41
30.0
 62
     5
 63
     7
 74
     0
 91
        4
 64
     7
 65
   257
 75
     1
175
     1
 42
1.0
 92
        8
 66
     7
 43
1.0
 76
     1
 77
     6
 78
     2
 67
     7
 79
     5
170
     0
171
     0
290
     0
174
     0
 93
       13
 44
0.0
173
     0
291
     1
 45
0.0
1001
ACAD
1000
AcDbSavedByObjectVersion
1070
     0
  0
VISUALSTYLE
  5
2C
102
{ACAD_REACTORS
330
2A
102
}
330
2A
100
AcDbVisualStyle
  2
FlatWithEdges
 70
     1
 71
     2
 72
     1
 73
     1
 90
        2
 40
-0.6
 41
30.0
 62
     5
 63
     7
 74
     1
 91
        4
 64
     7
 65
   257
 75
     1
175
     1
 42
1.0
 92
        0
 66
   257
 43
1.0
 76
     1
 77
     6
 78
     2
 67
     7
 79
     5
170
     0
171
     0
290
     0
174
     0
 93
       13
 44
0.0
173
     0
291
     1
 45
0.0
1001
ACAD
1000
AcDbSavedByObjectVersion
1070
     0
  0
VISUALSTYLE
  5
2D
102
{ACAD_REACTORS
330
2A
102
}
330
2A
100
AcDbVisualStyle
  2
Gouraud
 70
     2
 71
     2
 72
     2
 73
     1
 90
        2
 40
-0.6
 41
30.0
 62
     5
 63
     7
 74
     0
 91
        4
 64
     7
 65
   257
 75
     1
175
     1
 42
1.0
 92
        0
 66
     7
 43
1.0
 76
     1
 77
     6
 78
     2
 67
     7
 79
     5
170
     0
171
     0
290
     0
174
     0
 93
       13
 44
0.0
173
     0
291
     1
 45
0.0
1001
ACAD
1000
AcDbSavedByObjectVersion
1070
     0
  0
VISUALSTYLE
  5
2E
102
{ACAD_REACTORS
330
2A
102
}
330
2A
100
AcDbVisualStyle
  2
GouraudWithEdges
 70
     3
 71
     2
 72
     2
 73
     1
 90
        2
 40
-0.6
 41
30.0
 62
     5
 63
     7
 74
     1
 91
        4
 64
     7
 65
   257
 75
     1
175
     1
 42
1.0
 92
        0
 66
   257
 43
1.0
 76
     1
 77
     6
 78
     2
 67
     7
 79
     5
170
     0
171
     0
290
     0
174
     0
 93
       13
 44
0.0
173
     0
291
     1
 45
0.0
1001
ACAD
1000
AcDbSavedByObjectVersion
1070
     0
  0
VISUALSTYLE
  5
38
102
{ACAD_REACTORS
330
2A
102
}
330
2A
100
AcDbVisualStyle
  2
Linepattern
 70
    14
 71
     2
 72
     2
 73
     0
 90
        0
 40
-0.6
 41
-30.0
 62
     5
 63
     7
 74
     1
 91
        4
 64
     7
 65
   257
 75
     7
175
     7
 42
1.0
 92
        8
 66
     7
 43
1.0
 76
     1
 77
     6
 78
     2
 67
     7
 79
     5
170
     0
171
     0
290
     0
174
     0
 93
        1
 44
0.0
173
     0
291
     1
 45
0.0
1001
ACAD
1000
AcDbSavedByObjectVersion
1070
     0
  0
VISUALSTYLE
  5
33
102
{ACAD_REACTORS
330
2A
102
}
330
2A
100
AcDbVisualStyle
  2
Realistic
 70
     8
 71
     2
 72
     2
 73
     0
 90
        0
 40
-0.6
 41
-30.0
 62
     5
 63
     7
 74
     1
 91
        0
 64
     7
 65
   257
 75
     1
175
     1
 42
1.0
 92
        8
 66
     8
 43
1.0
 76
     1
 77
     6
 78
     2
 67
     7
 79
     5
170
     0
171
     0
290
     0
174
     0
 93
       13
 44
0.0
173
     0
291
     0
 45
0.0
1001
ACAD
1000
AcDbSavedByObjectVersion
1070
     0
  0
VISUALSTYLE
  5
37
102
{ACAD_REACTORS
330
2A
102
}
330
2A
100
AcDbVisualStyle
  2
Thicken
 70
    13
 71
     2
 72
     2
 73
     0
 90
        0
 40
-0.6
 41
-30.0
 62
     5
 63
     7
 74
     1
 91
        4
 64
     7
 65
   257
 75
     1
175
     1
 42
1.0
 92
       12
 66
     7
 43
1.0
 76
     1
 77
     6
 78
     2
 67
     7
 79
     5
170
     0
171
     0
290
     0
174
     0
 93
        1
 44
0.0
173
     0
291
     1
 45
0.0
1001
ACAD
1000
AcDbSavedByObjectVersion
1070
     0
  0
DICTIONARYVAR
  5
21A
102
{ACAD_REACTORS
330
219
102
}
330
219
100
DictionaryVariables
280
     0
  1
1:1
  0
DICTIONARYVAR
  5
21E
102
{ACAD_REACTORS
330
219
102
}
330
219
100
DictionaryVariables
280
     0
  1
80.000000
  0
DICTIONARYVAR
  5
21D
102
{ACAD_REACTORS
330
219
102
}
330
219
100
DictionaryVariables
280
     0
  1
5.000000
  0
ENDSEC
  0
EOF
