  0
SECTION
  2
HEADER
  9
$ACADVER
  1
AC1015
  9
$ACADMAINTVER
 70
     6
  9
$DWGCODEPAGE
  3
ANSI_1252
  9
$INSBASE
 10
0.0
 20
0.0
 30
0.0
  9
$EXTMIN
 10
0.0
 20
0.0
 30
0.0
  9
$EXTMAX
 10
1682.0
 20
2378.0
 30
0.0
  9
$LIMMIN
 10
0.0
 20
0.0
  9
$LIMMAX
 10
1682.0
 20
2378.0
  9
$ORTHOMODE
 70
     0
  9
$REGENMODE
 70
     1
  9
$FILLMODE
 70
     1
  9
$QTEXTMODE
 70
     0
  9
$MIRRTEXT
 70
     1
  9
$LTSCALE
 40
1.0
  9
$ATTMODE
 70
     1
  9
$TEXTSIZE
 40
2.5
  9
$TRACEWID
 40
1.0
  9
$TEXTSTYLE
  7
Standard
  9
$CLAYER
  8
0
  9
$CELTYPE
  6
ByLayer
  9
$CECOLOR
 62
   256
  9
$CELTSCALE
 40
1.0
  9
$DISPSILH
 70
     0
  9
$DIMSCALE
 40
1.0
  9
$DIMASZ
 40
2.5
  9
$DIMEXO
 40
0.625
  9
$DIMDLI
 40
3.75
  9
$DIMRND
 40
0.0
  9
$DIMDLE
 40
0.0
  9
$DIMEXE
 40
1.25
  9
$DIMTP
 40
0.0
  9
$DIMTM
 40
0.0
  9
$DIMTXT
 40
2.5
  9
$DIMCEN
 40
2.5
  9
$DIMTSZ
 40
0.0
  9
$DIMTOL
 70
     0
  9
$DIMLIM
 70
     0
  9
$DIMTIH
 70
     0
  9
$DIMTOH
 70
     0
  9
$DIMSE1
 70
     0
  9
$DIMSE2
 70
     0
  9
$DIMTAD
 70
     1
  9
$DIMZIN
 70
     8
  9
$DIMBLK
  1

  9
$DIMASO
 70
     1
  9
$DIMSHO
 70
     1
  9
$DIMPOST
  1

  9
$DIMAPOST
  1

  9
$DIMALT
 70
     0
  9
$DIMALTD
 70
     3
  9
$DIMALTF
 40
0.0393700787
  9
$DIMLFAC
 40
1.0
  9
$DIMTOFL
 70
     1
  9
$DIMTVP
 40
0.0
  9
$DIMTIX
 70
     0
  9
$DIMSOXD
 70
     0
  9
$DIMSAH
 70
     0
  9
$DIMBLK1
  1

  9
$DIMBLK2
  1

  9
$DIMSTYLE
  2
ISO-25
  9
$DIMCLRD
 70
     0
  9
$DIMCLRE
 70
     0
  9
$DIMCLRT
 70
     0
  9
$DIMTFAC
 40
1.0
  9
$DIMGAP
 40
0.625
  9
$DIMJUST
 70
     0
  9
$DIMSD1
 70
     0
  9
$DIMSD2
 70
     0
  9
$DIMTOLJ
 70
     0
  9
$DIMTZIN
 70
     8
  9
$DIMALTZ
 70
     0
  9
$DIMALTTZ
 70
     0
  9
$DIMUPT
 70
     0
  9
$DIMDEC
 70
     2
  9
$DIMTDEC
 70
     2
  9
$DIMALTU
 70
     2
  9
$DIMALTTD
 70
     3
  9
$DIMTXSTY
  7
Standard
  9
$DIMAUNIT
 70
     0
  9
$DIMADEC
 70
     0
  9
$DIMALTRND
 40
0.0
  9
$DIMAZIN
 70
     0
  9
$DIMDSEP
 70
    44
  9
$DIMATFIT
 70
     3
  9
$DIMFRAC
 70
     0
  9
$DIMLDRBLK
  1

  9
$DIMLUNIT
 70
     2
  9
$DIMLWD
 70
    -2
  9
$DIMLWE
 70
    -2
  9
$DIMTMOVE
 70
     0
  9
$LUNITS
 70
     2
  9
$LUPREC
 70
     4
  9
$SKETCHINC
 40
1.0
  9
$FILLETRAD
 40
10.0
  9
$AUNITS
 70
     0
  9
$AUPREC
 70
     0
  9
$MENU
  1
.
  9
$ELEVATION
 40
0.0
  9
$PELEVATION
 40
0.0
  9
$THICKNESS
 40
0.0
  9
$LIMCHECK
 70
     0
  9
$CHAMFERA
 40
10.0
  9
$CHAMFERB
 40
10.0
  9
$CHAMFERC
 40
20.0
  9
$CHAMFERD
 40
0.0
  9
$SKPOLY
 70
     0
  9
$TDCREATE
 40
2455651.60259235
  9
$TDUCREATE
 40
2455651.519259016
  9
$TDUPDATE
 40
2455651.602592361
  9
$TDUUPDATE
 40
2455651.519259028
  9
$TDINDWG
 40
0.0000000116
  9
$TDUSRTIMER
 40
0.0000000116
  9
$USRTIMER
 70
     1
  9
$ANGBASE
 50
0.0
  9
$ANGDIR
 70
     0
  9
$PDMODE
 70
     0
  9
$PDSIZE
 40
0.0
  9
$PLINEWID
 40
0.0
  9
$SPLFRAME
 70
     0
  9
$SPLINETYPE
 70
     6
  9
$SPLINESEGS
 70
     8
  9
$HANDSEED
  5
193
  9
$SURFTAB1
 70
     6
  9
$SURFTAB2
 70
     6
  9
$SURFTYPE
 70
     6
  9
$SURFU
 70
     6
  9
$SURFV
 70
     6
  9
$UCSBASE
  2

  9
$UCSNAME
  2

  9
$UCSORG
 10
0.0
 20
0.0
 30
0.0
  9
$UCSXDIR
 10
1.0
 20
0.0
 30
0.0
  9
$UCSYDIR
 10
0.0
 20
1.0
 30
0.0
  9
$UCSORTHOREF
  2

  9
$UCSORTHOVIEW
 70
     0
  9
$UCSORGTOP
 10
0.0
 20
0.0
 30
0.0
  9
$UCSORGBOTTOM
 10
0.0
 20
0.0
 30
0.0
  9
$UCSORGLEFT
 10
0.0
 20
0.0
 30
0.0
  9
$UCSORGRIGHT
 10
0.0
 20
0.0
 30
0.0
  9
$UCSORGFRONT
 10
0.0
 20
0.0
 30
0.0
  9
$UCSORGBACK
 10
0.0
 20
0.0
 30
0.0
  9
$PUCSBASE
  2

  9
$PUCSNAME
  2

  9
$PUCSORG
 10
0.0
 20
0.0
 30
0.0
  9
$PUCSXDIR
 10
1.0
 20
0.0
 30
0.0
  9
$PUCSYDIR
 10
0.0
 20
1.0
 30
0.0
  9
$PUCSORTHOREF
  2

  9
$PUCSORTHOVIEW
 70
     0
  9
$PUCSORGTOP
 10
0.0
 20
0.0
 30
0.0
  9
$PUCSORGBOTTOM
 10
0.0
 20
0.0
 30
0.0
  9
$PUCSORGLEFT
 10
0.0
 20
0.0
 30
0.0
  9
$PUCSORGRIGHT
 10
0.0
 20
0.0
 30
0.0
  9
$PUCSORGFRONT
 10
0.0
 20
0.0
 30
0.0
  9
$PUCSORGBACK
 10
0.0
 20
0.0
 30
0.0
  9
$USERI1
 70
     0
  9
$USERI2
 70
     0
  9
$USERI3
 70
     0
  9
$USERI4
 70
     0
  9
$USERI5
 70
     0
  9
$USERR1
 40
0.0
  9
$USERR2
 40
0.0
  9
$USERR3
 40
0.0
  9
$USERR4
 40
0.0
  9
$USERR5
 40
0.0
  9
$WORLDVIEW
 70
     1
  9
$SHADEDGE
 70
     3
  9
$SHADEDIF
 70
    70
  9
$TILEMODE
 70
     1
  9
$MAXACTVP
 70
    64
  9
$PINSBASE
 10
0.0
 20
0.0
 30
0.0
  9
$PLIMCHECK
 70
     0
  9
$PEXTMIN
 10
0.0
 20
0.0
 30
0.0
  9
$PEXTMAX
 10
1682.0
 20
2378.0
 30
0.0
  9
$PLIMMIN
 10
0.0
 20
0.0
  9
$PLIMMAX
 10
1682.0
 20
2378.0
  9
$UNITMODE
 70
     0
  9
$VISRETAIN
 70
     1
  9
$PLINEGEN
 70
     0
  9
$PSLTSCALE
 70
     1
  9
$TREEDEPTH
 70
  3020
  9
$CMLSTYLE
  2
Standard
  9
$CMLJUST
 70
     0
  9
$CMLSCALE
 40
20.0
  9
$PROXYGRAPHICS
 70
     1
  9
$MEASUREMENT
 70
     1
  9
$CELWEIGHT
370
    -1
  9
$ENDCAPS
280
     0
  9
$JOINSTYLE
280
     0
  9
$LWDISPLAY
290
     0
  9
$INSUNITS
 70
     4
  9
$HYPERLINKBASE
  1

  9
$STYLESHEET
  1

  9
$XEDIT
290
     1
  9
$CEPSNTYPE
380
     0
  9
$PSTYLEMODE
290
     1
  9
$FINGERPRINTGUID
  2
{0AAA78F4-3FEB-4AFA-BC41-086BF9D8DB43}
  9
$VERSIONGUID
  2
{FAEB1C32-E019-11D5-929B-00C0DF256EC4}
  9
$EXTNAMES
290
     1
  9
$PSVPSCALE
 40
0.0
  9
$OLESTARTUP
290
     0
  0
ENDSEC
  0
SECTION
  2
CLASSES
  0
CLASS
  1
ACDBDICTIONARYWDFLT
  2
AcDbDictionaryWithDefault
  3
ObjectDBX Classes
 90
        0
280
     0
281
     0
  0
CLASS
  1
VISUALSTYLE
  2
AcDbVisualStyle
  3
ObjectDBX Classes
 90
     4095
280
     0
281
     0
  0
CLASS
  1
SCALE
  2
AcDbScale
  3
ObjectDBX Classes
 90
     1153
280
     0
281
     0
  0
CLASS
  1
DICTIONARYVAR
  2
AcDbDictionaryVar
  3
ObjectDBX Classes
 90
        0
280
     0
281
     0
  0
CLASS
  1
ACDBPLACEHOLDER
  2
AcDbPlaceHolder
  3
ObjectDBX Classes
 90
        0
280
     0
281
     0
  0
CLASS
  1
LAYOUT
  2
AcDbLayout
  3
ObjectDBX Classes
 90
        0
280
     0
281
     0
  0
ENDSEC
  0
SECTION
  2
TABLES
  0
TABLE
  2
VPORT
  5
8
330
0
100
AcDbSymbolTable
 70
     1
  0
VPORT
  5
29
330
8
100
AcDbSymbolTableRecord
100
AcDbViewportTableRecord
  2
*Active
 70
     0
 10
0.0
 20
0.0
 11
1.0
 21
1.0
 12
344.1869158879
 22
148.5
 13
0.0
 23
0.0
 14
10.0
 24
10.0
 15
10.0
 25
10.0
 16
0.0
 26
0.0
 36
1.0
 17
0.0
 27
0.0
 37
0.0
 40
297.0
 41
1.9729729729
 42
50.0
 43
0.0
 44
0.0
 50
0.0
 51
0.0
 71
     0
 72
   100
 73
     1
 74
     3
 75
     0
 76
     0
 77
     0
 78
     0
281
     0
 65
     1
110
0.0
120
0.0
130
0.0
111
1.0
121
0.0
131
0.0
112
0.0
122
1.0
132
0.0
 79
     0
146
0.0
  0
ENDTAB
  0
TABLE
  2
LTYPE
  5
5
330
0
100
AcDbSymbolTable
 70
     2
  0
LTYPE
  5
14
330
5
100
AcDbSymbolTableRecord
100
AcDbLinetypeTableRecord
  2
ByBlock
 70
     0
  3

 72
    65
 73
     0
 40
0.0
  0
LTYPE
  5
15
330
5
100
AcDbSymbolTableRecord
100
AcDbLinetypeTableRecord
  2
ByLayer
 70
     0
  3

 72
    65
 73
     0
 40
0.0
  0
LTYPE
  5
16
330
5
100
AcDbSymbolTableRecord
100
AcDbLinetypeTableRecord
  2
Continuous
 70
     0
  3
Solid line
 72
    65
 73
     0
 40
0.0
  0
LTYPE
  5
60
330
5
100
AcDbSymbolTableRecord
100
AcDbLinetypeTableRecord
  2
CENTER2
 70
     0
  3
Center (.5x) ___ _ ___ _ ___ _ ___ _ ___ _ ___
 72
    65
 73
     4
 40
28.575
 49
19.05
 74
     4
 75
     0
340
0
 46
0.0
 50
0.0
 44
0.0
 45
0.0
 49
-3.175
 74
     4
 75
     0
340
0
 46
0.0
 50
0.0
 44
0.0
 45
0.0
 49
3.175
 74
     4
 75
     0
340
0
 46
0.0
 50
0.0
 44
0.0
 45
0.0
 49
-3.175
 74
     4
 75
     0
340
0
 46
0.0
 50
0.0
 44
0.0
 45
0.0
  0
ENDTAB
  0
TABLE
  2
LAYER
  5
2
330
0
100
AcDbSymbolTable
 70
     5
  0
LAYER
  5
10
330
2
100
AcDbSymbolTableRecord
100
AcDbLayerTableRecord
  2
0
 70
     0
 62
     7
  6
Continuous
370
    -3
390
F
  0
LAYER
  5
5D
330
2
100
AcDbSymbolTableRecord
100
AcDbLayerTableRecord
  2
Default
 70
     0
 62
     7
  6
Continuous
370
    -3
390
F
  0
LAYER
  5
74
330
2
100
AcDbSymbolTableRecord
100
AcDbLayerTableRecord
  2
$DDT_AUDIT_GENERATED_(74)
 70
     0
 62
     7
  6
Continuous
370
    -3
390
F
  0
LAYER
  5
7E
330
2
100
AcDbSymbolTableRecord
100
AcDbLayerTableRecord
  2
$DDT_AUDIT_GENERATED_(7E)
 70
     0
 62
     7
  6
Continuous
370
    -3
390
F
  0
LAYER
  5
C2
330
2
100
AcDbSymbolTableRecord
100
AcDbLayerTableRecord
  2
$DDT_AUDIT_GENERATED_(C2)
 70
     0
 62
     7
  6
Continuous
370
    -3
390
F
  0
ENDTAB
  0
TABLE
  2
STYLE
  5
3
330
0
100
AcDbSymbolTable
 70
     2
  0
STYLE
  5
11
330
3
100
AcDbSymbolTableRecord
100
AcDbTextStyleTableRecord
  2
Standard
 70
     0
 40
0.0
 41
1.0
 50
0.0
 71
     0
 42
2.5
  3
txt
  4

  0
STYLE
  5
182
330
3
100
AcDbSymbolTableRecord
100
AcDbTextStyleTableRecord
  2
SEACAD_seiso_ttf
 70
     0
 40
0.0
 41
1.0
 50
0.0
 71
     0
 42
0.2
  3
seiso.ttf
  4

  0
ENDTAB
  0
TABLE
  2
VIEW
  5
6
330
0
100
AcDbSymbolTable
 70
     0
  0
ENDTAB
  0
TABLE
  2
UCS
  5
7
330
0
100
AcDbSymbolTable
 70
     0
  0
ENDTAB
  0
TABLE
  2
APPID
  5
9
330
0
100
AcDbSymbolTable
 70
     1
  0
APPID
  5
12
330
9
100
AcDbSymbolTableRecord
100
AcDbRegAppTableRecord
  2
ACAD
 70
     0
  0
ENDTAB
  0
TABLE
  2
DIMSTYLE
  5
A
330
0
100
AcDbSymbolTable
 70
     1
100
AcDbDimStyleTable
  0
DIMSTYLE
105
27
330
A
100
AcDbSymbolTableRecord
100
AcDbDimStyleTableRecord
  2
ISO-25
 70
     0
 41
2.5
 42
0.625
 43
3.75
 44
1.25
 73
     0
 74
     0
 77
     1
 78
     8
140
2.5
141
2.5
143
0.0393700787
147
0.625
171
     3
172
     1
271
     2
272
     2
274
     3
278
    44
283
     0
284
     8
340
11
  0
ENDTAB
  0
TABLE
  2
BLOCK_RECORD
  5
1
330
0
100
AcDbSymbolTable
 70
     7
  0
BLOCK_RECORD
  5
1F
330
1
100
AcDbSymbolTableRecord
100
AcDbBlockTableRecord
  2
*Model_Space
340
22
  0
BLOCK_RECORD
  5
1B
330
1
100
AcDbSymbolTableRecord
100
AcDbBlockTableRecord
  2
*Paper_Space
340
1E
  0
BLOCK_RECORD
  5
5E
330
1
100
AcDbSymbolTableRecord
100
AcDbBlockTableRecord
  2
SEANNOT_GROUP
340
0
102
{BLKREFS
331
5F
102
}
  0
BLOCK_RECORD
  5
66
330
1
100
AcDbSymbolTableRecord
100
AcDbBlockTableRecord
  2
SEANNOT_GROUP1
340
0
102
{BLKREFS
331
67
102
}
  0
BLOCK_RECORD
  5
6C
330
1
100
AcDbSymbolTableRecord
100
AcDbBlockTableRecord
  2
SEANNOT_GROUP2
340
0
102
{BLKREFS
331
6D
102
}
  0
BLOCK_RECORD
  5
72
330
1
100
AcDbSymbolTableRecord
100
AcDbBlockTableRecord
  2
SE
340
0
102
{BLKREFS
331
73
102
}
  0
BLOCK_RECORD
  5
D7
330
1
100
AcDbSymbolTableRecord
100
AcDbBlockTableRecord
  2
SE1
340
0
102
{BLKREFS
331
D8
102
}
  0
BLOCK_RECORD
  5
125
330
1
100
AcDbSymbolTableRecord
100
AcDbBlockTableRecord
  2
SE2
340
0
102
{BLKREFS
331
126
102
}
  0
ENDTAB
  0
ENDSEC
  0
SECTION
  2
BLOCKS
  0
BLOCK
  5
20
330
1F
100
AcDbEntity
  8
0
100
AcDbBlockBegin
  2
*Model_Space
 70
     0
 10
0.0
 20
0.0
 30
0.0
  3
*Model_Space
  1

  0
ENDBLK
  5
21
330
1F
100
AcDbEntity
  8
0
100
AcDbBlockEnd
  0
BLOCK
  5
1C
330
1B
100
AcDbEntity
 67
     1
  8
0
100
AcDbBlockBegin
  2
*Paper_Space
 70
     0
 10
0.0
 20
0.0
 30
0.0
  3
*Paper_Space
  1

  0
ENDBLK
  5
1D
330
1B
100
AcDbEntity
 67
     1
  8
0
100
AcDbBlockEnd
  0
BLOCK
  5
63
330
5E
100
AcDbEntity
  8
0
100
AcDbBlockBegin
  2
SEANNOT_GROUP
 70
     0
 10
0.0
 20
0.0
 30
0.0
  3
SEANNOT_GROUP
  1

  0
LINE
  5
61
330
5E
100
AcDbEntity
  8
Default
  6
CENTER2
 62
     7
100
AcDbLine
 10
392.5135720858
 20
446.6872803688
 30
0.0
 11
352.5135729798
 21
446.6872803688
 31
0.0
  0
LINE
  5
62
330
5E
100
AcDbEntity
  8
Default
  6
CENTER2
 62
     7
100
AcDbLine
 10
372.5135725328
 20
466.6872799218
 30
0.0
 11
372.5135725328
 21
426.6872808158
 31
0.0
  0
ENDBLK
  5
64
330
5E
100
AcDbEntity
  8
0
100
AcDbBlockEnd
  0
BLOCK
  5
6A
330
66
100
AcDbEntity
  8
0
100
AcDbBlockBegin
  2
SEANNOT_GROUP1
 70
     0
 10
0.0
 20
0.0
 30
0.0
  3
SEANNOT_GROUP1
  1

  0
LINE
  5
68
330
66
100
AcDbEntity
  8
Default
  6
CENTER2
 62
     7
100
AcDbLine
 10
128.1092370508
 20
446.6872803688
 30
0.0
 11
88.1092379448
 21
446.6872803688
 31
0.0
  0
LINE
  5
69
330
66
100
AcDbEntity
  8
Default
  6
CENTER2
 62
     7
100
AcDbLine
 10
108.1092374978
 20
466.6872799218
 30
0.0
 11
108.1092374978
 21
426.6872808158
 31
0.0
  0
ENDBLK
  5
6B
330
66
100
AcDbEntity
  8
0
100
AcDbBlockEnd
  0
BLOCK
  5
70
330
6C
100
AcDbEntity
  8
0
100
AcDbBlockBegin
  2
SEANNOT_GROUP2
 70
     0
 10
0.0
 20
0.0
 30
0.0
  3
SEANNOT_GROUP2
  1

  0
LINE
  5
6E
330
6C
100
AcDbEntity
  8
Default
  6
CENTER2
 62
     7
100
AcDbLine
 10
128.1092370508
 20
185.9442726815
 30
0.0
 11
88.1092379448
 21
185.9442726815
 31
0.0
  0
LINE
  5
6F
330
6C
100
AcDbEntity
  8
Default
  6
CENTER2
 62
     7
100
AcDbLine
 10
108.1092374978
 20
205.9442722345
 30
0.0
 11
108.1092374978
 21
165.9442731286
 31
0.0
  0
ENDBLK
  5
71
330
6C
100
AcDbEntity
  8
0
100
AcDbBlockEnd
  0
BLOCK
  5
D5
330
72
100
AcDbEntity
  8
0
100
AcDbBlockBegin
  2
SE
 70
     0
 10
0.0
 20
0.0
 30
0.0
  3
SE
  1

  0
LINE
  5
75
330
72
100
AcDbEntity
  8
$DDT_AUDIT_GENERATED_(74)
  6
Continuous
 62
     7
100
AcDbLine
 10
81.5603175179
 20
472.7362232018
 30
0.0
 11
81.5603175179
 21
420.6383375358
 31
0.0
  0
LINE
  5
76
330
72
100
AcDbEntity
  8
$DDT_AUDIT_GENERATED_(74)
  6
Continuous
 62
     7
100
AcDbLine
 10
134.6581574777
 20
420.6383375358
 30
0.0
 11
134.6581574777
 21
472.7362232018
 31
0.0
  0
LINE
  5
77
330
72
100
AcDbEntity
  8
$DDT_AUDIT_GENERATED_(74)
  6
Continuous
 62
     7
100
AcDbLine
 10
82.0602984795
 20
420.1383565742
 30
0.0
 11
86.1756423053
 21
420.1383565742
 31
0.0
  0
LINE
  5
78
330
72
100
AcDbEntity
  8
$DDT_AUDIT_GENERATED_(74)
  6
Continuous
 62
     7
100
AcDbLine
 10
130.0405415699
 20
420.1383565742
 30
0.0
 11
134.1581765161
 21
420.1383565742
 31
0.0
  0
LINE
  5
79
330
72
100
AcDbEntity
  8
$DDT_AUDIT_GENERATED_(74)
  6
Continuous
 62
     7
100
AcDbLine
 10
134.1581765161
 20
473.2362041634
 30
0.0
 11
82.0602984795
 21
473.2362041634
 31
0.0
  0
ELLIPSE
  5
7A
330
72
100
AcDbEntity
  8
$DDT_AUDIT_GENERATED_(74)
  6
Continuous
 62
     7
100
AcDbEllipse
 10
134.1581384385
 20
420.6383756134
 30
0.0
 11
-0.3535803155654443
 21
0.3535803155654449
 31
0.0
210
0.0
220
0.0
230
1.0
 40
0.9999238505
 41
2.356232566403262
 42
3.926952740776383
  0
ELLIPSE
  5
7B
330
72
100
AcDbEntity
  8
$DDT_AUDIT_GENERATED_(74)
  6
Continuous
 62
     7
100
AcDbEllipse
 10
82.0603365571
 20
420.6383756134
 30
0.0
 11
0.3535803155654404
 21
0.3535803155654488
 31
0.0
210
0.0
220
0.0
230
0.9999999999999998
 40
0.9999238505
 41
2.356232566403334
 42
3.926952740776342
  0
ELLIPSE
  5
7C
330
72
100
AcDbEntity
  8
$DDT_AUDIT_GENERATED_(74)
  6
Continuous
 62
     7
100
AcDbEllipse
 10
134.1581384385
 20
472.7361851242
 30
0.0
 11
-0.3535803155654488
 21
-0.3535803155654404
 31
0.0
210
0.0
220
0.0
230
0.9999999999999998
 40
0.9999238505
 41
2.356232566403273
 42
3.926952740776338
  0
ELLIPSE
  5
7D
330
72
100
AcDbEntity
  8
$DDT_AUDIT_GENERATED_(74)
  6
Continuous
 62
     7
100
AcDbEllipse
 10
82.0603365571
 20
472.7361851242
 30
0.0
 11
0.3535803155654449
 21
-0.3535803155654443
 31
0.0
210
0.0
220
0.0
230
1.0
 40
0.9999238505
 41
2.356232566403231
 42
3.926952740776268
  0
LINE
  5
7F
330
72
100
AcDbEntity
  8
$DDT_AUDIT_GENERATED_(7E)
  6
Continuous
 62
     7
100
AcDbLine
 10
95.5835583265
 20
366.7891543268
 30
0.0
 11
95.5943441601
 21
367.9292919549
 31
0.0
  0
ARC
  5
80
330
72
100
AcDbEntity
  8
$DDT_AUDIT_GENERATED_(7E)
  6
Continuous
 62
     7
100
AcDbCircle
 10
118.6427902321
 20
366.7781512597
 30
0.0
 40
1.989868667049018
100
AcDbArc
 50
323.1201312362
 51
0.3169506132
  0
LINE
  5
81
330
72
100
AcDbEntity
  8
$DDT_AUDIT_GENERATED_(7E)
  6
Continuous
 62
     7
100
AcDbLine
 10
120.62184108
 20
367.9292919665
 30
0.0
 11
120.6326268721
 21
366.7891588182
 31
0.0
  0
SPLINE
  5
82
330
72
100
AcDbEntity
  8
$DDT_AUDIT_GENERATED_(7E)
  6
Continuous
 62
     7
100
AcDbSpline
210
0.0
220
0.0
230
1.0
 70
     8
 71
     3
 72
     8
 73
     4
 74
     0
 42
0.0000000756074957
 43
0.0000000001
 40
0.0
 40
0.0
 40
0.0
 40
0.0
 40
0.127158705004834
 40
0.127158705004834
 40
0.127158705004834
 40
0.127158705004834
 10
120.6218237440776
 20
367.9292919217333
 30
0.0
 10
120.6200311229145
 20
367.9247938882466
 30
0.0
 10
120.622039758663
 20
367.9203142500182
 30
0.0
 10
120.6275902435463
 20
367.9159402204583
 30
0.0
  0
LINE
  5
83
330
72
100
AcDbEntity
  8
$DDT_AUDIT_GENERATED_(7E)
  6
Continuous
 62
     7
100
AcDbLine
 10
95.5824948168
 20
388.0183596139
 30
0.0
 11
95.5943441598
 21
386.6930783979
 31
0.0
  0
LINE
  5
84
330
72
100
AcDbEntity
  8
$DDT_AUDIT_GENERATED_(7E)
  6
Continuous
 62
     7
100
AcDbLine
 10
120.62184108
 20
386.6930783921
 30
0.0
 11
120.6336903774
 21
388.0183545011
 31
0.0
  0
SPLINE
  5
85
330
72
100
AcDbEntity
  8
$DDT_AUDIT_GENERATED_(7E)
  6
Continuous
 62
     7
100
AcDbSpline
210
0.0
220
0.0
230
1.0
 70
     8
 71
     3
 72
     8
 73
     4
 74
     0
 42
0.0000000789026801
 43
0.0000000001
 40
0.0
 40
0.0
 40
0.0
 40
0.0
 40
0.1292512906928052
 40
0.1292512906928052
 40
0.1292512906928052
 40
0.1292512906928052
 10
120.6218303494984
 20
386.6930784202493
 30
0.0
 10
120.6200071033351
 20
386.6973081158458
 30
0.0
 10
120.6221076047369
 20
386.701519541088
 30
0.0
 10
120.6278600349433
 20
386.7056280867922
 30
0.0
  0
LINE
  5
86
330
72
100
AcDbEntity
  8
$DDT_AUDIT_GENERATED_(7E)
  6
Continuous
 62
     7
100
AcDbLine
 10
130.4695075036
 20
424.7796806704
 30
0.0
 11
134.0313914614
 21
421.2460707396
 31
0.0
  0
SPLINE
  5
87
330
72
100
AcDbEntity
  8
$DDT_AUDIT_GENERATED_(7E)
  6
Continuous
 62
     7
100
AcDbSpline
210
0.0
220
0.0
230
1.0
 70
     8
 71
     3
 72
    17
 73
    13
 74
     0
 42
0.0000000000841897
 43
0.0000000001
 40
0.0
 40
0.0
 40
0.0
 40
0.0
 40
0.129786673499619
 40
0.129786673499619
 40
0.129786673499619
 40
0.386771923704479
 40
0.386771923704479
 40
0.386771923704479
 40
0.6437571738134971
 40
0.6437571738134971
 40
0.6437571738134971
 40
1.0
 40
1.0
 40
1.0
 40
1.0
 10
129.742752256318
 20
468.5326586197766
 30
0.0
 10
129.7425382667105
 20
463.3942344090719
 30
0.0
 10
129.7423582003269
 20
458.2557771634716
 30
0.0
 10
129.742209440472
 20
453.117288791692
 30
0.0
 10
129.7419148872073
 20
442.9427794992736
 30
0.0
 10
129.7417425317447
 20
432.7681486430369
 30
0.0
 10
129.7416840887062
 20
422.593404728667
 30
0.0
 10
129.7416256456678
 20
412.418660816133
 30
0.0
 10
129.7416811073589
 20
402.2438037618494
 30
0.0
 10
129.7418509691555
 20
392.0688333291587
 30
0.0
 10
129.7420864381023
 20
377.9638984917304
 30
0.0
 10
129.7425404963886
 20
363.858746792783
 30
0.0
 10
129.7432422318816
 20
349.7533501918306
 30
0.0
  0
LINE
  5
88
330
72
100
AcDbEntity
  8
$DDT_AUDIT_GENERATED_(7E)
  6
Continuous
 62
     7
100
AcDbLine
 10
97.4398317872
 20
364.9745822427
 30
0.0
 11
118.7763561794
 21
364.9745614889
 31
0.0
  0
ARC
  5
89
330
72
100
AcDbEntity
  8
$DDT_AUDIT_GENERATED_(7E)
  6
Continuous
 62
     7
100
AcDbCircle
 10
108.1081560046
 20
1156.9280427266
 30
0.0
 40
808.2549501859185
100
AcDbArc
 50
268.4794745523
 51
271.5205166792
  0
ARC
  5
8A
330
72
100
AcDbEntity
  8
$DDT_AUDIT_GENERATED_(7E)
  6
Continuous
 62
     7
100
AcDbCircle
 10
108.1236607045
 20
14584.3137268784
 30
0.0
 40
14194.50595064735
100
AcDbArc
 50
269.9568236812
 51
270.0430506515
  0
LINE
  5
8B
330
72
100
AcDbEntity
  8
$DDT_AUDIT_GENERATED_(7E)
  6
Continuous
 62
     7
100
AcDbLine
 10
82.1847938095
 20
421.2460730095
 30
0.0
 11
85.7466777583
 21
424.7796843789
 31
0.0
  0
SPLINE
  5
8C
330
72
100
AcDbEntity
  8
$DDT_AUDIT_GENERATED_(7E)
  6
Continuous
 62
     7
100
AcDbSpline
210
0.0
220
0.0
230
1.0
 70
     8
 71
     3
 72
    17
 73
    13
 74
     0
 42
0.0000000000841898
 43
0.0000000001
 40
0.0
 40
0.0
 40
0.0
 40
0.0
 40
0.128248024489474
 40
0.128248024489474
 40
0.128248024489474
 40
0.385233290211513
 40
0.385233290211513
 40
0.385233290211513
 40
0.642218555837836
 40
0.642218555837836
 40
0.642218555837836
 40
1.0
 40
1.0
 40
1.0
 40
1.0
 10
86.47294271249582
 20
349.7533537515795
 30
0.0
 10
86.47319533842793
 20
354.8313202966281
 30
0.0
 10
86.47341556781704
 20
359.9092547996188
 30
0.0
 10
86.47360522902605
 20
364.9871590311664
 30
0.0
 10
86.47398527492734
 20
375.1623377063834
 30
0.0
 10
86.47424312898787
 20
385.3373954455154
 30
0.0
 10
86.47438707227127
 20
395.5123401812415
 30
0.0
 10
86.47453101555469
 20
405.6872849151347
 30
0.0
 10
86.4745610558246
 20
415.8621167445738
 30
0.0
 10
86.4744766938482
 20
426.0368349192976
 30
0.0
 10
86.47435924295252
 20
440.2023371200868
 30
0.0
 10
86.47402132960704
 20
454.3676205261315
 30
0.0
 10
86.47343968234166
 20
468.5326549198529
 30
0.0
  0
LINE
  5
8D
330
72
100
AcDbEntity
  8
$DDT_AUDIT_GENERATED_(7E)
  6
Continuous
 62
     7
100
AcDbLine
 10
129.2600406623
 20
469.0210987703
 30
0.0
 11
130.8635498433
 21
470.6614538489
 31
0.0
  0
LINE
  5
8E
330
72
100
AcDbEntity
  8
$DDT_AUDIT_GENERATED_(7E)
  6
Continuous
 62
     7
100
AcDbLine
 10
85.3526381867
 20
470.6614389421
 30
0.0
 11
86.9561475088
 21
469.0211084882
 31
0.0
  0
ARC
  5
8F
330
72
100
AcDbEntity
  8
$DDT_AUDIT_GENERATED_(7E)
  6
Continuous
 62
     7
100
AcDbCircle
 10
108.1080378599
 20
-293.3593671762
 30
0.0
 40
762.6738518794923
100
AcDbArc
 50
88.4107545774
 51
91.589236958
  0
ARC
  5
90
330
72
100
AcDbEntity
  8
$DDT_AUDIT_GENERATED_(7E)
  6
Continuous
 62
     7
100
AcDbCircle
 10
246.4154291059
 20
369.2422366481
 30
0.0
 40
125.8004569696722
100
AcDbArc
 50
180.0004297982
 51
180.597991129
  0
ARC
  5
91
330
72
100
AcDbEntity
  8
$DDT_AUDIT_GENERATED_(7E)
  6
Continuous
 62
     7
100
AcDbCircle
 10
-29.6939179309
 20
369.2440282545
 30
0.0
 40
125.2951399526072
100
AcDbArc
 50
359.3987777945
 51
359.998751943
  0
ARC
  5
92
330
72
100
AcDbEntity
  8
$DDT_AUDIT_GENERATED_(7E)
  6
Continuous
 62
     7
100
AcDbCircle
 10
118.6405334957
 20
388.0282995337
 30
0.0
 40
1.993182657755366
100
AcDbArc
 50
359.7141180378
 51
35.7163790007
  0
ARC
  5
93
330
72
100
AcDbEntity
  8
$DDT_AUDIT_GENERATED_(7E)
  6
Continuous
 62
     7
100
AcDbCircle
 10
97.5757649454
 20
388.0282239063
 30
0.0
 40
1.993262887855498
100
AcDbArc
 50
89.8593512206
 51
180.2835450628
  0
ARC
  5
94
330
72
100
AcDbEntity
  8
$DDT_AUDIT_GENERATED_(7E)
  6
Continuous
 62
     7
100
AcDbCircle
 10
97.5737617404
 20
366.7784603229
 30
0.0
 40
1.990180975558813
100
AcDbArc
 50
179.6921303794
 51
216.866592206
  0
ARC
  5
95
330
72
100
AcDbEntity
  8
$DDT_AUDIT_GENERATED_(7E)
  6
Continuous
 62
     7
100
AcDbCircle
 10
133.5260667507
 20
421.2477298201
 30
0.0
 40
0.5053611090293668
100
AcDbArc
 50
272.3130936459
 51
359.8119566054
  0
ARC
  5
96
330
72
100
AcDbEntity
  8
$DDT_AUDIT_GENERATED_(7E)
  6
Continuous
 62
     7
100
AcDbCircle
 10
82.6902212103
 20
421.2476837894
 30
0.0
 40
0.5054018639887062
100
AcDbArc
 50
180.1826571656
 51
267.675478226
  0
SPLINE
  5
97
330
72
100
AcDbEntity
  8
$DDT_AUDIT_GENERATED_(7E)
  6
Continuous
 62
     7
100
AcDbSpline
210
0.0
220
0.0
230
1.0
 70
    12
 71
     2
 72
     6
 73
     3
 74
     0
 42
0.0000002252433226
 43
0.0000000001
 40
0.8393110442422422
 40
0.8393110442422422
 40
0.8393110442422422
 40
0.9105885215681835
 40
0.9105885215681835
 40
0.9105885215681835
 10
129.5548502645716
 20
348.9569128492311
 30
0.0
 41
0.9207890302152388
 10
129.5549978873099
 20
348.9538911587676
 30
0.0
 41
0.9349935540675635
 10
129.5550686333839
 20
348.9537713102316
 30
0.0
 41
0.9521819555271464
  0
ARC
  5
98
330
72
100
AcDbEntity
  8
$DDT_AUDIT_GENERATED_(7E)
  6
Continuous
 62
     7
100
AcDbCircle
 10
130.8421134227
 20
470.1565936432
 30
0.0
 40
0.5053224943242972
100
AcDbArc
 50
1.8562762774
 51
87.5686894601
  0
ARC
  5
99
330
72
100
AcDbEntity
  8
$DDT_AUDIT_GENERATED_(7E)
  6
Continuous
 62
     7
100
AcDbCircle
 10
85.3740618347
 20
470.1565863396
 30
0.0
 40
0.5053205283438098
100
AcDbArc
 50
92.4298882798
 51
178.143177349
  0
ELLIPSE
  5
9A
330
72
100
AcDbEntity
  8
$DDT_AUDIT_GENERATED_(7E)
  6
Continuous
 62
     7
100
AcDbEllipse
 10
85.3652803586
 20
470.1655336688
 30
0.0
 11
0.4979372992667888
 21
-0.04537010027424841
 31
0.0
210
0.0
220
0.0
230
0.9999999999999999
 40
0.5283442977
 41
3.141592653589878
 42
3.284548818714733
  0
ELLIPSE
  5
9B
330
72
100
AcDbEntity
  8
$DDT_AUDIT_GENERATED_(7E)
  6
Continuous
 62
     7
100
AcDbEllipse
 10
85.3652803586
 20
470.1655336688
 30
0.0
 11
0.0118144456950943
 21
-0.4998603993845892
 31
0.0
210
0.0
220
0.0
230
1.0
 40
0.0147633609
 41
2.929191731910148
 42
3.266691348462913
  0
SPLINE
  5
9C
330
72
100
AcDbEntity
  8
$DDT_AUDIT_GENERATED_(7E)
  6
Continuous
 62
     7
100
AcDbSpline
210
0.0
220
0.0
230
1.0
 70
     8
 71
     3
 72
     8
 73
     4
 74
     0
 42
0.0000000276739938
 43
0.0000000001
 40
0.0
 40
0.0
 40
0.0
 40
0.0
 40
0.0865930719307982
 40
0.0865930719307982
 40
0.0865930719307982
 40
0.0865930719307982
 10
82.53334163092143
 20
444.5390061060533
 30
0.0
 10
82.5318754790188
 20
444.5494066632303
 30
0.0
 10
82.53040932711613
 20
444.5598072204074
 30
0.0
 10
82.53117564040484
 20
444.5700622635228
 30
0.0
  0
ELLIPSE
  5
9D
330
72
100
AcDbEntity
  8
$DDT_AUDIT_GENERATED_(7E)
  6
Continuous
 62
     7
100
AcDbEllipse
 10
130.8509044516
 20
470.165536347
 30
0.0
 11
-0.4979372989868773
 21
-0.04537010334619562
 31
0.0
210
0.0
220
0.0
230
0.9999999999999999
 40
0.5283442975
 41
2.998636227733266
 42
3.141592653589793
  0
SPLINE
  5
9E
330
72
100
AcDbEntity
  8
$DDT_AUDIT_GENERATED_(7E)
  6
Continuous
 62
     7
100
AcDbSpline
210
0.0
220
0.0
230
1.0
 70
     8
 71
     3
 72
     8
 73
     4
 74
     0
 42
0.000000027819616
 43
0.0000000001
 40
0.9141506795449122
 40
0.9141506795449122
 40
0.9141506795449122
 40
0.9141506795449122
 40
1.0
 40
1.0
 40
1.0
 40
1.0
 10
133.6831397030469
 20
444.5698248731168
 30
0.0
 10
133.6837722552496
 20
444.5596370947179
 30
0.0
 10
133.6833079187439
 20
444.5493216006353
 30
0.0
 10
133.6828435822382
 20
444.5390061065526
 30
0.0
  0
LINE
  5
9F
330
72
100
AcDbEntity
  8
$DDT_AUDIT_GENERATED_(7E)
  6
Continuous
 62
     7
100
AcDbLine
 10
82.1811228235
 20
421.2461279102
 30
0.0
 11
82.1847938091
 21
421.2460729788
 31
0.0
  0
LINE
  5
A0
330
72
100
AcDbEntity
  8
$DDT_AUDIT_GENERATED_(7E)
  6
Continuous
 62
     7
100
AcDbLine
 10
134.0313914618
 20
421.2460707089
 30
0.0
 11
134.035062448
 21
421.2461256403
 31
0.0
  0
LINE
  5
A1
330
72
100
AcDbEntity
  8
$DDT_AUDIT_GENERATED_(7E)
  6
Continuous
 62
     7
100
AcDbLine
 10
133.5465548107
 20
420.7387754487
 30
0.0
 11
133.5464646188
 21
420.7427176121
 31
0.0
  0
ARC
  5
A2
330
72
100
AcDbEntity
  8
$DDT_AUDIT_GENERATED_(7E)
  6
Continuous
 62
     7
100
AcDbCircle
 10
119.0196965234
 20
366.7550004239
 30
0.0
 40
1.618780338728379
100
AcDbArc
 50
334.5731130805
 51
0.727696579
  0
LINE
  5
A3
330
72
100
AcDbEntity
  8
$DDT_AUDIT_GENERATED_(7E)
  6
Continuous
 62
     7
100
AcDbLine
 10
120.6149715743
 20
385.3061076667
 30
0.0
 11
120.6149715744
 21
369.241295311
 31
0.0
  0
LINE
  5
A4
330
72
100
AcDbEntity
  8
$DDT_AUDIT_GENERATED_(7E)
  6
Continuous
 62
     7
100
AcDbLine
 10
95.6012136657
 20
369.241295339
 30
0.0
 11
95.6012136657
 21
385.3061076593
 31
0.0
  0
ARC
  5
A5
330
72
100
AcDbEntity
  8
$DDT_AUDIT_GENERATED_(7E)
  6
Continuous
 62
     7
100
AcDbCircle
 10
118.9129712538
 20
387.9342418122
 30
0.0
 40
1.829005499147814
100
AcDbArc
 50
48.2982307306
 51
67.4984293164
  0
ARC
  5
A6
330
72
100
AcDbEntity
  8
$DDT_AUDIT_GENERATED_(7E)
  6
Continuous
 62
     7
100
AcDbCircle
 10
118.7911758274
 20
387.9532732074
 30
0.0
 40
1.861893726834704
100
AcDbArc
 50
63.8090925588
 51
90.0032420417
  0
ARC
  5
A7
330
72
100
AcDbEntity
  8
$DDT_AUDIT_GENERATED_(7E)
  6
Continuous
 62
     7
100
AcDbCircle
 10
97.4223372338
 20
387.9617593334
 30
0.0
 40
1.8534335384542
100
AcDbArc
 50
89.9140344416
 51
116.1433317307
  0
ARC
  5
A8
330
72
100
AcDbEntity
  8
$DDT_AUDIT_GENERATED_(7E)
  6
Continuous
 62
     7
100
AcDbCircle
 10
97.303227609
 20
387.9363350788
 30
0.0
 40
1.827596424939398
100
AcDbArc
 50
112.4374431066
 51
131.7352963029
  0
LINE
  5
A9
330
72
100
AcDbEntity
  8
$DDT_AUDIT_GENERATED_(7E)
  6
Continuous
 62
     7
100
AcDbLine
 10
120.6149677734
 20
369.2411530451
 30
0.0
 11
120.6155186545
 21
369.1831937563
 31
0.0
  0
LINE
  5
AA
330
72
100
AcDbEntity
  8
$DDT_AUDIT_GENERATED_(7E)
  6
Continuous
 62
     7
100
AcDbLine
 10
95.5995934929
 20
369.07034496
 30
0.0
 11
95.6012168969
 21
369.2411543421
 31
0.0
  0
ARC
  5
AB
330
72
100
AcDbEntity
  8
$DDT_AUDIT_GENERATED_(7E)
  6
Continuous
 62
     7
100
AcDbCircle
 10
97.1798566371
 20
388.0526762015
 30
0.0
 40
1.60321968143034
100
AcDbArc
 50
154.9787628859
 51
180.7769862414
  0
LINE
  5
AC
330
72
100
AcDbEntity
  8
$DDT_AUDIT_GENERATED_(7E)
  6
Continuous
 62
     7
100
AcDbLine
 10
95.601217898
 20
385.3062571615
 30
0.0
 11
95.5886361004
 21
386.7056371486
 31
0.0
  0
LINE
  5
AD
330
72
100
AcDbEntity
  8
$DDT_AUDIT_GENERATED_(7E)
  6
Continuous
 62
     7
100
AcDbLine
 10
120.6275491433
 20
386.7056371461
 30
0.0
 11
120.6149678416
 21
385.3062512164
 31
0.0
  0
ARC
  5
AE
330
72
100
AcDbEntity
  8
$DDT_AUDIT_GENERATED_(7E)
  6
Continuous
 62
     7
100
AcDbCircle
 10
97.3433334584
 20
366.8808079861
 30
0.0
 40
1.867702782685702
100
AcDbArc
 50
216.2447507268
 51
246.681973972
  0
ARC
  5
AF
330
72
100
AcDbEntity
  8
$DDT_AUDIT_GENERATED_(7E)
  6
Continuous
 62
     7
100
AcDbCircle
 10
97.4438433104
 20
366.8793505838
 30
0.0
 40
1.908411064064489
100
AcDbArc
 50
243.8924389574
 51
269.8603476506
  0
SPLINE
  5
B0
330
72
100
AcDbEntity
  8
$DDT_AUDIT_GENERATED_(7E)
  6
Continuous
 62
     7
100
AcDbSpline
210
0.0
220
0.0
230
1.0
 70
     8
 71
     3
 72
     8
 73
     4
 74
     0
 42
0.0000000004686518
 43
0.0000000001
 40
0.0
 40
0.0
 40
0.0
 40
0.0
 40
1.0
 40
1.0
 40
1.0
 40
1.0
 10
118.7769962142149
 20
364.9709651951733
 30
0.0
 10
112.3403987948952
 20
364.9699118047873
 30
0.0
 10
105.2277973123621
 20
364.9699051358523
 30
0.0
 10
97.43919176661555
 20
364.9709451883685
 30
0.0
  0
ARC
  5
B1
330
72
100
AcDbEntity
  8
$DDT_AUDIT_GENERATED_(7E)
  6
Continuous
 62
     7
100
AcDbCircle
 10
118.7697607674
 20
366.887250608
 30
0.0
 40
1.916299072279314
100
AcDbArc
 50
270.2163344729
 51
296.143443639
  0
ARC
  5
B2
330
72
100
AcDbEntity
  8
$DDT_AUDIT_GENERATED_(7E)
  6
Continuous
 62
     7
100
AcDbCircle
 10
118.8727234515
 20
366.8829694688
 30
0.0
 40
1.869282604297025
100
AcDbArc
 50
293.3671167224
 51
323.6992345625
  0
SPLINE
  5
B3
330
72
100
AcDbEntity
  8
$DDT_AUDIT_GENERATED_(7E)
  6
Continuous
 62
     7
100
AcDbSpline
210
0.0
220
0.0
230
1.0
 70
     8
 71
     3
 72
     8
 73
     4
 74
     0
 42
0.0000000021567188
 43
0.0000000001
 40
0.0
 40
0.0
 40
0.0
 40
0.0
 40
0.020126576755304
 40
0.020126576755304
 40
0.020126576755304
 40
0.020126576755304
 10
130.0408988269912
 20
421.7066990437685
 30
0.0
 10
130.0411031402245
 20
421.7383212154868
 30
0.0
 10
130.0413065129244
 20
421.7694088367119
 30
0.0
 10
130.0415142722278
 20
421.800017368617
 30
0.0
  0
SPLINE
  5
B4
330
72
100
AcDbEntity
  8
$DDT_AUDIT_GENERATED_(7E)
  6
Continuous
 62
     7
100
AcDbSpline
210
0.0
220
0.0
230
1.0
 70
     8
 71
     3
 72
     8
 73
     4
 74
     0
 42
0.0000000001383892
 43
0.0000000001
 40
0.0
 40
0.0
 40
0.0
 40
0.0
 40
1.0
 40
1.0
 40
1.0
 40
1.0
 10
130.0382864853617
 20
349.4463023424404
 30
0.0
 10
130.0413655420159
 20
373.3429211515044
 30
0.0
 10
130.0421081359157
 20
397.4295815859271
 30
0.0
 10
130.0405142670612
 20
421.7062836457084
 30
0.0
  0
ARC
  5
B5
330
72
100
AcDbEntity
  8
$DDT_AUDIT_GENERATED_(7E)
  6
Continuous
 62
     7
100
AcDbCircle
 10
129.5417597065
 20
349.4535890643
 30
0.0
 40
0.4999999999999998
100
AcDbArc
 50
271.5259331049
 51
359.9930267719
  0
SPLINE
  5
B6
330
72
100
AcDbEntity
  8
$DDT_AUDIT_GENERATED_(7E)
  6
Continuous
 62
     7
100
AcDbSpline
210
0.0
220
0.0
230
1.0
 70
     8
 71
     3
 72
     8
 73
     4
 74
     0
 42
0.0000000022312844
 43
0.0000000001
 40
0.9342113213889389
 40
0.9342113213889389
 40
0.9342113213889389
 40
0.9342113213889389
 40
1.0
 40
1.0
 40
1.0
 40
1.0
 10
86.17386816270596
 20
422.0014609953267
 30
0.0
 10
86.17445192705608
 20
421.9070440337219
 30
0.0
 10
86.1749069789584
 20
421.8091286185833
 30
0.0
 10
86.17536473971327
 20
421.7066182078401
 30
0.0
  0
ARC
  5
B7
330
72
100
AcDbEntity
  8
$DDT_AUDIT_GENERATED_(7E)
  6
Continuous
 62
     7
100
AcDbCircle
 10
108.1081571732
 20
1155.5422514166
 30
0.0
 40
806.8704319237065
100
AcDbArc
 50
268.4768843203
 51
269.4877147669
  0
ARC
  5
B8
330
72
100
AcDbEntity
  8
$DDT_AUDIT_GENERATED_(7E)
  6
Continuous
 62
     7
100
AcDbCircle
 10
108.1081571732
 20
1155.5422514166
 30
0.0
 40
806.8704319237065
100
AcDbArc
 50
270.508063032
 51
271.5231067236
  0
SPLINE
  5
B9
330
72
100
AcDbEntity
  8
$DDT_AUDIT_GENERATED_(7E)
  6
Continuous
 62
     7
100
AcDbSpline
210
0.0
220
0.0
230
1.0
 70
     8
 71
     3
 72
     8
 73
     4
 74
     0
 42
0.0000000001383892
 43
0.0000000001
 40
0.0
 40
0.0
 40
0.0
 40
0.0
 40
1.0
 40
1.0
 40
1.0
 40
1.0
 10
86.17567077416498
 20
421.706289768905
 30
0.0
 10
86.17406607297254
 20
397.8059417690873
 30
0.0
 10
86.17480866759279
 20
373.7192804066033
 30
0.0
 10
86.17789855802572
 20
349.446305681453
 30
0.0
  0
ARC
  5
BA
330
72
100
AcDbEntity
  8
$DDT_AUDIT_GENERATED_(7E)
  6
Continuous
 62
     7
100
AcDbCircle
 10
86.6744252579
 20
349.4535924851
 30
0.0
 40
0.5000000000000013
100
AcDbArc
 50
180.0069732268
 51
268.4744530455
  0
ARC
  5
BB
330
72
100
AcDbEntity
  8
$DDT_AUDIT_GENERATED_(7E)
  6
Continuous
 62
     7
100
AcDbCircle
 10
108.1081496454
 20
-492.6245350342
 30
0.0
 40
963.547407422097
100
AcDbArc
 50
88.7163032346
 51
91.2825915135
  0
LINE
  5
BC
330
72
100
AcDbEntity
  8
$DDT_AUDIT_GENERATED_(7E)
  6
Continuous
 62
     7
100
AcDbLine
 10
84.8673430594
 20
470.210903769
 30
0.0
 11
82.5310682671
 21
444.5702648164
 31
0.0
  0
LINE
  5
BD
330
72
100
AcDbEntity
  8
$DDT_AUDIT_GENERATED_(7E)
  6
Continuous
 62
     7
100
AcDbLine
 10
133.6851169463
 20
444.570264819
 30
0.0
 11
131.3488417505
 21
470.2109064503
 31
0.0
  0
LINE
  5
BE
330
72
100
AcDbEntity
  8
$DDT_AUDIT_GENERATED_(7E)
  6
Continuous
 62
     7
100
AcDbLine
 10
82.5297709752
 20
444.5457639338
 30
0.0
 11
82.1811228234
 21
421.2461279102
 31
0.0
  0
LINE
  5
BF
330
72
100
AcDbEntity
  8
$DDT_AUDIT_GENERATED_(7E)
  6
Continuous
 62
     7
100
AcDbLine
 10
134.0350624458
 20
421.2461256403
 30
0.0
 11
133.6864111424
 21
444.545970834
 31
0.0
  0
ARC
  5
C0
330
72
100
AcDbEntity
  8
$DDT_AUDIT_GENERATED_(7E)
  6
Continuous
 62
     7
100
AcDbCircle
 10
108.1081425897
 20
1533.2954389102
 30
0.0
 40
1112.843524359993
100
AcDbArc
 50
268.6901652896
 51
268.8707354167
  0
ARC
  5
C1
330
72
100
AcDbEntity
  8
$DDT_AUDIT_GENERATED_(7E)
  6
Continuous
 62
     7
100
AcDbCircle
 10
108.1081425897
 20
1533.2954389102
 30
0.0
 40
1112.843524359993
100
AcDbArc
 50
271.1292594697
 51
271.3098296797
  0
LINE
  5
C3
330
72
100
AcDbEntity
  8
$DDT_AUDIT_GENERATED_(C2)
  6
Continuous
 62
     7
100
AcDbLine
 10
187.6092374978
 20
536.8878971838
 30
0.0
 11
187.6092374978
 21
356.4866635538
 31
0.0
  0
ELLIPSE
  5
C4
330
72
100
AcDbEntity
  8
$DDT_AUDIT_GENERATED_(C2)
  6
Continuous
 62
     7
100
AcDbEllipse
 10
185.8086204713
 20
536.8866633423
 30
0.0
 11
-1.273664663898038
 21
-1.273664663898038
 31
0.0
210
0.0
220
0.0
230
1.0
 40
0.999315002
 41
2.356537106530511
 42
3.926648200649106
  0
LINE
  5
C5
330
72
100
AcDbEntity
  8
$DDT_AUDIT_GENERATED_(C2)
  6
Continuous
 62
     7
100
AcDbLine
 10
28.6092374978
 20
356.4866635538
 30
0.0
 11
28.6092374978
 21
536.8878971838
 31
0.0
  0
ELLIPSE
  5
C6
330
72
100
AcDbEntity
  8
$DDT_AUDIT_GENERATED_(C2)
  6
Continuous
 62
     7
100
AcDbEllipse
 10
30.4098545243
 20
356.4878973953
 30
0.0
 11
1.273664663898038
 21
1.273664663898038
 31
0.0
210
0.0
220
0.0
230
1.0
 40
0.999315002
 41
2.356537106530509
 42
3.926648200649075
  0
LINE
  5
C7
330
72
100
AcDbEntity
  8
$DDT_AUDIT_GENERATED_(C2)
  6
Continuous
 62
     7
100
AcDbLine
 10
185.8098543128
 20
354.6872803688
 30
0.0
 11
130.0387049081
 21
354.6872803688
 31
0.0
  0
ELLIPSE
  5
C8
330
72
100
AcDbEntity
  8
$DDT_AUDIT_GENERATED_(C2)
  6
Continuous
 62
     7
100
AcDbEllipse
 10
185.8086204713
 20
356.4878973953
 30
0.0
 11
-1.273664663898038
 21
1.273664663898038
 31
0.0
210
0.0
220
0.0
230
1.0
 40
0.999315002
 41
2.356537106530511
 42
3.926648200649059
  0
LINE
  5
C9
330
72
100
AcDbEntity
  8
$DDT_AUDIT_GENERATED_(C2)
  6
Continuous
 62
     7
100
AcDbLine
 10
30.4086206828
 20
538.6872803688
 30
0.0
 11
185.8098543128
 21
538.6872803688
 31
0.0
  0
ELLIPSE
  5
CA
330
72
100
AcDbEntity
  8
$DDT_AUDIT_GENERATED_(C2)
  6
Continuous
 62
     7
100
AcDbEllipse
 10
30.4098545243
 20
536.8866633423
 30
0.0
 11
1.273664663898038
 21
-1.273664663898038
 31
0.0
210
0.0
220
0.0
230
1.0
 40
0.999315002
 41
2.356537106530466
 42
3.926648200649075
  0
LINE
  5
CB
330
72
100
AcDbEntity
  8
$DDT_AUDIT_GENERATED_(C2)
  6
Continuous
 62
     7
100
AcDbLine
 10
86.1774842008
 20
354.6872803688
 30
0.0
 11
30.4086206828
 21
354.6872803688
 31
0.0
  0
LINE
  5
CC
330
72
100
AcDbEntity
  8
$DDT_AUDIT_GENERATED_(C2)
  6
Continuous
 62
     7
100
AcDbLine
 10
81.8092374978
 20
419.8872803688
 30
0.0
 11
86.1760887212
 21
419.8872803688
 31
0.0
  0
LINE
  5
CD
330
72
100
AcDbEntity
  8
$DDT_AUDIT_GENERATED_(C2)
  6
Continuous
 62
     7
100
AcDbLine
 10
130.0400962575
 20
419.8872803688
 30
0.0
 11
134.4092374978
 21
419.8872803688
 31
0.0
  0
ARC
  5
CE
330
72
100
AcDbEntity
  8
$DDT_AUDIT_GENERATED_(C2)
  6
Continuous
 62
     7
100
AcDbCircle
 10
81.8092374978
 20
420.3872803688
 30
0.0
 40
0.4999999999999694
100
AcDbArc
 50
180.0
 51
270.0
  0
ARC
  5
CF
330
72
100
AcDbEntity
  8
$DDT_AUDIT_GENERATED_(C2)
  6
Continuous
 62
     7
100
AcDbCircle
 10
134.4092374978
 20
420.3872803688
 30
0.0
 40
0.4999999999999606
100
AcDbArc
 50
270.0
 51
0.0
  0
LINE
  5
D0
330
72
100
AcDbEntity
  8
$DDT_AUDIT_GENERATED_(C2)
  6
Continuous
 62
     7
100
AcDbLine
 10
81.3092374978
 20
472.9872803688
 30
0.0
 11
81.3092374978
 21
420.3872803688
 31
0.0
  0
LINE
  5
D1
330
72
100
AcDbEntity
  8
$DDT_AUDIT_GENERATED_(C2)
  6
Continuous
 62
     7
100
AcDbLine
 10
134.9092374978
 20
420.3872803688
 30
0.0
 11
134.9092374978
 21
472.9872803688
 31
0.0
  0
ARC
  5
D2
330
72
100
AcDbEntity
  8
$DDT_AUDIT_GENERATED_(C2)
  6
Continuous
 62
     7
100
AcDbCircle
 10
81.8092374978
 20
472.9872803688
 30
0.0
 40
0.4999999999999548
100
AcDbArc
 50
90.0
 51
180.0
  0
ARC
  5
D3
330
72
100
AcDbEntity
  8
$DDT_AUDIT_GENERATED_(C2)
  6
Continuous
 62
     7
100
AcDbCircle
 10
134.4092374978
 20
472.9872803688
 30
0.0
 40
0.4999999999999547
100
AcDbArc
 50
0.0
 51
90.0
  0
LINE
  5
D4
330
72
100
AcDbEntity
  8
$DDT_AUDIT_GENERATED_(C2)
  6
Continuous
 62
     7
100
AcDbLine
 10
134.4092374978
 20
473.4872803688
 30
0.0
 11
81.8092374978
 21
473.4872803688
 31
0.0
  0
ENDBLK
  5
D6
330
72
100
AcDbEntity
  8
0
100
AcDbBlockEnd
  0
BLOCK
  5
123
330
D7
100
AcDbEntity
  8
0
100
AcDbBlockBegin
  2
SE1
 70
     0
 10
0.0
 20
0.0
 30
0.0
  3
SE1
  1

  0
LINE
  5
D9
330
D7
100
AcDbEntity
  8
$DDT_AUDIT_GENERATED_(74)
  6
Continuous
 62
     7
100
AcDbLine
 10
417.0663313314
 20
460.612753428
 30
0.0
 11
417.0663313314
 21
461.6872803688
 31
0.0
  0
LINE
  5
DA
330
D7
100
AcDbEntity
  8
$DDT_AUDIT_GENERATED_(74)
  6
Continuous
 62
     7
100
AcDbLine
 10
386.2862345548
 20
472.849866575
 30
0.0
 11
404.4206945991
 21
472.6916095397
 31
0.0
  0
LINE
  5
DB
330
D7
100
AcDbEntity
  8
$DDT_AUDIT_GENERATED_(74)
  6
Continuous
 62
     7
100
AcDbLine
 10
404.9163313314
 20
472.1916285782
 30
0.0
 11
404.9163313314
 21
421.1829321594
 31
0.0
  0
LINE
  5
DC
330
D7
100
AcDbEntity
  8
$DDT_AUDIT_GENERATED_(74)
  6
Continuous
 62
     7
100
AcDbLine
 10
404.4206945991
 20
420.6829511979
 30
0.0
 11
386.2864061674
 21
420.5246956602
 31
0.0
  0
ARC
  5
DD
330
D7
100
AcDbEntity
  8
$DDT_AUDIT_GENERATED_(74)
  6
Continuous
 62
     7
100
AcDbCircle
 10
404.4163313314
 20
421.1829321594
 30
0.0
 40
0.5000000000000016
100
AcDbArc
 50
270.5
 51
0.0
  0
ARC
  5
DE
330
D7
100
AcDbEntity
  8
$DDT_AUDIT_GENERATED_(74)
  6
Continuous
 62
     7
100
AcDbCircle
 10
404.4163313314
 20
472.1916285782
 30
0.0
 40
0.5000000000000004
100
AcDbArc
 50
0.0
 51
89.5
  0
ARC
  5
DF
330
D7
100
AcDbEntity
  8
$DDT_AUDIT_GENERATED_(74)
  6
Continuous
 62
     7
100
AcDbCircle
 10
397.0663313314
 20
446.6872803688
 30
0.0
 40
25.0
100
AcDbArc
 50
36.8698976458
 51
70.8858668002
  0
ARC
  5
E0
330
D7
100
AcDbEntity
  8
$DDT_AUDIT_GENERATED_(74)
  6
Continuous
 62
     7
100
AcDbCircle
 10
397.0663313314
 20
446.6872803688
 30
0.0
 40
25.0
100
AcDbArc
 50
289.1141331998
 51
293.6806348116
  0
ARC
  5
E1
330
D7
100
AcDbEntity
  8
$DDT_AUDIT_GENERATED_(74)
  6
Continuous
 62
     7
100
AcDbCircle
 10
405.4163313314
 20
470.7814186601
 30
0.0
 40
0.5000000000000011
100
AcDbArc
 50
180.0
 51
250.8858668002
  0
ARC
  5
E2
330
D7
100
AcDbEntity
  8
$DDT_AUDIT_GENERATED_(74)
  6
Continuous
 62
     7
100
AcDbCircle
 10
405.4163313314
 20
422.5931420775
 30
0.0
 40
0.5000000000000004
100
AcDbArc
 50
109.1141331998
 51
180.0
  0
LINE
  5
E3
330
D7
100
AcDbEntity
  8
$DDT_AUDIT_GENERATED_(7E)
  6
Continuous
 62
     7
100
AcDbLine
 10
446.2389537291
 20
367.8660479284
 30
0.0
 11
446.3878450697
 21
366.7257891818
 31
0.0
  0
LINE
  5
E4
330
D7
100
AcDbEntity
  8
$DDT_AUDIT_GENERATED_(7E)
  6
Continuous
 62
     7
100
AcDbLine
 10
447.6981059033
 20
386.7515163864
 30
0.0
 11
447.5382429111
 21
388.0768580729
 31
0.0
  0
ARC
  5
E5
330
D7
100
AcDbEntity
  8
$DDT_AUDIT_GENERATED_(7E)
  6
Continuous
 62
     7
100
AcDbCircle
 10
421.8669818019
 20
466.8113706551
 30
0.0
 40
15.72148615248086
100
AcDbArc
 50
7.0425010752
 51
7.2707933983
  0
ARC
  5
E6
330
D7
100
AcDbEntity
  8
$DDT_AUDIT_GENERATED_(7E)
  6
Continuous
 62
     7
100
AcDbCircle
 10
436.9485797099
 20
347.7148344833
 30
0.0
 40
15.2636711039487
100
AcDbArc
 50
7.0025870805
 51
7.1700928429
  0
ARC
  5
E7
330
D7
100
AcDbEntity
  8
$DDT_AUDIT_GENERATED_(7E)
  6
Continuous
 62
     7
100
AcDbCircle
 10
436.9485797099
 20
347.7148344833
 30
0.0
 40
15.2636711039487
100
AcDbArc
 50
6.7841777833
 51
7.0025117071
  0
ARC
  5
E8
330
D7
100
AcDbEntity
  8
$DDT_AUDIT_GENERATED_(7E)
  6
Continuous
 62
     7
100
AcDbCircle
 10
544.3397212976
 20
377.5542706269
 30
0.0
 40
94.87589674813167
100
AcDbArc
 50
186.3660698181
 51
187.8879614828
  0
LINE
  5
E9
330
D7
100
AcDbEntity
  8
$DDT_AUDIT_GENERATED_(7E)
  6
Continuous
 62
     7
100
AcDbLine
 10
450.0479316508
 20
367.034283336
 30
0.0
 11
448.0298467831
 21
383.9776008049
 31
0.0
  0
LINE
  5
EA
330
D7
100
AcDbEntity
  8
$DDT_AUDIT_GENERATED_(7E)
  6
Continuous
 62
     7
100
AcDbLine
 10
448.0314265926
 20
383.9777905159
 30
0.0
 11
447.6980196132
 21
386.7515058011
 31
0.0
  0
ARC
  5
EB
330
D7
100
AcDbEntity
  8
$DDT_AUDIT_GENERATED_(7E)
  6
Continuous
 62
     7
100
AcDbCircle
 10
493.3962058454
 20
394.2396009173
 30
0.0
 40
46.27020934220909
100
AcDbArc
 50
184.536421164
 51
187.6539865305
  0
LINE
  5
EC
330
D7
100
AcDbEntity
  8
$DDT_AUDIT_GENERATED_(7E)
  6
Continuous
 62
     7
100
AcDbLine
 10
447.6980196068
 20
386.7515057938
 30
0.0
 11
448.0314265866
 21
383.9777905091
 31
0.0
  0
LINE
  5
ED
330
D7
100
AcDbEntity
  8
$DDT_AUDIT_GENERATED_(7E)
  6
Continuous
 62
     7
100
AcDbLine
 10
407.1072881387
 20
420.9478863587
 30
0.0
 11
407.1072881387
 21
421.2386469108
 31
0.0
  0
LINE
  5
EE
330
D7
100
AcDbEntity
  8
$DDT_AUDIT_GENERATED_(7E)
  6
Continuous
 62
     7
100
AcDbLine
 10
407.1072881387
 20
421.2386469108
 30
0.0
 11
407.1072881387
 21
444.5889291148
 31
0.0
  0
SPLINE
  5
EF
330
D7
100
AcDbEntity
  8
$DDT_AUDIT_GENERATED_(7E)
  6
Continuous
 62
     7
100
AcDbSpline
210
0.0
220
0.0
230
1.0
 70
     8
 71
     3
 72
    16
 73
    12
 74
     0
 42
0.0000000006557564
 43
0.0000000001
 40
0.0
 40
0.0
 40
0.0
 40
0.0
 40
0.0590123114903445
 40
0.1248131724136465
 40
0.1766568801515686
 40
0.250034781206034
 40
0.3234402458185077
 40
0.3747663979511367
 40
0.4406611830764217
 40
0.4995794530002671
 40
0.4999388851978976
 40
0.4999388851978976
 40
0.4999388851978976
 40
0.4999388851978976
 10
423.4450404499666
 20
422.3887668561062
 30
0.0
 10
423.4450406274863
 20
422.3887576675796
 30
0.0
 10
423.2185626517015
 20
422.3562600160887
 30
0.0
 10
422.3549258499467
 20
422.2616273012076
 30
0.0
 10
421.1225082247915
 20
422.0985037493446
 30
0.0
 10
419.6610186822949
 20
421.92973005688
 30
0.0
 10
418.2039112018109
 20
421.7601703310873
 30
0.0
 10
416.974477241279
 20
421.5929843290774
 30
0.0
 10
416.1100176697716
 20
421.4943954077711
 30
0.0
 10
415.8793111919957
 20
421.4597986813895
 30
0.0
 10
415.8784861632145
 20
421.4597108948418
 30
0.0
 10
415.8784851423609
 20
421.4597109598463
 30
0.0
  0
LINE
  5
F0
330
D7
100
AcDbEntity
  8
$DDT_AUDIT_GENERATED_(7E)
  6
Continuous
 62
     7
100
AcDbLine
 10
436.4629444321
 20
424.2764682494
 30
0.0
 11
407.6695570383
 21
420.7427255226
 31
0.0
  0
LINE
  5
F1
330
D7
100
AcDbEntity
  8
$DDT_AUDIT_GENERATED_(7E)
  6
Continuous
 62
     7
100
AcDbLine
 10
445.8982382195
 20
370.4913227682
 30
0.0
 11
446.2390931223
 21
367.8660663078
 31
0.0
  0
ARC
  5
F2
330
D7
100
AcDbEntity
  8
$DDT_AUDIT_GENERATED_(7E)
  6
Continuous
 62
     7
100
AcDbCircle
 10
389.0373714441
 20
358.62897485
 30
0.0
 40
57.91921484332521
100
AcDbArc
 50
5.5431915784
 51
8.0359818986
  0
LINE
  5
F3
330
D7
100
AcDbEntity
  8
$DDT_AUDIT_GENERATED_(7E)
  6
Continuous
 62
     7
100
AcDbLine
 10
446.2390931207
 20
367.8660663133
 30
0.0
 11
445.898238217
 21
370.4913227827
 31
0.0
  0
LINE
  5
F4
330
D7
100
AcDbEntity
  8
$DDT_AUDIT_GENERATED_(7E)
  6
Continuous
 62
     7
100
AcDbLine
 10
443.7044616536
 20
387.752344469
 30
0.0
 11
445.8982382162
 21
370.4913227695
 31
0.0
  0
ARC
  5
F5
330
D7
100
AcDbEntity
  8
$DDT_AUDIT_GENERATED_(7E)
  6
Continuous
 62
     7
100
AcDbCircle
 10
457.0601614214
 20
350.1875156316
 30
0.0
 40
8.405165724649603
100
AcDbArc
 50
186.9478777219
 51
187.2286194072
  0
LINE
  5
F6
330
D7
100
AcDbEntity
  8
$DDT_AUDIT_GENERATED_(7E)
  6
Continuous
 62
     7
100
AcDbLine
 10
449.2514111334
 20
348.9576926155
 30
0.0
 11
449.2863468507
 21
348.6730845243
 31
0.0
  0
LINE
  5
F7
330
D7
100
AcDbEntity
  8
$DDT_AUDIT_GENERATED_(7E)
  6
Continuous
 62
     7
100
AcDbLine
 10
451.6344433593
 20
349.2500351681
 30
0.0
 11
449.2514111334
 21
348.9576926155
 31
0.0
  0
LINE
  5
F8
330
D7
100
AcDbEntity
  8
$DDT_AUDIT_GENERATED_(7E)
  6
Continuous
 62
     7
100
AcDbLine
 10
423.6875362484
 20
470.6614389421
 30
0.0
 11
437.0541752018
 21
469.0211084882
 31
0.0
  0
LINE
  5
F9
330
D7
100
AcDbEntity
  8
$DDT_AUDIT_GENERATED_(7E)
  6
Continuous
 62
     7
100
AcDbLine
 10
407.1529434306
 20
444.7480164705
 30
0.0
 11
423.201136083
 21
470.4304933009
 31
0.0
  0
LINE
  5
FA
330
D7
100
AcDbEntity
  8
$DDT_AUDIT_GENERATED_(7E)
  6
Continuous
 62
     7
100
AcDbLine
 10
423.201136083
 20
470.4304933009
 30
0.0
 11
423.3693275586
 21
470.6996559268
 31
0.0
  0
ARC
  5
FB
330
D7
100
AcDbEntity
  8
$DDT_AUDIT_GENERATED_(7E)
  6
Continuous
 62
     7
100
AcDbCircle
 10
407.4057622507
 20
444.5896128416
 30
0.0
 40
0.2983438617133502
100
AcDbArc
 50
147.9323231113
 51
180.0981764062
  0
ARC
  5
FC
330
D7
100
AcDbEntity
  8
$DDT_AUDIT_GENERATED_(7E)
  6
Continuous
 62
     7
100
AcDbCircle
 10
406.4895246951
 20
442.3752701443
 30
0.0
 40
2.463739442488813
100
AcDbArc
 50
61.429876199
 51
74.3790853938
  0
ELLIPSE
  5
FD
330
D7
100
AcDbEntity
  8
$DDT_AUDIT_GENERATED_(7E)
  6
Continuous
 62
     7
100
AcDbEllipse
 10
407.4070433484
 20
444.5886177719
 30
0.0
 11
-0.1513680829362402
 21
0.259120914109387
 31
0.0
210
0.0
220
0.0
230
0.9999999999999999
 40
0.9979046302
 41
0.4827369748059483
 42
1.04140516416671
  0
ARC
  5
FE
330
D7
100
AcDbEntity
  8
$DDT_AUDIT_GENERATED_(7E)
  6
Continuous
 62
     7
100
AcDbCircle
 10
406.6538934689
 20
436.3571572812
 30
0.0
 40
8.244427997065804
100
AcDbArc
 50
82.9360541015
 51
86.8465717264
  0
ARC
  5
FF
330
D7
100
AcDbEntity
  8
$DDT_AUDIT_GENERATED_(7E)
  6
Continuous
 62
     7
100
AcDbCircle
 10
447.1269102263
 20
364.2827925176
 30
0.0
 40
0.4999119732797036
100
AcDbArc
 50
158.7543069859
 51
187.7288232041
  0
ARC
  5
100
330
D7
100
AcDbEntity
  8
$DDT_AUDIT_GENERATED_(7E)
  6
Continuous
 62
     7
100
AcDbCircle
 10
446.8388538739
 20
390.5281042241
 30
0.0
 40
0.5000281162962033
100
AcDbArc
 50
334.6860350641
 51
6.8183615295
  0
LINE
  5
101
330
D7
100
AcDbEntity
  8
$DDT_AUDIT_GENERATED_(7E)
  6
Continuous
 62
     7
100
AcDbLine
 10
452.090875646
 20
349.6397010097
 30
0.0
 11
452.0796808323
 21
349.7457472151
 31
0.0
  0
LINE
  5
102
330
D7
100
AcDbEntity
  8
$DDT_AUDIT_GENERATED_(7E)
  6
Continuous
 62
     7
100
AcDbLine
 10
437.4814269802
 20
468.6566341433
 30
0.0
 11
437.4735335402
 21
468.7135080002
 31
0.0
  0
SPLINE
  5
103
330
D7
100
AcDbEntity
  8
$DDT_AUDIT_GENERATED_(7E)
  6
Continuous
 62
     7
100
AcDbSpline
210
0.0
220
0.0
230
1.0
 70
     8
 71
     3
 72
    16
 73
    12
 74
     0
 42
0.0000000001270829
 43
0.0000000001
 40
0.0
 40
0.0
 40
0.0
 40
0.0
 40
0.0615560739074532
 40
0.1880618060776008
 40
0.3113558212130362
 40
0.4201654262011969
 40
0.531745808514555
 40
0.6463142856595503
 40
0.7637706793492953
 40
0.8819566835261409
 40
1.0
 40
1.0
 40
1.0
 40
1.0
 10
447.3304733567146
 20
390.5872103536657
 30
0.0
 10
447.1200239823806
 20
392.3507478835806
 30
0.0
 10
446.5731462664444
 20
396.931106800412
 30
0.0
 10
445.5626920930923
 20
405.2481443385788
 30
0.0
 10
444.4235529210148
 20
414.5191907883739
 30
0.0
 10
443.3083176252747
 20
423.4809993409107
 30
0.0
 10
442.212001474311
 20
432.1908054494075
 30
0.0
 10
441.0716809179826
 20
441.1447976782571
 30
0.0
 10
439.9038331020323
 20
450.2071044218967
 30
0.0
 10
438.6809772445681
 20
459.5871293792191
 30
0.0
 10
437.9282346551999
 20
465.2802180576624
 30
0.0
 10
437.4814269802065
 20
468.6566341433168
 30
0.0
  0
SPLINE
  5
104
330
D7
100
AcDbEntity
  8
$DDT_AUDIT_GENERATED_(7E)
  6
Continuous
 62
     7
100
AcDbSpline
210
0.0
220
0.0
230
1.0
 70
     8
 71
     3
 72
    11
 73
     7
 74
     0
 42
0.0000000006716998
 43
0.0000000001
 40
0.0
 40
0.0
 40
0.0
 40
0.0
 40
0.3026567014848585
 40
0.6234304223238213
 40
0.9594746375915668
 40
1.0
 40
1.0
 40
1.0
 40
1.0
 10
452.0796808323176
 20
349.7457472150434
 30
0.0
 10
451.8941714337519
 20
351.3874379076791
 30
0.0
 10
451.5708812024378
 20
354.2474240436114
 30
0.0
 10
451.0252770455822
 20
359.0321965330452
 30
0.0
 10
450.6209025873641
 20
362.562229855778
 30
0.0
 10
450.4178770969089
 20
364.3176757709566
 30
0.0
 10
450.3924598029809
 20
364.5374300866208
 30
0.0
  0
LINE
  5
105
330
D7
100
AcDbEntity
  8
$DDT_AUDIT_GENERATED_(7E)
  6
Continuous
 62
     7
100
AcDbLine
 10
423.4452110463
 20
422.3887878016
 30
0.0
 11
436.1847075061
 21
423.9530012805
 31
0.0
  0
LINE
  5
106
330
D7
100
AcDbEntity
  8
$DDT_AUDIT_GENERATED_(7E)
  6
Continuous
 62
     7
100
AcDbLine
 10
407.6722884313
 20
420.4521164242
 30
0.0
 11
415.8794035298
 21
421.4598234478
 31
0.0
  0
SPLINE
  5
107
330
D7
100
AcDbEntity
  8
$DDT_AUDIT_GENERATED_(7E)
  6
Continuous
 62
     7
100
AcDbSpline
210
0.0
220
0.0
230
1.0
 70
     8
 71
     3
 72
    12
 73
     8
 74
     0
 42
0.0000000006612984
 43
0.0000000001
 40
0.0
 40
0.0
 40
0.0
 40
0.0
 40
0.012407761946916
 40
0.2757732046318695
 40
0.5301367137203142
 40
0.7733174059216276
 40
1.0
 40
1.0
 40
1.0
 40
1.0
 10
446.6326804776206
 20
364.2157158285883
 30
0.0
 10
446.6418705394655
 20
364.147535763262
 30
0.0
 10
446.8179076313901
 20
362.8415832828499
 30
0.0
 10
447.1937193275798
 20
360.0953394392251
 30
0.0
 10
447.7093488881656
 20
356.3526643134814
 30
0.0
 10
448.2244833287346
 20
352.6551822718902
 30
0.0
 10
448.530790799575
 20
350.4813850536749
 30
0.0
 10
448.7062924205306
 20
349.2368235934349
 30
0.0
  0
SPLINE
  5
108
330
D7
100
AcDbEntity
  8
$DDT_AUDIT_GENERATED_(7E)
  6
Continuous
 62
     7
100
AcDbSpline
210
0.0
220
0.0
230
1.0
 70
     8
 71
     3
 72
    17
 73
    13
 74
     0
 42
0.0000000003195912
 43
0.0000000001
 40
0.0
 40
0.0
 40
0.0
 40
0.0
 40
0.1226226653880043
 40
0.2599973998720655
 40
0.3885160274405636
 40
0.5081790003934801
 40
0.6189866566805986
 40
0.7191963067673172
 40
0.8108644654243176
 40
0.8939912269554137
 40
0.9685766383292502
 40
1.0
 40
1.0
 40
1.0
 40
1.0
 10
439.5272730872848
 20
421.3136299251879
 30
0.0
 10
439.6859558992538
 20
419.9157594067311
 30
0.0
 10
439.9701105931524
 20
417.4149539625584
 30
0.0
 10
440.4456779946556
 20
413.3056846110782
 30
0.0
 10
440.9114311705662
 20
409.3332257725654
 30
0.0
 10
441.353611652349
 20
405.6100761507355
 30
0.0
 10
441.7650021249864
 20
402.1863863514216
 30
0.0
 10
442.1453997805027
 20
399.0539524849759
 30
0.0
 10
442.4951399948217
 20
396.2010691178526
 30
0.0
 10
442.8120418024951
 20
393.6389279184884
 30
0.0
 10
443.0621356684279
 20
391.6297733691679
 30
0.0
 10
443.1912427488269
 20
390.602153575391
 30
0.0
 10
443.236194683107
 20
390.2444471600774
 30
0.0
  0
LINE
  5
109
330
D7
100
AcDbEntity
  8
$DDT_AUDIT_GENERATED_(7E)
  6
Continuous
 62
     7
100
AcDbLine
 10
449.2720487332
 20
348.671329429
 30
0.0
 11
451.683656351
 21
348.9673544734
 31
0.0
  0
LINE
  5
10A
330
D7
100
AcDbEntity
  8
$DDT_AUDIT_GENERATED_(7E)
  6
Continuous
 62
     7
100
AcDbLine
 10
437.027175301
 20
469.313548801
 30
0.0
 11
423.839471985
 21
470.932795162
 31
0.0
  0
ARC
  5
10B
330
D7
100
AcDbEntity
  8
$DDT_AUDIT_GENERATED_(7E)
  6
Continuous
 62
     7
100
AcDbCircle
 10
443.7313038581
 20
390.306566993
 30
0.0
 40
0.5000399971967303
100
AcDbArc
 50
187.1513644247
 51
228.2200904638
  0
ARC
  5
10C
330
D7
100
AcDbEntity
  8
$DDT_AUDIT_GENERATED_(7E)
  6
Continuous
 62
     7
100
AcDbCircle
 10
449.8979160498
 20
364.4749690375
 30
0.0
 40
0.4999651436399472
100
AcDbArc
 50
6.5694681041
 51
27.9232273293
  0
ARC
  5
10D
330
D7
100
AcDbEntity
  8
$DDT_AUDIT_GENERATED_(7E)
  6
Continuous
 62
     7
100
AcDbCircle
 10
436.5488655707
 20
420.9732747897
 30
0.0
 40
3.001853398770371
100
AcDbArc
 50
6.5191173248
 51
96.9678753732
  0
ARC
  5
10E
330
D7
100
AcDbEntity
  8
$DDT_AUDIT_GENERATED_(7E)
  6
Continuous
 62
     7
100
AcDbCircle
 10
449.2176014047
 20
349.1707205063
 30
0.0
 40
0.50226993367857
100
AcDbArc
 50
188.300842086
 51
276.7529961988
  0
ARC
  5
10F
330
D7
100
AcDbEntity
  8
$DDT_AUDIT_GENERATED_(7E)
  6
Continuous
 62
     7
100
AcDbCircle
 10
451.610622645
 20
349.4628788272
 30
0.0
 40
0.5006522585068154
100
AcDbArc
 50
277.0694506388
 51
6.3583093044
  0
ARC
  5
110
330
D7
100
AcDbEntity
  8
$DDT_AUDIT_GENERATED_(7E)
  6
Continuous
 62
     7
100
AcDbCircle
 10
436.9578480073
 20
468.8176813856
 30
0.0
 40
0.500774214005981
100
AcDbArc
 50
7.6347881338
 51
82.9342430677
  0
ARC
  5
111
330
D7
100
AcDbEntity
  8
$DDT_AUDIT_GENERATED_(7E)
  6
Continuous
 62
     7
100
AcDbCircle
 10
423.7932943285
 20
470.4338294061
 30
0.0
 40
0.5004108738112352
100
AcDbArc
 50
83.0296094647
 51
147.9702360603
  0
ARC
  5
112
330
D7
100
AcDbEntity
  8
$DDT_AUDIT_GENERATED_(7E)
  6
Continuous
 62
     7
100
AcDbCircle
 10
407.6075450558
 20
420.9481615873
 30
0.0
 40
0.500274708507665
100
AcDbArc
 50
179.5167851415
 51
276.9679251029
  0
LINE
  5
113
330
D7
100
AcDbEntity
  8
$DDT_AUDIT_GENERATED_(C2)
  6
Continuous
 62
     7
100
AcDbLine
 10
384.061667432
 20
354.9896778761
 30
0.0
 11
372.5135725328
 21
354.6872803688
 31
0.0
  0
LINE
  5
114
330
D7
100
AcDbEntity
  8
$DDT_AUDIT_GENERATED_(C2)
  6
Continuous
 62
     7
100
AcDbLine
 10
372.5135725328
 20
356.4866635538
 30
0.0
 11
372.5135725328
 21
536.8878971838
 31
0.0
  0
LINE
  5
115
330
D7
100
AcDbEntity
  8
$DDT_AUDIT_GENERATED_(C2)
  6
Continuous
 62
     7
100
AcDbLine
 10
372.5135725328
 20
354.6872803688
 30
0.0
 11
372.5135725328
 21
356.4866635538
 31
0.0
  0
LINE
  5
116
330
D7
100
AcDbEntity
  8
$DDT_AUDIT_GENERATED_(C2)
  6
Continuous
 62
     7
100
AcDbLine
 10
372.5135725328
 20
536.8878971838
 30
0.0
 11
372.5135725328
 21
538.6872803688
 31
0.0
  0
LINE
  5
117
330
D7
100
AcDbEntity
  8
$DDT_AUDIT_GENERATED_(C2)
  6
Continuous
 62
     7
100
AcDbLine
 10
372.5135725328
 20
538.6872803688
 30
0.0
 11
384.061667432
 21
538.3848828615
 31
0.0
  0
SPLINE
  5
118
330
D7
100
AcDbEntity
  8
$DDT_AUDIT_GENERATED_(C2)
  6
Continuous
 62
     7
100
AcDbSpline
210
0.0
220
0.0
230
1.0
 70
     8
 71
     3
 72
    10
 73
     6
 74
     0
 42
0.0000000097944571
 43
0.0000000001
 40
0.0
 40
0.0
 40
0.0
 40
0.0
 40
0.2500000000000017
 40
0.2500000000000017
 40
0.4212907706749557
 40
0.4212907706749557
 40
0.4212907706749557
 40
0.4212907706749557
 10
386.2859047107451
 20
472.988011656613
 30
0.0
 10
386.2855667026092
 20
473.0804527612777
 30
0.0
 10
386.2853279710573
 20
473.171159565449
 30
0.0
 10
386.2851069529314
 20
473.3139540427057
 30
0.0
 10
386.2850693844227
 20
473.3686730048271
 30
0.0
 10
386.2850839399616
 20
473.4181423611799
 30
0.0
  0
ARC
  5
119
330
D7
100
AcDbEntity
  8
$DDT_AUDIT_GENERATED_(C2)
  6
Continuous
 62
     7
100
AcDbCircle
 10
-6806.6456304337
 20
446.6872804619
 30
0.0
 40
7192.979618887918
100
AcDbArc
 50
359.7905006904
 51
0.2094993081
  0
ARC
  5
11A
330
D7
100
AcDbEntity
  8
$DDT_AUDIT_GENERATED_(C2)
  6
Continuous
 62
     7
100
AcDbCircle
 10
415.583988376
 20
420.0777778694
 30
0.0
 40
29.29971068389406
100
AcDbArc
 50
179.3961846611
 51
180.7651209601
  0
ARC
  5
11B
330
D7
100
AcDbEntity
  8
$DDT_AUDIT_GENERATED_(C2)
  6
Continuous
 62
     7
100
AcDbCircle
 10
384.0365306368
 20
536.5849240652
 30
0.0
 40
1.799999999999972
100
AcDbArc
 50
0.5841505557
 51
88.5001274676
  0
ARC
  5
11C
330
D7
100
AcDbEntity
  8
$DDT_AUDIT_GENERATED_(C2)
  6
Continuous
 62
     7
100
AcDbCircle
 10
384.0365306368
 20
356.7896366724
 30
0.0
 40
1.799999999999732
100
AcDbArc
 50
271.4998725334
 51
359.389665886
  0
SPLINE
  5
11D
330
D7
100
AcDbEntity
  8
$DDT_AUDIT_GENERATED_(C2)
  6
Continuous
 62
     7
100
AcDbSpline
210
0.0
220
0.0
230
1.0
 70
     8
 71
     3
 72
    22
 73
    18
 74
     0
 42
0.0000000001589365
 43
0.0000000001
 40
0.0
 40
0.0
 40
0.0
 40
0.0
 40
0.017700308857592
 40
0.0557623374001414
 40
0.0989515629965967
 40
0.1472680223286626
 40
0.2007117592134501
 40
0.2592828246885451
 40
0.3229812765734115
 40
0.3918071783046156
 40
0.4657605968195584
 40
0.5448415992526291
 40
0.6290502482178375
 40
0.7183865954946284
 40
0.8128506740244348
 40
0.912442488284726
 40
1.0
 40
1.0
 40
1.0
 40
1.0
 10
386.3542163400429
 20
473.688183042701
 30
0.0
 10
386.352456825488
 20
474.0965254438034
 30
0.0
 10
386.3477256536508
 20
475.1908564329273
 30
0.0
 10
386.337704950478
 20
477.3191821763128
 30
0.0
 10
386.3240601420767
 20
480.0167085118485
 30
0.0
 10
386.3073483304699
 20
483.0629335695198
 30
0.0
 10
386.2873721351918
 20
486.4234992758856
 30
0.0
 10
386.2636559461207
 20
490.1092136633943
 30
0.0
 10
386.235797840755
 20
494.1167201328082
 30
0.0
 10
386.2033751197146
 20
498.4470846554664
 30
0.0
 10
386.1659956514217
 20
503.099819088889
 30
0.0
 10
386.1232954278385
 20
508.0757547706758
 30
0.0
 10
386.0750121712757
 20
513.3718272525754
 30
0.0
 10
386.020816611073
 20
519.0004552955112
 30
0.0
 10
385.9611401600574
 20
524.9111755266545
 30
0.0
 10
385.8978459559256
 20
530.9407548189442
 30
0.0
 10
385.8583051978292
 20
534.5842910533366
 30
0.0
 10
385.8363278799973
 20
536.6041236163302
 30
0.0
  0
SPLINE
  5
11E
330
D7
100
AcDbEntity
  8
$DDT_AUDIT_GENERATED_(C2)
  6
Continuous
 62
     7
100
AcDbSpline
210
0.0
220
0.0
230
1.0
 70
     8
 71
     3
 72
    24
 73
    20
 74
     0
 42
0.0000000001589366
 43
0.0000000001
 40
0.0
 40
0.0
 40
0.0
 40
0.0
 40
0.0773327218315404
 40
0.1668540523518502
 40
0.251401965800886
 40
0.3309764700598197
 40
0.405577593547396
 40
0.4740056365032091
 40
0.5376364209691122
 40
0.5964699969850839
 40
0.6505064144899966
 40
0.7007006561179453
 40
0.745900034952043
 40
0.7861045924649732
 40
0.8213143646559699
 40
0.8537499194325556
 40
0.886786842495917
 40
0.9204604236417824
 40
1.0
 40
1.0
 40
1.0
 40
1.0
 10
385.8363427566138
 20
356.7704369572756
 30
0.0
 10
385.8557594833903
 20
358.5543973615627
 30
0.0
 10
385.8910455992784
 20
361.803552218491
 30
0.0
 10
385.9478437623154
 20
367.1871876523594
 30
0.0
 10
386.0018511983356
 20
372.4772587634463
 30
0.0
 10
386.0510555834397
 20
377.4908604468252
 30
0.0
 10
386.0948578169227
 20
382.1575259607238
 30
0.0
 10
386.1336312660504
 20
386.4919883628191
 30
0.0
 10
386.167668451158
 20
390.495279631052
 30
0.0
 10
386.1975145340512
 20
394.1968874417842
 30
0.0
 10
386.2236256827742
 20
397.6166793186748
 30
0.0
 10
386.2462596490212
 20
400.750571441822
 30
0.0
 10
386.2656824137446
 20
403.5943151897616
 30
0.0
 10
386.2820445350252
 20
406.1240287791796
 30
0.0
 10
386.2959292615785
 20
408.3853686940628
 30
0.0
 10
386.3082737994139
 20
410.4986798280122
 30
0.0
 10
386.3197576567987
 20
412.5713705649776
 30
0.0
 10
386.3360859948268
 20
415.6755430852319
 30
0.0
 10
386.3458904444194
 20
417.851414226057
 30
0.0
 10
386.3541011326885
 20
419.6863740628875
 30
0.0
  0
ARC
  5
11F
330
D7
100
AcDbEntity
  8
$DDT_AUDIT_GENERATED_(C2)
  6
Continuous
 62
     7
100
AcDbCircle
 10
386.1542801005
 20
473.6872803688
 30
0.0
 40
0.2000000000000055
100
AcDbArc
 50
311.1315880097
 51
0.8981420759
  0
SPLINE
  5
120
330
D7
100
AcDbEntity
  8
$DDT_AUDIT_GENERATED_(C2)
  6
Continuous
 62
     7
100
AcDbSpline
210
0.0
220
0.0
230
1.0
 70
     8
 71
     3
 72
    10
 73
     6
 74
     0
 42
0.0000000309947228
 43
0.0000000001
 40
0.0
 40
0.0
 40
0.0
 40
0.0
 40
0.3393772548423627
 40
0.6789848733924458
 40
0.8014286493360403
 40
0.8014286493360403
 40
0.8014286493360403
 40
0.8014286493360403
 10
386.2850888487579
 20
473.417252535587
 30
0.0
 10
386.2851550755558
 20
473.4803268372702
 30
0.0
 10
386.2853166811946
 20
473.5860414529729
 30
0.0
 10
386.2858296527747
 20
473.6584435666345
 30
0.0
 10
386.2863915515185
 20
473.6753144907282
 30
0.0
 10
386.2863559721097
 20
473.6748196654635
 30
0.0
  0
ARC
  5
121
330
D7
100
AcDbEntity
  8
$DDT_AUDIT_GENERATED_(C2)
  6
Continuous
 62
     7
100
AcDbCircle
 10
386.0899608472
 20
419.6883376265
 30
0.0
 40
0.1967367274722731
100
AcDbArc
 50
3.4930371668
 51
3.5410843279
  0
ARC
  5
122
330
D7
100
AcDbEntity
  8
$DDT_AUDIT_GENERATED_(C2)
  6
Continuous
 62
     7
100
AcDbCircle
 10
386.1542800997
 20
419.6872803688
 30
0.0
 40
0.1999999999999929
100
AcDbArc
 50
0.4187168667
 51
48.5208553678
  0
ENDBLK
  5
124
330
D7
100
AcDbEntity
  8
0
100
AcDbBlockEnd
  0
BLOCK
  5
180
330
125
100
AcDbEntity
  8
0
100
AcDbBlockBegin
  2
SE2
 70
     0
 10
0.0
 20
0.0
 30
0.0
  3
SE2
  1

  0
LINE
  5
127
330
125
100
AcDbEntity
  8
$DDT_AUDIT_GENERATED_(74)
  6
Continuous
 62
     7
100
AcDbLine
 10
98.1473633976
 20
141.391513883
 30
0.0
 11
118.1195399941
 21
141.391513883
 31
0.0
  0
LINE
  5
128
330
125
100
AcDbEntity
  8
$DDT_AUDIT_GENERATED_(74)
  6
Continuous
 62
     7
100
AcDbLine
 10
82.1049121416
 20
154.0371506152
 30
0.0
 11
81.9466668817
 21
172.170261328
 31
0.0
  0
LINE
  5
129
330
125
100
AcDbEntity
  8
$DDT_AUDIT_GENERATED_(74)
  6
Continuous
 62
     7
100
AcDbLine
 10
134.271810172
 20
172.1704971659
 30
0.0
 11
134.113562854
 21
154.0371506152
 31
0.0
  0
LINE
  5
12A
330
125
100
AcDbEntity
  8
$DDT_AUDIT_GENERATED_(74)
  6
Continuous
 62
     7
100
AcDbLine
 10
133.6135818925
 20
153.541513883
 30
0.0
 11
82.6048931031
 21
153.541513883
 31
0.0
  0
ARC
  5
12B
330
125
100
AcDbEntity
  8
$DDT_AUDIT_GENERATED_(74)
  6
Continuous
 62
     7
100
AcDbCircle
 10
133.6135818925
 20
154.041513883
 30
0.0
 40
0.5000000000000004
100
AcDbArc
 50
270.0
 51
359.5
  0
ARC
  5
12C
330
125
100
AcDbEntity
  8
$DDT_AUDIT_GENERATED_(74)
  6
Continuous
 62
     7
100
AcDbCircle
 10
82.6048931031
 20
154.041513883
 30
0.0
 40
0.5000000000000014
100
AcDbArc
 50
180.5
 51
270.0
  0
ARC
  5
12D
330
125
100
AcDbEntity
  8
$DDT_AUDIT_GENERATED_(74)
  6
Continuous
 62
     7
100
AcDbCircle
 10
108.1092374978
 20
161.391513883
 30
0.0
 40
25.0
100
AcDbArc
 50
318.6474092997
 51
340.8858668002
  0
ARC
  5
12E
330
125
100
AcDbEntity
  8
$DDT_AUDIT_GENERATED_(74)
  6
Continuous
 62
     7
100
AcDbCircle
 10
108.1092374978
 20
161.391513883
 30
0.0
 40
25.0
100
AcDbArc
 50
199.1141331998
 51
221.2531604192
  0
ARC
  5
12F
330
125
100
AcDbEntity
  8
$DDT_AUDIT_GENERATED_(74)
  6
Continuous
 62
     7
100
AcDbCircle
 10
132.2033757891
 20
153.041513883
 30
0.0
 40
0.5000000000000011
100
AcDbArc
 50
90.0
 51
160.8858668002
  0
ARC
  5
130
330
125
100
AcDbEntity
  8
$DDT_AUDIT_GENERATED_(74)
  6
Continuous
 62
     7
100
AcDbCircle
 10
84.0150992065
 20
153.041513883
 30
0.0
 40
0.5000000000000004
100
AcDbArc
 50
19.1141331998
 51
90.0
  0
ARC
  5
131
330
125
100
AcDbEntity
  8
$DDT_AUDIT_GENERATED_(7E)
  6
Continuous
 62
     7
100
AcDbCircle
 10
108.1081563445
 20
-5946.4756720612
 30
0.0
 40
6067.482389944965
100
AcDbArc
 50
89.8003872372
 51
90.1996139691
  0
LINE
  5
132
330
125
100
AcDbEntity
  8
$DDT_AUDIT_GENERATED_(7E)
  6
Continuous
 62
     7
100
AcDbLine
 10
121.1280599865
 20
110.4279984346
 30
0.0
 11
121.2756030685
 21
108.4099159048
 31
0.0
  0
SPLINE
  5
133
330
125
100
AcDbEntity
  8
$DDT_AUDIT_GENERATED_(7E)
  6
Continuous
 62
     7
100
AcDbSpline
210
0.0
220
0.0
230
1.0
 70
     8
 71
     3
 72
    20
 73
    16
 74
     0
 42
0.0000000039155615
 43
0.0000000001
 40
0.0
 40
0.0
 40
0.0
 40
0.0
 40
0.0420102013677602
 40
0.0836677286975739
 40
0.1251539414586298
 40
0.1666524478972738
 40
0.208346696311902
 40
0.2504175767884835
 40
0.3749997354892848
 40
0.4997952602779148
 40
0.6247878786899614
 40
0.7497137927570048
 40
0.833507509562752
 40
0.9164497707112907
 40
1.0
 40
1.0
 40
1.0
 40
1.0
 10
121.2756109558484
 20
108.4089950826855
 30
0.0
 10
121.2750540554924
 20
108.4034255721716
 30
0.0
 10
121.2739606384613
 20
108.3904993930573
 30
0.0
 10
121.2587337316282
 20
108.371122282533
 30
0.0
 10
121.2335077187876
 20
108.3519028363298
 30
0.0
 10
121.1973398800554
 20
108.3328362929901
 30
0.0
 10
121.150462651883
 20
108.3139267877588
 30
0.0
 10
121.0555799089617
 20
108.2830308355517
 30
0.0
 10
120.8769437027755
 20
108.2415531515826
 30
0.0
 10
120.5642115823497
 20
108.194301206977
 30
0.0
 10
120.1839689463349
 20
108.1544649490224
 30
0.0
 10
119.7946830089615
 20
108.1274984913615
 30
0.0
 10
119.4315587110058
 20
108.1106522895817
 30
0.0
 10
119.1083209667492
 20
108.1007552105376
 30
0.0
 10
118.8895057990845
 20
108.0984584275135
 30
0.0
 10
118.7797046115049
 20
108.0963376439747
 30
0.0
  0
LINE
  5
134
330
125
100
AcDbEntity
  8
$DDT_AUDIT_GENERATED_(7E)
  6
Continuous
 62
     7
100
AcDbLine
 10
118.7797046115
 20
108.096337644
 30
0.0
 11
97.4364842398
 21
108.0963352987
 31
0.0
  0
SPLINE
  5
135
330
125
100
AcDbEntity
  8
$DDT_AUDIT_GENERATED_(7E)
  6
Continuous
 62
     7
100
AcDbSpline
210
0.0
220
0.0
230
1.0
 70
     8
 71
     3
 72
    20
 73
    16
 74
     0
 42
0.0000000039117696
 43
0.0000000001
 40
0.0
 40
0.0
 40
0.0
 40
0.0
 40
0.042010529386212
 40
0.0836684735752672
 40
0.1251551414813575
 40
0.1666540887977095
 40
0.2083487107861594
 40
0.2504198455312359
 40
0.3749991859327765
 40
0.4997970103419982
 40
0.6247866402287863
 40
0.7497137198644029
 40
0.8335097164085388
 40
0.9164518757228047
 40
1.0
 40
1.0
 40
1.0
 40
1.0
 10
97.43648423982144
 20
108.0963352986679
 30
0.0
 10
97.3813081139097
 20
108.097762814599
 30
0.0
 10
97.27140716946143
 20
108.0986775961821
 30
0.0
 10
97.10772005000514
 20
108.1016430334253
 30
0.0
 10
96.94613112747078
 20
108.1057737632768
 30
0.0
 10
96.7866541807741
 20
108.1111820629024
 30
0.0
 10
96.62928395021213
 20
108.117841999186
 30
0.0
 10
96.37344321135244
 20
108.1308796951849
 30
0.0
 10
96.03345771636693
 20
108.1544336645812
 30
0.0
 10
95.65309554368947
 20
108.1941577577032
 30
0.0
 10
95.33940305875868
 20
108.2414031313154
 30
0.0
 10
95.1348957320339
 20
108.2888954372435
 30
0.0
 10
95.01422959242208
 20
108.3326343072484
 30
0.0
 10
94.94991420033318
 20
108.3712056964462
 30
0.0
 10
94.94370027277466
 20
108.3969796717847
 30
0.0
 10
94.94057411340654
 20
108.4089927422495
 30
0.0
  0
LINE
  5
136
330
125
100
AcDbEntity
  8
$DDT_AUDIT_GENERATED_(7E)
  6
Continuous
 62
     7
100
AcDbLine
 10
94.9405820008
 20
108.4099135635
 30
0.0
 11
95.0881252535
 21
110.4279984313
 31
0.0
  0
SPLINE
  5
137
330
125
100
AcDbEntity
  8
$DDT_AUDIT_GENERATED_(7E)
  6
Continuous
 62
     7
100
AcDbSpline
210
0.0
220
0.0
230
1.0
 70
     8
 71
     3
 72
    25
 73
    21
 74
     0
 42
0.0000000039111422
 43
0.0000000001
 40
0.0
 40
0.0
 40
0.0
 40
0.0
 40
0.0434288508342452
 40
0.0859275774163385
 40
0.127666466140124
 40
0.1688252347960677
 40
0.2095912733065101
 40
0.2501574131778924
 40
0.2907193354204031
 40
0.3314727799772452
 40
0.3726107509431121
 40
0.4143209125304186
 40
0.4567833406720962
 40
0.500168742535818
 40
0.5858878384720998
 40
0.6686447745860025
 40
0.7499012458532603
 40
0.831199916061291
 40
0.9140810895348709
 40
1.0
 40
1.0
 40
1.0
 40
1.0
 10
95.07580116737208
 20
110.9196034776813
 30
0.0
 10
95.07628141485115
 20
110.9281368769645
 30
0.0
 10
95.07718220989835
 20
110.9416651198141
 30
0.0
 10
95.09158100173079
 20
110.9615182119006
 30
0.0
 10
95.11564166949825
 20
110.9807295181314
 30
0.0
 10
95.15024694399668
 20
110.9992863142048
 30
0.0
 10
95.19517076361248
 20
111.0171905029037
 30
0.0
 10
95.25047376663186
 20
111.034440600095
 30
0.0
 10
95.31613733781391
 20
111.0510366114013
 30
0.0
 10
95.39215996540187
 20
111.0669788821429
 30
0.0
 10
95.47853327324032
 20
111.0822686064257
 30
0.0
 10
95.5752457481031
 20
111.0969074879857
 30
0.0
 10
95.68229710525452
 20
111.1108989249624
 30
0.0
 10
95.83678555091396
 20
111.1284676540609
 30
0.0
 10
96.04506792724585
 20
111.1479165011065
 30
0.0
 10
96.31704416119928
 20
111.1665162349425
 30
0.0
 10
96.60683020760239
 20
111.1800063267357
 30
0.0
 10
96.91413169348125
 20
111.188280951388
 30
0.0
 10
97.23862435068924
 20
111.1917535288592
 30
0.0
 10
97.46101924175348
 20
111.1899219610616
 30
0.0
 10
97.57419209902588
 20
111.1868960963002
 30
0.0
  0
SPLINE
  5
138
330
125
100
AcDbEntity
  8
$DDT_AUDIT_GENERATED_(7E)
  6
Continuous
 62
     7
100
AcDbSpline
210
0.0
220
0.0
230
1.0
 70
     8
 71
     3
 72
    20
 73
    16
 74
     0
 42
0.0000000039094245
 43
0.0000000001
 40
0.0
 40
0.0
 40
0.0
 40
0.0
 40
0.0419017774914938
 40
0.0834720882527794
 40
0.1248903371199129
 40
0.1663379038186559
 40
0.207995785414218
 40
0.2500422633577371
 40
0.3746041513718869
 40
0.4994156975722814
 40
0.6243743098243898
 40
0.7496304780966954
 40
0.8333344019497865
 40
0.9162986593137004
 40
1.0
 40
1.0
 40
1.0
 40
1.0
 10
118.6419933146921
 20
111.1868954877866
 30
0.0
 10
118.6970183582179
 20
111.1895372547012
 30
0.0
 10
118.8066843717999
 20
111.1906292519175
 30
0.0
 10
118.9700785117241
 20
111.1906781266491
 30
0.0
 10
119.1314737015442
 20
111.1895422376437
 30
0.0
 10
119.29085829033
 20
111.1871105539144
 30
0.0
 10
119.4482344322391
 20
111.1834073686172
 30
0.0
 10
119.7043256654136
 20
111.1752132883241
 30
0.0
 10
120.0448785759877
 20
111.1581349380782
 30
0.0
 10
120.4259220049415
 20
111.1256253260678
 30
0.0
 10
120.7402757888273
 20
111.0841883225863
 30
0.0
 10
120.9454624383082
 20
111.0402988768966
 30
0.0
 10
121.0667908699855
 20
110.9984196638091
 30
0.0
 10
121.1311518824256
 20
110.9605645140749
 30
0.0
 10
121.1372809584737
 20
110.9344259673892
 30
0.0
 10
121.1403840241212
 20
110.9196028354648
 30
0.0
  0
LINE
  5
139
330
125
100
AcDbEntity
  8
$DDT_AUDIT_GENERATED_(7E)
  6
Continuous
 62
     7
100
AcDbLine
 10
132.4379650403
 20
151.3505570756
 30
0.0
 11
133.185714519
 21
151.3505570756
 31
0.0
  0
LINE
  5
13A
330
125
100
AcDbEntity
  8
$DDT_AUDIT_GENERATED_(7E)
  6
Continuous
 62
     7
100
AcDbLine
 10
133.185712352
 20
151.3505570756
 30
0.0
 11
133.5351184165
 21
151.3505570756
 31
0.0
  0
LINE
  5
13B
330
125
100
AcDbEntity
  8
$DDT_AUDIT_GENERATED_(7E)
  6
Continuous
 62
     7
100
AcDbLine
 10
82.6810668549
 20
151.3505570756
 30
0.0
 11
83.0304728597
 21
151.3505570756
 31
0.0
  0
LINE
  5
13C
330
125
100
AcDbEntity
  8
$DDT_AUDIT_GENERATED_(7E)
  6
Continuous
 62
     7
100
AcDbLine
 10
83.0304728597
 20
151.3505570756
 30
0.0
 11
83.7839844955
 21
151.3505570756
 31
0.0
  0
LINE
  5
13D
330
125
100
AcDbEntity
  8
$DDT_AUDIT_GENERATED_(7E)
  6
Continuous
 62
     7
100
AcDbLine
 10
83.7839844955
 20
151.3505570756
 30
0.0
 11
84.1667145665
 21
151.3505570756
 31
0.0
  0
LINE
  5
13E
330
125
100
AcDbEntity
  8
$DDT_AUDIT_GENERATED_(7E)
  6
Continuous
 62
     7
100
AcDbLine
 10
84.1667145665
 20
151.3505570756
 30
0.0
 11
85.2142776509
 21
151.3505570756
 31
0.0
  0
LINE
  5
13F
330
125
100
AcDbEntity
  8
$DDT_AUDIT_GENERATED_(7E)
  6
Continuous
 62
     7
100
AcDbLine
 10
131.0041973447
 20
151.3505570756
 30
0.0
 11
132.0509054884
 21
151.3505570756
 31
0.0
  0
LINE
  5
140
330
125
100
AcDbEntity
  8
$DDT_AUDIT_GENERATED_(7E)
  6
Continuous
 62
     7
100
AcDbLine
 10
132.0509054884
 20
151.3505570756
 30
0.0
 11
132.4379650403
 21
151.3505570756
 31
0.0
  0
SPLINE
  5
141
330
125
100
AcDbEntity
  8
$DDT_AUDIT_GENERATED_(7E)
  6
Continuous
 62
     7
100
AcDbSpline
210
0.0
220
0.0
230
1.0
 70
     8
 71
     3
 72
    18
 73
    14
 74
     0
 42
0.0000000044490127
 43
0.0000000001
 40
0.2723097157953368
 40
0.2723097157953368
 40
0.2723097157953368
 40
0.2723097157953368
 40
0.2733308212721433
 40
0.3187100416167807
 40
0.3640590161617676
 40
0.4093852931120981
 40
0.4546964320160747
 40
0.4999999999999993
 40
0.5453035679839251
 40
0.5906147068879013
 40
0.635940983838231
 40
0.6812899583832189
 40
0.6841271946377327
 40
0.6841271946377327
 40
0.6841271946377327
 40
0.6841271946377327
 10
85.3536569276754
 20
151.0951589608231
 30
0.0
 10
85.35268122423545
 20
151.0951626693669
 30
0.0
 10
85.30836052738168
 20
151.095330532595
 30
0.0
 10
85.22221161658892
 20
151.0956037340709
 30
0.0
 10
85.09945436043448
 20
151.0958775120356
 30
0.0
 10
84.98239625553283
 20
151.0960507749047
 30
0.0
 10
84.8716309428549
 20
151.0961457853064
 30
0.0
 10
84.76772114848013
 20
151.0961759629713
 30
0.0
 10
84.67119582430445
 20
151.0961457853064
 30
0.0
 10
84.58254741301845
 20
151.0960507749047
 30
0.0
 10
84.50222948593272
 20
151.0958775120356
 30
0.0
 10
84.45303438837396
 20
151.0956893399144
 30
0.0
 10
84.4294064373268
 20
151.0955676691942
 30
0.0
 10
84.42802118997422
 20
151.0955604178961
 30
0.0
  0
ARC
  5
142
330
125
100
AcDbEntity
  8
$DDT_AUDIT_GENERATED_(7E)
  6
Continuous
 62
     7
100
AcDbCircle
 10
131.0367107632
 20
109.5212831185
 30
0.0
 40
41.5780219269832
100
AcDbArc
 50
88.9652084525
 51
90.2154507907
  0
LINE
  5
143
330
125
100
AcDbEntity
  8
$DDT_AUDIT_GENERATED_(7E)
  6
Continuous
 62
     7
100
AcDbLine
 10
130.4695075036
 20
121.9968799037
 30
0.0
 11
134.0313914614
 21
150.7900763514
 31
0.0
  0
LINE
  5
144
330
125
100
AcDbEntity
  8
$DDT_AUDIT_GENERATED_(7E)
  6
Continuous
 62
     7
100
AcDbLine
 10
133.6828435822
 20
150.7900765979
 30
0.0
 11
131.3471775187
 21
134.7722028755
 31
0.0
  0
LINE
  5
145
330
125
100
AcDbEntity
  8
$DDT_AUDIT_GENERATED_(7E)
  6
Continuous
 62
     7
100
AcDbLine
 10
131.3471774973
 20
134.7722026857
 30
0.0
 11
129.7427515515
 21
121.4056679264
 31
0.0
  0
LINE
  5
146
330
125
100
AcDbEntity
  8
$DDT_AUDIT_GENERATED_(7E)
  6
Continuous
 62
     7
100
AcDbLine
 10
129.7432422319
 20
106.8254289793
 30
0.0
 11
130.0380327818
 21
109.2084411192
 31
0.0
  0
ELLIPSE
  5
147
330
125
100
AcDbEntity
  8
$DDT_AUDIT_GENERATED_(7E)
  6
Continuous
 62
     7
100
AcDbEllipse
 10
130.4691291791
 20
121.566618128
 30
0.0
 11
-0.4258953679521678
 21
-3.494861632295052
 31
0.0
210
0.0
220
0.0
230
1.0
 40
0.0147859312
 41
4.590765225783624
 42
6.162679716359342
  0
LINE
  5
148
330
125
100
AcDbEntity
  8
$DDT_AUDIT_GENERATED_(7E)
  6
Continuous
 62
     7
100
AcDbLine
 10
86.4734333762
 20
121.4056676231
 30
0.0
 11
84.8690072959
 21
134.7722045001
 31
0.0
  0
LINE
  5
149
330
125
100
AcDbEntity
  8
$DDT_AUDIT_GENERATED_(7E)
  6
Continuous
 62
     7
100
AcDbLine
 10
84.8690072864
 20
134.7722045845
 30
0.0
 11
82.5333416309
 21
150.790076602
 31
0.0
  0
LINE
  5
14A
330
125
100
AcDbEntity
  8
$DDT_AUDIT_GENERATED_(7E)
  6
Continuous
 62
     7
100
AcDbLine
 10
82.1847938095
 20
150.7900763556
 30
0.0
 11
85.7466777583
 21
121.9968781634
 31
0.0
  0
ELLIPSE
  5
14B
330
125
100
AcDbEntity
  8
$DDT_AUDIT_GENERATED_(7E)
  6
Continuous
 62
     7
100
AcDbEllipse
 10
85.7476508845
 20
121.5623025872
 30
0.0
 11
-0.4253039109880785
 21
3.490417698525067
 31
0.0
210
0.0
220
0.0
230
0.9999999999999998
 40
0.0147859365
 41
3.261876477826079
 42
4.835416384384414
  0
LINE
  5
14C
330
125
100
AcDbEntity
  8
$DDT_AUDIT_GENERATED_(7E)
  6
Continuous
 62
     7
100
AcDbLine
 10
86.1781521821
 20
109.2084415467
 30
0.0
 11
86.4729427125
 21
106.8254294191
 31
0.0
  0
ELLIPSE
  5
14D
330
125
100
AcDbEntity
  8
$DDT_AUDIT_GENERATED_(7E)
  6
Continuous
 62
     7
100
AcDbEllipse
 10
108.1081489686
 20
566.9659378598
 30
0.0
 11
-814.987205211522
 21
5.070110997706934E-9
 31
0.0
210
0.0
220
0.0
230
1.0
 40
0.5299192643
 41
1.542886905310346
 42
1.598705609423598
  0
ELLIPSE
  5
14E
330
125
100
AcDbEntity
  8
$DDT_AUDIT_GENERATED_(7E)
  6
Continuous
 62
     7
100
AcDbEllipse
 10
108.1109747679
 20
153.0949987786
 30
0.0
 11
-24.32517626900109
 21
4.163336342344337E-14
 31
0.0
210
0.0
220
0.0
230
1.0
 40
0.5299192642
 41
0.1501210972317789
 42
0.5165223913033954
  0
ELLIPSE
  5
14F
330
125
100
AcDbEntity
  8
$DDT_AUDIT_GENERATED_(7E)
  6
Continuous
 62
     7
100
AcDbEllipse
 10
108.1109747679
 20
153.0949987786
 30
0.0
 11
-24.32517626900109
 21
4.163336342344337E-14
 31
0.0
210
0.0
220
0.0
230
1.0
 40
0.5299192642
 41
2.656540637211711
 42
2.991471556358025
  0
SPLINE
  5
150
330
125
100
AcDbEntity
  8
$DDT_AUDIT_GENERATED_(7E)
  6
Continuous
 62
     7
100
AcDbSpline
210
0.0
220
0.0
230
1.0
 70
     8
 71
     3
 72
     9
 73
     5
 74
     0
 42
0.0000000002267534
 43
0.0000000001
 40
0.0
 40
0.0
 40
0.0
 40
0.0
 40
0.0206709018962173
 40
0.0392824588701173
 40
0.0392824588701173
 40
0.0392824588701173
 40
0.0392824588701173
 10
131.5944025278502
 20
150.3471086052204
 30
0.0
 10
131.5050523994157
 20
150.0509586633354
 30
0.0
 10
131.3352536764139
 20
149.4881628080848
 30
0.0
 10
131.1190448729966
 20
148.9626377663006
 30
0.0
 10
131.0083774882727
 20
148.719723239152
 30
0.0
  0
SPLINE
  5
151
330
125
100
AcDbEntity
  8
$DDT_AUDIT_GENERATED_(7E)
  6
Continuous
 62
     7
100
AcDbSpline
210
0.0
220
0.0
230
1.0
 70
     8
 71
     3
 72
     8
 73
     4
 74
     0
 42
0.0000000002262297
 43
0.0000000001
 40
0.9663303300261947
 40
0.9663303300261947
 40
0.9663303300261947
 40
0.9663303300261947
 40
1.0
 40
1.0
 40
1.0
 40
1.0
 10
85.10919889417781
 20
148.9677645300121
 30
0.0
 10
84.92637209914145
 20
149.4212727077519
 30
0.0
 10
84.77229254735396
 20
149.8965839303962
 30
0.0
 10
84.61821299556644
 20
150.3718951530404
 30
0.0
  0
LINE
  5
152
330
125
100
AcDbEntity
  8
$DDT_AUDIT_GENERATED_(7E)
  6
Continuous
 62
     7
100
AcDbLine
 10
100.8191038663
 20
140.8568781959
 30
0.0
 11
100.8287822816
 21
141.391513883
 31
0.0
  0
LINE
  5
153
330
125
100
AcDbEntity
  8
$DDT_AUDIT_GENERATED_(7E)
  6
Continuous
 62
     7
100
AcDbLine
 10
100.7835468249
 20
141.391513883
 30
0.0
 11
100.7737861326
 21
140.864077184
 31
0.0
  0
LINE
  5
154
330
125
100
AcDbEntity
  8
$DDT_AUDIT_GENERATED_(7E)
  6
Continuous
 62
     7
100
AcDbLine
 10
115.4482306284
 20
140.8604445495
 30
0.0
 11
115.4384027109
 21
141.391513883
 31
0.0
  0
LINE
  5
155
330
125
100
AcDbEntity
  8
$DDT_AUDIT_GENERATED_(7E)
  6
Continuous
 62
     7
100
AcDbLine
 10
115.3931672542
 20
141.391513883
 30
0.0
 11
115.4029051918
 21
140.853590188
 31
0.0
  0
ARC
  5
156
330
125
100
AcDbEntity
  8
$DDT_AUDIT_GENERATED_(7E)
  6
Continuous
 62
     7
100
AcDbCircle
 10
133.8167095113
 20
151.3641300559
 30
0.0
 40
0.6311394050837985
100
AcDbArc
 50
181.2257055837
 51
185.3815758282
  0
SPLINE
  5
157
330
125
100
AcDbEntity
  8
$DDT_AUDIT_GENERATED_(7E)
  6
Continuous
 62
     7
100
AcDbSpline
210
0.0
220
0.0
230
1.0
 70
     8
 71
     3
 72
     8
 73
     4
 74
     0
 42
0.0000001777353058
 43
0.0000000001
 40
0.0
 40
0.0
 40
0.0
 40
0.0
 40
1.0
 40
1.0
 40
1.0
 40
1.0
 10
83.02057632242851
 20
151.3504263873226
 30
0.0
 10
83.03073179308363
 20
151.3505628048657
 30
0.0
 10
83.02712407020988
 20
151.3347663584888
 30
0.0
 10
83.02551181415113
 20
151.3049059879596
 30
0.0
  0
LINE
  5
158
330
125
100
AcDbEntity
  8
$DDT_AUDIT_GENERATED_(7E)
  6
Continuous
 62
     7
100
AcDbLine
 10
131.5996677699
 20
150.3677724693
 30
0.0
 11
131.7528363774
 21
151.0787073665
 31
0.0
  0
LINE
  5
159
330
125
100
AcDbEntity
  8
$DDT_AUDIT_GENERATED_(7E)
  6
Continuous
 62
     7
100
AcDbLine
 10
84.4647641771
 20
151.0778635175
 30
0.0
 11
84.6113093649
 21
150.3996915473
 31
0.0
  0
ELLIPSE
  5
15A
330
125
100
AcDbEntity
  8
$DDT_AUDIT_GENERATED_(7E)
  6
Continuous
 62
     7
100
AcDbEllipse
 10
132.0509054884
 20
151.0505570756
 30
0.0
 11
0.2954841153111759
 21
-0.05185689538315941
 31
0.0
210
0.0
220
0.0
230
1.0
 40
0.7808903672
 41
3.141592653589793
 42
3.243347003238688
  0
ELLIPSE
  5
15B
330
125
100
AcDbEntity
  8
$DDT_AUDIT_GENERATED_(7E)
  6
Continuous
 62
     7
100
AcDbEllipse
 10
132.4379650403
 20
151.0505570756
 30
0.0
 11
0.0
 21
0.2999999999999545
 31
0.0
210
0.0
220
0.0
230
1.0
 40
1.0
 41
0.0
 42
1.170344176079092
  0
ARC
  5
15C
330
125
100
AcDbEntity
  8
$DDT_AUDIT_GENERATED_(7E)
  6
Continuous
 62
     7
100
AcDbCircle
 10
83.0238535373
 20
150.8138224456
 30
0.0
 40
0.4910863421334147
100
AcDbArc
 50
89.8065259918
 51
182.7715438952
  0
ELLIPSE
  5
15D
330
125
100
AcDbEntity
  8
$DDT_AUDIT_GENERATED_(7E)
  6
Continuous
 62
     7
100
AcDbEllipse
 10
83.0490100968
 20
151.0508018659
 30
0.0
 11
-0.02843394813970349
 21
0.2996245083129734
 31
0.0
210
0.0
220
0.0
230
1.0
 40
0.0038421333
 41
5.724366421626772
 42
6.283034610900837
  0
ARC
  5
15E
330
125
100
AcDbEntity
  8
$DDT_AUDIT_GENERATED_(7E)
  6
Continuous
 62
     7
100
AcDbCircle
 10
83.0306498048
 20
150.8496625418
 30
0.0
 40
0.5008651554932542
100
AcDbArc
 50
91.1524198353
 51
186.8324330849
  0
SPLINE
  5
15F
330
125
100
AcDbEntity
  8
$DDT_AUDIT_GENERATED_(7E)
  6
Continuous
 62
     7
100
AcDbSpline
210
0.0
220
0.0
230
1.0
 70
     8
 71
     3
 72
    16
 73
    12
 74
     0
 42
0.0000000124400192
 43
0.0000000001
 40
0.0
 40
0.0
 40
0.0
 40
0.0
 40
0.086006259176257
 40
0.1701415977082658
 40
0.2531303079250924
 40
0.3354828756441707
 40
0.4175369575363914
 40
0.4995092079907715
 40
0.663484631398489
 40
0.8292104183325791
 40
1.0
 40
1.0
 40
1.0
 40
1.0
 10
133.188352058324
 20
151.3049366441315
 30
0.0
 10
133.2148034535537
 20
151.3031500055243
 30
0.0
 10
133.2619088745253
 20
151.2996845560657
 30
0.0
 10
133.3303703915652
 20
151.2828417467508
 30
0.0
 10
133.394907914518
 20
151.258417804818
 30
0.0
 10
133.454827673362
 20
151.2263466794398
 30
0.0
 10
133.5094312664263
 20
151.1875878578059
 30
0.0
 10
133.5742886771797
 20
151.1279720596847
 30
0.0
 10
133.6384273584026
 20
151.0397608447165
 30
0.0
 10
133.6855874619415
 20
150.9179396311335
 30
0.0
 10
133.6837673383861
 20
150.8331230415748
 30
0.0
 10
133.6828435822382
 20
150.7900765979328
 30
0.0
  0
SPLINE
  5
160
330
125
100
AcDbEntity
  8
$DDT_AUDIT_GENERATED_(7E)
  6
Continuous
 62
     7
100
AcDbSpline
210
0.0
220
0.0
230
1.0
 70
     8
 71
     3
 72
     8
 73
     4
 74
     0
 42
0.0000002055889235
 43
0.0000000001
 40
0.0
 40
0.0
 40
0.0
 40
0.0
 40
1.0
 40
1.0
 40
1.0
 40
1.0
 10
133.188352058324
 20
151.3049366441315
 30
0.0
 10
133.1936427830815
 20
151.3344944107523
 30
0.0
 10
133.1964663843988
 20
151.3504277893059
 30
0.0
 10
133.1988975727847
 20
151.3503843804481
 30
0.0
  0
ARC
  5
161
330
125
100
AcDbEntity
  8
$DDT_AUDIT_GENERATED_(7E)
  6
Continuous
 62
     7
100
AcDbCircle
 10
133.1854606348
 20
150.849629194
 30
0.0
 40
0.5009354330498639
100
AcDbArc
 50
353.1723710618
 51
88.4629312737
  0
LINE
  5
162
330
125
100
AcDbEntity
  8
$DDT_AUDIT_GENERATED_(7E)
  6
Continuous
 62
     7
100
AcDbLine
 10
133.1857162464
 20
151.3505570756
 30
0.0
 11
133.1988975375
 21
151.3503831445
 31
0.0
  0
ELLIPSE
  5
163
330
125
100
AcDbEntity
  8
$DDT_AUDIT_GENERATED_(7E)
  6
Continuous
 62
     7
100
AcDbEllipse
 10
133.5351184165
 20
150.8505570756
 30
0.0
 11
0.0
 21
0.4999448504658649
 31
0.0
210
0.0
220
0.0
230
1.0
 40
1.0
 41
4.591117151580455
 42
6.283185307179586
  0
ARC
  5
164
330
125
100
AcDbEntity
  8
$DDT_AUDIT_GENERATED_(7E)
  6
Continuous
 62
     7
100
AcDbCircle
 10
108.1081191066
 20
974.0822677578
 30
0.0
 40
862.9596770311946
100
AcDbArc
 50
269.3005996201
 51
270.6993968702
  0
ARC
  5
165
330
125
100
AcDbEntity
  8
$DDT_AUDIT_GENERATED_(7E)
  6
Continuous
 62
     7
100
AcDbCircle
 10
-5994.9191416754
 20
115.1450158931
 30
0.0
 40
6124.963720146345
100
AcDbArc
 50
359.9450311728
 51
0.028193605
  0
ARC
  5
166
330
125
100
AcDbEntity
  8
$DDT_AUDIT_GENERATED_(7E)
  6
Continuous
 62
     7
100
AcDbCircle
 10
129.5417597065
 20
109.2689215969
 30
0.0
 40
0.5000000000105785
100
AcDbArc
 50
352.9480501618
 51
359.9436658221
  0
ARC
  5
167
330
125
100
AcDbEntity
  8
$DDT_AUDIT_GENERATED_(7E)
  6
Continuous
 62
     7
100
AcDbCircle
 10
6212.7361653831
 20
115.1453898177
 30
0.0
 40
6126.564558511403
100
AcDbArc
 50
179.9718172525
 51
180.0549579579
  0
ARC
  5
168
330
125
100
AcDbEntity
  8
$DDT_AUDIT_GENERATED_(7E)
  6
Continuous
 62
     7
100
AcDbCircle
 10
129.2469691565
 20
106.885909457
 30
0.0
 40
0.4999999999999908
100
AcDbArc
 50
270.2135736428
 51
352.9480518443
  0
ARC
  5
169
330
125
100
AcDbEntity
  8
$DDT_AUDIT_GENERATED_(7E)
  6
Continuous
 62
     7
100
AcDbCircle
 10
86.6744252579
 20
109.2689220203
 30
0.0
 40
0.5000000000000007
100
AcDbArc
 50
180.0563341672
 51
187.0519494105
  0
ARC
  5
16A
330
125
100
AcDbEntity
  8
$DDT_AUDIT_GENERATED_(7E)
  6
Continuous
 62
     7
100
AcDbCircle
 10
108.1081518543
 20
5818.1677358282
 30
0.0
 40
5711.817736192318
100
AcDbArc
 50
269.787919072
 51
270.2120797449
  0
ARC
  5
16B
330
125
100
AcDbEntity
  8
$DDT_AUDIT_GENERATED_(7E)
  6
Continuous
 62
     7
100
AcDbCircle
 10
86.9692157884
 20
106.8859098927
 30
0.0
 40
0.4999999999999946
100
AcDbArc
 50
187.0519477301
 51
269.786475383
  0
ARC
  5
16C
330
125
100
AcDbEntity
  8
$DDT_AUDIT_GENERATED_(7E)
  6
Continuous
 62
     7
100
AcDbCircle
 10
132.0509054884
 20
151.0505570756
 30
0.0
 40
0.3000000000000086
100
AcDbArc
 50
90.0
 51
170.0460668739
  0
ARC
  5
16D
330
125
100
AcDbEntity
  8
$DDT_AUDIT_GENERATED_(7E)
  6
Continuous
 62
     7
100
AcDbCircle
 10
84.1667145665
 20
151.0505570756
 30
0.0
 40
0.3000000000000028
100
AcDbArc
 50
10.1132033262
 51
90.0
  0
SPLINE
  5
16E
330
125
100
AcDbEntity
  8
$DDT_AUDIT_GENERATED_(7E)
  6
Continuous
 62
     7
100
AcDbSpline
210
0.0
220
0.0
230
1.0
 70
     8
 71
     3
 72
    45
 73
    41
 74
     0
 42
0.0000000002184363
 43
0.0000000001
 40
0.0
 40
0.0
 40
0.0
 40
0.0
 40
0.018384843121925
 40
0.0449732124944613
 40
0.071547652886829
 40
0.0981158066535863
 40
0.1246826633895312
 40
0.151251165987604
 40
0.1778239370569405
 40
0.2044024909663642
 40
0.2309875555205567
 40
0.2575793171881063
 40
0.2841776007834325
 40
0.3107819972919818
 40
0.3373919524964986
 40
0.3640068268655167
 40
0.3906259348297366
 40
0.4172485695194555
 40
0.4438740173886782
 40
0.4705015658978784
 40
0.4971305065082067
 40
0.5237601345870405
 40
0.5503897201744891
 40
0.5770183524216314
 40
0.6036453213676815
 40
0.6302699083974115
 40
0.6568913845218368
 40
0.6835090109197974
 40
0.7101220429646984
 40
0.736729739527758
 40
0.76333138008607
 40
0.7899262931920392
 40
0.8165139012500949
 40
0.8430937883499727
 40
0.8696658001074805
 40
0.8962301868750706
 40
0.9227878037418712
 40
0.9493403811508225
 40
0.9758908761156477
 40
1.0
 40
1.0
 40
1.0
 40
1.0
 10
129.6557926557399
 20
147.134337355677
 30
0.0
 10
129.4938924645962
 20
146.9712675332771
 30
0.0
 10
129.1564904569884
 20
146.6339303230693
 30
0.0
 10
128.4887219445306
 20
146.0659674827945
 30
0.0
 10
127.7054088692206
 20
145.4710491704184
 30
0.0
 10
126.8506354691576
 20
144.8958281725931
 30
0.0
 10
125.9364864451796
 20
144.3477638323418
 30
0.0
 10
124.9633469968188
 20
143.8272469744158
 30
0.0
 10
123.9350111057992
 20
143.3364616706325
 30
0.0
 10
122.8546109003616
 20
142.8769921370027
 30
0.0
 10
121.7257009417931
 20
142.4504558791406
 30
0.0
 10
120.5519511893334
 20
142.0583230160204
 30
0.0
 10
119.337208668584
 20
141.7019544337236
 30
0.0
 10
118.0854603419977
 20
141.3825835728165
 30
0.0
 10
116.8008227168973
 20
141.1013150683567
 30
0.0
 10
115.4875245979654
 20
140.8591201940446
 30
0.0
 10
114.1498919616427
 20
140.6568341763378
 30
0.0
 10
112.792332488227
 20
140.4951538061921
 30
0.0
 10
111.4193203514068
 20
140.3746356259307
 30
0.0
 10
110.0353810538813
 20
140.2956945230943
 30
0.0
 10
108.6450763296413
 20
140.2586027166219
 30
0.0
 10
107.2529895606056
 20
140.2634890999211
 30
0.0
 10
105.8637138752078
 20
140.3103387453791
 30
0.0
 10
104.4818334926587
 20
140.3989925568119
 30
0.0
 10
103.1119081522625
 20
140.5291476857609
 30
0.0
 10
101.7584551508879
 20
140.7003588021616
 30
0.0
 10
100.4259380661348
 20
140.9120389553294
 30
0.0
 10
99.11875195347801
 20
141.163460851307
 30
0.0
 10
97.84120844371962
 20
141.4537585254168
 30
0.0
 10
96.59752126068962
 20
141.7819290836259
 30
0.0
 10
95.39179006832025
 20
142.1468358410404
 30
0.0
 10
94.22799020650476
 20
142.5472081205508
 30
0.0
 10
93.10993978657669
 20
142.9816557739734
 30
0.0
 10
92.04135017450065
 20
143.4486316951998
 30
0.0
 10
91.0255639019642
 20
143.94659229782
 30
0.0
 10
90.06645677768499
 20
144.4734250248567
 30
0.0
 10
89.16499507697566
 20
145.0286180286992
 30
0.0
 10
88.33200136031527
 20
145.6052104997242
 30
0.0
 10
87.56472979359863
 20
146.2010292885038
 30
0.0
 10
87.1551201821722
 20
146.5713899153617
 30
0.0
 10
86.92570203427016
 20
146.7806616317636
 30
0.0
  0
ARC
  5
16F
330
125
100
AcDbEntity
  8
$DDT_AUDIT_GENERATED_(7E)
  6
Continuous
 62
     7
100
AcDbCircle
 10
82.6810668549
 20
150.8505570756
 30
0.0
 40
0.5000000000000004
100
AcDbArc
 50
90.0
 51
180.0
  0
ARC
  5
170
330
125
100
AcDbEntity
  8
$DDT_AUDIT_GENERATED_(7E)
  6
Continuous
 62
     7
100
AcDbCircle
 10
82.6810668549
 20
150.8505570756
 30
0.0
 40
0.5000000000000004
100
AcDbArc
 50
180.0
 51
187.0580800796
  0
LINE
  5
171
330
125
100
AcDbEntity
  8
$DDT_AUDIT_GENERATED_(C2)
  6
Continuous
 62
     7
100
AcDbLine
 10
185.8098543128
 20
185.9442726815
 30
0.0
 11
187.6092374978
 21
185.9442726815
 31
0.0
  0
LINE
  5
172
330
125
100
AcDbEntity
  8
$DDT_AUDIT_GENERATED_(C2)
  6
Continuous
 62
     7
100
AcDbLine
 10
187.6092374978
 20
185.9442726815
 30
0.0
 11
187.3068399905
 21
174.3961777823
 31
0.0
  0
LINE
  5
173
330
125
100
AcDbEntity
  8
$DDT_AUDIT_GENERATED_(C2)
  6
Continuous
 62
     7
100
AcDbLine
 10
28.9116350051
 20
174.3961777823
 30
0.0
 11
28.6092374978
 21
185.9442726815
 31
0.0
  0
LINE
  5
174
330
125
100
AcDbEntity
  8
$DDT_AUDIT_GENERATED_(C2)
  6
Continuous
 62
     7
100
AcDbLine
 10
30.4086206828
 20
185.9442726815
 30
0.0
 11
185.8098543128
 21
185.9442726815
 31
0.0
  0
LINE
  5
175
330
125
100
AcDbEntity
  8
$DDT_AUDIT_GENERATED_(C2)
  6
Continuous
 62
     7
100
AcDbLine
 10
28.6092374978
 20
185.9442726815
 30
0.0
 11
30.4086206828
 21
185.9442726815
 31
0.0
  0
ARC
  5
176
330
125
100
AcDbEntity
  8
$DDT_AUDIT_GENERATED_(C2)
  6
Continuous
 62
     7
100
AcDbCircle
 10
108.109237555
 20
5304.667360225
 30
0.0
 40
5132.563793235941
100
AcDbArc
 50
269.7063955754
 51
270.2936044233
  0
ARC
  5
177
330
125
100
AcDbEntity
  8
$DDT_AUDIT_GENERATED_(C2)
  6
Continuous
 62
     7
100
AcDbCircle
 10
134.8383829783
 20
116.6741485244
 30
0.0
 40
55.49845800920838
100
AcDbArc
 50
89.8344518402
 51
90.4420055853
  0
ARC
  5
178
330
125
100
AcDbEntity
  8
$DDT_AUDIT_GENERATED_(C2)
  6
Continuous
 62
     7
100
AcDbCircle
 10
81.4011041763
 20
131.6013238533
 30
0.0
 40
40.57167398572729
100
AcDbArc
 50
89.4250454499
 51
90.4136504485
  0
ARC
  5
179
330
125
100
AcDbEntity
  8
$DDT_AUDIT_GENERATED_(C2)
  6
Continuous
 62
     7
100
AcDbCircle
 10
30.7116870703
 20
174.4177527843
 30
0.0
 40
1.799999999992599
100
AcDbArc
 50
181.4993545166
 51
269.3208309895
  0
ARC
  5
17A
330
125
100
AcDbEntity
  8
$DDT_AUDIT_GENERATED_(C2)
  6
Continuous
 62
     7
100
AcDbCircle
 10
185.506787928
 20
174.4177528857
 30
0.0
 40
1.799999999999354
100
AcDbArc
 50
270.6525037746
 51
358.5011363377
  0
SPLINE
  5
17B
330
125
100
AcDbEntity
  8
$DDT_AUDIT_GENERATED_(C2)
  6
Continuous
 62
     7
100
AcDbSpline
210
0.0
220
0.0
230
1.0
 70
     8
 71
     3
 72
    20
 73
    16
 74
     0
 42
0.0000000001983338
 43
0.0000000001
 40
0.0
 40
0.0
 40
0.0
 40
0.0
 40
0.0318893321838392
 40
0.0838035103211309
 40
0.1412267397295051
 40
0.2041590935112206
 40
0.2726006545430478
 40
0.346551513844638
 40
0.4260117675960383
 40
0.5109815124674049
 40
0.6014608389371526
 40
0.6974498223337294
 40
0.7989485114627842
 40
0.905956914904097
 40
1.0
 40
1.0
 40
1.0
 40
1.0
 10
135.1104220396018
 20
172.1234344284352
 30
0.0
 10
135.6999614554012
 20
172.126821829827
 30
0.0
 10
137.0136445839332
 20
172.1344027738898
 30
0.0
 10
139.4429730833703
 20
172.1498592814438
 30
0.0
 10
142.3190002744907
 20
172.1695593917278
 30
0.0
 10
145.4978654008168
 20
172.1931583531469
 30
0.0
 10
148.9467842497936
 20
172.2208176444664
 30
0.0
 10
152.6758154299341
 20
172.2530315011731
 30
0.0
 10
156.6817732538581
 20
172.2901692415677
 30
0.0
 10
160.966202612912
 20
172.3326016233848
 30
0.0
 10
165.5262178966775
 20
172.3805906018022
 30
0.0
 10
170.3725863886989
 20
172.4344683174834
 30
0.0
 10
175.4618297143701
 20
172.4938117206753
 30
0.0
 10
180.6528350965831
 20
172.5567652610753
 30
0.0
 10
183.7894598663013
 20
172.59611225203
 30
0.0
 10
185.527929505109
 20
172.6179778452696
 30
0.0
  0
SPLINE
  5
17C
330
125
100
AcDbEntity
  8
$DDT_AUDIT_GENERATED_(C2)
  6
Continuous
 62
     7
100
AcDbSpline
210
0.0
220
0.0
230
1.0
 70
     8
 71
     3
 72
    24
 73
    20
 74
     0
 42
0.0000000001983338
 43
0.0000000001
 40
0.0
 40
0.0
 40
0.0
 40
0.0
 40
0.0830566779296194
 40
0.179244515858356
 40
0.2700885024615069
 40
0.3555886507258047
 40
0.435745002644826
 40
0.5092685391828967
 40
0.577637552009636
 40
0.6408521132253926
 40
0.6989122946325728
 40
0.7528442082789454
 40
0.8014093503923018
 40
0.8446077804084078
 40
0.8824395498887304
 40
0.9172901857969653
 40
0.9527869282886698
 40
0.988967741917347
 40
1.0
 40
1.0
 40
1.0
 40
1.0
 10
30.69054527702417
 20
172.6179627657002
 30
0.0
 10
32.22592151827781
 20
172.5986454708651
 30
0.0
 10
35.02297209449211
 20
172.5635325367231
 30
0.0
 10
39.65779978638129
 20
172.5070373224735
 30
0.0
 10
44.21264696872247
 20
172.4533267234179
 30
0.0
 10
48.52945673944546
 20
172.4044058650236
 30
0.0
 10
52.5475487495363
 20
172.3608654523306
 30
0.0
 10
56.27961029758779
 20
172.3223306588196
 30
0.0
 10
59.72652848066689
 20
172.2885079920257
 30
0.0
 10
62.91369603927047
 20
172.2588536346651
 30
0.0
 10
65.85820890691677
 20
172.2329130248488
 30
0.0
 10
68.55658535060402
 20
172.2104283884315
 30
0.0
 10
71.00505543662
 20
172.1911365823469
 30
0.0
 10
73.18341059270257
 20
172.1748812717423
 30
0.0
 10
75.12984640419914
 20
172.1611018726427
 30
0.0
 10
76.951602527279
 20
172.1488046789326
 30
0.0
 10
78.7281660892057
 20
172.1375392138228
 30
0.0
 10
80.15859131475762
 20
172.1285959704175
 30
0.0
 10
80.90410348743897
 20
172.124633377633
 30
0.0
 10
81.108057809099
 20
172.1235496727802
 30
0.0
  0
SPLINE
  5
17D
330
125
100
AcDbEntity
  8
$DDT_AUDIT_GENERATED_(C2)
  6
Continuous
 62
     7
100
AcDbSpline
210
0.0
220
0.0
230
1.0
 70
     8
 71
     3
 72
     9
 73
     5
 74
     0
 42
0.0000001205082514
 43
0.0000000001
 40
0.4511738617055442
 40
0.4511738617055442
 40
0.4511738617055442
 40
0.4511738617055442
 40
0.5129087097929336
 40
0.7153954786973467
 40
0.7153954786973467
 40
0.7153954786973467
 40
0.7153954786973467
 10
135.0807128402963
 20
172.1725387253088
 30
0.0
 10
135.0833269645019
 20
172.1725124983191
 30
0.0
 10
135.0938327603524
 20
172.1723782365105
 30
0.0
 10
135.1014190337542
 20
172.1721279732834
 30
0.0
 10
135.1002078687254
 20
172.1722150894537
 30
0.0
  0
ARC
  5
17E
330
125
100
AcDbEntity
  8
$DDT_AUDIT_GENERATED_(C2)
  6
Continuous
 62
     7
100
AcDbCircle
 10
81.1092374978
 20
172.3233140548
 30
0.0
 40
0.1999999999999993
100
AcDbArc
 50
270.1410420537
 51
310.3513483918
  0
ARC
  5
17F
330
125
100
AcDbEntity
  8
$DDT_AUDIT_GENERATED_(C2)
  6
Continuous
 62
     7
100
AcDbCircle
 10
135.1092374978
 20
172.3233140541
 30
0.0
 40
0.1999999999999922
100
AcDbArc
 50
230.0966171521
 51
270.7823266064
  0
ENDBLK
  5
181
330
125
100
AcDbEntity
  8
0
100
AcDbBlockEnd
  0
ENDSEC
  0
SECTION
  2
ENTITIES
  0
INSERT
  5
5F
330
1F
100
AcDbEntity
  8
Default
100
AcDbBlockReference
  2
SEANNOT_GROUP
 10
0.0
 20
0.0
 30
0.0
  0
LINE
  5
65
330
1F
100
AcDbEntity
  8
Default
  6
Continuous
 62
     7
100
AcDbLine
 10
93.0012617895
 20
446.6872803688
 30
0.0
 11
123.2172132061
 21
446.6872803688
 31
0.0
  0
INSERT
  5
67
330
1F
100
AcDbEntity
  8
Default
100
AcDbBlockReference
  2
SEANNOT_GROUP1
 10
0.0
 20
0.0
 30
0.0
  0
INSERT
  5
6D
330
1F
100
AcDbEntity
  8
Default
100
AcDbBlockReference
  2
SEANNOT_GROUP2
 10
0.0
 20
0.0
 30
0.0
  0
INSERT
  5
73
330
1F
100
AcDbEntity
  8
Default
100
AcDbBlockReference
  2
SE
 10
0.0
 20
0.0
 30
0.0
  0
INSERT
  5
D8
330
1F
100
AcDbEntity
  8
Default
100
AcDbBlockReference
  2
SE1
 10
0.0
 20
0.0
 30
0.0
  0
INSERT
  5
126
330
1F
100
AcDbEntity
  8
Default
100
AcDbBlockReference
  2
SE2
 10
0.0
 20
0.0
 30
0.0
  0
TEXT
  5
183
330
1F
100
AcDbEntity
  8
Default
  6
Continuous
 62
     7
100
AcDbText
 10
5.9362635081
 20
53.4225120485
 30
0.0
 40
10.0
  1
Grohe AG^J
  7
SEACAD_seiso_ttf
 11
5.9362635081
 21
63.4225120485
 31
0.0
100
AcDbText
 73
     3
  0
TEXT
  5
184
330
1F
100
AcDbEntity
  8
Default
  6
Continuous
 62
     7
100
AcDbText
 10
5.9362635081
 20
37.0588756849
 30
0.0
 40
10.0
  1
 
  7
SEACAD_seiso_ttf
 11
5.9362635081
 21
47.0588756849
 31
0.0
100
AcDbText
 73
     3
  0
TEXT
  5
185
330
1F
100
AcDbEntity
  8
Default
  6
Continuous
 62
     7
100
AcDbText
 10
5.9362635081
 20
20.6952393213
 30
0.0
 40
10.0
  1
ecn: 
  7
SEACAD_seiso_ttf
 11
5.9362635081
 21
30.6952393213
 31
0.0
100
AcDbText
 73
     3
  0
TEXT
  5
186
330
1F
100
AcDbEntity
  8
Default
  6
Continuous
 62
     7
100
AcDbText
 10
5.9362635081
 20
4.3316029576
 30
0.0
 40
10.0
  1
unit: mm
  7
SEACAD_seiso_ttf
 11
5.9362635081
 21
14.3316029576
 31
0.0
100
AcDbText
 73
     3
  0
LINE
  5
187
330
1F
100
AcDbEntity
  8
Default
  6
Continuous
 62
     7
100
AcDbLine
 10
0.0
 20
0.0
 30
0.0
 11
100.0
 21
0.0
 31
0.0
  0
LINE
  5
188
330
1F
100
AcDbEntity
  8
Default
  6
Continuous
 62
     7
100
AcDbLine
 10
0.0
 20
0.0
 30
0.0
 11
0.0
 21
100.0
 31
0.0
  0
TEXT
  5
189
330
1F
100
AcDbEntity
  8
Default
  6
Continuous
 62
     7
100
AcDbText
 10
24.3923665681
 20
-18.2375342018
 30
0.0
 40
10.0
  1
100 mm
  7
SEACAD_seiso_ttf
 11
24.3923665681
 21
-8.2375342018
 31
0.0
100
AcDbText
 73
     3
  0
TEXT
  5
18A
330
1F
100
AcDbEntity
  8
Default
  6
Continuous
 62
     7
100
AcDbText
 10
-7.6150308803
 20
24.6231930421
 30
0.0
 40
10.0
  1
100 mm
 50
90.0
  7
SEACAD_seiso_ttf
 11
-17.6150308803
 21
24.6231930421
 31
0.0
100
AcDbText
 73
     3
  0
TEXT
  5
18B
330
1F
100
AcDbEntity
  8
Default
  6
Continuous
 62
     7
100
AcDbText
 10
28.4878128572
 20
20.0907663715
 30
0.0
 40
10.0
  1
220918
  7
SEACAD_seiso_ttf
 11
28.4878128572
 21
30.0907663715
 31
0.0
100
AcDbText
 73
     3
  0
TEXT
  5
18C
330
1F
100
AcDbEntity
  8
Default
  6
Continuous
 62
     7
100
AcDbText
 10
5.9012241913
 20
36.7242780188
 30
0.0
 40
10.0
  1
19898000
  7
SEACAD_seiso_ttf
 11
5.9012241913
 21
46.7242780188
 31
0.0
100
AcDbText
 73
     3
  0
ENDSEC
  0
SECTION
  2
OBJECTS
  0
DICTIONARY
  5
C
330
0
100
AcDbDictionary
281
     1
  3
ACAD_GROUP
350
D
  3
ACAD_LAYOUT
350
1A
  3
ACAD_MLEADERSTYLE
350
190
  3
ACAD_MLINESTYLE
350
17
  3
ACAD_PLOTSETTINGS
350
19
  3
ACAD_PLOTSTYLENAME
350
E
  3
ACAD_SCALELIST
350
3B
  3
ACAD_TABLESTYLE
350
18F
  3
ACAD_VISUALSTYLE
350
2A
  3
AcDbVariableDictionary
350
18D
  0
DICTIONARY
  5
D
102
{ACAD_REACTORS
330
C
102
}
330
C
100
AcDbDictionary
281
     1
  0
DICTIONARY
  5
1A
102
{ACAD_REACTORS
330
C
102
}
330
C
100
AcDbDictionary
281
     1
  3
Layout1
350
1E
  3
Model
350
22
  0
DICTIONARY
  5
190
102
{ACAD_REACTORS
330
C
102
}
330
C
100
AcDbDictionary
281
     1
  0
DICTIONARY
  5
17
102
{ACAD_REACTORS
330
C
102
}
330
C
100
AcDbDictionary
281
     1
  3
Standard
350
18
  0
DICTIONARY
  5
19
102
{ACAD_REACTORS
330
C
102
}
330
C
100
AcDbDictionary
281
     1
  0
ACDBDICTIONARYWDFLT
  5
E
102
{ACAD_REACTORS
330
C
102
}
330
C
100
AcDbDictionary
281
     1
  3
Normal
350
F
100
AcDbDictionaryWithDefault
340
F
  0
DICTIONARY
  5
3B
102
{ACAD_REACTORS
330
C
102
}
330
C
100
AcDbDictionary
281
     1
  3
A0
350
3C
  3
A1
350
3D
  3
A2
350
3E
  3
A3
350
3F
  3
A4
350
40
  3
A5
350
41
  3
A6
350
42
  3
A7
350
43
  3
A8
350
44
  3
A9
350
45
  3
B0
350
46
  3
B1
350
47
  3
B2
350
48
  3
B3
350
49
  3
B4
350
4A
  3
B5
350
4B
  3
B6
350
4C
  3
B7
350
4D
  3
B8
350
4E
  3
B9
350
4F
  3
C0
350
50
  3
C1
350
51
  3
C2
350
52
  3
C3
350
53
  3
C4
350
54
  3
C5
350
55
  3
C6
350
56
  3
C7
350
57
  3
C8
350
58
  3
C9
350
59
  3
D0
350
5A
  3
D1
350
5B
  3
D2
350
5C
  0
DICTIONARY
  5
18F
102
{ACAD_REACTORS
330
C
102
}
330
C
100
AcDbDictionary
281
     1
  0
DICTIONARY
  5
2A
102
{ACAD_REACTORS
330
C
102
}
330
C
100
AcDbDictionary
281
     1
  3
2dWireframe
350
2F
  3
3D Hidden
350
31
  3
3dWireframe
350
30
  3
Basic
350
32
  3
Brighten
350
36
  3
ColorChange
350
3A
  3
Conceptual
350
34
  3
Dim
350
35
  3
Facepattern
350
39
  3
Flat
350
2B
  3
FlatWithEdges
350
2C
  3
Gouraud
350
2D
  3
GouraudWithEdges
350
2E
  3
Linepattern
350
38
  3
Realistic
350
33
  3
Thicken
350
37
  0
DICTIONARY
  5
18D
102
{ACAD_REACTORS
330
C
102
}
330
C
100
AcDbDictionary
281
     1
  3
CANNOSCALE
350
18E
  3
PSOLHEIGHT
350
192
  3
PSOLWIDTH
350
191
  0
LAYOUT
  5
1E
102
{ACAD_REACTORS
330
1A
102
}
330
1A
100
AcDbPlotSettings
  1

  2
none_device
  4

  6

 40
0.0
 41
0.0
 42
0.0
 43
0.0
 44
0.0
 45
0.0
 46
0.0
 47
0.0
 48
0.0
 49
0.0
140
0.0
141
0.0
142
1.0
143
1.0
 70
   688
 72
     0
 73
     0
 74
     5
  7

 75
    16
147
1.0
148
0.0
149
0.0
100
AcDbLayout
  1
Layout1
 70
     1
 71
     1
 10
0.0
 20
0.0
 11
1682.0
 21
2378.0
 12
0.0
 22
0.0
 32
0.0
 14
0.0
 24
0.0
 34
0.0
 15
1682.0
 25
2378.0
 35
0.0
146
0.0
 13
0.0
 23
0.0
 33
0.0
 16
1.0
 26
0.0
 36
0.0
 17
0.0
 27
1.0
 37
0.0
 76
     0
330
1B
  0
LAYOUT
  5
22
102
{ACAD_REACTORS
330
1A
102
}
330
1A
100
AcDbPlotSettings
  1

  2
none_device
  4

  6

 40
0.0
 41
0.0
 42
0.0
 43
0.0
 44
0.0
 45
0.0
 46
0.0
 47
0.0
 48
0.0
 49
0.0
140
0.0
141
0.0
142
1.0
143
1.0
 70
  1712
 72
     0
 73
     0
 74
     0
  7

 75
     0
147
1.0
148
0.0
149
0.0
100
AcDbLayout
  1
Model
 70
     1
 71
     0
 10
0.0
 20
0.0
 11
1682.0
 21
2378.0
 12
0.0
 22
0.0
 32
0.0
 14
0.0
 24
0.0
 34
0.0
 15
1682.0
 25
2378.0
 35
0.0
146
0.0
 13
0.0
 23
0.0
 33
0.0
 16
1.0
 26
0.0
 36
0.0
 17
0.0
 27
1.0
 37
0.0
 76
     0
330
1F
331
29
  0
MLINESTYLE
  5
18
102
{ACAD_REACTORS
330
17
102
}
330
17
100
AcDbMlineStyle
  2
Standard
 70
     0
  3

 62
   256
 51
90.0
 52
90.0
 71
     2
 49
0.5
 62
   256
  6
BYLAYER
 49
-0.5
 62
   256
  6
BYLAYER
  0
ACDBPLACEHOLDER
  5
F
102
{ACAD_REACTORS
330
E
102
}
330
E
  0
SCALE
  5
3C
102
{ACAD_REACTORS
330
3B
102
}
330
3B
100
AcDbScale
 70
     0
300
1:1
140
1.0
141
1.0
290
     1
  0
SCALE
  5
3D
102
{ACAD_REACTORS
330
3B
102
}
330
3B
100
AcDbScale
 70
     0
300
1:2
140
1.0
141
2.0
290
     0
  0
SCALE
  5
3E
102
{ACAD_REACTORS
330
3B
102
}
330
3B
100
AcDbScale
 70
     0
300
1:4
140
1.0
141
4.0
290
     0
  0
SCALE
  5
3F
102
{ACAD_REACTORS
330
3B
102
}
330
3B
100
AcDbScale
 70
     0
300
1:5
140
1.0
141
5.0
290
     0
  0
SCALE
  5
40
102
{ACAD_REACTORS
330
3B
102
}
330
3B
100
AcDbScale
 70
     0
300
1:8
140
1.0
141
8.0
290
     0
  0
SCALE
  5
41
102
{ACAD_REACTORS
330
3B
102
}
330
3B
100
AcDbScale
 70
     0
300
1:10
140
1.0
141
10.0
290
     0
  0
SCALE
  5
42
102
{ACAD_REACTORS
330
3B
102
}
330
3B
100
AcDbScale
 70
     0
300
1:16
140
1.0
141
16.0
290
     0
  0
SCALE
  5
43
102
{ACAD_REACTORS
330
3B
102
}
330
3B
100
AcDbScale
 70
     0
300
1:20
140
1.0
141
20.0
290
     0
  0
SCALE
  5
44
102
{ACAD_REACTORS
330
3B
102
}
330
3B
100
AcDbScale
 70
     0
300
1:30
140
1.0
141
30.0
290
     0
  0
SCALE
  5
45
102
{ACAD_REACTORS
330
3B
102
}
330
3B
100
AcDbScale
 70
     0
300
1:40
140
1.0
141
40.0
290
     0
  0
SCALE
  5
46
102
{ACAD_REACTORS
330
3B
102
}
330
3B
100
AcDbScale
 70
     0
300
1:50
140
1.0
141
50.0
290
     0
  0
SCALE
  5
47
102
{ACAD_REACTORS
330
3B
102
}
330
3B
100
AcDbScale
 70
     0
300
1:100
140
1.0
141
100.0
290
     0
  0
SCALE
  5
48
102
{ACAD_REACTORS
330
3B
102
}
330
3B
100
AcDbScale
 70
     0
300
2:1
140
2.0
141
1.0
290
     0
  0
SCALE
  5
49
102
{ACAD_REACTORS
330
3B
102
}
330
3B
100
AcDbScale
 70
     0
300
4:1
140
4.0
141
1.0
290
     0
  0
SCALE
  5
4A
102
{ACAD_REACTORS
330
3B
102
}
330
3B
100
AcDbScale
 70
     0
300
8:1
140
8.0
141
1.0
290
     0
  0
SCALE
  5
4B
102
{ACAD_REACTORS
330
3B
102
}
330
3B
100
AcDbScale
 70
     0
300
10:1
140
10.0
141
1.0
290
     0
  0
SCALE
  5
4C
102
{ACAD_REACTORS
330
3B
102
}
330
3B
100
AcDbScale
 70
     0
300
100:1
140
100.0
141
1.0
290
     0
  0
SCALE
  5
4D
102
{ACAD_REACTORS
330
3B
102
}
330
3B
100
AcDbScale
 70
     0
300
1/128" = 1'-0"
140
0.0078125
141
12.0
290
     0
  0
SCALE
  5
4E
102
{ACAD_REACTORS
330
3B
102
}
330
3B
100
AcDbScale
 70
     0
300
1/64" = 1'-0"
140
0.015625
141
12.0
290
     0
  0
SCALE
  5
4F
102
{ACAD_REACTORS
330
3B
102
}
330
3B
100
AcDbScale
 70
     0
300
1/32" = 1'-0"
140
0.03125
141
12.0
290
     0
  0
SCALE
  5
50
102
{ACAD_REACTORS
330
3B
102
}
330
3B
100
AcDbScale
 70
     0
300
1/16" = 1'-0"
140
0.0625
141
12.0
290
     0
  0
SCALE
  5
51
102
{ACAD_REACTORS
330
3B
102
}
330
3B
100
AcDbScale
 70
     0
300
3/32" = 1'-0"
140
0.09375
141
12.0
290
     0
  0
SCALE
  5
52
102
{ACAD_REACTORS
330
3B
102
}
330
3B
100
AcDbScale
 70
     0
300
1/8" = 1'-0"
140
0.125
141
12.0
290
     0
  0
SCALE
  5
53
102
{ACAD_REACTORS
330
3B
102
}
330
3B
100
AcDbScale
 70
     0
300
3/16" = 1'-0"
140
0.1875
141
12.0
290
     0
  0
SCALE
  5
54
102
{ACAD_REACTORS
330
3B
102
}
330
3B
100
AcDbScale
 70
     0
300
1/4" = 1'-0"
140
0.25
141
12.0
290
     0
  0
SCALE
  5
55
102
{ACAD_REACTORS
330
3B
102
}
330
3B
100
AcDbScale
 70
     0
300
3/8" = 1'-0"
140
0.375
141
12.0
290
     0
  0
SCALE
  5
56
102
{ACAD_REACTORS
330
3B
102
}
330
3B
100
AcDbScale
 70
     0
300
1/2" = 1'-0"
140
0.5
141
12.0
290
     0
  0
SCALE
  5
57
102
{ACAD_REACTORS
330
3B
102
}
330
3B
100
AcDbScale
 70
     0
300
3/4" = 1'-0"
140
0.75
141
12.0
290
     0
  0
SCALE
  5
58
102
{ACAD_REACTORS
330
3B
102
}
330
3B
100
AcDbScale
 70
     0
300
1" = 1'-0"
140
1.0
141
12.0
290
     0
  0
SCALE
  5
59
102
{ACAD_REACTORS
330
3B
102
}
330
3B
100
AcDbScale
 70
     0
300
1-1/2" = 1'-0"
140
1.5
141
12.0
290
     0
  0
SCALE
  5
5A
102
{ACAD_REACTORS
330
3B
102
}
330
3B
100
AcDbScale
 70
     0
300
3" = 1'-0"
140
3.0
141
12.0
290
     0
  0
SCALE
  5
5B
102
{ACAD_REACTORS
330
3B
102
}
330
3B
100
AcDbScale
 70
     0
300
6" = 1'-0"
140
6.0
141
12.0
290
     0
  0
SCALE
  5
5C
102
{ACAD_REACTORS
330
3B
102
}
330
3B
100
AcDbScale
 70
     0
300
1'-0" = 1'-0"
140
12.0
141
12.0
290
     0
  0
VISUALSTYLE
  5
2F
102
{ACAD_REACTORS
330
2A
102
}
330
2A
100
AcDbVisualStyle
  2
2dWireframe
 70
     4
 71
     0
 72
     2
 73
     0
 90
        0
 40
-0.6
 41
-30.0
 62
     5
 63
     7
 74
     1
 91
        4
 64
     7
 65
   257
 75
     1
175
     1
 42
1.0
 92
        0
 66
   257
 43
1.0
 76
     1
 77
     6
 78
     2
 67
     7
 79
     5
170
     0
171
     0
290
     0
174
     0
 93
        1
 44
0.0
173
     0
291
     0
 45
0.0
1001
ACAD
1000
AcDbSavedByObjectVersion
1070
     0
  0
VISUALSTYLE
  5
31
102
{ACAD_REACTORS
330
2A
102
}
330
2A
100
AcDbVisualStyle
  2
3D Hidden
 70
     6
 71
     1
 72
     2
 73
     2
 90
        0
 40
-0.6
 41
-30.0
 62
     5
 63
     7
 74
     2
 91
        2
 64
     7
 65
   257
 75
     2
175
     1
 42
40.0
 92
        0
 66
   257
 43
1.0
 76
     1
 77
     6
 78
     2
 67
     7
 79
     3
170
     0
171
     0
290
     0
174
     0
 93
        1
 44
0.0
173
     0
291
     0
 45
0.0
1001
ACAD
1000
AcDbSavedByObjectVersion
1070
     0
  0
VISUALSTYLE
  5
30
102
{ACAD_REACTORS
330
2A
102
}
330
2A
100
AcDbVisualStyle
  2
3dWireframe
 70
     5
 71
     0
 72
     2
 73
     0
 90
        0
 40
-0.6
 41
-30.0
 62
     5
 63
     7
 74
     1
 91
        4
 64
     7
 65
   257
 75
     1
175
     1
 42
1.0
 92
        0
 66
   257
 43
1.0
 76
     1
 77
     6
 78
     2
 67
     7
 79
     5
170
     0
171
     0
290
     0
174
     0
 93
        1
 44
0.0
173
     0
291
     0
 45
0.0
1001
ACAD
1000
AcDbSavedByObjectVersion
1070
     0
  0
VISUALSTYLE
  5
32
102
{ACAD_REACTORS
330
2A
102
}
330
2A
100
AcDbVisualStyle
  2
Basic
 70
     7
 71
     1
 72
     0
 73
     1
 90
        0
 40
-0.6
 41
-30.0
 62
     5
 63
     7
 74
     0
 91
        4
 64
     7
 65
   257
 75
     1
175
     1
 42
1.0
 92
        8
 66
     7
 43
1.0
 76
     1
 77
     6
 78
     2
 67
     7
 79
     5
170
     0
171
     0
290
     0
174
     0
 93
        1
 44
0.0
173
     0
291
     1
 45
0.0
1001
ACAD
1000
AcDbSavedByObjectVersion
1070
     0
  0
VISUALSTYLE
  5
36
102
{ACAD_REACTORS
330
2A
102
}
330
2A
100
AcDbVisualStyle
  2
Brighten
 70
    12
 71
     2
 72
     2
 73
     0
 90
        0
 40
-0.6
 41
-30.0
 62
     5
 63
     7
 74
     1
 91
        4
 64
     7
 65
   257
 75
     1
175
     1
 42
1.0
 92
        8
 66
     7
 43
1.0
 76
     1
 77
     6
 78
     2
 67
     7
 79
     5
170
     0
171
     0
290
     0
174
     0
 93
        1
 44
50.0
173
     0
291
     1
 45
0.0
1001
ACAD
1000
AcDbSavedByObjectVersion
1070
     0
  0
VISUALSTYLE
  5
3A
102
{ACAD_REACTORS
330
2A
102
}
330
2A
100
AcDbVisualStyle
  2
ColorChange
 70
    16
 71
     2
 72
     2
 73
     3
 90
        0
 40
-0.6
 41
-30.0
 62
     5
 63
     8
 74
     1
 91
        4
 64
     7
 65
   257
 75
     1
175
     1
 42
1.0
 92
        8
 66
     8
 43
1.0
 76
     1
 77
     6
 78
     2
 67
     7
 79
     5
170
     0
171
     0
290
     0
174
     0
 93
        1
 44
0.0
173
     0
291
     1
 45
0.0
1001
ACAD
1000
AcDbSavedByObjectVersion
1070
     0
  0
VISUALSTYLE
  5
34
102
{ACAD_REACTORS
330
2A
102
}
330
2A
100
AcDbVisualStyle
  2
Conceptual
 70
     9
 71
     3
 72
     2
 73
     0
 90
        0
 40
-0.6
 41
-30.0
 62
     5
 63
     7
 74
     2
 91
        2
 64
     7
 65
   257
 75
     1
175
     1
 42
40.0
 92
        8
 66
     7
 43
1.0
 76
     1
 77
     6
 78
     2
 67
     7
 79
     3
170
     0
171
     0
290
     0
174
     0
 93
        1
 44
0.0
173
     0
291
     0
 45
0.0
1001
ACAD
1000
AcDbSavedByObjectVersion
1070
     0
  0
VISUALSTYLE
  5
35
102
{ACAD_REACTORS
330
2A
102
}
330
2A
100
AcDbVisualStyle
  2
Dim
 70
    11
 71
     2
 72
     2
 73
     0
 90
        0
 40
-0.6
 41
-30.0
 62
     5
 63
     7
 74
     1
 91
        4
 64
     7
 65
   257
 75
     1
175
     1
 42
1.0
 92
        8
 66
     7
 43
1.0
 76
     1
 77
     6
 78
     2
 67
     7
 79
     5
170
     0
171
     0
290
     0
174
     0
 93
        1
 44
-50.0
173
     0
291
     1
 45
0.0
1001
ACAD
1000
AcDbSavedByObjectVersion
1070
     0
  0
VISUALSTYLE
  5
39
102
{ACAD_REACTORS
330
2A
102
}
330
2A
100
AcDbVisualStyle
  2
Facepattern
 70
    15
 71
     2
 72
     2
 73
     0
 90
        0
 40
-0.6
 41
-30.0
 62
     5
 63
     7
 74
     1
 91
        4
 64
     7
 65
   257
 75
     1
175
     1
 42
1.0
 92
        8
 66
     7
 43
1.0
 76
     1
 77
     6
 78
     2
 67
     7
 79
     5
170
     0
171
     0
290
     0
174
     0
 93
        1
 44
0.0
173
     0
291
     1
 45
0.0
1001
ACAD
1000
AcDbSavedByObjectVersion
1070
     0
  0
VISUALSTYLE
  5
2B
102
{ACAD_REACTORS
330
2A
102
}
330
2A
100
AcDbVisualStyle
  2
Flat
 70
     0
 71
     2
 72
     1
 73
     1
 90
        2
 40
-0.6
 41
30.0
 62
     5
 63
     7
 74
     0
 91
        4
 64
     7
 65
   257
 75
     1
175
     1
 42
1.0
 92
        8
 66
     7
 43
1.0
 76
     1
 77
     6
 78
     2
 67
     7
 79
     5
170
     0
171
     0
290
     0
174
     0
 93
       13
 44
0.0
173
     0
291
     1
 45
0.0
1001
ACAD
1000
AcDbSavedByObjectVersion
1070
     0
  0
VISUALSTYLE
  5
2C
102
{ACAD_REACTORS
330
2A
102
}
330
2A
100
AcDbVisualStyle
  2
FlatWithEdges
 70
     1
 71
     2
 72
     1
 73
     1
 90
        2
 40
-0.6
 41
30.0
 62
     5
 63
     7
 74
     1
 91
        4
 64
     7
 65
   257
 75
     1
175
     1
 42
1.0
 92
        0
 66
   257
 43
1.0
 76
     1
 77
     6
 78
     2
 67
     7
 79
     5
170
     0
171
     0
290
     0
174
     0
 93
       13
 44
0.0
173
     0
291
     1
 45
0.0
1001
ACAD
1000
AcDbSavedByObjectVersion
1070
     0
  0
VISUALSTYLE
  5
2D
102
{ACAD_REACTORS
330
2A
102
}
330
2A
100
AcDbVisualStyle
  2
Gouraud
 70
     2
 71
     2
 72
     2
 73
     1
 90
        2
 40
-0.6
 41
30.0
 62
     5
 63
     7
 74
     0
 91
        4
 64
     7
 65
   257
 75
     1
175
     1
 42
1.0
 92
        0
 66
     7
 43
1.0
 76
     1
 77
     6
 78
     2
 67
     7
 79
     5
170
     0
171
     0
290
     0
174
     0
 93
       13
 44
0.0
173
     0
291
     1
 45
0.0
1001
ACAD
1000
AcDbSavedByObjectVersion
1070
     0
  0
VISUALSTYLE
  5
2E
102
{ACAD_REACTORS
330
2A
102
}
330
2A
100
AcDbVisualStyle
  2
GouraudWithEdges
 70
     3
 71
     2
 72
     2
 73
     1
 90
        2
 40
-0.6
 41
30.0
 62
     5
 63
     7
 74
     1
 91
        4
 64
     7
 65
   257
 75
     1
175
     1
 42
1.0
 92
        0
 66
   257
 43
1.0
 76
     1
 77
     6
 78
     2
 67
     7
 79
     5
170
     0
171
     0
290
     0
174
     0
 93
       13
 44
0.0
173
     0
291
     1
 45
0.0
1001
ACAD
1000
AcDbSavedByObjectVersion
1070
     0
  0
VISUALSTYLE
  5
38
102
{ACAD_REACTORS
330
2A
102
}
330
2A
100
AcDbVisualStyle
  2
Linepattern
 70
    14
 71
     2
 72
     2
 73
     0
 90
        0
 40
-0.6
 41
-30.0
 62
     5
 63
     7
 74
     1
 91
        4
 64
     7
 65
   257
 75
     7
175
     7
 42
1.0
 92
        8
 66
     7
 43
1.0
 76
     1
 77
     6
 78
     2
 67
     7
 79
     5
170
     0
171
     0
290
     0
174
     0
 93
        1
 44
0.0
173
     0
291
     1
 45
0.0
1001
ACAD
1000
AcDbSavedByObjectVersion
1070
     0
  0
VISUALSTYLE
  5
33
102
{ACAD_REACTORS
330
2A
102
}
330
2A
100
AcDbVisualStyle
  2
Realistic
 70
     8
 71
     2
 72
     2
 73
     0
 90
        0
 40
-0.6
 41
-30.0
 62
     5
 63
     7
 74
     1
 91
        0
 64
     7
 65
   257
 75
     1
175
     1
 42
1.0
 92
        8
 66
     8
 43
1.0
 76
     1
 77
     6
 78
     2
 67
     7
 79
     5
170
     0
171
     0
290
     0
174
     0
 93
       13
 44
0.0
173
     0
291
     0
 45
0.0
1001
ACAD
1000
AcDbSavedByObjectVersion
1070
     0
  0
VISUALSTYLE
  5
37
102
{ACAD_REACTORS
330
2A
102
}
330
2A
100
AcDbVisualStyle
  2
Thicken
 70
    13
 71
     2
 72
     2
 73
     0
 90
        0
 40
-0.6
 41
-30.0
 62
     5
 63
     7
 74
     1
 91
        4
 64
     7
 65
   257
 75
     1
175
     1
 42
1.0
 92
       12
 66
     7
 43
1.0
 76
     1
 77
     6
 78
     2
 67
     7
 79
     5
170
     0
171
     0
290
     0
174
     0
 93
        1
 44
0.0
173
     0
291
     1
 45
0.0
1001
ACAD
1000
AcDbSavedByObjectVersion
1070
     0
  0
DICTIONARYVAR
  5
18E
102
{ACAD_REACTORS
330
18D
102
}
330
18D
100
DictionaryVariables
280
     0
  1
1:1
  0
DICTIONARYVAR
  5
192
102
{ACAD_REACTORS
330
18D
102
}
330
18D
100
DictionaryVariables
280
     0
  1
80.000000
  0
DICTIONARYVAR
  5
191
102
{ACAD_REACTORS
330
18D
102
}
330
18D
100
DictionaryVariables
280
     0
  1
5.000000
  0
ENDSEC
  0
EOF
