  0
SECTION
  2
HEADER
  9
$ACADVER
  1
AC1015
  9
$ACADMAINTVER
 70
     6
  9
$DWGCODEPAGE
  3
ANSI_1252
  9
$INSBASE
 10
0.0
 20
0.0
 30
0.0
  9
$EXTMIN
 10
0.0
 20
0.0
 30
0.0
  9
$EXTMAX
 10
1682.0
 20
2378.0
 30
0.0
  9
$LIMMIN
 10
0.0
 20
0.0
  9
$LIMMAX
 10
1682.0
 20
2378.0
  9
$ORTHOMODE
 70
     0
  9
$REGENMODE
 70
     1
  9
$FILLMODE
 70
     1
  9
$QTEXTMODE
 70
     0
  9
$MIRRTEXT
 70
     1
  9
$LTSCALE
 40
1.0
  9
$ATTMODE
 70
     1
  9
$TEXTSIZE
 40
2.5
  9
$TRACEWID
 40
1.0
  9
$TEXTSTYLE
  7
Standard
  9
$CLAYER
  8
0
  9
$CELTYPE
  6
ByLayer
  9
$CECOLOR
 62
   256
  9
$CELTSCALE
 40
1.0
  9
$DISPSILH
 70
     0
  9
$DIMSCALE
 40
1.0
  9
$DIMASZ
 40
2.5
  9
$DIMEXO
 40
0.625
  9
$DIMDLI
 40
3.75
  9
$DIMRND
 40
0.0
  9
$DIMDLE
 40
0.0
  9
$DIMEXE
 40
1.25
  9
$DIMTP
 40
0.0
  9
$DIMTM
 40
0.0
  9
$DIMTXT
 40
2.5
  9
$DIMCEN
 40
2.5
  9
$DIMTSZ
 40
0.0
  9
$DIMTOL
 70
     0
  9
$DIMLIM
 70
     0
  9
$DIMTIH
 70
     0
  9
$DIMTOH
 70
     0
  9
$DIMSE1
 70
     0
  9
$DIMSE2
 70
     0
  9
$DIMTAD
 70
     1
  9
$DIMZIN
 70
     8
  9
$DIMBLK
  1

  9
$DIMASO
 70
     1
  9
$DIMSHO
 70
     1
  9
$DIMPOST
  1

  9
$DIMAPOST
  1

  9
$DIMALT
 70
     0
  9
$DIMALTD
 70
     3
  9
$DIMALTF
 40
0.0393700787
  9
$DIMLFAC
 40
1.0
  9
$DIMTOFL
 70
     1
  9
$DIMTVP
 40
0.0
  9
$DIMTIX
 70
     0
  9
$DIMSOXD
 70
     0
  9
$DIMSAH
 70
     0
  9
$DIMBLK1
  1

  9
$DIMBLK2
  1

  9
$DIMSTYLE
  2
ISO-25
  9
$DIMCLRD
 70
     0
  9
$DIMCLRE
 70
     0
  9
$DIMCLRT
 70
     0
  9
$DIMTFAC
 40
1.0
  9
$DIMGAP
 40
0.625
  9
$DIMJUST
 70
     0
  9
$DIMSD1
 70
     0
  9
$DIMSD2
 70
     0
  9
$DIMTOLJ
 70
     0
  9
$DIMTZIN
 70
     8
  9
$DIMALTZ
 70
     0
  9
$DIMALTTZ
 70
     0
  9
$DIMUPT
 70
     0
  9
$DIMDEC
 70
     2
  9
$DIMTDEC
 70
     2
  9
$DIMALTU
 70
     2
  9
$DIMALTTD
 70
     3
  9
$DIMTXSTY
  7
Standard
  9
$DIMAUNIT
 70
     0
  9
$DIMADEC
 70
     0
  9
$DIMALTRND
 40
0.0
  9
$DIMAZIN
 70
     0
  9
$DIMDSEP
 70
    44
  9
$DIMATFIT
 70
     3
  9
$DIMFRAC
 70
     0
  9
$DIMLDRBLK
  1

  9
$DIMLUNIT
 70
     2
  9
$DIMLWD
 70
    -2
  9
$DIMLWE
 70
    -2
  9
$DIMTMOVE
 70
     0
  9
$LUNITS
 70
     2
  9
$LUPREC
 70
     4
  9
$SKETCHINC
 40
1.0
  9
$FILLETRAD
 40
10.0
  9
$AUNITS
 70
     0
  9
$AUPREC
 70
     0
  9
$MENU
  1
.
  9
$ELEVATION
 40
0.0
  9
$PELEVATION
 40
0.0
  9
$THICKNESS
 40
0.0
  9
$LIMCHECK
 70
     0
  9
$CHAMFERA
 40
10.0
  9
$CHAMFERB
 40
10.0
  9
$CHAMFERC
 40
20.0
  9
$CHAMFERD
 40
0.0
  9
$SKPOLY
 70
     0
  9
$TDCREATE
 40
2455650.365298356
  9
$TDUCREATE
 40
2455650.281965023
  9
$TDUPDATE
 40
2455650.365298368
  9
$TDUUPDATE
 40
2455650.281965035
  9
$TDINDWG
 40
0.0000000116
  9
$TDUSRTIMER
 40
0.0000000116
  9
$USRTIMER
 70
     1
  9
$ANGBASE
 50
0.0
  9
$ANGDIR
 70
     0
  9
$PDMODE
 70
     0
  9
$PDSIZE
 40
0.0
  9
$PLINEWID
 40
0.0
  9
$SPLFRAME
 70
     0
  9
$SPLINETYPE
 70
     6
  9
$SPLINESEGS
 70
     8
  9
$HANDSEED
  5
3B2
  9
$SURFTAB1
 70
     6
  9
$SURFTAB2
 70
     6
  9
$SURFTYPE
 70
     6
  9
$SURFU
 70
     6
  9
$SURFV
 70
     6
  9
$UCSBASE
  2

  9
$UCSNAME
  2

  9
$UCSORG
 10
0.0
 20
0.0
 30
0.0
  9
$UCSXDIR
 10
1.0
 20
0.0
 30
0.0
  9
$UCSYDIR
 10
0.0
 20
1.0
 30
0.0
  9
$UCSORTHOREF
  2

  9
$UCSORTHOVIEW
 70
     0
  9
$UCSORGTOP
 10
0.0
 20
0.0
 30
0.0
  9
$UCSORGBOTTOM
 10
0.0
 20
0.0
 30
0.0
  9
$UCSORGLEFT
 10
0.0
 20
0.0
 30
0.0
  9
$UCSORGRIGHT
 10
0.0
 20
0.0
 30
0.0
  9
$UCSORGFRONT
 10
0.0
 20
0.0
 30
0.0
  9
$UCSORGBACK
 10
0.0
 20
0.0
 30
0.0
  9
$PUCSBASE
  2

  9
$PUCSNAME
  2

  9
$PUCSORG
 10
0.0
 20
0.0
 30
0.0
  9
$PUCSXDIR
 10
1.0
 20
0.0
 30
0.0
  9
$PUCSYDIR
 10
0.0
 20
1.0
 30
0.0
  9
$PUCSORTHOREF
  2

  9
$PUCSORTHOVIEW
 70
     0
  9
$PUCSORGTOP
 10
0.0
 20
0.0
 30
0.0
  9
$PUCSORGBOTTOM
 10
0.0
 20
0.0
 30
0.0
  9
$PUCSORGLEFT
 10
0.0
 20
0.0
 30
0.0
  9
$PUCSORGRIGHT
 10
0.0
 20
0.0
 30
0.0
  9
$PUCSORGFRONT
 10
0.0
 20
0.0
 30
0.0
  9
$PUCSORGBACK
 10
0.0
 20
0.0
 30
0.0
  9
$USERI1
 70
     0
  9
$USERI2
 70
     0
  9
$USERI3
 70
     0
  9
$USERI4
 70
     0
  9
$USERI5
 70
     0
  9
$USERR1
 40
0.0
  9
$USERR2
 40
0.0
  9
$USERR3
 40
0.0
  9
$USERR4
 40
0.0
  9
$USERR5
 40
0.0
  9
$WORLDVIEW
 70
     1
  9
$SHADEDGE
 70
     3
  9
$SHADEDIF
 70
    70
  9
$TILEMODE
 70
     1
  9
$MAXACTVP
 70
    64
  9
$PINSBASE
 10
0.0
 20
0.0
 30
0.0
  9
$PLIMCHECK
 70
     0
  9
$PEXTMIN
 10
0.0
 20
0.0
 30
0.0
  9
$PEXTMAX
 10
1682.0
 20
2378.0
 30
0.0
  9
$PLIMMIN
 10
0.0
 20
0.0
  9
$PLIMMAX
 10
1682.0
 20
2378.0
  9
$UNITMODE
 70
     0
  9
$VISRETAIN
 70
     1
  9
$PLINEGEN
 70
     0
  9
$PSLTSCALE
 70
     1
  9
$TREEDEPTH
 70
  3020
  9
$CMLSTYLE
  2
Standard
  9
$CMLJUST
 70
     0
  9
$CMLSCALE
 40
20.0
  9
$PROXYGRAPHICS
 70
     1
  9
$MEASUREMENT
 70
     1
  9
$CELWEIGHT
370
    -1
  9
$ENDCAPS
280
     0
  9
$JOINSTYLE
280
     0
  9
$LWDISPLAY
290
     0
  9
$INSUNITS
 70
     4
  9
$HYPERLINKBASE
  1

  9
$STYLESHEET
  1

  9
$XEDIT
290
     1
  9
$CEPSNTYPE
380
     0
  9
$PSTYLEMODE
290
     1
  9
$FINGERPRINTGUID
  2
{B8530B4A-0028-4B88-8CA5-34B1F3AA0608}
  9
$VERSIONGUID
  2
{FAEB1C32-E019-11D5-929B-00C0DF256EC4}
  9
$EXTNAMES
290
     1
  9
$PSVPSCALE
 40
0.0
  9
$OLESTARTUP
290
     0
  0
ENDSEC
  0
SECTION
  2
CLASSES
  0
CLASS
  1
ACDBDICTIONARYWDFLT
  2
AcDbDictionaryWithDefault
  3
ObjectDBX Classes
 90
        0
280
     0
281
     0
  0
CLASS
  1
VISUALSTYLE
  2
AcDbVisualStyle
  3
ObjectDBX Classes
 90
     4095
280
     0
281
     0
  0
CLASS
  1
SCALE
  2
AcDbScale
  3
ObjectDBX Classes
 90
     1153
280
     0
281
     0
  0
CLASS
  1
DICTIONARYVAR
  2
AcDbDictionaryVar
  3
ObjectDBX Classes
 90
        0
280
     0
281
     0
  0
CLASS
  1
ACDBPLACEHOLDER
  2
AcDbPlaceHolder
  3
ObjectDBX Classes
 90
        0
280
     0
281
     0
  0
CLASS
  1
LAYOUT
  2
AcDbLayout
  3
ObjectDBX Classes
 90
        0
280
     0
281
     0
  0
ENDSEC
  0
SECTION
  2
TABLES
  0
TABLE
  2
VPORT
  5
8
330
0
100
AcDbSymbolTable
 70
     1
  0
VPORT
  5
29
330
8
100
AcDbSymbolTableRecord
100
AcDbViewportTableRecord
  2
*Active
 70
     0
 10
0.0
 20
0.0
 11
1.0
 21
1.0
 12
344.1869158879
 22
148.5
 13
0.0
 23
0.0
 14
10.0
 24
10.0
 15
10.0
 25
10.0
 16
0.0
 26
0.0
 36
1.0
 17
0.0
 27
0.0
 37
0.0
 40
297.0
 41
1.9729729729
 42
50.0
 43
0.0
 44
0.0
 50
0.0
 51
0.0
 71
     0
 72
   100
 73
     1
 74
     3
 75
     0
 76
     0
 77
     0
 78
     0
281
     0
 65
     1
110
0.0
120
0.0
130
0.0
111
1.0
121
0.0
131
0.0
112
0.0
122
1.0
132
0.0
 79
     0
146
0.0
  0
ENDTAB
  0
TABLE
  2
LTYPE
  5
5
330
0
100
AcDbSymbolTable
 70
     2
  0
LTYPE
  5
14
330
5
100
AcDbSymbolTableRecord
100
AcDbLinetypeTableRecord
  2
ByBlock
 70
     0
  3

 72
    65
 73
     0
 40
0.0
  0
LTYPE
  5
15
330
5
100
AcDbSymbolTableRecord
100
AcDbLinetypeTableRecord
  2
ByLayer
 70
     0
  3

 72
    65
 73
     0
 40
0.0
  0
LTYPE
  5
16
330
5
100
AcDbSymbolTableRecord
100
AcDbLinetypeTableRecord
  2
Continuous
 70
     0
  3
Solid line
 72
    65
 73
     0
 40
0.0
  0
LTYPE
  5
60
330
5
100
AcDbSymbolTableRecord
100
AcDbLinetypeTableRecord
  2
CENTER2
 70
     0
  3
Center (.5x) ___ _ ___ _ ___ _ ___ _ ___ _ ___
 72
    65
 73
     4
 40
28.575
 49
19.05
 74
     4
 75
     0
340
0
 46
0.0
 50
0.0
 44
0.0
 45
0.0
 49
-3.175
 74
     4
 75
     0
340
0
 46
0.0
 50
0.0
 44
0.0
 45
0.0
 49
3.175
 74
     4
 75
     0
340
0
 46
0.0
 50
0.0
 44
0.0
 45
0.0
 49
-3.175
 74
     4
 75
     0
340
0
 46
0.0
 50
0.0
 44
0.0
 45
0.0
  0
ENDTAB
  0
TABLE
  2
LAYER
  5
2
330
0
100
AcDbSymbolTable
 70
    11
  0
LAYER
  5
10
330
2
100
AcDbSymbolTableRecord
100
AcDbLayerTableRecord
  2
0
 70
     0
 62
     7
  6
Continuous
370
    -3
390
F
  0
LAYER
  5
5D
330
2
100
AcDbSymbolTableRecord
100
AcDbLayerTableRecord
  2
Default
 70
     0
 62
     7
  6
Continuous
370
    -3
390
F
  0
LAYER
  5
74
330
2
100
AcDbSymbolTableRecord
100
AcDbLayerTableRecord
  2
$DDT_AUDIT_GENERATED_(74)
 70
     0
 62
     7
  6
Continuous
370
    -3
390
F
  0
LAYER
  5
83
330
2
100
AcDbSymbolTableRecord
100
AcDbLayerTableRecord
  2
$DDT_AUDIT_GENERATED_(83)
 70
     0
 62
     7
  6
Continuous
370
    -3
390
F
  0
LAYER
  5
8D
330
2
100
AcDbSymbolTableRecord
100
AcDbLayerTableRecord
  2
$DDT_AUDIT_GENERATED_(8D)
 70
     0
 62
     7
  6
Continuous
370
    -3
390
F
  0
LAYER
  5
284
330
2
100
AcDbSymbolTableRecord
100
AcDbLayerTableRecord
  2
$DDT_AUDIT_GENERATED_(284)
 70
     0
 62
     7
  6
Continuous
370
    -3
390
F
  0
LAYER
  5
2A6
330
2
100
AcDbSymbolTableRecord
100
AcDbLayerTableRecord
  2
$DDT_AUDIT_GENERATED_(2A6)
 70
     0
 62
     7
  6
Continuous
370
    -3
390
F
  0
LAYER
  5
2A9
330
2
100
AcDbSymbolTableRecord
100
AcDbLayerTableRecord
  2
$DDT_AUDIT_GENERATED_(2A9)
 70
     0
 62
     7
  6
Continuous
370
    -3
390
F
  0
LAYER
  5
2CD
330
2
100
AcDbSymbolTableRecord
100
AcDbLayerTableRecord
  2
$DDT_AUDIT_GENERATED_(2CD)
 70
     0
 62
     7
  6
Continuous
370
    -3
390
F
  0
LAYER
  5
2D0
330
2
100
AcDbSymbolTableRecord
100
AcDbLayerTableRecord
  2
$DDT_AUDIT_GENERATED_(2D0)
 70
     0
 62
     7
  6
Continuous
370
    -3
390
F
  0
LAYER
  5
2D3
330
2
100
AcDbSymbolTableRecord
100
AcDbLayerTableRecord
  2
$DDT_AUDIT_GENERATED_(2D3)
 70
     0
 62
     7
  6
Continuous
370
    -3
390
F
  0
ENDTAB
  0
TABLE
  2
STYLE
  5
3
330
0
100
AcDbSymbolTable
 70
     2
  0
STYLE
  5
11
330
3
100
AcDbSymbolTableRecord
100
AcDbTextStyleTableRecord
  2
Standard
 70
     0
 40
0.0
 41
1.0
 50
0.0
 71
     0
 42
2.5
  3
txt
  4

  0
STYLE
  5
3A1
330
3
100
AcDbSymbolTableRecord
100
AcDbTextStyleTableRecord
  2
SEACAD_seiso_ttf
 70
     0
 40
0.0
 41
1.0
 50
0.0
 71
     0
 42
0.2
  3
seiso.ttf
  4

  0
ENDTAB
  0
TABLE
  2
VIEW
  5
6
330
0
100
AcDbSymbolTable
 70
     0
  0
ENDTAB
  0
TABLE
  2
UCS
  5
7
330
0
100
AcDbSymbolTable
 70
     0
  0
ENDTAB
  0
TABLE
  2
APPID
  5
9
330
0
100
AcDbSymbolTable
 70
     1
  0
APPID
  5
12
330
9
100
AcDbSymbolTableRecord
100
AcDbRegAppTableRecord
  2
ACAD
 70
     0
  0
ENDTAB
  0
TABLE
  2
DIMSTYLE
  5
A
330
0
100
AcDbSymbolTable
 70
     1
100
AcDbDimStyleTable
  0
DIMSTYLE
105
27
330
A
100
AcDbSymbolTableRecord
100
AcDbDimStyleTableRecord
  2
ISO-25
 70
     0
 41
2.5
 42
0.625
 43
3.75
 44
1.25
 73
     0
 74
     0
 77
     1
 78
     8
140
2.5
141
2.5
143
0.0393700787
147
0.625
171
     3
172
     1
271
     2
272
     2
274
     3
278
    44
283
     0
284
     8
340
11
  0
ENDTAB
  0
TABLE
  2
BLOCK_RECORD
  5
1
330
0
100
AcDbSymbolTable
 70
     7
  0
BLOCK_RECORD
  5
1F
330
1
100
AcDbSymbolTableRecord
100
AcDbBlockTableRecord
  2
*Model_Space
340
22
  0
BLOCK_RECORD
  5
1B
330
1
100
AcDbSymbolTableRecord
100
AcDbBlockTableRecord
  2
*Paper_Space
340
1E
  0
BLOCK_RECORD
  5
5E
330
1
100
AcDbSymbolTableRecord
100
AcDbBlockTableRecord
  2
SEANNOT_GROUP
340
0
102
{BLKREFS
331
5F
102
}
  0
BLOCK_RECORD
  5
65
330
1
100
AcDbSymbolTableRecord
100
AcDbBlockTableRecord
  2
SEANNOT_GROUP1
340
0
102
{BLKREFS
331
66
102
}
  0
BLOCK_RECORD
  5
6C
330
1
100
AcDbSymbolTableRecord
100
AcDbBlockTableRecord
  2
SEANNOT_GROUP2
340
0
102
{BLKREFS
331
6D
102
}
  0
BLOCK_RECORD
  5
72
330
1
100
AcDbSymbolTableRecord
100
AcDbBlockTableRecord
  2
SE
340
0
102
{BLKREFS
331
73
102
}
  0
BLOCK_RECORD
  5
2B6
330
1
100
AcDbSymbolTableRecord
100
AcDbBlockTableRecord
  2
SE1
340
0
102
{BLKREFS
331
2B7
102
}
  0
BLOCK_RECORD
  5
328
330
1
100
AcDbSymbolTableRecord
100
AcDbBlockTableRecord
  2
SE2
340
0
102
{BLKREFS
331
329
102
}
  0
ENDTAB
  0
ENDSEC
  0
SECTION
  2
BLOCKS
  0
BLOCK
  5
20
330
1F
100
AcDbEntity
  8
0
100
AcDbBlockBegin
  2
*Model_Space
 70
     0
 10
0.0
 20
0.0
 30
0.0
  3
*Model_Space
  1

  0
ENDBLK
  5
21
330
1F
100
AcDbEntity
  8
0
100
AcDbBlockEnd
  0
BLOCK
  5
1C
330
1B
100
AcDbEntity
 67
     1
  8
0
100
AcDbBlockBegin
  2
*Paper_Space
 70
     0
 10
0.0
 20
0.0
 30
0.0
  3
*Paper_Space
  1

  0
ENDBLK
  5
1D
330
1B
100
AcDbEntity
 67
     1
  8
0
100
AcDbBlockEnd
  0
BLOCK
  5
63
330
5E
100
AcDbEntity
  8
0
100
AcDbBlockBegin
  2
SEANNOT_GROUP
 70
     0
 10
0.0
 20
0.0
 30
0.0
  3
SEANNOT_GROUP
  1

  0
LINE
  5
61
330
5E
100
AcDbEntity
  8
Default
  6
CENTER2
 62
     7
100
AcDbLine
 10
60.7834247668
 20
322.7625036451
 30
0.0
 11
20.7834256608
 21
322.7625036451
 31
0.0
  0
LINE
  5
62
330
5E
100
AcDbEntity
  8
Default
  6
CENTER2
 62
     7
100
AcDbLine
 10
40.7834252138
 20
342.762503198
 30
0.0
 11
40.7834252138
 21
302.7625040921
 31
0.0
  0
ENDBLK
  5
64
330
5E
100
AcDbEntity
  8
0
100
AcDbBlockEnd
  0
BLOCK
  5
69
330
65
100
AcDbEntity
  8
0
100
AcDbBlockBegin
  2
SEANNOT_GROUP1
 70
     0
 10
0.0
 20
0.0
 30
0.0
  3
SEANNOT_GROUP1
  1

  0
LINE
  5
67
330
65
100
AcDbEntity
  8
Default
  6
CENTER2
 62
     7
100
AcDbLine
 10
186.5700571657
 20
322.7625036451
 30
0.0
 11
146.5700580598
 21
322.7625036451
 31
0.0
  0
LINE
  5
68
330
65
100
AcDbEntity
  8
Default
  6
CENTER2
 62
     7
100
AcDbLine
 10
166.5700576128
 20
342.762503198
 30
0.0
 11
166.5700576128
 21
302.7625040921
 31
0.0
  0
ENDBLK
  5
6A
330
65
100
AcDbEntity
  8
0
100
AcDbBlockEnd
  0
BLOCK
  5
70
330
6C
100
AcDbEntity
  8
0
100
AcDbBlockBegin
  2
SEANNOT_GROUP2
 70
     0
 10
0.0
 20
0.0
 30
0.0
  3
SEANNOT_GROUP2
  1

  0
LINE
  5
6E
330
6C
100
AcDbEntity
  8
Default
  6
CENTER2
 62
     7
100
AcDbLine
 10
60.7834247668
 20
218.8107162372
 30
0.0
 11
20.7834256608
 21
218.8107162372
 31
0.0
  0
LINE
  5
6F
330
6C
100
AcDbEntity
  8
Default
  6
CENTER2
 62
     7
100
AcDbLine
 10
40.7834252138
 20
238.8107157901
 30
0.0
 11
40.7834252138
 21
198.8107166842
 31
0.0
  0
ENDBLK
  5
71
330
6C
100
AcDbEntity
  8
0
100
AcDbBlockEnd
  0
BLOCK
  5
2B4
330
72
100
AcDbEntity
  8
0
100
AcDbBlockBegin
  2
SE
 70
     0
 10
0.0
 20
0.0
 30
0.0
  3
SE
  1

  0
LINE
  5
75
330
72
100
AcDbEntity
  8
$DDT_AUDIT_GENERATED_(74)
  6
Continuous
 62
     7
100
AcDbLine
 10
19.2834252138
 20
393.762503644
 30
0.0
 11
19.2834252138
 21
330.7625036451
 31
0.0
  0
LINE
  5
76
330
72
100
AcDbEntity
  8
$DDT_AUDIT_GENERATED_(74)
  6
Continuous
 62
     7
100
AcDbLine
 10
19.2834252138
 20
397.2625036451
 30
0.0
 11
19.2834252138
 21
393.762503644
 31
0.0
  0
LINE
  5
77
330
72
100
AcDbEntity
  8
$DDT_AUDIT_GENERATED_(74)
  6
Continuous
 62
     7
100
AcDbLine
 10
19.2834252138
 20
419.2625036451
 30
0.0
 11
19.2834252138
 21
397.2625036451
 31
0.0
  0
LINE
  5
78
330
72
100
AcDbEntity
  8
$DDT_AUDIT_GENERATED_(74)
  6
Continuous
 62
     7
100
AcDbLine
 10
19.7834252138
 20
419.7625036451
 30
0.0
 11
61.7834252138
 21
419.7625036451
 31
0.0
  0
LINE
  5
79
330
72
100
AcDbEntity
  8
$DDT_AUDIT_GENERATED_(74)
  6
Continuous
 62
     7
100
AcDbLine
 10
62.2834252138
 20
397.2625036451
 30
0.0
 11
62.2834252138
 21
419.2625036451
 31
0.0
  0
LINE
  5
7A
330
72
100
AcDbEntity
  8
$DDT_AUDIT_GENERATED_(74)
  6
Continuous
 62
     7
100
AcDbLine
 10
62.2834252138
 20
397.2625036451
 30
0.0
 11
62.2834252138
 21
393.762503644
 31
0.0
  0
LINE
  5
7B
330
72
100
AcDbEntity
  8
$DDT_AUDIT_GENERATED_(74)
  6
Continuous
 62
     7
100
AcDbLine
 10
19.7834252138
 20
396.7625036451
 30
0.0
 11
61.7834252138
 21
396.7625036451
 31
0.0
  0
LINE
  5
7C
330
72
100
AcDbEntity
  8
$DDT_AUDIT_GENERATED_(74)
  6
Continuous
 62
     7
100
AcDbLine
 10
19.7834252138
 20
396.7625036451
 30
0.0
 11
19.7834252138
 21
396.7085445682
 31
0.0
  0
LINE
  5
7D
330
72
100
AcDbEntity
  8
$DDT_AUDIT_GENERATED_(74)
  6
Continuous
 62
     7
100
AcDbLine
 10
61.7834252138
 20
396.7625036451
 30
0.0
 11
61.7834252138
 21
396.7085439704
 31
0.0
  0
SPLINE
  5
7E
330
72
100
AcDbEntity
  8
$DDT_AUDIT_GENERATED_(74)
  6
Continuous
 62
     7
100
AcDbSpline
210
0.0
220
0.0
230
1.0
 70
    12
 71
     2
 72
     6
 73
     3
 74
     0
 42
0.00000001
 43
0.0000000001
 40
0.0
 40
0.0
 40
0.0
 40
1.0
 40
1.0
 40
1.0
 10
19.28342521379973
 20
419.2625036450652
 30
0.0
 41
1.0
 10
19.28342521379971
 20
419.7625036450652
 30
0.0
 41
0.707106781186548
 10
19.78342521379973
 20
419.7625036450652
 30
0.0
 41
1.0
  0
SPLINE
  5
7F
330
72
100
AcDbEntity
  8
$DDT_AUDIT_GENERATED_(74)
  6
Continuous
 62
     7
100
AcDbSpline
210
0.0
220
0.0
230
1.0
 70
    12
 71
     2
 72
     6
 73
     3
 74
     0
 42
0.00000001
 43
0.0000000001
 40
0.0
 40
0.0
 40
0.0
 40
1.0
 40
1.0
 40
1.0
 10
19.78342521379973
 20
396.7625036450653
 30
0.0
 41
1.0
 10
19.28342521379971
 20
396.7625036450652
 30
0.0
 41
0.707106781186548
 10
19.28342521379973
 20
397.2625036450652
 30
0.0
 41
1.0
  0
SPLINE
  5
80
330
72
100
AcDbEntity
  8
$DDT_AUDIT_GENERATED_(74)
  6
Continuous
 62
     7
100
AcDbSpline
210
0.0
220
0.0
230
1.0
 70
    12
 71
     2
 72
     6
 73
     3
 74
     0
 42
0.00000001
 43
0.0000000001
 40
0.0
 40
0.0
 40
0.0
 40
1.0
 40
1.0
 40
1.0
 10
62.28342521379973
 20
419.2625036450652
 30
0.0
 41
1.0
 10
62.28342521379975
 20
419.7625036450652
 30
0.0
 41
0.707106781186548
 10
61.78342521379973
 20
419.7625036450652
 30
0.0
 41
1.0
  0
SPLINE
  5
81
330
72
100
AcDbEntity
  8
$DDT_AUDIT_GENERATED_(74)
  6
Continuous
 62
     7
100
AcDbSpline
210
0.0
220
0.0
230
1.0
 70
    12
 71
     2
 72
     6
 73
     3
 74
     0
 42
0.00000001
 43
0.0000000001
 40
0.0
 40
0.0
 40
0.0
 40
1.0
 40
1.0
 40
1.0
 10
61.78342521379973
 20
396.7625036450653
 30
0.0
 41
1.0
 10
62.28342521379975
 20
396.7625036450652
 30
0.0
 41
0.707106781186548
 10
62.28342521379973
 20
397.2625036450652
 30
0.0
 41
1.0
  0
LINE
  5
82
330
72
100
AcDbEntity
  8
$DDT_AUDIT_GENERATED_(74)
  6
Continuous
 62
     7
100
AcDbLine
 10
62.2834252138
 20
330.7625036451
 30
0.0
 11
62.2834252138
 21
393.762503644
 31
0.0
  0
CIRCLE
  5
84
330
72
100
AcDbEntity
  8
$DDT_AUDIT_GENERATED_(83)
  6
Continuous
 62
     7
100
AcDbCircle
 10
40.7834252138
 20
408.2625036451
 30
0.0
 40
8.35
  0
LINE
  5
85
330
72
100
AcDbEntity
  8
$DDT_AUDIT_GENERATED_(83)
  6
Continuous
 62
     7
100
AcDbLine
 10
30.7834252138
 20
398.5625036451
 30
0.0
 11
30.7834252138
 21
417.9625036451
 31
0.0
  0
LINE
  5
86
330
72
100
AcDbEntity
  8
$DDT_AUDIT_GENERATED_(83)
  6
Continuous
 62
     7
100
AcDbLine
 10
50.4834252138
 20
398.2625036451
 30
0.0
 11
31.0834252138
 21
398.2625036451
 31
0.0
  0
LINE
  5
87
330
72
100
AcDbEntity
  8
$DDT_AUDIT_GENERATED_(83)
  6
Continuous
 62
     7
100
AcDbLine
 10
31.0834252138
 20
418.2625036451
 30
0.0
 11
50.4834252138
 21
418.2625036451
 31
0.0
  0
LINE
  5
88
330
72
100
AcDbEntity
  8
$DDT_AUDIT_GENERATED_(83)
  6
Continuous
 62
     7
100
AcDbLine
 10
50.7834252138
 20
417.9625036451
 30
0.0
 11
50.7834252138
 21
398.5625036451
 31
0.0
  0
ARC
  5
89
330
72
100
AcDbEntity
  8
$DDT_AUDIT_GENERATED_(83)
  6
Continuous
 62
     7
100
AcDbCircle
 10
50.4834252138
 20
417.9625036451
 30
0.0
 40
0.2999999999999999
100
AcDbArc
 50
0.0
 51
90.0
  0
ARC
  5
8A
330
72
100
AcDbEntity
  8
$DDT_AUDIT_GENERATED_(83)
  6
Continuous
 62
     7
100
AcDbCircle
 10
31.0834252138
 20
417.9625036451
 30
0.0
 40
0.2999999999999947
100
AcDbArc
 50
90.0
 51
180.0
  0
ARC
  5
8B
330
72
100
AcDbEntity
  8
$DDT_AUDIT_GENERATED_(83)
  6
Continuous
 62
     7
100
AcDbCircle
 10
50.4834252138
 20
398.5625036451
 30
0.0
 40
0.2999999999999947
100
AcDbArc
 50
270.0
 51
0.0
  0
ARC
  5
8C
330
72
100
AcDbEntity
  8
$DDT_AUDIT_GENERATED_(83)
  6
Continuous
 62
     7
100
AcDbCircle
 10
31.0834252138
 20
398.5625036451
 30
0.0
 40
0.2999999999999947
100
AcDbArc
 50
180.0
 51
270.0
  0
LINE
  5
8E
330
72
100
AcDbEntity
  8
$DDT_AUDIT_GENERATED_(8D)
  6
Continuous
 62
     7
100
AcDbLine
 10
35.3147452138
 20
408.9075036451
 30
0.0
 11
35.8733315992
 21
408.5850036451
 31
0.0
  0
LINE
  5
8F
330
72
100
AcDbEntity
  8
$DDT_AUDIT_GENERATED_(8D)
  6
Continuous
 62
     7
100
AcDbLine
 10
35.8733315992
 20
407.9400036451
 30
0.0
 11
35.3147452138
 21
407.6175036451
 31
0.0
  0
LINE
  5
90
330
72
100
AcDbEntity
  8
$DDT_AUDIT_GENERATED_(8D)
  6
Continuous
 62
     7
100
AcDbLine
 10
35.8733315992
 20
408.5850036451
 30
0.0
 11
35.8733315992
 21
407.9400036451
 31
0.0
  0
LINE
  5
91
330
72
100
AcDbEntity
  8
$DDT_AUDIT_GENERATED_(8D)
  6
Continuous
 62
     7
100
AcDbLine
 10
35.3147452138
 20
407.6175036451
 30
0.0
 11
34.7157975121
 21
407.9633062618
 31
0.0
  0
LINE
  5
92
330
72
100
AcDbEntity
  8
$DDT_AUDIT_GENERATED_(8D)
  6
Continuous
 62
     7
100
AcDbLine
 10
34.7157975121
 20
408.5617010283
 30
0.0
 11
35.3147452138
 21
408.9075036451
 31
0.0
  0
LINE
  5
93
330
72
100
AcDbEntity
  8
$DDT_AUDIT_GENERATED_(8D)
  6
Continuous
 62
     7
100
AcDbLine
 10
40.9084252138
 20
407.4009972941
 30
0.0
 11
41.4670115992
 21
407.7234972941
 31
0.0
  0
LINE
  5
94
330
72
100
AcDbEntity
  8
$DDT_AUDIT_GENERATED_(8D)
  6
Continuous
 62
     7
100
AcDbLine
 10
41.4670115992
 20
407.7234972941
 30
0.0
 11
42.0255979847
 21
407.4009972941
 31
0.0
  0
LINE
  5
95
330
72
100
AcDbEntity
  8
$DDT_AUDIT_GENERATED_(8D)
  6
Continuous
 62
     7
100
AcDbLine
 10
42.0255979847
 20
407.4009972941
 30
0.0
 11
42.0255979847
 21
406.7559972941
 31
0.0
  0
LINE
  5
96
330
72
100
AcDbEntity
  8
$DDT_AUDIT_GENERATED_(8D)
  6
Continuous
 62
     7
100
AcDbLine
 10
42.0255979847
 20
406.7559972941
 30
0.0
 11
41.4670115992
 21
406.4334972941
 31
0.0
  0
LINE
  5
97
330
72
100
AcDbEntity
  8
$DDT_AUDIT_GENERATED_(8D)
  6
Continuous
 62
     7
100
AcDbLine
 10
41.4670115992
 20
406.4334972941
 30
0.0
 11
40.9084252138
 21
406.7559972941
 31
0.0
  0
LINE
  5
98
330
72
100
AcDbEntity
  8
$DDT_AUDIT_GENERATED_(8D)
  6
Continuous
 62
     7
100
AcDbLine
 10
40.9084252138
 20
406.7559972941
 30
0.0
 11
40.9084252138
 21
407.4009972941
 31
0.0
  0
LINE
  5
99
330
72
100
AcDbEntity
  8
$DDT_AUDIT_GENERATED_(8D)
  6
Continuous
 62
     7
100
AcDbLine
 10
42.7091815992
 20
408.5850036451
 30
0.0
 11
42.7091815992
 21
407.9400036451
 31
0.0
  0
LINE
  5
9A
330
72
100
AcDbEntity
  8
$DDT_AUDIT_GENERATED_(8D)
  6
Continuous
 62
     7
100
AcDbLine
 10
42.7091815992
 20
407.9400036451
 30
0.0
 11
42.1505952138
 21
407.6175036451
 31
0.0
  0
LINE
  5
9B
330
72
100
AcDbEntity
  8
$DDT_AUDIT_GENERATED_(8D)
  6
Continuous
 62
     7
100
AcDbLine
 10
42.1505952138
 20
407.6175036451
 30
0.0
 11
41.5920088284
 21
407.9400036451
 31
0.0
  0
LINE
  5
9C
330
72
100
AcDbEntity
  8
$DDT_AUDIT_GENERATED_(8D)
  6
Continuous
 62
     7
100
AcDbLine
 10
41.5920088284
 20
407.9400036451
 30
0.0
 11
41.5920088284
 21
408.5850036451
 31
0.0
  0
LINE
  5
9D
330
72
100
AcDbEntity
  8
$DDT_AUDIT_GENERATED_(8D)
  6
Continuous
 62
     7
100
AcDbLine
 10
41.5920088284
 20
408.5850036451
 30
0.0
 11
42.1505952138
 21
408.9075036451
 31
0.0
  0
LINE
  5
9E
330
72
100
AcDbEntity
  8
$DDT_AUDIT_GENERATED_(8D)
  6
Continuous
 62
     7
100
AcDbLine
 10
42.1505952138
 20
408.9075036451
 30
0.0
 11
42.7091815992
 21
408.5850036451
 31
0.0
  0
LINE
  5
9F
330
72
100
AcDbEntity
  8
$DDT_AUDIT_GENERATED_(8D)
  6
Continuous
 62
     7
100
AcDbLine
 10
42.7091815992
 20
406.2170036451
 30
0.0
 11
42.7091815992
 21
405.5720036451
 31
0.0
  0
LINE
  5
A0
330
72
100
AcDbEntity
  8
$DDT_AUDIT_GENERATED_(8D)
  6
Continuous
 62
     7
100
AcDbLine
 10
42.7091815992
 20
405.5720036451
 30
0.0
 11
42.1505952138
 21
405.2495036451
 31
0.0
  0
LINE
  5
A1
330
72
100
AcDbEntity
  8
$DDT_AUDIT_GENERATED_(8D)
  6
Continuous
 62
     7
100
AcDbLine
 10
42.1505952138
 20
405.2495036451
 30
0.0
 11
41.5920088284
 21
405.5720036451
 31
0.0
  0
LINE
  5
A2
330
72
100
AcDbEntity
  8
$DDT_AUDIT_GENERATED_(8D)
  6
Continuous
 62
     7
100
AcDbLine
 10
41.5920088284
 20
405.5720036451
 30
0.0
 11
41.5920088284
 21
406.2170036451
 31
0.0
  0
LINE
  5
A3
330
72
100
AcDbEntity
  8
$DDT_AUDIT_GENERATED_(8D)
  6
Continuous
 62
     7
100
AcDbLine
 10
41.5920088284
 20
406.2170036451
 30
0.0
 11
42.1505952138
 21
406.5395036451
 31
0.0
  0
LINE
  5
A4
330
72
100
AcDbEntity
  8
$DDT_AUDIT_GENERATED_(8D)
  6
Continuous
 62
     7
100
AcDbLine
 10
42.1505952138
 20
406.5395036451
 30
0.0
 11
42.7091815992
 21
406.2170036451
 31
0.0
  0
LINE
  5
A5
330
72
100
AcDbEntity
  8
$DDT_AUDIT_GENERATED_(8D)
  6
Continuous
 62
     7
100
AcDbLine
 10
42.7091815992
 20
403.8490036451
 30
0.0
 11
42.7091815992
 21
403.2040036451
 31
0.0
  0
LINE
  5
A6
330
72
100
AcDbEntity
  8
$DDT_AUDIT_GENERATED_(8D)
  6
Continuous
 62
     7
100
AcDbLine
 10
42.7091815992
 20
403.2040036451
 30
0.0
 11
42.1505952138
 21
402.8815036451
 31
0.0
  0
LINE
  5
A7
330
72
100
AcDbEntity
  8
$DDT_AUDIT_GENERATED_(8D)
  6
Continuous
 62
     7
100
AcDbLine
 10
42.1505952138
 20
402.8815036451
 30
0.0
 11
41.5920088284
 21
403.2040036451
 31
0.0
  0
LINE
  5
A8
330
72
100
AcDbEntity
  8
$DDT_AUDIT_GENERATED_(8D)
  6
Continuous
 62
     7
100
AcDbLine
 10
41.5920088284
 20
403.2040036451
 30
0.0
 11
41.5920088284
 21
403.8490036451
 31
0.0
  0
LINE
  5
A9
330
72
100
AcDbEntity
  8
$DDT_AUDIT_GENERATED_(8D)
  6
Continuous
 62
     7
100
AcDbLine
 10
41.5920088284
 20
403.8490036451
 30
0.0
 11
42.1505952138
 21
404.1715036451
 31
0.0
  0
LINE
  5
AA
330
72
100
AcDbEntity
  8
$DDT_AUDIT_GENERATED_(8D)
  6
Continuous
 62
     7
100
AcDbLine
 10
42.1505952138
 20
404.1715036451
 30
0.0
 11
42.7091815992
 21
403.8490036451
 31
0.0
  0
LINE
  5
AB
330
72
100
AcDbEntity
  8
$DDT_AUDIT_GENERATED_(8D)
  6
Continuous
 62
     7
100
AcDbLine
 10
43.6427652138
 20
407.4009972941
 30
0.0
 11
44.2013515992
 21
407.7234972941
 31
0.0
  0
LINE
  5
AC
330
72
100
AcDbEntity
  8
$DDT_AUDIT_GENERATED_(8D)
  6
Continuous
 62
     7
100
AcDbLine
 10
44.2013515992
 20
407.7234972941
 30
0.0
 11
44.7599379847
 21
407.4009972941
 31
0.0
  0
LINE
  5
AD
330
72
100
AcDbEntity
  8
$DDT_AUDIT_GENERATED_(8D)
  6
Continuous
 62
     7
100
AcDbLine
 10
44.7599379847
 20
407.4009972941
 30
0.0
 11
44.7599379847
 21
406.7559972941
 31
0.0
  0
LINE
  5
AE
330
72
100
AcDbEntity
  8
$DDT_AUDIT_GENERATED_(8D)
  6
Continuous
 62
     7
100
AcDbLine
 10
44.7599379847
 20
406.7559972941
 30
0.0
 11
44.2013515992
 21
406.4334972941
 31
0.0
  0
LINE
  5
AF
330
72
100
AcDbEntity
  8
$DDT_AUDIT_GENERATED_(8D)
  6
Continuous
 62
     7
100
AcDbLine
 10
44.2013515992
 20
406.4334972941
 30
0.0
 11
43.6427652138
 21
406.7559972941
 31
0.0
  0
LINE
  5
B0
330
72
100
AcDbEntity
  8
$DDT_AUDIT_GENERATED_(8D)
  6
Continuous
 62
     7
100
AcDbLine
 10
43.6427652138
 20
406.7559972941
 30
0.0
 11
43.6427652138
 21
407.4009972941
 31
0.0
  0
LINE
  5
B1
330
72
100
AcDbEntity
  8
$DDT_AUDIT_GENERATED_(8D)
  6
Continuous
 62
     7
100
AcDbLine
 10
43.6427652138
 20
405.0329972941
 30
0.0
 11
44.2013515992
 21
405.3554972941
 31
0.0
  0
LINE
  5
B2
330
72
100
AcDbEntity
  8
$DDT_AUDIT_GENERATED_(8D)
  6
Continuous
 62
     7
100
AcDbLine
 10
44.2013515992
 20
405.3554972941
 30
0.0
 11
44.7599379847
 21
405.0329972941
 31
0.0
  0
LINE
  5
B3
330
72
100
AcDbEntity
  8
$DDT_AUDIT_GENERATED_(8D)
  6
Continuous
 62
     7
100
AcDbLine
 10
44.7599379847
 20
405.0329972941
 30
0.0
 11
44.7599379847
 21
404.3879972941
 31
0.0
  0
LINE
  5
B4
330
72
100
AcDbEntity
  8
$DDT_AUDIT_GENERATED_(8D)
  6
Continuous
 62
     7
100
AcDbLine
 10
44.7599379847
 20
404.3879972941
 30
0.0
 11
44.2013515992
 21
404.0654972941
 31
0.0
  0
LINE
  5
B5
330
72
100
AcDbEntity
  8
$DDT_AUDIT_GENERATED_(8D)
  6
Continuous
 62
     7
100
AcDbLine
 10
44.2013515992
 20
404.0654972941
 30
0.0
 11
43.6427652138
 21
404.3879972941
 31
0.0
  0
LINE
  5
B6
330
72
100
AcDbEntity
  8
$DDT_AUDIT_GENERATED_(8D)
  6
Continuous
 62
     7
100
AcDbLine
 10
43.6427652138
 20
404.3879972941
 30
0.0
 11
43.6427652138
 21
405.0329972941
 31
0.0
  0
LINE
  5
B7
330
72
100
AcDbEntity
  8
$DDT_AUDIT_GENERATED_(8D)
  6
Continuous
 62
     7
100
AcDbLine
 10
45.0099352138
 20
407.4009972941
 30
0.0
 11
45.5685215992
 21
407.7234972941
 31
0.0
  0
LINE
  5
B8
330
72
100
AcDbEntity
  8
$DDT_AUDIT_GENERATED_(8D)
  6
Continuous
 62
     7
100
AcDbLine
 10
45.5685215992
 20
407.7234972941
 30
0.0
 11
46.1271079847
 21
407.4009972941
 31
0.0
  0
LINE
  5
B9
330
72
100
AcDbEntity
  8
$DDT_AUDIT_GENERATED_(8D)
  6
Continuous
 62
     7
100
AcDbLine
 10
46.1271079847
 20
407.4009972941
 30
0.0
 11
46.1271079847
 21
406.7559972941
 31
0.0
  0
LINE
  5
BA
330
72
100
AcDbEntity
  8
$DDT_AUDIT_GENERATED_(8D)
  6
Continuous
 62
     7
100
AcDbLine
 10
46.1271079847
 20
406.7559972941
 30
0.0
 11
45.5685215992
 21
406.4334972941
 31
0.0
  0
LINE
  5
BB
330
72
100
AcDbEntity
  8
$DDT_AUDIT_GENERATED_(8D)
  6
Continuous
 62
     7
100
AcDbLine
 10
45.5685215992
 20
406.4334972941
 30
0.0
 11
45.0099352138
 21
406.7559972941
 31
0.0
  0
LINE
  5
BC
330
72
100
AcDbEntity
  8
$DDT_AUDIT_GENERATED_(8D)
  6
Continuous
 62
     7
100
AcDbLine
 10
45.0099352138
 20
406.7559972941
 30
0.0
 11
45.0099352138
 21
407.4009972941
 31
0.0
  0
LINE
  5
BD
330
72
100
AcDbEntity
  8
$DDT_AUDIT_GENERATED_(8D)
  6
Continuous
 62
     7
100
AcDbLine
 10
44.8849352138
 20
411.2755036451
 30
0.0
 11
45.4435215992
 21
410.9530036451
 31
0.0
  0
LINE
  5
BE
330
72
100
AcDbEntity
  8
$DDT_AUDIT_GENERATED_(8D)
  6
Continuous
 62
     7
100
AcDbLine
 10
45.4435215992
 20
410.9530036451
 30
0.0
 11
45.4435215992
 21
410.3080036451
 31
0.0
  0
LINE
  5
BF
330
72
100
AcDbEntity
  8
$DDT_AUDIT_GENERATED_(8D)
  6
Continuous
 62
     7
100
AcDbLine
 10
45.4435215992
 20
410.3080036451
 30
0.0
 11
44.8849352138
 21
409.9855036451
 31
0.0
  0
LINE
  5
C0
330
72
100
AcDbEntity
  8
$DDT_AUDIT_GENERATED_(8D)
  6
Continuous
 62
     7
100
AcDbLine
 10
44.8849352138
 20
409.9855036451
 30
0.0
 11
44.3263488284
 21
410.3080036451
 31
0.0
  0
LINE
  5
C1
330
72
100
AcDbEntity
  8
$DDT_AUDIT_GENERATED_(8D)
  6
Continuous
 62
     7
100
AcDbLine
 10
44.3263488284
 20
410.3080036451
 30
0.0
 11
44.3263488284
 21
410.9530036451
 31
0.0
  0
LINE
  5
C2
330
72
100
AcDbEntity
  8
$DDT_AUDIT_GENERATED_(8D)
  6
Continuous
 62
     7
100
AcDbLine
 10
44.3263488284
 20
410.9530036451
 30
0.0
 11
44.8849352138
 21
411.2755036451
 31
0.0
  0
LINE
  5
C3
330
72
100
AcDbEntity
  8
$DDT_AUDIT_GENERATED_(8D)
  6
Continuous
 62
     7
100
AcDbLine
 10
44.7599379847
 20
411.492009996
 30
0.0
 11
44.2013515992
 21
411.169509996
 31
0.0
  0
LINE
  5
C4
330
72
100
AcDbEntity
  8
$DDT_AUDIT_GENERATED_(8D)
  6
Continuous
 62
     7
100
AcDbLine
 10
44.2013515992
 20
411.169509996
 30
0.0
 11
43.6427652138
 21
411.492009996
 31
0.0
  0
LINE
  5
C5
330
72
100
AcDbEntity
  8
$DDT_AUDIT_GENERATED_(8D)
  6
Continuous
 62
     7
100
AcDbLine
 10
43.6427652138
 20
411.492009996
 30
0.0
 11
43.6427652138
 21
412.137009996
 31
0.0
  0
LINE
  5
C6
330
72
100
AcDbEntity
  8
$DDT_AUDIT_GENERATED_(8D)
  6
Continuous
 62
     7
100
AcDbLine
 10
43.6427652138
 20
412.137009996
 30
0.0
 11
44.2013515992
 21
412.459509996
 31
0.0
  0
LINE
  5
C7
330
72
100
AcDbEntity
  8
$DDT_AUDIT_GENERATED_(8D)
  6
Continuous
 62
     7
100
AcDbLine
 10
44.2013515992
 20
412.459509996
 30
0.0
 11
44.7599379847
 21
412.137009996
 31
0.0
  0
LINE
  5
C8
330
72
100
AcDbEntity
  8
$DDT_AUDIT_GENERATED_(8D)
  6
Continuous
 62
     7
100
AcDbLine
 10
44.7599379847
 20
412.137009996
 30
0.0
 11
44.7599379847
 21
411.492009996
 31
0.0
  0
LINE
  5
C9
330
72
100
AcDbEntity
  8
$DDT_AUDIT_GENERATED_(8D)
  6
Continuous
 62
     7
100
AcDbLine
 10
44.7599379847
 20
409.124009996
 30
0.0
 11
44.2013515992
 21
408.801509996
 31
0.0
  0
LINE
  5
CA
330
72
100
AcDbEntity
  8
$DDT_AUDIT_GENERATED_(8D)
  6
Continuous
 62
     7
100
AcDbLine
 10
44.2013515992
 20
408.801509996
 30
0.0
 11
43.6427652138
 21
409.124009996
 31
0.0
  0
LINE
  5
CB
330
72
100
AcDbEntity
  8
$DDT_AUDIT_GENERATED_(8D)
  6
Continuous
 62
     7
100
AcDbLine
 10
43.6427652138
 20
409.124009996
 30
0.0
 11
43.6427652138
 21
409.769009996
 31
0.0
  0
LINE
  5
CC
330
72
100
AcDbEntity
  8
$DDT_AUDIT_GENERATED_(8D)
  6
Continuous
 62
     7
100
AcDbLine
 10
43.6427652138
 20
409.769009996
 30
0.0
 11
44.2013515992
 21
410.091509996
 31
0.0
  0
LINE
  5
CD
330
72
100
AcDbEntity
  8
$DDT_AUDIT_GENERATED_(8D)
  6
Continuous
 62
     7
100
AcDbLine
 10
44.2013515992
 20
410.091509996
 30
0.0
 11
44.7599379847
 21
409.769009996
 31
0.0
  0
LINE
  5
CE
330
72
100
AcDbEntity
  8
$DDT_AUDIT_GENERATED_(8D)
  6
Continuous
 62
     7
100
AcDbLine
 10
44.7599379847
 20
409.769009996
 30
0.0
 11
44.7599379847
 21
409.124009996
 31
0.0
  0
LINE
  5
CF
330
72
100
AcDbEntity
  8
$DDT_AUDIT_GENERATED_(8D)
  6
Continuous
 62
     7
100
AcDbLine
 10
43.3927679847
 20
411.492009996
 30
0.0
 11
42.8341815992
 21
411.169509996
 31
0.0
  0
LINE
  5
D0
330
72
100
AcDbEntity
  8
$DDT_AUDIT_GENERATED_(8D)
  6
Continuous
 62
     7
100
AcDbLine
 10
42.8341815992
 20
411.169509996
 30
0.0
 11
42.2755952138
 21
411.492009996
 31
0.0
  0
LINE
  5
D1
330
72
100
AcDbEntity
  8
$DDT_AUDIT_GENERATED_(8D)
  6
Continuous
 62
     7
100
AcDbLine
 10
42.2755952138
 20
411.492009996
 30
0.0
 11
42.2755952138
 21
412.137009996
 31
0.0
  0
LINE
  5
D2
330
72
100
AcDbEntity
  8
$DDT_AUDIT_GENERATED_(8D)
  6
Continuous
 62
     7
100
AcDbLine
 10
42.2755952138
 20
412.137009996
 30
0.0
 11
42.8341815992
 21
412.459509996
 31
0.0
  0
LINE
  5
D3
330
72
100
AcDbEntity
  8
$DDT_AUDIT_GENERATED_(8D)
  6
Continuous
 62
     7
100
AcDbLine
 10
42.8341815992
 20
412.459509996
 30
0.0
 11
43.3927679847
 21
412.137009996
 31
0.0
  0
LINE
  5
D4
330
72
100
AcDbEntity
  8
$DDT_AUDIT_GENERATED_(8D)
  6
Continuous
 62
     7
100
AcDbLine
 10
43.3927679847
 20
412.137009996
 30
0.0
 11
43.3927679847
 21
411.492009996
 31
0.0
  0
LINE
  5
D5
330
72
100
AcDbEntity
  8
$DDT_AUDIT_GENERATED_(8D)
  6
Continuous
 62
     7
100
AcDbLine
 10
43.3927679847
 20
409.124009996
 30
0.0
 11
42.8341815992
 21
408.801509996
 31
0.0
  0
LINE
  5
D6
330
72
100
AcDbEntity
  8
$DDT_AUDIT_GENERATED_(8D)
  6
Continuous
 62
     7
100
AcDbLine
 10
42.8341815992
 20
408.801509996
 30
0.0
 11
42.2755952138
 21
409.124009996
 31
0.0
  0
LINE
  5
D7
330
72
100
AcDbEntity
  8
$DDT_AUDIT_GENERATED_(8D)
  6
Continuous
 62
     7
100
AcDbLine
 10
42.2755952138
 20
409.124009996
 30
0.0
 11
42.2755952138
 21
409.769009996
 31
0.0
  0
LINE
  5
D8
330
72
100
AcDbEntity
  8
$DDT_AUDIT_GENERATED_(8D)
  6
Continuous
 62
     7
100
AcDbLine
 10
42.2755952138
 20
409.769009996
 30
0.0
 11
42.8341815992
 21
410.091509996
 31
0.0
  0
LINE
  5
D9
330
72
100
AcDbEntity
  8
$DDT_AUDIT_GENERATED_(8D)
  6
Continuous
 62
     7
100
AcDbLine
 10
42.8341815992
 20
410.091509996
 30
0.0
 11
43.3927679847
 21
409.769009996
 31
0.0
  0
LINE
  5
DA
330
72
100
AcDbEntity
  8
$DDT_AUDIT_GENERATED_(8D)
  6
Continuous
 62
     7
100
AcDbLine
 10
43.3927679847
 20
409.769009996
 30
0.0
 11
43.3927679847
 21
409.124009996
 31
0.0
  0
LINE
  5
DB
330
72
100
AcDbEntity
  8
$DDT_AUDIT_GENERATED_(8D)
  6
Continuous
 62
     7
100
AcDbLine
 10
40.9084252138
 20
409.124009996
 30
0.0
 11
40.9084252138
 21
409.769009996
 31
0.0
  0
LINE
  5
DC
330
72
100
AcDbEntity
  8
$DDT_AUDIT_GENERATED_(8D)
  6
Continuous
 62
     7
100
AcDbLine
 10
40.9084252138
 20
409.769009996
 30
0.0
 11
41.4670115992
 21
410.091509996
 31
0.0
  0
LINE
  5
DD
330
72
100
AcDbEntity
  8
$DDT_AUDIT_GENERATED_(8D)
  6
Continuous
 62
     7
100
AcDbLine
 10
41.4670115992
 20
410.091509996
 30
0.0
 11
42.0255979847
 21
409.769009996
 31
0.0
  0
LINE
  5
DE
330
72
100
AcDbEntity
  8
$DDT_AUDIT_GENERATED_(8D)
  6
Continuous
 62
     7
100
AcDbLine
 10
42.0255979847
 20
409.769009996
 30
0.0
 11
42.0255979847
 21
409.124009996
 31
0.0
  0
LINE
  5
DF
330
72
100
AcDbEntity
  8
$DDT_AUDIT_GENERATED_(8D)
  6
Continuous
 62
     7
100
AcDbLine
 10
42.0255979847
 20
409.124009996
 30
0.0
 11
41.4670115992
 21
408.801509996
 31
0.0
  0
LINE
  5
E0
330
72
100
AcDbEntity
  8
$DDT_AUDIT_GENERATED_(8D)
  6
Continuous
 62
     7
100
AcDbLine
 10
41.4670115992
 20
408.801509996
 30
0.0
 11
40.9084252138
 21
409.124009996
 31
0.0
  0
LINE
  5
E1
330
72
100
AcDbEntity
  8
$DDT_AUDIT_GENERATED_(8D)
  6
Continuous
 62
     7
100
AcDbLine
 10
40.6584252138
 20
409.124009996
 30
0.0
 11
40.0998388284
 21
408.801509996
 31
0.0
  0
LINE
  5
E2
330
72
100
AcDbEntity
  8
$DDT_AUDIT_GENERATED_(8D)
  6
Continuous
 62
     7
100
AcDbLine
 10
40.0998388284
 20
408.801509996
 30
0.0
 11
39.5412524429
 21
409.124009996
 31
0.0
  0
LINE
  5
E3
330
72
100
AcDbEntity
  8
$DDT_AUDIT_GENERATED_(8D)
  6
Continuous
 62
     7
100
AcDbLine
 10
39.5412524429
 20
409.124009996
 30
0.0
 11
39.5412524429
 21
409.769009996
 31
0.0
  0
LINE
  5
E4
330
72
100
AcDbEntity
  8
$DDT_AUDIT_GENERATED_(8D)
  6
Continuous
 62
     7
100
AcDbLine
 10
39.5412524429
 20
409.769009996
 30
0.0
 11
40.0998388284
 21
410.091509996
 31
0.0
  0
LINE
  5
E5
330
72
100
AcDbEntity
  8
$DDT_AUDIT_GENERATED_(8D)
  6
Continuous
 62
     7
100
AcDbLine
 10
40.0998388284
 20
410.091509996
 30
0.0
 11
40.6584252138
 21
409.769009996
 31
0.0
  0
LINE
  5
E6
330
72
100
AcDbEntity
  8
$DDT_AUDIT_GENERATED_(8D)
  6
Continuous
 62
     7
100
AcDbLine
 10
40.6584252138
 20
409.769009996
 30
0.0
 11
40.6584252138
 21
409.124009996
 31
0.0
  0
LINE
  5
E7
330
72
100
AcDbEntity
  8
$DDT_AUDIT_GENERATED_(8D)
  6
Continuous
 62
     7
100
AcDbLine
 10
40.2248388284
 20
412.6760036451
 30
0.0
 11
40.2248388284
 21
413.3210036451
 31
0.0
  0
LINE
  5
E8
330
72
100
AcDbEntity
  8
$DDT_AUDIT_GENERATED_(8D)
  6
Continuous
 62
     7
100
AcDbLine
 10
40.2248388284
 20
413.3210036451
 30
0.0
 11
40.7834252138
 21
413.6435036451
 31
0.0
  0
LINE
  5
E9
330
72
100
AcDbEntity
  8
$DDT_AUDIT_GENERATED_(8D)
  6
Continuous
 62
     7
100
AcDbLine
 10
40.7834252138
 20
413.6435036451
 30
0.0
 11
41.3420115992
 21
413.3210036451
 31
0.0
  0
LINE
  5
EA
330
72
100
AcDbEntity
  8
$DDT_AUDIT_GENERATED_(8D)
  6
Continuous
 62
     7
100
AcDbLine
 10
41.3420115992
 20
413.3210036451
 30
0.0
 11
41.3420115992
 21
412.6760036451
 31
0.0
  0
LINE
  5
EB
330
72
100
AcDbEntity
  8
$DDT_AUDIT_GENERATED_(8D)
  6
Continuous
 62
     7
100
AcDbLine
 10
41.3420115992
 20
412.6760036451
 30
0.0
 11
40.7834252138
 21
412.3535036451
 31
0.0
  0
LINE
  5
EC
330
72
100
AcDbEntity
  8
$DDT_AUDIT_GENERATED_(8D)
  6
Continuous
 62
     7
100
AcDbLine
 10
40.7834252138
 20
412.3535036451
 30
0.0
 11
40.2248388284
 21
412.6760036451
 31
0.0
  0
LINE
  5
ED
330
72
100
AcDbEntity
  8
$DDT_AUDIT_GENERATED_(8D)
  6
Continuous
 62
     7
100
AcDbLine
 10
38.8576688284
 20
410.3080036451
 30
0.0
 11
38.8576688284
 21
410.9530036451
 31
0.0
  0
LINE
  5
EE
330
72
100
AcDbEntity
  8
$DDT_AUDIT_GENERATED_(8D)
  6
Continuous
 62
     7
100
AcDbLine
 10
38.8576688284
 20
410.9530036451
 30
0.0
 11
39.4162552138
 21
411.2755036451
 31
0.0
  0
LINE
  5
EF
330
72
100
AcDbEntity
  8
$DDT_AUDIT_GENERATED_(8D)
  6
Continuous
 62
     7
100
AcDbLine
 10
39.4162552138
 20
411.2755036451
 30
0.0
 11
39.9748415992
 21
410.9530036451
 31
0.0
  0
LINE
  5
F0
330
72
100
AcDbEntity
  8
$DDT_AUDIT_GENERATED_(8D)
  6
Continuous
 62
     7
100
AcDbLine
 10
39.9748415992
 20
410.9530036451
 30
0.0
 11
39.9748415992
 21
410.3080036451
 31
0.0
  0
LINE
  5
F1
330
72
100
AcDbEntity
  8
$DDT_AUDIT_GENERATED_(8D)
  6
Continuous
 62
     7
100
AcDbLine
 10
39.9748415992
 20
410.3080036451
 30
0.0
 11
39.4162552138
 21
409.9855036451
 31
0.0
  0
LINE
  5
F2
330
72
100
AcDbEntity
  8
$DDT_AUDIT_GENERATED_(8D)
  6
Continuous
 62
     7
100
AcDbLine
 10
39.4162552138
 20
409.9855036451
 30
0.0
 11
38.8576688284
 21
410.3080036451
 31
0.0
  0
LINE
  5
F3
330
72
100
AcDbEntity
  8
$DDT_AUDIT_GENERATED_(8D)
  6
Continuous
 62
     7
100
AcDbLine
 10
38.8576688284
 20
412.6760036451
 30
0.0
 11
38.8576688284
 21
413.3210036451
 31
0.0
  0
LINE
  5
F4
330
72
100
AcDbEntity
  8
$DDT_AUDIT_GENERATED_(8D)
  6
Continuous
 62
     7
100
AcDbLine
 10
38.8576688284
 20
413.3210036451
 30
0.0
 11
39.4162552138
 21
413.6435036451
 31
0.0
  0
LINE
  5
F5
330
72
100
AcDbEntity
  8
$DDT_AUDIT_GENERATED_(8D)
  6
Continuous
 62
     7
100
AcDbLine
 10
39.4162552138
 20
413.6435036451
 30
0.0
 11
39.9748415992
 21
413.3210036451
 31
0.0
  0
LINE
  5
F6
330
72
100
AcDbEntity
  8
$DDT_AUDIT_GENERATED_(8D)
  6
Continuous
 62
     7
100
AcDbLine
 10
39.9748415992
 20
413.3210036451
 30
0.0
 11
39.9748415992
 21
412.6760036451
 31
0.0
  0
LINE
  5
F7
330
72
100
AcDbEntity
  8
$DDT_AUDIT_GENERATED_(8D)
  6
Continuous
 62
     7
100
AcDbLine
 10
39.9748415992
 20
412.6760036451
 30
0.0
 11
39.4162552138
 21
412.3535036451
 31
0.0
  0
LINE
  5
F8
330
72
100
AcDbEntity
  8
$DDT_AUDIT_GENERATED_(8D)
  6
Continuous
 62
     7
100
AcDbLine
 10
39.4162552138
 20
412.3535036451
 30
0.0
 11
38.8576688284
 21
412.6760036451
 31
0.0
  0
LINE
  5
F9
330
72
100
AcDbEntity
  8
$DDT_AUDIT_GENERATED_(8D)
  6
Continuous
 62
     7
100
AcDbLine
 10
37.4904988284
 20
410.3080036451
 30
0.0
 11
37.4904988284
 21
410.9530036451
 31
0.0
  0
LINE
  5
FA
330
72
100
AcDbEntity
  8
$DDT_AUDIT_GENERATED_(8D)
  6
Continuous
 62
     7
100
AcDbLine
 10
37.4904988284
 20
410.9530036451
 30
0.0
 11
38.0490852138
 21
411.2755036451
 31
0.0
  0
LINE
  5
FB
330
72
100
AcDbEntity
  8
$DDT_AUDIT_GENERATED_(8D)
  6
Continuous
 62
     7
100
AcDbLine
 10
38.0490852138
 20
411.2755036451
 30
0.0
 11
38.6076715992
 21
410.9530036451
 31
0.0
  0
LINE
  5
FC
330
72
100
AcDbEntity
  8
$DDT_AUDIT_GENERATED_(8D)
  6
Continuous
 62
     7
100
AcDbLine
 10
38.6076715992
 20
410.9530036451
 30
0.0
 11
38.6076715992
 21
410.3080036451
 31
0.0
  0
LINE
  5
FD
330
72
100
AcDbEntity
  8
$DDT_AUDIT_GENERATED_(8D)
  6
Continuous
 62
     7
100
AcDbLine
 10
38.6076715992
 20
410.3080036451
 30
0.0
 11
38.0490852138
 21
409.9855036451
 31
0.0
  0
LINE
  5
FE
330
72
100
AcDbEntity
  8
$DDT_AUDIT_GENERATED_(8D)
  6
Continuous
 62
     7
100
AcDbLine
 10
38.0490852138
 20
409.9855036451
 30
0.0
 11
37.4904988284
 21
410.3080036451
 31
0.0
  0
LINE
  5
FF
330
72
100
AcDbEntity
  8
$DDT_AUDIT_GENERATED_(8D)
  6
Continuous
 62
     7
100
AcDbLine
 10
36.5569152138
 20
409.124009996
 30
0.0
 11
35.9983288284
 21
408.801509996
 31
0.0
  0
LINE
  5
100
330
72
100
AcDbEntity
  8
$DDT_AUDIT_GENERATED_(8D)
  6
Continuous
 62
     7
100
AcDbLine
 10
35.9983288284
 20
408.801509996
 30
0.0
 11
35.4397424429
 21
409.124009996
 31
0.0
  0
LINE
  5
101
330
72
100
AcDbEntity
  8
$DDT_AUDIT_GENERATED_(8D)
  6
Continuous
 62
     7
100
AcDbLine
 10
35.4397424429
 20
409.124009996
 30
0.0
 11
35.4397424429
 21
409.769009996
 31
0.0
  0
LINE
  5
102
330
72
100
AcDbEntity
  8
$DDT_AUDIT_GENERATED_(8D)
  6
Continuous
 62
     7
100
AcDbLine
 10
35.4397424429
 20
409.769009996
 30
0.0
 11
35.9983288284
 21
410.091509996
 31
0.0
  0
LINE
  5
103
330
72
100
AcDbEntity
  8
$DDT_AUDIT_GENERATED_(8D)
  6
Continuous
 62
     7
100
AcDbLine
 10
35.9983288284
 20
410.091509996
 30
0.0
 11
36.5569152138
 21
409.769009996
 31
0.0
  0
LINE
  5
104
330
72
100
AcDbEntity
  8
$DDT_AUDIT_GENERATED_(8D)
  6
Continuous
 62
     7
100
AcDbLine
 10
36.5569152138
 20
409.769009996
 30
0.0
 11
36.5569152138
 21
409.124009996
 31
0.0
  0
LINE
  5
105
330
72
100
AcDbEntity
  8
$DDT_AUDIT_GENERATED_(8D)
  6
Continuous
 62
     7
100
AcDbLine
 10
36.1233288284
 20
406.2170036451
 30
0.0
 11
36.6819152138
 21
406.5395036451
 31
0.0
  0
LINE
  5
106
330
72
100
AcDbEntity
  8
$DDT_AUDIT_GENERATED_(8D)
  6
Continuous
 62
     7
100
AcDbLine
 10
36.6819152138
 20
406.5395036451
 30
0.0
 11
37.2405015992
 21
406.2170036451
 31
0.0
  0
LINE
  5
107
330
72
100
AcDbEntity
  8
$DDT_AUDIT_GENERATED_(8D)
  6
Continuous
 62
     7
100
AcDbLine
 10
37.2405015992
 20
406.2170036451
 30
0.0
 11
37.2405015992
 21
405.5720036451
 31
0.0
  0
LINE
  5
108
330
72
100
AcDbEntity
  8
$DDT_AUDIT_GENERATED_(8D)
  6
Continuous
 62
     7
100
AcDbLine
 10
37.2405015992
 20
405.5720036451
 30
0.0
 11
36.6819152138
 21
405.2495036451
 31
0.0
  0
LINE
  5
109
330
72
100
AcDbEntity
  8
$DDT_AUDIT_GENERATED_(8D)
  6
Continuous
 62
     7
100
AcDbLine
 10
36.6819152138
 20
405.2495036451
 30
0.0
 11
36.1233288284
 21
405.5720036451
 31
0.0
  0
LINE
  5
10A
330
72
100
AcDbEntity
  8
$DDT_AUDIT_GENERATED_(8D)
  6
Continuous
 62
     7
100
AcDbLine
 10
36.1233288284
 20
405.5720036451
 30
0.0
 11
36.1233288284
 21
406.2170036451
 31
0.0
  0
LINE
  5
10B
330
72
100
AcDbEntity
  8
$DDT_AUDIT_GENERATED_(8D)
  6
Continuous
 62
     7
100
AcDbLine
 10
36.1233288284
 20
408.5850036451
 30
0.0
 11
36.6819152138
 21
408.9075036451
 31
0.0
  0
LINE
  5
10C
330
72
100
AcDbEntity
  8
$DDT_AUDIT_GENERATED_(8D)
  6
Continuous
 62
     7
100
AcDbLine
 10
36.6819152138
 20
408.9075036451
 30
0.0
 11
37.2405015992
 21
408.5850036451
 31
0.0
  0
LINE
  5
10D
330
72
100
AcDbEntity
  8
$DDT_AUDIT_GENERATED_(8D)
  6
Continuous
 62
     7
100
AcDbLine
 10
37.2405015992
 20
408.5850036451
 30
0.0
 11
37.2405015992
 21
407.9400036451
 31
0.0
  0
LINE
  5
10E
330
72
100
AcDbEntity
  8
$DDT_AUDIT_GENERATED_(8D)
  6
Continuous
 62
     7
100
AcDbLine
 10
37.2405015992
 20
407.9400036451
 30
0.0
 11
36.6819152138
 21
407.6175036451
 31
0.0
  0
LINE
  5
10F
330
72
100
AcDbEntity
  8
$DDT_AUDIT_GENERATED_(8D)
  6
Continuous
 62
     7
100
AcDbLine
 10
36.6819152138
 20
407.6175036451
 30
0.0
 11
36.1233288284
 21
407.9400036451
 31
0.0
  0
LINE
  5
110
330
72
100
AcDbEntity
  8
$DDT_AUDIT_GENERATED_(8D)
  6
Continuous
 62
     7
100
AcDbLine
 10
36.1233288284
 20
407.9400036451
 30
0.0
 11
36.1233288284
 21
408.5850036451
 31
0.0
  0
LINE
  5
111
330
72
100
AcDbEntity
  8
$DDT_AUDIT_GENERATED_(8D)
  6
Continuous
 62
     7
100
AcDbLine
 10
37.9240852138
 20
405.0329972941
 30
0.0
 11
37.9240852138
 21
404.3879972941
 31
0.0
  0
LINE
  5
112
330
72
100
AcDbEntity
  8
$DDT_AUDIT_GENERATED_(8D)
  6
Continuous
 62
     7
100
AcDbLine
 10
37.9240852138
 20
404.3879972941
 30
0.0
 11
37.3654988284
 21
404.0654972941
 31
0.0
  0
LINE
  5
113
330
72
100
AcDbEntity
  8
$DDT_AUDIT_GENERATED_(8D)
  6
Continuous
 62
     7
100
AcDbLine
 10
37.3654988284
 20
404.0654972941
 30
0.0
 11
36.8069124429
 21
404.3879972941
 31
0.0
  0
LINE
  5
114
330
72
100
AcDbEntity
  8
$DDT_AUDIT_GENERATED_(8D)
  6
Continuous
 62
     7
100
AcDbLine
 10
36.8069124429
 20
404.3879972941
 30
0.0
 11
36.8069124429
 21
405.0329972941
 31
0.0
  0
LINE
  5
115
330
72
100
AcDbEntity
  8
$DDT_AUDIT_GENERATED_(8D)
  6
Continuous
 62
     7
100
AcDbLine
 10
36.8069124429
 20
405.0329972941
 30
0.0
 11
37.3654988284
 21
405.3554972941
 31
0.0
  0
LINE
  5
116
330
72
100
AcDbEntity
  8
$DDT_AUDIT_GENERATED_(8D)
  6
Continuous
 62
     7
100
AcDbLine
 10
37.3654988284
 20
405.3554972941
 30
0.0
 11
37.9240852138
 21
405.0329972941
 31
0.0
  0
LINE
  5
117
330
72
100
AcDbEntity
  8
$DDT_AUDIT_GENERATED_(8D)
  6
Continuous
 62
     7
100
AcDbLine
 10
37.9240852138
 20
407.4009972941
 30
0.0
 11
37.9240852138
 21
406.7559972941
 31
0.0
  0
LINE
  5
118
330
72
100
AcDbEntity
  8
$DDT_AUDIT_GENERATED_(8D)
  6
Continuous
 62
     7
100
AcDbLine
 10
37.9240852138
 20
406.7559972941
 30
0.0
 11
37.3654988284
 21
406.4334972941
 31
0.0
  0
LINE
  5
119
330
72
100
AcDbEntity
  8
$DDT_AUDIT_GENERATED_(8D)
  6
Continuous
 62
     7
100
AcDbLine
 10
37.3654988284
 20
406.4334972941
 30
0.0
 11
36.8069124429
 21
406.7559972941
 31
0.0
  0
LINE
  5
11A
330
72
100
AcDbEntity
  8
$DDT_AUDIT_GENERATED_(8D)
  6
Continuous
 62
     7
100
AcDbLine
 10
36.8069124429
 20
406.7559972941
 30
0.0
 11
36.8069124429
 21
407.4009972941
 31
0.0
  0
LINE
  5
11B
330
72
100
AcDbEntity
  8
$DDT_AUDIT_GENERATED_(8D)
  6
Continuous
 62
     7
100
AcDbLine
 10
36.8069124429
 20
407.4009972941
 30
0.0
 11
37.3654988284
 21
407.7234972941
 31
0.0
  0
LINE
  5
11C
330
72
100
AcDbEntity
  8
$DDT_AUDIT_GENERATED_(8D)
  6
Continuous
 62
     7
100
AcDbLine
 10
37.3654988284
 20
407.7234972941
 30
0.0
 11
37.9240852138
 21
407.4009972941
 31
0.0
  0
LINE
  5
11D
330
72
100
AcDbEntity
  8
$DDT_AUDIT_GENERATED_(8D)
  6
Continuous
 62
     7
100
AcDbLine
 10
39.2912552138
 20
405.0329972941
 30
0.0
 11
39.2912552138
 21
404.3879972941
 31
0.0
  0
LINE
  5
11E
330
72
100
AcDbEntity
  8
$DDT_AUDIT_GENERATED_(8D)
  6
Continuous
 62
     7
100
AcDbLine
 10
39.2912552138
 20
404.3879972941
 30
0.0
 11
38.7326688284
 21
404.0654972941
 31
0.0
  0
LINE
  5
11F
330
72
100
AcDbEntity
  8
$DDT_AUDIT_GENERATED_(8D)
  6
Continuous
 62
     7
100
AcDbLine
 10
38.7326688284
 20
404.0654972941
 30
0.0
 11
38.1740824429
 21
404.3879972941
 31
0.0
  0
LINE
  5
120
330
72
100
AcDbEntity
  8
$DDT_AUDIT_GENERATED_(8D)
  6
Continuous
 62
     7
100
AcDbLine
 10
38.1740824429
 20
404.3879972941
 30
0.0
 11
38.1740824429
 21
405.0329972941
 31
0.0
  0
LINE
  5
121
330
72
100
AcDbEntity
  8
$DDT_AUDIT_GENERATED_(8D)
  6
Continuous
 62
     7
100
AcDbLine
 10
38.1740824429
 20
405.0329972941
 30
0.0
 11
38.7326688284
 21
405.3554972941
 31
0.0
  0
LINE
  5
122
330
72
100
AcDbEntity
  8
$DDT_AUDIT_GENERATED_(8D)
  6
Continuous
 62
     7
100
AcDbLine
 10
38.7326688284
 20
405.3554972941
 30
0.0
 11
39.2912552138
 21
405.0329972941
 31
0.0
  0
LINE
  5
123
330
72
100
AcDbEntity
  8
$DDT_AUDIT_GENERATED_(8D)
  6
Continuous
 62
     7
100
AcDbLine
 10
39.2912552138
 20
407.4009972941
 30
0.0
 11
39.2912552138
 21
406.7559972941
 31
0.0
  0
LINE
  5
124
330
72
100
AcDbEntity
  8
$DDT_AUDIT_GENERATED_(8D)
  6
Continuous
 62
     7
100
AcDbLine
 10
39.2912552138
 20
406.7559972941
 30
0.0
 11
38.7326688284
 21
406.4334972941
 31
0.0
  0
LINE
  5
125
330
72
100
AcDbEntity
  8
$DDT_AUDIT_GENERATED_(8D)
  6
Continuous
 62
     7
100
AcDbLine
 10
38.7326688284
 20
406.4334972941
 30
0.0
 11
38.1740824429
 21
406.7559972941
 31
0.0
  0
LINE
  5
126
330
72
100
AcDbEntity
  8
$DDT_AUDIT_GENERATED_(8D)
  6
Continuous
 62
     7
100
AcDbLine
 10
38.1740824429
 20
406.7559972941
 30
0.0
 11
38.1740824429
 21
407.4009972941
 31
0.0
  0
LINE
  5
127
330
72
100
AcDbEntity
  8
$DDT_AUDIT_GENERATED_(8D)
  6
Continuous
 62
     7
100
AcDbLine
 10
38.1740824429
 20
407.4009972941
 30
0.0
 11
38.7326688284
 21
407.7234972941
 31
0.0
  0
LINE
  5
128
330
72
100
AcDbEntity
  8
$DDT_AUDIT_GENERATED_(8D)
  6
Continuous
 62
     7
100
AcDbLine
 10
38.7326688284
 20
407.7234972941
 30
0.0
 11
39.2912552138
 21
407.4009972941
 31
0.0
  0
LINE
  5
129
330
72
100
AcDbEntity
  8
$DDT_AUDIT_GENERATED_(8D)
  6
Continuous
 62
     7
100
AcDbLine
 10
40.6584252138
 20
405.0329972941
 30
0.0
 11
40.6584252138
 21
404.3879972941
 31
0.0
  0
LINE
  5
12A
330
72
100
AcDbEntity
  8
$DDT_AUDIT_GENERATED_(8D)
  6
Continuous
 62
     7
100
AcDbLine
 10
40.6584252138
 20
404.3879972941
 30
0.0
 11
40.0998388284
 21
404.0654972941
 31
0.0
  0
LINE
  5
12B
330
72
100
AcDbEntity
  8
$DDT_AUDIT_GENERATED_(8D)
  6
Continuous
 62
     7
100
AcDbLine
 10
40.0998388284
 20
404.0654972941
 30
0.0
 11
39.5412524429
 21
404.3879972941
 31
0.0
  0
LINE
  5
12C
330
72
100
AcDbEntity
  8
$DDT_AUDIT_GENERATED_(8D)
  6
Continuous
 62
     7
100
AcDbLine
 10
39.5412524429
 20
404.3879972941
 30
0.0
 11
39.5412524429
 21
405.0329972941
 31
0.0
  0
LINE
  5
12D
330
72
100
AcDbEntity
  8
$DDT_AUDIT_GENERATED_(8D)
  6
Continuous
 62
     7
100
AcDbLine
 10
39.5412524429
 20
405.0329972941
 30
0.0
 11
40.0998388284
 21
405.3554972941
 31
0.0
  0
LINE
  5
12E
330
72
100
AcDbEntity
  8
$DDT_AUDIT_GENERATED_(8D)
  6
Continuous
 62
     7
100
AcDbLine
 10
40.0998388284
 20
405.3554972941
 30
0.0
 11
40.6584252138
 21
405.0329972941
 31
0.0
  0
LINE
  5
12F
330
72
100
AcDbEntity
  8
$DDT_AUDIT_GENERATED_(8D)
  6
Continuous
 62
     7
100
AcDbLine
 10
40.2248388284
 20
406.2170036451
 30
0.0
 11
40.7834252138
 21
406.5395036451
 31
0.0
  0
LINE
  5
130
330
72
100
AcDbEntity
  8
$DDT_AUDIT_GENERATED_(8D)
  6
Continuous
 62
     7
100
AcDbLine
 10
40.7834252138
 20
406.5395036451
 30
0.0
 11
41.3420115992
 21
406.2170036451
 31
0.0
  0
LINE
  5
131
330
72
100
AcDbEntity
  8
$DDT_AUDIT_GENERATED_(8D)
  6
Continuous
 62
     7
100
AcDbLine
 10
41.3420115992
 20
406.2170036451
 30
0.0
 11
41.3420115992
 21
405.5720036451
 31
0.0
  0
LINE
  5
132
330
72
100
AcDbEntity
  8
$DDT_AUDIT_GENERATED_(8D)
  6
Continuous
 62
     7
100
AcDbLine
 10
41.3420115992
 20
405.5720036451
 30
0.0
 11
40.7834252138
 21
405.2495036451
 31
0.0
  0
LINE
  5
133
330
72
100
AcDbEntity
  8
$DDT_AUDIT_GENERATED_(8D)
  6
Continuous
 62
     7
100
AcDbLine
 10
40.7834252138
 20
405.2495036451
 30
0.0
 11
40.2248388284
 21
405.5720036451
 31
0.0
  0
LINE
  5
134
330
72
100
AcDbEntity
  8
$DDT_AUDIT_GENERATED_(8D)
  6
Continuous
 62
     7
100
AcDbLine
 10
40.2248388284
 20
405.5720036451
 30
0.0
 11
40.2248388284
 21
406.2170036451
 31
0.0
  0
LINE
  5
135
330
72
100
AcDbEntity
  8
$DDT_AUDIT_GENERATED_(8D)
  6
Continuous
 62
     7
100
AcDbLine
 10
40.6584252138
 20
407.4009972941
 30
0.0
 11
40.6584252138
 21
406.7559972941
 31
0.0
  0
LINE
  5
136
330
72
100
AcDbEntity
  8
$DDT_AUDIT_GENERATED_(8D)
  6
Continuous
 62
     7
100
AcDbLine
 10
40.6584252138
 20
406.7559972941
 30
0.0
 11
40.0998388284
 21
406.4334972941
 31
0.0
  0
LINE
  5
137
330
72
100
AcDbEntity
  8
$DDT_AUDIT_GENERATED_(8D)
  6
Continuous
 62
     7
100
AcDbLine
 10
40.0998388284
 20
406.4334972941
 30
0.0
 11
39.5412524429
 21
406.7559972941
 31
0.0
  0
LINE
  5
138
330
72
100
AcDbEntity
  8
$DDT_AUDIT_GENERATED_(8D)
  6
Continuous
 62
     7
100
AcDbLine
 10
39.5412524429
 20
406.7559972941
 30
0.0
 11
39.5412524429
 21
407.4009972941
 31
0.0
  0
LINE
  5
139
330
72
100
AcDbEntity
  8
$DDT_AUDIT_GENERATED_(8D)
  6
Continuous
 62
     7
100
AcDbLine
 10
39.5412524429
 20
407.4009972941
 30
0.0
 11
40.0998388284
 21
407.7234972941
 31
0.0
  0
LINE
  5
13A
330
72
100
AcDbEntity
  8
$DDT_AUDIT_GENERATED_(8D)
  6
Continuous
 62
     7
100
AcDbLine
 10
40.0998388284
 20
407.7234972941
 30
0.0
 11
40.6584252138
 21
407.4009972941
 31
0.0
  0
LINE
  5
13B
330
72
100
AcDbEntity
  8
$DDT_AUDIT_GENERATED_(8D)
  6
Continuous
 62
     7
100
AcDbLine
 10
40.2248388284
 20
403.8490036451
 30
0.0
 11
40.7834252138
 21
404.1715036451
 31
0.0
  0
LINE
  5
13C
330
72
100
AcDbEntity
  8
$DDT_AUDIT_GENERATED_(8D)
  6
Continuous
 62
     7
100
AcDbLine
 10
40.7834252138
 20
404.1715036451
 30
0.0
 11
41.3420115992
 21
403.8490036451
 31
0.0
  0
LINE
  5
13D
330
72
100
AcDbEntity
  8
$DDT_AUDIT_GENERATED_(8D)
  6
Continuous
 62
     7
100
AcDbLine
 10
41.3420115992
 20
403.8490036451
 30
0.0
 11
41.3420115992
 21
403.2040036451
 31
0.0
  0
LINE
  5
13E
330
72
100
AcDbEntity
  8
$DDT_AUDIT_GENERATED_(8D)
  6
Continuous
 62
     7
100
AcDbLine
 10
41.3420115992
 20
403.2040036451
 30
0.0
 11
40.7834252138
 21
402.8815036451
 31
0.0
  0
LINE
  5
13F
330
72
100
AcDbEntity
  8
$DDT_AUDIT_GENERATED_(8D)
  6
Continuous
 62
     7
100
AcDbLine
 10
40.7834252138
 20
402.8815036451
 30
0.0
 11
40.2248388284
 21
403.2040036451
 31
0.0
  0
LINE
  5
140
330
72
100
AcDbEntity
  8
$DDT_AUDIT_GENERATED_(8D)
  6
Continuous
 62
     7
100
AcDbLine
 10
40.2248388284
 20
403.2040036451
 30
0.0
 11
40.2248388284
 21
403.8490036451
 31
0.0
  0
LINE
  5
141
330
72
100
AcDbEntity
  8
$DDT_AUDIT_GENERATED_(8D)
  6
Continuous
 62
     7
100
AcDbLine
 10
38.8576688284
 20
408.5850036451
 30
0.0
 11
39.4162552138
 21
408.9075036451
 31
0.0
  0
LINE
  5
142
330
72
100
AcDbEntity
  8
$DDT_AUDIT_GENERATED_(8D)
  6
Continuous
 62
     7
100
AcDbLine
 10
39.4162552138
 20
408.9075036451
 30
0.0
 11
39.9748415992
 21
408.5850036451
 31
0.0
  0
LINE
  5
143
330
72
100
AcDbEntity
  8
$DDT_AUDIT_GENERATED_(8D)
  6
Continuous
 62
     7
100
AcDbLine
 10
39.9748415992
 20
408.5850036451
 30
0.0
 11
39.9748415992
 21
407.9400036451
 31
0.0
  0
LINE
  5
144
330
72
100
AcDbEntity
  8
$DDT_AUDIT_GENERATED_(8D)
  6
Continuous
 62
     7
100
AcDbLine
 10
39.9748415992
 20
407.9400036451
 30
0.0
 11
39.4162552138
 21
407.6175036451
 31
0.0
  0
LINE
  5
145
330
72
100
AcDbEntity
  8
$DDT_AUDIT_GENERATED_(8D)
  6
Continuous
 62
     7
100
AcDbLine
 10
39.4162552138
 20
407.6175036451
 30
0.0
 11
38.8576688284
 21
407.9400036451
 31
0.0
  0
LINE
  5
146
330
72
100
AcDbEntity
  8
$DDT_AUDIT_GENERATED_(8D)
  6
Continuous
 62
     7
100
AcDbLine
 10
38.8576688284
 20
407.9400036451
 30
0.0
 11
38.8576688284
 21
408.5850036451
 31
0.0
  0
LINE
  5
147
330
72
100
AcDbEntity
  8
$DDT_AUDIT_GENERATED_(8D)
  6
Continuous
 62
     7
100
AcDbLine
 10
38.8576688284
 20
406.2170036451
 30
0.0
 11
39.4162552138
 21
406.5395036451
 31
0.0
  0
LINE
  5
148
330
72
100
AcDbEntity
  8
$DDT_AUDIT_GENERATED_(8D)
  6
Continuous
 62
     7
100
AcDbLine
 10
39.4162552138
 20
406.5395036451
 30
0.0
 11
39.9748415992
 21
406.2170036451
 31
0.0
  0
LINE
  5
149
330
72
100
AcDbEntity
  8
$DDT_AUDIT_GENERATED_(8D)
  6
Continuous
 62
     7
100
AcDbLine
 10
39.9748415992
 20
406.2170036451
 30
0.0
 11
39.9748415992
 21
405.5720036451
 31
0.0
  0
LINE
  5
14A
330
72
100
AcDbEntity
  8
$DDT_AUDIT_GENERATED_(8D)
  6
Continuous
 62
     7
100
AcDbLine
 10
39.9748415992
 20
405.5720036451
 30
0.0
 11
39.4162552138
 21
405.2495036451
 31
0.0
  0
LINE
  5
14B
330
72
100
AcDbEntity
  8
$DDT_AUDIT_GENERATED_(8D)
  6
Continuous
 62
     7
100
AcDbLine
 10
39.4162552138
 20
405.2495036451
 30
0.0
 11
38.8576688284
 21
405.5720036451
 31
0.0
  0
LINE
  5
14C
330
72
100
AcDbEntity
  8
$DDT_AUDIT_GENERATED_(8D)
  6
Continuous
 62
     7
100
AcDbLine
 10
38.8576688284
 20
405.5720036451
 30
0.0
 11
38.8576688284
 21
406.2170036451
 31
0.0
  0
LINE
  5
14D
330
72
100
AcDbEntity
  8
$DDT_AUDIT_GENERATED_(8D)
  6
Continuous
 62
     7
100
AcDbLine
 10
38.8576688284
 20
403.8490036451
 30
0.0
 11
39.4162552138
 21
404.1715036451
 31
0.0
  0
LINE
  5
14E
330
72
100
AcDbEntity
  8
$DDT_AUDIT_GENERATED_(8D)
  6
Continuous
 62
     7
100
AcDbLine
 10
39.4162552138
 20
404.1715036451
 30
0.0
 11
39.9748415992
 21
403.8490036451
 31
0.0
  0
LINE
  5
14F
330
72
100
AcDbEntity
  8
$DDT_AUDIT_GENERATED_(8D)
  6
Continuous
 62
     7
100
AcDbLine
 10
39.9748415992
 20
403.8490036451
 30
0.0
 11
39.9748415992
 21
403.2040036451
 31
0.0
  0
LINE
  5
150
330
72
100
AcDbEntity
  8
$DDT_AUDIT_GENERATED_(8D)
  6
Continuous
 62
     7
100
AcDbLine
 10
39.9748415992
 20
403.2040036451
 30
0.0
 11
39.4162552138
 21
402.8815036451
 31
0.0
  0
LINE
  5
151
330
72
100
AcDbEntity
  8
$DDT_AUDIT_GENERATED_(8D)
  6
Continuous
 62
     7
100
AcDbLine
 10
39.4162552138
 20
402.8815036451
 30
0.0
 11
38.8576688284
 21
403.2040036451
 31
0.0
  0
LINE
  5
152
330
72
100
AcDbEntity
  8
$DDT_AUDIT_GENERATED_(8D)
  6
Continuous
 62
     7
100
AcDbLine
 10
38.8576688284
 20
403.2040036451
 30
0.0
 11
38.8576688284
 21
403.8490036451
 31
0.0
  0
LINE
  5
153
330
72
100
AcDbEntity
  8
$DDT_AUDIT_GENERATED_(8D)
  6
Continuous
 62
     7
100
AcDbLine
 10
37.4904988284
 20
408.5850036451
 30
0.0
 11
38.0490852138
 21
408.9075036451
 31
0.0
  0
LINE
  5
154
330
72
100
AcDbEntity
  8
$DDT_AUDIT_GENERATED_(8D)
  6
Continuous
 62
     7
100
AcDbLine
 10
38.0490852138
 20
408.9075036451
 30
0.0
 11
38.6076715992
 21
408.5850036451
 31
0.0
  0
LINE
  5
155
330
72
100
AcDbEntity
  8
$DDT_AUDIT_GENERATED_(8D)
  6
Continuous
 62
     7
100
AcDbLine
 10
38.6076715992
 20
408.5850036451
 30
0.0
 11
38.6076715992
 21
407.9400036451
 31
0.0
  0
LINE
  5
156
330
72
100
AcDbEntity
  8
$DDT_AUDIT_GENERATED_(8D)
  6
Continuous
 62
     7
100
AcDbLine
 10
38.6076715992
 20
407.9400036451
 30
0.0
 11
38.0490852138
 21
407.6175036451
 31
0.0
  0
LINE
  5
157
330
72
100
AcDbEntity
  8
$DDT_AUDIT_GENERATED_(8D)
  6
Continuous
 62
     7
100
AcDbLine
 10
38.0490852138
 20
407.6175036451
 30
0.0
 11
37.4904988284
 21
407.9400036451
 31
0.0
  0
LINE
  5
158
330
72
100
AcDbEntity
  8
$DDT_AUDIT_GENERATED_(8D)
  6
Continuous
 62
     7
100
AcDbLine
 10
37.4904988284
 20
407.9400036451
 30
0.0
 11
37.4904988284
 21
408.5850036451
 31
0.0
  0
LINE
  5
159
330
72
100
AcDbEntity
  8
$DDT_AUDIT_GENERATED_(8D)
  6
Continuous
 62
     7
100
AcDbLine
 10
37.4904988284
 20
406.2170036451
 30
0.0
 11
38.0490852138
 21
406.5395036451
 31
0.0
  0
LINE
  5
15A
330
72
100
AcDbEntity
  8
$DDT_AUDIT_GENERATED_(8D)
  6
Continuous
 62
     7
100
AcDbLine
 10
38.0490852138
 20
406.5395036451
 30
0.0
 11
38.6076715992
 21
406.2170036451
 31
0.0
  0
LINE
  5
15B
330
72
100
AcDbEntity
  8
$DDT_AUDIT_GENERATED_(8D)
  6
Continuous
 62
     7
100
AcDbLine
 10
38.6076715992
 20
406.2170036451
 30
0.0
 11
38.6076715992
 21
405.5720036451
 31
0.0
  0
LINE
  5
15C
330
72
100
AcDbEntity
  8
$DDT_AUDIT_GENERATED_(8D)
  6
Continuous
 62
     7
100
AcDbLine
 10
38.6076715992
 20
405.5720036451
 30
0.0
 11
38.0490852138
 21
405.2495036451
 31
0.0
  0
LINE
  5
15D
330
72
100
AcDbEntity
  8
$DDT_AUDIT_GENERATED_(8D)
  6
Continuous
 62
     7
100
AcDbLine
 10
38.0490852138
 20
405.2495036451
 30
0.0
 11
37.4904988284
 21
405.5720036451
 31
0.0
  0
LINE
  5
15E
330
72
100
AcDbEntity
  8
$DDT_AUDIT_GENERATED_(8D)
  6
Continuous
 62
     7
100
AcDbLine
 10
37.4904988284
 20
405.5720036451
 30
0.0
 11
37.4904988284
 21
406.2170036451
 31
0.0
  0
LINE
  5
15F
330
72
100
AcDbEntity
  8
$DDT_AUDIT_GENERATED_(8D)
  6
Continuous
 62
     7
100
AcDbLine
 10
36.5569152138
 20
407.4009972941
 30
0.0
 11
36.5569152138
 21
406.7559972941
 31
0.0
  0
LINE
  5
160
330
72
100
AcDbEntity
  8
$DDT_AUDIT_GENERATED_(8D)
  6
Continuous
 62
     7
100
AcDbLine
 10
36.5569152138
 20
406.7559972941
 30
0.0
 11
35.9983288284
 21
406.4334972941
 31
0.0
  0
LINE
  5
161
330
72
100
AcDbEntity
  8
$DDT_AUDIT_GENERATED_(8D)
  6
Continuous
 62
     7
100
AcDbLine
 10
35.9983288284
 20
406.4334972941
 30
0.0
 11
35.4397424429
 21
406.7559972941
 31
0.0
  0
LINE
  5
162
330
72
100
AcDbEntity
  8
$DDT_AUDIT_GENERATED_(8D)
  6
Continuous
 62
     7
100
AcDbLine
 10
35.4397424429
 20
406.7559972941
 30
0.0
 11
35.4397424429
 21
407.4009972941
 31
0.0
  0
LINE
  5
163
330
72
100
AcDbEntity
  8
$DDT_AUDIT_GENERATED_(8D)
  6
Continuous
 62
     7
100
AcDbLine
 10
35.4397424429
 20
407.4009972941
 30
0.0
 11
35.9983288284
 21
407.7234972941
 31
0.0
  0
LINE
  5
164
330
72
100
AcDbEntity
  8
$DDT_AUDIT_GENERATED_(8D)
  6
Continuous
 62
     7
100
AcDbLine
 10
35.9983288284
 20
407.7234972941
 30
0.0
 11
36.5569152138
 21
407.4009972941
 31
0.0
  0
LINE
  5
165
330
72
100
AcDbEntity
  8
$DDT_AUDIT_GENERATED_(8D)
  6
Continuous
 62
     7
100
AcDbLine
 10
36.1233288284
 20
410.3080036451
 30
0.0
 11
36.1233288284
 21
410.9530036451
 31
0.0
  0
LINE
  5
166
330
72
100
AcDbEntity
  8
$DDT_AUDIT_GENERATED_(8D)
  6
Continuous
 62
     7
100
AcDbLine
 10
36.1233288284
 20
410.9530036451
 30
0.0
 11
36.6819152138
 21
411.2755036451
 31
0.0
  0
LINE
  5
167
330
72
100
AcDbEntity
  8
$DDT_AUDIT_GENERATED_(8D)
  6
Continuous
 62
     7
100
AcDbLine
 10
36.6819152138
 20
411.2755036451
 30
0.0
 11
37.2405015992
 21
410.9530036451
 31
0.0
  0
LINE
  5
168
330
72
100
AcDbEntity
  8
$DDT_AUDIT_GENERATED_(8D)
  6
Continuous
 62
     7
100
AcDbLine
 10
37.2405015992
 20
410.9530036451
 30
0.0
 11
37.2405015992
 21
410.3080036451
 31
0.0
  0
LINE
  5
169
330
72
100
AcDbEntity
  8
$DDT_AUDIT_GENERATED_(8D)
  6
Continuous
 62
     7
100
AcDbLine
 10
37.2405015992
 20
410.3080036451
 30
0.0
 11
36.6819152138
 21
409.9855036451
 31
0.0
  0
LINE
  5
16A
330
72
100
AcDbEntity
  8
$DDT_AUDIT_GENERATED_(8D)
  6
Continuous
 62
     7
100
AcDbLine
 10
36.6819152138
 20
409.9855036451
 30
0.0
 11
36.1233288284
 21
410.3080036451
 31
0.0
  0
LINE
  5
16B
330
72
100
AcDbEntity
  8
$DDT_AUDIT_GENERATED_(8D)
  6
Continuous
 62
     7
100
AcDbLine
 10
37.9240852138
 20
411.492009996
 30
0.0
 11
37.3654988284
 21
411.169509996
 31
0.0
  0
LINE
  5
16C
330
72
100
AcDbEntity
  8
$DDT_AUDIT_GENERATED_(8D)
  6
Continuous
 62
     7
100
AcDbLine
 10
37.3654988284
 20
411.169509996
 30
0.0
 11
36.8069124429
 21
411.492009996
 31
0.0
  0
LINE
  5
16D
330
72
100
AcDbEntity
  8
$DDT_AUDIT_GENERATED_(8D)
  6
Continuous
 62
     7
100
AcDbLine
 10
36.8069124429
 20
411.492009996
 30
0.0
 11
36.8069124429
 21
412.137009996
 31
0.0
  0
LINE
  5
16E
330
72
100
AcDbEntity
  8
$DDT_AUDIT_GENERATED_(8D)
  6
Continuous
 62
     7
100
AcDbLine
 10
36.8069124429
 20
412.137009996
 30
0.0
 11
37.3654988284
 21
412.459509996
 31
0.0
  0
LINE
  5
16F
330
72
100
AcDbEntity
  8
$DDT_AUDIT_GENERATED_(8D)
  6
Continuous
 62
     7
100
AcDbLine
 10
37.3654988284
 20
412.459509996
 30
0.0
 11
37.9240852138
 21
412.137009996
 31
0.0
  0
LINE
  5
170
330
72
100
AcDbEntity
  8
$DDT_AUDIT_GENERATED_(8D)
  6
Continuous
 62
     7
100
AcDbLine
 10
37.9240852138
 20
412.137009996
 30
0.0
 11
37.9240852138
 21
411.492009996
 31
0.0
  0
LINE
  5
171
330
72
100
AcDbEntity
  8
$DDT_AUDIT_GENERATED_(8D)
  6
Continuous
 62
     7
100
AcDbLine
 10
39.2912552138
 20
411.492009996
 30
0.0
 11
38.7326688284
 21
411.169509996
 31
0.0
  0
LINE
  5
172
330
72
100
AcDbEntity
  8
$DDT_AUDIT_GENERATED_(8D)
  6
Continuous
 62
     7
100
AcDbLine
 10
38.7326688284
 20
411.169509996
 30
0.0
 11
38.1740824429
 21
411.492009996
 31
0.0
  0
LINE
  5
173
330
72
100
AcDbEntity
  8
$DDT_AUDIT_GENERATED_(8D)
  6
Continuous
 62
     7
100
AcDbLine
 10
38.1740824429
 20
411.492009996
 30
0.0
 11
38.1740824429
 21
412.137009996
 31
0.0
  0
LINE
  5
174
330
72
100
AcDbEntity
  8
$DDT_AUDIT_GENERATED_(8D)
  6
Continuous
 62
     7
100
AcDbLine
 10
38.1740824429
 20
412.137009996
 30
0.0
 11
38.7326688284
 21
412.459509996
 31
0.0
  0
LINE
  5
175
330
72
100
AcDbEntity
  8
$DDT_AUDIT_GENERATED_(8D)
  6
Continuous
 62
     7
100
AcDbLine
 10
38.7326688284
 20
412.459509996
 30
0.0
 11
39.2912552138
 21
412.137009996
 31
0.0
  0
LINE
  5
176
330
72
100
AcDbEntity
  8
$DDT_AUDIT_GENERATED_(8D)
  6
Continuous
 62
     7
100
AcDbLine
 10
39.2912552138
 20
412.137009996
 30
0.0
 11
39.2912552138
 21
411.492009996
 31
0.0
  0
LINE
  5
177
330
72
100
AcDbEntity
  8
$DDT_AUDIT_GENERATED_(8D)
  6
Continuous
 62
     7
100
AcDbLine
 10
39.2912552138
 20
409.124009996
 30
0.0
 11
38.7326688284
 21
408.801509996
 31
0.0
  0
LINE
  5
178
330
72
100
AcDbEntity
  8
$DDT_AUDIT_GENERATED_(8D)
  6
Continuous
 62
     7
100
AcDbLine
 10
38.7326688284
 20
408.801509996
 30
0.0
 11
38.1740824429
 21
409.124009996
 31
0.0
  0
LINE
  5
179
330
72
100
AcDbEntity
  8
$DDT_AUDIT_GENERATED_(8D)
  6
Continuous
 62
     7
100
AcDbLine
 10
38.1740824429
 20
409.124009996
 30
0.0
 11
38.1740824429
 21
409.769009996
 31
0.0
  0
LINE
  5
17A
330
72
100
AcDbEntity
  8
$DDT_AUDIT_GENERATED_(8D)
  6
Continuous
 62
     7
100
AcDbLine
 10
38.1740824429
 20
409.769009996
 30
0.0
 11
38.7326688284
 21
410.091509996
 31
0.0
  0
LINE
  5
17B
330
72
100
AcDbEntity
  8
$DDT_AUDIT_GENERATED_(8D)
  6
Continuous
 62
     7
100
AcDbLine
 10
38.7326688284
 20
410.091509996
 30
0.0
 11
39.2912552138
 21
409.769009996
 31
0.0
  0
LINE
  5
17C
330
72
100
AcDbEntity
  8
$DDT_AUDIT_GENERATED_(8D)
  6
Continuous
 62
     7
100
AcDbLine
 10
39.2912552138
 20
409.769009996
 30
0.0
 11
39.2912552138
 21
409.124009996
 31
0.0
  0
LINE
  5
17D
330
72
100
AcDbEntity
  8
$DDT_AUDIT_GENERATED_(8D)
  6
Continuous
 62
     7
100
AcDbLine
 10
40.6584252138
 20
411.492009996
 30
0.0
 11
40.0998388284
 21
411.169509996
 31
0.0
  0
LINE
  5
17E
330
72
100
AcDbEntity
  8
$DDT_AUDIT_GENERATED_(8D)
  6
Continuous
 62
     7
100
AcDbLine
 10
40.0998388284
 20
411.169509996
 30
0.0
 11
39.5412524429
 21
411.492009996
 31
0.0
  0
LINE
  5
17F
330
72
100
AcDbEntity
  8
$DDT_AUDIT_GENERATED_(8D)
  6
Continuous
 62
     7
100
AcDbLine
 10
39.5412524429
 20
411.492009996
 30
0.0
 11
39.5412524429
 21
412.137009996
 31
0.0
  0
LINE
  5
180
330
72
100
AcDbEntity
  8
$DDT_AUDIT_GENERATED_(8D)
  6
Continuous
 62
     7
100
AcDbLine
 10
39.5412524429
 20
412.137009996
 30
0.0
 11
40.0998388284
 21
412.459509996
 31
0.0
  0
LINE
  5
181
330
72
100
AcDbEntity
  8
$DDT_AUDIT_GENERATED_(8D)
  6
Continuous
 62
     7
100
AcDbLine
 10
40.0998388284
 20
412.459509996
 30
0.0
 11
40.6584252138
 21
412.137009996
 31
0.0
  0
LINE
  5
182
330
72
100
AcDbEntity
  8
$DDT_AUDIT_GENERATED_(8D)
  6
Continuous
 62
     7
100
AcDbLine
 10
40.6584252138
 20
412.137009996
 30
0.0
 11
40.6584252138
 21
411.492009996
 31
0.0
  0
LINE
  5
183
330
72
100
AcDbEntity
  8
$DDT_AUDIT_GENERATED_(8D)
  6
Continuous
 62
     7
100
AcDbLine
 10
40.2248388284
 20
410.3080036451
 30
0.0
 11
40.2248388284
 21
410.9530036451
 31
0.0
  0
LINE
  5
184
330
72
100
AcDbEntity
  8
$DDT_AUDIT_GENERATED_(8D)
  6
Continuous
 62
     7
100
AcDbLine
 10
40.2248388284
 20
410.9530036451
 30
0.0
 11
40.7834252138
 21
411.2755036451
 31
0.0
  0
LINE
  5
185
330
72
100
AcDbEntity
  8
$DDT_AUDIT_GENERATED_(8D)
  6
Continuous
 62
     7
100
AcDbLine
 10
40.7834252138
 20
411.2755036451
 30
0.0
 11
41.3420115992
 21
410.9530036451
 31
0.0
  0
LINE
  5
186
330
72
100
AcDbEntity
  8
$DDT_AUDIT_GENERATED_(8D)
  6
Continuous
 62
     7
100
AcDbLine
 10
41.3420115992
 20
410.9530036451
 30
0.0
 11
41.3420115992
 21
410.3080036451
 31
0.0
  0
LINE
  5
187
330
72
100
AcDbEntity
  8
$DDT_AUDIT_GENERATED_(8D)
  6
Continuous
 62
     7
100
AcDbLine
 10
41.3420115992
 20
410.3080036451
 30
0.0
 11
40.7834252138
 21
409.9855036451
 31
0.0
  0
LINE
  5
188
330
72
100
AcDbEntity
  8
$DDT_AUDIT_GENERATED_(8D)
  6
Continuous
 62
     7
100
AcDbLine
 10
40.7834252138
 20
409.9855036451
 30
0.0
 11
40.2248388284
 21
410.3080036451
 31
0.0
  0
LINE
  5
189
330
72
100
AcDbEntity
  8
$DDT_AUDIT_GENERATED_(8D)
  6
Continuous
 62
     7
100
AcDbLine
 10
42.0255979847
 20
411.492009996
 30
0.0
 11
41.4670115992
 21
411.169509996
 31
0.0
  0
LINE
  5
18A
330
72
100
AcDbEntity
  8
$DDT_AUDIT_GENERATED_(8D)
  6
Continuous
 62
     7
100
AcDbLine
 10
41.4670115992
 20
411.169509996
 30
0.0
 11
40.9084252138
 21
411.492009996
 31
0.0
  0
LINE
  5
18B
330
72
100
AcDbEntity
  8
$DDT_AUDIT_GENERATED_(8D)
  6
Continuous
 62
     7
100
AcDbLine
 10
40.9084252138
 20
411.492009996
 30
0.0
 11
40.9084252138
 21
412.137009996
 31
0.0
  0
LINE
  5
18C
330
72
100
AcDbEntity
  8
$DDT_AUDIT_GENERATED_(8D)
  6
Continuous
 62
     7
100
AcDbLine
 10
40.9084252138
 20
412.137009996
 30
0.0
 11
41.4670115992
 21
412.459509996
 31
0.0
  0
LINE
  5
18D
330
72
100
AcDbEntity
  8
$DDT_AUDIT_GENERATED_(8D)
  6
Continuous
 62
     7
100
AcDbLine
 10
41.4670115992
 20
412.459509996
 30
0.0
 11
42.0255979847
 21
412.137009996
 31
0.0
  0
LINE
  5
18E
330
72
100
AcDbEntity
  8
$DDT_AUDIT_GENERATED_(8D)
  6
Continuous
 62
     7
100
AcDbLine
 10
42.0255979847
 20
412.137009996
 30
0.0
 11
42.0255979847
 21
411.492009996
 31
0.0
  0
LINE
  5
18F
330
72
100
AcDbEntity
  8
$DDT_AUDIT_GENERATED_(8D)
  6
Continuous
 62
     7
100
AcDbLine
 10
42.1505952138
 20
411.2755036451
 30
0.0
 11
42.7091815992
 21
410.9530036451
 31
0.0
  0
LINE
  5
190
330
72
100
AcDbEntity
  8
$DDT_AUDIT_GENERATED_(8D)
  6
Continuous
 62
     7
100
AcDbLine
 10
42.7091815992
 20
410.9530036451
 30
0.0
 11
42.7091815992
 21
410.3080036451
 31
0.0
  0
LINE
  5
191
330
72
100
AcDbEntity
  8
$DDT_AUDIT_GENERATED_(8D)
  6
Continuous
 62
     7
100
AcDbLine
 10
42.7091815992
 20
410.3080036451
 30
0.0
 11
42.1505952138
 21
409.9855036451
 31
0.0
  0
LINE
  5
192
330
72
100
AcDbEntity
  8
$DDT_AUDIT_GENERATED_(8D)
  6
Continuous
 62
     7
100
AcDbLine
 10
42.1505952138
 20
409.9855036451
 30
0.0
 11
41.5920088284
 21
410.3080036451
 31
0.0
  0
LINE
  5
193
330
72
100
AcDbEntity
  8
$DDT_AUDIT_GENERATED_(8D)
  6
Continuous
 62
     7
100
AcDbLine
 10
41.5920088284
 20
410.3080036451
 30
0.0
 11
41.5920088284
 21
410.9530036451
 31
0.0
  0
LINE
  5
194
330
72
100
AcDbEntity
  8
$DDT_AUDIT_GENERATED_(8D)
  6
Continuous
 62
     7
100
AcDbLine
 10
41.5920088284
 20
410.9530036451
 30
0.0
 11
42.1505952138
 21
411.2755036451
 31
0.0
  0
LINE
  5
195
330
72
100
AcDbEntity
  8
$DDT_AUDIT_GENERATED_(8D)
  6
Continuous
 62
     7
100
AcDbLine
 10
42.1505952138
 20
413.6435036451
 30
0.0
 11
42.7091815992
 21
413.3210036451
 31
0.0
  0
LINE
  5
196
330
72
100
AcDbEntity
  8
$DDT_AUDIT_GENERATED_(8D)
  6
Continuous
 62
     7
100
AcDbLine
 10
42.7091815992
 20
413.3210036451
 30
0.0
 11
42.7091815992
 21
412.6760036451
 31
0.0
  0
LINE
  5
197
330
72
100
AcDbEntity
  8
$DDT_AUDIT_GENERATED_(8D)
  6
Continuous
 62
     7
100
AcDbLine
 10
42.7091815992
 20
412.6760036451
 30
0.0
 11
42.1505952138
 21
412.3535036451
 31
0.0
  0
LINE
  5
198
330
72
100
AcDbEntity
  8
$DDT_AUDIT_GENERATED_(8D)
  6
Continuous
 62
     7
100
AcDbLine
 10
42.1505952138
 20
412.3535036451
 30
0.0
 11
41.5920088284
 21
412.6760036451
 31
0.0
  0
LINE
  5
199
330
72
100
AcDbEntity
  8
$DDT_AUDIT_GENERATED_(8D)
  6
Continuous
 62
     7
100
AcDbLine
 10
41.5920088284
 20
412.6760036451
 30
0.0
 11
41.5920088284
 21
413.3210036451
 31
0.0
  0
LINE
  5
19A
330
72
100
AcDbEntity
  8
$DDT_AUDIT_GENERATED_(8D)
  6
Continuous
 62
     7
100
AcDbLine
 10
41.5920088284
 20
413.3210036451
 30
0.0
 11
42.1505952138
 21
413.6435036451
 31
0.0
  0
LINE
  5
19B
330
72
100
AcDbEntity
  8
$DDT_AUDIT_GENERATED_(8D)
  6
Continuous
 62
     7
100
AcDbLine
 10
46.1271079847
 20
409.124009996
 30
0.0
 11
45.5685215992
 21
408.801509996
 31
0.0
  0
LINE
  5
19C
330
72
100
AcDbEntity
  8
$DDT_AUDIT_GENERATED_(8D)
  6
Continuous
 62
     7
100
AcDbLine
 10
45.5685215992
 20
408.801509996
 30
0.0
 11
45.0099352138
 21
409.124009996
 31
0.0
  0
LINE
  5
19D
330
72
100
AcDbEntity
  8
$DDT_AUDIT_GENERATED_(8D)
  6
Continuous
 62
     7
100
AcDbLine
 10
45.0099352138
 20
409.124009996
 30
0.0
 11
45.0099352138
 21
409.769009996
 31
0.0
  0
LINE
  5
19E
330
72
100
AcDbEntity
  8
$DDT_AUDIT_GENERATED_(8D)
  6
Continuous
 62
     7
100
AcDbLine
 10
45.0099352138
 20
409.769009996
 30
0.0
 11
45.5685215992
 21
410.091509996
 31
0.0
  0
LINE
  5
19F
330
72
100
AcDbEntity
  8
$DDT_AUDIT_GENERATED_(8D)
  6
Continuous
 62
     7
100
AcDbLine
 10
45.5685215992
 20
410.091509996
 30
0.0
 11
46.1271079847
 21
409.769009996
 31
0.0
  0
LINE
  5
1A0
330
72
100
AcDbEntity
  8
$DDT_AUDIT_GENERATED_(8D)
  6
Continuous
 62
     7
100
AcDbLine
 10
46.1271079847
 20
409.769009996
 30
0.0
 11
46.1271079847
 21
409.124009996
 31
0.0
  0
LINE
  5
1A1
330
72
100
AcDbEntity
  8
$DDT_AUDIT_GENERATED_(8D)
  6
Continuous
 62
     7
100
AcDbLine
 10
45.4435215992
 20
406.2170036451
 30
0.0
 11
45.4435215992
 21
405.5720036451
 31
0.0
  0
LINE
  5
1A2
330
72
100
AcDbEntity
  8
$DDT_AUDIT_GENERATED_(8D)
  6
Continuous
 62
     7
100
AcDbLine
 10
45.4435215992
 20
405.5720036451
 30
0.0
 11
44.8849352138
 21
405.2495036451
 31
0.0
  0
LINE
  5
1A3
330
72
100
AcDbEntity
  8
$DDT_AUDIT_GENERATED_(8D)
  6
Continuous
 62
     7
100
AcDbLine
 10
44.8849352138
 20
405.2495036451
 30
0.0
 11
44.3263488284
 21
405.5720036451
 31
0.0
  0
LINE
  5
1A4
330
72
100
AcDbEntity
  8
$DDT_AUDIT_GENERATED_(8D)
  6
Continuous
 62
     7
100
AcDbLine
 10
44.3263488284
 20
405.5720036451
 30
0.0
 11
44.3263488284
 21
406.2170036451
 31
0.0
  0
LINE
  5
1A5
330
72
100
AcDbEntity
  8
$DDT_AUDIT_GENERATED_(8D)
  6
Continuous
 62
     7
100
AcDbLine
 10
44.3263488284
 20
406.2170036451
 30
0.0
 11
44.8849352138
 21
406.5395036451
 31
0.0
  0
LINE
  5
1A6
330
72
100
AcDbEntity
  8
$DDT_AUDIT_GENERATED_(8D)
  6
Continuous
 62
     7
100
AcDbLine
 10
44.8849352138
 20
406.5395036451
 30
0.0
 11
45.4435215992
 21
406.2170036451
 31
0.0
  0
LINE
  5
1A7
330
72
100
AcDbEntity
  8
$DDT_AUDIT_GENERATED_(8D)
  6
Continuous
 62
     7
100
AcDbLine
 10
45.4435215992
 20
408.5850036451
 30
0.0
 11
45.4435215992
 21
407.9400036451
 31
0.0
  0
LINE
  5
1A8
330
72
100
AcDbEntity
  8
$DDT_AUDIT_GENERATED_(8D)
  6
Continuous
 62
     7
100
AcDbLine
 10
45.4435215992
 20
407.9400036451
 30
0.0
 11
44.8849352138
 21
407.6175036451
 31
0.0
  0
LINE
  5
1A9
330
72
100
AcDbEntity
  8
$DDT_AUDIT_GENERATED_(8D)
  6
Continuous
 62
     7
100
AcDbLine
 10
44.8849352138
 20
407.6175036451
 30
0.0
 11
44.3263488284
 21
407.9400036451
 31
0.0
  0
LINE
  5
1AA
330
72
100
AcDbEntity
  8
$DDT_AUDIT_GENERATED_(8D)
  6
Continuous
 62
     7
100
AcDbLine
 10
44.3263488284
 20
407.9400036451
 30
0.0
 11
44.3263488284
 21
408.5850036451
 31
0.0
  0
LINE
  5
1AB
330
72
100
AcDbEntity
  8
$DDT_AUDIT_GENERATED_(8D)
  6
Continuous
 62
     7
100
AcDbLine
 10
44.3263488284
 20
408.5850036451
 30
0.0
 11
44.8849352138
 21
408.9075036451
 31
0.0
  0
LINE
  5
1AC
330
72
100
AcDbEntity
  8
$DDT_AUDIT_GENERATED_(8D)
  6
Continuous
 62
     7
100
AcDbLine
 10
44.8849352138
 20
408.9075036451
 30
0.0
 11
45.4435215992
 21
408.5850036451
 31
0.0
  0
LINE
  5
1AD
330
72
100
AcDbEntity
  8
$DDT_AUDIT_GENERATED_(8D)
  6
Continuous
 62
     7
100
AcDbLine
 10
44.0763515992
 20
406.2170036451
 30
0.0
 11
44.0763515992
 21
405.5720036451
 31
0.0
  0
LINE
  5
1AE
330
72
100
AcDbEntity
  8
$DDT_AUDIT_GENERATED_(8D)
  6
Continuous
 62
     7
100
AcDbLine
 10
44.0763515992
 20
405.5720036451
 30
0.0
 11
43.5177652138
 21
405.2495036451
 31
0.0
  0
LINE
  5
1AF
330
72
100
AcDbEntity
  8
$DDT_AUDIT_GENERATED_(8D)
  6
Continuous
 62
     7
100
AcDbLine
 10
43.5177652138
 20
405.2495036451
 30
0.0
 11
42.9591788284
 21
405.5720036451
 31
0.0
  0
LINE
  5
1B0
330
72
100
AcDbEntity
  8
$DDT_AUDIT_GENERATED_(8D)
  6
Continuous
 62
     7
100
AcDbLine
 10
42.9591788284
 20
405.5720036451
 30
0.0
 11
42.9591788284
 21
406.2170036451
 31
0.0
  0
LINE
  5
1B1
330
72
100
AcDbEntity
  8
$DDT_AUDIT_GENERATED_(8D)
  6
Continuous
 62
     7
100
AcDbLine
 10
42.9591788284
 20
406.2170036451
 30
0.0
 11
43.5177652138
 21
406.5395036451
 31
0.0
  0
LINE
  5
1B2
330
72
100
AcDbEntity
  8
$DDT_AUDIT_GENERATED_(8D)
  6
Continuous
 62
     7
100
AcDbLine
 10
43.5177652138
 20
406.5395036451
 30
0.0
 11
44.0763515992
 21
406.2170036451
 31
0.0
  0
LINE
  5
1B3
330
72
100
AcDbEntity
  8
$DDT_AUDIT_GENERATED_(8D)
  6
Continuous
 62
     7
100
AcDbLine
 10
44.0763515992
 20
408.5850036451
 30
0.0
 11
44.0763515992
 21
407.9400036451
 31
0.0
  0
LINE
  5
1B4
330
72
100
AcDbEntity
  8
$DDT_AUDIT_GENERATED_(8D)
  6
Continuous
 62
     7
100
AcDbLine
 10
44.0763515992
 20
407.9400036451
 30
0.0
 11
43.5177652138
 21
407.6175036451
 31
0.0
  0
LINE
  5
1B5
330
72
100
AcDbEntity
  8
$DDT_AUDIT_GENERATED_(8D)
  6
Continuous
 62
     7
100
AcDbLine
 10
43.5177652138
 20
407.6175036451
 30
0.0
 11
42.9591788284
 21
407.9400036451
 31
0.0
  0
LINE
  5
1B6
330
72
100
AcDbEntity
  8
$DDT_AUDIT_GENERATED_(8D)
  6
Continuous
 62
     7
100
AcDbLine
 10
42.9591788284
 20
407.9400036451
 30
0.0
 11
42.9591788284
 21
408.5850036451
 31
0.0
  0
LINE
  5
1B7
330
72
100
AcDbEntity
  8
$DDT_AUDIT_GENERATED_(8D)
  6
Continuous
 62
     7
100
AcDbLine
 10
42.9591788284
 20
408.5850036451
 30
0.0
 11
43.5177652138
 21
408.9075036451
 31
0.0
  0
LINE
  5
1B8
330
72
100
AcDbEntity
  8
$DDT_AUDIT_GENERATED_(8D)
  6
Continuous
 62
     7
100
AcDbLine
 10
43.5177652138
 20
408.9075036451
 30
0.0
 11
44.0763515992
 21
408.5850036451
 31
0.0
  0
LINE
  5
1B9
330
72
100
AcDbEntity
  8
$DDT_AUDIT_GENERATED_(8D)
  6
Continuous
 62
     7
100
AcDbLine
 10
42.2755952138
 20
405.0329972941
 30
0.0
 11
42.8341815992
 21
405.3554972941
 31
0.0
  0
LINE
  5
1BA
330
72
100
AcDbEntity
  8
$DDT_AUDIT_GENERATED_(8D)
  6
Continuous
 62
     7
100
AcDbLine
 10
42.8341815992
 20
405.3554972941
 30
0.0
 11
43.3927679847
 21
405.0329972941
 31
0.0
  0
LINE
  5
1BB
330
72
100
AcDbEntity
  8
$DDT_AUDIT_GENERATED_(8D)
  6
Continuous
 62
     7
100
AcDbLine
 10
43.3927679847
 20
405.0329972941
 30
0.0
 11
43.3927679847
 21
404.3879972941
 31
0.0
  0
LINE
  5
1BC
330
72
100
AcDbEntity
  8
$DDT_AUDIT_GENERATED_(8D)
  6
Continuous
 62
     7
100
AcDbLine
 10
43.3927679847
 20
404.3879972941
 30
0.0
 11
42.8341815992
 21
404.0654972941
 31
0.0
  0
LINE
  5
1BD
330
72
100
AcDbEntity
  8
$DDT_AUDIT_GENERATED_(8D)
  6
Continuous
 62
     7
100
AcDbLine
 10
42.8341815992
 20
404.0654972941
 30
0.0
 11
42.2755952138
 21
404.3879972941
 31
0.0
  0
LINE
  5
1BE
330
72
100
AcDbEntity
  8
$DDT_AUDIT_GENERATED_(8D)
  6
Continuous
 62
     7
100
AcDbLine
 10
42.2755952138
 20
404.3879972941
 30
0.0
 11
42.2755952138
 21
405.0329972941
 31
0.0
  0
LINE
  5
1BF
330
72
100
AcDbEntity
  8
$DDT_AUDIT_GENERATED_(8D)
  6
Continuous
 62
     7
100
AcDbLine
 10
42.2755952138
 20
407.4009972941
 30
0.0
 11
42.8341815992
 21
407.7234972941
 31
0.0
  0
LINE
  5
1C0
330
72
100
AcDbEntity
  8
$DDT_AUDIT_GENERATED_(8D)
  6
Continuous
 62
     7
100
AcDbLine
 10
42.8341815992
 20
407.7234972941
 30
0.0
 11
43.3927679847
 21
407.4009972941
 31
0.0
  0
LINE
  5
1C1
330
72
100
AcDbEntity
  8
$DDT_AUDIT_GENERATED_(8D)
  6
Continuous
 62
     7
100
AcDbLine
 10
43.3927679847
 20
407.4009972941
 30
0.0
 11
43.3927679847
 21
406.7559972941
 31
0.0
  0
LINE
  5
1C2
330
72
100
AcDbEntity
  8
$DDT_AUDIT_GENERATED_(8D)
  6
Continuous
 62
     7
100
AcDbLine
 10
43.3927679847
 20
406.7559972941
 30
0.0
 11
42.8341815992
 21
406.4334972941
 31
0.0
  0
LINE
  5
1C3
330
72
100
AcDbEntity
  8
$DDT_AUDIT_GENERATED_(8D)
  6
Continuous
 62
     7
100
AcDbLine
 10
42.8341815992
 20
406.4334972941
 30
0.0
 11
42.2755952138
 21
406.7559972941
 31
0.0
  0
LINE
  5
1C4
330
72
100
AcDbEntity
  8
$DDT_AUDIT_GENERATED_(8D)
  6
Continuous
 62
     7
100
AcDbLine
 10
42.2755952138
 20
406.7559972941
 30
0.0
 11
42.2755952138
 21
407.4009972941
 31
0.0
  0
LINE
  5
1C5
330
72
100
AcDbEntity
  8
$DDT_AUDIT_GENERATED_(8D)
  6
Continuous
 62
     7
100
AcDbLine
 10
34.7382080248
 20
407.6616924117
 30
0.0
 11
35.1897452138
 21
407.4009972941
 31
0.0
  0
LINE
  5
1C6
330
72
100
AcDbEntity
  8
$DDT_AUDIT_GENERATED_(8D)
  6
Continuous
 62
     7
100
AcDbLine
 10
35.1897452138
 20
407.4009972941
 30
0.0
 11
35.1897452138
 21
406.7559972941
 31
0.0
  0
LINE
  5
1C7
330
72
100
AcDbEntity
  8
$DDT_AUDIT_GENERATED_(8D)
  6
Continuous
 62
     7
100
AcDbLine
 10
35.1897452138
 20
406.7559972941
 30
0.0
 11
34.9374105732
 21
406.6103118214
 31
0.0
  0
LINE
  5
1C8
330
72
100
AcDbEntity
  8
$DDT_AUDIT_GENERATED_(8D)
  6
Continuous
 62
     7
100
AcDbLine
 10
35.0123881688
 20
406.3649377238
 30
0.0
 11
35.3147452138
 21
406.5395036451
 31
0.0
  0
LINE
  5
1C9
330
72
100
AcDbEntity
  8
$DDT_AUDIT_GENERATED_(8D)
  6
Continuous
 62
     7
100
AcDbLine
 10
35.3147452138
 20
406.5395036451
 30
0.0
 11
35.8733315992
 21
406.2170036451
 31
0.0
  0
LINE
  5
1CA
330
72
100
AcDbEntity
  8
$DDT_AUDIT_GENERATED_(8D)
  6
Continuous
 62
     7
100
AcDbLine
 10
35.8733315992
 20
406.2170036451
 30
0.0
 11
35.8733315992
 21
405.5720036451
 31
0.0
  0
LINE
  5
1CB
330
72
100
AcDbEntity
  8
$DDT_AUDIT_GENERATED_(8D)
  6
Continuous
 62
     7
100
AcDbLine
 10
35.8733315992
 20
405.5720036451
 30
0.0
 11
35.4609320876
 21
405.333904676
 31
0.0
  0
LINE
  5
1CC
330
72
100
AcDbEntity
  8
$DDT_AUDIT_GENERATED_(8D)
  6
Continuous
 62
     7
100
AcDbLine
 10
35.5859311756
 20
405.1173993983
 30
0.0
 11
35.9983288284
 21
405.3554972941
 31
0.0
  0
LINE
  5
1CD
330
72
100
AcDbEntity
  8
$DDT_AUDIT_GENERATED_(8D)
  6
Continuous
 62
     7
100
AcDbLine
 10
35.9983288284
 20
405.3554972941
 30
0.0
 11
36.5569152138
 21
405.0329972941
 31
0.0
  0
LINE
  5
1CE
330
72
100
AcDbEntity
  8
$DDT_AUDIT_GENERATED_(8D)
  6
Continuous
 62
     7
100
AcDbLine
 10
36.5569152138
 20
405.0329972941
 30
0.0
 11
36.5569152138
 21
404.3879972941
 31
0.0
  0
LINE
  5
1CF
330
72
100
AcDbEntity
  8
$DDT_AUDIT_GENERATED_(8D)
  6
Continuous
 62
     7
100
AcDbLine
 10
36.5569152138
 20
404.3879972941
 30
0.0
 11
36.2545580215
 21
404.2134312878
 31
0.0
  0
LINE
  5
1D0
330
72
100
AcDbEntity
  8
$DDT_AUDIT_GENERATED_(8D)
  6
Continuous
 62
     7
100
AcDbLine
 10
36.4295689516
 20
404.0258114627
 30
0.0
 11
36.6819152138
 21
404.1715036451
 31
0.0
  0
LINE
  5
1D1
330
72
100
AcDbEntity
  8
$DDT_AUDIT_GENERATED_(8D)
  6
Continuous
 62
     7
100
AcDbLine
 10
36.6819152138
 20
404.1715036451
 30
0.0
 11
37.2405015992
 21
403.8490036451
 31
0.0
  0
LINE
  5
1D2
330
72
100
AcDbEntity
  8
$DDT_AUDIT_GENERATED_(8D)
  6
Continuous
 62
     7
100
AcDbLine
 10
37.2405015992
 20
403.8490036451
 30
0.0
 11
37.2405015992
 21
403.3275956154
 31
0.0
  0
LINE
  5
1D3
330
72
100
AcDbEntity
  8
$DDT_AUDIT_GENERATED_(8D)
  6
Continuous
 62
     7
100
AcDbLine
 10
37.4904988284
 20
403.1573826063
 30
0.0
 11
37.4904988284
 21
403.8490036451
 31
0.0
  0
LINE
  5
1D4
330
72
100
AcDbEntity
  8
$DDT_AUDIT_GENERATED_(8D)
  6
Continuous
 62
     7
100
AcDbLine
 10
37.4904988284
 20
403.8490036451
 30
0.0
 11
38.0490852138
 21
404.1715036451
 31
0.0
  0
LINE
  5
1D5
330
72
100
AcDbEntity
  8
$DDT_AUDIT_GENERATED_(8D)
  6
Continuous
 62
     7
100
AcDbLine
 10
38.0490852138
 20
404.1715036451
 30
0.0
 11
38.6076715992
 21
403.8490036451
 31
0.0
  0
LINE
  5
1D6
330
72
100
AcDbEntity
  8
$DDT_AUDIT_GENERATED_(8D)
  6
Continuous
 62
     7
100
AcDbLine
 10
38.6076715992
 20
403.8490036451
 30
0.0
 11
38.6076715992
 21
403.2040036451
 31
0.0
  0
LINE
  5
1D7
330
72
100
AcDbEntity
  8
$DDT_AUDIT_GENERATED_(8D)
  6
Continuous
 62
     7
100
AcDbLine
 10
38.6076715992
 20
403.2040036451
 30
0.0
 11
38.0087094077
 21
402.8581926626
 31
0.0
  0
LINE
  5
1D8
330
72
100
AcDbEntity
  8
$DDT_AUDIT_GENERATED_(8D)
  6
Continuous
 62
     7
100
AcDbLine
 10
38.2811175021
 20
402.7267940143
 30
0.0
 11
38.7326688284
 21
402.9874972941
 31
0.0
  0
LINE
  5
1D9
330
72
100
AcDbEntity
  8
$DDT_AUDIT_GENERATED_(8D)
  6
Continuous
 62
     7
100
AcDbLine
 10
38.7326688284
 20
402.9874972941
 30
0.0
 11
39.2912552138
 21
402.6649972941
 31
0.0
  0
LINE
  5
1DA
330
72
100
AcDbEntity
  8
$DDT_AUDIT_GENERATED_(8D)
  6
Continuous
 62
     7
100
AcDbLine
 10
39.2912552138
 20
402.6649972941
 30
0.0
 11
39.2912552138
 21
402.3736112457
 31
0.0
  0
LINE
  5
1DB
330
72
100
AcDbEntity
  8
$DDT_AUDIT_GENERATED_(8D)
  6
Continuous
 62
     7
100
AcDbLine
 10
39.5412524429
 20
402.3158548571
 30
0.0
 11
39.5412524429
 21
402.6649972941
 31
0.0
  0
LINE
  5
1DC
330
72
100
AcDbEntity
  8
$DDT_AUDIT_GENERATED_(8D)
  6
Continuous
 62
     7
100
AcDbLine
 10
39.5412524429
 20
402.6649972941
 30
0.0
 11
40.0998388284
 21
402.9874972941
 31
0.0
  0
LINE
  5
1DD
330
72
100
AcDbEntity
  8
$DDT_AUDIT_GENERATED_(8D)
  6
Continuous
 62
     7
100
AcDbLine
 10
40.0998388284
 20
402.9874972941
 30
0.0
 11
40.6584252138
 21
402.6649972941
 31
0.0
  0
LINE
  5
1DE
330
72
100
AcDbEntity
  8
$DDT_AUDIT_GENERATED_(8D)
  6
Continuous
 62
     7
100
AcDbLine
 10
40.6584252138
 20
402.6649972941
 30
0.0
 11
40.6584252138
 21
402.1887897894
 31
0.0
  0
LINE
  5
1DF
330
72
100
AcDbEntity
  8
$DDT_AUDIT_GENERATED_(8D)
  6
Continuous
 62
     7
100
AcDbLine
 10
40.9084252138
 20
402.1887897894
 30
0.0
 11
40.9084252138
 21
402.6649972941
 31
0.0
  0
LINE
  5
1E0
330
72
100
AcDbEntity
  8
$DDT_AUDIT_GENERATED_(8D)
  6
Continuous
 62
     7
100
AcDbLine
 10
40.9084252138
 20
402.6649972941
 30
0.0
 11
41.4670115992
 21
402.9874972941
 31
0.0
  0
LINE
  5
1E1
330
72
100
AcDbEntity
  8
$DDT_AUDIT_GENERATED_(8D)
  6
Continuous
 62
     7
100
AcDbLine
 10
41.4670115992
 20
402.9874972941
 30
0.0
 11
42.0255979847
 21
402.6649972941
 31
0.0
  0
LINE
  5
1E2
330
72
100
AcDbEntity
  8
$DDT_AUDIT_GENERATED_(8D)
  6
Continuous
 62
     7
100
AcDbLine
 10
42.0255979847
 20
402.6649972941
 30
0.0
 11
42.0255979847
 21
402.3158548571
 31
0.0
  0
LINE
  5
1E3
330
72
100
AcDbEntity
  8
$DDT_AUDIT_GENERATED_(8D)
  6
Continuous
 62
     7
100
AcDbLine
 10
42.2755952138
 20
402.3736112457
 30
0.0
 11
42.2755952138
 21
402.6649972941
 31
0.0
  0
LINE
  5
1E4
330
72
100
AcDbEntity
  8
$DDT_AUDIT_GENERATED_(8D)
  6
Continuous
 62
     7
100
AcDbLine
 10
42.2755952138
 20
402.6649972941
 30
0.0
 11
42.8341815992
 21
402.9874972941
 31
0.0
  0
LINE
  5
1E5
330
72
100
AcDbEntity
  8
$DDT_AUDIT_GENERATED_(8D)
  6
Continuous
 62
     7
100
AcDbLine
 10
42.8341815992
 20
402.9874972941
 30
0.0
 11
43.2857329255
 21
402.7267940143
 31
0.0
  0
LINE
  5
1E6
330
72
100
AcDbEntity
  8
$DDT_AUDIT_GENERATED_(8D)
  6
Continuous
 62
     7
100
AcDbLine
 10
43.5581410199
 20
402.8581926626
 30
0.0
 11
42.9591788284
 21
403.2040036451
 31
0.0
  0
LINE
  5
1E7
330
72
100
AcDbEntity
  8
$DDT_AUDIT_GENERATED_(8D)
  6
Continuous
 62
     7
100
AcDbLine
 10
42.9591788284
 20
403.2040036451
 30
0.0
 11
42.9591788284
 21
403.8490036451
 31
0.0
  0
LINE
  5
1E8
330
72
100
AcDbEntity
  8
$DDT_AUDIT_GENERATED_(8D)
  6
Continuous
 62
     7
100
AcDbLine
 10
42.9591788284
 20
403.8490036451
 30
0.0
 11
43.5177652138
 21
404.1715036451
 31
0.0
  0
LINE
  5
1E9
330
72
100
AcDbEntity
  8
$DDT_AUDIT_GENERATED_(8D)
  6
Continuous
 62
     7
100
AcDbLine
 10
43.5177652138
 20
404.1715036451
 30
0.0
 11
44.0763515992
 21
403.8490036451
 31
0.0
  0
LINE
  5
1EA
330
72
100
AcDbEntity
  8
$DDT_AUDIT_GENERATED_(8D)
  6
Continuous
 62
     7
100
AcDbLine
 10
44.0763515992
 20
403.8490036451
 30
0.0
 11
44.0763515992
 21
403.1573826063
 31
0.0
  0
LINE
  5
1EB
330
72
100
AcDbEntity
  8
$DDT_AUDIT_GENERATED_(8D)
  6
Continuous
 62
     7
100
AcDbLine
 10
44.3263488284
 20
403.3275956154
 30
0.0
 11
44.3263488284
 21
403.8490036451
 31
0.0
  0
LINE
  5
1EC
330
72
100
AcDbEntity
  8
$DDT_AUDIT_GENERATED_(8D)
  6
Continuous
 62
     7
100
AcDbLine
 10
44.3263488284
 20
403.8490036451
 30
0.0
 11
44.8849352138
 21
404.1715036451
 31
0.0
  0
LINE
  5
1ED
330
72
100
AcDbEntity
  8
$DDT_AUDIT_GENERATED_(8D)
  6
Continuous
 62
     7
100
AcDbLine
 10
44.8849352138
 20
404.1715036451
 30
0.0
 11
45.137281476
 21
404.0258114627
 31
0.0
  0
LINE
  5
1EE
330
72
100
AcDbEntity
  8
$DDT_AUDIT_GENERATED_(8D)
  6
Continuous
 62
     7
100
AcDbLine
 10
45.3122924061
 20
404.2134312878
 30
0.0
 11
45.0099352138
 21
404.3879972941
 31
0.0
  0
LINE
  5
1EF
330
72
100
AcDbEntity
  8
$DDT_AUDIT_GENERATED_(8D)
  6
Continuous
 62
     7
100
AcDbLine
 10
45.0099352138
 20
404.3879972941
 30
0.0
 11
45.0099352138
 21
405.0329972941
 31
0.0
  0
LINE
  5
1F0
330
72
100
AcDbEntity
  8
$DDT_AUDIT_GENERATED_(8D)
  6
Continuous
 62
     7
100
AcDbLine
 10
45.0099352138
 20
405.0329972941
 30
0.0
 11
45.5685215992
 21
405.3554972941
 31
0.0
  0
LINE
  5
1F1
330
72
100
AcDbEntity
  8
$DDT_AUDIT_GENERATED_(8D)
  6
Continuous
 62
     7
100
AcDbLine
 10
45.5685215992
 20
405.3554972941
 30
0.0
 11
45.980919252
 21
405.1173993983
 31
0.0
  0
LINE
  5
1F2
330
72
100
AcDbEntity
  8
$DDT_AUDIT_GENERATED_(8D)
  6
Continuous
 62
     7
100
AcDbLine
 10
46.10591834
 20
405.333904676
 30
0.0
 11
45.6935188284
 21
405.5720036451
 31
0.0
  0
LINE
  5
1F3
330
72
100
AcDbEntity
  8
$DDT_AUDIT_GENERATED_(8D)
  6
Continuous
 62
     7
100
AcDbLine
 10
45.6935188284
 20
405.5720036451
 30
0.0
 11
45.6935188284
 21
406.2170036451
 31
0.0
  0
LINE
  5
1F4
330
72
100
AcDbEntity
  8
$DDT_AUDIT_GENERATED_(8D)
  6
Continuous
 62
     7
100
AcDbLine
 10
45.6935188284
 20
406.2170036451
 30
0.0
 11
46.2521052138
 21
406.5395036451
 31
0.0
  0
LINE
  5
1F5
330
72
100
AcDbEntity
  8
$DDT_AUDIT_GENERATED_(8D)
  6
Continuous
 62
     7
100
AcDbLine
 10
46.2521052138
 20
406.5395036451
 30
0.0
 11
46.5544622588
 21
406.3649377238
 31
0.0
  0
LINE
  5
1F6
330
72
100
AcDbEntity
  8
$DDT_AUDIT_GENERATED_(8D)
  6
Continuous
 62
     7
100
AcDbLine
 10
46.6294398544
 20
406.6103118214
 30
0.0
 11
46.3771052138
 21
406.7559972941
 31
0.0
  0
LINE
  5
1F7
330
72
100
AcDbEntity
  8
$DDT_AUDIT_GENERATED_(8D)
  6
Continuous
 62
     7
100
AcDbLine
 10
46.3771052138
 20
406.7559972941
 30
0.0
 11
46.3771052138
 21
407.4009972941
 31
0.0
  0
LINE
  5
1F8
330
72
100
AcDbEntity
  8
$DDT_AUDIT_GENERATED_(8D)
  6
Continuous
 62
     7
100
AcDbLine
 10
46.3771052138
 20
407.4009972941
 30
0.0
 11
46.8286424028
 21
407.6616924117
 31
0.0
  0
LINE
  5
1F9
330
72
100
AcDbEntity
  8
$DDT_AUDIT_GENERATED_(8D)
  6
Continuous
 62
     7
100
AcDbLine
 10
46.8510529155
 20
407.9633062618
 30
0.0
 11
46.2521052138
 21
407.6175036451
 31
0.0
  0
LINE
  5
1FA
330
72
100
AcDbEntity
  8
$DDT_AUDIT_GENERATED_(8D)
  6
Continuous
 62
     7
100
AcDbLine
 10
46.2521052138
 20
407.6175036451
 30
0.0
 11
45.6935188284
 21
407.9400036451
 31
0.0
  0
LINE
  5
1FB
330
72
100
AcDbEntity
  8
$DDT_AUDIT_GENERATED_(8D)
  6
Continuous
 62
     7
100
AcDbLine
 10
45.6935188284
 20
407.9400036451
 30
0.0
 11
45.6935188284
 21
408.5850036451
 31
0.0
  0
LINE
  5
1FC
330
72
100
AcDbEntity
  8
$DDT_AUDIT_GENERATED_(8D)
  6
Continuous
 62
     7
100
AcDbLine
 10
45.6935188284
 20
408.5850036451
 30
0.0
 11
46.2521052138
 21
408.9075036451
 31
0.0
  0
LINE
  5
1FD
330
72
100
AcDbEntity
  8
$DDT_AUDIT_GENERATED_(8D)
  6
Continuous
 62
     7
100
AcDbLine
 10
46.2521052138
 20
408.9075036451
 30
0.0
 11
46.8510529155
 21
408.5617010283
 31
0.0
  0
LINE
  5
1FE
330
72
100
AcDbEntity
  8
$DDT_AUDIT_GENERATED_(8D)
  6
Continuous
 62
     7
100
AcDbLine
 10
46.8286424028
 20
408.8633148784
 30
0.0
 11
46.3771052138
 21
409.124009996
 31
0.0
  0
LINE
  5
1FF
330
72
100
AcDbEntity
  8
$DDT_AUDIT_GENERATED_(8D)
  6
Continuous
 62
     7
100
AcDbLine
 10
46.3771052138
 20
409.124009996
 30
0.0
 11
46.3771052138
 21
409.769009996
 31
0.0
  0
LINE
  5
200
330
72
100
AcDbEntity
  8
$DDT_AUDIT_GENERATED_(8D)
  6
Continuous
 62
     7
100
AcDbLine
 10
46.3771052138
 20
409.769009996
 30
0.0
 11
46.6294398544
 21
409.9146954687
 31
0.0
  0
LINE
  5
201
330
72
100
AcDbEntity
  8
$DDT_AUDIT_GENERATED_(8D)
  6
Continuous
 62
     7
100
AcDbLine
 10
46.5544622588
 20
410.1600695664
 30
0.0
 11
46.2521052138
 21
409.9855036451
 31
0.0
  0
LINE
  5
202
330
72
100
AcDbEntity
  8
$DDT_AUDIT_GENERATED_(8D)
  6
Continuous
 62
     7
100
AcDbLine
 10
46.2521052138
 20
409.9855036451
 30
0.0
 11
45.6935188284
 21
410.3080036451
 31
0.0
  0
LINE
  5
203
330
72
100
AcDbEntity
  8
$DDT_AUDIT_GENERATED_(8D)
  6
Continuous
 62
     7
100
AcDbLine
 10
45.6935188284
 20
410.3080036451
 30
0.0
 11
45.6935188284
 21
410.9530036451
 31
0.0
  0
LINE
  5
204
330
72
100
AcDbEntity
  8
$DDT_AUDIT_GENERATED_(8D)
  6
Continuous
 62
     7
100
AcDbLine
 10
45.6935188284
 20
410.9530036451
 30
0.0
 11
46.10591834
 21
411.1911026141
 31
0.0
  0
LINE
  5
205
330
72
100
AcDbEntity
  8
$DDT_AUDIT_GENERATED_(8D)
  6
Continuous
 62
     7
100
AcDbLine
 10
45.980919252
 20
411.4076078918
 30
0.0
 11
45.5685215992
 21
411.169509996
 31
0.0
  0
LINE
  5
206
330
72
100
AcDbEntity
  8
$DDT_AUDIT_GENERATED_(8D)
  6
Continuous
 62
     7
100
AcDbLine
 10
45.5685215992
 20
411.169509996
 30
0.0
 11
45.0099352138
 21
411.492009996
 31
0.0
  0
LINE
  5
207
330
72
100
AcDbEntity
  8
$DDT_AUDIT_GENERATED_(8D)
  6
Continuous
 62
     7
100
AcDbLine
 10
45.0099352138
 20
411.492009996
 30
0.0
 11
45.0099352138
 21
412.137009996
 31
0.0
  0
LINE
  5
208
330
72
100
AcDbEntity
  8
$DDT_AUDIT_GENERATED_(8D)
  6
Continuous
 62
     7
100
AcDbLine
 10
45.0099352138
 20
412.137009996
 30
0.0
 11
45.3122924061
 21
412.3115760024
 31
0.0
  0
LINE
  5
209
330
72
100
AcDbEntity
  8
$DDT_AUDIT_GENERATED_(8D)
  6
Continuous
 62
     7
100
AcDbLine
 10
45.137281476
 20
412.4991958275
 30
0.0
 11
44.8849352138
 21
412.3535036451
 31
0.0
  0
LINE
  5
20A
330
72
100
AcDbEntity
  8
$DDT_AUDIT_GENERATED_(8D)
  6
Continuous
 62
     7
100
AcDbLine
 10
44.8849352138
 20
412.3535036451
 30
0.0
 11
44.3263488284
 21
412.6760036451
 31
0.0
  0
LINE
  5
20B
330
72
100
AcDbEntity
  8
$DDT_AUDIT_GENERATED_(8D)
  6
Continuous
 62
     7
100
AcDbLine
 10
44.3263488284
 20
412.6760036451
 30
0.0
 11
44.3263488284
 21
413.1974116747
 31
0.0
  0
LINE
  5
20C
330
72
100
AcDbEntity
  8
$DDT_AUDIT_GENERATED_(8D)
  6
Continuous
 62
     7
100
AcDbLine
 10
44.0763515992
 20
413.3676246838
 30
0.0
 11
44.0763515992
 21
412.6760036451
 31
0.0
  0
LINE
  5
20D
330
72
100
AcDbEntity
  8
$DDT_AUDIT_GENERATED_(8D)
  6
Continuous
 62
     7
100
AcDbLine
 10
44.0763515992
 20
412.6760036451
 30
0.0
 11
43.5177652138
 21
412.3535036451
 31
0.0
  0
LINE
  5
20E
330
72
100
AcDbEntity
  8
$DDT_AUDIT_GENERATED_(8D)
  6
Continuous
 62
     7
100
AcDbLine
 10
43.5177652138
 20
412.3535036451
 30
0.0
 11
42.9591788284
 21
412.6760036451
 31
0.0
  0
LINE
  5
20F
330
72
100
AcDbEntity
  8
$DDT_AUDIT_GENERATED_(8D)
  6
Continuous
 62
     7
100
AcDbLine
 10
42.9591788284
 20
412.6760036451
 30
0.0
 11
42.9591788284
 21
413.3210036451
 31
0.0
  0
LINE
  5
210
330
72
100
AcDbEntity
  8
$DDT_AUDIT_GENERATED_(8D)
  6
Continuous
 62
     7
100
AcDbLine
 10
42.9591788284
 20
413.3210036451
 30
0.0
 11
43.5581410199
 21
413.6668146276
 31
0.0
  0
LINE
  5
211
330
72
100
AcDbEntity
  8
$DDT_AUDIT_GENERATED_(8D)
  6
Continuous
 62
     7
100
AcDbLine
 10
43.2857329255
 20
413.7982132758
 30
0.0
 11
42.8341815992
 21
413.537509996
 31
0.0
  0
LINE
  5
212
330
72
100
AcDbEntity
  8
$DDT_AUDIT_GENERATED_(8D)
  6
Continuous
 62
     7
100
AcDbLine
 10
42.8341815992
 20
413.537509996
 30
0.0
 11
42.2755952138
 21
413.860009996
 31
0.0
  0
LINE
  5
213
330
72
100
AcDbEntity
  8
$DDT_AUDIT_GENERATED_(8D)
  6
Continuous
 62
     7
100
AcDbLine
 10
42.2755952138
 20
413.860009996
 30
0.0
 11
42.2755952138
 21
414.1513960444
 31
0.0
  0
LINE
  5
214
330
72
100
AcDbEntity
  8
$DDT_AUDIT_GENERATED_(8D)
  6
Continuous
 62
     7
100
AcDbLine
 10
42.0255979847
 20
414.209152433
 30
0.0
 11
42.0255979847
 21
413.860009996
 31
0.0
  0
LINE
  5
215
330
72
100
AcDbEntity
  8
$DDT_AUDIT_GENERATED_(8D)
  6
Continuous
 62
     7
100
AcDbLine
 10
42.0255979847
 20
413.860009996
 30
0.0
 11
41.4670115992
 21
413.537509996
 31
0.0
  0
LINE
  5
216
330
72
100
AcDbEntity
  8
$DDT_AUDIT_GENERATED_(8D)
  6
Continuous
 62
     7
100
AcDbLine
 10
41.4670115992
 20
413.537509996
 30
0.0
 11
40.9084252138
 21
413.860009996
 31
0.0
  0
LINE
  5
217
330
72
100
AcDbEntity
  8
$DDT_AUDIT_GENERATED_(8D)
  6
Continuous
 62
     7
100
AcDbLine
 10
40.9084252138
 20
413.860009996
 30
0.0
 11
40.9084252138
 21
414.3362175007
 31
0.0
  0
LINE
  5
218
330
72
100
AcDbEntity
  8
$DDT_AUDIT_GENERATED_(8D)
  6
Continuous
 62
     7
100
AcDbLine
 10
40.6584252138
 20
414.3362175007
 30
0.0
 11
40.6584252138
 21
413.860009996
 31
0.0
  0
LINE
  5
219
330
72
100
AcDbEntity
  8
$DDT_AUDIT_GENERATED_(8D)
  6
Continuous
 62
     7
100
AcDbLine
 10
40.6584252138
 20
413.860009996
 30
0.0
 11
40.0998388284
 21
413.537509996
 31
0.0
  0
LINE
  5
21A
330
72
100
AcDbEntity
  8
$DDT_AUDIT_GENERATED_(8D)
  6
Continuous
 62
     7
100
AcDbLine
 10
40.0998388284
 20
413.537509996
 30
0.0
 11
39.5412524429
 21
413.860009996
 31
0.0
  0
LINE
  5
21B
330
72
100
AcDbEntity
  8
$DDT_AUDIT_GENERATED_(8D)
  6
Continuous
 62
     7
100
AcDbLine
 10
39.5412524429
 20
413.860009996
 30
0.0
 11
39.5412524429
 21
414.209152433
 31
0.0
  0
LINE
  5
21C
330
72
100
AcDbEntity
  8
$DDT_AUDIT_GENERATED_(8D)
  6
Continuous
 62
     7
100
AcDbLine
 10
39.2912552138
 20
414.1513960444
 30
0.0
 11
39.2912552138
 21
413.860009996
 31
0.0
  0
LINE
  5
21D
330
72
100
AcDbEntity
  8
$DDT_AUDIT_GENERATED_(8D)
  6
Continuous
 62
     7
100
AcDbLine
 10
39.2912552138
 20
413.860009996
 30
0.0
 11
38.7326688284
 21
413.537509996
 31
0.0
  0
LINE
  5
21E
330
72
100
AcDbEntity
  8
$DDT_AUDIT_GENERATED_(8D)
  6
Continuous
 62
     7
100
AcDbLine
 10
38.7326688284
 20
413.537509996
 30
0.0
 11
38.2811175021
 21
413.7982132758
 31
0.0
  0
LINE
  5
21F
330
72
100
AcDbEntity
  8
$DDT_AUDIT_GENERATED_(8D)
  6
Continuous
 62
     7
100
AcDbLine
 10
38.0087094077
 20
413.6668146276
 30
0.0
 11
38.6076715992
 21
413.3210036451
 31
0.0
  0
LINE
  5
220
330
72
100
AcDbEntity
  8
$DDT_AUDIT_GENERATED_(8D)
  6
Continuous
 62
     7
100
AcDbLine
 10
38.6076715992
 20
413.3210036451
 30
0.0
 11
38.6076715992
 21
412.6760036451
 31
0.0
  0
LINE
  5
221
330
72
100
AcDbEntity
  8
$DDT_AUDIT_GENERATED_(8D)
  6
Continuous
 62
     7
100
AcDbLine
 10
38.6076715992
 20
412.6760036451
 30
0.0
 11
38.0490852138
 21
412.3535036451
 31
0.0
  0
LINE
  5
222
330
72
100
AcDbEntity
  8
$DDT_AUDIT_GENERATED_(8D)
  6
Continuous
 62
     7
100
AcDbLine
 10
38.0490852138
 20
412.3535036451
 30
0.0
 11
37.4904988284
 21
412.6760036451
 31
0.0
  0
LINE
  5
223
330
72
100
AcDbEntity
  8
$DDT_AUDIT_GENERATED_(8D)
  6
Continuous
 62
     7
100
AcDbLine
 10
37.4904988284
 20
412.6760036451
 30
0.0
 11
37.4904988284
 21
413.3676246838
 31
0.0
  0
LINE
  5
224
330
72
100
AcDbEntity
  8
$DDT_AUDIT_GENERATED_(8D)
  6
Continuous
 62
     7
100
AcDbLine
 10
37.2405015992
 20
413.1974116747
 30
0.0
 11
37.2405015992
 21
412.6760036451
 31
0.0
  0
LINE
  5
225
330
72
100
AcDbEntity
  8
$DDT_AUDIT_GENERATED_(8D)
  6
Continuous
 62
     7
100
AcDbLine
 10
37.2405015992
 20
412.6760036451
 30
0.0
 11
36.6819152138
 21
412.3535036451
 31
0.0
  0
LINE
  5
226
330
72
100
AcDbEntity
  8
$DDT_AUDIT_GENERATED_(8D)
  6
Continuous
 62
     7
100
AcDbLine
 10
36.6819152138
 20
412.3535036451
 30
0.0
 11
36.4295689516
 21
412.4991958275
 31
0.0
  0
LINE
  5
227
330
72
100
AcDbEntity
  8
$DDT_AUDIT_GENERATED_(8D)
  6
Continuous
 62
     7
100
AcDbLine
 10
36.2545580215
 20
412.3115760024
 30
0.0
 11
36.5569152138
 21
412.137009996
 31
0.0
  0
LINE
  5
228
330
72
100
AcDbEntity
  8
$DDT_AUDIT_GENERATED_(8D)
  6
Continuous
 62
     7
100
AcDbLine
 10
36.5569152138
 20
412.137009996
 30
0.0
 11
36.5569152138
 21
411.492009996
 31
0.0
  0
LINE
  5
229
330
72
100
AcDbEntity
  8
$DDT_AUDIT_GENERATED_(8D)
  6
Continuous
 62
     7
100
AcDbLine
 10
36.5569152138
 20
411.492009996
 30
0.0
 11
35.9983288284
 21
411.169509996
 31
0.0
  0
LINE
  5
22A
330
72
100
AcDbEntity
  8
$DDT_AUDIT_GENERATED_(8D)
  6
Continuous
 62
     7
100
AcDbLine
 10
35.9983288284
 20
411.169509996
 30
0.0
 11
35.5859311756
 21
411.4076078918
 31
0.0
  0
LINE
  5
22B
330
72
100
AcDbEntity
  8
$DDT_AUDIT_GENERATED_(8D)
  6
Continuous
 62
     7
100
AcDbLine
 10
35.4609320876
 20
411.1911026141
 30
0.0
 11
35.8733315992
 21
410.9530036451
 31
0.0
  0
LINE
  5
22C
330
72
100
AcDbEntity
  8
$DDT_AUDIT_GENERATED_(8D)
  6
Continuous
 62
     7
100
AcDbLine
 10
35.8733315992
 20
410.9530036451
 30
0.0
 11
35.8733315992
 21
410.3080036451
 31
0.0
  0
LINE
  5
22D
330
72
100
AcDbEntity
  8
$DDT_AUDIT_GENERATED_(8D)
  6
Continuous
 62
     7
100
AcDbLine
 10
35.8733315992
 20
410.3080036451
 30
0.0
 11
35.3147452138
 21
409.9855036451
 31
0.0
  0
LINE
  5
22E
330
72
100
AcDbEntity
  8
$DDT_AUDIT_GENERATED_(8D)
  6
Continuous
 62
     7
100
AcDbLine
 10
35.3147452138
 20
409.9855036451
 30
0.0
 11
35.0123881688
 21
410.1600695664
 31
0.0
  0
LINE
  5
22F
330
72
100
AcDbEntity
  8
$DDT_AUDIT_GENERATED_(8D)
  6
Continuous
 62
     7
100
AcDbLine
 10
34.9374105732
 20
409.9146954687
 30
0.0
 11
35.1897452138
 21
409.769009996
 31
0.0
  0
LINE
  5
230
330
72
100
AcDbEntity
  8
$DDT_AUDIT_GENERATED_(8D)
  6
Continuous
 62
     7
100
AcDbLine
 10
35.1897452138
 20
409.769009996
 30
0.0
 11
35.1897452138
 21
409.124009996
 31
0.0
  0
LINE
  5
231
330
72
100
AcDbEntity
  8
$DDT_AUDIT_GENERATED_(8D)
  6
Continuous
 62
     7
100
AcDbLine
 10
35.1897452138
 20
409.124009996
 30
0.0
 11
34.7382080248
 21
408.8633148784
 31
0.0
  0
CIRCLE
  5
232
330
72
100
AcDbEntity
  8
$DDT_AUDIT_GENERATED_(8D)
  6
Continuous
 62
     7
100
AcDbCircle
 10
40.7834252138
 20
408.2625036451
 30
0.0
 40
6.074999999999999
  0
CIRCLE
  5
233
330
72
100
AcDbEntity
  8
$DDT_AUDIT_GENERATED_(8D)
  6
Continuous
 62
     7
100
AcDbCircle
 10
40.7834252138
 20
408.2625036451
 30
0.0
 40
6.675000000000001
  0
ARC
  5
234
330
72
100
AcDbEntity
  8
$DDT_AUDIT_GENERATED_(8D)
  6
Continuous
 62
     7
100
AcDbCircle
 10
40.7834252138
 20
408.2625036451
 30
0.0
 40
7.274999999999996
100
AcDbArc
 50
80.0
 51
100.0
  0
ARC
  5
235
330
72
100
AcDbEntity
  8
$DDT_AUDIT_GENERATED_(8D)
  6
Continuous
 62
     7
100
AcDbCircle
 10
40.7834252138
 20
408.2625036451
 30
0.0
 40
7.274999999999997
100
AcDbArc
 50
100.0
 51
125.0
  0
ARC
  5
236
330
72
100
AcDbEntity
  8
$DDT_AUDIT_GENERATED_(8D)
  6
Continuous
 62
     7
100
AcDbCircle
 10
40.7834252138
 20
408.2625036451
 30
0.0
 40
7.274999999999997
100
AcDbArc
 50
125.0
 51
145.0
  0
ARC
  5
237
330
72
100
AcDbEntity
  8
$DDT_AUDIT_GENERATED_(8D)
  6
Continuous
 62
     7
100
AcDbCircle
 10
40.7834252138
 20
408.2625036451
 30
0.0
 40
7.275000000000001
100
AcDbArc
 50
145.0
 51
170.0
  0
ARC
  5
238
330
72
100
AcDbEntity
  8
$DDT_AUDIT_GENERATED_(8D)
  6
Continuous
 62
     7
100
AcDbCircle
 10
40.7834252138
 20
408.2625036451
 30
0.0
 40
7.275000000000001
100
AcDbArc
 50
170.0
 51
190.0
  0
ARC
  5
239
330
72
100
AcDbEntity
  8
$DDT_AUDIT_GENERATED_(8D)
  6
Continuous
 62
     7
100
AcDbCircle
 10
40.7834252138
 20
408.2625036451
 30
0.0
 40
7.275000000000003
100
AcDbArc
 50
190.0
 51
215.0
  0
ARC
  5
23A
330
72
100
AcDbEntity
  8
$DDT_AUDIT_GENERATED_(8D)
  6
Continuous
 62
     7
100
AcDbCircle
 10
40.7834252138
 20
408.2625036451
 30
0.0
 40
7.275000000000003
100
AcDbArc
 50
215.0
 51
235.0
  0
ARC
  5
23B
330
72
100
AcDbEntity
  8
$DDT_AUDIT_GENERATED_(8D)
  6
Continuous
 62
     7
100
AcDbCircle
 10
40.7834252138
 20
408.2625036451
 30
0.0
 40
7.275000000000001
100
AcDbArc
 50
235.0
 51
260.0
  0
ARC
  5
23C
330
72
100
AcDbEntity
  8
$DDT_AUDIT_GENERATED_(8D)
  6
Continuous
 62
     7
100
AcDbCircle
 10
40.7834252138
 20
408.2625036451
 30
0.0
 40
7.275000000000001
100
AcDbArc
 50
260.0
 51
280.0
  0
ARC
  5
23D
330
72
100
AcDbEntity
  8
$DDT_AUDIT_GENERATED_(8D)
  6
Continuous
 62
     7
100
AcDbCircle
 10
40.7834252138
 20
408.2625036451
 30
0.0
 40
7.274999999999998
100
AcDbArc
 50
280.0
 51
305.0
  0
ARC
  5
23E
330
72
100
AcDbEntity
  8
$DDT_AUDIT_GENERATED_(8D)
  6
Continuous
 62
     7
100
AcDbCircle
 10
40.7834252138
 20
408.2625036451
 30
0.0
 40
7.274999999999998
100
AcDbArc
 50
305.0
 51
325.0
  0
ARC
  5
23F
330
72
100
AcDbEntity
  8
$DDT_AUDIT_GENERATED_(8D)
  6
Continuous
 62
     7
100
AcDbCircle
 10
40.7834252138
 20
408.2625036451
 30
0.0
 40
7.275000000000004
100
AcDbArc
 50
325.0
 51
350.0
  0
ARC
  5
240
330
72
100
AcDbEntity
  8
$DDT_AUDIT_GENERATED_(8D)
  6
Continuous
 62
     7
100
AcDbCircle
 10
40.7834252138
 20
408.2625036451
 30
0.0
 40
7.275000000000004
100
AcDbArc
 50
350.0
 51
10.0
  0
ARC
  5
241
330
72
100
AcDbEntity
  8
$DDT_AUDIT_GENERATED_(8D)
  6
Continuous
 62
     7
100
AcDbCircle
 10
40.7834252138
 20
408.2625036451
 30
0.0
 40
7.275000000000003
100
AcDbArc
 50
10.0
 51
35.0
  0
ARC
  5
242
330
72
100
AcDbEntity
  8
$DDT_AUDIT_GENERATED_(8D)
  6
Continuous
 62
     7
100
AcDbCircle
 10
40.7834252138
 20
408.2625036451
 30
0.0
 40
7.275000000000003
100
AcDbArc
 50
35.0
 51
55.0
  0
ARC
  5
243
330
72
100
AcDbEntity
  8
$DDT_AUDIT_GENERATED_(8D)
  6
Continuous
 62
     7
100
AcDbCircle
 10
40.7834252138
 20
408.2625036451
 30
0.0
 40
7.274999999999996
100
AcDbArc
 50
55.0
 51
80.0
  0
ARC
  5
244
330
72
100
AcDbEntity
  8
$DDT_AUDIT_GENERATED_(8D)
  6
Continuous
 62
     7
100
AcDbCircle
 10
40.7834252138
 20
408.2625036451
 30
0.0
 40
8.200000000000003
100
AcDbArc
 50
235.0
 51
260.0
  0
ARC
  5
245
330
72
100
AcDbEntity
  8
$DDT_AUDIT_GENERATED_(8D)
  6
Continuous
 62
     7
100
AcDbCircle
 10
40.7834252138
 20
408.2625036451
 30
0.0
 40
8.2
100
AcDbArc
 50
190.0
 51
215.0
  0
LINE
  5
246
330
72
100
AcDbEntity
  8
$DDT_AUDIT_GENERATED_(8D)
  6
Continuous
 62
     7
100
AcDbLine
 10
39.5201347213
 20
415.4269800482
 30
0.0
 11
39.4940874946
 21
415.5747012112
 31
0.0
  0
LINE
  5
247
330
72
100
AcDbEntity
  8
$DDT_AUDIT_GENERATED_(8D)
  6
Continuous
 62
     7
100
AcDbLine
 10
42.072762933
 20
415.5747012112
 30
0.0
 11
42.0467157063
 21
415.4269800482
 31
0.0
  0
LINE
  5
248
330
72
100
AcDbEntity
  8
$DDT_AUDIT_GENERATED_(8D)
  6
Continuous
 62
     7
100
AcDbLine
 10
39.4940874946
 20
400.9503060789
 30
0.0
 11
39.5201347213
 21
401.0980272419
 31
0.0
  0
LINE
  5
249
330
72
100
AcDbEntity
  8
$DDT_AUDIT_GENERATED_(8D)
  6
Continuous
 62
     7
100
AcDbLine
 10
39.4940874946
 20
415.5747012112
 30
0.0
 11
39.3855573836
 21
416.1902060568
 31
0.0
  0
LINE
  5
24A
330
72
100
AcDbEntity
  8
$DDT_AUDIT_GENERATED_(8D)
  6
Continuous
 62
     7
100
AcDbLine
 10
39.3855573836
 20
416.1902060568
 30
0.0
 11
39.3595101569
 21
416.3379272198
 31
0.0
  0
LINE
  5
24B
330
72
100
AcDbEntity
  8
$DDT_AUDIT_GENERATED_(8D)
  6
Continuous
 62
     7
100
AcDbLine
 10
33.6189488106
 20
406.9992131525
 30
0.0
 11
33.4712276477
 21
406.9731659259
 31
0.0
  0
LINE
  5
24C
330
72
100
AcDbEntity
  8
$DDT_AUDIT_GENERATED_(8D)
  6
Continuous
 62
     7
100
AcDbLine
 10
33.4712276477
 20
409.5518413642
 30
0.0
 11
33.6189488106
 21
409.5257941376
 31
0.0
  0
LINE
  5
24D
330
72
100
AcDbEntity
  8
$DDT_AUDIT_GENERATED_(8D)
  6
Continuous
 62
     7
100
AcDbLine
 10
34.8240940916
 20
412.4352722195
 30
0.0
 11
34.701221285
 21
412.521308685
 31
0.0
  0
LINE
  5
24E
330
72
100
AcDbEntity
  8
$DDT_AUDIT_GENERATED_(8D)
  6
Continuous
 62
     7
100
AcDbLine
 10
36.5246201739
 20
414.3447075739
 30
0.0
 11
36.6106566393
 21
414.2218347673
 31
0.0
  0
LINE
  5
24F
330
72
100
AcDbEntity
  8
$DDT_AUDIT_GENERATED_(8D)
  6
Continuous
 62
     7
100
AcDbLine
 10
34.701221285
 20
404.0036986052
 30
0.0
 11
34.8240940916
 21
404.0897350706
 31
0.0
  0
LINE
  5
250
330
72
100
AcDbEntity
  8
$DDT_AUDIT_GENERATED_(8D)
  6
Continuous
 62
     7
100
AcDbLine
 10
34.0663784506
 20
403.559176867
 30
0.0
 11
34.1892512573
 21
403.6452133324
 31
0.0
  0
LINE
  5
251
330
72
100
AcDbEntity
  8
$DDT_AUDIT_GENERATED_(8D)
  6
Continuous
 62
     7
100
AcDbLine
 10
34.1892512573
 20
403.6452133324
 30
0.0
 11
34.701221285
 21
404.0036986052
 31
0.0
  0
LINE
  5
252
330
72
100
AcDbEntity
  8
$DDT_AUDIT_GENERATED_(8D)
  6
Continuous
 62
     7
100
AcDbLine
 10
39.3595101569
 20
400.1870800704
 30
0.0
 11
39.3855573836
 21
400.3348012333
 31
0.0
  0
LINE
  5
253
330
72
100
AcDbEntity
  8
$DDT_AUDIT_GENERATED_(8D)
  6
Continuous
 62
     7
100
AcDbLine
 10
39.3855573836
 20
400.3348012333
 30
0.0
 11
39.4940874946
 21
400.9503060789
 31
0.0
  0
ARC
  5
254
330
72
100
AcDbEntity
  8
$DDT_AUDIT_GENERATED_(8D)
  6
Continuous
 62
     7
100
AcDbCircle
 10
40.7834252138
 20
408.2625036451
 30
0.0
 40
8.199999999999998
100
AcDbArc
 50
145.0
 51
170.0
  0
LINE
  5
255
330
72
100
AcDbEntity
  8
$DDT_AUDIT_GENERATED_(8D)
  6
Continuous
 62
     7
100
AcDbLine
 10
34.701221285
 20
412.521308685
 30
0.0
 11
34.1892512573
 21
412.8797939577
 31
0.0
  0
LINE
  5
256
330
72
100
AcDbEntity
  8
$DDT_AUDIT_GENERATED_(8D)
  6
Continuous
 62
     7
100
AcDbLine
 10
34.1892512573
 20
412.8797939577
 30
0.0
 11
34.0663784506
 21
412.9658304231
 31
0.0
  0
LINE
  5
257
330
72
100
AcDbEntity
  8
$DDT_AUDIT_GENERATED_(8D)
  6
Continuous
 62
     7
100
AcDbLine
 10
36.6106566393
 20
402.3031725229
 30
0.0
 11
36.5246201739
 21
402.1802997162
 31
0.0
  0
ARC
  5
258
330
72
100
AcDbEntity
  8
$DDT_AUDIT_GENERATED_(8D)
  6
Continuous
 62
     7
100
AcDbCircle
 10
40.7834252138
 20
408.2625036451
 30
0.0
 40
8.199999999999989
100
AcDbArc
 50
100.0
 51
125.0
  0
LINE
  5
259
330
72
100
AcDbEntity
  8
$DDT_AUDIT_GENERATED_(8D)
  6
Continuous
 62
     7
100
AcDbLine
 10
36.5246201739
 20
402.1802997162
 30
0.0
 11
36.1661349012
 21
401.6683296885
 31
0.0
  0
LINE
  5
25A
330
72
100
AcDbEntity
  8
$DDT_AUDIT_GENERATED_(8D)
  6
Continuous
 62
     7
100
AcDbLine
 10
36.1661349012
 20
401.6683296885
 30
0.0
 11
36.0800984357
 21
401.5454568819
 31
0.0
  0
LINE
  5
25B
330
72
100
AcDbEntity
  8
$DDT_AUDIT_GENERATED_(8D)
  6
Continuous
 62
     7
100
AcDbLine
 10
33.4712276477
 20
406.9731659259
 30
0.0
 11
32.8557228021
 21
406.8646358148
 31
0.0
  0
LINE
  5
25C
330
72
100
AcDbEntity
  8
$DDT_AUDIT_GENERATED_(8D)
  6
Continuous
 62
     7
100
AcDbLine
 10
32.8557228021
 20
406.8646358148
 30
0.0
 11
32.7080016391
 21
406.8385885882
 31
0.0
  0
LINE
  5
25D
330
72
100
AcDbEntity
  8
$DDT_AUDIT_GENERATED_(8D)
  6
Continuous
 62
     7
100
AcDbLine
 10
32.7080016391
 20
409.6864187019
 30
0.0
 11
32.8557228021
 21
409.6603714753
 31
0.0
  0
LINE
  5
25E
330
72
100
AcDbEntity
  8
$DDT_AUDIT_GENERATED_(8D)
  6
Continuous
 62
     7
100
AcDbLine
 10
32.8557228021
 20
409.6603714753
 30
0.0
 11
33.4712276477
 21
409.5518413642
 31
0.0
  0
LINE
  5
25F
330
72
100
AcDbEntity
  8
$DDT_AUDIT_GENERATED_(8D)
  6
Continuous
 62
     7
100
AcDbLine
 10
36.0800984357
 20
414.9795504082
 30
0.0
 11
36.1661349012
 21
414.8566776016
 31
0.0
  0
LINE
  5
260
330
72
100
AcDbEntity
  8
$DDT_AUDIT_GENERATED_(8D)
  6
Continuous
 62
     7
100
AcDbLine
 10
36.1661349012
 20
414.8566776016
 30
0.0
 11
36.5246201739
 21
414.3447075739
 31
0.0
  0
LINE
  5
261
330
72
100
AcDbEntity
  8
$DDT_AUDIT_GENERATED_(8D)
  6
Continuous
 62
     7
100
AcDbLine
 10
42.0467157063
 20
401.0980272419
 30
0.0
 11
42.072762933
 21
400.9503060789
 31
0.0
  0
LINE
  5
262
330
72
100
AcDbEntity
  8
$DDT_AUDIT_GENERATED_(8D)
  6
Continuous
 62
     7
100
AcDbLine
 10
42.2073402707
 20
416.3379272198
 30
0.0
 11
42.181293044
 21
416.1902060568
 31
0.0
  0
LINE
  5
263
330
72
100
AcDbEntity
  8
$DDT_AUDIT_GENERATED_(8D)
  6
Continuous
 62
     7
100
AcDbLine
 10
42.181293044
 20
416.1902060568
 30
0.0
 11
42.072762933
 21
415.5747012112
 31
0.0
  0
LINE
  5
264
330
72
100
AcDbEntity
  8
$DDT_AUDIT_GENERATED_(8D)
  6
Continuous
 62
     7
100
AcDbLine
 10
46.8656291426
 20
412.521308685
 30
0.0
 11
46.742756336
 21
412.4352722195
 31
0.0
  0
LINE
  5
265
330
72
100
AcDbEntity
  8
$DDT_AUDIT_GENERATED_(8D)
  6
Continuous
 62
     7
100
AcDbLine
 10
47.500471977
 20
412.9658304231
 30
0.0
 11
47.3775991703
 21
412.8797939577
 31
0.0
  0
LINE
  5
266
330
72
100
AcDbEntity
  8
$DDT_AUDIT_GENERATED_(8D)
  6
Continuous
 62
     7
100
AcDbLine
 10
47.3775991703
 20
412.8797939577
 30
0.0
 11
46.8656291426
 21
412.521308685
 31
0.0
  0
LINE
  5
267
330
72
100
AcDbEntity
  8
$DDT_AUDIT_GENERATED_(8D)
  6
Continuous
 62
     7
100
AcDbLine
 10
47.947901617
 20
409.5257941376
 30
0.0
 11
48.0956227799
 21
409.5518413642
 31
0.0
  0
LINE
  5
268
330
72
100
AcDbEntity
  8
$DDT_AUDIT_GENERATED_(8D)
  6
Continuous
 62
     7
100
AcDbLine
 10
48.0956227799
 20
406.9731659259
 30
0.0
 11
47.947901617
 21
406.9992131525
 31
0.0
  0
LINE
  5
269
330
72
100
AcDbEntity
  8
$DDT_AUDIT_GENERATED_(8D)
  6
Continuous
 62
     7
100
AcDbLine
 10
45.0422302537
 20
402.1802997162
 30
0.0
 11
44.9561937883
 21
402.3031725229
 31
0.0
  0
LINE
  5
26A
330
72
100
AcDbEntity
  8
$DDT_AUDIT_GENERATED_(8D)
  6
Continuous
 62
     7
100
AcDbLine
 10
45.4867519919
 20
401.5454568819
 30
0.0
 11
45.4007155264
 21
401.6683296885
 31
0.0
  0
LINE
  5
26B
330
72
100
AcDbEntity
  8
$DDT_AUDIT_GENERATED_(8D)
  6
Continuous
 62
     7
100
AcDbLine
 10
45.4007155264
 20
401.6683296885
 30
0.0
 11
45.0422302537
 21
402.1802997162
 31
0.0
  0
ARC
  5
26C
330
72
100
AcDbEntity
  8
$DDT_AUDIT_GENERATED_(8D)
  6
Continuous
 62
     7
100
AcDbCircle
 10
40.7834252138
 20
408.2625036451
 30
0.0
 40
8.200000000000008
100
AcDbArc
 50
55.0
 51
80.0
  0
ARC
  5
26D
330
72
100
AcDbEntity
  8
$DDT_AUDIT_GENERATED_(8D)
  6
Continuous
 62
     7
100
AcDbCircle
 10
40.7834252138
 20
408.2625036451
 30
0.0
 40
8.19999999999999
100
AcDbArc
 50
325.0
 51
350.0
  0
LINE
  5
26E
330
72
100
AcDbEntity
  8
$DDT_AUDIT_GENERATED_(8D)
  6
Continuous
 62
     7
100
AcDbLine
 10
46.742756336
 20
404.0897350706
 30
0.0
 11
46.8656291426
 21
404.0036986052
 31
0.0
  0
LINE
  5
26F
330
72
100
AcDbEntity
  8
$DDT_AUDIT_GENERATED_(8D)
  6
Continuous
 62
     7
100
AcDbLine
 10
46.8656291426
 20
404.0036986052
 30
0.0
 11
47.3775991703
 21
403.6452133324
 31
0.0
  0
LINE
  5
270
330
72
100
AcDbEntity
  8
$DDT_AUDIT_GENERATED_(8D)
  6
Continuous
 62
     7
100
AcDbLine
 10
47.3775991703
 20
403.6452133324
 30
0.0
 11
47.500471977
 21
403.559176867
 31
0.0
  0
LINE
  5
271
330
72
100
AcDbEntity
  8
$DDT_AUDIT_GENERATED_(8D)
  6
Continuous
 62
     7
100
AcDbLine
 10
42.072762933
 20
400.9503060789
 30
0.0
 11
42.181293044
 21
400.3348012333
 31
0.0
  0
LINE
  5
272
330
72
100
AcDbEntity
  8
$DDT_AUDIT_GENERATED_(8D)
  6
Continuous
 62
     7
100
AcDbLine
 10
42.181293044
 20
400.3348012333
 30
0.0
 11
42.2073402707
 21
400.1870800704
 31
0.0
  0
LINE
  5
273
330
72
100
AcDbEntity
  8
$DDT_AUDIT_GENERATED_(8D)
  6
Continuous
 62
     7
100
AcDbLine
 10
48.8588487885
 20
406.8385885882
 30
0.0
 11
48.7111276255
 21
406.8646358148
 31
0.0
  0
LINE
  5
274
330
72
100
AcDbEntity
  8
$DDT_AUDIT_GENERATED_(8D)
  6
Continuous
 62
     7
100
AcDbLine
 10
48.7111276255
 20
406.8646358148
 30
0.0
 11
48.0956227799
 21
406.9731659259
 31
0.0
  0
LINE
  5
275
330
72
100
AcDbEntity
  8
$DDT_AUDIT_GENERATED_(8D)
  6
Continuous
 62
     7
100
AcDbLine
 10
44.9561937883
 20
414.2218347673
 30
0.0
 11
45.0422302537
 21
414.3447075739
 31
0.0
  0
ARC
  5
276
330
72
100
AcDbEntity
  8
$DDT_AUDIT_GENERATED_(8D)
  6
Continuous
 62
     7
100
AcDbCircle
 10
40.7834252138
 20
408.2625036451
 30
0.0
 40
8.2
100
AcDbArc
 50
10.0
 51
35.0
  0
ARC
  5
277
330
72
100
AcDbEntity
  8
$DDT_AUDIT_GENERATED_(8D)
  6
Continuous
 62
     7
100
AcDbCircle
 10
40.7834252138
 20
408.2625036451
 30
0.0
 40
8.200000000000012
100
AcDbArc
 50
280.0
 51
305.0
  0
LINE
  5
278
330
72
100
AcDbEntity
  8
$DDT_AUDIT_GENERATED_(8D)
  6
Continuous
 62
     7
100
AcDbLine
 10
45.0422302537
 20
414.3447075739
 30
0.0
 11
45.4007155264
 21
414.8566776016
 31
0.0
  0
LINE
  5
279
330
72
100
AcDbEntity
  8
$DDT_AUDIT_GENERATED_(8D)
  6
Continuous
 62
     7
100
AcDbLine
 10
45.4007155264
 20
414.8566776016
 30
0.0
 11
45.4867519919
 21
414.9795504082
 31
0.0
  0
LINE
  5
27A
330
72
100
AcDbEntity
  8
$DDT_AUDIT_GENERATED_(8D)
  6
Continuous
 62
     7
100
AcDbLine
 10
48.0956227799
 20
409.5518413642
 30
0.0
 11
48.7111276255
 21
409.6603714753
 31
0.0
  0
LINE
  5
27B
330
72
100
AcDbEntity
  8
$DDT_AUDIT_GENERATED_(8D)
  6
Continuous
 62
     7
100
AcDbLine
 10
48.7111276255
 20
409.6603714753
 30
0.0
 11
48.8588487885
 21
409.6864187019
 31
0.0
  0
ARC
  5
27C
330
72
100
AcDbEntity
  8
$DDT_AUDIT_GENERATED_(8D)
  6
Continuous
 62
     7
100
AcDbCircle
 10
40.7834252138
 20
408.2625036451
 30
0.0
 40
8.200000000000003
100
AcDbArc
 50
80.0
 51
100.0
  0
ARC
  5
27D
330
72
100
AcDbEntity
  8
$DDT_AUDIT_GENERATED_(8D)
  6
Continuous
 62
     7
100
AcDbCircle
 10
40.7834252138
 20
408.2625036451
 30
0.0
 40
8.200000000000012
100
AcDbArc
 50
260.0
 51
280.0
  0
ARC
  5
27E
330
72
100
AcDbEntity
  8
$DDT_AUDIT_GENERATED_(8D)
  6
Continuous
 62
     7
100
AcDbCircle
 10
40.7834252138
 20
408.2625036451
 30
0.0
 40
8.200000000000003
100
AcDbArc
 50
215.0
 51
235.0
  0
ARC
  5
27F
330
72
100
AcDbEntity
  8
$DDT_AUDIT_GENERATED_(8D)
  6
Continuous
 62
     7
100
AcDbCircle
 10
40.7834252138
 20
408.2625036451
 30
0.0
 40
8.2
100
AcDbArc
 50
170.0
 51
190.0
  0
ARC
  5
280
330
72
100
AcDbEntity
  8
$DDT_AUDIT_GENERATED_(8D)
  6
Continuous
 62
     7
100
AcDbCircle
 10
40.7834252138
 20
408.2625036451
 30
0.0
 40
8.199999999999998
100
AcDbArc
 50
125.0
 51
145.0
  0
ARC
  5
281
330
72
100
AcDbEntity
  8
$DDT_AUDIT_GENERATED_(8D)
  6
Continuous
 62
     7
100
AcDbCircle
 10
40.7834252138
 20
408.2625036451
 30
0.0
 40
8.200000000000008
100
AcDbArc
 50
35.0
 51
55.0
  0
ARC
  5
282
330
72
100
AcDbEntity
  8
$DDT_AUDIT_GENERATED_(8D)
  6
Continuous
 62
     7
100
AcDbCircle
 10
40.7834252138
 20
408.2625036451
 30
0.0
 40
8.2
100
AcDbArc
 50
350.0
 51
10.0
  0
ARC
  5
283
330
72
100
AcDbEntity
  8
$DDT_AUDIT_GENERATED_(8D)
  6
Continuous
 62
     7
100
AcDbCircle
 10
40.7834252138
 20
408.2625036451
 30
0.0
 40
8.200000000000006
100
AcDbArc
 50
305.0
 51
325.0
  0
ELLIPSE
  5
285
330
72
100
AcDbEntity
  8
$DDT_AUDIT_GENERATED_(284)
  6
Continuous
 62
     7
100
AcDbEllipse
 10
554.4625948117
 20
10554.6866636439
 30
0.0
 11
-533.5199135097013
 21
-10180.12165138159
 31
0.0
210
0.0
220
0.0
230
1.0
 40
0.0031578968
 41
0.1248894876675419
 42
0.1265811693206864
  0
ELLIPSE
  5
286
330
72
100
AcDbEntity
  8
$DDT_AUDIT_GENERATED_(284)
  6
Continuous
 62
     7
100
AcDbEllipse
 10
-472.2833989712
 20
10542.9123120119
 30
0.0
 11
532.9075112302463
 21
-10168.34692885593
 31
0.0
210
0.0
220
0.0
230
0.9999999999999997
 40
0.0031596809
 41
-0.1266542449549508
 42
-0.1249615829772512
  0
LINE
  5
287
330
72
100
AcDbEntity
  8
$DDT_AUDIT_GENERATED_(284)
  6
Continuous
 62
     7
100
AcDbLine
 10
60.06338751
 20
447.1322462489
 30
0.0
 11
62.2548910512
 21
422.0832461513
 31
0.0
  0
LINE
  5
288
330
72
100
AcDbEntity
  8
$DDT_AUDIT_GENERATED_(284)
  6
Continuous
 62
     7
100
AcDbLine
 10
58.8500903824
 20
461.0002958761
 30
0.0
 11
59.1106520572
 21
458.022062305
 31
0.0
  0
LINE
  5
289
330
72
100
AcDbEntity
  8
$DDT_AUDIT_GENERATED_(284)
  6
Continuous
 62
     7
100
AcDbLine
 10
59.1106520572
 20
458.022062305
 30
0.0
 11
59.732937703
 21
450.9093048266
 31
0.0
  0
LINE
  5
28A
330
72
100
AcDbEntity
  8
$DDT_AUDIT_GENERATED_(284)
  6
Continuous
 62
     7
100
AcDbLine
 10
59.732937703
 20
450.9093048266
 30
0.0
 11
60.06338751
 21
447.1322462489
 31
0.0
  0
LINE
  5
28B
330
72
100
AcDbEntity
  8
$DDT_AUDIT_GENERATED_(284)
  6
Continuous
 62
     7
100
AcDbLine
 10
19.3119593764
 20
422.0832461511
 30
0.0
 11
21.5034629307
 21
447.132246398
 31
0.0
  0
LINE
  5
28C
330
72
100
AcDbEntity
  8
$DDT_AUDIT_GENERATED_(284)
  6
Continuous
 62
     7
100
AcDbLine
 10
21.5034629307
 20
447.132246398
 30
0.0
 11
21.8339127246
 21
450.9093048266
 31
0.0
  0
LINE
  5
28D
330
72
100
AcDbEntity
  8
$DDT_AUDIT_GENERATED_(284)
  6
Continuous
 62
     7
100
AcDbLine
 10
21.8339127246
 20
450.9093048266
 30
0.0
 11
22.4561983704
 21
458.022062305
 31
0.0
  0
LINE
  5
28E
330
72
100
AcDbEntity
  8
$DDT_AUDIT_GENERATED_(284)
  6
Continuous
 62
     7
100
AcDbLine
 10
22.4561983704
 20
458.022062305
 30
0.0
 11
22.7167600452
 21
461.0002958761
 31
0.0
  0
ARC
  5
28F
330
72
100
AcDbEntity
  8
$DDT_AUDIT_GENERATED_(284)
  6
Continuous
 62
     7
100
AcDbCircle
 10
40.7828170967
 20
1135.3722262999
 30
0.0
 40
682.0895954858029
100
AcDbArc
 50
269.1862365492
 51
270.8138665173
  0
ARC
  5
290
330
72
100
AcDbEntity
  8
$DDT_AUDIT_GENERATED_(284)
  6
Continuous
 62
     7
100
AcDbCircle
 10
40.7834252138
 20
-4134.7523029712
 30
0.0
 40
4592.827696036429
100
AcDbArc
 50
89.7773813003
 51
90.2226186997
  0
ARC
  5
291
330
72
100
AcDbEntity
  8
$DDT_AUDIT_GENERATED_(284)
  6
Continuous
 62
     7
100
AcDbCircle
 10
40.7834252138
 20
-4002.09882853
 30
0.0
 40
4463.152446477245
100
AcDbArc
 50
89.7742552833
 51
90.2257447167
  0
ARC
  5
292
330
72
100
AcDbEntity
  8
$DDT_AUDIT_GENERATED_(284)
  6
Continuous
 62
     7
100
AcDbCircle
 10
40.7834252138
 20
1135.7441922597
 30
0.0
 40
685.6232238078394
100
AcDbArc
 50
268.456593071
 51
271.543406929
  0
LINE
  5
293
330
72
100
AcDbEntity
  8
$DDT_AUDIT_GENERATED_(284)
  6
Continuous
 62
     7
100
AcDbLine
 10
61.9560326635
 20
421.7570991801
 30
0.0
 11
61.7622942274
 21
421.7570991801
 31
0.0
  0
LINE
  5
294
330
72
100
AcDbEntity
  8
$DDT_AUDIT_GENERATED_(284)
  6
Continuous
 62
     7
100
AcDbLine
 10
61.7622942274
 20
421.7570991801
 30
0.0
 11
19.8045562002
 21
421.7570991801
 31
0.0
  0
LINE
  5
295
330
72
100
AcDbEntity
  8
$DDT_AUDIT_GENERATED_(284)
  6
Continuous
 62
     7
100
AcDbLine
 10
19.8045562002
 20
421.7570991801
 30
0.0
 11
19.6108177641
 21
421.7570991801
 31
0.0
  0
SPLINE
  5
296
330
72
100
AcDbEntity
  8
$DDT_AUDIT_GENERATED_(284)
  6
Continuous
 62
     7
100
AcDbSpline
210
0.0
220
0.0
230
1.0
 70
     8
 71
     3
 72
    28
 73
    24
 74
     0
 42
0.0000000043786836
 43
0.0000000001
 40
0.1334999996015584
 40
0.1334999996015584
 40
0.1334999996015584
 40
0.1334999996015584
 40
0.1392485815938621
 40
0.1850641641172943
 40
0.2305810031053763
 40
0.2758000638108293
 40
0.3207223307413802
 40
0.3653488081072668
 40
0.4096805202793635
 40
0.4537185122579906
 40
0.4974638501526754
 40
0.5409176216729782
 40
0.5840809366305786
 40
0.6269549274527649
 40
0.6695407497074788
 40
0.7118395826400575
 40
0.7538526297217992
 40
0.7955811192104879
 40
0.8370263047229468
 40
0.8781894658197581
 40
0.9190719086021921
 40
0.9596749663214102
 40
1.0
 40
1.0
 40
1.0
 40
1.0
 10
29.14229275890022
 20
453.586046966662
 30
0.0
 10
29.14348981360772
 20
453.5852319978928
 30
0.0
 10
29.15447004472913
 20
453.5779279427762
 30
0.0
 10
29.17928397067968
 20
453.5642837179432
 30
0.0
 10
29.22407372267764
 20
453.5454301436765
 30
0.0
 10
29.27817266171044
 20
453.5271068816745
 30
0.0
 10
29.34110705551742
 20
453.5093786821922
 30
0.0
 10
29.41239237435163
 20
453.4923090326207
 30
0.0
 10
29.49150844219105
 20
453.4759596652702
 30
0.0
 10
29.57791141384062
 20
453.4603903148975
 30
0.0
 10
29.67103592343707
 20
453.4456584444181
 30
0.0
 10
29.77029974899442
 20
453.4318190132511
 30
0.0
 10
29.87510768736144
 20
453.4189242709161
 30
0.0
 10
29.98485548879895
 20
453.4070235718662
 30
0.0
 10
30.09893360131489
 20
453.396163243421
 30
0.0
 10
30.21673076822006
 20
453.3863863823687
 30
0.0
 10
30.33763745152569
 20
453.3777330385037
 30
0.0
 10
30.46104906013594
 20
453.370239088355
 30
0.0
 10
30.58636901916633
 20
453.363940063326
 30
0.0
 10
30.71301149600421
 20
453.3588567866227
 30
0.0
 10
30.84040442862716
 20
453.3550483153125
 30
0.0
 10
30.96799044392756
 20
453.3524163600931
 30
0.0
 10
31.05311130713383
 20
453.3517550640082
 30
0.0
 10
31.09552552470551
 20
453.3514255525657
 30
0.0
  0
SPLINE
  5
297
330
72
100
AcDbEntity
  8
$DDT_AUDIT_GENERATED_(284)
  6
Continuous
 62
     7
100
AcDbSpline
210
0.0
220
0.0
230
1.0
 70
     8
 71
     3
 72
    27
 73
    23
 74
     0
 42
0.0000000048695029
 43
0.0000000001
 40
0.0
 40
0.0
 40
0.0
 40
0.0
 40
0.0463998339509679
 40
0.0931674149362465
 40
0.1403048015732114
 40
0.1878140042720816
 40
0.2356969864748533
 40
0.2839556658658342
 40
0.3325919155539317
 40
0.3816075652268847
 40
0.4310044022776389
 40
0.4807841729031868
 40
0.5309485831761707
 40
0.5814993000895925
 40
0.6324379525750344
 40
0.6837661324947842
 40
0.7354853956082936
 40
0.7875972625134245
 40
0.8401032195629566
 40
0.8930047197567876
 40
0.9463031836104014
 40
1.0
 40
1.0
 40
1.0
 40
1.0
 10
50.47133552169755
 20
453.3514429796524
 30
0.0
 10
50.52013843992268
 20
453.3518440208292
 30
0.0
 10
50.61813106792395
 20
453.3526493956327
 30
0.0
 10
50.76488825211808
 20
453.3560232156618
 30
0.0
 10
50.9111707373356
 20
453.3609440952501
 30
0.0
 10
51.05612145584207
 20
453.3675360331908
 30
0.0
 10
51.19885901846987
 20
453.3757127551505
 30
0.0
 10
51.33848082199904
 20
453.3854373650876
 30
0.0
 10
51.47406914992494
 20
453.396651990626
 30
0.0
 10
51.60469707032443
 20
453.4092969661754
 30
0.0
 10
51.72943497753833
 20
453.4233058101189
 30
0.0
 10
51.84735749555148
 20
453.4386068369488
 30
0.0
 10
51.95755085236046
 20
453.4551230456725
 30
0.0
 10
52.05912036657357
 20
453.4727725545106
 30
0.0
 10
52.1511991399328
 20
453.4914689618697
 30
0.0
 10
52.2329536097763
 20
453.5111218267515
 30
0.0
 10
52.30360209641002
 20
453.5316371257264
 30
0.0
 10
52.36238513990961
 20
453.5529180674014
 30
0.0
 10
52.40871832486288
 20
453.574864865939
 30
0.0
 10
52.44165645295273
 20
453.5973787336105
 30
0.0
 10
52.46195666322367
 20
453.6203502319347
 30
0.0
 10
52.46353436393132
 20
453.6358634711427
 30
0.0
 10
52.46432620027183
 20
453.6436489718713
 30
0.0
  0
ARC
  5
298
330
72
100
AcDbEntity
  8
$DDT_AUDIT_GENERATED_(284)
  6
Continuous
 62
     7
100
AcDbCircle
 10
62.0095401581
 20
419.8458419861
 30
0.0
 40
2.250820328528538
100
AcDbArc
 50
84.0018629644
 51
96.0967699352
  0
ARC
  5
299
330
72
100
AcDbEntity
  8
$DDT_AUDIT_GENERATED_(284)
  6
Continuous
 62
     7
100
AcDbCircle
 10
19.5573448829
 20
419.8451205107
 30
0.0
 40
2.251534049684936
100
AcDbArc
 50
83.9060558527
 51
95.9935450566
  0
ARC
  5
29A
330
72
100
AcDbEntity
  8
$DDT_AUDIT_GENERATED_(284)
  6
Continuous
 62
     7
100
AcDbCircle
 10
19.6108177641
 20
422.0570991801
 30
0.0
 40
0.3000000000000014
100
AcDbArc
 50
174.9999524124
 51
205.8783926104
  0
ARC
  5
29B
330
72
100
AcDbEntity
  8
$DDT_AUDIT_GENERATED_(284)
  6
Continuous
 62
     7
100
AcDbCircle
 10
19.6108177641
 20
422.0570991801
 30
0.0
 40
0.3000000000000014
100
AcDbArc
 50
246.0751900303
 51
270.0
  0
ARC
  5
29C
330
72
100
AcDbEntity
  8
$DDT_AUDIT_GENERATED_(284)
  6
Continuous
 62
     7
100
AcDbCircle
 10
61.9560326635
 20
422.0570991801
 30
0.0
 40
0.2999999999999989
100
AcDbArc
 50
334.1389361199
 51
5.0000476201
  0
ARC
  5
29D
330
72
100
AcDbEntity
  8
$DDT_AUDIT_GENERATED_(284)
  6
Continuous
 62
     7
100
AcDbCircle
 10
61.9560326635
 20
422.0570991801
 30
0.0
 40
0.2999999999999989
100
AcDbArc
 50
270.0
 51
293.929876006
  0
SPLINE
  5
29E
330
72
100
AcDbEntity
  8
$DDT_AUDIT_GENERATED_(284)
  6
Continuous
 62
     7
100
AcDbSpline
210
0.0
220
0.0
230
1.0
 70
     8
 71
     3
 72
    13
 73
     9
 74
     0
 42
0.000000003517026
 43
0.0000000001
 40
0.0
 40
0.0
 40
0.0
 40
0.0
 40
0.1545924965611286
 40
0.2895230927021294
 40
0.4071331437506987
 40
0.5083969145064277
 40
0.599212356181423
 40
0.6288742686607519
 40
0.6288742686607519
 40
0.6288742686607519
 40
0.6288742686607519
 10
50.29867100620959
 20
455.875784153369
 30
0.0
 10
50.48600787684173
 20
455.8757591316726
 30
0.0
 10
50.78313231648841
 20
455.8751597758293
 30
0.0
 10
51.21989734764833
 20
455.8601350497597
 30
0.0
 10
51.56218479733963
 20
455.8395681047782
 30
0.0
 10
51.83309509084479
 20
455.8166900127492
 30
0.0
 10
52.00733506130633
 20
455.7959239064115
 30
0.0
 10
52.06979009273941
 20
455.7916052339705
 30
0.0
 10
52.08352368277254
 20
455.791085167547
 30
0.0
  0
ARC
  5
29F
330
72
100
AcDbEntity
  8
$DDT_AUDIT_GENERATED_(284)
  6
Continuous
 62
     7
100
AcDbCircle
 10
40.7834885669
 20
1949.991242175
 30
0.0
 40
1494.145756141398
100
AcDbArc
 50
269.6351154349
 51
270.3648797166
  0
SPLINE
  5
2A0
330
72
100
AcDbEntity
  8
$DDT_AUDIT_GENERATED_(284)
  6
Continuous
 62
     7
100
AcDbSpline
210
0.0
220
0.0
230
1.0
 70
     8
 71
     3
 72
    17
 73
    13
 74
     0
 42
0.0000000038024983
 43
0.0000000001
 40
0.2066423178030454
 40
0.2066423178030454
 40
0.2066423178030454
 40
0.2066423178030454
 40
0.2175860615329699
 40
0.2765219286442009
 40
0.3498057681234287
 40
0.4702050081168653
 40
0.540436074895446
 40
0.6174457218127305
 40
0.7014168155537314
 40
0.7926794036217336
 40
0.8918434764206583
 40
1.0
 40
1.0
 40
1.0
 40
1.0
 10
29.1884438713935
 20
455.7469808549624
 30
0.0
 10
29.19060319158425
 20
455.7469924461121
 30
0.0
 10
29.20729658356979
 20
455.7485115311385
 30
0.0
 10
29.26612007860086
 20
455.7598563028208
 30
0.0
 10
29.39776084506614
 20
455.7803715221316
 30
0.0
 10
29.58352511453151
 20
455.804098387139
 30
0.0
 10
29.80571271500418
 20
455.8254705931112
 30
0.0
 10
30.01829301041726
 20
455.8419491921059
 30
0.0
 10
30.27122231300342
 20
455.8568166680054
 30
0.0
 10
30.56403512781002
 20
455.8686436907342
 30
0.0
 10
30.90725671660639
 20
455.8763135947129
 30
0.0
 10
31.13037907535199
 20
455.8760996500819
 30
0.0
 10
31.26817969240773
 20
455.8757849585693
 30
0.0
  0
ARC
  5
2A1
330
72
100
AcDbEntity
  8
$DDT_AUDIT_GENERATED_(284)
  6
Continuous
 62
     7
100
AcDbCircle
 10
40.7834252138
 20
-3437.4995059638
 30
0.0
 40
3898.992593353752
100
AcDbArc
 50
89.7417688551
 51
90.2582311449
  0
ARC
  5
2A2
330
72
100
AcDbEntity
  8
$DDT_AUDIT_GENERATED_(284)
  6
Continuous
 62
     7
100
AcDbCircle
 10
58.3519930333
 20
460.9567180047
 30
0.0
 40
0.4999999999999993
100
AcDbArc
 50
5.0000000001
 51
89.7397007566
  0
ARC
  5
2A3
330
72
100
AcDbEntity
  8
$DDT_AUDIT_GENERATED_(284)
  6
Continuous
 62
     7
100
AcDbCircle
 10
23.2148573943
 20
460.9567180047
 30
0.0
 40
0.4999999999999911
100
AcDbArc
 50
90.2602992434
 51
175.0
  0
ARC
  5
2A4
330
72
100
AcDbEntity
  8
$DDT_AUDIT_GENERATED_(284)
  6
Continuous
 62
     7
100
AcDbCircle
 10
19.602414134
 20
422.0429516299
 30
0.0
 40
0.2837186647644155
100
AcDbArc
 50
170.9068604423
 51
247.8640230232
  0
ARC
  5
2A5
330
72
100
AcDbEntity
  8
$DDT_AUDIT_GENERATED_(284)
  6
Continuous
 62
     7
100
AcDbCircle
 10
61.9643959468
 20
422.0430244221
 30
0.0
 40
0.2838012365199431
100
AcDbArc
 50
292.1394289224
 51
9.0720152203
  0
ARC
  5
2A7
330
72
100
AcDbEntity
  8
$DDT_AUDIT_GENERATED_(2A6)
  6
Continuous
 62
     7
100
AcDbCircle
 10
40.7834252138
 20
411.3625036451
 30
0.0
 40
20.5
100
AcDbArc
 50
149.5322405459
 51
155.810485846
  0
ARC
  5
2A8
330
72
100
AcDbEntity
  8
$DDT_AUDIT_GENERATED_(2A6)
  6
Continuous
 62
     7
100
AcDbCircle
 10
40.7834252138
 20
411.3625036451
 30
0.0
 40
20.5
100
AcDbArc
 50
24.189514154
 51
30.4677594541
  0
LINE
  5
2AA
330
72
100
AcDbEntity
  8
$DDT_AUDIT_GENERATED_(2A9)
  6
Continuous
 62
     7
100
AcDbLine
 10
65.1834252138
 20
330.7625036451
 30
0.0
 11
66.2005009306
 21
330.7625036451
 31
0.0
  0
LINE
  5
2AB
330
72
100
AcDbEntity
  8
$DDT_AUDIT_GENERATED_(2A9)
  6
Continuous
 62
     7
100
AcDbLine
 10
15.366349497
 20
330.7625036451
 30
0.0
 11
16.3834252138
 21
330.7625036451
 31
0.0
  0
LINE
  5
2AC
330
72
100
AcDbEntity
  8
$DDT_AUDIT_GENERATED_(2A9)
  6
Continuous
 62
     7
100
AcDbLine
 10
16.3834252138
 20
330.7625036451
 30
0.0
 11
65.1834252138
 21
330.7625036451
 31
0.0
  0
LINE
  5
2AD
330
72
100
AcDbEntity
  8
$DDT_AUDIT_GENERATED_(2A9)
  6
Continuous
 62
     7
100
AcDbLine
 10
14.8663685355
 20
330.2668669128
 30
0.0
 11
14.8008789494
 21
322.7625036451
 31
0.0
  0
LINE
  5
2AE
330
72
100
AcDbEntity
  8
$DDT_AUDIT_GENERATED_(2A9)
  6
Continuous
 62
     7
100
AcDbLine
 10
66.7004818921
 20
330.2668669128
 30
0.0
 11
66.7659714782
 21
322.7625036451
 31
0.0
  0
ARC
  5
2AF
330
72
100
AcDbEntity
  8
$DDT_AUDIT_GENERATED_(2A9)
  6
Continuous
 62
     7
100
AcDbCircle
 10
15.366349497
 20
330.2625036451
 30
0.0
 40
0.5000000000000004
100
AcDbArc
 50
90.0
 51
179.5
  0
ARC
  5
2B0
330
72
100
AcDbEntity
  8
$DDT_AUDIT_GENERATED_(2A9)
  6
Continuous
 62
     7
100
AcDbCircle
 10
66.2005009306
 20
330.2625036451
 30
0.0
 40
0.5000000000000014
100
AcDbArc
 50
0.5
 51
90.0
  0
LINE
  5
2B1
330
72
100
AcDbEntity
  8
$DDT_AUDIT_GENERATED_(2A9)
  6
Continuous
 62
     7
100
AcDbLine
 10
16.3834252138
 20
322.7625036451
 30
0.0
 11
14.8008789494
 21
322.7625036451
 31
0.0
  0
LINE
  5
2B2
330
72
100
AcDbEntity
  8
$DDT_AUDIT_GENERATED_(2A9)
  6
Continuous
 62
     7
100
AcDbLine
 10
66.7659714782
 20
322.7625036451
 30
0.0
 11
65.1834252138
 21
322.7625036451
 31
0.0
  0
LINE
  5
2B3
330
72
100
AcDbEntity
  8
$DDT_AUDIT_GENERATED_(2A9)
  6
Continuous
 62
     7
100
AcDbLine
 10
65.1834252138
 20
322.7625036451
 30
0.0
 11
16.3834252138
 21
322.7625036451
 31
0.0
  0
ENDBLK
  5
2B5
330
72
100
AcDbEntity
  8
0
100
AcDbBlockEnd
  0
BLOCK
  5
326
330
2B6
100
AcDbEntity
  8
0
100
AcDbBlockBegin
  2
SE1
 70
     0
 10
0.0
 20
0.0
 30
0.0
  3
SE1
  1

  0
LINE
  5
2B8
330
2B6
100
AcDbEntity
  8
$DDT_AUDIT_GENERATED_(74)
  6
Continuous
 62
     7
100
AcDbLine
 10
145.4505526831
 20
419.7625036451
 30
0.0
 11
250.4498770555
 21
419.7625036451
 31
0.0
  0
LINE
  5
2B9
330
2B6
100
AcDbEntity
  8
$DDT_AUDIT_GENERATED_(74)
  6
Continuous
 62
     7
100
AcDbLine
 10
250.4498770555
 20
396.7625036451
 30
0.0
 11
191.0700576128
 21
396.7625036451
 31
0.0
  0
LINE
  5
2BA
330
2B6
100
AcDbEntity
  8
$DDT_AUDIT_GENERATED_(74)
  6
Continuous
 62
     7
100
AcDbLine
 10
250.9498770555
 20
419.2625036451
 30
0.0
 11
250.9498770555
 21
397.2625036451
 31
0.0
  0
LINE
  5
2BB
330
2B6
100
AcDbEntity
  8
$DDT_AUDIT_GENERATED_(74)
  6
Continuous
 62
     7
100
AcDbLine
 10
188.0700576128
 20
393.7625036451
 30
0.0
 11
188.0700576128
 21
330.7625036451
 31
0.0
  0
SPLINE
  5
2BC
330
2B6
100
AcDbEntity
  8
$DDT_AUDIT_GENERATED_(74)
  6
Continuous
 62
     7
100
AcDbSpline
210
0.0
220
0.0
230
1.0
 70
    12
 71
     3
 72
    15
 73
    11
 74
     0
 42
0.0000000021125258
 43
0.0000000001
 40
0.0
 40
0.0
 40
0.0
 40
0.0
 40
0.1159283683139198
 40
0.2394545260617685
 40
0.3679511453191929
 40
0.4981644459946917
 40
0.6284209871913273
 40
0.7570032274560614
 40
0.8806673140687709
 40
1.0
 40
1.0
 40
1.0
 40
1.0
 10
191.0700576127555
 20
396.7625036450653
 30
0.0
 41
1.0
 10
190.8879584693859
 20
396.7625118532495
 30
0.0
 41
1.0
 10
190.5118257189364
 20
396.7281677896863
 30
0.0
 41
1.0
 10
189.9535933049439
 20
396.5681916021151
 30
0.0
 41
1.0
 10
189.4174885913756
 20
396.2910950328094
 30
0.0
 41
1.0
 10
188.9400036522512
 20
395.9047800036221
 30
0.0
 41
1.0
 10
188.5508705700249
 20
395.4294112321949
 30
0.0
 41
1.0
 10
188.2705620997894
 20
394.8944988007478
 30
0.0
 41
1.0
 10
188.1059332039623
 20
394.3316461974015
 30
0.0
 41
1.0
 10
188.070047028496
 20
393.9499505113919
 30
0.0
 41
1.0
 10
188.0700576127555
 20
393.7625036450652
 30
0.0
 41
1.0
  0
SPLINE
  5
2BD
330
2B6
100
AcDbEntity
  8
$DDT_AUDIT_GENERATED_(74)
  6
Continuous
 62
     7
100
AcDbSpline
210
0.0
220
0.0
230
1.0
 70
    12
 71
     2
 72
     6
 73
     3
 74
     0
 42
0.00000001
 43
0.0000000001
 40
0.0
 40
0.0
 40
0.0
 40
1.0
 40
1.0
 40
1.0
 10
250.4498770555387
 20
419.7625036450652
 30
0.0
 41
1.0
 10
250.9498770555383
 20
419.7625036450652
 30
0.0
 41
0.707106781186548
 10
250.9498770555387
 20
419.2625036450652
 30
0.0
 41
1.0
  0
SPLINE
  5
2BE
330
2B6
100
AcDbEntity
  8
$DDT_AUDIT_GENERATED_(74)
  6
Continuous
 62
     7
100
AcDbSpline
210
0.0
220
0.0
230
1.0
 70
    12
 71
     2
 72
     6
 73
     3
 74
     0
 42
0.0000000099865057
 43
0.0000000001
 40
0.0
 40
0.0
 40
0.0
 40
1.0
 40
1.0
 40
1.0
 10
144.9505531389212
 20
419.2618284740111
 30
0.0
 41
1.0
 10
144.9498770555386
 20
419.7625036450651
 30
0.0
 41
0.7066292018773881
 10
145.4505526830651
 20
419.7625036450652
 30
0.0
 41
1.0
  0
SPLINE
  5
2BF
330
2B6
100
AcDbEntity
  8
$DDT_AUDIT_GENERATED_(74)
  6
Continuous
 62
     7
100
AcDbSpline
210
0.0
220
0.0
230
1.0
 70
    12
 71
     2
 72
     6
 73
     3
 74
     0
 42
0.00000001
 43
0.0000000001
 40
0.0
 40
0.0
 40
0.0
 40
1.0
 40
1.0
 40
1.0
 10
250.9498770555387
 20
397.2625036450652
 30
0.0
 41
1.0
 10
250.9498770555387
 20
396.7625036450651
 30
0.0
 41
0.707106781186522
 10
250.4498770555388
 20
396.7625036450653
 30
0.0
 41
1.0
  0
LINE
  5
2C0
330
2B6
100
AcDbEntity
  8
$DDT_AUDIT_GENERATED_(74)
  6
Continuous
 62
     7
100
AcDbLine
 10
145.0700576128
 20
330.7625036451
 30
0.0
 11
144.9505531389
 21
419.261828474
 31
0.0
  0
LINE
  5
2C1
330
2B6
100
AcDbEntity
  8
$DDT_AUDIT_GENERATED_(83)
  6
Continuous
 62
     7
100
AcDbLine
 10
278.7307738499
 20
398.2625036451
 30
0.0
 11
254.3307738499
 21
398.2625036451
 31
0.0
  0
LINE
  5
2C2
330
2B6
100
AcDbEntity
  8
$DDT_AUDIT_GENERATED_(83)
  6
Continuous
 62
     7
100
AcDbLine
 10
279.0307738499
 20
417.9625036451
 30
0.0
 11
279.0307738499
 21
398.5625036451
 31
0.0
  0
LINE
  5
2C3
330
2B6
100
AcDbEntity
  8
$DDT_AUDIT_GENERATED_(83)
  6
Continuous
 62
     7
100
AcDbLine
 10
254.0307738499
 20
398.5625036451
 30
0.0
 11
254.0307738499
 21
417.9625036451
 31
0.0
  0
LINE
  5
2C4
330
2B6
100
AcDbEntity
  8
$DDT_AUDIT_GENERATED_(83)
  6
Continuous
 62
     7
100
AcDbLine
 10
254.3307738499
 20
418.2625036451
 30
0.0
 11
278.7307738499
 21
418.2625036451
 31
0.0
  0
ARC
  5
2C5
330
2B6
100
AcDbEntity
  8
$DDT_AUDIT_GENERATED_(83)
  6
Continuous
 62
     7
100
AcDbCircle
 10
254.3307738499
 20
417.9625036451
 30
0.0
 40
0.3000000000000086
100
AcDbArc
 50
90.0
 51
180.0
  0
ARC
  5
2C6
330
2B6
100
AcDbEntity
  8
$DDT_AUDIT_GENERATED_(83)
  6
Continuous
 62
     7
100
AcDbCircle
 10
278.7307738499
 20
417.9625036451
 30
0.0
 40
0.2999999999999947
100
AcDbArc
 50
0.0
 51
90.0
  0
ARC
  5
2C7
330
2B6
100
AcDbEntity
  8
$DDT_AUDIT_GENERATED_(83)
  6
Continuous
 62
     7
100
AcDbCircle
 10
254.3307738499
 20
398.5625036451
 30
0.0
 40
0.3000000000000086
100
AcDbArc
 50
180.0
 51
270.0
  0
ARC
  5
2C8
330
2B6
100
AcDbEntity
  8
$DDT_AUDIT_GENERATED_(83)
  6
Continuous
 62
     7
100
AcDbCircle
 10
278.7307738499
 20
398.5625036451
 30
0.0
 40
0.2999999999999947
100
AcDbArc
 50
270.0
 51
0.0
  0
LINE
  5
2C9
330
2B6
100
AcDbEntity
  8
$DDT_AUDIT_GENERATED_(83)
  6
Continuous
 62
     7
100
AcDbLine
 10
254.0307738499
 20
412.7375036451
 30
0.0
 11
251.2498770555
 21
412.7375036451
 31
0.0
  0
LINE
  5
2CA
330
2B6
100
AcDbEntity
  8
$DDT_AUDIT_GENERATED_(83)
  6
Continuous
 62
     7
100
AcDbLine
 10
251.2498770555
 20
403.7875036451
 30
0.0
 11
254.0307738499
 21
403.7875036451
 31
0.0
  0
ARC
  5
2CB
330
2B6
100
AcDbEntity
  8
$DDT_AUDIT_GENERATED_(83)
  6
Continuous
 62
     7
100
AcDbCircle
 10
251.2498770555
 20
413.0375036451
 30
0.0
 40
0.3000000000000086
100
AcDbArc
 50
180.0
 51
270.0
  0
ARC
  5
2CC
330
2B6
100
AcDbEntity
  8
$DDT_AUDIT_GENERATED_(83)
  6
Continuous
 62
     7
100
AcDbCircle
 10
251.2498770555
 20
403.4875036451
 30
0.0
 40
0.2999999999999947
100
AcDbArc
 50
90.0
 51
180.0
  0
LINE
  5
2CE
330
2B6
100
AcDbEntity
  8
$DDT_AUDIT_GENERATED_(2CD)
  6
Continuous
 62
     7
100
AcDbLine
 10
146.4274574978
 20
440.5602194105
 30
0.0
 11
146.9531334392
 21
447.2395655465
 31
0.0
  0
LINE
  5
2CF
330
2B6
100
AcDbEntity
  8
$DDT_AUDIT_GENERATED_(2CD)
  6
Continuous
 62
     7
100
AcDbLine
 10
146.9539920474
 20
447.2394979726
 30
0.0
 11
146.9531334392
 21
447.2395655465
 31
0.0
  0
LINE
  5
2D1
330
2B6
100
AcDbEntity
  8
$DDT_AUDIT_GENERATED_(2D0)
  6
Continuous
 62
     7
100
AcDbLine
 10
145.0345786421
 20
357.0365404789
 30
0.0
 11
141.6535274186
 21
367.442346168
 31
0.0
  0
LINE
  5
2D2
330
2B6
100
AcDbEntity
  8
$DDT_AUDIT_GENERATED_(2D0)
  6
Continuous
 62
     7
100
AcDbLine
 10
138.3723824373
 20
366.3762375374
 30
0.0
 11
145.0497173774
 21
345.8255137201
 31
0.0
  0
LINE
  5
2D4
330
2B6
100
AcDbEntity
  8
$DDT_AUDIT_GENERATED_(2D3)
  6
Continuous
 62
     7
100
AcDbLine
 10
140.012954928
 20
366.9092918527
 30
0.0
 11
137.445102334
 21
366.0749459679
 31
0.0
  0
LINE
  5
2D5
330
2B6
100
AcDbEntity
  8
$DDT_AUDIT_GENERATED_(2D3)
  6
Continuous
 62
     7
100
AcDbLine
 10
144.4657540204
 20
375.2625036451
 30
0.0
 11
144.4657540204
 21
370.2625493915
 31
0.0
  0
LINE
  5
2D6
330
2B6
100
AcDbEntity
  8
$DDT_AUDIT_GENERATED_(2D3)
  6
Continuous
 62
     7
100
AcDbLine
 10
144.4657540204
 20
370.2625493915
 30
0.0
 11
144.4657540204
 21
369.4625493915
 31
0.0
  0
LINE
  5
2D7
330
2B6
100
AcDbEntity
  8
$DDT_AUDIT_GENERATED_(2D3)
  6
Continuous
 62
     7
100
AcDbLine
 10
144.4657540204
 20
369.4625493915
 30
0.0
 11
144.4657540204
 21
368.7193652452
 31
0.0
  0
LINE
  5
2D8
330
2B6
100
AcDbEntity
  8
$DDT_AUDIT_GENERATED_(2D3)
  6
Continuous
 62
     7
100
AcDbLine
 10
144.0584591187
 20
368.2237558454
 30
0.0
 11
140.012954928
 21
366.9092918527
 31
0.0
  0
LINE
  5
2D9
330
2B6
100
AcDbEntity
  8
$DDT_AUDIT_GENERATED_(2D3)
  6
Continuous
 62
     7
100
AcDbLine
 10
144.1202625175
 20
368.243836987
 30
0.0
 11
144.0584591187
 21
368.2237558454
 31
0.0
  0
LINE
  5
2DA
330
2B6
100
AcDbEntity
  8
$DDT_AUDIT_GENERATED_(2D3)
  6
Continuous
 62
     7
100
AcDbLine
 10
129.4659714782
 20
370.2625493915
 30
0.0
 11
129.4659714782
 21
375.2625036451
 31
0.0
  0
LINE
  5
2DB
330
2B6
100
AcDbEntity
  8
$DDT_AUDIT_GENERATED_(2D3)
  6
Continuous
 62
     7
100
AcDbLine
 10
143.9657540204
 20
369.7625493915
 30
0.0
 11
129.9659714782
 21
369.7625493915
 31
0.0
  0
LINE
  5
2DC
330
2B6
100
AcDbEntity
  8
$DDT_AUDIT_GENERATED_(2D3)
  6
Continuous
 62
     7
100
AcDbLine
 10
129.9659714782
 20
375.7625036451
 30
0.0
 11
143.9657540204
 21
375.7625036451
 31
0.0
  0
ARC
  5
2DD
330
2B6
100
AcDbEntity
  8
$DDT_AUDIT_GENERATED_(2D3)
  6
Continuous
 62
     7
100
AcDbCircle
 10
129.9659714782
 20
375.2625036451
 30
0.0
 40
0.5000000000000004
100
AcDbArc
 50
90.0
 51
180.0
  0
ARC
  5
2DE
330
2B6
100
AcDbEntity
  8
$DDT_AUDIT_GENERATED_(2D3)
  6
Continuous
 62
     7
100
AcDbCircle
 10
129.9659714782
 20
370.2625493915
 30
0.0
 40
0.5000000000000004
100
AcDbArc
 50
180.0
 51
270.0
  0
ARC
  5
2DF
330
2B6
100
AcDbEntity
  8
$DDT_AUDIT_GENERATED_(2D3)
  6
Continuous
 62
     7
100
AcDbCircle
 10
143.9657540204
 20
375.2625036451
 30
0.0
 40
0.5000000000000004
100
AcDbArc
 50
0.0
 51
90.0
  0
ARC
  5
2E0
330
2B6
100
AcDbEntity
  8
$DDT_AUDIT_GENERATED_(2D3)
  6
Continuous
 62
     7
100
AcDbCircle
 10
143.9657540204
 20
370.2625493915
 30
0.0
 40
0.5000000000000004
100
AcDbArc
 50
270.0
 51
0.0
  0
ARC
  5
2E1
330
2B6
100
AcDbEntity
  8
$DDT_AUDIT_GENERATED_(2D3)
  6
Continuous
 62
     7
100
AcDbCircle
 10
143.9657540204
 20
368.7193652452
 30
0.0
 40
0.4999999999999935
100
AcDbArc
 50
288.0
 51
0.0
  0
LINE
  5
2E2
330
2B6
100
AcDbEntity
  8
$DDT_AUDIT_GENERATED_(2D3)
  6
Continuous
 62
     7
100
AcDbLine
 10
135.998842879
 20
369.5552544898
 30
0.0
 11
137.0670802808
 21
366.2675578245
 31
0.0
  0
ARC
  5
2E3
330
2B6
100
AcDbEntity
  8
$DDT_AUDIT_GENERATED_(2D3)
  6
Continuous
 62
     7
100
AcDbCircle
 10
137.3523972356
 20
366.3602629228
 30
0.0
 40
0.3000000000000025
100
AcDbArc
 50
198.0
 51
288.0
  0
ARC
  5
2E4
330
2B6
100
AcDbEntity
  8
$DDT_AUDIT_GENERATED_(2D3)
  6
Continuous
 62
     7
100
AcDbCircle
 10
135.7135259241
 20
369.4625493915
 30
0.0
 40
0.3000000000000028
100
AcDbArc
 50
17.5196146166
 51
90.0
  0
ARC
  5
2E5
330
2B6
100
AcDbEntity
  8
$DDT_AUDIT_GENERATED_(284)
  6
Continuous
 62
     7
100
AcDbCircle
 10
167.8942121981
 20
422.0076908375
 30
0.0
 40
0.250591694575607
100
AcDbArc
 50
244.0312313202
 51
269.9687686798
  0
ARC
  5
2E6
330
2B6
100
AcDbEntity
  8
$DDT_AUDIT_GENERATED_(284)
  6
Continuous
 62
     7
100
AcDbCircle
 10
149.2183335421
 20
436.5740928702
 30
0.0
 40
12.92953771231311
100
AcDbArc
 50
96.9684426837
 51
97.2644705824
  0
ARC
  5
2E7
330
2B6
100
AcDbEntity
  8
$DDT_AUDIT_GENERATED_(284)
  6
Continuous
 62
     7
100
AcDbCircle
 10
247.5406343357
 20
448.8600847795
 30
0.0
 40
12.7184731502735
100
AcDbArc
 50
96.9342951302
 51
97.1894731534
  0
ARC
  5
2E8
330
2B6
100
AcDbEntity
  8
$DDT_AUDIT_GENERATED_(284)
  6
Continuous
 62
     7
100
AcDbCircle
 10
222.3142592819
 20
538.3239283905
 30
0.0
 40
79.07471057888513
100
AcDbArc
 50
276.3149877647
 51
278.1423594218
  0
ARC
  5
2E9
330
2B6
100
AcDbEntity
  8
$DDT_AUDIT_GENERATED_(284)
  6
Continuous
 62
     7
100
AcDbCircle
 10
1193.2687363722
 20
-7701.4467628673
 30
0.0
 40
8217.70821035855
100
AcDbArc
 50
96.7245054865
 51
96.8434071857
  0
SPLINE
  5
2EA
330
2B6
100
AcDbEntity
  8
$DDT_AUDIT_GENERATED_(284)
  6
Continuous
 62
     7
100
AcDbSpline
210
0.0
220
0.0
230
1.0
 70
    12
 71
     3
 72
    11
 73
     7
 74
     0
 42
0.0000000046921196
 43
0.0000000001
 40
0.0
 40
0.0
 40
0.0
 40
0.0
 40
0.442850850083699
 40
0.442850850083699
 40
0.442850850083699
 40
1.0
 40
1.0
 40
1.0
 40
1.0
 10
214.0778266396451
 20
457.71455389136
 30
0.0
 41
1.0
 10
213.7654728807836
 20
457.6770611461106
 30
0.0
 41
1.0
 10
213.4531123164579
 20
457.6395282617775
 30
0.0
 41
1.0
 10
213.1407556162316
 20
457.6019556267059
 30
0.0
 41
1.0
 10
212.7477820196466
 20
457.5546857793598
 30
0.0
 41
1.0
 10
212.3548081999254
 20
457.5073522542011
 30
0.0
 41
1.0
 10
211.9618555738347
 20
457.4599558158833
 30
0.0
 41
1.0
  0
ARC
  5
2EB
330
2B6
100
AcDbEntity
  8
$DDT_AUDIT_GENERATED_(284)
  6
Continuous
 62
     7
100
AcDbCircle
 10
206.6555910829
 20
496.8178826978
 30
0.0
 40
39.71401328614194
100
AcDbArc
 50
274.0539884075
 51
277.6783600439
  0
SPLINE
  5
2EC
330
2B6
100
AcDbEntity
  8
$DDT_AUDIT_GENERATED_(284)
  6
Continuous
 62
     7
100
AcDbSpline
210
0.0
220
0.0
230
1.0
 70
     8
 71
     3
 72
    16
 73
    12
 74
     0
 42
0.0000000007691996
 43
0.0000000001
 40
0.0
 40
0.0
 40
0.0
 40
0.0
 40
0.0589579482601389
 40
0.1249522699324411
 40
0.1874605355313047
 40
0.249969442848219
 40
0.3132526110232352
 40
0.3749346229231491
 40
0.4339625298438703
 40
0.4998817038211138
 40
0.5000011538521973
 40
0.5000011538521973
 40
0.5000011538521973
 40
0.5000011538521973
 10
146.3787422415515
 20
440.6643626041898
 30
0.0
 10
146.3787411637123
 20
440.6643636365465
 30
0.0
 10
146.3935849343291
 20
440.8222876288538
 30
0.0
 10
146.4586105661046
 20
441.532176957819
 30
0.0
 10
146.5579923765841
 20
442.6295079778065
 30
0.0
 10
146.6711276379843
 20
443.9059230417732
 30
0.0
 10
146.7809819345376
 20
445.1775065167896
 30
0.0
 10
146.8702628222527
 20
446.2329914368507
 30
0.0
 10
146.9305340402794
 20
446.9600665541225
 30
0.0
 10
146.9452623145152
 20
447.1397087774899
 30
0.0
 10
146.9452766095301
 20
447.1398746822136
 30
0.0
 10
146.9452766099854
 20
447.1398746725577
 30
0.0
  0
LINE
  5
2ED
330
2B6
100
AcDbEntity
  8
$DDT_AUDIT_GENERATED_(284)
  6
Continuous
 62
     7
100
AcDbLine
 10
145.9638644818
 20
432.6400088996
 30
0.0
 11
147.3921813326
 21
448.9773469189
 31
0.0
  0
LINE
  5
2EE
330
2B6
100
AcDbEntity
  8
$DDT_AUDIT_GENERATED_(284)
  6
Continuous
 62
     7
100
AcDbLine
 10
147.1032003255
 20
448.9449574645
 30
0.0
 11
147.3921723372
 21
448.9773432571
 31
0.0
  0
LINE
  5
2EF
330
2B6
100
AcDbEntity
  8
$DDT_AUDIT_GENERATED_(284)
  6
Continuous
 62
     7
100
AcDbLine
 10
185.8203601663
 20
447.1335013265
 30
0.0
 11
188.0105234949
 21
422.0839283952
 31
0.0
  0
LINE
  5
2F0
330
2B6
100
AcDbEntity
  8
$DDT_AUDIT_GENERATED_(284)
  6
Continuous
 62
     7
100
AcDbLine
 10
246.6800708918
 20
458.0407251577
 30
0.0
 11
246.962418511
 21
458.0753930862
 31
0.0
  0
LINE
  5
2F1
330
2B6
100
AcDbEntity
  8
$DDT_AUDIT_GENERATED_(284)
  6
Continuous
 62
     7
100
AcDbLine
 10
246.3146030663
 20
461.0189760963
 30
0.0
 11
246.5967384765
 21
461.0536179687
 31
0.0
  0
LINE
  5
2F2
330
2B6
100
AcDbEntity
  8
$DDT_AUDIT_GENERATED_(284)
  6
Continuous
 62
     7
100
AcDbLine
 10
246.3146030663
 20
461.0189760963
 30
0.0
 11
246.6800708918
 21
458.0407251577
 31
0.0
  0
SPLINE
  5
2F3
330
2B6
100
AcDbEntity
  8
$DDT_AUDIT_GENERATED_(284)
  6
Continuous
 62
     7
100
AcDbSpline
210
0.0
220
0.0
230
1.0
 70
    12
 71
     3
 72
    11
 73
     7
 74
     0
 42
0.0000000051159275
 43
0.0000000001
 40
0.0
 40
0.0
 40
0.0
 40
0.0
 40
0.482842201621859
 40
0.482842201621859
 40
0.482842201621859
 40
1.0
 40
1.0
 40
1.0
 40
1.0
 10
229.4279260165987
 20
455.3306466434081
 30
0.0
 41
1.0
 10
229.7400104246439
 20
455.3702587615765
 30
0.0
 41
1.0
 10
230.0521047845166
 20
455.4098988691359
 30
0.0
 41
1.0
 10
230.3641970720652
 20
455.4495638239702
 30
0.0
 41
1.0
 10
230.6984694350849
 20
455.4920477260419
 30
0.0
 41
1.0
 10
231.0327442749688
 20
455.5345607511505
 30
0.0
 41
1.0
 10
231.3670067931379
 20
455.5770990147283
 30
0.0
 41
1.0
  0
ARC
  5
2F4
330
2B6
100
AcDbEntity
  8
$DDT_AUDIT_GENERATED_(284)
  6
Continuous
 62
     7
100
AcDbCircle
 10
244.8724994024
 20
353.5834732352
 30
0.0
 40
102.8839055939838
100
AcDbArc
 50
96.1434945548
 51
97.5429432781
  0
ARC
  5
2F5
330
2B6
100
AcDbEntity
  8
$DDT_AUDIT_GENERATED_(284)
  6
Continuous
 62
     7
100
AcDbCircle
 10
216.9694807204
 20
411.2384091119
 30
0.0
 40
42.19244374230297
100
AcDbArc
 50
96.3282192452
 51
99.7550685828
  0
ELLIPSE
  5
2F6
330
2B6
100
AcDbEntity
  8
$DDT_AUDIT_GENERATED_(284)
  6
Continuous
 62
     7
100
AcDbEllipse
 10
-1049.0327863695
 20
10438.6104967422
 30
0.0
 11
10124.45277243753
 21
483.684829469329
 31
0.0
210
0.0
220
0.0
230
0.9999999999999998
 40
0.9929319639
 41
4.789756458795354
 42
4.791457842150836
  0
SPLINE
  5
2F7
330
2B6
100
AcDbEntity
  8
$DDT_AUDIT_GENERATED_(284)
  6
Continuous
 62
     7
100
AcDbSpline
210
0.0
220
0.0
230
1.0
 70
     8
 71
     3
 72
    12
 73
     8
 74
     0
 42
0.0000000367323724
 43
0.0000000001
 40
0.4999999999997241
 40
0.4999999999997241
 40
0.4999999999997241
 40
0.4999999999997241
 40
0.5333219715574398
 40
0.5999671352241395
 40
0.6666159593196858
 40
0.7332708800837474
 40
0.7352938622398655
 40
0.7352938622398655
 40
0.7352938622398655
 40
0.7352938622398655
 10
246.5325285887673
 20
457.5158260617587
 30
0.0
 10
246.5325285887673
 20
457.5158260617587
 30
0.0
 10
246.5312536455604
 20
457.5156649426955
 30
0.0
 10
246.5227537388563
 20
457.5145907795499
 30
0.0
 10
246.5023566199091
 20
457.5120336043332
 30
0.0
 10
246.4816373762036
 20
457.5094716814027
 30
0.0
 10
246.4693261755168
 20
457.5079659615493
 30
0.0
 10
246.4689619760385
 20
457.5079214308902
 30
0.0
  0
SPLINE
  5
2F8
330
2B6
100
AcDbEntity
  8
$DDT_AUDIT_GENERATED_(284)
  6
Continuous
 62
     7
100
AcDbSpline
210
0.0
220
0.0
230
1.0
 70
     8
 71
     3
 72
     9
 73
     5
 74
     0
 42
0.0000000099680985
 43
0.0000000001
 40
0.8906531951191804
 40
0.8906531951191804
 40
0.8906531951191804
 40
0.8906531951191804
 40
0.9332964819427754
 40
0.9710275974292267
 40
0.9710275974292267
 40
0.9710275974292267
 40
0.9710275974292267
 10
246.357388394825
 20
457.494689572795
 30
0.0
 10
246.3446878893175
 20
457.493228333938
 30
0.0
 10
246.319370654811
 20
457.4903491513242
 30
0.0
 10
246.2909156672155
 20
457.4872156852406
 30
0.0
 10
246.2772573590337
 20
457.4857203650004
 30
0.0
  0
LINE
  5
2F9
330
2B6
100
AcDbEntity
  8
$DDT_AUDIT_GENERATED_(284)
  6
Continuous
 62
     7
100
AcDbLine
 10
167.784467578
 20
421.7824081009
 30
0.0
 11
146.3220060388
 21
432.2503500244
 31
0.0
  0
LINE
  5
2FA
330
2B6
100
AcDbEntity
  8
$DDT_AUDIT_GENERATED_(284)
  6
Continuous
 62
     7
100
AcDbLine
 10
146.3220060388
 20
432.2503500244
 30
0.0
 11
146.130994451
 21
432.3435126006
 31
0.0
  0
LINE
  5
2FB
330
2B6
100
AcDbEntity
  8
$DDT_AUDIT_GENERATED_(284)
  6
Continuous
 62
     7
100
AcDbLine
 10
146.130994451
 20
432.3435126006
 30
0.0
 11
145.8557369025
 21
432.4777646773
 31
0.0
  0
LINE
  5
2FC
330
2B6
100
AcDbEntity
  8
$DDT_AUDIT_GENERATED_(284)
  6
Continuous
 62
     7
100
AcDbLine
 10
187.7118729847
 20
421.7570991801
 30
0.0
 11
187.999469911
 21
421.7570991801
 31
0.0
  0
LINE
  5
2FD
330
2B6
100
AcDbEntity
  8
$DDT_AUDIT_GENERATED_(284)
  6
Continuous
 62
     7
100
AcDbLine
 10
187.7118729847
 20
421.7570991801
 30
0.0
 11
187.5127094548
 21
421.7570991801
 31
0.0
  0
LINE
  5
2FE
330
2B6
100
AcDbEntity
  8
$DDT_AUDIT_GENERATED_(284)
  6
Continuous
 62
     7
100
AcDbLine
 10
187.5127094548
 20
421.7570991801
 30
0.0
 11
167.8940756033
 21
421.7570991801
 31
0.0
  0
ELLIPSE
  5
2FF
330
2B6
100
AcDbEntity
  8
$DDT_AUDIT_GENERATED_(284)
  6
Continuous
 62
     7
100
AcDbEllipse
 10
229.364919366
 20
455.8266337818
 30
0.0
 11
-0.06295992555013785
 21
0.4960202090386473
 31
0.0
210
0.0
220
0.0
230
1.0
 40
0.0097359495
 41
3.13121487367486
 42
3.151970332565423
  0
ARC
  5
300
330
2B6
100
AcDbEntity
  8
$DDT_AUDIT_GENERATED_(284)
  6
Continuous
 62
     7
100
AcDbCircle
 10
187.7650571896
 20
419.6022610394
 30
0.0
 40
2.493784114082786
100
AcDbArc
 50
84.3503532631
 51
95.8077402893
  0
ARC
  5
301
330
2B6
100
AcDbEntity
  8
$DDT_AUDIT_GENERATED_(284)
  6
Continuous
 62
     7
100
AcDbCircle
 10
145.4905661418
 20
428.8472198551
 30
0.0
 40
3.822205090475284
100
AcDbArc
 50
75.4078615734
 51
82.8873597656
  0
ARC
  5
302
330
2B6
100
AcDbEntity
  8
$DDT_AUDIT_GENERATED_(284)
  6
Continuous
 62
     7
100
AcDbCircle
 10
167.8940314493
 20
422.0070086511
 30
0.0
 40
0.2498992772388523
100
AcDbArc
 50
244.0
 51
270.0092028067
  0
LINE
  5
303
330
2B6
100
AcDbEntity
  8
$DDT_AUDIT_GENERATED_(284)
  6
Continuous
 62
     7
100
AcDbLine
 10
167.8940715877
 20
421.7571109313
 30
0.0
 11
167.8940756033
 21
421.7570991801
 31
0.0
  0
ARC
  5
304
330
2B6
100
AcDbEntity
  8
$DDT_AUDIT_GENERATED_(284)
  6
Continuous
 62
     7
100
AcDbCircle
 10
236.1778537316
 20
419.502666473
 30
0.0
 40
68.32098816393491
100
AcDbArc
 50
177.8353432255
 51
178.1090202459
  0
ARC
  5
305
330
2B6
100
AcDbEntity
  8
$DDT_AUDIT_GENERATED_(284)
  6
Continuous
 62
     7
100
AcDbCircle
 10
169.8933801716
 20
421.1080576372
 30
0.0
 40
2.214088204640178
100
AcDbArc
 50
153.8676019977
 51
162.2677533066
  0
LINE
  5
306
330
2B6
100
AcDbEntity
  8
$DDT_AUDIT_GENERATED_(284)
  6
Continuous
 62
     7
100
AcDbLine
 10
245.9366430768
 20
461.4775962969
 30
0.0
 11
245.857376286
 21
461.4695573294
 31
0.0
  0
SPLINE
  5
307
330
2B6
100
AcDbEntity
  8
$DDT_AUDIT_GENERATED_(284)
  6
Continuous
 62
     7
100
AcDbSpline
210
0.0
220
0.0
230
1.0
 70
     8
 71
     3
 72
    14
 73
    10
 74
     0
 42
0.0000000001606918
 43
0.0000000001
 40
0.0
 40
0.0
 40
0.0
 40
0.0
 40
0.0871094298917511
 40
0.2813648812687118
 40
0.4179538000204026
 40
0.5588057426572046
 40
0.7041471064305274
 40
0.852164387057357
 40
1.0
 40
1.0
 40
1.0
 40
1.0
 10
209.4549352217729
 20
457.2729772281043
 30
0.0
 10
207.4811934654345
 20
457.0381550610077
 30
0.0
 10
202.0580356776261
 20
456.392411574406
 30
0.0
 10
193.2130810096118
 20
455.3053352436884
 30
0.0
 10
183.5639455313661
 20
454.0999516639693
 30
0.0
 10
174.8381452032256
 20
452.990496354445
 30
0.0
 10
165.9560470674743
 20
451.841882752171
 30
0.0
 10
156.7025314308092
 20
450.624919781919
 30
0.0
 10
151.0655576483651
 20
449.868214667753
 30
0.0
 10
147.7223089245963
 20
449.418869523267
 30
0.0
  0
SPLINE
  5
308
330
2B6
100
AcDbEntity
  8
$DDT_AUDIT_GENERATED_(284)
  6
Continuous
 62
     7
100
AcDbSpline
210
0.0
220
0.0
230
1.0
 70
     8
 71
     3
 72
    10
 73
     6
 74
     0
 42
0.0000000008048088
 43
0.0000000001
 40
0.0
 40
0.0
 40
0.0
 40
0.0
 40
0.3508926962725104
 40
0.7260675427915749
 40
1.0
 40
1.0
 40
1.0
 40
1.0
 10
245.8573762860422
 20
461.4695573293523
 30
0.0
 10
244.2684732959926
 20
461.2933067522733
 30
0.0
 10
241.5191413686039
 20
460.9880614004373
 30
0.0
 10
237.2197543838448
 20
460.5054981946844
 30
0.0
 10
234.7496240497806
 20
460.2247556864356
 30
0.0
 10
233.5095942561239
 20
460.0837438654763
 30
0.0
  0
LINE
  5
309
330
2B6
100
AcDbEntity
  8
$DDT_AUDIT_GENERATED_(284)
  6
Continuous
 62
     7
100
AcDbLine
 10
146.3787422416
 20
440.6643626042
 30
0.0
 11
145.6873195271
 21
432.7613648144
 31
0.0
  0
LINE
  5
30A
330
2B6
100
AcDbEntity
  8
$DDT_AUDIT_GENERATED_(284)
  6
Continuous
 62
     7
100
AcDbLine
 10
147.1037556644
 20
448.9513039471
 30
0.0
 11
146.9452648559
 21
447.1397457164
 31
0.0
  0
LINE
  5
30B
330
2B6
100
AcDbEntity
  8
$DDT_AUDIT_GENERATED_(284)
  6
Continuous
 62
     7
100
AcDbLine
 10
188.2980785919
 20
422.0861057412
 30
0.0
 11
186.1260085968
 21
446.9129793898
 31
0.0
  0
LINE
  5
30C
330
2B6
100
AcDbEntity
  8
$DDT_AUDIT_GENERATED_(284)
  6
Continuous
 62
     7
100
AcDbLine
 10
246.962418511
 20
458.0753930862
 30
0.0
 11
246.5967384765
 21
461.0536179687
 31
0.0
  0
LINE
  5
30D
330
2B6
100
AcDbEntity
  8
$DDT_AUDIT_GENERATED_(284)
  6
Continuous
 62
     7
100
AcDbLine
 10
233.8640167772
 20
455.8609156957
 30
0.0
 11
245.9631261367
 21
457.4401901597
 31
0.0
  0
LINE
  5
30E
330
2B6
100
AcDbEntity
  8
$DDT_AUDIT_GENERATED_(284)
  6
Continuous
 62
     7
100
AcDbLine
 10
188.7196431653
 20
450.1186527075
 30
0.0
 11
209.8204470603
 21
452.7694089548
 31
0.0
  0
LINE
  5
30F
330
2B6
100
AcDbEntity
  8
$DDT_AUDIT_GENERATED_(284)
  6
Continuous
 62
     7
100
AcDbLine
 10
245.9631261367
 20
457.4401901597
 30
0.0
 11
246.267119635
 21
457.4833390955
 31
0.0
  0
ARC
  5
310
330
2B6
100
AcDbEntity
  8
$DDT_AUDIT_GENERATED_(284)
  6
Continuous
 62
     7
100
AcDbCircle
 10
209.7588577644
 20
453.2480829767
 30
0.0
 40
0.5000403171506624
100
AcDbArc
 50
277.2215969427
 51
310.6054601068
  0
ARC
  5
311
330
2B6
100
AcDbEntity
  8
$DDT_AUDIT_GENERATED_(284)
  6
Continuous
 62
     7
100
AcDbCircle
 10
233.8019176255
 20
456.3421323499
 30
0.0
 40
0.4999654747808698
100
AcDbArc
 50
256.5660148095
 51
277.4512850406
  0
ARC
  5
312
330
2B6
100
AcDbEntity
  8
$DDT_AUDIT_GENERATED_(284)
  6
Continuous
 62
     7
100
AcDbCircle
 10
209.5138767562
 20
456.7811436748
 30
0.0
 40
0.500032456548168
100
AcDbArc
 50
61.5551787708
 51
96.820174112
  0
ARC
  5
313
330
2B6
100
AcDbEntity
  8
$DDT_AUDIT_GENERATED_(284)
  6
Continuous
 62
     7
100
AcDbCircle
 10
189.1170998018
 20
447.1439016919
 30
0.0
 40
2.99994134568743
100
AcDbArc
 50
97.049043205
 51
185.0027523269
  0
ARC
  5
314
330
2B6
100
AcDbEntity
  8
$DDT_AUDIT_GENERATED_(284)
  6
Continuous
 62
     7
100
AcDbCircle
 10
246.4653881969
 20
458.0098380332
 30
0.0
 40
0.5012465439887397
100
AcDbArc
 50
277.7071087279
 51
6.8616771881
  0
ARC
  5
315
330
2B6
100
AcDbEntity
  8
$DDT_AUDIT_GENERATED_(284)
  6
Continuous
 62
     7
100
AcDbCircle
 10
246.0991018142
 20
460.9956610062
 30
0.0
 40
0.5008940900336769
100
AcDbArc
 50
7.0974307002
 51
96.2155659932
  0
ARC
  5
316
330
2B6
100
AcDbEntity
  8
$DDT_AUDIT_GENERATED_(284)
  6
Continuous
 62
     7
100
AcDbCircle
 10
147.6022025589
 20
448.9004792956
 30
0.0
 40
0.5010465147059519
100
AcDbArc
 50
97.7820910527
 51
174.9081209408
  0
ARC
  5
317
330
2B6
100
AcDbEntity
  8
$DDT_AUDIT_GENERATED_(284)
  6
Continuous
 62
     7
100
AcDbCircle
 10
145.9879231171
 20
432.7474303976
 30
0.0
 40
0.3003206468331954
100
AcDbArc
 50
175.0417797064
 51
243.9580757759
  0
ARC
  5
318
330
2B6
100
AcDbEntity
  8
$DDT_AUDIT_GENERATED_(284)
  6
Continuous
 62
     7
100
AcDbCircle
 10
187.9992138531
 20
422.0573160008
 30
0.0
 40
0.3002169133615163
100
AcDbArc
 50
270.0450175542
 51
4.9562521383
  0
LINE
  5
319
330
2B6
100
AcDbEntity
  8
$DDT_AUDIT_GENERATED_(2A6)
  6
Continuous
 62
     7
100
AcDbLine
 10
155.8349434124
 20
427.6105804543
 30
0.0
 11
154.0700576128
 21
427.6105804543
 31
0.0
  0
ARC
  5
31A
330
2B6
100
AcDbEntity
  8
$DDT_AUDIT_GENERATED_(2A6)
  6
Continuous
 62
     7
100
AcDbCircle
 10
166.5700576128
 20
411.3625036451
 30
0.0
 40
20.5
100
AcDbArc
 50
24.189514154
 51
30.4677594541
  0
ARC
  5
31B
330
2B6
100
AcDbEntity
  8
$DDT_AUDIT_GENERATED_(2A6)
  6
Continuous
 62
     7
100
AcDbCircle
 10
166.5700576128
 20
411.3625036451
 30
0.0
 40
20.50000000000001
100
AcDbArc
 50
127.5718693197
 51
155.810485846
  0
LINE
  5
31C
330
2B6
100
AcDbEntity
  8
$DDT_AUDIT_GENERATED_(2A9)
  6
Continuous
 62
     7
100
AcDbLine
 10
141.152981896
 20
330.7625036451
 30
0.0
 11
142.1700576128
 21
330.7625036451
 31
0.0
  0
LINE
  5
31D
330
2B6
100
AcDbEntity
  8
$DDT_AUDIT_GENERATED_(2A9)
  6
Continuous
 62
     7
100
AcDbLine
 10
142.1700576128
 20
330.7625036451
 30
0.0
 11
190.9700576128
 21
330.7625036451
 31
0.0
  0
LINE
  5
31E
330
2B6
100
AcDbEntity
  8
$DDT_AUDIT_GENERATED_(2A9)
  6
Continuous
 62
     7
100
AcDbLine
 10
190.9700576128
 20
330.7625036451
 30
0.0
 11
191.9871333296
 21
330.7625036451
 31
0.0
  0
LINE
  5
31F
330
2B6
100
AcDbEntity
  8
$DDT_AUDIT_GENERATED_(2A9)
  6
Continuous
 62
     7
100
AcDbLine
 10
192.4871142911
 20
330.2668669128
 30
0.0
 11
192.5526038772
 21
322.7625036451
 31
0.0
  0
LINE
  5
320
330
2B6
100
AcDbEntity
  8
$DDT_AUDIT_GENERATED_(2A9)
  6
Continuous
 62
     7
100
AcDbLine
 10
140.6530009344
 20
330.2668669128
 30
0.0
 11
140.5875113483
 21
322.7625036451
 31
0.0
  0
ARC
  5
321
330
2B6
100
AcDbEntity
  8
$DDT_AUDIT_GENERATED_(2A9)
  6
Continuous
 62
     7
100
AcDbCircle
 10
141.152981896
 20
330.2625036451
 30
0.0
 40
0.5000000000000004
100
AcDbArc
 50
90.0
 51
179.5
  0
ARC
  5
322
330
2B6
100
AcDbEntity
  8
$DDT_AUDIT_GENERATED_(2A9)
  6
Continuous
 62
     7
100
AcDbCircle
 10
191.9871333296
 20
330.2625036451
 30
0.0
 40
0.5000000000000004
100
AcDbArc
 50
0.5
 51
90.0
  0
LINE
  5
323
330
2B6
100
AcDbEntity
  8
$DDT_AUDIT_GENERATED_(2A9)
  6
Continuous
 62
     7
100
AcDbLine
 10
192.5526038772
 20
322.7625036451
 30
0.0
 11
190.9700576128
 21
322.7625036451
 31
0.0
  0
LINE
  5
324
330
2B6
100
AcDbEntity
  8
$DDT_AUDIT_GENERATED_(2A9)
  6
Continuous
 62
     7
100
AcDbLine
 10
190.9700576128
 20
322.7625036451
 30
0.0
 11
142.1700576128
 21
322.7625036451
 31
0.0
  0
LINE
  5
325
330
2B6
100
AcDbEntity
  8
$DDT_AUDIT_GENERATED_(2A9)
  6
Continuous
 62
     7
100
AcDbLine
 10
142.1700576128
 20
322.7625036451
 30
0.0
 11
140.5875113483
 21
322.7625036451
 31
0.0
  0
ENDBLK
  5
327
330
2B6
100
AcDbEntity
  8
0
100
AcDbBlockEnd
  0
BLOCK
  5
39F
330
328
100
AcDbEntity
  8
0
100
AcDbBlockBegin
  2
SE2
 70
     0
 10
0.0
 20
0.0
 30
0.0
  3
SE2
  1

  0
LINE
  5
32A
330
328
100
AcDbEntity
  8
$DDT_AUDIT_GENERATED_(74)
  6
Continuous
 62
     7
100
AcDbLine
 10
19.2834252138
 20
239.9302211669
 30
0.0
 11
19.2834252138
 21
134.9308967944
 31
0.0
  0
LINE
  5
32B
330
328
100
AcDbEntity
  8
$DDT_AUDIT_GENERATED_(74)
  6
Continuous
 62
     7
100
AcDbLine
 10
62.2834252138
 20
134.9308967944
 30
0.0
 11
62.2834252138
 21
239.9302211669
 31
0.0
  0
LINE
  5
32C
330
328
100
AcDbEntity
  8
$DDT_AUDIT_GENERATED_(74)
  6
Continuous
 62
     7
100
AcDbLine
 10
19.7834252138
 20
240.430220711
 30
0.0
 11
61.7834252138
 21
240.430220711
 31
0.0
  0
LINE
  5
32D
330
328
100
AcDbEntity
  8
$DDT_AUDIT_GENERATED_(74)
  6
Continuous
 62
     7
100
AcDbLine
 10
19.7834252138
 20
134.4308967944
 30
0.0
 11
61.7834252138
 21
134.4308967944
 31
0.0
  0
SPLINE
  5
32E
330
328
100
AcDbEntity
  8
$DDT_AUDIT_GENERATED_(74)
  6
Continuous
 62
     7
100
AcDbSpline
210
0.0
220
0.0
230
1.0
 70
    12
 71
     2
 72
     6
 73
     3
 74
     0
 42
0.00000001
 43
0.0000000001
 40
0.0
 40
0.0
 40
0.0
 40
1.0
 40
1.0
 40
1.0
 10
19.78342521379973
 20
134.4308967943948
 30
0.0
 41
1.0
 10
19.28342521379971
 20
134.4308967943948
 30
0.0
 41
0.707106781186548
 10
19.28342521379973
 20
134.9308967943948
 30
0.0
 41
1.0
  0
SPLINE
  5
32F
330
328
100
AcDbEntity
  8
$DDT_AUDIT_GENERATED_(74)
  6
Continuous
 62
     7
100
AcDbSpline
210
0.0
220
0.0
230
1.0
 70
    12
 71
     2
 72
     6
 73
     3
 74
     0
 42
0.00000001
 43
0.0000000001
 40
0.0
 40
0.0
 40
0.0
 40
1.0
 40
1.0
 40
1.0
 10
61.78342521379973
 20
134.4308967943948
 30
0.0
 41
1.0
 10
62.2834252137997
 20
134.4308967943947
 30
0.0
 41
0.707106781186559
 10
62.28342521379973
 20
134.9308967943948
 30
0.0
 41
1.0
  0
ARC
  5
330
330
328
100
AcDbEntity
  8
$DDT_AUDIT_GENERATED_(74)
  6
Continuous
 62
     7
100
AcDbCircle
 10
19.7834252138
 20
239.9302211669
 30
0.0
 40
0.4999999999998617
100
AcDbArc
 50
90.0
 51
180.0
  0
ARC
  5
331
330
328
100
AcDbEntity
  8
$DDT_AUDIT_GENERATED_(74)
  6
Continuous
 62
     7
100
AcDbCircle
 10
61.7834252138
 20
239.9302211669
 30
0.0
 40
0.4999999999999657
100
AcDbArc
 50
0.0
 51
90.0
  0
LINE
  5
332
330
328
100
AcDbEntity
  8
$DDT_AUDIT_GENERATED_(83)
  6
Continuous
 62
     7
100
AcDbLine
 10
30.7834252138
 20
106.65
 30
0.0
 11
30.7834252138
 21
131.05
 31
0.0
  0
LINE
  5
333
330
328
100
AcDbEntity
  8
$DDT_AUDIT_GENERATED_(83)
  6
Continuous
 62
     7
100
AcDbLine
 10
50.4834252138
 20
106.35
 30
0.0
 11
31.0834252138
 21
106.35
 31
0.0
  0
LINE
  5
334
330
328
100
AcDbEntity
  8
$DDT_AUDIT_GENERATED_(83)
  6
Continuous
 62
     7
100
AcDbLine
 10
31.0834252138
 20
131.35
 30
0.0
 11
50.4834252138
 21
131.35
 31
0.0
  0
LINE
  5
335
330
328
100
AcDbEntity
  8
$DDT_AUDIT_GENERATED_(83)
  6
Continuous
 62
     7
100
AcDbLine
 10
50.7834252138
 20
131.05
 30
0.0
 11
50.7834252138
 21
106.65
 31
0.0
  0
ARC
  5
336
330
328
100
AcDbEntity
  8
$DDT_AUDIT_GENERATED_(83)
  6
Continuous
 62
     7
100
AcDbCircle
 10
50.4834252138
 20
131.05
 30
0.0
 40
0.2999999999999947
100
AcDbArc
 50
0.0
 51
90.0
  0
ARC
  5
337
330
328
100
AcDbEntity
  8
$DDT_AUDIT_GENERATED_(83)
  6
Continuous
 62
     7
100
AcDbCircle
 10
50.4834252138
 20
106.65
 30
0.0
 40
0.2999999999999999
100
AcDbArc
 50
270.0
 51
0.0
  0
ARC
  5
338
330
328
100
AcDbEntity
  8
$DDT_AUDIT_GENERATED_(83)
  6
Continuous
 62
     7
100
AcDbCircle
 10
31.0834252138
 20
131.05
 30
0.0
 40
0.2999999999999999
100
AcDbArc
 50
90.0
 51
180.0
  0
ARC
  5
339
330
328
100
AcDbEntity
  8
$DDT_AUDIT_GENERATED_(83)
  6
Continuous
 62
     7
100
AcDbCircle
 10
31.0834252138
 20
106.65
 30
0.0
 40
0.2999999999999947
100
AcDbArc
 50
180.0
 51
270.0
  0
LINE
  5
33A
330
328
100
AcDbEntity
  8
$DDT_AUDIT_GENERATED_(83)
  6
Continuous
 62
     7
100
AcDbLine
 10
45.2584252138
 20
131.35
 30
0.0
 11
45.2584252138
 21
134.1308967944
 31
0.0
  0
LINE
  5
33B
330
328
100
AcDbEntity
  8
$DDT_AUDIT_GENERATED_(83)
  6
Continuous
 62
     7
100
AcDbLine
 10
36.3084252138
 20
134.1308967944
 30
0.0
 11
36.3084252138
 21
131.35
 31
0.0
  0
ARC
  5
33C
330
328
100
AcDbEntity
  8
$DDT_AUDIT_GENERATED_(83)
  6
Continuous
 62
     7
100
AcDbCircle
 10
45.5584252138
 20
134.1308967944
 30
0.0
 40
0.3000000000000008
100
AcDbArc
 50
90.0
 51
180.0
  0
ARC
  5
33D
330
328
100
AcDbEntity
  8
$DDT_AUDIT_GENERATED_(83)
  6
Continuous
 62
     7
100
AcDbCircle
 10
36.0084252138
 20
134.1308967944
 30
0.0
 40
0.2999999999999947
100
AcDbArc
 50
0.0
 51
90.0
  0
ELLIPSE
  5
33E
330
328
100
AcDbEntity
  8
$DDT_AUDIT_GENERATED_(2CD)
  6
Continuous
 62
     7
100
AcDbEllipse
 10
40.7834252138
 20
238.6904783815
 30
0.0
 11
3.349999999999999
 21
0.0
 31
0.0
210
0.0
220
0.0
230
1.0
 40
0.0784590957
 41
3.141592653589793
 42
6.283185307179586
  0
LINE
  5
33F
330
328
100
AcDbEntity
  8
$DDT_AUDIT_GENERATED_(2D0)
  6
Continuous
 62
     7
100
AcDbLine
 10
42.5084252138
 20
240.430220711
 30
0.0
 11
42.5084252138
 21
240.9150198296
 31
0.0
  0
LINE
  5
340
330
328
100
AcDbEntity
  8
$DDT_AUDIT_GENERATED_(2D0)
  6
Continuous
 62
     7
100
AcDbLine
 10
39.0584252138
 20
240.9150198296
 30
0.0
 11
39.0584252138
 21
240.430220711
 31
0.0
  0
LINE
  5
341
330
328
100
AcDbEntity
  8
$DDT_AUDIT_GENERATED_(2D3)
  6
Continuous
 62
     7
100
AcDbLine
 10
50.2834252138
 20
240.9150198296
 30
0.0
 11
31.2834252138
 21
240.9150198296
 31
0.0
  0
LINE
  5
342
330
328
100
AcDbEntity
  8
$DDT_AUDIT_GENERATED_(2D3)
  6
Continuous
 62
     7
100
AcDbLine
 10
31.2834252138
 20
255.9148023717
 30
0.0
 11
50.2834252138
 21
255.9148023717
 31
0.0
  0
LINE
  5
343
330
328
100
AcDbEntity
  8
$DDT_AUDIT_GENERATED_(2D3)
  6
Continuous
 62
     7
100
AcDbLine
 10
30.7834252138
 20
241.4150198296
 30
0.0
 11
30.7834252138
 21
255.4148023717
 31
0.0
  0
LINE
  5
344
330
328
100
AcDbEntity
  8
$DDT_AUDIT_GENERATED_(2D3)
  6
Continuous
 62
     7
100
AcDbLine
 10
50.7834252138
 20
255.4148023717
 30
0.0
 11
50.7834252138
 21
241.4150198296
 31
0.0
  0
ARC
  5
345
330
328
100
AcDbEntity
  8
$DDT_AUDIT_GENERATED_(2D3)
  6
Continuous
 62
     7
100
AcDbCircle
 10
31.2834252138
 20
255.4148023717
 30
0.0
 40
0.5000000000000004
100
AcDbArc
 50
90.0
 51
180.0
  0
ARC
  5
346
330
328
100
AcDbEntity
  8
$DDT_AUDIT_GENERATED_(2D3)
  6
Continuous
 62
     7
100
AcDbCircle
 10
50.2834252138
 20
255.4148023717
 30
0.0
 40
0.5000000000000004
100
AcDbArc
 50
0.0
 51
90.0
  0
ARC
  5
347
330
328
100
AcDbEntity
  8
$DDT_AUDIT_GENERATED_(2D3)
  6
Continuous
 62
     7
100
AcDbCircle
 10
31.2834252138
 20
241.4150198296
 30
0.0
 40
0.5000000000000004
100
AcDbArc
 50
180.0
 51
270.0
  0
ARC
  5
348
330
328
100
AcDbEntity
  8
$DDT_AUDIT_GENERATED_(2D3)
  6
Continuous
 62
     7
100
AcDbCircle
 10
50.2834252138
 20
241.4150198296
 30
0.0
 40
0.5000000000000004
100
AcDbArc
 50
270.0
 51
0.0
  0
LINE
  5
349
330
328
100
AcDbEntity
  8
$DDT_AUDIT_GENERATED_(284)
  6
Continuous
 62
     7
100
AcDbLine
 10
60.06338751
 20
200.0580961978
 30
0.0
 11
62.2548910512
 21
197.8680644168
 31
0.0
  0
ELLIPSE
  5
34A
330
328
100
AcDbEntity
  8
$DDT_AUDIT_GENERATED_(284)
  6
Continuous
 62
     7
100
AcDbEllipse
 10
7462.1974204865
 20
-10280.454367894
 30
0.0
 11
0.0
 21
12861.61540708109
 31
0.0
210
0.0
220
0.0
230
1.0
 40
1.0
 41
0.6132568392490181
 42
0.6177334988137044
  0
SPLINE
  5
34B
330
328
100
AcDbEntity
  8
$DDT_AUDIT_GENERATED_(284)
  6
Continuous
 62
     7
100
AcDbSpline
210
0.0
220
0.0
230
1.0
 70
     8
 71
     3
 72
    17
 73
    13
 74
     0
 42
0.0000000001730182
 43
0.0000000001
 40
0.0
 40
0.0
 40
0.0
 40
0.0
 40
0.196271403711686
 40
0.196271403711686
 40
0.196271403711686
 40
0.464180935929881
 40
0.464180935929881
 40
0.464180935929881
 40
0.73209046801122
 40
0.73209046801122
 40
0.73209046801122
 40
1.0
 40
1.0
 40
1.0
 40
1.0
 10
59.11065205718593
 20
139.1965580144664
 30
0.0
 10
59.15146222126393
 20
142.9775241228617
 30
0.0
 10
59.19225164128733
 20
146.7585197140185
 30
0.0
 10
59.23302136027223
 20
150.5395432632591
 30
0.0
 10
59.28867183263163
 20
155.7006224111218
 30
0.0
 10
59.34428561898433
 20
160.861753650321
 30
0.0
 10
59.39986485231423
 20
166.0229338564861
 30
0.0
 10
59.45544408562753
 20
171.1841140611062
 30
0.0
 10
59.51098876300233
 20
176.3453432683021
 30
0.0
 10
59.56650046407273
 20
181.5066191515047
 30
0.0
 10
59.62201216513193
 20
186.6678950336676
 30
0.0
 10
59.67749088728513
 20
191.8292176241467
 30
0.0
 10
59.73293770295863
 20
196.9905853236238
 30
0.0
  0
SPLINE
  5
34C
330
328
100
AcDbEntity
  8
$DDT_AUDIT_GENERATED_(284)
  6
Continuous
 62
     7
100
AcDbSpline
210
0.0
220
0.0
230
1.0
 70
    11
 71
     3
 72
    24
 73
    20
 74
     0
 42
0.0000000007425007
 43
0.0000000001
 40
0.0
 40
0.0
 40
0.0
 40
0.0
 40
0.0589579482601389
 40
0.1249522699324411
 40
0.1874605355313047
 40
0.249969442848219
 40
0.3132526110232352
 40
0.3749346229231491
 40
0.4339625298438703
 40
0.4998817038211138
 40
0.5000011538521973
 40
0.5658581704643068
 40
0.6249812718931151
 40
0.6865942586545944
 40
0.7499222846516123
 40
0.8123687020430916
 40
0.8748432154624058
 40
0.9409997197254276
 40
1.0
 40
1.0
 40
1.0
 40
1.0
 10
40.78342521379976
 20
239.0020316083819
 30
0.0
 10
40.38255964151652
 20
239.0020326862211
 30
0.0
 10
39.53298863690126
 20
238.9871889156043
 30
0.0
 10
38.43913762524081
 20
238.9221632838288
 30
0.0
 10
37.70305480958035
 20
238.8227814733493
 30
0.0
 10
37.44771568480333
 20
238.7096462119491
 30
0.0
 10
37.70445751626987
 20
238.5997919153958
 30
0.0
 10
38.41646901860563
 20
238.5105110276808
 30
0.0
 10
39.47948950603988
 20
238.4502398096541
 30
0.0
 10
40.33600019237922
 20
238.4355115354182
 30
0.0
 10
41.22800631900088
 20
238.4354829847
 30
0.0
 10
42.08484510666261
 20
238.4501495590889
 30
0.0
 10
43.14837277057238
 20
238.5103392654956
 30
0.0
 10
43.86140166248859
 20
238.5995991940493
 30
0.0
 10
44.11910880836928
 20
238.7093782630292
 30
0.0
 10
43.86497998452514
 20
238.8224930366737
 30
0.0
 10
43.13000842159988
 20
238.9219823746003
 30
0.0
 10
42.03554353627957
 20
238.9871472106597
 30
0.0
 10
41.1845786089753
 20
239.0020305297687
 30
0.0
 10
40.78342521379976
 20
239.0020316083819
 30
0.0
  0
LINE
  5
34D
330
328
100
AcDbEntity
  8
$DDT_AUDIT_GENERATED_(284)
  6
Continuous
 62
     7
100
AcDbLine
 10
59.419262073
 20
237.9885472703
 30
0.0
 11
60.8475508625
 21
239.4169399654
 31
0.0
  0
ARC
  5
34E
330
328
100
AcDbEntity
  8
$DDT_AUDIT_GENERATED_(284)
  6
Continuous
 62
     7
100
AcDbCircle
 10
40.7834252138
 20
-491.1668516935
 30
0.0
 40
730.8592524804919
100
AcDbArc
 50
88.4268733483
 51
91.5731266517
  0
LINE
  5
34F
330
328
100
AcDbEntity
  8
$DDT_AUDIT_GENERATED_(284)
  6
Continuous
 62
     7
100
AcDbLine
 10
20.7193004392
 20
239.4169093681
 30
0.0
 11
22.1475869732
 21
237.9885925173
 31
0.0
  0
ARC
  5
350
330
328
100
AcDbEntity
  8
$DDT_AUDIT_GENERATED_(284)
  6
Continuous
 62
     7
100
AcDbCircle
 10
40.7830602096
 20
-362.7787771044
 30
0.0
 40
601.0563406969832
100
AcDbArc
 50
88.2232166006
 51
91.7767138436
  0
LINE
  5
351
330
328
100
AcDbEntity
  8
$DDT_AUDIT_GENERATED_(284)
  6
Continuous
 62
     7
100
AcDbLine
 10
19.3119593764
 20
197.8680644168
 30
0.0
 11
21.5034629307
 21
200.0580962109
 31
0.0
  0
SPLINE
  5
352
330
328
100
AcDbEntity
  8
$DDT_AUDIT_GENERATED_(284)
  6
Continuous
 62
     7
100
AcDbSpline
210
0.0
220
0.0
230
1.0
 70
     8
 71
     3
 72
    17
 73
    13
 74
     0
 42
0.0000000001730182
 43
0.0000000001
 40
0.0
 40
0.0
 40
0.0
 40
0.0
 40
0.26790953198878
 40
0.26790953198878
 40
0.26790953198878
 40
0.535819064070119
 40
0.535819064070119
 40
0.535819064070119
 40
0.8037285962883141
 40
0.8037285962883141
 40
0.8037285962883141
 40
1.0
 40
1.0
 40
1.0
 40
1.0
 10
21.83391272464143
 20
196.9905853236238
 30
0.0
 10
21.88935954031483
 20
191.8292176241467
 30
0.0
 10
21.94483826246813
 20
186.6678950336676
 30
0.0
 10
22.00034996352733
 20
181.5066191515047
 30
0.0
 10
22.05586166459773
 20
176.3453432683021
 30
0.0
 10
22.11140634197243
 20
171.1841140611061
 30
0.0
 10
22.16698557528573
 20
166.0229338564861
 30
0.0
 10
22.22256480861563
 20
160.861753650321
 30
0.0
 10
22.27817859496833
 20
155.7006224111218
 30
0.0
 10
22.33382906732773
 20
150.5395432632591
 30
0.0
 10
22.37459878631263
 20
146.7585197140185
 30
0.0
 10
22.41538820633603
 20
142.9775241228617
 30
0.0
 10
22.45619837041403
 20
139.1965580144664
 30
0.0
  0
ELLIPSE
  5
353
330
328
100
AcDbEntity
  8
$DDT_AUDIT_GENERATED_(284)
  6
Continuous
 62
     7
100
AcDbEllipse
 10
-7322.1314891722
 20
-10197.7049171064
 30
0.0
 11
0.0
 21
12680.9259331691
 31
0.0
210
0.0
220
0.0
230
1.0
 40
1.0
 41
-0.6177523866305925
 42
-0.6132400569013724
  0
SPLINE
  5
354
330
328
100
AcDbEntity
  8
$DDT_AUDIT_GENERATED_(284)
  6
Continuous
 62
     7
100
AcDbSpline
210
0.0
220
0.0
230
1.0
 70
     8
 71
     3
 72
    13
 73
     9
 74
     0
 42
0.0000000005167017
 43
0.0000000001
 40
0.0
 40
0.0
 40
0.0
 40
0.0
 40
0.1666687181637428
 40
0.3333350651553276
 40
0.5000002039153459
 40
0.6666652973799353
 40
0.8333315084565944
 40
1.0
 40
1.0
 40
1.0
 40
1.0
 10
31.10666541697125
 20
152.3079207630835
 30
0.0
 10
32.18185853156393
 20
152.3081661001999
 30
0.0
 10
34.33222945107146
 20
152.3086176114303
 30
0.0
 10
37.55783349743665
 20
152.3089847122713
 30
0.0
 10
40.78343218974687
 20
152.3091240584964
 30
0.0
 10
44.00903000060379
 20
152.3090056064723
 30
0.0
 10
47.23463140310403
 20
152.3086565950045
 30
0.0
 10
49.38499996991846
 20
152.3082105984483
 30
0.0
 10
50.46019161772861
 20
152.3079617448423
 30
0.0
  0
SPLINE
  5
355
330
328
100
AcDbEntity
  8
$DDT_AUDIT_GENERATED_(284)
  6
Continuous
 62
     7
100
AcDbSpline
210
0.0
220
0.0
230
1.0
 70
     8
 71
     3
 72
    15
 73
    11
 74
     0
 42
0.0000000005161075
 43
0.0000000001
 40
0.0
 40
0.0
 40
0.0
 40
0.0
 40
0.1250053152872037
 40
0.2500059702505634
 40
0.3750035363596358
 40
0.4999995857268303
 40
0.6249956857506652
 40
0.7499934053732299
 40
0.8749943189387224
 40
1.0
 40
1.0
 40
1.0
 40
1.0
 10
31.09552552470551
 20
175.1237917084307
 30
0.0
 10
31.90284277190962
 20
175.1236430170397
 30
0.0
 10
33.51744710828899
 20
175.1234183722651
 30
0.0
 10
35.93944292155084
 20
175.1232217874174
 30
0.0
 10
38.3614312488577
 20
175.1231070204238
 30
0.0
 10
40.7834228808028
 20
175.123070478233
 30
0.0
 10
43.20541549671966
 20
175.1230876058733
 30
0.0
 10
45.62740678834176
 20
175.1231789188217
 30
0.0
 10
48.04940758626105
 20
175.1233539887816
 30
0.0
 10
49.66401592152536
 20
175.1235708451742
 30
0.0
 10
50.47133552169755
 20
175.1237244072064
 30
0.0
  0
ARC
  5
356
330
328
100
AcDbEntity
  8
$DDT_AUDIT_GENERATED_(284)
  6
Continuous
 62
     7
100
AcDbCircle
 10
40.7834252138
 20
702.5079800457
 30
0.0
 40
564.0896134007817
100
AcDbArc
 50
268.1871366701
 51
271.8128633299
  0
ARC
  5
357
330
328
100
AcDbEntity
  8
$DDT_AUDIT_GENERATED_(284)
  6
Continuous
 62
     7
100
AcDbCircle
 10
40.7834252138
 20
686.9514202764
 30
0.0
 40
548.1673732860298
100
AcDbArc
 50
268.1616867214
 51
271.8383132786
  0
ARC
  5
358
330
328
100
AcDbEntity
  8
$DDT_AUDIT_GENERATED_(284)
  6
Continuous
 62
     7
100
AcDbCircle
 10
-86.6681389506
 20
154.754669084
 30
0.0
 40
115.9446767525209
100
AcDbArc
 50
359.9424030295
 51
0.0575159401
  0
ARC
  5
359
330
328
100
AcDbEntity
  8
$DDT_AUDIT_GENERATED_(284)
  6
Continuous
 62
     7
100
AcDbCircle
 10
-95.6608896852
 20
172.5525664291
 30
0.0
 40
124.9374279157191
100
AcDbArc
 50
359.9440732095
 51
0.0555612418
  0
ARC
  5
35A
330
328
100
AcDbEntity
  8
$DDT_AUDIT_GENERATED_(284)
  6
Continuous
 62
     7
100
AcDbCircle
 10
172.2363896267
 20
154.7219815952
 30
0.0
 40
119.9461961763726
100
AcDbArc
 50
179.9285586348
 51
180.0403622323
  0
ARC
  5
35B
330
328
100
AcDbEntity
  8
$DDT_AUDIT_GENERATED_(284)
  6
Continuous
 62
     7
100
AcDbCircle
 10
179.7184284862
 20
172.5721740557
 30
0.0
 40
127.4281850845852
100
AcDbArc
 50
179.9542206065
 51
180.0648208702
  0
ARC
  5
35C
330
328
100
AcDbEntity
  8
$DDT_AUDIT_GENERATED_(284)
  6
Continuous
 62
     7
100
AcDbCircle
 10
31.0860923041
 20
173.1401923238
 30
0.0
 40
1.983621814852668
100
AcDbArc
 50
89.7275257999
 51
141.2430236836
  0
ARC
  5
35D
330
328
100
AcDbEntity
  8
$DDT_AUDIT_GENERATED_(284)
  6
Continuous
 62
     7
100
AcDbCircle
 10
31.2574001402
 20
173.362281587
 30
0.0
 40
1.987329324210726
100
AcDbArc
 50
89.773546357
 51
151.0445408197
  0
ARC
  5
35E
330
328
100
AcDbEntity
  8
$DDT_AUDIT_GENERATED_(284)
  6
Continuous
 62
     7
100
AcDbCircle
 10
31.2677425591
 20
173.3651624846
 30
0.0
 40
1.993820479169363
100
AcDbArc
 50
89.9029959485
 51
180.1458599999
  0
ARC
  5
35F
330
328
100
AcDbEntity
  8
$DDT_AUDIT_GENERATED_(284)
  6
Continuous
 62
     7
100
AcDbCircle
 10
31.098123042
 20
154.2955209518
 30
0.0
 40
1.987618545475866
100
AcDbArc
 50
179.6240952835
 51
216.073571501
  0
ARC
  5
360
330
328
100
AcDbEntity
  8
$DDT_AUDIT_GENERATED_(284)
  6
Continuous
 62
     7
100
AcDbCircle
 10
31.098123042
 20
154.2955209518
 30
0.0
 40
1.987618545475866
100
AcDbArc
 50
217.2569980972
 51
238.9637432058
  0
ARC
  5
361
330
328
100
AcDbEntity
  8
$DDT_AUDIT_GENERATED_(284)
  6
Continuous
 62
     7
100
AcDbCircle
 10
31.098123042
 20
154.2955209518
 30
0.0
 40
1.987618545475866
100
AcDbArc
 50
268.0812013302
 51
270.2462462131
  0
ARC
  5
362
330
328
100
AcDbEntity
  8
$DDT_AUDIT_GENERATED_(284)
  6
Continuous
 62
     7
100
AcDbCircle
 10
31.265579333
 20
154.0723550704
 30
0.0
 40
1.991031088509648
100
AcDbArc
 50
179.8947349209
 51
207.7880891411
  0
ARC
  5
363
330
328
100
AcDbEntity
  8
$DDT_AUDIT_GENERATED_(284)
  6
Continuous
 62
     7
100
AcDbCircle
 10
50.4687213284
 20
154.295567624
 30
0.0
 40
1.987624181506492
100
AcDbArc
 50
330.5999475938
 51
0.3757482206
  0
ARC
  5
364
330
328
100
AcDbEntity
  8
$DDT_AUDIT_GENERATED_(284)
  6
Continuous
 62
     7
100
AcDbCircle
 10
50.3102163854
 20
154.0768735552
 30
0.0
 40
1.986810678545104
100
AcDbArc
 50
330.1880648654
 51
0.4107156111
  0
ARC
  5
365
330
328
100
AcDbEntity
  8
$DDT_AUDIT_GENERATED_(284)
  6
Continuous
 62
     7
100
AcDbCircle
 10
50.302251921
 20
154.0710134723
 30
0.0
 40
1.98968723671669
100
AcDbArc
 50
330.2738907453
 51
0.144108195
  0
ARC
  5
366
330
328
100
AcDbEntity
  8
$DDT_AUDIT_GENERATED_(284)
  6
Continuous
 62
     7
100
AcDbCircle
 10
50.4807351896
 20
173.1401027464
 30
0.0
 40
1.983643931542712
100
AcDbArc
 50
39.9890586944
 51
90.2715020092
  0
ARC
  5
367
330
328
100
AcDbEntity
  8
$DDT_AUDIT_GENERATED_(284)
  6
Continuous
 62
     7
100
AcDbCircle
 10
50.3098156277
 20
173.3619634395
 30
0.0
 40
1.987277717820283
100
AcDbArc
 50
31.6147064227
 51
90.2369481727
  0
ARC
  5
368
330
328
100
AcDbEntity
  8
$DDT_AUDIT_GENERATED_(284)
  6
Continuous
 62
     7
100
AcDbCircle
 10
50.298996576
 20
173.3652849193
 30
0.0
 40
1.99368950384648
100
AcDbArc
 50
22.6888913225
 51
90.0938145111
  0
ELLIPSE
  5
369
330
328
100
AcDbEntity
  8
$DDT_AUDIT_GENERATED_(284)
  6
Continuous
 62
     7
100
AcDbEllipse
 10
50.4603645979
 20
151.8092281672
 30
0.0
 11
-0.0001092531644025091
 21
-0.4999999880637429
 31
0.0
210
0.0
220
0.0
230
1.0
 40
0.0079279267
 41
3.004217465813865
 42
3.212782739304738
  0
ARC
  5
36A
330
328
100
AcDbEntity
  8
$DDT_AUDIT_GENERATED_(284)
  6
Continuous
 62
     7
100
AcDbCircle
 10
61.7542002575
 20
197.870668253
 30
0.0
 40
0.5007176176360549
100
AcDbArc
 50
271.8637480835
 51
359.7020484947
  0
ARC
  5
36B
330
328
100
AcDbEntity
  8
$DDT_AUDIT_GENERATED_(284)
  6
Continuous
 62
     7
100
AcDbCircle
 10
19.8126373332
 20
197.8706186666
 30
0.0
 40
0.5006676401267804
100
AcDbArc
 50
180.2923065184
 51
268.1375356202
  0
ELLIPSE
  5
36C
330
328
100
AcDbEntity
  8
$DDT_AUDIT_GENERATED_(284)
  6
Continuous
 62
     7
100
AcDbEllipse
 10
59.2348403539
 20
196.9905853236
 30
0.0
 11
-0.4999711513137238
 21
0.005371019830988089
 31
0.0
210
0.0
220
0.0
230
1.0
 40
0.1218669128
 41
3.010908265510342
 42
3.229516133209568
  0
ELLIPSE
  5
36D
330
328
100
AcDbEntity
  8
$DDT_AUDIT_GENERATED_(284)
  6
Continuous
 62
     7
100
AcDbEllipse
 10
22.3320100737
 20
196.9905853236
 30
0.0
 11
0.4999711513137307
 21
0.005371019830991558
 31
0.0
210
0.0
220
0.0
230
0.9999999999999999
 40
0.1218669128
 41
3.053669173969783
 42
3.272437736072117
  0
ELLIPSE
  5
36E
330
328
100
AcDbEntity
  8
$DDT_AUDIT_GENERATED_(284)
  6
Continuous
 62
     7
100
AcDbEllipse
 10
58.6125547081
 20
139.1965580145
 30
0.0
 11
-0.0158446570504775
 21
0.49974888378361
 31
0.0
210
0.0
220
0.0
230
0.9999999999999999
 40
0.0033985635
 41
3.029034628509242
 42
3.141592653590869
  0
ARC
  5
36F
330
328
100
AcDbEntity
  8
$DDT_AUDIT_GENERATED_(284)
  6
Continuous
 62
     7
100
AcDbCircle
 10
60.8343358871
 20
238.911726592
 30
0.0
 40
0.5053869734005333
100
AcDbArc
 50
1.7608987122
 51
88.5016433533
  0
ARC
  5
370
330
328
100
AcDbEntity
  8
$DDT_AUDIT_GENERATED_(284)
  6
Continuous
 62
     7
100
AcDbCircle
 10
20.7325037465
 20
238.9117133065
 30
0.0
 40
0.5053999722014473
100
AcDbArc
 50
91.497093994
 51
178.2378669633
  0
ARC
  5
371
330
328
100
AcDbEntity
  8
$DDT_AUDIT_GENERATED_(284)
  6
Continuous
 62
     7
100
AcDbCircle
 10
19.516604255
 20
215.8792348906
 30
0.0
 40
1.610072749699341
100
AcDbArc
 50
97.3071645565
 51
97.3257676621
  0
SPLINE
  5
372
330
328
100
AcDbEntity
  8
$DDT_AUDIT_GENERATED_(284)
  6
Continuous
 62
     7
100
AcDbSpline
210
0.0
220
0.0
230
1.0
 70
     8
 71
     3
 72
     8
 73
     4
 74
     0
 42
0.0000000498037828
 43
0.0000000001
 40
0.9415237469323303
 40
0.9415237469323303
 40
0.9415237469323303
 40
0.9415237469323303
 40
1.0
 40
1.0
 40
1.0
 40
1.0
 10
19.31226229563075
 20
217.4868889707032
 30
0.0
 10
19.3120307301398
 20
217.4829891270206
 30
0.0
 10
19.31199504241662
 20
217.4790719820692
 30
0.0
 10
19.31195935469343
 20
217.4751548371178
 30
0.0
  0
ELLIPSE
  5
373
330
328
100
AcDbEntity
  8
$DDT_AUDIT_GENERATED_(284)
  6
Continuous
 62
     7
100
AcDbEllipse
 10
20.5262019444
 20
238.9272564671
 30
0.0
 11
0.2997272493539087
 21
-0.01278968313695242
 31
0.0
210
0.0
220
0.0
230
0.9999999999999998
 40
0.4380490987
 41
3.00468979543668
 42
3.141592653589793
  0
SPLINE
  5
374
330
328
100
AcDbEntity
  8
$DDT_AUDIT_GENERATED_(284)
  6
Continuous
 62
     7
100
AcDbSpline
210
0.0
220
0.0
230
1.0
 70
    12
 71
     2
 72
     6
 73
     3
 74
     0
 42
0.0000003093743156
 43
0.0000000001
 40
0.8428602200498452
 40
0.8428602200498452
 40
0.8428602200498452
 40
1.0
 40
1.0
 40
1.0
 10
20.72003462281502
 20
239.4168624076403
 30
0.0
 41
0.9532183009590294
 10
20.71959824937317
 20
239.4194137105214
 30
0.0
 41
0.9722482459557742
 10
20.71929954236844
 20
239.4169407611238
 30
0.0
 41
1.0
  0
LINE
  5
375
330
328
100
AcDbEntity
  8
$DDT_AUDIT_GENERATED_(284)
  6
Continuous
 62
     7
100
AcDbLine
 10
61.7705179584
 20
197.3690136027
 30
0.0
 11
61.7704370718
 21
197.3719632203
 31
0.0
  0
LINE
  5
376
330
328
100
AcDbEntity
  8
$DDT_AUDIT_GENERATED_(284)
  6
Continuous
 62
     7
100
AcDbLine
 10
62.2548910512
 20
197.8680643951
 30
0.0
 11
62.2530373619
 21
197.8680643951
 31
0.0
  0
SPLINE
  5
377
330
328
100
AcDbEntity
  8
$DDT_AUDIT_GENERATED_(284)
  6
Continuous
 62
     7
100
AcDbSpline
210
0.0
220
0.0
230
1.0
 70
    12
 71
     3
 72
     8
 73
     4
 74
     0
 42
0.0000000479026095
 43
0.0000000001
 40
0.9432616252104427
 40
0.9432616252104427
 40
0.9432616252104427
 40
0.9432616252104427
 40
1.0
 40
1.0
 40
1.0
 40
1.0
 10
62.2557708511763
 20
217.4869083668704
 30
0.0
 41
1.0
 10
62.25595731415925
 20
217.4830386197173
 30
0.0
 41
1.0
 10
62.25567141392237
 20
217.4791177827161
 30
0.0
 41
1.0
 10
62.25489107290663
 20
217.4751548371178
 30
0.0
 41
1.0
  0
ARC
  5
378
330
328
100
AcDbEntity
  8
$DDT_AUDIT_GENERATED_(284)
  6
Continuous
 62
     7
100
AcDbCircle
 10
62.0511366859
 20
215.9105595228
 30
0.0
 40
1.578851704300031
100
AcDbArc
 50
82.5445851797
 51
82.5802322459
  0
LINE
  5
379
330
328
100
AcDbEntity
  8
$DDT_AUDIT_GENERATED_(284)
  6
Continuous
 62
     7
100
AcDbLine
 10
29.2765384481
 20
154.8746741992
 30
0.0
 11
29.2765384482
 21
172.4271597371
 31
0.0
  0
LINE
  5
37A
330
328
100
AcDbEntity
  8
$DDT_AUDIT_GENERATED_(284)
  6
Continuous
 62
     7
100
AcDbLine
 10
52.2903119795
 20
172.4272476761
 30
0.0
 11
52.2903119795
 21
154.8751721898
 31
0.0
  0
LINE
  5
37B
330
328
100
AcDbEntity
  8
$DDT_AUDIT_GENERATED_(284)
  6
Continuous
 62
     7
100
AcDbLine
 10
29.5951560177
 20
153.0089306252
 30
0.0
 11
29.5171910156
 21
153.1509682387
 31
0.0
  0
ARC
  5
37C
330
328
100
AcDbEntity
  8
$DDT_AUDIT_GENERATED_(284)
  6
Continuous
 62
     7
100
AcDbCircle
 10
50.4837535635
 20
173.2070361982
 30
0.0
 40
1.920225511509111
100
AcDbArc
 50
35.8044917847
 51
58.9876132098
  0
ARC
  5
37D
330
328
100
AcDbEntity
  8
$DDT_AUDIT_GENERATED_(284)
  6
Continuous
 62
     7
100
AcDbCircle
 10
31.0934785392
 20
173.1926856591
 30
0.0
 40
1.93461335401667
100
AcDbArc
 50
107.9444247636
 51
142.6617734463
  0
ARC
  5
37E
330
328
100
AcDbEntity
  8
$DDT_AUDIT_GENERATED_(284)
  6
Continuous
 62
     7
100
AcDbCircle
 10
31.0934785392
 20
173.1926856591
 30
0.0
 40
1.93461335401667
100
AcDbArc
 50
89.9826898313
 51
92.087073231
  0
LINE
  5
37F
330
328
100
AcDbEntity
  8
$DDT_AUDIT_GENERATED_(284)
  6
Continuous
 62
     7
100
AcDbLine
 10
52.290313651
 20
154.7283970904
 30
0.0
 11
52.2909899357
 21
154.6787668527
 31
0.0
  0
ARC
  5
380
330
328
100
AcDbEntity
  8
$DDT_AUDIT_GENERATED_(284)
  6
Continuous
 62
     7
100
AcDbCircle
 10
50.256898501
 20
154.1075660386
 30
0.0
 40
2.042947714377298
100
AcDbArc
 50
338.8459161882
 51
351.2057467777
  0
LINE
  5
381
330
328
100
AcDbEntity
  8
$DDT_AUDIT_GENERATED_(284)
  6
Continuous
 62
     7
100
AcDbLine
 10
29.2751982819
 20
154.6312121753
 30
0.0
 11
29.276536629
 21
154.7283809513
 31
0.0
  0
ARC
  5
382
330
328
100
AcDbEntity
  8
$DDT_AUDIT_GENERATED_(284)
  6
Continuous
 62
     7
100
AcDbCircle
 10
31.3103376552
 20
154.1076363243
 30
0.0
 40
2.04333499808872
100
AcDbArc
 50
181.2354615988
 51
201.1233703333
  0
ARC
  5
383
330
328
100
AcDbEntity
  8
$DDT_AUDIT_GENERATED_(284)
  6
Continuous
 62
     7
100
AcDbCircle
 10
31.2909797949
 20
173.3343628005
 30
0.0
 40
2.024337528394245
100
AcDbArc
 50
156.4285493625
 51
178.9328889956
  0
LINE
  5
384
330
328
100
AcDbEntity
  8
$DDT_AUDIT_GENERATED_(284)
  6
Continuous
 62
     7
100
AcDbLine
 10
29.2765401375
 20
172.5524960452
 30
0.0
 11
29.2668945507
 21
173.3721313466
 31
0.0
  0
ARC
  5
385
330
328
100
AcDbEntity
  8
$DDT_AUDIT_GENERATED_(284)
  6
Continuous
 62
     7
100
AcDbCircle
 10
50.2766666831
 20
173.3345293184
 30
0.0
 40
2.023538319638991
100
AcDbArc
 50
1.0625675005
 51
23.6700683136
  0
LINE
  5
386
330
328
100
AcDbEntity
  8
$DDT_AUDIT_GENERATED_(284)
  6
Continuous
 62
     7
100
AcDbLine
 10
52.2998569818
 20
173.3720542573
 30
0.0
 11
52.2903101262
 21
172.552496221
 31
0.0
  0
ARC
  5
387
330
328
100
AcDbEntity
  8
$DDT_AUDIT_GENERATED_(284)
  6
Continuous
 62
     7
100
AcDbCircle
 10
31.103282248
 20
154.2398529576
 30
0.0
 40
1.935375170955193
100
AcDbArc
 50
215.791728553
 51
270.0757706586
  0
SPLINE
  5
388
330
328
100
AcDbEntity
  8
$DDT_AUDIT_GENERATED_(284)
  6
Continuous
 62
     7
100
AcDbSpline
210
0.0
220
0.0
230
1.0
 70
     8
 71
     3
 72
     8
 73
     4
 74
     0
 42
0.0000000005166577
 43
0.0000000001
 40
0.0
 40
0.0
 40
0.0
 40
0.0
 40
1.0
 40
1.0
 40
1.0
 40
1.0
 10
50.46101544636925
 20
152.3045212187486
 30
0.0
 10
44.62248994212203
 20
152.3058990501237
 30
0.0
 10
38.1707653530818
 20
152.3058851369178
 30
0.0
 10
31.10584167924858
 20
152.3044794791309
 30
0.0
  0
ARC
  5
389
330
328
100
AcDbEntity
  8
$DDT_AUDIT_GENERATED_(284)
  6
Continuous
 62
     7
100
AcDbCircle
 10
50.4492903827
 20
154.313164206
 30
0.0
 40
2.008677208546801
100
AcDbArc
 50
270.3344491971
 51
330.8014416152
  0
SPLINE
  5
38A
330
328
100
AcDbEntity
  8
$DDT_AUDIT_GENERATED_(284)
  6
Continuous
 62
     7
100
AcDbSpline
210
0.0
220
0.0
230
1.0
 70
     8
 71
     3
 72
    10
 73
     6
 74
     0
 42
0.000000002956219
 43
0.0000000001
 40
0.3415026593850181
 40
0.3415026593850181
 40
0.3415026593850181
 40
0.3415026593850181
 40
0.4125985522417043
 40
0.519320513047119
 40
0.5467702883352062
 40
0.5467702883352062
 40
0.5467702883352062
 40
0.5467702883352062
 10
59.77531825992401
 20
198.3990973138542
 30
0.0
 10
59.78023031820844
 20
198.4880108185353
 30
0.0
 10
59.79337472181675
 20
198.7038450214961
 30
0.0
 10
59.81067720985513
 20
198.9293216968435
 30
0.0
 10
59.82325101322038
 20
199.0646283114915
 30
0.0
 10
59.82582350887833
 20
199.0915520227902
 30
0.0
  0
ARC
  5
38B
330
328
100
AcDbEntity
  8
$DDT_AUDIT_GENERATED_(284)
  6
Continuous
 62
     7
100
AcDbCircle
 10
40.7834252138
 20
702.1653708602
 30
0.0
 40
563.7479143104935
100
AcDbArc
 50
268.1860759657
 51
271.8139240343
  0
ARC
  5
38C
330
328
100
AcDbEntity
  8
$DDT_AUDIT_GENERATED_(284)
  6
Continuous
 62
     7
100
AcDbCircle
 10
58.6125547081
 20
139.1965580145
 30
0.0
 40
0.4999999999999944
100
AcDbArc
 50
271.8159679765
 51
359.3815973751
  0
ARC
  5
38D
330
328
100
AcDbEntity
  8
$DDT_AUDIT_GENERATED_(284)
  6
Continuous
 62
     7
100
AcDbCircle
 10
22.9542957195
 20
139.1965580145
 30
0.0
 40
0.5000000000000014
100
AcDbArc
 50
180.6184026249
 51
268.1840320235
  0
LINE
  5
38E
330
328
100
AcDbEntity
  8
$DDT_AUDIT_GENERATED_(284)
  6
Continuous
 62
     7
100
AcDbLine
 10
20.2264746951
 20
238.9400461502
 30
0.0
 11
19.3110491697
 21
217.4869755949
 31
0.0
  0
LINE
  5
38F
330
328
100
AcDbEntity
  8
$DDT_AUDIT_GENERATED_(284)
  6
Continuous
 62
     7
100
AcDbLine
 10
19.3108177641
 20
217.4958572782
 30
0.0
 11
19.3108177641
 21
197.8680643951
 31
0.0
  0
ARC
  5
390
330
328
100
AcDbEntity
  8
$DDT_AUDIT_GENERATED_(284)
  6
Continuous
 62
     7
100
AcDbCircle
 10
40.7834252138
 20
-492.4486738534
 30
0.0
 40
732.1404897960649
100
AcDbArc
 50
88.4296845939
 51
91.5703154061
  0
ARC
  5
391
330
328
100
AcDbEntity
  8
$DDT_AUDIT_GENERATED_(284)
  6
Continuous
 62
     7
100
AcDbCircle
 10
40.7834252138
 20
962.9654637347
 30
0.0
 40
765.8811079491473
100
AcDbArc
 50
268.4508339325
 51
268.5817347272
  0
ARC
  5
392
330
328
100
AcDbEntity
  8
$DDT_AUDIT_GENERATED_(284)
  6
Continuous
 62
     7
100
AcDbCircle
 10
40.7834252138
 20
962.9654637347
 30
0.0
 40
765.8811079491473
100
AcDbArc
 50
271.4182704354
 51
271.5485643172
  0
LINE
  5
393
330
328
100
AcDbEntity
  8
$DDT_AUDIT_GENERATED_(284)
  6
Continuous
 62
     7
100
AcDbLine
 10
62.2558012579
 20
217.4869755949
 30
0.0
 11
61.3403757325
 21
238.9400461502
 31
0.0
  0
LINE
  5
394
330
328
100
AcDbEntity
  8
$DDT_AUDIT_GENERATED_(284)
  6
Continuous
 62
     7
100
AcDbLine
 10
62.2560326635
 20
197.8680643951
 30
0.0
 11
62.2560326635
 21
217.4958572782
 31
0.0
  0
LINE
  5
395
330
328
100
AcDbEntity
  8
$DDT_AUDIT_GENERATED_(2A9)
  6
Continuous
 62
     7
100
AcDbLine
 10
16.3834252138
 20
244.7932625016
 30
0.0
 11
30.7834252138
 21
244.7932625016
 31
0.0
  0
LINE
  5
396
330
328
100
AcDbEntity
  8
$DDT_AUDIT_GENERATED_(2A9)
  6
Continuous
 62
     7
100
AcDbLine
 10
50.7834252138
 20
244.7932625016
 30
0.0
 11
65.1834252138
 21
244.7932625016
 31
0.0
  0
ARC
  5
397
330
328
100
AcDbEntity
  8
$DDT_AUDIT_GENERATED_(2A9)
  6
Continuous
 62
     7
100
AcDbCircle
 10
16.3834252138
 20
194.4107162372
 30
0.0
 40
1.582546264418481
100
AcDbArc
 50
180.0
 51
270.0
  0
LINE
  5
398
330
328
100
AcDbEntity
  8
$DDT_AUDIT_GENERATED_(2A9)
  6
Continuous
 62
     7
100
AcDbLine
 10
14.8008789494
 20
194.4107162372
 30
0.0
 11
14.8008789494
 21
243.2107162372
 31
0.0
  0
ARC
  5
399
330
328
100
AcDbEntity
  8
$DDT_AUDIT_GENERATED_(2A9)
  6
Continuous
 62
     7
100
AcDbCircle
 10
16.3834252138
 20
243.2107162372
 30
0.0
 40
1.582546264418481
100
AcDbArc
 50
90.0
 51
180.0
  0
ARC
  5
39A
330
328
100
AcDbEntity
  8
$DDT_AUDIT_GENERATED_(2A9)
  6
Continuous
 62
     7
100
AcDbCircle
 10
65.1834252138
 20
243.2107162372
 30
0.0
 40
1.582546264418481
100
AcDbArc
 50
0.0
 51
90.0
  0
LINE
  5
39B
330
328
100
AcDbEntity
  8
$DDT_AUDIT_GENERATED_(2A9)
  6
Continuous
 62
     7
100
AcDbLine
 10
66.7659714782
 20
243.2107162372
 30
0.0
 11
66.7659714782
 21
194.4107162372
 31
0.0
  0
ARC
  5
39C
330
328
100
AcDbEntity
  8
$DDT_AUDIT_GENERATED_(2A9)
  6
Continuous
 62
     7
100
AcDbCircle
 10
65.1834252138
 20
194.4107162372
 30
0.0
 40
1.582546264418488
100
AcDbArc
 50
270.0
 51
0.0
  0
LINE
  5
39D
330
328
100
AcDbEntity
  8
$DDT_AUDIT_GENERATED_(2A9)
  6
Continuous
 62
     7
100
AcDbLine
 10
65.1834252138
 20
192.8281699728
 30
0.0
 11
62.2834252138
 21
192.8281699728
 31
0.0
  0
LINE
  5
39E
330
328
100
AcDbEntity
  8
$DDT_AUDIT_GENERATED_(2A9)
  6
Continuous
 62
     7
100
AcDbLine
 10
19.2834252138
 20
192.8281699728
 30
0.0
 11
16.3834252138
 21
192.8281699728
 31
0.0
  0
ENDBLK
  5
3A0
330
328
100
AcDbEntity
  8
0
100
AcDbBlockEnd
  0
ENDSEC
  0
SECTION
  2
ENTITIES
  0
INSERT
  5
5F
330
1F
100
AcDbEntity
  8
Default
100
AcDbBlockReference
  2
SEANNOT_GROUP
 10
0.0
 20
0.0
 30
0.0
  0
INSERT
  5
66
330
1F
100
AcDbEntity
  8
Default
100
AcDbBlockReference
  2
SEANNOT_GROUP1
 10
0.0
 20
0.0
 30
0.0
  0
LINE
  5
6B
330
1F
100
AcDbEntity
  8
Default
  6
Continuous
 62
     7
100
AcDbLine
 10
34.7002868438
 20
218.8107162372
 30
0.0
 11
46.8665635838
 21
218.8107162372
 31
0.0
  0
INSERT
  5
6D
330
1F
100
AcDbEntity
  8
Default
100
AcDbBlockReference
  2
SEANNOT_GROUP2
 10
0.0
 20
0.0
 30
0.0
  0
INSERT
  5
73
330
1F
100
AcDbEntity
  8
Default
100
AcDbBlockReference
  2
SE
 10
0.0
 20
0.0
 30
0.0
  0
INSERT
  5
2B7
330
1F
100
AcDbEntity
  8
Default
100
AcDbBlockReference
  2
SE1
 10
0.0
 20
0.0
 30
0.0
  0
INSERT
  5
329
330
1F
100
AcDbEntity
  8
Default
100
AcDbBlockReference
  2
SE2
 10
0.0
 20
0.0
 30
0.0
  0
TEXT
  5
3A2
330
1F
100
AcDbEntity
  8
Default
  6
Continuous
 62
     7
100
AcDbText
 10
5.9362635081
 20
53.4225120485
 30
0.0
 40
10.0
  1
Grohe AG^J
  7
SEACAD_seiso_ttf
 11
5.9362635081
 21
63.4225120485
 31
0.0
100
AcDbText
 73
     3
  0
TEXT
  5
3A3
330
1F
100
AcDbEntity
  8
Default
  6
Continuous
 62
     7
100
AcDbText
 10
5.9362635081
 20
37.0588756849
 30
0.0
 40
10.0
  1
 
  7
SEACAD_seiso_ttf
 11
5.9362635081
 21
47.0588756849
 31
0.0
100
AcDbText
 73
     3
  0
TEXT
  5
3A4
330
1F
100
AcDbEntity
  8
Default
  6
Continuous
 62
     7
100
AcDbText
 10
5.9362635081
 20
20.6952393213
 30
0.0
 40
10.0
  1
ecn: 
  7
SEACAD_seiso_ttf
 11
5.9362635081
 21
30.6952393213
 31
0.0
100
AcDbText
 73
     3
  0
TEXT
  5
3A5
330
1F
100
AcDbEntity
  8
Default
  6
Continuous
 62
     7
100
AcDbText
 10
5.9362635081
 20
4.3316029576
 30
0.0
 40
10.0
  1
unit: mm
  7
SEACAD_seiso_ttf
 11
5.9362635081
 21
14.3316029576
 31
0.0
100
AcDbText
 73
     3
  0
LINE
  5
3A6
330
1F
100
AcDbEntity
  8
Default
  6
Continuous
 62
     7
100
AcDbLine
 10
0.0
 20
0.0
 30
0.0
 11
100.0
 21
0.0
 31
0.0
  0
LINE
  5
3A7
330
1F
100
AcDbEntity
  8
Default
  6
Continuous
 62
     7
100
AcDbLine
 10
0.0
 20
0.0
 30
0.0
 11
0.0
 21
100.0
 31
0.0
  0
TEXT
  5
3A8
330
1F
100
AcDbEntity
  8
Default
  6
Continuous
 62
     7
100
AcDbText
 10
24.3923665681
 20
-18.2375342018
 30
0.0
 40
10.0
  1
100 mm
  7
SEACAD_seiso_ttf
 11
24.3923665681
 21
-8.2375342018
 31
0.0
100
AcDbText
 73
     3
  0
TEXT
  5
3A9
330
1F
100
AcDbEntity
  8
Default
  6
Continuous
 62
     7
100
AcDbText
 10
-7.6150308803
 20
24.6231930421
 30
0.0
 40
10.0
  1
100 mm
 50
90.0
  7
SEACAD_seiso_ttf
 11
-17.6150308803
 21
24.6231930421
 31
0.0
100
AcDbText
 73
     3
  0
TEXT
  5
3AA
330
1F
100
AcDbEntity
  8
Default
  6
Continuous
 62
     7
100
AcDbText
 10
28.4878128572
 20
20.0907663715
 30
0.0
 40
10.0
  1
221436
  7
SEACAD_seiso_ttf
 11
28.4878128572
 21
30.0907663715
 31
0.0
100
AcDbText
 73
     3
  0
TEXT
  5
3AB
330
1F
100
AcDbEntity
  8
Default
  6
Continuous
 62
     7
100
AcDbText
 10
5.9012241913
 20
36.7242780188
 30
0.0
 40
10.0
  1
23138000
  7
SEACAD_seiso_ttf
 11
5.9012241913
 21
46.7242780188
 31
0.0
100
AcDbText
 73
     3
  0
ENDSEC
  0
SECTION
  2
OBJECTS
  0
DICTIONARY
  5
C
330
0
100
AcDbDictionary
281
     1
  3
ACAD_GROUP
350
D
  3
ACAD_LAYOUT
350
1A
  3
ACAD_MLEADERSTYLE
350
3AF
  3
ACAD_MLINESTYLE
350
17
  3
ACAD_PLOTSETTINGS
350
19
  3
ACAD_PLOTSTYLENAME
350
E
  3
ACAD_SCALELIST
350
3B
  3
ACAD_TABLESTYLE
350
3AE
  3
ACAD_VISUALSTYLE
350
2A
  3
AcDbVariableDictionary
350
3AC
  0
DICTIONARY
  5
D
102
{ACAD_REACTORS
330
C
102
}
330
C
100
AcDbDictionary
281
     1
  0
DICTIONARY
  5
1A
102
{ACAD_REACTORS
330
C
102
}
330
C
100
AcDbDictionary
281
     1
  3
Layout1
350
1E
  3
Model
350
22
  0
DICTIONARY
  5
3AF
102
{ACAD_REACTORS
330
C
102
}
330
C
100
AcDbDictionary
281
     1
  0
DICTIONARY
  5
17
102
{ACAD_REACTORS
330
C
102
}
330
C
100
AcDbDictionary
281
     1
  3
Standard
350
18
  0
DICTIONARY
  5
19
102
{ACAD_REACTORS
330
C
102
}
330
C
100
AcDbDictionary
281
     1
  0
ACDBDICTIONARYWDFLT
  5
E
102
{ACAD_REACTORS
330
C
102
}
330
C
100
AcDbDictionary
281
     1
  3
Normal
350
F
100
AcDbDictionaryWithDefault
340
F
  0
DICTIONARY
  5
3B
102
{ACAD_REACTORS
330
C
102
}
330
C
100
AcDbDictionary
281
     1
  3
A0
350
3C
  3
A1
350
3D
  3
A2
350
3E
  3
A3
350
3F
  3
A4
350
40
  3
A5
350
41
  3
A6
350
42
  3
A7
350
43
  3
A8
350
44
  3
A9
350
45
  3
B0
350
46
  3
B1
350
47
  3
B2
350
48
  3
B3
350
49
  3
B4
350
4A
  3
B5
350
4B
  3
B6
350
4C
  3
B7
350
4D
  3
B8
350
4E
  3
B9
350
4F
  3
C0
350
50
  3
C1
350
51
  3
C2
350
52
  3
C3
350
53
  3
C4
350
54
  3
C5
350
55
  3
C6
350
56
  3
C7
350
57
  3
C8
350
58
  3
C9
350
59
  3
D0
350
5A
  3
D1
350
5B
  3
D2
350
5C
  0
DICTIONARY
  5
3AE
102
{ACAD_REACTORS
330
C
102
}
330
C
100
AcDbDictionary
281
     1
  0
DICTIONARY
  5
2A
102
{ACAD_REACTORS
330
C
102
}
330
C
100
AcDbDictionary
281
     1
  3
2dWireframe
350
2F
  3
3D Hidden
350
31
  3
3dWireframe
350
30
  3
Basic
350
32
  3
Brighten
350
36
  3
ColorChange
350
3A
  3
Conceptual
350
34
  3
Dim
350
35
  3
Facepattern
350
39
  3
Flat
350
2B
  3
FlatWithEdges
350
2C
  3
Gouraud
350
2D
  3
GouraudWithEdges
350
2E
  3
Linepattern
350
38
  3
Realistic
350
33
  3
Thicken
350
37
  0
DICTIONARY
  5
3AC
102
{ACAD_REACTORS
330
C
102
}
330
C
100
AcDbDictionary
281
     1
  3
CANNOSCALE
350
3AD
  3
PSOLHEIGHT
350
3B1
  3
PSOLWIDTH
350
3B0
  0
LAYOUT
  5
1E
102
{ACAD_REACTORS
330
1A
102
}
330
1A
100
AcDbPlotSettings
  1

  2
none_device
  4

  6

 40
0.0
 41
0.0
 42
0.0
 43
0.0
 44
0.0
 45
0.0
 46
0.0
 47
0.0
 48
0.0
 49
0.0
140
0.0
141
0.0
142
1.0
143
1.0
 70
   688
 72
     0
 73
     0
 74
     5
  7

 75
    16
147
1.0
148
0.0
149
0.0
100
AcDbLayout
  1
Layout1
 70
     1
 71
     1
 10
0.0
 20
0.0
 11
1682.0
 21
2378.0
 12
0.0
 22
0.0
 32
0.0
 14
0.0
 24
0.0
 34
0.0
 15
1682.0
 25
2378.0
 35
0.0
146
0.0
 13
0.0
 23
0.0
 33
0.0
 16
1.0
 26
0.0
 36
0.0
 17
0.0
 27
1.0
 37
0.0
 76
     0
330
1B
  0
LAYOUT
  5
22
102
{ACAD_REACTORS
330
1A
102
}
330
1A
100
AcDbPlotSettings
  1

  2
none_device
  4

  6

 40
0.0
 41
0.0
 42
0.0
 43
0.0
 44
0.0
 45
0.0
 46
0.0
 47
0.0
 48
0.0
 49
0.0
140
0.0
141
0.0
142
1.0
143
1.0
 70
  1712
 72
     0
 73
     0
 74
     0
  7

 75
     0
147
1.0
148
0.0
149
0.0
100
AcDbLayout
  1
Model
 70
     1
 71
     0
 10
0.0
 20
0.0
 11
1682.0
 21
2378.0
 12
0.0
 22
0.0
 32
0.0
 14
0.0
 24
0.0
 34
0.0
 15
1682.0
 25
2378.0
 35
0.0
146
0.0
 13
0.0
 23
0.0
 33
0.0
 16
1.0
 26
0.0
 36
0.0
 17
0.0
 27
1.0
 37
0.0
 76
     0
330
1F
331
29
  0
MLINESTYLE
  5
18
102
{ACAD_REACTORS
330
17
102
}
330
17
100
AcDbMlineStyle
  2
Standard
 70
     0
  3

 62
   256
 51
90.0
 52
90.0
 71
     2
 49
0.5
 62
   256
  6
BYLAYER
 49
-0.5
 62
   256
  6
BYLAYER
  0
ACDBPLACEHOLDER
  5
F
102
{ACAD_REACTORS
330
E
102
}
330
E
  0
SCALE
  5
3C
102
{ACAD_REACTORS
330
3B
102
}
330
3B
100
AcDbScale
 70
     0
300
1:1
140
1.0
141
1.0
290
     1
  0
SCALE
  5
3D
102
{ACAD_REACTORS
330
3B
102
}
330
3B
100
AcDbScale
 70
     0
300
1:2
140
1.0
141
2.0
290
     0
  0
SCALE
  5
3E
102
{ACAD_REACTORS
330
3B
102
}
330
3B
100
AcDbScale
 70
     0
300
1:4
140
1.0
141
4.0
290
     0
  0
SCALE
  5
3F
102
{ACAD_REACTORS
330
3B
102
}
330
3B
100
AcDbScale
 70
     0
300
1:5
140
1.0
141
5.0
290
     0
  0
SCALE
  5
40
102
{ACAD_REACTORS
330
3B
102
}
330
3B
100
AcDbScale
 70
     0
300
1:8
140
1.0
141
8.0
290
     0
  0
SCALE
  5
41
102
{ACAD_REACTORS
330
3B
102
}
330
3B
100
AcDbScale
 70
     0
300
1:10
140
1.0
141
10.0
290
     0
  0
SCALE
  5
42
102
{ACAD_REACTORS
330
3B
102
}
330
3B
100
AcDbScale
 70
     0
300
1:16
140
1.0
141
16.0
290
     0
  0
SCALE
  5
43
102
{ACAD_REACTORS
330
3B
102
}
330
3B
100
AcDbScale
 70
     0
300
1:20
140
1.0
141
20.0
290
     0
  0
SCALE
  5
44
102
{ACAD_REACTORS
330
3B
102
}
330
3B
100
AcDbScale
 70
     0
300
1:30
140
1.0
141
30.0
290
     0
  0
SCALE
  5
45
102
{ACAD_REACTORS
330
3B
102
}
330
3B
100
AcDbScale
 70
     0
300
1:40
140
1.0
141
40.0
290
     0
  0
SCALE
  5
46
102
{ACAD_REACTORS
330
3B
102
}
330
3B
100
AcDbScale
 70
     0
300
1:50
140
1.0
141
50.0
290
     0
  0
SCALE
  5
47
102
{ACAD_REACTORS
330
3B
102
}
330
3B
100
AcDbScale
 70
     0
300
1:100
140
1.0
141
100.0
290
     0
  0
SCALE
  5
48
102
{ACAD_REACTORS
330
3B
102
}
330
3B
100
AcDbScale
 70
     0
300
2:1
140
2.0
141
1.0
290
     0
  0
SCALE
  5
49
102
{ACAD_REACTORS
330
3B
102
}
330
3B
100
AcDbScale
 70
     0
300
4:1
140
4.0
141
1.0
290
     0
  0
SCALE
  5
4A
102
{ACAD_REACTORS
330
3B
102
}
330
3B
100
AcDbScale
 70
     0
300
8:1
140
8.0
141
1.0
290
     0
  0
SCALE
  5
4B
102
{ACAD_REACTORS
330
3B
102
}
330
3B
100
AcDbScale
 70
     0
300
10:1
140
10.0
141
1.0
290
     0
  0
SCALE
  5
4C
102
{ACAD_REACTORS
330
3B
102
}
330
3B
100
AcDbScale
 70
     0
300
100:1
140
100.0
141
1.0
290
     0
  0
SCALE
  5
4D
102
{ACAD_REACTORS
330
3B
102
}
330
3B
100
AcDbScale
 70
     0
300
1/128" = 1'-0"
140
0.0078125
141
12.0
290
     0
  0
SCALE
  5
4E
102
{ACAD_REACTORS
330
3B
102
}
330
3B
100
AcDbScale
 70
     0
300
1/64" = 1'-0"
140
0.015625
141
12.0
290
     0
  0
SCALE
  5
4F
102
{ACAD_REACTORS
330
3B
102
}
330
3B
100
AcDbScale
 70
     0
300
1/32" = 1'-0"
140
0.03125
141
12.0
290
     0
  0
SCALE
  5
50
102
{ACAD_REACTORS
330
3B
102
}
330
3B
100
AcDbScale
 70
     0
300
1/16" = 1'-0"
140
0.0625
141
12.0
290
     0
  0
SCALE
  5
51
102
{ACAD_REACTORS
330
3B
102
}
330
3B
100
AcDbScale
 70
     0
300
3/32" = 1'-0"
140
0.09375
141
12.0
290
     0
  0
SCALE
  5
52
102
{ACAD_REACTORS
330
3B
102
}
330
3B
100
AcDbScale
 70
     0
300
1/8" = 1'-0"
140
0.125
141
12.0
290
     0
  0
SCALE
  5
53
102
{ACAD_REACTORS
330
3B
102
}
330
3B
100
AcDbScale
 70
     0
300
3/16" = 1'-0"
140
0.1875
141
12.0
290
     0
  0
SCALE
  5
54
102
{ACAD_REACTORS
330
3B
102
}
330
3B
100
AcDbScale
 70
     0
300
1/4" = 1'-0"
140
0.25
141
12.0
290
     0
  0
SCALE
  5
55
102
{ACAD_REACTORS
330
3B
102
}
330
3B
100
AcDbScale
 70
     0
300
3/8" = 1'-0"
140
0.375
141
12.0
290
     0
  0
SCALE
  5
56
102
{ACAD_REACTORS
330
3B
102
}
330
3B
100
AcDbScale
 70
     0
300
1/2" = 1'-0"
140
0.5
141
12.0
290
     0
  0
SCALE
  5
57
102
{ACAD_REACTORS
330
3B
102
}
330
3B
100
AcDbScale
 70
     0
300
3/4" = 1'-0"
140
0.75
141
12.0
290
     0
  0
SCALE
  5
58
102
{ACAD_REACTORS
330
3B
102
}
330
3B
100
AcDbScale
 70
     0
300
1" = 1'-0"
140
1.0
141
12.0
290
     0
  0
SCALE
  5
59
102
{ACAD_REACTORS
330
3B
102
}
330
3B
100
AcDbScale
 70
     0
300
1-1/2" = 1'-0"
140
1.5
141
12.0
290
     0
  0
SCALE
  5
5A
102
{ACAD_REACTORS
330
3B
102
}
330
3B
100
AcDbScale
 70
     0
300
3" = 1'-0"
140
3.0
141
12.0
290
     0
  0
SCALE
  5
5B
102
{ACAD_REACTORS
330
3B
102
}
330
3B
100
AcDbScale
 70
     0
300
6" = 1'-0"
140
6.0
141
12.0
290
     0
  0
SCALE
  5
5C
102
{ACAD_REACTORS
330
3B
102
}
330
3B
100
AcDbScale
 70
     0
300
1'-0" = 1'-0"
140
12.0
141
12.0
290
     0
  0
VISUALSTYLE
  5
2F
102
{ACAD_REACTORS
330
2A
102
}
330
2A
100
AcDbVisualStyle
  2
2dWireframe
 70
     4
 71
     0
 72
     2
 73
     0
 90
        0
 40
-0.6
 41
-30.0
 62
     5
 63
     7
 74
     1
 91
        4
 64
     7
 65
   257
 75
     1
175
     1
 42
1.0
 92
        0
 66
   257
 43
1.0
 76
     1
 77
     6
 78
     2
 67
     7
 79
     5
170
     0
171
     0
290
     0
174
     0
 93
        1
 44
0.0
173
     0
291
     0
 45
0.0
1001
ACAD
1000
AcDbSavedByObjectVersion
1070
     0
  0
VISUALSTYLE
  5
31
102
{ACAD_REACTORS
330
2A
102
}
330
2A
100
AcDbVisualStyle
  2
3D Hidden
 70
     6
 71
     1
 72
     2
 73
     2
 90
        0
 40
-0.6
 41
-30.0
 62
     5
 63
     7
 74
     2
 91
        2
 64
     7
 65
   257
 75
     2
175
     1
 42
40.0
 92
        0
 66
   257
 43
1.0
 76
     1
 77
     6
 78
     2
 67
     7
 79
     3
170
     0
171
     0
290
     0
174
     0
 93
        1
 44
0.0
173
     0
291
     0
 45
0.0
1001
ACAD
1000
AcDbSavedByObjectVersion
1070
     0
  0
VISUALSTYLE
  5
30
102
{ACAD_REACTORS
330
2A
102
}
330
2A
100
AcDbVisualStyle
  2
3dWireframe
 70
     5
 71
     0
 72
     2
 73
     0
 90
        0
 40
-0.6
 41
-30.0
 62
     5
 63
     7
 74
     1
 91
        4
 64
     7
 65
   257
 75
     1
175
     1
 42
1.0
 92
        0
 66
   257
 43
1.0
 76
     1
 77
     6
 78
     2
 67
     7
 79
     5
170
     0
171
     0
290
     0
174
     0
 93
        1
 44
0.0
173
     0
291
     0
 45
0.0
1001
ACAD
1000
AcDbSavedByObjectVersion
1070
     0
  0
VISUALSTYLE
  5
32
102
{ACAD_REACTORS
330
2A
102
}
330
2A
100
AcDbVisualStyle
  2
Basic
 70
     7
 71
     1
 72
     0
 73
     1
 90
        0
 40
-0.6
 41
-30.0
 62
     5
 63
     7
 74
     0
 91
        4
 64
     7
 65
   257
 75
     1
175
     1
 42
1.0
 92
        8
 66
     7
 43
1.0
 76
     1
 77
     6
 78
     2
 67
     7
 79
     5
170
     0
171
     0
290
     0
174
     0
 93
        1
 44
0.0
173
     0
291
     1
 45
0.0
1001
ACAD
1000
AcDbSavedByObjectVersion
1070
     0
  0
VISUALSTYLE
  5
36
102
{ACAD_REACTORS
330
2A
102
}
330
2A
100
AcDbVisualStyle
  2
Brighten
 70
    12
 71
     2
 72
     2
 73
     0
 90
        0
 40
-0.6
 41
-30.0
 62
     5
 63
     7
 74
     1
 91
        4
 64
     7
 65
   257
 75
     1
175
     1
 42
1.0
 92
        8
 66
     7
 43
1.0
 76
     1
 77
     6
 78
     2
 67
     7
 79
     5
170
     0
171
     0
290
     0
174
     0
 93
        1
 44
50.0
173
     0
291
     1
 45
0.0
1001
ACAD
1000
AcDbSavedByObjectVersion
1070
     0
  0
VISUALSTYLE
  5
3A
102
{ACAD_REACTORS
330
2A
102
}
330
2A
100
AcDbVisualStyle
  2
ColorChange
 70
    16
 71
     2
 72
     2
 73
     3
 90
        0
 40
-0.6
 41
-30.0
 62
     5
 63
     8
 74
     1
 91
        4
 64
     7
 65
   257
 75
     1
175
     1
 42
1.0
 92
        8
 66
     8
 43
1.0
 76
     1
 77
     6
 78
     2
 67
     7
 79
     5
170
     0
171
     0
290
     0
174
     0
 93
        1
 44
0.0
173
     0
291
     1
 45
0.0
1001
ACAD
1000
AcDbSavedByObjectVersion
1070
     0
  0
VISUALSTYLE
  5
34
102
{ACAD_REACTORS
330
2A
102
}
330
2A
100
AcDbVisualStyle
  2
Conceptual
 70
     9
 71
     3
 72
     2
 73
     0
 90
        0
 40
-0.6
 41
-30.0
 62
     5
 63
     7
 74
     2
 91
        2
 64
     7
 65
   257
 75
     1
175
     1
 42
40.0
 92
        8
 66
     7
 43
1.0
 76
     1
 77
     6
 78
     2
 67
     7
 79
     3
170
     0
171
     0
290
     0
174
     0
 93
        1
 44
0.0
173
     0
291
     0
 45
0.0
1001
ACAD
1000
AcDbSavedByObjectVersion
1070
     0
  0
VISUALSTYLE
  5
35
102
{ACAD_REACTORS
330
2A
102
}
330
2A
100
AcDbVisualStyle
  2
Dim
 70
    11
 71
     2
 72
     2
 73
     0
 90
        0
 40
-0.6
 41
-30.0
 62
     5
 63
     7
 74
     1
 91
        4
 64
     7
 65
   257
 75
     1
175
     1
 42
1.0
 92
        8
 66
     7
 43
1.0
 76
     1
 77
     6
 78
     2
 67
     7
 79
     5
170
     0
171
     0
290
     0
174
     0
 93
        1
 44
-50.0
173
     0
291
     1
 45
0.0
1001
ACAD
1000
AcDbSavedByObjectVersion
1070
     0
  0
VISUALSTYLE
  5
39
102
{ACAD_REACTORS
330
2A
102
}
330
2A
100
AcDbVisualStyle
  2
Facepattern
 70
    15
 71
     2
 72
     2
 73
     0
 90
        0
 40
-0.6
 41
-30.0
 62
     5
 63
     7
 74
     1
 91
        4
 64
     7
 65
   257
 75
     1
175
     1
 42
1.0
 92
        8
 66
     7
 43
1.0
 76
     1
 77
     6
 78
     2
 67
     7
 79
     5
170
     0
171
     0
290
     0
174
     0
 93
        1
 44
0.0
173
     0
291
     1
 45
0.0
1001
ACAD
1000
AcDbSavedByObjectVersion
1070
     0
  0
VISUALSTYLE
  5
2B
102
{ACAD_REACTORS
330
2A
102
}
330
2A
100
AcDbVisualStyle
  2
Flat
 70
     0
 71
     2
 72
     1
 73
     1
 90
        2
 40
-0.6
 41
30.0
 62
     5
 63
     7
 74
     0
 91
        4
 64
     7
 65
   257
 75
     1
175
     1
 42
1.0
 92
        8
 66
     7
 43
1.0
 76
     1
 77
     6
 78
     2
 67
     7
 79
     5
170
     0
171
     0
290
     0
174
     0
 93
       13
 44
0.0
173
     0
291
     1
 45
0.0
1001
ACAD
1000
AcDbSavedByObjectVersion
1070
     0
  0
VISUALSTYLE
  5
2C
102
{ACAD_REACTORS
330
2A
102
}
330
2A
100
AcDbVisualStyle
  2
FlatWithEdges
 70
     1
 71
     2
 72
     1
 73
     1
 90
        2
 40
-0.6
 41
30.0
 62
     5
 63
     7
 74
     1
 91
        4
 64
     7
 65
   257
 75
     1
175
     1
 42
1.0
 92
        0
 66
   257
 43
1.0
 76
     1
 77
     6
 78
     2
 67
     7
 79
     5
170
     0
171
     0
290
     0
174
     0
 93
       13
 44
0.0
173
     0
291
     1
 45
0.0
1001
ACAD
1000
AcDbSavedByObjectVersion
1070
     0
  0
VISUALSTYLE
  5
2D
102
{ACAD_REACTORS
330
2A
102
}
330
2A
100
AcDbVisualStyle
  2
Gouraud
 70
     2
 71
     2
 72
     2
 73
     1
 90
        2
 40
-0.6
 41
30.0
 62
     5
 63
     7
 74
     0
 91
        4
 64
     7
 65
   257
 75
     1
175
     1
 42
1.0
 92
        0
 66
     7
 43
1.0
 76
     1
 77
     6
 78
     2
 67
     7
 79
     5
170
     0
171
     0
290
     0
174
     0
 93
       13
 44
0.0
173
     0
291
     1
 45
0.0
1001
ACAD
1000
AcDbSavedByObjectVersion
1070
     0
  0
VISUALSTYLE
  5
2E
102
{ACAD_REACTORS
330
2A
102
}
330
2A
100
AcDbVisualStyle
  2
GouraudWithEdges
 70
     3
 71
     2
 72
     2
 73
     1
 90
        2
 40
-0.6
 41
30.0
 62
     5
 63
     7
 74
     1
 91
        4
 64
     7
 65
   257
 75
     1
175
     1
 42
1.0
 92
        0
 66
   257
 43
1.0
 76
     1
 77
     6
 78
     2
 67
     7
 79
     5
170
     0
171
     0
290
     0
174
     0
 93
       13
 44
0.0
173
     0
291
     1
 45
0.0
1001
ACAD
1000
AcDbSavedByObjectVersion
1070
     0
  0
VISUALSTYLE
  5
38
102
{ACAD_REACTORS
330
2A
102
}
330
2A
100
AcDbVisualStyle
  2
Linepattern
 70
    14
 71
     2
 72
     2
 73
     0
 90
        0
 40
-0.6
 41
-30.0
 62
     5
 63
     7
 74
     1
 91
        4
 64
     7
 65
   257
 75
     7
175
     7
 42
1.0
 92
        8
 66
     7
 43
1.0
 76
     1
 77
     6
 78
     2
 67
     7
 79
     5
170
     0
171
     0
290
     0
174
     0
 93
        1
 44
0.0
173
     0
291
     1
 45
0.0
1001
ACAD
1000
AcDbSavedByObjectVersion
1070
     0
  0
VISUALSTYLE
  5
33
102
{ACAD_REACTORS
330
2A
102
}
330
2A
100
AcDbVisualStyle
  2
Realistic
 70
     8
 71
     2
 72
     2
 73
     0
 90
        0
 40
-0.6
 41
-30.0
 62
     5
 63
     7
 74
     1
 91
        0
 64
     7
 65
   257
 75
     1
175
     1
 42
1.0
 92
        8
 66
     8
 43
1.0
 76
     1
 77
     6
 78
     2
 67
     7
 79
     5
170
     0
171
     0
290
     0
174
     0
 93
       13
 44
0.0
173
     0
291
     0
 45
0.0
1001
ACAD
1000
AcDbSavedByObjectVersion
1070
     0
  0
VISUALSTYLE
  5
37
102
{ACAD_REACTORS
330
2A
102
}
330
2A
100
AcDbVisualStyle
  2
Thicken
 70
    13
 71
     2
 72
     2
 73
     0
 90
        0
 40
-0.6
 41
-30.0
 62
     5
 63
     7
 74
     1
 91
        4
 64
     7
 65
   257
 75
     1
175
     1
 42
1.0
 92
       12
 66
     7
 43
1.0
 76
     1
 77
     6
 78
     2
 67
     7
 79
     5
170
     0
171
     0
290
     0
174
     0
 93
        1
 44
0.0
173
     0
291
     1
 45
0.0
1001
ACAD
1000
AcDbSavedByObjectVersion
1070
     0
  0
DICTIONARYVAR
  5
3AD
102
{ACAD_REACTORS
330
3AC
102
}
330
3AC
100
DictionaryVariables
280
     0
  1
1:1
  0
DICTIONARYVAR
  5
3B1
102
{ACAD_REACTORS
330
3AC
102
}
330
3AC
100
DictionaryVariables
280
     0
  1
80.000000
  0
DICTIONARYVAR
  5
3B0
102
{ACAD_REACTORS
330
3AC
102
}
330
3AC
100
DictionaryVariables
280
     0
  1
5.000000
  0
ENDSEC
  0
EOF
