  0
SECTION
  2
HEADER
  9
$ACADVER
  1
AC1009
  9
$DWGCODEPAGE
  3
ansi_1252
  9
$INSBASE
 10
0.0
 20
0.0
 30
0.0
  9
$EXTMIN
 10
1.000000000000000E+20
 20
1.000000000000000E+20
 30
1.000000000000000E+20
  9
$EXTMAX
 10
-1.000000000000000E+20
 20
-1.000000000000000E+20
 30
-1.000000000000000E+20
  9
$LIMMIN
 10
0.0
 20
0.0
  9
$LIMMAX
 10
12.0
 20
9.0
  9
$ORTHOMODE
 70
     0
  9
$REGENMODE
 70
     1
  9
$FILLMODE
 70
     1
  9
$QTEXTMODE
 70
     0
  9
$MIRRTEXT
 70
     1
  9
$DRAGMODE
 70
     2
  9
$LTSCALE
 40
1.0
  9
$OSMODE
 70
    37
  9
$ATTMODE
 70
     1
  9
$TEXTSIZE
 40
0.2
  9
$TRACEWID
 40
0.05
  9
$TEXTSTYLE
  7
STANDARD
  9
$CLAYER
  8
0
  9
$CELTYPE
  6
BYLAYER
  9
$CECOLOR
 62
   256
  9
$DIMSCALE
 40
1.0
  9
$DIMASZ
 40
0.18
  9
$DIMEXO
 40
0.0625
  9
$DIMDLI
 40
0.38
  9
$DIMRND
 40
0.0
  9
$DIMDLE
 40
0.0
  9
$DIMEXE
 40
0.18
  9
$DIMTP
 40
0.0
  9
$DIMTM
 40
0.0
  9
$DIMTXT
 40
0.18
  9
$DIMCEN
 40
0.09
  9
$DIMTSZ
 40
0.0
  9
$DIMTOL
 70
     0
  9
$DIMLIM
 70
     0
  9
$DIMTIH
 70
     1
  9
$DIMTOH
 70
     1
  9
$DIMSE1
 70
     0
  9
$DIMSE2
 70
     0
  9
$DIMTAD
 70
     0
  9
$DIMZIN
 70
     0
  9
$DIMBLK
  1

  9
$DIMASO
 70
     1
  9
$DIMSHO
 70
     1
  9
$DIMPOST
  1

  9
$DIMAPOST
  1

  9
$DIMALT
 70
     0
  9
$DIMALTD
 70
     2
  9
$DIMALTF
 40
25.4
  9
$DIMLFAC
 40
1.0
  9
$DIMTOFL
 70
     0
  9
$DIMTVP
 40
0.0
  9
$DIMTIX
 70
     0
  9
$DIMSOXD
 70
     0
  9
$DIMSAH
 70
     0
  9
$DIMBLK1
  1

  9
$DIMBLK2
  1

  9
$DIMSTYLE
  2
STANDARD
  9
$DIMCLRD
 70
     0
  9
$DIMCLRE
 70
     0
  9
$DIMCLRT
 70
     0
  9
$DIMTFAC
 40
1.0
  9
$DIMGAP
 40
0.09
  9
$LUNITS
 70
     2
  9
$LUPREC
 70
     4
  9
$SKETCHINC
 40
0.1
  9
$FILLETRAD
 40
0.5
  9
$AUNITS
 70
     0
  9
$AUPREC
 70
     0
  9
$MENU
  1
.
  9
$ELEVATION
 40
0.0
  9
$PELEVATION
 40
0.0
  9
$THICKNESS
 40
0.0
  9
$LIMCHECK
 70
     0
  9
$CHAMFERA
 40
0.5
  9
$CHAMFERB
 40
0.5
  9
$SKPOLY
 70
     0
  9
$TDCREATE
 40
2455642.341837199
  9
$TDUPDATE
 40
2455642.341837199
  9
$TDINDWG
 40
0.0000000116
  9
$TDUSRTIMER
 40
0.0000000116
  9
$USRTIMER
 70
     1
  9
$ANGBASE
 50
0.0
  9
$ANGDIR
 70
     0
  9
$PDMODE
 70
     0
  9
$PDSIZE
 40
0.0
  9
$PLINEWID
 40
0.0
  9
$COORDS
 70
     1
  9
$SPLFRAME
 70
     0
  9
$SPLINETYPE
 70
     6
  9
$SPLINESEGS
 70
     8
  9
$ATTDIA
 70
     0
  9
$ATTREQ
 70
     1
  9
$HANDLING
 70
     1
  9
$HANDSEED
  5
60E
  9
$SURFTAB1
 70
     6
  9
$SURFTAB2
 70
     6
  9
$SURFTYPE
 70
     6
  9
$SURFU
 70
     6
  9
$SURFV
 70
     6
  9
$UCSNAME
  2

  9
$UCSORG
 10
0.0
 20
0.0
 30
0.0
  9
$UCSXDIR
 10
1.0
 20
0.0
 30
0.0
  9
$UCSYDIR
 10
0.0
 20
1.0
 30
0.0
  9
$PUCSNAME
  2

  9
$PUCSORG
 10
0.0
 20
0.0
 30
0.0
  9
$PUCSXDIR
 10
1.0
 20
0.0
 30
0.0
  9
$PUCSYDIR
 10
0.0
 20
1.0
 30
0.0
  9
$USERI1
 70
     0
  9
$USERI2
 70
     0
  9
$USERI3
 70
     0
  9
$USERI4
 70
     0
  9
$USERI5
 70
     0
  9
$USERR1
 40
0.0
  9
$USERR2
 40
0.0
  9
$USERR3
 40
0.0
  9
$USERR4
 40
0.0
  9
$USERR5
 40
0.0
  9
$WORLDVIEW
 70
     1
  9
$SHADEDGE
 70
     3
  9
$SHADEDIF
 70
    70
  9
$TILEMODE
 70
     1
  9
$MAXACTVP
 70
    64
  9
$PLIMCHECK
 70
     0
  9
$PEXTMIN
 10
1.000000000000000E+20
 20
1.000000000000000E+20
 30
1.000000000000000E+20
  9
$PEXTMAX
 10
-1.000000000000000E+20
 20
-1.000000000000000E+20
 30
-1.000000000000000E+20
  9
$PLIMMIN
 10
0.0
 20
0.0
  9
$PLIMMAX
 10
12.0
 20
9.0
  9
$UNITMODE
 70
     0
  9
$VISRETAIN
 70
     1
  9
$PLINEGEN
 70
     0
  9
$PSLTSCALE
 70
     1
  0
ENDSEC
  0
SECTION
  2
TABLES
  0
TABLE
  2
VPORT
 70
     1
  0
VPORT
  2
*ACTIVE
 70
     0
 10
0.0
 20
0.0
 11
1.0
 21
1.0
 12
0.0
 22
0.0
 13
0.0
 23
0.0
 14
0.5
 24
0.5
 15
0.5
 25
0.5
 16
377.0619506835938
 26
-377.0619506835938
 36
377.0619506835938
 17
59.56304931640625
 27
25.0509033203125
 37
114.94091796875
 40
490.2317170748339
 41
1.972972972850329
 42
50.0
 43
0.0
 44
0.0
 50
0.0
 51
0.0
 71
     0
 72
   100
 73
     1
 74
     3
 75
     0
 76
     0
 77
     0
 78
     0
  0
ENDTAB
  0
TABLE
  2
LTYPE
 70
     1
  0
LTYPE
  2
CONTINUOUS
 70
     0
  3
Solid line
 72
    65
 73
     0
 40
0.0
  0
ENDTAB
  0
TABLE
  2
LAYER
 70
     2
  0
LAYER
  2
0
 70
     0
 62
     7
  6
CONTINUOUS
  0
LAYER
  2
LAYER_1
 70
     0
 62
     7
  6
CONTINUOUS
  0
ENDTAB
  0
TABLE
  2
STYLE
 70
     1
  0
STYLE
  2
STANDARD
 70
     0
 40
0.0
 41
1.0
 50
0.0
 71
     0
 42
0.2
  3
txt
  4

  0
ENDTAB
  0
TABLE
  2
VIEW
 70
     0
  0
ENDTAB
  0
TABLE
  2
UCS
 70
     0
  0
ENDTAB
  0
TABLE
  2
APPID
 70
     1
  0
APPID
  2
ACAD
 70
     0
  0
ENDTAB
  0
TABLE
  2
DIMSTYLE
 70
     1
  0
DIMSTYLE
  2
STANDARD
 70
     0
  3

  4

  5

  6

  7

 40
1.0
 41
0.18
 42
0.0625
 43
0.38
 44
0.18
 45
0.0
 46
0.0
 47
0.0
 48
0.0
140
0.18
141
0.09
142
0.0
143
25.4
144
1.0
145
0.0
146
1.0
147
0.09
 71
     0
 72
     0
 73
     1
 74
     1
 75
     0
 76
     0
 77
     0
 78
     0
170
     0
171
     2
172
     0
173
     0
174
     0
175
     0
176
     0
177
     0
178
     0
  0
ENDTAB
  0
ENDSEC
  0
SECTION
  2
BLOCKS
  0
BLOCK
  8
0
  2
$MODEL_SPACE
 70
     0
 10
0.0
 20
0.0
 30
0.0
  3
$MODEL_SPACE
  1

  0
ENDBLK
  5
21
  8
0
  0
BLOCK
 67
     1
  8
0
  2
$PAPER_SPACE
 70
     0
 10
0.0
 20
0.0
 30
0.0
  3
$PAPER_SPACE
  1

  0
ENDBLK
  5
1D
 67
     1
  8
0
  0
BLOCK
  8
0
  2
38
 70
     0
 10
0.0
 20
0.0
 30
0.0
  3
38
  1

  0
POLYLINE
  5
3C
  8
0
 62
     9
 66
     1
 10
0.0
 20
0.0
 30
0.0
 70
    64
 71
    66
 72
   106
  0
VERTEX
  5
3D
  8
0
 10
141.0319671630859
 20
-5.37523078918457
 30
215.0709991455078
 70
   192
  0
VERTEX
  5
3E
  8
0
 10
140.0498352050781
 20
-5.898684024810791
 30
215.5611877441406
 70
   192
  0
VERTEX
  5
3F
  8
0
 10
141.9148712158203
 20
-8.350543975830078
 30
215.7901763916016
 70
   192
  0
VERTEX
  5
40
  8
0
 10
143.4188995361328
 20
-8.237672805786133
 30
215.3640899658203
 70
   192
  0
VERTEX
  5
41
  8
0
 10
139.7668609619141
 20
-1.873609781265259
 30
214.9156646728516
 70
   192
  0
VERTEX
  5
42
  8
0
 10
138.8852233886719
 20
-3.049630641937256
 30
215.4181823730469
 70
   192
  0
VERTEX
  5
43
  8
0
 10
144.3387908935547
 20
-10.22344779968262
 30
216.0877990722656
 70
   192
  0
VERTEX
  5
44
  8
0
 10
147.1623840332031
 20
-11.40279006958008
 30
216.4344940185547
 70
   192
  0
VERTEX
  5
45
  8
0
 10
146.6239013671875
 20
-10.10179805755615
 30
215.7576141357422
 70
   192
  0
VERTEX
  5
46
  8
0
 10
150.2724456787109
 20
-10.74870586395264
 30
216.2055969238281
 70
   192
  0
VERTEX
  5
47
  8
0
 10
150.1985778808594
 20
-11.80000019073486
 30
216.8072967529297
 70
   192
  0
VERTEX
  5
48
  8
0
 10
139.7646942138672
 20
1.866057753562927
 30
214.9154052734375
 70
   192
  0
VERTEX
  5
49
  8
0
 10
138.4865264892578
 20
-0.0000000000001998
 30
215.3692321777344
 70
   192
  0
VERTEX
  5
4A
  8
0
 10
141.0298309326172
 20
5.37006950378418
 30
215.0707397460938
 70
   192
  0
VERTEX
  5
4B
  8
0
 10
138.8927154541016
 20
3.062217950820923
 30
215.4191131591797
 70
   192
  0
VERTEX
  5
4C
  8
0
 10
141.9272003173828
 20
8.34127140045166
 30
215.7917022705078
 70
   192
  0
VERTEX
  5
4D
  8
0
 10
140.0687408447266
 20
5.904160976409912
 30
215.5635070800781
 70
   192
  0
VERTEX
  5
4E
  8
0
 10
143.4118041992188
 20
8.233148574829102
 30
215.3632049560547
 70
   192
  0
VERTEX
  5
4F
  8
0
 10
144.3552703857422
 20
10.21696376800537
 30
216.0898284912109
 70
   192
  0
VERTEX
  5
50
  8
0
 10
146.61767578125
 20
10.0994930267334
 30
215.7568359375
 70
   192
  0
VERTEX
  5
51
  8
0
 10
147.1764678955078
 20
11.39362907409668
 30
216.4362182617188
 70
   192
  0
VERTEX
  5
52
  8
0
 10
150.2724456787109
 20
10.75
 30
216.2055969238281
 70
   192
  0
VERTEX
  5
53
  8
0
 10
150.1985778808594
 20
11.80000019073486
 30
216.8072967529297
 70
   192
  0
VERTEX
  5
54
  8
0
 10
137.8941497802734
 20
-3.062217950820923
 30
223.5518188476562
 70
   192
  0
VERTEX
  5
55
  8
0
 10
137.4879608154297
 20
-0.0000000000001887
 30
223.5019378662109
 70
   192
  0
VERTEX
  5
56
  8
0
 10
139.0701751708984
 20
-5.904160976409912
 30
223.6962127685547
 70
   192
  0
VERTEX
  5
57
  8
0
 10
140.9286346435547
 20
-8.34127140045166
 30
223.9244079589844
 70
   192
  0
VERTEX
  5
58
  8
0
 10
143.3567047119141
 20
-10.21696376800537
 30
224.2225341796875
 70
   192
  0
VERTEX
  5
59
  8
0
 10
146.1779022216797
 20
-11.39362907409668
 30
224.5689392089844
 70
   192
  0
VERTEX
  5
5A
  8
0
 10
149.1999969482422
 20
-11.80000019073486
 30
224.9400024414062
 70
   192
  0
VERTEX
  5
5B
  8
0
 10
137.8866424560547
 20
3.049630641937256
 30
223.5508880615234
 70
   192
  0
VERTEX
  5
5C
  8
0
 10
139.05126953125
 20
5.898684024810791
 30
223.6938934326172
 70
   192
  0
VERTEX
  5
5D
  8
0
 10
140.9163055419922
 20
8.350543975830078
 30
223.9228820800781
 70
   192
  0
VERTEX
  5
5E
  8
0
 10
143.3402252197266
 20
10.22344779968262
 30
224.2205047607422
 70
   192
  0
VERTEX
  5
5F
  8
0
 10
146.1638031005859
 20
11.40279006958008
 30
224.5671997070312
 70
   192
  0
VERTEX
  5
60
  8
0
 10
149.1999969482422
 20
11.80000019073486
 30
224.9400024414062
 70
   192
  0
VERTEX
  5
61
  8
0
 10
152.2361907958984
 20
-11.40279006958008
 30
225.3127899169922
 70
   192
  0
VERTEX
  5
62
  8
0
 10
153.2347717285156
 20
-11.40279006958008
 30
217.1800842285156
 70
   192
  0
VERTEX
  5
63
  8
0
 10
160.5133514404297
 20
-3.049630641937256
 30
226.3291015625
 70
   192
  0
VERTEX
  5
64
  8
0
 10
160.3473052978516
 20
-5.898684024810791
 30
218.0534057617188
 70
   192
  0
VERTEX
  5
65
  8
0
 10
159.3487243652344
 20
-5.898684024810791
 30
226.1861114501953
 70
   192
  0
VERTEX
  5
66
  8
0
 10
156.058349609375
 20
-10.22344779968262
 30
217.5267791748047
 70
   192
  0
VERTEX
  5
67
  8
0
 10
155.0597839355469
 20
-10.22344779968262
 30
225.6594848632812
 70
   192
  0
VERTEX
  5
68
  8
0
 10
157.4837036132812
 20
-8.350543975830078
 30
225.9571075439453
 70
   192
  0
VERTEX
  5
69
  8
0
 10
160.5058441162109
 20
3.062217950820923
 30
226.3281860351562
 70
   192
  0
VERTEX
  5
6A
  8
0
 10
159.3298187255859
 20
5.904160976409912
 30
226.1837921142578
 70
   192
  0
VERTEX
  5
6B
  8
0
 10
161.5044250488281
 20
3.062217950820923
 30
218.1954803466797
 70
   192
  0
VERTEX
  5
6C
  8
0
 10
161.5119323730469
 20
-3.049630641937256
 30
218.1963958740234
 70
   192
  0
VERTEX
  5
6D
  8
0
 10
160.9120483398438
 20
-0.0000000000002101
 30
226.3780517578125
 70
   192
  0
VERTEX
  5
6E
  8
0
 10
161.9106140136719
 20
-0.0000000000002092
 30
218.2453460693359
 70
   192
  0
VERTEX
  5
6F
  8
0
 10
157.4713745117188
 20
8.34127140045166
 30
225.9555969238281
 70
   192
  0
VERTEX
  5
70
  8
0
 10
155.0432891845703
 20
10.21696376800537
 30
225.657470703125
 70
   192
  0
VERTEX
  5
71
  8
0
 10
158.4699401855469
 20
8.34127140045166
 30
217.8228912353516
 70
   192
  0
VERTEX
  5
72
  8
0
 10
160.3283996582031
 20
5.904160976409912
 30
218.0510711669922
 70
   192
  0
VERTEX
  5
73
  8
0
 10
152.2221069335938
 20
11.39362907409668
 30
225.3110656738281
 70
   192
  0
VERTEX
  5
74
  8
0
 10
156.0418701171875
 20
10.21696376800537
 30
217.5247650146484
 70
   192
  0
VERTEX
  5
75
  8
0
 10
153.2206726074219
 20
11.39362907409668
 30
217.1783599853516
 70
   192
  0
VERTEX
  5
76
  8
0
 10
158.4822692871094
 20
-8.350543975830078
 30
217.8244018554688
 70
   192
  0
VERTEX
  5
77
  8
0
 10
153.9212799072266
 20
-10.1018762588501
 30
216.6536102294922
 70
   192
  0
VERTEX
  5
78
  8
0
 10
159.5135803222656
 20
-5.373194217681885
 30
217.3402557373047
 70
   192
  0
VERTEX
  5
79
  8
0
 10
157.1331481933594
 20
-8.232475280761719
 30
217.0479736328125
 70
   192
  0
VERTEX
  5
7A
  8
0
 10
159.5094909667969
 20
5.379634380340576
 30
217.3397521972656
 70
   192
  0
VERTEX
  5
7B
  8
0
 10
160.7802734375
 20
1.866496086120605
 30
217.4957885742188
 70
   192
  0
VERTEX
  5
7C
  8
0
 10
160.7806396484375
 20
-1.861173987388611
 30
217.4958343505859
 70
   192
  0
VERTEX
  5
7D
  8
0
 10
157.1282043457031
 20
8.237017631530762
 30
217.0473785400391
 70
   192
  0
VERTEX
  5
7E
  8
0
 10
153.9149322509766
 20
10.10350227355957
 30
216.65283203125
 70
   192
  0
VERTEX
  5
7F
  8
0
 62
     9
 10
0.0
 20
0.0
 30
0.0
 70
   128
 71
     3
 72
     2
 73
     1
  0
VERTEX
  5
80
  8
0
 62
     9
 10
0.0
 20
0.0
 30
0.0
 70
   128
 71
     4
 72
     3
 73
     1
  0
VERTEX
  5
81
  8
0
 62
     9
 10
0.0
 20
0.0
 30
0.0
 70
   128
 71
     6
 72
     5
 73
     1
  0
VERTEX
  5
82
  8
0
 62
     9
 10
0.0
 20
0.0
 30
0.0
 70
   128
 71
     6
 72
     1
 73
     2
  0
VERTEX
  5
83
  8
0
 62
     9
 10
0.0
 20
0.0
 30
0.0
 70
   128
 71
     9
 72
     8
 73
     7
  0
VERTEX
  5
84
  8
0
 62
     9
 10
0.0
 20
0.0
 30
0.0
 70
   128
 71
     9
 72
     7
 73
     4
  0
VERTEX
  5
85
  8
0
 62
     9
 10
0.0
 20
0.0
 30
0.0
 70
   128
 71
     8
 72
     9
 73
    10
  0
VERTEX
  5
86
  8
0
 62
     9
 10
0.0
 20
0.0
 30
0.0
 70
   128
 71
    11
 72
     8
 73
    10
  0
VERTEX
  5
87
  8
0
 62
     9
 10
0.0
 20
0.0
 30
0.0
 70
   128
 71
     4
 72
     7
 73
     3
  0
VERTEX
  5
88
  8
0
 62
     9
 10
0.0
 20
0.0
 30
0.0
 70
   128
 71
    13
 72
    12
 73
     5
  0
VERTEX
  5
89
  8
0
 62
     9
 10
0.0
 20
0.0
 30
0.0
 70
   128
 71
     5
 72
     6
 73
    13
  0
VERTEX
  5
8A
  8
0
 62
     9
 10
0.0
 20
0.0
 30
0.0
 70
   128
 71
    12
 72
    15
 73
    14
  0
VERTEX
  5
8B
  8
0
 62
     9
 10
0.0
 20
0.0
 30
0.0
 70
   128
 71
    15
 72
    12
 73
    13
  0
VERTEX
  5
8C
  8
0
 62
     9
 10
0.0
 20
0.0
 30
0.0
 70
   128
 71
    14
 72
    17
 73
    16
  0
VERTEX
  5
8D
  8
0
 62
     9
 10
0.0
 20
0.0
 30
0.0
 70
   128
 71
    15
 72
    17
 73
    14
  0
VERTEX
  5
8E
  8
0
 62
     9
 10
0.0
 20
0.0
 30
0.0
 70
   128
 71
    19
 72
    18
 73
    16
  0
VERTEX
  5
8F
  8
0
 62
     9
 10
0.0
 20
0.0
 30
0.0
 70
   128
 71
    14
 72
    16
 73
    18
  0
VERTEX
  5
90
  8
0
 62
     9
 10
0.0
 20
0.0
 30
0.0
 70
   128
 71
    19
 72
    21
 73
    20
  0
VERTEX
  5
91
  8
0
 62
     9
 10
0.0
 20
0.0
 30
0.0
 70
   128
 71
    20
 72
    18
 73
    19
  0
VERTEX
  5
92
  8
0
 62
     9
 10
0.0
 20
0.0
 30
0.0
 70
   128
 71
    21
 72
    22
 73
    20
  0
VERTEX
  5
93
  8
0
 62
     9
 10
0.0
 20
0.0
 30
0.0
 70
   128
 71
    21
 72
    23
 73
    22
  0
VERTEX
  5
94
  8
0
 62
     9
 10
0.0
 20
0.0
 30
0.0
 70
   128
 71
    25
 72
    13
 73
    24
  0
VERTEX
  5
95
  8
0
 62
     9
 10
0.0
 20
0.0
 30
0.0
 70
   128
 71
    26
 72
    24
 73
     6
  0
VERTEX
  5
96
  8
0
 62
     9
 10
0.0
 20
0.0
 30
0.0
 70
   128
 71
    13
 72
     6
 73
    24
  0
VERTEX
  5
97
  8
0
 62
     9
 10
0.0
 20
0.0
 30
0.0
 70
   128
 71
     2
 72
    27
 73
    26
  0
VERTEX
  5
98
  8
0
 62
     9
 10
0.0
 20
0.0
 30
0.0
 70
   128
 71
    26
 72
     6
 73
     2
  0
VERTEX
  5
99
  8
0
 62
     9
 10
0.0
 20
0.0
 30
0.0
 70
   128
 71
    27
 72
     3
 73
    28
  0
VERTEX
  5
9A
  8
0
 62
     9
 10
0.0
 20
0.0
 30
0.0
 70
   128
 71
     3
 72
    27
 73
     2
  0
VERTEX
  5
9B
  8
0
 62
     9
 10
0.0
 20
0.0
 30
0.0
 70
   128
 71
    29
 72
    28
 73
     7
  0
VERTEX
  5
9C
  8
0
 62
     9
 10
0.0
 20
0.0
 30
0.0
 70
   128
 71
     3
 72
     7
 73
    28
  0
VERTEX
  5
9D
  8
0
 62
     9
 10
0.0
 20
0.0
 30
0.0
 70
   128
 71
     8
 72
    30
 73
    29
  0
VERTEX
  5
9E
  8
0
 62
     9
 10
0.0
 20
0.0
 30
0.0
 70
   128
 71
    29
 72
     7
 73
     8
  0
VERTEX
  5
9F
  8
0
 62
     9
 10
0.0
 20
0.0
 30
0.0
 70
   128
 71
    11
 72
    30
 73
     8
  0
VERTEX
  5
A0
  8
0
 62
     9
 10
0.0
 20
0.0
 30
0.0
 70
   128
 71
    15
 72
    13
 73
    25
  0
VERTEX
  5
A1
  8
0
 62
     9
 10
0.0
 20
0.0
 30
0.0
 70
   128
 71
    31
 72
    17
 73
    15
  0
VERTEX
  5
A2
  8
0
 62
     9
 10
0.0
 20
0.0
 30
0.0
 70
   128
 71
    15
 72
    25
 73
    31
  0
VERTEX
  5
A3
  8
0
 62
     9
 10
0.0
 20
0.0
 30
0.0
 70
   128
 71
    17
 72
    32
 73
    16
  0
VERTEX
  5
A4
  8
0
 62
     9
 10
0.0
 20
0.0
 30
0.0
 70
   128
 71
    32
 72
    17
 73
    31
  0
VERTEX
  5
A5
  8
0
 62
     9
 10
0.0
 20
0.0
 30
0.0
 70
   128
 71
    19
 72
    16
 73
    33
  0
VERTEX
  5
A6
  8
0
 62
     9
 10
0.0
 20
0.0
 30
0.0
 70
   128
 71
    32
 72
    33
 73
    16
  0
VERTEX
  5
A7
  8
0
 62
     9
 10
0.0
 20
0.0
 30
0.0
 70
   128
 71
    34
 72
    21
 73
    19
  0
VERTEX
  5
A8
  8
0
 62
     9
 10
0.0
 20
0.0
 30
0.0
 70
   128
 71
    19
 72
    33
 73
    34
  0
VERTEX
  5
A9
  8
0
 62
     9
 10
0.0
 20
0.0
 30
0.0
 70
   128
 71
    21
 72
    35
 73
    23
  0
VERTEX
  5
AA
  8
0
 62
     9
 10
0.0
 20
0.0
 30
0.0
 70
   128
 71
    35
 72
    21
 73
    34
  0
VERTEX
  5
AB
  8
0
 62
     9
 10
0.0
 20
0.0
 30
0.0
 70
   128
 71
    35
 72
    36
 73
    23
  0
VERTEX
  5
AC
  8
0
 62
     9
 10
0.0
 20
0.0
 30
0.0
 70
   128
 71
    11
 72
    38
 73
    37
  0
VERTEX
  5
AD
  8
0
 62
     9
 10
0.0
 20
0.0
 30
0.0
 70
   128
 71
    41
 72
    40
 73
    39
  0
VERTEX
  5
AE
  8
0
 62
     9
 10
0.0
 20
0.0
 30
0.0
 70
   128
 71
    44
 72
    43
 73
    42
  0
VERTEX
  5
AF
  8
0
 62
     9
 10
0.0
 20
0.0
 30
0.0
 70
   128
 71
    47
 72
    46
 73
    45
  0
VERTEX
  5
B0
  8
0
 62
     9
 10
0.0
 20
0.0
 30
0.0
 70
   128
 71
    50
 72
    49
 73
    48
  0
VERTEX
  5
B1
  8
0
 62
     9
 10
0.0
 20
0.0
 30
0.0
 70
   128
 71
    53
 72
    52
 73
    51
  0
VERTEX
  5
B2
  8
0
 62
     9
 10
0.0
 20
0.0
 30
0.0
 70
   128
 71
    51
 72
    46
 73
    54
  0
VERTEX
  5
B3
  8
0
 62
     9
 10
0.0
 20
0.0
 30
0.0
 70
   128
 71
    52
 72
    56
 73
    55
  0
VERTEX
  5
B4
  8
0
 62
     9
 10
0.0
 20
0.0
 30
0.0
 70
   128
 71
    56
 72
    52
 73
    53
  0
VERTEX
  5
B5
  8
0
 62
     9
 10
0.0
 20
0.0
 30
0.0
 70
   128
 71
    36
 72
    55
 73
    57
  0
VERTEX
  5
B6
  8
0
 62
     9
 10
0.0
 20
0.0
 30
0.0
 70
   128
 71
    56
 72
    57
 73
    55
  0
VERTEX
  5
B7
  8
0
 62
     9
 10
0.0
 20
0.0
 30
0.0
 70
   128
 71
    36
 72
    57
 73
    23
  0
VERTEX
  5
B8
  8
0
 62
     9
 10
0.0
 20
0.0
 30
0.0
 70
   128
 71
    46
 72
    47
 73
    54
  0
VERTEX
  5
B9
  8
0
 62
     9
 10
0.0
 20
0.0
 30
0.0
 70
   128
 71
    53
 72
    51
 73
    54
  0
VERTEX
  5
BA
  8
0
 62
     9
 10
0.0
 20
0.0
 30
0.0
 70
   128
 71
    50
 72
    45
 73
    49
  0
VERTEX
  5
BB
  8
0
 62
     9
 10
0.0
 20
0.0
 30
0.0
 70
   128
 71
    47
 72
    45
 73
    50
  0
VERTEX
  5
BC
  8
0
 62
     9
 10
0.0
 20
0.0
 30
0.0
 70
   128
 71
    40
 72
    48
 73
    39
  0
VERTEX
  5
BD
  8
0
 62
     9
 10
0.0
 20
0.0
 30
0.0
 70
   128
 71
    48
 72
    49
 73
    39
  0
VERTEX
  5
BE
  8
0
 62
     9
 10
0.0
 20
0.0
 30
0.0
 70
   128
 71
    44
 72
    58
 73
    41
  0
VERTEX
  5
BF
  8
0
 62
     9
 10
0.0
 20
0.0
 30
0.0
 70
   128
 71
    58
 72
    40
 73
    41
  0
VERTEX
  5
C0
  8
0
 62
     9
 10
0.0
 20
0.0
 30
0.0
 70
   128
 71
    43
 72
    38
 73
    42
  0
VERTEX
  5
C1
  8
0
 62
     9
 10
0.0
 20
0.0
 30
0.0
 70
   128
 71
    44
 72
    42
 73
    58
  0
VERTEX
  5
C2
  8
0
 62
     9
 10
0.0
 20
0.0
 30
0.0
 70
   128
 71
    37
 72
    30
 73
    11
  0
VERTEX
  5
C3
  8
0
 62
     9
 10
0.0
 20
0.0
 30
0.0
 70
   128
 71
    43
 72
    37
 73
    38
  0
VERTEX
  5
C4
  8
0
 62
     9
 10
0.0
 20
0.0
 30
0.0
 70
   128
 71
    10
 72
    59
 73
    38
  0
VERTEX
  5
C5
  8
0
 62
     9
 10
0.0
 20
0.0
 30
0.0
 70
   128
 71
    58
 72
    61
 73
    60
  0
VERTEX
  5
C6
  8
0
 62
     9
 10
0.0
 20
0.0
 30
0.0
 70
   128
 71
    54
 72
    47
 73
    62
  0
VERTEX
  5
C7
  8
0
 62
     9
 10
0.0
 20
0.0
 30
0.0
 70
   128
 71
    64
 72
    63
 73
    50
  0
VERTEX
  5
C8
  8
0
 62
     9
 10
0.0
 20
0.0
 30
0.0
 70
   128
 71
    66
 72
    56
 73
    65
  0
VERTEX
  5
C9
  8
0
 62
     9
 10
0.0
 20
0.0
 30
0.0
 70
   128
 71
    53
 72
    65
 73
    56
  0
VERTEX
  5
CA
  8
0
 62
     9
 10
0.0
 20
0.0
 30
0.0
 70
   128
 71
    66
 72
    22
 73
    57
  0
VERTEX
  5
CB
  8
0
 62
     9
 10
0.0
 20
0.0
 30
0.0
 70
   128
 71
    57
 72
    56
 73
    66
  0
VERTEX
  5
CC
  8
0
 62
     9
 10
0.0
 20
0.0
 30
0.0
 70
   128
 71
    22
 72
    23
 73
    57
  0
VERTEX
  5
CD
  8
0
 62
     9
 10
0.0
 20
0.0
 30
0.0
 70
   128
 71
    62
 72
    53
 73
    54
  0
VERTEX
  5
CE
  8
0
 62
     9
 10
0.0
 20
0.0
 30
0.0
 70
   128
 71
    65
 72
    53
 73
    62
  0
VERTEX
  5
CF
  8
0
 62
     9
 10
0.0
 20
0.0
 30
0.0
 70
   128
 71
    58
 72
    60
 73
    40
  0
VERTEX
  5
D0
  8
0
 62
     9
 10
0.0
 20
0.0
 30
0.0
 70
   128
 71
    50
 72
    63
 73
    47
  0
VERTEX
  5
D1
  8
0
 62
     9
 10
0.0
 20
0.0
 30
0.0
 70
   128
 71
    62
 72
    47
 73
    63
  0
VERTEX
  5
D2
  8
0
 62
     9
 10
0.0
 20
0.0
 30
0.0
 70
   128
 71
    50
 72
    48
 73
    64
  0
VERTEX
  5
D3
  8
0
 62
     9
 10
0.0
 20
0.0
 30
0.0
 70
   128
 71
    40
 72
    60
 73
    48
  0
VERTEX
  5
D4
  8
0
 62
     9
 10
0.0
 20
0.0
 30
0.0
 70
   128
 71
    60
 72
    64
 73
    48
  0
VERTEX
  5
D5
  8
0
 62
     9
 10
0.0
 20
0.0
 30
0.0
 70
   128
 71
    61
 72
    58
 73
    42
  0
VERTEX
  5
D6
  8
0
 62
     9
 10
0.0
 20
0.0
 30
0.0
 70
   128
 71
    42
 72
    59
 73
    61
  0
VERTEX
  5
D7
  8
0
 62
     9
 10
0.0
 20
0.0
 30
0.0
 70
   128
 71
    38
 72
    11
 73
    10
  0
VERTEX
  5
D8
  8
0
 62
     9
 10
0.0
 20
0.0
 30
0.0
 70
   128
 71
    42
 72
    38
 73
    59
  0
VERTEX
  5
D9
  8
0
 62
     9
 10
0.0
 20
0.0
 30
0.0
 70
   128
 71
    64
 72
    10
 73
    63
  0
VERTEX
  5
DA
  8
0
 62
     9
 10
0.0
 20
0.0
 30
0.0
 70
   128
 71
    66
 72
    65
 73
     1
  0
VERTEX
  5
DB
  8
0
 62
     9
 10
0.0
 20
0.0
 30
0.0
 70
   128
 71
    64
 72
    60
 73
    59
  0
VERTEX
  5
DC
  8
0
 62
     9
 10
0.0
 20
0.0
 30
0.0
 70
   128
 71
    64
 72
    59
 73
    10
  0
VERTEX
  5
DD
  8
0
 62
     9
 10
0.0
 20
0.0
 30
0.0
 70
   128
 71
    59
 72
    60
 73
    61
  0
VERTEX
  5
DE
  8
0
 62
     9
 10
0.0
 20
0.0
 30
0.0
 70
   128
 71
     9
 72
    62
 73
    63
  0
VERTEX
  5
DF
  8
0
 62
     9
 10
0.0
 20
0.0
 30
0.0
 70
   128
 71
    10
 72
     9
 73
    63
  0
VERTEX
  5
E0
  8
0
 62
     9
 10
0.0
 20
0.0
 30
0.0
 70
   128
 71
     9
 72
     4
 73
    62
  0
VERTEX
  5
E1
  8
0
 62
     9
 10
0.0
 20
0.0
 30
0.0
 70
   128
 71
     1
 72
    65
 73
     4
  0
VERTEX
  5
E2
  8
0
 62
     9
 10
0.0
 20
0.0
 30
0.0
 70
   128
 71
    62
 72
     4
 73
    65
  0
VERTEX
  5
E3
  8
0
 62
     9
 10
0.0
 20
0.0
 30
0.0
 70
   128
 71
    66
 72
     1
 73
     5
  0
VERTEX
  5
E4
  8
0
 62
     9
 10
0.0
 20
0.0
 30
0.0
 70
   128
 71
     5
 72
    12
 73
    22
  0
VERTEX
  5
E5
  8
0
 62
     9
 10
0.0
 20
0.0
 30
0.0
 70
   128
 71
    22
 72
    66
 73
     5
  0
VERTEX
  5
E6
  8
0
 62
     9
 10
0.0
 20
0.0
 30
0.0
 70
   128
 71
    14
 72
    20
 73
    12
  0
VERTEX
  5
E7
  8
0
 62
     9
 10
0.0
 20
0.0
 30
0.0
 70
   128
 71
    20
 72
    22
 73
    12
  0
VERTEX
  5
E8
  8
0
 62
     9
 10
0.0
 20
0.0
 30
0.0
 70
   128
 71
    18
 72
    20
 73
    14
  0
SEQEND
  5
E9
  8
0
 62
     9
  0
ENDBLK
  5
ED
  8
0
  0
BLOCK
  8
0
  2
39
 70
     0
 10
0.0
 20
0.0
 30
0.0
  3
39
  1

  0
POLYLINE
  5
EF
  8
0
 62
     9
 66
     1
 10
0.0
 20
0.0
 30
0.0
 70
    64
 71
   105
 72
   198
  0
VERTEX
  5
F0
  8
0
 10
-44.83946228027344
 20
1.736973524093628
 30
59.66426086425781
 70
   192
  0
VERTEX
  5
F1
  8
0
 10
-33.46909332275391
 20
1.009989738464355
 30
60.41034698486328
 70
   192
  0
VERTEX
  5
F2
  8
0
 10
-44.83946228027344
 20
0.968660295009613
 30
60.42121505737305
 70
   192
  0
VERTEX
  5
F3
  8
0
 10
-33.46909332275391
 20
2.0
 30
58.67621231079102
 70
   192
  0
VERTEX
  5
F4
  8
0
 10
-44.83946228027344
 20
1.745004415512085
 30
57.70755004882812
 70
   192
  0
VERTEX
  5
F5
  8
0
 10
-33.46909332275391
 20
1.718164563179016
 30
57.67056655883789
 70
   192
  0
VERTEX
  5
F6
  8
0
 10
-33.46909332275391
 20
-0.0000000000000597
 30
60.67621231079102
 70
   192
  0
VERTEX
  5
F7
  8
0
 10
-44.83946228027344
 20
-0.0000000000000597
 30
60.67621231079102
 70
   192
  0
VERTEX
  5
F8
  8
0
 10
-33.46909332275391
 20
1.732784867286682
 30
59.67082214355469
 70
   192
  0
VERTEX
  5
F9
  8
0
 10
-44.83946228027344
 20
2.0
 30
58.67621231079102
 70
   192
  0
VERTEX
  5
FA
  8
0
 10
-33.46909332275391
 20
0.9862242937088013
 30
56.94702529907227
 70
   192
  0
VERTEX
  5
FB
  8
0
 10
-44.83946228027344
 20
0.9880486726760864
 30
56.93923568725586
 70
   192
  0
VERTEX
  5
FC
  8
0
 10
-33.46909332275391
 20
-0.0000000000000599
 30
56.67621231079102
 70
   192
  0
VERTEX
  5
FD
  8
0
 10
-44.83946228027344
 20
-0.0000000000000599
 30
56.67621231079102
 70
   192
  0
VERTEX
  5
FE
  8
0
 10
-30.45954895019531
 20
1.855999946594238
 30
57.86277008056641
 70
   192
  0
VERTEX
  5
FF
  8
0
 10
-31.67830085754395
 20
1.811692357063293
 30
56.977294921875
 70
   192
  0
VERTEX
  5
100
  8
0
 10
-30.61592102050781
 20
2.0
 30
56.6032600402832
 70
   192
  0
VERTEX
  5
101
  8
0
 10
-32.26047515869141
 20
0.9862242937088013
 30
56.06891250610352
 70
   192
  0
VERTEX
  5
102
  8
0
 10
-32.46292495727539
 20
0.9304615259170532
 30
56.40723419189453
 70
   192
  0
VERTEX
  5
103
  8
0
 10
-32.69966888427734
 20
-0.0000000000000597
 30
56.23522567749023
 70
   192
  0
VERTEX
  5
104
  8
0
 10
-29.66999053955078
 20
1.732784867286682
 30
56.91061401367188
 70
   192
  0
VERTEX
  5
105
  8
0
 10
-28.96666145324707
 20
1.009989738464355
 30
57.13913726806641
 70
   192
  0
VERTEX
  5
106
  8
0
 10
-29.61717414855957
 20
0.9698461294174194
 30
58.47479248046875
 70
   192
  0
VERTEX
  5
107
  8
0
 10
-28.71380805969238
 20
-0.0000000000000599
 30
57.22129440307617
 70
   192
  0
VERTEX
  5
108
  8
0
 10
-29.42400741577148
 20
-0.0000000000000599
 30
58.61513519287109
 70
   192
  0
VERTEX
  5
109
  8
0
 10
-30.64907455444336
 20
0.8577597141265869
 30
59.55763244628906
 70
   192
  0
VERTEX
  5
10A
  8
0
 10
-30.53016471862793
 20
-0.0000000000000599
 30
59.72129440307617
 70
   192
  0
VERTEX
  5
10B
  8
0
 10
-31.57234573364258
 20
1.718164563179016
 30
56.29249954223633
 70
   192
  0
VERTEX
  5
10C
  8
0
 10
-31.96271133422852
 20
1.949759006500244
 30
57.74956512451172
 70
   192
  0
VERTEX
  5
10D
  8
0
 10
-32.43613815307617
 20
1.567879319190979
 30
57.09794616699219
 70
   192
  0
VERTEX
  5
10E
  8
0
 10
-32.88130569458008
 20
-0.0000000000000597
 30
56.48522567749023
 70
   192
  0
VERTEX
  5
10F
  8
0
 10
-32.76776123046875
 20
0.8750741481781006
 30
56.64151000976562
 70
   192
  0
VERTEX
  5
110
  8
0
 10
-32.51803588867188
 20
-0.0000000000000597
 30
55.98522567749023
 70
   192
  0
VERTEX
  5
111
  8
0
 10
-31.43899154663086
 20
1.943439602851868
 30
58.47040176391602
 70
   192
  0
VERTEX
  5
112
  8
0
 10
-30.97167015075684
 20
1.549447774887085
 30
59.11361694335938
 70
   192
  0
VERTEX
  5
113
  8
0
 10
-32.31954956054688
 20
1.855999946594238
 30
59.21414184570312
 70
   192
  0
VERTEX
  5
114
  8
0
 10
-32.78507232666016
 20
1.811692357063293
 30
57.78141021728516
 70
   192
  0
VERTEX
  5
115
  8
0
 10
-33.08477020263672
 20
0.9304615259170532
 30
56.85903167724609
 70
   192
  0
VERTEX
  5
116
  8
0
 10
-33.17519760131836
 20
-0.0000000000000597
 30
56.58071899414062
 70
   192
  0
VERTEX
  5
117
  8
0
 10
-31.99778938293457
 20
0.9698461294174194
 30
60.20441055297852
 70
   192
  0
VERTEX
  5
118
  8
0
 10
-31.92400741577148
 20
-0.0000000000000599
 30
60.43149185180664
 70
   192
  0
VERTEX
  5
119
  8
0
 10
-30.97167015075684
 20
-1.549447774887085
 30
59.11361694335938
 70
   192
  0
VERTEX
  5
11A
  8
0
 10
-31.99931144714355
 20
-0.9304615259170532
 30
60.19972610473633
 70
   192
  0
VERTEX
  5
11B
  8
0
 10
-30.64907455444336
 20
-0.8577597141265869
 30
59.55763244628906
 70
   192
  0
VERTEX
  5
11C
  8
0
 10
-32.29901123046875
 20
-1.811692357063293
 30
59.27734756469727
 70
   192
  0
VERTEX
  5
11D
  8
0
 10
-32.76453399658203
 20
-1.855999946594238
 30
57.84461975097656
 70
   192
  0
VERTEX
  5
11E
  8
0
 10
-33.46909332275391
 20
-2.0
 30
58.67621231079102
 70
   192
  0
VERTEX
  5
11F
  8
0
 10
-33.46909332275391
 20
-1.009989738464355
 30
60.41034698486328
 70
   192
  0
VERTEX
  5
120
  8
0
 10
-33.0862922668457
 20
-0.9698461294174194
 30
56.85435104370117
 70
   192
  0
VERTEX
  5
121
  8
0
 10
-32.76776123046875
 20
-0.8750741481781006
 30
56.64151000976562
 70
   192
  0
VERTEX
  5
122
  8
0
 10
-32.43613815307617
 20
-1.567879319190979
 30
57.09794616699219
 70
   192
  0
VERTEX
  5
123
  8
0
 10
-31.43899154663086
 20
-1.943439602851868
 30
58.47040176391602
 70
   192
  0
VERTEX
  5
124
  8
0
 10
-31.96271133422852
 20
-1.949759006500244
 30
57.74956512451172
 70
   192
  0
VERTEX
  5
125
  8
0
 10
-33.46909332275391
 20
-0.9862242937088013
 30
56.94702529907227
 70
   192
  0
VERTEX
  5
126
  8
0
 10
-33.46909332275391
 20
-1.718164563179016
 30
57.67056655883789
 70
   192
  0
VERTEX
  5
127
  8
0
 10
-33.46909332275391
 20
-1.732784867286682
 30
59.67082214355469
 70
   192
  0
VERTEX
  5
128
  8
0
 10
-11.60196685791016
 20
1.895292162895203
 30
0.1036066710948944
 70
   192
  0
VERTEX
  5
129
  8
0
 10
-12.77725601196289
 20
1.900953054428101
 30
-0.2782679498195648
 70
   192
  0
VERTEX
  5
12A
  8
0
 10
-10.65797710418701
 20
1.159116983413696
 30
0.4103274941444397
 70
   192
  0
VERTEX
  5
12B
  8
0
 10
-10.29330539703369
 20
-0.0000000000000597
 30
0.5288164615631104
 70
   192
  0
VERTEX
  5
12C
  8
0
 10
-13.73539543151855
 20
1.185255765914917
 30
-0.5895861387252808
 70
   192
  0
VERTEX
  5
12D
  8
0
 10
-14.09753227233887
 20
-0.0000000000000599
 30
-0.7072514891624451
 70
   192
  0
VERTEX
  5
12E
  8
0
 10
-46.54098892211914
 20
-0.5130799412727356
 30
57.78546524047852
 70
   192
  0
VERTEX
  5
12F
  8
0
 10
-46.54098892211914
 20
-0.890746533870697
 30
58.16313171386719
 70
   192
  0
VERTEX
  5
130
  8
0
 10
-45.87432098388672
 20
-1.464575886726379
 30
57.83259963989258
 70
   192
  0
VERTEX
  5
131
  8
0
 10
-44.83946228027344
 20
-1.010265946388245
 30
56.94210815429688
 70
   192
  0
VERTEX
  5
132
  8
0
 10
-45.87432098388672
 20
-0.843612015247345
 30
57.21163558959961
 70
   192
  0
VERTEX
  5
133
  8
0
 10
-44.83946228027344
 20
-1.730574727058411
 30
57.68133163452148
 70
   192
  0
VERTEX
  5
134
  8
0
 10
-46.83946228027344
 20
-0.0000000000000562
 30
58.67621231079102
 70
   192
  0
VERTEX
  5
135
  8
0
 10
-46.57643890380859
 20
-0.0000000000244032
 30
57.68815994262695
 70
   192
  0
VERTEX
  5
136
  8
0
 10
-44.83946228027344
 20
-2.0
 30
58.67621231079102
 70
   192
  0
VERTEX
  5
137
  8
0
 10
-45.82751083374023
 20
-1.736973524093628
 30
58.67621231079102
 70
   192
  0
VERTEX
  5
138
  8
0
 10
-45.80812454223633
 20
-0.0000000000213248
 30
56.93120574951172
 70
   192
  0
VERTEX
  5
139
  8
0
 10
-46.58446884155273
 20
-0.968660295009613
 30
58.67621231079102
 70
   192
  0
VERTEX
  5
13A
  8
0
 10
-46.54098892211914
 20
0.890746533870697
 30
58.16313171386719
 70
   192
  0
VERTEX
  5
13B
  8
0
 10
-46.54098892211914
 20
0.5130799412727356
 30
57.78546524047852
 70
   192
  0
VERTEX
  5
13C
  8
0
 10
-45.87432098388672
 20
0.843612015247345
 30
57.21163558959961
 70
   192
  0
VERTEX
  5
13D
  8
0
 10
-45.87432098388672
 20
1.464575886726379
 30
57.83259963989258
 70
   192
  0
VERTEX
  5
13E
  8
0
 10
-46.57643890380859
 20
0.9880486726760864
 30
58.67621231079102
 70
   192
  0
VERTEX
  5
13F
  8
0
 10
-45.80812454223633
 20
1.745004415512085
 30
58.67621231079102
 70
   192
  0
VERTEX
  5
140
  8
0
 10
-46.54098892211914
 20
0.5130799412727356
 30
59.56695556640625
 70
   192
  0
VERTEX
  5
141
  8
0
 10
-46.54098892211914
 20
0.890746533870697
 30
59.18928909301758
 70
   192
  0
VERTEX
  5
142
  8
0
 10
-45.87432098388672
 20
1.464575886726379
 30
59.51982116699219
 70
   192
  0
VERTEX
  5
143
  8
0
 10
-45.87432098388672
 20
0.843612015247345
 30
60.14078521728516
 70
   192
  0
VERTEX
  5
144
  8
0
 10
-46.57643890380859
 20
-0.000000000024501
 30
59.66426086425781
 70
   192
  0
VERTEX
  5
145
  8
0
 10
-45.80812454223633
 20
-0.0000000000217444
 30
60.42121505737305
 70
   192
  0
VERTEX
  5
146
  8
0
 10
-45.87432098388672
 20
-0.843612015247345
 30
60.14078521728516
 70
   192
  0
VERTEX
  5
147
  8
0
 10
-46.54098892211914
 20
-0.890746533870697
 30
59.18928909301758
 70
   192
  0
VERTEX
  5
148
  8
0
 10
-46.54098892211914
 20
-0.5130799412727356
 30
59.56695556640625
 70
   192
  0
VERTEX
  5
149
  8
0
 10
-45.87432098388672
 20
-1.464575886726379
 30
59.51982116699219
 70
   192
  0
VERTEX
  5
14A
  8
0
 10
-44.83946228027344
 20
-0.9862242937088013
 30
60.4053955078125
 70
   192
  0
VERTEX
  5
14B
  8
0
 10
-44.83946228027344
 20
-1.718164563179016
 30
59.68185424804688
 70
   192
  0
VERTEX
  5
14C
  8
0
 10
-28.96666145324707
 20
-1.009989738464355
 30
57.13913726806641
 70
   192
  0
VERTEX
  5
14D
  8
0
 10
-31.57234573364258
 20
-1.718164563179016
 30
56.29249954223633
 70
   192
  0
VERTEX
  5
14E
  8
0
 10
-30.61592102050781
 20
-2.0
 30
56.6032600402832
 70
   192
  0
VERTEX
  5
14F
  8
0
 10
-12.7888708114624
 20
-1.895292162895203
 30
-0.2820416986942291
 70
   192
  0
VERTEX
  5
150
  8
0
 10
-29.66999053955078
 20
-1.732784867286682
 30
56.91061401367188
 70
   192
  0
VERTEX
  5
151
  8
0
 10
-11.61358165740967
 20
-1.900953054428101
 30
0.0998329222202301
 70
   192
  0
VERTEX
  5
152
  8
0
 10
-32.26047515869141
 20
-0.9862242937088013
 30
56.06891250610352
 70
   192
  0
VERTEX
  5
153
  8
0
 10
-13.73286056518555
 20
-1.159116983413696
 30
-0.5887625217437744
 70
   192
  0
VERTEX
  5
154
  8
0
 10
-10.655442237854
 20
-1.185255765914917
 30
0.411151111125946
 70
   192
  0
VERTEX
  5
155
  8
0
 10
-30.4057788848877
 20
-1.811692357063293
 30
57.90183639526367
 70
   192
  0
VERTEX
  5
156
  8
0
 10
-29.62115859985352
 20
-0.9304615259170532
 30
58.47189712524414
 70
   192
  0
VERTEX
  5
157
  8
0
 10
-31.62453269958496
 20
-1.855999946594238
 30
57.01636123657227
 70
   192
  0
VERTEX
  5
158
  8
0
 10
-32.4669075012207
 20
-0.9698461294174194
 30
56.40433883666992
 70
   192
  0
VERTEX
  5
159
  8
0
 62
     9
 10
0.0
 20
0.0
 30
0.0
 70
   128
 71
     3
 72
     2
 73
     1
  0
VERTEX
  5
15A
  8
0
 62
     9
 10
0.0
 20
0.0
 30
0.0
 70
   128
 71
     6
 72
     5
 73
     4
  0
VERTEX
  5
15B
  8
0
 62
     9
 10
0.0
 20
0.0
 30
0.0
 70
   128
 71
     7
 72
     2
 73
     3
  0
VERTEX
  5
15C
  8
0
 62
     9
 10
0.0
 20
0.0
 30
0.0
 70
   128
 71
     8
 72
     7
 73
     3
  0
VERTEX
  5
15D
  8
0
 62
     9
 10
0.0
 20
0.0
 30
0.0
 70
   128
 71
     2
 72
     9
 73
     1
  0
VERTEX
  5
15E
  8
0
 62
     9
 10
0.0
 20
0.0
 30
0.0
 70
   128
 71
    10
 72
     9
 73
     4
  0
VERTEX
  5
15F
  8
0
 62
     9
 10
0.0
 20
0.0
 30
0.0
 70
   128
 71
     9
 72
    10
 73
     1
  0
VERTEX
  5
160
  8
0
 62
     9
 10
0.0
 20
0.0
 30
0.0
 70
   128
 71
    12
 72
     6
 73
    11
  0
VERTEX
  5
161
  8
0
 62
     9
 10
0.0
 20
0.0
 30
0.0
 70
   128
 71
    14
 72
    11
 73
    13
  0
VERTEX
  5
162
  8
0
 62
     9
 10
0.0
 20
0.0
 30
0.0
 70
   128
 71
     5
 72
     6
 73
    12
  0
VERTEX
  5
163
  8
0
 62
     9
 10
0.0
 20
0.0
 30
0.0
 70
   128
 71
    14
 72
    12
 73
    11
  0
VERTEX
  5
164
  8
0
 62
     9
 10
0.0
 20
0.0
 30
0.0
 70
   128
 71
     5
 72
    10
 73
     4
  0
VERTEX
  5
165
  8
0
 62
     9
 10
0.0
 20
0.0
 30
0.0
 70
   128
 71
    17
 72
    16
 73
    15
  0
VERTEX
  5
166
  8
0
 62
     9
 10
0.0
 20
0.0
 30
0.0
 70
   128
 71
    20
 72
    19
 73
    18
  0
VERTEX
  5
167
  8
0
 62
     9
 10
0.0
 20
0.0
 30
0.0
 70
   128
 71
    15
 72
    22
 73
    21
  0
VERTEX
  5
168
  8
0
 62
     9
 10
0.0
 20
0.0
 30
0.0
 70
   128
 71
    17
 72
    15
 73
    21
  0
VERTEX
  5
169
  8
0
 62
     9
 10
0.0
 20
0.0
 30
0.0
 70
   128
 71
    24
 72
    22
 73
    23
  0
VERTEX
  5
16A
  8
0
 62
     9
 10
0.0
 20
0.0
 30
0.0
 70
   128
 71
    23
 72
    26
 73
    25
  0
VERTEX
  5
16B
  8
0
 62
     9
 10
0.0
 20
0.0
 30
0.0
 70
   128
 71
    23
 72
    25
 73
    24
  0
VERTEX
  5
16C
  8
0
 62
     9
 10
0.0
 20
0.0
 30
0.0
 70
   128
 71
    27
 72
    25
 73
    26
  0
VERTEX
  5
16D
  8
0
 62
     9
 10
0.0
 20
0.0
 30
0.0
 70
   128
 71
    17
 72
    28
 73
    16
  0
VERTEX
  5
16E
  8
0
 62
     9
 10
0.0
 20
0.0
 30
0.0
 70
   128
 71
    16
 72
    29
 73
    15
  0
VERTEX
  5
16F
  8
0
 62
     9
 10
0.0
 20
0.0
 30
0.0
 70
   128
 71
    29
 72
    16
 73
    30
  0
VERTEX
  5
170
  8
0
 62
     9
 10
0.0
 20
0.0
 30
0.0
 70
   128
 71
    28
 72
    19
 73
    16
  0
VERTEX
  5
171
  8
0
 62
     9
 10
0.0
 20
0.0
 30
0.0
 70
   128
 71
    20
 72
    31
 73
    19
  0
VERTEX
  5
172
  8
0
 62
     9
 10
0.0
 20
0.0
 30
0.0
 70
   128
 71
    32
 72
    19
 73
    31
  0
VERTEX
  5
173
  8
0
 62
     9
 10
0.0
 20
0.0
 30
0.0
 70
   128
 71
    33
 72
    20
 73
    18
  0
VERTEX
  5
174
  8
0
 62
     9
 10
0.0
 20
0.0
 30
0.0
 70
   128
 71
    19
 72
    32
 73
    30
  0
VERTEX
  5
175
  8
0
 62
     9
 10
0.0
 20
0.0
 30
0.0
 70
   128
 71
    18
 72
    19
 73
    28
  0
VERTEX
  5
176
  8
0
 62
     9
 10
0.0
 20
0.0
 30
0.0
 70
   128
 71
    16
 72
    19
 73
    30
  0
VERTEX
  5
177
  8
0
 62
     9
 10
0.0
 20
0.0
 30
0.0
 70
   128
 71
    34
 72
    15
 73
    29
  0
VERTEX
  5
178
  8
0
 62
     9
 10
0.0
 20
0.0
 30
0.0
 70
   128
 71
    35
 72
    15
 73
    34
  0
VERTEX
  5
179
  8
0
 62
     9
 10
0.0
 20
0.0
 30
0.0
 70
   128
 71
    26
 72
    23
 73
    35
  0
VERTEX
  5
17A
  8
0
 62
     9
 10
0.0
 20
0.0
 30
0.0
 70
   128
 71
    23
 72
    15
 73
    35
  0
VERTEX
  5
17B
  8
0
 62
     9
 10
0.0
 20
0.0
 30
0.0
 70
   128
 71
    15
 72
    23
 73
    22
  0
VERTEX
  5
17C
  8
0
 62
     9
 10
0.0
 20
0.0
 30
0.0
 70
   128
 71
    34
 72
    37
 73
    36
  0
VERTEX
  5
17D
  8
0
 62
     9
 10
0.0
 20
0.0
 30
0.0
 70
   128
 71
    39
 72
    38
 73
    32
  0
VERTEX
  5
17E
  8
0
 62
     9
 10
0.0
 20
0.0
 30
0.0
 70
   128
 71
    26
 72
    35
 73
    40
  0
VERTEX
  5
17F
  8
0
 62
     9
 10
0.0
 20
0.0
 30
0.0
 70
   128
 71
    35
 72
    36
 73
    40
  0
VERTEX
  5
180
  8
0
 62
     9
 10
0.0
 20
0.0
 30
0.0
 70
   128
 71
    27
 72
    40
 73
    41
  0
VERTEX
  5
181
  8
0
 62
     9
 10
0.0
 20
0.0
 30
0.0
 70
   128
 71
    26
 72
    40
 73
    27
  0
VERTEX
  5
182
  8
0
 62
     9
 10
0.0
 20
0.0
 30
0.0
 70
   128
 71
     7
 72
    41
 73
     2
  0
VERTEX
  5
183
  8
0
 62
     9
 10
0.0
 20
0.0
 30
0.0
 70
   128
 71
    34
 72
    29
 73
    37
  0
VERTEX
  5
184
  8
0
 62
     9
 10
0.0
 20
0.0
 30
0.0
 70
   128
 71
    35
 72
    34
 73
    36
  0
VERTEX
  5
185
  8
0
 62
     9
 10
0.0
 20
0.0
 30
0.0
 70
   128
 71
    37
 72
    30
 73
    38
  0
VERTEX
  5
186
  8
0
 62
     9
 10
0.0
 20
0.0
 30
0.0
 70
   128
 71
     9
 72
    36
 73
     4
  0
VERTEX
  5
187
  8
0
 62
     9
 10
0.0
 20
0.0
 30
0.0
 70
   128
 71
    39
 72
    13
 73
    38
  0
VERTEX
  5
188
  8
0
 62
     9
 10
0.0
 20
0.0
 30
0.0
 70
   128
 71
    30
 72
    37
 73
    29
  0
VERTEX
  5
189
  8
0
 62
     9
 10
0.0
 20
0.0
 30
0.0
 70
   128
 71
    11
 72
    38
 73
    13
  0
VERTEX
  5
18A
  8
0
 62
     9
 10
0.0
 20
0.0
 30
0.0
 70
   128
 71
    31
 72
    39
 73
    32
  0
VERTEX
  5
18B
  8
0
 62
     9
 10
0.0
 20
0.0
 30
0.0
 70
   128
 71
    11
 72
     6
 73
    37
  0
VERTEX
  5
18C
  8
0
 62
     9
 10
0.0
 20
0.0
 30
0.0
 70
   128
 71
    32
 72
    38
 73
    30
  0
VERTEX
  5
18D
  8
0
 62
     9
 10
0.0
 20
0.0
 30
0.0
 70
   128
 71
    37
 72
    38
 73
    11
  0
VERTEX
  5
18E
  8
0
 62
     9
 10
0.0
 20
0.0
 30
0.0
 70
   128
 71
    37
 72
     6
 73
     4
  0
VERTEX
  5
18F
  8
0
 62
     9
 10
0.0
 20
0.0
 30
0.0
 70
   128
 71
    36
 72
    37
 73
     4
  0
VERTEX
  5
190
  8
0
 62
     9
 10
0.0
 20
0.0
 30
0.0
 70
   128
 71
     2
 72
    40
 73
     9
  0
VERTEX
  5
191
  8
0
 62
     9
 10
0.0
 20
0.0
 30
0.0
 70
   128
 71
    40
 72
    36
 73
     9
  0
VERTEX
  5
192
  8
0
 62
     9
 10
0.0
 20
0.0
 30
0.0
 70
   128
 71
    40
 72
     2
 73
    41
  0
VERTEX
  5
193
  8
0
 62
     9
 10
0.0
 20
0.0
 30
0.0
 70
   128
 71
    44
 72
    43
 73
    42
  0
VERTEX
  5
194
  8
0
 62
     9
 10
0.0
 20
0.0
 30
0.0
 70
   128
 71
    43
 72
    45
 73
    42
  0
VERTEX
  5
195
  8
0
 62
     9
 10
0.0
 20
0.0
 30
0.0
 70
   128
 71
    47
 72
    46
 73
    45
  0
VERTEX
  5
196
  8
0
 62
     9
 10
0.0
 20
0.0
 30
0.0
 70
   128
 71
     7
 72
    48
 73
    41
  0
VERTEX
  5
197
  8
0
 62
     9
 10
0.0
 20
0.0
 30
0.0
 70
   128
 71
    50
 72
    49
 73
    39
  0
VERTEX
  5
198
  8
0
 62
     9
 10
0.0
 20
0.0
 30
0.0
 70
   128
 71
    46
 72
    49
 73
    51
  0
VERTEX
  5
199
  8
0
 62
     9
 10
0.0
 20
0.0
 30
0.0
 70
   128
 71
    49
 72
    13
 73
    39
  0
VERTEX
  5
19A
  8
0
 62
     9
 10
0.0
 20
0.0
 30
0.0
 70
   128
 71
    53
 72
    52
 73
    46
  0
VERTEX
  5
19B
  8
0
 62
     9
 10
0.0
 20
0.0
 30
0.0
 70
   128
 71
    31
 72
    50
 73
    39
  0
VERTEX
  5
19C
  8
0
 62
     9
 10
0.0
 20
0.0
 30
0.0
 70
   128
 71
    54
 72
    13
 73
    49
  0
VERTEX
  5
19D
  8
0
 62
     9
 10
0.0
 20
0.0
 30
0.0
 70
   128
 71
    46
 72
    47
 73
    55
  0
VERTEX
  5
19E
  8
0
 62
     9
 10
0.0
 20
0.0
 30
0.0
 70
   128
 71
    46
 72
    52
 73
    45
  0
VERTEX
  5
19F
  8
0
 62
     9
 10
0.0
 20
0.0
 30
0.0
 70
   128
 71
    41
 72
    48
 73
    43
  0
VERTEX
  5
1A0
  8
0
 62
     9
 10
0.0
 20
0.0
 30
0.0
 70
   128
 71
    45
 72
    43
 73
    56
  0
VERTEX
  5
1A1
  8
0
 62
     9
 10
0.0
 20
0.0
 30
0.0
 70
   128
 71
    43
 72
    27
 73
    41
  0
VERTEX
  5
1A2
  8
0
 62
     9
 10
0.0
 20
0.0
 30
0.0
 70
   128
 71
    44
 72
    27
 73
    43
  0
VERTEX
  5
1A3
  8
0
 62
     9
 10
0.0
 20
0.0
 30
0.0
 70
   128
 71
    56
 72
    43
 73
    48
  0
VERTEX
  5
1A4
  8
0
 62
     9
 10
0.0
 20
0.0
 30
0.0
 70
   128
 71
    45
 72
    56
 73
    47
  0
VERTEX
  5
1A5
  8
0
 62
     9
 10
0.0
 20
0.0
 30
0.0
 70
   128
 71
    45
 72
    52
 73
    42
  0
VERTEX
  5
1A6
  8
0
 62
     9
 10
0.0
 20
0.0
 30
0.0
 70
   128
 71
    46
 72
    55
 73
    54
  0
VERTEX
  5
1A7
  8
0
 62
     9
 10
0.0
 20
0.0
 30
0.0
 70
   128
 71
    53
 72
    46
 73
    51
  0
VERTEX
  5
1A8
  8
0
 62
     9
 10
0.0
 20
0.0
 30
0.0
 70
   128
 71
    54
 72
    49
 73
    46
  0
VERTEX
  5
1A9
  8
0
 62
     9
 10
0.0
 20
0.0
 30
0.0
 70
   128
 71
    49
 72
    50
 73
    51
  0
VERTEX
  5
1AA
  8
0
 62
     9
 10
0.0
 20
0.0
 30
0.0
 70
   128
 71
    58
 72
    17
 73
    57
  0
VERTEX
  5
1AB
  8
0
 62
     9
 10
0.0
 20
0.0
 30
0.0
 70
   128
 71
    59
 72
    57
 73
    21
  0
VERTEX
  5
1AC
  8
0
 62
     9
 10
0.0
 20
0.0
 30
0.0
 70
   128
 71
    17
 72
    21
 73
    57
  0
VERTEX
  5
1AD
  8
0
 62
     9
 10
0.0
 20
0.0
 30
0.0
 70
   128
 71
    22
 72
    60
 73
    59
  0
VERTEX
  5
1AE
  8
0
 62
     9
 10
0.0
 20
0.0
 30
0.0
 70
   128
 71
    59
 72
    21
 73
    22
  0
VERTEX
  5
1AF
  8
0
 62
     9
 10
0.0
 20
0.0
 30
0.0
 70
   128
 71
    24
 72
    60
 73
    22
  0
VERTEX
  5
1B0
  8
0
 62
     9
 10
0.0
 20
0.0
 30
0.0
 70
   128
 71
    28
 72
    17
 73
    58
  0
VERTEX
  5
1B1
  8
0
 62
     9
 10
0.0
 20
0.0
 30
0.0
 70
   128
 71
    61
 72
    18
 73
    28
  0
VERTEX
  5
1B2
  8
0
 62
     9
 10
0.0
 20
0.0
 30
0.0
 70
   128
 71
    28
 72
    58
 73
    61
  0
VERTEX
  5
1B3
  8
0
 62
     9
 10
0.0
 20
0.0
 30
0.0
 70
   128
 71
    62
 72
    18
 73
    61
  0
VERTEX
  5
1B4
  8
0
 62
     9
 10
0.0
 20
0.0
 30
0.0
 70
   128
 71
    62
 72
    33
 73
    18
  0
VERTEX
  5
1B5
  8
0
 62
     9
 10
0.0
 20
0.0
 30
0.0
 70
   128
 71
    65
 72
    64
 73
    63
  0
VERTEX
  5
1B6
  8
0
 62
     9
 10
0.0
 20
0.0
 30
0.0
 70
   128
 71
    68
 72
    67
 73
    66
  0
VERTEX
  5
1B7
  8
0
 62
     9
 10
0.0
 20
0.0
 30
0.0
 70
   128
 71
    70
 72
    63
 73
    69
  0
VERTEX
  5
1B8
  8
0
 62
     9
 10
0.0
 20
0.0
 30
0.0
 70
   128
 71
    72
 72
    65
 73
    71
  0
VERTEX
  5
1B9
  8
0
 62
     9
 10
0.0
 20
0.0
 30
0.0
 70
   128
 71
    64
 72
    69
 73
    63
  0
VERTEX
  5
1BA
  8
0
 62
     9
 10
0.0
 20
0.0
 30
0.0
 70
   128
 71
    66
 72
    73
 73
    14
  0
VERTEX
  5
1BB
  8
0
 62
     9
 10
0.0
 20
0.0
 30
0.0
 70
   128
 71
    67
 72
    68
 73
    65
  0
VERTEX
  5
1BC
  8
0
 62
     9
 10
0.0
 20
0.0
 30
0.0
 70
   128
 71
    70
 72
    73
 73
    67
  0
VERTEX
  5
1BD
  8
0
 62
     9
 10
0.0
 20
0.0
 30
0.0
 70
   128
 71
    65
 72
    63
 73
    67
  0
VERTEX
  5
1BE
  8
0
 62
     9
 10
0.0
 20
0.0
 30
0.0
 70
   128
 71
    74
 72
    64
 73
    72
  0
VERTEX
  5
1BF
  8
0
 62
     9
 10
0.0
 20
0.0
 30
0.0
 70
   128
 71
    64
 72
    74
 73
    69
  0
VERTEX
  5
1C0
  8
0
 62
     9
 10
0.0
 20
0.0
 30
0.0
 70
   128
 71
    67
 72
    63
 73
    70
  0
VERTEX
  5
1C1
  8
0
 62
     9
 10
0.0
 20
0.0
 30
0.0
 70
   128
 71
    66
 72
    67
 73
    73
  0
VERTEX
  5
1C2
  8
0
 62
     9
 10
0.0
 20
0.0
 30
0.0
 70
   128
 71
    65
 72
    68
 73
    71
  0
VERTEX
  5
1C3
  8
0
 62
     9
 10
0.0
 20
0.0
 30
0.0
 70
   128
 71
    65
 72
    72
 73
    64
  0
VERTEX
  5
1C4
  8
0
 62
     9
 10
0.0
 20
0.0
 30
0.0
 70
   128
 71
    77
 72
    76
 73
    75
  0
VERTEX
  5
1C5
  8
0
 62
     9
 10
0.0
 20
0.0
 30
0.0
 70
   128
 71
    12
 72
    78
 73
     5
  0
VERTEX
  5
1C6
  8
0
 62
     9
 10
0.0
 20
0.0
 30
0.0
 70
   128
 71
    79
 72
    75
 73
    69
  0
VERTEX
  5
1C7
  8
0
 62
     9
 10
0.0
 20
0.0
 30
0.0
 70
   128
 71
    73
 72
    77
 73
    14
  0
VERTEX
  5
1C8
  8
0
 62
     9
 10
0.0
 20
0.0
 30
0.0
 70
   128
 71
    76
 72
    69
 73
    75
  0
VERTEX
  5
1C9
  8
0
 62
     9
 10
0.0
 20
0.0
 30
0.0
 70
   128
 71
     5
 72
    80
 73
    10
  0
VERTEX
  5
1CA
  8
0
 62
     9
 10
0.0
 20
0.0
 30
0.0
 70
   128
 71
    78
 72
    12
 73
    77
  0
VERTEX
  5
1CB
  8
0
 62
     9
 10
0.0
 20
0.0
 30
0.0
 70
   128
 71
    79
 72
    80
 73
    78
  0
VERTEX
  5
1CC
  8
0
 62
     9
 10
0.0
 20
0.0
 30
0.0
 70
   128
 71
    77
 72
    75
 73
    78
  0
VERTEX
  5
1CD
  8
0
 62
     9
 10
0.0
 20
0.0
 30
0.0
 70
   128
 71
    70
 72
    76
 73
    73
  0
VERTEX
  5
1CE
  8
0
 62
     9
 10
0.0
 20
0.0
 30
0.0
 70
   128
 71
    76
 72
    70
 73
    69
  0
VERTEX
  5
1CF
  8
0
 62
     9
 10
0.0
 20
0.0
 30
0.0
 70
   128
 71
    78
 72
    75
 73
    79
  0
VERTEX
  5
1D0
  8
0
 62
     9
 10
0.0
 20
0.0
 30
0.0
 70
   128
 71
     5
 72
    78
 73
    80
  0
VERTEX
  5
1D1
  8
0
 62
     9
 10
0.0
 20
0.0
 30
0.0
 70
   128
 71
    77
 72
    12
 73
    14
  0
VERTEX
  5
1D2
  8
0
 62
     9
 10
0.0
 20
0.0
 30
0.0
 70
   128
 71
    77
 72
    73
 73
    76
  0
VERTEX
  5
1D3
  8
0
 62
     9
 10
0.0
 20
0.0
 30
0.0
 70
   128
 71
    83
 72
    82
 73
    81
  0
VERTEX
  5
1D4
  8
0
 62
     9
 10
0.0
 20
0.0
 30
0.0
 70
   128
 71
     1
 72
    84
 73
     3
  0
VERTEX
  5
1D5
  8
0
 62
     9
 10
0.0
 20
0.0
 30
0.0
 70
   128
 71
    85
 72
    81
 73
    69
  0
VERTEX
  5
1D6
  8
0
 62
     9
 10
0.0
 20
0.0
 30
0.0
 70
   128
 71
    80
 72
    83
 73
    10
  0
VERTEX
  5
1D7
  8
0
 62
     9
 10
0.0
 20
0.0
 30
0.0
 70
   128
 71
    82
 72
    69
 73
    81
  0
VERTEX
  5
1D8
  8
0
 62
     9
 10
0.0
 20
0.0
 30
0.0
 70
   128
 71
     3
 72
    86
 73
     8
  0
VERTEX
  5
1D9
  8
0
 62
     9
 10
0.0
 20
0.0
 30
0.0
 70
   128
 71
    84
 72
     1
 73
    83
  0
VERTEX
  5
1DA
  8
0
 62
     9
 10
0.0
 20
0.0
 30
0.0
 70
   128
 71
    85
 72
    86
 73
    84
  0
VERTEX
  5
1DB
  8
0
 62
     9
 10
0.0
 20
0.0
 30
0.0
 70
   128
 71
    83
 72
    81
 73
    84
  0
VERTEX
  5
1DC
  8
0
 62
     9
 10
0.0
 20
0.0
 30
0.0
 70
   128
 71
    79
 72
    82
 73
    80
  0
VERTEX
  5
1DD
  8
0
 62
     9
 10
0.0
 20
0.0
 30
0.0
 70
   128
 71
    82
 72
    79
 73
    69
  0
VERTEX
  5
1DE
  8
0
 62
     9
 10
0.0
 20
0.0
 30
0.0
 70
   128
 71
    84
 72
    81
 73
    85
  0
VERTEX
  5
1DF
  8
0
 62
     9
 10
0.0
 20
0.0
 30
0.0
 70
   128
 71
     3
 72
    84
 73
    86
  0
VERTEX
  5
1E0
  8
0
 62
     9
 10
0.0
 20
0.0
 30
0.0
 70
   128
 71
    83
 72
     1
 73
    10
  0
VERTEX
  5
1E1
  8
0
 62
     9
 10
0.0
 20
0.0
 30
0.0
 70
   128
 71
    83
 72
    80
 73
    82
  0
VERTEX
  5
1E2
  8
0
 62
     9
 10
0.0
 20
0.0
 30
0.0
 70
   128
 71
    89
 72
    88
 73
    87
  0
VERTEX
  5
1E3
  8
0
 62
     9
 10
0.0
 20
0.0
 30
0.0
 70
   128
 71
    91
 72
    87
 73
    90
  0
VERTEX
  5
1E4
  8
0
 62
     9
 10
0.0
 20
0.0
 30
0.0
 70
   128
 71
     8
 72
    86
 73
    87
  0
VERTEX
  5
1E5
  8
0
 62
     9
 10
0.0
 20
0.0
 30
0.0
 70
   128
 71
    71
 72
    92
 73
    72
  0
VERTEX
  5
1E6
  8
0
 62
     9
 10
0.0
 20
0.0
 30
0.0
 70
   128
 71
    74
 72
    88
 73
    69
  0
VERTEX
  5
1E7
  8
0
 62
     9
 10
0.0
 20
0.0
 30
0.0
 70
   128
 71
    92
 72
    91
 73
    90
  0
VERTEX
  5
1E8
  8
0
 62
     9
 10
0.0
 20
0.0
 30
0.0
 70
   128
 71
    88
 72
    89
 73
    69
  0
VERTEX
  5
1E9
  8
0
 62
     9
 10
0.0
 20
0.0
 30
0.0
 70
   128
 71
    74
 72
    72
 73
    90
  0
VERTEX
  5
1EA
  8
0
 62
     9
 10
0.0
 20
0.0
 30
0.0
 70
   128
 71
    87
 72
    88
 73
    90
  0
VERTEX
  5
1EB
  8
0
 62
     9
 10
0.0
 20
0.0
 30
0.0
 70
   128
 71
    85
 72
    89
 73
    86
  0
VERTEX
  5
1EC
  8
0
 62
     9
 10
0.0
 20
0.0
 30
0.0
 70
   128
 71
    89
 72
    85
 73
    69
  0
VERTEX
  5
1ED
  8
0
 62
     9
 10
0.0
 20
0.0
 30
0.0
 70
   128
 71
    90
 72
    88
 73
    74
  0
VERTEX
  5
1EE
  8
0
 62
     9
 10
0.0
 20
0.0
 30
0.0
 70
   128
 71
    92
 72
    90
 73
    72
  0
VERTEX
  5
1EF
  8
0
 62
     9
 10
0.0
 20
0.0
 30
0.0
 70
   128
 71
    87
 72
    91
 73
     8
  0
VERTEX
  5
1F0
  8
0
 62
     9
 10
0.0
 20
0.0
 30
0.0
 70
   128
 71
    87
 72
    86
 73
    89
  0
VERTEX
  5
1F1
  8
0
 62
     9
 10
0.0
 20
0.0
 30
0.0
 70
   128
 71
    60
 72
    24
 73
    93
  0
VERTEX
  5
1F2
  8
0
 62
     9
 10
0.0
 20
0.0
 30
0.0
 70
   128
 71
    96
 72
    95
 73
    94
  0
VERTEX
  5
1F3
  8
0
 62
     9
 10
0.0
 20
0.0
 30
0.0
 70
   128
 71
    98
 72
    97
 73
    95
  0
VERTEX
  5
1F4
  8
0
 62
     9
 10
0.0
 20
0.0
 30
0.0
 70
   128
 71
    62
 72
   100
 73
    99
  0
VERTEX
  5
1F5
  8
0
 62
     9
 10
0.0
 20
0.0
 30
0.0
 70
   128
 71
    94
 72
    99
 73
   100
  0
VERTEX
  5
1F6
  8
0
 62
     9
 10
0.0
 20
0.0
 30
0.0
 70
   128
 71
    62
 72
    99
 73
    33
  0
VERTEX
  5
1F7
  8
0
 62
     9
 10
0.0
 20
0.0
 30
0.0
 70
   128
 71
    95
 72
    96
 73
    98
  0
VERTEX
  5
1F8
  8
0
 62
     9
 10
0.0
 20
0.0
 30
0.0
 70
   128
 71
    96
 72
    94
 73
   100
  0
VERTEX
  5
1F9
  8
0
 62
     9
 10
0.0
 20
0.0
 30
0.0
 70
   128
 71
   101
 72
    93
 73
    97
  0
VERTEX
  5
1FA
  8
0
 62
     9
 10
0.0
 20
0.0
 30
0.0
 70
   128
 71
   101
 72
    97
 73
    98
  0
VERTEX
  5
1FB
  8
0
 62
     9
 10
0.0
 20
0.0
 30
0.0
 70
   128
 71
    93
 72
   101
 73
    60
  0
VERTEX
  5
1FC
  8
0
 62
     9
 10
0.0
 20
0.0
 30
0.0
 70
   128
 71
    42
 72
    52
 73
   102
  0
VERTEX
  5
1FD
  8
0
 62
     9
 10
0.0
 20
0.0
 30
0.0
 70
   128
 71
   103
 72
   102
 73
    93
  0
VERTEX
  5
1FE
  8
0
 62
     9
 10
0.0
 20
0.0
 30
0.0
 70
   128
 71
    51
 72
   104
 73
    53
  0
VERTEX
  5
1FF
  8
0
 62
     9
 10
0.0
 20
0.0
 30
0.0
 70
   128
 71
    27
 72
    44
 73
    25
  0
VERTEX
  5
200
  8
0
 62
     9
 10
0.0
 20
0.0
 30
0.0
 70
   128
 71
    33
 72
    99
 73
    20
  0
VERTEX
  5
201
  8
0
 62
     9
 10
0.0
 20
0.0
 30
0.0
 70
   128
 71
    94
 72
    95
 73
   104
  0
VERTEX
  5
202
  8
0
 62
     9
 10
0.0
 20
0.0
 30
0.0
 70
   128
 71
    20
 72
   105
 73
    31
  0
VERTEX
  5
203
  8
0
 62
     9
 10
0.0
 20
0.0
 30
0.0
 70
   128
 71
   105
 72
    20
 73
    99
  0
VERTEX
  5
204
  8
0
 62
     9
 10
0.0
 20
0.0
 30
0.0
 70
   128
 71
    95
 72
   102
 73
   104
  0
VERTEX
  5
205
  8
0
 62
     9
 10
0.0
 20
0.0
 30
0.0
 70
   128
 71
   105
 72
    94
 73
   104
  0
VERTEX
  5
206
  8
0
 62
     9
 10
0.0
 20
0.0
 30
0.0
 70
   128
 71
    94
 72
   105
 73
    99
  0
VERTEX
  5
207
  8
0
 62
     9
 10
0.0
 20
0.0
 30
0.0
 70
   128
 71
    42
 72
   102
 73
   103
  0
VERTEX
  5
208
  8
0
 62
     9
 10
0.0
 20
0.0
 30
0.0
 70
   128
 71
   102
 72
    95
 73
    97
  0
VERTEX
  5
209
  8
0
 62
     9
 10
0.0
 20
0.0
 30
0.0
 70
   128
 71
    24
 72
    25
 73
   103
  0
VERTEX
  5
20A
  8
0
 62
     9
 10
0.0
 20
0.0
 30
0.0
 70
   128
 71
    25
 72
    44
 73
   103
  0
VERTEX
  5
20B
  8
0
 62
     9
 10
0.0
 20
0.0
 30
0.0
 70
   128
 71
    93
 72
    24
 73
   103
  0
VERTEX
  5
20C
  8
0
 62
     9
 10
0.0
 20
0.0
 30
0.0
 70
   128
 71
    42
 72
   103
 73
    44
  0
VERTEX
  5
20D
  8
0
 62
     9
 10
0.0
 20
0.0
 30
0.0
 70
   128
 71
    52
 72
    53
 73
   102
  0
VERTEX
  5
20E
  8
0
 62
     9
 10
0.0
 20
0.0
 30
0.0
 70
   128
 71
   102
 72
    97
 73
    93
  0
VERTEX
  5
20F
  8
0
 62
     9
 10
0.0
 20
0.0
 30
0.0
 70
   128
 71
   104
 72
   102
 73
    53
  0
VERTEX
  5
210
  8
0
 62
     9
 10
0.0
 20
0.0
 30
0.0
 70
   128
 71
    51
 72
    50
 73
   105
  0
VERTEX
  5
211
  8
0
 62
     9
 10
0.0
 20
0.0
 30
0.0
 70
   128
 71
   105
 72
   104
 73
    51
  0
VERTEX
  5
212
  8
0
 62
     9
 10
0.0
 20
0.0
 30
0.0
 70
   128
 71
    50
 72
    31
 73
   105
  0
VERTEX
  5
213
  8
0
 62
     9
 10
0.0
 20
0.0
 30
0.0
 70
   128
 71
     8
 72
    91
 73
    48
  0
VERTEX
  5
214
  8
0
 62
     9
 10
0.0
 20
0.0
 30
0.0
 70
   128
 71
    55
 72
    71
 73
    68
  0
VERTEX
  5
215
  8
0
 62
     9
 10
0.0
 20
0.0
 30
0.0
 70
   128
 71
    47
 72
    56
 73
    92
  0
VERTEX
  5
216
  8
0
 62
     9
 10
0.0
 20
0.0
 30
0.0
 70
   128
 71
    13
 72
    54
 73
    66
  0
VERTEX
  5
217
  8
0
 62
     9
 10
0.0
 20
0.0
 30
0.0
 70
   128
 71
    68
 72
    66
 73
    54
  0
VERTEX
  5
218
  8
0
 62
     9
 10
0.0
 20
0.0
 30
0.0
 70
   128
 71
    13
 72
    66
 73
    14
  0
VERTEX
  5
219
  8
0
 62
     9
 10
0.0
 20
0.0
 30
0.0
 70
   128
 71
    71
 72
    55
 73
    47
  0
VERTEX
  5
21A
  8
0
 62
     9
 10
0.0
 20
0.0
 30
0.0
 70
   128
 71
    55
 72
    68
 73
    54
  0
VERTEX
  5
21B
  8
0
 62
     9
 10
0.0
 20
0.0
 30
0.0
 70
   128
 71
    56
 72
    91
 73
    92
  0
VERTEX
  5
21C
  8
0
 62
     9
 10
0.0
 20
0.0
 30
0.0
 70
   128
 71
    47
 72
    92
 73
    71
  0
VERTEX
  5
21D
  8
0
 62
     9
 10
0.0
 20
0.0
 30
0.0
 70
   128
 71
    48
 72
     7
 73
     8
  0
VERTEX
  5
21E
  8
0
 62
     9
 10
0.0
 20
0.0
 30
0.0
 70
   128
 71
    56
 72
    48
 73
    91
  0
SEQEND
  5
21F
  8
0
 62
     9
  0
ENDBLK
  5
222
  8
0
  0
BLOCK
  8
0
  2
1
 70
     0
 10
0.0
 20
0.0
 30
0.0
  3
1
  1

  0
POLYLINE
  5
224
  8
0
 62
     9
 66
     1
 10
0.0
 20
0.0
 30
0.0
 70
    64
 71
    28
 72
   112
  0
VERTEX
  5
225
  8
0
 10
24.7242488861084
 20
72.10182189941406
 30
105.8236541748047
 70
   192
  0
VERTEX
  5
226
  8
0
 10
25.23825073242188
 20
72.10182189941406
 30
120.5391235351562
 70
   192
  0
VERTEX
  5
227
  8
0
 10
14.72424983978271
 20
72.10182189941406
 30
88.5031509399414
 70
   192
  0
VERTEX
  5
228
  8
0
 10
-5.742547512054443
 20
72.10182189941406
 30
66.8788070678711
 70
   192
  0
VERTEX
  5
229
  8
0
 10
23.55855560302734
 20
72.10182189941406
 30
49.9618034362793
 70
   192
  0
VERTEX
  5
22A
  8
0
 10
42.04475784301758
 20
72.10182189941406
 30
95.82365417480469
 70
   192
  0
VERTEX
  5
22B
  8
0
 10
54.53935241699219
 20
72.10182189941406
 30
103.6221237182617
 70
   192
  0
VERTEX
  5
22C
  8
0
 10
32.04475784301758
 20
72.10182189941406
 30
78.5031509399414
 70
   192
  0
VERTEX
  5
22D
  8
0
 10
54.11401748657227
 20
76.10182189941406
 30
103.8676910400391
 70
   192
  0
VERTEX
  5
22E
  8
0
 10
5.504949569702148
 20
76.10182189941406
 30
19.67431831359863
 70
   192
  0
VERTEX
  5
22F
  8
0
 10
32.04475784301758
 20
76.10182189941406
 30
78.5031509399414
 70
   192
  0
VERTEX
  5
230
  8
0
 10
-22.94547653198242
 20
76.10182189941406
 30
36.10017776489258
 70
   192
  0
VERTEX
  5
231
  8
0
 10
14.72424983978271
 20
76.10182189941406
 30
88.5031509399414
 70
   192
  0
VERTEX
  5
232
  8
0
 10
25.66358947753906
 20
76.10182189941406
 30
120.2935485839844
 70
   192
  0
VERTEX
  5
233
  8
0
 10
24.7242488861084
 20
76.10182189941406
 30
105.8236541748047
 70
   192
  0
VERTEX
  5
234
  8
0
 10
42.04475784301758
 20
76.10182189941406
 30
95.82365417480469
 70
   192
  0
VERTEX
  5
235
  8
0
 10
-16.70528221130371
 20
46.99280548095703
 30
54.05678939819336
 70
   192
  0
VERTEX
  5
236
  8
0
 10
-15.36528205871582
 20
46.99280548095703
 30
53.28314208984375
 70
   192
  0
VERTEX
  5
237
  8
0
 10
-14.41316318511963
 20
46.99280548095703
 30
54.72374725341797
 70
   192
  0
VERTEX
  5
238
  8
0
 10
17.35964393615723
 20
46.99280548095703
 30
36.37970733642578
 70
   192
  0
VERTEX
  5
239
  8
0
 10
27.32688903808594
 20
46.99280548095703
 30
50.32275009155273
 70
   192
  0
VERTEX
  5
23A
  8
0
 10
-7.314126491546631
 20
46.99280548095703
 30
70.32274627685547
 70
   192
  0
VERTEX
  5
23B
  8
0
 10
17.93573379516602
 20
46.99280548095703
 30
34.05678939819336
 70
   192
  0
VERTEX
  5
23C
  8
0
 10
16.58810234069824
 20
46.99280548095703
 30
34.83484649658203
 70
   192
  0
VERTEX
  5
23D
  8
0
 10
-25.82458686828613
 20
56.91785049438477
 30
35.82440567016602
 70
   192
  0
VERTEX
  5
23E
  8
0
 10
6.705678939819336
 20
56.91785049438477
 30
17.04305076599121
 70
   192
  0
VERTEX
  5
23F
  8
0
 10
17.19402694702148
 20
46.31367111206055
 30
36.09284973144531
 70
   192
  0
VERTEX
  5
240
  8
0
 10
-14.57878017425537
 20
46.31367111206055
 30
54.4368896484375
 70
   192
  0
VERTEX
  5
241
  8
0
 62
     9
 10
0.0
 20
0.0
 30
0.0
 70
   128
 71
     3
 72
     2
 73
     1
  0
VERTEX
  5
242
  8
0
 62
     9
 10
0.0
 20
0.0
 30
0.0
 70
   128
 71
     4
 72
     2
 73
     3
  0
VERTEX
  5
243
  8
0
 62
     9
 10
0.0
 20
0.0
 30
0.0
 70
   128
 71
     3
 72
     5
 73
     4
  0
VERTEX
  5
244
  8
0
 62
     9
 10
0.0
 20
0.0
 30
0.0
 70
   128
 71
     2
 72
     7
 73
     6
  0
VERTEX
  5
245
  8
0
 62
     9
 10
0.0
 20
0.0
 30
0.0
 70
   128
 71
     6
 72
     1
 73
     2
  0
VERTEX
  5
246
  8
0
 62
     9
 10
0.0
 20
0.0
 30
0.0
 70
   128
 71
     8
 72
     6
 73
     7
  0
VERTEX
  5
247
  8
0
 62
     9
 10
0.0
 20
0.0
 30
0.0
 70
   128
 71
     8
 72
     5
 73
     3
  0
VERTEX
  5
248
  8
0
 62
     9
 10
0.0
 20
0.0
 30
0.0
 70
   128
 71
     5
 72
     8
 73
     7
  0
VERTEX
  5
249
  8
0
 62
     9
 10
0.0
 20
0.0
 30
0.0
 70
   128
 71
    11
 72
    10
 73
     9
  0
VERTEX
  5
24A
  8
0
 62
     9
 10
0.0
 20
0.0
 30
0.0
 70
   128
 71
    11
 72
    13
 73
    12
  0
VERTEX
  5
24B
  8
0
 62
     9
 10
0.0
 20
0.0
 30
0.0
 70
   128
 71
    15
 72
     9
 73
    14
  0
VERTEX
  5
24C
  8
0
 62
     9
 10
0.0
 20
0.0
 30
0.0
 70
   128
 71
    15
 72
    16
 73
     9
  0
VERTEX
  5
24D
  8
0
 62
     9
 10
0.0
 20
0.0
 30
0.0
 70
   128
 71
     9
 72
    16
 73
    11
  0
VERTEX
  5
24E
  8
0
 62
     9
 10
0.0
 20
0.0
 30
0.0
 70
   128
 71
    13
 72
    15
 73
    14
  0
VERTEX
  5
24F
  8
0
 62
     9
 10
0.0
 20
0.0
 30
0.0
 70
   128
 71
    12
 72
    13
 73
    14
  0
VERTEX
  5
250
  8
0
 62
     9
 10
0.0
 20
0.0
 30
0.0
 70
   128
 71
    10
 72
    11
 73
    12
  0
VERTEX
  5
251
  8
0
 62
     9
 10
0.0
 20
0.0
 30
0.0
 70
   128
 71
    19
 72
    18
 73
    17
  0
VERTEX
  5
252
  8
0
 62
     9
 10
0.0
 20
0.0
 30
0.0
 70
   128
 71
    21
 72
    20
 73
    19
  0
VERTEX
  5
253
  8
0
 62
     9
 10
0.0
 20
0.0
 30
0.0
 70
   128
 71
    22
 72
    19
 73
    17
  0
VERTEX
  5
254
  8
0
 62
     9
 10
0.0
 20
0.0
 30
0.0
 70
   128
 71
    20
 72
    21
 73
    23
  0
VERTEX
  5
255
  8
0
 62
     9
 10
0.0
 20
0.0
 30
0.0
 70
   128
 71
    23
 72
    24
 73
    20
  0
VERTEX
  5
256
  8
0
 62
     9
 10
0.0
 20
0.0
 30
0.0
 70
   128
 71
    22
 72
    21
 73
    19
  0
VERTEX
  5
257
  8
0
 62
     9
 10
0.0
 20
0.0
 30
0.0
 70
   128
 71
    14
 72
     9
 73
     7
  0
VERTEX
  5
258
  8
0
 62
     9
 10
0.0
 20
0.0
 30
0.0
 70
   128
 71
    14
 72
     7
 73
     2
  0
VERTEX
  5
259
  8
0
 62
     9
 10
0.0
 20
0.0
 30
0.0
 70
   128
 71
    25
 72
    12
 73
    17
  0
VERTEX
  5
25A
  8
0
 62
     9
 10
0.0
 20
0.0
 30
0.0
 70
   128
 71
    17
 72
     4
 73
    22
  0
VERTEX
  5
25B
  8
0
 62
     9
 10
0.0
 20
0.0
 30
0.0
 70
   128
 71
     4
 72
    17
 73
    12
  0
VERTEX
  5
25C
  8
0
 62
     9
 10
0.0
 20
0.0
 30
0.0
 70
   128
 71
    14
 72
     2
 73
     4
  0
VERTEX
  5
25D
  8
0
 62
     9
 10
0.0
 20
0.0
 30
0.0
 70
   128
 71
     4
 72
    12
 73
    14
  0
VERTEX
  5
25E
  8
0
 62
     9
 10
0.0
 20
0.0
 30
0.0
 70
   128
 71
     5
 72
     7
 73
     9
  0
VERTEX
  5
25F
  8
0
 62
     9
 10
0.0
 20
0.0
 30
0.0
 70
   128
 71
    23
 72
     5
 73
    10
  0
VERTEX
  5
260
  8
0
 62
     9
 10
0.0
 20
0.0
 30
0.0
 70
   128
 71
    10
 72
     5
 73
     9
  0
VERTEX
  5
261
  8
0
 62
     9
 10
0.0
 20
0.0
 30
0.0
 70
   128
 71
     5
 72
    23
 73
    21
  0
VERTEX
  5
262
  8
0
 62
     9
 10
0.0
 20
0.0
 30
0.0
 70
   128
 71
    10
 72
    26
 73
    23
  0
VERTEX
  5
263
  8
0
 62
     9
 10
0.0
 20
0.0
 30
0.0
 70
   128
 71
    18
 72
    28
 73
    27
  0
VERTEX
  5
264
  8
0
 62
     9
 10
0.0
 20
0.0
 30
0.0
 70
   128
 71
    17
 72
    18
 73
    25
  0
VERTEX
  5
265
  8
0
 62
     9
 10
0.0
 20
0.0
 30
0.0
 70
   128
 71
    24
 72
    26
 73
    25
  0
VERTEX
  5
266
  8
0
 62
     9
 10
0.0
 20
0.0
 30
0.0
 70
   128
 71
    24
 72
    18
 73
    27
  0
VERTEX
  5
267
  8
0
 62
     9
 10
0.0
 20
0.0
 30
0.0
 70
   128
 71
    18
 72
    24
 73
    25
  0
VERTEX
  5
268
  8
0
 62
     9
 10
0.0
 20
0.0
 30
0.0
 70
   128
 71
    24
 72
    23
 73
    26
  0
VERTEX
  5
269
  8
0
 62
     9
 10
0.0
 20
0.0
 30
0.0
 70
   128
 71
    26
 72
    10
 73
    25
  0
VERTEX
  5
26A
  8
0
 62
     9
 10
0.0
 20
0.0
 30
0.0
 70
   128
 71
    10
 72
    12
 73
    25
  0
VERTEX
  5
26B
  8
0
 62
     9
 10
0.0
 20
0.0
 30
0.0
 70
   128
 71
    22
 72
     4
 73
    21
  0
VERTEX
  5
26C
  8
0
 62
     9
 10
0.0
 20
0.0
 30
0.0
 70
   128
 71
     4
 72
     5
 73
    21
  0
VERTEX
  5
26D
  8
0
 62
     9
 10
0.0
 20
0.0
 30
0.0
 70
   128
 71
     1
 72
    15
 73
     3
  0
VERTEX
  5
26E
  8
0
 62
     9
 10
0.0
 20
0.0
 30
0.0
 70
   128
 71
    13
 72
     3
 73
    15
  0
VERTEX
  5
26F
  8
0
 62
     9
 10
0.0
 20
0.0
 30
0.0
 70
   128
 71
    11
 72
     8
 73
    13
  0
VERTEX
  5
270
  8
0
 62
     9
 10
0.0
 20
0.0
 30
0.0
 70
   128
 71
     3
 72
    13
 73
     8
  0
VERTEX
  5
271
  8
0
 62
     9
 10
0.0
 20
0.0
 30
0.0
 70
   128
 71
     8
 72
    11
 73
     6
  0
VERTEX
  5
272
  8
0
 62
     9
 10
0.0
 20
0.0
 30
0.0
 70
   128
 71
    16
 72
     6
 73
    11
  0
VERTEX
  5
273
  8
0
 62
     9
 10
0.0
 20
0.0
 30
0.0
 70
   128
 71
     1
 72
     6
 73
    16
  0
VERTEX
  5
274
  8
0
 62
     9
 10
0.0
 20
0.0
 30
0.0
 70
   128
 71
    15
 72
     1
 73
    16
  0
VERTEX
  5
275
  8
0
 62
     9
 10
0.0
 20
0.0
 30
0.0
 70
   128
 71
    28
 72
    18
 73
    19
  0
VERTEX
  5
276
  8
0
 62
     9
 10
0.0
 20
0.0
 30
0.0
 70
   128
 71
    20
 72
    24
 73
    27
  0
VERTEX
  5
277
  8
0
 62
     9
 10
0.0
 20
0.0
 30
0.0
 70
   128
 71
    19
 72
    20
 73
    28
  0
VERTEX
  5
278
  8
0
 62
     9
 10
0.0
 20
0.0
 30
0.0
 70
   128
 71
    27
 72
    28
 73
    20
  0
VERTEX
  5
279
  8
0
 62
     9
 10
0.0
 20
0.0
 30
0.0
 70
   128
 71
    19
 72
    20
 73
    28
  0
VERTEX
  5
27A
  8
0
 62
     9
 10
0.0
 20
0.0
 30
0.0
 70
   128
 71
    27
 72
    28
 73
    20
  0
VERTEX
  5
27B
  8
0
 62
     9
 10
0.0
 20
0.0
 30
0.0
 70
   128
 71
    20
 72
    24
 73
    27
  0
VERTEX
  5
27C
  8
0
 62
     9
 10
0.0
 20
0.0
 30
0.0
 70
   128
 71
    28
 72
    18
 73
    19
  0
VERTEX
  5
27D
  8
0
 62
     9
 10
0.0
 20
0.0
 30
0.0
 70
   128
 71
     1
 72
     6
 73
    16
  0
VERTEX
  5
27E
  8
0
 62
     9
 10
0.0
 20
0.0
 30
0.0
 70
   128
 71
    15
 72
     1
 73
    16
  0
VERTEX
  5
27F
  8
0
 62
     9
 10
0.0
 20
0.0
 30
0.0
 70
   128
 71
     8
 72
    11
 73
     6
  0
VERTEX
  5
280
  8
0
 62
     9
 10
0.0
 20
0.0
 30
0.0
 70
   128
 71
    16
 72
     6
 73
    11
  0
VERTEX
  5
281
  8
0
 62
     9
 10
0.0
 20
0.0
 30
0.0
 70
   128
 71
    11
 72
     8
 73
    13
  0
VERTEX
  5
282
  8
0
 62
     9
 10
0.0
 20
0.0
 30
0.0
 70
   128
 71
     3
 72
    13
 73
     8
  0
VERTEX
  5
283
  8
0
 62
     9
 10
0.0
 20
0.0
 30
0.0
 70
   128
 71
     1
 72
    15
 73
     3
  0
VERTEX
  5
284
  8
0
 62
     9
 10
0.0
 20
0.0
 30
0.0
 70
   128
 71
    13
 72
     3
 73
    15
  0
VERTEX
  5
285
  8
0
 62
     9
 10
0.0
 20
0.0
 30
0.0
 70
   128
 71
    22
 72
     4
 73
    21
  0
VERTEX
  5
286
  8
0
 62
     9
 10
0.0
 20
0.0
 30
0.0
 70
   128
 71
     4
 72
     5
 73
    21
  0
VERTEX
  5
287
  8
0
 62
     9
 10
0.0
 20
0.0
 30
0.0
 70
   128
 71
    26
 72
    10
 73
    25
  0
VERTEX
  5
288
  8
0
 62
     9
 10
0.0
 20
0.0
 30
0.0
 70
   128
 71
    10
 72
    12
 73
    25
  0
VERTEX
  5
289
  8
0
 62
     9
 10
0.0
 20
0.0
 30
0.0
 70
   128
 71
    18
 72
    28
 73
    27
  0
VERTEX
  5
28A
  8
0
 62
     9
 10
0.0
 20
0.0
 30
0.0
 70
   128
 71
    17
 72
    18
 73
    25
  0
VERTEX
  5
28B
  8
0
 62
     9
 10
0.0
 20
0.0
 30
0.0
 70
   128
 71
    24
 72
    26
 73
    25
  0
VERTEX
  5
28C
  8
0
 62
     9
 10
0.0
 20
0.0
 30
0.0
 70
   128
 71
    24
 72
    18
 73
    27
  0
VERTEX
  5
28D
  8
0
 62
     9
 10
0.0
 20
0.0
 30
0.0
 70
   128
 71
    18
 72
    24
 73
    25
  0
VERTEX
  5
28E
  8
0
 62
     9
 10
0.0
 20
0.0
 30
0.0
 70
   128
 71
    24
 72
    23
 73
    26
  0
VERTEX
  5
28F
  8
0
 62
     9
 10
0.0
 20
0.0
 30
0.0
 70
   128
 71
     5
 72
     7
 73
     9
  0
VERTEX
  5
290
  8
0
 62
     9
 10
0.0
 20
0.0
 30
0.0
 70
   128
 71
    23
 72
     5
 73
    10
  0
VERTEX
  5
291
  8
0
 62
     9
 10
0.0
 20
0.0
 30
0.0
 70
   128
 71
    10
 72
     5
 73
     9
  0
VERTEX
  5
292
  8
0
 62
     9
 10
0.0
 20
0.0
 30
0.0
 70
   128
 71
     5
 72
    23
 73
    21
  0
VERTEX
  5
293
  8
0
 62
     9
 10
0.0
 20
0.0
 30
0.0
 70
   128
 71
    10
 72
    26
 73
    23
  0
VERTEX
  5
294
  8
0
 62
     9
 10
0.0
 20
0.0
 30
0.0
 70
   128
 71
    25
 72
    12
 73
    17
  0
VERTEX
  5
295
  8
0
 62
     9
 10
0.0
 20
0.0
 30
0.0
 70
   128
 71
    17
 72
     4
 73
    22
  0
VERTEX
  5
296
  8
0
 62
     9
 10
0.0
 20
0.0
 30
0.0
 70
   128
 71
     4
 72
    17
 73
    12
  0
VERTEX
  5
297
  8
0
 62
     9
 10
0.0
 20
0.0
 30
0.0
 70
   128
 71
    14
 72
     2
 73
     4
  0
VERTEX
  5
298
  8
0
 62
     9
 10
0.0
 20
0.0
 30
0.0
 70
   128
 71
     4
 72
    12
 73
    14
  0
VERTEX
  5
299
  8
0
 62
     9
 10
0.0
 20
0.0
 30
0.0
 70
   128
 71
    14
 72
     9
 73
     7
  0
VERTEX
  5
29A
  8
0
 62
     9
 10
0.0
 20
0.0
 30
0.0
 70
   128
 71
    14
 72
     7
 73
     2
  0
VERTEX
  5
29B
  8
0
 62
     9
 10
0.0
 20
0.0
 30
0.0
 70
   128
 71
    19
 72
    18
 73
    17
  0
VERTEX
  5
29C
  8
0
 62
     9
 10
0.0
 20
0.0
 30
0.0
 70
   128
 71
    21
 72
    20
 73
    19
  0
VERTEX
  5
29D
  8
0
 62
     9
 10
0.0
 20
0.0
 30
0.0
 70
   128
 71
    22
 72
    19
 73
    17
  0
VERTEX
  5
29E
  8
0
 62
     9
 10
0.0
 20
0.0
 30
0.0
 70
   128
 71
    20
 72
    21
 73
    23
  0
VERTEX
  5
29F
  8
0
 62
     9
 10
0.0
 20
0.0
 30
0.0
 70
   128
 71
    23
 72
    24
 73
    20
  0
VERTEX
  5
2A0
  8
0
 62
     9
 10
0.0
 20
0.0
 30
0.0
 70
   128
 71
    22
 72
    21
 73
    19
  0
VERTEX
  5
2A1
  8
0
 62
     9
 10
0.0
 20
0.0
 30
0.0
 70
   128
 71
    11
 72
    10
 73
     9
  0
VERTEX
  5
2A2
  8
0
 62
     9
 10
0.0
 20
0.0
 30
0.0
 70
   128
 71
    11
 72
    13
 73
    12
  0
VERTEX
  5
2A3
  8
0
 62
     9
 10
0.0
 20
0.0
 30
0.0
 70
   128
 71
    15
 72
     9
 73
    14
  0
VERTEX
  5
2A4
  8
0
 62
     9
 10
0.0
 20
0.0
 30
0.0
 70
   128
 71
    15
 72
    16
 73
     9
  0
VERTEX
  5
2A5
  8
0
 62
     9
 10
0.0
 20
0.0
 30
0.0
 70
   128
 71
     9
 72
    16
 73
    11
  0
VERTEX
  5
2A6
  8
0
 62
     9
 10
0.0
 20
0.0
 30
0.0
 70
   128
 71
    13
 72
    15
 73
    14
  0
VERTEX
  5
2A7
  8
0
 62
     9
 10
0.0
 20
0.0
 30
0.0
 70
   128
 71
    12
 72
    13
 73
    14
  0
VERTEX
  5
2A8
  8
0
 62
     9
 10
0.0
 20
0.0
 30
0.0
 70
   128
 71
    10
 72
    11
 73
    12
  0
VERTEX
  5
2A9
  8
0
 62
     9
 10
0.0
 20
0.0
 30
0.0
 70
   128
 71
     3
 72
     2
 73
     1
  0
VERTEX
  5
2AA
  8
0
 62
     9
 10
0.0
 20
0.0
 30
0.0
 70
   128
 71
     4
 72
     2
 73
     3
  0
VERTEX
  5
2AB
  8
0
 62
     9
 10
0.0
 20
0.0
 30
0.0
 70
   128
 71
     3
 72
     5
 73
     4
  0
VERTEX
  5
2AC
  8
0
 62
     9
 10
0.0
 20
0.0
 30
0.0
 70
   128
 71
     2
 72
     7
 73
     6
  0
VERTEX
  5
2AD
  8
0
 62
     9
 10
0.0
 20
0.0
 30
0.0
 70
   128
 71
     6
 72
     1
 73
     2
  0
VERTEX
  5
2AE
  8
0
 62
     9
 10
0.0
 20
0.0
 30
0.0
 70
   128
 71
     8
 72
     6
 73
     7
  0
VERTEX
  5
2AF
  8
0
 62
     9
 10
0.0
 20
0.0
 30
0.0
 70
   128
 71
     8
 72
     5
 73
     3
  0
VERTEX
  5
2B0
  8
0
 62
     9
 10
0.0
 20
0.0
 30
0.0
 70
   128
 71
     5
 72
     8
 73
     7
  0
SEQEND
  5
2B1
  8
0
 62
     9
  0
ENDBLK
  5
2B4
  8
0
  0
BLOCK
  8
0
  2
41
 70
     0
 10
0.0
 20
0.0
 30
0.0
  3
41
  1

  0
POLYLINE
  5
2B6
  8
0
 62
     9
 66
     1
 10
0.0
 20
0.0
 30
0.0
 70
    64
 71
     8
 72
    12
  0
VERTEX
  5
2B7
  8
0
 10
-26.0
 20
-26.0
 30
0.0000000000000018
 70
   192
  0
VERTEX
  5
2B8
  8
0
 10
26.0
 20
-26.0
 30
-10.0
 70
   192
  0
VERTEX
  5
2B9
  8
0
 10
26.0
 20
-26.0
 30
0.0000000000000018
 70
   192
  0
VERTEX
  5
2BA
  8
0
 10
-26.0
 20
-26.0
 30
-10.0
 70
   192
  0
VERTEX
  5
2BB
  8
0
 10
26.0
 20
26.0
 30
-10.0
 70
   192
  0
VERTEX
  5
2BC
  8
0
 10
26.0
 20
26.0
 30
0.0000000000000018
 70
   192
  0
VERTEX
  5
2BD
  8
0
 10
-26.0
 20
26.0
 30
-10.0
 70
   192
  0
VERTEX
  5
2BE
  8
0
 10
-26.0
 20
26.0
 30
0.0000000000000018
 70
   192
  0
VERTEX
  5
2BF
  8
0
 62
     9
 10
0.0
 20
0.0
 30
0.0
 70
   128
 71
     3
 72
     2
 73
     1
  0
VERTEX
  5
2C0
  8
0
 62
     9
 10
0.0
 20
0.0
 30
0.0
 70
   128
 71
     4
 72
     1
 73
     2
  0
VERTEX
  5
2C1
  8
0
 62
     9
 10
0.0
 20
0.0
 30
0.0
 70
   128
 71
     3
 72
     6
 73
     5
  0
VERTEX
  5
2C2
  8
0
 62
     9
 10
0.0
 20
0.0
 30
0.0
 70
   128
 71
     2
 72
     3
 73
     5
  0
VERTEX
  5
2C3
  8
0
 62
     9
 10
0.0
 20
0.0
 30
0.0
 70
   128
 71
     6
 72
     8
 73
     7
  0
VERTEX
  5
2C4
  8
0
 62
     9
 10
0.0
 20
0.0
 30
0.0
 70
   128
 71
     5
 72
     6
 73
     7
  0
VERTEX
  5
2C5
  8
0
 62
     9
 10
0.0
 20
0.0
 30
0.0
 70
   128
 71
     8
 72
     1
 73
     7
  0
VERTEX
  5
2C6
  8
0
 62
     9
 10
0.0
 20
0.0
 30
0.0
 70
   128
 71
     4
 72
     7
 73
     1
  0
VERTEX
  5
2C7
  8
0
 62
     9
 10
0.0
 20
0.0
 30
0.0
 70
   128
 71
     6
 72
     3
 73
     8
  0
VERTEX
  5
2C8
  8
0
 62
     9
 10
0.0
 20
0.0
 30
0.0
 70
   128
 71
     1
 72
     8
 73
     3
  0
VERTEX
  5
2C9
  8
0
 62
     9
 10
0.0
 20
0.0
 30
0.0
 70
   128
 71
     5
 72
     7
 73
     2
  0
VERTEX
  5
2CA
  8
0
 62
     9
 10
0.0
 20
0.0
 30
0.0
 70
   128
 71
     4
 72
     2
 73
     7
  0
SEQEND
  5
2CB
  8
0
 62
     9
  0
ENDBLK
  5
2CE
  8
0
  0
BLOCK
  8
0
  2
42
 70
     0
 10
0.0
 20
0.0
 30
0.0
  3
42
  1

  0
POLYLINE
  5
2D0
  8
0
 62
     9
 66
     1
 10
0.0
 20
0.0
 30
0.0
 70
    64
 71
   140
 72
   250
  0
VERTEX
  5
2D1
  8
0
 10
-0.0000000000000832
 20
56.59999847412109
 30
43.0
 70
   192
  0
VERTEX
  5
2D2
  8
0
 10
5.415536880493164
 20
55.82952880859375
 30
42.05276870727539
 70
   192
  0
VERTEX
  5
2D3
  8
0
 10
5.497752666473389
 20
55.82952880859375
 30
43.0
 70
   192
  0
VERTEX
  5
2D4
  8
0
 10
2.499340057373047
 20
55.82952880859375
 30
38.10320663452148
 70
   192
  0
VERTEX
  5
2D5
  8
0
 10
3.887498140335083
 20
55.82952880859375
 30
39.11250305175781
 70
   192
  0
VERTEX
  5
2D6
  8
0
 10
7.61577320098877
 20
53.45230102539062
 30
35.38422775268555
 70
   192
  0
VERTEX
  5
2D7
  8
0
 10
4.896793365478516
 20
55.82952880859375
 30
40.50065994262695
 70
   192
  0
VERTEX
  5
2D8
  8
0
 10
5.610803127288818
 20
45.0
 30
25.73798942565918
 70
   192
  0
VERTEX
  5
2D9
  8
0
 10
2.608912467956543
 20
49.66574478149414
 30
28.0842399597168
 70
   192
  0
VERTEX
  5
2DA
  8
0
 10
2.859505891799927
 20
45.0
 30
25.0768985748291
 70
   192
  0
VERTEX
  5
2DB
  8
0
 10
4.896312713623047
 20
53.45230102539062
 30
33.40697479248047
 70
   192
  0
VERTEX
  5
2DC
  8
0
 10
1.855664372444153
 20
53.45230102539062
 30
32.3907356262207
 70
   192
  0
VERTEX
  5
2DD
  8
0
 10
-0.0000000000000439
 20
45.0
 30
24.84951782226562
 70
   192
  0
VERTEX
  5
2DE
  8
0
 10
-0.0000000000145327
 20
49.66574478149414
 30
27.85779762268066
 70
   192
  0
VERTEX
  5
2DF
  8
0
 10
10.60926532745361
 20
53.45230102539062
 30
41.14433670043945
 70
   192
  0
VERTEX
  5
2E0
  8
0
 10
9.593024253845215
 20
53.45230102539062
 30
38.10368728637695
 70
   192
  0
VERTEX
  5
2E1
  8
0
 10
13.48700904846191
 20
49.66574478149414
 30
36.11618423461914
 70
   192
  0
VERTEX
  5
2E2
  8
0
 10
0.9472304582595825
 20
55.82952880859375
 30
37.58446502685547
 70
   192
  0
VERTEX
  5
2E3
  8
0
 10
-0.0000000000206617
 20
53.45230102539062
 30
32.22967147827148
 70
   192
  0
VERTEX
  5
2E4
  8
0
 10
14.9157600402832
 20
49.66574478149414
 30
40.39108657836914
 70
   192
  0
VERTEX
  5
2E5
  8
0
 10
8.227213859558105
 20
45.0
 30
26.82174301147461
 70
   192
  0
VERTEX
  5
2E6
  8
0
 10
10.65157127380371
 20
45.0
 30
28.30447769165039
 70
   192
  0
VERTEX
  5
2E7
  8
0
 10
6.883815288543701
 20
49.66574478149414
 30
29.51299095153809
 70
   192
  0
VERTEX
  5
2E8
  8
0
 10
17.25727462768555
 20
45.0
 30
37.37776184082031
 70
   192
  0
VERTEX
  5
2E9
  8
0
 10
16.17352104187012
 20
45.0
 30
34.7613525390625
 70
   192
  0
VERTEX
  5
2EA
  8
0
 10
18.15048217773438
 20
45.0
 30
43.0
 70
   192
  0
VERTEX
  5
2EB
  8
0
 10
15.14220333099365
 20
49.66574478149414
 30
43.0
 70
   192
  0
VERTEX
  5
2EC
  8
0
 10
17.9231014251709
 20
45.0
 30
40.14049530029297
 70
   192
  0
VERTEX
  5
2ED
  8
0
 10
10.77032947540283
 20
53.45230102539062
 30
43.0
 70
   192
  0
VERTEX
  5
2EE
  8
0
 10
-0.0000000000158444
 20
55.82952880859375
 30
37.50224685668945
 70
   192
  0
VERTEX
  5
2EF
  8
0
 10
10.70715427398682
 20
49.66574478149414
 30
32.2928466796875
 70
   192
  0
VERTEX
  5
2F0
  8
0
 10
14.68744659423828
 20
45.0
 30
32.33737564086914
 70
   192
  0
VERTEX
  5
2F1
  8
0
 10
12.83432865142822
 20
45.0
 30
30.16567039489746
 70
   192
  0
VERTEX
  5
2F2
  8
0
 10
0.9472304582595825
 20
55.82952880859375
 30
48.41553497314453
 70
   192
  0
VERTEX
  5
2F3
  8
0
 10
-0.0000000001180501
 20
55.82952880859375
 30
48.49775314331055
 70
   192
  0
VERTEX
  5
2F4
  8
0
 10
4.896793365478516
 20
55.82952880859375
 30
45.49934005737305
 70
   192
  0
VERTEX
  5
2F5
  8
0
 10
3.887498140335083
 20
55.82952880859375
 30
46.88749694824219
 70
   192
  0
VERTEX
  5
2F6
  8
0
 10
7.61577320098877
 20
53.45230102539062
 30
50.61577224731445
 70
   192
  0
VERTEX
  5
2F7
  8
0
 10
2.499340057373047
 20
55.82952880859375
 30
47.89679336547852
 70
   192
  0
VERTEX
  5
2F8
  8
0
 10
17.26201057434082
 20
45.0
 30
48.61080169677734
 70
   192
  0
VERTEX
  5
2F9
  8
0
 10
14.9157600402832
 20
49.66574478149414
 30
45.60891342163086
 70
   192
  0
VERTEX
  5
2FA
  8
0
 10
17.9231014251709
 20
45.0
 30
45.85950469970703
 70
   192
  0
VERTEX
  5
2FB
  8
0
 10
9.593024253845215
 20
53.45230102539062
 30
47.89631271362305
 70
   192
  0
VERTEX
  5
2FC
  8
0
 10
10.60926532745361
 20
53.45230102539062
 30
44.85566329956055
 70
   192
  0
VERTEX
  5
2FD
  8
0
 10
1.855664372444153
 20
53.45230102539062
 30
53.6092643737793
 70
   192
  0
VERTEX
  5
2FE
  8
0
 10
4.896312713623047
 20
53.45230102539062
 30
52.59302520751953
 70
   192
  0
VERTEX
  5
2FF
  8
0
 10
6.883815288543701
 20
49.66574478149414
 30
56.48700714111328
 70
   192
  0
VERTEX
  5
300
  8
0
 10
5.415536880493164
 20
55.82952880859375
 30
43.94723129272461
 70
   192
  0
VERTEX
  5
301
  8
0
 10
2.608912467956543
 20
49.66574478149414
 30
57.9157600402832
 70
   192
  0
VERTEX
  5
302
  8
0
 10
16.17825698852539
 20
45.0
 30
51.22721481323242
 70
   192
  0
VERTEX
  5
303
  8
0
 10
14.69552326202393
 20
45.0
 30
53.65156936645508
 70
   192
  0
VERTEX
  5
304
  8
0
 10
13.48700904846191
 20
49.66574478149414
 30
49.88381576538086
 70
   192
  0
VERTEX
  5
305
  8
0
 10
5.622236728668213
 20
45.0
 30
60.25727462768555
 70
   192
  0
VERTEX
  5
306
  8
0
 10
8.2386474609375
 20
45.0
 30
59.17352294921875
 70
   192
  0
VERTEX
  5
307
  8
0
 10
-0.0000000000001007
 20
45.0
 30
61.15048217773438
 70
   192
  0
VERTEX
  5
308
  8
0
 10
-0.0000000001084017
 20
49.66574478149414
 30
58.14220428466797
 70
   192
  0
VERTEX
  5
309
  8
0
 10
2.859505891799927
 20
45.0
 30
60.92310333251953
 70
   192
  0
VERTEX
  5
30A
  8
0
 10
-0.0000000001541589
 20
53.45230102539062
 30
53.77032852172852
 70
   192
  0
VERTEX
  5
30B
  8
0
 10
10.70715427398682
 20
49.66574478149414
 30
53.7071533203125
 70
   192
  0
VERTEX
  5
30C
  8
0
 10
10.66262340545654
 20
45.0
 30
57.68744659423828
 70
   192
  0
VERTEX
  5
30D
  8
0
 10
12.83432865142822
 20
45.0
 30
55.83432769775391
 70
   192
  0
VERTEX
  5
30E
  8
0
 10
-5.415536880493164
 20
55.82952880859375
 30
43.94723129272461
 70
   192
  0
VERTEX
  5
30F
  8
0
 10
-5.497752666473389
 20
55.82952880859375
 30
43.0
 70
   192
  0
VERTEX
  5
310
  8
0
 10
-2.499340057373047
 20
55.82952880859375
 30
47.89679336547852
 70
   192
  0
VERTEX
  5
311
  8
0
 10
-3.887498140335083
 20
55.82952880859375
 30
46.88749694824219
 70
   192
  0
VERTEX
  5
312
  8
0
 10
-7.61577320098877
 20
53.45230102539062
 30
50.61577224731445
 70
   192
  0
VERTEX
  5
313
  8
0
 10
-4.896793365478516
 20
55.82952880859375
 30
45.49934005737305
 70
   192
  0
VERTEX
  5
314
  8
0
 10
-5.600255966186523
 20
45.0
 30
60.26409912109375
 70
   192
  0
VERTEX
  5
315
  8
0
 10
-2.608912467956543
 20
49.66574478149414
 30
57.9157600402832
 70
   192
  0
VERTEX
  5
316
  8
0
 10
-2.843672752380371
 20
45.0
 30
60.92620468139648
 70
   192
  0
VERTEX
  5
317
  8
0
 10
-4.896312713623047
 20
53.45230102539062
 30
52.59302520751953
 70
   192
  0
VERTEX
  5
318
  8
0
 10
-1.855664372444153
 20
53.45230102539062
 30
53.6092643737793
 70
   192
  0
VERTEX
  5
319
  8
0
 10
-10.60926532745361
 20
53.45230102539062
 30
44.85566329956055
 70
   192
  0
VERTEX
  5
31A
  8
0
 10
-9.593024253845215
 20
53.45230102539062
 30
47.89631271362305
 70
   192
  0
VERTEX
  5
31B
  8
0
 10
-13.48700904846191
 20
49.66574478149414
 30
49.88381576538086
 70
   192
  0
VERTEX
  5
31C
  8
0
 10
-0.9472304582595825
 20
55.82952880859375
 30
48.41553497314453
 70
   192
  0
VERTEX
  5
31D
  8
0
 10
-14.9157600402832
 20
49.66574478149414
 30
45.60891342163086
 70
   192
  0
VERTEX
  5
31E
  8
0
 10
-8.233111381530762
 20
45.0
 30
59.17527389526367
 70
   192
  0
VERTEX
  5
31F
  8
0
 10
-10.66496086120605
 20
45.0
 30
57.68651962280273
 70
   192
  0
VERTEX
  5
320
  8
0
 10
-6.883815288543701
 20
49.66574478149414
 30
56.48700714111328
 70
   192
  0
VERTEX
  5
321
  8
0
 10
-17.25933647155762
 20
45.0
 30
48.61595916748047
 70
   192
  0
VERTEX
  5
322
  8
0
 10
-16.16753959655762
 20
45.0
 30
51.24758148193359
 70
   192
  0
VERTEX
  5
323
  8
0
 10
-18.15048217773438
 20
45.0
 30
43.0
 70
   192
  0
VERTEX
  5
324
  8
0
 10
-15.14220333099365
 20
49.66574478149414
 30
43.0
 70
   192
  0
VERTEX
  5
325
  8
0
 10
-17.92620468139648
 20
45.0
 30
45.84367370605469
 70
   192
  0
VERTEX
  5
326
  8
0
 10
-10.77032947540283
 20
53.45230102539062
 30
43.0
 70
   192
  0
VERTEX
  5
327
  8
0
 10
-10.70715427398682
 20
49.66574478149414
 30
53.7071533203125
 70
   192
  0
VERTEX
  5
328
  8
0
 10
-14.67958164215088
 20
45.0
 30
53.67341613769531
 70
   192
  0
VERTEX
  5
329
  8
0
 10
-12.83432865142822
 20
45.0
 30
55.83432769775391
 70
   192
  0
VERTEX
  5
32A
  8
0
 10
18.45000076293945
 20
45.0
 30
43.0
 70
   192
  0
VERTEX
  5
32B
  8
0
 10
17.98577117919922
 20
45.0
 30
47.11146545410156
 70
   192
  0
VERTEX
  5
32C
  8
0
 10
-0.0000000000000657
 20
45.0
 30
61.45000076293945
 70
   192
  0
VERTEX
  5
32D
  8
0
 10
4.104989528656006
 20
45.0
 30
60.98761367797852
 70
   192
  0
VERTEX
  5
32E
  8
0
 10
-4.111466884613037
 20
45.0
 30
60.98577117919922
 70
   192
  0
VERTEX
  5
32F
  8
0
 10
-8.01101016998291
 20
45.0
 30
59.61857223510742
 70
   192
  0
VERTEX
  5
330
  8
0
 10
-11.51185607910156
 20
45.0
 30
57.41706466674805
 70
   192
  0
VERTEX
  5
331
  8
0
 10
-14.42716789245605
 20
45.0
 30
54.50034713745117
 70
   192
  0
VERTEX
  5
332
  8
0
 10
-16.62668228149414
 20
45.0
 30
50.99559783935547
 70
   192
  0
VERTEX
  5
333
  8
0
 10
-17.98761558532715
 20
45.0
 30
47.10498809814453
 70
   192
  0
VERTEX
  5
334
  8
0
 10
-18.45000076293945
 20
45.0
 30
43.0
 70
   192
  0
VERTEX
  5
335
  8
0
 10
-17.9615364074707
 20
45.0
 30
40.3638801574707
 70
   192
  0
VERTEX
  5
336
  8
0
 10
-17.98577117919922
 20
45.0
 30
38.88853454589844
 70
   192
  0
VERTEX
  5
337
  8
0
 10
-16.61857223510742
 20
45.0
 30
34.98899078369141
 70
   192
  0
VERTEX
  5
338
  8
0
 10
-17.35019493103027
 20
45.0
 30
37.65497207641602
 70
   192
  0
VERTEX
  5
339
  8
0
 10
-14.76393699645996
 20
45.0
 30
32.44386291503906
 70
   192
  0
VERTEX
  5
33A
  8
0
 10
-16.2832088470459
 20
45.0
 30
34.97663497924805
 70
   192
  0
VERTEX
  5
33B
  8
0
 10
-14.41706371307373
 20
45.0
 30
31.48814392089844
 70
   192
  0
VERTEX
  5
33C
  8
0
 10
-12.83432865142822
 20
45.0
 30
30.16567039489746
 70
   192
  0
VERTEX
  5
33D
  8
0
 10
-11.50034809112549
 20
45.0
 30
28.57283210754395
 70
   192
  0
VERTEX
  5
33E
  8
0
 10
-7.995596408843994
 20
45.0
 30
26.37331771850586
 70
   192
  0
VERTEX
  5
33F
  8
0
 10
-10.54046821594238
 20
45.0
 30
28.22577095031738
 70
   192
  0
VERTEX
  5
340
  8
0
 10
-5.32066535949707
 20
45.0
 30
25.65514755249023
 70
   192
  0
VERTEX
  5
341
  8
0
 10
-7.99678897857666
 20
45.0
 30
26.71204376220703
 70
   192
  0
VERTEX
  5
342
  8
0
 10
-4.104989528656006
 20
45.0
 30
25.01238441467285
 70
   192
  0
VERTEX
  5
343
  8
0
 10
-2.636120796203613
 20
45.0
 30
25.0384635925293
 70
   192
  0
VERTEX
  5
344
  8
0
 10
4.111466884613037
 20
45.0
 30
25.01422882080078
 70
   192
  0
VERTEX
  5
345
  8
0
 10
8.01101016998291
 20
45.0
 30
26.38142776489258
 70
   192
  0
VERTEX
  5
346
  8
0
 10
11.51185607910156
 20
45.0
 30
28.58293724060059
 70
   192
  0
VERTEX
  5
347
  8
0
 10
14.42716789245605
 20
45.0
 30
31.4996509552002
 70
   192
  0
VERTEX
  5
348
  8
0
 10
16.62668228149414
 20
45.0
 30
35.00440216064453
 70
   192
  0
VERTEX
  5
349
  8
0
 10
17.98761558532715
 20
45.0
 30
38.89501190185547
 70
   192
  0
VERTEX
  5
34A
  8
0
 10
16.61857223510742
 20
45.0
 30
51.01100921630859
 70
   192
  0
VERTEX
  5
34B
  8
0
 10
14.41706371307373
 20
45.0
 30
54.51185607910156
 70
   192
  0
VERTEX
  5
34C
  8
0
 10
11.50034809112549
 20
45.0
 30
57.42716979980469
 70
   192
  0
VERTEX
  5
34D
  8
0
 10
7.995596408843994
 20
45.0
 30
59.62668228149414
 70
   192
  0
VERTEX
  5
34E
  8
0
 10
-6.883815288543701
 20
49.66574478149414
 30
29.51299095153809
 70
   192
  0
VERTEX
  5
34F
  8
0
 10
-10.60926532745361
 20
53.45230102539062
 30
41.14433670043945
 70
   192
  0
VERTEX
  5
350
  8
0
 10
-5.415536880493164
 20
55.82952880859375
 30
42.05276870727539
 70
   192
  0
VERTEX
  5
351
  8
0
 10
-2.608912467956543
 20
49.66574478149414
 30
28.0842399597168
 70
   192
  0
VERTEX
  5
352
  8
0
 10
-1.855664372444153
 20
53.45230102539062
 30
32.3907356262207
 70
   192
  0
VERTEX
  5
353
  8
0
 10
-4.896312713623047
 20
53.45230102539062
 30
33.40697479248047
 70
   192
  0
VERTEX
  5
354
  8
0
 10
-13.48700904846191
 20
49.66574478149414
 30
36.11618423461914
 70
   192
  0
VERTEX
  5
355
  8
0
 10
-3.887498140335083
 20
55.82952880859375
 30
39.11250305175781
 70
   192
  0
VERTEX
  5
356
  8
0
 10
-4.896793365478516
 20
55.82952880859375
 30
40.50065994262695
 70
   192
  0
VERTEX
  5
357
  8
0
 10
-9.593024253845215
 20
53.45230102539062
 30
38.10368728637695
 70
   192
  0
VERTEX
  5
358
  8
0
 10
-7.61577320098877
 20
53.45230102539062
 30
35.38422775268555
 70
   192
  0
VERTEX
  5
359
  8
0
 10
-2.499340057373047
 20
55.82952880859375
 30
38.10320663452148
 70
   192
  0
VERTEX
  5
35A
  8
0
 10
-14.9157600402832
 20
49.66574478149414
 30
40.39108657836914
 70
   192
  0
VERTEX
  5
35B
  8
0
 10
-0.9472304582595825
 20
55.82952880859375
 30
37.58446502685547
 70
   192
  0
VERTEX
  5
35C
  8
0
 10
-10.70715427398682
 20
49.66574478149414
 30
32.2928466796875
 70
   192
  0
VERTEX
  5
35D
  8
0
 62
     9
 10
0.0
 20
0.0
 30
0.0
 70
   128
 71
     3
 72
     2
 73
     1
  0
VERTEX
  5
35E
  8
0
 62
     9
 10
0.0
 20
0.0
 30
0.0
 70
   128
 71
     1
 72
     5
 73
     4
  0
VERTEX
  5
35F
  8
0
 62
     9
 10
0.0
 20
0.0
 30
0.0
 70
   128
 71
     7
 72
     6
 73
     5
  0
VERTEX
  5
360
  8
0
 62
     9
 10
0.0
 20
0.0
 30
0.0
 70
   128
 71
     7
 72
     1
 73
     2
  0
VERTEX
  5
361
  8
0
 62
     9
 10
0.0
 20
0.0
 30
0.0
 70
   128
 71
    10
 72
     9
 73
     8
  0
VERTEX
  5
362
  8
0
 62
     9
 10
0.0
 20
0.0
 30
0.0
 70
   128
 71
    12
 72
    11
 73
     9
  0
VERTEX
  5
363
  8
0
 62
     9
 10
0.0
 20
0.0
 30
0.0
 70
   128
 71
    11
 72
     4
 73
     5
  0
VERTEX
  5
364
  8
0
 62
     9
 10
0.0
 20
0.0
 30
0.0
 70
   128
 71
    14
 72
     9
 73
    13
  0
VERTEX
  5
365
  8
0
 62
     9
 10
0.0
 20
0.0
 30
0.0
 70
   128
 71
    12
 72
     9
 73
    14
  0
VERTEX
  5
366
  8
0
 62
     9
 10
0.0
 20
0.0
 30
0.0
 70
   128
 71
    17
 72
    16
 73
    15
  0
VERTEX
  5
367
  8
0
 62
     9
 10
0.0
 20
0.0
 30
0.0
 70
   128
 71
    12
 72
    19
 73
    18
  0
VERTEX
  5
368
  8
0
 62
     9
 10
0.0
 20
0.0
 30
0.0
 70
   128
 71
    17
 72
    15
 73
    20
  0
VERTEX
  5
369
  8
0
 62
     9
 10
0.0
 20
0.0
 30
0.0
 70
   128
 71
    23
 72
    22
 73
    21
  0
VERTEX
  5
36A
  8
0
 62
     9
 10
0.0
 20
0.0
 30
0.0
 70
   128
 71
    17
 72
    20
 73
    24
  0
VERTEX
  5
36B
  8
0
 62
     9
 10
0.0
 20
0.0
 30
0.0
 70
   128
 71
    25
 72
    17
 73
    24
  0
VERTEX
  5
36C
  8
0
 62
     9
 10
0.0
 20
0.0
 30
0.0
 70
   128
 71
    28
 72
    27
 73
    26
  0
VERTEX
  5
36D
  8
0
 62
     9
 10
0.0
 20
0.0
 30
0.0
 70
   128
 71
    28
 72
    24
 73
    20
  0
VERTEX
  5
36E
  8
0
 62
     9
 10
0.0
 20
0.0
 30
0.0
 70
   128
 71
     3
 72
    29
 73
    15
  0
VERTEX
  5
36F
  8
0
 62
     9
 10
0.0
 20
0.0
 30
0.0
 70
   128
 71
     5
 72
     1
 73
     7
  0
VERTEX
  5
370
  8
0
 62
     9
 10
0.0
 20
0.0
 30
0.0
 70
   128
 71
     2
 72
     3
 73
    15
  0
VERTEX
  5
371
  8
0
 62
     9
 10
0.0
 20
0.0
 30
0.0
 70
   128
 71
     7
 72
    16
 73
     6
  0
VERTEX
  5
372
  8
0
 62
     9
 10
0.0
 20
0.0
 30
0.0
 70
   128
 71
     5
 72
     6
 73
    11
  0
VERTEX
  5
373
  8
0
 62
     9
 10
0.0
 20
0.0
 30
0.0
 70
   128
 71
     1
 72
    18
 73
    30
  0
VERTEX
  5
374
  8
0
 62
     9
 10
0.0
 20
0.0
 30
0.0
 70
   128
 71
    18
 72
     1
 73
     4
  0
VERTEX
  5
375
  8
0
 62
     9
 10
0.0
 20
0.0
 30
0.0
 70
   128
 71
     4
 72
    11
 73
    12
  0
VERTEX
  5
376
  8
0
 62
     9
 10
0.0
 20
0.0
 30
0.0
 70
   128
 71
    30
 72
    18
 73
    19
  0
VERTEX
  5
377
  8
0
 62
     9
 10
0.0
 20
0.0
 30
0.0
 70
   128
 71
    16
 72
     2
 73
    15
  0
VERTEX
  5
378
  8
0
 62
     9
 10
0.0
 20
0.0
 30
0.0
 70
   128
 71
    29
 72
    27
 73
    20
  0
VERTEX
  5
379
  8
0
 62
     9
 10
0.0
 20
0.0
 30
0.0
 70
   128
 71
     6
 72
    16
 73
    31
  0
VERTEX
  5
37A
  8
0
 62
     9
 10
0.0
 20
0.0
 30
0.0
 70
   128
 71
    16
 72
     7
 73
     2
  0
VERTEX
  5
37B
  8
0
 62
     9
 10
0.0
 20
0.0
 30
0.0
 70
   128
 71
    31
 72
    16
 73
    17
  0
VERTEX
  5
37C
  8
0
 62
     9
 10
0.0
 20
0.0
 30
0.0
 70
   128
 71
    11
 72
     6
 73
    23
  0
VERTEX
  5
37D
  8
0
 62
     9
 10
0.0
 20
0.0
 30
0.0
 70
   128
 71
    31
 72
    23
 73
     6
  0
VERTEX
  5
37E
  8
0
 62
     9
 10
0.0
 20
0.0
 30
0.0
 70
   128
 71
    18
 72
     4
 73
    12
  0
VERTEX
  5
37F
  8
0
 62
     9
 10
0.0
 20
0.0
 30
0.0
 70
   128
 71
    11
 72
    23
 73
     9
  0
VERTEX
  5
380
  8
0
 62
     9
 10
0.0
 20
0.0
 30
0.0
 70
   128
 71
    19
 72
    12
 73
    14
  0
VERTEX
  5
381
  8
0
 62
     9
 10
0.0
 20
0.0
 30
0.0
 70
   128
 71
    20
 72
    15
 73
    29
  0
VERTEX
  5
382
  8
0
 62
     9
 10
0.0
 20
0.0
 30
0.0
 70
   128
 71
    20
 72
    27
 73
    28
  0
VERTEX
  5
383
  8
0
 62
     9
 10
0.0
 20
0.0
 30
0.0
 70
   128
 71
    32
 72
    17
 73
    25
  0
VERTEX
  5
384
  8
0
 62
     9
 10
0.0
 20
0.0
 30
0.0
 70
   128
 71
    33
 72
    31
 73
    32
  0
VERTEX
  5
385
  8
0
 62
     9
 10
0.0
 20
0.0
 30
0.0
 70
   128
 71
    22
 72
    31
 73
    33
  0
VERTEX
  5
386
  8
0
 62
     9
 10
0.0
 20
0.0
 30
0.0
 70
   128
 71
    31
 72
    17
 73
    32
  0
VERTEX
  5
387
  8
0
 62
     9
 10
0.0
 20
0.0
 30
0.0
 70
   128
 71
    23
 72
    31
 73
    22
  0
VERTEX
  5
388
  8
0
 62
     9
 10
0.0
 20
0.0
 30
0.0
 70
   128
 71
    23
 72
    21
 73
     8
  0
VERTEX
  5
389
  8
0
 62
     9
 10
0.0
 20
0.0
 30
0.0
 70
   128
 71
     9
 72
    23
 73
     8
  0
VERTEX
  5
38A
  8
0
 62
     9
 10
0.0
 20
0.0
 30
0.0
 70
   128
 71
     9
 72
    10
 73
    13
  0
VERTEX
  5
38B
  8
0
 62
     9
 10
0.0
 20
0.0
 30
0.0
 70
   128
 71
    35
 72
    34
 73
     1
  0
VERTEX
  5
38C
  8
0
 62
     9
 10
0.0
 20
0.0
 30
0.0
 70
   128
 71
     1
 72
    37
 73
    36
  0
VERTEX
  5
38D
  8
0
 62
     9
 10
0.0
 20
0.0
 30
0.0
 70
   128
 71
    39
 72
    38
 73
    37
  0
VERTEX
  5
38E
  8
0
 62
     9
 10
0.0
 20
0.0
 30
0.0
 70
   128
 71
    39
 72
     1
 73
    34
  0
VERTEX
  5
38F
  8
0
 62
     9
 10
0.0
 20
0.0
 30
0.0
 70
   128
 71
    42
 72
    41
 73
    40
  0
VERTEX
  5
390
  8
0
 62
     9
 10
0.0
 20
0.0
 30
0.0
 70
   128
 71
    44
 72
    43
 73
    41
  0
VERTEX
  5
391
  8
0
 62
     9
 10
0.0
 20
0.0
 30
0.0
 70
   128
 71
    43
 72
    36
 73
    37
  0
VERTEX
  5
392
  8
0
 62
     9
 10
0.0
 20
0.0
 30
0.0
 70
   128
 71
    27
 72
    41
 73
    26
  0
VERTEX
  5
393
  8
0
 62
     9
 10
0.0
 20
0.0
 30
0.0
 70
   128
 71
    44
 72
    41
 73
    27
  0
VERTEX
  5
394
  8
0
 62
     9
 10
0.0
 20
0.0
 30
0.0
 70
   128
 71
    47
 72
    46
 73
    45
  0
VERTEX
  5
395
  8
0
 62
     9
 10
0.0
 20
0.0
 30
0.0
 70
   128
 71
    44
 72
    29
 73
    48
  0
VERTEX
  5
396
  8
0
 62
     9
 10
0.0
 20
0.0
 30
0.0
 70
   128
 71
    47
 72
    45
 73
    49
  0
VERTEX
  5
397
  8
0
 62
     9
 10
0.0
 20
0.0
 30
0.0
 70
   128
 71
    52
 72
    51
 73
    50
  0
VERTEX
  5
398
  8
0
 62
     9
 10
0.0
 20
0.0
 30
0.0
 70
   128
 71
    47
 72
    49
 73
    53
  0
VERTEX
  5
399
  8
0
 62
     9
 10
0.0
 20
0.0
 30
0.0
 70
   128
 71
    54
 72
    47
 73
    53
  0
VERTEX
  5
39A
  8
0
 62
     9
 10
0.0
 20
0.0
 30
0.0
 70
   128
 71
    57
 72
    56
 73
    55
  0
VERTEX
  5
39B
  8
0
 62
     9
 10
0.0
 20
0.0
 30
0.0
 70
   128
 71
    57
 72
    53
 73
    49
  0
VERTEX
  5
39C
  8
0
 62
     9
 10
0.0
 20
0.0
 30
0.0
 70
   128
 71
    35
 72
    58
 73
    45
  0
VERTEX
  5
39D
  8
0
 62
     9
 10
0.0
 20
0.0
 30
0.0
 70
   128
 71
    37
 72
     1
 73
    39
  0
VERTEX
  5
39E
  8
0
 62
     9
 10
0.0
 20
0.0
 30
0.0
 70
   128
 71
    34
 72
    35
 73
    45
  0
VERTEX
  5
39F
  8
0
 62
     9
 10
0.0
 20
0.0
 30
0.0
 70
   128
 71
    39
 72
    46
 73
    38
  0
VERTEX
  5
3A0
  8
0
 62
     9
 10
0.0
 20
0.0
 30
0.0
 70
   128
 71
    37
 72
    38
 73
    43
  0
VERTEX
  5
3A1
  8
0
 62
     9
 10
0.0
 20
0.0
 30
0.0
 70
   128
 71
     1
 72
    48
 73
     3
  0
VERTEX
  5
3A2
  8
0
 62
     9
 10
0.0
 20
0.0
 30
0.0
 70
   128
 71
    48
 72
     1
 73
    36
  0
VERTEX
  5
3A3
  8
0
 62
     9
 10
0.0
 20
0.0
 30
0.0
 70
   128
 71
    36
 72
    43
 73
    44
  0
VERTEX
  5
3A4
  8
0
 62
     9
 10
0.0
 20
0.0
 30
0.0
 70
   128
 71
     3
 72
    48
 73
    29
  0
VERTEX
  5
3A5
  8
0
 62
     9
 10
0.0
 20
0.0
 30
0.0
 70
   128
 71
    46
 72
    34
 73
    45
  0
VERTEX
  5
3A6
  8
0
 62
     9
 10
0.0
 20
0.0
 30
0.0
 70
   128
 71
    58
 72
    56
 73
    49
  0
VERTEX
  5
3A7
  8
0
 62
     9
 10
0.0
 20
0.0
 30
0.0
 70
   128
 71
    38
 72
    46
 73
    59
  0
VERTEX
  5
3A8
  8
0
 62
     9
 10
0.0
 20
0.0
 30
0.0
 70
   128
 71
    46
 72
    39
 73
    34
  0
VERTEX
  5
3A9
  8
0
 62
     9
 10
0.0
 20
0.0
 30
0.0
 70
   128
 71
    59
 72
    46
 73
    47
  0
VERTEX
  5
3AA
  8
0
 62
     9
 10
0.0
 20
0.0
 30
0.0
 70
   128
 71
    43
 72
    38
 73
    52
  0
VERTEX
  5
3AB
  8
0
 62
     9
 10
0.0
 20
0.0
 30
0.0
 70
   128
 71
    59
 72
    52
 73
    38
  0
VERTEX
  5
3AC
  8
0
 62
     9
 10
0.0
 20
0.0
 30
0.0
 70
   128
 71
    48
 72
    36
 73
    44
  0
VERTEX
  5
3AD
  8
0
 62
     9
 10
0.0
 20
0.0
 30
0.0
 70
   128
 71
    43
 72
    52
 73
    41
  0
VERTEX
  5
3AE
  8
0
 62
     9
 10
0.0
 20
0.0
 30
0.0
 70
   128
 71
    29
 72
    44
 73
    27
  0
VERTEX
  5
3AF
  8
0
 62
     9
 10
0.0
 20
0.0
 30
0.0
 70
   128
 71
    49
 72
    45
 73
    58
  0
VERTEX
  5
3B0
  8
0
 62
     9
 10
0.0
 20
0.0
 30
0.0
 70
   128
 71
    49
 72
    56
 73
    57
  0
VERTEX
  5
3B1
  8
0
 62
     9
 10
0.0
 20
0.0
 30
0.0
 70
   128
 71
    60
 72
    47
 73
    54
  0
VERTEX
  5
3B2
  8
0
 62
     9
 10
0.0
 20
0.0
 30
0.0
 70
   128
 71
    61
 72
    59
 73
    60
  0
VERTEX
  5
3B3
  8
0
 62
     9
 10
0.0
 20
0.0
 30
0.0
 70
   128
 71
    51
 72
    59
 73
    61
  0
VERTEX
  5
3B4
  8
0
 62
     9
 10
0.0
 20
0.0
 30
0.0
 70
   128
 71
    59
 72
    47
 73
    60
  0
VERTEX
  5
3B5
  8
0
 62
     9
 10
0.0
 20
0.0
 30
0.0
 70
   128
 71
    52
 72
    59
 73
    51
  0
VERTEX
  5
3B6
  8
0
 62
     9
 10
0.0
 20
0.0
 30
0.0
 70
   128
 71
    52
 72
    50
 73
    40
  0
VERTEX
  5
3B7
  8
0
 62
     9
 10
0.0
 20
0.0
 30
0.0
 70
   128
 71
    41
 72
    52
 73
    40
  0
VERTEX
  5
3B8
  8
0
 62
     9
 10
0.0
 20
0.0
 30
0.0
 70
   128
 71
    41
 72
    42
 73
    26
  0
VERTEX
  5
3B9
  8
0
 62
     9
 10
0.0
 20
0.0
 30
0.0
 70
   128
 71
    63
 72
    62
 73
     1
  0
VERTEX
  5
3BA
  8
0
 62
     9
 10
0.0
 20
0.0
 30
0.0
 70
   128
 71
     1
 72
    65
 73
    64
  0
VERTEX
  5
3BB
  8
0
 62
     9
 10
0.0
 20
0.0
 30
0.0
 70
   128
 71
    67
 72
    66
 73
    65
  0
VERTEX
  5
3BC
  8
0
 62
     9
 10
0.0
 20
0.0
 30
0.0
 70
   128
 71
    67
 72
     1
 73
    62
  0
VERTEX
  5
3BD
  8
0
 62
     9
 10
0.0
 20
0.0
 30
0.0
 70
   128
 71
    70
 72
    69
 73
    68
  0
VERTEX
  5
3BE
  8
0
 62
     9
 10
0.0
 20
0.0
 30
0.0
 70
   128
 71
    72
 72
    71
 73
    69
  0
VERTEX
  5
3BF
  8
0
 62
     9
 10
0.0
 20
0.0
 30
0.0
 70
   128
 71
    71
 72
    64
 73
    65
  0
VERTEX
  5
3C0
  8
0
 62
     9
 10
0.0
 20
0.0
 30
0.0
 70
   128
 71
    56
 72
    69
 73
    55
  0
VERTEX
  5
3C1
  8
0
 62
     9
 10
0.0
 20
0.0
 30
0.0
 70
   128
 71
    72
 72
    69
 73
    56
  0
VERTEX
  5
3C2
  8
0
 62
     9
 10
0.0
 20
0.0
 30
0.0
 70
   128
 71
    75
 72
    74
 73
    73
  0
VERTEX
  5
3C3
  8
0
 62
     9
 10
0.0
 20
0.0
 30
0.0
 70
   128
 71
    72
 72
    58
 73
    76
  0
VERTEX
  5
3C4
  8
0
 62
     9
 10
0.0
 20
0.0
 30
0.0
 70
   128
 71
    75
 72
    73
 73
    77
  0
VERTEX
  5
3C5
  8
0
 62
     9
 10
0.0
 20
0.0
 30
0.0
 70
   128
 71
    80
 72
    79
 73
    78
  0
VERTEX
  5
3C6
  8
0
 62
     9
 10
0.0
 20
0.0
 30
0.0
 70
   128
 71
    75
 72
    77
 73
    81
  0
VERTEX
  5
3C7
  8
0
 62
     9
 10
0.0
 20
0.0
 30
0.0
 70
   128
 71
    82
 72
    75
 73
    81
  0
VERTEX
  5
3C8
  8
0
 62
     9
 10
0.0
 20
0.0
 30
0.0
 70
   128
 71
    85
 72
    84
 73
    83
  0
VERTEX
  5
3C9
  8
0
 62
     9
 10
0.0
 20
0.0
 30
0.0
 70
   128
 71
    85
 72
    81
 73
    77
  0
VERTEX
  5
3CA
  8
0
 62
     9
 10
0.0
 20
0.0
 30
0.0
 70
   128
 71
    63
 72
    86
 73
    73
  0
VERTEX
  5
3CB
  8
0
 62
     9
 10
0.0
 20
0.0
 30
0.0
 70
   128
 71
    65
 72
     1
 73
    67
  0
VERTEX
  5
3CC
  8
0
 62
     9
 10
0.0
 20
0.0
 30
0.0
 70
   128
 71
    62
 72
    63
 73
    73
  0
VERTEX
  5
3CD
  8
0
 62
     9
 10
0.0
 20
0.0
 30
0.0
 70
   128
 71
    67
 72
    74
 73
    66
  0
VERTEX
  5
3CE
  8
0
 62
     9
 10
0.0
 20
0.0
 30
0.0
 70
   128
 71
    65
 72
    66
 73
    71
  0
VERTEX
  5
3CF
  8
0
 62
     9
 10
0.0
 20
0.0
 30
0.0
 70
   128
 71
     1
 72
    76
 73
    35
  0
VERTEX
  5
3D0
  8
0
 62
     9
 10
0.0
 20
0.0
 30
0.0
 70
   128
 71
    76
 72
     1
 73
    64
  0
VERTEX
  5
3D1
  8
0
 62
     9
 10
0.0
 20
0.0
 30
0.0
 70
   128
 71
    64
 72
    71
 73
    72
  0
VERTEX
  5
3D2
  8
0
 62
     9
 10
0.0
 20
0.0
 30
0.0
 70
   128
 71
    35
 72
    76
 73
    58
  0
VERTEX
  5
3D3
  8
0
 62
     9
 10
0.0
 20
0.0
 30
0.0
 70
   128
 71
    74
 72
    62
 73
    73
  0
VERTEX
  5
3D4
  8
0
 62
     9
 10
0.0
 20
0.0
 30
0.0
 70
   128
 71
    86
 72
    84
 73
    77
  0
VERTEX
  5
3D5
  8
0
 62
     9
 10
0.0
 20
0.0
 30
0.0
 70
   128
 71
    66
 72
    74
 73
    87
  0
VERTEX
  5
3D6
  8
0
 62
     9
 10
0.0
 20
0.0
 30
0.0
 70
   128
 71
    74
 72
    67
 73
    62
  0
VERTEX
  5
3D7
  8
0
 62
     9
 10
0.0
 20
0.0
 30
0.0
 70
   128
 71
    87
 72
    74
 73
    75
  0
VERTEX
  5
3D8
  8
0
 62
     9
 10
0.0
 20
0.0
 30
0.0
 70
   128
 71
    71
 72
    66
 73
    80
  0
VERTEX
  5
3D9
  8
0
 62
     9
 10
0.0
 20
0.0
 30
0.0
 70
   128
 71
    87
 72
    80
 73
    66
  0
VERTEX
  5
3DA
  8
0
 62
     9
 10
0.0
 20
0.0
 30
0.0
 70
   128
 71
    76
 72
    64
 73
    72
  0
VERTEX
  5
3DB
  8
0
 62
     9
 10
0.0
 20
0.0
 30
0.0
 70
   128
 71
    71
 72
    80
 73
    69
  0
VERTEX
  5
3DC
  8
0
 62
     9
 10
0.0
 20
0.0
 30
0.0
 70
   128
 71
    58
 72
    72
 73
    56
  0
VERTEX
  5
3DD
  8
0
 62
     9
 10
0.0
 20
0.0
 30
0.0
 70
   128
 71
    77
 72
    73
 73
    86
  0
VERTEX
  5
3DE
  8
0
 62
     9
 10
0.0
 20
0.0
 30
0.0
 70
   128
 71
    77
 72
    84
 73
    85
  0
VERTEX
  5
3DF
  8
0
 62
     9
 10
0.0
 20
0.0
 30
0.0
 70
   128
 71
    88
 72
    75
 73
    82
  0
VERTEX
  5
3E0
  8
0
 62
     9
 10
0.0
 20
0.0
 30
0.0
 70
   128
 71
    89
 72
    87
 73
    88
  0
VERTEX
  5
3E1
  8
0
 62
     9
 10
0.0
 20
0.0
 30
0.0
 70
   128
 71
    79
 72
    87
 73
    89
  0
VERTEX
  5
3E2
  8
0
 62
     9
 10
0.0
 20
0.0
 30
0.0
 70
   128
 71
    87
 72
    75
 73
    88
  0
VERTEX
  5
3E3
  8
0
 62
     9
 10
0.0
 20
0.0
 30
0.0
 70
   128
 71
    80
 72
    87
 73
    79
  0
VERTEX
  5
3E4
  8
0
 62
     9
 10
0.0
 20
0.0
 30
0.0
 70
   128
 71
    80
 72
    78
 73
    68
  0
VERTEX
  5
3E5
  8
0
 62
     9
 10
0.0
 20
0.0
 30
0.0
 70
   128
 71
    69
 72
    80
 73
    68
  0
VERTEX
  5
3E6
  8
0
 62
     9
 10
0.0
 20
0.0
 30
0.0
 70
   128
 71
    69
 72
    70
 73
    55
  0
VERTEX
  5
3E7
  8
0
 62
     9
 10
0.0
 20
0.0
 30
0.0
 70
   128
 71
    42
 72
    91
 73
    90
  0
VERTEX
  5
3E8
  8
0
 62
     9
 10
0.0
 20
0.0
 30
0.0
 70
   128
 71
    28
 72
    26
 73
    90
  0
VERTEX
  5
3E9
  8
0
 62
     9
 10
0.0
 20
0.0
 30
0.0
 70
   128
 71
    55
 72
    70
 73
    92
  0
VERTEX
  5
3EA
  8
0
 62
     9
 10
0.0
 20
0.0
 30
0.0
 70
   128
 71
    93
 72
    57
 73
    92
  0
VERTEX
  5
3EB
  8
0
 62
     9
 10
0.0
 20
0.0
 30
0.0
 70
   128
 71
    70
 72
    94
 73
    92
  0
VERTEX
  5
3EC
  8
0
 62
     9
 10
0.0
 20
0.0
 30
0.0
 70
   128
 71
    94
 72
    68
 73
    95
  0
VERTEX
  5
3ED
  8
0
 62
     9
 10
0.0
 20
0.0
 30
0.0
 70
   128
 71
    70
 72
    68
 73
    94
  0
VERTEX
  5
3EE
  8
0
 62
     9
 10
0.0
 20
0.0
 30
0.0
 70
   128
 71
    78
 72
    79
 73
    95
  0
VERTEX
  5
3EF
  8
0
 62
     9
 10
0.0
 20
0.0
 30
0.0
 70
   128
 71
    68
 72
    78
 73
    95
  0
VERTEX
  5
3F0
  8
0
 62
     9
 10
0.0
 20
0.0
 30
0.0
 70
   128
 71
    79
 72
    89
 73
    96
  0
VERTEX
  5
3F1
  8
0
 62
     9
 10
0.0
 20
0.0
 30
0.0
 70
   128
 71
    79
 72
    96
 73
    95
  0
VERTEX
  5
3F2
  8
0
 62
     9
 10
0.0
 20
0.0
 30
0.0
 70
   128
 71
    89
 72
    97
 73
    96
  0
VERTEX
  5
3F3
  8
0
 62
     9
 10
0.0
 20
0.0
 30
0.0
 70
   128
 71
    97
 72
    88
 73
    98
  0
VERTEX
  5
3F4
  8
0
 62
     9
 10
0.0
 20
0.0
 30
0.0
 70
   128
 71
    89
 72
    88
 73
    97
  0
VERTEX
  5
3F5
  8
0
 62
     9
 10
0.0
 20
0.0
 30
0.0
 70
   128
 71
    82
 72
    81
 73
    98
  0
VERTEX
  5
3F6
  8
0
 62
     9
 10
0.0
 20
0.0
 30
0.0
 70
   128
 71
    88
 72
    82
 73
    98
  0
VERTEX
  5
3F7
  8
0
 62
     9
 10
0.0
 20
0.0
 30
0.0
 70
   128
 71
    81
 72
    99
 73
    98
  0
VERTEX
  5
3F8
  8
0
 62
     9
 10
0.0
 20
0.0
 30
0.0
 70
   128
 71
    99
 72
    85
 73
   100
  0
VERTEX
  5
3F9
  8
0
 62
     9
 10
0.0
 20
0.0
 30
0.0
 70
   128
 71
    81
 72
    85
 73
    99
  0
VERTEX
  5
3FA
  8
0
 62
     9
 10
0.0
 20
0.0
 30
0.0
 70
   128
 71
    83
 72
   101
 73
   100
  0
VERTEX
  5
3FB
  8
0
 62
     9
 10
0.0
 20
0.0
 30
0.0
 70
   128
 71
    85
 72
    83
 73
   100
  0
VERTEX
  5
3FC
  8
0
 62
     9
 10
0.0
 20
0.0
 30
0.0
 70
   128
 71
   101
 72
   102
 73
   100
  0
VERTEX
  5
3FD
  8
0
 62
     9
 10
0.0
 20
0.0
 30
0.0
 70
   128
 71
   102
 72
   104
 73
   103
  0
VERTEX
  5
3FE
  8
0
 62
     9
 10
0.0
 20
0.0
 30
0.0
 70
   128
 71
   101
 72
   104
 73
   102
  0
VERTEX
  5
3FF
  8
0
 62
     9
 10
0.0
 20
0.0
 30
0.0
 70
   128
 71
   106
 72
   105
 73
   103
  0
VERTEX
  5
400
  8
0
 62
     9
 10
0.0
 20
0.0
 30
0.0
 70
   128
 71
   104
 72
   106
 73
   103
  0
VERTEX
  5
401
  8
0
 62
     9
 10
0.0
 20
0.0
 30
0.0
 70
   128
 71
   105
 72
   108
 73
   107
  0
VERTEX
  5
402
  8
0
 62
     9
 10
0.0
 20
0.0
 30
0.0
 70
   128
 71
   105
 72
   107
 73
   103
  0
VERTEX
  5
403
  8
0
 62
     9
 10
0.0
 20
0.0
 30
0.0
 70
   128
 71
   108
 72
   109
 73
   107
  0
VERTEX
  5
404
  8
0
 62
     9
 10
0.0
 20
0.0
 30
0.0
 70
   128
 71
   109
 72
   111
 73
   110
  0
VERTEX
  5
405
  8
0
 62
     9
 10
0.0
 20
0.0
 30
0.0
 70
   128
 71
   108
 72
   111
 73
   109
  0
VERTEX
  5
406
  8
0
 62
     9
 10
0.0
 20
0.0
 30
0.0
 70
   128
 71
   113
 72
   112
 73
   110
  0
VERTEX
  5
407
  8
0
 62
     9
 10
0.0
 20
0.0
 30
0.0
 70
   128
 71
   111
 72
   113
 73
   110
  0
VERTEX
  5
408
  8
0
 62
     9
 10
0.0
 20
0.0
 30
0.0
 70
   128
 71
   112
 72
   114
 73
   110
  0
VERTEX
  5
409
  8
0
 62
     9
 10
0.0
 20
0.0
 30
0.0
 70
   128
 71
   114
 72
   115
 73
    13
  0
VERTEX
  5
40A
  8
0
 62
     9
 10
0.0
 20
0.0
 30
0.0
 70
   128
 71
   112
 72
   115
 73
   114
  0
VERTEX
  5
40B
  8
0
 62
     9
 10
0.0
 20
0.0
 30
0.0
 70
   128
 71
    10
 72
   116
 73
    13
  0
VERTEX
  5
40C
  8
0
 62
     9
 10
0.0
 20
0.0
 30
0.0
 70
   128
 71
   116
 72
     8
 73
   117
  0
VERTEX
  5
40D
  8
0
 62
     9
 10
0.0
 20
0.0
 30
0.0
 70
   128
 71
    10
 72
     8
 73
   116
  0
VERTEX
  5
40E
  8
0
 62
     9
 10
0.0
 20
0.0
 30
0.0
 70
   128
 71
    21
 72
    22
 73
   117
  0
VERTEX
  5
40F
  8
0
 62
     9
 10
0.0
 20
0.0
 30
0.0
 70
   128
 71
     8
 72
    21
 73
   117
  0
VERTEX
  5
410
  8
0
 62
     9
 10
0.0
 20
0.0
 30
0.0
 70
   128
 71
    22
 72
    33
 73
   118
  0
VERTEX
  5
411
  8
0
 62
     9
 10
0.0
 20
0.0
 30
0.0
 70
   128
 71
    22
 72
   118
 73
   117
  0
VERTEX
  5
412
  8
0
 62
     9
 10
0.0
 20
0.0
 30
0.0
 70
   128
 71
    33
 72
   119
 73
   118
  0
VERTEX
  5
413
  8
0
 62
     9
 10
0.0
 20
0.0
 30
0.0
 70
   128
 71
   119
 72
    32
 73
   120
  0
VERTEX
  5
414
  8
0
 62
     9
 10
0.0
 20
0.0
 30
0.0
 70
   128
 71
    33
 72
    32
 73
   119
  0
VERTEX
  5
415
  8
0
 62
     9
 10
0.0
 20
0.0
 30
0.0
 70
   128
 71
    25
 72
    24
 73
   120
  0
VERTEX
  5
416
  8
0
 62
     9
 10
0.0
 20
0.0
 30
0.0
 70
   128
 71
    32
 72
    25
 73
   120
  0
VERTEX
  5
417
  8
0
 62
     9
 10
0.0
 20
0.0
 30
0.0
 70
   128
 71
    24
 72
   121
 73
   120
  0
VERTEX
  5
418
  8
0
 62
     9
 10
0.0
 20
0.0
 30
0.0
 70
   128
 71
   121
 72
    28
 73
    90
  0
VERTEX
  5
419
  8
0
 62
     9
 10
0.0
 20
0.0
 30
0.0
 70
   128
 71
    24
 72
    28
 73
   121
  0
VERTEX
  5
41A
  8
0
 62
     9
 10
0.0
 20
0.0
 30
0.0
 70
   128
 71
    26
 72
    42
 73
    90
  0
VERTEX
  5
41B
  8
0
 62
     9
 10
0.0
 20
0.0
 30
0.0
 70
   128
 71
    91
 72
    40
 73
   122
  0
VERTEX
  5
41C
  8
0
 62
     9
 10
0.0
 20
0.0
 30
0.0
 70
   128
 71
    42
 72
    40
 73
    91
  0
VERTEX
  5
41D
  8
0
 62
     9
 10
0.0
 20
0.0
 30
0.0
 70
   128
 71
    50
 72
    51
 73
   122
  0
VERTEX
  5
41E
  8
0
 62
     9
 10
0.0
 20
0.0
 30
0.0
 70
   128
 71
    40
 72
    50
 73
   122
  0
VERTEX
  5
41F
  8
0
 62
     9
 10
0.0
 20
0.0
 30
0.0
 70
   128
 71
    51
 72
    61
 73
   123
  0
VERTEX
  5
420
  8
0
 62
     9
 10
0.0
 20
0.0
 30
0.0
 70
   128
 71
    51
 72
   123
 73
   122
  0
VERTEX
  5
421
  8
0
 62
     9
 10
0.0
 20
0.0
 30
0.0
 70
   128
 71
    61
 72
   124
 73
   123
  0
VERTEX
  5
422
  8
0
 62
     9
 10
0.0
 20
0.0
 30
0.0
 70
   128
 71
   124
 72
    60
 73
   125
  0
VERTEX
  5
423
  8
0
 62
     9
 10
0.0
 20
0.0
 30
0.0
 70
   128
 71
    61
 72
    60
 73
   124
  0
VERTEX
  5
424
  8
0
 62
     9
 10
0.0
 20
0.0
 30
0.0
 70
   128
 71
    54
 72
    53
 73
   125
  0
VERTEX
  5
425
  8
0
 62
     9
 10
0.0
 20
0.0
 30
0.0
 70
   128
 71
    60
 72
    54
 73
   125
  0
VERTEX
  5
426
  8
0
 62
     9
 10
0.0
 20
0.0
 30
0.0
 70
   128
 71
    53
 72
    93
 73
   125
  0
VERTEX
  5
427
  8
0
 62
     9
 10
0.0
 20
0.0
 30
0.0
 70
   128
 71
    57
 72
    55
 73
    92
  0
VERTEX
  5
428
  8
0
 62
     9
 10
0.0
 20
0.0
 30
0.0
 70
   128
 71
    53
 72
    57
 73
    93
  0
VERTEX
  5
429
  8
0
 62
     9
 10
0.0
 20
0.0
 30
0.0
 70
   128
 71
   113
 72
   126
 73
   112
  0
VERTEX
  5
42A
  8
0
 62
     9
 10
0.0
 20
0.0
 30
0.0
 70
   128
 71
    86
 72
   128
 73
   127
  0
VERTEX
  5
42B
  8
0
 62
     9
 10
0.0
 20
0.0
 30
0.0
 70
   128
 71
   115
 72
   112
 73
   129
  0
VERTEX
  5
42C
  8
0
 62
     9
 10
0.0
 20
0.0
 30
0.0
 70
   128
 71
   129
 72
   112
 73
   126
  0
VERTEX
  5
42D
  8
0
 62
     9
 10
0.0
 20
0.0
 30
0.0
 70
   128
 71
   129
 72
   126
 73
   130
  0
VERTEX
  5
42E
  8
0
 62
     9
 10
0.0
 20
0.0
 30
0.0
 70
   128
 71
    13
 72
   115
 73
    14
  0
VERTEX
  5
42F
  8
0
 62
     9
 10
0.0
 20
0.0
 30
0.0
 70
   128
 71
   131
 72
   130
 73
   126
  0
VERTEX
  5
430
  8
0
 62
     9
 10
0.0
 20
0.0
 30
0.0
 70
   128
 71
   105
 72
   106
 73
   132
  0
VERTEX
  5
431
  8
0
 62
     9
 10
0.0
 20
0.0
 30
0.0
 70
   128
 71
   135
 72
   134
 73
   133
  0
VERTEX
  5
432
  8
0
 62
     9
 10
0.0
 20
0.0
 30
0.0
 70
   128
 71
   137
 72
   136
 73
   133
  0
VERTEX
  5
433
  8
0
 62
     9
 10
0.0
 20
0.0
 30
0.0
 70
   128
 71
   138
 72
   127
 73
   135
  0
VERTEX
  5
434
  8
0
 62
     9
 10
0.0
 20
0.0
 30
0.0
 70
   128
 71
    84
 72
   138
 73
    83
  0
VERTEX
  5
435
  8
0
 62
     9
 10
0.0
 20
0.0
 30
0.0
 70
   128
 71
   138
 72
    84
 73
   127
  0
VERTEX
  5
436
  8
0
 62
     9
 10
0.0
 20
0.0
 30
0.0
 70
   128
 71
     1
 72
   133
 73
   134
  0
VERTEX
  5
437
  8
0
 62
     9
 10
0.0
 20
0.0
 30
0.0
 70
   128
 71
   138
 72
   104
 73
   101
  0
VERTEX
  5
438
  8
0
 62
     9
 10
0.0
 20
0.0
 30
0.0
 70
   128
 71
     1
 72
   139
 73
   137
  0
VERTEX
  5
439
  8
0
 62
     9
 10
0.0
 20
0.0
 30
0.0
 70
   128
 71
   130
 72
   139
 73
    30
  0
VERTEX
  5
43A
  8
0
 62
     9
 10
0.0
 20
0.0
 30
0.0
 70
   128
 71
    30
 72
   139
 73
     1
  0
VERTEX
  5
43B
  8
0
 62
     9
 10
0.0
 20
0.0
 30
0.0
 70
   128
 71
    30
 72
    19
 73
   130
  0
VERTEX
  5
43C
  8
0
 62
     9
 10
0.0
 20
0.0
 30
0.0
 70
   128
 71
   133
 72
     1
 73
   137
  0
VERTEX
  5
43D
  8
0
 62
     9
 10
0.0
 20
0.0
 30
0.0
 70
   128
 71
   137
 72
   131
 73
   136
  0
VERTEX
  5
43E
  8
0
 62
     9
 10
0.0
 20
0.0
 30
0.0
 70
   128
 71
   133
 72
   136
 73
   135
  0
VERTEX
  5
43F
  8
0
 62
     9
 10
0.0
 20
0.0
 30
0.0
 70
   128
 71
     1
 72
   128
 73
    63
  0
VERTEX
  5
440
  8
0
 62
     9
 10
0.0
 20
0.0
 30
0.0
 70
   128
 71
   128
 72
     1
 73
   134
  0
VERTEX
  5
441
  8
0
 62
     9
 10
0.0
 20
0.0
 30
0.0
 70
   128
 71
   134
 72
   135
 73
   127
  0
VERTEX
  5
442
  8
0
 62
     9
 10
0.0
 20
0.0
 30
0.0
 70
   128
 71
    63
 72
   128
 73
    86
  0
VERTEX
  5
443
  8
0
 62
     9
 10
0.0
 20
0.0
 30
0.0
 70
   128
 71
   131
 72
   139
 73
   130
  0
VERTEX
  5
444
  8
0
 62
     9
 10
0.0
 20
0.0
 30
0.0
 70
   128
 71
    19
 72
    14
 73
   129
  0
VERTEX
  5
445
  8
0
 62
     9
 10
0.0
 20
0.0
 30
0.0
 70
   128
 71
   136
 72
   131
 73
   140
  0
VERTEX
  5
446
  8
0
 62
     9
 10
0.0
 20
0.0
 30
0.0
 70
   128
 71
   131
 72
   137
 73
   139
  0
VERTEX
  5
447
  8
0
 62
     9
 10
0.0
 20
0.0
 30
0.0
 70
   128
 71
   140
 72
   131
 73
   126
  0
VERTEX
  5
448
  8
0
 62
     9
 10
0.0
 20
0.0
 30
0.0
 70
   128
 71
   135
 72
   136
 73
   132
  0
VERTEX
  5
449
  8
0
 62
     9
 10
0.0
 20
0.0
 30
0.0
 70
   128
 71
   140
 72
   132
 73
   136
  0
VERTEX
  5
44A
  8
0
 62
     9
 10
0.0
 20
0.0
 30
0.0
 70
   128
 71
   128
 72
   134
 73
   127
  0
VERTEX
  5
44B
  8
0
 62
     9
 10
0.0
 20
0.0
 30
0.0
 70
   128
 71
   135
 72
   132
 73
   138
  0
VERTEX
  5
44C
  8
0
 62
     9
 10
0.0
 20
0.0
 30
0.0
 70
   128
 71
    86
 72
   127
 73
    84
  0
VERTEX
  5
44D
  8
0
 62
     9
 10
0.0
 20
0.0
 30
0.0
 70
   128
 71
   129
 72
   130
 73
    19
  0
VERTEX
  5
44E
  8
0
 62
     9
 10
0.0
 20
0.0
 30
0.0
 70
   128
 71
   129
 72
    14
 73
   115
  0
VERTEX
  5
44F
  8
0
 62
     9
 10
0.0
 20
0.0
 30
0.0
 70
   128
 71
   111
 72
   126
 73
   113
  0
VERTEX
  5
450
  8
0
 62
     9
 10
0.0
 20
0.0
 30
0.0
 70
   128
 71
   108
 72
   140
 73
   111
  0
VERTEX
  5
451
  8
0
 62
     9
 10
0.0
 20
0.0
 30
0.0
 70
   128
 71
   105
 72
   140
 73
   108
  0
VERTEX
  5
452
  8
0
 62
     9
 10
0.0
 20
0.0
 30
0.0
 70
   128
 71
   140
 72
   126
 73
   111
  0
VERTEX
  5
453
  8
0
 62
     9
 10
0.0
 20
0.0
 30
0.0
 70
   128
 71
   132
 72
   140
 73
   105
  0
VERTEX
  5
454
  8
0
 62
     9
 10
0.0
 20
0.0
 30
0.0
 70
   128
 71
   132
 72
   106
 73
   104
  0
VERTEX
  5
455
  8
0
 62
     9
 10
0.0
 20
0.0
 30
0.0
 70
   128
 71
   138
 72
   132
 73
   104
  0
VERTEX
  5
456
  8
0
 62
     9
 10
0.0
 20
0.0
 30
0.0
 70
   128
 71
   138
 72
   101
 73
    83
  0
SEQEND
  5
457
  8
0
 62
     9
  0
ENDBLK
  5
45A
  8
0
  0
BLOCK
  8
0
  2
1_1_
 70
     0
 10
0.0
 20
0.0
 30
0.0
  3
1_1_
  1

  0
POLYLINE
  5
45C
  8
0
 62
     9
 66
     1
 10
0.0
 20
0.0
 30
0.0
 70
    64
 71
    72
 72
   138
  0
VERTEX
  5
45D
  8
0
 10
66.50215911865234
 20
16.0
 30
227.8786163330078
 70
   192
  0
VERTEX
  5
45E
  8
0
 10
75.31059265136719
 20
16.0
 30
214.8552703857422
 70
   192
  0
VERTEX
  5
45F
  8
0
 10
82.7950210571289
 20
16.0
 30
229.8791656494141
 70
   192
  0
VERTEX
  5
460
  8
0
 10
50.20928955078125
 20
16.0
 30
225.8780822753906
 70
   192
  0
VERTEX
  5
461
  8
0
 10
60.20226287841797
 20
16.0
 30
212.9940185546875
 70
   192
  0
VERTEX
  5
462
  8
0
 10
90.41974639892578
 20
16.0
 30
216.7104187011719
 70
   192
  0
VERTEX
  5
463
  8
0
 10
45.0952033996582
 20
16.0
 30
211.1233520507812
 70
   192
  0
VERTEX
  5
464
  8
0
 10
34.02792358398438
 20
16.0
 30
223.4361877441406
 70
   192
  0
VERTEX
  5
465
  8
0
 10
30.6099681854248
 20
16.0
 30
207.9052124023438
 70
   192
  0
VERTEX
  5
466
  8
0
 10
17.45611381530762
 20
16.0
 30
201.8076629638672
 70
   192
  0
VERTEX
  5
467
  8
0
 10
18.14124488830566
 20
16.0
 30
219.8278656005859
 70
   192
  0
VERTEX
  5
468
  8
0
 10
4.712414264678955
 20
16.0
 30
212.5522918701172
 70
   192
  0
VERTEX
  5
469
  8
0
 10
7.411935806274414
 20
16.0
 30
192.6769409179688
 70
   192
  0
VERTEX
  5
46A
  8
0
 10
6.67061710357666
 20
16.0
 30
146.014892578125
 70
   192
  0
VERTEX
  5
46B
  8
0
 10
6.858596324920654
 20
16.0
 30
161.2106475830078
 70
   192
  0
VERTEX
  5
46C
  8
0
 10
-7.084458827972412
 20
16.0
 30
149.5479278564453
 70
   192
  0
VERTEX
  5
46D
  8
0
 10
-4.138086318969727
 20
16.0
 30
198.9469757080078
 70
   192
  0
VERTEX
  5
46E
  8
0
 10
-8.465384483337402
 20
16.0
 30
183.0878753662109
 70
   192
  0
VERTEX
  5
46F
  8
0
 10
-7.000420570373535
 20
16.0
 30
116.7152252197266
 70
   192
  0
VERTEX
  5
470
  8
0
 10
6.999578475952148
 20
16.0
 30
130.7452392578125
 70
   192
  0
VERTEX
  5
471
  8
0
 10
-7.019628047943115
 20
16.0
 30
133.1309661865234
 70
   192
  0
VERTEX
  5
472
  8
0
 10
-7.000422954559326
 20
16.0
 30
100.3000030517578
 70
   192
  0
VERTEX
  5
473
  8
0
 10
6.999577045440674
 20
16.0
 30
100.3000030517578
 70
   192
  0
VERTEX
  5
474
  8
0
 10
6.999577522277832
 20
16.0
 30
115.5226211547852
 70
   192
  0
VERTEX
  5
475
  8
0
 10
-7.788773059844971
 20
16.0
 30
166.2876892089844
 70
   192
  0
VERTEX
  5
476
  8
0
 10
5.091055870056152
 20
16.0
 30
178.414794921875
 70
   192
  0
VERTEX
  5
477
  8
0
 10
105.5289077758789
 20
16.0
 30
218.5655822753906
 70
   192
  0
VERTEX
  5
478
  8
0
 10
99.087890625
 20
16.0
 30
231.8796997070312
 70
   192
  0
VERTEX
  5
479
  8
0
 10
120.6380615234375
 20
16.0
 30
220.4207305908203
 70
   192
  0
VERTEX
  5
47A
  8
0
 10
115.3807601928711
 20
16.0
 30
233.8802337646484
 70
   192
  0
VERTEX
  5
47B
  8
0
 10
131.6736297607422
 20
16.0
 30
235.8807830810547
 70
   192
  0
VERTEX
  5
47C
  8
0
 10
135.7472229003906
 20
16.0
 30
222.2758941650391
 70
   192
  0
VERTEX
  5
47D
  8
0
 10
150.8563690185547
 20
16.0
 30
224.1310577392578
 70
   192
  0
VERTEX
  5
47E
  8
0
 10
147.9664916992188
 20
16.0
 30
237.8813171386719
 70
   192
  0
VERTEX
  5
47F
  8
0
 10
164.2593536376953
 20
16.0
 30
239.8818511962891
 70
   192
  0
VERTEX
  5
480
  8
0
 10
165.9655303955078
 20
16.0
 30
225.9862060546875
 70
   192
  0
VERTEX
  5
481
  8
0
 10
-7.000420570373535
 20
-16.0
 30
116.7182235717773
 70
   192
  0
VERTEX
  5
482
  8
0
 10
-7.000422954559326
 20
-16.0
 30
100.3000030517578
 70
   192
  0
VERTEX
  5
483
  8
0
 10
-7.785438060760498
 20
-16.0
 30
166.2990264892578
 70
   192
  0
VERTEX
  5
484
  8
0
 10
-7.019958972930908
 20
-16.0
 30
133.1372222900391
 70
   192
  0
VERTEX
  5
485
  8
0
 10
4.703668117523193
 20
-16.0
 30
212.5596008300781
 70
   192
  0
VERTEX
  5
486
  8
0
 10
-4.13261079788208
 20
-16.0
 30
198.9583129882812
 70
   192
  0
VERTEX
  5
487
  8
0
 10
-8.453409194946289
 20
-16.0
 30
183.0978088378906
 70
   192
  0
VERTEX
  5
488
  8
0
 10
50.19934844970703
 20
-16.0
 30
225.7872924804688
 70
   192
  0
VERTEX
  5
489
  8
0
 10
34.01658248901367
 20
-16.0
 30
223.3495483398438
 70
   192
  0
VERTEX
  5
48A
  8
0
 10
18.1285514831543
 20
-16.0
 30
219.7906036376953
 70
   192
  0
VERTEX
  5
48B
  8
0
 10
99.08221435546875
 20
-16.0
 30
231.8278198242188
 70
   192
  0
VERTEX
  5
48C
  8
0
 10
82.78792572021484
 20
-16.0
 30
229.8143157958984
 70
   192
  0
VERTEX
  5
48D
  8
0
 10
66.49363708496094
 20
-16.0
 30
227.8007965087891
 70
   192
  0
VERTEX
  5
48E
  8
0
 10
115.3764953613281
 20
-16.0
 30
233.8413238525391
 70
   192
  0
VERTEX
  5
48F
  8
0
 10
131.6707916259766
 20
-16.0
 30
235.8548431396484
 70
   192
  0
VERTEX
  5
490
  8
0
 10
147.9650726318359
 20
-16.0
 30
237.8683471679688
 70
   192
  0
VERTEX
  5
491
  8
0
 10
164.2593536376953
 20
-16.0
 30
239.8818511962891
 70
   192
  0
VERTEX
  5
492
  8
0
 10
-7.085906028747559
 20
-16.0
 30
149.5580444335938
 70
   192
  0
VERTEX
  5
493
  8
0
 10
6.999577522277832
 20
-16.0
 30
115.5214080810547
 70
   192
  0
VERTEX
  5
494
  8
0
 10
6.999577045440674
 20
-16.0
 30
100.3000030517578
 70
   192
  0
VERTEX
  5
495
  8
0
 10
105.5337295532227
 20
-16.0
 30
218.5659942626953
 70
   192
  0
VERTEX
  5
496
  8
0
 10
90.42578125
 20
-16.0
 30
216.7109375
 70
   192
  0
VERTEX
  5
497
  8
0
 10
6.999579429626465
 20
-16.0
 30
161.1856536865234
 70
   192
  0
VERTEX
  5
498
  8
0
 10
6.999578475952148
 20
-16.0
 30
145.9642333984375
 70
   192
  0
VERTEX
  5
499
  8
0
 10
6.99957799911499
 20
-16.0
 30
130.7428283691406
 70
   192
  0
VERTEX
  5
49A
  8
0
 10
9.030220031738281
 20
-16.0
 30
191.3296356201172
 70
   192
  0
VERTEX
  5
49B
  8
0
 10
7.645267009735107
 20
-16.0
 30
176.3120422363281
 70
   192
  0
VERTEX
  5
49C
  8
0
 10
15.28374099731445
 20
-16.0
 30
202.7821502685547
 70
   192
  0
VERTEX
  5
49D
  8
0
 10
44.71864318847656
 20
-16.0
 30
211.9858551025391
 70
   192
  0
VERTEX
  5
49E
  8
0
 10
120.6416778564453
 20
-16.0
 30
220.4210510253906
 70
   192
  0
VERTEX
  5
49F
  8
0
 10
135.7496337890625
 20
-16.0
 30
222.2761077880859
 70
   192
  0
VERTEX
  5
4A0
  8
0
 10
150.8575744628906
 20
-16.0
 30
224.1311645507812
 70
   192
  0
VERTEX
  5
4A1
  8
0
 10
165.9655303955078
 20
-16.0
 30
225.9862060546875
 70
   192
  0
VERTEX
  5
4A2
  8
0
 10
75.31783294677734
 20
-16.0
 30
214.8558959960938
 70
   192
  0
VERTEX
  5
4A3
  8
0
 10
59.76762390136719
 20
-16.0
 30
213.9701538085938
 70
   192
  0
VERTEX
  5
4A4
  8
0
 10
28.7347412109375
 20
-16.0
 30
208.7730560302734
 70
   192
  0
VERTEX
  5
4A5
  8
0
 62
     9
 10
0.0
 20
0.0
 30
0.0
 70
   128
 71
     3
 72
     2
 73
     1
  0
VERTEX
  5
4A6
  8
0
 62
     9
 10
0.0
 20
0.0
 30
0.0
 70
   128
 71
     1
 72
     5
 73
     4
  0
VERTEX
  5
4A7
  8
0
 62
     9
 10
0.0
 20
0.0
 30
0.0
 70
   128
 71
     6
 72
     2
 73
     3
  0
VERTEX
  5
4A8
  8
0
 62
     9
 10
0.0
 20
0.0
 30
0.0
 70
   128
 71
     7
 72
     4
 73
     5
  0
VERTEX
  5
4A9
  8
0
 62
     9
 10
0.0
 20
0.0
 30
0.0
 70
   128
 71
     8
 72
     4
 73
     7
  0
VERTEX
  5
4AA
  8
0
 62
     9
 10
0.0
 20
0.0
 30
0.0
 70
   128
 71
     7
 72
     9
 73
     8
  0
VERTEX
  5
4AB
  8
0
 62
     9
 10
0.0
 20
0.0
 30
0.0
 70
   128
 71
     2
 72
     5
 73
     1
  0
VERTEX
  5
4AC
  8
0
 62
     9
 10
0.0
 20
0.0
 30
0.0
 70
   128
 71
    11
 72
     9
 73
    10
  0
VERTEX
  5
4AD
  8
0
 62
     9
 10
0.0
 20
0.0
 30
0.0
 70
   128
 71
     9
 72
    11
 73
     8
  0
VERTEX
  5
4AE
  8
0
 62
     9
 10
0.0
 20
0.0
 30
0.0
 70
   128
 71
    10
 72
    12
 73
    11
  0
VERTEX
  5
4AF
  8
0
 62
     9
 10
0.0
 20
0.0
 30
0.0
 70
   128
 71
    10
 72
    13
 73
    12
  0
VERTEX
  5
4B0
  8
0
 62
     9
 10
0.0
 20
0.0
 30
0.0
 70
   128
 71
    16
 72
    15
 73
    14
  0
VERTEX
  5
4B1
  8
0
 62
     9
 10
0.0
 20
0.0
 30
0.0
 70
   128
 71
    18
 72
    17
 73
    13
  0
VERTEX
  5
4B2
  8
0
 62
     9
 10
0.0
 20
0.0
 30
0.0
 70
   128
 71
    21
 72
    20
 73
    19
  0
VERTEX
  5
4B3
  8
0
 62
     9
 10
0.0
 20
0.0
 30
0.0
 70
   128
 71
    24
 72
    23
 73
    22
  0
VERTEX
  5
4B4
  8
0
 62
     9
 10
0.0
 20
0.0
 30
0.0
 70
   128
 71
    19
 72
    20
 73
    24
  0
VERTEX
  5
4B5
  8
0
 62
     9
 10
0.0
 20
0.0
 30
0.0
 70
   128
 71
    19
 72
    24
 73
    22
  0
VERTEX
  5
4B6
  8
0
 62
     9
 10
0.0
 20
0.0
 30
0.0
 70
   128
 71
    21
 72
    14
 73
    20
  0
VERTEX
  5
4B7
  8
0
 62
     9
 10
0.0
 20
0.0
 30
0.0
 70
   128
 71
    15
 72
    16
 73
    25
  0
VERTEX
  5
4B8
  8
0
 62
     9
 10
0.0
 20
0.0
 30
0.0
 70
   128
 71
    14
 72
    21
 73
    16
  0
VERTEX
  5
4B9
  8
0
 62
     9
 10
0.0
 20
0.0
 30
0.0
 70
   128
 71
    25
 72
    18
 73
    26
  0
VERTEX
  5
4BA
  8
0
 62
     9
 10
0.0
 20
0.0
 30
0.0
 70
   128
 71
    26
 72
    15
 73
    25
  0
VERTEX
  5
4BB
  8
0
 62
     9
 10
0.0
 20
0.0
 30
0.0
 70
   128
 71
    12
 72
    13
 73
    17
  0
VERTEX
  5
4BC
  8
0
 62
     9
 10
0.0
 20
0.0
 30
0.0
 70
   128
 71
    18
 72
    13
 73
    26
  0
VERTEX
  5
4BD
  8
0
 62
     9
 10
0.0
 20
0.0
 30
0.0
 70
   128
 71
    28
 72
    27
 73
     6
  0
VERTEX
  5
4BE
  8
0
 62
     9
 10
0.0
 20
0.0
 30
0.0
 70
   128
 71
     6
 72
     3
 73
    28
  0
VERTEX
  5
4BF
  8
0
 62
     9
 10
0.0
 20
0.0
 30
0.0
 70
   128
 71
    27
 72
    30
 73
    29
  0
VERTEX
  5
4C0
  8
0
 62
     9
 10
0.0
 20
0.0
 30
0.0
 70
   128
 71
    30
 72
    27
 73
    28
  0
VERTEX
  5
4C1
  8
0
 62
     9
 10
0.0
 20
0.0
 30
0.0
 70
   128
 71
    32
 72
    29
 73
    31
  0
VERTEX
  5
4C2
  8
0
 62
     9
 10
0.0
 20
0.0
 30
0.0
 70
   128
 71
    30
 72
    31
 73
    29
  0
VERTEX
  5
4C3
  8
0
 62
     9
 10
0.0
 20
0.0
 30
0.0
 70
   128
 71
    34
 72
    33
 73
    32
  0
VERTEX
  5
4C4
  8
0
 62
     9
 10
0.0
 20
0.0
 30
0.0
 70
   128
 71
    32
 72
    31
 73
    34
  0
VERTEX
  5
4C5
  8
0
 62
     9
 10
0.0
 20
0.0
 30
0.0
 70
   128
 71
    35
 72
    33
 73
    34
  0
VERTEX
  5
4C6
  8
0
 62
     9
 10
0.0
 20
0.0
 30
0.0
 70
   128
 71
    35
 72
    36
 73
    33
  0
VERTEX
  5
4C7
  8
0
 62
     9
 10
0.0
 20
0.0
 30
0.0
 70
   128
 71
    22
 72
    38
 73
    37
  0
VERTEX
  5
4C8
  8
0
 62
     9
 10
0.0
 20
0.0
 30
0.0
 70
   128
 71
    16
 72
    39
 73
    25
  0
VERTEX
  5
4C9
  8
0
 62
     9
 10
0.0
 20
0.0
 30
0.0
 70
   128
 71
    21
 72
    19
 73
    40
  0
VERTEX
  5
4CA
  8
0
 62
     9
 10
0.0
 20
0.0
 30
0.0
 70
   128
 71
    42
 72
    41
 73
    12
  0
VERTEX
  5
4CB
  8
0
 62
     9
 10
0.0
 20
0.0
 30
0.0
 70
   128
 71
    43
 72
    17
 73
    18
  0
VERTEX
  5
4CC
  8
0
 62
     9
 10
0.0
 20
0.0
 30
0.0
 70
   128
 71
     4
 72
     8
 73
    44
  0
VERTEX
  5
4CD
  8
0
 62
     9
 10
0.0
 20
0.0
 30
0.0
 70
   128
 71
    11
 72
    46
 73
    45
  0
VERTEX
  5
4CE
  8
0
 62
     9
 10
0.0
 20
0.0
 30
0.0
 70
   128
 71
     3
 72
    48
 73
    47
  0
VERTEX
  5
4CF
  8
0
 62
     9
 10
0.0
 20
0.0
 30
0.0
 70
   128
 71
     4
 72
    49
 73
     1
  0
VERTEX
  5
4D0
  8
0
 62
     9
 10
0.0
 20
0.0
 30
0.0
 70
   128
 71
    30
 72
    28
 73
    50
  0
VERTEX
  5
4D1
  8
0
 62
     9
 10
0.0
 20
0.0
 30
0.0
 70
   128
 71
    47
 72
    50
 73
    28
  0
VERTEX
  5
4D2
  8
0
 62
     9
 10
0.0
 20
0.0
 30
0.0
 70
   128
 71
    51
 72
    31
 73
    30
  0
VERTEX
  5
4D3
  8
0
 62
     9
 10
0.0
 20
0.0
 30
0.0
 70
   128
 71
    30
 72
    50
 73
    51
  0
VERTEX
  5
4D4
  8
0
 62
     9
 10
0.0
 20
0.0
 30
0.0
 70
   128
 71
    31
 72
    52
 73
    34
  0
VERTEX
  5
4D5
  8
0
 62
     9
 10
0.0
 20
0.0
 30
0.0
 70
   128
 71
    52
 72
    31
 73
    51
  0
VERTEX
  5
4D6
  8
0
 62
     9
 10
0.0
 20
0.0
 30
0.0
 70
   128
 71
    35
 72
    34
 73
    53
  0
VERTEX
  5
4D7
  8
0
 62
     9
 10
0.0
 20
0.0
 30
0.0
 70
   128
 71
    52
 72
    53
 73
    34
  0
VERTEX
  5
4D8
  8
0
 62
     9
 10
0.0
 20
0.0
 30
0.0
 70
   128
 71
     1
 72
    48
 73
     3
  0
VERTEX
  5
4D9
  8
0
 62
     9
 10
0.0
 20
0.0
 30
0.0
 70
   128
 71
     3
 72
    47
 73
    28
  0
VERTEX
  5
4DA
  8
0
 62
     9
 10
0.0
 20
0.0
 30
0.0
 70
   128
 71
     4
 72
    44
 73
    49
  0
VERTEX
  5
4DB
  8
0
 62
     9
 10
0.0
 20
0.0
 30
0.0
 70
   128
 71
     1
 72
    49
 73
    48
  0
VERTEX
  5
4DC
  8
0
 62
     9
 10
0.0
 20
0.0
 30
0.0
 70
   128
 71
     8
 72
    11
 73
    45
  0
VERTEX
  5
4DD
  8
0
 62
     9
 10
0.0
 20
0.0
 30
0.0
 70
   128
 71
     8
 72
    45
 73
    44
  0
VERTEX
  5
4DE
  8
0
 62
     9
 10
0.0
 20
0.0
 30
0.0
 70
   128
 71
    41
 72
    11
 73
    12
  0
VERTEX
  5
4DF
  8
0
 62
     9
 10
0.0
 20
0.0
 30
0.0
 70
   128
 71
    46
 72
    11
 73
    41
  0
VERTEX
  5
4E0
  8
0
 62
     9
 10
0.0
 20
0.0
 30
0.0
 70
   128
 71
    43
 72
    42
 73
    17
  0
VERTEX
  5
4E1
  8
0
 62
     9
 10
0.0
 20
0.0
 30
0.0
 70
   128
 71
    42
 72
    12
 73
    17
  0
VERTEX
  5
4E2
  8
0
 62
     9
 10
0.0
 20
0.0
 30
0.0
 70
   128
 71
    39
 72
    43
 73
    25
  0
VERTEX
  5
4E3
  8
0
 62
     9
 10
0.0
 20
0.0
 30
0.0
 70
   128
 71
    43
 72
    18
 73
    25
  0
VERTEX
  5
4E4
  8
0
 62
     9
 10
0.0
 20
0.0
 30
0.0
 70
   128
 71
    21
 72
    54
 73
    16
  0
VERTEX
  5
4E5
  8
0
 62
     9
 10
0.0
 20
0.0
 30
0.0
 70
   128
 71
    54
 72
    39
 73
    16
  0
VERTEX
  5
4E6
  8
0
 62
     9
 10
0.0
 20
0.0
 30
0.0
 70
   128
 71
    19
 72
    37
 73
    40
  0
VERTEX
  5
4E7
  8
0
 62
     9
 10
0.0
 20
0.0
 30
0.0
 70
   128
 71
    21
 72
    40
 73
    54
  0
VERTEX
  5
4E8
  8
0
 62
     9
 10
0.0
 20
0.0
 30
0.0
 70
   128
 71
    37
 72
    19
 73
    22
  0
VERTEX
  5
4E9
  8
0
 62
     9
 10
0.0
 20
0.0
 30
0.0
 70
   128
 71
    56
 72
    55
 73
    38
  0
VERTEX
  5
4EA
  8
0
 62
     9
 10
0.0
 20
0.0
 30
0.0
 70
   128
 71
    58
 72
    57
 73
    47
  0
VERTEX
  5
4EB
  8
0
 62
     9
 10
0.0
 20
0.0
 30
0.0
 70
   128
 71
    54
 72
    60
 73
    59
  0
VERTEX
  5
4EC
  8
0
 62
     9
 10
0.0
 20
0.0
 30
0.0
 70
   128
 71
    37
 72
    61
 73
    40
  0
VERTEX
  5
4ED
  8
0
 62
     9
 10
0.0
 20
0.0
 30
0.0
 70
   128
 71
    43
 72
    62
 73
    42
  0
VERTEX
  5
4EE
  8
0
 62
     9
 10
0.0
 20
0.0
 30
0.0
 70
   128
 71
    63
 72
    43
 73
    39
  0
VERTEX
  5
4EF
  8
0
 62
     9
 10
0.0
 20
0.0
 30
0.0
 70
   128
 71
    43
 72
    63
 73
    62
  0
VERTEX
  5
4F0
  8
0
 62
     9
 10
0.0
 20
0.0
 30
0.0
 70
   128
 71
    62
 72
    64
 73
    42
  0
VERTEX
  5
4F1
  8
0
 62
     9
 10
0.0
 20
0.0
 30
0.0
 70
   128
 71
    45
 72
    65
 73
    44
  0
VERTEX
  5
4F2
  8
0
 62
     9
 10
0.0
 20
0.0
 30
0.0
 70
   128
 71
    46
 72
    41
 73
    64
  0
VERTEX
  5
4F3
  8
0
 62
     9
 10
0.0
 20
0.0
 30
0.0
 70
   128
 71
    57
 72
    66
 73
    50
  0
VERTEX
  5
4F4
  8
0
 62
     9
 10
0.0
 20
0.0
 30
0.0
 70
   128
 71
    57
 72
    50
 73
    47
  0
VERTEX
  5
4F5
  8
0
 62
     9
 10
0.0
 20
0.0
 30
0.0
 70
   128
 71
    67
 72
    52
 73
    51
  0
VERTEX
  5
4F6
  8
0
 62
     9
 10
0.0
 20
0.0
 30
0.0
 70
   128
 71
    51
 72
    66
 73
    67
  0
VERTEX
  5
4F7
  8
0
 62
     9
 10
0.0
 20
0.0
 30
0.0
 70
   128
 71
    52
 72
    68
 73
    53
  0
VERTEX
  5
4F8
  8
0
 62
     9
 10
0.0
 20
0.0
 30
0.0
 70
   128
 71
    68
 72
    52
 73
    67
  0
VERTEX
  5
4F9
  8
0
 62
     9
 10
0.0
 20
0.0
 30
0.0
 70
   128
 71
    66
 72
    51
 73
    50
  0
VERTEX
  5
4FA
  8
0
 62
     9
 10
0.0
 20
0.0
 30
0.0
 70
   128
 71
    68
 72
    69
 73
    53
  0
VERTEX
  5
4FB
  8
0
 62
     9
 10
0.0
 20
0.0
 30
0.0
 70
   128
 71
    58
 72
    48
 73
    70
  0
VERTEX
  5
4FC
  8
0
 62
     9
 10
0.0
 20
0.0
 30
0.0
 70
   128
 71
    48
 72
    58
 73
    47
  0
VERTEX
  5
4FD
  8
0
 62
     9
 10
0.0
 20
0.0
 30
0.0
 70
   128
 71
    71
 72
    70
 73
    49
  0
VERTEX
  5
4FE
  8
0
 62
     9
 10
0.0
 20
0.0
 30
0.0
 70
   128
 71
    48
 72
    49
 73
    70
  0
VERTEX
  5
4FF
  8
0
 62
     9
 10
0.0
 20
0.0
 30
0.0
 70
   128
 71
    44
 72
    65
 73
    71
  0
VERTEX
  5
500
  8
0
 62
     9
 10
0.0
 20
0.0
 30
0.0
 70
   128
 71
    71
 72
    49
 73
    44
  0
VERTEX
  5
501
  8
0
 62
     9
 10
0.0
 20
0.0
 30
0.0
 70
   128
 71
    72
 72
    65
 73
    45
  0
VERTEX
  5
502
  8
0
 62
     9
 10
0.0
 20
0.0
 30
0.0
 70
   128
 71
    72
 72
    46
 73
    64
  0
VERTEX
  5
503
  8
0
 62
     9
 10
0.0
 20
0.0
 30
0.0
 70
   128
 71
    46
 72
    72
 73
    45
  0
VERTEX
  5
504
  8
0
 62
     9
 10
0.0
 20
0.0
 30
0.0
 70
   128
 71
    42
 72
    64
 73
    41
  0
VERTEX
  5
505
  8
0
 62
     9
 10
0.0
 20
0.0
 30
0.0
 70
   128
 71
    39
 72
    59
 73
    63
  0
VERTEX
  5
506
  8
0
 62
     9
 10
0.0
 20
0.0
 30
0.0
 70
   128
 71
    54
 72
    59
 73
    39
  0
VERTEX
  5
507
  8
0
 62
     9
 10
0.0
 20
0.0
 30
0.0
 70
   128
 71
    40
 72
    60
 73
    54
  0
VERTEX
  5
508
  8
0
 62
     9
 10
0.0
 20
0.0
 30
0.0
 70
   128
 71
    37
 72
    55
 73
    61
  0
VERTEX
  5
509
  8
0
 62
     9
 10
0.0
 20
0.0
 30
0.0
 70
   128
 71
    40
 72
    61
 73
    60
  0
VERTEX
  5
50A
  8
0
 62
     9
 10
0.0
 20
0.0
 30
0.0
 70
   128
 71
    55
 72
    37
 73
    38
  0
VERTEX
  5
50B
  8
0
 62
     9
 10
0.0
 20
0.0
 30
0.0
 70
   128
 71
    36
 72
    69
 73
    68
  0
VERTEX
  5
50C
  8
0
 62
     9
 10
0.0
 20
0.0
 30
0.0
 70
   128
 71
    29
 72
    66
 73
    57
  0
VERTEX
  5
50D
  8
0
 62
     9
 10
0.0
 20
0.0
 30
0.0
 70
   128
 71
    32
 72
    33
 73
    67
  0
VERTEX
  5
50E
  8
0
 62
     9
 10
0.0
 20
0.0
 30
0.0
 70
   128
 71
     2
 72
    70
 73
     5
  0
VERTEX
  5
50F
  8
0
 62
     9
 10
0.0
 20
0.0
 30
0.0
 70
   128
 71
    58
 72
     2
 73
     6
  0
VERTEX
  5
510
  8
0
 62
     9
 10
0.0
 20
0.0
 30
0.0
 70
   128
 71
    64
 72
     9
 73
    72
  0
VERTEX
  5
511
  8
0
 62
     9
 10
0.0
 20
0.0
 30
0.0
 70
   128
 71
    65
 72
     7
 73
    71
  0
VERTEX
  5
512
  8
0
 62
     9
 10
0.0
 20
0.0
 30
0.0
 70
   128
 71
    15
 72
    26
 73
    63
  0
VERTEX
  5
513
  8
0
 62
     9
 10
0.0
 20
0.0
 30
0.0
 70
   128
 71
    10
 72
    62
 73
    13
  0
VERTEX
  5
514
  8
0
 62
     9
 10
0.0
 20
0.0
 30
0.0
 70
   128
 71
    60
 72
    14
 73
    59
  0
VERTEX
  5
515
  8
0
 62
     9
 10
0.0
 20
0.0
 30
0.0
 70
   128
 71
    15
 72
    59
 73
    14
  0
VERTEX
  5
516
  8
0
 62
     9
 10
0.0
 20
0.0
 30
0.0
 70
   128
 71
    61
 72
    20
 73
    14
  0
VERTEX
  5
517
  8
0
 62
     9
 10
0.0
 20
0.0
 30
0.0
 70
   128
 71
    14
 72
    60
 73
    61
  0
VERTEX
  5
518
  8
0
 62
     9
 10
0.0
 20
0.0
 30
0.0
 70
   128
 71
    20
 72
    55
 73
    24
  0
VERTEX
  5
519
  8
0
 62
     9
 10
0.0
 20
0.0
 30
0.0
 70
   128
 71
    55
 72
    20
 73
    61
  0
VERTEX
  5
51A
  8
0
 62
     9
 10
0.0
 20
0.0
 30
0.0
 70
   128
 71
    23
 72
    24
 73
    56
  0
VERTEX
  5
51B
  8
0
 62
     9
 10
0.0
 20
0.0
 30
0.0
 70
   128
 71
    55
 72
    56
 73
    24
  0
VERTEX
  5
51C
  8
0
 62
     9
 10
0.0
 20
0.0
 30
0.0
 70
   128
 71
    13
 72
    63
 73
    26
  0
VERTEX
  5
51D
  8
0
 62
     9
 10
0.0
 20
0.0
 30
0.0
 70
   128
 71
    15
 72
    63
 73
    59
  0
VERTEX
  5
51E
  8
0
 62
     9
 10
0.0
 20
0.0
 30
0.0
 70
   128
 71
    10
 72
    64
 73
    62
  0
VERTEX
  5
51F
  8
0
 62
     9
 10
0.0
 20
0.0
 30
0.0
 70
   128
 71
    13
 72
    62
 73
    63
  0
VERTEX
  5
520
  8
0
 62
     9
 10
0.0
 20
0.0
 30
0.0
 70
   128
 71
    72
 72
     9
 73
    65
  0
VERTEX
  5
521
  8
0
 62
     9
 10
0.0
 20
0.0
 30
0.0
 70
   128
 71
    10
 72
     9
 73
    64
  0
VERTEX
  5
522
  8
0
 62
     9
 10
0.0
 20
0.0
 30
0.0
 70
   128
 71
    71
 72
     7
 73
     5
  0
VERTEX
  5
523
  8
0
 62
     9
 10
0.0
 20
0.0
 30
0.0
 70
   128
 71
    65
 72
     9
 73
     7
  0
VERTEX
  5
524
  8
0
 62
     9
 10
0.0
 20
0.0
 30
0.0
 70
   128
 71
    58
 72
    70
 73
     2
  0
VERTEX
  5
525
  8
0
 62
     9
 10
0.0
 20
0.0
 30
0.0
 70
   128
 71
    70
 72
    71
 73
     5
  0
VERTEX
  5
526
  8
0
 62
     9
 10
0.0
 20
0.0
 30
0.0
 70
   128
 71
    57
 72
    58
 73
    27
  0
VERTEX
  5
527
  8
0
 62
     9
 10
0.0
 20
0.0
 30
0.0
 70
   128
 71
    58
 72
     6
 73
    27
  0
VERTEX
  5
528
  8
0
 62
     9
 10
0.0
 20
0.0
 30
0.0
 70
   128
 71
    32
 72
    66
 73
    29
  0
VERTEX
  5
529
  8
0
 62
     9
 10
0.0
 20
0.0
 30
0.0
 70
   128
 71
    29
 72
    57
 73
    27
  0
VERTEX
  5
52A
  8
0
 62
     9
 10
0.0
 20
0.0
 30
0.0
 70
   128
 71
    33
 72
    68
 73
    67
  0
VERTEX
  5
52B
  8
0
 62
     9
 10
0.0
 20
0.0
 30
0.0
 70
   128
 71
    32
 72
    67
 73
    66
  0
VERTEX
  5
52C
  8
0
 62
     9
 10
0.0
 20
0.0
 30
0.0
 70
   128
 71
    68
 72
    33
 73
    36
  0
VERTEX
  5
52D
  8
0
 62
     9
 10
0.0
 20
0.0
 30
0.0
 70
   128
 71
    35
 72
    53
 73
    69
  0
VERTEX
  5
52E
  8
0
 62
     9
 10
0.0
 20
0.0
 30
0.0
 70
   128
 71
    69
 72
    36
 73
    35
  0
SEQEND
  5
52F
  8
0
 62
     9
  0
ENDBLK
  5
532
  8
0
  0
BLOCK
  8
0
  2
44
 70
     0
 10
0.0
 20
0.0
 30
0.0
  3
44
  1

  0
POLYLINE
  5
534
  8
0
 62
     9
 66
     1
 10
0.0
 20
0.0
 30
0.0
 70
    64
 71
    66
 72
    96
  0
VERTEX
  5
535
  8
0
 10
17.65092658996582
 20
-3.52798056602478
 30
100.3000030517578
 70
   192
  0
VERTEX
  5
536
  8
0
 10
18.0
 20
0.0000000000001315
 30
100.3000030517578
 70
   192
  0
VERTEX
  5
537
  8
0
 10
17.9228630065918
 20
-1.662440776824951
 30
98.0
 70
   192
  0
VERTEX
  5
538
  8
0
 10
17.31191825866699
 20
-4.926403045654297
 30
98.0
 70
   192
  0
VERTEX
  5
539
  8
0
 10
16.62979507446289
 20
-6.88828706741333
 30
100.3000030517578
 70
   192
  0
VERTEX
  5
53A
  8
0
 10
16.11104774475098
 20
-8.02377986907959
 30
98.0
 70
   192
  0
VERTEX
  5
53B
  8
0
 10
14.97574806213379
 20
-9.986430168151855
 30
100.3000030517578
 70
   192
  0
VERTEX
  5
53C
  8
0
 10
12.7279224395752
 20
-12.7279224395752
 30
100.3000030517578
 70
   192
  0
VERTEX
  5
53D
  8
0
 10
14.36380958557129
 20
-10.84512424468994
 30
98.0
 70
   192
  0
VERTEX
  5
53E
  8
0
 10
12.1239595413208
 20
-13.2977819442749
 30
98.0
 70
   192
  0
VERTEX
  5
53F
  8
0
 10
9.986430168151855
 20
-14.97574806213379
 30
100.3000030517578
 70
   192
  0
VERTEX
  5
540
  8
0
 10
9.469493865966797
 20
-15.29506778717041
 30
98.0
 70
   192
  0
VERTEX
  5
541
  8
0
 10
6.88828706741333
 20
-16.62979507446289
 30
100.3000030517578
 70
   192
  0
VERTEX
  5
542
  8
0
 10
3.52798056602478
 20
-17.65092658996582
 30
100.3000030517578
 70
   192
  0
VERTEX
  5
543
  8
0
 10
6.498031616210938
 20
-16.77548027038574
 30
98.0
 70
   192
  0
VERTEX
  5
544
  8
0
 10
3.305030584335327
 20
-17.69260787963867
 30
98.0
 70
   192
  0
VERTEX
  5
545
  8
0
 10
-0.0000000000000753
 20
-18.0
 30
100.3000030517578
 70
   192
  0
VERTEX
  5
546
  8
0
 10
-0.0000000000000722
 20
-18.0
 30
98.0
 70
   192
  0
VERTEX
  5
547
  8
0
 10
17.92335510253906
 20
1.658171892166138
 30
98.0
 70
   192
  0
VERTEX
  5
548
  8
0
 10
17.65092658996582
 20
3.52798056602478
 30
100.3000030517578
 70
   192
  0
VERTEX
  5
549
  8
0
 10
17.31355667114258
 20
4.924338340759277
 30
98.0
 70
   192
  0
VERTEX
  5
54A
  8
0
 10
16.1153678894043
 20
8.0197114944458
 30
98.0
 70
   192
  0
VERTEX
  5
54B
  8
0
 10
16.62979507446289
 20
6.88828706741333
 30
100.3000030517578
 70
   192
  0
VERTEX
  5
54C
  8
0
 10
14.97574806213379
 20
9.986430168151855
 30
100.3000030517578
 70
   192
  0
VERTEX
  5
54D
  8
0
 10
14.36737442016602
 20
10.84550857543945
 30
98.0
 70
   192
  0
VERTEX
  5
54E
  8
0
 10
12.7279224395752
 20
12.7279224395752
 30
100.3000030517578
 70
   192
  0
VERTEX
  5
54F
  8
0
 10
12.13161563873291
 20
13.29934692382812
 30
98.0
 70
   192
  0
VERTEX
  5
550
  8
0
 10
9.453851699829102
 20
15.2575216293335
 30
98.0
 70
   192
  0
VERTEX
  5
551
  8
0
 10
9.986430168151855
 20
14.97574806213379
 30
100.3000030517578
 70
   192
  0
VERTEX
  5
552
  8
0
 10
6.88828706741333
 20
16.62979507446289
 30
100.3000030517578
 70
   192
  0
VERTEX
  5
553
  8
0
 10
6.512604713439941
 20
16.79656982421875
 30
98.0
 70
   192
  0
VERTEX
  5
554
  8
0
 10
3.52798056602478
 20
17.65092658996582
 30
100.3000030517578
 70
   192
  0
VERTEX
  5
555
  8
0
 10
3.310806751251221
 20
17.69421768188477
 30
98.0
 70
   192
  0
VERTEX
  5
556
  8
0
 10
-0.0000000000000775
 20
18.0
 30
100.3000030517578
 70
   192
  0
VERTEX
  5
557
  8
0
 10
-0.0000000000000744
 20
18.0
 30
98.0
 70
   192
  0
VERTEX
  5
558
  8
0
 10
-3.310806751251221
 20
-17.69421768188477
 30
98.0
 70
   192
  0
VERTEX
  5
559
  8
0
 10
-3.52798056602478
 20
-17.65092658996582
 30
100.3000030517578
 70
   192
  0
VERTEX
  5
55A
  8
0
 10
-14.36737442016602
 20
-10.84550857543945
 30
98.0
 70
   192
  0
VERTEX
  5
55B
  8
0
 10
-12.7279224395752
 20
-12.7279224395752
 30
100.3000030517578
 70
   192
  0
VERTEX
  5
55C
  8
0
 10
-12.13161563873291
 20
-13.29934692382812
 30
98.0
 70
   192
  0
VERTEX
  5
55D
  8
0
 10
-6.88828706741333
 20
-16.62979507446289
 30
100.3000030517578
 70
   192
  0
VERTEX
  5
55E
  8
0
 10
-6.512604713439941
 20
-16.79656982421875
 30
98.0
 70
   192
  0
VERTEX
  5
55F
  8
0
 10
-9.453851699829102
 20
-15.2575216293335
 30
98.0
 70
   192
  0
VERTEX
  5
560
  8
0
 10
-17.65092658996582
 20
-3.52798056602478
 30
100.3000030517578
 70
   192
  0
VERTEX
  5
561
  8
0
 10
-17.92335510253906
 20
-1.658171892166138
 30
98.0
 70
   192
  0
VERTEX
  5
562
  8
0
 10
-18.0
 20
0.0000000000001226
 30
100.3000030517578
 70
   192
  0
VERTEX
  5
563
  8
0
 10
-16.62979507446289
 20
-6.88828706741333
 30
100.3000030517578
 70
   192
  0
VERTEX
  5
564
  8
0
 10
-16.1153678894043
 20
-8.0197114944458
 30
98.0
 70
   192
  0
VERTEX
  5
565
  8
0
 10
-17.31355667114258
 20
-4.924338340759277
 30
98.0
 70
   192
  0
VERTEX
  5
566
  8
0
 10
-14.97574806213379
 20
9.986430168151855
 30
100.3000030517578
 70
   192
  0
VERTEX
  5
567
  8
0
 10
-16.62979507446289
 20
6.88828706741333
 30
100.3000030517578
 70
   192
  0
VERTEX
  5
568
  8
0
 10
-16.11104774475098
 20
8.02377986907959
 30
98.0
 70
   192
  0
VERTEX
  5
569
  8
0
 10
-17.31191825866699
 20
4.926403045654297
 30
98.0
 70
   192
  0
VERTEX
  5
56A
  8
0
 10
-17.65092658996582
 20
3.52798056602478
 30
100.3000030517578
 70
   192
  0
VERTEX
  5
56B
  8
0
 10
-17.9228630065918
 20
1.662440776824951
 30
98.0
 70
   192
  0
VERTEX
  5
56C
  8
0
 10
-9.986430168151855
 20
14.97574806213379
 30
100.3000030517578
 70
   192
  0
VERTEX
  5
56D
  8
0
 10
-12.7279224395752
 20
12.7279224395752
 30
100.3000030517578
 70
   192
  0
VERTEX
  5
56E
  8
0
 10
-12.1239595413208
 20
13.2977819442749
 30
98.0
 70
   192
  0
VERTEX
  5
56F
  8
0
 10
-14.36380958557129
 20
10.84512424468994
 30
98.0
 70
   192
  0
VERTEX
  5
570
  8
0
 10
-9.469493865966797
 20
15.29506778717041
 30
98.0
 70
   192
  0
VERTEX
  5
571
  8
0
 10
-6.88828706741333
 20
16.62979507446289
 30
100.3000030517578
 70
   192
  0
VERTEX
  5
572
  8
0
 10
-6.498031616210938
 20
16.77548027038574
 30
98.0
 70
   192
  0
VERTEX
  5
573
  8
0
 10
-3.52798056602478
 20
17.65092658996582
 30
100.3000030517578
 70
   192
  0
VERTEX
  5
574
  8
0
 10
-3.305030584335327
 20
17.69260787963867
 30
98.0
 70
   192
  0
VERTEX
  5
575
  8
0
 10
-14.97574806213379
 20
-9.986430168151855
 30
100.3000030517578
 70
   192
  0
VERTEX
  5
576
  8
0
 10
-9.986430168151855
 20
-14.97574806213379
 30
100.3000030517578
 70
   192
  0
VERTEX
  5
577
  8
0
 62
     9
 10
0.0
 20
0.0
 30
0.0
 70
   128
 71
     3
 72
     2
 73
     1
  0
VERTEX
  5
578
  8
0
 62
     9
 10
0.0
 20
0.0
 30
0.0
 70
   128
 71
     5
 72
     4
 73
     1
  0
VERTEX
  5
579
  8
0
 62
     9
 10
0.0
 20
0.0
 30
0.0
 70
   128
 71
     3
 72
     1
 73
     4
  0
VERTEX
  5
57A
  8
0
 62
     9
 10
0.0
 20
0.0
 30
0.0
 70
   128
 71
     5
 72
     7
 73
     6
  0
VERTEX
  5
57B
  8
0
 62
     9
 10
0.0
 20
0.0
 30
0.0
 70
   128
 71
     6
 72
     4
 73
     5
  0
VERTEX
  5
57C
  8
0
 62
     9
 10
0.0
 20
0.0
 30
0.0
 70
   128
 71
     9
 72
     7
 73
     8
  0
VERTEX
  5
57D
  8
0
 62
     9
 10
0.0
 20
0.0
 30
0.0
 70
   128
 71
     7
 72
     9
 73
     6
  0
VERTEX
  5
57E
  8
0
 62
     9
 10
0.0
 20
0.0
 30
0.0
 70
   128
 71
    11
 72
    10
 73
     8
  0
VERTEX
  5
57F
  8
0
 62
     9
 10
0.0
 20
0.0
 30
0.0
 70
   128
 71
     9
 72
     8
 73
    10
  0
VERTEX
  5
580
  8
0
 62
     9
 10
0.0
 20
0.0
 30
0.0
 70
   128
 71
    11
 72
    13
 73
    12
  0
VERTEX
  5
581
  8
0
 62
     9
 10
0.0
 20
0.0
 30
0.0
 70
   128
 71
    12
 72
    10
 73
    11
  0
VERTEX
  5
582
  8
0
 62
     9
 10
0.0
 20
0.0
 30
0.0
 70
   128
 71
    15
 72
    13
 73
    14
  0
VERTEX
  5
583
  8
0
 62
     9
 10
0.0
 20
0.0
 30
0.0
 70
   128
 71
    13
 72
    15
 73
    12
  0
VERTEX
  5
584
  8
0
 62
     9
 10
0.0
 20
0.0
 30
0.0
 70
   128
 71
    17
 72
    16
 73
    14
  0
VERTEX
  5
585
  8
0
 62
     9
 10
0.0
 20
0.0
 30
0.0
 70
   128
 71
    15
 72
    14
 73
    16
  0
VERTEX
  5
586
  8
0
 62
     9
 10
0.0
 20
0.0
 30
0.0
 70
   128
 71
    18
 72
    16
 73
    17
  0
VERTEX
  5
587
  8
0
 62
     9
 10
0.0
 20
0.0
 30
0.0
 70
   128
 71
     2
 72
     3
 73
    19
  0
VERTEX
  5
588
  8
0
 62
     9
 10
0.0
 20
0.0
 30
0.0
 70
   128
 71
    19
 72
    21
 73
    20
  0
VERTEX
  5
589
  8
0
 62
     9
 10
0.0
 20
0.0
 30
0.0
 70
   128
 71
    20
 72
     2
 73
    19
  0
VERTEX
  5
58A
  8
0
 62
     9
 10
0.0
 20
0.0
 30
0.0
 70
   128
 71
    23
 72
    21
 73
    22
  0
VERTEX
  5
58B
  8
0
 62
     9
 10
0.0
 20
0.0
 30
0.0
 70
   128
 71
    21
 72
    23
 73
    20
  0
VERTEX
  5
58C
  8
0
 62
     9
 10
0.0
 20
0.0
 30
0.0
 70
   128
 71
    25
 72
    24
 73
    22
  0
VERTEX
  5
58D
  8
0
 62
     9
 10
0.0
 20
0.0
 30
0.0
 70
   128
 71
    23
 72
    22
 73
    24
  0
VERTEX
  5
58E
  8
0
 62
     9
 10
0.0
 20
0.0
 30
0.0
 70
   128
 71
    25
 72
    27
 73
    26
  0
VERTEX
  5
58F
  8
0
 62
     9
 10
0.0
 20
0.0
 30
0.0
 70
   128
 71
    26
 72
    24
 73
    25
  0
VERTEX
  5
590
  8
0
 62
     9
 10
0.0
 20
0.0
 30
0.0
 70
   128
 71
    29
 72
    27
 73
    28
  0
VERTEX
  5
591
  8
0
 62
     9
 10
0.0
 20
0.0
 30
0.0
 70
   128
 71
    27
 72
    29
 73
    26
  0
VERTEX
  5
592
  8
0
 62
     9
 10
0.0
 20
0.0
 30
0.0
 70
   128
 71
    31
 72
    30
 73
    28
  0
VERTEX
  5
593
  8
0
 62
     9
 10
0.0
 20
0.0
 30
0.0
 70
   128
 71
    29
 72
    28
 73
    30
  0
VERTEX
  5
594
  8
0
 62
     9
 10
0.0
 20
0.0
 30
0.0
 70
   128
 71
    31
 72
    33
 73
    32
  0
VERTEX
  5
595
  8
0
 62
     9
 10
0.0
 20
0.0
 30
0.0
 70
   128
 71
    32
 72
    30
 73
    31
  0
VERTEX
  5
596
  8
0
 62
     9
 10
0.0
 20
0.0
 30
0.0
 70
   128
 71
    33
 72
    34
 73
    32
  0
VERTEX
  5
597
  8
0
 62
     9
 10
0.0
 20
0.0
 30
0.0
 70
   128
 71
    33
 72
    35
 73
    34
  0
VERTEX
  5
598
  8
0
 62
     9
 10
0.0
 20
0.0
 30
0.0
 70
   128
 71
    17
 72
    37
 73
    36
  0
VERTEX
  5
599
  8
0
 62
     9
 10
0.0
 20
0.0
 30
0.0
 70
   128
 71
    40
 72
    39
 73
    38
  0
VERTEX
  5
59A
  8
0
 62
     9
 10
0.0
 20
0.0
 30
0.0
 70
   128
 71
    43
 72
    42
 73
    41
  0
VERTEX
  5
59B
  8
0
 62
     9
 10
0.0
 20
0.0
 30
0.0
 70
   128
 71
    46
 72
    45
 73
    44
  0
VERTEX
  5
59C
  8
0
 62
     9
 10
0.0
 20
0.0
 30
0.0
 70
   128
 71
    49
 72
    48
 73
    47
  0
VERTEX
  5
59D
  8
0
 62
     9
 10
0.0
 20
0.0
 30
0.0
 70
   128
 71
    52
 72
    51
 73
    50
  0
VERTEX
  5
59E
  8
0
 62
     9
 10
0.0
 20
0.0
 30
0.0
 70
   128
 71
    55
 72
    54
 73
    53
  0
VERTEX
  5
59F
  8
0
 62
     9
 10
0.0
 20
0.0
 30
0.0
 70
   128
 71
    58
 72
    57
 73
    56
  0
VERTEX
  5
5A0
  8
0
 62
     9
 10
0.0
 20
0.0
 30
0.0
 70
   128
 71
    50
 72
    57
 73
    59
  0
VERTEX
  5
5A1
  8
0
 62
     9
 10
0.0
 20
0.0
 30
0.0
 70
   128
 71
    61
 72
    60
 73
    56
  0
VERTEX
  5
5A2
  8
0
 62
     9
 10
0.0
 20
0.0
 30
0.0
 70
   128
 71
    58
 72
    56
 73
    60
  0
VERTEX
  5
5A3
  8
0
 62
     9
 10
0.0
 20
0.0
 30
0.0
 70
   128
 71
    61
 72
    63
 73
    62
  0
VERTEX
  5
5A4
  8
0
 62
     9
 10
0.0
 20
0.0
 30
0.0
 70
   128
 71
    62
 72
    60
 73
    61
  0
VERTEX
  5
5A5
  8
0
 62
     9
 10
0.0
 20
0.0
 30
0.0
 70
   128
 71
    64
 72
    63
 73
    34
  0
VERTEX
  5
5A6
  8
0
 62
     9
 10
0.0
 20
0.0
 30
0.0
 70
   128
 71
    63
 72
    64
 73
    62
  0
VERTEX
  5
5A7
  8
0
 62
     9
 10
0.0
 20
0.0
 30
0.0
 70
   128
 71
    64
 72
    34
 73
    35
  0
VERTEX
  5
5A8
  8
0
 62
     9
 10
0.0
 20
0.0
 30
0.0
 70
   128
 71
    52
 72
    50
 73
    59
  0
VERTEX
  5
5A9
  8
0
 62
     9
 10
0.0
 20
0.0
 30
0.0
 70
   128
 71
    59
 72
    57
 73
    58
  0
VERTEX
  5
5AA
  8
0
 62
     9
 10
0.0
 20
0.0
 30
0.0
 70
   128
 71
    53
 72
    54
 73
    51
  0
VERTEX
  5
5AB
  8
0
 62
     9
 10
0.0
 20
0.0
 30
0.0
 70
   128
 71
    53
 72
    51
 73
    52
  0
VERTEX
  5
5AC
  8
0
 62
     9
 10
0.0
 20
0.0
 30
0.0
 70
   128
 71
    55
 72
    45
 73
    46
  0
VERTEX
  5
5AD
  8
0
 62
     9
 10
0.0
 20
0.0
 30
0.0
 70
   128
 71
    55
 72
    46
 73
    54
  0
VERTEX
  5
5AE
  8
0
 62
     9
 10
0.0
 20
0.0
 30
0.0
 70
   128
 71
    44
 72
    49
 73
    47
  0
VERTEX
  5
5AF
  8
0
 62
     9
 10
0.0
 20
0.0
 30
0.0
 70
   128
 71
    45
 72
    49
 73
    44
  0
VERTEX
  5
5B0
  8
0
 62
     9
 10
0.0
 20
0.0
 30
0.0
 70
   128
 71
    65
 72
    48
 73
    38
  0
VERTEX
  5
5B1
  8
0
 62
     9
 10
0.0
 20
0.0
 30
0.0
 70
   128
 71
    47
 72
    48
 73
    65
  0
VERTEX
  5
5B2
  8
0
 62
     9
 10
0.0
 20
0.0
 30
0.0
 70
   128
 71
    66
 72
    39
 73
    40
  0
VERTEX
  5
5B3
  8
0
 62
     9
 10
0.0
 20
0.0
 30
0.0
 70
   128
 71
    39
 72
    65
 73
    38
  0
VERTEX
  5
5B4
  8
0
 62
     9
 10
0.0
 20
0.0
 30
0.0
 70
   128
 71
    66
 72
    43
 73
    41
  0
VERTEX
  5
5B5
  8
0
 62
     9
 10
0.0
 20
0.0
 30
0.0
 70
   128
 71
    43
 72
    66
 73
    40
  0
VERTEX
  5
5B6
  8
0
 62
     9
 10
0.0
 20
0.0
 30
0.0
 70
   128
 71
    42
 72
    36
 73
    37
  0
VERTEX
  5
5B7
  8
0
 62
     9
 10
0.0
 20
0.0
 30
0.0
 70
   128
 71
    42
 72
    37
 73
    41
  0
VERTEX
  5
5B8
  8
0
 62
     9
 10
0.0
 20
0.0
 30
0.0
 70
   128
 71
    36
 72
    18
 73
    17
  0
VERTEX
  5
5B9
  8
0
 62
     9
 10
0.0
 20
0.0
 30
0.0
 70
   128
 71
     8
 72
     7
 73
    11
  0
VERTEX
  5
5BA
  8
0
 62
     9
 10
0.0
 20
0.0
 30
0.0
 70
   128
 71
    65
 72
    30
 73
    47
  0
VERTEX
  5
5BB
  8
0
 62
     9
 10
0.0
 20
0.0
 30
0.0
 70
   128
 71
     5
 72
    13
 73
    11
  0
VERTEX
  5
5BC
  8
0
 62
     9
 10
0.0
 20
0.0
 30
0.0
 70
   128
 71
    11
 72
     7
 73
     5
  0
VERTEX
  5
5BD
  8
0
 62
     9
 10
0.0
 20
0.0
 30
0.0
 70
   128
 71
    13
 72
     1
 73
    14
  0
VERTEX
  5
5BE
  8
0
 62
     9
 10
0.0
 20
0.0
 30
0.0
 70
   128
 71
     1
 72
    13
 73
     5
  0
VERTEX
  5
5BF
  8
0
 62
     9
 10
0.0
 20
0.0
 30
0.0
 70
   128
 71
    14
 72
     1
 73
     2
  0
VERTEX
  5
5C0
  8
0
 62
     9
 10
0.0
 20
0.0
 30
0.0
 70
   128
 71
     2
 72
    20
 73
    17
  0
VERTEX
  5
5C1
  8
0
 62
     9
 10
0.0
 20
0.0
 30
0.0
 70
   128
 71
    17
 72
    14
 73
     2
  0
VERTEX
  5
5C2
  8
0
 62
     9
 10
0.0
 20
0.0
 30
0.0
 70
   128
 71
    66
 72
    24
 73
    26
  0
VERTEX
  5
5C3
  8
0
 62
     9
 10
0.0
 20
0.0
 30
0.0
 70
   128
 71
    37
 72
    23
 73
    41
  0
VERTEX
  5
5C4
  8
0
 62
     9
 10
0.0
 20
0.0
 30
0.0
 70
   128
 71
    30
 72
    32
 73
    47
  0
VERTEX
  5
5C5
  8
0
 62
     9
 10
0.0
 20
0.0
 30
0.0
 70
   128
 71
    29
 72
    65
 73
    39
  0
VERTEX
  5
5C6
  8
0
 62
     9
 10
0.0
 20
0.0
 30
0.0
 70
   128
 71
    61
 72
    54
 73
    63
  0
VERTEX
  5
5C7
  8
0
 62
     9
 10
0.0
 20
0.0
 30
0.0
 70
   128
 71
    46
 72
    44
 73
    34
  0
VERTEX
  5
5C8
  8
0
 62
     9
 10
0.0
 20
0.0
 30
0.0
 70
   128
 71
    51
 72
    56
 73
    50
  0
VERTEX
  5
5C9
  8
0
 62
     9
 10
0.0
 20
0.0
 30
0.0
 70
   128
 71
    61
 72
    56
 73
    51
  0
VERTEX
  5
5CA
  8
0
 62
     9
 10
0.0
 20
0.0
 30
0.0
 70
   128
 71
    57
 72
    50
 73
    56
  0
VERTEX
  5
5CB
  8
0
 62
     9
 10
0.0
 20
0.0
 30
0.0
 70
   128
 71
    46
 72
    63
 73
    54
  0
VERTEX
  5
5CC
  8
0
 62
     9
 10
0.0
 20
0.0
 30
0.0
 70
   128
 71
    54
 72
    61
 73
    51
  0
VERTEX
  5
5CD
  8
0
 62
     9
 10
0.0
 20
0.0
 30
0.0
 70
   128
 71
    44
 72
    32
 73
    34
  0
VERTEX
  5
5CE
  8
0
 62
     9
 10
0.0
 20
0.0
 30
0.0
 70
   128
 71
    46
 72
    34
 73
    63
  0
VERTEX
  5
5CF
  8
0
 62
     9
 10
0.0
 20
0.0
 30
0.0
 70
   128
 71
    65
 72
    29
 73
    30
  0
VERTEX
  5
5D0
  8
0
 62
     9
 10
0.0
 20
0.0
 30
0.0
 70
   128
 71
    44
 72
    47
 73
    32
  0
VERTEX
  5
5D1
  8
0
 62
     9
 10
0.0
 20
0.0
 30
0.0
 70
   128
 71
    26
 72
    39
 73
    66
  0
VERTEX
  5
5D2
  8
0
 62
     9
 10
0.0
 20
0.0
 30
0.0
 70
   128
 71
    26
 72
    29
 73
    39
  0
VERTEX
  5
5D3
  8
0
 62
     9
 10
0.0
 20
0.0
 30
0.0
 70
   128
 71
    66
 72
    41
 73
    24
  0
VERTEX
  5
5D4
  8
0
 62
     9
 10
0.0
 20
0.0
 30
0.0
 70
   128
 71
    20
 72
    23
 73
    37
  0
VERTEX
  5
5D5
  8
0
 62
     9
 10
0.0
 20
0.0
 30
0.0
 70
   128
 71
    23
 72
    24
 73
    41
  0
VERTEX
  5
5D6
  8
0
 62
     9
 10
0.0
 20
0.0
 30
0.0
 70
   128
 71
    37
 72
    17
 73
    20
  0
SEQEND
  5
5D7
  8
0
 62
     9
  0
ENDBLK
  5
5DA
  8
0
  0
BLOCK
  8
0
  2
1_2_
 70
     0
 10
0.0
 20
0.0
 30
0.0
  3
1_2_
  1

  0
POLYLINE
  5
5DC
  8
0
 62
     9
 66
     1
 10
0.0
 20
0.0
 30
0.0
 70
    64
 71
    16
 72
    26
  0
VERTEX
  5
5DD
  8
0
 10
20.0
 20
20.0
 30
63.0
 70
   192
  0
VERTEX
  5
5DE
  8
0
 10
-20.0
 20
20.0
 30
63.0
 70
   192
  0
VERTEX
  5
5DF
  8
0
 10
-20.0
 20
45.0
 30
63.0
 70
   192
  0
VERTEX
  5
5E0
  8
0
 10
20.0
 20
45.0
 30
63.0
 70
   192
  0
VERTEX
  5
5E1
  8
0
 10
-20.0
 20
45.0
 30
23.0
 70
   192
  0
VERTEX
  5
5E2
  8
0
 10
20.0
 20
45.0
 30
23.0
 70
   192
  0
VERTEX
  5
5E3
  8
0
 10
-20.0
 20
20.0
 30
100.0
 70
   192
  0
VERTEX
  5
5E4
  8
0
 10
20.0
 20
20.0
 30
100.0
 70
   192
  0
VERTEX
  5
5E5
  8
0
 10
20.0
 20
-20.0
 30
100.0
 70
   192
  0
VERTEX
  5
5E6
  8
0
 10
-20.0
 20
-20.0
 30
100.0
 70
   192
  0
VERTEX
  5
5E7
  8
0
 10
20.0
 20
20.0
 30
23.0
 70
   192
  0
VERTEX
  5
5E8
  8
0
 10
-20.0
 20
20.0
 30
23.0
 70
   192
  0
VERTEX
  5
5E9
  8
0
 10
-20.0
 20
20.0
 30
-0.0000000000000764
 70
   192
  0
VERTEX
  5
5EA
  8
0
 10
20.0
 20
20.0
 30
-0.0000000000000178
 70
   192
  0
VERTEX
  5
5EB
  8
0
 10
20.0
 20
-20.0
 30
0.0
 70
   192
  0
VERTEX
  5
5EC
  8
0
 10
-20.0
 20
-20.0
 30
-0.0000000000000568
 70
   192
  0
VERTEX
  5
5ED
  8
0
 62
     9
 10
0.0
 20
0.0
 30
0.0
 70
   128
 71
     3
 72
     2
 73
     1
  0
VERTEX
  5
5EE
  8
0
 62
     9
 10
0.0
 20
0.0
 30
0.0
 70
   128
 71
     1
 72
     4
 73
     3
  0
VERTEX
  5
5EF
  8
0
 62
     9
 10
0.0
 20
0.0
 30
0.0
 70
   128
 71
     4
 72
     6
 73
     5
  0
VERTEX
  5
5F0
  8
0
 62
     9
 10
0.0
 20
0.0
 30
0.0
 70
   128
 71
     5
 72
     3
 73
     4
  0
VERTEX
  5
5F1
  8
0
 62
     9
 10
0.0
 20
0.0
 30
0.0
 70
   128
 71
     9
 72
     8
 73
     7
  0
VERTEX
  5
5F2
  8
0
 62
     9
 10
0.0
 20
0.0
 30
0.0
 70
   128
 71
     7
 72
    10
 73
     9
  0
VERTEX
  5
5F3
  8
0
 62
     9
 10
0.0
 20
0.0
 30
0.0
 70
   128
 71
    13
 72
    12
 73
    11
  0
VERTEX
  5
5F4
  8
0
 62
     9
 10
0.0
 20
0.0
 30
0.0
 70
   128
 71
    11
 72
    14
 73
    13
  0
VERTEX
  5
5F5
  8
0
 62
     9
 10
0.0
 20
0.0
 30
0.0
 70
   128
 71
    11
 72
    12
 73
     6
  0
VERTEX
  5
5F6
  8
0
 62
     9
 10
0.0
 20
0.0
 30
0.0
 70
   128
 71
    12
 72
     5
 73
     6
  0
VERTEX
  5
5F7
  8
0
 62
     9
 10
0.0
 20
0.0
 30
0.0
 70
   128
 71
     1
 72
     2
 73
     8
  0
VERTEX
  5
5F8
  8
0
 62
     9
 10
0.0
 20
0.0
 30
0.0
 70
   128
 71
     2
 72
     7
 73
     8
  0
VERTEX
  5
5F9
  8
0
 62
     9
 10
0.0
 20
0.0
 30
0.0
 70
   128
 71
    16
 72
    15
 73
    10
  0
VERTEX
  5
5FA
  8
0
 62
     9
 10
0.0
 20
0.0
 30
0.0
 70
   128
 71
    15
 72
     9
 73
    10
  0
VERTEX
  5
5FB
  8
0
 62
     9
 10
0.0
 20
0.0
 30
0.0
 70
   128
 71
     5
 72
    12
 73
     2
  0
VERTEX
  5
5FC
  8
0
 62
     9
 10
0.0
 20
0.0
 30
0.0
 70
   128
 71
    10
 72
     7
 73
     2
  0
VERTEX
  5
5FD
  8
0
 62
     9
 10
0.0
 20
0.0
 30
0.0
 70
   128
 71
     3
 72
     5
 73
     2
  0
VERTEX
  5
5FE
  8
0
 62
     9
 10
0.0
 20
0.0
 30
0.0
 70
   128
 71
     2
 72
    12
 73
    16
  0
VERTEX
  5
5FF
  8
0
 62
     9
 10
0.0
 20
0.0
 30
0.0
 70
   128
 71
    16
 72
    12
 73
    13
  0
VERTEX
  5
600
  8
0
 62
     9
 10
0.0
 20
0.0
 30
0.0
 70
   128
 71
     2
 72
    16
 73
    10
  0
VERTEX
  5
601
  8
0
 62
     9
 10
0.0
 20
0.0
 30
0.0
 70
   128
 71
     1
 72
    15
 73
    11
  0
VERTEX
  5
602
  8
0
 62
     9
 10
0.0
 20
0.0
 30
0.0
 70
   128
 71
    11
 72
     6
 73
     4
  0
VERTEX
  5
603
  8
0
 62
     9
 10
0.0
 20
0.0
 30
0.0
 70
   128
 71
     4
 72
     1
 73
    11
  0
VERTEX
  5
604
  8
0
 62
     9
 10
0.0
 20
0.0
 30
0.0
 70
   128
 71
    15
 72
     1
 73
     9
  0
VERTEX
  5
605
  8
0
 62
     9
 10
0.0
 20
0.0
 30
0.0
 70
   128
 71
     8
 72
     9
 73
     1
  0
VERTEX
  5
606
  8
0
 62
     9
 10
0.0
 20
0.0
 30
0.0
 70
   128
 71
    15
 72
    14
 73
    11
  0
SEQEND
  5
607
  8
0
 62
     9
  0
ENDBLK
  5
60A
  8
0
  0
ENDSEC
  0
SECTION
  2
ENTITIES
  0
INSERT
  5
EA
  8
LAYER_1
  2
38
 10
0.0
 20
0.0
 30
0.0
  0
INSERT
  5
220
  8
LAYER_1
  2
39
 10
0.0
 20
0.0
 30
0.0
  0
INSERT
  5
2B2
  8
LAYER_1
  2
1
 10
0.0
 20
0.0
 30
0.0
  0
INSERT
  5
2CC
  8
LAYER_1
  2
41
 10
0.0
 20
0.0
 30
0.0
  0
INSERT
  5
458
  8
LAYER_1
  2
42
 10
0.0
 20
0.0
 30
0.0
  0
INSERT
  5
530
  8
LAYER_1
  2
1_1_
 10
0.0
 20
0.0
 30
0.0
  0
INSERT
  5
5D8
  8
LAYER_1
  2
44
 10
0.0
 20
0.0
 30
0.0
  0
INSERT
  5
608
  8
LAYER_1
  2
1_2_
 10
0.0
 20
0.0
 30
0.0
  0
ENDSEC
  0
EOF
