  0
SECTION
  2
HEADER
  9
$ACADVER
  1
AC1015
  9
$ACADMAINTVER
 70
     6
  9
$DWGCODEPAGE
  3
ANSI_1252
  9
$INSBASE
 10
0.0
 20
0.0
 30
0.0
  9
$EXTMIN
 10
0.0
 20
0.0
 30
0.0
  9
$EXTMAX
 10
1682.0
 20
2378.0
 30
0.0
  9
$LIMMIN
 10
0.0
 20
0.0
  9
$LIMMAX
 10
1682.0
 20
2378.0
  9
$ORTHOMODE
 70
     0
  9
$REGENMODE
 70
     1
  9
$FILLMODE
 70
     1
  9
$QTEXTMODE
 70
     0
  9
$MIRRTEXT
 70
     1
  9
$LTSCALE
 40
1.0
  9
$ATTMODE
 70
     1
  9
$TEXTSIZE
 40
2.5
  9
$TRACEWID
 40
1.0
  9
$TEXTSTYLE
  7
Standard
  9
$CLAYER
  8
0
  9
$CELTYPE
  6
ByLayer
  9
$CECOLOR
 62
   256
  9
$CELTSCALE
 40
1.0
  9
$DISPSILH
 70
     0
  9
$DIMSCALE
 40
1.0
  9
$DIMASZ
 40
2.5
  9
$DIMEXO
 40
0.625
  9
$DIMDLI
 40
3.75
  9
$DIMRND
 40
0.0
  9
$DIMDLE
 40
0.0
  9
$DIMEXE
 40
1.25
  9
$DIMTP
 40
0.0
  9
$DIMTM
 40
0.0
  9
$DIMTXT
 40
2.5
  9
$DIMCEN
 40
2.5
  9
$DIMTSZ
 40
0.0
  9
$DIMTOL
 70
     0
  9
$DIMLIM
 70
     0
  9
$DIMTIH
 70
     0
  9
$DIMTOH
 70
     0
  9
$DIMSE1
 70
     0
  9
$DIMSE2
 70
     0
  9
$DIMTAD
 70
     1
  9
$DIMZIN
 70
     8
  9
$DIMBLK
  1

  9
$DIMASO
 70
     1
  9
$DIMSHO
 70
     1
  9
$DIMPOST
  1

  9
$DIMAPOST
  1

  9
$DIMALT
 70
     0
  9
$DIMALTD
 70
     3
  9
$DIMALTF
 40
0.0393700787
  9
$DIMLFAC
 40
1.0
  9
$DIMTOFL
 70
     1
  9
$DIMTVP
 40
0.0
  9
$DIMTIX
 70
     0
  9
$DIMSOXD
 70
     0
  9
$DIMSAH
 70
     0
  9
$DIMBLK1
  1

  9
$DIMBLK2
  1

  9
$DIMSTYLE
  2
ISO-25
  9
$DIMCLRD
 70
     0
  9
$DIMCLRE
 70
     0
  9
$DIMCLRT
 70
     0
  9
$DIMTFAC
 40
1.0
  9
$DIMGAP
 40
0.625
  9
$DIMJUST
 70
     0
  9
$DIMSD1
 70
     0
  9
$DIMSD2
 70
     0
  9
$DIMTOLJ
 70
     0
  9
$DIMTZIN
 70
     8
  9
$DIMALTZ
 70
     0
  9
$DIMALTTZ
 70
     0
  9
$DIMUPT
 70
     0
  9
$DIMDEC
 70
     2
  9
$DIMTDEC
 70
     2
  9
$DIMALTU
 70
     2
  9
$DIMALTTD
 70
     3
  9
$DIMTXSTY
  7
Standard
  9
$DIMAUNIT
 70
     0
  9
$DIMADEC
 70
     0
  9
$DIMALTRND
 40
0.0
  9
$DIMAZIN
 70
     0
  9
$DIMDSEP
 70
    44
  9
$DIMATFIT
 70
     3
  9
$DIMFRAC
 70
     0
  9
$DIMLDRBLK
  1

  9
$DIMLUNIT
 70
     2
  9
$DIMLWD
 70
    -2
  9
$DIMLWE
 70
    -2
  9
$DIMTMOVE
 70
     0
  9
$LUNITS
 70
     2
  9
$LUPREC
 70
     4
  9
$SKETCHINC
 40
1.0
  9
$FILLETRAD
 40
10.0
  9
$AUNITS
 70
     0
  9
$AUPREC
 70
     0
  9
$MENU
  1
.
  9
$ELEVATION
 40
0.0
  9
$PELEVATION
 40
0.0
  9
$THICKNESS
 40
0.0
  9
$LIMCHECK
 70
     0
  9
$CHAMFERA
 40
10.0
  9
$CHAMFERB
 40
10.0
  9
$CHAMFERC
 40
20.0
  9
$CHAMFERD
 40
0.0
  9
$SKPOLY
 70
     0
  9
$TDCREATE
 40
2455642.326974896
  9
$TDUCREATE
 40
2455642.285308229
  9
$TDUPDATE
 40
2455642.326974907
  9
$TDUUPDATE
 40
2455642.285308241
  9
$TDINDWG
 40
0.0000000116
  9
$TDUSRTIMER
 40
0.0000000116
  9
$USRTIMER
 70
     1
  9
$ANGBASE
 50
0.0
  9
$ANGDIR
 70
     0
  9
$PDMODE
 70
     0
  9
$PDSIZE
 40
0.0
  9
$PLINEWID
 40
0.0
  9
$SPLFRAME
 70
     0
  9
$SPLINETYPE
 70
     6
  9
$SPLINESEGS
 70
     8
  9
$HANDSEED
  5
571
  9
$SURFTAB1
 70
     6
  9
$SURFTAB2
 70
     6
  9
$SURFTYPE
 70
     6
  9
$SURFU
 70
     6
  9
$SURFV
 70
     6
  9
$UCSBASE
  2

  9
$UCSNAME
  2

  9
$UCSORG
 10
0.0
 20
0.0
 30
0.0
  9
$UCSXDIR
 10
1.0
 20
0.0
 30
0.0
  9
$UCSYDIR
 10
0.0
 20
1.0
 30
0.0
  9
$UCSORTHOREF
  2

  9
$UCSORTHOVIEW
 70
     0
  9
$UCSORGTOP
 10
0.0
 20
0.0
 30
0.0
  9
$UCSORGBOTTOM
 10
0.0
 20
0.0
 30
0.0
  9
$UCSORGLEFT
 10
0.0
 20
0.0
 30
0.0
  9
$UCSORGRIGHT
 10
0.0
 20
0.0
 30
0.0
  9
$UCSORGFRONT
 10
0.0
 20
0.0
 30
0.0
  9
$UCSORGBACK
 10
0.0
 20
0.0
 30
0.0
  9
$PUCSBASE
  2

  9
$PUCSNAME
  2

  9
$PUCSORG
 10
0.0
 20
0.0
 30
0.0
  9
$PUCSXDIR
 10
1.0
 20
0.0
 30
0.0
  9
$PUCSYDIR
 10
0.0
 20
1.0
 30
0.0
  9
$PUCSORTHOREF
  2

  9
$PUCSORTHOVIEW
 70
     0
  9
$PUCSORGTOP
 10
0.0
 20
0.0
 30
0.0
  9
$PUCSORGBOTTOM
 10
0.0
 20
0.0
 30
0.0
  9
$PUCSORGLEFT
 10
0.0
 20
0.0
 30
0.0
  9
$PUCSORGRIGHT
 10
0.0
 20
0.0
 30
0.0
  9
$PUCSORGFRONT
 10
0.0
 20
0.0
 30
0.0
  9
$PUCSORGBACK
 10
0.0
 20
0.0
 30
0.0
  9
$USERI1
 70
     0
  9
$USERI2
 70
     0
  9
$USERI3
 70
     0
  9
$USERI4
 70
     0
  9
$USERI5
 70
     0
  9
$USERR1
 40
0.0
  9
$USERR2
 40
0.0
  9
$USERR3
 40
0.0
  9
$USERR4
 40
0.0
  9
$USERR5
 40
0.0
  9
$WORLDVIEW
 70
     1
  9
$SHADEDGE
 70
     3
  9
$SHADEDIF
 70
    70
  9
$TILEMODE
 70
     1
  9
$MAXACTVP
 70
    64
  9
$PINSBASE
 10
0.0
 20
0.0
 30
0.0
  9
$PLIMCHECK
 70
     0
  9
$PEXTMIN
 10
0.0
 20
0.0
 30
0.0
  9
$PEXTMAX
 10
1682.0
 20
2378.0
 30
0.0
  9
$PLIMMIN
 10
0.0
 20
0.0
  9
$PLIMMAX
 10
1682.0
 20
2378.0
  9
$UNITMODE
 70
     0
  9
$VISRETAIN
 70
     1
  9
$PLINEGEN
 70
     0
  9
$PSLTSCALE
 70
     1
  9
$TREEDEPTH
 70
  3020
  9
$CMLSTYLE
  2
Standard
  9
$CMLJUST
 70
     0
  9
$CMLSCALE
 40
20.0
  9
$PROXYGRAPHICS
 70
     1
  9
$MEASUREMENT
 70
     1
  9
$CELWEIGHT
370
    -1
  9
$ENDCAPS
280
     0
  9
$JOINSTYLE
280
     0
  9
$LWDISPLAY
290
     0
  9
$INSUNITS
 70
     4
  9
$HYPERLINKBASE
  1

  9
$STYLESHEET
  1

  9
$XEDIT
290
     1
  9
$CEPSNTYPE
380
     0
  9
$PSTYLEMODE
290
     1
  9
$FINGERPRINTGUID
  2
{39ED0A67-AE8D-421C-BC7B-7DC6B71A9E07}
  9
$VERSIONGUID
  2
{FAEB1C32-E019-11D5-929B-00C0DF256EC4}
  9
$EXTNAMES
290
     1
  9
$PSVPSCALE
 40
0.0
  9
$OLESTARTUP
290
     0
  0
ENDSEC
  0
SECTION
  2
CLASSES
  0
CLASS
  1
ACDBDICTIONARYWDFLT
  2
AcDbDictionaryWithDefault
  3
ObjectDBX Classes
 90
        0
280
     0
281
     0
  0
CLASS
  1
VISUALSTYLE
  2
AcDbVisualStyle
  3
ObjectDBX Classes
 90
     4095
280
     0
281
     0
  0
CLASS
  1
SCALE
  2
AcDbScale
  3
ObjectDBX Classes
 90
     1153
280
     0
281
     0
  0
CLASS
  1
DICTIONARYVAR
  2
AcDbDictionaryVar
  3
ObjectDBX Classes
 90
        0
280
     0
281
     0
  0
CLASS
  1
ACDBPLACEHOLDER
  2
AcDbPlaceHolder
  3
ObjectDBX Classes
 90
        0
280
     0
281
     0
  0
CLASS
  1
LAYOUT
  2
AcDbLayout
  3
ObjectDBX Classes
 90
        0
280
     0
281
     0
  0
ENDSEC
  0
SECTION
  2
TABLES
  0
TABLE
  2
VPORT
  5
8
330
0
100
AcDbSymbolTable
 70
     1
  0
VPORT
  5
29
330
8
100
AcDbSymbolTableRecord
100
AcDbViewportTableRecord
  2
*Active
 70
     0
 10
0.0
 20
0.0
 11
1.0
 21
1.0
 12
344.1869158879
 22
148.5
 13
0.0
 23
0.0
 14
10.0
 24
10.0
 15
10.0
 25
10.0
 16
0.0
 26
0.0
 36
1.0
 17
0.0
 27
0.0
 37
0.0
 40
297.0
 41
1.9729729729
 42
50.0
 43
0.0
 44
0.0
 50
0.0
 51
0.0
 71
     0
 72
   100
 73
     1
 74
     3
 75
     0
 76
     0
 77
     0
 78
     0
281
     0
 65
     1
110
0.0
120
0.0
130
0.0
111
1.0
121
0.0
131
0.0
112
0.0
122
1.0
132
0.0
 79
     0
146
0.0
  0
ENDTAB
  0
TABLE
  2
LTYPE
  5
5
330
0
100
AcDbSymbolTable
 70
     2
  0
LTYPE
  5
14
330
5
100
AcDbSymbolTableRecord
100
AcDbLinetypeTableRecord
  2
ByBlock
 70
     0
  3

 72
    65
 73
     0
 40
0.0
  0
LTYPE
  5
15
330
5
100
AcDbSymbolTableRecord
100
AcDbLinetypeTableRecord
  2
ByLayer
 70
     0
  3

 72
    65
 73
     0
 40
0.0
  0
LTYPE
  5
16
330
5
100
AcDbSymbolTableRecord
100
AcDbLinetypeTableRecord
  2
Continuous
 70
     0
  3
Solid line
 72
    65
 73
     0
 40
0.0
  0
LTYPE
  5
60
330
5
100
AcDbSymbolTableRecord
100
AcDbLinetypeTableRecord
  2
CENTER2
 70
     0
  3
Center (.5x) ___ _ ___ _ ___ _ ___ _ ___ _ ___
 72
    65
 73
     4
 40
28.575
 49
19.05
 74
     4
 75
     0
340
0
 46
0.0
 50
0.0
 44
0.0
 45
0.0
 49
-3.175
 74
     4
 75
     0
340
0
 46
0.0
 50
0.0
 44
0.0
 45
0.0
 49
3.175
 74
     4
 75
     0
340
0
 46
0.0
 50
0.0
 44
0.0
 45
0.0
 49
-3.175
 74
     4
 75
     0
340
0
 46
0.0
 50
0.0
 44
0.0
 45
0.0
  0
ENDTAB
  0
TABLE
  2
LAYER
  5
2
330
0
100
AcDbSymbolTable
 70
    11
  0
LAYER
  5
10
330
2
100
AcDbSymbolTableRecord
100
AcDbLayerTableRecord
  2
0
 70
     0
 62
     7
  6
Continuous
370
    -3
390
F
  0
LAYER
  5
5D
330
2
100
AcDbSymbolTableRecord
100
AcDbLayerTableRecord
  2
Default
 70
     0
 62
     7
  6
Continuous
370
    -3
390
F
  0
LAYER
  5
74
330
2
100
AcDbSymbolTableRecord
100
AcDbLayerTableRecord
  2
$DDT_AUDIT_GENERATED_(74)
 70
     0
 62
     7
  6
Continuous
370
    -3
390
F
  0
LAYER
  5
77
330
2
100
AcDbSymbolTableRecord
100
AcDbLayerTableRecord
  2
$DDT_AUDIT_GENERATED_(77)
 70
     0
 62
     7
  6
Continuous
370
    -3
390
F
  0
LAYER
  5
82
330
2
100
AcDbSymbolTableRecord
100
AcDbLayerTableRecord
  2
$DDT_AUDIT_GENERATED_(82)
 70
     0
 62
     7
  6
Continuous
370
    -3
390
F
  0
LAYER
  5
95
330
2
100
AcDbSymbolTableRecord
100
AcDbLayerTableRecord
  2
$DDT_AUDIT_GENERATED_(95)
 70
     0
 62
     7
  6
Continuous
370
    -3
390
F
  0
LAYER
  5
A3
330
2
100
AcDbSymbolTableRecord
100
AcDbLayerTableRecord
  2
$DDT_AUDIT_GENERATED_(A3)
 70
     0
 62
     7
  6
Continuous
370
    -3
390
F
  0
LAYER
  5
AE
330
2
100
AcDbSymbolTableRecord
100
AcDbLayerTableRecord
  2
$DDT_AUDIT_GENERATED_(AE)
 70
     0
 62
     7
  6
Continuous
370
    -3
390
F
  0
LAYER
  5
B2
330
2
100
AcDbSymbolTableRecord
100
AcDbLayerTableRecord
  2
$DDT_AUDIT_GENERATED_(B2)
 70
     0
 62
     7
  6
Continuous
370
    -3
390
F
  0
LAYER
  5
4BC
330
2
100
AcDbSymbolTableRecord
100
AcDbLayerTableRecord
  2
$DDT_AUDIT_GENERATED_(4BC)
 70
     0
 62
     7
  6
Continuous
370
    -3
390
F
  0
LAYER
  5
4DC
330
2
100
AcDbSymbolTableRecord
100
AcDbLayerTableRecord
  2
$DDT_AUDIT_GENERATED_(4DC)
 70
     0
 62
     7
  6
Continuous
370
    -3
390
F
  0
ENDTAB
  0
TABLE
  2
STYLE
  5
3
330
0
100
AcDbSymbolTable
 70
     2
  0
STYLE
  5
11
330
3
100
AcDbSymbolTableRecord
100
AcDbTextStyleTableRecord
  2
Standard
 70
     0
 40
0.0
 41
1.0
 50
0.0
 71
     0
 42
2.5
  3
txt
  4

  0
STYLE
  5
560
330
3
100
AcDbSymbolTableRecord
100
AcDbTextStyleTableRecord
  2
SEACAD_seiso_ttf
 70
     0
 40
0.0
 41
1.0
 50
0.0
 71
     0
 42
0.2
  3
seiso.ttf
  4

  0
ENDTAB
  0
TABLE
  2
VIEW
  5
6
330
0
100
AcDbSymbolTable
 70
     0
  0
ENDTAB
  0
TABLE
  2
UCS
  5
7
330
0
100
AcDbSymbolTable
 70
     0
  0
ENDTAB
  0
TABLE
  2
APPID
  5
9
330
0
100
AcDbSymbolTable
 70
     1
  0
APPID
  5
12
330
9
100
AcDbSymbolTableRecord
100
AcDbRegAppTableRecord
  2
ACAD
 70
     0
  0
ENDTAB
  0
TABLE
  2
DIMSTYLE
  5
A
330
0
100
AcDbSymbolTable
 70
     1
100
AcDbDimStyleTable
  0
DIMSTYLE
105
27
330
A
100
AcDbSymbolTableRecord
100
AcDbDimStyleTableRecord
  2
ISO-25
 70
     0
 41
2.5
 42
0.625
 43
3.75
 44
1.25
 73
     0
 74
     0
 77
     1
 78
     8
140
2.5
141
2.5
143
0.0393700787
147
0.625
171
     3
172
     1
271
     2
272
     2
274
     3
278
    44
283
     0
284
     8
340
11
  0
ENDTAB
  0
TABLE
  2
BLOCK_RECORD
  5
1
330
0
100
AcDbSymbolTable
 70
     7
  0
BLOCK_RECORD
  5
1F
330
1
100
AcDbSymbolTableRecord
100
AcDbBlockTableRecord
  2
*Model_Space
340
22
  0
BLOCK_RECORD
  5
1B
330
1
100
AcDbSymbolTableRecord
100
AcDbBlockTableRecord
  2
*Paper_Space
340
1E
  0
BLOCK_RECORD
  5
5E
330
1
100
AcDbSymbolTableRecord
100
AcDbBlockTableRecord
  2
SEANNOT_GROUP
340
0
102
{BLKREFS
331
5F
102
}
  0
BLOCK_RECORD
  5
65
330
1
100
AcDbSymbolTableRecord
100
AcDbBlockTableRecord
  2
SEANNOT_GROUP1
340
0
102
{BLKREFS
331
66
102
}
  0
BLOCK_RECORD
  5
6C
330
1
100
AcDbSymbolTableRecord
100
AcDbBlockTableRecord
  2
SEANNOT_GROUP2
340
0
102
{BLKREFS
331
6D
102
}
  0
BLOCK_RECORD
  5
72
330
1
100
AcDbSymbolTableRecord
100
AcDbBlockTableRecord
  2
SE
340
0
102
{BLKREFS
331
73
102
}
  0
BLOCK_RECORD
  5
4D0
330
1
100
AcDbSymbolTableRecord
100
AcDbBlockTableRecord
  2
SE1
340
0
102
{BLKREFS
331
4D1
102
}
  0
BLOCK_RECORD
  5
517
330
1
100
AcDbSymbolTableRecord
100
AcDbBlockTableRecord
  2
SE2
340
0
102
{BLKREFS
331
518
102
}
  0
ENDTAB
  0
ENDSEC
  0
SECTION
  2
BLOCKS
  0
BLOCK
  5
20
330
1F
100
AcDbEntity
  8
0
100
AcDbBlockBegin
  2
*Model_Space
 70
     0
 10
0.0
 20
0.0
 30
0.0
  3
*Model_Space
  1

  0
ENDBLK
  5
21
330
1F
100
AcDbEntity
  8
0
100
AcDbBlockEnd
  0
BLOCK
  5
1C
330
1B
100
AcDbEntity
 67
     1
  8
0
100
AcDbBlockBegin
  2
*Paper_Space
 70
     0
 10
0.0
 20
0.0
 30
0.0
  3
*Paper_Space
  1

  0
ENDBLK
  5
1D
330
1B
100
AcDbEntity
 67
     1
  8
0
100
AcDbBlockEnd
  0
BLOCK
  5
63
330
5E
100
AcDbEntity
  8
0
100
AcDbBlockBegin
  2
SEANNOT_GROUP
 70
     0
 10
0.0
 20
0.0
 30
0.0
  3
SEANNOT_GROUP
  1

  0
LINE
  5
61
330
5E
100
AcDbEntity
  8
Default
  6
CENTER2
 62
     7
100
AcDbLine
 10
250.7040625451
 20
368.2876394912
 30
0.0
 11
210.7040634392
 21
368.2876394912
 31
0.0
  0
LINE
  5
62
330
5E
100
AcDbEntity
  8
Default
  6
CENTER2
 62
     7
100
AcDbLine
 10
230.7040629921
 20
388.2876390441
 30
0.0
 11
230.7040629921
 21
348.2876399382
 31
0.0
  0
ENDBLK
  5
64
330
5E
100
AcDbEntity
  8
0
100
AcDbBlockEnd
  0
BLOCK
  5
69
330
65
100
AcDbEntity
  8
0
100
AcDbBlockBegin
  2
SEANNOT_GROUP1
 70
     0
 10
0.0
 20
0.0
 30
0.0
  3
SEANNOT_GROUP1
  1

  0
LINE
  5
67
330
65
100
AcDbEntity
  8
Default
  6
CENTER2
 62
     7
100
AcDbLine
 10
60.6798315594
 20
368.2876394912
 30
0.0
 11
20.6798324534
 21
368.2876394912
 31
0.0
  0
LINE
  5
68
330
65
100
AcDbEntity
  8
Default
  6
CENTER2
 62
     7
100
AcDbLine
 10
40.6798320064
 20
388.2876390441
 30
0.0
 11
40.6798320064
 21
348.2876399382
 31
0.0
  0
ENDBLK
  5
6A
330
65
100
AcDbEntity
  8
0
100
AcDbBlockEnd
  0
BLOCK
  5
70
330
6C
100
AcDbEntity
  8
0
100
AcDbBlockBegin
  2
SEANNOT_GROUP2
 70
     0
 10
0.0
 20
0.0
 30
0.0
  3
SEANNOT_GROUP2
  1

  0
LINE
  5
6E
330
6C
100
AcDbEntity
  8
Default
  6
CENTER2
 62
     7
100
AcDbLine
 10
60.6798315594
 20
272.2583217415
 30
0.0
 11
20.6798324534
 21
272.2583217415
 31
0.0
  0
LINE
  5
6F
330
6C
100
AcDbEntity
  8
Default
  6
CENTER2
 62
     7
100
AcDbLine
 10
40.6798320064
 20
292.2583212945
 30
0.0
 11
40.6798320064
 21
252.2583221885
 31
0.0
  0
ENDBLK
  5
71
330
6C
100
AcDbEntity
  8
0
100
AcDbBlockEnd
  0
BLOCK
  5
4CE
330
72
100
AcDbEntity
  8
0
100
AcDbBlockBegin
  2
SE
 70
     0
 10
0.0
 20
0.0
 30
0.0
  3
SE
  1

  0
ARC
  5
75
330
72
100
AcDbEntity
  8
$DDT_AUDIT_GENERATED_(74)
  6
Continuous
 62
     7
100
AcDbCircle
 10
77.2798320064
 20
419.2876394912
 30
0.0
 40
20.0
100
AcDbArc
 50
58.6918789828
 51
65.1654125103
  0
ARC
  5
76
330
72
100
AcDbEntity
  8
$DDT_AUDIT_GENERATED_(74)
  6
Continuous
 62
     7
100
AcDbCircle
 10
77.2798320064
 20
419.2876394912
 30
0.0
 40
20.0
100
AcDbArc
 50
294.8345874897
 51
313.5405783455
  0
LINE
  5
78
330
72
100
AcDbEntity
  8
$DDT_AUDIT_GENERATED_(77)
  6
Continuous
 62
     7
100
AcDbLine
 10
65.0798320064
 20
376.2876394912
 30
0.0
 11
66.1798320064
 21
376.2876394912
 31
0.0
  0
LINE
  5
79
330
72
100
AcDbEntity
  8
$DDT_AUDIT_GENERATED_(77)
  6
Continuous
 62
     7
100
AcDbLine
 10
15.1798320064
 20
376.2876394912
 30
0.0
 11
16.2798320064
 21
376.2876394912
 31
0.0
  0
LINE
  5
7A
330
72
100
AcDbEntity
  8
$DDT_AUDIT_GENERATED_(77)
  6
Continuous
 62
     7
100
AcDbLine
 10
16.2798320064
 20
376.2876394912
 30
0.0
 11
65.0798320064
 21
376.2876394912
 31
0.0
  0
LINE
  5
7B
330
72
100
AcDbEntity
  8
$DDT_AUDIT_GENERATED_(77)
  6
Continuous
 62
     7
100
AcDbLine
 10
14.6798320064
 20
375.7876394912
 30
0.0
 11
14.6798320064
 21
368.2876394912
 31
0.0
  0
LINE
  5
7C
330
72
100
AcDbEntity
  8
$DDT_AUDIT_GENERATED_(77)
  6
Continuous
 62
     7
100
AcDbLine
 10
66.6798320064
 20
375.7876394912
 30
0.0
 11
66.6798320064
 21
368.2876394912
 31
0.0
  0
ARC
  5
7D
330
72
100
AcDbEntity
  8
$DDT_AUDIT_GENERATED_(77)
  6
Continuous
 62
     7
100
AcDbCircle
 10
15.1798320064
 20
375.7876394912
 30
0.0
 40
0.5000000000000004
100
AcDbArc
 50
90.0
 51
180.0
  0
ARC
  5
7E
330
72
100
AcDbEntity
  8
$DDT_AUDIT_GENERATED_(77)
  6
Continuous
 62
     7
100
AcDbCircle
 10
66.1798320064
 20
375.7876394912
 30
0.0
 40
0.499999999999997
100
AcDbArc
 50
0.0
 51
90.0
  0
LINE
  5
7F
330
72
100
AcDbEntity
  8
$DDT_AUDIT_GENERATED_(77)
  6
Continuous
 62
     7
100
AcDbLine
 10
16.2798320064
 20
368.2876394912
 30
0.0
 11
14.6798320064
 21
368.2876394912
 31
0.0
  0
LINE
  5
80
330
72
100
AcDbEntity
  8
$DDT_AUDIT_GENERATED_(77)
  6
Continuous
 62
     7
100
AcDbLine
 10
66.6798320064
 20
368.2876394912
 30
0.0
 11
65.0798320064
 21
368.2876394912
 31
0.0
  0
LINE
  5
81
330
72
100
AcDbEntity
  8
$DDT_AUDIT_GENERATED_(77)
  6
Continuous
 62
     7
100
AcDbLine
 10
65.0798320064
 20
368.2876394912
 30
0.0
 11
16.2798320064
 21
368.2876394912
 31
0.0
  0
LINE
  5
83
330
72
100
AcDbEntity
  8
$DDT_AUDIT_GENERATED_(82)
  6
Continuous
 62
     7
100
AcDbLine
 10
116.7816557739
 20
495.9269977142
 30
0.0
 11
116.7816557739
 21
479.9434987143
 31
0.0
  0
LINE
  5
84
330
72
100
AcDbEntity
  8
$DDT_AUDIT_GENERATED_(82)
  6
Continuous
 62
     7
100
AcDbLine
 10
112.7816557739
 20
479.7593218729
 30
0.0
 11
112.7816557739
 21
496.1111745555
 31
0.0
  0
LINE
  5
85
330
72
100
AcDbEntity
  8
$DDT_AUDIT_GENERATED_(82)
  6
Continuous
 62
     7
100
AcDbLine
 10
116.7816557739
 20
479.9434987143
 30
0.0
 11
116.7816557739
 21
396.5799217844
 31
0.0
  0
LINE
  5
86
330
72
100
AcDbEntity
  8
$DDT_AUDIT_GENERATED_(82)
  6
Continuous
 62
     7
100
AcDbLine
 10
112.7816557739
 20
429.3673203504
 30
0.0
 11
112.7816557739
 21
479.7593218729
 31
0.0
  0
LINE
  5
87
330
72
100
AcDbEntity
  8
$DDT_AUDIT_GENERATED_(82)
  6
Continuous
 62
     7
100
AcDbLine
 10
87.6726363337
 20
426.4204125376
 30
0.0
 11
87.6726363337
 21
445.8552651469
 31
0.0
  0
LINE
  5
88
330
72
100
AcDbEntity
  8
$DDT_AUDIT_GENERATED_(82)
  6
Continuous
 62
     7
100
AcDbLine
 10
87.6726363337
 20
410.7269722313
 30
0.0
 11
87.6726363337
 21
426.4204125376
 31
0.0
  0
ARC
  5
89
330
72
100
AcDbEntity
  8
$DDT_AUDIT_GENERATED_(82)
  6
Continuous
 62
     7
100
AcDbCircle
 10
88.1726363337
 20
410.7269722313
 30
0.0
 40
0.5000000000000004
100
AcDbArc
 50
180.0
 51
210.2573504595
  0
LINE
  5
8A
330
72
100
AcDbEntity
  8
$DDT_AUDIT_GENERATED_(82)
  6
Continuous
 62
     7
100
AcDbLine
 10
87.7407508991
 20
410.4750298342
 30
0.0
 11
97.4645511263
 21
393.8062685003
 31
0.0
  0
ARC
  5
8B
330
72
100
AcDbEntity
  8
$DDT_AUDIT_GENERATED_(82)
  6
Continuous
 62
     7
100
AcDbCircle
 10
97.8964365608
 20
394.0582108974
 30
0.0
 40
0.5000000000000001
100
AcDbArc
 50
210.2573504595
 51
270.0
  0
ARC
  5
8C
330
72
100
AcDbEntity
  8
$DDT_AUDIT_GENERATED_(82)
  6
Continuous
 62
     7
100
AcDbCircle
 10
97.8964365608
 20
394.0582108974
 30
0.0
 40
0.5000000000000004
100
AcDbArc
 50
270.0
 51
277.8099388581
  0
LINE
  5
8D
330
72
100
AcDbEntity
  8
$DDT_AUDIT_GENERATED_(82)
  6
Continuous
 62
     7
100
AcDbLine
 10
97.9643802765
 20
393.5628487556
 30
0.0
 11
116.3495994895
 21
396.0845596427
 31
0.0
  0
ARC
  5
8E
330
72
100
AcDbEntity
  8
$DDT_AUDIT_GENERATED_(82)
  6
Continuous
 62
     7
100
AcDbCircle
 10
116.2816557739
 20
396.5799217844
 30
0.0
 40
0.5000000000000036
100
AcDbArc
 50
277.8099388581
 51
0.0
  0
ARC
  5
8F
330
72
100
AcDbEntity
  8
$DDT_AUDIT_GENERATED_(82)
  6
Continuous
 62
     7
100
AcDbCircle
 10
88.1726363337
 20
445.8552651469
 30
0.0
 40
0.5000000000000054
100
AcDbArc
 50
82.1900611419
 51
180.0
  0
LINE
  5
90
330
72
100
AcDbEntity
  8
$DDT_AUDIT_GENERATED_(82)
  6
Continuous
 62
     7
100
AcDbLine
 10
109.5445543899
 20
443.4285808659
 30
0.0
 11
88.2405800493
 21
446.3506272887
 31
0.0
  0
SPLINE
  5
91
330
72
100
AcDbEntity
  8
$DDT_AUDIT_GENERATED_(82)
  6
Continuous
 62
     7
100
AcDbSpline
210
0.0
220
0.0
230
1.0
 70
     8
 71
     3
 72
    19
 73
    15
 74
     0
 42
0.000000002218718
 43
0.0000000001
 40
0.0
 40
0.0
 40
0.0
 40
0.0
 40
0.0452109187843951
 40
0.1407157424401534
 40
0.2367197327952389
 40
0.3328214624118938
 40
0.4284701807500785
 40
0.5234706293000353
 40
0.61787436365081
 40
0.7118398524999988
 40
0.8055214033603527
 40
0.899020805618673
 40
0.9873203521816329
 40
1.0
 40
1.0
 40
1.0
 40
1.0
 10
112.7816557738831
 20
445.71917303305
 30
0.0
 10
112.780159017945
 20
445.6511037229587
 30
0.0
 10
112.7747161957231
 20
445.470969276729
 30
0.0
 10
112.7143948008388
 20
445.145673781734
 30
0.0
 10
112.5731288885097
 20
444.7821872178922
 30
0.0
 10
112.3622031725303
 20
444.4418291277659
 30
0.0
 10
112.0877666375584
 20
444.1381730436534
 30
0.0
 10
111.7568618699088
 20
443.8781585384875
 30
0.0
 10
111.3779652955495
 20
443.6685598179229
 30
0.0
 10
110.9609401906763
 20
443.5142465619655
 30
0.0
 10
110.5140700842756
 20
443.4190758112264
 30
0.0
 10
110.0632830066475
 20
443.3853766771846
 30
0.0
 10
109.7267113997387
 20
443.4047526648094
 30
0.0
 10
109.5677918256371
 20
443.425498577164
 30
0.0
 10
109.5445543898947
 20
443.428580865894
 30
0.0
  0
ARC
  5
92
330
72
100
AcDbEntity
  8
$DDT_AUDIT_GENERATED_(82)
  6
Continuous
 62
     7
100
AcDbCircle
 10
116.2816557739
 20
495.9269977142
 30
0.0
 40
0.4999999999999866
100
AcDbArc
 50
0.0
 51
86.4868906588
  0
ARC
  5
93
330
72
100
AcDbEntity
  8
$DDT_AUDIT_GENERATED_(82)
  6
Continuous
 62
     7
100
AcDbCircle
 10
113.2816557739
 20
496.1111745555
 30
0.0
 40
0.4999999999999845
100
AcDbArc
 50
86.4868906594
 51
180.0
  0
LINE
  5
94
330
72
100
AcDbEntity
  8
$DDT_AUDIT_GENERATED_(82)
  6
Continuous
 62
     7
100
AcDbLine
 10
116.3122942301
 20
496.4260581163
 30
0.0
 11
113.3122942301
 21
496.6102349577
 31
0.0
  0
LINE
  5
96
330
72
100
AcDbEntity
  8
$DDT_AUDIT_GENERATED_(95)
  6
Continuous
 62
     7
100
AcDbLine
 10
20.6798320064
 20
376.2876394912
 30
0.0
 11
20.6798320064
 21
475.7876394912
 31
0.0
  0
LINE
  5
97
330
72
100
AcDbEntity
  8
$DDT_AUDIT_GENERATED_(95)
  6
Continuous
 62
     7
100
AcDbLine
 10
60.6798320064
 20
475.7876394912
 30
0.0
 11
60.6798320064
 21
441.2876397818
 31
0.0
  0
LINE
  5
98
330
72
100
AcDbEntity
  8
$DDT_AUDIT_GENERATED_(95)
  6
Continuous
 62
     7
100
AcDbLine
 10
85.1798320064
 20
399.2876397818
 30
0.0
 11
62.6798320064
 21
399.2876397818
 31
0.0
  0
LINE
  5
99
330
72
100
AcDbEntity
  8
$DDT_AUDIT_GENERATED_(95)
  6
Continuous
 62
     7
100
AcDbLine
 10
60.6798320064
 20
397.2876397818
 30
0.0
 11
60.6798320064
 21
376.2876394912
 31
0.0
  0
LINE
  5
9A
330
72
100
AcDbEntity
  8
$DDT_AUDIT_GENERATED_(95)
  6
Continuous
 62
     7
100
AcDbLine
 10
21.1798320064
 20
476.2876394912
 30
0.0
 11
60.1798320064
 21
476.2876394912
 31
0.0
  0
LINE
  5
9B
330
72
100
AcDbEntity
  8
$DDT_AUDIT_GENERATED_(95)
  6
Continuous
 62
     7
100
AcDbLine
 10
85.6798320064
 20
438.7876397818
 30
0.0
 11
85.6798320064
 21
399.7876397818
 31
0.0
  0
LINE
  5
9C
330
72
100
AcDbEntity
  8
$DDT_AUDIT_GENERATED_(95)
  6
Continuous
 62
     7
100
AcDbLine
 10
62.6798320064
 20
439.2876397818
 30
0.0
 11
85.1798320064
 21
439.2876397818
 31
0.0
  0
SPLINE
  5
9D
330
72
100
AcDbEntity
  8
$DDT_AUDIT_GENERATED_(95)
  6
Continuous
 62
     7
100
AcDbSpline
210
0.0
220
0.0
230
1.0
 70
    12
 71
     3
 72
     8
 73
     4
 74
     0
 42
0.0000000028450416
 43
0.0000000001
 40
0.0
 40
0.0
 40
0.0
 40
0.0
 40
1.0
 40
1.0
 40
1.0
 40
1.0
 10
62.67983200640689
 20
439.2876397817509
 30
0.0
 41
1.0
 10
61.50820296845117
 20
439.2875439034606
 30
0.0
 41
0.8047099331477756
 10
60.679736128114
 20
440.1160107437952
 30
0.0
 41
0.8047099331477756
 10
60.6798320064069
 20
441.2876397817509
 30
0.0
 41
1.0
  0
SPLINE
  5
9E
330
72
100
AcDbEntity
  8
$DDT_AUDIT_GENERATED_(95)
  6
Continuous
 62
     7
100
AcDbSpline
210
0.0
220
0.0
230
1.0
 70
    12
 71
     3
 72
     8
 73
     4
 74
     0
 42
0.0000000028450416
 43
0.0000000001
 40
0.0
 40
0.0
 40
0.0
 40
0.0
 40
1.0
 40
1.0
 40
1.0
 40
1.0
 10
60.67983200640688
 20
397.2876397817509
 30
0.0
 41
1.0
 10
60.67973612811646
 20
398.4592688197067
 30
0.0
 41
0.8047099331477444
 10
61.50820296845112
 20
399.2877356600439
 30
0.0
 41
0.8047099331477444
 10
62.67983200640688
 20
399.2876397817509
 30
0.0
 41
1.0
  0
ARC
  5
9F
330
72
100
AcDbEntity
  8
$DDT_AUDIT_GENERATED_(95)
  6
Continuous
 62
     7
100
AcDbCircle
 10
21.1798320064
 20
475.7876394912
 30
0.0
 40
0.5000000000000143
100
AcDbArc
 50
90.0
 51
180.0
  0
ARC
  5
A0
330
72
100
AcDbEntity
  8
$DDT_AUDIT_GENERATED_(95)
  6
Continuous
 62
     7
100
AcDbCircle
 10
60.1798320064
 20
475.7876394912
 30
0.0
 40
0.5000000000000004
100
AcDbArc
 50
0.0
 51
90.0
  0
ARC
  5
A1
330
72
100
AcDbEntity
  8
$DDT_AUDIT_GENERATED_(95)
  6
Continuous
 62
     7
100
AcDbCircle
 10
85.1798320064
 20
438.7876397818
 30
0.0
 40
0.4999999999998755
100
AcDbArc
 50
0.0
 51
90.0
  0
ARC
  5
A2
330
72
100
AcDbEntity
  8
$DDT_AUDIT_GENERATED_(95)
  6
Continuous
 62
     7
100
AcDbCircle
 10
85.1798320064
 20
399.7876397818
 30
0.0
 40
0.5000000000000213
100
AcDbArc
 50
270.0
 51
0.0
  0
LINE
  5
A4
330
72
100
AcDbEntity
  8
$DDT_AUDIT_GENERATED_(A3)
  6
Continuous
 62
     7
100
AcDbLine
 10
25.1798320064
 20
602.2129171499
 30
0.0
 11
56.1798320064
 21
602.2129171499
 31
0.0
  0
LINE
  5
A5
330
72
100
AcDbEntity
  8
$DDT_AUDIT_GENERATED_(A3)
  6
Continuous
 62
     7
100
AcDbLine
 10
24.6798320064
 20
476.5876394912
 30
0.0
 11
24.6798320064
 21
602.7091895553
 31
0.0
  0
LINE
  5
A6
330
72
100
AcDbEntity
  8
$DDT_AUDIT_GENERATED_(A3)
  6
Continuous
 62
     7
100
AcDbLine
 10
24.6798320064
 20
615.6122907972
 30
0.0
 11
24.6798320064
 21
602.7091895553
 31
0.0
  0
LINE
  5
A7
330
72
100
AcDbEntity
  8
$DDT_AUDIT_GENERATED_(A3)
  6
Continuous
 62
     7
100
AcDbLine
 10
56.6798320064
 20
602.7091895559
 30
0.0
 11
56.6798320064
 21
476.5876394912
 31
0.0
  0
LINE
  5
A8
330
72
100
AcDbEntity
  8
$DDT_AUDIT_GENERATED_(A3)
  6
Continuous
 62
     7
100
AcDbLine
 10
56.6798320064
 20
602.7091895559
 30
0.0
 11
56.6798320064
 21
615.6122907972
 31
0.0
  0
SPLINE
  5
A9
330
72
100
AcDbEntity
  8
$DDT_AUDIT_GENERATED_(A3)
  6
Continuous
 62
     7
100
AcDbSpline
210
0.0
220
0.0
230
1.0
 70
     8
 71
     3
 72
    24
 73
    20
 74
     0
 42
0.000000000210023
 43
0.0000000001
 40
0.0
 40
0.0
 40
0.0
 40
0.0
 40
0.0625
 40
0.0625
 40
0.125
 40
0.125
 40
0.1875000000000001
 40
0.1875000000000001
 40
0.25
 40
0.25
 40
0.3125
 40
0.3125
 40
0.375
 40
0.375
 40
0.4375000000000001
 40
0.4375000000000001
 40
0.5
 40
0.5
 40
0.5425386888542243
 40
0.5425386888542243
 40
0.5425386888542243
 40
0.5425386888542243
 10
52.92983200640665
 20
600.2303389991488
 30
0.0
 10
52.92983200640666
 20
600.4275954208191
 30
0.0
 10
52.6111978351375
 20
600.6211553266775
 30
0.0
 10
51.38145813361866
 20
600.9827433488542
 30
0.0
 10
50.4713810783357
 20
601.1483527132116
 30
0.0
 10
48.2108444073176
 20
601.4237933949024
 30
0.0
 10
46.84418194313582
 20
601.5350201986735
 30
0.0
 10
43.89611990946398
 20
601.6839291944394
 30
0.0
 10
42.2841205804802
 20
601.7231348532433
 30
0.0
 10
39.08855248444068
 20
601.7233416397413
 30
0.0
 10
37.48284122760635
 20
601.6847119727124
 30
0.0
 10
34.51663681313539
 20
601.5352691416825
 30
0.0
 10
33.16619419014144
 20
601.4257922243364
 30
0.0
 10
30.878248375613
 20
601.1472478686359
 30
0.0
 10
29.97883157805664
 20
600.9829103096238
 30
0.0
 10
28.74815255084128
 20
600.6210801220745
 30
0.0
 10
28.43039794161304
 20
600.4257193766565
 30
0.0
 10
28.42944810634341
 20
600.0982462820173
 30
0.0
 10
28.5777104537858
 20
599.9649190530143
 30
0.0
 10
28.86468175116647
 20
599.8366216216335
 30
0.0
  0
SPLINE
  5
AA
330
72
100
AcDbEntity
  8
$DDT_AUDIT_GENERATED_(A3)
  6
Continuous
 62
     7
100
AcDbSpline
210
0.0
220
0.0
230
1.0
 70
     8
 71
     3
 72
     8
 73
     4
 74
     0
 42
0.0000000006558346
 43
0.0000000001
 40
0.9578761692683657
 40
0.9578761692683657
 40
0.9578761692683657
 40
0.9578761692683657
 40
1.0
 40
1.0
 40
1.0
 40
1.0
 10
52.4982788118335
 20
599.8378858220108
 30
0.0
 10
52.78207426064971
 20
599.9650382032089
 30
0.0
 10
52.92983200640665
 20
600.097391861274
 30
0.0
 10
52.92983200640665
 20
600.2303389991488
 30
0.0
  0
LINE
  5
AB
330
72
100
AcDbEntity
  8
$DDT_AUDIT_GENERATED_(A3)
  6
Continuous
 62
     7
100
AcDbLine
 10
56.1798320064
 20
616.1122901977
 30
0.0
 11
25.1798320064
 21
616.1122901977
 31
0.0
  0
ARC
  5
AC
330
72
100
AcDbEntity
  8
$DDT_AUDIT_GENERATED_(A3)
  6
Continuous
 62
     7
100
AcDbCircle
 10
56.1798320064
 20
615.6122915483
 30
0.0
 40
0.5000000000019259
100
AcDbArc
 50
0.0000625883
 51
90.0000000001
  0
ARC
  5
AD
330
72
100
AcDbEntity
  8
$DDT_AUDIT_GENERATED_(A3)
  6
Continuous
 62
     7
100
AcDbCircle
 10
25.1798320064
 20
615.6122915483
 30
0.0
 40
0.4999993246848633
100
AcDbArc
 50
90.0000000002
 51
180.0000883099
  0
LINE
  5
AF
330
72
100
AcDbEntity
  8
$DDT_AUDIT_GENERATED_(AE)
  6
Continuous
 62
     7
100
AcDbLine
 10
23.1798320064
 20
476.5876394912
 30
0.0
 11
58.1798320064
 21
476.5876394912
 31
0.0
  0
ARC
  5
B0
330
72
100
AcDbEntity
  8
$DDT_AUDIT_GENERATED_(AE)
  6
Continuous
 62
     7
100
AcDbCircle
 10
23.1798320064
 20
476.0876394912
 30
0.0
 40
0.5000000000000004
100
AcDbArc
 50
90.0
 51
156.4218215218
  0
ARC
  5
B1
330
72
100
AcDbEntity
  8
$DDT_AUDIT_GENERATED_(AE)
  6
Continuous
 62
     7
100
AcDbCircle
 10
58.1798320064
 20
476.0876394912
 30
0.0
 40
0.5000000000000004
100
AcDbArc
 50
23.5781784782
 51
90.0
  0
ELLIPSE
  5
B3
330
72
100
AcDbEntity
  8
$DDT_AUDIT_GENERATED_(B2)
  6
Continuous
 62
     7
100
AcDbEllipse
 10
40.6798320067
 20
592.5924874242
 30
0.0
 11
7.999999999030257
 21
3.372302437298913E-11
 31
0.0
210
0.0
220
0.0
230
1.0
 40
0.1218693434
 41
-1.471202080344901
 42
-1.379565948507771
  0
ELLIPSE
  5
B4
330
72
100
AcDbEntity
  8
$DDT_AUDIT_GENERATED_(B2)
  6
Continuous
 62
     7
100
AcDbEllipse
 10
40.6798320064
 20
592.0962143487
 30
0.0
 11
8.000000000000007
 21
0.0
 31
0.0
210
0.0
220
0.0
230
1.0
 40
0.1218693434
 41
0.0
 42
6.283185307179586
  0
ELLIPSE
  5
B5
330
72
100
AcDbEntity
  8
$DDT_AUDIT_GENERATED_(B2)
  6
Continuous
 62
     7
100
AcDbEllipse
 10
40.6798320064
 20
592.0962143487
 30
0.0
 11
8.250000000000004
 21
0.0
 31
0.0
210
0.0
220
0.0
230
1.0
 40
0.1218693434
 41
0.0
 42
6.283185307179586
  0
ELLIPSE
  5
B6
330
72
100
AcDbEntity
  8
$DDT_AUDIT_GENERATED_(B2)
  6
Continuous
 62
     7
100
AcDbEllipse
 10
40.6798320064
 20
592.0962143487
 30
0.0
 11
-8.749999999999996
 21
0.0
 31
0.0
210
0.0
220
0.0
230
1.0
 40
0.1218693434
 41
0.0
 42
6.283185307179586
  0
ELLIPSE
  5
B7
330
72
100
AcDbEntity
  8
$DDT_AUDIT_GENERATED_(B2)
  6
Continuous
 62
     7
100
AcDbEllipse
 10
40.6798320064
 20
592.5924874245
 30
0.0
 11
-8.749999999999998
 21
0.0
 31
0.0
210
0.0
220
0.0
230
1.0
 40
0.1218693434
 41
0.2348484643394007
 42
0.339692576167349
  0
ELLIPSE
  5
B8
330
72
100
AcDbEntity
  8
$DDT_AUDIT_GENERATED_(B2)
  6
Continuous
 62
     7
100
AcDbEllipse
 10
40.6798320064
 20
592.5924874245
 30
0.0
 11
-8.749999999999998
 21
0.0
 31
0.0
210
0.0
220
0.0
230
1.0
 40
0.1218693434
 41
-3.48128522975714
 42
-3.37644111792919
  0
ELLIPSE
  5
B9
330
72
100
AcDbEntity
  8
$DDT_AUDIT_GENERATED_(B2)
  6
Continuous
 62
     7
100
AcDbEllipse
 10
40.6798320064
 20
592.0962143487
 30
0.0
 11
9.050000000000001
 21
0.0
 31
0.0
210
0.0
220
0.0
230
1.0
 40
0.1218693434
 41
0.2193424918397709
 42
2.954752493816872
  0
ELLIPSE
  5
BA
330
72
100
AcDbEntity
  8
$DDT_AUDIT_GENERATED_(B2)
  6
Continuous
 62
     7
100
AcDbEllipse
 10
40.6798320064
 20
592.0962143487
 30
0.0
 11
9.050000000000001
 21
0.0
 31
0.0
210
0.0
220
0.0
230
1.0
 40
0.1218693434
 41
3.417222442476697
 42
5.922395148377114
  0
LINE
  5
BB
330
72
100
AcDbEntity
  8
$DDT_AUDIT_GENERATED_(B2)
  6
Continuous
 62
     7
100
AcDbLine
 10
41.2128447083
 20
592.3158909051
 30
0.0
 11
41.2128447083
 21
592.1940215617
 31
0.0
  0
LINE
  5
BC
330
72
100
AcDbEntity
  8
$DDT_AUDIT_GENERATED_(B2)
  6
Continuous
 62
     7
100
AcDbLine
 10
41.6458574102
 20
592.2854235693
 30
0.0
 11
41.2128447083
 21
592.3158909051
 31
0.0
  0
LINE
  5
BD
330
72
100
AcDbEntity
  8
$DDT_AUDIT_GENERATED_(B2)
  6
Continuous
 62
     7
100
AcDbLine
 10
41.2128447083
 20
592.3158909051
 30
0.0
 11
40.7798320064
 21
592.2854235693
 31
0.0
  0
LINE
  5
BE
330
72
100
AcDbEntity
  8
$DDT_AUDIT_GENERATED_(B2)
  6
Continuous
 62
     7
100
AcDbLine
 10
40.7798320064
 20
592.2854235693
 30
0.0
 11
40.7798320064
 21
592.2244888976
 31
0.0
  0
LINE
  5
BF
330
72
100
AcDbEntity
  8
$DDT_AUDIT_GENERATED_(B2)
  6
Continuous
 62
     7
100
AcDbLine
 10
40.7798320064
 20
592.2244888976
 30
0.0
 11
41.2128447083
 21
592.1940215617
 31
0.0
  0
LINE
  5
C0
330
72
100
AcDbEntity
  8
$DDT_AUDIT_GENERATED_(B2)
  6
Continuous
 62
     7
100
AcDbLine
 10
41.2128447083
 20
592.1940215617
 30
0.0
 11
41.6458574102
 21
592.2244888976
 31
0.0
  0
LINE
  5
C1
330
72
100
AcDbEntity
  8
$DDT_AUDIT_GENERATED_(B2)
  6
Continuous
 62
     7
100
AcDbLine
 10
41.6458574102
 20
592.2244888976
 30
0.0
 11
41.6458574102
 21
592.2854235693
 31
0.0
  0
LINE
  5
C2
330
72
100
AcDbEntity
  8
$DDT_AUDIT_GENERATED_(B2)
  6
Continuous
 62
     7
100
AcDbLine
 10
40.6798320064
 20
592.4284013021
 30
0.0
 11
40.6798320064
 21
592.3065319587
 31
0.0
  0
LINE
  5
C3
330
72
100
AcDbEntity
  8
$DDT_AUDIT_GENERATED_(B2)
  6
Continuous
 62
     7
100
AcDbLine
 10
40.6798320064
 20
592.3065319587
 30
0.0
 11
41.1128447083
 21
592.3369992946
 31
0.0
  0
LINE
  5
C4
330
72
100
AcDbEntity
  8
$DDT_AUDIT_GENERATED_(B2)
  6
Continuous
 62
     7
100
AcDbLine
 10
41.1128447083
 20
592.3369992946
 30
0.0
 11
41.1128447083
 21
592.3979339663
 31
0.0
  0
LINE
  5
C5
330
72
100
AcDbEntity
  8
$DDT_AUDIT_GENERATED_(B2)
  6
Continuous
 62
     7
100
AcDbLine
 10
41.1128447083
 20
592.3979339663
 30
0.0
 11
40.6798320064
 21
592.4284013021
 31
0.0
  0
LINE
  5
C6
330
72
100
AcDbEntity
  8
$DDT_AUDIT_GENERATED_(B2)
  6
Continuous
 62
     7
100
AcDbLine
 10
41.2128447083
 20
592.5409116992
 30
0.0
 11
41.2128447083
 21
592.4190423558
 31
0.0
  0
LINE
  5
C7
330
72
100
AcDbEntity
  8
$DDT_AUDIT_GENERATED_(B2)
  6
Continuous
 62
     7
100
AcDbLine
 10
40.7798320064
 20
592.4495096916
 30
0.0
 11
41.2128447083
 21
592.4190423558
 31
0.0
  0
LINE
  5
C8
330
72
100
AcDbEntity
  8
$DDT_AUDIT_GENERATED_(B2)
  6
Continuous
 62
     7
100
AcDbLine
 10
41.2128447083
 20
592.4190423558
 30
0.0
 11
41.6458574102
 21
592.4495096916
 31
0.0
  0
LINE
  5
C9
330
72
100
AcDbEntity
  8
$DDT_AUDIT_GENERATED_(B2)
  6
Continuous
 62
     7
100
AcDbLine
 10
41.6458574102
 20
592.4495096916
 30
0.0
 11
41.6458574102
 21
592.5104443633
 31
0.0
  0
LINE
  5
CA
330
72
100
AcDbEntity
  8
$DDT_AUDIT_GENERATED_(B2)
  6
Continuous
 62
     7
100
AcDbLine
 10
41.6458574102
 20
592.5104443633
 30
0.0
 11
41.2128447083
 21
592.5409116992
 31
0.0
  0
LINE
  5
CB
330
72
100
AcDbEntity
  8
$DDT_AUDIT_GENERATED_(B2)
  6
Continuous
 62
     7
100
AcDbLine
 10
41.2128447083
 20
592.5409116992
 30
0.0
 11
40.7798320064
 21
592.5104443633
 31
0.0
  0
LINE
  5
CC
330
72
100
AcDbEntity
  8
$DDT_AUDIT_GENERATED_(B2)
  6
Continuous
 62
     7
100
AcDbLine
 10
40.7798320064
 20
592.5104443633
 30
0.0
 11
40.7798320064
 21
592.4495096916
 31
0.0
  0
LINE
  5
CD
330
72
100
AcDbEntity
  8
$DDT_AUDIT_GENERATED_(B2)
  6
Continuous
 62
     7
100
AcDbLine
 10
41.7458574102
 20
592.4284013021
 30
0.0
 11
41.7458574102
 21
592.3065319587
 31
0.0
  0
LINE
  5
CE
330
72
100
AcDbEntity
  8
$DDT_AUDIT_GENERATED_(B2)
  6
Continuous
 62
     7
100
AcDbLine
 10
42.1788701121
 20
592.3979339663
 30
0.0
 11
41.7458574102
 21
592.4284013021
 31
0.0
  0
LINE
  5
CF
330
72
100
AcDbEntity
  8
$DDT_AUDIT_GENERATED_(B2)
  6
Continuous
 62
     7
100
AcDbLine
 10
41.7458574102
 20
592.4284013021
 30
0.0
 11
41.3128447083
 21
592.3979339663
 31
0.0
  0
LINE
  5
D0
330
72
100
AcDbEntity
  8
$DDT_AUDIT_GENERATED_(B2)
  6
Continuous
 62
     7
100
AcDbLine
 10
41.3128447083
 20
592.3979339663
 30
0.0
 11
41.3128447083
 21
592.3369992946
 31
0.0
  0
LINE
  5
D1
330
72
100
AcDbEntity
  8
$DDT_AUDIT_GENERATED_(B2)
  6
Continuous
 62
     7
100
AcDbLine
 10
41.3128447083
 20
592.3369992946
 30
0.0
 11
41.7458574102
 21
592.3065319587
 31
0.0
  0
LINE
  5
D2
330
72
100
AcDbEntity
  8
$DDT_AUDIT_GENERATED_(B2)
  6
Continuous
 62
     7
100
AcDbLine
 10
41.7458574102
 20
592.3065319587
 30
0.0
 11
42.1788701121
 21
592.3369992946
 31
0.0
  0
LINE
  5
D3
330
72
100
AcDbEntity
  8
$DDT_AUDIT_GENERATED_(B2)
  6
Continuous
 62
     7
100
AcDbLine
 10
42.1788701121
 20
592.3369992946
 30
0.0
 11
42.1788701121
 21
592.3979339663
 31
0.0
  0
LINE
  5
D4
330
72
100
AcDbEntity
  8
$DDT_AUDIT_GENERATED_(B2)
  6
Continuous
 62
     7
100
AcDbLine
 10
42.2788701121
 20
592.5409116992
 30
0.0
 11
42.2788701121
 21
592.4190423558
 31
0.0
  0
LINE
  5
D5
330
72
100
AcDbEntity
  8
$DDT_AUDIT_GENERATED_(B2)
  6
Continuous
 62
     7
100
AcDbLine
 10
41.8458574102
 20
592.5104443633
 30
0.0
 11
41.8458574102
 21
592.4495096916
 31
0.0
  0
LINE
  5
D6
330
72
100
AcDbEntity
  8
$DDT_AUDIT_GENERATED_(B2)
  6
Continuous
 62
     7
100
AcDbLine
 10
41.8458574102
 20
592.4495096916
 30
0.0
 11
42.2788701121
 21
592.4190423558
 31
0.0
  0
LINE
  5
D7
330
72
100
AcDbEntity
  8
$DDT_AUDIT_GENERATED_(B2)
  6
Continuous
 62
     7
100
AcDbLine
 10
42.2788701121
 20
592.4190423558
 30
0.0
 11
42.7118828139
 21
592.4495096916
 31
0.0
  0
LINE
  5
D8
330
72
100
AcDbEntity
  8
$DDT_AUDIT_GENERATED_(B2)
  6
Continuous
 62
     7
100
AcDbLine
 10
42.7118828139
 20
592.4495096916
 30
0.0
 11
42.7118828139
 21
592.5104443633
 31
0.0
  0
LINE
  5
D9
330
72
100
AcDbEntity
  8
$DDT_AUDIT_GENERATED_(B2)
  6
Continuous
 62
     7
100
AcDbLine
 10
42.7118828139
 20
592.5104443633
 30
0.0
 11
42.2788701121
 21
592.5409116992
 31
0.0
  0
LINE
  5
DA
330
72
100
AcDbEntity
  8
$DDT_AUDIT_GENERATED_(B2)
  6
Continuous
 62
     7
100
AcDbLine
 10
42.2788701121
 20
592.5409116992
 30
0.0
 11
41.8458574102
 21
592.5104443633
 31
0.0
  0
LINE
  5
DB
330
72
100
AcDbEntity
  8
$DDT_AUDIT_GENERATED_(B2)
  6
Continuous
 62
     7
100
AcDbLine
 10
41.7458574102
 20
592.6534220962
 30
0.0
 11
41.7458574102
 21
592.5315527528
 31
0.0
  0
LINE
  5
DC
330
72
100
AcDbEntity
  8
$DDT_AUDIT_GENERATED_(B2)
  6
Continuous
 62
     7
100
AcDbLine
 10
41.3128447083
 20
592.5620200886
 30
0.0
 11
41.7458574102
 21
592.5315527528
 31
0.0
  0
LINE
  5
DD
330
72
100
AcDbEntity
  8
$DDT_AUDIT_GENERATED_(B2)
  6
Continuous
 62
     7
100
AcDbLine
 10
41.7458574102
 20
592.5315527528
 30
0.0
 11
42.1788701121
 21
592.5620200886
 31
0.0
  0
LINE
  5
DE
330
72
100
AcDbEntity
  8
$DDT_AUDIT_GENERATED_(B2)
  6
Continuous
 62
     7
100
AcDbLine
 10
42.1788701121
 20
592.5620200886
 30
0.0
 11
42.1788701121
 21
592.6229547603
 31
0.0
  0
LINE
  5
DF
330
72
100
AcDbEntity
  8
$DDT_AUDIT_GENERATED_(B2)
  6
Continuous
 62
     7
100
AcDbLine
 10
41.3128447083
 20
592.6229547603
 30
0.0
 11
41.3128447083
 21
592.5620200886
 31
0.0
  0
LINE
  5
E0
330
72
100
AcDbEntity
  8
$DDT_AUDIT_GENERATED_(B2)
  6
Continuous
 62
     7
100
AcDbLine
 10
40.6798320064
 20
591.75333892
 30
0.0
 11
40.6798320064
 21
591.6314695766
 31
0.0
  0
LINE
  5
E1
330
72
100
AcDbEntity
  8
$DDT_AUDIT_GENERATED_(B2)
  6
Continuous
 62
     7
100
AcDbLine
 10
40.6798320064
 20
591.6314695766
 30
0.0
 11
41.1128447083
 21
591.6619369125
 31
0.0
  0
LINE
  5
E2
330
72
100
AcDbEntity
  8
$DDT_AUDIT_GENERATED_(B2)
  6
Continuous
 62
     7
100
AcDbLine
 10
41.1128447083
 20
591.6619369125
 30
0.0
 11
41.1128447083
 21
591.7228715842
 31
0.0
  0
LINE
  5
E3
330
72
100
AcDbEntity
  8
$DDT_AUDIT_GENERATED_(B2)
  6
Continuous
 62
     7
100
AcDbLine
 10
41.1128447083
 20
591.7228715842
 30
0.0
 11
40.6798320064
 21
591.75333892
 31
0.0
  0
LINE
  5
E4
330
72
100
AcDbEntity
  8
$DDT_AUDIT_GENERATED_(B2)
  6
Continuous
 62
     7
100
AcDbLine
 10
41.4752694623
 20
591.6223639766
 30
0.0
 11
41.2128447083
 21
591.640828523
 31
0.0
  0
LINE
  5
E5
330
72
100
AcDbEntity
  8
$DDT_AUDIT_GENERATED_(B2)
  6
Continuous
 62
     7
100
AcDbLine
 10
41.2128447083
 20
591.640828523
 30
0.0
 11
40.8863746294
 21
591.6178576644
 31
0.0
  0
LINE
  5
E6
330
72
100
AcDbEntity
  8
$DDT_AUDIT_GENERATED_(B2)
  6
Continuous
 62
     7
100
AcDbLine
 10
41.7458574102
 20
591.75333892
 30
0.0
 11
41.7458574102
 21
591.6314695766
 31
0.0
  0
LINE
  5
E7
330
72
100
AcDbEntity
  8
$DDT_AUDIT_GENERATED_(B2)
  6
Continuous
 62
     7
100
AcDbLine
 10
41.3128447083
 20
591.7228715842
 30
0.0
 11
41.3128447083
 21
591.6619369125
 31
0.0
  0
LINE
  5
E8
330
72
100
AcDbEntity
  8
$DDT_AUDIT_GENERATED_(B2)
  6
Continuous
 62
     7
100
AcDbLine
 10
41.3128447083
 20
591.6619369125
 30
0.0
 11
41.7458574102
 21
591.6314695766
 31
0.0
  0
LINE
  5
E9
330
72
100
AcDbEntity
  8
$DDT_AUDIT_GENERATED_(B2)
  6
Continuous
 62
     7
100
AcDbLine
 10
41.7458574102
 20
591.6314695766
 30
0.0
 11
42.1788701121
 21
591.6619369125
 31
0.0
  0
LINE
  5
EA
330
72
100
AcDbEntity
  8
$DDT_AUDIT_GENERATED_(B2)
  6
Continuous
 62
     7
100
AcDbLine
 10
42.1788701121
 20
591.6619369125
 30
0.0
 11
42.1788701121
 21
591.7228715842
 31
0.0
  0
LINE
  5
EB
330
72
100
AcDbEntity
  8
$DDT_AUDIT_GENERATED_(B2)
  6
Continuous
 62
     7
100
AcDbLine
 10
42.1788701121
 20
591.7228715842
 30
0.0
 11
41.7458574102
 21
591.75333892
 31
0.0
  0
LINE
  5
EC
330
72
100
AcDbEntity
  8
$DDT_AUDIT_GENERATED_(B2)
  6
Continuous
 62
     7
100
AcDbLine
 10
41.7458574102
 20
591.75333892
 30
0.0
 11
41.3128447083
 21
591.7228715842
 31
0.0
  0
LINE
  5
ED
330
72
100
AcDbEntity
  8
$DDT_AUDIT_GENERATED_(B2)
  6
Continuous
 62
     7
100
AcDbLine
 10
41.2128447083
 20
591.865849317
 30
0.0
 11
41.2128447083
 21
591.7439799736
 31
0.0
  0
LINE
  5
EE
330
72
100
AcDbEntity
  8
$DDT_AUDIT_GENERATED_(B2)
  6
Continuous
 62
     7
100
AcDbLine
 10
40.7798320064
 20
591.7744473095
 30
0.0
 11
41.2128447083
 21
591.7439799736
 31
0.0
  0
LINE
  5
EF
330
72
100
AcDbEntity
  8
$DDT_AUDIT_GENERATED_(B2)
  6
Continuous
 62
     7
100
AcDbLine
 10
41.2128447083
 20
591.7439799736
 30
0.0
 11
41.6458574102
 21
591.7744473095
 31
0.0
  0
LINE
  5
F0
330
72
100
AcDbEntity
  8
$DDT_AUDIT_GENERATED_(B2)
  6
Continuous
 62
     7
100
AcDbLine
 10
41.6458574102
 20
591.7744473095
 30
0.0
 11
41.6458574102
 21
591.8353819812
 31
0.0
  0
LINE
  5
F1
330
72
100
AcDbEntity
  8
$DDT_AUDIT_GENERATED_(B2)
  6
Continuous
 62
     7
100
AcDbLine
 10
41.6458574102
 20
591.8353819812
 30
0.0
 11
41.2128447083
 21
591.865849317
 31
0.0
  0
LINE
  5
F2
330
72
100
AcDbEntity
  8
$DDT_AUDIT_GENERATED_(B2)
  6
Continuous
 62
     7
100
AcDbLine
 10
41.2128447083
 20
591.865849317
 30
0.0
 11
40.7798320064
 21
591.8353819812
 31
0.0
  0
LINE
  5
F3
330
72
100
AcDbEntity
  8
$DDT_AUDIT_GENERATED_(B2)
  6
Continuous
 62
     7
100
AcDbLine
 10
40.7798320064
 20
591.8353819812
 30
0.0
 11
40.7798320064
 21
591.7744473095
 31
0.0
  0
LINE
  5
F4
330
72
100
AcDbEntity
  8
$DDT_AUDIT_GENERATED_(B2)
  6
Continuous
 62
     7
100
AcDbLine
 10
41.2128447083
 20
592.0908701111
 30
0.0
 11
41.2128447083
 21
591.9690007677
 31
0.0
  0
LINE
  5
F5
330
72
100
AcDbEntity
  8
$DDT_AUDIT_GENERATED_(B2)
  6
Continuous
 62
     7
100
AcDbLine
 10
40.7798320064
 20
592.0604027752
 30
0.0
 11
40.7798320064
 21
591.9994681035
 31
0.0
  0
LINE
  5
F6
330
72
100
AcDbEntity
  8
$DDT_AUDIT_GENERATED_(B2)
  6
Continuous
 62
     7
100
AcDbLine
 10
40.7798320064
 20
591.9994681035
 30
0.0
 11
41.2128447083
 21
591.9690007677
 31
0.0
  0
LINE
  5
F7
330
72
100
AcDbEntity
  8
$DDT_AUDIT_GENERATED_(B2)
  6
Continuous
 62
     7
100
AcDbLine
 10
41.2128447083
 20
591.9690007677
 30
0.0
 11
41.6458574102
 21
591.9994681035
 31
0.0
  0
LINE
  5
F8
330
72
100
AcDbEntity
  8
$DDT_AUDIT_GENERATED_(B2)
  6
Continuous
 62
     7
100
AcDbLine
 10
41.6458574102
 20
591.9994681035
 30
0.0
 11
41.6458574102
 21
592.0604027752
 31
0.0
  0
LINE
  5
F9
330
72
100
AcDbEntity
  8
$DDT_AUDIT_GENERATED_(B2)
  6
Continuous
 62
     7
100
AcDbLine
 10
41.6458574102
 20
592.0604027752
 30
0.0
 11
41.2128447083
 21
592.0908701111
 31
0.0
  0
LINE
  5
FA
330
72
100
AcDbEntity
  8
$DDT_AUDIT_GENERATED_(B2)
  6
Continuous
 62
     7
100
AcDbLine
 10
41.2128447083
 20
592.0908701111
 30
0.0
 11
40.7798320064
 21
592.0604027752
 31
0.0
  0
LINE
  5
FB
330
72
100
AcDbEntity
  8
$DDT_AUDIT_GENERATED_(B2)
  6
Continuous
 62
     7
100
AcDbLine
 10
41.1128447083
 20
592.1119785005
 30
0.0
 11
40.6798320064
 21
592.0815111647
 31
0.0
  0
LINE
  5
FC
330
72
100
AcDbEntity
  8
$DDT_AUDIT_GENERATED_(B2)
  6
Continuous
 62
     7
100
AcDbLine
 10
40.6798320064
 20
592.2033805081
 30
0.0
 11
41.1128447083
 21
592.1729131723
 31
0.0
  0
LINE
  5
FD
330
72
100
AcDbEntity
  8
$DDT_AUDIT_GENERATED_(B2)
  6
Continuous
 62
     7
100
AcDbLine
 10
41.1128447083
 20
592.1729131723
 30
0.0
 11
41.1128447083
 21
592.1119785005
 31
0.0
  0
LINE
  5
FE
330
72
100
AcDbEntity
  8
$DDT_AUDIT_GENERATED_(B2)
  6
Continuous
 62
     7
100
AcDbLine
 10
40.6798320064
 20
592.2033805081
 30
0.0
 11
40.6798320064
 21
592.0815111647
 31
0.0
  0
LINE
  5
FF
330
72
100
AcDbEntity
  8
$DDT_AUDIT_GENERATED_(B2)
  6
Continuous
 62
     7
100
AcDbLine
 10
41.7458574102
 20
592.2033805081
 30
0.0
 11
41.7458574102
 21
592.0815111647
 31
0.0
  0
LINE
  5
100
330
72
100
AcDbEntity
  8
$DDT_AUDIT_GENERATED_(B2)
  6
Continuous
 62
     7
100
AcDbLine
 10
41.3128447083
 20
592.1729131723
 30
0.0
 11
41.3128447083
 21
592.1119785005
 31
0.0
  0
LINE
  5
101
330
72
100
AcDbEntity
  8
$DDT_AUDIT_GENERATED_(B2)
  6
Continuous
 62
     7
100
AcDbLine
 10
41.3128447083
 20
592.1119785005
 30
0.0
 11
41.7458574102
 21
592.0815111647
 31
0.0
  0
LINE
  5
102
330
72
100
AcDbEntity
  8
$DDT_AUDIT_GENERATED_(B2)
  6
Continuous
 62
     7
100
AcDbLine
 10
41.7458574102
 20
592.0815111647
 30
0.0
 11
42.1788701121
 21
592.1119785005
 31
0.0
  0
LINE
  5
103
330
72
100
AcDbEntity
  8
$DDT_AUDIT_GENERATED_(B2)
  6
Continuous
 62
     7
100
AcDbLine
 10
42.1788701121
 20
592.1119785005
 30
0.0
 11
42.1788701121
 21
592.1729131723
 31
0.0
  0
LINE
  5
104
330
72
100
AcDbEntity
  8
$DDT_AUDIT_GENERATED_(B2)
  6
Continuous
 62
     7
100
AcDbLine
 10
42.1788701121
 20
592.1729131723
 30
0.0
 11
41.7458574102
 21
592.2033805081
 31
0.0
  0
LINE
  5
105
330
72
100
AcDbEntity
  8
$DDT_AUDIT_GENERATED_(B2)
  6
Continuous
 62
     7
100
AcDbLine
 10
41.7458574102
 20
592.2033805081
 30
0.0
 11
41.3128447083
 21
592.1729131723
 31
0.0
  0
LINE
  5
106
330
72
100
AcDbEntity
  8
$DDT_AUDIT_GENERATED_(B2)
  6
Continuous
 62
     7
100
AcDbLine
 10
42.2788701121
 20
592.3158909051
 30
0.0
 11
42.2788701121
 21
592.1940215617
 31
0.0
  0
LINE
  5
107
330
72
100
AcDbEntity
  8
$DDT_AUDIT_GENERATED_(B2)
  6
Continuous
 62
     7
100
AcDbLine
 10
42.2788701121
 20
592.3158909051
 30
0.0
 11
41.8458574102
 21
592.2854235693
 31
0.0
  0
LINE
  5
108
330
72
100
AcDbEntity
  8
$DDT_AUDIT_GENERATED_(B2)
  6
Continuous
 62
     7
100
AcDbLine
 10
41.8458574102
 20
592.2854235693
 30
0.0
 11
41.8458574102
 21
592.2244888976
 31
0.0
  0
LINE
  5
109
330
72
100
AcDbEntity
  8
$DDT_AUDIT_GENERATED_(B2)
  6
Continuous
 62
     7
100
AcDbLine
 10
41.8458574102
 20
592.2244888976
 30
0.0
 11
42.2788701121
 21
592.1940215617
 31
0.0
  0
LINE
  5
10A
330
72
100
AcDbEntity
  8
$DDT_AUDIT_GENERATED_(B2)
  6
Continuous
 62
     7
100
AcDbLine
 10
42.2788701121
 20
592.1940215617
 30
0.0
 11
42.7118828139
 21
592.2244888976
 31
0.0
  0
LINE
  5
10B
330
72
100
AcDbEntity
  8
$DDT_AUDIT_GENERATED_(B2)
  6
Continuous
 62
     7
100
AcDbLine
 10
42.7118828139
 20
592.2244888976
 30
0.0
 11
42.7118828139
 21
592.2854235693
 31
0.0
  0
LINE
  5
10C
330
72
100
AcDbEntity
  8
$DDT_AUDIT_GENERATED_(B2)
  6
Continuous
 62
     7
100
AcDbLine
 10
42.7118828139
 20
592.2854235693
 30
0.0
 11
42.2788701121
 21
592.3158909051
 31
0.0
  0
LINE
  5
10D
330
72
100
AcDbEntity
  8
$DDT_AUDIT_GENERATED_(B2)
  6
Continuous
 62
     7
100
AcDbLine
 10
42.8118828139
 20
592.4284013021
 30
0.0
 11
42.8118828139
 21
592.3065319587
 31
0.0
  0
LINE
  5
10E
330
72
100
AcDbEntity
  8
$DDT_AUDIT_GENERATED_(B2)
  6
Continuous
 62
     7
100
AcDbLine
 10
42.8118828139
 20
592.4284013021
 30
0.0
 11
42.3788701121
 21
592.3979339663
 31
0.0
  0
LINE
  5
10F
330
72
100
AcDbEntity
  8
$DDT_AUDIT_GENERATED_(B2)
  6
Continuous
 62
     7
100
AcDbLine
 10
42.3788701121
 20
592.3979339663
 30
0.0
 11
42.3788701121
 21
592.3369992946
 31
0.0
  0
LINE
  5
110
330
72
100
AcDbEntity
  8
$DDT_AUDIT_GENERATED_(B2)
  6
Continuous
 62
     7
100
AcDbLine
 10
42.3788701121
 20
592.3369992946
 30
0.0
 11
42.8118828139
 21
592.3065319587
 31
0.0
  0
LINE
  5
111
330
72
100
AcDbEntity
  8
$DDT_AUDIT_GENERATED_(B2)
  6
Continuous
 62
     7
100
AcDbLine
 10
42.8118828139
 20
592.3065319587
 30
0.0
 11
43.2448955158
 21
592.3369992946
 31
0.0
  0
LINE
  5
112
330
72
100
AcDbEntity
  8
$DDT_AUDIT_GENERATED_(B2)
  6
Continuous
 62
     7
100
AcDbLine
 10
43.2448955158
 20
592.3369992946
 30
0.0
 11
43.2448955158
 21
592.3979339663
 31
0.0
  0
LINE
  5
113
330
72
100
AcDbEntity
  8
$DDT_AUDIT_GENERATED_(B2)
  6
Continuous
 62
     7
100
AcDbLine
 10
43.2448955158
 20
592.3979339663
 30
0.0
 11
42.8118828139
 21
592.4284013021
 31
0.0
  0
LINE
  5
114
330
72
100
AcDbEntity
  8
$DDT_AUDIT_GENERATED_(B2)
  6
Continuous
 62
     7
100
AcDbLine
 10
43.3448955158
 20
592.5409116992
 30
0.0
 11
43.3448955158
 21
592.4190423558
 31
0.0
  0
LINE
  5
115
330
72
100
AcDbEntity
  8
$DDT_AUDIT_GENERATED_(B2)
  6
Continuous
 62
     7
100
AcDbLine
 10
43.3448955158
 20
592.5409116992
 30
0.0
 11
42.9118828139
 21
592.5104443633
 31
0.0
  0
LINE
  5
116
330
72
100
AcDbEntity
  8
$DDT_AUDIT_GENERATED_(B2)
  6
Continuous
 62
     7
100
AcDbLine
 10
42.9118828139
 20
592.5104443633
 30
0.0
 11
42.9118828139
 21
592.4495096916
 31
0.0
  0
LINE
  5
117
330
72
100
AcDbEntity
  8
$DDT_AUDIT_GENERATED_(B2)
  6
Continuous
 62
     7
100
AcDbLine
 10
42.9118828139
 20
592.4495096916
 30
0.0
 11
43.3448955158
 21
592.4190423558
 31
0.0
  0
LINE
  5
118
330
72
100
AcDbEntity
  8
$DDT_AUDIT_GENERATED_(B2)
  6
Continuous
 62
     7
100
AcDbLine
 10
43.3448955158
 20
592.4190423558
 30
0.0
 11
43.7779082177
 21
592.4495096916
 31
0.0
  0
LINE
  5
119
330
72
100
AcDbEntity
  8
$DDT_AUDIT_GENERATED_(B2)
  6
Continuous
 62
     7
100
AcDbLine
 10
43.7779082177
 20
592.4495096916
 30
0.0
 11
43.7779082177
 21
592.5104443633
 31
0.0
  0
LINE
  5
11A
330
72
100
AcDbEntity
  8
$DDT_AUDIT_GENERATED_(B2)
  6
Continuous
 62
     7
100
AcDbLine
 10
43.7779082177
 20
592.5104443633
 30
0.0
 11
43.3448955158
 21
592.5409116992
 31
0.0
  0
LINE
  5
11B
330
72
100
AcDbEntity
  8
$DDT_AUDIT_GENERATED_(B2)
  6
Continuous
 62
     7
100
AcDbLine
 10
42.8118828139
 20
592.6534220962
 30
0.0
 11
42.8118828139
 21
592.5315527528
 31
0.0
  0
LINE
  5
11C
330
72
100
AcDbEntity
  8
$DDT_AUDIT_GENERATED_(B2)
  6
Continuous
 62
     7
100
AcDbLine
 10
42.3788701121
 20
592.6229547603
 30
0.0
 11
42.3788701121
 21
592.5620200886
 31
0.0
  0
LINE
  5
11D
330
72
100
AcDbEntity
  8
$DDT_AUDIT_GENERATED_(B2)
  6
Continuous
 62
     7
100
AcDbLine
 10
42.3788701121
 20
592.5620200886
 30
0.0
 11
42.8118828139
 21
592.5315527528
 31
0.0
  0
LINE
  5
11E
330
72
100
AcDbEntity
  8
$DDT_AUDIT_GENERATED_(B2)
  6
Continuous
 62
     7
100
AcDbLine
 10
42.8118828139
 20
592.5315527528
 30
0.0
 11
43.2448955158
 21
592.5620200886
 31
0.0
  0
LINE
  5
11F
330
72
100
AcDbEntity
  8
$DDT_AUDIT_GENERATED_(B2)
  6
Continuous
 62
     7
100
AcDbLine
 10
43.2448955158
 20
592.5620200886
 30
0.0
 11
43.2448955158
 21
592.6229547603
 31
0.0
  0
LINE
  5
120
330
72
100
AcDbEntity
  8
$DDT_AUDIT_GENERATED_(B2)
  6
Continuous
 62
     7
100
AcDbLine
 10
43.8779082177
 20
592.6534220962
 30
0.0
 11
43.8779082177
 21
592.5315527528
 31
0.0
  0
LINE
  5
121
330
72
100
AcDbEntity
  8
$DDT_AUDIT_GENERATED_(B2)
  6
Continuous
 62
     7
100
AcDbLine
 10
43.4448955158
 20
592.6229547603
 30
0.0
 11
43.4448955158
 21
592.5620200886
 31
0.0
  0
LINE
  5
122
330
72
100
AcDbEntity
  8
$DDT_AUDIT_GENERATED_(B2)
  6
Continuous
 62
     7
100
AcDbLine
 10
43.4448955158
 20
592.5620200886
 30
0.0
 11
43.8779082177
 21
592.5315527528
 31
0.0
  0
LINE
  5
123
330
72
100
AcDbEntity
  8
$DDT_AUDIT_GENERATED_(B2)
  6
Continuous
 62
     7
100
AcDbLine
 10
43.8779082177
 20
592.5315527528
 30
0.0
 11
44.3109209196
 21
592.5620200886
 31
0.0
  0
LINE
  5
124
330
72
100
AcDbEntity
  8
$DDT_AUDIT_GENERATED_(B2)
  6
Continuous
 62
     7
100
AcDbLine
 10
44.3109209196
 20
592.5620200886
 30
0.0
 11
44.3109209196
 21
592.6229547603
 31
0.0
  0
LINE
  5
125
330
72
100
AcDbEntity
  8
$DDT_AUDIT_GENERATED_(B2)
  6
Continuous
 62
     7
100
AcDbLine
 10
44.9439336215
 20
592.6534220962
 30
0.0
 11
44.9439336215
 21
592.5315527528
 31
0.0
  0
LINE
  5
126
330
72
100
AcDbEntity
  8
$DDT_AUDIT_GENERATED_(B2)
  6
Continuous
 62
     7
100
AcDbLine
 10
44.5109209196
 20
592.6229547603
 30
0.0
 11
44.5109209196
 21
592.5620200886
 31
0.0
  0
LINE
  5
127
330
72
100
AcDbEntity
  8
$DDT_AUDIT_GENERATED_(B2)
  6
Continuous
 62
     7
100
AcDbLine
 10
44.5109209196
 20
592.5620200886
 30
0.0
 11
44.9439336215
 21
592.5315527528
 31
0.0
  0
LINE
  5
128
330
72
100
AcDbEntity
  8
$DDT_AUDIT_GENERATED_(B2)
  6
Continuous
 62
     7
100
AcDbLine
 10
44.9439336215
 20
592.5315527528
 30
0.0
 11
45.3769463233
 21
592.5620200886
 31
0.0
  0
LINE
  5
129
330
72
100
AcDbEntity
  8
$DDT_AUDIT_GENERATED_(B2)
  6
Continuous
 62
     7
100
AcDbLine
 10
45.3769463233
 20
592.5620200886
 30
0.0
 11
45.3769463233
 21
592.6229547603
 31
0.0
  0
LINE
  5
12A
330
72
100
AcDbEntity
  8
$DDT_AUDIT_GENERATED_(B2)
  6
Continuous
 62
     7
100
AcDbLine
 10
44.4109209196
 20
592.5409116992
 30
0.0
 11
44.4109209196
 21
592.4190423558
 31
0.0
  0
LINE
  5
12B
330
72
100
AcDbEntity
  8
$DDT_AUDIT_GENERATED_(B2)
  6
Continuous
 62
     7
100
AcDbLine
 10
44.8439336215
 20
592.4495096916
 30
0.0
 11
44.8439336215
 21
592.5104443633
 31
0.0
  0
LINE
  5
12C
330
72
100
AcDbEntity
  8
$DDT_AUDIT_GENERATED_(B2)
  6
Continuous
 62
     7
100
AcDbLine
 10
44.8439336215
 20
592.5104443633
 30
0.0
 11
44.4109209196
 21
592.5409116992
 31
0.0
  0
LINE
  5
12D
330
72
100
AcDbEntity
  8
$DDT_AUDIT_GENERATED_(B2)
  6
Continuous
 62
     7
100
AcDbLine
 10
44.4109209196
 20
592.5409116992
 30
0.0
 11
43.9779082177
 21
592.5104443633
 31
0.0
  0
LINE
  5
12E
330
72
100
AcDbEntity
  8
$DDT_AUDIT_GENERATED_(B2)
  6
Continuous
 62
     7
100
AcDbLine
 10
43.9779082177
 20
592.5104443633
 30
0.0
 11
43.9779082177
 21
592.4495096916
 31
0.0
  0
LINE
  5
12F
330
72
100
AcDbEntity
  8
$DDT_AUDIT_GENERATED_(B2)
  6
Continuous
 62
     7
100
AcDbLine
 10
43.9779082177
 20
592.4495096916
 30
0.0
 11
44.4109209196
 21
592.4190423558
 31
0.0
  0
LINE
  5
130
330
72
100
AcDbEntity
  8
$DDT_AUDIT_GENERATED_(B2)
  6
Continuous
 62
     7
100
AcDbLine
 10
44.4109209196
 20
592.4190423558
 30
0.0
 11
44.8439336215
 21
592.4495096916
 31
0.0
  0
LINE
  5
131
330
72
100
AcDbEntity
  8
$DDT_AUDIT_GENERATED_(B2)
  6
Continuous
 62
     7
100
AcDbLine
 10
43.8779082177
 20
592.4284013021
 30
0.0
 11
43.8779082177
 21
592.3065319587
 31
0.0
  0
LINE
  5
132
330
72
100
AcDbEntity
  8
$DDT_AUDIT_GENERATED_(B2)
  6
Continuous
 62
     7
100
AcDbLine
 10
44.3109209196
 20
592.3369992946
 30
0.0
 11
44.3109209196
 21
592.3979339663
 31
0.0
  0
LINE
  5
133
330
72
100
AcDbEntity
  8
$DDT_AUDIT_GENERATED_(B2)
  6
Continuous
 62
     7
100
AcDbLine
 10
44.3109209196
 20
592.3979339663
 30
0.0
 11
43.8779082177
 21
592.4284013021
 31
0.0
  0
LINE
  5
134
330
72
100
AcDbEntity
  8
$DDT_AUDIT_GENERATED_(B2)
  6
Continuous
 62
     7
100
AcDbLine
 10
43.8779082177
 20
592.4284013021
 30
0.0
 11
43.4448955158
 21
592.3979339663
 31
0.0
  0
LINE
  5
135
330
72
100
AcDbEntity
  8
$DDT_AUDIT_GENERATED_(B2)
  6
Continuous
 62
     7
100
AcDbLine
 10
43.4448955158
 20
592.3979339663
 30
0.0
 11
43.4448955158
 21
592.3369992946
 31
0.0
  0
LINE
  5
136
330
72
100
AcDbEntity
  8
$DDT_AUDIT_GENERATED_(B2)
  6
Continuous
 62
     7
100
AcDbLine
 10
43.4448955158
 20
592.3369992946
 30
0.0
 11
43.8779082177
 21
592.3065319587
 31
0.0
  0
LINE
  5
137
330
72
100
AcDbEntity
  8
$DDT_AUDIT_GENERATED_(B2)
  6
Continuous
 62
     7
100
AcDbLine
 10
43.8779082177
 20
592.3065319587
 30
0.0
 11
44.3109209196
 21
592.3369992946
 31
0.0
  0
LINE
  5
138
330
72
100
AcDbEntity
  8
$DDT_AUDIT_GENERATED_(B2)
  6
Continuous
 62
     7
100
AcDbLine
 10
43.3448955158
 20
592.3158909051
 30
0.0
 11
43.3448955158
 21
592.1940215617
 31
0.0
  0
LINE
  5
139
330
72
100
AcDbEntity
  8
$DDT_AUDIT_GENERATED_(B2)
  6
Continuous
 62
     7
100
AcDbLine
 10
43.7779082177
 20
592.2244888976
 30
0.0
 11
43.7779082177
 21
592.2854235693
 31
0.0
  0
LINE
  5
13A
330
72
100
AcDbEntity
  8
$DDT_AUDIT_GENERATED_(B2)
  6
Continuous
 62
     7
100
AcDbLine
 10
43.7779082177
 20
592.2854235693
 30
0.0
 11
43.3448955158
 21
592.3158909051
 31
0.0
  0
LINE
  5
13B
330
72
100
AcDbEntity
  8
$DDT_AUDIT_GENERATED_(B2)
  6
Continuous
 62
     7
100
AcDbLine
 10
43.3448955158
 20
592.3158909051
 30
0.0
 11
42.9118828139
 21
592.2854235693
 31
0.0
  0
LINE
  5
13C
330
72
100
AcDbEntity
  8
$DDT_AUDIT_GENERATED_(B2)
  6
Continuous
 62
     7
100
AcDbLine
 10
42.9118828139
 20
592.2854235693
 30
0.0
 11
42.9118828139
 21
592.2244888976
 31
0.0
  0
LINE
  5
13D
330
72
100
AcDbEntity
  8
$DDT_AUDIT_GENERATED_(B2)
  6
Continuous
 62
     7
100
AcDbLine
 10
42.9118828139
 20
592.2244888976
 30
0.0
 11
43.3448955158
 21
592.1940215617
 31
0.0
  0
LINE
  5
13E
330
72
100
AcDbEntity
  8
$DDT_AUDIT_GENERATED_(B2)
  6
Continuous
 62
     7
100
AcDbLine
 10
43.3448955158
 20
592.1940215617
 30
0.0
 11
43.7779082177
 21
592.2244888976
 31
0.0
  0
LINE
  5
13F
330
72
100
AcDbEntity
  8
$DDT_AUDIT_GENERATED_(B2)
  6
Continuous
 62
     7
100
AcDbLine
 10
42.8118828139
 20
592.2033805081
 30
0.0
 11
42.8118828139
 21
592.0815111647
 31
0.0
  0
LINE
  5
140
330
72
100
AcDbEntity
  8
$DDT_AUDIT_GENERATED_(B2)
  6
Continuous
 62
     7
100
AcDbLine
 10
43.2448955158
 20
592.1119785005
 30
0.0
 11
43.2448955158
 21
592.1729131723
 31
0.0
  0
LINE
  5
141
330
72
100
AcDbEntity
  8
$DDT_AUDIT_GENERATED_(B2)
  6
Continuous
 62
     7
100
AcDbLine
 10
43.2448955158
 20
592.1729131723
 30
0.0
 11
42.8118828139
 21
592.2033805081
 31
0.0
  0
LINE
  5
142
330
72
100
AcDbEntity
  8
$DDT_AUDIT_GENERATED_(B2)
  6
Continuous
 62
     7
100
AcDbLine
 10
42.8118828139
 20
592.2033805081
 30
0.0
 11
42.3788701121
 21
592.1729131723
 31
0.0
  0
LINE
  5
143
330
72
100
AcDbEntity
  8
$DDT_AUDIT_GENERATED_(B2)
  6
Continuous
 62
     7
100
AcDbLine
 10
42.3788701121
 20
592.1729131723
 30
0.0
 11
42.3788701121
 21
592.1119785005
 31
0.0
  0
LINE
  5
144
330
72
100
AcDbEntity
  8
$DDT_AUDIT_GENERATED_(B2)
  6
Continuous
 62
     7
100
AcDbLine
 10
42.3788701121
 20
592.1119785005
 30
0.0
 11
42.8118828139
 21
592.0815111647
 31
0.0
  0
LINE
  5
145
330
72
100
AcDbEntity
  8
$DDT_AUDIT_GENERATED_(B2)
  6
Continuous
 62
     7
100
AcDbLine
 10
42.8118828139
 20
592.0815111647
 30
0.0
 11
43.2448955158
 21
592.1119785005
 31
0.0
  0
LINE
  5
146
330
72
100
AcDbEntity
  8
$DDT_AUDIT_GENERATED_(B2)
  6
Continuous
 62
     7
100
AcDbLine
 10
42.2788701121
 20
592.0908701111
 30
0.0
 11
42.2788701121
 21
591.9690007677
 31
0.0
  0
LINE
  5
147
330
72
100
AcDbEntity
  8
$DDT_AUDIT_GENERATED_(B2)
  6
Continuous
 62
     7
100
AcDbLine
 10
42.7118828139
 20
591.9994681035
 30
0.0
 11
42.7118828139
 21
592.0604027752
 31
0.0
  0
LINE
  5
148
330
72
100
AcDbEntity
  8
$DDT_AUDIT_GENERATED_(B2)
  6
Continuous
 62
     7
100
AcDbLine
 10
42.7118828139
 20
592.0604027752
 30
0.0
 11
42.2788701121
 21
592.0908701111
 31
0.0
  0
LINE
  5
149
330
72
100
AcDbEntity
  8
$DDT_AUDIT_GENERATED_(B2)
  6
Continuous
 62
     7
100
AcDbLine
 10
42.2788701121
 20
592.0908701111
 30
0.0
 11
41.8458574102
 21
592.0604027752
 31
0.0
  0
LINE
  5
14A
330
72
100
AcDbEntity
  8
$DDT_AUDIT_GENERATED_(B2)
  6
Continuous
 62
     7
100
AcDbLine
 10
41.8458574102
 20
592.0604027752
 30
0.0
 11
41.8458574102
 21
591.9994681035
 31
0.0
  0
LINE
  5
14B
330
72
100
AcDbEntity
  8
$DDT_AUDIT_GENERATED_(B2)
  6
Continuous
 62
     7
100
AcDbLine
 10
41.8458574102
 20
591.9994681035
 30
0.0
 11
42.2788701121
 21
591.9690007677
 31
0.0
  0
LINE
  5
14C
330
72
100
AcDbEntity
  8
$DDT_AUDIT_GENERATED_(B2)
  6
Continuous
 62
     7
100
AcDbLine
 10
42.2788701121
 20
591.9690007677
 30
0.0
 11
42.7118828139
 21
591.9994681035
 31
0.0
  0
LINE
  5
14D
330
72
100
AcDbEntity
  8
$DDT_AUDIT_GENERATED_(B2)
  6
Continuous
 62
     7
100
AcDbLine
 10
41.7458574102
 20
591.9783597141
 30
0.0
 11
41.7458574102
 21
591.8564903707
 31
0.0
  0
LINE
  5
14E
330
72
100
AcDbEntity
  8
$DDT_AUDIT_GENERATED_(B2)
  6
Continuous
 62
     7
100
AcDbLine
 10
42.1788701121
 20
591.8869577065
 30
0.0
 11
42.1788701121
 21
591.9478923782
 31
0.0
  0
LINE
  5
14F
330
72
100
AcDbEntity
  8
$DDT_AUDIT_GENERATED_(B2)
  6
Continuous
 62
     7
100
AcDbLine
 10
42.1788701121
 20
591.9478923782
 30
0.0
 11
41.7458574102
 21
591.9783597141
 31
0.0
  0
LINE
  5
150
330
72
100
AcDbEntity
  8
$DDT_AUDIT_GENERATED_(B2)
  6
Continuous
 62
     7
100
AcDbLine
 10
41.7458574102
 20
591.9783597141
 30
0.0
 11
41.3128447083
 21
591.9478923782
 31
0.0
  0
LINE
  5
151
330
72
100
AcDbEntity
  8
$DDT_AUDIT_GENERATED_(B2)
  6
Continuous
 62
     7
100
AcDbLine
 10
41.3128447083
 20
591.9478923782
 30
0.0
 11
41.3128447083
 21
591.8869577065
 31
0.0
  0
LINE
  5
152
330
72
100
AcDbEntity
  8
$DDT_AUDIT_GENERATED_(B2)
  6
Continuous
 62
     7
100
AcDbLine
 10
41.3128447083
 20
591.8869577065
 30
0.0
 11
41.7458574102
 21
591.8564903707
 31
0.0
  0
LINE
  5
153
330
72
100
AcDbEntity
  8
$DDT_AUDIT_GENERATED_(B2)
  6
Continuous
 62
     7
100
AcDbLine
 10
41.7458574102
 20
591.8564903707
 30
0.0
 11
42.1788701121
 21
591.8869577065
 31
0.0
  0
LINE
  5
154
330
72
100
AcDbEntity
  8
$DDT_AUDIT_GENERATED_(B2)
  6
Continuous
 62
     7
100
AcDbLine
 10
42.2788701121
 20
591.865849317
 30
0.0
 11
42.2788701121
 21
591.7439799736
 31
0.0
  0
LINE
  5
155
330
72
100
AcDbEntity
  8
$DDT_AUDIT_GENERATED_(B2)
  6
Continuous
 62
     7
100
AcDbLine
 10
42.7118828139
 20
591.7744473095
 30
0.0
 11
42.7118828139
 21
591.8353819812
 31
0.0
  0
LINE
  5
156
330
72
100
AcDbEntity
  8
$DDT_AUDIT_GENERATED_(B2)
  6
Continuous
 62
     7
100
AcDbLine
 10
42.7118828139
 20
591.8353819812
 30
0.0
 11
42.2788701121
 21
591.865849317
 31
0.0
  0
LINE
  5
157
330
72
100
AcDbEntity
  8
$DDT_AUDIT_GENERATED_(B2)
  6
Continuous
 62
     7
100
AcDbLine
 10
42.2788701121
 20
591.865849317
 30
0.0
 11
41.8458574102
 21
591.8353819812
 31
0.0
  0
LINE
  5
158
330
72
100
AcDbEntity
  8
$DDT_AUDIT_GENERATED_(B2)
  6
Continuous
 62
     7
100
AcDbLine
 10
41.8458574102
 20
591.8353819812
 30
0.0
 11
41.8458574102
 21
591.7744473095
 31
0.0
  0
LINE
  5
159
330
72
100
AcDbEntity
  8
$DDT_AUDIT_GENERATED_(B2)
  6
Continuous
 62
     7
100
AcDbLine
 10
41.8458574102
 20
591.7744473095
 30
0.0
 11
42.2788701121
 21
591.7439799736
 31
0.0
  0
LINE
  5
15A
330
72
100
AcDbEntity
  8
$DDT_AUDIT_GENERATED_(B2)
  6
Continuous
 62
     7
100
AcDbLine
 10
42.2788701121
 20
591.7439799736
 30
0.0
 11
42.7118828139
 21
591.7744473095
 31
0.0
  0
ELLIPSE
  5
15B
330
72
100
AcDbEntity
  8
$DDT_AUDIT_GENERATED_(B2)
  6
Continuous
 62
     7
100
AcDbEllipse
 10
40.6798319014
 20
592.5924874608
 30
0.0
 11
8.000000175140874
 21
-1.225994306075506E-8
 31
0.0
210
0.0
220
0.0
230
1.0
 40
0.1218693453
 41
-1.244398690135961
 42
-1.21788311051823
  0
LINE
  5
15C
330
72
100
AcDbEntity
  8
$DDT_AUDIT_GENERATED_(B2)
  6
Continuous
 62
     7
100
AcDbLine
 10
42.6034328423
 20
591.7386721094
 30
0.0
 11
42.6034328423
 21
591.6461363872
 31
0.0
  0
LINE
  5
15D
330
72
100
AcDbEntity
  8
$DDT_AUDIT_GENERATED_(B2)
  6
Continuous
 62
     7
100
AcDbLine
 10
42.8118828139
 20
591.75333892
 30
0.0
 11
42.3788701121
 21
591.7228715842
 31
0.0
  0
LINE
  5
15E
330
72
100
AcDbEntity
  8
$DDT_AUDIT_GENERATED_(B2)
  6
Continuous
 62
     7
100
AcDbLine
 10
42.3788701121
 20
591.7228715842
 30
0.0
 11
42.3788701121
 21
591.6619369125
 31
0.0
  0
LINE
  5
15F
330
72
100
AcDbEntity
  8
$DDT_AUDIT_GENERATED_(B2)
  6
Continuous
 62
     7
100
AcDbLine
 10
42.3788701121
 20
591.6619369125
 30
0.0
 11
42.6034328423
 21
591.6461363872
 31
0.0
  0
LINE
  5
160
330
72
100
AcDbEntity
  8
$DDT_AUDIT_GENERATED_(B2)
  6
Continuous
 62
     7
100
AcDbLine
 10
43.2448955158
 20
591.6690068507
 30
0.0
 11
43.2448955158
 21
591.7228715842
 31
0.0
  0
LINE
  5
161
330
72
100
AcDbEntity
  8
$DDT_AUDIT_GENERATED_(B2)
  6
Continuous
 62
     7
100
AcDbLine
 10
43.2448955158
 20
591.7228715842
 30
0.0
 11
42.8118828139
 21
591.75333892
 31
0.0
  0
LINE
  5
162
330
72
100
AcDbEntity
  8
$DDT_AUDIT_GENERATED_(B2)
  6
Continuous
 62
     7
100
AcDbLine
 10
43.3448955158
 20
591.865849317
 30
0.0
 11
43.3448955158
 21
591.7439799736
 31
0.0
  0
LINE
  5
163
330
72
100
AcDbEntity
  8
$DDT_AUDIT_GENERATED_(B2)
  6
Continuous
 62
     7
100
AcDbLine
 10
42.9118828139
 20
591.8353819812
 30
0.0
 11
42.9118828139
 21
591.7744473095
 31
0.0
  0
LINE
  5
164
330
72
100
AcDbEntity
  8
$DDT_AUDIT_GENERATED_(B2)
  6
Continuous
 62
     7
100
AcDbLine
 10
42.9118828139
 20
591.7744473095
 30
0.0
 11
43.3448955158
 21
591.7439799736
 31
0.0
  0
LINE
  5
165
330
72
100
AcDbEntity
  8
$DDT_AUDIT_GENERATED_(B2)
  6
Continuous
 62
     7
100
AcDbLine
 10
43.3448955158
 20
591.7439799736
 30
0.0
 11
43.7779082177
 21
591.7744473095
 31
0.0
  0
LINE
  5
166
330
72
100
AcDbEntity
  8
$DDT_AUDIT_GENERATED_(B2)
  6
Continuous
 62
     7
100
AcDbLine
 10
43.7779082177
 20
591.7744473095
 30
0.0
 11
43.7779082177
 21
591.8353819812
 31
0.0
  0
LINE
  5
167
330
72
100
AcDbEntity
  8
$DDT_AUDIT_GENERATED_(B2)
  6
Continuous
 62
     7
100
AcDbLine
 10
43.7779082177
 20
591.8353819812
 30
0.0
 11
43.3448955158
 21
591.865849317
 31
0.0
  0
LINE
  5
168
330
72
100
AcDbEntity
  8
$DDT_AUDIT_GENERATED_(B2)
  6
Continuous
 62
     7
100
AcDbLine
 10
43.3448955158
 20
591.865849317
 30
0.0
 11
42.9118828139
 21
591.8353819812
 31
0.0
  0
LINE
  5
169
330
72
100
AcDbEntity
  8
$DDT_AUDIT_GENERATED_(B2)
  6
Continuous
 62
     7
100
AcDbLine
 10
42.8118828139
 20
591.9783597141
 30
0.0
 11
42.8118828139
 21
591.8564903707
 31
0.0
  0
LINE
  5
16A
330
72
100
AcDbEntity
  8
$DDT_AUDIT_GENERATED_(B2)
  6
Continuous
 62
     7
100
AcDbLine
 10
42.3788701121
 20
591.9478923782
 30
0.0
 11
42.3788701121
 21
591.8869577065
 31
0.0
  0
LINE
  5
16B
330
72
100
AcDbEntity
  8
$DDT_AUDIT_GENERATED_(B2)
  6
Continuous
 62
     7
100
AcDbLine
 10
42.3788701121
 20
591.8869577065
 30
0.0
 11
42.8118828139
 21
591.8564903707
 31
0.0
  0
LINE
  5
16C
330
72
100
AcDbEntity
  8
$DDT_AUDIT_GENERATED_(B2)
  6
Continuous
 62
     7
100
AcDbLine
 10
42.8118828139
 20
591.8564903707
 30
0.0
 11
43.2448955158
 21
591.8869577065
 31
0.0
  0
LINE
  5
16D
330
72
100
AcDbEntity
  8
$DDT_AUDIT_GENERATED_(B2)
  6
Continuous
 62
     7
100
AcDbLine
 10
43.2448955158
 20
591.8869577065
 30
0.0
 11
43.2448955158
 21
591.9478923782
 31
0.0
  0
LINE
  5
16E
330
72
100
AcDbEntity
  8
$DDT_AUDIT_GENERATED_(B2)
  6
Continuous
 62
     7
100
AcDbLine
 10
43.2448955158
 20
591.9478923782
 30
0.0
 11
42.8118828139
 21
591.9783597141
 31
0.0
  0
LINE
  5
16F
330
72
100
AcDbEntity
  8
$DDT_AUDIT_GENERATED_(B2)
  6
Continuous
 62
     7
100
AcDbLine
 10
42.8118828139
 20
591.9783597141
 30
0.0
 11
42.3788701121
 21
591.9478923782
 31
0.0
  0
LINE
  5
170
330
72
100
AcDbEntity
  8
$DDT_AUDIT_GENERATED_(B2)
  6
Continuous
 62
     7
100
AcDbLine
 10
43.3448955158
 20
592.0908701111
 30
0.0
 11
43.3448955158
 21
591.9690007677
 31
0.0
  0
LINE
  5
171
330
72
100
AcDbEntity
  8
$DDT_AUDIT_GENERATED_(B2)
  6
Continuous
 62
     7
100
AcDbLine
 10
42.9118828139
 20
592.0604027752
 30
0.0
 11
42.9118828139
 21
591.9994681035
 31
0.0
  0
LINE
  5
172
330
72
100
AcDbEntity
  8
$DDT_AUDIT_GENERATED_(B2)
  6
Continuous
 62
     7
100
AcDbLine
 10
42.9118828139
 20
591.9994681035
 30
0.0
 11
43.3448955158
 21
591.9690007677
 31
0.0
  0
LINE
  5
173
330
72
100
AcDbEntity
  8
$DDT_AUDIT_GENERATED_(B2)
  6
Continuous
 62
     7
100
AcDbLine
 10
43.3448955158
 20
591.9690007677
 30
0.0
 11
43.7779082177
 21
591.9994681035
 31
0.0
  0
LINE
  5
174
330
72
100
AcDbEntity
  8
$DDT_AUDIT_GENERATED_(B2)
  6
Continuous
 62
     7
100
AcDbLine
 10
43.7779082177
 20
591.9994681035
 30
0.0
 11
43.7779082177
 21
592.0604027752
 31
0.0
  0
LINE
  5
175
330
72
100
AcDbEntity
  8
$DDT_AUDIT_GENERATED_(B2)
  6
Continuous
 62
     7
100
AcDbLine
 10
43.7779082177
 20
592.0604027752
 30
0.0
 11
43.3448955158
 21
592.0908701111
 31
0.0
  0
LINE
  5
176
330
72
100
AcDbEntity
  8
$DDT_AUDIT_GENERATED_(B2)
  6
Continuous
 62
     7
100
AcDbLine
 10
43.3448955158
 20
592.0908701111
 30
0.0
 11
42.9118828139
 21
592.0604027752
 31
0.0
  0
LINE
  5
177
330
72
100
AcDbEntity
  8
$DDT_AUDIT_GENERATED_(B2)
  6
Continuous
 62
     7
100
AcDbLine
 10
43.8779082177
 20
592.2033805081
 30
0.0
 11
43.8779082177
 21
592.0815111647
 31
0.0
  0
LINE
  5
178
330
72
100
AcDbEntity
  8
$DDT_AUDIT_GENERATED_(B2)
  6
Continuous
 62
     7
100
AcDbLine
 10
43.8779082177
 20
592.2033805081
 30
0.0
 11
43.4448955158
 21
592.1729131723
 31
0.0
  0
LINE
  5
179
330
72
100
AcDbEntity
  8
$DDT_AUDIT_GENERATED_(B2)
  6
Continuous
 62
     7
100
AcDbLine
 10
43.4448955158
 20
592.1729131723
 30
0.0
 11
43.4448955158
 21
592.1119785005
 31
0.0
  0
LINE
  5
17A
330
72
100
AcDbEntity
  8
$DDT_AUDIT_GENERATED_(B2)
  6
Continuous
 62
     7
100
AcDbLine
 10
43.4448955158
 20
592.1119785005
 30
0.0
 11
43.8779082177
 21
592.0815111647
 31
0.0
  0
LINE
  5
17B
330
72
100
AcDbEntity
  8
$DDT_AUDIT_GENERATED_(B2)
  6
Continuous
 62
     7
100
AcDbLine
 10
43.8779082177
 20
592.0815111647
 30
0.0
 11
44.3109209196
 21
592.1119785005
 31
0.0
  0
LINE
  5
17C
330
72
100
AcDbEntity
  8
$DDT_AUDIT_GENERATED_(B2)
  6
Continuous
 62
     7
100
AcDbLine
 10
44.3109209196
 20
592.1119785005
 30
0.0
 11
44.3109209196
 21
592.1729131723
 31
0.0
  0
LINE
  5
17D
330
72
100
AcDbEntity
  8
$DDT_AUDIT_GENERATED_(B2)
  6
Continuous
 62
     7
100
AcDbLine
 10
44.3109209196
 20
592.1729131723
 30
0.0
 11
43.8779082177
 21
592.2033805081
 31
0.0
  0
LINE
  5
17E
330
72
100
AcDbEntity
  8
$DDT_AUDIT_GENERATED_(B2)
  6
Continuous
 62
     7
100
AcDbLine
 10
44.4109209196
 20
592.3158909051
 30
0.0
 11
44.4109209196
 21
592.1940215617
 31
0.0
  0
LINE
  5
17F
330
72
100
AcDbEntity
  8
$DDT_AUDIT_GENERATED_(B2)
  6
Continuous
 62
     7
100
AcDbLine
 10
43.9779082177
 20
592.2854235693
 30
0.0
 11
43.9779082177
 21
592.2244888976
 31
0.0
  0
LINE
  5
180
330
72
100
AcDbEntity
  8
$DDT_AUDIT_GENERATED_(B2)
  6
Continuous
 62
     7
100
AcDbLine
 10
43.9779082177
 20
592.2244888976
 30
0.0
 11
44.4109209196
 21
592.1940215617
 31
0.0
  0
LINE
  5
181
330
72
100
AcDbEntity
  8
$DDT_AUDIT_GENERATED_(B2)
  6
Continuous
 62
     7
100
AcDbLine
 10
44.4109209196
 20
592.1940215617
 30
0.0
 11
44.8439336215
 21
592.2244888976
 31
0.0
  0
LINE
  5
182
330
72
100
AcDbEntity
  8
$DDT_AUDIT_GENERATED_(B2)
  6
Continuous
 62
     7
100
AcDbLine
 10
44.8439336215
 20
592.2244888976
 30
0.0
 11
44.8439336215
 21
592.2854235693
 31
0.0
  0
LINE
  5
183
330
72
100
AcDbEntity
  8
$DDT_AUDIT_GENERATED_(B2)
  6
Continuous
 62
     7
100
AcDbLine
 10
44.8439336215
 20
592.2854235693
 30
0.0
 11
44.4109209196
 21
592.3158909051
 31
0.0
  0
LINE
  5
184
330
72
100
AcDbEntity
  8
$DDT_AUDIT_GENERATED_(B2)
  6
Continuous
 62
     7
100
AcDbLine
 10
44.4109209196
 20
592.3158909051
 30
0.0
 11
43.9779082177
 21
592.2854235693
 31
0.0
  0
LINE
  5
185
330
72
100
AcDbEntity
  8
$DDT_AUDIT_GENERATED_(B2)
  6
Continuous
 62
     7
100
AcDbLine
 10
44.9439336215
 20
592.4284013021
 30
0.0
 11
44.9439336215
 21
592.3065319587
 31
0.0
  0
LINE
  5
186
330
72
100
AcDbEntity
  8
$DDT_AUDIT_GENERATED_(B2)
  6
Continuous
 62
     7
100
AcDbLine
 10
44.9439336215
 20
592.4284013021
 30
0.0
 11
44.5109209196
 21
592.3979339663
 31
0.0
  0
LINE
  5
187
330
72
100
AcDbEntity
  8
$DDT_AUDIT_GENERATED_(B2)
  6
Continuous
 62
     7
100
AcDbLine
 10
44.5109209196
 20
592.3979339663
 30
0.0
 11
44.5109209196
 21
592.3369992946
 31
0.0
  0
LINE
  5
188
330
72
100
AcDbEntity
  8
$DDT_AUDIT_GENERATED_(B2)
  6
Continuous
 62
     7
100
AcDbLine
 10
44.5109209196
 20
592.3369992946
 30
0.0
 11
44.9439336215
 21
592.3065319587
 31
0.0
  0
LINE
  5
189
330
72
100
AcDbEntity
  8
$DDT_AUDIT_GENERATED_(B2)
  6
Continuous
 62
     7
100
AcDbLine
 10
44.9439336215
 20
592.3065319587
 30
0.0
 11
45.3769463233
 21
592.3369992946
 31
0.0
  0
LINE
  5
18A
330
72
100
AcDbEntity
  8
$DDT_AUDIT_GENERATED_(B2)
  6
Continuous
 62
     7
100
AcDbLine
 10
45.3769463233
 20
592.3369992946
 30
0.0
 11
45.3769463233
 21
592.3979339663
 31
0.0
  0
LINE
  5
18B
330
72
100
AcDbEntity
  8
$DDT_AUDIT_GENERATED_(B2)
  6
Continuous
 62
     7
100
AcDbLine
 10
45.3769463233
 20
592.3979339663
 30
0.0
 11
44.9439336215
 21
592.4284013021
 31
0.0
  0
LINE
  5
18C
330
72
100
AcDbEntity
  8
$DDT_AUDIT_GENERATED_(B2)
  6
Continuous
 62
     7
100
AcDbLine
 10
45.4769463233
 20
592.5409116992
 30
0.0
 11
45.4769463233
 21
592.4190423558
 31
0.0
  0
LINE
  5
18D
330
72
100
AcDbEntity
  8
$DDT_AUDIT_GENERATED_(B2)
  6
Continuous
 62
     7
100
AcDbLine
 10
45.0439336215
 20
592.5104443633
 30
0.0
 11
45.0439336215
 21
592.4495096916
 31
0.0
  0
LINE
  5
18E
330
72
100
AcDbEntity
  8
$DDT_AUDIT_GENERATED_(B2)
  6
Continuous
 62
     7
100
AcDbLine
 10
45.0439336215
 20
592.4495096916
 30
0.0
 11
45.4769463233
 21
592.4190423558
 31
0.0
  0
LINE
  5
18F
330
72
100
AcDbEntity
  8
$DDT_AUDIT_GENERATED_(B2)
  6
Continuous
 62
     7
100
AcDbLine
 10
45.4769463233
 20
592.4190423558
 30
0.0
 11
45.9099590252
 21
592.4495096916
 31
0.0
  0
LINE
  5
190
330
72
100
AcDbEntity
  8
$DDT_AUDIT_GENERATED_(B2)
  6
Continuous
 62
     7
100
AcDbLine
 10
45.9099590252
 20
592.4495096916
 30
0.0
 11
45.9099590252
 21
592.5104443633
 31
0.0
  0
LINE
  5
191
330
72
100
AcDbEntity
  8
$DDT_AUDIT_GENERATED_(B2)
  6
Continuous
 62
     7
100
AcDbLine
 10
45.9099590252
 20
592.5104443633
 30
0.0
 11
45.4769463233
 21
592.5409116992
 31
0.0
  0
LINE
  5
192
330
72
100
AcDbEntity
  8
$DDT_AUDIT_GENERATED_(B2)
  6
Continuous
 62
     7
100
AcDbLine
 10
45.4769463233
 20
592.5409116992
 30
0.0
 11
45.0439336215
 21
592.5104443633
 31
0.0
  0
LINE
  5
193
330
72
100
AcDbEntity
  8
$DDT_AUDIT_GENERATED_(B2)
  6
Continuous
 62
     7
100
AcDbLine
 10
46.0099590252
 20
592.6534220962
 30
0.0
 11
46.0099590252
 21
592.5315527528
 31
0.0
  0
LINE
  5
194
330
72
100
AcDbEntity
  8
$DDT_AUDIT_GENERATED_(B2)
  6
Continuous
 62
     7
100
AcDbLine
 10
45.5769463233
 20
592.6229547603
 30
0.0
 11
45.5769463233
 21
592.5620200886
 31
0.0
  0
LINE
  5
195
330
72
100
AcDbEntity
  8
$DDT_AUDIT_GENERATED_(B2)
  6
Continuous
 62
     7
100
AcDbLine
 10
45.5769463233
 20
592.5620200886
 30
0.0
 11
46.0099590252
 21
592.5315527528
 31
0.0
  0
LINE
  5
196
330
72
100
AcDbEntity
  8
$DDT_AUDIT_GENERATED_(B2)
  6
Continuous
 62
     7
100
AcDbLine
 10
46.0099590252
 20
592.5315527528
 30
0.0
 11
46.4429717271
 21
592.5620200886
 31
0.0
  0
LINE
  5
197
330
72
100
AcDbEntity
  8
$DDT_AUDIT_GENERATED_(B2)
  6
Continuous
 62
     7
100
AcDbLine
 10
46.4429717271
 20
592.5620200886
 30
0.0
 11
46.4429717271
 21
592.6229547603
 31
0.0
  0
LINE
  5
198
330
72
100
AcDbEntity
  8
$DDT_AUDIT_GENERATED_(B2)
  6
Continuous
 62
     7
100
AcDbLine
 10
47.075984429
 20
592.6538426484
 30
0.0
 11
47.075984429
 21
592.5311322006
 31
0.0
  0
LINE
  5
199
330
72
100
AcDbEntity
  8
$DDT_AUDIT_GENERATED_(B2)
  6
Continuous
 62
     7
100
AcDbLine
 10
46.6429717271
 20
592.6233753125
 30
0.0
 11
46.6429717271
 21
592.5615995364
 31
0.0
  0
LINE
  5
19A
330
72
100
AcDbEntity
  8
$DDT_AUDIT_GENERATED_(B2)
  6
Continuous
 62
     7
100
AcDbLine
 10
46.6429717271
 20
592.5615995364
 30
0.0
 11
47.075984429
 21
592.5311322006
 31
0.0
  0
LINE
  5
19B
330
72
100
AcDbEntity
  8
$DDT_AUDIT_GENERATED_(B2)
  6
Continuous
 62
     7
100
AcDbLine
 10
47.075984429
 20
592.5311322006
 30
0.0
 11
47.5089971309
 21
592.5615995364
 31
0.0
  0
LINE
  5
19C
330
72
100
AcDbEntity
  8
$DDT_AUDIT_GENERATED_(B2)
  6
Continuous
 62
     7
100
AcDbLine
 10
47.5089971309
 20
592.5615995364
 30
0.0
 11
47.5089971309
 21
592.6040236448
 31
0.0
  0
LINE
  5
19D
330
72
100
AcDbEntity
  8
$DDT_AUDIT_GENERATED_(B2)
  6
Continuous
 62
     7
100
AcDbLine
 10
46.5429717271
 20
592.5409116992
 30
0.0
 11
46.5429717271
 21
592.4190423558
 31
0.0
  0
LINE
  5
19E
330
72
100
AcDbEntity
  8
$DDT_AUDIT_GENERATED_(B2)
  6
Continuous
 62
     7
100
AcDbLine
 10
46.975984429
 20
592.5104443633
 30
0.0
 11
46.5429717271
 21
592.5409116992
 31
0.0
  0
LINE
  5
19F
330
72
100
AcDbEntity
  8
$DDT_AUDIT_GENERATED_(B2)
  6
Continuous
 62
     7
100
AcDbLine
 10
46.5429717271
 20
592.5409116992
 30
0.0
 11
46.1099590252
 21
592.5104443633
 31
0.0
  0
LINE
  5
1A0
330
72
100
AcDbEntity
  8
$DDT_AUDIT_GENERATED_(B2)
  6
Continuous
 62
     7
100
AcDbLine
 10
46.1099590252
 20
592.5104443633
 30
0.0
 11
46.1099590252
 21
592.4495096916
 31
0.0
  0
LINE
  5
1A1
330
72
100
AcDbEntity
  8
$DDT_AUDIT_GENERATED_(B2)
  6
Continuous
 62
     7
100
AcDbLine
 10
46.1099590252
 20
592.4495096916
 30
0.0
 11
46.5429717271
 21
592.4190423558
 31
0.0
  0
LINE
  5
1A2
330
72
100
AcDbEntity
  8
$DDT_AUDIT_GENERATED_(B2)
  6
Continuous
 62
     7
100
AcDbLine
 10
46.5429717271
 20
592.4190423558
 30
0.0
 11
46.975984429
 21
592.4495096916
 31
0.0
  0
LINE
  5
1A3
330
72
100
AcDbEntity
  8
$DDT_AUDIT_GENERATED_(B2)
  6
Continuous
 62
     7
100
AcDbLine
 10
46.975984429
 20
592.4495096916
 30
0.0
 11
46.975984429
 21
592.5104443633
 31
0.0
  0
LINE
  5
1A4
330
72
100
AcDbEntity
  8
$DDT_AUDIT_GENERATED_(B2)
  6
Continuous
 62
     7
100
AcDbLine
 10
46.0099590252
 20
592.4284013021
 30
0.0
 11
46.0099590252
 21
592.3065319587
 31
0.0
  0
LINE
  5
1A5
330
72
100
AcDbEntity
  8
$DDT_AUDIT_GENERATED_(B2)
  6
Continuous
 62
     7
100
AcDbLine
 10
46.4429717271
 20
592.3369992946
 30
0.0
 11
46.4429717271
 21
592.3979339663
 31
0.0
  0
LINE
  5
1A6
330
72
100
AcDbEntity
  8
$DDT_AUDIT_GENERATED_(B2)
  6
Continuous
 62
     7
100
AcDbLine
 10
46.4429717271
 20
592.3979339663
 30
0.0
 11
46.0099590252
 21
592.4284013021
 31
0.0
  0
LINE
  5
1A7
330
72
100
AcDbEntity
  8
$DDT_AUDIT_GENERATED_(B2)
  6
Continuous
 62
     7
100
AcDbLine
 10
46.0099590252
 20
592.4284013021
 30
0.0
 11
45.5769463233
 21
592.3979339663
 31
0.0
  0
LINE
  5
1A8
330
72
100
AcDbEntity
  8
$DDT_AUDIT_GENERATED_(B2)
  6
Continuous
 62
     7
100
AcDbLine
 10
45.5769463233
 20
592.3979339663
 30
0.0
 11
45.5769463233
 21
592.3369992946
 31
0.0
  0
LINE
  5
1A9
330
72
100
AcDbEntity
  8
$DDT_AUDIT_GENERATED_(B2)
  6
Continuous
 62
     7
100
AcDbLine
 10
45.5769463233
 20
592.3369992946
 30
0.0
 11
46.0099590252
 21
592.3065319587
 31
0.0
  0
LINE
  5
1AA
330
72
100
AcDbEntity
  8
$DDT_AUDIT_GENERATED_(B2)
  6
Continuous
 62
     7
100
AcDbLine
 10
46.0099590252
 20
592.3065319587
 30
0.0
 11
46.4429717271
 21
592.3369992946
 31
0.0
  0
LINE
  5
1AB
330
72
100
AcDbEntity
  8
$DDT_AUDIT_GENERATED_(B2)
  6
Continuous
 62
     7
100
AcDbLine
 10
47.6089971309
 20
592.540491147
 30
0.0
 11
47.6089971309
 21
592.4186218036
 31
0.0
  0
LINE
  5
1AC
330
72
100
AcDbEntity
  8
$DDT_AUDIT_GENERATED_(B2)
  6
Continuous
 62
     7
100
AcDbLine
 10
47.8784652148
 20
592.5215310228
 30
0.0
 11
47.6089971309
 21
592.540491147
 31
0.0
  0
LINE
  5
1AD
330
72
100
AcDbEntity
  8
$DDT_AUDIT_GENERATED_(B2)
  6
Continuous
 62
     7
100
AcDbLine
 10
47.6089971309
 20
592.540491147
 30
0.0
 11
47.175984429
 21
592.5100238111
 31
0.0
  0
LINE
  5
1AE
330
72
100
AcDbEntity
  8
$DDT_AUDIT_GENERATED_(B2)
  6
Continuous
 62
     7
100
AcDbLine
 10
47.175984429
 20
592.5100238111
 30
0.0
 11
47.175984429
 21
592.4490891394
 31
0.0
  0
LINE
  5
1AF
330
72
100
AcDbEntity
  8
$DDT_AUDIT_GENERATED_(B2)
  6
Continuous
 62
     7
100
AcDbLine
 10
47.175984429
 20
592.4490891394
 30
0.0
 11
47.6089971309
 21
592.4186218036
 31
0.0
  0
LINE
  5
1B0
330
72
100
AcDbEntity
  8
$DDT_AUDIT_GENERATED_(B2)
  6
Continuous
 62
     7
100
AcDbLine
 10
47.6089971309
 20
592.4186218036
 30
0.0
 11
48.0420098327
 21
592.4490891394
 31
0.0
  0
LINE
  5
1B1
330
72
100
AcDbEntity
  8
$DDT_AUDIT_GENERATED_(B2)
  6
Continuous
 62
     7
100
AcDbLine
 10
48.0420098327
 20
592.4490891394
 30
0.0
 11
48.0420098327
 21
592.4776933806
 31
0.0
  0
LINE
  5
1B2
330
72
100
AcDbEntity
  8
$DDT_AUDIT_GENERATED_(B2)
  6
Continuous
 62
     7
100
AcDbLine
 10
47.7089971309
 20
592.561730318
 30
0.0
 11
47.7089971309
 21
592.5615995364
 31
0.0
  0
LINE
  5
1B3
330
72
100
AcDbEntity
  8
$DDT_AUDIT_GENERATED_(B2)
  6
Continuous
 62
     7
100
AcDbLine
 10
47.7089971309
 20
592.5615995364
 30
0.0
 11
47.7098465749
 21
592.5615397685
 31
0.0
  0
LINE
  5
1B4
330
72
100
AcDbEntity
  8
$DDT_AUDIT_GENERATED_(B2)
  6
Continuous
 62
     7
100
AcDbLine
 10
48.1420098328
 20
592.42798075
 30
0.0
 11
48.1420098328
 21
592.3061114066
 31
0.0
  0
LINE
  5
1B5
330
72
100
AcDbEntity
  8
$DDT_AUDIT_GENERATED_(B2)
  6
Continuous
 62
     7
100
AcDbLine
 10
48.3653771353
 20
592.3668739532
 30
0.0
 11
48.3653771353
 21
592.3218278199
 31
0.0
  0
LINE
  5
1B6
330
72
100
AcDbEntity
  8
$DDT_AUDIT_GENERATED_(B2)
  6
Continuous
 62
     7
100
AcDbLine
 10
48.2181657583
 20
592.4226223202
 30
0.0
 11
48.1420098328
 21
592.42798075
 31
0.0
  0
LINE
  5
1B7
330
72
100
AcDbEntity
  8
$DDT_AUDIT_GENERATED_(B2)
  6
Continuous
 62
     7
100
AcDbLine
 10
48.1420098328
 20
592.42798075
 30
0.0
 11
47.7089971309
 21
592.3975134141
 31
0.0
  0
LINE
  5
1B8
330
72
100
AcDbEntity
  8
$DDT_AUDIT_GENERATED_(B2)
  6
Continuous
 62
     7
100
AcDbLine
 10
47.7089971309
 20
592.3975134141
 30
0.0
 11
47.7089971309
 21
592.3365787424
 31
0.0
  0
LINE
  5
1B9
330
72
100
AcDbEntity
  8
$DDT_AUDIT_GENERATED_(B2)
  6
Continuous
 62
     7
100
AcDbLine
 10
47.7089971309
 20
592.3365787424
 30
0.0
 11
48.1420098328
 21
592.3061114066
 31
0.0
  0
LINE
  5
1BA
330
72
100
AcDbEntity
  8
$DDT_AUDIT_GENERATED_(B2)
  6
Continuous
 62
     7
100
AcDbLine
 10
48.1420098328
 20
592.3061114066
 30
0.0
 11
48.3653771353
 21
592.3218278199
 31
0.0
  0
LINE
  5
1BB
330
72
100
AcDbEntity
  8
$DDT_AUDIT_GENERATED_(B2)
  6
Continuous
 62
     7
100
AcDbLine
 10
47.075984429
 20
592.4284013021
 30
0.0
 11
47.075984429
 21
592.3065319587
 31
0.0
  0
LINE
  5
1BC
330
72
100
AcDbEntity
  8
$DDT_AUDIT_GENERATED_(B2)
  6
Continuous
 62
     7
100
AcDbLine
 10
47.075984429
 20
592.3065319587
 30
0.0
 11
47.5089971309
 21
592.3369992946
 31
0.0
  0
LINE
  5
1BD
330
72
100
AcDbEntity
  8
$DDT_AUDIT_GENERATED_(B2)
  6
Continuous
 62
     7
100
AcDbLine
 10
47.5089971309
 20
592.3369992946
 30
0.0
 11
47.5089971309
 21
592.3979339663
 31
0.0
  0
LINE
  5
1BE
330
72
100
AcDbEntity
  8
$DDT_AUDIT_GENERATED_(B2)
  6
Continuous
 62
     7
100
AcDbLine
 10
47.5089971309
 20
592.3979339663
 30
0.0
 11
47.075984429
 21
592.4284013021
 31
0.0
  0
LINE
  5
1BF
330
72
100
AcDbEntity
  8
$DDT_AUDIT_GENERATED_(B2)
  6
Continuous
 62
     7
100
AcDbLine
 10
47.075984429
 20
592.4284013021
 30
0.0
 11
46.6429717271
 21
592.3979339663
 31
0.0
  0
LINE
  5
1C0
330
72
100
AcDbEntity
  8
$DDT_AUDIT_GENERATED_(B2)
  6
Continuous
 62
     7
100
AcDbLine
 10
46.6429717271
 20
592.3979339663
 30
0.0
 11
46.6429717271
 21
592.3369992946
 31
0.0
  0
LINE
  5
1C1
330
72
100
AcDbEntity
  8
$DDT_AUDIT_GENERATED_(B2)
  6
Continuous
 62
     7
100
AcDbLine
 10
46.6429717271
 20
592.3369992946
 30
0.0
 11
47.075984429
 21
592.3065319587
 31
0.0
  0
LINE
  5
1C2
330
72
100
AcDbEntity
  8
$DDT_AUDIT_GENERATED_(B2)
  6
Continuous
 62
     7
100
AcDbLine
 10
47.6089971309
 20
592.3158909051
 30
0.0
 11
47.6089971309
 21
592.1940215617
 31
0.0
  0
LINE
  5
1C3
330
72
100
AcDbEntity
  8
$DDT_AUDIT_GENERATED_(B2)
  6
Continuous
 62
     7
100
AcDbLine
 10
48.0420098328
 20
592.2854235693
 30
0.0
 11
47.6089971309
 21
592.3158909051
 31
0.0
  0
LINE
  5
1C4
330
72
100
AcDbEntity
  8
$DDT_AUDIT_GENERATED_(B2)
  6
Continuous
 62
     7
100
AcDbLine
 10
47.6089971309
 20
592.3158909051
 30
0.0
 11
47.175984429
 21
592.2854235693
 31
0.0
  0
LINE
  5
1C5
330
72
100
AcDbEntity
  8
$DDT_AUDIT_GENERATED_(B2)
  6
Continuous
 62
     7
100
AcDbLine
 10
47.175984429
 20
592.2854235693
 30
0.0
 11
47.175984429
 21
592.2244888976
 31
0.0
  0
LINE
  5
1C6
330
72
100
AcDbEntity
  8
$DDT_AUDIT_GENERATED_(B2)
  6
Continuous
 62
     7
100
AcDbLine
 10
47.175984429
 20
592.2244888976
 30
0.0
 11
47.6089971309
 21
592.1940215617
 31
0.0
  0
LINE
  5
1C7
330
72
100
AcDbEntity
  8
$DDT_AUDIT_GENERATED_(B2)
  6
Continuous
 62
     7
100
AcDbLine
 10
47.6089971309
 20
592.1940215617
 30
0.0
 11
48.0420098328
 21
592.2244888976
 31
0.0
  0
LINE
  5
1C8
330
72
100
AcDbEntity
  8
$DDT_AUDIT_GENERATED_(B2)
  6
Continuous
 62
     7
100
AcDbLine
 10
48.0420098328
 20
592.2244888976
 30
0.0
 11
48.0420098328
 21
592.2854235693
 31
0.0
  0
LINE
  5
1C9
330
72
100
AcDbEntity
  8
$DDT_AUDIT_GENERATED_(B2)
  6
Continuous
 62
     7
100
AcDbLine
 10
45.4769463233
 20
592.3158909051
 30
0.0
 11
45.4769463233
 21
592.1940215617
 31
0.0
  0
LINE
  5
1CA
330
72
100
AcDbEntity
  8
$DDT_AUDIT_GENERATED_(B2)
  6
Continuous
 62
     7
100
AcDbLine
 10
45.9099590252
 20
592.2244888976
 30
0.0
 11
45.9099590252
 21
592.2854235693
 31
0.0
  0
LINE
  5
1CB
330
72
100
AcDbEntity
  8
$DDT_AUDIT_GENERATED_(B2)
  6
Continuous
 62
     7
100
AcDbLine
 10
45.9099590252
 20
592.2854235693
 30
0.0
 11
45.4769463233
 21
592.3158909051
 31
0.0
  0
LINE
  5
1CC
330
72
100
AcDbEntity
  8
$DDT_AUDIT_GENERATED_(B2)
  6
Continuous
 62
     7
100
AcDbLine
 10
45.4769463233
 20
592.3158909051
 30
0.0
 11
45.0439336215
 21
592.2854235693
 31
0.0
  0
LINE
  5
1CD
330
72
100
AcDbEntity
  8
$DDT_AUDIT_GENERATED_(B2)
  6
Continuous
 62
     7
100
AcDbLine
 10
45.0439336215
 20
592.2854235693
 30
0.0
 11
45.0439336215
 21
592.2244888976
 31
0.0
  0
LINE
  5
1CE
330
72
100
AcDbEntity
  8
$DDT_AUDIT_GENERATED_(B2)
  6
Continuous
 62
     7
100
AcDbLine
 10
45.0439336215
 20
592.2244888976
 30
0.0
 11
45.4769463233
 21
592.1940215617
 31
0.0
  0
LINE
  5
1CF
330
72
100
AcDbEntity
  8
$DDT_AUDIT_GENERATED_(B2)
  6
Continuous
 62
     7
100
AcDbLine
 10
45.4769463233
 20
592.1940215617
 30
0.0
 11
45.9099590252
 21
592.2244888976
 31
0.0
  0
LINE
  5
1D0
330
72
100
AcDbEntity
  8
$DDT_AUDIT_GENERATED_(B2)
  6
Continuous
 62
     7
100
AcDbLine
 10
46.5429717271
 20
592.3158909051
 30
0.0
 11
46.5429717271
 21
592.1940215617
 31
0.0
  0
LINE
  5
1D1
330
72
100
AcDbEntity
  8
$DDT_AUDIT_GENERATED_(B2)
  6
Continuous
 62
     7
100
AcDbLine
 10
46.5429717271
 20
592.3158909051
 30
0.0
 11
46.1099590252
 21
592.2854235693
 31
0.0
  0
LINE
  5
1D2
330
72
100
AcDbEntity
  8
$DDT_AUDIT_GENERATED_(B2)
  6
Continuous
 62
     7
100
AcDbLine
 10
46.1099590252
 20
592.2854235693
 30
0.0
 11
46.1099590252
 21
592.2244888976
 31
0.0
  0
LINE
  5
1D3
330
72
100
AcDbEntity
  8
$DDT_AUDIT_GENERATED_(B2)
  6
Continuous
 62
     7
100
AcDbLine
 10
46.1099590252
 20
592.2244888976
 30
0.0
 11
46.5429717271
 21
592.1940215617
 31
0.0
  0
LINE
  5
1D4
330
72
100
AcDbEntity
  8
$DDT_AUDIT_GENERATED_(B2)
  6
Continuous
 62
     7
100
AcDbLine
 10
46.5429717271
 20
592.1940215617
 30
0.0
 11
46.975984429
 21
592.2244888976
 31
0.0
  0
LINE
  5
1D5
330
72
100
AcDbEntity
  8
$DDT_AUDIT_GENERATED_(B2)
  6
Continuous
 62
     7
100
AcDbLine
 10
46.975984429
 20
592.2244888976
 30
0.0
 11
46.975984429
 21
592.2854235693
 31
0.0
  0
LINE
  5
1D6
330
72
100
AcDbEntity
  8
$DDT_AUDIT_GENERATED_(B2)
  6
Continuous
 62
     7
100
AcDbLine
 10
46.975984429
 20
592.2854235693
 30
0.0
 11
46.5429717271
 21
592.3158909051
 31
0.0
  0
LINE
  5
1D7
330
72
100
AcDbEntity
  8
$DDT_AUDIT_GENERATED_(B2)
  6
Continuous
 62
     7
100
AcDbLine
 10
47.075984429
 20
592.2033805081
 30
0.0
 11
47.075984429
 21
592.0815111647
 31
0.0
  0
LINE
  5
1D8
330
72
100
AcDbEntity
  8
$DDT_AUDIT_GENERATED_(B2)
  6
Continuous
 62
     7
100
AcDbLine
 10
47.075984429
 20
592.2033805081
 30
0.0
 11
46.6429717271
 21
592.1729131723
 31
0.0
  0
LINE
  5
1D9
330
72
100
AcDbEntity
  8
$DDT_AUDIT_GENERATED_(B2)
  6
Continuous
 62
     7
100
AcDbLine
 10
46.6429717271
 20
592.1729131723
 30
0.0
 11
46.6429717271
 21
592.1119785006
 31
0.0
  0
LINE
  5
1DA
330
72
100
AcDbEntity
  8
$DDT_AUDIT_GENERATED_(B2)
  6
Continuous
 62
     7
100
AcDbLine
 10
46.6429717271
 20
592.1119785006
 30
0.0
 11
47.075984429
 21
592.0815111647
 31
0.0
  0
LINE
  5
1DB
330
72
100
AcDbEntity
  8
$DDT_AUDIT_GENERATED_(B2)
  6
Continuous
 62
     7
100
AcDbLine
 10
47.075984429
 20
592.0815111647
 30
0.0
 11
47.5089971309
 21
592.1119785006
 31
0.0
  0
LINE
  5
1DC
330
72
100
AcDbEntity
  8
$DDT_AUDIT_GENERATED_(B2)
  6
Continuous
 62
     7
100
AcDbLine
 10
47.5089971309
 20
592.1119785006
 30
0.0
 11
47.5089971309
 21
592.1729131723
 31
0.0
  0
LINE
  5
1DD
330
72
100
AcDbEntity
  8
$DDT_AUDIT_GENERATED_(B2)
  6
Continuous
 62
     7
100
AcDbLine
 10
47.5089971309
 20
592.1729131723
 30
0.0
 11
47.075984429
 21
592.2033805081
 31
0.0
  0
LINE
  5
1DE
330
72
100
AcDbEntity
  8
$DDT_AUDIT_GENERATED_(B2)
  6
Continuous
 62
     7
100
AcDbLine
 10
46.0099590252
 20
592.2033805081
 30
0.0
 11
46.0099590252
 21
592.0815111647
 31
0.0
  0
LINE
  5
1DF
330
72
100
AcDbEntity
  8
$DDT_AUDIT_GENERATED_(B2)
  6
Continuous
 62
     7
100
AcDbLine
 10
46.0099590252
 20
592.0815111647
 30
0.0
 11
46.4429717271
 21
592.1119785005
 31
0.0
  0
LINE
  5
1E0
330
72
100
AcDbEntity
  8
$DDT_AUDIT_GENERATED_(B2)
  6
Continuous
 62
     7
100
AcDbLine
 10
46.4429717271
 20
592.1119785005
 30
0.0
 11
46.4429717271
 21
592.1729131723
 31
0.0
  0
LINE
  5
1E1
330
72
100
AcDbEntity
  8
$DDT_AUDIT_GENERATED_(B2)
  6
Continuous
 62
     7
100
AcDbLine
 10
46.4429717271
 20
592.1729131723
 30
0.0
 11
46.0099590252
 21
592.2033805081
 31
0.0
  0
LINE
  5
1E2
330
72
100
AcDbEntity
  8
$DDT_AUDIT_GENERATED_(B2)
  6
Continuous
 62
     7
100
AcDbLine
 10
46.0099590252
 20
592.2033805081
 30
0.0
 11
45.5769463233
 21
592.1729131723
 31
0.0
  0
LINE
  5
1E3
330
72
100
AcDbEntity
  8
$DDT_AUDIT_GENERATED_(B2)
  6
Continuous
 62
     7
100
AcDbLine
 10
45.5769463233
 20
592.1729131723
 30
0.0
 11
45.5769463233
 21
592.1119785005
 31
0.0
  0
LINE
  5
1E4
330
72
100
AcDbEntity
  8
$DDT_AUDIT_GENERATED_(B2)
  6
Continuous
 62
     7
100
AcDbLine
 10
45.5769463233
 20
592.1119785005
 30
0.0
 11
46.0099590252
 21
592.0815111647
 31
0.0
  0
LINE
  5
1E5
330
72
100
AcDbEntity
  8
$DDT_AUDIT_GENERATED_(B2)
  6
Continuous
 62
     7
100
AcDbLine
 10
44.9439336215
 20
592.2033805081
 30
0.0
 11
44.9439336215
 21
592.0815111647
 31
0.0
  0
LINE
  5
1E6
330
72
100
AcDbEntity
  8
$DDT_AUDIT_GENERATED_(B2)
  6
Continuous
 62
     7
100
AcDbLine
 10
44.9439336215
 20
592.0815111647
 30
0.0
 11
45.3769463233
 21
592.1119785005
 31
0.0
  0
LINE
  5
1E7
330
72
100
AcDbEntity
  8
$DDT_AUDIT_GENERATED_(B2)
  6
Continuous
 62
     7
100
AcDbLine
 10
45.3769463233
 20
592.1119785005
 30
0.0
 11
45.3769463233
 21
592.1729131723
 31
0.0
  0
LINE
  5
1E8
330
72
100
AcDbEntity
  8
$DDT_AUDIT_GENERATED_(B2)
  6
Continuous
 62
     7
100
AcDbLine
 10
45.3769463233
 20
592.1729131723
 30
0.0
 11
44.9439336215
 21
592.2033805081
 31
0.0
  0
LINE
  5
1E9
330
72
100
AcDbEntity
  8
$DDT_AUDIT_GENERATED_(B2)
  6
Continuous
 62
     7
100
AcDbLine
 10
44.9439336215
 20
592.2033805081
 30
0.0
 11
44.5109209196
 21
592.1729131723
 31
0.0
  0
LINE
  5
1EA
330
72
100
AcDbEntity
  8
$DDT_AUDIT_GENERATED_(B2)
  6
Continuous
 62
     7
100
AcDbLine
 10
44.5109209196
 20
592.1729131723
 30
0.0
 11
44.5109209196
 21
592.1119785005
 31
0.0
  0
LINE
  5
1EB
330
72
100
AcDbEntity
  8
$DDT_AUDIT_GENERATED_(B2)
  6
Continuous
 62
     7
100
AcDbLine
 10
44.5109209196
 20
592.1119785005
 30
0.0
 11
44.9439336215
 21
592.0815111647
 31
0.0
  0
LINE
  5
1EC
330
72
100
AcDbEntity
  8
$DDT_AUDIT_GENERATED_(B2)
  6
Continuous
 62
     7
100
AcDbLine
 10
45.4769463233
 20
592.0908701111
 30
0.0
 11
45.4769463233
 21
591.9690007677
 31
0.0
  0
LINE
  5
1ED
330
72
100
AcDbEntity
  8
$DDT_AUDIT_GENERATED_(B2)
  6
Continuous
 62
     7
100
AcDbLine
 10
45.9099590252
 20
591.9994681035
 30
0.0
 11
45.9099590252
 21
592.0604027752
 31
0.0
  0
LINE
  5
1EE
330
72
100
AcDbEntity
  8
$DDT_AUDIT_GENERATED_(B2)
  6
Continuous
 62
     7
100
AcDbLine
 10
45.9099590252
 20
592.0604027752
 30
0.0
 11
45.4769463233
 21
592.0908701111
 31
0.0
  0
LINE
  5
1EF
330
72
100
AcDbEntity
  8
$DDT_AUDIT_GENERATED_(B2)
  6
Continuous
 62
     7
100
AcDbLine
 10
45.4769463233
 20
592.0908701111
 30
0.0
 11
45.0439336215
 21
592.0604027752
 31
0.0
  0
LINE
  5
1F0
330
72
100
AcDbEntity
  8
$DDT_AUDIT_GENERATED_(B2)
  6
Continuous
 62
     7
100
AcDbLine
 10
45.0439336215
 20
592.0604027752
 30
0.0
 11
45.0439336215
 21
591.9994681035
 31
0.0
  0
LINE
  5
1F1
330
72
100
AcDbEntity
  8
$DDT_AUDIT_GENERATED_(B2)
  6
Continuous
 62
     7
100
AcDbLine
 10
45.0439336215
 20
591.9994681035
 30
0.0
 11
45.4769463233
 21
591.9690007677
 31
0.0
  0
LINE
  5
1F2
330
72
100
AcDbEntity
  8
$DDT_AUDIT_GENERATED_(B2)
  6
Continuous
 62
     7
100
AcDbLine
 10
45.4769463233
 20
591.9690007677
 30
0.0
 11
45.9099590252
 21
591.9994681035
 31
0.0
  0
LINE
  5
1F3
330
72
100
AcDbEntity
  8
$DDT_AUDIT_GENERATED_(B2)
  6
Continuous
 62
     7
100
AcDbLine
 10
46.5429717271
 20
592.0908701111
 30
0.0
 11
46.5429717271
 21
591.9690007677
 31
0.0
  0
LINE
  5
1F4
330
72
100
AcDbEntity
  8
$DDT_AUDIT_GENERATED_(B2)
  6
Continuous
 62
     7
100
AcDbLine
 10
46.5429717271
 20
592.0908701111
 30
0.0
 11
46.1099590252
 21
592.0604027752
 31
0.0
  0
LINE
  5
1F5
330
72
100
AcDbEntity
  8
$DDT_AUDIT_GENERATED_(B2)
  6
Continuous
 62
     7
100
AcDbLine
 10
46.1099590252
 20
592.0604027752
 30
0.0
 11
46.1099590252
 21
591.9994681035
 31
0.0
  0
LINE
  5
1F6
330
72
100
AcDbEntity
  8
$DDT_AUDIT_GENERATED_(B2)
  6
Continuous
 62
     7
100
AcDbLine
 10
46.1099590252
 20
591.9994681035
 30
0.0
 11
46.5429717271
 21
591.9690007677
 31
0.0
  0
LINE
  5
1F7
330
72
100
AcDbEntity
  8
$DDT_AUDIT_GENERATED_(B2)
  6
Continuous
 62
     7
100
AcDbLine
 10
46.5429717271
 20
591.9690007677
 30
0.0
 11
46.975984429
 21
591.9994681035
 31
0.0
  0
LINE
  5
1F8
330
72
100
AcDbEntity
  8
$DDT_AUDIT_GENERATED_(B2)
  6
Continuous
 62
     7
100
AcDbLine
 10
46.975984429
 20
591.9994681035
 30
0.0
 11
46.975984429
 21
592.0604027752
 31
0.0
  0
LINE
  5
1F9
330
72
100
AcDbEntity
  8
$DDT_AUDIT_GENERATED_(B2)
  6
Continuous
 62
     7
100
AcDbLine
 10
46.975984429
 20
592.0604027752
 30
0.0
 11
46.5429717271
 21
592.0908701111
 31
0.0
  0
ELLIPSE
  5
1FA
330
72
100
AcDbEntity
  8
$DDT_AUDIT_GENERATED_(B2)
  6
Continuous
 62
     7
100
AcDbEllipse
 10
40.679832049
 20
592.5924874197
 30
0.0
 11
7.99999995536535
 21
3.566452688730237E-9
 31
0.0
210
0.0
220
0.0
230
1.0
 40
0.1218693434
 41
-0.766428310962108
 42
-0.7296729474669812
  0
LINE
  5
1FB
330
72
100
AcDbEntity
  8
$DDT_AUDIT_GENERATED_(B2)
  6
Continuous
 62
     7
100
AcDbLine
 10
45.9597187765
 20
591.9748247449
 30
0.0
 11
45.9597187765
 21
591.8600253398
 31
0.0
  0
LINE
  5
1FC
330
72
100
AcDbEntity
  8
$DDT_AUDIT_GENERATED_(B2)
  6
Continuous
 62
     7
100
AcDbLine
 10
46.4429717271
 20
591.9478923782
 30
0.0
 11
46.0099590252
 21
591.9783597141
 31
0.0
  0
LINE
  5
1FD
330
72
100
AcDbEntity
  8
$DDT_AUDIT_GENERATED_(B2)
  6
Continuous
 62
     7
100
AcDbLine
 10
46.0099590252
 20
591.9783597141
 30
0.0
 11
45.5769463233
 21
591.9478923782
 31
0.0
  0
LINE
  5
1FE
330
72
100
AcDbEntity
  8
$DDT_AUDIT_GENERATED_(B2)
  6
Continuous
 62
     7
100
AcDbLine
 10
45.5769463233
 20
591.9478923782
 30
0.0
 11
45.5769463233
 21
591.8869577065
 31
0.0
  0
LINE
  5
1FF
330
72
100
AcDbEntity
  8
$DDT_AUDIT_GENERATED_(B2)
  6
Continuous
 62
     7
100
AcDbLine
 10
45.5769463233
 20
591.8869577065
 30
0.0
 11
45.9597187765
 21
591.8600253398
 31
0.0
  0
LINE
  5
200
330
72
100
AcDbEntity
  8
$DDT_AUDIT_GENERATED_(B2)
  6
Continuous
 62
     7
100
AcDbLine
 10
46.4429717271
 20
591.9162913278
 30
0.0
 11
46.4429717271
 21
591.9478923782
 31
0.0
  0
LINE
  5
201
330
72
100
AcDbEntity
  8
$DDT_AUDIT_GENERATED_(B2)
  6
Continuous
 62
     7
100
AcDbLine
 10
44.9439336215
 20
591.9783597141
 30
0.0
 11
44.9439336215
 21
591.8564903707
 31
0.0
  0
LINE
  5
202
330
72
100
AcDbEntity
  8
$DDT_AUDIT_GENERATED_(B2)
  6
Continuous
 62
     7
100
AcDbLine
 10
45.3769463233
 20
591.8869577065
 30
0.0
 11
45.3769463233
 21
591.9478923782
 31
0.0
  0
LINE
  5
203
330
72
100
AcDbEntity
  8
$DDT_AUDIT_GENERATED_(B2)
  6
Continuous
 62
     7
100
AcDbLine
 10
45.3769463233
 20
591.9478923782
 30
0.0
 11
44.9439336215
 21
591.9783597141
 31
0.0
  0
LINE
  5
204
330
72
100
AcDbEntity
  8
$DDT_AUDIT_GENERATED_(B2)
  6
Continuous
 62
     7
100
AcDbLine
 10
44.9439336215
 20
591.9783597141
 30
0.0
 11
44.5109209196
 21
591.9478923782
 31
0.0
  0
LINE
  5
205
330
72
100
AcDbEntity
  8
$DDT_AUDIT_GENERATED_(B2)
  6
Continuous
 62
     7
100
AcDbLine
 10
44.5109209196
 20
591.9478923782
 30
0.0
 11
44.5109209196
 21
591.8869577065
 31
0.0
  0
LINE
  5
206
330
72
100
AcDbEntity
  8
$DDT_AUDIT_GENERATED_(B2)
  6
Continuous
 62
     7
100
AcDbLine
 10
44.5109209196
 20
591.8869577065
 30
0.0
 11
44.9439336215
 21
591.8564903707
 31
0.0
  0
LINE
  5
207
330
72
100
AcDbEntity
  8
$DDT_AUDIT_GENERATED_(B2)
  6
Continuous
 62
     7
100
AcDbLine
 10
44.9439336215
 20
591.8564903707
 30
0.0
 11
45.3769463233
 21
591.8869577065
 31
0.0
  0
LINE
  5
208
330
72
100
AcDbEntity
  8
$DDT_AUDIT_GENERATED_(B2)
  6
Continuous
 62
     7
100
AcDbLine
 10
44.4109209196
 20
592.0908701111
 30
0.0
 11
44.4109209196
 21
591.9690007677
 31
0.0
  0
LINE
  5
209
330
72
100
AcDbEntity
  8
$DDT_AUDIT_GENERATED_(B2)
  6
Continuous
 62
     7
100
AcDbLine
 10
44.4109209196
 20
591.9690007677
 30
0.0
 11
44.8439336215
 21
591.9994681035
 31
0.0
  0
LINE
  5
20A
330
72
100
AcDbEntity
  8
$DDT_AUDIT_GENERATED_(B2)
  6
Continuous
 62
     7
100
AcDbLine
 10
44.8439336215
 20
591.9994681035
 30
0.0
 11
44.8439336215
 21
592.0604027752
 31
0.0
  0
LINE
  5
20B
330
72
100
AcDbEntity
  8
$DDT_AUDIT_GENERATED_(B2)
  6
Continuous
 62
     7
100
AcDbLine
 10
44.8439336215
 20
592.0604027752
 30
0.0
 11
44.4109209196
 21
592.0908701111
 31
0.0
  0
LINE
  5
20C
330
72
100
AcDbEntity
  8
$DDT_AUDIT_GENERATED_(B2)
  6
Continuous
 62
     7
100
AcDbLine
 10
44.4109209196
 20
592.0908701111
 30
0.0
 11
43.9779082177
 21
592.0604027752
 31
0.0
  0
LINE
  5
20D
330
72
100
AcDbEntity
  8
$DDT_AUDIT_GENERATED_(B2)
  6
Continuous
 62
     7
100
AcDbLine
 10
43.9779082177
 20
592.0604027752
 30
0.0
 11
43.9779082177
 21
591.9994681035
 31
0.0
  0
LINE
  5
20E
330
72
100
AcDbEntity
  8
$DDT_AUDIT_GENERATED_(B2)
  6
Continuous
 62
     7
100
AcDbLine
 10
43.9779082177
 20
591.9994681035
 30
0.0
 11
44.4109209196
 21
591.9690007677
 31
0.0
  0
LINE
  5
20F
330
72
100
AcDbEntity
  8
$DDT_AUDIT_GENERATED_(B2)
  6
Continuous
 62
     7
100
AcDbLine
 10
43.8779082177
 20
591.9783597141
 30
0.0
 11
43.8779082177
 21
591.8564903707
 31
0.0
  0
LINE
  5
210
330
72
100
AcDbEntity
  8
$DDT_AUDIT_GENERATED_(B2)
  6
Continuous
 62
     7
100
AcDbLine
 10
43.8779082177
 20
591.8564903707
 30
0.0
 11
44.3109209196
 21
591.8869577065
 31
0.0
  0
LINE
  5
211
330
72
100
AcDbEntity
  8
$DDT_AUDIT_GENERATED_(B2)
  6
Continuous
 62
     7
100
AcDbLine
 10
44.3109209196
 20
591.8869577065
 30
0.0
 11
44.3109209196
 21
591.9478923782
 31
0.0
  0
LINE
  5
212
330
72
100
AcDbEntity
  8
$DDT_AUDIT_GENERATED_(B2)
  6
Continuous
 62
     7
100
AcDbLine
 10
44.3109209196
 20
591.9478923782
 30
0.0
 11
43.8779082177
 21
591.9783597141
 31
0.0
  0
LINE
  5
213
330
72
100
AcDbEntity
  8
$DDT_AUDIT_GENERATED_(B2)
  6
Continuous
 62
     7
100
AcDbLine
 10
43.8779082177
 20
591.9783597141
 30
0.0
 11
43.4448955158
 21
591.9478923782
 31
0.0
  0
LINE
  5
214
330
72
100
AcDbEntity
  8
$DDT_AUDIT_GENERATED_(B2)
  6
Continuous
 62
     7
100
AcDbLine
 10
43.4448955158
 20
591.9478923782
 30
0.0
 11
43.4448955158
 21
591.8869577065
 31
0.0
  0
LINE
  5
215
330
72
100
AcDbEntity
  8
$DDT_AUDIT_GENERATED_(B2)
  6
Continuous
 62
     7
100
AcDbLine
 10
43.4448955158
 20
591.8869577065
 30
0.0
 11
43.8779082177
 21
591.8564903707
 31
0.0
  0
LINE
  5
216
330
72
100
AcDbEntity
  8
$DDT_AUDIT_GENERATED_(B2)
  6
Continuous
 62
     7
100
AcDbLine
 10
44.4109209196
 20
591.865849317
 30
0.0
 11
44.4109209196
 21
591.7439799736
 31
0.0
  0
LINE
  5
217
330
72
100
AcDbEntity
  8
$DDT_AUDIT_GENERATED_(B2)
  6
Continuous
 62
     7
100
AcDbLine
 10
44.8439336215
 20
591.8353819812
 30
0.0
 11
44.4109209196
 21
591.865849317
 31
0.0
  0
LINE
  5
218
330
72
100
AcDbEntity
  8
$DDT_AUDIT_GENERATED_(B2)
  6
Continuous
 62
     7
100
AcDbLine
 10
44.4109209196
 20
591.865849317
 30
0.0
 11
43.9779082177
 21
591.8353819812
 31
0.0
  0
LINE
  5
219
330
72
100
AcDbEntity
  8
$DDT_AUDIT_GENERATED_(B2)
  6
Continuous
 62
     7
100
AcDbLine
 10
43.9779082177
 20
591.8353819812
 30
0.0
 11
43.9779082177
 21
591.7744473095
 31
0.0
  0
LINE
  5
21A
330
72
100
AcDbEntity
  8
$DDT_AUDIT_GENERATED_(B2)
  6
Continuous
 62
     7
100
AcDbLine
 10
43.9779082177
 20
591.7744473095
 30
0.0
 11
44.4109209196
 21
591.7439799736
 31
0.0
  0
LINE
  5
21B
330
72
100
AcDbEntity
  8
$DDT_AUDIT_GENERATED_(B2)
  6
Continuous
 62
     7
100
AcDbLine
 10
44.4109209196
 20
591.7439799736
 30
0.0
 11
44.8439336215
 21
591.7744473095
 31
0.0
  0
LINE
  5
21C
330
72
100
AcDbEntity
  8
$DDT_AUDIT_GENERATED_(B2)
  6
Continuous
 62
     7
100
AcDbLine
 10
44.8439336215
 20
591.7744473095
 30
0.0
 11
44.8439336215
 21
591.8353819812
 31
0.0
  0
ELLIPSE
  5
21D
330
72
100
AcDbEntity
  8
$DDT_AUDIT_GENERATED_(B2)
  6
Continuous
 62
     7
100
AcDbEllipse
 10
40.6798320064
 20
592.5924874245
 30
0.0
 11
8.000000000047583
 21
-3.969047313034935E-12
 31
0.0
210
0.0
220
0.0
230
1.0
 40
0.1218693434
 41
-1.100599509851445
 42
-0.9937955925371229
  0
LINE
  5
21E
330
72
100
AcDbEntity
  8
$DDT_AUDIT_GENERATED_(B2)
  6
Continuous
 62
     7
100
AcDbLine
 10
44.3043260252
 20
591.7233356095
 30
0.0
 11
43.8779082177
 21
591.75333892
 31
0.0
  0
LINE
  5
21F
330
72
100
AcDbEntity
  8
$DDT_AUDIT_GENERATED_(B2)
  6
Continuous
 62
     7
100
AcDbLine
 10
43.8779082177
 20
591.75333892
 30
0.0
 11
43.4448955158
 21
591.7228715842
 31
0.0
  0
LINE
  5
220
330
72
100
AcDbEntity
  8
$DDT_AUDIT_GENERATED_(B2)
  6
Continuous
 62
     7
100
AcDbLine
 10
43.4448955158
 20
591.7228715842
 30
0.0
 11
43.4448955158
 21
591.6776193384
 31
0.0
  0
ELLIPSE
  5
221
330
72
100
AcDbEntity
  8
$DDT_AUDIT_GENERATED_(B2)
  6
Continuous
 62
     7
100
AcDbEllipse
 10
40.6798318095
 20
592.5924874526
 30
0.0
 11
8.000000215522293
 21
-1.853614484126354E-8
 31
0.0
210
0.0
220
0.0
230
1.0
 40
0.1218693438
 41
-0.8765119758827566
 42
-0.849996396244606
  0
LINE
  5
222
330
72
100
AcDbEntity
  8
$DDT_AUDIT_GENERATED_(B2)
  6
Continuous
 62
     7
100
AcDbLine
 10
45.4769463233
 20
591.865849317
 30
0.0
 11
45.0439336215
 21
591.8353819812
 31
0.0
  0
LINE
  5
223
330
72
100
AcDbEntity
  8
$DDT_AUDIT_GENERATED_(B2)
  6
Continuous
 62
     7
100
AcDbLine
 10
45.0439336215
 20
591.8353819812
 30
0.0
 11
45.0439336215
 21
591.7753753602
 31
0.0
  0
LINE
  5
224
330
72
100
AcDbEntity
  8
$DDT_AUDIT_GENERATED_(B2)
  6
Continuous
 62
     7
100
AcDbLine
 10
45.7985168949
 20
591.8432231942
 30
0.0
 11
45.4769463233
 21
591.865849317
 31
0.0
  0
ELLIPSE
  5
225
330
72
100
AcDbEntity
  8
$DDT_AUDIT_GENERATED_(B2)
  6
Continuous
 62
     7
100
AcDbEllipse
 10
40.6798320607
 20
592.5924874224
 30
0.0
 11
7.999999945621023
 21
1.993377685138853E-9
 31
0.0
210
0.0
220
0.0
230
1.0
 40
0.1218693438
 41
-0.3180851639541515
 42
-0.2813080081797388
  0
LINE
  5
226
330
72
100
AcDbEntity
  8
$DDT_AUDIT_GENERATED_(B2)
  6
Continuous
 62
     7
100
AcDbLine
 10
48.2785201761
 20
592.2875719322
 30
0.0
 11
48.2420098327
 21
592.2850030171
 31
0.0
  0
LINE
  5
227
330
72
100
AcDbEntity
  8
$DDT_AUDIT_GENERATED_(B2)
  6
Continuous
 62
     7
100
AcDbLine
 10
48.2420098327
 20
592.2850030171
 30
0.0
 11
48.2420098327
 21
592.2743765361
 31
0.0
  0
ELLIPSE
  5
228
330
72
100
AcDbEntity
  8
$DDT_AUDIT_GENERATED_(B2)
  6
Continuous
 62
     7
100
AcDbEllipse
 10
40.6798320062
 20
592.5924874245
 30
0.0
 11
8.000000000229569
 21
-4.912736883966318E-12
 31
0.0
210
0.0
220
0.0
230
1.0
 40
0.1218693434
 41
-0.4240045291188252
 42
-0.3323683972962685
  0
LINE
  5
229
330
72
100
AcDbEntity
  8
$DDT_AUDIT_GENERATED_(B2)
  6
Continuous
 62
     7
100
AcDbLine
 10
47.9714218849
 20
592.1913777186
 30
0.0
 11
47.7089971309
 21
592.1729131723
 31
0.0
  0
LINE
  5
22A
330
72
100
AcDbEntity
  8
$DDT_AUDIT_GENERATED_(B2)
  6
Continuous
 62
     7
100
AcDbLine
 10
47.7089971309
 20
592.1729131723
 30
0.0
 11
47.7089971309
 21
592.1269714551
 31
0.0
  0
ELLIPSE
  5
22B
330
72
100
AcDbEntity
  8
$DDT_AUDIT_GENERATED_(B2)
  6
Continuous
 62
     7
100
AcDbEllipse
 10
40.6798320181
 20
592.5924874236
 30
0.0
 11
7.999999988167448
 21
7.247813460509178E-10
 31
0.0
210
0.0
220
0.0
230
1.0
 40
0.1218693435
 41
-0.5494194729179167
 42
-0.4977780790323143
  0
LINE
  5
22C
330
72
100
AcDbEntity
  8
$DDT_AUDIT_GENERATED_(B2)
  6
Continuous
 62
     7
100
AcDbLine
 10
47.5024545079
 20
592.0833736338
 30
0.0
 11
47.175984429
 21
592.0604027752
 31
0.0
  0
LINE
  5
22D
330
72
100
AcDbEntity
  8
$DDT_AUDIT_GENERATED_(B2)
  6
Continuous
 62
     7
100
AcDbLine
 10
47.175984429
 20
592.0604027752
 30
0.0
 11
47.175984429
 21
592.0234736825
 31
0.0
  0
ELLIPSE
  5
22E
330
72
100
AcDbEntity
  8
$DDT_AUDIT_GENERATED_(B2)
  6
Continuous
 62
     7
100
AcDbEllipse
 10
40.6798320058
 20
592.5924874245
 30
0.0
 11
8.000000000658321
 21
-5.143108161576038E-11
 31
0.0
210
0.0
220
0.0
230
1.0
 40
0.1218693434
 41
-0.714829153869343
 42
-0.6231930220480209
  0
LINE
  5
22F
330
72
100
AcDbEntity
  8
$DDT_AUDIT_GENERATED_(B2)
  6
Continuous
 62
     7
100
AcDbLine
 10
46.7214739254
 20
591.9534158948
 30
0.0
 11
46.6429717271
 21
591.9478923782
 31
0.0
  0
LINE
  5
230
330
72
100
AcDbEntity
  8
$DDT_AUDIT_GENERATED_(B2)
  6
Continuous
 62
     7
100
AcDbLine
 10
46.6429717271
 20
591.9478923782
 30
0.0
 11
46.6429717271
 21
591.9425573515
 31
0.0
  0
ELLIPSE
  5
231
330
72
100
AcDbEntity
  8
$DDT_AUDIT_GENERATED_(B2)
  6
Continuous
 62
     7
100
AcDbEllipse
 10
40.6798320187
 20
592.5924874179
 30
0.0
 11
7.999999970839335
 21
1.489863787895729E-9
 31
0.0
210
0.0
220
0.0
230
1.0
 40
0.121869343
 41
-1.36472215755628
 42
-1.327966794066855
  0
LINE
  5
232
330
72
100
AcDbEntity
  8
$DDT_AUDIT_GENERATED_(B2)
  6
Continuous
 62
     7
100
AcDbLine
 10
42.3167817686
 20
591.6381610096
 30
0.0
 11
42.2788701121
 21
591.640828523
 31
0.0
  0
LINE
  5
233
330
72
100
AcDbEntity
  8
$DDT_AUDIT_GENERATED_(B2)
  6
Continuous
 62
     7
100
AcDbLine
 10
42.2788701121
 20
591.640828523
 30
0.0
 11
42.2003679138
 21
591.6353050064
 31
0.0
  0
LINE
  5
234
330
72
100
AcDbEntity
  8
$DDT_AUDIT_GENERATED_(B2)
  6
Continuous
 62
     7
100
AcDbLine
 10
40.1468193045
 20
592.3158909051
 30
0.0
 11
40.1468193045
 21
592.1940215617
 31
0.0
  0
LINE
  5
235
330
72
100
AcDbEntity
  8
$DDT_AUDIT_GENERATED_(B2)
  6
Continuous
 62
     7
100
AcDbLine
 10
40.5798320064
 20
592.2854235693
 30
0.0
 11
40.1468193045
 21
592.3158909051
 31
0.0
  0
LINE
  5
236
330
72
100
AcDbEntity
  8
$DDT_AUDIT_GENERATED_(B2)
  6
Continuous
 62
     7
100
AcDbLine
 10
40.1468193045
 20
592.3158909051
 30
0.0
 11
39.7138066026
 21
592.2854235693
 31
0.0
  0
LINE
  5
237
330
72
100
AcDbEntity
  8
$DDT_AUDIT_GENERATED_(B2)
  6
Continuous
 62
     7
100
AcDbLine
 10
39.7138066026
 20
592.2854235693
 30
0.0
 11
39.7138066026
 21
592.2244888976
 31
0.0
  0
LINE
  5
238
330
72
100
AcDbEntity
  8
$DDT_AUDIT_GENERATED_(B2)
  6
Continuous
 62
     7
100
AcDbLine
 10
39.7138066026
 20
592.2244888976
 30
0.0
 11
40.1468193045
 21
592.1940215617
 31
0.0
  0
LINE
  5
239
330
72
100
AcDbEntity
  8
$DDT_AUDIT_GENERATED_(B2)
  6
Continuous
 62
     7
100
AcDbLine
 10
40.1468193045
 20
592.1940215617
 30
0.0
 11
40.5798320064
 21
592.2244888976
 31
0.0
  0
LINE
  5
23A
330
72
100
AcDbEntity
  8
$DDT_AUDIT_GENERATED_(B2)
  6
Continuous
 62
     7
100
AcDbLine
 10
40.5798320064
 20
592.2244888976
 30
0.0
 11
40.5798320064
 21
592.2854235693
 31
0.0
  0
LINE
  5
23B
330
72
100
AcDbEntity
  8
$DDT_AUDIT_GENERATED_(B2)
  6
Continuous
 62
     7
100
AcDbLine
 10
40.2468193045
 20
592.3979339663
 30
0.0
 11
40.2468193045
 21
592.3369992946
 31
0.0
  0
LINE
  5
23C
330
72
100
AcDbEntity
  8
$DDT_AUDIT_GENERATED_(B2)
  6
Continuous
 62
     7
100
AcDbLine
 10
40.2468193045
 20
592.3369992946
 30
0.0
 11
40.6798320064
 21
592.3065319587
 31
0.0
  0
LINE
  5
23D
330
72
100
AcDbEntity
  8
$DDT_AUDIT_GENERATED_(B2)
  6
Continuous
 62
     7
100
AcDbLine
 10
40.6798320064
 20
592.4284013021
 30
0.0
 11
40.2468193045
 21
592.3979339663
 31
0.0
  0
LINE
  5
23E
330
72
100
AcDbEntity
  8
$DDT_AUDIT_GENERATED_(B2)
  6
Continuous
 62
     7
100
AcDbLine
 10
40.1468193045
 20
592.5409116992
 30
0.0
 11
40.1468193045
 21
592.4190423558
 31
0.0
  0
LINE
  5
23F
330
72
100
AcDbEntity
  8
$DDT_AUDIT_GENERATED_(B2)
  6
Continuous
 62
     7
100
AcDbLine
 10
39.7138066026
 20
592.4495096916
 30
0.0
 11
40.1468193045
 21
592.4190423558
 31
0.0
  0
LINE
  5
240
330
72
100
AcDbEntity
  8
$DDT_AUDIT_GENERATED_(B2)
  6
Continuous
 62
     7
100
AcDbLine
 10
40.1468193045
 20
592.4190423558
 30
0.0
 11
40.5798320064
 21
592.4495096916
 31
0.0
  0
LINE
  5
241
330
72
100
AcDbEntity
  8
$DDT_AUDIT_GENERATED_(B2)
  6
Continuous
 62
     7
100
AcDbLine
 10
40.5798320064
 20
592.4495096916
 30
0.0
 11
40.5798320064
 21
592.5104443633
 31
0.0
  0
LINE
  5
242
330
72
100
AcDbEntity
  8
$DDT_AUDIT_GENERATED_(B2)
  6
Continuous
 62
     7
100
AcDbLine
 10
40.5798320064
 20
592.5104443633
 30
0.0
 11
40.1468193045
 21
592.5409116992
 31
0.0
  0
LINE
  5
243
330
72
100
AcDbEntity
  8
$DDT_AUDIT_GENERATED_(B2)
  6
Continuous
 62
     7
100
AcDbLine
 10
40.1468193045
 20
592.5409116992
 30
0.0
 11
39.7138066026
 21
592.5104443633
 31
0.0
  0
LINE
  5
244
330
72
100
AcDbEntity
  8
$DDT_AUDIT_GENERATED_(B2)
  6
Continuous
 62
     7
100
AcDbLine
 10
39.7138066026
 20
592.5104443633
 30
0.0
 11
39.7138066026
 21
592.4495096916
 31
0.0
  0
LINE
  5
245
330
72
100
AcDbEntity
  8
$DDT_AUDIT_GENERATED_(B2)
  6
Continuous
 62
     7
100
AcDbLine
 10
39.6138066026
 20
592.4284013021
 30
0.0
 11
39.6138066026
 21
592.3065319587
 31
0.0
  0
LINE
  5
246
330
72
100
AcDbEntity
  8
$DDT_AUDIT_GENERATED_(B2)
  6
Continuous
 62
     7
100
AcDbLine
 10
40.0468193045
 20
592.3979339663
 30
0.0
 11
39.6138066026
 21
592.4284013021
 31
0.0
  0
LINE
  5
247
330
72
100
AcDbEntity
  8
$DDT_AUDIT_GENERATED_(B2)
  6
Continuous
 62
     7
100
AcDbLine
 10
39.6138066026
 20
592.4284013021
 30
0.0
 11
39.1807939008
 21
592.3979339663
 31
0.0
  0
LINE
  5
248
330
72
100
AcDbEntity
  8
$DDT_AUDIT_GENERATED_(B2)
  6
Continuous
 62
     7
100
AcDbLine
 10
39.1807939008
 20
592.3979339663
 30
0.0
 11
39.1807939008
 21
592.3369992946
 31
0.0
  0
LINE
  5
249
330
72
100
AcDbEntity
  8
$DDT_AUDIT_GENERATED_(B2)
  6
Continuous
 62
     7
100
AcDbLine
 10
39.1807939008
 20
592.3369992946
 30
0.0
 11
39.6138066026
 21
592.3065319587
 31
0.0
  0
LINE
  5
24A
330
72
100
AcDbEntity
  8
$DDT_AUDIT_GENERATED_(B2)
  6
Continuous
 62
     7
100
AcDbLine
 10
39.6138066026
 20
592.3065319587
 30
0.0
 11
40.0468193045
 21
592.3369992946
 31
0.0
  0
LINE
  5
24B
330
72
100
AcDbEntity
  8
$DDT_AUDIT_GENERATED_(B2)
  6
Continuous
 62
     7
100
AcDbLine
 10
40.0468193045
 20
592.3369992946
 30
0.0
 11
40.0468193045
 21
592.3979339663
 31
0.0
  0
LINE
  5
24C
330
72
100
AcDbEntity
  8
$DDT_AUDIT_GENERATED_(B2)
  6
Continuous
 62
     7
100
AcDbLine
 10
39.0807939008
 20
592.5409116992
 30
0.0
 11
39.0807939008
 21
592.4190423558
 31
0.0
  0
LINE
  5
24D
330
72
100
AcDbEntity
  8
$DDT_AUDIT_GENERATED_(B2)
  6
Continuous
 62
     7
100
AcDbLine
 10
39.0807939008
 20
592.4190423558
 30
0.0
 11
39.5138066026
 21
592.4495096916
 31
0.0
  0
LINE
  5
24E
330
72
100
AcDbEntity
  8
$DDT_AUDIT_GENERATED_(B2)
  6
Continuous
 62
     7
100
AcDbLine
 10
39.5138066026
 20
592.4495096916
 30
0.0
 11
39.5138066026
 21
592.5104443633
 31
0.0
  0
LINE
  5
24F
330
72
100
AcDbEntity
  8
$DDT_AUDIT_GENERATED_(B2)
  6
Continuous
 62
     7
100
AcDbLine
 10
39.5138066026
 20
592.5104443633
 30
0.0
 11
39.0807939008
 21
592.5409116992
 31
0.0
  0
LINE
  5
250
330
72
100
AcDbEntity
  8
$DDT_AUDIT_GENERATED_(B2)
  6
Continuous
 62
     7
100
AcDbLine
 10
39.0807939008
 20
592.5409116992
 30
0.0
 11
38.6477811989
 21
592.5104443633
 31
0.0
  0
LINE
  5
251
330
72
100
AcDbEntity
  8
$DDT_AUDIT_GENERATED_(B2)
  6
Continuous
 62
     7
100
AcDbLine
 10
38.6477811989
 20
592.5104443633
 30
0.0
 11
38.6477811989
 21
592.4495096916
 31
0.0
  0
LINE
  5
252
330
72
100
AcDbEntity
  8
$DDT_AUDIT_GENERATED_(B2)
  6
Continuous
 62
     7
100
AcDbLine
 10
38.6477811989
 20
592.4495096916
 30
0.0
 11
39.0807939008
 21
592.4190423558
 31
0.0
  0
LINE
  5
253
330
72
100
AcDbEntity
  8
$DDT_AUDIT_GENERATED_(B2)
  6
Continuous
 62
     7
100
AcDbLine
 10
39.6138066026
 20
592.6534220962
 30
0.0
 11
39.6138066026
 21
592.5315527528
 31
0.0
  0
LINE
  5
254
330
72
100
AcDbEntity
  8
$DDT_AUDIT_GENERATED_(B2)
  6
Continuous
 62
     7
100
AcDbLine
 10
39.1807939008
 20
592.5620200886
 30
0.0
 11
39.6138066026
 21
592.5315527528
 31
0.0
  0
LINE
  5
255
330
72
100
AcDbEntity
  8
$DDT_AUDIT_GENERATED_(B2)
  6
Continuous
 62
     7
100
AcDbLine
 10
39.6138066026
 20
592.5315527528
 30
0.0
 11
40.0468193045
 21
592.5620200886
 31
0.0
  0
LINE
  5
256
330
72
100
AcDbEntity
  8
$DDT_AUDIT_GENERATED_(B2)
  6
Continuous
 62
     7
100
AcDbLine
 10
40.0468193045
 20
592.5620200886
 30
0.0
 11
40.0468193045
 21
592.6229547603
 31
0.0
  0
LINE
  5
257
330
72
100
AcDbEntity
  8
$DDT_AUDIT_GENERATED_(B2)
  6
Continuous
 62
     7
100
AcDbLine
 10
39.1807939008
 20
592.6229547603
 30
0.0
 11
39.1807939008
 21
592.5620200886
 31
0.0
  0
LINE
  5
258
330
72
100
AcDbEntity
  8
$DDT_AUDIT_GENERATED_(B2)
  6
Continuous
 62
     7
100
AcDbLine
 10
40.2468193045
 20
591.6619369125
 30
0.0
 11
40.6798320064
 21
591.6314695766
 31
0.0
  0
LINE
  5
259
330
72
100
AcDbEntity
  8
$DDT_AUDIT_GENERATED_(B2)
  6
Continuous
 62
     7
100
AcDbLine
 10
40.6798320064
 20
591.75333892
 30
0.0
 11
40.2468193045
 21
591.7228715842
 31
0.0
  0
LINE
  5
25A
330
72
100
AcDbEntity
  8
$DDT_AUDIT_GENERATED_(B2)
  6
Continuous
 62
     7
100
AcDbLine
 10
40.2468193045
 20
591.7228715842
 30
0.0
 11
40.2468193045
 21
591.6619369125
 31
0.0
  0
ARC
  5
25B
330
72
100
AcDbEntity
  8
$DDT_AUDIT_GENERATED_(B2)
  6
Continuous
 62
     7
100
AcDbCircle
 10
40.6798320064
 20
657.2400485384
 30
0.0
 40
65.62251591455475
100
AcDbArc
 50
269.8196649434
 51
270.1803350566
  0
LINE
  5
25C
330
72
100
AcDbEntity
  8
$DDT_AUDIT_GENERATED_(B2)
  6
Continuous
 62
     7
100
AcDbLine
 10
40.1468193045
 20
591.640828523
 30
0.0
 11
39.8843945505
 21
591.6223639766
 31
0.0
  0
LINE
  5
25D
330
72
100
AcDbEntity
  8
$DDT_AUDIT_GENERATED_(B2)
  6
Continuous
 62
     7
100
AcDbLine
 10
40.4732893834
 20
591.6178576644
 30
0.0
 11
40.1468193045
 21
591.640828523
 31
0.0
  0
LINE
  5
25E
330
72
100
AcDbEntity
  8
$DDT_AUDIT_GENERATED_(B2)
  6
Continuous
 62
     7
100
AcDbLine
 10
39.6138066026
 20
591.75333892
 30
0.0
 11
39.6138066026
 21
591.6314695766
 31
0.0
  0
LINE
  5
25F
330
72
100
AcDbEntity
  8
$DDT_AUDIT_GENERATED_(B2)
  6
Continuous
 62
     7
100
AcDbLine
 10
39.6138066026
 20
591.6314695766
 30
0.0
 11
40.0468193045
 21
591.6619369125
 31
0.0
  0
LINE
  5
260
330
72
100
AcDbEntity
  8
$DDT_AUDIT_GENERATED_(B2)
  6
Continuous
 62
     7
100
AcDbLine
 10
40.0468193045
 20
591.6619369125
 30
0.0
 11
40.0468193045
 21
591.7228715842
 31
0.0
  0
LINE
  5
261
330
72
100
AcDbEntity
  8
$DDT_AUDIT_GENERATED_(B2)
  6
Continuous
 62
     7
100
AcDbLine
 10
40.0468193045
 20
591.7228715842
 30
0.0
 11
39.6138066026
 21
591.75333892
 31
0.0
  0
LINE
  5
262
330
72
100
AcDbEntity
  8
$DDT_AUDIT_GENERATED_(B2)
  6
Continuous
 62
     7
100
AcDbLine
 10
39.6138066026
 20
591.75333892
 30
0.0
 11
39.1807939008
 21
591.7228715842
 31
0.0
  0
LINE
  5
263
330
72
100
AcDbEntity
  8
$DDT_AUDIT_GENERATED_(B2)
  6
Continuous
 62
     7
100
AcDbLine
 10
39.1807939008
 20
591.7228715842
 30
0.0
 11
39.1807939008
 21
591.6619369125
 31
0.0
  0
LINE
  5
264
330
72
100
AcDbEntity
  8
$DDT_AUDIT_GENERATED_(B2)
  6
Continuous
 62
     7
100
AcDbLine
 10
39.1807939008
 20
591.6619369125
 30
0.0
 11
39.6138066026
 21
591.6314695766
 31
0.0
  0
LINE
  5
265
330
72
100
AcDbEntity
  8
$DDT_AUDIT_GENERATED_(B2)
  6
Continuous
 62
     7
100
AcDbLine
 10
40.1468193045
 20
591.865849317
 30
0.0
 11
40.1468193045
 21
591.7439799736
 31
0.0
  0
LINE
  5
266
330
72
100
AcDbEntity
  8
$DDT_AUDIT_GENERATED_(B2)
  6
Continuous
 62
     7
100
AcDbLine
 10
39.7138066026
 20
591.7744473095
 30
0.0
 11
40.1468193045
 21
591.7439799736
 31
0.0
  0
LINE
  5
267
330
72
100
AcDbEntity
  8
$DDT_AUDIT_GENERATED_(B2)
  6
Continuous
 62
     7
100
AcDbLine
 10
40.1468193045
 20
591.7439799736
 30
0.0
 11
40.5798320064
 21
591.7744473095
 31
0.0
  0
LINE
  5
268
330
72
100
AcDbEntity
  8
$DDT_AUDIT_GENERATED_(B2)
  6
Continuous
 62
     7
100
AcDbLine
 10
40.5798320064
 20
591.7744473095
 30
0.0
 11
40.5798320064
 21
591.8353819812
 31
0.0
  0
LINE
  5
269
330
72
100
AcDbEntity
  8
$DDT_AUDIT_GENERATED_(B2)
  6
Continuous
 62
     7
100
AcDbLine
 10
40.5798320064
 20
591.8353819812
 30
0.0
 11
40.1468193045
 21
591.865849317
 31
0.0
  0
LINE
  5
26A
330
72
100
AcDbEntity
  8
$DDT_AUDIT_GENERATED_(B2)
  6
Continuous
 62
     7
100
AcDbLine
 10
40.1468193045
 20
591.865849317
 30
0.0
 11
39.7138066026
 21
591.8353819812
 31
0.0
  0
LINE
  5
26B
330
72
100
AcDbEntity
  8
$DDT_AUDIT_GENERATED_(B2)
  6
Continuous
 62
     7
100
AcDbLine
 10
39.7138066026
 20
591.8353819812
 30
0.0
 11
39.7138066026
 21
591.7744473095
 31
0.0
  0
LINE
  5
26C
330
72
100
AcDbEntity
  8
$DDT_AUDIT_GENERATED_(B2)
  6
Continuous
 62
     7
100
AcDbLine
 10
40.1468193045
 20
592.0908701111
 30
0.0
 11
40.1468193045
 21
591.9690007677
 31
0.0
  0
LINE
  5
26D
330
72
100
AcDbEntity
  8
$DDT_AUDIT_GENERATED_(B2)
  6
Continuous
 62
     7
100
AcDbLine
 10
40.1468193045
 20
591.9690007677
 30
0.0
 11
40.5798320064
 21
591.9994681035
 31
0.0
  0
LINE
  5
26E
330
72
100
AcDbEntity
  8
$DDT_AUDIT_GENERATED_(B2)
  6
Continuous
 62
     7
100
AcDbLine
 10
40.5798320064
 20
591.9994681035
 30
0.0
 11
40.5798320064
 21
592.0604027752
 31
0.0
  0
LINE
  5
26F
330
72
100
AcDbEntity
  8
$DDT_AUDIT_GENERATED_(B2)
  6
Continuous
 62
     7
100
AcDbLine
 10
40.5798320064
 20
592.0604027752
 30
0.0
 11
40.1468193045
 21
592.0908701111
 31
0.0
  0
LINE
  5
270
330
72
100
AcDbEntity
  8
$DDT_AUDIT_GENERATED_(B2)
  6
Continuous
 62
     7
100
AcDbLine
 10
40.1468193045
 20
592.0908701111
 30
0.0
 11
39.7138066026
 21
592.0604027752
 31
0.0
  0
LINE
  5
271
330
72
100
AcDbEntity
  8
$DDT_AUDIT_GENERATED_(B2)
  6
Continuous
 62
     7
100
AcDbLine
 10
39.7138066026
 20
592.0604027752
 30
0.0
 11
39.7138066026
 21
591.9994681035
 31
0.0
  0
LINE
  5
272
330
72
100
AcDbEntity
  8
$DDT_AUDIT_GENERATED_(B2)
  6
Continuous
 62
     7
100
AcDbLine
 10
39.7138066026
 20
591.9994681035
 30
0.0
 11
40.1468193045
 21
591.9690007677
 31
0.0
  0
LINE
  5
273
330
72
100
AcDbEntity
  8
$DDT_AUDIT_GENERATED_(B2)
  6
Continuous
 62
     7
100
AcDbLine
 10
40.2468193045
 20
592.1119785005
 30
0.0
 11
40.2468193045
 21
592.1729131723
 31
0.0
  0
LINE
  5
274
330
72
100
AcDbEntity
  8
$DDT_AUDIT_GENERATED_(B2)
  6
Continuous
 62
     7
100
AcDbLine
 10
40.6798320064
 20
592.0815111647
 30
0.0
 11
40.2468193045
 21
592.1119785006
 31
0.0
  0
LINE
  5
275
330
72
100
AcDbEntity
  8
$DDT_AUDIT_GENERATED_(B2)
  6
Continuous
 62
     7
100
AcDbLine
 10
40.2468193045
 20
592.1729131723
 30
0.0
 11
40.6798320064
 21
592.2033805081
 31
0.0
  0
LINE
  5
276
330
72
100
AcDbEntity
  8
$DDT_AUDIT_GENERATED_(B2)
  6
Continuous
 62
     7
100
AcDbLine
 10
39.6138066026
 20
592.2033805081
 30
0.0
 11
39.6138066026
 21
592.0815111647
 31
0.0
  0
LINE
  5
277
330
72
100
AcDbEntity
  8
$DDT_AUDIT_GENERATED_(B2)
  6
Continuous
 62
     7
100
AcDbLine
 10
39.6138066026
 20
592.0815111647
 30
0.0
 11
40.0468193045
 21
592.1119785005
 31
0.0
  0
LINE
  5
278
330
72
100
AcDbEntity
  8
$DDT_AUDIT_GENERATED_(B2)
  6
Continuous
 62
     7
100
AcDbLine
 10
40.0468193045
 20
592.1119785005
 30
0.0
 11
40.0468193045
 21
592.1729131723
 31
0.0
  0
LINE
  5
279
330
72
100
AcDbEntity
  8
$DDT_AUDIT_GENERATED_(B2)
  6
Continuous
 62
     7
100
AcDbLine
 10
40.0468193045
 20
592.1729131723
 30
0.0
 11
39.6138066026
 21
592.2033805081
 31
0.0
  0
LINE
  5
27A
330
72
100
AcDbEntity
  8
$DDT_AUDIT_GENERATED_(B2)
  6
Continuous
 62
     7
100
AcDbLine
 10
39.6138066026
 20
592.2033805081
 30
0.0
 11
39.1807939008
 21
592.1729131723
 31
0.0
  0
LINE
  5
27B
330
72
100
AcDbEntity
  8
$DDT_AUDIT_GENERATED_(B2)
  6
Continuous
 62
     7
100
AcDbLine
 10
39.1807939008
 20
592.1729131723
 30
0.0
 11
39.1807939008
 21
592.1119785005
 31
0.0
  0
LINE
  5
27C
330
72
100
AcDbEntity
  8
$DDT_AUDIT_GENERATED_(B2)
  6
Continuous
 62
     7
100
AcDbLine
 10
39.1807939008
 20
592.1119785005
 30
0.0
 11
39.6138066026
 21
592.0815111647
 31
0.0
  0
LINE
  5
27D
330
72
100
AcDbEntity
  8
$DDT_AUDIT_GENERATED_(B2)
  6
Continuous
 62
     7
100
AcDbLine
 10
39.0807939008
 20
592.3158909051
 30
0.0
 11
39.0807939008
 21
592.1940215617
 31
0.0
  0
LINE
  5
27E
330
72
100
AcDbEntity
  8
$DDT_AUDIT_GENERATED_(B2)
  6
Continuous
 62
     7
100
AcDbLine
 10
39.5138066026
 20
592.2244888976
 30
0.0
 11
39.5138066026
 21
592.2854235693
 31
0.0
  0
LINE
  5
27F
330
72
100
AcDbEntity
  8
$DDT_AUDIT_GENERATED_(B2)
  6
Continuous
 62
     7
100
AcDbLine
 10
39.5138066026
 20
592.2854235693
 30
0.0
 11
39.0807939008
 21
592.3158909051
 31
0.0
  0
LINE
  5
280
330
72
100
AcDbEntity
  8
$DDT_AUDIT_GENERATED_(B2)
  6
Continuous
 62
     7
100
AcDbLine
 10
39.0807939008
 20
592.3158909051
 30
0.0
 11
38.6477811989
 21
592.2854235693
 31
0.0
  0
LINE
  5
281
330
72
100
AcDbEntity
  8
$DDT_AUDIT_GENERATED_(B2)
  6
Continuous
 62
     7
100
AcDbLine
 10
38.6477811989
 20
592.2854235693
 30
0.0
 11
38.6477811989
 21
592.2244888976
 31
0.0
  0
LINE
  5
282
330
72
100
AcDbEntity
  8
$DDT_AUDIT_GENERATED_(B2)
  6
Continuous
 62
     7
100
AcDbLine
 10
38.6477811989
 20
592.2244888976
 30
0.0
 11
39.0807939008
 21
592.1940215617
 31
0.0
  0
LINE
  5
283
330
72
100
AcDbEntity
  8
$DDT_AUDIT_GENERATED_(B2)
  6
Continuous
 62
     7
100
AcDbLine
 10
39.0807939008
 20
592.1940215617
 30
0.0
 11
39.5138066026
 21
592.2244888976
 31
0.0
  0
LINE
  5
284
330
72
100
AcDbEntity
  8
$DDT_AUDIT_GENERATED_(B2)
  6
Continuous
 62
     7
100
AcDbLine
 10
38.5477811989
 20
592.4284013021
 30
0.0
 11
38.5477811989
 21
592.3065319587
 31
0.0
  0
LINE
  5
285
330
72
100
AcDbEntity
  8
$DDT_AUDIT_GENERATED_(B2)
  6
Continuous
 62
     7
100
AcDbLine
 10
38.9807939008
 20
592.3369992946
 30
0.0
 11
38.9807939008
 21
592.3979339663
 31
0.0
  0
LINE
  5
286
330
72
100
AcDbEntity
  8
$DDT_AUDIT_GENERATED_(B2)
  6
Continuous
 62
     7
100
AcDbLine
 10
38.9807939008
 20
592.3979339663
 30
0.0
 11
38.5477811989
 21
592.4284013021
 31
0.0
  0
LINE
  5
287
330
72
100
AcDbEntity
  8
$DDT_AUDIT_GENERATED_(B2)
  6
Continuous
 62
     7
100
AcDbLine
 10
38.5477811989
 20
592.4284013021
 30
0.0
 11
38.114768497
 21
592.3979339663
 31
0.0
  0
LINE
  5
288
330
72
100
AcDbEntity
  8
$DDT_AUDIT_GENERATED_(B2)
  6
Continuous
 62
     7
100
AcDbLine
 10
38.114768497
 20
592.3979339663
 30
0.0
 11
38.114768497
 21
592.3369992946
 31
0.0
  0
LINE
  5
289
330
72
100
AcDbEntity
  8
$DDT_AUDIT_GENERATED_(B2)
  6
Continuous
 62
     7
100
AcDbLine
 10
38.114768497
 20
592.3369992946
 30
0.0
 11
38.5477811989
 21
592.3065319587
 31
0.0
  0
LINE
  5
28A
330
72
100
AcDbEntity
  8
$DDT_AUDIT_GENERATED_(B2)
  6
Continuous
 62
     7
100
AcDbLine
 10
38.5477811989
 20
592.3065319587
 30
0.0
 11
38.9807939008
 21
592.3369992946
 31
0.0
  0
LINE
  5
28B
330
72
100
AcDbEntity
  8
$DDT_AUDIT_GENERATED_(B2)
  6
Continuous
 62
     7
100
AcDbLine
 10
38.014768497
 20
592.5409116992
 30
0.0
 11
38.014768497
 21
592.4190423558
 31
0.0
  0
LINE
  5
28C
330
72
100
AcDbEntity
  8
$DDT_AUDIT_GENERATED_(B2)
  6
Continuous
 62
     7
100
AcDbLine
 10
38.4477811989
 20
592.4495096916
 30
0.0
 11
38.4477811989
 21
592.5104443633
 31
0.0
  0
LINE
  5
28D
330
72
100
AcDbEntity
  8
$DDT_AUDIT_GENERATED_(B2)
  6
Continuous
 62
     7
100
AcDbLine
 10
38.4477811989
 20
592.5104443633
 30
0.0
 11
38.014768497
 21
592.5409116992
 31
0.0
  0
LINE
  5
28E
330
72
100
AcDbEntity
  8
$DDT_AUDIT_GENERATED_(B2)
  6
Continuous
 62
     7
100
AcDbLine
 10
38.014768497
 20
592.5409116992
 30
0.0
 11
37.5817557951
 21
592.5104443633
 31
0.0
  0
LINE
  5
28F
330
72
100
AcDbEntity
  8
$DDT_AUDIT_GENERATED_(B2)
  6
Continuous
 62
     7
100
AcDbLine
 10
37.5817557951
 20
592.5104443633
 30
0.0
 11
37.5817557951
 21
592.4495096916
 31
0.0
  0
LINE
  5
290
330
72
100
AcDbEntity
  8
$DDT_AUDIT_GENERATED_(B2)
  6
Continuous
 62
     7
100
AcDbLine
 10
37.5817557951
 20
592.4495096916
 30
0.0
 11
38.014768497
 21
592.4190423558
 31
0.0
  0
LINE
  5
291
330
72
100
AcDbEntity
  8
$DDT_AUDIT_GENERATED_(B2)
  6
Continuous
 62
     7
100
AcDbLine
 10
38.014768497
 20
592.4190423558
 30
0.0
 11
38.4477811989
 21
592.4495096916
 31
0.0
  0
LINE
  5
292
330
72
100
AcDbEntity
  8
$DDT_AUDIT_GENERATED_(B2)
  6
Continuous
 62
     7
100
AcDbLine
 10
38.5477811989
 20
592.6534220962
 30
0.0
 11
38.5477811989
 21
592.5315527528
 31
0.0
  0
LINE
  5
293
330
72
100
AcDbEntity
  8
$DDT_AUDIT_GENERATED_(B2)
  6
Continuous
 62
     7
100
AcDbLine
 10
38.5477811989
 20
592.5315527528
 30
0.0
 11
38.9807939008
 21
592.5620200886
 31
0.0
  0
LINE
  5
294
330
72
100
AcDbEntity
  8
$DDT_AUDIT_GENERATED_(B2)
  6
Continuous
 62
     7
100
AcDbLine
 10
38.9807939008
 20
592.5620200886
 30
0.0
 11
38.9807939008
 21
592.6229547603
 31
0.0
  0
LINE
  5
295
330
72
100
AcDbEntity
  8
$DDT_AUDIT_GENERATED_(B2)
  6
Continuous
 62
     7
100
AcDbLine
 10
38.114768497
 20
592.6229547603
 30
0.0
 11
38.114768497
 21
592.5620200886
 31
0.0
  0
LINE
  5
296
330
72
100
AcDbEntity
  8
$DDT_AUDIT_GENERATED_(B2)
  6
Continuous
 62
     7
100
AcDbLine
 10
38.114768497
 20
592.5620200886
 30
0.0
 11
38.5477811989
 21
592.5315527528
 31
0.0
  0
LINE
  5
297
330
72
100
AcDbEntity
  8
$DDT_AUDIT_GENERATED_(B2)
  6
Continuous
 62
     7
100
AcDbLine
 10
37.4817557951
 20
592.6534220962
 30
0.0
 11
37.4817557951
 21
592.5315527528
 31
0.0
  0
LINE
  5
298
330
72
100
AcDbEntity
  8
$DDT_AUDIT_GENERATED_(B2)
  6
Continuous
 62
     7
100
AcDbLine
 10
37.914768497
 20
592.5620200886
 30
0.0
 11
37.914768497
 21
592.6229547603
 31
0.0
  0
LINE
  5
299
330
72
100
AcDbEntity
  8
$DDT_AUDIT_GENERATED_(B2)
  6
Continuous
 62
     7
100
AcDbLine
 10
37.0487430932
 20
592.6229547603
 30
0.0
 11
37.0487430932
 21
592.5620200886
 31
0.0
  0
LINE
  5
29A
330
72
100
AcDbEntity
  8
$DDT_AUDIT_GENERATED_(B2)
  6
Continuous
 62
     7
100
AcDbLine
 10
37.0487430932
 20
592.5620200886
 30
0.0
 11
37.4817557951
 21
592.5315527528
 31
0.0
  0
LINE
  5
29B
330
72
100
AcDbEntity
  8
$DDT_AUDIT_GENERATED_(B2)
  6
Continuous
 62
     7
100
AcDbLine
 10
37.4817557951
 20
592.5315527528
 30
0.0
 11
37.914768497
 21
592.5620200886
 31
0.0
  0
LINE
  5
29C
330
72
100
AcDbEntity
  8
$DDT_AUDIT_GENERATED_(B2)
  6
Continuous
 62
     7
100
AcDbLine
 10
36.4157303914
 20
592.6534220962
 30
0.0
 11
36.4157303914
 21
592.5315527528
 31
0.0
  0
LINE
  5
29D
330
72
100
AcDbEntity
  8
$DDT_AUDIT_GENERATED_(B2)
  6
Continuous
 62
     7
100
AcDbLine
 10
36.8487430932
 20
592.5620200886
 30
0.0
 11
36.8487430932
 21
592.6229547603
 31
0.0
  0
LINE
  5
29E
330
72
100
AcDbEntity
  8
$DDT_AUDIT_GENERATED_(B2)
  6
Continuous
 62
     7
100
AcDbLine
 10
35.9827176895
 20
592.6229547603
 30
0.0
 11
35.9827176895
 21
592.5620200886
 31
0.0
  0
LINE
  5
29F
330
72
100
AcDbEntity
  8
$DDT_AUDIT_GENERATED_(B2)
  6
Continuous
 62
     7
100
AcDbLine
 10
35.9827176895
 20
592.5620200886
 30
0.0
 11
36.4157303914
 21
592.5315527528
 31
0.0
  0
LINE
  5
2A0
330
72
100
AcDbEntity
  8
$DDT_AUDIT_GENERATED_(B2)
  6
Continuous
 62
     7
100
AcDbLine
 10
36.4157303914
 20
592.5315527528
 30
0.0
 11
36.8487430932
 21
592.5620200886
 31
0.0
  0
LINE
  5
2A1
330
72
100
AcDbEntity
  8
$DDT_AUDIT_GENERATED_(B2)
  6
Continuous
 62
     7
100
AcDbLine
 10
36.9487430932
 20
592.5409116992
 30
0.0
 11
36.9487430932
 21
592.4190423558
 31
0.0
  0
LINE
  5
2A2
330
72
100
AcDbEntity
  8
$DDT_AUDIT_GENERATED_(B2)
  6
Continuous
 62
     7
100
AcDbLine
 10
36.9487430932
 20
592.5409116992
 30
0.0
 11
36.5157303914
 21
592.5104443633
 31
0.0
  0
LINE
  5
2A3
330
72
100
AcDbEntity
  8
$DDT_AUDIT_GENERATED_(B2)
  6
Continuous
 62
     7
100
AcDbLine
 10
36.5157303914
 20
592.5104443633
 30
0.0
 11
36.5157303914
 21
592.4495096916
 31
0.0
  0
LINE
  5
2A4
330
72
100
AcDbEntity
  8
$DDT_AUDIT_GENERATED_(B2)
  6
Continuous
 62
     7
100
AcDbLine
 10
36.5157303914
 20
592.4495096916
 30
0.0
 11
36.9487430932
 21
592.4190423558
 31
0.0
  0
LINE
  5
2A5
330
72
100
AcDbEntity
  8
$DDT_AUDIT_GENERATED_(B2)
  6
Continuous
 62
     7
100
AcDbLine
 10
36.9487430932
 20
592.4190423558
 30
0.0
 11
37.3817557951
 21
592.4495096916
 31
0.0
  0
LINE
  5
2A6
330
72
100
AcDbEntity
  8
$DDT_AUDIT_GENERATED_(B2)
  6
Continuous
 62
     7
100
AcDbLine
 10
37.3817557951
 20
592.4495096916
 30
0.0
 11
37.3817557951
 21
592.5104443633
 31
0.0
  0
LINE
  5
2A7
330
72
100
AcDbEntity
  8
$DDT_AUDIT_GENERATED_(B2)
  6
Continuous
 62
     7
100
AcDbLine
 10
37.3817557951
 20
592.5104443633
 30
0.0
 11
36.9487430932
 21
592.5409116992
 31
0.0
  0
LINE
  5
2A8
330
72
100
AcDbEntity
  8
$DDT_AUDIT_GENERATED_(B2)
  6
Continuous
 62
     7
100
AcDbLine
 10
37.4817557951
 20
592.4284013021
 30
0.0
 11
37.4817557951
 21
592.3065319587
 31
0.0
  0
LINE
  5
2A9
330
72
100
AcDbEntity
  8
$DDT_AUDIT_GENERATED_(B2)
  6
Continuous
 62
     7
100
AcDbLine
 10
37.4817557951
 20
592.4284013021
 30
0.0
 11
37.0487430932
 21
592.3979339663
 31
0.0
  0
LINE
  5
2AA
330
72
100
AcDbEntity
  8
$DDT_AUDIT_GENERATED_(B2)
  6
Continuous
 62
     7
100
AcDbLine
 10
37.0487430932
 20
592.3979339663
 30
0.0
 11
37.0487430932
 21
592.3369992946
 31
0.0
  0
LINE
  5
2AB
330
72
100
AcDbEntity
  8
$DDT_AUDIT_GENERATED_(B2)
  6
Continuous
 62
     7
100
AcDbLine
 10
37.0487430932
 20
592.3369992946
 30
0.0
 11
37.4817557951
 21
592.3065319587
 31
0.0
  0
LINE
  5
2AC
330
72
100
AcDbEntity
  8
$DDT_AUDIT_GENERATED_(B2)
  6
Continuous
 62
     7
100
AcDbLine
 10
37.4817557951
 20
592.3065319587
 30
0.0
 11
37.914768497
 21
592.3369992946
 31
0.0
  0
LINE
  5
2AD
330
72
100
AcDbEntity
  8
$DDT_AUDIT_GENERATED_(B2)
  6
Continuous
 62
     7
100
AcDbLine
 10
37.914768497
 20
592.3369992946
 30
0.0
 11
37.914768497
 21
592.3979339663
 31
0.0
  0
LINE
  5
2AE
330
72
100
AcDbEntity
  8
$DDT_AUDIT_GENERATED_(B2)
  6
Continuous
 62
     7
100
AcDbLine
 10
37.914768497
 20
592.3979339663
 30
0.0
 11
37.4817557951
 21
592.4284013021
 31
0.0
  0
LINE
  5
2AF
330
72
100
AcDbEntity
  8
$DDT_AUDIT_GENERATED_(B2)
  6
Continuous
 62
     7
100
AcDbLine
 10
38.014768497
 20
592.3158909051
 30
0.0
 11
38.014768497
 21
592.1940215617
 31
0.0
  0
LINE
  5
2B0
330
72
100
AcDbEntity
  8
$DDT_AUDIT_GENERATED_(B2)
  6
Continuous
 62
     7
100
AcDbLine
 10
38.014768497
 20
592.3158909051
 30
0.0
 11
37.5817557951
 21
592.2854235693
 31
0.0
  0
LINE
  5
2B1
330
72
100
AcDbEntity
  8
$DDT_AUDIT_GENERATED_(B2)
  6
Continuous
 62
     7
100
AcDbLine
 10
37.5817557951
 20
592.2854235693
 30
0.0
 11
37.5817557951
 21
592.2244888976
 31
0.0
  0
LINE
  5
2B2
330
72
100
AcDbEntity
  8
$DDT_AUDIT_GENERATED_(B2)
  6
Continuous
 62
     7
100
AcDbLine
 10
37.5817557951
 20
592.2244888976
 30
0.0
 11
38.014768497
 21
592.1940215617
 31
0.0
  0
LINE
  5
2B3
330
72
100
AcDbEntity
  8
$DDT_AUDIT_GENERATED_(B2)
  6
Continuous
 62
     7
100
AcDbLine
 10
38.014768497
 20
592.1940215617
 30
0.0
 11
38.4477811989
 21
592.2244888976
 31
0.0
  0
LINE
  5
2B4
330
72
100
AcDbEntity
  8
$DDT_AUDIT_GENERATED_(B2)
  6
Continuous
 62
     7
100
AcDbLine
 10
38.4477811989
 20
592.2244888976
 30
0.0
 11
38.4477811989
 21
592.2854235693
 31
0.0
  0
LINE
  5
2B5
330
72
100
AcDbEntity
  8
$DDT_AUDIT_GENERATED_(B2)
  6
Continuous
 62
     7
100
AcDbLine
 10
38.4477811989
 20
592.2854235693
 30
0.0
 11
38.014768497
 21
592.3158909051
 31
0.0
  0
LINE
  5
2B6
330
72
100
AcDbEntity
  8
$DDT_AUDIT_GENERATED_(B2)
  6
Continuous
 62
     7
100
AcDbLine
 10
38.5477811989
 20
592.2033805081
 30
0.0
 11
38.5477811989
 21
592.0815111647
 31
0.0
  0
LINE
  5
2B7
330
72
100
AcDbEntity
  8
$DDT_AUDIT_GENERATED_(B2)
  6
Continuous
 62
     7
100
AcDbLine
 10
38.5477811989
 20
592.2033805081
 30
0.0
 11
38.114768497
 21
592.1729131723
 31
0.0
  0
LINE
  5
2B8
330
72
100
AcDbEntity
  8
$DDT_AUDIT_GENERATED_(B2)
  6
Continuous
 62
     7
100
AcDbLine
 10
38.114768497
 20
592.1729131723
 30
0.0
 11
38.114768497
 21
592.1119785005
 31
0.0
  0
LINE
  5
2B9
330
72
100
AcDbEntity
  8
$DDT_AUDIT_GENERATED_(B2)
  6
Continuous
 62
     7
100
AcDbLine
 10
38.114768497
 20
592.1119785005
 30
0.0
 11
38.5477811989
 21
592.0815111647
 31
0.0
  0
LINE
  5
2BA
330
72
100
AcDbEntity
  8
$DDT_AUDIT_GENERATED_(B2)
  6
Continuous
 62
     7
100
AcDbLine
 10
38.5477811989
 20
592.0815111647
 30
0.0
 11
38.9807939008
 21
592.1119785005
 31
0.0
  0
LINE
  5
2BB
330
72
100
AcDbEntity
  8
$DDT_AUDIT_GENERATED_(B2)
  6
Continuous
 62
     7
100
AcDbLine
 10
38.9807939008
 20
592.1119785005
 30
0.0
 11
38.9807939008
 21
592.1729131723
 31
0.0
  0
LINE
  5
2BC
330
72
100
AcDbEntity
  8
$DDT_AUDIT_GENERATED_(B2)
  6
Continuous
 62
     7
100
AcDbLine
 10
38.9807939008
 20
592.1729131723
 30
0.0
 11
38.5477811989
 21
592.2033805081
 31
0.0
  0
LINE
  5
2BD
330
72
100
AcDbEntity
  8
$DDT_AUDIT_GENERATED_(B2)
  6
Continuous
 62
     7
100
AcDbLine
 10
39.0807939008
 20
592.0908701111
 30
0.0
 11
39.0807939008
 21
591.9690007677
 31
0.0
  0
LINE
  5
2BE
330
72
100
AcDbEntity
  8
$DDT_AUDIT_GENERATED_(B2)
  6
Continuous
 62
     7
100
AcDbLine
 10
39.0807939008
 20
592.0908701111
 30
0.0
 11
38.6477811989
 21
592.0604027752
 31
0.0
  0
LINE
  5
2BF
330
72
100
AcDbEntity
  8
$DDT_AUDIT_GENERATED_(B2)
  6
Continuous
 62
     7
100
AcDbLine
 10
38.6477811989
 20
592.0604027752
 30
0.0
 11
38.6477811989
 21
591.9994681035
 31
0.0
  0
LINE
  5
2C0
330
72
100
AcDbEntity
  8
$DDT_AUDIT_GENERATED_(B2)
  6
Continuous
 62
     7
100
AcDbLine
 10
38.6477811989
 20
591.9994681035
 30
0.0
 11
39.0807939008
 21
591.9690007677
 31
0.0
  0
LINE
  5
2C1
330
72
100
AcDbEntity
  8
$DDT_AUDIT_GENERATED_(B2)
  6
Continuous
 62
     7
100
AcDbLine
 10
39.0807939008
 20
591.9690007677
 30
0.0
 11
39.5138066026
 21
591.9994681035
 31
0.0
  0
LINE
  5
2C2
330
72
100
AcDbEntity
  8
$DDT_AUDIT_GENERATED_(B2)
  6
Continuous
 62
     7
100
AcDbLine
 10
39.5138066026
 20
591.9994681035
 30
0.0
 11
39.5138066026
 21
592.0604027752
 31
0.0
  0
LINE
  5
2C3
330
72
100
AcDbEntity
  8
$DDT_AUDIT_GENERATED_(B2)
  6
Continuous
 62
     7
100
AcDbLine
 10
39.5138066026
 20
592.0604027752
 30
0.0
 11
39.0807939008
 21
592.0908701111
 31
0.0
  0
LINE
  5
2C4
330
72
100
AcDbEntity
  8
$DDT_AUDIT_GENERATED_(B2)
  6
Continuous
 62
     7
100
AcDbLine
 10
39.6138066026
 20
591.9783597141
 30
0.0
 11
39.6138066026
 21
591.8564903707
 31
0.0
  0
LINE
  5
2C5
330
72
100
AcDbEntity
  8
$DDT_AUDIT_GENERATED_(B2)
  6
Continuous
 62
     7
100
AcDbLine
 10
39.6138066026
 20
591.9783597141
 30
0.0
 11
39.1807939008
 21
591.9478923782
 31
0.0
  0
LINE
  5
2C6
330
72
100
AcDbEntity
  8
$DDT_AUDIT_GENERATED_(B2)
  6
Continuous
 62
     7
100
AcDbLine
 10
39.1807939008
 20
591.9478923782
 30
0.0
 11
39.1807939008
 21
591.8869577065
 31
0.0
  0
LINE
  5
2C7
330
72
100
AcDbEntity
  8
$DDT_AUDIT_GENERATED_(B2)
  6
Continuous
 62
     7
100
AcDbLine
 10
39.1807939008
 20
591.8869577065
 30
0.0
 11
39.6138066026
 21
591.8564903707
 31
0.0
  0
LINE
  5
2C8
330
72
100
AcDbEntity
  8
$DDT_AUDIT_GENERATED_(B2)
  6
Continuous
 62
     7
100
AcDbLine
 10
39.6138066026
 20
591.8564903707
 30
0.0
 11
40.0468193045
 21
591.8869577065
 31
0.0
  0
LINE
  5
2C9
330
72
100
AcDbEntity
  8
$DDT_AUDIT_GENERATED_(B2)
  6
Continuous
 62
     7
100
AcDbLine
 10
40.0468193045
 20
591.8869577065
 30
0.0
 11
40.0468193045
 21
591.9478923782
 31
0.0
  0
LINE
  5
2CA
330
72
100
AcDbEntity
  8
$DDT_AUDIT_GENERATED_(B2)
  6
Continuous
 62
     7
100
AcDbLine
 10
40.0468193045
 20
591.9478923782
 30
0.0
 11
39.6138066026
 21
591.9783597141
 31
0.0
  0
LINE
  5
2CB
330
72
100
AcDbEntity
  8
$DDT_AUDIT_GENERATED_(B2)
  6
Continuous
 62
     7
100
AcDbLine
 10
39.0807939008
 20
591.865849317
 30
0.0
 11
39.0807939008
 21
591.7439799736
 31
0.0
  0
LINE
  5
2CC
330
72
100
AcDbEntity
  8
$DDT_AUDIT_GENERATED_(B2)
  6
Continuous
 62
     7
100
AcDbLine
 10
39.0807939008
 20
591.865849317
 30
0.0
 11
38.6477811989
 21
591.8353819812
 31
0.0
  0
LINE
  5
2CD
330
72
100
AcDbEntity
  8
$DDT_AUDIT_GENERATED_(B2)
  6
Continuous
 62
     7
100
AcDbLine
 10
38.6477811989
 20
591.8353819812
 30
0.0
 11
38.6477811989
 21
591.7744473095
 31
0.0
  0
LINE
  5
2CE
330
72
100
AcDbEntity
  8
$DDT_AUDIT_GENERATED_(B2)
  6
Continuous
 62
     7
100
AcDbLine
 10
38.6477811989
 20
591.7744473095
 30
0.0
 11
39.0807939008
 21
591.7439799736
 31
0.0
  0
LINE
  5
2CF
330
72
100
AcDbEntity
  8
$DDT_AUDIT_GENERATED_(B2)
  6
Continuous
 62
     7
100
AcDbLine
 10
39.0807939008
 20
591.7439799736
 30
0.0
 11
39.5138066026
 21
591.7744473095
 31
0.0
  0
LINE
  5
2D0
330
72
100
AcDbEntity
  8
$DDT_AUDIT_GENERATED_(B2)
  6
Continuous
 62
     7
100
AcDbLine
 10
39.5138066026
 20
591.7744473095
 30
0.0
 11
39.5138066026
 21
591.8353819812
 31
0.0
  0
LINE
  5
2D1
330
72
100
AcDbEntity
  8
$DDT_AUDIT_GENERATED_(B2)
  6
Continuous
 62
     7
100
AcDbLine
 10
39.5138066026
 20
591.8353819812
 30
0.0
 11
39.0807939008
 21
591.865849317
 31
0.0
  0
ELLIPSE
  5
2D2
330
72
100
AcDbEntity
  8
$DDT_AUDIT_GENERATED_(B2)
  6
Continuous
 62
     7
100
AcDbEllipse
 10
40.679831995
 20
592.5924874184
 30
0.0
 11
-7.999999973227022
 21
1.374234059881019E-9
 31
0.0
210
0.0
220
0.0
230
1.0
 40
0.1218693431
 41
1.327966794017318
 42
1.364722157496226
  0
LINE
  5
2D3
330
72
100
AcDbEntity
  8
$DDT_AUDIT_GENERATED_(B2)
  6
Continuous
 62
     7
100
AcDbLine
 10
38.7562311705
 20
591.7386721094
 30
0.0
 11
38.7562311705
 21
591.6461363872
 31
0.0
  0
LINE
  5
2D4
330
72
100
AcDbEntity
  8
$DDT_AUDIT_GENERATED_(B2)
  6
Continuous
 62
     7
100
AcDbLine
 10
38.9807939008
 20
591.6619369125
 30
0.0
 11
38.9807939008
 21
591.7228715842
 31
0.0
  0
LINE
  5
2D5
330
72
100
AcDbEntity
  8
$DDT_AUDIT_GENERATED_(B2)
  6
Continuous
 62
     7
100
AcDbLine
 10
38.9807939008
 20
591.7228715842
 30
0.0
 11
38.5477811989
 21
591.75333892
 31
0.0
  0
LINE
  5
2D6
330
72
100
AcDbEntity
  8
$DDT_AUDIT_GENERATED_(B2)
  6
Continuous
 62
     7
100
AcDbLine
 10
38.5477811989
 20
591.75333892
 30
0.0
 11
38.114768497
 21
591.7228715842
 31
0.0
  0
LINE
  5
2D7
330
72
100
AcDbEntity
  8
$DDT_AUDIT_GENERATED_(B2)
  6
Continuous
 62
     7
100
AcDbLine
 10
38.114768497
 20
591.7228715842
 30
0.0
 11
38.114768497
 21
591.6690068507
 31
0.0
  0
LINE
  5
2D8
330
72
100
AcDbEntity
  8
$DDT_AUDIT_GENERATED_(B2)
  6
Continuous
 62
     7
100
AcDbLine
 10
38.7562311705
 20
591.6461363872
 30
0.0
 11
38.9807939008
 21
591.6619369125
 31
0.0
  0
LINE
  5
2D9
330
72
100
AcDbEntity
  8
$DDT_AUDIT_GENERATED_(B2)
  6
Continuous
 62
     7
100
AcDbLine
 10
38.014768497
 20
591.865849317
 30
0.0
 11
38.014768497
 21
591.7439799736
 31
0.0
  0
LINE
  5
2DA
330
72
100
AcDbEntity
  8
$DDT_AUDIT_GENERATED_(B2)
  6
Continuous
 62
     7
100
AcDbLine
 10
38.014768497
 20
591.7439799736
 30
0.0
 11
38.4477811989
 21
591.7744473095
 31
0.0
  0
LINE
  5
2DB
330
72
100
AcDbEntity
  8
$DDT_AUDIT_GENERATED_(B2)
  6
Continuous
 62
     7
100
AcDbLine
 10
38.4477811989
 20
591.7744473095
 30
0.0
 11
38.4477811989
 21
591.8353819812
 31
0.0
  0
LINE
  5
2DC
330
72
100
AcDbEntity
  8
$DDT_AUDIT_GENERATED_(B2)
  6
Continuous
 62
     7
100
AcDbLine
 10
38.4477811989
 20
591.8353819812
 30
0.0
 11
38.014768497
 21
591.865849317
 31
0.0
  0
LINE
  5
2DD
330
72
100
AcDbEntity
  8
$DDT_AUDIT_GENERATED_(B2)
  6
Continuous
 62
     7
100
AcDbLine
 10
38.014768497
 20
591.865849317
 30
0.0
 11
37.5817557951
 21
591.8353819812
 31
0.0
  0
LINE
  5
2DE
330
72
100
AcDbEntity
  8
$DDT_AUDIT_GENERATED_(B2)
  6
Continuous
 62
     7
100
AcDbLine
 10
37.5817557951
 20
591.8353819812
 30
0.0
 11
37.5817557951
 21
591.7744473095
 31
0.0
  0
LINE
  5
2DF
330
72
100
AcDbEntity
  8
$DDT_AUDIT_GENERATED_(B2)
  6
Continuous
 62
     7
100
AcDbLine
 10
37.5817557951
 20
591.7744473095
 30
0.0
 11
38.014768497
 21
591.7439799736
 31
0.0
  0
LINE
  5
2E0
330
72
100
AcDbEntity
  8
$DDT_AUDIT_GENERATED_(B2)
  6
Continuous
 62
     7
100
AcDbLine
 10
38.5477811989
 20
591.9783597141
 30
0.0
 11
38.5477811989
 21
591.8564903707
 31
0.0
  0
LINE
  5
2E1
330
72
100
AcDbEntity
  8
$DDT_AUDIT_GENERATED_(B2)
  6
Continuous
 62
     7
100
AcDbLine
 10
38.5477811989
 20
591.8564903707
 30
0.0
 11
38.9807939008
 21
591.8869577065
 31
0.0
  0
LINE
  5
2E2
330
72
100
AcDbEntity
  8
$DDT_AUDIT_GENERATED_(B2)
  6
Continuous
 62
     7
100
AcDbLine
 10
38.9807939008
 20
591.8869577065
 30
0.0
 11
38.9807939008
 21
591.9478923782
 31
0.0
  0
LINE
  5
2E3
330
72
100
AcDbEntity
  8
$DDT_AUDIT_GENERATED_(B2)
  6
Continuous
 62
     7
100
AcDbLine
 10
38.9807939008
 20
591.9478923782
 30
0.0
 11
38.5477811989
 21
591.9783597141
 31
0.0
  0
LINE
  5
2E4
330
72
100
AcDbEntity
  8
$DDT_AUDIT_GENERATED_(B2)
  6
Continuous
 62
     7
100
AcDbLine
 10
38.5477811989
 20
591.9783597141
 30
0.0
 11
38.114768497
 21
591.9478923782
 31
0.0
  0
LINE
  5
2E5
330
72
100
AcDbEntity
  8
$DDT_AUDIT_GENERATED_(B2)
  6
Continuous
 62
     7
100
AcDbLine
 10
38.114768497
 20
591.9478923782
 30
0.0
 11
38.114768497
 21
591.8869577065
 31
0.0
  0
LINE
  5
2E6
330
72
100
AcDbEntity
  8
$DDT_AUDIT_GENERATED_(B2)
  6
Continuous
 62
     7
100
AcDbLine
 10
38.114768497
 20
591.8869577065
 30
0.0
 11
38.5477811989
 21
591.8564903707
 31
0.0
  0
LINE
  5
2E7
330
72
100
AcDbEntity
  8
$DDT_AUDIT_GENERATED_(B2)
  6
Continuous
 62
     7
100
AcDbLine
 10
38.014768497
 20
592.0908701111
 30
0.0
 11
38.014768497
 21
591.9690007677
 31
0.0
  0
LINE
  5
2E8
330
72
100
AcDbEntity
  8
$DDT_AUDIT_GENERATED_(B2)
  6
Continuous
 62
     7
100
AcDbLine
 10
38.014768497
 20
591.9690007677
 30
0.0
 11
38.4477811989
 21
591.9994681035
 31
0.0
  0
LINE
  5
2E9
330
72
100
AcDbEntity
  8
$DDT_AUDIT_GENERATED_(B2)
  6
Continuous
 62
     7
100
AcDbLine
 10
38.4477811989
 20
591.9994681035
 30
0.0
 11
38.4477811989
 21
592.0604027752
 31
0.0
  0
LINE
  5
2EA
330
72
100
AcDbEntity
  8
$DDT_AUDIT_GENERATED_(B2)
  6
Continuous
 62
     7
100
AcDbLine
 10
38.4477811989
 20
592.0604027752
 30
0.0
 11
38.014768497
 21
592.0908701111
 31
0.0
  0
LINE
  5
2EB
330
72
100
AcDbEntity
  8
$DDT_AUDIT_GENERATED_(B2)
  6
Continuous
 62
     7
100
AcDbLine
 10
38.014768497
 20
592.0908701111
 30
0.0
 11
37.5817557951
 21
592.0604027752
 31
0.0
  0
LINE
  5
2EC
330
72
100
AcDbEntity
  8
$DDT_AUDIT_GENERATED_(B2)
  6
Continuous
 62
     7
100
AcDbLine
 10
37.5817557951
 20
592.0604027752
 30
0.0
 11
37.5817557951
 21
591.9994681035
 31
0.0
  0
LINE
  5
2ED
330
72
100
AcDbEntity
  8
$DDT_AUDIT_GENERATED_(B2)
  6
Continuous
 62
     7
100
AcDbLine
 10
37.5817557951
 20
591.9994681035
 30
0.0
 11
38.014768497
 21
591.9690007677
 31
0.0
  0
LINE
  5
2EE
330
72
100
AcDbEntity
  8
$DDT_AUDIT_GENERATED_(B2)
  6
Continuous
 62
     7
100
AcDbLine
 10
37.4817557951
 20
592.2033805081
 30
0.0
 11
37.4817557951
 21
592.0815111647
 31
0.0
  0
LINE
  5
2EF
330
72
100
AcDbEntity
  8
$DDT_AUDIT_GENERATED_(B2)
  6
Continuous
 62
     7
100
AcDbLine
 10
37.914768497
 20
592.1119785005
 30
0.0
 11
37.914768497
 21
592.1729131723
 31
0.0
  0
LINE
  5
2F0
330
72
100
AcDbEntity
  8
$DDT_AUDIT_GENERATED_(B2)
  6
Continuous
 62
     7
100
AcDbLine
 10
37.914768497
 20
592.1729131723
 30
0.0
 11
37.4817557951
 21
592.2033805081
 31
0.0
  0
LINE
  5
2F1
330
72
100
AcDbEntity
  8
$DDT_AUDIT_GENERATED_(B2)
  6
Continuous
 62
     7
100
AcDbLine
 10
37.4817557951
 20
592.2033805081
 30
0.0
 11
37.0487430932
 21
592.1729131723
 31
0.0
  0
LINE
  5
2F2
330
72
100
AcDbEntity
  8
$DDT_AUDIT_GENERATED_(B2)
  6
Continuous
 62
     7
100
AcDbLine
 10
37.0487430932
 20
592.1729131723
 30
0.0
 11
37.0487430932
 21
592.1119785005
 31
0.0
  0
LINE
  5
2F3
330
72
100
AcDbEntity
  8
$DDT_AUDIT_GENERATED_(B2)
  6
Continuous
 62
     7
100
AcDbLine
 10
37.0487430932
 20
592.1119785005
 30
0.0
 11
37.4817557951
 21
592.0815111647
 31
0.0
  0
LINE
  5
2F4
330
72
100
AcDbEntity
  8
$DDT_AUDIT_GENERATED_(B2)
  6
Continuous
 62
     7
100
AcDbLine
 10
37.4817557951
 20
592.0815111647
 30
0.0
 11
37.914768497
 21
592.1119785005
 31
0.0
  0
LINE
  5
2F5
330
72
100
AcDbEntity
  8
$DDT_AUDIT_GENERATED_(B2)
  6
Continuous
 62
     7
100
AcDbLine
 10
36.9487430932
 20
592.3158909051
 30
0.0
 11
36.9487430932
 21
592.1940215617
 31
0.0
  0
LINE
  5
2F6
330
72
100
AcDbEntity
  8
$DDT_AUDIT_GENERATED_(B2)
  6
Continuous
 62
     7
100
AcDbLine
 10
36.9487430932
 20
592.1940215617
 30
0.0
 11
37.3817557951
 21
592.2244888976
 31
0.0
  0
LINE
  5
2F7
330
72
100
AcDbEntity
  8
$DDT_AUDIT_GENERATED_(B2)
  6
Continuous
 62
     7
100
AcDbLine
 10
37.3817557951
 20
592.2244888976
 30
0.0
 11
37.3817557951
 21
592.2854235693
 31
0.0
  0
LINE
  5
2F8
330
72
100
AcDbEntity
  8
$DDT_AUDIT_GENERATED_(B2)
  6
Continuous
 62
     7
100
AcDbLine
 10
37.3817557951
 20
592.2854235693
 30
0.0
 11
36.9487430932
 21
592.3158909051
 31
0.0
  0
LINE
  5
2F9
330
72
100
AcDbEntity
  8
$DDT_AUDIT_GENERATED_(B2)
  6
Continuous
 62
     7
100
AcDbLine
 10
36.9487430932
 20
592.3158909051
 30
0.0
 11
36.5157303914
 21
592.2854235693
 31
0.0
  0
LINE
  5
2FA
330
72
100
AcDbEntity
  8
$DDT_AUDIT_GENERATED_(B2)
  6
Continuous
 62
     7
100
AcDbLine
 10
36.5157303914
 20
592.2854235693
 30
0.0
 11
36.5157303914
 21
592.2244888976
 31
0.0
  0
LINE
  5
2FB
330
72
100
AcDbEntity
  8
$DDT_AUDIT_GENERATED_(B2)
  6
Continuous
 62
     7
100
AcDbLine
 10
36.5157303914
 20
592.2244888976
 30
0.0
 11
36.9487430932
 21
592.1940215617
 31
0.0
  0
LINE
  5
2FC
330
72
100
AcDbEntity
  8
$DDT_AUDIT_GENERATED_(B2)
  6
Continuous
 62
     7
100
AcDbLine
 10
36.4157303914
 20
592.4284013021
 30
0.0
 11
36.4157303914
 21
592.3065319587
 31
0.0
  0
LINE
  5
2FD
330
72
100
AcDbEntity
  8
$DDT_AUDIT_GENERATED_(B2)
  6
Continuous
 62
     7
100
AcDbLine
 10
36.8487430932
 20
592.3369992946
 30
0.0
 11
36.8487430932
 21
592.3979339663
 31
0.0
  0
LINE
  5
2FE
330
72
100
AcDbEntity
  8
$DDT_AUDIT_GENERATED_(B2)
  6
Continuous
 62
     7
100
AcDbLine
 10
36.8487430932
 20
592.3979339663
 30
0.0
 11
36.4157303914
 21
592.4284013021
 31
0.0
  0
LINE
  5
2FF
330
72
100
AcDbEntity
  8
$DDT_AUDIT_GENERATED_(B2)
  6
Continuous
 62
     7
100
AcDbLine
 10
36.4157303914
 20
592.4284013021
 30
0.0
 11
35.9827176895
 21
592.3979339663
 31
0.0
  0
LINE
  5
300
330
72
100
AcDbEntity
  8
$DDT_AUDIT_GENERATED_(B2)
  6
Continuous
 62
     7
100
AcDbLine
 10
35.9827176895
 20
592.3979339663
 30
0.0
 11
35.9827176895
 21
592.3369992946
 31
0.0
  0
LINE
  5
301
330
72
100
AcDbEntity
  8
$DDT_AUDIT_GENERATED_(B2)
  6
Continuous
 62
     7
100
AcDbLine
 10
35.9827176895
 20
592.3369992946
 30
0.0
 11
36.4157303914
 21
592.3065319587
 31
0.0
  0
LINE
  5
302
330
72
100
AcDbEntity
  8
$DDT_AUDIT_GENERATED_(B2)
  6
Continuous
 62
     7
100
AcDbLine
 10
36.4157303914
 20
592.3065319587
 30
0.0
 11
36.8487430932
 21
592.3369992946
 31
0.0
  0
LINE
  5
303
330
72
100
AcDbEntity
  8
$DDT_AUDIT_GENERATED_(B2)
  6
Continuous
 62
     7
100
AcDbLine
 10
35.8827176895
 20
592.5409116992
 30
0.0
 11
35.8827176895
 21
592.4190423558
 31
0.0
  0
LINE
  5
304
330
72
100
AcDbEntity
  8
$DDT_AUDIT_GENERATED_(B2)
  6
Continuous
 62
     7
100
AcDbLine
 10
35.8827176895
 20
592.4190423558
 30
0.0
 11
36.3157303914
 21
592.4495096916
 31
0.0
  0
LINE
  5
305
330
72
100
AcDbEntity
  8
$DDT_AUDIT_GENERATED_(B2)
  6
Continuous
 62
     7
100
AcDbLine
 10
36.3157303914
 20
592.4495096916
 30
0.0
 11
36.3157303914
 21
592.5104443633
 31
0.0
  0
LINE
  5
306
330
72
100
AcDbEntity
  8
$DDT_AUDIT_GENERATED_(B2)
  6
Continuous
 62
     7
100
AcDbLine
 10
36.3157303914
 20
592.5104443633
 30
0.0
 11
35.8827176895
 21
592.5409116992
 31
0.0
  0
LINE
  5
307
330
72
100
AcDbEntity
  8
$DDT_AUDIT_GENERATED_(B2)
  6
Continuous
 62
     7
100
AcDbLine
 10
35.8827176895
 20
592.5409116992
 30
0.0
 11
35.4497049876
 21
592.5104443633
 31
0.0
  0
LINE
  5
308
330
72
100
AcDbEntity
  8
$DDT_AUDIT_GENERATED_(B2)
  6
Continuous
 62
     7
100
AcDbLine
 10
35.4497049876
 20
592.5104443633
 30
0.0
 11
35.4497049876
 21
592.4495096916
 31
0.0
  0
LINE
  5
309
330
72
100
AcDbEntity
  8
$DDT_AUDIT_GENERATED_(B2)
  6
Continuous
 62
     7
100
AcDbLine
 10
35.4497049876
 20
592.4495096916
 30
0.0
 11
35.8827176895
 21
592.4190423558
 31
0.0
  0
LINE
  5
30A
330
72
100
AcDbEntity
  8
$DDT_AUDIT_GENERATED_(B2)
  6
Continuous
 62
     7
100
AcDbLine
 10
35.3497049876
 20
592.6534220962
 30
0.0
 11
35.3497049876
 21
592.5315527528
 31
0.0
  0
LINE
  5
30B
330
72
100
AcDbEntity
  8
$DDT_AUDIT_GENERATED_(B2)
  6
Continuous
 62
     7
100
AcDbLine
 10
35.7827176895
 20
592.5620200886
 30
0.0
 11
35.7827176895
 21
592.6229547603
 31
0.0
  0
LINE
  5
30C
330
72
100
AcDbEntity
  8
$DDT_AUDIT_GENERATED_(B2)
  6
Continuous
 62
     7
100
AcDbLine
 10
34.9166922857
 20
592.6229547603
 30
0.0
 11
34.9166922857
 21
592.5620200886
 31
0.0
  0
LINE
  5
30D
330
72
100
AcDbEntity
  8
$DDT_AUDIT_GENERATED_(B2)
  6
Continuous
 62
     7
100
AcDbLine
 10
34.9166922857
 20
592.5620200886
 30
0.0
 11
35.3497049876
 21
592.5315527528
 31
0.0
  0
LINE
  5
30E
330
72
100
AcDbEntity
  8
$DDT_AUDIT_GENERATED_(B2)
  6
Continuous
 62
     7
100
AcDbLine
 10
35.3497049876
 20
592.5315527528
 30
0.0
 11
35.7827176895
 21
592.5620200886
 31
0.0
  0
LINE
  5
30F
330
72
100
AcDbEntity
  8
$DDT_AUDIT_GENERATED_(B2)
  6
Continuous
 62
     7
100
AcDbLine
 10
34.2836795838
 20
592.6538426484
 30
0.0
 11
34.2836795838
 21
592.5311322006
 31
0.0
  0
LINE
  5
310
330
72
100
AcDbEntity
  8
$DDT_AUDIT_GENERATED_(B2)
  6
Continuous
 62
     7
100
AcDbLine
 10
34.7166922857
 20
592.5615995364
 30
0.0
 11
34.7166922857
 21
592.6233753125
 31
0.0
  0
LINE
  5
311
330
72
100
AcDbEntity
  8
$DDT_AUDIT_GENERATED_(B2)
  6
Continuous
 62
     7
100
AcDbLine
 10
33.8506668819
 20
592.6040236448
 30
0.0
 11
33.8506668819
 21
592.5615995364
 31
0.0
  0
LINE
  5
312
330
72
100
AcDbEntity
  8
$DDT_AUDIT_GENERATED_(B2)
  6
Continuous
 62
     7
100
AcDbLine
 10
33.8506668819
 20
592.5615995364
 30
0.0
 11
34.2836795838
 21
592.5311322006
 31
0.0
  0
LINE
  5
313
330
72
100
AcDbEntity
  8
$DDT_AUDIT_GENERATED_(B2)
  6
Continuous
 62
     7
100
AcDbLine
 10
34.2836795838
 20
592.5311322006
 30
0.0
 11
34.7166922857
 21
592.5615995364
 31
0.0
  0
LINE
  5
314
330
72
100
AcDbEntity
  8
$DDT_AUDIT_GENERATED_(B2)
  6
Continuous
 62
     7
100
AcDbLine
 10
34.8166922857
 20
592.5409116992
 30
0.0
 11
34.8166922857
 21
592.4190423558
 31
0.0
  0
LINE
  5
315
330
72
100
AcDbEntity
  8
$DDT_AUDIT_GENERATED_(B2)
  6
Continuous
 62
     7
100
AcDbLine
 10
35.2497049876
 20
592.5104443633
 30
0.0
 11
34.8166922857
 21
592.5409116992
 31
0.0
  0
LINE
  5
316
330
72
100
AcDbEntity
  8
$DDT_AUDIT_GENERATED_(B2)
  6
Continuous
 62
     7
100
AcDbLine
 10
34.8166922857
 20
592.5409116992
 30
0.0
 11
34.3836795838
 21
592.5104443633
 31
0.0
  0
LINE
  5
317
330
72
100
AcDbEntity
  8
$DDT_AUDIT_GENERATED_(B2)
  6
Continuous
 62
     7
100
AcDbLine
 10
34.3836795838
 20
592.5104443633
 30
0.0
 11
34.3836795838
 21
592.4495096916
 31
0.0
  0
LINE
  5
318
330
72
100
AcDbEntity
  8
$DDT_AUDIT_GENERATED_(B2)
  6
Continuous
 62
     7
100
AcDbLine
 10
34.3836795838
 20
592.4495096916
 30
0.0
 11
34.8166922857
 21
592.4190423558
 31
0.0
  0
LINE
  5
319
330
72
100
AcDbEntity
  8
$DDT_AUDIT_GENERATED_(B2)
  6
Continuous
 62
     7
100
AcDbLine
 10
34.8166922857
 20
592.4190423558
 30
0.0
 11
35.2497049876
 21
592.4495096916
 31
0.0
  0
LINE
  5
31A
330
72
100
AcDbEntity
  8
$DDT_AUDIT_GENERATED_(B2)
  6
Continuous
 62
     7
100
AcDbLine
 10
35.2497049876
 20
592.4495096916
 30
0.0
 11
35.2497049876
 21
592.5104443633
 31
0.0
  0
LINE
  5
31B
330
72
100
AcDbEntity
  8
$DDT_AUDIT_GENERATED_(B2)
  6
Continuous
 62
     7
100
AcDbLine
 10
35.3497049876
 20
592.4284013021
 30
0.0
 11
35.3497049876
 21
592.3065319587
 31
0.0
  0
LINE
  5
31C
330
72
100
AcDbEntity
  8
$DDT_AUDIT_GENERATED_(B2)
  6
Continuous
 62
     7
100
AcDbLine
 10
35.3497049876
 20
592.4284013021
 30
0.0
 11
34.9166922857
 21
592.3979339663
 31
0.0
  0
LINE
  5
31D
330
72
100
AcDbEntity
  8
$DDT_AUDIT_GENERATED_(B2)
  6
Continuous
 62
     7
100
AcDbLine
 10
34.9166922857
 20
592.3979339663
 30
0.0
 11
34.9166922857
 21
592.3369992946
 31
0.0
  0
LINE
  5
31E
330
72
100
AcDbEntity
  8
$DDT_AUDIT_GENERATED_(B2)
  6
Continuous
 62
     7
100
AcDbLine
 10
34.9166922857
 20
592.3369992946
 30
0.0
 11
35.3497049876
 21
592.3065319587
 31
0.0
  0
LINE
  5
31F
330
72
100
AcDbEntity
  8
$DDT_AUDIT_GENERATED_(B2)
  6
Continuous
 62
     7
100
AcDbLine
 10
35.3497049876
 20
592.3065319587
 30
0.0
 11
35.7827176895
 21
592.3369992946
 31
0.0
  0
LINE
  5
320
330
72
100
AcDbEntity
  8
$DDT_AUDIT_GENERATED_(B2)
  6
Continuous
 62
     7
100
AcDbLine
 10
35.7827176895
 20
592.3369992946
 30
0.0
 11
35.7827176895
 21
592.3979339663
 31
0.0
  0
LINE
  5
321
330
72
100
AcDbEntity
  8
$DDT_AUDIT_GENERATED_(B2)
  6
Continuous
 62
     7
100
AcDbLine
 10
35.7827176895
 20
592.3979339663
 30
0.0
 11
35.3497049876
 21
592.4284013021
 31
0.0
  0
LINE
  5
322
330
72
100
AcDbEntity
  8
$DDT_AUDIT_GENERATED_(B2)
  6
Continuous
 62
     7
100
AcDbLine
 10
33.7506668819
 20
592.540491147
 30
0.0
 11
33.7506668819
 21
592.4186218036
 31
0.0
  0
LINE
  5
323
330
72
100
AcDbEntity
  8
$DDT_AUDIT_GENERATED_(B2)
  6
Continuous
 62
     7
100
AcDbLine
 10
34.1836795838
 20
592.5100238111
 30
0.0
 11
33.7506668819
 21
592.540491147
 31
0.0
  0
LINE
  5
324
330
72
100
AcDbEntity
  8
$DDT_AUDIT_GENERATED_(B2)
  6
Continuous
 62
     7
100
AcDbLine
 10
33.7506668819
 20
592.540491147
 30
0.0
 11
33.481198798
 21
592.5215310228
 31
0.0
  0
LINE
  5
325
330
72
100
AcDbEntity
  8
$DDT_AUDIT_GENERATED_(B2)
  6
Continuous
 62
     7
100
AcDbLine
 10
33.3176541801
 20
592.4776933806
 30
0.0
 11
33.3176541801
 21
592.4490891394
 31
0.0
  0
LINE
  5
326
330
72
100
AcDbEntity
  8
$DDT_AUDIT_GENERATED_(B2)
  6
Continuous
 62
     7
100
AcDbLine
 10
33.3176541801
 20
592.4490891394
 30
0.0
 11
33.7506668819
 21
592.4186218036
 31
0.0
  0
LINE
  5
327
330
72
100
AcDbEntity
  8
$DDT_AUDIT_GENERATED_(B2)
  6
Continuous
 62
     7
100
AcDbLine
 10
33.7506668819
 20
592.4186218036
 30
0.0
 11
34.1836795838
 21
592.4490891394
 31
0.0
  0
LINE
  5
328
330
72
100
AcDbEntity
  8
$DDT_AUDIT_GENERATED_(B2)
  6
Continuous
 62
     7
100
AcDbLine
 10
34.1836795838
 20
592.4490891394
 30
0.0
 11
34.1836795838
 21
592.5100238111
 31
0.0
  0
LINE
  5
329
330
72
100
AcDbEntity
  8
$DDT_AUDIT_GENERATED_(B2)
  6
Continuous
 62
     7
100
AcDbLine
 10
33.6498174379
 20
592.5615397685
 30
0.0
 11
33.6506668819
 21
592.5615995364
 31
0.0
  0
LINE
  5
32A
330
72
100
AcDbEntity
  8
$DDT_AUDIT_GENERATED_(B2)
  6
Continuous
 62
     7
100
AcDbLine
 10
33.6506668819
 20
592.5615995364
 30
0.0
 11
33.6506668819
 21
592.561730318
 31
0.0
  0
ELLIPSE
  5
32B
330
72
100
AcDbEntity
  8
$DDT_AUDIT_GENERATED_(B2)
  6
Continuous
 62
     7
100
AcDbEllipse
 10
40.6798319934
 20
592.592487424
 30
0.0
 11
-7.999999986933386
 21
4.859168623028154E-10
 31
0.0
210
0.0
220
0.0
230
1.0
 40
0.1218693435
 41
0.2813080074447325
 42
0.3180851631198667
  0
LINE
  5
32C
330
72
100
AcDbEntity
  8
$DDT_AUDIT_GENERATED_(B2)
  6
Continuous
 62
     7
100
AcDbLine
 10
32.9942868776
 20
592.3668739532
 30
0.0
 11
32.9942868776
 21
592.3218278199
 31
0.0
  0
LINE
  5
32D
330
72
100
AcDbEntity
  8
$DDT_AUDIT_GENERATED_(B2)
  6
Continuous
 62
     7
100
AcDbLine
 10
33.2176541801
 20
592.42798075
 30
0.0
 11
33.2176541801
 21
592.3061114066
 31
0.0
  0
LINE
  5
32E
330
72
100
AcDbEntity
  8
$DDT_AUDIT_GENERATED_(B2)
  6
Continuous
 62
     7
100
AcDbLine
 10
33.6506668819
 20
592.3975134141
 30
0.0
 11
33.2176541801
 21
592.42798075
 31
0.0
  0
LINE
  5
32F
330
72
100
AcDbEntity
  8
$DDT_AUDIT_GENERATED_(B2)
  6
Continuous
 62
     7
100
AcDbLine
 10
33.2176541801
 20
592.42798075
 30
0.0
 11
33.1414982545
 21
592.4226223202
 31
0.0
  0
LINE
  5
330
330
72
100
AcDbEntity
  8
$DDT_AUDIT_GENERATED_(B2)
  6
Continuous
 62
     7
100
AcDbLine
 10
32.9942868776
 20
592.3218278199
 30
0.0
 11
33.2176541801
 21
592.3061114066
 31
0.0
  0
LINE
  5
331
330
72
100
AcDbEntity
  8
$DDT_AUDIT_GENERATED_(B2)
  6
Continuous
 62
     7
100
AcDbLine
 10
33.2176541801
 20
592.3061114066
 30
0.0
 11
33.6506668819
 21
592.3365787424
 31
0.0
  0
LINE
  5
332
330
72
100
AcDbEntity
  8
$DDT_AUDIT_GENERATED_(B2)
  6
Continuous
 62
     7
100
AcDbLine
 10
33.6506668819
 20
592.3365787424
 30
0.0
 11
33.6506668819
 21
592.3975134141
 31
0.0
  0
LINE
  5
333
330
72
100
AcDbEntity
  8
$DDT_AUDIT_GENERATED_(B2)
  6
Continuous
 62
     7
100
AcDbLine
 10
34.2836795838
 20
592.4284013021
 30
0.0
 11
34.2836795838
 21
592.3065319587
 31
0.0
  0
LINE
  5
334
330
72
100
AcDbEntity
  8
$DDT_AUDIT_GENERATED_(B2)
  6
Continuous
 62
     7
100
AcDbLine
 10
33.8506668819
 20
592.3979339663
 30
0.0
 11
33.8506668819
 21
592.3369992946
 31
0.0
  0
LINE
  5
335
330
72
100
AcDbEntity
  8
$DDT_AUDIT_GENERATED_(B2)
  6
Continuous
 62
     7
100
AcDbLine
 10
33.8506668819
 20
592.3369992946
 30
0.0
 11
34.2836795838
 21
592.3065319587
 31
0.0
  0
LINE
  5
336
330
72
100
AcDbEntity
  8
$DDT_AUDIT_GENERATED_(B2)
  6
Continuous
 62
     7
100
AcDbLine
 10
34.2836795838
 20
592.3065319587
 30
0.0
 11
34.7166922857
 21
592.3369992946
 31
0.0
  0
LINE
  5
337
330
72
100
AcDbEntity
  8
$DDT_AUDIT_GENERATED_(B2)
  6
Continuous
 62
     7
100
AcDbLine
 10
34.7166922857
 20
592.3369992946
 30
0.0
 11
34.7166922857
 21
592.3979339663
 31
0.0
  0
LINE
  5
338
330
72
100
AcDbEntity
  8
$DDT_AUDIT_GENERATED_(B2)
  6
Continuous
 62
     7
100
AcDbLine
 10
34.7166922857
 20
592.3979339663
 30
0.0
 11
34.2836795838
 21
592.4284013021
 31
0.0
  0
LINE
  5
339
330
72
100
AcDbEntity
  8
$DDT_AUDIT_GENERATED_(B2)
  6
Continuous
 62
     7
100
AcDbLine
 10
34.2836795838
 20
592.4284013021
 30
0.0
 11
33.8506668819
 21
592.3979339663
 31
0.0
  0
LINE
  5
33A
330
72
100
AcDbEntity
  8
$DDT_AUDIT_GENERATED_(B2)
  6
Continuous
 62
     7
100
AcDbLine
 10
33.7506668819
 20
592.3158909051
 30
0.0
 11
33.7506668819
 21
592.1940215617
 31
0.0
  0
LINE
  5
33B
330
72
100
AcDbEntity
  8
$DDT_AUDIT_GENERATED_(B2)
  6
Continuous
 62
     7
100
AcDbLine
 10
34.1836795838
 20
592.2854235693
 30
0.0
 11
33.7506668819
 21
592.3158909051
 31
0.0
  0
LINE
  5
33C
330
72
100
AcDbEntity
  8
$DDT_AUDIT_GENERATED_(B2)
  6
Continuous
 62
     7
100
AcDbLine
 10
33.7506668819
 20
592.3158909051
 30
0.0
 11
33.3176541801
 21
592.2854235693
 31
0.0
  0
LINE
  5
33D
330
72
100
AcDbEntity
  8
$DDT_AUDIT_GENERATED_(B2)
  6
Continuous
 62
     7
100
AcDbLine
 10
33.3176541801
 20
592.2854235693
 30
0.0
 11
33.3176541801
 21
592.2244888976
 31
0.0
  0
LINE
  5
33E
330
72
100
AcDbEntity
  8
$DDT_AUDIT_GENERATED_(B2)
  6
Continuous
 62
     7
100
AcDbLine
 10
33.3176541801
 20
592.2244888976
 30
0.0
 11
33.7506668819
 21
592.1940215617
 31
0.0
  0
LINE
  5
33F
330
72
100
AcDbEntity
  8
$DDT_AUDIT_GENERATED_(B2)
  6
Continuous
 62
     7
100
AcDbLine
 10
33.7506668819
 20
592.1940215617
 30
0.0
 11
34.1836795838
 21
592.2244888976
 31
0.0
  0
LINE
  5
340
330
72
100
AcDbEntity
  8
$DDT_AUDIT_GENERATED_(B2)
  6
Continuous
 62
     7
100
AcDbLine
 10
34.1836795838
 20
592.2244888976
 30
0.0
 11
34.1836795838
 21
592.2854235693
 31
0.0
  0
LINE
  5
341
330
72
100
AcDbEntity
  8
$DDT_AUDIT_GENERATED_(B2)
  6
Continuous
 62
     7
100
AcDbLine
 10
35.8827176895
 20
592.3158909051
 30
0.0
 11
35.8827176895
 21
592.1940215617
 31
0.0
  0
LINE
  5
342
330
72
100
AcDbEntity
  8
$DDT_AUDIT_GENERATED_(B2)
  6
Continuous
 62
     7
100
AcDbLine
 10
35.8827176895
 20
592.3158909051
 30
0.0
 11
35.4497049876
 21
592.2854235693
 31
0.0
  0
LINE
  5
343
330
72
100
AcDbEntity
  8
$DDT_AUDIT_GENERATED_(B2)
  6
Continuous
 62
     7
100
AcDbLine
 10
35.4497049876
 20
592.2854235693
 30
0.0
 11
35.4497049876
 21
592.2244888976
 31
0.0
  0
LINE
  5
344
330
72
100
AcDbEntity
  8
$DDT_AUDIT_GENERATED_(B2)
  6
Continuous
 62
     7
100
AcDbLine
 10
35.4497049876
 20
592.2244888976
 30
0.0
 11
35.8827176895
 21
592.1940215617
 31
0.0
  0
LINE
  5
345
330
72
100
AcDbEntity
  8
$DDT_AUDIT_GENERATED_(B2)
  6
Continuous
 62
     7
100
AcDbLine
 10
35.8827176895
 20
592.1940215617
 30
0.0
 11
36.3157303914
 21
592.2244888976
 31
0.0
  0
LINE
  5
346
330
72
100
AcDbEntity
  8
$DDT_AUDIT_GENERATED_(B2)
  6
Continuous
 62
     7
100
AcDbLine
 10
36.3157303914
 20
592.2244888976
 30
0.0
 11
36.3157303914
 21
592.2854235693
 31
0.0
  0
LINE
  5
347
330
72
100
AcDbEntity
  8
$DDT_AUDIT_GENERATED_(B2)
  6
Continuous
 62
     7
100
AcDbLine
 10
36.3157303914
 20
592.2854235693
 30
0.0
 11
35.8827176895
 21
592.3158909051
 31
0.0
  0
LINE
  5
348
330
72
100
AcDbEntity
  8
$DDT_AUDIT_GENERATED_(B2)
  6
Continuous
 62
     7
100
AcDbLine
 10
34.8166922857
 20
592.3158909051
 30
0.0
 11
34.8166922857
 21
592.1940215617
 31
0.0
  0
LINE
  5
349
330
72
100
AcDbEntity
  8
$DDT_AUDIT_GENERATED_(B2)
  6
Continuous
 62
     7
100
AcDbLine
 10
35.2497049876
 20
592.2244888976
 30
0.0
 11
35.2497049876
 21
592.2854235693
 31
0.0
  0
LINE
  5
34A
330
72
100
AcDbEntity
  8
$DDT_AUDIT_GENERATED_(B2)
  6
Continuous
 62
     7
100
AcDbLine
 10
35.2497049876
 20
592.2854235693
 30
0.0
 11
34.8166922857
 21
592.3158909051
 31
0.0
  0
LINE
  5
34B
330
72
100
AcDbEntity
  8
$DDT_AUDIT_GENERATED_(B2)
  6
Continuous
 62
     7
100
AcDbLine
 10
34.8166922857
 20
592.3158909051
 30
0.0
 11
34.3836795838
 21
592.2854235693
 31
0.0
  0
LINE
  5
34C
330
72
100
AcDbEntity
  8
$DDT_AUDIT_GENERATED_(B2)
  6
Continuous
 62
     7
100
AcDbLine
 10
34.3836795838
 20
592.2854235693
 30
0.0
 11
34.3836795838
 21
592.2244888976
 31
0.0
  0
LINE
  5
34D
330
72
100
AcDbEntity
  8
$DDT_AUDIT_GENERATED_(B2)
  6
Continuous
 62
     7
100
AcDbLine
 10
34.3836795838
 20
592.2244888976
 30
0.0
 11
34.8166922857
 21
592.1940215617
 31
0.0
  0
LINE
  5
34E
330
72
100
AcDbEntity
  8
$DDT_AUDIT_GENERATED_(B2)
  6
Continuous
 62
     7
100
AcDbLine
 10
34.8166922857
 20
592.1940215617
 30
0.0
 11
35.2497049876
 21
592.2244888976
 31
0.0
  0
LINE
  5
34F
330
72
100
AcDbEntity
  8
$DDT_AUDIT_GENERATED_(B2)
  6
Continuous
 62
     7
100
AcDbLine
 10
34.2836795838
 20
592.2033805081
 30
0.0
 11
34.2836795838
 21
592.0815111647
 31
0.0
  0
LINE
  5
350
330
72
100
AcDbEntity
  8
$DDT_AUDIT_GENERATED_(B2)
  6
Continuous
 62
     7
100
AcDbLine
 10
34.7166922857
 20
592.1119785006
 30
0.0
 11
34.7166922857
 21
592.1729131723
 31
0.0
  0
LINE
  5
351
330
72
100
AcDbEntity
  8
$DDT_AUDIT_GENERATED_(B2)
  6
Continuous
 62
     7
100
AcDbLine
 10
34.7166922857
 20
592.1729131723
 30
0.0
 11
34.2836795838
 21
592.2033805081
 31
0.0
  0
LINE
  5
352
330
72
100
AcDbEntity
  8
$DDT_AUDIT_GENERATED_(B2)
  6
Continuous
 62
     7
100
AcDbLine
 10
34.2836795838
 20
592.2033805081
 30
0.0
 11
33.8506668819
 21
592.1729131723
 31
0.0
  0
LINE
  5
353
330
72
100
AcDbEntity
  8
$DDT_AUDIT_GENERATED_(B2)
  6
Continuous
 62
     7
100
AcDbLine
 10
33.8506668819
 20
592.1729131723
 30
0.0
 11
33.8506668819
 21
592.1119785006
 31
0.0
  0
LINE
  5
354
330
72
100
AcDbEntity
  8
$DDT_AUDIT_GENERATED_(B2)
  6
Continuous
 62
     7
100
AcDbLine
 10
33.8506668819
 20
592.1119785006
 30
0.0
 11
34.2836795838
 21
592.0815111647
 31
0.0
  0
LINE
  5
355
330
72
100
AcDbEntity
  8
$DDT_AUDIT_GENERATED_(B2)
  6
Continuous
 62
     7
100
AcDbLine
 10
34.2836795838
 20
592.0815111647
 30
0.0
 11
34.7166922857
 21
592.1119785006
 31
0.0
  0
LINE
  5
356
330
72
100
AcDbEntity
  8
$DDT_AUDIT_GENERATED_(B2)
  6
Continuous
 62
     7
100
AcDbLine
 10
35.3497049876
 20
592.2033805081
 30
0.0
 11
35.3497049876
 21
592.0815111647
 31
0.0
  0
LINE
  5
357
330
72
100
AcDbEntity
  8
$DDT_AUDIT_GENERATED_(B2)
  6
Continuous
 62
     7
100
AcDbLine
 10
34.9166922857
 20
592.1729131723
 30
0.0
 11
34.9166922857
 21
592.1119785005
 31
0.0
  0
LINE
  5
358
330
72
100
AcDbEntity
  8
$DDT_AUDIT_GENERATED_(B2)
  6
Continuous
 62
     7
100
AcDbLine
 10
34.9166922857
 20
592.1119785005
 30
0.0
 11
35.3497049876
 21
592.0815111647
 31
0.0
  0
LINE
  5
359
330
72
100
AcDbEntity
  8
$DDT_AUDIT_GENERATED_(B2)
  6
Continuous
 62
     7
100
AcDbLine
 10
35.3497049876
 20
592.0815111647
 30
0.0
 11
35.7827176895
 21
592.1119785005
 31
0.0
  0
LINE
  5
35A
330
72
100
AcDbEntity
  8
$DDT_AUDIT_GENERATED_(B2)
  6
Continuous
 62
     7
100
AcDbLine
 10
35.7827176895
 20
592.1119785005
 30
0.0
 11
35.7827176895
 21
592.1729131723
 31
0.0
  0
LINE
  5
35B
330
72
100
AcDbEntity
  8
$DDT_AUDIT_GENERATED_(B2)
  6
Continuous
 62
     7
100
AcDbLine
 10
35.7827176895
 20
592.1729131723
 30
0.0
 11
35.3497049876
 21
592.2033805081
 31
0.0
  0
LINE
  5
35C
330
72
100
AcDbEntity
  8
$DDT_AUDIT_GENERATED_(B2)
  6
Continuous
 62
     7
100
AcDbLine
 10
35.3497049876
 20
592.2033805081
 30
0.0
 11
34.9166922857
 21
592.1729131723
 31
0.0
  0
LINE
  5
35D
330
72
100
AcDbEntity
  8
$DDT_AUDIT_GENERATED_(B2)
  6
Continuous
 62
     7
100
AcDbLine
 10
36.4157303914
 20
592.2033805081
 30
0.0
 11
36.4157303914
 21
592.0815111647
 31
0.0
  0
LINE
  5
35E
330
72
100
AcDbEntity
  8
$DDT_AUDIT_GENERATED_(B2)
  6
Continuous
 62
     7
100
AcDbLine
 10
35.9827176895
 20
592.1729131723
 30
0.0
 11
35.9827176895
 21
592.1119785005
 31
0.0
  0
LINE
  5
35F
330
72
100
AcDbEntity
  8
$DDT_AUDIT_GENERATED_(B2)
  6
Continuous
 62
     7
100
AcDbLine
 10
35.9827176895
 20
592.1119785005
 30
0.0
 11
36.4157303914
 21
592.0815111647
 31
0.0
  0
LINE
  5
360
330
72
100
AcDbEntity
  8
$DDT_AUDIT_GENERATED_(B2)
  6
Continuous
 62
     7
100
AcDbLine
 10
36.4157303914
 20
592.0815111647
 30
0.0
 11
36.8487430932
 21
592.1119785005
 31
0.0
  0
LINE
  5
361
330
72
100
AcDbEntity
  8
$DDT_AUDIT_GENERATED_(B2)
  6
Continuous
 62
     7
100
AcDbLine
 10
36.8487430932
 20
592.1119785005
 30
0.0
 11
36.8487430932
 21
592.1729131723
 31
0.0
  0
LINE
  5
362
330
72
100
AcDbEntity
  8
$DDT_AUDIT_GENERATED_(B2)
  6
Continuous
 62
     7
100
AcDbLine
 10
36.8487430932
 20
592.1729131723
 30
0.0
 11
36.4157303914
 21
592.2033805081
 31
0.0
  0
LINE
  5
363
330
72
100
AcDbEntity
  8
$DDT_AUDIT_GENERATED_(B2)
  6
Continuous
 62
     7
100
AcDbLine
 10
36.4157303914
 20
592.2033805081
 30
0.0
 11
35.9827176895
 21
592.1729131723
 31
0.0
  0
LINE
  5
364
330
72
100
AcDbEntity
  8
$DDT_AUDIT_GENERATED_(B2)
  6
Continuous
 62
     7
100
AcDbLine
 10
35.8827176895
 20
592.0908701111
 30
0.0
 11
35.8827176895
 21
591.9690007677
 31
0.0
  0
LINE
  5
365
330
72
100
AcDbEntity
  8
$DDT_AUDIT_GENERATED_(B2)
  6
Continuous
 62
     7
100
AcDbLine
 10
35.8827176895
 20
592.0908701111
 30
0.0
 11
35.4497049876
 21
592.0604027752
 31
0.0
  0
LINE
  5
366
330
72
100
AcDbEntity
  8
$DDT_AUDIT_GENERATED_(B2)
  6
Continuous
 62
     7
100
AcDbLine
 10
35.4497049876
 20
592.0604027752
 30
0.0
 11
35.4497049876
 21
591.9994681035
 31
0.0
  0
LINE
  5
367
330
72
100
AcDbEntity
  8
$DDT_AUDIT_GENERATED_(B2)
  6
Continuous
 62
     7
100
AcDbLine
 10
35.4497049876
 20
591.9994681035
 30
0.0
 11
35.8827176895
 21
591.9690007677
 31
0.0
  0
LINE
  5
368
330
72
100
AcDbEntity
  8
$DDT_AUDIT_GENERATED_(B2)
  6
Continuous
 62
     7
100
AcDbLine
 10
35.8827176895
 20
591.9690007677
 30
0.0
 11
36.3157303914
 21
591.9994681035
 31
0.0
  0
LINE
  5
369
330
72
100
AcDbEntity
  8
$DDT_AUDIT_GENERATED_(B2)
  6
Continuous
 62
     7
100
AcDbLine
 10
36.3157303914
 20
591.9994681035
 30
0.0
 11
36.3157303914
 21
592.0604027752
 31
0.0
  0
LINE
  5
36A
330
72
100
AcDbEntity
  8
$DDT_AUDIT_GENERATED_(B2)
  6
Continuous
 62
     7
100
AcDbLine
 10
36.3157303914
 20
592.0604027752
 30
0.0
 11
35.8827176895
 21
592.0908701111
 31
0.0
  0
LINE
  5
36B
330
72
100
AcDbEntity
  8
$DDT_AUDIT_GENERATED_(B2)
  6
Continuous
 62
     7
100
AcDbLine
 10
34.8166922857
 20
592.0908701111
 30
0.0
 11
34.8166922857
 21
591.9690007677
 31
0.0
  0
LINE
  5
36C
330
72
100
AcDbEntity
  8
$DDT_AUDIT_GENERATED_(B2)
  6
Continuous
 62
     7
100
AcDbLine
 10
35.2497049876
 20
591.9994681035
 30
0.0
 11
35.2497049876
 21
592.0604027752
 31
0.0
  0
LINE
  5
36D
330
72
100
AcDbEntity
  8
$DDT_AUDIT_GENERATED_(B2)
  6
Continuous
 62
     7
100
AcDbLine
 10
35.2497049876
 20
592.0604027752
 30
0.0
 11
34.8166922857
 21
592.0908701111
 31
0.0
  0
LINE
  5
36E
330
72
100
AcDbEntity
  8
$DDT_AUDIT_GENERATED_(B2)
  6
Continuous
 62
     7
100
AcDbLine
 10
34.8166922857
 20
592.0908701111
 30
0.0
 11
34.3836795838
 21
592.0604027752
 31
0.0
  0
LINE
  5
36F
330
72
100
AcDbEntity
  8
$DDT_AUDIT_GENERATED_(B2)
  6
Continuous
 62
     7
100
AcDbLine
 10
34.3836795838
 20
592.0604027752
 30
0.0
 11
34.3836795838
 21
591.9994681035
 31
0.0
  0
LINE
  5
370
330
72
100
AcDbEntity
  8
$DDT_AUDIT_GENERATED_(B2)
  6
Continuous
 62
     7
100
AcDbLine
 10
34.3836795838
 20
591.9994681035
 30
0.0
 11
34.8166922857
 21
591.9690007677
 31
0.0
  0
LINE
  5
371
330
72
100
AcDbEntity
  8
$DDT_AUDIT_GENERATED_(B2)
  6
Continuous
 62
     7
100
AcDbLine
 10
34.8166922857
 20
591.9690007677
 30
0.0
 11
35.2497049876
 21
591.9994681035
 31
0.0
  0
ELLIPSE
  5
372
330
72
100
AcDbEntity
  8
$DDT_AUDIT_GENERATED_(B2)
  6
Continuous
 62
     7
100
AcDbEllipse
 10
40.679832088
 20
592.5924874361
 30
0.0
 11
-8.000000089307235
 21
-7.689432424129450E-9
 31
0.0
210
0.0
220
0.0
230
1.0
 40
0.1218693436
 41
0.8499964017468874
 42
0.8765119816790659
  0
LINE
  5
373
330
72
100
AcDbEntity
  8
$DDT_AUDIT_GENERATED_(B2)
  6
Continuous
 62
     7
100
AcDbLine
 10
35.3999452363
 20
591.9748247449
 30
0.0
 11
35.3999452363
 21
591.8600253398
 31
0.0
  0
LINE
  5
374
330
72
100
AcDbEntity
  8
$DDT_AUDIT_GENERATED_(B2)
  6
Continuous
 62
     7
100
AcDbLine
 10
35.7827176895
 20
591.9478923782
 30
0.0
 11
35.3497049876
 21
591.9783597141
 31
0.0
  0
LINE
  5
375
330
72
100
AcDbEntity
  8
$DDT_AUDIT_GENERATED_(B2)
  6
Continuous
 62
     7
100
AcDbLine
 10
35.3497049876
 20
591.9783597141
 30
0.0
 11
34.9166922857
 21
591.9478923782
 31
0.0
  0
LINE
  5
376
330
72
100
AcDbEntity
  8
$DDT_AUDIT_GENERATED_(B2)
  6
Continuous
 62
     7
100
AcDbLine
 10
34.9166922857
 20
591.9478923782
 30
0.0
 11
34.9166922857
 21
591.9162913278
 31
0.0
  0
LINE
  5
377
330
72
100
AcDbEntity
  8
$DDT_AUDIT_GENERATED_(B2)
  6
Continuous
 62
     7
100
AcDbLine
 10
35.3999452363
 20
591.8600253398
 30
0.0
 11
35.7827176895
 21
591.8869577065
 31
0.0
  0
LINE
  5
378
330
72
100
AcDbEntity
  8
$DDT_AUDIT_GENERATED_(B2)
  6
Continuous
 62
     7
100
AcDbLine
 10
35.7827176895
 20
591.8869577065
 30
0.0
 11
35.7827176895
 21
591.9478923782
 31
0.0
  0
LINE
  5
379
330
72
100
AcDbEntity
  8
$DDT_AUDIT_GENERATED_(B2)
  6
Continuous
 62
     7
100
AcDbLine
 10
36.4157303914
 20
591.9783597141
 30
0.0
 11
36.4157303914
 21
591.8564903707
 31
0.0
  0
LINE
  5
37A
330
72
100
AcDbEntity
  8
$DDT_AUDIT_GENERATED_(B2)
  6
Continuous
 62
     7
100
AcDbLine
 10
36.4157303914
 20
591.9783597141
 30
0.0
 11
35.9827176895
 21
591.9478923782
 31
0.0
  0
LINE
  5
37B
330
72
100
AcDbEntity
  8
$DDT_AUDIT_GENERATED_(B2)
  6
Continuous
 62
     7
100
AcDbLine
 10
35.9827176895
 20
591.9478923782
 30
0.0
 11
35.9827176895
 21
591.8869577065
 31
0.0
  0
LINE
  5
37C
330
72
100
AcDbEntity
  8
$DDT_AUDIT_GENERATED_(B2)
  6
Continuous
 62
     7
100
AcDbLine
 10
35.9827176895
 20
591.8869577065
 30
0.0
 11
36.4157303914
 21
591.8564903707
 31
0.0
  0
LINE
  5
37D
330
72
100
AcDbEntity
  8
$DDT_AUDIT_GENERATED_(B2)
  6
Continuous
 62
     7
100
AcDbLine
 10
36.4157303914
 20
591.8564903707
 30
0.0
 11
36.8487430932
 21
591.8869577065
 31
0.0
  0
LINE
  5
37E
330
72
100
AcDbEntity
  8
$DDT_AUDIT_GENERATED_(B2)
  6
Continuous
 62
     7
100
AcDbLine
 10
36.8487430932
 20
591.8869577065
 30
0.0
 11
36.8487430932
 21
591.9478923782
 31
0.0
  0
LINE
  5
37F
330
72
100
AcDbEntity
  8
$DDT_AUDIT_GENERATED_(B2)
  6
Continuous
 62
     7
100
AcDbLine
 10
36.8487430932
 20
591.9478923782
 30
0.0
 11
36.4157303914
 21
591.9783597141
 31
0.0
  0
LINE
  5
380
330
72
100
AcDbEntity
  8
$DDT_AUDIT_GENERATED_(B2)
  6
Continuous
 62
     7
100
AcDbLine
 10
36.9487430932
 20
592.0908701111
 30
0.0
 11
36.9487430932
 21
591.9690007677
 31
0.0
  0
LINE
  5
381
330
72
100
AcDbEntity
  8
$DDT_AUDIT_GENERATED_(B2)
  6
Continuous
 62
     7
100
AcDbLine
 10
36.5157303914
 20
592.0604027752
 30
0.0
 11
36.5157303914
 21
591.9994681035
 31
0.0
  0
LINE
  5
382
330
72
100
AcDbEntity
  8
$DDT_AUDIT_GENERATED_(B2)
  6
Continuous
 62
     7
100
AcDbLine
 10
36.5157303914
 20
591.9994681035
 30
0.0
 11
36.9487430932
 21
591.9690007677
 31
0.0
  0
LINE
  5
383
330
72
100
AcDbEntity
  8
$DDT_AUDIT_GENERATED_(B2)
  6
Continuous
 62
     7
100
AcDbLine
 10
36.9487430932
 20
591.9690007677
 30
0.0
 11
37.3817557951
 21
591.9994681035
 31
0.0
  0
LINE
  5
384
330
72
100
AcDbEntity
  8
$DDT_AUDIT_GENERATED_(B2)
  6
Continuous
 62
     7
100
AcDbLine
 10
37.3817557951
 20
591.9994681035
 30
0.0
 11
37.3817557951
 21
592.0604027752
 31
0.0
  0
LINE
  5
385
330
72
100
AcDbEntity
  8
$DDT_AUDIT_GENERATED_(B2)
  6
Continuous
 62
     7
100
AcDbLine
 10
37.3817557951
 20
592.0604027752
 30
0.0
 11
36.9487430932
 21
592.0908701111
 31
0.0
  0
LINE
  5
386
330
72
100
AcDbEntity
  8
$DDT_AUDIT_GENERATED_(B2)
  6
Continuous
 62
     7
100
AcDbLine
 10
36.9487430932
 20
592.0908701111
 30
0.0
 11
36.5157303914
 21
592.0604027752
 31
0.0
  0
LINE
  5
387
330
72
100
AcDbEntity
  8
$DDT_AUDIT_GENERATED_(B2)
  6
Continuous
 62
     7
100
AcDbLine
 10
37.4817557951
 20
591.9783597141
 30
0.0
 11
37.4817557951
 21
591.8564903707
 31
0.0
  0
LINE
  5
388
330
72
100
AcDbEntity
  8
$DDT_AUDIT_GENERATED_(B2)
  6
Continuous
 62
     7
100
AcDbLine
 10
37.0487430932
 20
591.9478923782
 30
0.0
 11
37.0487430932
 21
591.8869577065
 31
0.0
  0
LINE
  5
389
330
72
100
AcDbEntity
  8
$DDT_AUDIT_GENERATED_(B2)
  6
Continuous
 62
     7
100
AcDbLine
 10
37.0487430932
 20
591.8869577065
 30
0.0
 11
37.4817557951
 21
591.8564903707
 31
0.0
  0
LINE
  5
38A
330
72
100
AcDbEntity
  8
$DDT_AUDIT_GENERATED_(B2)
  6
Continuous
 62
     7
100
AcDbLine
 10
37.4817557951
 20
591.8564903707
 30
0.0
 11
37.914768497
 21
591.8869577065
 31
0.0
  0
LINE
  5
38B
330
72
100
AcDbEntity
  8
$DDT_AUDIT_GENERATED_(B2)
  6
Continuous
 62
     7
100
AcDbLine
 10
37.914768497
 20
591.8869577065
 30
0.0
 11
37.914768497
 21
591.9478923782
 31
0.0
  0
LINE
  5
38C
330
72
100
AcDbEntity
  8
$DDT_AUDIT_GENERATED_(B2)
  6
Continuous
 62
     7
100
AcDbLine
 10
37.914768497
 20
591.9478923782
 30
0.0
 11
37.4817557951
 21
591.9783597141
 31
0.0
  0
LINE
  5
38D
330
72
100
AcDbEntity
  8
$DDT_AUDIT_GENERATED_(B2)
  6
Continuous
 62
     7
100
AcDbLine
 10
37.4817557951
 20
591.9783597141
 30
0.0
 11
37.0487430932
 21
591.9478923782
 31
0.0
  0
LINE
  5
38E
330
72
100
AcDbEntity
  8
$DDT_AUDIT_GENERATED_(B2)
  6
Continuous
 62
     7
100
AcDbLine
 10
36.9487430932
 20
591.865849317
 30
0.0
 11
36.9487430932
 21
591.7439799736
 31
0.0
  0
LINE
  5
38F
330
72
100
AcDbEntity
  8
$DDT_AUDIT_GENERATED_(B2)
  6
Continuous
 62
     7
100
AcDbLine
 10
37.3817557951
 20
591.8353819812
 30
0.0
 11
36.9487430932
 21
591.865849317
 31
0.0
  0
LINE
  5
390
330
72
100
AcDbEntity
  8
$DDT_AUDIT_GENERATED_(B2)
  6
Continuous
 62
     7
100
AcDbLine
 10
36.9487430932
 20
591.865849317
 30
0.0
 11
36.5157303914
 21
591.8353819812
 31
0.0
  0
LINE
  5
391
330
72
100
AcDbEntity
  8
$DDT_AUDIT_GENERATED_(B2)
  6
Continuous
 62
     7
100
AcDbLine
 10
36.5157303914
 20
591.8353819812
 30
0.0
 11
36.5157303914
 21
591.7744473095
 31
0.0
  0
LINE
  5
392
330
72
100
AcDbEntity
  8
$DDT_AUDIT_GENERATED_(B2)
  6
Continuous
 62
     7
100
AcDbLine
 10
36.5157303914
 20
591.7744473095
 30
0.0
 11
36.9487430932
 21
591.7439799736
 31
0.0
  0
LINE
  5
393
330
72
100
AcDbEntity
  8
$DDT_AUDIT_GENERATED_(B2)
  6
Continuous
 62
     7
100
AcDbLine
 10
36.9487430932
 20
591.7439799736
 30
0.0
 11
37.3817557951
 21
591.7744473095
 31
0.0
  0
LINE
  5
394
330
72
100
AcDbEntity
  8
$DDT_AUDIT_GENERATED_(B2)
  6
Continuous
 62
     7
100
AcDbLine
 10
37.3817557951
 20
591.7744473095
 30
0.0
 11
37.3817557951
 21
591.8353819812
 31
0.0
  0
ELLIPSE
  5
395
330
72
100
AcDbEntity
  8
$DDT_AUDIT_GENERATED_(B2)
  6
Continuous
 62
     7
100
AcDbEllipse
 10
40.6798321116
 20
592.5924874606
 30
0.0
 11
-8.000000175237933
 21
-1.223587897669631E-8
 31
0.0
210
0.0
220
0.0
230
1.0
 40
0.1218693453
 41
1.217883110488775
 42
1.244398690106752
  0
LINE
  5
396
330
72
100
AcDbEntity
  8
$DDT_AUDIT_GENERATED_(B2)
  6
Continuous
 62
     7
100
AcDbLine
 10
37.4817557951
 20
591.75333892
 30
0.0
 11
37.0553379876
 21
591.7233356095
 31
0.0
  0
LINE
  5
397
330
72
100
AcDbEntity
  8
$DDT_AUDIT_GENERATED_(B2)
  6
Continuous
 62
     7
100
AcDbLine
 10
37.914768497
 20
591.6776193384
 30
0.0
 11
37.914768497
 21
591.7228715842
 31
0.0
  0
LINE
  5
398
330
72
100
AcDbEntity
  8
$DDT_AUDIT_GENERATED_(B2)
  6
Continuous
 62
     7
100
AcDbLine
 10
37.914768497
 20
591.7228715842
 30
0.0
 11
37.4817557951
 21
591.75333892
 31
0.0
  0
ELLIPSE
  5
399
330
72
100
AcDbEntity
  8
$DDT_AUDIT_GENERATED_(B2)
  6
Continuous
 62
     7
100
AcDbEllipse
 10
40.6798320059
 20
592.5924874244
 30
0.0
 11
-7.999999999329401
 21
5.798139746104880E-11
 31
0.0
210
0.0
220
0.0
230
1.0
 40
0.1218693434
 41
0.9937955925656241
 42
1.100599509887624
  0
LINE
  5
39A
330
72
100
AcDbEntity
  8
$DDT_AUDIT_GENERATED_(B2)
  6
Continuous
 62
     7
100
AcDbLine
 10
36.3157303913
 20
591.7753753602
 30
0.0
 11
36.3157303913
 21
591.8353819812
 31
0.0
  0
LINE
  5
39B
330
72
100
AcDbEntity
  8
$DDT_AUDIT_GENERATED_(B2)
  6
Continuous
 62
     7
100
AcDbLine
 10
36.3157303913
 20
591.8353819812
 30
0.0
 11
35.8827176895
 21
591.865849317
 31
0.0
  0
LINE
  5
39C
330
72
100
AcDbEntity
  8
$DDT_AUDIT_GENERATED_(B2)
  6
Continuous
 62
     7
100
AcDbLine
 10
35.8827176895
 20
591.865849317
 30
0.0
 11
35.5611471179
 21
591.8432231942
 31
0.0
  0
ELLIPSE
  5
39D
330
72
100
AcDbEntity
  8
$DDT_AUDIT_GENERATED_(B2)
  6
Continuous
 62
     7
100
AcDbEllipse
 10
40.6798320048
 20
592.5924874244
 30
0.0
 11
-7.99999999836379
 21
6.769584892651892E-11
 31
0.0
210
0.0
220
0.0
230
1.0
 40
0.1218693434
 41
0.3323683973346362
 42
0.4240045291686567
  0
LINE
  5
39E
330
72
100
AcDbEntity
  8
$DDT_AUDIT_GENERATED_(B2)
  6
Continuous
 62
     7
100
AcDbLine
 10
33.1176541801
 20
592.2850030171
 30
0.0
 11
33.0811438367
 21
592.2875719322
 31
0.0
  0
LINE
  5
39F
330
72
100
AcDbEntity
  8
$DDT_AUDIT_GENERATED_(B2)
  6
Continuous
 62
     7
100
AcDbLine
 10
33.1176541801
 20
592.2743765361
 30
0.0
 11
33.1176541801
 21
592.2850030171
 31
0.0
  0
ELLIPSE
  5
3A0
330
72
100
AcDbEntity
  8
$DDT_AUDIT_GENERATED_(B2)
  6
Continuous
 62
     7
100
AcDbEllipse
 10
40.6798319949
 20
592.5924874237
 30
0.0
 11
-7.999999988364415
 21
7.129297152630443E-10
 31
0.0
210
0.0
220
0.0
230
1.0
 40
0.1218693435
 41
0.4977780790273188
 42
0.5494194729121123
  0
LINE
  5
3A1
330
72
100
AcDbEntity
  8
$DDT_AUDIT_GENERATED_(B2)
  6
Continuous
 62
     7
100
AcDbLine
 10
33.6506668819
 20
592.1729131723
 30
0.0
 11
33.3882421279
 21
592.1913777186
 31
0.0
  0
LINE
  5
3A2
330
72
100
AcDbEntity
  8
$DDT_AUDIT_GENERATED_(B2)
  6
Continuous
 62
     7
100
AcDbLine
 10
33.6506668819
 20
592.1269714551
 30
0.0
 11
33.6506668819
 21
592.1729131723
 31
0.0
  0
ELLIPSE
  5
3A3
330
72
100
AcDbEntity
  8
$DDT_AUDIT_GENERATED_(B2)
  6
Continuous
 62
     7
100
AcDbEllipse
 10
40.6798320061
 20
592.5924874245
 30
0.0
 11
-7.999999999730636
 21
1.781907954523376E-11
 31
0.0
210
0.0
220
0.0
230
1.0
 40
0.1218693434
 41
0.6231930220807581
 42
0.7148291539086441
  0
LINE
  5
3A4
330
72
100
AcDbEntity
  8
$DDT_AUDIT_GENERATED_(B2)
  6
Continuous
 62
     7
100
AcDbLine
 10
34.1836795838
 20
592.0604027752
 30
0.0
 11
33.8572095049
 21
592.0833736338
 31
0.0
  0
LINE
  5
3A5
330
72
100
AcDbEntity
  8
$DDT_AUDIT_GENERATED_(B2)
  6
Continuous
 62
     7
100
AcDbLine
 10
34.1836795838
 20
592.0234736825
 30
0.0
 11
34.1836795838
 21
592.0604027752
 31
0.0
  0
ELLIPSE
  5
3A6
330
72
100
AcDbEntity
  8
$DDT_AUDIT_GENERATED_(B2)
  6
Continuous
 62
     7
100
AcDbEllipse
 10
40.679831995
 20
592.5924874232
 30
0.0
 11
-7.999999988077065
 21
9.420242363944453E-10
 31
0.0
210
0.0
220
0.0
230
1.0
 40
0.1218693434
 41
0.7296729461528524
 42
0.7664283095501587
  0
LINE
  5
3A7
330
72
100
AcDbEntity
  8
$DDT_AUDIT_GENERATED_(B2)
  6
Continuous
 62
     7
100
AcDbLine
 10
34.7166922857
 20
591.9478923782
 30
0.0
 11
34.6381900874
 21
591.9534158948
 31
0.0
  0
LINE
  5
3A8
330
72
100
AcDbEntity
  8
$DDT_AUDIT_GENERATED_(B2)
  6
Continuous
 62
     7
100
AcDbLine
 10
34.7166922857
 20
591.9425573515
 30
0.0
 11
34.7166922857
 21
591.9478923782
 31
0.0
  0
ELLIPSE
  5
3A9
330
72
100
AcDbEntity
  8
$DDT_AUDIT_GENERATED_(B2)
  6
Continuous
 62
     7
100
AcDbEllipse
 10
40.6798320061
 20
592.5924874242
 30
0.0
 11
-7.999999999065139
 21
3.314015728506092E-11
 31
0.0
210
0.0
220
0.0
230
1.0
 40
0.1218693434
 41
1.379565948508173
 42
1.471202080344855
  0
LINE
  5
3AA
330
72
100
AcDbEntity
  8
$DDT_AUDIT_GENERATED_(B2)
  6
Continuous
 62
     7
100
AcDbLine
 10
39.0807939008
 20
591.640828523
 30
0.0
 11
39.0428822442
 21
591.6381610096
 31
0.0
  0
LINE
  5
3AB
330
72
100
AcDbEntity
  8
$DDT_AUDIT_GENERATED_(B2)
  6
Continuous
 62
     7
100
AcDbLine
 10
39.159296099
 20
591.6353050064
 30
0.0
 11
39.0807939008
 21
591.640828523
 31
0.0
  0
LINE
  5
3AC
330
72
100
AcDbEntity
  8
$DDT_AUDIT_GENERATED_(B2)
  6
Continuous
 62
     7
100
AcDbLine
 10
41.2128447083
 20
592.9909532872
 30
0.0
 11
41.2128447083
 21
592.8690839438
 31
0.0
  0
LINE
  5
3AD
330
72
100
AcDbEntity
  8
$DDT_AUDIT_GENERATED_(B2)
  6
Continuous
 62
     7
100
AcDbLine
 10
40.7798320064
 20
592.8995512797
 30
0.0
 11
41.2128447083
 21
592.8690839438
 31
0.0
  0
LINE
  5
3AE
330
72
100
AcDbEntity
  8
$DDT_AUDIT_GENERATED_(B2)
  6
Continuous
 62
     7
100
AcDbLine
 10
41.2128447083
 20
592.8690839438
 30
0.0
 11
41.6458574102
 21
592.8995512797
 31
0.0
  0
LINE
  5
3AF
330
72
100
AcDbEntity
  8
$DDT_AUDIT_GENERATED_(B2)
  6
Continuous
 62
     7
100
AcDbLine
 10
41.6458574102
 20
592.8995512797
 30
0.0
 11
41.6458574102
 21
592.9604859514
 31
0.0
  0
LINE
  5
3B0
330
72
100
AcDbEntity
  8
$DDT_AUDIT_GENERATED_(B2)
  6
Continuous
 62
     7
100
AcDbLine
 10
41.6458574102
 20
592.9604859514
 30
0.0
 11
41.2128447083
 21
592.9909532872
 31
0.0
  0
LINE
  5
3B1
330
72
100
AcDbEntity
  8
$DDT_AUDIT_GENERATED_(B2)
  6
Continuous
 62
     7
100
AcDbLine
 10
41.2128447083
 20
592.9909532872
 30
0.0
 11
40.7798320064
 21
592.9604859514
 31
0.0
  0
LINE
  5
3B2
330
72
100
AcDbEntity
  8
$DDT_AUDIT_GENERATED_(B2)
  6
Continuous
 62
     7
100
AcDbLine
 10
40.7798320064
 20
592.9604859514
 30
0.0
 11
40.7798320064
 21
592.8995512797
 31
0.0
  0
LINE
  5
3B3
330
72
100
AcDbEntity
  8
$DDT_AUDIT_GENERATED_(B2)
  6
Continuous
 62
     7
100
AcDbLine
 10
40.6798320064
 20
592.8784428902
 30
0.0
 11
40.6798320064
 21
592.7565735468
 31
0.0
  0
LINE
  5
3B4
330
72
100
AcDbEntity
  8
$DDT_AUDIT_GENERATED_(B2)
  6
Continuous
 62
     7
100
AcDbLine
 10
41.1128447083
 20
592.7870408827
 30
0.0
 11
41.1128447083
 21
592.8479755544
 31
0.0
  0
LINE
  5
3B5
330
72
100
AcDbEntity
  8
$DDT_AUDIT_GENERATED_(B2)
  6
Continuous
 62
     7
100
AcDbLine
 10
41.1128447083
 20
592.8479755544
 30
0.0
 11
40.6798320064
 21
592.8784428902
 31
0.0
  0
LINE
  5
3B6
330
72
100
AcDbEntity
  8
$DDT_AUDIT_GENERATED_(B2)
  6
Continuous
 62
     7
100
AcDbLine
 10
40.6798320064
 20
592.7565735468
 30
0.0
 11
41.1128447083
 21
592.7870408827
 31
0.0
  0
LINE
  5
3B7
330
72
100
AcDbEntity
  8
$DDT_AUDIT_GENERATED_(B2)
  6
Continuous
 62
     7
100
AcDbLine
 10
41.2128447083
 20
592.7659324932
 30
0.0
 11
41.2128447083
 21
592.6440631498
 31
0.0
  0
LINE
  5
3B8
330
72
100
AcDbEntity
  8
$DDT_AUDIT_GENERATED_(B2)
  6
Continuous
 62
     7
100
AcDbLine
 10
41.6458574102
 20
592.7354651573
 30
0.0
 11
41.2128447083
 21
592.7659324932
 31
0.0
  0
LINE
  5
3B9
330
72
100
AcDbEntity
  8
$DDT_AUDIT_GENERATED_(B2)
  6
Continuous
 62
     7
100
AcDbLine
 10
41.2128447083
 20
592.7659324932
 30
0.0
 11
40.7798320064
 21
592.7354651573
 31
0.0
  0
LINE
  5
3BA
330
72
100
AcDbEntity
  8
$DDT_AUDIT_GENERATED_(B2)
  6
Continuous
 62
     7
100
AcDbLine
 10
40.7798320064
 20
592.7354651573
 30
0.0
 11
40.7798320064
 21
592.6745304856
 31
0.0
  0
LINE
  5
3BB
330
72
100
AcDbEntity
  8
$DDT_AUDIT_GENERATED_(B2)
  6
Continuous
 62
     7
100
AcDbLine
 10
40.7798320064
 20
592.6745304856
 30
0.0
 11
41.2128447083
 21
592.6440631498
 31
0.0
  0
LINE
  5
3BC
330
72
100
AcDbEntity
  8
$DDT_AUDIT_GENERATED_(B2)
  6
Continuous
 62
     7
100
AcDbLine
 10
41.2128447083
 20
592.6440631498
 30
0.0
 11
41.6458574102
 21
592.6745304856
 31
0.0
  0
LINE
  5
3BD
330
72
100
AcDbEntity
  8
$DDT_AUDIT_GENERATED_(B2)
  6
Continuous
 62
     7
100
AcDbLine
 10
41.6458574102
 20
592.6745304856
 30
0.0
 11
41.6458574102
 21
592.7354651573
 31
0.0
  0
LINE
  5
3BE
330
72
100
AcDbEntity
  8
$DDT_AUDIT_GENERATED_(B2)
  6
Continuous
 62
     7
100
AcDbLine
 10
41.7458574102
 20
592.8784428902
 30
0.0
 11
41.7458574102
 21
592.7565735468
 31
0.0
  0
LINE
  5
3BF
330
72
100
AcDbEntity
  8
$DDT_AUDIT_GENERATED_(B2)
  6
Continuous
 62
     7
100
AcDbLine
 10
41.3128447083
 20
592.7870408827
 30
0.0
 11
41.7458574102
 21
592.7565735468
 31
0.0
  0
LINE
  5
3C0
330
72
100
AcDbEntity
  8
$DDT_AUDIT_GENERATED_(B2)
  6
Continuous
 62
     7
100
AcDbLine
 10
41.7458574102
 20
592.7565735468
 30
0.0
 11
42.1788701121
 21
592.7870408827
 31
0.0
  0
LINE
  5
3C1
330
72
100
AcDbEntity
  8
$DDT_AUDIT_GENERATED_(B2)
  6
Continuous
 62
     7
100
AcDbLine
 10
42.1788701121
 20
592.7870408827
 30
0.0
 11
42.1788701121
 21
592.8479755544
 31
0.0
  0
LINE
  5
3C2
330
72
100
AcDbEntity
  8
$DDT_AUDIT_GENERATED_(B2)
  6
Continuous
 62
     7
100
AcDbLine
 10
42.1788701121
 20
592.8479755544
 30
0.0
 11
41.7458574102
 21
592.8784428902
 31
0.0
  0
LINE
  5
3C3
330
72
100
AcDbEntity
  8
$DDT_AUDIT_GENERATED_(B2)
  6
Continuous
 62
     7
100
AcDbLine
 10
41.7458574102
 20
592.8784428902
 30
0.0
 11
41.3128447083
 21
592.8479755544
 31
0.0
  0
LINE
  5
3C4
330
72
100
AcDbEntity
  8
$DDT_AUDIT_GENERATED_(B2)
  6
Continuous
 62
     7
100
AcDbLine
 10
41.3128447083
 20
592.8479755544
 30
0.0
 11
41.3128447083
 21
592.7870408827
 31
0.0
  0
LINE
  5
3C5
330
72
100
AcDbEntity
  8
$DDT_AUDIT_GENERATED_(B2)
  6
Continuous
 62
     7
100
AcDbLine
 10
42.2788701121
 20
592.7659324932
 30
0.0
 11
42.2788701121
 21
592.6440631498
 31
0.0
  0
LINE
  5
3C6
330
72
100
AcDbEntity
  8
$DDT_AUDIT_GENERATED_(B2)
  6
Continuous
 62
     7
100
AcDbLine
 10
42.2788701121
 20
592.7659324932
 30
0.0
 11
41.8458574102
 21
592.7354651573
 31
0.0
  0
LINE
  5
3C7
330
72
100
AcDbEntity
  8
$DDT_AUDIT_GENERATED_(B2)
  6
Continuous
 62
     7
100
AcDbLine
 10
41.8458574102
 20
592.7354651573
 30
0.0
 11
41.8458574102
 21
592.6745304856
 31
0.0
  0
LINE
  5
3C8
330
72
100
AcDbEntity
  8
$DDT_AUDIT_GENERATED_(B2)
  6
Continuous
 62
     7
100
AcDbLine
 10
41.8458574102
 20
592.6745304856
 30
0.0
 11
42.2788701121
 21
592.6440631498
 31
0.0
  0
LINE
  5
3C9
330
72
100
AcDbEntity
  8
$DDT_AUDIT_GENERATED_(B2)
  6
Continuous
 62
     7
100
AcDbLine
 10
42.2788701121
 20
592.6440631498
 30
0.0
 11
42.7118828139
 21
592.6745304856
 31
0.0
  0
LINE
  5
3CA
330
72
100
AcDbEntity
  8
$DDT_AUDIT_GENERATED_(B2)
  6
Continuous
 62
     7
100
AcDbLine
 10
42.7118828139
 20
592.6745304856
 30
0.0
 11
42.7118828139
 21
592.7354651573
 31
0.0
  0
LINE
  5
3CB
330
72
100
AcDbEntity
  8
$DDT_AUDIT_GENERATED_(B2)
  6
Continuous
 62
     7
100
AcDbLine
 10
42.7118828139
 20
592.7354651573
 30
0.0
 11
42.2788701121
 21
592.7659324932
 31
0.0
  0
LINE
  5
3CC
330
72
100
AcDbEntity
  8
$DDT_AUDIT_GENERATED_(B2)
  6
Continuous
 62
     7
100
AcDbLine
 10
42.1788701121
 20
592.6229547603
 30
0.0
 11
41.7458574102
 21
592.6534220962
 31
0.0
  0
LINE
  5
3CD
330
72
100
AcDbEntity
  8
$DDT_AUDIT_GENERATED_(B2)
  6
Continuous
 62
     7
100
AcDbLine
 10
41.7458574102
 20
592.6534220962
 30
0.0
 11
41.3128447083
 21
592.6229547603
 31
0.0
  0
LINE
  5
3CE
330
72
100
AcDbEntity
  8
$DDT_AUDIT_GENERATED_(B2)
  6
Continuous
 62
     7
100
AcDbLine
 10
41.1128447083
 20
593.069739892
 30
0.0
 11
41.1128447083
 21
593.0120616767
 31
0.0
  0
LINE
  5
3CF
330
72
100
AcDbEntity
  8
$DDT_AUDIT_GENERATED_(B2)
  6
Continuous
 62
     7
100
AcDbLine
 10
41.1128447083
 20
593.0120616767
 30
0.0
 11
40.6798320064
 21
592.9815943408
 31
0.0
  0
LINE
  5
3D0
330
72
100
AcDbEntity
  8
$DDT_AUDIT_GENERATED_(B2)
  6
Continuous
 62
     7
100
AcDbLine
 10
40.6798320064
 20
593.0711690959
 30
0.0
 11
40.6798320064
 21
592.9815943408
 31
0.0
  0
LINE
  5
3D1
330
72
100
AcDbEntity
  8
$DDT_AUDIT_GENERATED_(B2)
  6
Continuous
 62
     7
100
AcDbLine
 10
41.7458574102
 20
593.0624744792
 30
0.0
 11
41.7458574102
 21
592.9815943408
 31
0.0
  0
LINE
  5
3D2
330
72
100
AcDbEntity
  8
$DDT_AUDIT_GENERATED_(B2)
  6
Continuous
 62
     7
100
AcDbLine
 10
41.3128447083
 20
593.0681121995
 30
0.0
 11
41.3128447083
 21
593.0120616767
 31
0.0
  0
LINE
  5
3D3
330
72
100
AcDbEntity
  8
$DDT_AUDIT_GENERATED_(B2)
  6
Continuous
 62
     7
100
AcDbLine
 10
41.3128447083
 20
593.0120616767
 30
0.0
 11
41.7458574102
 21
592.9815943408
 31
0.0
  0
LINE
  5
3D4
330
72
100
AcDbEntity
  8
$DDT_AUDIT_GENERATED_(B2)
  6
Continuous
 62
     7
100
AcDbLine
 10
41.7458574102
 20
592.9815943408
 30
0.0
 11
42.1788701121
 21
593.0120616767
 31
0.0
  0
LINE
  5
3D5
330
72
100
AcDbEntity
  8
$DDT_AUDIT_GENERATED_(B2)
  6
Continuous
 62
     7
100
AcDbLine
 10
42.1788701121
 20
593.0120616767
 30
0.0
 11
42.1788701121
 21
593.0539002554
 31
0.0
  0
LINE
  5
3D6
330
72
100
AcDbEntity
  8
$DDT_AUDIT_GENERATED_(B2)
  6
Continuous
 62
     7
100
AcDbLine
 10
42.2788701121
 20
592.9909532872
 30
0.0
 11
42.2788701121
 21
592.8690839438
 31
0.0
  0
LINE
  5
3D7
330
72
100
AcDbEntity
  8
$DDT_AUDIT_GENERATED_(B2)
  6
Continuous
 62
     7
100
AcDbLine
 10
41.8458574102
 20
592.9604859514
 30
0.0
 11
41.8458574102
 21
592.8995512797
 31
0.0
  0
LINE
  5
3D8
330
72
100
AcDbEntity
  8
$DDT_AUDIT_GENERATED_(B2)
  6
Continuous
 62
     7
100
AcDbLine
 10
41.8458574102
 20
592.8995512797
 30
0.0
 11
42.2788701121
 21
592.8690839438
 31
0.0
  0
LINE
  5
3D9
330
72
100
AcDbEntity
  8
$DDT_AUDIT_GENERATED_(B2)
  6
Continuous
 62
     7
100
AcDbLine
 10
42.2788701121
 20
592.8690839438
 30
0.0
 11
42.7118828139
 21
592.8995512797
 31
0.0
  0
LINE
  5
3DA
330
72
100
AcDbEntity
  8
$DDT_AUDIT_GENERATED_(B2)
  6
Continuous
 62
     7
100
AcDbLine
 10
42.7118828139
 20
592.8995512797
 30
0.0
 11
42.7118828139
 21
592.9604859514
 31
0.0
  0
LINE
  5
3DB
330
72
100
AcDbEntity
  8
$DDT_AUDIT_GENERATED_(B2)
  6
Continuous
 62
     7
100
AcDbLine
 10
42.7118828139
 20
592.9604859514
 30
0.0
 11
42.2788701121
 21
592.9909532872
 31
0.0
  0
LINE
  5
3DC
330
72
100
AcDbEntity
  8
$DDT_AUDIT_GENERATED_(B2)
  6
Continuous
 62
     7
100
AcDbLine
 10
42.2788701121
 20
592.9909532872
 30
0.0
 11
41.8458574102
 21
592.9604859514
 31
0.0
  0
LINE
  5
3DD
330
72
100
AcDbEntity
  8
$DDT_AUDIT_GENERATED_(B2)
  6
Continuous
 62
     7
100
AcDbLine
 10
42.8118828139
 20
592.8784428902
 30
0.0
 11
42.8118828139
 21
592.7565735468
 31
0.0
  0
LINE
  5
3DE
330
72
100
AcDbEntity
  8
$DDT_AUDIT_GENERATED_(B2)
  6
Continuous
 62
     7
100
AcDbLine
 10
42.3788701121
 20
592.8479755544
 30
0.0
 11
42.3788701121
 21
592.7870408827
 31
0.0
  0
LINE
  5
3DF
330
72
100
AcDbEntity
  8
$DDT_AUDIT_GENERATED_(B2)
  6
Continuous
 62
     7
100
AcDbLine
 10
42.3788701121
 20
592.7870408827
 30
0.0
 11
42.8118828139
 21
592.7565735468
 31
0.0
  0
LINE
  5
3E0
330
72
100
AcDbEntity
  8
$DDT_AUDIT_GENERATED_(B2)
  6
Continuous
 62
     7
100
AcDbLine
 10
42.8118828139
 20
592.7565735468
 30
0.0
 11
43.2448955158
 21
592.7870408827
 31
0.0
  0
LINE
  5
3E1
330
72
100
AcDbEntity
  8
$DDT_AUDIT_GENERATED_(B2)
  6
Continuous
 62
     7
100
AcDbLine
 10
43.2448955158
 20
592.7870408827
 30
0.0
 11
43.2448955158
 21
592.8479755544
 31
0.0
  0
LINE
  5
3E2
330
72
100
AcDbEntity
  8
$DDT_AUDIT_GENERATED_(B2)
  6
Continuous
 62
     7
100
AcDbLine
 10
43.2448955158
 20
592.8479755544
 30
0.0
 11
42.8118828139
 21
592.8784428902
 31
0.0
  0
LINE
  5
3E3
330
72
100
AcDbEntity
  8
$DDT_AUDIT_GENERATED_(B2)
  6
Continuous
 62
     7
100
AcDbLine
 10
42.8118828139
 20
592.8784428902
 30
0.0
 11
42.3788701121
 21
592.8479755544
 31
0.0
  0
LINE
  5
3E4
330
72
100
AcDbEntity
  8
$DDT_AUDIT_GENERATED_(B2)
  6
Continuous
 62
     7
100
AcDbLine
 10
43.3448955158
 20
592.7659324932
 30
0.0
 11
43.3448955158
 21
592.6440631498
 31
0.0
  0
LINE
  5
3E5
330
72
100
AcDbEntity
  8
$DDT_AUDIT_GENERATED_(B2)
  6
Continuous
 62
     7
100
AcDbLine
 10
42.9118828139
 20
592.7354651573
 30
0.0
 11
42.9118828139
 21
592.6745304856
 31
0.0
  0
LINE
  5
3E6
330
72
100
AcDbEntity
  8
$DDT_AUDIT_GENERATED_(B2)
  6
Continuous
 62
     7
100
AcDbLine
 10
42.9118828139
 20
592.6745304856
 30
0.0
 11
43.3448955158
 21
592.6440631498
 31
0.0
  0
LINE
  5
3E7
330
72
100
AcDbEntity
  8
$DDT_AUDIT_GENERATED_(B2)
  6
Continuous
 62
     7
100
AcDbLine
 10
43.3448955158
 20
592.6440631498
 30
0.0
 11
43.7779082177
 21
592.6745304856
 31
0.0
  0
LINE
  5
3E8
330
72
100
AcDbEntity
  8
$DDT_AUDIT_GENERATED_(B2)
  6
Continuous
 62
     7
100
AcDbLine
 10
43.7779082177
 20
592.6745304856
 30
0.0
 11
43.7779082177
 21
592.7354651573
 31
0.0
  0
LINE
  5
3E9
330
72
100
AcDbEntity
  8
$DDT_AUDIT_GENERATED_(B2)
  6
Continuous
 62
     7
100
AcDbLine
 10
43.7779082177
 20
592.7354651573
 30
0.0
 11
43.3448955158
 21
592.7659324932
 31
0.0
  0
LINE
  5
3EA
330
72
100
AcDbEntity
  8
$DDT_AUDIT_GENERATED_(B2)
  6
Continuous
 62
     7
100
AcDbLine
 10
43.3448955158
 20
592.7659324932
 30
0.0
 11
42.9118828139
 21
592.7354651573
 31
0.0
  0
LINE
  5
3EB
330
72
100
AcDbEntity
  8
$DDT_AUDIT_GENERATED_(B2)
  6
Continuous
 62
     7
100
AcDbLine
 10
42.8118828139
 20
592.6534220962
 30
0.0
 11
42.3788701121
 21
592.6229547603
 31
0.0
  0
LINE
  5
3EC
330
72
100
AcDbEntity
  8
$DDT_AUDIT_GENERATED_(B2)
  6
Continuous
 62
     7
100
AcDbLine
 10
43.2448955158
 20
592.6229547603
 30
0.0
 11
42.8118828139
 21
592.6534220962
 31
0.0
  0
LINE
  5
3ED
330
72
100
AcDbEntity
  8
$DDT_AUDIT_GENERATED_(B2)
  6
Continuous
 62
     7
100
AcDbLine
 10
44.3109209196
 20
592.6229547603
 30
0.0
 11
43.8779082177
 21
592.6534220962
 31
0.0
  0
LINE
  5
3EE
330
72
100
AcDbEntity
  8
$DDT_AUDIT_GENERATED_(B2)
  6
Continuous
 62
     7
100
AcDbLine
 10
43.8779082177
 20
592.6534220962
 30
0.0
 11
43.4448955158
 21
592.6229547603
 31
0.0
  0
LINE
  5
3EF
330
72
100
AcDbEntity
  8
$DDT_AUDIT_GENERATED_(B2)
  6
Continuous
 62
     7
100
AcDbLine
 10
45.3769463233
 20
592.6229547603
 30
0.0
 11
44.9439336215
 21
592.6534220962
 31
0.0
  0
LINE
  5
3F0
330
72
100
AcDbEntity
  8
$DDT_AUDIT_GENERATED_(B2)
  6
Continuous
 62
     7
100
AcDbLine
 10
44.9439336215
 20
592.6534220962
 30
0.0
 11
44.5109209196
 21
592.6229547603
 31
0.0
  0
LINE
  5
3F1
330
72
100
AcDbEntity
  8
$DDT_AUDIT_GENERATED_(B2)
  6
Continuous
 62
     7
100
AcDbLine
 10
44.4109209196
 20
592.7659324932
 30
0.0
 11
44.4109209196
 21
592.6440631498
 31
0.0
  0
LINE
  5
3F2
330
72
100
AcDbEntity
  8
$DDT_AUDIT_GENERATED_(B2)
  6
Continuous
 62
     7
100
AcDbLine
 10
44.4109209196
 20
592.6440631498
 30
0.0
 11
44.8439336215
 21
592.6745304856
 31
0.0
  0
LINE
  5
3F3
330
72
100
AcDbEntity
  8
$DDT_AUDIT_GENERATED_(B2)
  6
Continuous
 62
     7
100
AcDbLine
 10
44.8439336215
 20
592.6745304856
 30
0.0
 11
44.8439336215
 21
592.7354651573
 31
0.0
  0
LINE
  5
3F4
330
72
100
AcDbEntity
  8
$DDT_AUDIT_GENERATED_(B2)
  6
Continuous
 62
     7
100
AcDbLine
 10
44.8439336215
 20
592.7354651573
 30
0.0
 11
44.4109209196
 21
592.7659324932
 31
0.0
  0
LINE
  5
3F5
330
72
100
AcDbEntity
  8
$DDT_AUDIT_GENERATED_(B2)
  6
Continuous
 62
     7
100
AcDbLine
 10
44.4109209196
 20
592.7659324932
 30
0.0
 11
43.9779082177
 21
592.7354651573
 31
0.0
  0
LINE
  5
3F6
330
72
100
AcDbEntity
  8
$DDT_AUDIT_GENERATED_(B2)
  6
Continuous
 62
     7
100
AcDbLine
 10
43.9779082177
 20
592.7354651573
 30
0.0
 11
43.9779082177
 21
592.6745304856
 31
0.0
  0
LINE
  5
3F7
330
72
100
AcDbEntity
  8
$DDT_AUDIT_GENERATED_(B2)
  6
Continuous
 62
     7
100
AcDbLine
 10
43.9779082177
 20
592.6745304856
 30
0.0
 11
44.4109209196
 21
592.6440631498
 31
0.0
  0
LINE
  5
3F8
330
72
100
AcDbEntity
  8
$DDT_AUDIT_GENERATED_(B2)
  6
Continuous
 62
     7
100
AcDbLine
 10
43.8779082177
 20
592.8784428902
 30
0.0
 11
43.8779082177
 21
592.7565735468
 31
0.0
  0
LINE
  5
3F9
330
72
100
AcDbEntity
  8
$DDT_AUDIT_GENERATED_(B2)
  6
Continuous
 62
     7
100
AcDbLine
 10
43.8779082177
 20
592.7565735468
 30
0.0
 11
44.3109209196
 21
592.7870408827
 31
0.0
  0
LINE
  5
3FA
330
72
100
AcDbEntity
  8
$DDT_AUDIT_GENERATED_(B2)
  6
Continuous
 62
     7
100
AcDbLine
 10
44.3109209196
 20
592.7870408827
 30
0.0
 11
44.3109209196
 21
592.8479755544
 31
0.0
  0
LINE
  5
3FB
330
72
100
AcDbEntity
  8
$DDT_AUDIT_GENERATED_(B2)
  6
Continuous
 62
     7
100
AcDbLine
 10
44.3109209196
 20
592.8479755544
 30
0.0
 11
43.8779082177
 21
592.8784428902
 31
0.0
  0
LINE
  5
3FC
330
72
100
AcDbEntity
  8
$DDT_AUDIT_GENERATED_(B2)
  6
Continuous
 62
     7
100
AcDbLine
 10
43.8779082177
 20
592.8784428902
 30
0.0
 11
43.4448955158
 21
592.8479755544
 31
0.0
  0
LINE
  5
3FD
330
72
100
AcDbEntity
  8
$DDT_AUDIT_GENERATED_(B2)
  6
Continuous
 62
     7
100
AcDbLine
 10
43.4448955158
 20
592.8479755544
 30
0.0
 11
43.4448955158
 21
592.7870408827
 31
0.0
  0
LINE
  5
3FE
330
72
100
AcDbEntity
  8
$DDT_AUDIT_GENERATED_(B2)
  6
Continuous
 62
     7
100
AcDbLine
 10
43.4448955158
 20
592.7870408827
 30
0.0
 11
43.8779082177
 21
592.7565735468
 31
0.0
  0
LINE
  5
3FF
330
72
100
AcDbEntity
  8
$DDT_AUDIT_GENERATED_(B2)
  6
Continuous
 62
     7
100
AcDbLine
 10
43.3448955158
 20
592.9909532872
 30
0.0
 11
43.3448955158
 21
592.8690839438
 31
0.0
  0
LINE
  5
400
330
72
100
AcDbEntity
  8
$DDT_AUDIT_GENERATED_(B2)
  6
Continuous
 62
     7
100
AcDbLine
 10
43.3448955158
 20
592.8690839438
 30
0.0
 11
43.7779082177
 21
592.8995512797
 31
0.0
  0
LINE
  5
401
330
72
100
AcDbEntity
  8
$DDT_AUDIT_GENERATED_(B2)
  6
Continuous
 62
     7
100
AcDbLine
 10
43.7779082177
 20
592.8995512797
 30
0.0
 11
43.7779082177
 21
592.9604859514
 31
0.0
  0
LINE
  5
402
330
72
100
AcDbEntity
  8
$DDT_AUDIT_GENERATED_(B2)
  6
Continuous
 62
     7
100
AcDbLine
 10
43.7779082177
 20
592.9604859514
 30
0.0
 11
43.3448955158
 21
592.9909532872
 31
0.0
  0
LINE
  5
403
330
72
100
AcDbEntity
  8
$DDT_AUDIT_GENERATED_(B2)
  6
Continuous
 62
     7
100
AcDbLine
 10
43.3448955158
 20
592.9909532872
 30
0.0
 11
42.9118828139
 21
592.9604859514
 31
0.0
  0
LINE
  5
404
330
72
100
AcDbEntity
  8
$DDT_AUDIT_GENERATED_(B2)
  6
Continuous
 62
     7
100
AcDbLine
 10
42.9118828139
 20
592.9604859514
 30
0.0
 11
42.9118828139
 21
592.8995512797
 31
0.0
  0
LINE
  5
405
330
72
100
AcDbEntity
  8
$DDT_AUDIT_GENERATED_(B2)
  6
Continuous
 62
     7
100
AcDbLine
 10
42.9118828139
 20
592.8995512797
 30
0.0
 11
43.3448955158
 21
592.8690839438
 31
0.0
  0
LINE
  5
406
330
72
100
AcDbEntity
  8
$DDT_AUDIT_GENERATED_(B2)
  6
Continuous
 62
     7
100
AcDbLine
 10
42.8118828139
 20
593.0359080659
 30
0.0
 11
42.8118828139
 21
592.9815943408
 31
0.0
  0
LINE
  5
407
330
72
100
AcDbEntity
  8
$DDT_AUDIT_GENERATED_(B2)
  6
Continuous
 62
     7
100
AcDbLine
 10
42.8118828139
 20
592.9815943408
 30
0.0
 11
43.2448955158
 21
593.0120616767
 31
0.0
  0
LINE
  5
408
330
72
100
AcDbEntity
  8
$DDT_AUDIT_GENERATED_(B2)
  6
Continuous
 62
     7
100
AcDbLine
 10
43.2448955158
 20
593.0120616767
 30
0.0
 11
43.2448955158
 21
593.0196949224
 31
0.0
  0
LINE
  5
409
330
72
100
AcDbEntity
  8
$DDT_AUDIT_GENERATED_(B2)
  6
Continuous
 62
     7
100
AcDbLine
 10
42.3788701121
 20
593.0489276544
 30
0.0
 11
42.3788701121
 21
593.0120616767
 31
0.0
  0
LINE
  5
40A
330
72
100
AcDbEntity
  8
$DDT_AUDIT_GENERATED_(B2)
  6
Continuous
 62
     7
100
AcDbLine
 10
42.3788701121
 20
593.0120616767
 30
0.0
 11
42.8118828139
 21
592.9815943408
 31
0.0
  0
LINE
  5
40B
330
72
100
AcDbEntity
  8
$DDT_AUDIT_GENERATED_(B2)
  6
Continuous
 62
     7
100
AcDbLine
 10
43.8779082177
 20
592.9898774205
 30
0.0
 11
43.8779082177
 21
592.9815943408
 31
0.0
  0
LINE
  5
40C
330
72
100
AcDbEntity
  8
$DDT_AUDIT_GENERATED_(B2)
  6
Continuous
 62
     7
100
AcDbLine
 10
43.4838895716
 20
593.0093180043
 30
0.0
 11
43.8779082177
 21
592.9815943408
 31
0.0
  0
LINE
  5
40D
330
72
100
AcDbEntity
  8
$DDT_AUDIT_GENERATED_(B2)
  6
Continuous
 62
     7
100
AcDbLine
 10
43.8779082177
 20
592.9815943408
 30
0.0
 11
43.9446137742
 21
592.9862878304
 31
0.0
  0
LINE
  5
40E
330
72
100
AcDbEntity
  8
$DDT_AUDIT_GENERATED_(B2)
  6
Continuous
 62
     7
100
AcDbLine
 10
44.4109209196
 20
592.9586410402
 30
0.0
 11
44.4109209196
 21
592.8690839438
 31
0.0
  0
LINE
  5
40F
330
72
100
AcDbEntity
  8
$DDT_AUDIT_GENERATED_(B2)
  6
Continuous
 62
     7
100
AcDbLine
 10
44.1660728143
 20
592.9737254567
 30
0.0
 11
43.9779082177
 21
592.9604859514
 31
0.0
  0
LINE
  5
410
330
72
100
AcDbEntity
  8
$DDT_AUDIT_GENERATED_(B2)
  6
Continuous
 62
     7
100
AcDbLine
 10
43.9779082177
 20
592.9604859514
 30
0.0
 11
43.9779082177
 21
592.8995512797
 31
0.0
  0
LINE
  5
411
330
72
100
AcDbEntity
  8
$DDT_AUDIT_GENERATED_(B2)
  6
Continuous
 62
     7
100
AcDbLine
 10
43.9779082177
 20
592.8995512797
 30
0.0
 11
44.4109209196
 21
592.8690839438
 31
0.0
  0
LINE
  5
412
330
72
100
AcDbEntity
  8
$DDT_AUDIT_GENERATED_(B2)
  6
Continuous
 62
     7
100
AcDbLine
 10
44.4109209196
 20
592.8690839438
 30
0.0
 11
44.8439336215
 21
592.8995512797
 31
0.0
  0
LINE
  5
413
330
72
100
AcDbEntity
  8
$DDT_AUDIT_GENERATED_(B2)
  6
Continuous
 62
     7
100
AcDbLine
 10
44.8439336215
 20
592.8995512797
 30
0.0
 11
44.8439336215
 21
592.9286832874
 31
0.0
  0
LINE
  5
414
330
72
100
AcDbEntity
  8
$DDT_AUDIT_GENERATED_(B2)
  6
Continuous
 62
     7
100
AcDbLine
 10
44.9439336215
 20
592.8784428902
 30
0.0
 11
44.9439336215
 21
592.7565735468
 31
0.0
  0
LINE
  5
415
330
72
100
AcDbEntity
  8
$DDT_AUDIT_GENERATED_(B2)
  6
Continuous
 62
     7
100
AcDbLine
 10
44.5109209196
 20
592.8479755544
 30
0.0
 11
44.5109209196
 21
592.7870408827
 31
0.0
  0
LINE
  5
416
330
72
100
AcDbEntity
  8
$DDT_AUDIT_GENERATED_(B2)
  6
Continuous
 62
     7
100
AcDbLine
 10
44.5109209196
 20
592.7870408827
 30
0.0
 11
44.9439336215
 21
592.7565735468
 31
0.0
  0
LINE
  5
417
330
72
100
AcDbEntity
  8
$DDT_AUDIT_GENERATED_(B2)
  6
Continuous
 62
     7
100
AcDbLine
 10
44.9439336215
 20
592.7565735468
 30
0.0
 11
45.3769463233
 21
592.7870408827
 31
0.0
  0
LINE
  5
418
330
72
100
AcDbEntity
  8
$DDT_AUDIT_GENERATED_(B2)
  6
Continuous
 62
     7
100
AcDbLine
 10
45.3769463233
 20
592.7870408827
 30
0.0
 11
45.3769463233
 21
592.8479755544
 31
0.0
  0
LINE
  5
419
330
72
100
AcDbEntity
  8
$DDT_AUDIT_GENERATED_(B2)
  6
Continuous
 62
     7
100
AcDbLine
 10
45.3769463233
 20
592.8479755544
 30
0.0
 11
44.9439336215
 21
592.8784428902
 31
0.0
  0
LINE
  5
41A
330
72
100
AcDbEntity
  8
$DDT_AUDIT_GENERATED_(B2)
  6
Continuous
 62
     7
100
AcDbLine
 10
44.9439336215
 20
592.8784428902
 30
0.0
 11
44.5109209196
 21
592.8479755544
 31
0.0
  0
LINE
  5
41B
330
72
100
AcDbEntity
  8
$DDT_AUDIT_GENERATED_(B2)
  6
Continuous
 62
     7
100
AcDbLine
 10
45.4769463233
 20
592.7659324932
 30
0.0
 11
45.4769463233
 21
592.6440631498
 31
0.0
  0
LINE
  5
41C
330
72
100
AcDbEntity
  8
$DDT_AUDIT_GENERATED_(B2)
  6
Continuous
 62
     7
100
AcDbLine
 10
45.4769463233
 20
592.7659324932
 30
0.0
 11
45.0439336215
 21
592.7354651573
 31
0.0
  0
LINE
  5
41D
330
72
100
AcDbEntity
  8
$DDT_AUDIT_GENERATED_(B2)
  6
Continuous
 62
     7
100
AcDbLine
 10
45.0439336215
 20
592.7354651573
 30
0.0
 11
45.0439336215
 21
592.6745304856
 31
0.0
  0
LINE
  5
41E
330
72
100
AcDbEntity
  8
$DDT_AUDIT_GENERATED_(B2)
  6
Continuous
 62
     7
100
AcDbLine
 10
45.0439336215
 20
592.6745304856
 30
0.0
 11
45.4769463233
 21
592.6440631498
 31
0.0
  0
LINE
  5
41F
330
72
100
AcDbEntity
  8
$DDT_AUDIT_GENERATED_(B2)
  6
Continuous
 62
     7
100
AcDbLine
 10
45.4769463233
 20
592.6440631498
 30
0.0
 11
45.9099590252
 21
592.6745304856
 31
0.0
  0
LINE
  5
420
330
72
100
AcDbEntity
  8
$DDT_AUDIT_GENERATED_(B2)
  6
Continuous
 62
     7
100
AcDbLine
 10
45.9099590252
 20
592.6745304856
 30
0.0
 11
45.9099590252
 21
592.7354651573
 31
0.0
  0
LINE
  5
421
330
72
100
AcDbEntity
  8
$DDT_AUDIT_GENERATED_(B2)
  6
Continuous
 62
     7
100
AcDbLine
 10
45.9099590252
 20
592.7354651573
 30
0.0
 11
45.4769463233
 21
592.7659324932
 31
0.0
  0
LINE
  5
422
330
72
100
AcDbEntity
  8
$DDT_AUDIT_GENERATED_(B2)
  6
Continuous
 62
     7
100
AcDbLine
 10
46.4429717271
 20
592.6229547603
 30
0.0
 11
46.0099590252
 21
592.6534220962
 31
0.0
  0
LINE
  5
423
330
72
100
AcDbEntity
  8
$DDT_AUDIT_GENERATED_(B2)
  6
Continuous
 62
     7
100
AcDbLine
 10
46.0099590252
 20
592.6534220962
 30
0.0
 11
45.5769463233
 21
592.6229547603
 31
0.0
  0
LINE
  5
424
330
72
100
AcDbEntity
  8
$DDT_AUDIT_GENERATED_(B2)
  6
Continuous
 62
     7
100
AcDbLine
 10
47.3494234341
 20
592.634603125
 30
0.0
 11
47.075984429
 21
592.6538426484
 31
0.0
  0
LINE
  5
425
330
72
100
AcDbEntity
  8
$DDT_AUDIT_GENERATED_(B2)
  6
Continuous
 62
     7
100
AcDbLine
 10
47.075984429
 20
592.6538426484
 30
0.0
 11
46.6429717271
 21
592.6233753125
 31
0.0
  0
LINE
  5
426
330
72
100
AcDbEntity
  8
$DDT_AUDIT_GENERATED_(B2)
  6
Continuous
 62
     7
100
AcDbLine
 10
46.5429717271
 20
592.7595194458
 30
0.0
 11
46.5429717271
 21
592.6440631498
 31
0.0
  0
LINE
  5
427
330
72
100
AcDbEntity
  8
$DDT_AUDIT_GENERATED_(B2)
  6
Continuous
 62
     7
100
AcDbLine
 10
46.1099590252
 20
592.6745304856
 30
0.0
 11
46.5429717271
 21
592.6440631498
 31
0.0
  0
LINE
  5
428
330
72
100
AcDbEntity
  8
$DDT_AUDIT_GENERATED_(B2)
  6
Continuous
 62
     7
100
AcDbLine
 10
46.5429717271
 20
592.6440631498
 30
0.0
 11
46.975984429
 21
592.6745304856
 31
0.0
  0
LINE
  5
429
330
72
100
AcDbEntity
  8
$DDT_AUDIT_GENERATED_(B2)
  6
Continuous
 62
     7
100
AcDbLine
 10
46.975984429
 20
592.6745304856
 30
0.0
 11
46.975984429
 21
592.6976919052
 31
0.0
  0
LINE
  5
42A
330
72
100
AcDbEntity
  8
$DDT_AUDIT_GENERATED_(B2)
  6
Continuous
 62
     7
100
AcDbLine
 10
46.5110463463
 20
592.763686182
 30
0.0
 11
46.1099590252
 21
592.7354651573
 31
0.0
  0
LINE
  5
42B
330
72
100
AcDbEntity
  8
$DDT_AUDIT_GENERATED_(B2)
  6
Continuous
 62
     7
100
AcDbLine
 10
46.1099590252
 20
592.7354651573
 30
0.0
 11
46.1099590252
 21
592.6745304856
 31
0.0
  0
LINE
  5
42C
330
72
100
AcDbEntity
  8
$DDT_AUDIT_GENERATED_(B2)
  6
Continuous
 62
     7
100
AcDbLine
 10
46.0099590252
 20
592.8232520216
 30
0.0
 11
46.0099590252
 21
592.7565735468
 31
0.0
  0
LINE
  5
42D
330
72
100
AcDbEntity
  8
$DDT_AUDIT_GENERATED_(B2)
  6
Continuous
 62
     7
100
AcDbLine
 10
46.0099590252
 20
592.7565735468
 30
0.0
 11
46.3680426627
 21
592.7817687764
 31
0.0
  0
LINE
  5
42E
330
72
100
AcDbEntity
  8
$DDT_AUDIT_GENERATED_(B2)
  6
Continuous
 62
     7
100
AcDbLine
 10
45.6921641134
 20
592.8560824276
 30
0.0
 11
45.5769463233
 21
592.8479755544
 31
0.0
  0
LINE
  5
42F
330
72
100
AcDbEntity
  8
$DDT_AUDIT_GENERATED_(B2)
  6
Continuous
 62
     7
100
AcDbLine
 10
45.5769463233
 20
592.8479755544
 30
0.0
 11
45.5769463233
 21
592.7870408827
 31
0.0
  0
LINE
  5
430
330
72
100
AcDbEntity
  8
$DDT_AUDIT_GENERATED_(B2)
  6
Continuous
 62
     7
100
AcDbLine
 10
45.5769463233
 20
592.7870408827
 30
0.0
 11
46.0099590252
 21
592.7565735468
 31
0.0
  0
LINE
  5
431
330
72
100
AcDbEntity
  8
$DDT_AUDIT_GENERATED_(B2)
  6
Continuous
 62
     7
100
AcDbLine
 10
40.1468193045
 20
592.9909532872
 30
0.0
 11
40.1468193045
 21
592.8690839438
 31
0.0
  0
LINE
  5
432
330
72
100
AcDbEntity
  8
$DDT_AUDIT_GENERATED_(B2)
  6
Continuous
 62
     7
100
AcDbLine
 10
39.7138066026
 20
592.8995512797
 30
0.0
 11
40.1468193045
 21
592.8690839438
 31
0.0
  0
LINE
  5
433
330
72
100
AcDbEntity
  8
$DDT_AUDIT_GENERATED_(B2)
  6
Continuous
 62
     7
100
AcDbLine
 10
40.1468193045
 20
592.8690839438
 30
0.0
 11
40.5798320064
 21
592.8995512797
 31
0.0
  0
LINE
  5
434
330
72
100
AcDbEntity
  8
$DDT_AUDIT_GENERATED_(B2)
  6
Continuous
 62
     7
100
AcDbLine
 10
40.5798320064
 20
592.8995512797
 30
0.0
 11
40.5798320064
 21
592.9604859514
 31
0.0
  0
LINE
  5
435
330
72
100
AcDbEntity
  8
$DDT_AUDIT_GENERATED_(B2)
  6
Continuous
 62
     7
100
AcDbLine
 10
40.5798320064
 20
592.9604859514
 30
0.0
 11
40.1468193045
 21
592.9909532872
 31
0.0
  0
LINE
  5
436
330
72
100
AcDbEntity
  8
$DDT_AUDIT_GENERATED_(B2)
  6
Continuous
 62
     7
100
AcDbLine
 10
40.1468193045
 20
592.9909532872
 30
0.0
 11
39.7138066026
 21
592.9604859514
 31
0.0
  0
LINE
  5
437
330
72
100
AcDbEntity
  8
$DDT_AUDIT_GENERATED_(B2)
  6
Continuous
 62
     7
100
AcDbLine
 10
39.7138066026
 20
592.9604859514
 30
0.0
 11
39.7138066026
 21
592.8995512797
 31
0.0
  0
LINE
  5
438
330
72
100
AcDbEntity
  8
$DDT_AUDIT_GENERATED_(B2)
  6
Continuous
 62
     7
100
AcDbLine
 10
40.6798320064
 20
592.8784428902
 30
0.0
 11
40.2468193045
 21
592.8479755544
 31
0.0
  0
LINE
  5
439
330
72
100
AcDbEntity
  8
$DDT_AUDIT_GENERATED_(B2)
  6
Continuous
 62
     7
100
AcDbLine
 10
40.2468193045
 20
592.8479755544
 30
0.0
 11
40.2468193045
 21
592.7870408827
 31
0.0
  0
LINE
  5
43A
330
72
100
AcDbEntity
  8
$DDT_AUDIT_GENERATED_(B2)
  6
Continuous
 62
     7
100
AcDbLine
 10
40.2468193045
 20
592.7870408827
 30
0.0
 11
40.6798320064
 21
592.7565735468
 31
0.0
  0
LINE
  5
43B
330
72
100
AcDbEntity
  8
$DDT_AUDIT_GENERATED_(B2)
  6
Continuous
 62
     7
100
AcDbLine
 10
40.1468193045
 20
592.7659324932
 30
0.0
 11
40.1468193045
 21
592.6440631498
 31
0.0
  0
LINE
  5
43C
330
72
100
AcDbEntity
  8
$DDT_AUDIT_GENERATED_(B2)
  6
Continuous
 62
     7
100
AcDbLine
 10
40.5798320064
 20
592.7354651573
 30
0.0
 11
40.1468193045
 21
592.7659324932
 31
0.0
  0
LINE
  5
43D
330
72
100
AcDbEntity
  8
$DDT_AUDIT_GENERATED_(B2)
  6
Continuous
 62
     7
100
AcDbLine
 10
40.1468193045
 20
592.7659324932
 30
0.0
 11
39.7138066026
 21
592.7354651573
 31
0.0
  0
LINE
  5
43E
330
72
100
AcDbEntity
  8
$DDT_AUDIT_GENERATED_(B2)
  6
Continuous
 62
     7
100
AcDbLine
 10
39.7138066026
 20
592.7354651573
 30
0.0
 11
39.7138066026
 21
592.6745304856
 31
0.0
  0
LINE
  5
43F
330
72
100
AcDbEntity
  8
$DDT_AUDIT_GENERATED_(B2)
  6
Continuous
 62
     7
100
AcDbLine
 10
39.7138066026
 20
592.6745304856
 30
0.0
 11
40.1468193045
 21
592.6440631498
 31
0.0
  0
LINE
  5
440
330
72
100
AcDbEntity
  8
$DDT_AUDIT_GENERATED_(B2)
  6
Continuous
 62
     7
100
AcDbLine
 10
40.1468193045
 20
592.6440631498
 30
0.0
 11
40.5798320064
 21
592.6745304856
 31
0.0
  0
LINE
  5
441
330
72
100
AcDbEntity
  8
$DDT_AUDIT_GENERATED_(B2)
  6
Continuous
 62
     7
100
AcDbLine
 10
40.5798320064
 20
592.6745304856
 30
0.0
 11
40.5798320064
 21
592.7354651573
 31
0.0
  0
LINE
  5
442
330
72
100
AcDbEntity
  8
$DDT_AUDIT_GENERATED_(B2)
  6
Continuous
 62
     7
100
AcDbLine
 10
39.6138066026
 20
592.8784428902
 30
0.0
 11
39.6138066026
 21
592.7565735468
 31
0.0
  0
LINE
  5
443
330
72
100
AcDbEntity
  8
$DDT_AUDIT_GENERATED_(B2)
  6
Continuous
 62
     7
100
AcDbLine
 10
39.1807939008
 20
592.7870408827
 30
0.0
 11
39.6138066026
 21
592.7565735468
 31
0.0
  0
LINE
  5
444
330
72
100
AcDbEntity
  8
$DDT_AUDIT_GENERATED_(B2)
  6
Continuous
 62
     7
100
AcDbLine
 10
39.6138066026
 20
592.7565735468
 30
0.0
 11
40.0468193045
 21
592.7870408827
 31
0.0
  0
LINE
  5
445
330
72
100
AcDbEntity
  8
$DDT_AUDIT_GENERATED_(B2)
  6
Continuous
 62
     7
100
AcDbLine
 10
40.0468193045
 20
592.7870408827
 30
0.0
 11
40.0468193045
 21
592.8479755544
 31
0.0
  0
LINE
  5
446
330
72
100
AcDbEntity
  8
$DDT_AUDIT_GENERATED_(B2)
  6
Continuous
 62
     7
100
AcDbLine
 10
40.0468193045
 20
592.8479755544
 30
0.0
 11
39.6138066026
 21
592.8784428902
 31
0.0
  0
LINE
  5
447
330
72
100
AcDbEntity
  8
$DDT_AUDIT_GENERATED_(B2)
  6
Continuous
 62
     7
100
AcDbLine
 10
39.6138066026
 20
592.8784428902
 30
0.0
 11
39.1807939008
 21
592.8479755544
 31
0.0
  0
LINE
  5
448
330
72
100
AcDbEntity
  8
$DDT_AUDIT_GENERATED_(B2)
  6
Continuous
 62
     7
100
AcDbLine
 10
39.1807939008
 20
592.8479755544
 30
0.0
 11
39.1807939008
 21
592.7870408827
 31
0.0
  0
LINE
  5
449
330
72
100
AcDbEntity
  8
$DDT_AUDIT_GENERATED_(B2)
  6
Continuous
 62
     7
100
AcDbLine
 10
39.0807939008
 20
592.7659324932
 30
0.0
 11
39.0807939008
 21
592.6440631498
 31
0.0
  0
LINE
  5
44A
330
72
100
AcDbEntity
  8
$DDT_AUDIT_GENERATED_(B2)
  6
Continuous
 62
     7
100
AcDbLine
 10
39.5138066026
 20
592.6745304856
 30
0.0
 11
39.5138066026
 21
592.7354651573
 31
0.0
  0
LINE
  5
44B
330
72
100
AcDbEntity
  8
$DDT_AUDIT_GENERATED_(B2)
  6
Continuous
 62
     7
100
AcDbLine
 10
39.5138066026
 20
592.7354651573
 30
0.0
 11
39.0807939008
 21
592.7659324932
 31
0.0
  0
LINE
  5
44C
330
72
100
AcDbEntity
  8
$DDT_AUDIT_GENERATED_(B2)
  6
Continuous
 62
     7
100
AcDbLine
 10
39.0807939008
 20
592.7659324932
 30
0.0
 11
38.6477811989
 21
592.7354651573
 31
0.0
  0
LINE
  5
44D
330
72
100
AcDbEntity
  8
$DDT_AUDIT_GENERATED_(B2)
  6
Continuous
 62
     7
100
AcDbLine
 10
38.6477811989
 20
592.7354651573
 30
0.0
 11
38.6477811989
 21
592.6745304856
 31
0.0
  0
LINE
  5
44E
330
72
100
AcDbEntity
  8
$DDT_AUDIT_GENERATED_(B2)
  6
Continuous
 62
     7
100
AcDbLine
 10
38.6477811989
 20
592.6745304856
 30
0.0
 11
39.0807939008
 21
592.6440631498
 31
0.0
  0
LINE
  5
44F
330
72
100
AcDbEntity
  8
$DDT_AUDIT_GENERATED_(B2)
  6
Continuous
 62
     7
100
AcDbLine
 10
39.0807939008
 20
592.6440631498
 30
0.0
 11
39.5138066026
 21
592.6745304856
 31
0.0
  0
LINE
  5
450
330
72
100
AcDbEntity
  8
$DDT_AUDIT_GENERATED_(B2)
  6
Continuous
 62
     7
100
AcDbLine
 10
40.0468193045
 20
592.6229547603
 30
0.0
 11
39.6138066026
 21
592.6534220962
 31
0.0
  0
LINE
  5
451
330
72
100
AcDbEntity
  8
$DDT_AUDIT_GENERATED_(B2)
  6
Continuous
 62
     7
100
AcDbLine
 10
39.6138066026
 20
592.6534220962
 30
0.0
 11
39.1807939008
 21
592.6229547603
 31
0.0
  0
LINE
  5
452
330
72
100
AcDbEntity
  8
$DDT_AUDIT_GENERATED_(B2)
  6
Continuous
 62
     7
100
AcDbLine
 10
40.2468193045
 20
593.0120616767
 30
0.0
 11
40.2468193045
 21
593.069739892
 31
0.0
  0
LINE
  5
453
330
72
100
AcDbEntity
  8
$DDT_AUDIT_GENERATED_(B2)
  6
Continuous
 62
     7
100
AcDbLine
 10
40.6798320064
 20
592.9815943408
 30
0.0
 11
40.2468193045
 21
593.0120616767
 31
0.0
  0
LINE
  5
454
330
72
100
AcDbEntity
  8
$DDT_AUDIT_GENERATED_(B2)
  6
Continuous
 62
     7
100
AcDbLine
 10
39.6138066026
 20
593.0624744792
 30
0.0
 11
39.6138066026
 21
592.9815943408
 31
0.0
  0
LINE
  5
455
330
72
100
AcDbEntity
  8
$DDT_AUDIT_GENERATED_(B2)
  6
Continuous
 62
     7
100
AcDbLine
 10
40.0468193045
 20
593.0120616767
 30
0.0
 11
40.0468193045
 21
593.0681121995
 31
0.0
  0
LINE
  5
456
330
72
100
AcDbEntity
  8
$DDT_AUDIT_GENERATED_(B2)
  6
Continuous
 62
     7
100
AcDbLine
 10
39.1807939008
 20
593.0539002554
 30
0.0
 11
39.1807939008
 21
593.0120616767
 31
0.0
  0
LINE
  5
457
330
72
100
AcDbEntity
  8
$DDT_AUDIT_GENERATED_(B2)
  6
Continuous
 62
     7
100
AcDbLine
 10
39.1807939008
 20
593.0120616767
 30
0.0
 11
39.6138066026
 21
592.9815943408
 31
0.0
  0
LINE
  5
458
330
72
100
AcDbEntity
  8
$DDT_AUDIT_GENERATED_(B2)
  6
Continuous
 62
     7
100
AcDbLine
 10
39.6138066026
 20
592.9815943408
 30
0.0
 11
40.0468193045
 21
593.0120616767
 31
0.0
  0
LINE
  5
459
330
72
100
AcDbEntity
  8
$DDT_AUDIT_GENERATED_(B2)
  6
Continuous
 62
     7
100
AcDbLine
 10
39.0807939008
 20
592.9909532872
 30
0.0
 11
39.0807939008
 21
592.8690839438
 31
0.0
  0
LINE
  5
45A
330
72
100
AcDbEntity
  8
$DDT_AUDIT_GENERATED_(B2)
  6
Continuous
 62
     7
100
AcDbLine
 10
39.0807939008
 20
592.8690839438
 30
0.0
 11
39.5138066026
 21
592.8995512797
 31
0.0
  0
LINE
  5
45B
330
72
100
AcDbEntity
  8
$DDT_AUDIT_GENERATED_(B2)
  6
Continuous
 62
     7
100
AcDbLine
 10
39.5138066026
 20
592.8995512797
 30
0.0
 11
39.5138066026
 21
592.9604859514
 31
0.0
  0
LINE
  5
45C
330
72
100
AcDbEntity
  8
$DDT_AUDIT_GENERATED_(B2)
  6
Continuous
 62
     7
100
AcDbLine
 10
39.5138066026
 20
592.9604859514
 30
0.0
 11
39.0807939008
 21
592.9909532872
 31
0.0
  0
LINE
  5
45D
330
72
100
AcDbEntity
  8
$DDT_AUDIT_GENERATED_(B2)
  6
Continuous
 62
     7
100
AcDbLine
 10
39.0807939008
 20
592.9909532872
 30
0.0
 11
38.6477811989
 21
592.9604859514
 31
0.0
  0
LINE
  5
45E
330
72
100
AcDbEntity
  8
$DDT_AUDIT_GENERATED_(B2)
  6
Continuous
 62
     7
100
AcDbLine
 10
38.6477811989
 20
592.9604859514
 30
0.0
 11
38.6477811989
 21
592.8995512797
 31
0.0
  0
LINE
  5
45F
330
72
100
AcDbEntity
  8
$DDT_AUDIT_GENERATED_(B2)
  6
Continuous
 62
     7
100
AcDbLine
 10
38.6477811989
 20
592.8995512797
 30
0.0
 11
39.0807939008
 21
592.8690839438
 31
0.0
  0
LINE
  5
460
330
72
100
AcDbEntity
  8
$DDT_AUDIT_GENERATED_(B2)
  6
Continuous
 62
     7
100
AcDbLine
 10
38.5477811989
 20
592.8784428902
 30
0.0
 11
38.5477811989
 21
592.7565735468
 31
0.0
  0
LINE
  5
461
330
72
100
AcDbEntity
  8
$DDT_AUDIT_GENERATED_(B2)
  6
Continuous
 62
     7
100
AcDbLine
 10
38.5477811989
 20
592.7565735468
 30
0.0
 11
38.9807939008
 21
592.7870408827
 31
0.0
  0
LINE
  5
462
330
72
100
AcDbEntity
  8
$DDT_AUDIT_GENERATED_(B2)
  6
Continuous
 62
     7
100
AcDbLine
 10
38.9807939008
 20
592.7870408827
 30
0.0
 11
38.9807939008
 21
592.8479755544
 31
0.0
  0
LINE
  5
463
330
72
100
AcDbEntity
  8
$DDT_AUDIT_GENERATED_(B2)
  6
Continuous
 62
     7
100
AcDbLine
 10
38.9807939008
 20
592.8479755544
 30
0.0
 11
38.5477811989
 21
592.8784428902
 31
0.0
  0
LINE
  5
464
330
72
100
AcDbEntity
  8
$DDT_AUDIT_GENERATED_(B2)
  6
Continuous
 62
     7
100
AcDbLine
 10
38.5477811989
 20
592.8784428902
 30
0.0
 11
38.114768497
 21
592.8479755544
 31
0.0
  0
LINE
  5
465
330
72
100
AcDbEntity
  8
$DDT_AUDIT_GENERATED_(B2)
  6
Continuous
 62
     7
100
AcDbLine
 10
38.114768497
 20
592.8479755544
 30
0.0
 11
38.114768497
 21
592.7870408827
 31
0.0
  0
LINE
  5
466
330
72
100
AcDbEntity
  8
$DDT_AUDIT_GENERATED_(B2)
  6
Continuous
 62
     7
100
AcDbLine
 10
38.114768497
 20
592.7870408827
 30
0.0
 11
38.5477811989
 21
592.7565735468
 31
0.0
  0
LINE
  5
467
330
72
100
AcDbEntity
  8
$DDT_AUDIT_GENERATED_(B2)
  6
Continuous
 62
     7
100
AcDbLine
 10
38.014768497
 20
592.7659324932
 30
0.0
 11
38.014768497
 21
592.6440631498
 31
0.0
  0
LINE
  5
468
330
72
100
AcDbEntity
  8
$DDT_AUDIT_GENERATED_(B2)
  6
Continuous
 62
     7
100
AcDbLine
 10
38.014768497
 20
592.6440631498
 30
0.0
 11
38.4477811989
 21
592.6745304856
 31
0.0
  0
LINE
  5
469
330
72
100
AcDbEntity
  8
$DDT_AUDIT_GENERATED_(B2)
  6
Continuous
 62
     7
100
AcDbLine
 10
38.4477811989
 20
592.6745304856
 30
0.0
 11
38.4477811989
 21
592.7354651573
 31
0.0
  0
LINE
  5
46A
330
72
100
AcDbEntity
  8
$DDT_AUDIT_GENERATED_(B2)
  6
Continuous
 62
     7
100
AcDbLine
 10
38.4477811989
 20
592.7354651573
 30
0.0
 11
38.014768497
 21
592.7659324932
 31
0.0
  0
LINE
  5
46B
330
72
100
AcDbEntity
  8
$DDT_AUDIT_GENERATED_(B2)
  6
Continuous
 62
     7
100
AcDbLine
 10
38.014768497
 20
592.7659324932
 30
0.0
 11
37.5817557951
 21
592.7354651573
 31
0.0
  0
LINE
  5
46C
330
72
100
AcDbEntity
  8
$DDT_AUDIT_GENERATED_(B2)
  6
Continuous
 62
     7
100
AcDbLine
 10
37.5817557951
 20
592.7354651573
 30
0.0
 11
37.5817557951
 21
592.6745304856
 31
0.0
  0
LINE
  5
46D
330
72
100
AcDbEntity
  8
$DDT_AUDIT_GENERATED_(B2)
  6
Continuous
 62
     7
100
AcDbLine
 10
37.5817557951
 20
592.6745304856
 30
0.0
 11
38.014768497
 21
592.6440631498
 31
0.0
  0
LINE
  5
46E
330
72
100
AcDbEntity
  8
$DDT_AUDIT_GENERATED_(B2)
  6
Continuous
 62
     7
100
AcDbLine
 10
38.9807939008
 20
592.6229547603
 30
0.0
 11
38.5477811989
 21
592.6534220962
 31
0.0
  0
LINE
  5
46F
330
72
100
AcDbEntity
  8
$DDT_AUDIT_GENERATED_(B2)
  6
Continuous
 62
     7
100
AcDbLine
 10
38.5477811989
 20
592.6534220962
 30
0.0
 11
38.114768497
 21
592.6229547603
 31
0.0
  0
LINE
  5
470
330
72
100
AcDbEntity
  8
$DDT_AUDIT_GENERATED_(B2)
  6
Continuous
 62
     7
100
AcDbLine
 10
37.914768497
 20
592.6229547603
 30
0.0
 11
37.4817557951
 21
592.6534220962
 31
0.0
  0
LINE
  5
471
330
72
100
AcDbEntity
  8
$DDT_AUDIT_GENERATED_(B2)
  6
Continuous
 62
     7
100
AcDbLine
 10
37.4817557951
 20
592.6534220962
 30
0.0
 11
37.0487430932
 21
592.6229547603
 31
0.0
  0
LINE
  5
472
330
72
100
AcDbEntity
  8
$DDT_AUDIT_GENERATED_(B2)
  6
Continuous
 62
     7
100
AcDbLine
 10
36.8487430932
 20
592.6229547603
 30
0.0
 11
36.4157303914
 21
592.6534220962
 31
0.0
  0
LINE
  5
473
330
72
100
AcDbEntity
  8
$DDT_AUDIT_GENERATED_(B2)
  6
Continuous
 62
     7
100
AcDbLine
 10
36.4157303914
 20
592.6534220962
 30
0.0
 11
35.9827176895
 21
592.6229547603
 31
0.0
  0
LINE
  5
474
330
72
100
AcDbEntity
  8
$DDT_AUDIT_GENERATED_(B2)
  6
Continuous
 62
     7
100
AcDbLine
 10
36.9487430932
 20
592.7659324932
 30
0.0
 11
36.9487430932
 21
592.6440631498
 31
0.0
  0
LINE
  5
475
330
72
100
AcDbEntity
  8
$DDT_AUDIT_GENERATED_(B2)
  6
Continuous
 62
     7
100
AcDbLine
 10
36.5157303914
 20
592.7354651573
 30
0.0
 11
36.5157303914
 21
592.6745304856
 31
0.0
  0
LINE
  5
476
330
72
100
AcDbEntity
  8
$DDT_AUDIT_GENERATED_(B2)
  6
Continuous
 62
     7
100
AcDbLine
 10
36.5157303914
 20
592.6745304856
 30
0.0
 11
36.9487430932
 21
592.6440631498
 31
0.0
  0
LINE
  5
477
330
72
100
AcDbEntity
  8
$DDT_AUDIT_GENERATED_(B2)
  6
Continuous
 62
     7
100
AcDbLine
 10
36.9487430932
 20
592.6440631498
 30
0.0
 11
37.3817557951
 21
592.6745304856
 31
0.0
  0
LINE
  5
478
330
72
100
AcDbEntity
  8
$DDT_AUDIT_GENERATED_(B2)
  6
Continuous
 62
     7
100
AcDbLine
 10
37.3817557951
 20
592.6745304856
 30
0.0
 11
37.3817557951
 21
592.7354651573
 31
0.0
  0
LINE
  5
479
330
72
100
AcDbEntity
  8
$DDT_AUDIT_GENERATED_(B2)
  6
Continuous
 62
     7
100
AcDbLine
 10
37.3817557951
 20
592.7354651573
 30
0.0
 11
36.9487430932
 21
592.7659324932
 31
0.0
  0
LINE
  5
47A
330
72
100
AcDbEntity
  8
$DDT_AUDIT_GENERATED_(B2)
  6
Continuous
 62
     7
100
AcDbLine
 10
36.9487430932
 20
592.7659324932
 30
0.0
 11
36.5157303914
 21
592.7354651573
 31
0.0
  0
LINE
  5
47B
330
72
100
AcDbEntity
  8
$DDT_AUDIT_GENERATED_(B2)
  6
Continuous
 62
     7
100
AcDbLine
 10
37.4817557951
 20
592.8784428902
 30
0.0
 11
37.4817557951
 21
592.7565735468
 31
0.0
  0
LINE
  5
47C
330
72
100
AcDbEntity
  8
$DDT_AUDIT_GENERATED_(B2)
  6
Continuous
 62
     7
100
AcDbLine
 10
37.0487430932
 20
592.8479755544
 30
0.0
 11
37.0487430932
 21
592.7870408827
 31
0.0
  0
LINE
  5
47D
330
72
100
AcDbEntity
  8
$DDT_AUDIT_GENERATED_(B2)
  6
Continuous
 62
     7
100
AcDbLine
 10
37.0487430932
 20
592.7870408827
 30
0.0
 11
37.4817557951
 21
592.7565735468
 31
0.0
  0
LINE
  5
47E
330
72
100
AcDbEntity
  8
$DDT_AUDIT_GENERATED_(B2)
  6
Continuous
 62
     7
100
AcDbLine
 10
37.4817557951
 20
592.7565735468
 30
0.0
 11
37.914768497
 21
592.7870408827
 31
0.0
  0
LINE
  5
47F
330
72
100
AcDbEntity
  8
$DDT_AUDIT_GENERATED_(B2)
  6
Continuous
 62
     7
100
AcDbLine
 10
37.914768497
 20
592.7870408827
 30
0.0
 11
37.914768497
 21
592.8479755544
 31
0.0
  0
LINE
  5
480
330
72
100
AcDbEntity
  8
$DDT_AUDIT_GENERATED_(B2)
  6
Continuous
 62
     7
100
AcDbLine
 10
37.914768497
 20
592.8479755544
 30
0.0
 11
37.4817557951
 21
592.8784428902
 31
0.0
  0
LINE
  5
481
330
72
100
AcDbEntity
  8
$DDT_AUDIT_GENERATED_(B2)
  6
Continuous
 62
     7
100
AcDbLine
 10
37.4817557951
 20
592.8784428902
 30
0.0
 11
37.0487430932
 21
592.8479755544
 31
0.0
  0
LINE
  5
482
330
72
100
AcDbEntity
  8
$DDT_AUDIT_GENERATED_(B2)
  6
Continuous
 62
     7
100
AcDbLine
 10
38.014768497
 20
592.9909532872
 30
0.0
 11
38.014768497
 21
592.8690839438
 31
0.0
  0
LINE
  5
483
330
72
100
AcDbEntity
  8
$DDT_AUDIT_GENERATED_(B2)
  6
Continuous
 62
     7
100
AcDbLine
 10
37.5817557951
 20
592.9604859514
 30
0.0
 11
37.5817557951
 21
592.8995512797
 31
0.0
  0
LINE
  5
484
330
72
100
AcDbEntity
  8
$DDT_AUDIT_GENERATED_(B2)
  6
Continuous
 62
     7
100
AcDbLine
 10
37.5817557951
 20
592.8995512797
 30
0.0
 11
38.014768497
 21
592.8690839438
 31
0.0
  0
LINE
  5
485
330
72
100
AcDbEntity
  8
$DDT_AUDIT_GENERATED_(B2)
  6
Continuous
 62
     7
100
AcDbLine
 10
38.014768497
 20
592.8690839438
 30
0.0
 11
38.4477811989
 21
592.8995512797
 31
0.0
  0
LINE
  5
486
330
72
100
AcDbEntity
  8
$DDT_AUDIT_GENERATED_(B2)
  6
Continuous
 62
     7
100
AcDbLine
 10
38.4477811989
 20
592.8995512797
 30
0.0
 11
38.4477811989
 21
592.9604859514
 31
0.0
  0
LINE
  5
487
330
72
100
AcDbEntity
  8
$DDT_AUDIT_GENERATED_(B2)
  6
Continuous
 62
     7
100
AcDbLine
 10
38.4477811989
 20
592.9604859514
 30
0.0
 11
38.014768497
 21
592.9909532872
 31
0.0
  0
LINE
  5
488
330
72
100
AcDbEntity
  8
$DDT_AUDIT_GENERATED_(B2)
  6
Continuous
 62
     7
100
AcDbLine
 10
38.014768497
 20
592.9909532872
 30
0.0
 11
37.5817557951
 21
592.9604859514
 31
0.0
  0
LINE
  5
489
330
72
100
AcDbEntity
  8
$DDT_AUDIT_GENERATED_(B2)
  6
Continuous
 62
     7
100
AcDbLine
 10
38.5477811989
 20
593.0359080659
 30
0.0
 11
38.5477811989
 21
592.9815943408
 31
0.0
  0
LINE
  5
48A
330
72
100
AcDbEntity
  8
$DDT_AUDIT_GENERATED_(B2)
  6
Continuous
 62
     7
100
AcDbLine
 10
38.114768497
 20
593.0196949224
 30
0.0
 11
38.114768497
 21
593.0120616767
 31
0.0
  0
LINE
  5
48B
330
72
100
AcDbEntity
  8
$DDT_AUDIT_GENERATED_(B2)
  6
Continuous
 62
     7
100
AcDbLine
 10
38.114768497
 20
593.0120616767
 30
0.0
 11
38.5477811989
 21
592.9815943408
 31
0.0
  0
LINE
  5
48C
330
72
100
AcDbEntity
  8
$DDT_AUDIT_GENERATED_(B2)
  6
Continuous
 62
     7
100
AcDbLine
 10
38.5477811989
 20
592.9815943408
 30
0.0
 11
38.9807939008
 21
593.0120616767
 31
0.0
  0
LINE
  5
48D
330
72
100
AcDbEntity
  8
$DDT_AUDIT_GENERATED_(B2)
  6
Continuous
 62
     7
100
AcDbLine
 10
38.9807939008
 20
593.0120616767
 30
0.0
 11
38.9807939008
 21
593.0489276544
 31
0.0
  0
LINE
  5
48E
330
72
100
AcDbEntity
  8
$DDT_AUDIT_GENERATED_(B2)
  6
Continuous
 62
     7
100
AcDbLine
 10
37.4817557951
 20
592.9898774205
 30
0.0
 11
37.4817557951
 21
592.9815943408
 31
0.0
  0
LINE
  5
48F
330
72
100
AcDbEntity
  8
$DDT_AUDIT_GENERATED_(B2)
  6
Continuous
 62
     7
100
AcDbLine
 10
37.4817557951
 20
592.9815943408
 30
0.0
 11
37.8757744413
 21
593.0093180043
 31
0.0
  0
LINE
  5
490
330
72
100
AcDbEntity
  8
$DDT_AUDIT_GENERATED_(B2)
  6
Continuous
 62
     7
100
AcDbLine
 10
37.4150502386
 20
592.9862878304
 30
0.0
 11
37.4817557951
 21
592.9815943408
 31
0.0
  0
LINE
  5
491
330
72
100
AcDbEntity
  8
$DDT_AUDIT_GENERATED_(B2)
  6
Continuous
 62
     7
100
AcDbLine
 10
36.9487430932
 20
592.9586410402
 30
0.0
 11
36.9487430932
 21
592.8690839438
 31
0.0
  0
LINE
  5
492
330
72
100
AcDbEntity
  8
$DDT_AUDIT_GENERATED_(B2)
  6
Continuous
 62
     7
100
AcDbLine
 10
37.3817557951
 20
592.8995512797
 30
0.0
 11
37.3817557951
 21
592.9604859514
 31
0.0
  0
LINE
  5
493
330
72
100
AcDbEntity
  8
$DDT_AUDIT_GENERATED_(B2)
  6
Continuous
 62
     7
100
AcDbLine
 10
37.3817557951
 20
592.9604859514
 30
0.0
 11
37.1935911985
 21
592.9737254567
 31
0.0
  0
LINE
  5
494
330
72
100
AcDbEntity
  8
$DDT_AUDIT_GENERATED_(B2)
  6
Continuous
 62
     7
100
AcDbLine
 10
36.5157303914
 20
592.9286832874
 30
0.0
 11
36.5157303914
 21
592.8995512797
 31
0.0
  0
LINE
  5
495
330
72
100
AcDbEntity
  8
$DDT_AUDIT_GENERATED_(B2)
  6
Continuous
 62
     7
100
AcDbLine
 10
36.5157303914
 20
592.8995512797
 30
0.0
 11
36.9487430932
 21
592.8690839438
 31
0.0
  0
LINE
  5
496
330
72
100
AcDbEntity
  8
$DDT_AUDIT_GENERATED_(B2)
  6
Continuous
 62
     7
100
AcDbLine
 10
36.9487430932
 20
592.8690839438
 30
0.0
 11
37.3817557951
 21
592.8995512797
 31
0.0
  0
LINE
  5
497
330
72
100
AcDbEntity
  8
$DDT_AUDIT_GENERATED_(B2)
  6
Continuous
 62
     7
100
AcDbLine
 10
36.4157303914
 20
592.8784428902
 30
0.0
 11
36.4157303914
 21
592.7565735468
 31
0.0
  0
LINE
  5
498
330
72
100
AcDbEntity
  8
$DDT_AUDIT_GENERATED_(B2)
  6
Continuous
 62
     7
100
AcDbLine
 10
36.4157303914
 20
592.7565735468
 30
0.0
 11
36.8487430932
 21
592.7870408827
 31
0.0
  0
LINE
  5
499
330
72
100
AcDbEntity
  8
$DDT_AUDIT_GENERATED_(B2)
  6
Continuous
 62
     7
100
AcDbLine
 10
36.8487430932
 20
592.7870408827
 30
0.0
 11
36.8487430932
 21
592.8479755544
 31
0.0
  0
LINE
  5
49A
330
72
100
AcDbEntity
  8
$DDT_AUDIT_GENERATED_(B2)
  6
Continuous
 62
     7
100
AcDbLine
 10
36.8487430932
 20
592.8479755544
 30
0.0
 11
36.4157303914
 21
592.8784428902
 31
0.0
  0
LINE
  5
49B
330
72
100
AcDbEntity
  8
$DDT_AUDIT_GENERATED_(B2)
  6
Continuous
 62
     7
100
AcDbLine
 10
36.4157303914
 20
592.8784428902
 30
0.0
 11
35.9827176895
 21
592.8479755544
 31
0.0
  0
LINE
  5
49C
330
72
100
AcDbEntity
  8
$DDT_AUDIT_GENERATED_(B2)
  6
Continuous
 62
     7
100
AcDbLine
 10
35.9827176895
 20
592.8479755544
 30
0.0
 11
35.9827176895
 21
592.7870408827
 31
0.0
  0
LINE
  5
49D
330
72
100
AcDbEntity
  8
$DDT_AUDIT_GENERATED_(B2)
  6
Continuous
 62
     7
100
AcDbLine
 10
35.9827176895
 20
592.7870408827
 30
0.0
 11
36.4157303914
 21
592.7565735468
 31
0.0
  0
LINE
  5
49E
330
72
100
AcDbEntity
  8
$DDT_AUDIT_GENERATED_(B2)
  6
Continuous
 62
     7
100
AcDbLine
 10
35.8827176895
 20
592.7659324932
 30
0.0
 11
35.8827176895
 21
592.6440631498
 31
0.0
  0
LINE
  5
49F
330
72
100
AcDbEntity
  8
$DDT_AUDIT_GENERATED_(B2)
  6
Continuous
 62
     7
100
AcDbLine
 10
36.3157303914
 20
592.6745304856
 30
0.0
 11
36.3157303914
 21
592.7354651573
 31
0.0
  0
LINE
  5
4A0
330
72
100
AcDbEntity
  8
$DDT_AUDIT_GENERATED_(B2)
  6
Continuous
 62
     7
100
AcDbLine
 10
36.3157303914
 20
592.7354651573
 30
0.0
 11
35.8827176895
 21
592.7659324932
 31
0.0
  0
LINE
  5
4A1
330
72
100
AcDbEntity
  8
$DDT_AUDIT_GENERATED_(B2)
  6
Continuous
 62
     7
100
AcDbLine
 10
35.8827176895
 20
592.7659324932
 30
0.0
 11
35.4497049876
 21
592.7354651573
 31
0.0
  0
LINE
  5
4A2
330
72
100
AcDbEntity
  8
$DDT_AUDIT_GENERATED_(B2)
  6
Continuous
 62
     7
100
AcDbLine
 10
35.4497049876
 20
592.7354651573
 30
0.0
 11
35.4497049876
 21
592.6745304856
 31
0.0
  0
LINE
  5
4A3
330
72
100
AcDbEntity
  8
$DDT_AUDIT_GENERATED_(B2)
  6
Continuous
 62
     7
100
AcDbLine
 10
35.4497049876
 20
592.6745304856
 30
0.0
 11
35.8827176895
 21
592.6440631498
 31
0.0
  0
LINE
  5
4A4
330
72
100
AcDbEntity
  8
$DDT_AUDIT_GENERATED_(B2)
  6
Continuous
 62
     7
100
AcDbLine
 10
35.8827176895
 20
592.6440631498
 30
0.0
 11
36.3157303914
 21
592.6745304856
 31
0.0
  0
LINE
  5
4A5
330
72
100
AcDbEntity
  8
$DDT_AUDIT_GENERATED_(B2)
  6
Continuous
 62
     7
100
AcDbLine
 10
35.7827176895
 20
592.6229547603
 30
0.0
 11
35.3497049876
 21
592.6534220962
 31
0.0
  0
LINE
  5
4A6
330
72
100
AcDbEntity
  8
$DDT_AUDIT_GENERATED_(B2)
  6
Continuous
 62
     7
100
AcDbLine
 10
35.3497049876
 20
592.6534220962
 30
0.0
 11
34.9166922857
 21
592.6229547603
 31
0.0
  0
LINE
  5
4A7
330
72
100
AcDbEntity
  8
$DDT_AUDIT_GENERATED_(B2)
  6
Continuous
 62
     7
100
AcDbLine
 10
34.7166922857
 20
592.6233753125
 30
0.0
 11
34.2836795838
 21
592.6538426484
 31
0.0
  0
LINE
  5
4A8
330
72
100
AcDbEntity
  8
$DDT_AUDIT_GENERATED_(B2)
  6
Continuous
 62
     7
100
AcDbLine
 10
34.2836795838
 20
592.6538426484
 30
0.0
 11
34.0102405787
 21
592.634603125
 31
0.0
  0
LINE
  5
4A9
330
72
100
AcDbEntity
  8
$DDT_AUDIT_GENERATED_(B2)
  6
Continuous
 62
     7
100
AcDbLine
 10
34.8166922857
 20
592.7595194458
 30
0.0
 11
34.8166922857
 21
592.6440631498
 31
0.0
  0
LINE
  5
4AA
330
72
100
AcDbEntity
  8
$DDT_AUDIT_GENERATED_(B2)
  6
Continuous
 62
     7
100
AcDbLine
 10
34.3836795838
 20
592.6745304856
 30
0.0
 11
34.8166922857
 21
592.6440631498
 31
0.0
  0
LINE
  5
4AB
330
72
100
AcDbEntity
  8
$DDT_AUDIT_GENERATED_(B2)
  6
Continuous
 62
     7
100
AcDbLine
 10
34.8166922857
 20
592.6440631498
 30
0.0
 11
35.2497049876
 21
592.6745304856
 31
0.0
  0
LINE
  5
4AC
330
72
100
AcDbEntity
  8
$DDT_AUDIT_GENERATED_(B2)
  6
Continuous
 62
     7
100
AcDbLine
 10
35.2497049876
 20
592.6745304856
 30
0.0
 11
35.2497049876
 21
592.7354651573
 31
0.0
  0
LINE
  5
4AD
330
72
100
AcDbEntity
  8
$DDT_AUDIT_GENERATED_(B2)
  6
Continuous
 62
     7
100
AcDbLine
 10
35.2497049876
 20
592.7354651573
 30
0.0
 11
34.8486176665
 21
592.763686182
 31
0.0
  0
LINE
  5
4AE
330
72
100
AcDbEntity
  8
$DDT_AUDIT_GENERATED_(B2)
  6
Continuous
 62
     7
100
AcDbLine
 10
34.3836795838
 20
592.6976919052
 30
0.0
 11
34.3836795838
 21
592.6745304856
 31
0.0
  0
LINE
  5
4AF
330
72
100
AcDbEntity
  8
$DDT_AUDIT_GENERATED_(B2)
  6
Continuous
 62
     7
100
AcDbLine
 10
35.3497049876
 20
592.8232520216
 30
0.0
 11
35.3497049876
 21
592.7565735468
 31
0.0
  0
LINE
  5
4B0
330
72
100
AcDbEntity
  8
$DDT_AUDIT_GENERATED_(B2)
  6
Continuous
 62
     7
100
AcDbLine
 10
34.9916213501
 20
592.7817687764
 30
0.0
 11
35.3497049876
 21
592.7565735468
 31
0.0
  0
LINE
  5
4B1
330
72
100
AcDbEntity
  8
$DDT_AUDIT_GENERATED_(B2)
  6
Continuous
 62
     7
100
AcDbLine
 10
35.3497049876
 20
592.7565735468
 30
0.0
 11
35.7827176895
 21
592.7870408827
 31
0.0
  0
LINE
  5
4B2
330
72
100
AcDbEntity
  8
$DDT_AUDIT_GENERATED_(B2)
  6
Continuous
 62
     7
100
AcDbLine
 10
35.7827176895
 20
592.7870408827
 30
0.0
 11
35.7827176895
 21
592.8479755544
 31
0.0
  0
LINE
  5
4B3
330
72
100
AcDbEntity
  8
$DDT_AUDIT_GENERATED_(B2)
  6
Continuous
 62
     7
100
AcDbLine
 10
35.7827176895
 20
592.8479755544
 30
0.0
 11
35.6674998994
 21
592.8560824276
 31
0.0
  0
LINE
  5
4B4
330
72
100
AcDbEntity
  8
$DDT_AUDIT_GENERATED_(B2)
  6
Continuous
 62
     7
100
AcDbLine
 10
49.9298320064
 20
592.294723579
 30
0.0
 11
49.9298320064
 21
592.6128669446
 31
0.0
  0
LINE
  5
4B5
330
72
100
AcDbEntity
  8
$DDT_AUDIT_GENERATED_(B2)
  6
Continuous
 62
     7
100
AcDbLine
 10
31.4298320064
 20
592.6128669446
 30
0.0
 11
31.4298320064
 21
592.294723579
 31
0.0
  0
ARC
  5
4B6
330
72
100
AcDbEntity
  8
$DDT_AUDIT_GENERATED_(B2)
  6
Continuous
 62
     7
100
AcDbCircle
 10
33.4360876852
 20
592.5604120331
 30
0.0
 40
2.006941296217497
100
AcDbArc
 50
168.9004613909
 51
178.5023043076
  0
ARC
  5
4B7
330
72
100
AcDbEntity
  8
$DDT_AUDIT_GENERATED_(B2)
  6
Continuous
 62
     7
100
AcDbCircle
 10
46.1143172372
 20
592.3801228022
 30
0.0
 40
3.821793901999179
100
AcDbArc
 50
3.4496068022
 51
8.5651511556
  0
LINE
  5
4B8
330
72
100
AcDbEntity
  8
$DDT_AUDIT_GENERATED_(B2)
  6
Continuous
 62
     7
100
AcDbLine
 10
48.9298320064
 20
592.0962143487
 30
0.0
 11
48.9298320064
 21
592.4515214881
 31
0.0
  0
LINE
  5
4B9
330
72
100
AcDbEntity
  8
$DDT_AUDIT_GENERATED_(B2)
  6
Continuous
 62
     7
100
AcDbLine
 10
32.4298320064
 20
592.4515214881
 30
0.0
 11
32.4298320064
 21
592.0962143487
 31
0.0
  0
SPLINE
  5
4BA
330
72
100
AcDbEntity
  8
$DDT_AUDIT_GENERATED_(B2)
  6
Continuous
 62
     7
100
AcDbSpline
210
0.0
220
0.0
230
1.0
 70
     8
 71
     3
 72
    13
 73
     9
 74
     0
 42
0.0000000100378409
 43
0.0000000001
 40
0.0
 40
0.0
 40
0.0
 40
0.0
 40
0.0635866703382585
 40
0.3195342971458863
 40
0.5835967291972728
 40
0.7726628878013678
 40
0.9331471937697817
 40
1.0
 40
1.0
 40
1.0
 40
1.0
 10
49.20397812285467
 20
591.716144051537
 30
0.0
 10
49.23458996318696
 20
591.7251545751329
 30
0.0
 10
49.36582101703782
 20
591.7640462038297
 30
0.0
 10
49.56119292254873
 20
591.8482937055204
 30
0.0
 10
49.74658663015304
 20
591.9579459757817
 30
0.0
 10
49.86771042021181
 20
592.0798173238132
 30
0.0
 10
49.92413119534781
 20
592.2021455778814
 30
0.0
 10
49.92850456750686
 20
592.270802251636
 30
0.0
 10
49.92983200640666
 20
592.2947235789799
 30
0.0
  0
SPLINE
  5
4BB
330
72
100
AcDbEntity
  8
$DDT_AUDIT_GENERATED_(B2)
  6
Continuous
 62
     7
100
AcDbSpline
210
0.0
220
0.0
230
1.0
 70
     8
 71
     3
 72
    12
 73
     8
 74
     0
 42
0.0000000140499069
 43
0.0000000001
 40
0.0
 40
0.0
 40
0.0
 40
0.0
 40
0.1608543188901152
 40
0.3764190270896947
 40
0.6179492214149842
 40
0.9320350864613527
 40
1.0
 40
1.0
 40
1.0
 40
1.0
 10
31.43811885821009
 20
592.2969759384234
 30
0.0
 10
31.43882507055028
 20
592.253067834964
 30
0.0
 10
31.44085342756515
 20
592.167006982389
 30
0.0
 10
31.52273081887631
 20
592.0445738007929
 30
0.0
 10
31.6458325594828
 20
591.9378670168776
 30
0.0
 10
31.76861926253009
 20
591.8616311997458
 30
0.0
 10
31.8668512763705
 20
591.8241183955363
 30
0.0
 10
31.8873034956427
 20
591.8163717001104
 30
0.0
  0
ELLIPSE
  5
4BD
330
72
100
AcDbEntity
  8
$DDT_AUDIT_GENERATED_(4BC)
  6
Continuous
 62
     7
100
AcDbEllipse
 10
40.6798320064
 20
592.4932328093
 30
0.0
 11
10.05
 21
0.0
 31
0.0
210
0.0
220
0.0
230
1.0
 40
0.1218693434
 41
5.848433236660303
 42
6.283185307179586
  0
ELLIPSE
  5
4BE
330
72
100
AcDbEntity
  8
$DDT_AUDIT_GENERATED_(4BC)
  6
Continuous
 62
     7
100
AcDbEllipse
 10
40.6798320064
 20
592.4932328093
 30
0.0
 11
10.05
 21
0.0
 31
0.0
210
0.0
220
0.0
230
1.0
 40
0.1218693434
 41
0.0
 42
3.587719016853634
  0
ELLIPSE
  5
4BF
330
72
100
AcDbEntity
  8
$DDT_AUDIT_GENERATED_(4BC)
  6
Continuous
 62
     7
100
AcDbEllipse
 10
40.6798320064
 20
592.4932328093
 30
0.0
 11
10.75000000000001
 21
0.0
 31
0.0
210
0.0
220
0.0
230
1.0
 40
0.1218693434
 41
5.598930447955255
 42
6.283185307179586
  0
ELLIPSE
  5
4C0
330
72
100
AcDbEntity
  8
$DDT_AUDIT_GENERATED_(4BC)
  6
Continuous
 62
     7
100
AcDbEllipse
 10
40.6798320064
 20
592.4932328093
 30
0.0
 11
10.75000000000001
 21
0.0
 31
0.0
210
0.0
220
0.0
230
1.0
 40
0.1218693434
 41
0.0
 42
3.825847512814124
  0
ELLIPSE
  5
4C1
330
72
100
AcDbEntity
  8
$DDT_AUDIT_GENERATED_(4BC)
  6
Continuous
 62
     7
100
AcDbEllipse
 10
40.6798320064
 20
592.8084085426
 30
0.0
 11
-11.30000000000003
 21
0.0
 31
0.0
210
0.0
220
0.0
230
1.0
 40
0.1218693434
 41
3.372534132729947
 42
6.05224382803943
  0
LINE
  5
4C2
330
72
100
AcDbEntity
  8
$DDT_AUDIT_GENERATED_(4BC)
  6
Continuous
 62
     7
100
AcDbLine
 10
29.6798320064
 20
593.1236240175
 30
0.0
 11
29.6798320064
 21
592.4923067323
 31
0.0
  0
ELLIPSE
  5
4C3
330
72
100
AcDbEntity
  8
$DDT_AUDIT_GENERATED_(4BC)
  6
Continuous
 62
     7
100
AcDbEllipse
 10
40.6798320064
 20
595.4708712642
 30
0.0
 11
11.79999999999975
 21
1.110223024625157E-13
 31
0.0
210
0.0
220
0.0
230
1.0
 40
0.1218693434
 41
2.77125002149807
 42
3.511935285681508
  0
LINE
  5
4C4
330
72
100
AcDbEntity
  8
$DDT_AUDIT_GENERATED_(4BC)
  6
Continuous
 62
     7
100
AcDbLine
 10
29.6798320064
 20
595.9913546707
 30
0.0
 11
29.6798320064
 21
594.1884621308
 31
0.0
  0
LINE
  5
4C5
330
72
100
AcDbEntity
  8
$DDT_AUDIT_GENERATED_(4BC)
  6
Continuous
 62
     7
100
AcDbLine
 10
29.6798320064
 20
594.1884621308
 30
0.0
 11
29.6798320064
 21
593.1236240175
 31
0.0
  0
LINE
  5
4C6
330
72
100
AcDbEntity
  8
$DDT_AUDIT_GENERATED_(4BC)
  6
Continuous
 62
     7
100
AcDbLine
 10
51.6798320064
 20
592.4923067323
 30
0.0
 11
51.6798320064
 21
593.1236240175
 31
0.0
  0
ELLIPSE
  5
4C7
330
72
100
AcDbEntity
  8
$DDT_AUDIT_GENERATED_(4BC)
  6
Continuous
 62
     7
100
AcDbEllipse
 10
40.6798320064
 20
595.4708712642
 30
0.0
 11
-11.80000000000032
 21
0.0
 31
0.0
210
0.0
220
0.0
230
1.0
 40
0.1218693434
 41
2.771250021498081
 42
3.511935285681503
  0
LINE
  5
4C8
330
72
100
AcDbEntity
  8
$DDT_AUDIT_GENERATED_(4BC)
  6
Continuous
 62
     7
100
AcDbLine
 10
51.6798320064
 20
593.1236240175
 30
0.0
 11
51.6798320064
 21
594.1884621308
 31
0.0
  0
LINE
  5
4C9
330
72
100
AcDbEntity
  8
$DDT_AUDIT_GENERATED_(4BC)
  6
Continuous
 62
     7
100
AcDbLine
 10
51.6798320064
 20
594.1884621308
 30
0.0
 11
51.6798320064
 21
595.9913546707
 31
0.0
  0
LINE
  5
4CA
330
72
100
AcDbEntity
  8
$DDT_AUDIT_GENERATED_(4BC)
  6
Continuous
 62
     7
100
AcDbLine
 10
29.6798320064
 20
592.4922970576
 30
0.0
 11
30.1757460171
 21
592.2146159936
 31
0.0
  0
LINE
  5
4CB
330
72
100
AcDbEntity
  8
$DDT_AUDIT_GENERATED_(4BC)
  6
Continuous
 62
     7
100
AcDbLine
 10
51.1839179958
 20
592.2146159936
 30
0.0
 11
51.6798320064
 21
592.4922970576
 31
0.0
  0
LINE
  5
4CC
330
72
100
AcDbEntity
  8
$DDT_AUDIT_GENERATED_(4BC)
  6
Continuous
 62
     7
100
AcDbLine
 10
28.8798320064
 20
600.622074713
 30
0.0
 11
28.8798320064
 21
595.4708712642
 31
0.0
  0
LINE
  5
4CD
330
72
100
AcDbEntity
  8
$DDT_AUDIT_GENERATED_(4BC)
  6
Continuous
 62
     7
100
AcDbLine
 10
52.4798320064
 20
595.4708712642
 30
0.0
 11
52.4798320064
 21
600.6227392949
 31
0.0
  0
ENDBLK
  5
4CF
330
72
100
AcDbEntity
  8
0
100
AcDbBlockEnd
  0
BLOCK
  5
515
330
4D0
100
AcDbEntity
  8
0
100
AcDbBlockBegin
  2
SE1
 70
     0
 10
0.0
 20
0.0
 30
0.0
  3
SE1
  1

  0
LINE
  5
4D2
330
4D0
100
AcDbEntity
  8
$DDT_AUDIT_GENERATED_(77)
  6
Continuous
 62
     7
100
AcDbLine
 10
205.2040629921
 20
376.2876394912
 30
0.0
 11
206.3040629921
 21
376.2876394912
 31
0.0
  0
LINE
  5
4D3
330
4D0
100
AcDbEntity
  8
$DDT_AUDIT_GENERATED_(77)
  6
Continuous
 62
     7
100
AcDbLine
 10
206.3040629921
 20
376.2876394912
 30
0.0
 11
255.1040629921
 21
376.2876394912
 31
0.0
  0
LINE
  5
4D4
330
4D0
100
AcDbEntity
  8
$DDT_AUDIT_GENERATED_(77)
  6
Continuous
 62
     7
100
AcDbLine
 10
255.1040629921
 20
376.2876394912
 30
0.0
 11
256.2040629921
 21
376.2876394912
 31
0.0
  0
LINE
  5
4D5
330
4D0
100
AcDbEntity
  8
$DDT_AUDIT_GENERATED_(77)
  6
Continuous
 62
     7
100
AcDbLine
 10
256.7040629921
 20
375.7876394912
 30
0.0
 11
256.7040629921
 21
368.2876394912
 31
0.0
  0
LINE
  5
4D6
330
4D0
100
AcDbEntity
  8
$DDT_AUDIT_GENERATED_(77)
  6
Continuous
 62
     7
100
AcDbLine
 10
204.7040629921
 20
375.7876394912
 30
0.0
 11
204.7040629921
 21
368.2876394912
 31
0.0
  0
ARC
  5
4D7
330
4D0
100
AcDbEntity
  8
$DDT_AUDIT_GENERATED_(77)
  6
Continuous
 62
     7
100
AcDbCircle
 10
205.2040629921
 20
375.7876394912
 30
0.0
 40
0.5000000000000004
100
AcDbArc
 50
90.0
 51
180.0
  0
ARC
  5
4D8
330
4D0
100
AcDbEntity
  8
$DDT_AUDIT_GENERATED_(77)
  6
Continuous
 62
     7
100
AcDbCircle
 10
256.2040629921
 20
375.7876394912
 30
0.0
 40
0.5000000000000004
100
AcDbArc
 50
0.0
 51
90.0
  0
LINE
  5
4D9
330
4D0
100
AcDbEntity
  8
$DDT_AUDIT_GENERATED_(77)
  6
Continuous
 62
     7
100
AcDbLine
 10
256.7040629921
 20
368.2876394912
 30
0.0
 11
255.1040629921
 21
368.2876394912
 31
0.0
  0
LINE
  5
4DA
330
4D0
100
AcDbEntity
  8
$DDT_AUDIT_GENERATED_(77)
  6
Continuous
 62
     7
100
AcDbLine
 10
255.1040629921
 20
368.2876394912
 30
0.0
 11
206.3040629921
 21
368.2876394912
 31
0.0
  0
LINE
  5
4DB
330
4D0
100
AcDbEntity
  8
$DDT_AUDIT_GENERATED_(77)
  6
Continuous
 62
     7
100
AcDbLine
 10
206.3040629921
 20
368.2876394912
 30
0.0
 11
204.7040629921
 21
368.2876394912
 31
0.0
  0
LINE
  5
4DD
330
4D0
100
AcDbEntity
  8
$DDT_AUDIT_GENERATED_(4DC)
  6
Continuous
 62
     7
100
AcDbLine
 10
197.2349715261
 20
436.9638499353
 30
0.0
 11
185.8645991101
 21
436.9638499353
 31
0.0
  0
LINE
  5
4DE
330
4D0
100
AcDbEntity
  8
$DDT_AUDIT_GENERATED_(4DC)
  6
Continuous
 62
     7
100
AcDbLine
 10
185.8645991101
 20
432.9638499353
 30
0.0
 11
197.2349715261
 21
432.9638499353
 31
0.0
  0
ARC
  5
4DF
330
4D0
100
AcDbEntity
  8
$DDT_AUDIT_GENERATED_(4DC)
  6
Continuous
 62
     7
100
AcDbCircle
 10
197.2349715261
 20
431.9638499353
 30
0.0
 40
1.000000000000001
100
AcDbArc
 50
18.0
 51
90.0
  0
ARC
  5
4E0
330
4D0
100
AcDbEntity
  8
$DDT_AUDIT_GENERATED_(4DC)
  6
Continuous
 62
     7
100
AcDbCircle
 10
197.2349715261
 20
431.9638499353
 30
0.0
 40
5.000000000000007
100
AcDbArc
 50
18.0
 51
90.0
  0
LINE
  5
4E1
330
4D0
100
AcDbEntity
  8
$DDT_AUDIT_GENERATED_(4DC)
  6
Continuous
 62
     7
100
AcDbLine
 10
210.7040629921
 20
406.6905887571
 30
0.0
 11
201.9902541076
 21
433.5089349071
 31
0.0
  0
LINE
  5
4E2
330
4D0
100
AcDbEntity
  8
$DDT_AUDIT_GENERATED_(4DC)
  6
Continuous
 62
     7
100
AcDbLine
 10
198.1860280424
 20
432.2728669296
 30
0.0
 11
210.7040629921
 21
393.7463168471
 31
0.0
  0
ARC
  5
4E3
330
4D0
100
AcDbEntity
  8
$DDT_AUDIT_GENERATED_(4DC)
  6
Continuous
 62
     7
100
AcDbCircle
 10
185.8645991101
 20
434.9638499353
 30
0.0
 40
2.000000000000002
100
AcDbArc
 50
90.0
 51
270.0
  0
LINE
  5
4E4
330
4D0
100
AcDbEntity
  8
$DDT_AUDIT_GENERATED_(82)
  6
Continuous
 62
     7
100
AcDbLine
 10
254.4283123881
 20
480.3792448165
 30
0.0
 11
250.7040629921
 21
473.9286556426
 31
0.0
  0
LINE
  5
4E5
330
4D0
100
AcDbEntity
  8
$DDT_AUDIT_GENERATED_(82)
  6
Continuous
 62
     7
100
AcDbLine
 10
250.7040629921
 20
461.744831517
 30
0.0
 11
261.0167696563
 21
455.7907875484
 31
0.0
  0
LINE
  5
4E6
330
4D0
100
AcDbEntity
  8
$DDT_AUDIT_GENERATED_(82)
  6
Continuous
 62
     7
100
AcDbLine
 10
263.7488204638
 20
456.5228383559
 30
0.0
 11
271.7488204638
 21
470.3792448165
 31
0.0
  0
LINE
  5
4E7
330
4D0
100
AcDbEntity
  8
$DDT_AUDIT_GENERATED_(82)
  6
Continuous
 62
     7
100
AcDbLine
 10
271.0167696563
 20
473.1112956241
 30
0.0
 11
257.1603631957
 21
481.1112956241
 31
0.0
  0
SPLINE
  5
4E8
330
4D0
100
AcDbEntity
  8
$DDT_AUDIT_GENERATED_(82)
  6
Continuous
 62
     7
100
AcDbSpline
210
0.0
220
0.0
230
1.0
 70
    12
 71
     3
 72
     8
 73
     4
 74
     0
 42
0.0000000028450416
 43
0.0000000001
 40
0.0
 40
0.0
 40
0.0
 40
0.0
 40
1.0
 40
1.0
 40
1.0
 40
1.0
 10
254.4283123881495
 20
480.3792448164985
 30
0.0
 41
1.0
 10
255.0140438740923
 20
481.393953266325
 30
0.0
 41
0.8047099331477635
 10
256.1457506241837
 20
481.6971931760826
 30
0.0
 41
0.8047099331477635
 10
257.1603631957184
 20
481.1112956240674
 30
0.0
 41
1.0
  0
SPLINE
  5
4E9
330
4D0
100
AcDbEntity
  8
$DDT_AUDIT_GENERATED_(82)
  6
Continuous
 62
     7
100
AcDbSpline
210
0.0
220
0.0
230
1.0
 70
    12
 71
     3
 72
     8
 73
     4
 74
     0
 42
0.0000000028450416
 43
0.0000000001
 40
0.0
 40
0.0
 40
0.0
 40
0.0
 40
1.0
 40
1.0
 40
1.0
 40
1.0
 10
263.7488204638383
 20
456.5228383559476
 30
0.0
 41
1.0
 10
263.1630889778956
 20
455.508129906121
 30
0.0
 41
0.8047099331477392
 10
262.0313822278042
 20
455.2048899963633
 30
0.0
 41
0.8047099331477392
 10
261.0167696562694
 20
455.7907875483787
 30
0.0
 41
1.0
  0
SPLINE
  5
4EA
330
4D0
100
AcDbEntity
  8
$DDT_AUDIT_GENERATED_(82)
  6
Continuous
 62
     7
100
AcDbSpline
210
0.0
220
0.0
230
1.0
 70
    12
 71
     3
 72
     8
 73
     4
 74
     0
 42
0.0000000028450416
 43
0.0000000001
 40
0.0
 40
0.0
 40
0.0
 40
0.0
 40
1.0
 40
1.0
 40
1.0
 40
1.0
 10
271.0167696562694
 20
473.1112956240674
 30
0.0
 41
1.0
 10
272.0314781060958
 20
472.5255641381248
 30
0.0
 41
0.8047099331477143
 10
272.3347180158536
 20
471.3938573880333
 30
0.0
 41
0.8047099331477143
 10
271.7488204638382
 20
470.3792448164985
 30
0.0
 41
1.0
  0
LINE
  5
4EB
330
4D0
100
AcDbEntity
  8
$DDT_AUDIT_GENERATED_(82)
  6
Continuous
 62
     7
100
AcDbLine
 10
256.4317457492
 20
496.5441872574
 30
0.0
 11
284.7539853933
 21
480.1923345748
 31
0.0
  0
ELLIPSE
  5
4EC
330
4D0
100
AcDbEntity
  8
$DDT_AUDIT_GENERATED_(82)
  6
Continuous
 62
     7
100
AcDbEllipse
 10
256.2121057615
 20
428.9043108309
 30
0.0
 11
1.74999999999997
 21
3.031088913245494
 31
0.0
210
0.0
220
0.0
230
0.9999999999999999
 40
0.1227845609
 41
1.570796326794908
 42
1.897377937229308
  0
LINE
  5
4ED
330
4D0
100
AcDbEntity
  8
$DDT_AUDIT_GENERATED_(82)
  6
Continuous
 62
     7
100
AcDbLine
 10
255.8431624512
 20
429.1173203504
 30
0.0
 11
284.9369980952
 21
479.5093218729
 31
0.0
  0
ARC
  5
4EE
330
4D0
100
AcDbEntity
  8
$DDT_AUDIT_GENERATED_(82)
  6
Continuous
 62
     7
100
AcDbCircle
 10
284.5039853933
 20
479.7593218729
 30
0.0
 40
0.500000000000002
100
AcDbArc
 50
330.0
 51
60.0000000001
  0
LINE
  5
4EF
330
4D0
100
AcDbEntity
  8
$DDT_AUDIT_GENERATED_(82)
  6
Continuous
 62
     7
100
AcDbLine
 10
250.7040629921
 20
414.0501391288
 30
0.0
 11
257.7017061074
 21
426.1704125376
 31
0.0
  0
ARC
  5
4F0
330
4D0
100
AcDbEntity
  8
$DDT_AUDIT_GENERATED_(82)
  6
Continuous
 62
     7
100
AcDbCircle
 10
257.2686934055
 20
426.4204125376
 30
0.0
 40
0.4999999999999985
100
AcDbArc
 50
330.0
 51
60.0
  0
LINE
  5
4F1
330
4D0
100
AcDbEntity
  8
$DDT_AUDIT_GENERATED_(82)
  6
Continuous
 62
     7
100
AcDbLine
 10
210.7040629921
 20
423.5984437322
 30
0.0
 11
207.3737789476
 21
416.9401491351
 31
0.0
  0
LINE
  5
4F2
330
4D0
100
AcDbEntity
  8
$DDT_AUDIT_GENERATED_(82)
  6
Continuous
 62
     7
100
AcDbLine
 10
209.8677671961
 20
409.2644425608
 30
0.0
 11
210.7040629921
 21
408.7816069578
 31
0.0
  0
LINE
  5
4F3
330
4D0
100
AcDbEntity
  8
$DDT_AUDIT_GENERATED_(82)
  6
Continuous
 62
     7
100
AcDbLine
 10
257.5186934055
 20
426.8534252395
 30
0.0
 11
250.7040629921
 21
430.787853943
 31
0.0
  0
LINE
  5
4F4
330
4D0
100
AcDbEntity
  8
$DDT_AUDIT_GENERATED_(82)
  6
Continuous
 62
     7
100
AcDbLine
 10
255.7487330473
 20
496.3611745555
 30
0.0
 11
244.332477255
 21
476.5876394912
 31
0.0
  0
ARC
  5
4F5
330
4D0
100
AcDbEntity
  8
$DDT_AUDIT_GENERATED_(82)
  6
Continuous
 62
     7
100
AcDbCircle
 10
256.1817457492
 20
496.1111745555
 30
0.0
 40
0.4999999999999901
100
AcDbArc
 50
60.0000000068
 51
149.9999999999
  0
LINE
  5
4F6
330
4D0
100
AcDbEntity
  8
$DDT_AUDIT_GENERATED_(95)
  6
Continuous
 62
     7
100
AcDbLine
 10
250.7040629921
 20
376.2876394912
 30
0.0
 11
250.7040629921
 21
475.7876394912
 31
0.0
  0
LINE
  5
4F7
330
4D0
100
AcDbEntity
  8
$DDT_AUDIT_GENERATED_(95)
  6
Continuous
 62
     7
100
AcDbLine
 10
210.7040629921
 20
475.7876394912
 30
0.0
 11
210.7040629921
 21
376.2876394912
 31
0.0
  0
LINE
  5
4F8
330
4D0
100
AcDbEntity
  8
$DDT_AUDIT_GENERATED_(95)
  6
Continuous
 62
     7
100
AcDbLine
 10
211.2040629921
 20
476.2876394912
 30
0.0
 11
250.2040629921
 21
476.2876394912
 31
0.0
  0
ARC
  5
4F9
330
4D0
100
AcDbEntity
  8
$DDT_AUDIT_GENERATED_(95)
  6
Continuous
 62
     7
100
AcDbCircle
 10
250.2040629921
 20
475.7876394912
 30
0.0
 40
0.5000000000000004
100
AcDbArc
 50
0.0
 51
90.0
  0
ARC
  5
4FA
330
4D0
100
AcDbEntity
  8
$DDT_AUDIT_GENERATED_(95)
  6
Continuous
 62
     7
100
AcDbCircle
 10
211.2040629921
 20
475.7876394912
 30
0.0
 40
0.5000000000000004
100
AcDbArc
 50
90.0
 51
180.0
  0
LINE
  5
4FB
330
4D0
100
AcDbEntity
  8
$DDT_AUDIT_GENERATED_(A3)
  6
Continuous
 62
     7
100
AcDbLine
 10
395.0243563043
 20
615.6732248694
 30
0.0
 11
396.608657769
 21
602.7701248974
 31
0.0
  0
SPLINE
  5
4FC
330
4D0
100
AcDbEntity
  8
$DDT_AUDIT_GENERATED_(A3)
  6
Continuous
 62
     7
100
AcDbSpline
210
0.0
220
0.0
230
1.0
 70
     8
 71
     3
 72
    38
 73
    34
 74
     0
 42
0.000000000038687
 43
0.0000000001
 40
0.0
 40
0.0
 40
0.0
 40
0.0
 40
0.2500000000000024
 40
0.2500000000000024
 40
0.312500000000003
 40
0.312500000000003
 40
0.3281250000000032
 40
0.3281250000000032
 40
0.3359375000000033
 40
0.3359375000000033
 40
0.3437500000000033
 40
0.3437500000000033
 40
0.3593750000000032
 40
0.3593750000000032
 40
0.3750000000000032
 40
0.3750000000000032
 40
0.3906250000000031
 40
0.3906250000000031
 40
0.406250000000003
 40
0.406250000000003
 40
0.421875000000003
 40
0.421875000000003
 40
0.4375000000000029
 40
0.4375000000000029
 40
0.4531250000000028
 40
0.4531250000000028
 40
0.4609375000000028
 40
0.4609375000000028
 40
0.4687500000000027
 40
0.4687500000000027
 40
0.5000000000000026
 40
0.5000000000000026
 40
1.0
 40
1.0
 40
1.0
 40
1.0
 10
237.7036398405204
 20
476.5876394911779
 30
0.0
 10
237.7036405495716
 20
497.6864759571313
 30
0.0
 10
237.7036222349614
 20
518.7853137464333
 30
0.0
 10
237.7036458647194
 20
545.1588575877599
 30
0.0
 10
237.7035706712062
 20
550.4335909583635
 30
0.0
 10
237.7036394620616
 20
557.0269419882737
 30
0.0
 10
237.7037731118192
 20
558.3455808676525
 30
0.0
 10
237.7036611435979
 20
560.3237135979198
 30
0.0
 10
237.7033394893399
 20
560.9832929037077
 30
0.0
 10
237.7035567613168
 20
562.3011974665072
 30
0.0
 10
237.6999853671786
 20
562.948443645419
 30
0.0
 10
237.8026408003768
 20
564.8831731563344
 30
0.0
 10
237.9732963838995
 20
566.174073004914
 30
0.0
 10
238.5548890770626
 20
568.7394493581183
 30
0.0
 10
238.9667269469039
 20
570.0385927036211
 30
0.0
 10
239.9925783508508
 20
572.4987524693845
 30
0.0
 10
240.6104227894
 20
573.6699690926688
 30
0.0
 10
242.0410377815974
 20
575.9187125789151
 30
0.0
 10
242.86348692264
 20
576.9895910676652
 30
0.0
 10
244.6746546625179
 20
578.9444522942565
 30
0.0
 10
245.6513713309273
 20
579.850372030348
 30
0.0
 10
247.759878842735
 20
581.4730346303124
 30
0.0
 10
248.9114466519393
 20
582.1928768829946
 30
0.0
 10
251.2765326432605
 20
583.4276380752585
 30
0.0
 10
252.5014212064155
 20
583.9362870581224
 30
0.0
 10
254.4159145627125
 20
584.5402651154827
 30
0.0
 10
255.065742001354
 20
584.7149428218725
 30
0.0
 10
256.381290342052
 20
585.005905840634
 30
0.0
 10
257.0288951419759
 20
585.1146394491427
 30
0.0
 10
260.4070431347365
 20
585.5617666906638
 30
0.0
 10
263.1292872786848
 20
585.8760792143452
 30
0.0
 10
309.2907037751129
 20
591.5494622085064
 30
0.0
 10
352.7303827209005
 20
596.8787952482442
 30
0.0
 10
396.1733193649201
 20
602.2129171498909
 30
0.0
  0
SPLINE
  5
4FD
330
4D0
100
AcDbEntity
  8
$DDT_AUDIT_GENERATED_(A3)
  6
Continuous
 62
     7
100
AcDbSpline
210
0.0
220
0.0
230
1.0
 70
     8
 71
     3
 72
    49
 73
    45
 74
     0
 42
0.0000000000358667
 43
0.0000000001
 40
0.0
 40
0.0
 40
0.0
 40
0.0
 40
0.0018637876306517
 40
0.0018637876306517
 40
0.0018637876306517
 40
0.0533231161137485
 40
0.1531628040498507
 40
0.2530024919859527
 40
0.2779624139699765
 40
0.3029223359540038
 40
0.3135724366058033
 40
0.3188974869317011
 40
0.3215600120946518
 40
0.3242225372576025
 40
0.3314175985293032
 40
0.3350151291651537
 40
0.3386126598010042
 40
0.3461901946145954
 40
0.3537677294281868
 40
0.3613452642417782
 40
0.3689227990553693
 40
0.3846817416272991
 40
0.400440684199229
 40
0.4161996267711587
 40
0.4319585693430884
 40
0.447113638970271
 40
0.46226870859745
 40
0.4694637698691545
 40
0.473061300505005
 40
0.4766588311408553
 40
0.4801607318396747
 40
0.4978600294008081
 40
0.522671446819367
 40
0.5474828642379294
 40
0.572294281656488
 40
0.5971056990750468
 40
0.6219171164936057
 40
0.6467285339121681
 40
0.6715399513307267
 40
0.6963513687492856
 40
0.7211627861678443
 40
0.7459742035864068
 40
0.944465542934884
 40
1.0
 40
1.0
 40
1.0
 40
1.0
 10
223.7036400433562
 20
476.5876394911779
 30
0.0
 10
223.7036400523665
 20
476.7543061668546
 30
0.0
 10
223.7036400613768
 20
476.9209728425313
 30
0.0
 10
223.7036400703871
 20
477.0876395182079
 30
0.0
 10
223.7036403191621
 20
481.6893200261052
 30
0.0
 10
223.7036412135342
 20
495.2154511966658
 30
0.0
 10
223.7036436379499
 20
517.6484926649423
 30
0.0
 10
223.70362721856
 20
537.7527430534338
 30
0.0
 10
223.7036711757098
 20
551.2450129744246
 30
0.0
 10
223.7035352553179
 20
556.5894748579636
 30
0.0
 10
223.7039052527989
 20
560.2511302413778
 30
0.0
 10
223.7028675357521
 20
562.0483342163748
 30
0.0
 10
223.7062792119863
 20
563.0680920343237
 30
0.0
 10
223.7429743031765
 20
564.3720172800862
 30
0.0
 10
223.8565008116362
 20
565.9258275344625
 30
0.0
 10
224.0397889774817
 20
567.4328836434934
 30
0.0
 10
224.3049439690677
 20
569.1316512591436
 30
0.0
 10
224.6873218527974
 20
571.0141747026358
 30
0.0
 10
225.4360050202924
 20
573.697485300149
 30
0.0
 10
226.2251613893983
 20
575.8970215135881
 30
0.0
 10
227.5604187007506
 20
579.026328220708
 30
0.0
 10
229.7723509238332
 20
582.9224072730519
 30
0.0
 10
232.7965101137878
 20
586.893972215977
 30
0.0
 10
236.7600607249236
 20
590.7766994144979
 30
0.0
 10
240.6686092581546
 20
593.647426330051
 30
0.0
 10
245.3504183921358
 20
596.2068650556939
 30
0.0
 10
249.1941256051165
 20
597.6318002012649
 30
0.0
 10
251.8726869930306
 20
598.3535095956059
 30
0.0
 10
253.4824875674409
 20
598.7007772868609
 30
0.0
 10
254.5848253052005
 20
598.906382793933
 30
0.0
 10
257.2173277190525
 20
599.26700031752
 30
0.0
 10
261.1756148845669
 20
599.7380128707159
 30
0.0
 10
267.2939031657626
 20
600.4949961078389
 30
0.0
 10
273.8111343049317
 20
601.2935074365208
 30
0.0
 10
280.3505298897221
 20
602.09690084678
 30
0.0
 10
287.1598555071382
 20
602.9328585585599
 30
0.0
 10
293.693888197835
 20
603.7351696753999
 30
0.0
 10
300.2418730086268
 20
604.539152331441
 30
0.0
 10
306.8786907805255
 20
605.354053440372
 30
0.0
 10
313.4646839831081
 20
606.162711095549
 30
0.0
 10
320.1183890053936
 20
606.9796835053199
 30
0.0
 10
342.2508927344621
 20
609.6972132153109
 30
0.0
 10
366.9696733185871
 20
612.732297847645
 30
0.0
 10
389.5330218379821
 20
615.5027286906089
 30
0.0
 10
394.4671484899665
 20
616.1085638172625
 30
0.0
  0
ARC
  5
4FE
330
4D0
100
AcDbEntity
  8
$DDT_AUDIT_GENERATED_(A3)
  6
Continuous
 62
     7
100
AcDbCircle
 10
394.5280832285
 20
615.6122901977
 30
0.0
 40
0.4999999999999697
100
AcDbArc
 50
7.0000000017
 51
97.000000003
  0
ARC
  5
4FF
330
4D0
100
AcDbEntity
  8
$DDT_AUDIT_GENERATED_(A3)
  6
Continuous
 62
     7
100
AcDbCircle
 10
396.1123846932
 20
602.7091902257
 30
0.0
 40
0.5000000000003342
100
AcDbArc
 50
277.0000000019
 51
7.0000000017
  0
LINE
  5
500
330
4D0
100
AcDbEntity
  8
$DDT_AUDIT_GENERATED_(AE)
  6
Continuous
 62
     7
100
AcDbLine
 10
248.2040629921
 20
476.5876394912
 30
0.0
 11
213.2040629921
 21
476.5876394912
 31
0.0
  0
ARC
  5
501
330
4D0
100
AcDbEntity
  8
$DDT_AUDIT_GENERATED_(AE)
  6
Continuous
 62
     7
100
AcDbCircle
 10
213.2040629921
 20
476.0876394912
 30
0.0
 40
0.5000000000000004
100
AcDbArc
 50
90.0
 51
156.4218215218
  0
ARC
  5
502
330
4D0
100
AcDbEntity
  8
$DDT_AUDIT_GENERATED_(AE)
  6
Continuous
 62
     7
100
AcDbCircle
 10
248.2040629921
 20
476.0876394912
 30
0.0
 40
0.5000000000000004
100
AcDbArc
 50
23.5781784782
 51
90.0
  0
LINE
  5
503
330
4D0
100
AcDbEntity
  8
$DDT_AUDIT_GENERATED_(B2)
  6
Continuous
 62
     7
100
AcDbLine
 10
372.0427183463
 20
590.9932967908
 30
0.0
 11
390.007803691
 21
593.1991319065
 31
0.0
  0
LINE
  5
504
330
4D0
100
AcDbEntity
  8
$DDT_AUDIT_GENERATED_(B2)
  6
Continuous
 62
     7
100
AcDbLine
 10
390.1819390527
 20
593.4220150055
 30
0.0
 11
390.157565184
 21
593.6205242358
 31
0.0
  0
LINE
  5
505
330
4D0
100
AcDbEntity
  8
$DDT_AUDIT_GENERATED_(B2)
  6
Continuous
 62
     7
100
AcDbLine
 10
371.7954613786
 20
591.3659413828
 30
0.0
 11
371.8198352473
 21
591.1674321525
 31
0.0
  0
ARC
  5
506
330
4D0
100
AcDbEntity
  8
$DDT_AUDIT_GENERATED_(B2)
  6
Continuous
 62
     7
100
AcDbCircle
 10
372.0183444776
 20
591.1918060212
 30
0.0
 40
0.1999999999999755
100
AcDbArc
 50
187.0
 51
277.0
  0
ARC
  5
507
330
4D0
100
AcDbEntity
  8
$DDT_AUDIT_GENERATED_(B2)
  6
Continuous
 62
     7
100
AcDbCircle
 10
389.9834298224
 20
593.3976411368
 30
0.0
 40
0.2000000000000064
100
AcDbArc
 50
277.0
 51
7.0
  0
LINE
  5
508
330
4D0
100
AcDbEntity
  8
$DDT_AUDIT_GENERATED_(4BC)
  6
Continuous
 62
     7
100
AcDbLine
 10
391.6463844115
 20
593.8033282509
 30
0.0
 11
370.3066421512
 21
591.1831373677
 31
0.0
  0
SPLINE
  5
509
330
4D0
100
AcDbEntity
  8
$DDT_AUDIT_GENERATED_(4BC)
  6
Continuous
 62
     7
100
AcDbSpline
210
0.0
220
0.0
230
1.0
 70
     8
 71
     3
 72
    10
 73
     6
 74
     0
 42
0.0000000019260148
 43
0.0000000001
 40
0.0
 40
0.0
 40
0.0
 40
0.0
 40
0.5
 40
0.5
 40
1.0
 40
1.0
 40
1.0
 40
1.0
 10
383.505038594221
 20
593.123624017501
 30
0.0
 10
382.6633262373142
 20
592.9055013915859
 30
0.0
 10
381.8148848747445
 20
592.7416036050397
 30
0.0
 10
380.1034046810268
 20
592.5314398825516
 30
0.0
 10
379.2403656532448
 20
592.4851755311595
 30
0.0
 10
378.3705905403817
 20
592.4931930677317
 30
0.0
  0
LINE
  5
50A
330
4D0
100
AcDbEntity
  8
$DDT_AUDIT_GENERATED_(4BC)
  6
Continuous
 62
     7
100
AcDbLine
 10
384.849902423
 20
595.9913546707
 30
0.0
 11
376.3719080792
 21
594.9503878578
 31
0.0
  0
LINE
  5
50B
330
4D0
100
AcDbEntity
  8
$DDT_AUDIT_GENERATED_(4BC)
  6
Continuous
 62
     7
100
AcDbLine
 10
384.849902423
 20
595.9913546707
 30
0.0
 11
385.0712697919
 21
594.1884621308
 31
0.0
  0
SPLINE
  5
50C
330
4D0
100
AcDbEntity
  8
$DDT_AUDIT_GENERATED_(4BC)
  6
Continuous
 62
     7
100
AcDbSpline
210
0.0
220
0.0
230
1.0
 70
     8
 71
     3
 72
    14
 73
    10
 74
     0
 42
0.0000000049321089
 43
0.0000000001
 40
0.0
 40
0.0
 40
0.0
 40
0.0
 40
0.1250000000000002
 40
0.1250000000000002
 40
0.2500000000000006
 40
0.2500000000000006
 40
0.5000000000000002
 40
0.5000000000000002
 40
1.0
 40
1.0
 40
1.0
 40
1.0
 10
385.0712697919008
 20
594.1884621307904
 30
0.0
 10
385.08153622372
 20
594.1048487534753
 30
0.0
 10
385.0598979877507
 20
594.017422802236
 30
0.0
 10
384.9817784056767
 20
593.8675876697679
 30
0.0
 10
384.9263142479277
 20
593.8013189294269
 30
0.0
 10
384.7439292903352
 20
593.626669071905
 30
0.0
 10
384.5978044486455
 20
593.5367862391876
 30
0.0
 10
384.1514323886743
 20
593.3093195512798
 30
0.0
 10
383.8290148323013
 20
593.2075797147228
 30
0.0
 10
383.505038594221
 20
593.123624017501
 30
0.0
  0
SPLINE
  5
50D
330
4D0
100
AcDbEntity
  8
$DDT_AUDIT_GENERATED_(4BC)
  6
Continuous
 62
     7
100
AcDbSpline
210
0.0
220
0.0
230
1.0
 70
     8
 71
     3
 72
    18
 73
    14
 74
     0
 42
0.0000000049401632
 43
0.0000000001
 40
0.0
 40
0.0
 40
0.0
 40
0.0
 40
0.25
 40
0.25
 40
0.5
 40
0.5
 40
0.625
 40
0.625
 40
0.75
 40
0.75
 40
0.875
 40
0.875
 40
1.0
 40
1.0
 40
1.0
 40
1.0
 10
378.3705905403817
 20
592.4931930677317
 30
0.0
 10
378.2027582233467
 20
592.4947401363011
 30
0.0
 10
378.0351401487819
 20
592.5014368051675
 30
0.0
 10
377.7006019802706
 20
592.5316070275042
 30
0.0
 10
377.5337496781684
 20
592.5548992896277
 30
0.0
 10
377.2895607021496
 20
592.6114916242246
 30
0.0
 10
377.2090465941548
 20
592.6340159607213
 30
0.0
 10
377.0506963100755
 20
592.6901750854502
 30
0.0
 10
376.9724171478188
 20
592.7240235347746
 30
0.0
 10
376.8271745612797
 20
592.807242064066
 30
0.0
 10
376.7581794104881
 20
592.8573160809107
 30
0.0
 10
376.6453338817471
 20
592.9846715078663
 30
0.0
 10
376.6037258640679
 20
593.0623835094871
 30
0.0
 10
376.5932754480392
 20
593.1474953179421
 30
0.0
  0
LINE
  5
50E
330
4D0
100
AcDbEntity
  8
$DDT_AUDIT_GENERATED_(4BC)
  6
Continuous
 62
     7
100
AcDbLine
 10
376.593275448
 20
593.1474953179
 30
0.0
 11
376.3719080792
 21
594.9503878578
 31
0.0
  0
LINE
  5
50F
330
4D0
100
AcDbEntity
  8
$DDT_AUDIT_GENERATED_(4BC)
  6
Continuous
 62
     7
100
AcDbLine
 10
369.7220430538
 20
591.4312849621
 30
0.0
 11
370.3066421512
 21
591.1831373677
 31
0.0
  0
LINE
  5
510
330
4D0
100
AcDbEntity
  8
$DDT_AUDIT_GENERATED_(4BC)
  6
Continuous
 62
     7
100
AcDbLine
 10
391.6463844115
 20
593.8033282509
 30
0.0
 11
392.1535860808
 21
594.1855321231
 31
0.0
  0
ARC
  5
511
330
4D0
100
AcDbEntity
  8
$DDT_AUDIT_GENERATED_(4BC)
  6
Continuous
 62
     7
100
AcDbCircle
 10
370.1127741822
 20
592.3517898156
 30
0.0
 40
1.000000000000001
100
AcDbArc
 50
187.0
 51
247.0
  0
ARC
  5
512
330
4D0
100
AcDbEntity
  8
$DDT_AUDIT_GENERATED_(4BC)
  6
Continuous
 62
     7
100
AcDbCircle
 10
391.5517710577
 20
594.9841676331
 30
0.0
 40
1.000000000000003
100
AcDbArc
 50
307.0
 51
7.0
  0
LINE
  5
513
330
4D0
100
AcDbEntity
  8
$DDT_AUDIT_GENERATED_(4BC)
  6
Continuous
 62
     7
100
AcDbLine
 10
368.3144715059
 20
598.7922807459
 30
0.0
 11
369.1202280306
 21
592.2299204722
 31
0.0
  0
LINE
  5
514
330
4D0
100
AcDbEntity
  8
$DDT_AUDIT_GENERATED_(4BC)
  6
Continuous
 62
     7
100
AcDbLine
 10
392.5443172093
 20
595.1060369765
 30
0.0
 11
391.7385606844
 21
601.6683972522
 31
0.0
  0
ENDBLK
  5
516
330
4D0
100
AcDbEntity
  8
0
100
AcDbBlockEnd
  0
BLOCK
  5
55E
330
517
100
AcDbEntity
  8
0
100
AcDbBlockBegin
  2
SE2
 70
     0
 10
0.0
 20
0.0
 30
0.0
  3
SE2
  1

  0
ARC
  5
519
330
517
100
AcDbEntity
  8
$DDT_AUDIT_GENERATED_(74)
  6
Continuous
 62
     7
100
AcDbCircle
 10
77.2798320064
 20
272.2583217415
 30
0.0
 40
20.0
100
AcDbArc
 50
57.1388192111
 51
65.1654125103
  0
ARC
  5
51A
330
517
100
AcDbEntity
  8
$DDT_AUDIT_GENERATED_(74)
  6
Continuous
 62
     7
100
AcDbCircle
 10
77.2798320064
 20
272.2583217415
 30
0.0
 40
20.0
100
AcDbArc
 50
294.8345874897
 51
301.3081210172
  0
LINE
  5
51B
330
517
100
AcDbEntity
  8
$DDT_AUDIT_GENERATED_(77)
  6
Continuous
 62
     7
100
AcDbLine
 10
65.0798320064
 20
246.2583217415
 30
0.0
 11
56.6798320064
 21
246.2583217415
 31
0.0
  0
LINE
  5
51C
330
517
100
AcDbEntity
  8
$DDT_AUDIT_GENERATED_(77)
  6
Continuous
 62
     7
100
AcDbLine
 10
24.6798320064
 20
246.2583217415
 30
0.0
 11
16.2798320064
 21
246.2583217415
 31
0.0
  0
ARC
  5
51D
330
517
100
AcDbEntity
  8
$DDT_AUDIT_GENERATED_(77)
  6
Continuous
 62
     7
100
AcDbCircle
 10
16.2798320064
 20
247.8583217415
 30
0.0
 40
1.600000000000001
100
AcDbArc
 50
180.0
 51
270.0
  0
ARC
  5
51E
330
517
100
AcDbEntity
  8
$DDT_AUDIT_GENERATED_(77)
  6
Continuous
 62
     7
100
AcDbCircle
 10
65.0798320064
 20
247.8583217415
 30
0.0
 40
1.600000000000001
100
AcDbArc
 50
270.0
 51
0.0
  0
LINE
  5
51F
330
517
100
AcDbEntity
  8
$DDT_AUDIT_GENERATED_(77)
  6
Continuous
 62
     7
100
AcDbLine
 10
14.6798320064
 20
247.8583217415
 30
0.0
 11
14.6798320064
 21
296.6583217415
 31
0.0
  0
LINE
  5
520
330
517
100
AcDbEntity
  8
$DDT_AUDIT_GENERATED_(77)
  6
Continuous
 62
     7
100
AcDbLine
 10
66.6798320064
 20
296.6583217415
 30
0.0
 11
66.6798320064
 21
292.2583217415
 31
0.0
  0
LINE
  5
521
330
517
100
AcDbEntity
  8
$DDT_AUDIT_GENERATED_(77)
  6
Continuous
 62
     7
100
AcDbLine
 10
66.6798320064
 20
252.2583217415
 30
0.0
 11
66.6798320064
 21
247.8583217415
 31
0.0
  0
ARC
  5
522
330
517
100
AcDbEntity
  8
$DDT_AUDIT_GENERATED_(77)
  6
Continuous
 62
     7
100
AcDbCircle
 10
16.2798320064
 20
296.6583217415
 30
0.0
 40
1.599999999999997
100
AcDbArc
 50
90.0
 51
180.0
  0
ARC
  5
523
330
517
100
AcDbEntity
  8
$DDT_AUDIT_GENERATED_(77)
  6
Continuous
 62
     7
100
AcDbCircle
 10
65.0798320064
 20
296.6583217415
 30
0.0
 40
1.600000000000001
100
AcDbArc
 50
0.0
 51
90.0
  0
LINE
  5
524
330
517
100
AcDbEntity
  8
$DDT_AUDIT_GENERATED_(77)
  6
Continuous
 62
     7
100
AcDbLine
 10
16.2798320064
 20
298.2583217415
 30
0.0
 11
38.6798320064
 21
298.2583217415
 31
0.0
  0
LINE
  5
525
330
517
100
AcDbEntity
  8
$DDT_AUDIT_GENERATED_(77)
  6
Continuous
 62
     7
100
AcDbLine
 10
42.6798320064
 20
298.2583217415
 30
0.0
 11
65.0798320064
 21
298.2583217415
 31
0.0
  0
LINE
  5
526
330
517
100
AcDbEntity
  8
$DDT_AUDIT_GENERATED_(4DC)
  6
Continuous
 62
     7
100
AcDbLine
 10
42.6798320064
 20
305.7274132075
 30
0.0
 11
42.6798320064
 21
317.0977856235
 31
0.0
  0
LINE
  5
527
330
517
100
AcDbEntity
  8
$DDT_AUDIT_GENERATED_(4DC)
  6
Continuous
 62
     7
100
AcDbLine
 10
38.6798320064
 20
317.0977856235
 30
0.0
 11
38.6798320064
 21
305.7274132075
 31
0.0
  0
LINE
  5
528
330
517
100
AcDbEntity
  8
$DDT_AUDIT_GENERATED_(4DC)
  6
Continuous
 62
     7
100
AcDbLine
 10
38.6798320064
 20
305.7274132075
 30
0.0
 11
38.6798320064
 21
302.8742436586
 31
0.0
  0
LINE
  5
529
330
517
100
AcDbEntity
  8
$DDT_AUDIT_GENERATED_(4DC)
  6
Continuous
 62
     7
100
AcDbLine
 10
42.6798320064
 20
302.8742436586
 30
0.0
 11
42.6798320064
 21
305.7274132075
 31
0.0
  0
LINE
  5
52A
330
517
100
AcDbEntity
  8
$DDT_AUDIT_GENERATED_(4DC)
  6
Continuous
 62
     7
100
AcDbLine
 10
42.6798320064
 20
292.2583217415
 30
0.0
 11
42.6798320064
 21
302.8742436586
 31
0.0
  0
LINE
  5
52B
330
517
100
AcDbEntity
  8
$DDT_AUDIT_GENERATED_(4DC)
  6
Continuous
 62
     7
100
AcDbLine
 10
38.6798320064
 20
302.8742436586
 30
0.0
 11
38.6798320064
 21
292.2583217415
 31
0.0
  0
ARC
  5
52C
330
517
100
AcDbEntity
  8
$DDT_AUDIT_GENERATED_(4DC)
  6
Continuous
 62
     7
100
AcDbCircle
 10
40.6798320064
 20
317.0977856235
 30
0.0
 40
2.000000000000002
100
AcDbArc
 50
0.0
 51
180.0
  0
LINE
  5
52D
330
517
100
AcDbEntity
  8
$DDT_AUDIT_GENERATED_(82)
  6
Continuous
 62
     7
100
AcDbLine
 10
116.7816557739
 20
246.4616353377
 30
0.0
 11
116.7816557739
 21
218.7774029871
 31
0.0
  0
LINE
  5
52E
330
517
100
AcDbEntity
  8
$DDT_AUDIT_GENERATED_(82)
  6
Continuous
 62
     7
100
AcDbLine
 10
112.7816557739
 20
218.4583993403
 30
0.0
 11
112.7816557739
 21
246.7806389845
 31
0.0
  0
LINE
  5
52F
330
517
100
AcDbEntity
  8
$DDT_AUDIT_GENERATED_(82)
  6
Continuous
 62
     7
100
AcDbLine
 10
116.7816557739
 20
294.5916189187
 30
0.0
 11
116.7816557739
 21
246.4616353377
 31
0.0
  0
LINE
  5
530
330
517
100
AcDbEntity
  8
$DDT_AUDIT_GENERATED_(82)
  6
Continuous
 62
     7
100
AcDbLine
 10
112.7816557739
 20
246.7806389845
 30
0.0
 11
112.7816557739
 21
275.8744746285
 31
0.0
  0
LINE
  5
531
330
517
100
AcDbEntity
  8
$DDT_AUDIT_GENERATED_(82)
  6
Continuous
 62
     7
100
AcDbLine
 10
87.6726363337
 20
288.4741725182
 30
0.0
 11
87.672674881
 21
288.4795887809
 31
0.0
  0
LINE
  5
532
330
517
100
AcDbEntity
  8
$DDT_AUDIT_GENERATED_(82)
  6
Continuous
 62
     7
100
AcDbLine
 10
87.6726363337
 20
245.6936913282
 30
0.0
 11
87.6726363337
 21
279.3558434851
 31
0.0
  0
LINE
  5
533
330
517
100
AcDbEntity
  8
$DDT_AUDIT_GENERATED_(82)
  6
Continuous
 62
     7
100
AcDbLine
 10
87.6726363337
 20
279.3558434851
 30
0.0
 11
87.6726363337
 21
288.4741725182
 31
0.0
  0
ELLIPSE
  5
534
330
517
100
AcDbEntity
  8
$DDT_AUDIT_GENERATED_(82)
  6
Continuous
 62
     7
100
AcDbEllipse
 10
88.1726363337
 20
288.4164554704
 30
0.0
 11
0.4692442857176585
 21
-0.2060945402319533
 31
0.0
210
0.0
220
0.0
230
0.9999999999999999
 40
0.8377473191
 41
1.801192679079018
 42
3.481744671858956
  0
ARC
  5
535
330
517
100
AcDbEntity
  8
$DDT_AUDIT_GENERATED_(82)
  6
Continuous
 62
     7
100
AcDbCircle
 10
113.2816557739
 20
218.4583993403
 30
0.0
 40
0.5000000000000143
100
AcDbArc
 50
180.0
 51
270.0
  0
ARC
  5
536
330
517
100
AcDbEntity
  8
$DDT_AUDIT_GENERATED_(82)
  6
Continuous
 62
     7
100
AcDbCircle
 10
113.2816557739
 20
218.4583993403
 30
0.0
 40
0.5000000000000004
100
AcDbArc
 50
270.0
 51
276.0697126229
  0
SPLINE
  5
537
330
517
100
AcDbEntity
  8
$DDT_AUDIT_GENERATED_(82)
  6
Continuous
 62
     7
100
AcDbSpline
210
0.0
220
0.0
230
1.0
 70
     8
 71
     3
 72
    19
 73
    15
 74
     0
 42
0.0000000027891538
 43
0.0000000001
 40
0.0
 40
0.0
 40
0.0
 40
0.0
 40
0.0470941697520561
 40
0.1375036958148038
 40
0.2277203685542218
 40
0.3174068286470225
 40
0.4062853573207575
 40
0.494081711491527
 40
0.5805779288145607
 40
0.6657626120554749
 40
0.7501970199810966
 40
0.8351928080464522
 40
0.9244290618689279
 40
1.0
 40
1.0
 40
1.0
 40
1.0
 10
109.5508190457853
 20
248.396505498462
 30
0.0
 10
109.6414967672543
 20
248.4092450943838
 30
0.0
 10
109.8666792946678
 20
248.4400954433787
 30
0.0
 10
110.2769311776968
 20
248.4706718323429
 30
0.0
 10
110.7374201538662
 20
248.4707588301308
 30
0.0
 10
111.1773555949544
 20
248.4361500680036
 30
0.0
 10
111.579406635039
 20
248.3688408342025
 30
0.0
 10
111.9339312655485
 20
248.2728892139546
 30
0.0
 10
112.2310742631732
 20
248.1542658202648
 30
0.0
 10
112.4638922019777
 20
248.0212163893133
 30
0.0
 10
112.6291509243378
 20
247.8841856580235
 30
0.0
 10
112.7292415032439
 20
247.7549759639936
 30
0.0
 10
112.7741759789327
 20
247.6485336590523
 30
0.0
 10
112.7798294162513
 20
247.5857669879539
 30
0.0
 10
112.7816557738831
 20
247.552234984316
 30
0.0
  0
LINE
  5
538
330
517
100
AcDbEntity
  8
$DDT_AUDIT_GENERATED_(82)
  6
Continuous
 62
     7
100
AcDbLine
 10
113.3345249914
 20
217.9612023513
 30
0.0
 11
116.3345249914
 21
218.2802059981
 31
0.0
  0
LINE
  5
539
330
517
100
AcDbEntity
  8
$DDT_AUDIT_GENERATED_(82)
  6
Continuous
 62
     7
100
AcDbLine
 10
88.2468447052
 20
245.199228875
 30
0.0
 11
109.5508190458
 21
248.3965054985
 31
0.0
  0
ARC
  5
53A
330
517
100
AcDbEntity
  8
$DDT_AUDIT_GENERATED_(82)
  6
Continuous
 62
     7
100
AcDbCircle
 10
116.2816557739
 20
218.7774029871
 30
0.0
 40
0.4999999999999759
100
AcDbArc
 50
276.0697126229
 51
360.0
  0
ARC
  5
53B
330
517
100
AcDbEntity
  8
$DDT_AUDIT_GENERATED_(82)
  6
Continuous
 62
     7
100
AcDbCircle
 10
88.1726363337
 20
245.6936913282
 30
0.0
 40
0.4999999999999935
100
AcDbArc
 50
180.0
 51
270.0
  0
ARC
  5
53C
330
517
100
AcDbEntity
  8
$DDT_AUDIT_GENERATED_(82)
  6
Continuous
 62
     7
100
AcDbCircle
 10
88.1726363337
 20
245.6936913282
 30
0.0
 40
0.499999999999997
100
AcDbArc
 50
270.0
 51
278.5351856381
  0
LINE
  5
53D
330
517
100
AcDbEntity
  8
$DDT_AUDIT_GENERATED_(82)
  6
Continuous
 62
     7
100
AcDbLine
 10
97.5581441875
 20
297.7190344267
 30
0.0
 11
87.791875535
 21
288.7456171305
 31
0.0
  0
ARC
  5
53E
330
517
100
AcDbEntity
  8
$DDT_AUDIT_GENERATED_(82)
  6
Continuous
 62
     7
100
AcDbCircle
 10
97.8964365608
 20
297.3508520396
 30
0.0
 40
0.5000000000000023
100
AcDbArc
 50
81.4648143619
 51
132.5773361126
  0
LINE
  5
53F
330
517
100
AcDbEntity
  8
$DDT_AUDIT_GENERATED_(82)
  6
Continuous
 62
     7
100
AcDbLine
 10
116.3558641454
 20
295.0860813719
 30
0.0
 11
97.9706449324
 21
297.8453144928
 31
0.0
  0
ARC
  5
540
330
517
100
AcDbEntity
  8
$DDT_AUDIT_GENERATED_(82)
  6
Continuous
 62
     7
100
AcDbCircle
 10
116.2816557739
 20
294.5916189187
 30
0.0
 40
0.5000000000000004
100
AcDbArc
 50
0.0
 51
81.4648143619
  0
LINE
  5
541
330
517
100
AcDbEntity
  8
$DDT_AUDIT_GENERATED_(95)
  6
Continuous
 62
     7
100
AcDbLine
 10
62.6798320064
 20
252.2583217415
 30
0.0
 11
85.1798320064
 21
252.2583217415
 31
0.0
  0
LINE
  5
542
330
517
100
AcDbEntity
  8
$DDT_AUDIT_GENERATED_(95)
  6
Continuous
 62
     7
100
AcDbLine
 10
62.6798320064
 20
252.2583217415
 30
0.0
 11
60.1798320064
 21
252.2583217415
 31
0.0
  0
LINE
  5
543
330
517
100
AcDbEntity
  8
$DDT_AUDIT_GENERATED_(95)
  6
Continuous
 62
     7
100
AcDbLine
 10
21.1798320064
 20
252.2583217415
 30
0.0
 11
24.6798320064
 21
252.2583217415
 31
0.0
  0
LINE
  5
544
330
517
100
AcDbEntity
  8
$DDT_AUDIT_GENERATED_(95)
  6
Continuous
 62
     7
100
AcDbLine
 10
56.6798320064
 20
252.2583217415
 30
0.0
 11
60.1798320064
 21
252.2583217415
 31
0.0
  0
LINE
  5
545
330
517
100
AcDbEntity
  8
$DDT_AUDIT_GENERATED_(95)
  6
Continuous
 62
     7
100
AcDbLine
 10
60.1798320064
 20
292.2583217415
 30
0.0
 11
21.1798320064
 21
292.2583217415
 31
0.0
  0
LINE
  5
546
330
517
100
AcDbEntity
  8
$DDT_AUDIT_GENERATED_(95)
  6
Continuous
 62
     7
100
AcDbLine
 10
62.6798320064
 20
292.2583217415
 30
0.0
 11
60.1798320064
 21
292.2583217415
 31
0.0
  0
LINE
  5
547
330
517
100
AcDbEntity
  8
$DDT_AUDIT_GENERATED_(95)
  6
Continuous
 62
     7
100
AcDbLine
 10
85.1798320064
 20
292.2583217415
 30
0.0
 11
62.6798320064
 21
292.2583217415
 31
0.0
  0
LINE
  5
548
330
517
100
AcDbEntity
  8
$DDT_AUDIT_GENERATED_(95)
  6
Continuous
 62
     7
100
AcDbLine
 10
20.6798320064
 20
291.7583217415
 30
0.0
 11
20.6798320064
 21
252.7583217415
 31
0.0
  0
LINE
  5
549
330
517
100
AcDbEntity
  8
$DDT_AUDIT_GENERATED_(95)
  6
Continuous
 62
     7
100
AcDbLine
 10
60.6798320064
 20
291.7583217415
 30
0.0
 11
60.6798320064
 21
252.7583217415
 31
0.0
  0
LINE
  5
54A
330
517
100
AcDbEntity
  8
$DDT_AUDIT_GENERATED_(95)
  6
Continuous
 62
     7
100
AcDbLine
 10
85.6798320064
 20
291.7583217415
 30
0.0
 11
85.6798320064
 21
252.7583217415
 31
0.0
  0
ARC
  5
54B
330
517
100
AcDbEntity
  8
$DDT_AUDIT_GENERATED_(95)
  6
Continuous
 62
     7
100
AcDbCircle
 10
21.1798320064
 20
252.7583217415
 30
0.0
 40
0.5000000000000039
100
AcDbArc
 50
180.0
 51
270.0
  0
ARC
  5
54C
330
517
100
AcDbEntity
  8
$DDT_AUDIT_GENERATED_(95)
  6
Continuous
 62
     7
100
AcDbCircle
 10
85.1798320064
 20
252.7583217415
 30
0.0
 40
0.5000000000000004
100
AcDbArc
 50
270.0
 51
0.0
  0
ARC
  5
54D
330
517
100
AcDbEntity
  8
$DDT_AUDIT_GENERATED_(95)
  6
Continuous
 62
     7
100
AcDbCircle
 10
21.1798320064
 20
291.7583217415
 30
0.0
 40
0.5000000000000039
100
AcDbArc
 50
90.0
 51
180.0
  0
ARC
  5
54E
330
517
100
AcDbEntity
  8
$DDT_AUDIT_GENERATED_(95)
  6
Continuous
 62
     7
100
AcDbCircle
 10
85.1798320064
 20
291.7583217415
 30
0.0
 40
0.5000000000000004
100
AcDbArc
 50
0.0
 51
90.0
  0
ARC
  5
54F
330
517
100
AcDbEntity
  8
$DDT_AUDIT_GENERATED_(95)
  6
Continuous
 62
     7
100
AcDbCircle
 10
60.1798320064
 20
252.7583217415
 30
0.0
 40
0.5000000000000039
100
AcDbArc
 50
270.0
 51
0.0
  0
ARC
  5
550
330
517
100
AcDbEntity
  8
$DDT_AUDIT_GENERATED_(95)
  6
Continuous
 62
     7
100
AcDbCircle
 10
60.1798320064
 20
291.7583217415
 30
0.0
 40
0.5000000000000039
100
AcDbArc
 50
0.0
 51
90.0
  0
LINE
  5
551
330
517
100
AcDbEntity
  8
$DDT_AUDIT_GENERATED_(A3)
  6
Continuous
 62
     7
100
AcDbLine
 10
24.6798320064
 20
108.4343015788
 30
0.0
 11
24.6798320064
 21
106.8499999581
 31
0.0
  0
LINE
  5
552
330
517
100
AcDbEntity
  8
$DDT_AUDIT_GENERATED_(A3)
  6
Continuous
 62
     7
100
AcDbLine
 10
24.6798320064
 20
278.766831749
 30
0.0
 11
24.6798320064
 21
108.4343015788
 31
0.0
  0
LINE
  5
553
330
517
100
AcDbEntity
  8
$DDT_AUDIT_GENERATED_(A3)
  6
Continuous
 62
     7
100
AcDbLine
 10
56.6798320064
 20
278.7590321163
 30
0.0
 11
56.6798320064
 21
108.4343015788
 31
0.0
  0
LINE
  5
554
330
517
100
AcDbEntity
  8
$DDT_AUDIT_GENERATED_(A3)
  6
Continuous
 62
     7
100
AcDbLine
 10
56.6798320064
 20
106.8499999582
 30
0.0
 11
56.6798320064
 21
108.4343015788
 31
0.0
  0
ARC
  5
555
330
517
100
AcDbEntity
  8
$DDT_AUDIT_GENERATED_(A3)
  6
Continuous
 62
     7
100
AcDbCircle
 10
25.1798320064
 20
278.7587446903
 30
0.0
 40
0.5000000000000004
100
AcDbArc
 50
90.0
 51
93.3743481308
  0
ARC
  5
556
330
517
100
AcDbEntity
  8
$DDT_AUDIT_GENERATED_(A3)
  6
Continuous
 62
     7
100
AcDbCircle
 10
56.1798320064
 20
278.7587446903
 30
0.0
 40
0.5000000000000004
100
AcDbArc
 50
86.8888930529
 51
90.0
  0
LINE
  5
557
330
517
100
AcDbEntity
  8
$DDT_AUDIT_GENERATED_(A3)
  6
Continuous
 62
     7
100
AcDbLine
 10
56.1798320064
 20
279.2590738077
 30
0.0
 11
25.1798320064
 21
279.2590738077
 31
0.0
  0
LINE
  5
558
330
517
100
AcDbEntity
  8
$DDT_AUDIT_GENERATED_(A3)
  6
Continuous
 62
     7
100
AcDbLine
 10
56.1798320064
 20
279.258776873
 30
0.0
 11
25.1798320064
 21
279.258776873
 31
0.0
  0
LINE
  5
559
330
517
100
AcDbEntity
  8
$DDT_AUDIT_GENERATED_(A3)
  6
Continuous
 62
     7
100
AcDbLine
 10
25.1798320064
 20
106.3500000405
 30
0.0
 11
56.1798320064
 21
106.3500000405
 31
0.0
  0
ARC
  5
55A
330
517
100
AcDbEntity
  8
$DDT_AUDIT_GENERATED_(A3)
  6
Continuous
 62
     7
100
AcDbCircle
 10
25.1798333838
 20
278.7590724222
 30
0.0
 40
0.500001377378754
100
AcDbArc
 50
90.0001578353
 51
180.0001681066
  0
ARC
  5
55B
330
517
100
AcDbEntity
  8
$DDT_AUDIT_GENERATED_(A3)
  6
Continuous
 62
     7
100
AcDbCircle
 10
56.179830629
 20
278.7590724222
 30
0.0
 40
0.5000013773944062
100
AcDbArc
 50
0.0
 51
89.9998421629
  0
ARC
  5
55C
330
517
100
AcDbEntity
  8
$DDT_AUDIT_GENERATED_(A3)
  6
Continuous
 62
     7
100
AcDbCircle
 10
25.1798320064
 20
106.85
 30
0.0
 40
0.4999999999996517
100
AcDbArc
 50
180.0001235341
 51
270.0
  0
ARC
  5
55D
330
517
100
AcDbEntity
  8
$DDT_AUDIT_GENERATED_(A3)
  6
Continuous
 62
     7
100
AcDbCircle
 10
56.1798320064
 20
106.8500000053
 30
0.0
 40
0.4999999824021883
100
AcDbArc
 50
270.0000000001
 51
359.9999973871
  0
ENDBLK
  5
55F
330
517
100
AcDbEntity
  8
0
100
AcDbBlockEnd
  0
ENDSEC
  0
SECTION
  2
ENTITIES
  0
INSERT
  5
5F
330
1F
100
AcDbEntity
  8
Default
100
AcDbBlockReference
  2
SEANNOT_GROUP
 10
0.0
 20
0.0
 30
0.0
  0
INSERT
  5
66
330
1F
100
AcDbEntity
  8
Default
100
AcDbBlockReference
  2
SEANNOT_GROUP1
 10
0.0
 20
0.0
 30
0.0
  0
LINE
  5
6B
330
1F
100
AcDbEntity
  8
Default
  6
Continuous
 62
     7
100
AcDbLine
 10
36.3596580411
 20
272.2583217415
 30
0.0
 11
45.0000059718
 21
272.2583217415
 31
0.0
  0
INSERT
  5
6D
330
1F
100
AcDbEntity
  8
Default
100
AcDbBlockReference
  2
SEANNOT_GROUP2
 10
0.0
 20
0.0
 30
0.0
  0
INSERT
  5
73
330
1F
100
AcDbEntity
  8
Default
100
AcDbBlockReference
  2
SE
 10
0.0
 20
0.0
 30
0.0
  0
INSERT
  5
4D1
330
1F
100
AcDbEntity
  8
Default
100
AcDbBlockReference
  2
SE1
 10
0.0
 20
0.0
 30
0.0
  0
INSERT
  5
518
330
1F
100
AcDbEntity
  8
Default
100
AcDbBlockReference
  2
SE2
 10
0.0
 20
0.0
 30
0.0
  0
TEXT
  5
561
330
1F
100
AcDbEntity
  8
Default
  6
Continuous
 62
     7
100
AcDbText
 10
5.9362635081
 20
53.4225120485
 30
0.0
 40
10.0
  1
Grohe AG^J
  7
SEACAD_seiso_ttf
 11
5.9362635081
 21
63.4225120485
 31
0.0
100
AcDbText
 73
     3
  0
TEXT
  5
562
330
1F
100
AcDbEntity
  8
Default
  6
Continuous
 62
     7
100
AcDbText
 10
5.9362635081
 20
37.0588756849
 30
0.0
 40
10.0
  1
 
  7
SEACAD_seiso_ttf
 11
5.9362635081
 21
47.0588756849
 31
0.0
100
AcDbText
 73
     3
  0
TEXT
  5
563
330
1F
100
AcDbEntity
  8
Default
  6
Continuous
 62
     7
100
AcDbText
 10
5.9362635081
 20
20.6952393213
 30
0.0
 40
10.0
  1
ecn: 
  7
SEACAD_seiso_ttf
 11
5.9362635081
 21
30.6952393213
 31
0.0
100
AcDbText
 73
     3
  0
TEXT
  5
564
330
1F
100
AcDbEntity
  8
Default
  6
Continuous
 62
     7
100
AcDbText
 10
5.9362635081
 20
4.3316029576
 30
0.0
 40
10.0
  1
unit: mm
  7
SEACAD_seiso_ttf
 11
5.9362635081
 21
14.3316029576
 31
0.0
100
AcDbText
 73
     3
  0
LINE
  5
565
330
1F
100
AcDbEntity
  8
Default
  6
Continuous
 62
     7
100
AcDbLine
 10
0.0
 20
0.0
 30
0.0
 11
100.0
 21
0.0
 31
0.0
  0
LINE
  5
566
330
1F
100
AcDbEntity
  8
Default
  6
Continuous
 62
     7
100
AcDbLine
 10
0.0
 20
0.0
 30
0.0
 11
0.0
 21
100.0
 31
0.0
  0
TEXT
  5
567
330
1F
100
AcDbEntity
  8
Default
  6
Continuous
 62
     7
100
AcDbText
 10
24.3923665681
 20
-18.2375342018
 30
0.0
 40
10.0
  1
100 mm
  7
SEACAD_seiso_ttf
 11
24.3923665681
 21
-8.2375342018
 31
0.0
100
AcDbText
 73
     3
  0
TEXT
  5
568
330
1F
100
AcDbEntity
  8
Default
  6
Continuous
 62
     7
100
AcDbText
 10
-7.6150308803
 20
24.6231930421
 30
0.0
 40
10.0
  1
100 mm
 50
90.0
  7
SEACAD_seiso_ttf
 11
-17.6150308803
 21
24.6231930421
 31
0.0
100
AcDbText
 73
     3
  0
TEXT
  5
569
330
1F
100
AcDbEntity
  8
Default
  6
Continuous
 62
     7
100
AcDbText
 10
28.4878128572
 20
20.0907663715
 30
0.0
 40
10.0
  1
221125
  7
SEACAD_seiso_ttf
 11
28.4878128572
 21
30.0907663715
 31
0.0
100
AcDbText
 73
     3
  0
TEXT
  5
56A
330
1F
100
AcDbEntity
  8
Default
  6
Continuous
 62
     7
100
AcDbText
 10
5.9012241913
 20
36.7242780188
 30
0.0
 40
10.0
  1
23135000
  7
SEACAD_seiso_ttf
 11
5.9012241913
 21
46.7242780188
 31
0.0
100
AcDbText
 73
     3
  0
ENDSEC
  0
SECTION
  2
OBJECTS
  0
DICTIONARY
  5
C
330
0
100
AcDbDictionary
281
     1
  3
ACAD_GROUP
350
D
  3
ACAD_LAYOUT
350
1A
  3
ACAD_MLEADERSTYLE
350
56E
  3
ACAD_MLINESTYLE
350
17
  3
ACAD_PLOTSETTINGS
350
19
  3
ACAD_PLOTSTYLENAME
350
E
  3
ACAD_SCALELIST
350
3B
  3
ACAD_TABLESTYLE
350
56D
  3
ACAD_VISUALSTYLE
350
2A
  3
AcDbVariableDictionary
350
56B
  0
DICTIONARY
  5
D
102
{ACAD_REACTORS
330
C
102
}
330
C
100
AcDbDictionary
281
     1
  0
DICTIONARY
  5
1A
102
{ACAD_REACTORS
330
C
102
}
330
C
100
AcDbDictionary
281
     1
  3
Layout1
350
1E
  3
Model
350
22
  0
DICTIONARY
  5
56E
102
{ACAD_REACTORS
330
C
102
}
330
C
100
AcDbDictionary
281
     1
  0
DICTIONARY
  5
17
102
{ACAD_REACTORS
330
C
102
}
330
C
100
AcDbDictionary
281
     1
  3
Standard
350
18
  0
DICTIONARY
  5
19
102
{ACAD_REACTORS
330
C
102
}
330
C
100
AcDbDictionary
281
     1
  0
ACDBDICTIONARYWDFLT
  5
E
102
{ACAD_REACTORS
330
C
102
}
330
C
100
AcDbDictionary
281
     1
  3
Normal
350
F
100
AcDbDictionaryWithDefault
340
F
  0
DICTIONARY
  5
3B
102
{ACAD_REACTORS
330
C
102
}
330
C
100
AcDbDictionary
281
     1
  3
A0
350
3C
  3
A1
350
3D
  3
A2
350
3E
  3
A3
350
3F
  3
A4
350
40
  3
A5
350
41
  3
A6
350
42
  3
A7
350
43
  3
A8
350
44
  3
A9
350
45
  3
B0
350
46
  3
B1
350
47
  3
B2
350
48
  3
B3
350
49
  3
B4
350
4A
  3
B5
350
4B
  3
B6
350
4C
  3
B7
350
4D
  3
B8
350
4E
  3
B9
350
4F
  3
C0
350
50
  3
C1
350
51
  3
C2
350
52
  3
C3
350
53
  3
C4
350
54
  3
C5
350
55
  3
C6
350
56
  3
C7
350
57
  3
C8
350
58
  3
C9
350
59
  3
D0
350
5A
  3
D1
350
5B
  3
D2
350
5C
  0
DICTIONARY
  5
56D
102
{ACAD_REACTORS
330
C
102
}
330
C
100
AcDbDictionary
281
     1
  0
DICTIONARY
  5
2A
102
{ACAD_REACTORS
330
C
102
}
330
C
100
AcDbDictionary
281
     1
  3
2dWireframe
350
2F
  3
3D Hidden
350
31
  3
3dWireframe
350
30
  3
Basic
350
32
  3
Brighten
350
36
  3
ColorChange
350
3A
  3
Conceptual
350
34
  3
Dim
350
35
  3
Facepattern
350
39
  3
Flat
350
2B
  3
FlatWithEdges
350
2C
  3
Gouraud
350
2D
  3
GouraudWithEdges
350
2E
  3
Linepattern
350
38
  3
Realistic
350
33
  3
Thicken
350
37
  0
DICTIONARY
  5
56B
102
{ACAD_REACTORS
330
C
102
}
330
C
100
AcDbDictionary
281
     1
  3
CANNOSCALE
350
56C
  3
PSOLHEIGHT
350
570
  3
PSOLWIDTH
350
56F
  0
LAYOUT
  5
1E
102
{ACAD_REACTORS
330
1A
102
}
330
1A
100
AcDbPlotSettings
  1

  2
none_device
  4

  6

 40
0.0
 41
0.0
 42
0.0
 43
0.0
 44
0.0
 45
0.0
 46
0.0
 47
0.0
 48
0.0
 49
0.0
140
0.0
141
0.0
142
1.0
143
1.0
 70
   688
 72
     0
 73
     0
 74
     5
  7

 75
    16
147
1.0
148
0.0
149
0.0
100
AcDbLayout
  1
Layout1
 70
     1
 71
     1
 10
0.0
 20
0.0
 11
1682.0
 21
2378.0
 12
0.0
 22
0.0
 32
0.0
 14
0.0
 24
0.0
 34
0.0
 15
1682.0
 25
2378.0
 35
0.0
146
0.0
 13
0.0
 23
0.0
 33
0.0
 16
1.0
 26
0.0
 36
0.0
 17
0.0
 27
1.0
 37
0.0
 76
     0
330
1B
  0
LAYOUT
  5
22
102
{ACAD_REACTORS
330
1A
102
}
330
1A
100
AcDbPlotSettings
  1

  2
none_device
  4

  6

 40
0.0
 41
0.0
 42
0.0
 43
0.0
 44
0.0
 45
0.0
 46
0.0
 47
0.0
 48
0.0
 49
0.0
140
0.0
141
0.0
142
1.0
143
1.0
 70
  1712
 72
     0
 73
     0
 74
     0
  7

 75
     0
147
1.0
148
0.0
149
0.0
100
AcDbLayout
  1
Model
 70
     1
 71
     0
 10
0.0
 20
0.0
 11
1682.0
 21
2378.0
 12
0.0
 22
0.0
 32
0.0
 14
0.0
 24
0.0
 34
0.0
 15
1682.0
 25
2378.0
 35
0.0
146
0.0
 13
0.0
 23
0.0
 33
0.0
 16
1.0
 26
0.0
 36
0.0
 17
0.0
 27
1.0
 37
0.0
 76
     0
330
1F
331
29
  0
MLINESTYLE
  5
18
102
{ACAD_REACTORS
330
17
102
}
330
17
100
AcDbMlineStyle
  2
Standard
 70
     0
  3

 62
   256
 51
90.0
 52
90.0
 71
     2
 49
0.5
 62
   256
  6
BYLAYER
 49
-0.5
 62
   256
  6
BYLAYER
  0
ACDBPLACEHOLDER
  5
F
102
{ACAD_REACTORS
330
E
102
}
330
E
  0
SCALE
  5
3C
102
{ACAD_REACTORS
330
3B
102
}
330
3B
100
AcDbScale
 70
     0
300
1:1
140
1.0
141
1.0
290
     1
  0
SCALE
  5
3D
102
{ACAD_REACTORS
330
3B
102
}
330
3B
100
AcDbScale
 70
     0
300
1:2
140
1.0
141
2.0
290
     0
  0
SCALE
  5
3E
102
{ACAD_REACTORS
330
3B
102
}
330
3B
100
AcDbScale
 70
     0
300
1:4
140
1.0
141
4.0
290
     0
  0
SCALE
  5
3F
102
{ACAD_REACTORS
330
3B
102
}
330
3B
100
AcDbScale
 70
     0
300
1:5
140
1.0
141
5.0
290
     0
  0
SCALE
  5
40
102
{ACAD_REACTORS
330
3B
102
}
330
3B
100
AcDbScale
 70
     0
300
1:8
140
1.0
141
8.0
290
     0
  0
SCALE
  5
41
102
{ACAD_REACTORS
330
3B
102
}
330
3B
100
AcDbScale
 70
     0
300
1:10
140
1.0
141
10.0
290
     0
  0
SCALE
  5
42
102
{ACAD_REACTORS
330
3B
102
}
330
3B
100
AcDbScale
 70
     0
300
1:16
140
1.0
141
16.0
290
     0
  0
SCALE
  5
43
102
{ACAD_REACTORS
330
3B
102
}
330
3B
100
AcDbScale
 70
     0
300
1:20
140
1.0
141
20.0
290
     0
  0
SCALE
  5
44
102
{ACAD_REACTORS
330
3B
102
}
330
3B
100
AcDbScale
 70
     0
300
1:30
140
1.0
141
30.0
290
     0
  0
SCALE
  5
45
102
{ACAD_REACTORS
330
3B
102
}
330
3B
100
AcDbScale
 70
     0
300
1:40
140
1.0
141
40.0
290
     0
  0
SCALE
  5
46
102
{ACAD_REACTORS
330
3B
102
}
330
3B
100
AcDbScale
 70
     0
300
1:50
140
1.0
141
50.0
290
     0
  0
SCALE
  5
47
102
{ACAD_REACTORS
330
3B
102
}
330
3B
100
AcDbScale
 70
     0
300
1:100
140
1.0
141
100.0
290
     0
  0
SCALE
  5
48
102
{ACAD_REACTORS
330
3B
102
}
330
3B
100
AcDbScale
 70
     0
300
2:1
140
2.0
141
1.0
290
     0
  0
SCALE
  5
49
102
{ACAD_REACTORS
330
3B
102
}
330
3B
100
AcDbScale
 70
     0
300
4:1
140
4.0
141
1.0
290
     0
  0
SCALE
  5
4A
102
{ACAD_REACTORS
330
3B
102
}
330
3B
100
AcDbScale
 70
     0
300
8:1
140
8.0
141
1.0
290
     0
  0
SCALE
  5
4B
102
{ACAD_REACTORS
330
3B
102
}
330
3B
100
AcDbScale
 70
     0
300
10:1
140
10.0
141
1.0
290
     0
  0
SCALE
  5
4C
102
{ACAD_REACTORS
330
3B
102
}
330
3B
100
AcDbScale
 70
     0
300
100:1
140
100.0
141
1.0
290
     0
  0
SCALE
  5
4D
102
{ACAD_REACTORS
330
3B
102
}
330
3B
100
AcDbScale
 70
     0
300
1/128" = 1'-0"
140
0.0078125
141
12.0
290
     0
  0
SCALE
  5
4E
102
{ACAD_REACTORS
330
3B
102
}
330
3B
100
AcDbScale
 70
     0
300
1/64" = 1'-0"
140
0.015625
141
12.0
290
     0
  0
SCALE
  5
4F
102
{ACAD_REACTORS
330
3B
102
}
330
3B
100
AcDbScale
 70
     0
300
1/32" = 1'-0"
140
0.03125
141
12.0
290
     0
  0
SCALE
  5
50
102
{ACAD_REACTORS
330
3B
102
}
330
3B
100
AcDbScale
 70
     0
300
1/16" = 1'-0"
140
0.0625
141
12.0
290
     0
  0
SCALE
  5
51
102
{ACAD_REACTORS
330
3B
102
}
330
3B
100
AcDbScale
 70
     0
300
3/32" = 1'-0"
140
0.09375
141
12.0
290
     0
  0
SCALE
  5
52
102
{ACAD_REACTORS
330
3B
102
}
330
3B
100
AcDbScale
 70
     0
300
1/8" = 1'-0"
140
0.125
141
12.0
290
     0
  0
SCALE
  5
53
102
{ACAD_REACTORS
330
3B
102
}
330
3B
100
AcDbScale
 70
     0
300
3/16" = 1'-0"
140
0.1875
141
12.0
290
     0
  0
SCALE
  5
54
102
{ACAD_REACTORS
330
3B
102
}
330
3B
100
AcDbScale
 70
     0
300
1/4" = 1'-0"
140
0.25
141
12.0
290
     0
  0
SCALE
  5
55
102
{ACAD_REACTORS
330
3B
102
}
330
3B
100
AcDbScale
 70
     0
300
3/8" = 1'-0"
140
0.375
141
12.0
290
     0
  0
SCALE
  5
56
102
{ACAD_REACTORS
330
3B
102
}
330
3B
100
AcDbScale
 70
     0
300
1/2" = 1'-0"
140
0.5
141
12.0
290
     0
  0
SCALE
  5
57
102
{ACAD_REACTORS
330
3B
102
}
330
3B
100
AcDbScale
 70
     0
300
3/4" = 1'-0"
140
0.75
141
12.0
290
     0
  0
SCALE
  5
58
102
{ACAD_REACTORS
330
3B
102
}
330
3B
100
AcDbScale
 70
     0
300
1" = 1'-0"
140
1.0
141
12.0
290
     0
  0
SCALE
  5
59
102
{ACAD_REACTORS
330
3B
102
}
330
3B
100
AcDbScale
 70
     0
300
1-1/2" = 1'-0"
140
1.5
141
12.0
290
     0
  0
SCALE
  5
5A
102
{ACAD_REACTORS
330
3B
102
}
330
3B
100
AcDbScale
 70
     0
300
3" = 1'-0"
140
3.0
141
12.0
290
     0
  0
SCALE
  5
5B
102
{ACAD_REACTORS
330
3B
102
}
330
3B
100
AcDbScale
 70
     0
300
6" = 1'-0"
140
6.0
141
12.0
290
     0
  0
SCALE
  5
5C
102
{ACAD_REACTORS
330
3B
102
}
330
3B
100
AcDbScale
 70
     0
300
1'-0" = 1'-0"
140
12.0
141
12.0
290
     0
  0
VISUALSTYLE
  5
2F
102
{ACAD_REACTORS
330
2A
102
}
330
2A
100
AcDbVisualStyle
  2
2dWireframe
 70
     4
 71
     0
 72
     2
 73
     0
 90
        0
 40
-0.6
 41
-30.0
 62
     5
 63
     7
 74
     1
 91
        4
 64
     7
 65
   257
 75
     1
175
     1
 42
1.0
 92
        0
 66
   257
 43
1.0
 76
     1
 77
     6
 78
     2
 67
     7
 79
     5
170
     0
171
     0
290
     0
174
     0
 93
        1
 44
0.0
173
     0
291
     0
 45
0.0
1001
ACAD
1000
AcDbSavedByObjectVersion
1070
     0
  0
VISUALSTYLE
  5
31
102
{ACAD_REACTORS
330
2A
102
}
330
2A
100
AcDbVisualStyle
  2
3D Hidden
 70
     6
 71
     1
 72
     2
 73
     2
 90
        0
 40
-0.6
 41
-30.0
 62
     5
 63
     7
 74
     2
 91
        2
 64
     7
 65
   257
 75
     2
175
     1
 42
40.0
 92
        0
 66
   257
 43
1.0
 76
     1
 77
     6
 78
     2
 67
     7
 79
     3
170
     0
171
     0
290
     0
174
     0
 93
        1
 44
0.0
173
     0
291
     0
 45
0.0
1001
ACAD
1000
AcDbSavedByObjectVersion
1070
     0
  0
VISUALSTYLE
  5
30
102
{ACAD_REACTORS
330
2A
102
}
330
2A
100
AcDbVisualStyle
  2
3dWireframe
 70
     5
 71
     0
 72
     2
 73
     0
 90
        0
 40
-0.6
 41
-30.0
 62
     5
 63
     7
 74
     1
 91
        4
 64
     7
 65
   257
 75
     1
175
     1
 42
1.0
 92
        0
 66
   257
 43
1.0
 76
     1
 77
     6
 78
     2
 67
     7
 79
     5
170
     0
171
     0
290
     0
174
     0
 93
        1
 44
0.0
173
     0
291
     0
 45
0.0
1001
ACAD
1000
AcDbSavedByObjectVersion
1070
     0
  0
VISUALSTYLE
  5
32
102
{ACAD_REACTORS
330
2A
102
}
330
2A
100
AcDbVisualStyle
  2
Basic
 70
     7
 71
     1
 72
     0
 73
     1
 90
        0
 40
-0.6
 41
-30.0
 62
     5
 63
     7
 74
     0
 91
        4
 64
     7
 65
   257
 75
     1
175
     1
 42
1.0
 92
        8
 66
     7
 43
1.0
 76
     1
 77
     6
 78
     2
 67
     7
 79
     5
170
     0
171
     0
290
     0
174
     0
 93
        1
 44
0.0
173
     0
291
     1
 45
0.0
1001
ACAD
1000
AcDbSavedByObjectVersion
1070
     0
  0
VISUALSTYLE
  5
36
102
{ACAD_REACTORS
330
2A
102
}
330
2A
100
AcDbVisualStyle
  2
Brighten
 70
    12
 71
     2
 72
     2
 73
     0
 90
        0
 40
-0.6
 41
-30.0
 62
     5
 63
     7
 74
     1
 91
        4
 64
     7
 65
   257
 75
     1
175
     1
 42
1.0
 92
        8
 66
     7
 43
1.0
 76
     1
 77
     6
 78
     2
 67
     7
 79
     5
170
     0
171
     0
290
     0
174
     0
 93
        1
 44
50.0
173
     0
291
     1
 45
0.0
1001
ACAD
1000
AcDbSavedByObjectVersion
1070
     0
  0
VISUALSTYLE
  5
3A
102
{ACAD_REACTORS
330
2A
102
}
330
2A
100
AcDbVisualStyle
  2
ColorChange
 70
    16
 71
     2
 72
     2
 73
     3
 90
        0
 40
-0.6
 41
-30.0
 62
     5
 63
     8
 74
     1
 91
        4
 64
     7
 65
   257
 75
     1
175
     1
 42
1.0
 92
        8
 66
     8
 43
1.0
 76
     1
 77
     6
 78
     2
 67
     7
 79
     5
170
     0
171
     0
290
     0
174
     0
 93
        1
 44
0.0
173
     0
291
     1
 45
0.0
1001
ACAD
1000
AcDbSavedByObjectVersion
1070
     0
  0
VISUALSTYLE
  5
34
102
{ACAD_REACTORS
330
2A
102
}
330
2A
100
AcDbVisualStyle
  2
Conceptual
 70
     9
 71
     3
 72
     2
 73
     0
 90
        0
 40
-0.6
 41
-30.0
 62
     5
 63
     7
 74
     2
 91
        2
 64
     7
 65
   257
 75
     1
175
     1
 42
40.0
 92
        8
 66
     7
 43
1.0
 76
     1
 77
     6
 78
     2
 67
     7
 79
     3
170
     0
171
     0
290
     0
174
     0
 93
        1
 44
0.0
173
     0
291
     0
 45
0.0
1001
ACAD
1000
AcDbSavedByObjectVersion
1070
     0
  0
VISUALSTYLE
  5
35
102
{ACAD_REACTORS
330
2A
102
}
330
2A
100
AcDbVisualStyle
  2
Dim
 70
    11
 71
     2
 72
     2
 73
     0
 90
        0
 40
-0.6
 41
-30.0
 62
     5
 63
     7
 74
     1
 91
        4
 64
     7
 65
   257
 75
     1
175
     1
 42
1.0
 92
        8
 66
     7
 43
1.0
 76
     1
 77
     6
 78
     2
 67
     7
 79
     5
170
     0
171
     0
290
     0
174
     0
 93
        1
 44
-50.0
173
     0
291
     1
 45
0.0
1001
ACAD
1000
AcDbSavedByObjectVersion
1070
     0
  0
VISUALSTYLE
  5
39
102
{ACAD_REACTORS
330
2A
102
}
330
2A
100
AcDbVisualStyle
  2
Facepattern
 70
    15
 71
     2
 72
     2
 73
     0
 90
        0
 40
-0.6
 41
-30.0
 62
     5
 63
     7
 74
     1
 91
        4
 64
     7
 65
   257
 75
     1
175
     1
 42
1.0
 92
        8
 66
     7
 43
1.0
 76
     1
 77
     6
 78
     2
 67
     7
 79
     5
170
     0
171
     0
290
     0
174
     0
 93
        1
 44
0.0
173
     0
291
     1
 45
0.0
1001
ACAD
1000
AcDbSavedByObjectVersion
1070
     0
  0
VISUALSTYLE
  5
2B
102
{ACAD_REACTORS
330
2A
102
}
330
2A
100
AcDbVisualStyle
  2
Flat
 70
     0
 71
     2
 72
     1
 73
     1
 90
        2
 40
-0.6
 41
30.0
 62
     5
 63
     7
 74
     0
 91
        4
 64
     7
 65
   257
 75
     1
175
     1
 42
1.0
 92
        8
 66
     7
 43
1.0
 76
     1
 77
     6
 78
     2
 67
     7
 79
     5
170
     0
171
     0
290
     0
174
     0
 93
       13
 44
0.0
173
     0
291
     1
 45
0.0
1001
ACAD
1000
AcDbSavedByObjectVersion
1070
     0
  0
VISUALSTYLE
  5
2C
102
{ACAD_REACTORS
330
2A
102
}
330
2A
100
AcDbVisualStyle
  2
FlatWithEdges
 70
     1
 71
     2
 72
     1
 73
     1
 90
        2
 40
-0.6
 41
30.0
 62
     5
 63
     7
 74
     1
 91
        4
 64
     7
 65
   257
 75
     1
175
     1
 42
1.0
 92
        0
 66
   257
 43
1.0
 76
     1
 77
     6
 78
     2
 67
     7
 79
     5
170
     0
171
     0
290
     0
174
     0
 93
       13
 44
0.0
173
     0
291
     1
 45
0.0
1001
ACAD
1000
AcDbSavedByObjectVersion
1070
     0
  0
VISUALSTYLE
  5
2D
102
{ACAD_REACTORS
330
2A
102
}
330
2A
100
AcDbVisualStyle
  2
Gouraud
 70
     2
 71
     2
 72
     2
 73
     1
 90
        2
 40
-0.6
 41
30.0
 62
     5
 63
     7
 74
     0
 91
        4
 64
     7
 65
   257
 75
     1
175
     1
 42
1.0
 92
        0
 66
     7
 43
1.0
 76
     1
 77
     6
 78
     2
 67
     7
 79
     5
170
     0
171
     0
290
     0
174
     0
 93
       13
 44
0.0
173
     0
291
     1
 45
0.0
1001
ACAD
1000
AcDbSavedByObjectVersion
1070
     0
  0
VISUALSTYLE
  5
2E
102
{ACAD_REACTORS
330
2A
102
}
330
2A
100
AcDbVisualStyle
  2
GouraudWithEdges
 70
     3
 71
     2
 72
     2
 73
     1
 90
        2
 40
-0.6
 41
30.0
 62
     5
 63
     7
 74
     1
 91
        4
 64
     7
 65
   257
 75
     1
175
     1
 42
1.0
 92
        0
 66
   257
 43
1.0
 76
     1
 77
     6
 78
     2
 67
     7
 79
     5
170
     0
171
     0
290
     0
174
     0
 93
       13
 44
0.0
173
     0
291
     1
 45
0.0
1001
ACAD
1000
AcDbSavedByObjectVersion
1070
     0
  0
VISUALSTYLE
  5
38
102
{ACAD_REACTORS
330
2A
102
}
330
2A
100
AcDbVisualStyle
  2
Linepattern
 70
    14
 71
     2
 72
     2
 73
     0
 90
        0
 40
-0.6
 41
-30.0
 62
     5
 63
     7
 74
     1
 91
        4
 64
     7
 65
   257
 75
     7
175
     7
 42
1.0
 92
        8
 66
     7
 43
1.0
 76
     1
 77
     6
 78
     2
 67
     7
 79
     5
170
     0
171
     0
290
     0
174
     0
 93
        1
 44
0.0
173
     0
291
     1
 45
0.0
1001
ACAD
1000
AcDbSavedByObjectVersion
1070
     0
  0
VISUALSTYLE
  5
33
102
{ACAD_REACTORS
330
2A
102
}
330
2A
100
AcDbVisualStyle
  2
Realistic
 70
     8
 71
     2
 72
     2
 73
     0
 90
        0
 40
-0.6
 41
-30.0
 62
     5
 63
     7
 74
     1
 91
        0
 64
     7
 65
   257
 75
     1
175
     1
 42
1.0
 92
        8
 66
     8
 43
1.0
 76
     1
 77
     6
 78
     2
 67
     7
 79
     5
170
     0
171
     0
290
     0
174
     0
 93
       13
 44
0.0
173
     0
291
     0
 45
0.0
1001
ACAD
1000
AcDbSavedByObjectVersion
1070
     0
  0
VISUALSTYLE
  5
37
102
{ACAD_REACTORS
330
2A
102
}
330
2A
100
AcDbVisualStyle
  2
Thicken
 70
    13
 71
     2
 72
     2
 73
     0
 90
        0
 40
-0.6
 41
-30.0
 62
     5
 63
     7
 74
     1
 91
        4
 64
     7
 65
   257
 75
     1
175
     1
 42
1.0
 92
       12
 66
     7
 43
1.0
 76
     1
 77
     6
 78
     2
 67
     7
 79
     5
170
     0
171
     0
290
     0
174
     0
 93
        1
 44
0.0
173
     0
291
     1
 45
0.0
1001
ACAD
1000
AcDbSavedByObjectVersion
1070
     0
  0
DICTIONARYVAR
  5
56C
102
{ACAD_REACTORS
330
56B
102
}
330
56B
100
DictionaryVariables
280
     0
  1
1:1
  0
DICTIONARYVAR
  5
570
102
{ACAD_REACTORS
330
56B
102
}
330
56B
100
DictionaryVariables
280
     0
  1
80.000000
  0
DICTIONARYVAR
  5
56F
102
{ACAD_REACTORS
330
56B
102
}
330
56B
100
DictionaryVariables
280
     0
  1
5.000000
  0
ENDSEC
  0
EOF
