  0
SECTION
  2
HEADER
  9
$ACADVER
  1
AC1015
  9
$ACADMAINTVER
 70
     6
  9
$DWGCODEPAGE
  3
ANSI_1252
  9
$INSBASE
 10
0.0
 20
0.0
 30
0.0
  9
$EXTMIN
 10
0.0
 20
0.0
 30
0.0
  9
$EXTMAX
 10
1682.0
 20
2378.0
 30
0.0
  9
$LIMMIN
 10
0.0
 20
0.0
  9
$LIMMAX
 10
1682.0
 20
2378.0
  9
$ORTHOMODE
 70
     0
  9
$REGENMODE
 70
     1
  9
$FILLMODE
 70
     1
  9
$QTEXTMODE
 70
     0
  9
$MIRRTEXT
 70
     1
  9
$LTSCALE
 40
1.0
  9
$ATTMODE
 70
     1
  9
$TEXTSIZE
 40
2.5
  9
$TRACEWID
 40
1.0
  9
$TEXTSTYLE
  7
Standard
  9
$CLAYER
  8
0
  9
$CELTYPE
  6
ByLayer
  9
$CECOLOR
 62
   256
  9
$CELTSCALE
 40
1.0
  9
$DISPSILH
 70
     0
  9
$DIMSCALE
 40
1.0
  9
$DIMASZ
 40
2.5
  9
$DIMEXO
 40
0.625
  9
$DIMDLI
 40
3.75
  9
$DIMRND
 40
0.0
  9
$DIMDLE
 40
0.0
  9
$DIMEXE
 40
1.25
  9
$DIMTP
 40
0.0
  9
$DIMTM
 40
0.0
  9
$DIMTXT
 40
2.5
  9
$DIMCEN
 40
2.5
  9
$DIMTSZ
 40
0.0
  9
$DIMTOL
 70
     0
  9
$DIMLIM
 70
     0
  9
$DIMTIH
 70
     0
  9
$DIMTOH
 70
     0
  9
$DIMSE1
 70
     0
  9
$DIMSE2
 70
     0
  9
$DIMTAD
 70
     1
  9
$DIMZIN
 70
     8
  9
$DIMBLK
  1

  9
$DIMASO
 70
     1
  9
$DIMSHO
 70
     1
  9
$DIMPOST
  1

  9
$DIMAPOST
  1

  9
$DIMALT
 70
     0
  9
$DIMALTD
 70
     3
  9
$DIMALTF
 40
0.0393700787
  9
$DIMLFAC
 40
1.0
  9
$DIMTOFL
 70
     1
  9
$DIMTVP
 40
0.0
  9
$DIMTIX
 70
     0
  9
$DIMSOXD
 70
     0
  9
$DIMSAH
 70
     0
  9
$DIMBLK1
  1

  9
$DIMBLK2
  1

  9
$DIMSTYLE
  2
ISO-25
  9
$DIMCLRD
 70
     0
  9
$DIMCLRE
 70
     0
  9
$DIMCLRT
 70
     0
  9
$DIMTFAC
 40
1.0
  9
$DIMGAP
 40
0.625
  9
$DIMJUST
 70
     0
  9
$DIMSD1
 70
     0
  9
$DIMSD2
 70
     0
  9
$DIMTOLJ
 70
     0
  9
$DIMTZIN
 70
     8
  9
$DIMALTZ
 70
     0
  9
$DIMALTTZ
 70
     0
  9
$DIMUPT
 70
     0
  9
$DIMDEC
 70
     2
  9
$DIMTDEC
 70
     2
  9
$DIMALTU
 70
     2
  9
$DIMALTTD
 70
     3
  9
$DIMTXSTY
  7
Standard
  9
$DIMAUNIT
 70
     0
  9
$DIMADEC
 70
     0
  9
$DIMALTRND
 40
0.0
  9
$DIMAZIN
 70
     0
  9
$DIMDSEP
 70
    44
  9
$DIMATFIT
 70
     3
  9
$DIMFRAC
 70
     0
  9
$DIMLDRBLK
  1

  9
$DIMLUNIT
 70
     2
  9
$DIMLWD
 70
    -2
  9
$DIMLWE
 70
    -2
  9
$DIMTMOVE
 70
     0
  9
$LUNITS
 70
     2
  9
$LUPREC
 70
     4
  9
$SKETCHINC
 40
1.0
  9
$FILLETRAD
 40
10.0
  9
$AUNITS
 70
     0
  9
$AUPREC
 70
     0
  9
$MENU
  1
.
  9
$ELEVATION
 40
0.0
  9
$PELEVATION
 40
0.0
  9
$THICKNESS
 40
0.0
  9
$LIMCHECK
 70
     0
  9
$CHAMFERA
 40
10.0
  9
$CHAMFERB
 40
10.0
  9
$CHAMFERC
 40
20.0
  9
$CHAMFERD
 40
0.0
  9
$SKPOLY
 70
     0
  9
$TDCREATE
 40
2455623.652738056
  9
$TDUCREATE
 40
2455623.611071389
  9
$TDUPDATE
 40
2455623.652738067
  9
$TDUUPDATE
 40
2455623.6110714
  9
$TDINDWG
 40
0.0000000116
  9
$TDUSRTIMER
 40
0.0000000116
  9
$USRTIMER
 70
     1
  9
$ANGBASE
 50
0.0
  9
$ANGDIR
 70
     0
  9
$PDMODE
 70
     0
  9
$PDSIZE
 40
0.0
  9
$PLINEWID
 40
0.0
  9
$SPLFRAME
 70
     0
  9
$SPLINETYPE
 70
     6
  9
$SPLINESEGS
 70
     8
  9
$HANDSEED
  5
205
  9
$SURFTAB1
 70
     6
  9
$SURFTAB2
 70
     6
  9
$SURFTYPE
 70
     6
  9
$SURFU
 70
     6
  9
$SURFV
 70
     6
  9
$UCSBASE
  2

  9
$UCSNAME
  2

  9
$UCSORG
 10
0.0
 20
0.0
 30
0.0
  9
$UCSXDIR
 10
1.0
 20
0.0
 30
0.0
  9
$UCSYDIR
 10
0.0
 20
1.0
 30
0.0
  9
$UCSORTHOREF
  2

  9
$UCSORTHOVIEW
 70
     0
  9
$UCSORGTOP
 10
0.0
 20
0.0
 30
0.0
  9
$UCSORGBOTTOM
 10
0.0
 20
0.0
 30
0.0
  9
$UCSORGLEFT
 10
0.0
 20
0.0
 30
0.0
  9
$UCSORGRIGHT
 10
0.0
 20
0.0
 30
0.0
  9
$UCSORGFRONT
 10
0.0
 20
0.0
 30
0.0
  9
$UCSORGBACK
 10
0.0
 20
0.0
 30
0.0
  9
$PUCSBASE
  2

  9
$PUCSNAME
  2

  9
$PUCSORG
 10
0.0
 20
0.0
 30
0.0
  9
$PUCSXDIR
 10
1.0
 20
0.0
 30
0.0
  9
$PUCSYDIR
 10
0.0
 20
1.0
 30
0.0
  9
$PUCSORTHOREF
  2

  9
$PUCSORTHOVIEW
 70
     0
  9
$PUCSORGTOP
 10
0.0
 20
0.0
 30
0.0
  9
$PUCSORGBOTTOM
 10
0.0
 20
0.0
 30
0.0
  9
$PUCSORGLEFT
 10
0.0
 20
0.0
 30
0.0
  9
$PUCSORGRIGHT
 10
0.0
 20
0.0
 30
0.0
  9
$PUCSORGFRONT
 10
0.0
 20
0.0
 30
0.0
  9
$PUCSORGBACK
 10
0.0
 20
0.0
 30
0.0
  9
$USERI1
 70
     0
  9
$USERI2
 70
     0
  9
$USERI3
 70
     0
  9
$USERI4
 70
     0
  9
$USERI5
 70
     0
  9
$USERR1
 40
0.0
  9
$USERR2
 40
0.0
  9
$USERR3
 40
0.0
  9
$USERR4
 40
0.0
  9
$USERR5
 40
0.0
  9
$WORLDVIEW
 70
     1
  9
$SHADEDGE
 70
     3
  9
$SHADEDIF
 70
    70
  9
$TILEMODE
 70
     1
  9
$MAXACTVP
 70
    64
  9
$PINSBASE
 10
0.0
 20
0.0
 30
0.0
  9
$PLIMCHECK
 70
     0
  9
$PEXTMIN
 10
0.0
 20
0.0
 30
0.0
  9
$PEXTMAX
 10
1682.0
 20
2378.0
 30
0.0
  9
$PLIMMIN
 10
0.0
 20
0.0
  9
$PLIMMAX
 10
1682.0
 20
2378.0
  9
$UNITMODE
 70
     0
  9
$VISRETAIN
 70
     1
  9
$PLINEGEN
 70
     0
  9
$PSLTSCALE
 70
     1
  9
$TREEDEPTH
 70
  3020
  9
$CMLSTYLE
  2
Standard
  9
$CMLJUST
 70
     0
  9
$CMLSCALE
 40
20.0
  9
$PROXYGRAPHICS
 70
     1
  9
$MEASUREMENT
 70
     1
  9
$CELWEIGHT
370
    -1
  9
$ENDCAPS
280
     0
  9
$JOINSTYLE
280
     0
  9
$LWDISPLAY
290
     0
  9
$INSUNITS
 70
     4
  9
$HYPERLINKBASE
  1

  9
$STYLESHEET
  1

  9
$XEDIT
290
     1
  9
$CEPSNTYPE
380
     0
  9
$PSTYLEMODE
290
     1
  9
$FINGERPRINTGUID
  2
{A8664B5E-1982-405A-8BE6-96A0EADFF705}
  9
$VERSIONGUID
  2
{FAEB1C32-E019-11D5-929B-00C0DF256EC4}
  9
$EXTNAMES
290
     1
  9
$PSVPSCALE
 40
0.0
  9
$OLESTARTUP
290
     0
  0
ENDSEC
  0
SECTION
  2
CLASSES
  0
CLASS
  1
ACDBDICTIONARYWDFLT
  2
AcDbDictionaryWithDefault
  3
ObjectDBX Classes
 90
        0
280
     0
281
     0
  0
CLASS
  1
VISUALSTYLE
  2
AcDbVisualStyle
  3
ObjectDBX Classes
 90
     4095
280
     0
281
     0
  0
CLASS
  1
SCALE
  2
AcDbScale
  3
ObjectDBX Classes
 90
     1153
280
     0
281
     0
  0
CLASS
  1
DICTIONARYVAR
  2
AcDbDictionaryVar
  3
ObjectDBX Classes
 90
        0
280
     0
281
     0
  0
CLASS
  1
ACDBPLACEHOLDER
  2
AcDbPlaceHolder
  3
ObjectDBX Classes
 90
        0
280
     0
281
     0
  0
CLASS
  1
LAYOUT
  2
AcDbLayout
  3
ObjectDBX Classes
 90
        0
280
     0
281
     0
  0
ENDSEC
  0
SECTION
  2
TABLES
  0
TABLE
  2
VPORT
  5
8
330
0
100
AcDbSymbolTable
 70
     1
  0
VPORT
  5
29
330
8
100
AcDbSymbolTableRecord
100
AcDbViewportTableRecord
  2
*Active
 70
     0
 10
0.0
 20
0.0
 11
1.0
 21
1.0
 12
344.1869158879
 22
148.5
 13
0.0
 23
0.0
 14
10.0
 24
10.0
 15
10.0
 25
10.0
 16
0.0
 26
0.0
 36
1.0
 17
0.0
 27
0.0
 37
0.0
 40
297.0
 41
1.9729729729
 42
50.0
 43
0.0
 44
0.0
 50
0.0
 51
0.0
 71
     0
 72
   100
 73
     1
 74
     3
 75
     0
 76
     0
 77
     0
 78
     0
281
     0
 65
     1
110
0.0
120
0.0
130
0.0
111
1.0
121
0.0
131
0.0
112
0.0
122
1.0
132
0.0
 79
     0
146
0.0
  0
ENDTAB
  0
TABLE
  2
LTYPE
  5
5
330
0
100
AcDbSymbolTable
 70
     2
  0
LTYPE
  5
14
330
5
100
AcDbSymbolTableRecord
100
AcDbLinetypeTableRecord
  2
ByBlock
 70
     0
  3

 72
    65
 73
     0
 40
0.0
  0
LTYPE
  5
15
330
5
100
AcDbSymbolTableRecord
100
AcDbLinetypeTableRecord
  2
ByLayer
 70
     0
  3

 72
    65
 73
     0
 40
0.0
  0
LTYPE
  5
16
330
5
100
AcDbSymbolTableRecord
100
AcDbLinetypeTableRecord
  2
Continuous
 70
     0
  3
Solid line
 72
    65
 73
     0
 40
0.0
  0
LTYPE
  5
60
330
5
100
AcDbSymbolTableRecord
100
AcDbLinetypeTableRecord
  2
CENTER2
 70
     0
  3
Center (.5x) ___ _ ___ _ ___ _ ___ _ ___ _ ___
 72
    65
 73
     4
 40
28.575
 49
19.05
 74
     4
 75
     0
340
0
 46
0.0
 50
0.0
 44
0.0
 45
0.0
 49
-3.175
 74
     4
 75
     0
340
0
 46
0.0
 50
0.0
 44
0.0
 45
0.0
 49
3.175
 74
     4
 75
     0
340
0
 46
0.0
 50
0.0
 44
0.0
 45
0.0
 49
-3.175
 74
     4
 75
     0
340
0
 46
0.0
 50
0.0
 44
0.0
 45
0.0
  0
ENDTAB
  0
TABLE
  2
LAYER
  5
2
330
0
100
AcDbSymbolTable
 70
    12
  0
LAYER
  5
10
330
2
100
AcDbSymbolTableRecord
100
AcDbLayerTableRecord
  2
0
 70
     0
 62
     7
  6
Continuous
370
    -3
390
F
  0
LAYER
  5
5D
330
2
100
AcDbSymbolTableRecord
100
AcDbLayerTableRecord
  2
Default
 70
     0
 62
     7
  6
Continuous
370
    -3
390
F
  0
LAYER
  5
97
330
2
100
AcDbSymbolTableRecord
100
AcDbLayerTableRecord
  2
410164038_QUADRA
 70
     0
 62
     7
  6
Continuous
370
    -3
390
F
  0
LAYER
  5
AE
330
2
100
AcDbSymbolTableRecord
100
AcDbLayerTableRecord
  2
02559031_RING_GL
 70
     0
 62
     7
  6
Continuous
370
    -3
390
F
  0
LAYER
  5
B1
330
2
100
AcDbSymbolTableRecord
100
AcDbLayerTableRecord
  2
410172038_LINEAR
 70
     0
 62
     7
  6
Continuous
370
    -3
390
F
  0
LAYER
  5
D3
330
2
100
AcDbSymbolTableRecord
100
AcDbLayerTableRecord
  2
410169038_QUADRA
 70
     0
 62
     7
  6
Continuous
370
    -3
390
F
  0
LAYER
  5
D9
330
2
100
AcDbSymbolTableRecord
100
AcDbLayerTableRecord
  2
$DDT_AUDIT_GENERATED_(D9)
 70
     0
 62
     7
  6
Continuous
370
    -3
390
F
  0
LAYER
  5
DB
330
2
100
AcDbSymbolTableRecord
100
AcDbLayerTableRecord
  2
410170038_QUADRA
 70
     0
 62
     7
  6
Continuous
370
    -3
390
F
  0
LAYER
  5
F9
330
2
100
AcDbSymbolTableRecord
100
AcDbLayerTableRecord
  2
410165038_QUADRA
 70
     0
 62
     7
  6
Continuous
370
    -3
390
F
  0
LAYER
  5
177
330
2
100
AcDbSymbolTableRecord
100
AcDbLayerTableRecord
  2
A4223854_STANGE_
 70
     0
 62
     7
  6
Continuous
370
    -3
390
F
  0
LAYER
  5
1AB
330
2
100
AcDbSymbolTableRecord
100
AcDbLayerTableRecord
  2
03656131_LAV_RET
 70
     0
 62
     7
  6
Continuous
370
    -3
390
F
  0
LAYER
  5
1CF
330
2
100
AcDbSymbolTableRecord
100
AcDbLayerTableRecord
  2
A4226042_DICHTUN
 70
     0
 62
     7
  6
Continuous
370
    -3
390
F
  0
ENDTAB
  0
TABLE
  2
STYLE
  5
3
330
0
100
AcDbSymbolTable
 70
     2
  0
STYLE
  5
11
330
3
100
AcDbSymbolTableRecord
100
AcDbTextStyleTableRecord
  2
Standard
 70
     0
 40
0.0
 41
1.0
 50
0.0
 71
     0
 42
2.5
  3
txt
  4

  0
STYLE
  5
1F4
330
3
100
AcDbSymbolTableRecord
100
AcDbTextStyleTableRecord
  2
SEACAD_seiso_ttf
 70
     0
 40
0.0
 41
1.0
 50
0.0
 71
     0
 42
0.2
  3
seiso.ttf
  4

  0
ENDTAB
  0
TABLE
  2
VIEW
  5
6
330
0
100
AcDbSymbolTable
 70
     0
  0
ENDTAB
  0
TABLE
  2
UCS
  5
7
330
0
100
AcDbSymbolTable
 70
     0
  0
ENDTAB
  0
TABLE
  2
APPID
  5
9
330
0
100
AcDbSymbolTable
 70
     1
  0
APPID
  5
12
330
9
100
AcDbSymbolTableRecord
100
AcDbRegAppTableRecord
  2
ACAD
 70
     0
  0
ENDTAB
  0
TABLE
  2
DIMSTYLE
  5
A
330
0
100
AcDbSymbolTable
 70
     1
100
AcDbDimStyleTable
  0
DIMSTYLE
105
27
330
A
100
AcDbSymbolTableRecord
100
AcDbDimStyleTableRecord
  2
ISO-25
 70
     0
 41
2.5
 42
0.625
 43
3.75
 44
1.25
 73
     0
 74
     0
 77
     1
 78
     8
140
2.5
141
2.5
143
0.0393700787
147
0.625
171
     3
172
     1
271
     2
272
     2
274
     3
278
    44
283
     0
284
     8
340
11
  0
ENDTAB
  0
TABLE
  2
BLOCK_RECORD
  5
1
330
0
100
AcDbSymbolTable
 70
    11
  0
BLOCK_RECORD
  5
1F
330
1
100
AcDbSymbolTableRecord
100
AcDbBlockTableRecord
  2
*Model_Space
340
22
  0
BLOCK_RECORD
  5
1B
330
1
100
AcDbSymbolTableRecord
100
AcDbBlockTableRecord
  2
*Paper_Space
340
1E
  0
BLOCK_RECORD
  5
5E
330
1
100
AcDbSymbolTableRecord
100
AcDbBlockTableRecord
  2
SEANNOT_GROUP
340
0
102
{BLKREFS
331
5F
102
}
  0
BLOCK_RECORD
  5
65
330
1
100
AcDbSymbolTableRecord
100
AcDbBlockTableRecord
  2
SEANNOT_GROUP1
340
0
102
{BLKREFS
331
66
102
}
  0
BLOCK_RECORD
  5
6B
330
1
100
AcDbSymbolTableRecord
100
AcDbBlockTableRecord
  2
SEANNOT_GROUP2
340
0
102
{BLKREFS
331
6C
102
}
  0
BLOCK_RECORD
  5
71
330
1
100
AcDbSymbolTableRecord
100
AcDbBlockTableRecord
  2
SEANNOT_GROUP3
340
0
102
{BLKREFS
331
72
102
}
  0
BLOCK_RECORD
  5
77
330
1
100
AcDbSymbolTableRecord
100
AcDbBlockTableRecord
  2
SEANNOT_GROUP4
340
0
102
{BLKREFS
331
78
102
}
  0
BLOCK_RECORD
  5
81
330
1
100
AcDbSymbolTableRecord
100
AcDbBlockTableRecord
  2
SEANNOT_GROUP5
340
0
102
{BLKREFS
331
82
102
}
  0
BLOCK_RECORD
  5
8B
330
1
100
AcDbSymbolTableRecord
100
AcDbBlockTableRecord
  2
SEANNOT_GROUP6
340
0
102
{BLKREFS
331
8C
102
}
  0
BLOCK_RECORD
  5
95
330
1
100
AcDbSymbolTableRecord
100
AcDbBlockTableRecord
  2
SE
340
0
102
{BLKREFS
331
96
102
}
  0
BLOCK_RECORD
  5
125
330
1
100
AcDbSymbolTableRecord
100
AcDbBlockTableRecord
  2
SE1
340
0
102
{BLKREFS
331
126
102
}
  0
BLOCK_RECORD
  5
180
330
1
100
AcDbSymbolTableRecord
100
AcDbBlockTableRecord
  2
SE2
340
0
102
{BLKREFS
331
181
102
}
  0
ENDTAB
  0
ENDSEC
  0
SECTION
  2
BLOCKS
  0
BLOCK
  5
20
330
1F
100
AcDbEntity
  8
0
100
AcDbBlockBegin
  2
*Model_Space
 70
     0
 10
0.0
 20
0.0
 30
0.0
  3
*Model_Space
  1

  0
ENDBLK
  5
21
330
1F
100
AcDbEntity
  8
0
100
AcDbBlockEnd
  0
BLOCK
  5
1C
330
1B
100
AcDbEntity
 67
     1
  8
0
100
AcDbBlockBegin
  2
*Paper_Space
 70
     0
 10
0.0
 20
0.0
 30
0.0
  3
*Paper_Space
  1

  0
ENDBLK
  5
1D
330
1B
100
AcDbEntity
 67
     1
  8
0
100
AcDbBlockEnd
  0
BLOCK
  5
63
330
5E
100
AcDbEntity
  8
0
100
AcDbBlockBegin
  2
SEANNOT_GROUP
 70
     0
 10
0.0
 20
0.0
 30
0.0
  3
SEANNOT_GROUP
  1

  0
LINE
  5
61
330
5E
100
AcDbEntity
  8
Default
  6
CENTER2
 62
     7
100
AcDbLine
 10
99.1197228995
 20
349.4409141518
 30
0.0
 11
59.1197237935
 21
349.4409141518
 31
0.0
  0
LINE
  5
62
330
5E
100
AcDbEntity
  8
Default
  6
CENTER2
 62
     7
100
AcDbLine
 10
79.1197233465
 20
369.4409137048
 30
0.0
 11
79.1197233465
 21
329.4409145989
 31
0.0
  0
ENDBLK
  5
64
330
5E
100
AcDbEntity
  8
0
100
AcDbBlockEnd
  0
BLOCK
  5
69
330
65
100
AcDbEntity
  8
0
100
AcDbBlockBegin
  2
SEANNOT_GROUP1
 70
     0
 10
0.0
 20
0.0
 30
0.0
  3
SEANNOT_GROUP1
  1

  0
LINE
  5
67
330
65
100
AcDbEntity
  8
Default
  6
CENTER2
 62
     7
100
AcDbLine
 10
196.1197228995
 20
349.4409141518
 30
0.0
 11
156.1197237935
 21
349.4409141518
 31
0.0
  0
LINE
  5
68
330
65
100
AcDbEntity
  8
Default
  6
CENTER2
 62
     7
100
AcDbLine
 10
176.1197233465
 20
369.4409137048
 30
0.0
 11
176.1197233465
 21
329.4409145989
 31
0.0
  0
ENDBLK
  5
6A
330
65
100
AcDbEntity
  8
0
100
AcDbBlockEnd
  0
BLOCK
  5
6F
330
6B
100
AcDbEntity
  8
0
100
AcDbBlockBegin
  2
SEANNOT_GROUP2
 70
     0
 10
0.0
 20
0.0
 30
0.0
  3
SEANNOT_GROUP2
  1

  0
LINE
  5
6D
330
6B
100
AcDbEntity
  8
Default
  6
CENTER2
 62
     7
100
AcDbLine
 10
303.1195749407
 20
349.4407109876
 30
0.0
 11
263.1195758348
 21
349.4407109876
 31
0.0
  0
LINE
  5
6E
330
6B
100
AcDbEntity
  8
Default
  6
CENTER2
 62
     7
100
AcDbLine
 10
283.1195753878
 20
369.4407105406
 30
0.0
 11
283.1195753878
 21
329.4407114347
 31
0.0
  0
ENDBLK
  5
70
330
6B
100
AcDbEntity
  8
0
100
AcDbBlockEnd
  0
BLOCK
  5
75
330
71
100
AcDbEntity
  8
0
100
AcDbBlockBegin
  2
SEANNOT_GROUP3
 70
     0
 10
0.0
 20
0.0
 30
0.0
  3
SEANNOT_GROUP3
  1

  0
LINE
  5
73
330
71
100
AcDbEntity
  8
Default
  6
CENTER2
 62
     7
100
AcDbLine
 10
471.9100903363
 20
349.4409141518
 30
0.0
 11
431.9100912304
 21
349.4409141518
 31
0.0
  0
LINE
  5
74
330
71
100
AcDbEntity
  8
Default
  6
CENTER2
 62
     7
100
AcDbLine
 10
451.9100907834
 20
369.4409137048
 30
0.0
 11
451.9100907834
 21
329.4409145989
 31
0.0
  0
ENDBLK
  5
76
330
71
100
AcDbEntity
  8
0
100
AcDbBlockEnd
  0
BLOCK
  5
7F
330
77
100
AcDbEntity
  8
0
100
AcDbBlockBegin
  2
SEANNOT_GROUP4
 70
     0
 10
0.0
 20
0.0
 30
0.0
  3
SEANNOT_GROUP4
  1

  0
LINE
  5
79
330
77
100
AcDbEntity
  8
Default
  6
CENTER2
 62
     7
100
AcDbLine
 10
303.1197228995
 20
253.8499997995
 30
0.0
 11
263.1197237935
 21
253.8499997995
 31
0.0
  0
LINE
  5
7A
330
77
100
AcDbEntity
  8
Default
  6
CENTER2
 62
     7
100
AcDbLine
 10
283.1197233465
 20
273.8499993525
 30
0.0
 11
283.1197233465
 21
233.8500002466
 31
0.0
  0
LINE
  5
7B
330
77
100
AcDbEntity
  8
Default
  6
CENTER2
 62
     7
100
AcDbLine
 10
308.1197227877
 20
253.8499997995
 30
0.0
 11
306.5697233465
 21
253.8499997995
 31
0.0
  0
LINE
  5
7C
330
77
100
AcDbEntity
  8
Default
  6
CENTER2
 62
     7
100
AcDbLine
 10
283.1197233465
 20
278.8499992407
 30
0.0
 11
283.1197233465
 21
277.2999997995
 31
0.0
  0
LINE
  5
7D
330
77
100
AcDbEntity
  8
Default
  6
CENTER2
 62
     7
100
AcDbLine
 10
258.1197239053
 20
253.8499997995
 30
0.0
 11
259.6697233465
 21
253.8499997995
 31
0.0
  0
LINE
  5
7E
330
77
100
AcDbEntity
  8
Default
  6
CENTER2
 62
     7
100
AcDbLine
 10
283.1197233465
 20
228.8500003583
 30
0.0
 11
283.1197233465
 21
230.3999997995
 31
0.0
  0
ENDBLK
  5
80
330
77
100
AcDbEntity
  8
0
100
AcDbBlockEnd
  0
BLOCK
  5
89
330
81
100
AcDbEntity
  8
0
100
AcDbBlockBegin
  2
SEANNOT_GROUP5
 70
     0
 10
0.0
 20
0.0
 30
0.0
  3
SEANNOT_GROUP5
  1

  0
LINE
  5
83
330
81
100
AcDbEntity
  8
Default
  6
CENTER2
 62
     7
100
AcDbLine
 10
196.1197228995
 20
253.8499997995
 30
0.0
 11
156.1197237935
 21
253.8499997995
 31
0.0
  0
LINE
  5
84
330
81
100
AcDbEntity
  8
Default
  6
CENTER2
 62
     7
100
AcDbLine
 10
176.1197233465
 20
273.8499993525
 30
0.0
 11
176.1197233465
 21
233.8500002466
 31
0.0
  0
LINE
  5
85
330
81
100
AcDbEntity
  8
Default
  6
CENTER2
 62
     7
100
AcDbLine
 10
201.1197227877
 20
253.8499997995
 30
0.0
 11
199.5697233465
 21
253.8499997995
 31
0.0
  0
LINE
  5
86
330
81
100
AcDbEntity
  8
Default
  6
CENTER2
 62
     7
100
AcDbLine
 10
176.1197233465
 20
278.8499992407
 30
0.0
 11
176.1197233465
 21
277.2999997995
 31
0.0
  0
LINE
  5
87
330
81
100
AcDbEntity
  8
Default
  6
CENTER2
 62
     7
100
AcDbLine
 10
151.1197239053
 20
253.8499997995
 30
0.0
 11
152.6697233465
 21
253.8499997995
 31
0.0
  0
LINE
  5
88
330
81
100
AcDbEntity
  8
Default
  6
CENTER2
 62
     7
100
AcDbLine
 10
176.1197233465
 20
228.8500003583
 30
0.0
 11
176.1197233465
 21
230.3999997995
 31
0.0
  0
ENDBLK
  5
8A
330
81
100
AcDbEntity
  8
0
100
AcDbBlockEnd
  0
BLOCK
  5
93
330
8B
100
AcDbEntity
  8
0
100
AcDbBlockBegin
  2
SEANNOT_GROUP6
 70
     0
 10
0.0
 20
0.0
 30
0.0
  3
SEANNOT_GROUP6
  1

  0
LINE
  5
8D
330
8B
100
AcDbEntity
  8
Default
  6
CENTER2
 62
     7
100
AcDbLine
 10
99.119597894
 20
253.8499997978
 30
0.0
 11
59.1195987881
 21
253.8499997978
 31
0.0
  0
LINE
  5
8E
330
8B
100
AcDbEntity
  8
Default
  6
CENTER2
 62
     7
100
AcDbLine
 10
79.119598341
 20
273.8499993507
 30
0.0
 11
79.119598341
 21
233.8500002448
 31
0.0
  0
LINE
  5
8F
330
8B
100
AcDbEntity
  8
Default
  6
CENTER2
 62
     7
100
AcDbLine
 10
104.1195977823
 20
253.8499997978
 30
0.0
 11
102.5695983421
 21
253.8499997978
 31
0.0
  0
LINE
  5
90
330
8B
100
AcDbEntity
  8
Default
  6
CENTER2
 62
     7
100
AcDbLine
 10
79.119598341
 20
278.849999239
 30
0.0
 11
79.119598341
 21
277.2999997988
 31
0.0
  0
LINE
  5
91
330
8B
100
AcDbEntity
  8
Default
  6
CENTER2
 62
     7
100
AcDbLine
 10
54.1195988998
 20
253.8499997978
 30
0.0
 11
55.66959834
 21
253.8499997978
 31
0.0
  0
LINE
  5
92
330
8B
100
AcDbEntity
  8
Default
  6
CENTER2
 62
     7
100
AcDbLine
 10
79.119598341
 20
228.8500003566
 30
0.0
 11
79.119598341
 21
230.3999997968
 31
0.0
  0
ENDBLK
  5
94
330
8B
100
AcDbEntity
  8
0
100
AcDbBlockEnd
  0
BLOCK
  5
123
330
95
100
AcDbEntity
  8
0
100
AcDbBlockBegin
  2
SE
 70
     0
 10
0.0
 20
0.0
 30
0.0
  3
SE
  1

  0
LINE
  5
98
330
95
100
AcDbEntity
  8
410164038_QUADRA
  6
Continuous
 62
     7
100
AcDbLine
 10
14.3501225929
 20
395.4009141519
 30
0.0
 11
67.491799872
 21
395.4009141519
 31
0.0
  0
LINE
  5
99
330
95
100
AcDbEntity
  8
410164038_QUADRA
  6
Continuous
 62
     7
100
AcDbLine
 10
7.0500000004
 20
395.4009141519
 30
0.0
 11
14.3501225929
 21
395.4009141519
 31
0.0
  0
LINE
  5
9A
330
95
100
AcDbEntity
  8
410164038_QUADRA
  6
Continuous
 62
     7
100
AcDbLine
 10
6.3501071164
 20
396.1009141519
 30
0.0
 11
6.3501071164
 21
399.7009141519
 31
0.0
  0
ARC
  5
9B
330
95
100
AcDbEntity
  8
410164038_QUADRA
  6
Continuous
 62
     7
100
AcDbCircle
 10
7.0499621481
 20
396.1008227417
 30
0.0
 40
0.6999085958436841
100
AcDbArc
 50
179.9925170023
 51
270.0074830155
  0
LINE
  5
9C
330
95
100
AcDbEntity
  8
410164038_QUADRA
  6
Continuous
 62
     7
100
AcDbLine
 10
14.3501072353
 20
400.4009141519
 30
0.0
 11
7.0499999996
 21
400.4009141519
 31
0.0
  0
LINE
  5
9D
330
95
100
AcDbEntity
  8
410164038_QUADRA
  6
Continuous
 62
     7
100
AcDbLine
 10
77.0870406585
 20
400.4009141519
 30
0.0
 11
14.3501072357
 21
400.4009141519
 31
0.0
  0
LINE
  5
9E
330
95
100
AcDbEntity
  8
410164038_QUADRA
  6
Continuous
 62
     7
100
AcDbLine
 10
77.5035275598
 20
400.4009141519
 30
0.0
 11
94.432111742
 21
400.4009141519
 31
0.0
  0
LINE
  5
9F
330
95
100
AcDbEntity
  8
410164038_QUADRA
  6
Continuous
 62
     7
100
AcDbLine
 10
77.5035275599
 20
400.4009141519
 30
0.0
 11
77.0870406585
 21
400.4009141519
 31
0.0
  0
ARC
  5
A0
330
95
100
AcDbEntity
  8
410164038_QUADRA
  6
Continuous
 62
     7
100
AcDbCircle
 10
7.0501450068
 20
399.7008227033
 30
0.0
 40
0.7000914545153084
100
AcDbArc
 50
90.0074842035
 51
179.9925158127
  0
LINE
  5
A1
330
95
100
AcDbEntity
  8
410164038_QUADRA
  6
Continuous
 62
     7
100
AcDbLine
 10
62.5733284875
 20
358.4009141519
 30
0.0
 11
95.6661200327
 21
358.4009141519
 31
0.0
  0
LINE
  5
A2
330
95
100
AcDbEntity
  8
410164038_QUADRA
  6
Continuous
 62
     7
100
AcDbLine
 10
95.8523989075
 20
358.6044850111
 30
0.0
 11
62.3733597869
 21
358.6044850111
 31
0.0
  0
ARC
  5
A3
330
95
100
AcDbEntity
  8
410164038_QUADRA
  6
Continuous
 62
     7
100
AcDbCircle
 10
-16709.3965894597
 20
19.0570175615
 30
0.0
 40
16807.13732310514
100
AcDbArc
 50
1.1569069706
 51
1.157601076
  0
ARC
  5
A4
330
95
100
AcDbEntity
  8
410164038_QUADRA
  6
Continuous
 62
     7
100
AcDbCircle
 10
93.8197233465
 20
358.6009141519
 30
0.0
 40
0.2000000000000057
100
AcDbArc
 50
180.0
 51
269.1024527422
  0
ARC
  5
A5
330
95
100
AcDbEntity
  8
410164038_QUADRA
  6
Continuous
 62
     7
100
AcDbCircle
 10
64.4197233465
 20
358.6009141519
 30
0.0
 40
0.2000000000000017
100
AcDbArc
 50
270.9689347623
 51
0.0
  0
ELLIPSE
  5
A6
330
95
100
AcDbEntity
  8
410164038_QUADRA
  6
Continuous
 62
     7
100
AcDbEllipse
 10
72.4192423993
 20
358.6009141519
 30
0.0
 11
0.0
 21
-0.1999999999999971
 31
0.0
210
0.0
220
0.0
230
1.0
 40
0.5
 41
0.0169111018524825
 42
1.570796326794897
  0
ELLIPSE
  5
A7
330
95
100
AcDbEntity
  8
410164038_QUADRA
  6
Continuous
 62
     7
100
AcDbEllipse
 10
85.8202042937
 20
358.6009141519
 30
0.0
 11
0.0
 21
-0.1999999999999953
 31
0.0
210
0.0
220
0.0
230
1.0
 40
0.5
 41
4.71238898038469
 42
6.266274205327629
  0
LINE
  5
A8
330
95
100
AcDbEntity
  8
410164038_QUADRA
  6
Continuous
 62
     7
100
AcDbLine
 10
95.8660881525
 20
358.6044850167
 30
0.0
 11
95.1320001674
 21
399.7134121806
 31
0.0
  0
LINE
  5
A9
330
95
100
AcDbEntity
  8
410164038_QUADRA
  6
Continuous
 62
     7
100
AcDbLine
 10
62.9759097254
 20
392.3473513715
 30
0.0
 11
62.3733680418
 21
358.6050170871
 31
0.0
  0
ARC
  5
AA
330
95
100
AcDbEntity
  8
410164038_QUADRA
  6
Continuous
 62
     7
100
AcDbCircle
 10
59.9763879254
 20
392.4009141519
 30
0.0
 40
2.99999999999998
100
AcDbArc
 50
359.0052702427
 51
89.9999999999
  0
ARC
  5
AB
330
95
100
AcDbEntity
  8
410164038_QUADRA
  6
Continuous
 62
     7
100
AcDbCircle
 10
94.4321117483
 20
399.7009141519
 30
0.0
 40
0.6999999999999993
100
AcDbArc
 50
0.9980290502
 51
90.0
  0
ARC
  5
AC
330
95
100
AcDbEntity
  8
410164038_QUADRA
  6
Continuous
 62
     7
100
AcDbCircle
 10
62.5733266603
 20
358.6009141519
 30
0.0
 40
0.2000000000000005
100
AcDbArc
 50
180.4095437893
 51
270.0
  0
ARC
  5
AD
330
95
100
AcDbEntity
  8
410164038_QUADRA
  6
Continuous
 62
     7
100
AcDbCircle
 10
95.6661000587
 20
358.600914145
 30
0.0
 40
0.1999999876801687
100
AcDbArc
 50
269.2728196294
 51
0.4800749943
  0
LINE
  5
AF
330
95
100
AcDbEntity
  8
02559031_RING_GL
  6
Continuous
 62
     7
100
AcDbLine
 10
93.5197233465
 20
358.1009141518
 30
0.0
 11
93.5197233465
 21
358.4009141519
 31
0.0
  0
LINE
  5
B0
330
95
100
AcDbEntity
  8
02559031_RING_GL
  6
Continuous
 62
     7
100
AcDbLine
 10
64.7197233465
 20
358.4009141519
 30
0.0
 11
64.7197233465
 21
358.1009141518
 31
0.0
  0
ARC
  5
B2
330
95
100
AcDbEntity
  8
410172038_LINEAR
  6
Continuous
 62
     7
100
AcDbCircle
 10
190.2700066652
 20
458.7004183137
 30
0.0
 40
0.699593653680848
100
AcDbArc
 50
278.2047663
 51
0.0406187691
  0
LINE
  5
B3
330
95
100
AcDbEntity
  8
410172038_LINEAR
  6
Continuous
 62
     7
100
AcDbLine
 10
182.9701036572
 20
458.0008550496
 30
0.0
 11
187.9429390386
 21
458.0009141518
 31
0.0
  0
LINE
  5
B4
330
95
100
AcDbEntity
  8
410172038_LINEAR
  6
Continuous
 62
     7
100
AcDbLine
 10
169.2703343149
 20
458.0007959577
 30
0.0
 11
182.9701036572
 21
458.0007959575
 31
0.0
  0
LINE
  5
B5
330
95
100
AcDbEntity
  8
410172038_LINEAR
  6
Continuous
 62
     7
100
AcDbLine
 10
161.9697239423
 20
458.0008550716
 30
0.0
 11
169.2703343149
 21
458.0008550563
 31
0.0
  0
LINE
  5
B6
330
95
100
AcDbEntity
  8
410172038_LINEAR
  6
Continuous
 62
     7
100
AcDbLine
 10
161.4226099281
 20
458.7009142696
 30
0.0
 11
161.2698466347
 21
458.7009142686
 31
0.0
  0
LINE
  5
B7
330
95
100
AcDbEntity
  8
410172038_LINEAR
  6
Continuous
 62
     7
100
AcDbLine
 10
190.2697230698
 20
458.0008551213
 30
0.0
 11
190.2697230698
 21
457.9139227954
 31
0.0
  0
LINE
  5
B8
330
95
100
AcDbEntity
  8
410172038_LINEAR
  6
Continuous
 62
     7
100
AcDbLine
 10
161.9697236251
 20
457.9139227512
 30
0.0
 11
161.9697236251
 21
458.0008550765
 31
0.0
  0
LINE
  5
B9
330
95
100
AcDbEntity
  8
410172038_LINEAR
  6
Continuous
 62
     7
100
AcDbLine
 10
190.9697233465
 20
433.000904194
 30
0.0
 11
190.9697233465
 21
358.3509145268
 31
0.0
  0
LINE
  5
BA
330
95
100
AcDbEntity
  8
410172038_LINEAR
  6
Continuous
 62
     7
100
AcDbLine
 10
190.9697233465
 20
477.300914026
 30
0.0
 11
190.9697233465
 21
458.7009142775
 31
0.0
  0
LINE
  5
BB
330
95
100
AcDbEntity
  8
410172038_LINEAR
  6
Continuous
 62
     7
100
AcDbLine
 10
161.2697233465
 20
477.3009140126
 30
0.0
 11
161.2697233465
 21
458.7009142686
 31
0.0
  0
LINE
  5
BC
330
95
100
AcDbEntity
  8
410172038_LINEAR
  6
Continuous
 62
     7
100
AcDbLine
 10
161.4233040876
 20
477.3009140118
 30
0.0
 11
161.2698465344
 21
477.3009140126
 31
0.0
  0
SPLINE
  5
BD
330
95
100
AcDbEntity
  8
410172038_LINEAR
  6
Continuous
 62
     7
100
AcDbSpline
210
0.0
220
0.0
230
1.0
 70
     8
 71
     2
 72
    20
 73
    17
 74
     0
 42
0.0000000003890932
 43
0.0000000001
 40
0.0
 40
0.0
 40
0.0
 40
0.125
 40
0.125
 40
0.25
 40
0.25
 40
0.375
 40
0.375
 40
0.5
 40
0.5
 40
0.625
 40
0.625
 40
0.75
 40
0.75
 40
0.875
 40
0.875
 40
1.0
 40
1.0
 40
1.0
 10
161.2698465207237
 20
433.0001911492143
 30
0.0
 10
161.2697233464972
 20
435.5273289544189
 30
0.0
 10
161.2697233464972
 20
438.0096815559598
 30
0.0
 10
161.2697233464972
 20
440.5025989515514
 30
0.0
 10
161.2697233464972
 20
442.8282803694219
 30
0.0
 10
161.2697233464972
 20
445.1557238074494
 30
0.0
 10
161.2697233464972
 20
447.2723157160743
 30
0.0
 10
161.2697233464972
 20
449.3837272151719
 30
0.0
 10
161.2697233464972
 20
451.1738369732274
 30
0.0
 10
161.2697233464972
 20
452.9632111431554
 30
0.0
 10
161.2697233464972
 20
454.3767929447694
 30
0.0
 10
161.2697233464972
 20
455.7926851716228
 30
0.0
 10
161.2697233464972
 20
456.7562953655819
 30
0.0
 10
161.2697233464972
 20
457.7183806999359
 30
0.0
 10
161.2697233464972
 20
458.2107923865158
 30
0.0
 10
161.2697233464972
 20
458.7008160921653
 30
0.0
 10
161.2698464779347
 20
458.7009139249311
 30
0.0
  0
SPLINE
  5
BE
330
95
100
AcDbEntity
  8
410172038_LINEAR
  6
Continuous
 62
     7
100
AcDbSpline
210
0.0
220
0.0
230
1.0
 70
     8
 71
     2
 72
    20
 73
    17
 74
     0
 42
0.000000000389104
 43
0.0000000001
 40
0.0
 40
0.0
 40
0.0
 40
0.125
 40
0.125
 40
0.25
 40
0.25
 40
0.375
 40
0.375
 40
0.5
 40
0.5
 40
0.625
 40
0.625
 40
0.75
 40
0.75
 40
0.875
 40
0.875
 40
1.0
 40
1.0
 40
1.0
 10
190.9696001662014
 20
458.7009139700521
 30
0.0
 10
190.9697233464972
 20
458.7008150168562
 30
0.0
 10
190.9697233464972
 20
458.2107924407938
 30
0.0
 10
190.9697233464972
 20
457.7186835062464
 30
0.0
 10
190.9697233464972
 20
456.7562954011913
 30
0.0
 10
190.9697233464972
 20
455.7931820340752
 30
0.0
 10
190.9697233464972
 20
454.3767929643807
 30
0.0
 10
190.9697233464972
 20
452.9638792927265
 30
0.0
 10
190.9697233464972
 20
451.1738369845129
 30
0.0
 10
190.9697233464972
 20
449.3845414427883
 30
0.0
 10
190.9697233464972
 20
447.2723157250149
 30
0.0
 10
190.9697233464972
 20
445.1566507876949
 30
0.0
 10
190.9697233464972
 20
442.8282803787845
 30
0.0
 10
190.9697233464972
 20
440.5036038141109
 30
0.0
 10
190.9697233464972
 20
438.0096815646859
 30
0.0
 10
190.9697233464972
 20
435.5278611766149
 30
0.0
 10
190.9696001187371
 20
433.0009041939995
 30
0.0
  0
LINE
  5
BF
330
95
100
AcDbEntity
  8
410172038_LINEAR
  6
Continuous
 62
     7
100
AcDbLine
 10
190.9142110989
 20
358.3509145126
 30
0.0
 11
190.9696001295
 21
358.3509145268
 31
0.0
  0
LINE
  5
C0
330
95
100
AcDbEntity
  8
410172038_LINEAR
  6
Continuous
 62
     7
100
AcDbLine
 10
187.921066458
 20
478.0009141518
 30
0.0
 11
182.9691132998
 21
478.0009732457
 31
0.0
  0
LINE
  5
C1
330
95
100
AcDbEntity
  8
410172038_LINEAR
  6
Continuous
 62
     7
100
AcDbLine
 10
182.9691132998
 20
478.0010323482
 30
0.0
 11
169.2687390259
 21
478.0010323481
 31
0.0
  0
LINE
  5
C2
330
95
100
AcDbEntity
  8
410172038_LINEAR
  6
Continuous
 62
     7
100
AcDbLine
 10
169.2687390259
 20
478.0009732451
 30
0.0
 11
161.9697236119
 21
478.0009732398
 31
0.0
  0
ARC
  5
C3
330
95
100
AcDbEntity
  8
410172038_LINEAR
  6
Continuous
 62
     7
100
AcDbCircle
 10
161.969368755
 20
477.3014509055
 30
0.0
 40
0.6995224525381084
100
AcDbArc
 50
89.9709336652
 51
180.043953696
  0
LINE
  5
C4
330
95
100
AcDbEntity
  8
410172038_LINEAR
  6
Continuous
 62
     7
100
AcDbLine
 10
161.2697233465
 20
358.3509145268
 30
0.0
 11
161.2697233465
 21
433.0001911492
 31
0.0
  0
LINE
  5
C5
330
95
100
AcDbEntity
  8
410172038_LINEAR
  6
Continuous
 62
     7
100
AcDbLine
 10
161.2698465597
 20
358.3509145268
 30
0.0
 11
161.3252356041
 21
358.3509145126
 31
0.0
  0
ARC
  5
C6
330
95
100
AcDbEntity
  8
410172038_LINEAR
  6
Continuous
 62
     7
100
AcDbCircle
 10
190.2700066644
 20
477.3014099727
 30
0.0
 40
0.6995936709998034
100
AcDbArc
 50
359.9593826288
 51
81.7952338485
  0
SPLINE
  5
C7
330
95
100
AcDbEntity
  8
410172038_LINEAR
  6
Continuous
 62
     7
100
AcDbSpline
210
0.0
220
0.0
230
1.0
 70
     8
 71
     3
 72
    14
 73
    10
 74
     0
 42
0.0000000040835974
 43
0.0000000001
 40
0.0
 40
0.0
 40
0.0
 40
0.0
 40
0.25
 40
0.25
 40
0.5
 40
0.5
 40
0.75
 40
0.75
 40
1.0
 40
1.0
 40
1.0
 40
1.0
 10
190.3698465641007
 20
477.9938428567969
 30
0.0
 10
190.3698377866525
 20
477.9938089830943
 30
0.0
 10
190.3148605532554
 20
477.994164242011
 30
0.0
 10
190.097408060557
 20
477.9955186047908
 30
0.0
 10
189.9375215758205
 20
477.9964632263673
 30
0.0
 10
189.5182605789039
 20
477.9981495925838
 30
0.0
 10
189.2553431192937
 20
477.9989857632354
 30
0.0
 10
188.6500980498286
 20
478.0003815485835
 30
0.0
 10
188.3065562084204
 20
478.0009141518474
 30
0.0
 10
187.9210664580485
 20
478.0009141518469
 30
0.0
  0
SPLINE
  5
C8
330
95
100
AcDbEntity
  8
410172038_LINEAR
  6
Continuous
 62
     7
100
AcDbSpline
210
0.0
220
0.0
230
1.0
 70
     8
 71
     3
 72
    14
 73
    10
 74
     0
 42
0.0000000041203991
 43
0.0000000001
 40
0.0
 40
0.0
 40
0.0
 40
0.0
 40
0.25
 40
0.25
 40
0.5
 40
0.5
 40
0.75
 40
0.75
 40
1.0
 40
1.0
 40
1.0
 40
1.0
 10
187.9429390386451
 20
458.0009141518469
 30
0.0
 10
188.3220485779792
 20
458.0009141518478
 30
0.0
 10
188.6658969579778
 20
458.0014488345446
 30
0.0
 10
189.2678437903069
 20
458.0029541545942
 30
0.0
 10
189.5258748440677
 20
458.0038474046855
 30
0.0
 10
189.9427579527596
 20
458.0053866232852
 30
0.0
 10
190.1023575918666
 20
458.0061164769401
 30
0.0
 10
190.3158720091631
 20
458.0074294640852
 30
0.0
 10
190.3698380485049
 20
458.0080191180911
 30
0.0
 10
190.3698465642777
 20
458.0079854470442
 30
0.0
  0
LINE
  5
C9
330
95
100
AcDbEntity
  8
410172038_LINEAR
  6
Continuous
 62
     7
100
AcDbLine
 10
190.3698465349
 20
477.9938428625
 30
0.0
 11
190.3698465349
 21
478.0009141518
 31
0.0
  0
LINE
  5
CA
330
95
100
AcDbEntity
  8
410172038_LINEAR
  6
Continuous
 62
     7
100
AcDbLine
 10
190.3698465349
 20
478.0009141518
 30
0.0
 11
187.921066458
 21
478.0009141518
 31
0.0
  0
LINE
  5
CB
330
95
100
AcDbEntity
  8
410172038_LINEAR
  6
Continuous
 62
     7
100
AcDbLine
 10
190.3698465349
 20
458.0009141518
 30
0.0
 11
190.3698465349
 21
458.0079854413
 31
0.0
  0
LINE
  5
CC
330
95
100
AcDbEntity
  8
410172038_LINEAR
  6
Continuous
 62
     7
100
AcDbLine
 10
190.3698465349
 20
458.0009141518
 30
0.0
 11
187.9429390386
 21
458.0009141518
 31
0.0
  0
ARC
  5
CD
330
95
100
AcDbEntity
  8
410172038_LINEAR
  6
Continuous
 62
     7
100
AcDbCircle
 10
190.3570549029
 20
458.5155183566
 30
0.0
 40
0.4955755055822575
100
AcDbArc
 50
291.3717735179
 51
21.9688225563
  0
ARC
  5
CE
330
95
100
AcDbEntity
  8
410172038_LINEAR
  6
Continuous
 62
     7
100
AcDbCircle
 10
161.8823923413
 20
458.5155184117
 30
0.0
 40
0.4955755471587755
100
AcDbArc
 50
158.0311873925
 51
248.628132485
  0
ARC
  5
CF
330
95
100
AcDbEntity
  8
410172038_LINEAR
  6
Continuous
 62
     7
100
AcDbCircle
 10
190.3588159031
 20
477.4872125286
 30
0.0
 40
0.4939903373446166
100
AcDbArc
 50
337.8440035716
 51
68.2096698528
  0
ARC
  5
D0
330
95
100
AcDbEntity
  8
410172038_LINEAR
  6
Continuous
 62
     7
100
AcDbCircle
 10
161.8822295313
 20
477.4866036566
 30
0.0
 40
0.4952425878108155
100
AcDbArc
 50
111.3677450816
 51
202.0210119991
  0
SPLINE
  5
D1
330
95
100
AcDbEntity
  8
410172038_LINEAR
  6
Continuous
 62
     7
100
AcDbSpline
210
0.0
220
0.0
230
1.0
 70
     8
 71
     3
 72
    11
 73
     7
 74
     0
 42
0.0000000352942956
 43
0.0000000001
 40
0.0
 40
0.0
 40
0.0
 40
0.0
 40
0.2400968447345865
 40
0.4864875655072799
 40
0.7395194619013769
 40
1.0
 40
1.0
 40
1.0
 40
1.0
 10
190.8169362746929
 20
358.1205188170618
 30
0.0
 10
190.8401302605915
 20
358.1327567306157
 30
0.0
 10
190.8794826676926
 20
358.154747258741
 30
0.0
 10
190.9179709826572
 20
358.2099500265189
 30
0.0
 10
190.9326398511048
 20
358.2769189540091
 30
0.0
 10
190.9217866311915
 20
358.3233417055667
 30
0.0
 10
190.9145721513727
 20
358.3509141518168
 30
0.0
  0
SPLINE
  5
D2
330
95
100
AcDbEntity
  8
410172038_LINEAR
  6
Continuous
 62
     7
100
AcDbSpline
210
0.0
220
0.0
230
1.0
 70
     8
 71
     3
 72
    11
 73
     7
 74
     0
 42
0.0000000352942956
 43
0.0000000001
 40
0.0
 40
0.0
 40
0.0
 40
0.0
 40
0.2604805385984135
 40
0.5135124351386899
 40
0.7599031557261692
 40
1.0
 40
1.0
 40
1.0
 40
1.0
 10
161.3248745415419
 20
358.3509141517907
 30
0.0
 10
161.3176600617348
 20
358.3233417055542
 30
0.0
 10
161.3068068418527
 20
358.2769189540342
 30
0.0
 10
161.3214757103239
 20
358.2099500265403
 30
0.0
 10
161.3599640252893
 20
358.1547472587503
 30
0.0
 10
161.3993164324344
 20
358.1327567306035
 30
0.0
 10
161.422510418333
 20
358.1205188170494
 30
0.0
  0
LINE
  5
D4
330
95
100
AcDbEntity
  8
410169038_QUADRA
  6
Continuous
 62
     7
100
AcDbLine
 10
156.6697233465
 20
358.1009141518
 30
0.0
 11
195.5697233465
 21
358.1009141518
 31
0.0
  0
LINE
  5
D5
330
95
100
AcDbEntity
  8
410169038_QUADRA
  6
Continuous
 62
     7
100
AcDbLine
 10
196.0697233465
 20
357.4409141518
 30
0.0
 11
196.0697233465
 21
357.6009141518
 31
0.0
  0
LINE
  5
D6
330
95
100
AcDbEntity
  8
410169038_QUADRA
  6
Continuous
 62
     7
100
AcDbLine
 10
156.1697233465
 20
357.6009141518
 30
0.0
 11
156.1697233465
 21
357.4409141518
 31
0.0
  0
ARC
  5
D7
330
95
100
AcDbEntity
  8
410169038_QUADRA
  6
Continuous
 62
     7
100
AcDbCircle
 10
156.6697233465
 20
357.6009141518
 30
0.0
 40
0.5000000000000004
100
AcDbArc
 50
90.0
 51
180.0
  0
ARC
  5
D8
330
95
100
AcDbEntity
  8
410169038_QUADRA
  6
Continuous
 62
     7
100
AcDbCircle
 10
195.5697233465
 20
357.6009141518
 30
0.0
 40
0.5000000000000004
100
AcDbArc
 50
0.0
 51
90.0
  0
ELLIPSE
  5
DA
330
95
100
AcDbEntity
  8
$DDT_AUDIT_GENERATED_(D9)
  6
Continuous
 62
     7
100
AcDbEllipse
 10
176.1197233465
 20
458.9311995692
 30
0.0
 11
6.074999999999923
 21
1.387778780781446E-14
 31
0.0
210
0.0
220
0.0
230
1.0
 40
0.4226182617
 41
3.518836412969698
 42
5.910093365475104
  0
LINE
  5
DC
330
95
100
AcDbEntity
  8
410170038_QUADRA
  6
Continuous
 62
     7
100
AcDbLine
 10
257.969353617
 20
349.4409141518
 30
0.0
 11
308.2698409925
 21
349.4409141518
 31
0.0
  0
LINE
  5
DD
330
95
100
AcDbEntity
  8
410170038_QUADRA
  6
Continuous
 62
     7
100
AcDbLine
 10
257.969353617
 20
349.4409141518
 30
0.0
 11
256.3695973047
 21
349.4409141518
 31
0.0
  0
LINE
  5
DE
330
95
100
AcDbEntity
  8
410170038_QUADRA
  6
Continuous
 62
     7
100
AcDbLine
 10
256.3695973047
 20
349.4409141518
 30
0.0
 11
256.5006626082
 21
356.9496403551
 31
0.0
  0
LINE
  5
DF
330
95
100
AcDbEntity
  8
410170038_QUADRA
  6
Continuous
 62
     7
100
AcDbLine
 10
309.8695973047
 20
349.4409141518
 30
0.0
 11
308.2698409925
 21
349.4409141518
 31
0.0
  0
LINE
  5
E0
330
95
100
AcDbEntity
  8
410170038_QUADRA
  6
Continuous
 62
     7
100
AcDbLine
 10
257.0005864557
 20
357.4409141518
 30
0.0
 11
258.1004189204
 21
357.4409141518
 31
0.0
  0
LINE
  5
E1
330
95
100
AcDbEntity
  8
410170038_QUADRA
  6
Continuous
 62
     7
100
AcDbLine
 10
258.1004189204
 20
357.4409141518
 30
0.0
 11
308.1387756891
 21
357.4409141518
 31
0.0
  0
LINE
  5
E2
330
95
100
AcDbEntity
  8
410170038_QUADRA
  6
Continuous
 62
     7
100
AcDbLine
 10
308.1387756891
 20
357.4409141518
 30
0.0
 11
309.2386081538
 21
357.4409141518
 31
0.0
  0
LINE
  5
E3
330
95
100
AcDbEntity
  8
410170038_QUADRA
  6
Continuous
 62
     7
100
AcDbLine
 10
309.7385320013
 20
356.9496403551
 30
0.0
 11
309.8695973047
 21
349.4409141518
 31
0.0
  0
ARC
  5
E4
330
95
100
AcDbEntity
  8
410170038_QUADRA
  6
Continuous
 62
     7
100
AcDbCircle
 10
257.0005864557
 20
356.9409141518
 30
0.0
 40
0.5000000000000004
100
AcDbArc
 50
90.0
 51
179.0
  0
ARC
  5
E5
330
95
100
AcDbEntity
  8
410170038_QUADRA
  6
Continuous
 62
     7
100
AcDbCircle
 10
309.2386081538
 20
356.9409141518
 30
0.0
 40
0.5000000000000004
100
AcDbArc
 50
1.0
 51
90.0
  0
LINE
  5
E6
330
95
100
AcDbEntity
  8
410164038_QUADRA
  6
Continuous
 62
     7
100
AcDbLine
 10
347.8893394577
 20
395.4009141519
 30
0.0
 11
355.1894466934
 21
395.4009141519
 31
0.0
  0
ARC
  5
E7
330
95
100
AcDbEntity
  8
410164038_QUADRA
  6
Continuous
 62
     7
100
AcDbCircle
 10
355.1893016862
 20
396.1010056004
 30
0.0
 40
0.7000914545115281
100
AcDbArc
 50
270.0074842032
 51
359.992515813
  0
LINE
  5
E8
330
95
100
AcDbEntity
  8
410164038_QUADRA
  6
Continuous
 62
     7
100
AcDbLine
 10
294.747646821
 20
395.4009141519
 30
0.0
 11
347.8893394573
 21
395.4009141519
 31
0.0
  0
LINE
  5
E9
330
95
100
AcDbEntity
  8
410164038_QUADRA
  6
Continuous
 62
     7
100
AcDbLine
 10
355.1894466926
 20
400.4009141519
 30
0.0
 11
347.8893394577
 21
400.4009141519
 31
0.0
  0
LINE
  5
EA
330
95
100
AcDbEntity
  8
410164038_QUADRA
  6
Continuous
 62
     7
100
AcDbLine
 10
347.8893394573
 20
400.4009141519
 30
0.0
 11
285.1524060345
 21
400.4009141519
 31
0.0
  0
LINE
  5
EB
330
95
100
AcDbEntity
  8
410164038_QUADRA
  6
Continuous
 62
     7
100
AcDbLine
 10
285.1524060345
 20
400.4009141519
 30
0.0
 11
284.7359191331
 21
400.4009141519
 31
0.0
  0
LINE
  5
EC
330
95
100
AcDbEntity
  8
410164038_QUADRA
  6
Continuous
 62
     7
100
AcDbLine
 10
284.7359191331
 20
400.4009141519
 30
0.0
 11
267.807334951
 21
400.4009141519
 31
0.0
  0
LINE
  5
ED
330
95
100
AcDbEntity
  8
410164038_QUADRA
  6
Continuous
 62
     7
100
AcDbLine
 10
355.8893395766
 20
399.7009141519
 30
0.0
 11
355.8893395766
 21
396.1009141519
 31
0.0
  0
ARC
  5
EE
330
95
100
AcDbEntity
  8
410164038_QUADRA
  6
Continuous
 62
     7
100
AcDbCircle
 10
355.1894845449
 20
399.701005562
 30
0.0
 40
0.6999085958449986
100
AcDbArc
 50
359.9925170024
 51
90.0074830154
  0
LINE
  5
EF
330
95
100
AcDbEntity
  8
410164038_QUADRA
  6
Continuous
 62
     7
100
AcDbLine
 10
266.5733266603
 20
358.4009141519
 30
0.0
 11
299.6661182055
 21
358.4009141519
 31
0.0
  0
LINE
  5
F0
330
95
100
AcDbEntity
  8
410164038_QUADRA
  6
Continuous
 62
     7
100
AcDbLine
 10
299.866086906
 20
358.6044850111
 30
0.0
 11
266.4059301915
 21
358.6044850111
 31
0.0
  0
LINE
  5
F1
330
95
100
AcDbEntity
  8
410164038_QUADRA
  6
Continuous
 62
     7
100
AcDbLine
 10
266.3952461805
 20
358.6044850111
 30
0.0
 11
266.3733585404
 21
358.6044850111
 31
0.0
  0
ARC
  5
F2
330
95
100
AcDbEntity
  8
410164038_QUADRA
  6
Continuous
 62
     7
100
AcDbCircle
 10
17116.7456298905
 20
18.0943360618
 30
0.0
 40
16852.25715839913
100
AcDbArc
 50
178.8422249963
 51
178.8429172497
  0
LINE
  5
F3
330
95
100
AcDbEntity
  8
410164038_QUADRA
  6
Continuous
 62
     7
100
AcDbLine
 10
299.8660786512
 20
358.6050170871
 30
0.0
 11
299.2635369676
 21
392.3473513715
 31
0.0
  0
LINE
  5
F4
330
95
100
AcDbEntity
  8
410164038_QUADRA
  6
Continuous
 62
     7
100
AcDbLine
 10
267.1074465256
 20
399.7134121806
 30
0.0
 11
266.3733585404
 21
358.6044850095
 31
0.0
  0
ARC
  5
F5
330
95
100
AcDbEntity
  8
410164038_QUADRA
  6
Continuous
 62
     7
100
AcDbCircle
 10
302.2630587676
 20
392.4009141519
 30
0.0
 40
2.999999999999996
100
AcDbArc
 50
90.0000000001
 51
181.0335501208
  0
ARC
  5
F6
330
95
100
AcDbEntity
  8
410164038_QUADRA
  6
Continuous
 62
     7
100
AcDbCircle
 10
267.8073349447
 20
399.7009141519
 30
0.0
 40
0.6999999999999984
100
AcDbArc
 50
90.0
 51
178.9673623365
  0
ARC
  5
F7
330
95
100
AcDbEntity
  8
410164038_QUADRA
  6
Continuous
 62
     7
100
AcDbCircle
 10
299.6661200327
 20
358.6009141519
 30
0.0
 40
0.2000000000000024
100
AcDbArc
 50
270.0
 51
2.4402035871
  0
ARC
  5
F8
330
95
100
AcDbEntity
  8
410164038_QUADRA
  6
Continuous
 62
     7
100
AcDbCircle
 10
266.573346205
 20
358.6009138803
 30
0.0
 40
0.1999996739101352
100
AcDbArc
 50
212.6635617982
 51
270.7273042984
  0
SPLINE
  5
FA
330
95
100
AcDbEntity
  8
410165038_QUADRA
  6
Continuous
 62
     7
100
AcDbSpline
210
0.0
220
0.0
230
1.0
 70
    12
 71
     2
 72
     6
 73
     3
 74
     0
 42
0.0000000167830249
 43
0.0000000001
 40
0.4973519146857485
 40
0.4973519146857485
 40
0.4973519146857485
 40
1.0
 40
1.0
 40
1.0
 10
302.8759860271871
 20
358.0301588931976
 30
0.0
 41
0.8666967901559468
 10
303.0045439291028
 20
357.9533629621145
 30
0.0
 41
0.8356403478474891
 10
303.0697233464972
 20
357.8185431092589
 30
0.0
 41
0.877966945008847
  0
LINE
  5
FB
330
95
100
AcDbEntity
  8
410165038_QUADRA
  6
Continuous
 62
     7
100
AcDbLine
 10
263.6194939448
 20
358.1009141518
 30
0.0
 11
302.6195704426
 21
358.1009141518
 31
0.0
  0
ARC
  5
FC
330
95
100
AcDbEntity
  8
410165038_QUADRA
  6
Continuous
 62
     7
100
AcDbCircle
 10
263.6194939448
 20
357.6009123874
 30
0.0
 40
0.5000024048401328
100
AcDbArc
 50
90.0000000001
 51
154.0972575055
  0
LINE
  5
FD
330
95
100
AcDbEntity
  8
410165038_QUADRA
  6
Continuous
 62
     7
100
AcDbLine
 10
308.0695753877
 20
349.4406426338
 30
0.0
 11
258.1695753879
 21
349.4407793415
 31
0.0
  0
SPLINE
  5
FE
330
95
100
AcDbEntity
  8
410165038_QUADRA
  6
Continuous
 62
     7
100
AcDbSpline
210
0.0
220
0.0
230
1.0
 70
     8
 71
     3
 72
    22
 73
    18
 74
     0
 42
0.0000000002468922
 43
0.0000000001
 40
0.0154868759339844
 40
0.0154868759339844
 40
0.0154868759339844
 40
0.0154868759339844
 40
0.1250000000000001
 40
0.1250000000000001
 40
0.2500000000000002
 40
0.2500000000000002
 40
0.3750000000000002
 40
0.3750000000000002
 40
0.5000000000000002
 40
0.5000000000000002
 40
0.6250000000000002
 40
0.6250000000000002
 40
0.7500000000000001
 40
0.7500000000000001
 40
0.8750000000000001
 40
0.8750000000000001
 40
1.0
 40
1.0
 40
1.0
 40
1.0
 10
303.0458661875963
 20
357.8186394597613
 30
0.0
 10
302.9335797227125
 20
357.8188228622423
 30
0.0
 10
302.4262127025713
 20
357.8187136093263
 30
0.0
 10
300.5520854183321
 20
357.8185984960569
 30
0.0
 10
299.071815274041
 20
357.8187944487027
 30
0.0
 10
295.3796639914523
 20
357.8185993151403
 30
0.0
 10
293.1660649394425
 20
357.8189520970068
 30
0.0
 10
288.3412700451698
 20
357.8186492086186
 30
0.0
 10
285.7314283294536
 20
357.8188454586613
 30
0.0
 10
280.5077099680952
 20
357.8191472400084
 30
0.0
 10
277.8998114212241
 20
357.8191307593725
 30
0.0
 10
273.0712701545266
 20
357.8190653347622
 30
0.0
 10
270.8588628686717
 20
357.8192392450262
 30
0.0
 10
267.1674175831374
 20
357.8190529987493
 30
0.0
 10
265.6880659432762
 20
357.8193761223812
 30
0.0
 10
263.6888057217325
 20
357.8190452146816
 30
0.0
 10
263.1697254663115
 20
357.8192345925921
 30
0.0
 10
263.1697233465039
 20
357.8193358608137
 30
0.0
  0
ARC
  5
FF
330
95
100
AcDbEntity
  8
410165038_QUADRA
  6
Continuous
 62
     7
100
AcDbCircle
 10
302.6425041371
 20
357.6658284378
 30
0.0
 40
0.431429492352041
100
AcDbArc
 50
20.2801453611
 51
76.0664290721
  0
SPLINE
  5
100
330
95
100
AcDbEntity
  8
410165038_QUADRA
  6
Continuous
 62
     7
100
AcDbSpline
210
0.0
220
0.0
230
1.0
 70
     8
 71
     3
 72
     8
 73
     4
 74
     0
 42
0.0000000474291892
 43
0.0000000001
 40
0.3309753016321212
 40
0.3309753016321212
 40
0.3309753016321212
 40
0.3309753016321212
 40
0.384726084237061
 40
0.384726084237061
 40
0.384726084237061
 40
0.384726084237061
 10
263.2873522923943
 20
357.9739284396319
 30
0.0
 10
263.2846087776296
 20
357.9714830563566
 30
0.0
 10
263.2818601030234
 20
357.9688930240414
 30
0.0
 10
263.2791062685757
 20
357.9661583426866
 30
0.0
  0
LINE
  5
101
330
95
100
AcDbEntity
  8
410165038_QUADRA
  6
Continuous
 62
     7
100
AcDbLine
 10
308.0695753877
 20
349.4406426338
 30
0.0
 11
308.0695753884
 21
349.4409141518
 31
0.0
  0
LINE
  5
102
330
95
100
AcDbEntity
  8
410165038_QUADRA
  6
Continuous
 62
     7
100
AcDbLine
 10
258.1695753882
 20
349.4409141518
 30
0.0
 11
258.1695753879
 21
349.4407793415
 31
0.0
  0
LINE
  5
103
330
95
100
AcDbEntity
  8
410165038_QUADRA
  6
Continuous
 62
     7
100
AcDbLine
 10
263.1697233465
 20
357.8193358598
 30
0.0
 11
263.1697233465
 21
357.4409141518
 31
0.0
  0
LINE
  5
104
330
95
100
AcDbEntity
  8
410165038_QUADRA
  6
Continuous
 62
     7
100
AcDbLine
 10
303.0697233465
 20
357.4409141518
 30
0.0
 11
303.0697233465
 21
357.8185431093
 31
0.0
  0
ARC
  5
105
330
95
100
AcDbEntity
  8
410165038_QUADRA
  6
Continuous
 62
     7
100
AcDbCircle
 10
59.6197506481
 20
357.6011707389
 30
0.0
 40
0.499999999991132
100
AcDbArc
 50
120.8604058499
 51
154.1981364987
  0
ARC
  5
106
330
95
100
AcDbEntity
  8
410165038_QUADRA
  6
Continuous
 62
     7
100
AcDbCircle
 10
98.6198271448
 20
357.6010621285
 30
0.0
 40
0.5000024048252416
100
AcDbArc
 50
25.9025855245
 51
89.9998430305
  0
LINE
  5
107
330
95
100
AcDbEntity
  8
410165038_QUADRA
  6
Continuous
 62
     7
100
AcDbLine
 10
59.6197520179
 20
358.1011707389
 30
0.0
 11
98.6198285147
 21
358.1010638929
 31
0.0
  0
SPLINE
  5
108
330
95
100
AcDbEntity
  8
410165038_QUADRA
  6
Continuous
 62
     7
100
AcDbSpline
210
0.0
220
0.0
230
1.0
 70
     8
 71
     3
 72
    22
 73
    18
 74
     0
 42
0.0000000002470545
 43
0.0000000001
 40
0.0
 40
0.0
 40
0.0
 40
0.0
 40
0.125
 40
0.125
 40
0.2499999999999999
 40
0.2499999999999999
 40
0.3749999999999999
 40
0.3749999999999999
 40
0.4999999999999999
 40
0.4999999999999999
 40
0.6249999999999999
 40
0.6249999999999999
 40
0.7499999999999998
 40
0.7499999999999998
 40
0.8749999999999999
 40
0.8749999999999999
 40
0.9852138896270107
 40
0.9852138896270107
 40
0.9852138896270107
 40
0.9852138896270107
 10
99.06959834155386
 20
357.8194843696901
 30
0.0
 10
99.06961716230668
 20
357.8195856089607
 30
0.0
 10
98.55001217695262
 20
357.8194784621164
 30
0.0
 10
96.55226128512237
 20
357.8193347755847
 30
0.0
 10
95.07178569113867
 20
357.819470189885
 30
0.0
 10
91.38035706826481
 20
357.819145628587
 30
0.0
 10
89.16788960393197
 20
357.8194931902702
 30
0.0
 10
84.33958232738175
 20
357.8190466928611
 30
0.0
 10
81.73136946264468
 20
357.8191126698175
 30
0.0
 10
76.50810312330087
 20
357.819286496865
 30
0.0
 10
73.89707496431875
 20
357.8191718804507
 30
0.0
 10
69.07253500225723
 20
357.8189577975605
 30
0.0
 10
66.86047920616002
 20
357.8191277579487
 30
0.0
 10
63.16543252121706
 20
357.8187929969648
 30
0.0
 10
61.68780857265883
 20
357.8191599569359
 30
0.0
 10
59.80653646949897
 20
357.8186736672002
 30
0.0
 10
59.29905010827541
 20
357.8192769644962
 30
0.0
 10
59.19131306369268
 20
357.8189753670298
 30
0.0
  0
ARC
  5
109
330
95
100
AcDbEntity
  8
410165038_QUADRA
  6
Continuous
 62
     7
100
AcDbCircle
 10
59.5491752244
 20
357.7071635625
 30
0.0
 40
0.3728661221309833
100
AcDbArc
 50
119.8853762393
 51
163.0855595686
  0
SPLINE
  5
10A
330
95
100
AcDbEntity
  8
410165038_QUADRA
  6
Continuous
 62
     7
100
AcDbSpline
210
0.0
220
0.0
230
1.0
 70
     8
 71
     3
 72
     8
 73
     4
 74
     0
 42
0.0000000389206711
 43
0.0000000001
 40
0.0
 40
0.0
 40
0.0
 40
0.0
 40
1.0
 40
1.0
 40
1.0
 40
1.0
 10
99.05681413329916
 20
357.8155372610827
 30
0.0
 10
99.00337944913262
 20
357.9280288677212
 30
0.0
 10
98.95172875218107
 20
357.9904516853733
 30
0.0
 10
98.90186204244452
 20
358.0028057140389
 30
0.0
  0
LINE
  5
10B
330
95
100
AcDbEntity
  8
410165038_QUADRA
  6
Continuous
 62
     7
100
AcDbLine
 10
59.16959834
 20
357.8188009291
 30
0.0
 11
59.1695973048
 21
357.4409141518
 31
0.0
  0
LINE
  5
10C
330
95
100
AcDbEntity
  8
410165038_QUADRA
  6
Continuous
 62
     7
100
AcDbLine
 10
99.0695973049
 20
357.4409141518
 30
0.0
 11
99.0695983421
 21
357.8194843914
 31
0.0
  0
LINE
  5
10D
330
95
100
AcDbEntity
  8
02559031_RING_GL
  6
Continuous
 62
     7
100
AcDbLine
 10
268.7197233465
 20
358.4009141519
 30
0.0
 11
268.7197233465
 21
358.1009141518
 31
0.0
  0
LINE
  5
10E
330
95
100
AcDbEntity
  8
02559031_RING_GL
  6
Continuous
 62
     7
100
AcDbLine
 10
297.5197233465
 20
358.1009141518
 30
0.0
 11
297.5197233465
 21
358.4009141519
 31
0.0
  0
LINE
  5
10F
330
95
100
AcDbEntity
  8
410170038_QUADRA
  6
Continuous
 62
     7
100
AcDbLine
 10
53.9694796587
 20
349.4409141518
 30
0.0
 11
104.2699670342
 21
349.4409141518
 31
0.0
  0
LINE
  5
110
330
95
100
AcDbEntity
  8
410170038_QUADRA
  6
Continuous
 62
     7
100
AcDbLine
 10
53.9694796587
 20
349.4409141518
 30
0.0
 11
52.3697233465
 21
349.4409141518
 31
0.0
  0
LINE
  5
111
330
95
100
AcDbEntity
  8
410170038_QUADRA
  6
Continuous
 62
     7
100
AcDbLine
 10
52.3697233465
 20
349.4409141518
 30
0.0
 11
52.5007886499
 21
356.9496403551
 31
0.0
  0
LINE
  5
112
330
95
100
AcDbEntity
  8
410170038_QUADRA
  6
Continuous
 62
     7
100
AcDbLine
 10
105.8697233465
 20
349.4409141518
 30
0.0
 11
104.2699670342
 21
349.4409141518
 31
0.0
  0
LINE
  5
113
330
95
100
AcDbEntity
  8
410170038_QUADRA
  6
Continuous
 62
     7
100
AcDbLine
 10
53.0007124975
 20
357.4409141518
 30
0.0
 11
54.1005449622
 21
357.4409141518
 31
0.0
  0
LINE
  5
114
330
95
100
AcDbEntity
  8
410170038_QUADRA
  6
Continuous
 62
     7
100
AcDbLine
 10
54.1005449622
 20
357.4409141518
 30
0.0
 11
104.1389017308
 21
357.4409141518
 31
0.0
  0
LINE
  5
115
330
95
100
AcDbEntity
  8
410170038_QUADRA
  6
Continuous
 62
     7
100
AcDbLine
 10
104.1389017308
 20
357.4409141518
 30
0.0
 11
105.2387341955
 21
357.4409141518
 31
0.0
  0
LINE
  5
116
330
95
100
AcDbEntity
  8
410170038_QUADRA
  6
Continuous
 62
     7
100
AcDbLine
 10
105.7386580431
 20
356.9496403551
 30
0.0
 11
105.8697233465
 21
349.4409141518
 31
0.0
  0
ARC
  5
117
330
95
100
AcDbEntity
  8
410170038_QUADRA
  6
Continuous
 62
     7
100
AcDbCircle
 10
53.0007124975
 20
356.9409141518
 30
0.0
 40
0.5000000000000004
100
AcDbArc
 50
90.0
 51
179.0
  0
ARC
  5
118
330
95
100
AcDbEntity
  8
410170038_QUADRA
  6
Continuous
 62
     7
100
AcDbCircle
 10
105.2387341955
 20
356.9409141518
 30
0.0
 40
0.5000000000000004
100
AcDbArc
 50
1.0
 51
90.0
  0
LINE
  5
119
330
95
100
AcDbEntity
  8
410170038_QUADRA
  6
Continuous
 62
     7
100
AcDbLine
 10
150.9694796587
 20
349.4409141518
 30
0.0
 11
201.2699670342
 21
349.4409141518
 31
0.0
  0
LINE
  5
11A
330
95
100
AcDbEntity
  8
410170038_QUADRA
  6
Continuous
 62
     7
100
AcDbLine
 10
150.9694796587
 20
349.4409141518
 30
0.0
 11
149.3697233465
 21
349.4409141518
 31
0.0
  0
LINE
  5
11B
330
95
100
AcDbEntity
  8
410170038_QUADRA
  6
Continuous
 62
     7
100
AcDbLine
 10
149.3697233465
 20
349.4409141518
 30
0.0
 11
149.5007886499
 21
356.9496403551
 31
0.0
  0
LINE
  5
11C
330
95
100
AcDbEntity
  8
410170038_QUADRA
  6
Continuous
 62
     7
100
AcDbLine
 10
202.8697233465
 20
349.4409141518
 30
0.0
 11
201.2699670342
 21
349.4409141518
 31
0.0
  0
LINE
  5
11D
330
95
100
AcDbEntity
  8
410170038_QUADRA
  6
Continuous
 62
     7
100
AcDbLine
 10
150.0007124975
 20
357.4409141518
 30
0.0
 11
151.1005449622
 21
357.4409141518
 31
0.0
  0
LINE
  5
11E
330
95
100
AcDbEntity
  8
410170038_QUADRA
  6
Continuous
 62
     7
100
AcDbLine
 10
151.1005449622
 20
357.4409141518
 30
0.0
 11
201.1389017308
 21
357.4409141518
 31
0.0
  0
LINE
  5
11F
330
95
100
AcDbEntity
  8
410170038_QUADRA
  6
Continuous
 62
     7
100
AcDbLine
 10
201.1389017308
 20
357.4409141518
 30
0.0
 11
202.2387341955
 21
357.4409141518
 31
0.0
  0
LINE
  5
120
330
95
100
AcDbEntity
  8
410170038_QUADRA
  6
Continuous
 62
     7
100
AcDbLine
 10
202.7386580431
 20
356.9496403551
 30
0.0
 11
202.8697233465
 21
349.4409141518
 31
0.0
  0
ARC
  5
121
330
95
100
AcDbEntity
  8
410170038_QUADRA
  6
Continuous
 62
     7
100
AcDbCircle
 10
150.0007124975
 20
356.9409141518
 30
0.0
 40
0.5000000000000004
100
AcDbArc
 50
90.0
 51
179.0
  0
ARC
  5
122
330
95
100
AcDbEntity
  8
410170038_QUADRA
  6
Continuous
 62
     7
100
AcDbCircle
 10
202.2387341955
 20
356.9409141518
 30
0.0
 40
0.5000000000000004
100
AcDbArc
 50
1.0
 51
90.0
  0
ENDBLK
  5
124
330
95
100
AcDbEntity
  8
0
100
AcDbBlockEnd
  0
BLOCK
  5
17E
330
125
100
AcDbEntity
  8
0
100
AcDbBlockBegin
  2
SE1
 70
     0
 10
0.0
 20
0.0
 30
0.0
  3
SE1
  1

  0
LINE
  5
127
330
125
100
AcDbEntity
  8
410164038_QUADRA
  6
Continuous
 62
     7
100
AcDbLine
 10
459.8100906681
 20
395.4009141519
 30
0.0
 11
467.1101038691
 21
395.4009141519
 31
0.0
  0
LINE
  5
128
330
125
100
AcDbEntity
  8
410164038_QUADRA
  6
Continuous
 62
     7
100
AcDbLine
 10
444.0101144844
 20
395.4009141519
 30
0.0
 11
459.8100906642
 21
395.4009141519
 31
0.0
  0
LINE
  5
129
330
125
100
AcDbEntity
  8
410164038_QUADRA
  6
Continuous
 62
     7
100
AcDbLine
 10
436.710077698
 20
395.4009141519
 30
0.0
 11
444.0101144844
 21
395.4009141519
 31
0.0
  0
LINE
  5
12A
330
125
100
AcDbEntity
  8
410164038_QUADRA
  6
Continuous
 62
     7
100
AcDbLine
 10
467.8101038689
 20
396.1009141519
 30
0.0
 11
467.8101038689
 21
399.7009141519
 31
0.0
  0
ARC
  5
12B
330
125
100
AcDbEntity
  8
410164038_QUADRA
  6
Continuous
 62
     7
100
AcDbCircle
 10
467.1100861566
 20
396.1009253213
 30
0.0
 40
0.7000111695727839
100
AcDbArc
 50
270.000914227
 51
359.9990857799
  0
ARC
  5
12C
330
125
100
AcDbEntity
  8
410164038_QUADRA
  6
Continuous
 62
     7
100
AcDbCircle
 10
436.7100730719
 20
396.1009029832
 30
0.0
 40
0.699988831401741
100
AcDbArc
 50
179.9990858159
 51
270.0009141916
  0
LINE
  5
12D
330
125
100
AcDbEntity
  8
410164038_QUADRA
  6
Continuous
 62
     7
100
AcDbLine
 10
444.0100908986
 20
400.4009141519
 30
0.0
 11
436.710077698
 21
400.4009141519
 31
0.0
  0
LINE
  5
12E
330
125
100
AcDbEntity
  8
410164038_QUADRA
  6
Continuous
 62
     7
100
AcDbLine
 10
459.8100670823
 20
400.4009141519
 30
0.0
 11
444.0100909026
 21
400.4009141519
 31
0.0
  0
LINE
  5
12F
330
125
100
AcDbEntity
  8
410164038_QUADRA
  6
Continuous
 62
     7
100
AcDbLine
 10
467.1101038687
 20
400.4009141519
 30
0.0
 11
459.8100670823
 21
400.4009141519
 31
0.0
  0
LINE
  5
130
330
125
100
AcDbEntity
  8
410164038_QUADRA
  6
Continuous
 62
     7
100
AcDbLine
 10
467.9215351301
 20
399.7134109575
 30
0.0
 11
467.8286662255
 21
399.7134109628
 31
0.0
  0
LINE
  5
131
330
125
100
AcDbEntity
  8
410164038_QUADRA
  6
Continuous
 62
     7
100
AcDbLine
 10
436.0100776978
 20
399.7009141519
 30
0.0
 11
436.0100776978
 21
396.1009141519
 31
0.0
  0
ARC
  5
132
330
125
100
AcDbEntity
  8
410164038_QUADRA
  6
Continuous
 62
     7
100
AcDbCircle
 10
436.7100730719
 20
399.7009253205
 30
0.0
 40
0.6999888314028646
100
AcDbArc
 50
89.9990858085
 51
180.000914184
  0
ARC
  5
133
330
125
100
AcDbEntity
  8
410164038_QUADRA
  6
Continuous
 62
     7
100
AcDbCircle
 10
467.1101084948
 20
399.7009253205
 30
0.0
 40
0.6999888314014594
100
AcDbArc
 50
359.9990858159
 51
90.0009141917
  0
ELLIPSE
  5
134
330
125
100
AcDbEntity
  8
410164038_QUADRA
  6
Continuous
 62
     7
100
AcDbEllipse
 10
467.1330004954
 20
399.7009141519
 30
0.0
 11
1.682681771697503E-13
 21
-0.699999999999909
 31
0.0
210
0.0
220
0.0
230
1.0
 40
0.9939665446
 41
1.588647051013512
 42
3.141592653589796
  0
LINE
  5
135
330
125
100
AcDbEntity
  8
410164038_QUADRA
  6
Continuous
 62
     7
100
AcDbLine
 10
468.4564278166
 20
358.4009141519
 30
0.0
 11
435.3636942166
 21
358.4009141519
 31
0.0
  0
LINE
  5
136
330
125
100
AcDbEntity
  8
410164038_QUADRA
  6
Continuous
 62
     7
100
AcDbLine
 10
468.6564362862
 20
358.6055659917
 30
0.0
 11
467.922360658
 21
399.7138011723
 31
0.0
  0
LINE
  5
137
330
125
100
AcDbEntity
  8
410164038_QUADRA
  6
Continuous
 62
     7
100
AcDbLine
 10
435.8978185985
 20
399.7136718009
 30
0.0
 11
435.163739283
 21
358.6052301288
 31
0.0
  0
ARC
  5
138
330
125
100
AcDbEntity
  8
410164038_QUADRA
  6
Continuous
 62
     7
100
AcDbCircle
 10
436.5977357154
 20
399.7009142252
 30
0.0
 40
0.6999981478781746
100
AcDbArc
 50
89.9944862357
 51
178.7916032736
  0
ARC
  5
139
330
125
100
AcDbEntity
  8
410164038_QUADRA
  6
Continuous
 62
     7
100
AcDbCircle
 10
467.2224513315
 20
399.7009141906
 30
0.0
 40
0.6999999673748996
100
AcDbArc
 50
0.7669632228
 51
90.0046053735
  0
ARC
  5
13A
330
125
100
AcDbEntity
  8
410164038_QUADRA
  6
Continuous
 62
     7
100
AcDbCircle
 10
468.4564226401
 20
358.6009142749
 30
0.0
 40
0.1999991369870833
100
AcDbArc
 50
269.9628174167
 51
4.1806414645
  0
ARC
  5
13B
330
125
100
AcDbEntity
  8
410164038_QUADRA
  6
Continuous
 62
     7
100
AcDbCircle
 10
435.3637153022
 20
358.6009141828
 30
0.0
 40
0.1999997214001381
100
AcDbArc
 50
176.7677964766
 51
270.0121576515
  0
LINE
  5
13C
330
125
100
AcDbEntity
  8
02559031_RING_GL
  6
Continuous
 62
     7
100
AcDbLine
 10
437.5100907834
 20
358.1009141518
 30
0.0
 11
466.3100907834
 21
358.1009141518
 31
0.0
  0
LINE
  5
13D
330
125
100
AcDbEntity
  8
02559031_RING_GL
  6
Continuous
 62
     7
100
AcDbLine
 10
466.3100907834
 20
358.1009141518
 30
0.0
 11
466.3100907834
 21
358.4009141519
 31
0.0
  0
LINE
  5
13E
330
125
100
AcDbEntity
  8
02559031_RING_GL
  6
Continuous
 62
     7
100
AcDbLine
 10
437.5100907834
 20
358.4009141519
 30
0.0
 11
437.5100907834
 21
358.1009141518
 31
0.0
  0
LINE
  5
13F
330
125
100
AcDbEntity
  8
410172038_LINEAR
  6
Continuous
 62
     7
100
AcDbLine
 10
486.910105883
 20
458.0007959019
 30
0.0
 11
591.4104620437
 21
458.0007959022
 31
0.0
  0
ARC
  5
140
330
125
100
AcDbEntity
  8
410172038_LINEAR
  6
Continuous
 62
     7
100
AcDbCircle
 10
598.7104443824
 20
458.7003778826
 30
0.0
 40
0.6995229161620861
100
AcDbArc
 50
269.9709517349
 51
0.0439381264
  0
LINE
  5
141
330
125
100
AcDbEntity
  8
410172038_LINEAR
  6
Continuous
 62
     7
100
AcDbLine
 10
591.4104620437
 20
458.0008550716
 30
0.0
 11
598.7100897328
 21
458.0008550563
 31
0.0
  0
ARC
  5
142
330
125
100
AcDbEntity
  8
410172038_LINEAR
  6
Continuous
 62
     7
100
AcDbCircle
 10
486.8986567413
 20
433.0123481893
 30
0.0
 40
24.98850951004377
100
AcDbArc
 50
89.9737484333
 51
180.0262279197
  0
LINE
  5
143
330
125
100
AcDbEntity
  8
410172038_LINEAR
  6
Continuous
 62
     7
100
AcDbLine
 10
599.4100907775
 20
458.7009142594
 30
0.0
 11
599.4100907775
 21
477.3009139743
 31
0.0
  0
LINE
  5
144
330
125
100
AcDbEntity
  8
410172038_LINEAR
  6
Continuous
 62
     7
100
AcDbLine
 10
461.9102089737
 20
400.4009141519
 30
0.0
 11
461.9102089737
 21
433.0009093608
 31
0.0
  0
ARC
  5
145
330
125
100
AcDbEntity
  8
410172038_LINEAR
  6
Continuous
 62
     7
100
AcDbCircle
 10
598.7104453682
 20
477.3014511084
 30
0.0
 40
0.6995222268948368
100
AcDbArc
 50
359.9560049398
 51
90.0291061245
  0
LINE
  5
146
330
125
100
AcDbEntity
  8
410172038_LINEAR
  6
Continuous
 62
     7
100
AcDbLine
 10
598.7100900125
 20
478.0009732451
 30
0.0
 11
591.4094647908
 21
478.0009732398
 31
0.0
  0
LINE
  5
147
330
125
100
AcDbEntity
  8
410172038_LINEAR
  6
Continuous
 62
     7
100
AcDbLine
 10
591.4094647908
 20
478.0010323548
 30
0.0
 11
486.9100998856
 21
478.0010323549
 31
0.0
  0
ARC
  5
148
330
125
100
AcDbEntity
  8
410172038_LINEAR
  6
Continuous
 62
     7
100
AcDbCircle
 10
486.8936384369
 20
432.9132361202
 30
0.0
 40
45.08774015280242
100
AcDbArc
 50
89.9790814187
 51
112.4118563102
  0
LINE
  5
149
330
125
100
AcDbEntity
  8
410172038_LINEAR
  6
Continuous
 62
     7
100
AcDbLine
 10
441.9099725901
 20
433.0008924624
 30
0.0
 11
441.9099725901
 21
400.4009141519
 31
0.0
  0
ARC
  5
14A
330
125
100
AcDbEntity
  8
410172038_LINEAR
  6
Continuous
 62
     7
100
AcDbCircle
 10
442.159980151
 20
358.350797565
 30
0.0
 40
0.2499044970158435
100
AcDbArc
 50
247.5160540082
 51
270.025434751
  0
ARC
  5
14B
330
125
100
AcDbEntity
  8
410172038_LINEAR
  6
Continuous
 62
     7
100
AcDbCircle
 10
486.9973282908
 20
433.0174567539
 30
0.0
 40
45.08729956521358
100
AcDbArc
 50
157.5880545119
 51
180.0210495145
  0
SPLINE
  5
14C
330
125
100
AcDbEntity
  8
410172038_LINEAR
  6
Continuous
 62
     7
100
AcDbSpline
210
0.0
220
0.0
230
1.0
 70
     8
 71
     3
 72
     9
 73
     5
 74
     0
 42
0.0000000002789844
 43
0.0000000001
 40
0.0
 40
0.0
 40
0.0
 40
0.0
 40
0.5000000000001424
 40
1.0
 40
1.0
 40
1.0
 40
1.0
 10
469.7034106071032
 20
474.59537113328
 30
0.0
 10
464.2619094719353
 20
472.3450272855656
 30
0.0
 10
454.2658589041923
 20
465.6451620573632
 30
0.0
 10
447.5659717650107
 20
455.6490618772313
 30
0.0
 10
445.3156273419864
 20
450.207581479918
 30
0.0
  0
LINE
  5
14D
330
125
100
AcDbEntity
  8
410169038_QUADRA
  6
Continuous
 62
     7
100
AcDbLine
 10
471.3600907834
 20
358.1009141518
 30
0.0
 11
466.3100907834
 21
358.1009141518
 31
0.0
  0
LINE
  5
14E
330
125
100
AcDbEntity
  8
410169038_QUADRA
  6
Continuous
 62
     7
100
AcDbLine
 10
437.5100907834
 20
358.1009141518
 30
0.0
 11
432.4600907834
 21
358.1009141518
 31
0.0
  0
ARC
  5
14F
330
125
100
AcDbEntity
  8
410169038_QUADRA
  6
Continuous
 62
     7
100
AcDbCircle
 10
432.4600907834
 20
357.6009141518
 30
0.0
 40
0.5000000000000004
100
AcDbArc
 50
90.0
 51
180.0
  0
ARC
  5
150
330
125
100
AcDbEntity
  8
410169038_QUADRA
  6
Continuous
 62
     7
100
AcDbCircle
 10
471.3600907834
 20
357.6009141518
 30
0.0
 40
0.5000000000000004
100
AcDbArc
 50
69.9912238861
 51
90.0
  0
LINE
  5
151
330
125
100
AcDbEntity
  8
$DDT_AUDIT_GENERATED_(D9)
  6
Continuous
 62
     7
100
AcDbLine
 10
573.0828696506
 20
457.853627943
 30
0.0
 11
572.1403079744
 21
457.4141042151
 31
0.0
  0
LINE
  5
152
330
125
100
AcDbEntity
  8
$DDT_AUDIT_GENERATED_(D9)
  6
Continuous
 62
     7
100
AcDbLine
 10
573.0828696506
 20
457.853627943
 30
0.0
 11
573.3984723575
 21
458.0007959021
 31
0.0
  0
ELLIPSE
  5
153
330
125
100
AcDbEntity
  8
$DDT_AUDIT_GENERATED_(D9)
  6
Continuous
 62
     7
100
AcDbEllipse
 10
572.0769152352
 20
457.5500503831
 30
0.0
 11
0.06339273926118938
 21
-0.1359461680554563
 31
0.0
210
0.0
220
0.0
230
1.0
 40
0.9787288534
 41
4.712388980383965
 42
6.283185307179586
  0
LINE
  5
154
330
125
100
AcDbEntity
  8
$DDT_AUDIT_GENERATED_(D9)
  6
Continuous
 62
     7
100
AcDbLine
 10
571.704742977
 20
458.0007959021
 30
0.0
 11
571.943860798
 21
457.4880060801
 31
0.0
  0
LINE
  5
155
330
125
100
AcDbEntity
  8
$DDT_AUDIT_GENERATED_(D9)
  6
Continuous
 62
     7
100
AcDbLine
 10
574.3484204844
 20
456.2370081506
 30
0.0
 11
578.1304834352
 21
458.0006130682
 31
0.0
  0
LINE
  5
156
330
125
100
AcDbEntity
  8
$DDT_AUDIT_GENERATED_(D9)
  6
Continuous
 62
     7
100
AcDbLine
 10
573.2312916248
 20
457.9228382462
 30
0.0
 11
573.9497426698
 21
456.3821150082
 31
0.0
  0
ARC
  5
157
330
125
100
AcDbEntity
  8
$DDT_AUDIT_GENERATED_(D9)
  6
Continuous
 62
     7
100
AcDbCircle
 10
574.2216350059
 20
456.5089004867
 30
0.0
 40
0.3000000000000019
100
AcDbArc
 50
205.0
 51
295.0
  0
LINE
  5
158
330
125
100
AcDbEntity
  8
410164038_QUADRA
  6
Continuous
 62
     7
100
AcDbLine
 10
435.8986464367
 20
399.7134109575
 30
0.0
 11
435.9013841136
 21
399.7134109577
 31
0.0
  0
LINE
  5
159
330
125
100
AcDbEntity
  8
410164038_QUADRA
  6
Continuous
 62
     7
100
AcDbLine
 10
468.6564422838
 20
358.6052301288
 30
0.0
 11
468.6564370004
 21
358.6055259981
 31
0.0
  0
LINE
  5
15A
330
125
100
AcDbEntity
  8
410164038_QUADRA
  6
Continuous
 62
     7
100
AcDbLine
 10
435.8978209087
 20
399.7138011723
 30
0.0
 11
435.8978193127
 21
399.7137117946
 31
0.0
  0
ARC
  5
15B
330
125
100
AcDbEntity
  8
410164038_QUADRA
  6
Continuous
 62
     7
100
AcDbCircle
 10
467.222445853
 20
399.7009142019
 30
0.0
 40
0.6999999580375823
100
AcDbArc
 50
6.8065824911
 51
90.0055138999
  0
ARC
  5
15C
330
125
100
AcDbEntity
  8
410164038_QUADRA
  6
Continuous
 62
     7
100
AcDbCircle
 10
436.5977302369
 20
399.7009142158
 30
0.0
 40
0.6999984616759891
100
AcDbArc
 50
89.9953947662
 51
178.7348824338
  0
ELLIPSE
  5
15D
330
125
100
AcDbEntity
  8
410165038_QUADRA
  6
Continuous
 62
     7
100
AcDbEllipse
 10
451.9100907834
 20
349.4407109876
 30
0.0
 11
24.95
 21
3.523657060577889E-16
 31
0.0
210
0.0
220
0.0
230
1.0
 40
0.0000027396
 41
0.0
 42
0.4013632230198468
  0
ELLIPSE
  5
15E
330
125
100
AcDbEntity
  8
410165038_QUADRA
  6
Continuous
 62
     7
100
AcDbEllipse
 10
451.9100907834
 20
349.4407109876
 30
0.0
 11
24.95
 21
3.523657060577889E-16
 31
0.0
210
0.0
220
0.0
230
1.0
 40
0.0000027396
 41
2.740229430569941
 42
3.543988722775728
  0
ELLIPSE
  5
15F
330
125
100
AcDbEntity
  8
410165038_QUADRA
  6
Continuous
 62
     7
100
AcDbEllipse
 10
451.9100907834
 20
349.4407109876
 30
0.0
 11
24.95
 21
3.523657060577889E-16
 31
0.0
210
0.0
220
0.0
230
1.0
 40
0.0000027396
 41
5.880789237993645
 42
6.283185307179586
  0
ELLIPSE
  5
160
330
125
100
AcDbEntity
  8
410165038_QUADRA
  6
Continuous
 62
     7
100
AcDbEllipse
 10
451.9100907834
 20
349.4407109876
 30
0.0
 11
-23.1977260975836
 21
-3.252606517456513E-16
 31
0.0
210
0.0
220
0.0
230
1.0
 40
0.0000027396
 41
0.0
 42
0.1441492429624306
  0
ELLIPSE
  5
161
330
125
100
AcDbEntity
  8
410165038_QUADRA
  6
Continuous
 62
     7
100
AcDbEllipse
 10
451.9100907834
 20
349.4407109876
 30
0.0
 11
-23.1977260975836
 21
-3.252606517456513E-16
 31
0.0
210
0.0
220
0.0
230
1.0
 40
0.0000027396
 41
2.997443410627346
 42
3.285740455024411
  0
ELLIPSE
  5
162
330
125
100
AcDbEntity
  8
410165038_QUADRA
  6
Continuous
 62
     7
100
AcDbEllipse
 10
451.9100907834
 20
349.4407109876
 30
0.0
 11
-23.1977260975836
 21
-3.252606517456513E-16
 31
0.0
210
0.0
220
0.0
230
1.0
 40
0.0000027396
 41
6.139037505745002
 42
6.283185307179586
  0
LINE
  5
163
330
125
100
AcDbEntity
  8
410165038_QUADRA
  6
Continuous
 62
     7
100
AcDbLine
 10
476.8600907834
 20
349.4407109876
 30
0.0
 11
476.8600907834
 21
349.4409141518
 31
0.0
  0
LINE
  5
164
330
125
100
AcDbEntity
  8
410165038_QUADRA
  6
Continuous
 62
     7
100
AcDbLine
 10
426.9600907834
 20
349.4409141518
 30
0.0
 11
426.9600907834
 21
349.4407109876
 31
0.0
  0
SPLINE
  5
165
330
125
100
AcDbEntity
  8
410165038_QUADRA
  6
Continuous
 62
     7
100
AcDbSpline
210
0.0
220
0.0
230
1.0
 70
     8
 71
     2
 72
    20
 73
    17
 74
     0
 42
0.0000000002436512
 43
0.0000000001
 40
0.5265294427435039
 40
0.5265294427435039
 40
0.5265294427435039
 40
0.5625
 40
0.5625
 40
0.625
 40
0.625
 40
0.6875
 40
0.6875
 40
0.75
 40
0.75
 40
0.8125
 40
0.8125
 40
0.875
 40
0.875
 40
0.9375
 40
0.9375
 40
1.0
 40
1.0
 40
1.0
 10
432.477905067783
 20
358.1011217645758
 30
0.0
 10
432.569482820678
 20
358.1011247680785
 30
0.0
 10
432.7851159067725
 20
358.101127738195
 30
0.0
 10
433.1596935638538
 20
358.1011328976037
 30
0.0
 10
433.8948372706439
 20
358.1011377597377
 30
0.0
 10
434.6297167783169
 20
358.1011426201242
 30
0.0
 10
435.6968425723383
 20
358.1011469956024
 30
0.0
 10
436.7637353751359
 20
358.1011513701254
 30
0.0
 10
438.1218910014675
 20
358.1011550909393
 30
0.0
 10
439.4800843571783
 20
358.1011588118565
 30
0.0
 10
441.0767790462978
 20
358.1011617347014
 30
0.0
 10
442.6739084280235
 20
358.101164658342
 30
0.0
 10
444.447990561369
 20
358.1011666716228
 30
0.0
 10
446.2224578467945
 20
358.1011686853407
 30
0.0
 10
448.105983697729
 20
358.1011697119604
 30
0.0
 10
449.9895016348396
 20
358.1011707385758
 30
0.0
 10
451.9102138570836
 20
358.1011707388668
 30
0.0
  0
SPLINE
  5
166
330
125
100
AcDbEntity
  8
410165038_QUADRA
  6
Continuous
 62
     7
100
AcDbSpline
210
0.0
220
0.0
230
1.0
 70
     8
 71
     2
 72
    20
 73
    17
 74
     0
 42
0.0000000002517419
 43
0.0000000001
 40
0.0
 40
0.0
 40
0.0
 40
0.0625
 40
0.0625
 40
0.125
 40
0.125
 40
0.1875
 40
0.1875
 40
0.25
 40
0.25
 40
0.3125
 40
0.3125
 40
0.375
 40
0.375
 40
0.4375
 40
0.4375
 40
0.4906897941889113
 40
0.4906897941889113
 40
0.4906897941889113
 10
451.9102138570836
 20
358.1011707388668
 30
0.0
 10
453.8302063271674
 20
358.1011707385755
 30
0.0
 10
455.7142601150466
 20
358.1011697115559
 30
0.0
 10
457.5979491691802
 20
358.101168684735
 30
0.0
 10
459.372633436365
 20
358.1011666706617
 30
0.0
 10
461.1470139690614
 20
358.1011646569332
 30
0.0
 10
462.7445091314861
 20
358.1011617323124
 30
0.0
 10
464.3417526206229
 20
358.1011588081524
 30
0.0
 10
465.7000594967125
 20
358.1011550861302
 30
0.0
 10
467.0584541395174
 20
358.1011513638675
 30
0.0
 10
468.1254109204939
 20
358.1011469876566
 30
0.0
 10
469.1926279620197
 20
358.1011426103782
 30
0.0
 10
469.9272550874405
 20
358.1011377487135
 30
0.0
 10
470.6619652119516
 20
358.1011328864996
 30
0.0
 10
471.0362726854798
 20
358.1011277252522
 30
0.0
 10
471.3549071643501
 20
358.1011233316681
 30
0.0
 10
471.4019918194063
 20
358.1011188679666
 30
0.0
  0
SPLINE
  5
167
330
125
100
AcDbEntity
  8
410165038_QUADRA
  6
Continuous
 62
     7
100
AcDbSpline
210
0.0
220
0.0
230
1.0
 70
     8
 71
     3
 72
    14
 73
    10
 74
     0
 42
0.00000000025062
 43
0.0000000001
 40
0.0
 40
0.0
 40
0.0
 40
0.0
 40
0.125
 40
0.125
 40
0.2500000000000001
 40
0.2500000000000001
 40
0.375
 40
0.375
 40
0.499992467313924
 40
0.499992467313924
 40
0.499992467313924
 40
0.499992467313924
 10
451.9102166982207
 20
357.8188009295319
 30
0.0
 10
449.2967284236963
 20
357.8191126925282
 30
0.0
 10
446.6870539103175
 20
357.8189776075832
 30
0.0
 10
441.8638626989138
 20
357.8188494189235
 30
0.0
 10
439.6485228735583
 20
357.8190413161708
 30
0.0
 10
435.956748187469
 20
357.8188360674653
 30
0.0
 10
434.4776701968034
 20
357.8191827848806
 30
0.0
 10
432.4793855309922
 20
357.8188666878448
 30
0.0
 10
431.9601496553663
 20
357.8190557555689
 30
0.0
 10
431.9600907891631
 20
357.8191994875083
 30
0.0
  0
ARC
  5
168
330
125
100
AcDbEntity
  8
410165038_QUADRA
  6
Continuous
 62
     7
100
AcDbCircle
 10
461.938539756
 20
4107.0559465802
 30
0.0
 40
3749.249874602448
100
AcDbArc
 50
269.8467476998
 51
270.1516206395
  0
ARC
  5
169
330
125
100
AcDbEntity
  8
410165038_QUADRA
  6
Continuous
 62
     7
100
AcDbCircle
 10
432.3688922171
 20
357.6362407804
 30
0.0
 40
0.4480002828903367
100
AcDbArc
 50
89.6018839311
 51
156.4038538509
  0
SPLINE
  5
16A
330
125
100
AcDbEntity
  8
410165038_QUADRA
  6
Continuous
 62
     7
100
AcDbSpline
210
0.0
220
0.0
230
1.0
 70
     8
 71
     3
 72
     8
 73
     4
 74
     0
 42
0.0000000212296935
 43
0.0000000001
 40
0.0
 40
0.0
 40
0.0
 40
0.0
 40
1.0
 40
1.0
 40
1.0
 40
1.0
 10
471.861821650267
 20
357.8155918829621
 30
0.0
 10
471.7425920007185
 20
357.9950297749396
 30
0.0
 10
471.6272682635067
 20
358.0811894664797
 30
0.0
 10
471.5158504386317
 20
358.0740709575824
 30
0.0
  0
LINE
  5
16B
330
125
100
AcDbEntity
  8
410165038_QUADRA
  6
Continuous
 62
     7
100
AcDbLine
 10
431.9600907842
 20
357.8191555821
 30
0.0
 11
431.9600907842
 21
357.4409141518
 31
0.0
  0
LINE
  5
16C
330
125
100
AcDbEntity
  8
410165038_QUADRA
  6
Continuous
 62
     7
100
AcDbLine
 10
471.8600907842
 20
357.4409141518
 30
0.0
 11
471.8600907842
 21
357.8191525016
 31
0.0
  0
LINE
  5
16D
330
125
100
AcDbEntity
  8
410170038_QUADRA
  6
Continuous
 62
     7
100
AcDbLine
 10
478.6600907834
 20
349.4409141518
 30
0.0
 11
477.0603344711
 21
349.4409141518
 31
0.0
  0
LINE
  5
16E
330
125
100
AcDbEntity
  8
410170038_QUADRA
  6
Continuous
 62
     7
100
AcDbLine
 10
426.7598470956
 20
349.4409141518
 30
0.0
 11
477.0603344711
 21
349.4409141518
 31
0.0
  0
LINE
  5
16F
330
125
100
AcDbEntity
  8
410170038_QUADRA
  6
Continuous
 62
     7
100
AcDbLine
 10
426.7598470956
 20
349.4409141518
 30
0.0
 11
425.1600907834
 21
349.4409141518
 31
0.0
  0
LINE
  5
170
330
125
100
AcDbEntity
  8
410170038_QUADRA
  6
Continuous
 62
     7
100
AcDbLine
 10
425.1600907834
 20
349.4409141518
 30
0.0
 11
425.2911560868
 21
356.9496403551
 31
0.0
  0
LINE
  5
171
330
125
100
AcDbEntity
  8
410170038_QUADRA
  6
Continuous
 62
     7
100
AcDbLine
 10
426.890912399
 20
357.4409141518
 30
0.0
 11
476.9292691677
 21
357.4409141518
 31
0.0
  0
LINE
  5
172
330
125
100
AcDbEntity
  8
410170038_QUADRA
  6
Continuous
 62
     7
100
AcDbLine
 10
425.7910799343
 20
357.4409141518
 30
0.0
 11
426.890912399
 21
357.4409141518
 31
0.0
  0
LINE
  5
173
330
125
100
AcDbEntity
  8
410170038_QUADRA
  6
Continuous
 62
     7
100
AcDbLine
 10
476.9292691677
 20
357.4409141518
 30
0.0
 11
478.0291016324
 21
357.4409141518
 31
0.0
  0
LINE
  5
174
330
125
100
AcDbEntity
  8
410170038_QUADRA
  6
Continuous
 62
     7
100
AcDbLine
 10
478.52902548
 20
356.9496403551
 30
0.0
 11
478.6600907834
 21
349.4409141518
 31
0.0
  0
ARC
  5
175
330
125
100
AcDbEntity
  8
410170038_QUADRA
  6
Continuous
 62
     7
100
AcDbCircle
 10
478.0291016324
 20
356.9409141518
 30
0.0
 40
0.5000000000000004
100
AcDbArc
 50
1.0
 51
90.0
  0
ARC
  5
176
330
125
100
AcDbEntity
  8
410170038_QUADRA
  6
Continuous
 62
     7
100
AcDbCircle
 10
425.7910799343
 20
356.9409141518
 30
0.0
 40
0.4999999999999988
100
AcDbArc
 50
90.0
 51
179.0
  0
LINE
  5
178
330
125
100
AcDbEntity
  8
A4223854_STANGE_
  6
Continuous
 62
     7
100
AcDbLine
 10
419.9100907834
 20
393.3185361781
 30
0.0
 11
419.9100907834
 21
389.3185361781
 31
0.0
  0
LINE
  5
179
330
125
100
AcDbEntity
  8
A4223854_STANGE_
  6
Continuous
 62
     7
100
AcDbLine
 10
433.9100907834
 20
387.3185361781
 30
0.0
 11
433.9100907834
 21
358.1009141518
 31
0.0
  0
ARC
  5
17A
330
125
100
AcDbEntity
  8
A4223854_STANGE_
  6
Continuous
 62
     7
100
AcDbCircle
 10
431.9100907834
 20
387.3185361781
 30
0.0
 40
2.000000000000002
100
AcDbArc
 50
0.0
 51
90.0
  0
ARC
  5
17B
330
125
100
AcDbEntity
  8
A4223854_STANGE_
  6
Continuous
 62
     7
100
AcDbCircle
 10
431.9100907834
 20
387.3185361781
 30
0.0
 40
6.000000000000014
100
AcDbArc
 50
49.7356004786
 51
90.0
  0
LINE
  5
17C
330
125
100
AcDbEntity
  8
A4223854_STANGE_
  6
Continuous
 62
     7
100
AcDbLine
 10
419.9100907834
 20
389.3185361781
 30
0.0
 11
431.9100907834
 21
389.3185361781
 31
0.0
  0
LINE
  5
17D
330
125
100
AcDbEntity
  8
A4223854_STANGE_
  6
Continuous
 62
     7
100
AcDbLine
 10
431.9100907834
 20
393.3185361781
 30
0.0
 11
419.9100907834
 21
393.3185361781
 31
0.0
  0
ENDBLK
  5
17F
330
125
100
AcDbEntity
  8
0
100
AcDbBlockEnd
  0
BLOCK
  5
1F2
330
180
100
AcDbEntity
  8
0
100
AcDbBlockBegin
  2
SE2
 70
     0
 10
0.0
 20
0.0
 30
0.0
  3
SE2
  1

  0
ARC
  5
182
330
180
100
AcDbEntity
  8
410164038_QUADRA
  6
Continuous
 62
     7
100
AcDbCircle
 10
78.9539467028
 20
253.783750308
 30
0.0
 40
15.98497960020512
100
AcDbArc
 50
262.2183541995
 51
262.8385271824
  0
ARC
  5
183
330
180
100
AcDbEntity
  8
410164038_QUADRA
  6
Continuous
 62
     7
100
AcDbCircle
 10
78.9788203617
 20
253.855022488
 30
0.0
 40
16.04881806692347
100
AcDbArc
 50
97.2949655343
 51
97.7980524324
  0
LINE
  5
184
330
180
100
AcDbEntity
  8
410164038_QUADRA
  6
Continuous
 62
     7
100
AcDbLine
 10
77.0870406585
 20
237.9499997995
 30
0.0
 11
77.4267612211
 21
237.9314243573
 31
0.0
  0
LINE
  5
185
330
180
100
AcDbEntity
  8
410164038_QUADRA
  6
Continuous
 62
     7
100
AcDbLine
 10
14.3501072357
 20
237.9499997995
 30
0.0
 11
77.0870406585
 21
237.9499997995
 31
0.0
  0
LINE
  5
186
330
180
100
AcDbEntity
  8
410164038_QUADRA
  6
Continuous
 62
     7
100
AcDbLine
 10
77.4267612211
 20
269.7685752417
 30
0.0
 11
77.0870406585
 21
269.7499997995
 31
0.0
  0
ARC
  5
187
330
180
100
AcDbEntity
  8
410164038_QUADRA
  6
Continuous
 62
     7
100
AcDbCircle
 10
14.350282756
 20
245.9502694726
 30
0.0
 40
8.00028276057887
100
AcDbArc
 50
180.0019304953
 51
269.9987429702
  0
LINE
  5
188
330
180
100
AcDbEntity
  8
410164038_QUADRA
  6
Continuous
 62
     7
100
AcDbLine
 10
77.0870406585
 20
269.7499997995
 30
0.0
 11
14.3501072357
 21
269.7499997995
 31
0.0
  0
LINE
  5
189
330
180
100
AcDbEntity
  8
410164038_QUADRA
  6
Continuous
 62
     7
100
AcDbLine
 10
6.3501071164
 20
261.7499996803
 30
0.0
 11
6.3501071164
 21
245.9499999187
 31
0.0
  0
ARC
  5
18A
330
180
100
AcDbEntity
  8
410164038_QUADRA
  6
Continuous
 62
     7
100
AcDbCircle
 10
14.350282756
 20
261.7497301264
 30
0.0
 40
8.000282760569672
100
AcDbArc
 50
90.0012570297
 51
179.9980695047
  0
ARC
  5
18B
330
180
100
AcDbEntity
  8
410164038_QUADRA
  6
Continuous
 62
     7
100
AcDbCircle
 10
79.1202811817
 20
253.8490779676
 30
0.0
 40
16.73724059763091
100
AcDbArc
 50
252.4410906318
 51
0.0
  0
ARC
  5
18C
330
180
100
AcDbEntity
  8
410164038_QUADRA
  6
Continuous
 62
     7
100
AcDbCircle
 10
79.1202811817
 20
253.8490779676
 30
0.0
 40
16.73724059763091
100
AcDbArc
 50
0.0
 51
107.5498275839
  0
SPLINE
  5
18D
330
180
100
AcDbEntity
  8
410164038_QUADRA
  6
Continuous
 62
     7
100
AcDbSpline
210
0.0
220
0.0
230
1.0
 70
     8
 71
     3
 72
    14
 73
    10
 74
     0
 42
0.0000000017170498
 43
0.0000000001
 40
0.0
 40
0.0
 40
0.0
 40
0.0
 40
0.2412233666700586
 40
0.3585470705706445
 40
0.4753722769769774
 40
0.5931947082928247
 40
0.7171354349662064
 40
0.8495834976548656
 40
1.0
 40
1.0
 40
1.0
 40
1.0
 10
57.45165511506746
 20
251.4328464992269
 30
0.0
 10
57.45064180879948
 20
250.9221431717318
 30
0.0
 10
57.4310578167747
 20
250.2809833301755
 30
0.0
 10
57.163766707717
 20
249.3868342083893
 30
0.0
 10
56.80753614400523
 20
248.8023956948676
 30
0.0
 10
56.27702679567935
 20
248.3411484573083
 30
0.0
 10
55.61111201890959
 20
248.0515322601437
 30
0.0
 10
54.82072898262655
 20
247.9165311807994
 30
0.0
 10
54.31619285387993
 20
247.905776190157
 30
0.0
 10
53.99774079191924
 20
247.9054134988113
 30
0.0
  0
LINE
  5
18E
330
180
100
AcDbEntity
  8
410164038_QUADRA
  6
Continuous
 62
     7
100
AcDbLine
 10
53.9977412569
 20
247.9054138756
 30
0.0
 11
23.1472526517
 21
247.905414857
 31
0.0
  0
SPLINE
  5
18F
330
180
100
AcDbEntity
  8
410164038_QUADRA
  6
Continuous
 62
     7
100
AcDbSpline
210
0.0
220
0.0
230
1.0
 70
     8
 71
     3
 72
    14
 73
    10
 74
     0
 42
0.0000000017170065
 43
0.0000000001
 40
0.0
 40
0.0
 40
0.0
 40
0.0
 40
0.2372674900362353
 40
0.3516105405970711
 40
0.466393938584321
 40
0.585041367345741
 40
0.7120185241112444
 40
0.8475776644544296
 40
1.0
 40
1.0
 40
1.0
 40
1.0
 10
23.14725266173931
 20
247.9054134943273
 30
0.0
 10
22.6449507850727
 20
247.9065823284144
 30
0.0
 10
22.01554700417932
 20
247.9265410853711
 30
0.0
 10
21.14146138900855
 20
248.2003068442667
 30
0.0
 10
20.57071793140106
 20
248.5637171092556
 30
0.0
 10
20.1191490211117
 20
249.1069528585836
 30
0.0
 10
19.83546376875009
 20
249.789403207187
 30
0.0
 10
19.70408437981783
 20
250.5963771165415
 30
0.0
 10
19.69359968605986
 20
251.1100007371201
 30
0.0
 10
19.69325821441817
 20
251.4326853509906
 30
0.0
  0
LINE
  5
190
330
180
100
AcDbEntity
  8
410164038_QUADRA
  6
Continuous
 62
     7
100
AcDbLine
 10
19.6932586542
 20
251.4326836778
 30
0.0
 11
19.6932555218
 21
256.2672304714
 31
0.0
  0
SPLINE
  5
191
330
180
100
AcDbEntity
  8
410164038_QUADRA
  6
Continuous
 62
     7
100
AcDbSpline
210
0.0
220
0.0
230
1.0
 70
     8
 71
     3
 72
    14
 73
    10
 74
     0
 42
0.0000000017170324
 43
0.0000000001
 40
0.0
 40
0.0
 40
0.0
 40
0.0
 40
0.2412233779511685
 40
0.3585456318547058
 40
0.4753710124426858
 40
0.593191905807374
 40
0.7171303641206849
 40
0.8495813957152446
 40
1.0
 40
1.0
 40
1.0
 40
1.0
 10
19.69325670180697
 20
256.2672303307727
 30
0.0
 10
19.6942678781751
 20
256.7779387321956
 30
0.0
 10
19.71385055391092
 20
257.4191022812369
 30
0.0
 10
19.98114136685766
 20
258.3132586947652
 30
0.0
 10
20.33738275600319
 20
258.8976939941985
 30
0.0
 10
20.86790938192154
 20
259.3589228110189
 30
0.0
 10
21.53384279179046
 20
259.6485103066443
 30
0.0
 10
22.32424426142834
 20
259.7834796000528
 30
0.0
 10
22.82879406934243
 20
259.7942278552725
 30
0.0
 10
23.14725373748724
 20
259.7945861047746
 30
0.0
  0
LINE
  5
192
330
180
100
AcDbEntity
  8
410164038_QUADRA
  6
Continuous
 62
     7
100
AcDbLine
 10
23.147253735
 20
259.7945863494
 30
0.0
 11
53.9976688429
 21
259.794585368
 31
0.0
  0
SPLINE
  5
193
330
180
100
AcDbEntity
  8
410164038_QUADRA
  6
Continuous
 62
     7
100
AcDbSpline
210
0.0
220
0.0
230
1.0
 70
     8
 71
     3
 72
    14
 73
    10
 74
     0
 42
0.0000000017170402
 43
0.0000000001
 40
0.0
 40
0.0
 40
0.0
 40
0.0
 40
0.2372708688842436
 40
0.3516162014797791
 40
0.4664009542910407
 40
0.5850472150256391
 40
0.7120218610844211
 40
0.8475799208869236
 40
1.0
 40
1.0
 40
1.0
 40
1.0
 10
53.99766882307336
 20
259.7945861046966
 30
0.0
 10
54.49996801323628
 20
259.7934175467715
 30
0.0
 10
55.12936894361278
 20
259.7734595958673
 30
0.0
 10
56.0034535223641
 20
259.4997057951961
 30
0.0
 10
56.57419585149206
 20
259.1363099323453
 30
0.0
 10
57.02576295614459
 20
258.593096487182
 30
0.0
 10
57.30944870572582
 20
257.9106715745748
 30
0.0
 10
57.44082911577458
 20
257.1037253190986
 30
0.0
 10
57.45131351974976
 20
256.590117599939
 30
0.0
 10
57.45165480183391
 20
256.2674440856267
 30
0.0
  0
LINE
  5
194
330
180
100
AcDbEntity
  8
410164038_QUADRA
  6
Continuous
 62
     7
100
AcDbLine
 10
57.4516548652
 20
256.2674459004
 30
0.0
 11
57.4516553836
 21
251.4328462699
 31
0.0
  0
ARC
  5
195
330
180
100
AcDbEntity
  8
410164038_QUADRA
  6
Continuous
 62
     7
100
AcDbCircle
 10
76.6153232642
 20
235.9992646142
 30
0.0
 40
1.950584042398651
100
AcDbArc
 50
84.2906823702
 51
91.3258571481
  0
LINE
  5
196
330
180
100
AcDbEntity
  8
410172038_LINEAR
  6
Continuous
 62
     7
100
AcDbLine
 10
190.9697233465
 20
218.8499814985
 30
0.0
 11
190.9697233465
 21
114.350001659
 31
0.0
  0
ARC
  5
197
330
180
100
AcDbEntity
  8
410172038_LINEAR
  6
Continuous
 62
     7
100
AcDbCircle
 10
182.9700569422
 20
114.3496663625
 30
0.0
 40
7.999543224403356
100
AcDbArc
 50
269.9976238665
 51
0.002396061
  0
LINE
  5
198
330
180
100
AcDbEntity
  8
410172038_LINEAR
  6
Continuous
 62
     7
100
AcDbLine
 10
169.269721365
 20
106.3502463601
 30
0.0
 11
182.9697251903
 21
106.3502463601
 31
0.0
  0
ARC
  5
199
330
180
100
AcDbEntity
  8
410172038_LINEAR
  6
Continuous
 62
     7
100
AcDbCircle
 10
169.2693885542
 20
114.3496652139
 30
0.0
 40
7.999542026749151
100
AcDbArc
 50
179.9975974519
 51
270.0023837183
  0
ARC
  5
19A
330
180
100
AcDbEntity
  8
410172038_LINEAR
  6
Continuous
 62
     7
100
AcDbCircle
 10
190.2700782869
 20
263.1505368269
 30
0.0
 40
0.6995220778223006
100
AcDbArc
 50
359.9560238569
 51
22.8550646645
  0
SPLINE
  5
19B
330
180
100
AcDbEntity
  8
410172038_LINEAR
  6
Continuous
 62
     7
100
AcDbSpline
210
0.0
220
0.0
230
1.0
 70
     8
 71
     2
 72
    20
 73
    17
 74
     0
 42
0.0000000002257332
 43
0.0000000001
 40
0.0
 40
0.0
 40
0.0
 40
0.125
 40
0.125
 40
0.25
 40
0.25
 40
0.375
 40
0.375
 40
0.5
 40
0.5
 40
0.625
 40
0.625
 40
0.75
 40
0.75
 40
0.875
 40
0.875
 40
1.0
 40
1.0
 40
1.0
 10
190.969600158653
 20
263.1499999238725
 30
0.0
 10
190.9697233464972
 20
263.1499017318994
 30
0.0
 10
190.9697233464972
 20
262.3055476230826
 30
0.0
 10
190.9697233464972
 20
261.4573984299964
 30
0.0
 10
190.9697233464972
 20
259.7988315053188
 30
0.0
 10
190.9697233464972
 20
258.1386441691418
 30
0.0
 10
190.9697233464972
 20
255.6969264326835
 30
0.0
 10
190.9697233464972
 20
253.2610188708418
 30
0.0
 10
190.9697233464972
 20
250.1752617398934
 30
0.0
 10
190.9697233464972
 20
247.0902442727989
 30
0.0
 10
190.9697233464972
 20
243.4496641171785
 30
0.0
 10
190.9697233464972
 20
239.8021400163622
 30
0.0
 10
190.9697233464972
 20
235.7891945163376
 30
0.0
 10
190.9697233464972
 20
231.7821025552712
 30
0.0
 10
190.9697233464972
 20
227.4833305219614
 30
0.0
 10
190.9697233464972
 20
223.2053357808571
 30
0.0
 10
190.9696001580643
 20
218.8499814985384
 30
0.0
  0
LINE
  5
19C
330
180
100
AcDbEntity
  8
410172038_LINEAR
  6
Continuous
 62
     7
100
AcDbLine
 10
190.2697230682
 20
263.8500588146
 30
0.0
 11
190.2697230858
 21
263.6349255789
 31
0.0
  0
LINE
  5
19D
330
180
100
AcDbEntity
  8
410172038_LINEAR
  6
Continuous
 62
     7
100
AcDbLine
 10
161.2697233465
 20
114.3500014105
 30
0.0
 11
161.2697233465
 21
218.8492069663
 31
0.0
  0
SPLINE
  5
19E
330
180
100
AcDbEntity
  8
410172038_LINEAR
  6
Continuous
 62
     7
100
AcDbSpline
210
0.0
220
0.0
230
1.0
 70
     8
 71
     2
 72
    20
 73
    17
 74
     0
 42
0.0000000002257293
 43
0.0000000001
 40
0.0
 40
0.0
 40
0.0
 40
0.125
 40
0.125
 40
0.25
 40
0.25
 40
0.375
 40
0.375
 40
0.5
 40
0.5
 40
0.625
 40
0.625
 40
0.75
 40
0.75
 40
0.875
 40
0.875
 40
1.0
 40
1.0
 40
1.0
 10
161.2698465082728
 20
218.8492069663315
 30
0.0
 10
161.2697233464972
 20
223.2048216005859
 30
0.0
 10
161.2697233464972
 20
227.4833305215819
 30
0.0
 10
161.2697233464972
 20
231.7810703750599
 30
0.0
 10
161.2697233464972
 20
235.7891945155077
 30
0.0
 10
161.2697233464972
 20
239.8011878108219
 30
0.0
 10
161.2697233464972
 20
243.4496641163179
 30
0.0
 10
161.2697233464972
 20
247.0894078494273
 30
0.0
 10
161.2697233464972
 20
250.175261739206
 30
0.0
 10
161.2697233464972
 20
253.2603324707451
 30
0.0
 10
161.2697233464972
 20
255.6969264320724
 30
0.0
 10
161.2697233464972
 20
258.1381337734044
 30
0.0
 10
161.2697233464972
 20
259.7988315047635
 30
0.0
 10
161.2697233464972
 20
261.4570875101609
 30
0.0
 10
161.2697233464972
 20
262.305547622709
 30
0.0
 10
161.2697233464972
 20
263.1498964750199
 30
0.0
 10
161.2698465349301
 20
263.1499999236983
 30
0.0
  0
ARC
  5
19F
330
180
100
AcDbEntity
  8
410172038_LINEAR
  6
Continuous
 62
     7
100
AcDbCircle
 10
161.9693336053
 20
263.1505716193
 30
0.0
 40
0.6994873039740895
100
AcDbArc
 50
157.1463897056
 51
180.0468282278
  0
LINE
  5
1A0
330
180
100
AcDbEntity
  8
410172038_LINEAR
  6
Continuous
 62
     7
100
AcDbLine
 10
161.9697236248
 20
263.8499997995
 30
0.0
 11
190.2697230682
 21
263.8499997995
 31
0.0
  0
LINE
  5
1A1
330
180
100
AcDbEntity
  8
410172038_LINEAR
  6
Continuous
 62
     7
100
AcDbLine
 10
161.9697236072
 20
263.6349255788
 30
0.0
 11
161.9697236248
 21
263.8500588146
 31
0.0
  0
ARC
  5
1A2
330
180
100
AcDbEntity
  8
410172038_LINEAR
  6
Continuous
 62
     7
100
AcDbCircle
 10
183.2698465349
 20
114.3501231941
 30
0.0
 40
7.100000000000001
100
AcDbArc
 50
310.9273389063
 51
0.0
  0
LINE
  5
1A3
330
180
100
AcDbEntity
  8
410172038_LINEAR
  6
Continuous
 62
     7
100
AcDbLine
 10
190.2829239676
 20
114.3501231941
 30
0.0
 11
190.3698465349
 21
114.3501231941
 31
0.0
  0
SPLINE
  5
1A4
330
180
100
AcDbEntity
  8
410172038_LINEAR
  6
Continuous
 62
     7
100
AcDbSpline
210
0.0
220
0.0
230
1.0
 70
     8
 71
     3
 72
     8
 73
     4
 74
     0
 42
0.000000011718186
 43
0.0000000001
 40
0.0
 40
0.0
 40
0.0
 40
0.0
 40
1.0
 40
1.0
 40
1.0
 40
1.0
 10
190.9147160252545
 20
263.4224663095605
 30
0.0
 10
190.7909746870561
 20
263.6908453917403
 30
0.0
 10
190.5759771274694
 20
263.7615804693049
 30
0.0
 10
190.2697233464945
 20
263.6346715422544
 30
0.0
  0
SPLINE
  5
1A5
330
180
100
AcDbEntity
  8
410172038_LINEAR
  6
Continuous
 62
     7
100
AcDbSpline
210
0.0
220
0.0
230
1.0
 70
     8
 71
     3
 72
     8
 73
     4
 74
     0
 42
0.000000011718186
 43
0.0000000001
 40
0.0
 40
0.0
 40
0.0
 40
0.0
 40
1.0
 40
1.0
 40
1.0
 40
1.0
 10
161.9697233464986
 20
263.6346715421325
 30
0.0
 10
161.6634695656113
 20
263.7615804691893
 30
0.0
 10
161.4484720060654
 20
263.6908453917604
 30
0.0
 10
161.3247306678606
 20
263.4224663098459
 30
0.0
  0
ARC
  5
1A6
330
180
100
AcDbEntity
  8
410169038_QUADRA
  6
Continuous
 62
     7
100
AcDbCircle
 10
176.1197233465
 20
253.8499997995
 30
0.0
 40
19.95
100
AcDbArc
 50
318.2794634909
 51
360.0
  0
ARC
  5
1A7
330
180
100
AcDbEntity
  8
410169038_QUADRA
  6
Continuous
 62
     7
100
AcDbCircle
 10
176.1197233465
 20
253.8499997995
 30
0.0
 40
19.95
100
AcDbArc
 50
95.7536028468
 51
221.8032313421
  0
ARC
  5
1A8
330
180
100
AcDbEntity
  8
410169038_QUADRA
  6
Continuous
 62
     7
100
AcDbCircle
 10
176.1197233465
 20
253.8499997995
 30
0.0
 40
19.95
100
AcDbArc
 50
0.0
 51
84.2463971532
  0
ARC
  5
1A9
330
180
100
AcDbEntity
  8
410169038_QUADRA
  6
Continuous
 62
     7
100
AcDbCircle
 10
176.1197233465
 20
269.8499997995
 30
0.0
 40
2.25
100
AcDbArc
 50
0.0
 51
27.2660444507
  0
ARC
  5
1AA
330
180
100
AcDbEntity
  8
410169038_QUADRA
  6
Continuous
 62
     7
100
AcDbCircle
 10
176.1197233465
 20
269.8499997995
 30
0.0
 40
2.25
100
AcDbArc
 50
153.6122000388
 51
0.0
  0
ARC
  5
1AC
330
180
100
AcDbEntity
  8
03656131_LAV_RET
  6
Continuous
 62
     7
100
AcDbCircle
 10
174.6197233465
 20
263.8499997995
 30
0.0
 40
7.000000000000004
100
AcDbArc
 50
57.6243624737
 51
60.0
  0
LINE
  5
1AD
330
180
100
AcDbEntity
  8
410170038_QUADRA
  6
Continuous
 62
     7
100
AcDbLine
 10
257.969353617
 20
227.0999997995
 30
0.0
 11
308.2698409925
 21
227.0999997995
 31
0.0
  0
ELLIPSE
  5
1AE
330
180
100
AcDbEntity
  8
410170038_QUADRA
  6
Continuous
 62
     7
100
AcDbEllipse
 10
257.9698410296
 20
228.7002435244
 30
0.0
 11
1.131715502671329
 21
1.131715502671329
 31
0.0
210
0.0
220
0.0
230
1.0
 40
0.9996954599
 41
2.356346783439939
 42
3.926838523739665
  0
LINE
  5
1AF
330
180
100
AcDbEntity
  8
410170038_QUADRA
  6
Continuous
 62
     7
100
AcDbLine
 10
256.3695973047
 20
279.0002434873
 30
0.0
 11
256.3695973047
 21
228.6997561118
 31
0.0
  0
ELLIPSE
  5
1B0
330
180
100
AcDbEntity
  8
410170038_QUADRA
  6
Continuous
 62
     7
100
AcDbEllipse
 10
257.9698410296
 20
278.9997560746
 30
0.0
 11
1.131715502671329
 21
-1.131715502671329
 31
0.0
210
0.0
220
0.0
230
1.0
 40
0.9996954599
 41
2.356346783439903
 42
3.926838523739683
  0
LINE
  5
1B1
330
180
100
AcDbEntity
  8
410170038_QUADRA
  6
Continuous
 62
     7
100
AcDbLine
 10
308.2698409925
 20
280.5999997995
 30
0.0
 11
257.969353617
 21
280.5999997995
 31
0.0
  0
ELLIPSE
  5
1B2
330
180
100
AcDbEntity
  8
410170038_QUADRA
  6
Continuous
 62
     7
100
AcDbEllipse
 10
308.2693535799
 20
278.9997560746
 30
0.0
 11
-1.131715502671329
 21
-1.131715502671329
 31
0.0
210
0.0
220
0.0
230
1.0
 40
0.9996954599
 41
2.356346783439903
 42
3.926838523739683
  0
LINE
  5
1B3
330
180
100
AcDbEntity
  8
410170038_QUADRA
  6
Continuous
 62
     7
100
AcDbLine
 10
309.8695973047
 20
228.6997561118
 30
0.0
 11
309.8695973047
 21
237.9499997995
 31
0.0
  0
LINE
  5
1B4
330
180
100
AcDbEntity
  8
410170038_QUADRA
  6
Continuous
 62
     7
100
AcDbLine
 10
309.8695973047
 20
247.9054141793
 30
0.0
 11
309.8695973047
 21
259.7945856717
 31
0.0
  0
LINE
  5
1B5
330
180
100
AcDbEntity
  8
410170038_QUADRA
  6
Continuous
 62
     7
100
AcDbLine
 10
309.8695973047
 20
269.7499997995
 30
0.0
 11
309.8695973047
 21
279.0002434873
 31
0.0
  0
ELLIPSE
  5
1B6
330
180
100
AcDbEntity
  8
410170038_QUADRA
  6
Continuous
 62
     7
100
AcDbEllipse
 10
308.2693535799
 20
228.7002435244
 30
0.0
 11
-1.131715502671329
 21
1.131715502671329
 31
0.0
210
0.0
220
0.0
230
1.0
 40
0.9996954599
 41
2.356346783439957
 42
3.926838523739647
  0
ARC
  5
1B7
330
180
100
AcDbEntity
  8
410170038_QUADRA
  6
Continuous
 62
     7
100
AcDbCircle
 10
283.1195973047
 20
253.8499997995
 30
0.0
 40
20.0
100
AcDbArc
 50
52.655255646
 51
307.344744354
  0
ARC
  5
1B8
330
180
100
AcDbEntity
  8
410164038_QUADRA
  6
Continuous
 62
     7
100
AcDbCircle
 10
283.2854999902
 20
253.9162492911
 30
0.0
 40
15.98497960020504
100
AcDbArc
 50
82.2183541995
 51
82.8385271824
  0
ARC
  5
1B9
330
180
100
AcDbEntity
  8
410164038_QUADRA
  6
Continuous
 62
     7
100
AcDbCircle
 10
283.2606263313
 20
253.844977111
 30
0.0
 40
16.04881806692346
100
AcDbArc
 50
277.2949655343
 51
277.7980524324
  0
LINE
  5
1BA
330
180
100
AcDbEntity
  8
410164038_QUADRA
  6
Continuous
 62
     7
100
AcDbLine
 10
285.1524060345
 20
269.7499997995
 30
0.0
 11
284.8126854719
 21
269.7685752417
 31
0.0
  0
LINE
  5
1BB
330
180
100
AcDbEntity
  8
410164038_QUADRA
  6
Continuous
 62
     7
100
AcDbLine
 10
347.8893394573
 20
269.7499997995
 30
0.0
 11
285.1524060345
 21
269.7499997995
 31
0.0
  0
LINE
  5
1BC
330
180
100
AcDbEntity
  8
410164038_QUADRA
  6
Continuous
 62
     7
100
AcDbLine
 10
284.8126854719
 20
237.9314243573
 30
0.0
 11
285.1524060345
 21
237.9499997995
 31
0.0
  0
ARC
  5
1BD
330
180
100
AcDbEntity
  8
410164038_QUADRA
  6
Continuous
 62
     7
100
AcDbCircle
 10
347.889163937
 20
261.7497301264
 30
0.0
 40
8.00028276057887
100
AcDbArc
 50
0.0019304953
 51
89.9987429702
  0
LINE
  5
1BE
330
180
100
AcDbEntity
  8
410164038_QUADRA
  6
Continuous
 62
     7
100
AcDbLine
 10
285.1524060345
 20
237.9499997995
 30
0.0
 11
347.8893394573
 21
237.9499997995
 31
0.0
  0
LINE
  5
1BF
330
180
100
AcDbEntity
  8
410164038_QUADRA
  6
Continuous
 62
     7
100
AcDbLine
 10
355.8893395766
 20
245.9499999187
 30
0.0
 11
355.8893395766
 21
261.7499996803
 31
0.0
  0
ARC
  5
1C0
330
180
100
AcDbEntity
  8
410164038_QUADRA
  6
Continuous
 62
     7
100
AcDbCircle
 10
347.889163937
 20
245.9502694726
 30
0.0
 40
8.000282760569673
100
AcDbArc
 50
270.0012570297
 51
359.9980695047
  0
ARC
  5
1C1
330
180
100
AcDbEntity
  8
410164038_QUADRA
  6
Continuous
 62
     7
100
AcDbCircle
 10
283.1191655112
 20
253.8509216314
 30
0.0
 40
16.73724059763091
100
AcDbArc
 50
72.4410906318
 51
287.5498275839
  0
SPLINE
  5
1C2
330
180
100
AcDbEntity
  8
410164038_QUADRA
  6
Continuous
 62
     7
100
AcDbSpline
210
0.0
220
0.0
230
1.0
 70
     8
 71
     3
 72
    14
 73
    10
 74
     0
 42
0.0000000017170498
 43
0.0000000001
 40
0.0
 40
0.0
 40
0.0
 40
0.0
 40
0.2412233666700592
 40
0.3585470705706455
 40
0.4753722769769786
 40
0.5931947082928262
 40
0.7171354349662059
 40
0.8495834976548701
 40
1.0
 40
1.0
 40
1.0
 40
1.0
 10
304.7877915779272
 20
256.2671530998129
 30
0.0
 10
304.7888048841951
 20
256.777856427308
 30
0.0
 10
304.8083888762199
 20
257.4190162688643
 30
0.0
 10
305.0756799852779
 20
258.3131653906506
 30
0.0
 10
305.4319105489893
 20
258.8976039041723
 30
0.0
 10
305.9624198973155
 20
259.3588511417315
 30
0.0
 10
306.628334674085
 20
259.6484673388961
 30
0.0
 10
307.4187177103682
 20
259.7834684182404
 30
0.0
 10
307.9232538391147
 20
259.7942234088828
 30
0.0
 10
308.2417059010754
 20
259.7945861002285
 30
0.0
  0
LINE
  5
1C3
330
180
100
AcDbEntity
  8
410164038_QUADRA
  6
Continuous
 62
     7
100
AcDbLine
 10
308.2417054361
 20
259.7945857235
 30
0.0
 11
339.0921940413
 21
259.7945847421
 31
0.0
  0
SPLINE
  5
1C4
330
180
100
AcDbEntity
  8
410164038_QUADRA
  6
Continuous
 62
     7
100
AcDbSpline
210
0.0
220
0.0
230
1.0
 70
     8
 71
     3
 72
    14
 73
    10
 74
     0
 42
0.0000000017170065
 43
0.0000000001
 40
0.0
 40
0.0
 40
0.0
 40
0.0
 40
0.2372674900362312
 40
0.3516105405970673
 40
0.4663939385843215
 40
0.5850413673457389
 40
0.7120185241112443
 40
0.8475776644544292
 40
1.0
 40
1.0
 40
1.0
 40
1.0
 10
339.0921940312554
 20
259.7945861047126
 30
0.0
 10
339.594495907922
 20
259.7934172706254
 30
0.0
 10
340.2238996888153
 20
259.7734585136687
 30
0.0
 10
341.0979853039858
 20
259.4996927547732
 30
0.0
 10
341.6687287615937
 20
259.1362824897843
 30
0.0
 10
342.1202976718828
 20
258.5930467404562
 30
0.0
 10
342.4039829242446
 20
257.9105963918529
 30
0.0
 10
342.5353623131768
 20
257.1036224824983
 30
0.0
 10
342.5458470069348
 20
256.5899988619198
 30
0.0
 10
342.5461884785764
 20
256.2673142480493
 30
0.0
  0
LINE
  5
1C5
330
180
100
AcDbEntity
  8
410164038_QUADRA
  6
Continuous
 62
     7
100
AcDbLine
 10
342.5461880387
 20
256.2673159212
 30
0.0
 11
342.5461911712
 21
251.4327691276
 31
0.0
  0
SPLINE
  5
1C6
330
180
100
AcDbEntity
  8
410164038_QUADRA
  6
Continuous
 62
     7
100
AcDbSpline
210
0.0
220
0.0
230
1.0
 70
     8
 71
     3
 72
    14
 73
    10
 74
     0
 42
0.0000000017170324
 43
0.0000000001
 40
0.0
 40
0.0
 40
0.0
 40
0.0
 40
0.2412233779511674
 40
0.3585456318547042
 40
0.4753710124426836
 40
0.5931919058073714
 40
0.717130364120686
 40
0.8495813957152405
 40
1.0
 40
1.0
 40
1.0
 40
1.0
 10
342.5461899911877
 20
251.4327692682672
 30
0.0
 10
342.5451788148195
 20
250.9220608668442
 30
0.0
 10
342.5255961390839
 20
250.280897317803
 30
0.0
 10
342.2583053261371
 20
249.3867409042747
 30
0.0
 10
341.9020639369914
 20
248.8023056048414
 30
0.0
 10
341.3715373110732
 20
248.3410767880209
 30
0.0
 10
340.7056039012041
 20
248.0514892923956
 30
0.0
 10
339.9152024315663
 20
247.916519998987
 30
0.0
 10
339.4106526236522
 20
247.9057717437673
 30
0.0
 10
339.0921929555074
 20
247.9054134942652
 30
0.0
  0
LINE
  5
1C7
330
180
100
AcDbEntity
  8
410164038_QUADRA
  6
Continuous
 62
     7
100
AcDbLine
 10
339.092192958
 20
247.9054132497
 30
0.0
 11
308.2417778501
 21
247.9054142311
 31
0.0
  0
SPLINE
  5
1C8
330
180
100
AcDbEntity
  8
410164038_QUADRA
  6
Continuous
 62
     7
100
AcDbSpline
210
0.0
220
0.0
230
1.0
 70
     8
 71
     3
 72
    14
 73
    10
 74
     0
 42
0.0000000017170402
 43
0.0000000001
 40
0.0
 40
0.0
 40
0.0
 40
0.0
 40
0.237270868884248
 40
0.3516162014797787
 40
0.466400954291042
 40
0.5850472150256402
 40
0.7120218610844219
 40
0.8475799208869238
 40
1.0
 40
1.0
 40
1.0
 40
1.0
 10
308.2417778699213
 20
247.9054134943432
 30
0.0
 10
307.7394786797583
 20
247.9065820522683
 30
0.0
 10
307.1100777493819
 20
247.9265400031725
 30
0.0
 10
306.2359931706305
 20
248.2002938038437
 30
0.0
 10
305.6652508415025
 20
248.5636896666945
 30
0.0
 10
305.2136837368503
 20
249.1069031118578
 30
0.0
 10
304.9299979872687
 20
249.789328024465
 30
0.0
 10
304.7986175772201
 20
250.5962742799412
 30
0.0
 10
304.7881331732449
 20
251.1098819991009
 30
0.0
 10
304.7877918911607
 20
251.4325555134131
 30
0.0
  0
LINE
  5
1C9
330
180
100
AcDbEntity
  8
410164038_QUADRA
  6
Continuous
 62
     7
100
AcDbLine
 10
304.7877918278
 20
251.4325536987
 30
0.0
 11
304.7877913094
 21
256.2671533291
 31
0.0
  0
ARC
  5
1CA
330
180
100
AcDbEntity
  8
410164038_QUADRA
  6
Continuous
 62
     7
100
AcDbCircle
 10
285.6241234288
 20
271.7007349849
 30
0.0
 40
1.95058404238959
100
AcDbArc
 50
264.2906823702
 51
271.3258571481
  0
ARC
  5
1CB
330
180
100
AcDbEntity
  8
410165038_QUADRA
  6
Continuous
 62
     7
100
AcDbCircle
 10
283.1197233465
 20
253.8499997995
 30
0.0
 40
19.94999999999995
100
AcDbArc
 50
180.0000464728
 51
307.0759698724
  0
ARC
  5
1CC
330
180
100
AcDbEntity
  8
410165038_QUADRA
  6
Continuous
 62
     7
100
AcDbCircle
 10
283.1197233465
 20
253.8499997995
 30
0.0
 40
19.94999999999995
100
AcDbArc
 50
52.9094265229
 51
180.0000464728
  0
ARC
  5
1CD
330
180
100
AcDbEntity
  8
410165038_QUADRA
  6
Continuous
 62
     7
100
AcDbCircle
 10
79.119598341
 20
253.8499997978
 30
0.0
 40
19.95000000101101
100
AcDbArc
 50
0.0004079259
 51
127.0759792498
  0
ARC
  5
1CE
330
180
100
AcDbEntity
  8
410165038_QUADRA
  6
Continuous
 62
     7
100
AcDbCircle
 10
79.119598341
 20
253.8499997997
 30
0.0
 40
19.95000000101101
100
AcDbArc
 50
232.9094125573
 51
0.0004079203
  0
LINE
  5
1D0
330
180
100
AcDbEntity
  8
A4226042_DICHTUN
  6
Continuous
 62
     7
100
AcDbLine
 10
174.1197233465
 20
270.8499997995
 30
0.0
 11
174.1041589094
 21
270.8499997995
 31
0.0
  0
ARC
  5
1D1
330
180
100
AcDbEntity
  8
A4226042_DICHTUN
  6
Continuous
 62
     7
100
AcDbCircle
 10
174.6197233465
 20
263.8494849778
 30
0.0
 40
7.000514821675507
100
AcDbArc
 50
57.6269988378
 51
60.0024326718
  0
LINE
  5
1D2
330
180
100
AcDbEntity
  8
410170038_QUADRA
  6
Continuous
 62
     7
100
AcDbLine
 10
53.9694796587
 20
227.0999997995
 30
0.0
 11
104.2699670342
 21
227.0999997995
 31
0.0
  0
ELLIPSE
  5
1D3
330
180
100
AcDbEntity
  8
410170038_QUADRA
  6
Continuous
 62
     7
100
AcDbEllipse
 10
53.9699670714
 20
228.7002435244
 30
0.0
 11
1.131715502671329
 21
1.131715502671329
 31
0.0
210
0.0
220
0.0
230
1.0
 40
0.9996954599
 41
2.356346783439935
 42
3.926838523739678
  0
LINE
  5
1D4
330
180
100
AcDbEntity
  8
410170038_QUADRA
  6
Continuous
 62
     7
100
AcDbLine
 10
52.3697233465
 20
279.0002434873
 30
0.0
 11
52.3697233465
 21
269.7499997995
 31
0.0
  0
LINE
  5
1D5
330
180
100
AcDbEntity
  8
410170038_QUADRA
  6
Continuous
 62
     7
100
AcDbLine
 10
52.3697233465
 20
259.7945854197
 30
0.0
 11
52.3697233465
 21
247.9054139274
 31
0.0
  0
LINE
  5
1D6
330
180
100
AcDbEntity
  8
410170038_QUADRA
  6
Continuous
 62
     7
100
AcDbLine
 10
52.3697233465
 20
237.9499997995
 30
0.0
 11
52.3697233465
 21
228.6997561118
 31
0.0
  0
ELLIPSE
  5
1D7
330
180
100
AcDbEntity
  8
410170038_QUADRA
  6
Continuous
 62
     7
100
AcDbEllipse
 10
53.9699670714
 20
278.9997560746
 30
0.0
 11
1.131715502671329
 21
-1.131715502671329
 31
0.0
210
0.0
220
0.0
230
1.0
 40
0.9996954599
 41
2.356346783439926
 42
3.926838523739652
  0
LINE
  5
1D8
330
180
100
AcDbEntity
  8
410170038_QUADRA
  6
Continuous
 62
     7
100
AcDbLine
 10
104.2699670342
 20
280.5999997995
 30
0.0
 11
53.9694796587
 21
280.5999997995
 31
0.0
  0
ELLIPSE
  5
1D9
330
180
100
AcDbEntity
  8
410170038_QUADRA
  6
Continuous
 62
     7
100
AcDbEllipse
 10
104.2694796216
 20
278.9997560746
 30
0.0
 11
-1.131715502671329
 21
-1.131715502671329
 31
0.0
210
0.0
220
0.0
230
1.0
 40
0.9996954599
 41
2.35634678343993
 42
3.926838523739621
  0
LINE
  5
1DA
330
180
100
AcDbEntity
  8
410170038_QUADRA
  6
Continuous
 62
     7
100
AcDbLine
 10
105.8697233465
 20
228.6997561118
 30
0.0
 11
105.8697233465
 21
279.0002434873
 31
0.0
  0
ELLIPSE
  5
1DB
330
180
100
AcDbEntity
  8
410170038_QUADRA
  6
Continuous
 62
     7
100
AcDbEllipse
 10
104.2694796216
 20
228.7002435244
 30
0.0
 11
-1.131715502671329
 21
1.131715502671329
 31
0.0
210
0.0
220
0.0
230
1.0
 40
0.9996954599
 41
2.356346783439939
 42
3.926838523739638
  0
ARC
  5
1DC
330
180
100
AcDbEntity
  8
410170038_QUADRA
  6
Continuous
 62
     7
100
AcDbCircle
 10
79.1197233465
 20
253.8499997995
 30
0.0
 40
20.0
100
AcDbArc
 50
358.2057958516
 51
0.0
  0
ARC
  5
1DD
330
180
100
AcDbEntity
  8
410170038_QUADRA
  6
Continuous
 62
     7
100
AcDbCircle
 10
79.1197233465
 20
253.8499997995
 30
0.0
 40
20.0
100
AcDbArc
 50
232.655255646
 51
280.2422884002
  0
ARC
  5
1DE
330
180
100
AcDbEntity
  8
410170038_QUADRA
  6
Continuous
 62
     7
100
AcDbCircle
 10
79.1197233465
 20
253.8499997995
 30
0.0
 40
20.0
100
AcDbArc
 50
0.0
 51
127.344744354
  0
ARC
  5
1DF
330
180
100
AcDbEntity
  8
A4223854_STANGE_
  6
Continuous
 62
     7
100
AcDbCircle
 10
176.1197233465
 20
269.8499997995
 30
0.0
 40
2.000000000000002
100
AcDbArc
 50
180.0
 51
0.0
  0
LINE
  5
1E0
330
180
100
AcDbEntity
  8
A4223854_STANGE_
  6
Continuous
 62
     7
100
AcDbLine
 10
178.1197233465
 20
285.8499997995
 30
0.0
 11
174.1197233465
 21
285.8499997995
 31
0.0
  0
LINE
  5
1E1
330
180
100
AcDbEntity
  8
A4223854_STANGE_
  6
Continuous
 62
     7
100
AcDbLine
 10
178.1197233465
 20
269.8499997995
 30
0.0
 11
178.1197233465
 21
273.8499997995
 31
0.0
  0
LINE
  5
1E2
330
180
100
AcDbEntity
  8
A4223854_STANGE_
  6
Continuous
 62
     7
100
AcDbLine
 10
174.1197233465
 20
273.8499997995
 30
0.0
 11
174.1197233465
 21
269.8499997995
 31
0.0
  0
LINE
  5
1E3
330
180
100
AcDbEntity
  8
A4223854_STANGE_
  6
Continuous
 62
     7
100
AcDbLine
 10
174.1197233465
 20
285.8499997995
 30
0.0
 11
174.1197233465
 21
273.8499997995
 31
0.0
  0
LINE
  5
1E4
330
180
100
AcDbEntity
  8
A4223854_STANGE_
  6
Continuous
 62
     7
100
AcDbLine
 10
178.1197233465
 20
273.8499997995
 30
0.0
 11
178.1197233465
 21
285.8499997995
 31
0.0
  0
LINE
  5
1E5
330
180
100
AcDbEntity
  8
410170038_QUADRA
  6
Continuous
 62
     7
100
AcDbLine
 10
150.9694796587
 20
227.0999997995
 30
0.0
 11
161.2697233465
 21
227.0999997995
 31
0.0
  0
LINE
  5
1E6
330
180
100
AcDbEntity
  8
410170038_QUADRA
  6
Continuous
 62
     7
100
AcDbLine
 10
190.9697233465
 20
227.0999997995
 30
0.0
 11
201.2699670342
 21
227.0999997995
 31
0.0
  0
ELLIPSE
  5
1E7
330
180
100
AcDbEntity
  8
410170038_QUADRA
  6
Continuous
 62
     7
100
AcDbEllipse
 10
150.9699670714
 20
228.7002435244
 30
0.0
 11
1.131715502671329
 21
1.131715502671329
 31
0.0
210
0.0
220
0.0
230
1.0
 40
0.9996954599
 41
2.356346783439957
 42
3.926838523739665
  0
LINE
  5
1E8
330
180
100
AcDbEntity
  8
410170038_QUADRA
  6
Continuous
 62
     7
100
AcDbLine
 10
149.3697233465
 20
279.0002434873
 30
0.0
 11
149.3697233465
 21
228.6997561118
 31
0.0
  0
ELLIPSE
  5
1E9
330
180
100
AcDbEntity
  8
410170038_QUADRA
  6
Continuous
 62
     7
100
AcDbEllipse
 10
150.9699670714
 20
278.9997560746
 30
0.0
 11
1.131715502671329
 21
-1.131715502671329
 31
0.0
210
0.0
220
0.0
230
1.0
 40
0.9996954599
 41
2.356346783439921
 42
3.926838523739647
  0
LINE
  5
1EA
330
180
100
AcDbEntity
  8
410170038_QUADRA
  6
Continuous
 62
     7
100
AcDbLine
 10
201.2699670342
 20
280.5999997995
 30
0.0
 11
178.1197233465
 21
280.5999997995
 31
0.0
  0
LINE
  5
1EB
330
180
100
AcDbEntity
  8
410170038_QUADRA
  6
Continuous
 62
     7
100
AcDbLine
 10
174.1197233465
 20
280.5999997995
 30
0.0
 11
150.9694796587
 21
280.5999997995
 31
0.0
  0
ELLIPSE
  5
1EC
330
180
100
AcDbEntity
  8
410170038_QUADRA
  6
Continuous
 62
     7
100
AcDbEllipse
 10
201.2694796216
 20
278.9997560746
 30
0.0
 11
-1.131715502671329
 21
-1.131715502671329
 31
0.0
210
0.0
220
0.0
230
1.0
 40
0.9996954599
 41
2.356346783439939
 42
3.926838523739647
  0
LINE
  5
1ED
330
180
100
AcDbEntity
  8
410170038_QUADRA
  6
Continuous
 62
     7
100
AcDbLine
 10
202.8697233465
 20
228.6997561118
 30
0.0
 11
202.8697233465
 21
279.0002434873
 31
0.0
  0
ELLIPSE
  5
1EE
330
180
100
AcDbEntity
  8
410170038_QUADRA
  6
Continuous
 62
     7
100
AcDbEllipse
 10
201.2694796216
 20
228.7002435244
 30
0.0
 11
-1.131715502671329
 21
1.131715502671329
 31
0.0
210
0.0
220
0.0
230
1.0
 40
0.9996954599
 41
2.356346783439975
 42
3.926838523739629
  0
ARC
  5
1EF
330
180
100
AcDbEntity
  8
410170038_QUADRA
  6
Continuous
 62
     7
100
AcDbCircle
 10
176.1197233465
 20
253.8499997995
 30
0.0
 40
20.0
100
AcDbArc
 50
318.0442027896
 51
360.0
  0
ARC
  5
1F0
330
180
100
AcDbEntity
  8
410170038_QUADRA
  6
Continuous
 62
     7
100
AcDbCircle
 10
176.1197233465
 20
253.8499997995
 30
0.0
 40
20.0
100
AcDbArc
 50
95.7391704773
 51
221.9808754057
  0
ARC
  5
1F1
330
180
100
AcDbEntity
  8
410170038_QUADRA
  6
Continuous
 62
     7
100
AcDbCircle
 10
176.1197233465
 20
253.8499997995
 30
0.0
 40
20.0
100
AcDbArc
 50
0.0
 51
84.2608295227
  0
ENDBLK
  5
1F3
330
180
100
AcDbEntity
  8
0
100
AcDbBlockEnd
  0
ENDSEC
  0
SECTION
  2
ENTITIES
  0
INSERT
  5
5F
330
1F
100
AcDbEntity
  8
Default
100
AcDbBlockReference
  2
SEANNOT_GROUP
 10
0.0
 20
0.0
 30
0.0
  0
INSERT
  5
66
330
1F
100
AcDbEntity
  8
Default
100
AcDbBlockReference
  2
SEANNOT_GROUP1
 10
0.0
 20
0.0
 30
0.0
  0
INSERT
  5
6C
330
1F
100
AcDbEntity
  8
Default
100
AcDbBlockReference
  2
SEANNOT_GROUP2
 10
0.0
 20
0.0
 30
0.0
  0
INSERT
  5
72
330
1F
100
AcDbEntity
  8
Default
100
AcDbBlockReference
  2
SEANNOT_GROUP3
 10
0.0
 20
0.0
 30
0.0
  0
INSERT
  5
78
330
1F
100
AcDbEntity
  8
Default
100
AcDbBlockReference
  2
SEANNOT_GROUP4
 10
0.0
 20
0.0
 30
0.0
  0
INSERT
  5
82
330
1F
100
AcDbEntity
  8
Default
100
AcDbBlockReference
  2
SEANNOT_GROUP5
 10
0.0
 20
0.0
 30
0.0
  0
INSERT
  5
8C
330
1F
100
AcDbEntity
  8
Default
100
AcDbBlockReference
  2
SEANNOT_GROUP6
 10
0.0
 20
0.0
 30
0.0
  0
INSERT
  5
96
330
1F
100
AcDbEntity
  8
Default
100
AcDbBlockReference
  2
SE
 10
0.0
 20
0.0
 30
0.0
  0
INSERT
  5
126
330
1F
100
AcDbEntity
  8
Default
100
AcDbBlockReference
  2
SE1
 10
0.0
 20
0.0
 30
0.0
  0
INSERT
  5
181
330
1F
100
AcDbEntity
  8
Default
100
AcDbBlockReference
  2
SE2
 10
0.0
 20
0.0
 30
0.0
  0
TEXT
  5
1F5
330
1F
100
AcDbEntity
  8
Default
  6
Continuous
 62
     7
100
AcDbText
 10
5.9362635081
 20
53.4225120485
 30
0.0
 40
10.0
  1
Grohe AG^J
  7
SEACAD_seiso_ttf
 11
5.9362635081
 21
63.4225120485
 31
0.0
100
AcDbText
 73
     3
  0
TEXT
  5
1F6
330
1F
100
AcDbEntity
  8
Default
  6
Continuous
 62
     7
100
AcDbText
 10
5.9362635081
 20
37.0588756849
 30
0.0
 40
10.0
  1
 
  7
SEACAD_seiso_ttf
 11
5.9362635081
 21
47.0588756849
 31
0.0
100
AcDbText
 73
     3
  0
TEXT
  5
1F7
330
1F
100
AcDbEntity
  8
Default
  6
Continuous
 62
     7
100
AcDbText
 10
5.9362635081
 20
20.6952393213
 30
0.0
 40
10.0
  1
ecn: 
  7
SEACAD_seiso_ttf
 11
5.9362635081
 21
30.6952393213
 31
0.0
100
AcDbText
 73
     3
  0
TEXT
  5
1F8
330
1F
100
AcDbEntity
  8
Default
  6
Continuous
 62
     7
100
AcDbText
 10
5.9362635081
 20
4.3316029576
 30
0.0
 40
10.0
  1
unit: mm
  7
SEACAD_seiso_ttf
 11
5.9362635081
 21
14.3316029576
 31
0.0
100
AcDbText
 73
     3
  0
LINE
  5
1F9
330
1F
100
AcDbEntity
  8
Default
  6
Continuous
 62
     7
100
AcDbLine
 10
0.0
 20
0.0
 30
0.0
 11
100.0
 21
0.0
 31
0.0
  0
LINE
  5
1FA
330
1F
100
AcDbEntity
  8
Default
  6
Continuous
 62
     7
100
AcDbLine
 10
0.0
 20
0.0
 30
0.0
 11
0.0
 21
100.0
 31
0.0
  0
TEXT
  5
1FB
330
1F
100
AcDbEntity
  8
Default
  6
Continuous
 62
     7
100
AcDbText
 10
24.3923665681
 20
-18.2375342018
 30
0.0
 40
10.0
  1
100 mm
  7
SEACAD_seiso_ttf
 11
24.3923665681
 21
-8.2375342018
 31
0.0
100
AcDbText
 73
     3
  0
TEXT
  5
1FC
330
1F
100
AcDbEntity
  8
Default
  6
Continuous
 62
     7
100
AcDbText
 10
-7.6150308803
 20
24.6231930421
 30
0.0
 40
10.0
  1
100 mm
 50
90.0
  7
SEACAD_seiso_ttf
 11
-17.6150308803
 21
24.6231930421
 31
0.0
100
AcDbText
 73
     3
  0
TEXT
  5
1FD
330
1F
100
AcDbEntity
  8
Default
  6
Continuous
 62
     7
100
AcDbText
 10
28.4878128572
 20
20.0907663715
 30
0.0
 40
10.0
  1
220040
  7
SEACAD_seiso_ttf
 11
28.4878128572
 21
30.0907663715
 31
0.0
100
AcDbText
 73
     3
  0
TEXT
  5
1FE
330
1F
100
AcDbEntity
  8
Default
  6
Continuous
 62
     7
100
AcDbText
 10
5.9012241913
 20
36.7242780188
 30
0.0
 40
10.0
  1
20306000
  7
SEACAD_seiso_ttf
 11
5.9012241913
 21
46.7242780188
 31
0.0
100
AcDbText
 73
     3
  0
ENDSEC
  0
SECTION
  2
OBJECTS
  0
DICTIONARY
  5
C
330
0
100
AcDbDictionary
281
     1
  3
ACAD_GROUP
350
D
  3
ACAD_LAYOUT
350
1A
  3
ACAD_MLEADERSTYLE
350
202
  3
ACAD_MLINESTYLE
350
17
  3
ACAD_PLOTSETTINGS
350
19
  3
ACAD_PLOTSTYLENAME
350
E
  3
ACAD_SCALELIST
350
3B
  3
ACAD_TABLESTYLE
350
201
  3
ACAD_VISUALSTYLE
350
2A
  3
AcDbVariableDictionary
350
1FF
  0
DICTIONARY
  5
D
102
{ACAD_REACTORS
330
C
102
}
330
C
100
AcDbDictionary
281
     1
  0
DICTIONARY
  5
1A
102
{ACAD_REACTORS
330
C
102
}
330
C
100
AcDbDictionary
281
     1
  3
Layout1
350
1E
  3
Model
350
22
  0
DICTIONARY
  5
202
102
{ACAD_REACTORS
330
C
102
}
330
C
100
AcDbDictionary
281
     1
  0
DICTIONARY
  5
17
102
{ACAD_REACTORS
330
C
102
}
330
C
100
AcDbDictionary
281
     1
  3
Standard
350
18
  0
DICTIONARY
  5
19
102
{ACAD_REACTORS
330
C
102
}
330
C
100
AcDbDictionary
281
     1
  0
ACDBDICTIONARYWDFLT
  5
E
102
{ACAD_REACTORS
330
C
102
}
330
C
100
AcDbDictionary
281
     1
  3
Normal
350
F
100
AcDbDictionaryWithDefault
340
F
  0
DICTIONARY
  5
3B
102
{ACAD_REACTORS
330
C
102
}
330
C
100
AcDbDictionary
281
     1
  3
A0
350
3C
  3
A1
350
3D
  3
A2
350
3E
  3
A3
350
3F
  3
A4
350
40
  3
A5
350
41
  3
A6
350
42
  3
A7
350
43
  3
A8
350
44
  3
A9
350
45
  3
B0
350
46
  3
B1
350
47
  3
B2
350
48
  3
B3
350
49
  3
B4
350
4A
  3
B5
350
4B
  3
B6
350
4C
  3
B7
350
4D
  3
B8
350
4E
  3
B9
350
4F
  3
C0
350
50
  3
C1
350
51
  3
C2
350
52
  3
C3
350
53
  3
C4
350
54
  3
C5
350
55
  3
C6
350
56
  3
C7
350
57
  3
C8
350
58
  3
C9
350
59
  3
D0
350
5A
  3
D1
350
5B
  3
D2
350
5C
  0
DICTIONARY
  5
201
102
{ACAD_REACTORS
330
C
102
}
330
C
100
AcDbDictionary
281
     1
  0
DICTIONARY
  5
2A
102
{ACAD_REACTORS
330
C
102
}
330
C
100
AcDbDictionary
281
     1
  3
2dWireframe
350
2F
  3
3D Hidden
350
31
  3
3dWireframe
350
30
  3
Basic
350
32
  3
Brighten
350
36
  3
ColorChange
350
3A
  3
Conceptual
350
34
  3
Dim
350
35
  3
Facepattern
350
39
  3
Flat
350
2B
  3
FlatWithEdges
350
2C
  3
Gouraud
350
2D
  3
GouraudWithEdges
350
2E
  3
Linepattern
350
38
  3
Realistic
350
33
  3
Thicken
350
37
  0
DICTIONARY
  5
1FF
102
{ACAD_REACTORS
330
C
102
}
330
C
100
AcDbDictionary
281
     1
  3
CANNOSCALE
350
200
  3
PSOLHEIGHT
350
204
  3
PSOLWIDTH
350
203
  0
LAYOUT
  5
1E
102
{ACAD_REACTORS
330
1A
102
}
330
1A
100
AcDbPlotSettings
  1

  2
none_device
  4

  6

 40
0.0
 41
0.0
 42
0.0
 43
0.0
 44
0.0
 45
0.0
 46
0.0
 47
0.0
 48
0.0
 49
0.0
140
0.0
141
0.0
142
1.0
143
1.0
 70
   688
 72
     0
 73
     0
 74
     5
  7

 75
    16
147
1.0
148
0.0
149
0.0
100
AcDbLayout
  1
Layout1
 70
     1
 71
     1
 10
0.0
 20
0.0
 11
1682.0
 21
2378.0
 12
0.0
 22
0.0
 32
0.0
 14
0.0
 24
0.0
 34
0.0
 15
1682.0
 25
2378.0
 35
0.0
146
0.0
 13
0.0
 23
0.0
 33
0.0
 16
1.0
 26
0.0
 36
0.0
 17
0.0
 27
1.0
 37
0.0
 76
     0
330
1B
  0
LAYOUT
  5
22
102
{ACAD_REACTORS
330
1A
102
}
330
1A
100
AcDbPlotSettings
  1

  2
none_device
  4

  6

 40
0.0
 41
0.0
 42
0.0
 43
0.0
 44
0.0
 45
0.0
 46
0.0
 47
0.0
 48
0.0
 49
0.0
140
0.0
141
0.0
142
1.0
143
1.0
 70
  1712
 72
     0
 73
     0
 74
     0
  7

 75
     0
147
1.0
148
0.0
149
0.0
100
AcDbLayout
  1
Model
 70
     1
 71
     0
 10
0.0
 20
0.0
 11
1682.0
 21
2378.0
 12
0.0
 22
0.0
 32
0.0
 14
0.0
 24
0.0
 34
0.0
 15
1682.0
 25
2378.0
 35
0.0
146
0.0
 13
0.0
 23
0.0
 33
0.0
 16
1.0
 26
0.0
 36
0.0
 17
0.0
 27
1.0
 37
0.0
 76
     0
330
1F
331
29
  0
MLINESTYLE
  5
18
102
{ACAD_REACTORS
330
17
102
}
330
17
100
AcDbMlineStyle
  2
Standard
 70
     0
  3

 62
   256
 51
90.0
 52
90.0
 71
     2
 49
0.5
 62
   256
  6
BYLAYER
 49
-0.5
 62
   256
  6
BYLAYER
  0
ACDBPLACEHOLDER
  5
F
102
{ACAD_REACTORS
330
E
102
}
330
E
  0
SCALE
  5
3C
102
{ACAD_REACTORS
330
3B
102
}
330
3B
100
AcDbScale
 70
     0
300
1:1
140
1.0
141
1.0
290
     1
  0
SCALE
  5
3D
102
{ACAD_REACTORS
330
3B
102
}
330
3B
100
AcDbScale
 70
     0
300
1:2
140
1.0
141
2.0
290
     0
  0
SCALE
  5
3E
102
{ACAD_REACTORS
330
3B
102
}
330
3B
100
AcDbScale
 70
     0
300
1:4
140
1.0
141
4.0
290
     0
  0
SCALE
  5
3F
102
{ACAD_REACTORS
330
3B
102
}
330
3B
100
AcDbScale
 70
     0
300
1:5
140
1.0
141
5.0
290
     0
  0
SCALE
  5
40
102
{ACAD_REACTORS
330
3B
102
}
330
3B
100
AcDbScale
 70
     0
300
1:8
140
1.0
141
8.0
290
     0
  0
SCALE
  5
41
102
{ACAD_REACTORS
330
3B
102
}
330
3B
100
AcDbScale
 70
     0
300
1:10
140
1.0
141
10.0
290
     0
  0
SCALE
  5
42
102
{ACAD_REACTORS
330
3B
102
}
330
3B
100
AcDbScale
 70
     0
300
1:16
140
1.0
141
16.0
290
     0
  0
SCALE
  5
43
102
{ACAD_REACTORS
330
3B
102
}
330
3B
100
AcDbScale
 70
     0
300
1:20
140
1.0
141
20.0
290
     0
  0
SCALE
  5
44
102
{ACAD_REACTORS
330
3B
102
}
330
3B
100
AcDbScale
 70
     0
300
1:30
140
1.0
141
30.0
290
     0
  0
SCALE
  5
45
102
{ACAD_REACTORS
330
3B
102
}
330
3B
100
AcDbScale
 70
     0
300
1:40
140
1.0
141
40.0
290
     0
  0
SCALE
  5
46
102
{ACAD_REACTORS
330
3B
102
}
330
3B
100
AcDbScale
 70
     0
300
1:50
140
1.0
141
50.0
290
     0
  0
SCALE
  5
47
102
{ACAD_REACTORS
330
3B
102
}
330
3B
100
AcDbScale
 70
     0
300
1:100
140
1.0
141
100.0
290
     0
  0
SCALE
  5
48
102
{ACAD_REACTORS
330
3B
102
}
330
3B
100
AcDbScale
 70
     0
300
2:1
140
2.0
141
1.0
290
     0
  0
SCALE
  5
49
102
{ACAD_REACTORS
330
3B
102
}
330
3B
100
AcDbScale
 70
     0
300
4:1
140
4.0
141
1.0
290
     0
  0
SCALE
  5
4A
102
{ACAD_REACTORS
330
3B
102
}
330
3B
100
AcDbScale
 70
     0
300
8:1
140
8.0
141
1.0
290
     0
  0
SCALE
  5
4B
102
{ACAD_REACTORS
330
3B
102
}
330
3B
100
AcDbScale
 70
     0
300
10:1
140
10.0
141
1.0
290
     0
  0
SCALE
  5
4C
102
{ACAD_REACTORS
330
3B
102
}
330
3B
100
AcDbScale
 70
     0
300
100:1
140
100.0
141
1.0
290
     0
  0
SCALE
  5
4D
102
{ACAD_REACTORS
330
3B
102
}
330
3B
100
AcDbScale
 70
     0
300
1/128" = 1'-0"
140
0.0078125
141
12.0
290
     0
  0
SCALE
  5
4E
102
{ACAD_REACTORS
330
3B
102
}
330
3B
100
AcDbScale
 70
     0
300
1/64" = 1'-0"
140
0.015625
141
12.0
290
     0
  0
SCALE
  5
4F
102
{ACAD_REACTORS
330
3B
102
}
330
3B
100
AcDbScale
 70
     0
300
1/32" = 1'-0"
140
0.03125
141
12.0
290
     0
  0
SCALE
  5
50
102
{ACAD_REACTORS
330
3B
102
}
330
3B
100
AcDbScale
 70
     0
300
1/16" = 1'-0"
140
0.0625
141
12.0
290
     0
  0
SCALE
  5
51
102
{ACAD_REACTORS
330
3B
102
}
330
3B
100
AcDbScale
 70
     0
300
3/32" = 1'-0"
140
0.09375
141
12.0
290
     0
  0
SCALE
  5
52
102
{ACAD_REACTORS
330
3B
102
}
330
3B
100
AcDbScale
 70
     0
300
1/8" = 1'-0"
140
0.125
141
12.0
290
     0
  0
SCALE
  5
53
102
{ACAD_REACTORS
330
3B
102
}
330
3B
100
AcDbScale
 70
     0
300
3/16" = 1'-0"
140
0.1875
141
12.0
290
     0
  0
SCALE
  5
54
102
{ACAD_REACTORS
330
3B
102
}
330
3B
100
AcDbScale
 70
     0
300
1/4" = 1'-0"
140
0.25
141
12.0
290
     0
  0
SCALE
  5
55
102
{ACAD_REACTORS
330
3B
102
}
330
3B
100
AcDbScale
 70
     0
300
3/8" = 1'-0"
140
0.375
141
12.0
290
     0
  0
SCALE
  5
56
102
{ACAD_REACTORS
330
3B
102
}
330
3B
100
AcDbScale
 70
     0
300
1/2" = 1'-0"
140
0.5
141
12.0
290
     0
  0
SCALE
  5
57
102
{ACAD_REACTORS
330
3B
102
}
330
3B
100
AcDbScale
 70
     0
300
3/4" = 1'-0"
140
0.75
141
12.0
290
     0
  0
SCALE
  5
58
102
{ACAD_REACTORS
330
3B
102
}
330
3B
100
AcDbScale
 70
     0
300
1" = 1'-0"
140
1.0
141
12.0
290
     0
  0
SCALE
  5
59
102
{ACAD_REACTORS
330
3B
102
}
330
3B
100
AcDbScale
 70
     0
300
1-1/2" = 1'-0"
140
1.5
141
12.0
290
     0
  0
SCALE
  5
5A
102
{ACAD_REACTORS
330
3B
102
}
330
3B
100
AcDbScale
 70
     0
300
3" = 1'-0"
140
3.0
141
12.0
290
     0
  0
SCALE
  5
5B
102
{ACAD_REACTORS
330
3B
102
}
330
3B
100
AcDbScale
 70
     0
300
6" = 1'-0"
140
6.0
141
12.0
290
     0
  0
SCALE
  5
5C
102
{ACAD_REACTORS
330
3B
102
}
330
3B
100
AcDbScale
 70
     0
300
1'-0" = 1'-0"
140
12.0
141
12.0
290
     0
  0
VISUALSTYLE
  5
2F
102
{ACAD_REACTORS
330
2A
102
}
330
2A
100
AcDbVisualStyle
  2
2dWireframe
 70
     4
 71
     0
 72
     2
 73
     0
 90
        0
 40
-0.6
 41
-30.0
 62
     5
 63
     7
 74
     1
 91
        4
 64
     7
 65
   257
 75
     1
175
     1
 42
1.0
 92
        0
 66
   257
 43
1.0
 76
     1
 77
     6
 78
     2
 67
     7
 79
     5
170
     0
171
     0
290
     0
174
     0
 93
        1
 44
0.0
173
     0
291
     0
 45
0.0
1001
ACAD
1000
AcDbSavedByObjectVersion
1070
     0
  0
VISUALSTYLE
  5
31
102
{ACAD_REACTORS
330
2A
102
}
330
2A
100
AcDbVisualStyle
  2
3D Hidden
 70
     6
 71
     1
 72
     2
 73
     2
 90
        0
 40
-0.6
 41
-30.0
 62
     5
 63
     7
 74
     2
 91
        2
 64
     7
 65
   257
 75
     2
175
     1
 42
40.0
 92
        0
 66
   257
 43
1.0
 76
     1
 77
     6
 78
     2
 67
     7
 79
     3
170
     0
171
     0
290
     0
174
     0
 93
        1
 44
0.0
173
     0
291
     0
 45
0.0
1001
ACAD
1000
AcDbSavedByObjectVersion
1070
     0
  0
VISUALSTYLE
  5
30
102
{ACAD_REACTORS
330
2A
102
}
330
2A
100
AcDbVisualStyle
  2
3dWireframe
 70
     5
 71
     0
 72
     2
 73
     0
 90
        0
 40
-0.6
 41
-30.0
 62
     5
 63
     7
 74
     1
 91
        4
 64
     7
 65
   257
 75
     1
175
     1
 42
1.0
 92
        0
 66
   257
 43
1.0
 76
     1
 77
     6
 78
     2
 67
     7
 79
     5
170
     0
171
     0
290
     0
174
     0
 93
        1
 44
0.0
173
     0
291
     0
 45
0.0
1001
ACAD
1000
AcDbSavedByObjectVersion
1070
     0
  0
VISUALSTYLE
  5
32
102
{ACAD_REACTORS
330
2A
102
}
330
2A
100
AcDbVisualStyle
  2
Basic
 70
     7
 71
     1
 72
     0
 73
     1
 90
        0
 40
-0.6
 41
-30.0
 62
     5
 63
     7
 74
     0
 91
        4
 64
     7
 65
   257
 75
     1
175
     1
 42
1.0
 92
        8
 66
     7
 43
1.0
 76
     1
 77
     6
 78
     2
 67
     7
 79
     5
170
     0
171
     0
290
     0
174
     0
 93
        1
 44
0.0
173
     0
291
     1
 45
0.0
1001
ACAD
1000
AcDbSavedByObjectVersion
1070
     0
  0
VISUALSTYLE
  5
36
102
{ACAD_REACTORS
330
2A
102
}
330
2A
100
AcDbVisualStyle
  2
Brighten
 70
    12
 71
     2
 72
     2
 73
     0
 90
        0
 40
-0.6
 41
-30.0
 62
     5
 63
     7
 74
     1
 91
        4
 64
     7
 65
   257
 75
     1
175
     1
 42
1.0
 92
        8
 66
     7
 43
1.0
 76
     1
 77
     6
 78
     2
 67
     7
 79
     5
170
     0
171
     0
290
     0
174
     0
 93
        1
 44
50.0
173
     0
291
     1
 45
0.0
1001
ACAD
1000
AcDbSavedByObjectVersion
1070
     0
  0
VISUALSTYLE
  5
3A
102
{ACAD_REACTORS
330
2A
102
}
330
2A
100
AcDbVisualStyle
  2
ColorChange
 70
    16
 71
     2
 72
     2
 73
     3
 90
        0
 40
-0.6
 41
-30.0
 62
     5
 63
     8
 74
     1
 91
        4
 64
     7
 65
   257
 75
     1
175
     1
 42
1.0
 92
        8
 66
     8
 43
1.0
 76
     1
 77
     6
 78
     2
 67
     7
 79
     5
170
     0
171
     0
290
     0
174
     0
 93
        1
 44
0.0
173
     0
291
     1
 45
0.0
1001
ACAD
1000
AcDbSavedByObjectVersion
1070
     0
  0
VISUALSTYLE
  5
34
102
{ACAD_REACTORS
330
2A
102
}
330
2A
100
AcDbVisualStyle
  2
Conceptual
 70
     9
 71
     3
 72
     2
 73
     0
 90
        0
 40
-0.6
 41
-30.0
 62
     5
 63
     7
 74
     2
 91
        2
 64
     7
 65
   257
 75
     1
175
     1
 42
40.0
 92
        8
 66
     7
 43
1.0
 76
     1
 77
     6
 78
     2
 67
     7
 79
     3
170
     0
171
     0
290
     0
174
     0
 93
        1
 44
0.0
173
     0
291
     0
 45
0.0
1001
ACAD
1000
AcDbSavedByObjectVersion
1070
     0
  0
VISUALSTYLE
  5
35
102
{ACAD_REACTORS
330
2A
102
}
330
2A
100
AcDbVisualStyle
  2
Dim
 70
    11
 71
     2
 72
     2
 73
     0
 90
        0
 40
-0.6
 41
-30.0
 62
     5
 63
     7
 74
     1
 91
        4
 64
     7
 65
   257
 75
     1
175
     1
 42
1.0
 92
        8
 66
     7
 43
1.0
 76
     1
 77
     6
 78
     2
 67
     7
 79
     5
170
     0
171
     0
290
     0
174
     0
 93
        1
 44
-50.0
173
     0
291
     1
 45
0.0
1001
ACAD
1000
AcDbSavedByObjectVersion
1070
     0
  0
VISUALSTYLE
  5
39
102
{ACAD_REACTORS
330
2A
102
}
330
2A
100
AcDbVisualStyle
  2
Facepattern
 70
    15
 71
     2
 72
     2
 73
     0
 90
        0
 40
-0.6
 41
-30.0
 62
     5
 63
     7
 74
     1
 91
        4
 64
     7
 65
   257
 75
     1
175
     1
 42
1.0
 92
        8
 66
     7
 43
1.0
 76
     1
 77
     6
 78
     2
 67
     7
 79
     5
170
     0
171
     0
290
     0
174
     0
 93
        1
 44
0.0
173
     0
291
     1
 45
0.0
1001
ACAD
1000
AcDbSavedByObjectVersion
1070
     0
  0
VISUALSTYLE
  5
2B
102
{ACAD_REACTORS
330
2A
102
}
330
2A
100
AcDbVisualStyle
  2
Flat
 70
     0
 71
     2
 72
     1
 73
     1
 90
        2
 40
-0.6
 41
30.0
 62
     5
 63
     7
 74
     0
 91
        4
 64
     7
 65
   257
 75
     1
175
     1
 42
1.0
 92
        8
 66
     7
 43
1.0
 76
     1
 77
     6
 78
     2
 67
     7
 79
     5
170
     0
171
     0
290
     0
174
     0
 93
       13
 44
0.0
173
     0
291
     1
 45
0.0
1001
ACAD
1000
AcDbSavedByObjectVersion
1070
     0
  0
VISUALSTYLE
  5
2C
102
{ACAD_REACTORS
330
2A
102
}
330
2A
100
AcDbVisualStyle
  2
FlatWithEdges
 70
     1
 71
     2
 72
     1
 73
     1
 90
        2
 40
-0.6
 41
30.0
 62
     5
 63
     7
 74
     1
 91
        4
 64
     7
 65
   257
 75
     1
175
     1
 42
1.0
 92
        0
 66
   257
 43
1.0
 76
     1
 77
     6
 78
     2
 67
     7
 79
     5
170
     0
171
     0
290
     0
174
     0
 93
       13
 44
0.0
173
     0
291
     1
 45
0.0
1001
ACAD
1000
AcDbSavedByObjectVersion
1070
     0
  0
VISUALSTYLE
  5
2D
102
{ACAD_REACTORS
330
2A
102
}
330
2A
100
AcDbVisualStyle
  2
Gouraud
 70
     2
 71
     2
 72
     2
 73
     1
 90
        2
 40
-0.6
 41
30.0
 62
     5
 63
     7
 74
     0
 91
        4
 64
     7
 65
   257
 75
     1
175
     1
 42
1.0
 92
        0
 66
     7
 43
1.0
 76
     1
 77
     6
 78
     2
 67
     7
 79
     5
170
     0
171
     0
290
     0
174
     0
 93
       13
 44
0.0
173
     0
291
     1
 45
0.0
1001
ACAD
1000
AcDbSavedByObjectVersion
1070
     0
  0
VISUALSTYLE
  5
2E
102
{ACAD_REACTORS
330
2A
102
}
330
2A
100
AcDbVisualStyle
  2
GouraudWithEdges
 70
     3
 71
     2
 72
     2
 73
     1
 90
        2
 40
-0.6
 41
30.0
 62
     5
 63
     7
 74
     1
 91
        4
 64
     7
 65
   257
 75
     1
175
     1
 42
1.0
 92
        0
 66
   257
 43
1.0
 76
     1
 77
     6
 78
     2
 67
     7
 79
     5
170
     0
171
     0
290
     0
174
     0
 93
       13
 44
0.0
173
     0
291
     1
 45
0.0
1001
ACAD
1000
AcDbSavedByObjectVersion
1070
     0
  0
VISUALSTYLE
  5
38
102
{ACAD_REACTORS
330
2A
102
}
330
2A
100
AcDbVisualStyle
  2
Linepattern
 70
    14
 71
     2
 72
     2
 73
     0
 90
        0
 40
-0.6
 41
-30.0
 62
     5
 63
     7
 74
     1
 91
        4
 64
     7
 65
   257
 75
     7
175
     7
 42
1.0
 92
        8
 66
     7
 43
1.0
 76
     1
 77
     6
 78
     2
 67
     7
 79
     5
170
     0
171
     0
290
     0
174
     0
 93
        1
 44
0.0
173
     0
291
     1
 45
0.0
1001
ACAD
1000
AcDbSavedByObjectVersion
1070
     0
  0
VISUALSTYLE
  5
33
102
{ACAD_REACTORS
330
2A
102
}
330
2A
100
AcDbVisualStyle
  2
Realistic
 70
     8
 71
     2
 72
     2
 73
     0
 90
        0
 40
-0.6
 41
-30.0
 62
     5
 63
     7
 74
     1
 91
        0
 64
     7
 65
   257
 75
     1
175
     1
 42
1.0
 92
        8
 66
     8
 43
1.0
 76
     1
 77
     6
 78
     2
 67
     7
 79
     5
170
     0
171
     0
290
     0
174
     0
 93
       13
 44
0.0
173
     0
291
     0
 45
0.0
1001
ACAD
1000
AcDbSavedByObjectVersion
1070
     0
  0
VISUALSTYLE
  5
37
102
{ACAD_REACTORS
330
2A
102
}
330
2A
100
AcDbVisualStyle
  2
Thicken
 70
    13
 71
     2
 72
     2
 73
     0
 90
        0
 40
-0.6
 41
-30.0
 62
     5
 63
     7
 74
     1
 91
        4
 64
     7
 65
   257
 75
     1
175
     1
 42
1.0
 92
       12
 66
     7
 43
1.0
 76
     1
 77
     6
 78
     2
 67
     7
 79
     5
170
     0
171
     0
290
     0
174
     0
 93
        1
 44
0.0
173
     0
291
     1
 45
0.0
1001
ACAD
1000
AcDbSavedByObjectVersion
1070
     0
  0
DICTIONARYVAR
  5
200
102
{ACAD_REACTORS
330
1FF
102
}
330
1FF
100
DictionaryVariables
280
     0
  1
1:1
  0
DICTIONARYVAR
  5
204
102
{ACAD_REACTORS
330
1FF
102
}
330
1FF
100
DictionaryVariables
280
     0
  1
80.000000
  0
DICTIONARYVAR
  5
203
102
{ACAD_REACTORS
330
1FF
102
}
330
1FF
100
DictionaryVariables
280
     0
  1
5.000000
  0
ENDSEC
  0
EOF
