  0
SECTION
  2
HEADER
  9
$ACADVER
  1
AC1015
  9
$ACADMAINTVER
 70
     6
  9
$DWGCODEPAGE
  3
ANSI_1252
  9
$INSBASE
 10
0.0
 20
0.0
 30
0.0
  9
$EXTMIN
 10
0.0
 20
0.0
 30
0.0
  9
$EXTMAX
 10
1682.0
 20
2378.0
 30
0.0
  9
$LIMMIN
 10
0.0
 20
0.0
  9
$LIMMAX
 10
1682.0
 20
2378.0
  9
$ORTHOMODE
 70
     0
  9
$REGENMODE
 70
     1
  9
$FILLMODE
 70
     1
  9
$QTEXTMODE
 70
     0
  9
$MIRRTEXT
 70
     1
  9
$LTSCALE
 40
1.0
  9
$ATTMODE
 70
     1
  9
$TEXTSIZE
 40
2.5
  9
$TRACEWID
 40
1.0
  9
$TEXTSTYLE
  7
Standard
  9
$CLAYER
  8
0
  9
$CELTYPE
  6
ByLayer
  9
$CECOLOR
 62
   256
  9
$CELTSCALE
 40
1.0
  9
$DISPSILH
 70
     0
  9
$DIMSCALE
 40
1.0
  9
$DIMASZ
 40
2.5
  9
$DIMEXO
 40
0.625
  9
$DIMDLI
 40
3.75
  9
$DIMRND
 40
0.0
  9
$DIMDLE
 40
0.0
  9
$DIMEXE
 40
1.25
  9
$DIMTP
 40
0.0
  9
$DIMTM
 40
0.0
  9
$DIMTXT
 40
2.5
  9
$DIMCEN
 40
2.5
  9
$DIMTSZ
 40
0.0
  9
$DIMTOL
 70
     0
  9
$DIMLIM
 70
     0
  9
$DIMTIH
 70
     0
  9
$DIMTOH
 70
     0
  9
$DIMSE1
 70
     0
  9
$DIMSE2
 70
     0
  9
$DIMTAD
 70
     1
  9
$DIMZIN
 70
     8
  9
$DIMBLK
  1

  9
$DIMASO
 70
     1
  9
$DIMSHO
 70
     1
  9
$DIMPOST
  1

  9
$DIMAPOST
  1

  9
$DIMALT
 70
     0
  9
$DIMALTD
 70
     3
  9
$DIMALTF
 40
0.0393700787
  9
$DIMLFAC
 40
1.0
  9
$DIMTOFL
 70
     1
  9
$DIMTVP
 40
0.0
  9
$DIMTIX
 70
     0
  9
$DIMSOXD
 70
     0
  9
$DIMSAH
 70
     0
  9
$DIMBLK1
  1

  9
$DIMBLK2
  1

  9
$DIMSTYLE
  2
ISO-25
  9
$DIMCLRD
 70
     0
  9
$DIMCLRE
 70
     0
  9
$DIMCLRT
 70
     0
  9
$DIMTFAC
 40
1.0
  9
$DIMGAP
 40
0.625
  9
$DIMJUST
 70
     0
  9
$DIMSD1
 70
     0
  9
$DIMSD2
 70
     0
  9
$DIMTOLJ
 70
     0
  9
$DIMTZIN
 70
     8
  9
$DIMALTZ
 70
     0
  9
$DIMALTTZ
 70
     0
  9
$DIMUPT
 70
     0
  9
$DIMDEC
 70
     2
  9
$DIMTDEC
 70
     2
  9
$DIMALTU
 70
     2
  9
$DIMALTTD
 70
     3
  9
$DIMTXSTY
  7
Standard
  9
$DIMAUNIT
 70
     0
  9
$DIMADEC
 70
     0
  9
$DIMALTRND
 40
0.0
  9
$DIMAZIN
 70
     0
  9
$DIMDSEP
 70
    44
  9
$DIMATFIT
 70
     3
  9
$DIMFRAC
 70
     0
  9
$DIMLDRBLK
  1

  9
$DIMLUNIT
 70
     2
  9
$DIMLWD
 70
    -2
  9
$DIMLWE
 70
    -2
  9
$DIMTMOVE
 70
     0
  9
$LUNITS
 70
     2
  9
$LUPREC
 70
     4
  9
$SKETCHINC
 40
1.0
  9
$FILLETRAD
 40
10.0
  9
$AUNITS
 70
     0
  9
$AUPREC
 70
     0
  9
$MENU
  1
.
  9
$ELEVATION
 40
0.0
  9
$PELEVATION
 40
0.0
  9
$THICKNESS
 40
0.0
  9
$LIMCHECK
 70
     0
  9
$CHAMFERA
 40
10.0
  9
$CHAMFERB
 40
10.0
  9
$CHAMFERC
 40
20.0
  9
$CHAMFERD
 40
0.0
  9
$SKPOLY
 70
     0
  9
$TDCREATE
 40
2455615.601431817
  9
$TDUCREATE
 40
2455615.55976515
  9
$TDUPDATE
 40
2455615.601431829
  9
$TDUUPDATE
 40
2455615.559765162
  9
$TDINDWG
 40
0.0000000116
  9
$TDUSRTIMER
 40
0.0000000116
  9
$USRTIMER
 70
     1
  9
$ANGBASE
 50
0.0
  9
$ANGDIR
 70
     0
  9
$PDMODE
 70
     0
  9
$PDSIZE
 40
0.0
  9
$PLINEWID
 40
0.0
  9
$SPLFRAME
 70
     0
  9
$SPLINETYPE
 70
     6
  9
$SPLINESEGS
 70
     8
  9
$HANDSEED
  5
149
  9
$SURFTAB1
 70
     6
  9
$SURFTAB2
 70
     6
  9
$SURFTYPE
 70
     6
  9
$SURFU
 70
     6
  9
$SURFV
 70
     6
  9
$UCSBASE
  2

  9
$UCSNAME
  2

  9
$UCSORG
 10
0.0
 20
0.0
 30
0.0
  9
$UCSXDIR
 10
1.0
 20
0.0
 30
0.0
  9
$UCSYDIR
 10
0.0
 20
1.0
 30
0.0
  9
$UCSORTHOREF
  2

  9
$UCSORTHOVIEW
 70
     0
  9
$UCSORGTOP
 10
0.0
 20
0.0
 30
0.0
  9
$UCSORGBOTTOM
 10
0.0
 20
0.0
 30
0.0
  9
$UCSORGLEFT
 10
0.0
 20
0.0
 30
0.0
  9
$UCSORGRIGHT
 10
0.0
 20
0.0
 30
0.0
  9
$UCSORGFRONT
 10
0.0
 20
0.0
 30
0.0
  9
$UCSORGBACK
 10
0.0
 20
0.0
 30
0.0
  9
$PUCSBASE
  2

  9
$PUCSNAME
  2

  9
$PUCSORG
 10
0.0
 20
0.0
 30
0.0
  9
$PUCSXDIR
 10
1.0
 20
0.0
 30
0.0
  9
$PUCSYDIR
 10
0.0
 20
1.0
 30
0.0
  9
$PUCSORTHOREF
  2

  9
$PUCSORTHOVIEW
 70
     0
  9
$PUCSORGTOP
 10
0.0
 20
0.0
 30
0.0
  9
$PUCSORGBOTTOM
 10
0.0
 20
0.0
 30
0.0
  9
$PUCSORGLEFT
 10
0.0
 20
0.0
 30
0.0
  9
$PUCSORGRIGHT
 10
0.0
 20
0.0
 30
0.0
  9
$PUCSORGFRONT
 10
0.0
 20
0.0
 30
0.0
  9
$PUCSORGBACK
 10
0.0
 20
0.0
 30
0.0
  9
$USERI1
 70
     0
  9
$USERI2
 70
     0
  9
$USERI3
 70
     0
  9
$USERI4
 70
     0
  9
$USERI5
 70
     0
  9
$USERR1
 40
0.0
  9
$USERR2
 40
0.0
  9
$USERR3
 40
0.0
  9
$USERR4
 40
0.0
  9
$USERR5
 40
0.0
  9
$WORLDVIEW
 70
     1
  9
$SHADEDGE
 70
     3
  9
$SHADEDIF
 70
    70
  9
$TILEMODE
 70
     1
  9
$MAXACTVP
 70
    64
  9
$PINSBASE
 10
0.0
 20
0.0
 30
0.0
  9
$PLIMCHECK
 70
     0
  9
$PEXTMIN
 10
0.0
 20
0.0
 30
0.0
  9
$PEXTMAX
 10
1682.0
 20
2378.0
 30
0.0
  9
$PLIMMIN
 10
0.0
 20
0.0
  9
$PLIMMAX
 10
1682.0
 20
2378.0
  9
$UNITMODE
 70
     0
  9
$VISRETAIN
 70
     1
  9
$PLINEGEN
 70
     0
  9
$PSLTSCALE
 70
     1
  9
$TREEDEPTH
 70
  3020
  9
$CMLSTYLE
  2
Standard
  9
$CMLJUST
 70
     0
  9
$CMLSCALE
 40
20.0
  9
$PROXYGRAPHICS
 70
     1
  9
$MEASUREMENT
 70
     1
  9
$CELWEIGHT
370
    -1
  9
$ENDCAPS
280
     0
  9
$JOINSTYLE
280
     0
  9
$LWDISPLAY
290
     0
  9
$INSUNITS
 70
     4
  9
$HYPERLINKBASE
  1

  9
$STYLESHEET
  1

  9
$XEDIT
290
     1
  9
$CEPSNTYPE
380
     0
  9
$PSTYLEMODE
290
     1
  9
$FINGERPRINTGUID
  2
{C889AED1-B310-4B8B-A2E7-A4B2BDF9ED3C}
  9
$VERSIONGUID
  2
{FAEB1C32-E019-11D5-929B-00C0DF256EC4}
  9
$EXTNAMES
290
     1
  9
$PSVPSCALE
 40
0.0
  9
$OLESTARTUP
290
     0
  0
ENDSEC
  0
SECTION
  2
CLASSES
  0
CLASS
  1
ACDBDICTIONARYWDFLT
  2
AcDbDictionaryWithDefault
  3
ObjectDBX Classes
 90
        0
280
     0
281
     0
  0
CLASS
  1
VISUALSTYLE
  2
AcDbVisualStyle
  3
ObjectDBX Classes
 90
     4095
280
     0
281
     0
  0
CLASS
  1
SCALE
  2
AcDbScale
  3
ObjectDBX Classes
 90
     1153
280
     0
281
     0
  0
CLASS
  1
DICTIONARYVAR
  2
AcDbDictionaryVar
  3
ObjectDBX Classes
 90
        0
280
     0
281
     0
  0
CLASS
  1
ACDBPLACEHOLDER
  2
AcDbPlaceHolder
  3
ObjectDBX Classes
 90
        0
280
     0
281
     0
  0
CLASS
  1
LAYOUT
  2
AcDbLayout
  3
ObjectDBX Classes
 90
        0
280
     0
281
     0
  0
ENDSEC
  0
SECTION
  2
TABLES
  0
TABLE
  2
VPORT
  5
8
330
0
100
AcDbSymbolTable
 70
     1
  0
VPORT
  5
29
330
8
100
AcDbSymbolTableRecord
100
AcDbViewportTableRecord
  2
*Active
 70
     0
 10
0.0
 20
0.0
 11
1.0
 21
1.0
 12
344.1869158879
 22
148.5
 13
0.0
 23
0.0
 14
10.0
 24
10.0
 15
10.0
 25
10.0
 16
0.0
 26
0.0
 36
1.0
 17
0.0
 27
0.0
 37
0.0
 40
297.0
 41
1.9729729729
 42
50.0
 43
0.0
 44
0.0
 50
0.0
 51
0.0
 71
     0
 72
   100
 73
     1
 74
     3
 75
     0
 76
     0
 77
     0
 78
     0
281
     0
 65
     1
110
0.0
120
0.0
130
0.0
111
1.0
121
0.0
131
0.0
112
0.0
122
1.0
132
0.0
 79
     0
146
0.0
  0
ENDTAB
  0
TABLE
  2
LTYPE
  5
5
330
0
100
AcDbSymbolTable
 70
     2
  0
LTYPE
  5
14
330
5
100
AcDbSymbolTableRecord
100
AcDbLinetypeTableRecord
  2
ByBlock
 70
     0
  3

 72
    65
 73
     0
 40
0.0
  0
LTYPE
  5
15
330
5
100
AcDbSymbolTableRecord
100
AcDbLinetypeTableRecord
  2
ByLayer
 70
     0
  3

 72
    65
 73
     0
 40
0.0
  0
LTYPE
  5
16
330
5
100
AcDbSymbolTableRecord
100
AcDbLinetypeTableRecord
  2
Continuous
 70
     0
  3
Solid line
 72
    65
 73
     0
 40
0.0
  0
LTYPE
  5
60
330
5
100
AcDbSymbolTableRecord
100
AcDbLinetypeTableRecord
  2
CENTER2
 70
     0
  3
Center (.5x) ___ _ ___ _ ___ _ ___ _ ___ _ ___
 72
    65
 73
     4
 40
28.575
 49
19.05
 74
     4
 75
     0
340
0
 46
0.0
 50
0.0
 44
0.0
 45
0.0
 49
-3.175
 74
     4
 75
     0
340
0
 46
0.0
 50
0.0
 44
0.0
 45
0.0
 49
3.175
 74
     4
 75
     0
340
0
 46
0.0
 50
0.0
 44
0.0
 45
0.0
 49
-3.175
 74
     4
 75
     0
340
0
 46
0.0
 50
0.0
 44
0.0
 45
0.0
  0
ENDTAB
  0
TABLE
  2
LAYER
  5
2
330
0
100
AcDbSymbolTable
 70
     8
  0
LAYER
  5
10
330
2
100
AcDbSymbolTableRecord
100
AcDbLayerTableRecord
  2
0
 70
     0
 62
     7
  6
Continuous
370
    -3
390
F
  0
LAYER
  5
5D
330
2
100
AcDbSymbolTableRecord
100
AcDbLayerTableRecord
  2
Default
 70
     0
 62
     7
  6
Continuous
370
    -3
390
F
  0
LAYER
  5
77
330
2
100
AcDbSymbolTableRecord
100
AcDbLayerTableRecord
  2
401158038_218493
 70
     0
 62
     7
  6
Continuous
370
    -3
390
F
  0
LAYER
  5
A0
330
2
100
AcDbSymbolTableRecord
100
AcDbLayerTableRecord
  2
09055038_51856__
 70
     0
 62
     7
  6
Continuous
370
    -3
390
F
  0
LAYER
  5
A5
330
2
100
AcDbSymbolTableRecord
100
AcDbLayerTableRecord
  2
$DDT_AUDIT_GENERATED_(A5)
 70
     0
 62
     7
  6
Continuous
370
    -3
390
F
  0
LAYER
  5
AB
330
2
100
AcDbSymbolTableRecord
100
AcDbLayerTableRecord
  2
02822131_207296_
 70
     0
 62
     7
  6
Continuous
370
    -3
390
F
  0
LAYER
  5
CE
330
2
100
AcDbSymbolTableRecord
100
AcDbLayerTableRecord
  2
02693038_0__KAPP
 70
     0
 62
     7
  6
Continuous
370
    -3
390
F
  0
LAYER
  5
E4
330
2
100
AcDbSymbolTableRecord
100
AcDbLayerTableRecord
  2
$DDT_AUDIT_GENERATED_(E4)
 70
     0
 62
     7
  6
Continuous
370
    -3
390
F
  0
ENDTAB
  0
TABLE
  2
STYLE
  5
3
330
0
100
AcDbSymbolTable
 70
     2
  0
STYLE
  5
11
330
3
100
AcDbSymbolTableRecord
100
AcDbTextStyleTableRecord
  2
Standard
 70
     0
 40
0.0
 41
1.0
 50
0.0
 71
     0
 42
2.5
  3
txt
  4

  0
STYLE
  5
138
330
3
100
AcDbSymbolTableRecord
100
AcDbTextStyleTableRecord
  2
SEACAD_seiso_ttf
 70
     0
 40
0.0
 41
1.0
 50
0.0
 71
     0
 42
0.2
  3
seiso.ttf
  4

  0
ENDTAB
  0
TABLE
  2
VIEW
  5
6
330
0
100
AcDbSymbolTable
 70
     0
  0
ENDTAB
  0
TABLE
  2
UCS
  5
7
330
0
100
AcDbSymbolTable
 70
     0
  0
ENDTAB
  0
TABLE
  2
APPID
  5
9
330
0
100
AcDbSymbolTable
 70
     1
  0
APPID
  5
12
330
9
100
AcDbSymbolTableRecord
100
AcDbRegAppTableRecord
  2
ACAD
 70
     0
  0
ENDTAB
  0
TABLE
  2
DIMSTYLE
  5
A
330
0
100
AcDbSymbolTable
 70
     1
100
AcDbDimStyleTable
  0
DIMSTYLE
105
27
330
A
100
AcDbSymbolTableRecord
100
AcDbDimStyleTableRecord
  2
ISO-25
 70
     0
 41
2.5
 42
0.625
 43
3.75
 44
1.25
 73
     0
 74
     0
 77
     1
 78
     8
140
2.5
141
2.5
143
0.0393700787
147
0.625
171
     3
172
     1
271
     2
272
     2
274
     3
278
    44
283
     0
284
     8
340
11
  0
ENDTAB
  0
TABLE
  2
BLOCK_RECORD
  5
1
330
0
100
AcDbSymbolTable
 70
     7
  0
BLOCK_RECORD
  5
1F
330
1
100
AcDbSymbolTableRecord
100
AcDbBlockTableRecord
  2
*Model_Space
340
22
  0
BLOCK_RECORD
  5
1B
330
1
100
AcDbSymbolTableRecord
100
AcDbBlockTableRecord
  2
*Paper_Space
340
1E
  0
BLOCK_RECORD
  5
5E
330
1
100
AcDbSymbolTableRecord
100
AcDbBlockTableRecord
  2
SEANNOT_GROUP
340
0
102
{BLKREFS
331
5F
102
}
  0
BLOCK_RECORD
  5
69
330
1
100
AcDbSymbolTableRecord
100
AcDbBlockTableRecord
  2
SEANNOT_GROUP1
340
0
102
{BLKREFS
331
6A
102
}
  0
BLOCK_RECORD
  5
6F
330
1
100
AcDbSymbolTableRecord
100
AcDbBlockTableRecord
  2
SEANNOT_GROUP2
340
0
102
{BLKREFS
331
70
102
}
  0
BLOCK_RECORD
  5
75
330
1
100
AcDbSymbolTableRecord
100
AcDbBlockTableRecord
  2
SE
340
0
102
{BLKREFS
331
76
102
}
  0
BLOCK_RECORD
  5
A9
330
1
100
AcDbSymbolTableRecord
100
AcDbBlockTableRecord
  2
SE1
340
0
102
{BLKREFS
331
AA
102
}
  0
BLOCK_RECORD
  5
F5
330
1
100
AcDbSymbolTableRecord
100
AcDbBlockTableRecord
  2
SE2
340
0
102
{BLKREFS
331
F6
102
}
  0
ENDTAB
  0
ENDSEC
  0
SECTION
  2
BLOCKS
  0
BLOCK
  5
20
330
1F
100
AcDbEntity
  8
0
100
AcDbBlockBegin
  2
*Model_Space
 70
     0
 10
0.0
 20
0.0
 30
0.0
  3
*Model_Space
  1

  0
ENDBLK
  5
21
330
1F
100
AcDbEntity
  8
0
100
AcDbBlockEnd
  0
BLOCK
  5
1C
330
1B
100
AcDbEntity
 67
     1
  8
0
100
AcDbBlockBegin
  2
*Paper_Space
 70
     0
 10
0.0
 20
0.0
 30
0.0
  3
*Paper_Space
  1

  0
ENDBLK
  5
1D
330
1B
100
AcDbEntity
 67
     1
  8
0
100
AcDbBlockEnd
  0
BLOCK
  5
67
330
5E
100
AcDbEntity
  8
0
100
AcDbBlockBegin
  2
SEANNOT_GROUP
 70
     0
 10
0.0
 20
0.0
 30
0.0
  3
SEANNOT_GROUP
  1

  0
LINE
  5
61
330
5E
100
AcDbEntity
  8
Default
  6
CENTER2
 62
     7
100
AcDbLine
 10
128.1092370508
 20
464.4811808813
 30
0.0
 11
88.1092379448
 21
464.4811808813
 31
0.0
  0
LINE
  5
62
330
5E
100
AcDbEntity
  8
Default
  6
CENTER2
 62
     7
100
AcDbLine
 10
108.1092374978
 20
484.4811804343
 30
0.0
 11
108.1092374978
 21
444.4811813284
 31
0.0
  0
LINE
  5
63
330
5E
100
AcDbEntity
  8
Default
  6
CENTER2
 62
     7
100
AcDbLine
 10
133.109236939
 20
464.4811808813
 30
0.0
 11
192.1004338013
 21
464.4811808813
 31
0.0
  0
LINE
  5
64
330
5E
100
AcDbEntity
  8
Default
  6
CENTER2
 62
     7
100
AcDbLine
 10
108.1092374978
 20
489.4811803225
 30
0.0
 11
108.1092374978
 21
548.4723771849
 31
0.0
  0
LINE
  5
65
330
5E
100
AcDbEntity
  8
Default
  6
CENTER2
 62
     7
100
AcDbLine
 10
83.1092380566
 20
464.4811808813
 30
0.0
 11
24.1180411943
 21
464.4811808813
 31
0.0
  0
LINE
  5
66
330
5E
100
AcDbEntity
  8
Default
  6
CENTER2
 62
     7
100
AcDbLine
 10
108.1092374978
 20
439.4811814401
 30
0.0
 11
108.1092374978
 21
380.4899845778
 31
0.0
  0
ENDBLK
  5
68
330
5E
100
AcDbEntity
  8
0
100
AcDbBlockEnd
  0
BLOCK
  5
6D
330
69
100
AcDbEntity
  8
0
100
AcDbBlockBegin
  2
SEANNOT_GROUP1
 70
     0
 10
0.0
 20
0.0
 30
0.0
  3
SEANNOT_GROUP1
  1

  0
LINE
  5
6B
330
69
100
AcDbEntity
  8
Default
  6
CENTER2
 62
     7
100
AcDbLine
 10
395.4601826561
 20
464.5593909482
 30
0.0
 11
355.4601835502
 21
464.5593909482
 31
0.0
  0
LINE
  5
6C
330
69
100
AcDbEntity
  8
Default
  6
CENTER2
 62
     7
100
AcDbLine
 10
375.4601831032
 20
484.5593905012
 30
0.0
 11
375.4601831032
 21
444.5593913953
 31
0.0
  0
ENDBLK
  5
6E
330
69
100
AcDbEntity
  8
0
100
AcDbBlockEnd
  0
BLOCK
  5
73
330
6F
100
AcDbEntity
  8
0
100
AcDbBlockBegin
  2
SEANNOT_GROUP2
 70
     0
 10
0.0
 20
0.0
 30
0.0
  3
SEANNOT_GROUP2
  1

  0
LINE
  5
71
330
6F
100
AcDbEntity
  8
Default
  6
CENTER2
 62
     7
100
AcDbLine
 10
128.1092370508
 20
187.1942138877
 30
0.0
 11
88.1092379448
 21
187.1942138877
 31
0.0
  0
LINE
  5
72
330
6F
100
AcDbEntity
  8
Default
  6
CENTER2
 62
     7
100
AcDbLine
 10
108.1092374978
 20
207.1942134407
 30
0.0
 11
108.1092374978
 21
167.1942143348
 31
0.0
  0
ENDBLK
  5
74
330
6F
100
AcDbEntity
  8
0
100
AcDbBlockEnd
  0
BLOCK
  5
A7
330
75
100
AcDbEntity
  8
0
100
AcDbBlockBegin
  2
SE
 70
     0
 10
0.0
 20
0.0
 30
0.0
  3
SE
  1

  0
LINE
  5
78
330
75
100
AcDbEntity
  8
401158038_218493
  6
Continuous
 62
     7
100
AcDbLine
 10
83.489853087
 20
448.7162074054
 30
0.0
 11
83.5102557871
 21
448.6953959272
 31
0.0
  0
LINE
  5
79
330
75
100
AcDbEntity
  8
401158038_218493
  6
Continuous
 62
     7
100
AcDbLine
 10
83.5102557871
 20
448.6953959272
 30
0.0
 11
83.680751029
 21
448.5216887941
 31
0.0
  0
LINE
  5
7A
330
75
100
AcDbEntity
  8
401158038_218493
  6
Continuous
 62
     7
100
AcDbLine
 10
83.680751029
 20
448.5216887941
 30
0.0
 11
83.7274824065
 21
448.4741411413
 31
0.0
  0
LINE
  5
7B
330
75
100
AcDbEntity
  8
401158038_218493
  6
Continuous
 62
     7
100
AcDbLine
 10
132.5377170921
 20
448.5216429351
 30
0.0
 11
132.7082083737
 21
448.6953215209
 31
0.0
  0
LINE
  5
7C
330
75
100
AcDbEntity
  8
401158038_218493
  6
Continuous
 62
     7
100
AcDbLine
 10
132.7082083737
 20
448.6953215209
 30
0.0
 11
132.7292019112
 21
448.7167327157
 31
0.0
  0
LINE
  5
7D
330
75
100
AcDbEntity
  8
401158038_218493
  6
Continuous
 62
     7
100
AcDbLine
 10
132.7226908494
 20
448.7081786929
 30
0.0
 11
132.7235129117
 21
448.709252941
 31
0.0
  0
LINE
  5
7E
330
75
100
AcDbEntity
  8
401158038_218493
  6
Continuous
 62
     7
100
AcDbLine
 10
83.6821256738
 20
448.5199377895
 30
0.0
 11
83.7274966282
 21
448.4741029853
 31
0.0
  0
LINE
  5
7F
330
75
100
AcDbEntity
  8
401158038_218493
  6
Continuous
 62
     7
100
AcDbLine
 10
132.5363457558
 20
448.5198953614
 30
0.0
 11
132.4909752198
 21
448.4740675298
 31
0.0
  0
ARC
  5
80
330
75
100
AcDbEntity
  8
401158038_218493
  6
Continuous
 62
     7
100
AcDbCircle
 10
5449.0283891774
 20
879.3387197497
 30
0.0
 40
5382.785254492605
100
AcDbArc
 50
184.5886536542
 51
185.3405444404
  0
SPLINE
  5
81
330
75
100
AcDbEntity
  8
401158038_218493
  6
Continuous
 62
     7
100
AcDbSpline
210
0.0
220
0.0
230
1.0
 70
     8
 71
     3
 72
     8
 73
     4
 74
     0
 42
0.0000000002889235
 43
0.0000000001
 40
0.0
 40
0.0
 40
0.0
 40
0.0
 40
0.2278866959130233
 40
0.2278866959130233
 40
0.2278866959130233
 40
0.2278866959130233
 10
89.60935159103651
 20
378.3350515593
 30
0.0
 10
89.84741214980028
 20
375.7173463833798
 30
0.0
 10
90.06567437172043
 20
373.0901443746
 30
0.0
 10
90.49593648506571
 20
370.5029990901913
 30
0.0
  0
LINE
  5
82
330
75
100
AcDbEntity
  8
401158038_218493
  6
Continuous
 62
     7
100
AcDbLine
 10
83.5101556749
 20
448.6937184355
 30
0.0
 11
83.5084960433
 21
448.6953959299
 31
0.0
  0
SPLINE
  5
83
330
75
100
AcDbEntity
  8
401158038_218493
  6
Continuous
 62
     7
100
AcDbSpline
210
0.0
220
0.0
230
1.0
 70
     8
 71
     3
 72
    10
 73
     6
 74
     0
 42
0.0000000002889006
 43
0.0000000001
 40
0.7497548406971504
 40
0.7497548406971504
 40
0.7497548406971504
 40
0.7497548406971504
 40
0.75
 40
0.75
 40
0.9999978746049527
 40
0.9999978746049527
 40
0.9999978746049527
 40
0.9999978746049527
 10
125.5738652848013
 20
369.7447131361841
 30
0.0
 10
125.5743871689955
 20
369.7474908302208
 30
0.0
 10
125.5749088167384
 20
369.7502685623888
 30
0.0
 10
126.1071327764516
 20
372.5856396913232
 30
0.0
 10
126.3475927853971
 20
375.4602263819075
 30
0.0
 10
126.6091274768181
 20
378.3350936651431
 30
0.0
  0
ARC
  5
84
330
75
100
AcDbEntity
  8
401158038_218493
  6
Continuous
 62
     7
100
AcDbCircle
 10
-5283.9944727034
 20
883.8258268006
 30
0.0
 40
5434.165271467454
100
AcDbArc
 50
354.6625817292
 51
355.4073679735
  0
LINE
  5
85
330
75
100
AcDbEntity
  8
401158038_218493
  6
Continuous
 62
     7
100
AcDbLine
 10
132.7226908494
 20
448.7081786929
 30
0.0
 11
132.709968949
 21
448.6953215182
 31
0.0
  0
LINE
  5
86
330
75
100
AcDbEntity
  8
401158038_218493
  6
Continuous
 62
     7
100
AcDbLine
 10
132.709968949
 20
448.6953215182
 30
0.0
 11
132.7083144085
 21
448.6936494156
 31
0.0
  0
LINE
  5
87
330
75
100
AcDbEntity
  8
401158038_218493
  6
Continuous
 62
     7
100
AcDbLine
 10
83.5101556749
 20
448.6937184355
 30
0.0
 11
83.6803925062
 21
448.5216887945
 31
0.0
  0
LINE
  5
88
330
75
100
AcDbEntity
  8
401158038_218493
  6
Continuous
 62
     7
100
AcDbLine
 10
83.4963566882
 20
448.7076661606
 30
0.0
 11
83.5084960433
 21
448.6953959299
 31
0.0
  0
LINE
  5
89
330
75
100
AcDbEntity
  8
401158038_218493
  6
Continuous
 62
     7
100
AcDbLine
 10
132.7083144085
 20
448.6936494156
 30
0.0
 11
132.5380757748
 21
448.5216429348
 31
0.0
  0
LINE
  5
8A
330
75
100
AcDbEntity
  8
401158038_218493
  6
Continuous
 62
     7
100
AcDbLine
 10
132.5380757748
 20
448.5216429348
 30
0.0
 11
132.5363457558
 21
448.5198953614
 31
0.0
  0
LINE
  5
8B
330
75
100
AcDbEntity
  8
401158038_218493
  6
Continuous
 62
     7
100
AcDbLine
 10
83.6821256738
 20
448.5199377895
 30
0.0
 11
83.6803925062
 21
448.5216887945
 31
0.0
  0
ARC
  5
8C
330
75
100
AcDbEntity
  8
401158038_218493
  6
Continuous
 62
     7
100
AcDbCircle
 10
-11.6215845995
 20
458.7455462459
 30
0.0
 40
144.6935878290106
100
AcDbArc
 50
355.8948099767
 51
356.0226340663
  0
LINE
  5
8D
330
75
100
AcDbEntity
  8
401158038_218493
  6
Continuous
 62
     7
100
AcDbLine
 10
83.4955357673
 20
448.7087385533
 30
0.0
 11
83.4963566882
 21
448.7076661606
 31
0.0
  0
ARC
  5
8E
330
75
100
AcDbEntity
  8
401158038_218493
  6
Continuous
 62
     7
100
AcDbCircle
 10
227.9250666653
 20
458.7505074607
 30
0.0
 40
144.7781976617901
100
AcDbArc
 50
183.9772099743
 51
184.1005538756
  0
LINE
  5
8F
330
75
100
AcDbEntity
  8
401158038_218493
  6
Continuous
 62
     7
100
AcDbLine
 10
132.7235129117
 20
448.7092529411
 30
0.0
 11
132.7292019112
 21
448.7167327157
 31
0.0
  0
LINE
  5
90
330
75
100
AcDbEntity
  8
401158038_218493
  6
Continuous
 62
     7
100
AcDbLine
 10
83.489853087
 20
448.7162074054
 30
0.0
 11
83.4955357673
 21
448.7087385533
 31
0.0
  0
ARC
  5
91
330
75
100
AcDbEntity
  8
401158038_218493
  6
Continuous
 62
     7
100
AcDbCircle
 10
108.1866497037
 20
450.8779503897
 30
0.0
 40
24.06197992019517
100
AcDbArc
 50
90.1843833661
 51
180.9208625854
  0
ARC
  5
92
330
75
100
AcDbEntity
  8
401158038_218493
  6
Continuous
 62
     7
100
AcDbCircle
 10
108.0318257116
 20
450.8779506657
 30
0.0
 40
24.06197950496742
100
AcDbArc
 50
359.0791367416
 51
89.8157197431
  0
LINE
  5
93
330
75
100
AcDbEntity
  8
401158038_218493
  6
Continuous
 62
     7
100
AcDbLine
 10
132.4909893943
 20
448.4741056993
 30
0.0
 11
132.5377170921
 21
448.5216429351
 31
0.0
  0
ARC
  5
94
330
75
100
AcDbEntity
  8
401158038_218493
  6
Continuous
 62
     7
100
AcDbCircle
 10
84.1253159747
 20
450.4404277005
 30
0.0
 40
2.006129203454297
100
AcDbArc
 50
258.56190597
 51
273.2486070396
  0
SPLINE
  5
95
330
75
100
AcDbEntity
  8
401158038_218493
  6
Continuous
 62
     7
100
AcDbSpline
210
0.0
220
0.0
230
1.0
 70
     8
 71
     3
 72
    26
 73
    22
 74
     0
 42
0.0000000001001772
 43
0.0000000001
 40
0.0
 40
0.0
 40
0.0
 40
0.0
 40
0.2500000000000002
 40
0.2500000000000002
 40
0.5000000000000002
 40
0.5000000000000002
 40
0.6250000000000001
 40
0.6250000000000001
 40
0.6875
 40
0.6875
 40
0.7499999999999999
 40
0.7499999999999999
 40
0.8124999999999999
 40
0.8124999999999999
 40
0.8437499999999998
 40
0.8437499999999998
 40
0.8749999999999997
 40
0.8749999999999997
 40
0.9374999999999999
 40
0.9374999999999999
 40
1.0
 40
1.0
 40
1.0
 40
1.0
 10
84.23900033739459
 20
448.437522249281
 30
0.0
 10
84.97117147914588
 20
440.1748532961118
 30
0.0
 10
85.80622945279806
 20
431.9215096097574
 30
0.0
 10
87.40471761569387
 20
415.4083234358899
 30
0.0
 10
88.20308482202688
 20
407.1516478628089
 30
0.0
 10
89.39739857055885
 20
394.7663311169446
 30
0.0
 10
89.79745584658275
 20
390.6380752953582
 30
0.0
 10
90.3916047603992
 20
384.4451348508793
 30
0.0
 10
90.58944770968469
 20
382.3807128726795
 30
0.0
 10
91.00245039072043
 20
378.2539113856233
 30
0.0
 10
91.20193305065638
 20
376.189560918031
 30
0.0
 10
91.90986365606544
 20
372.1026672375377
 30
0.0
 10
92.40673173299609
 20
370.0695580606338
 30
0.0
 10
93.59544756672203
 20
367.1985967386151
 30
0.0
 10
94.07572826419877
 20
366.2588482665591
 30
0.0
 10
95.22558575533094
 20
364.5258206156524
 30
0.0
 10
95.89627071406358
 20
363.7356599957092
 30
0.0
 10
98.1676875151575
 20
361.5719857538737
 30
0.0
 10
99.98200661557603
 20
360.4428428597878
 30
0.0
 10
103.9045250752284
 20
358.9227775876868
 30
0.0
 10
105.9900340571942
 20
358.5390763059473
 30
0.0
 10
108.1092374978188
 20
358.5390763059499
 30
0.0
  0
SPLINE
  5
96
330
75
100
AcDbEntity
  8
401158038_218493
  6
Continuous
 62
     7
100
AcDbSpline
210
0.0
220
0.0
230
1.0
 70
     8
 71
     3
 72
    28
 73
    24
 74
     0
 42
0.0000000001002076
 43
0.0000000001
 40
0.0
 40
0.0
 40
0.0
 40
0.0
 40
0.0625000000000002
 40
0.0625000000000002
 40
0.0937500000000002
 40
0.0937500000000002
 40
0.1250000000000003
 40
0.1250000000000003
 40
0.1562500000000004
 40
0.1562500000000004
 40
0.1875000000000005
 40
0.1875000000000005
 40
0.2500000000000006
 40
0.2500000000000006
 40
0.3125000000000007
 40
0.3125000000000007
 40
0.3750000000000008
 40
0.3750000000000008
 40
0.5000000000000006
 40
0.5000000000000006
 40
0.7500000000000002
 40
0.7500000000000002
 40
1.0
 40
1.0
 40
1.0
 40
1.0
 10
108.1092374978188
 20
358.5390763059499
 30
0.0
 10
110.2344764463684
 20
358.5390763059473
 30
0.0
 10
112.3471963562471
 20
358.9320414221664
 30
0.0
 10
115.2768752458277
 20
360.0728237282
 30
0.0
 10
116.2290474327757
 20
360.5521477390934
 30
0.0
 10
118.003981653381
 20
361.6721394840197
 30
0.0
 10
118.8290422822063
 20
362.3105434554407
 30
0.0
 10
120.3430452284149
 20
363.75837174394
 30
0.0
 10
121.026577293311
 20
364.5697352467728
 30
0.0
 10
122.1662375481598
 20
366.3014640081999
 30
0.0
 10
122.6387636672118
 20
367.2303682765205
 30
0.0
 10
123.8322507614313
 20
370.1319714601935
 30
0.0
 10
124.3157825856442
 20
372.1366993523644
 30
0.0
 10
125.0180651182576
 20
376.2058134847543
 30
0.0
 10
125.2181215116872
 20
378.2742790722441
 30
0.0
 10
125.6309062573735
 20
382.4000785846077
 30
0.0
 10
125.828662272259
 20
384.463810445571
 30
0.0
 10
126.4226363362575
 20
390.6549380041763
 30
0.0
 10
126.8225864585406
 20
394.781979229809
 30
0.0
 10
128.016546455791
 20
407.1636614283751
 30
0.0
 10
128.8146846824554
 20
415.4179132094145
 30
0.0
 10
130.4127056944612
 20
431.9262529268246
 30
0.0
 10
131.2475027204707
 20
440.1771019153077
 30
0.0
 10
131.9794720662721
 20
448.4374929990045
 30
0.0
  0
ARC
  5
97
330
75
100
AcDbEntity
  8
401158038_218493
  6
Continuous
 62
     7
100
AcDbCircle
 10
132.0931924238
 20
450.4402215425
 30
0.0
 40
2.005954620261028
100
AcDbArc
 50
266.7500801519
 51
281.4380364381
  0
ARC
  5
98
330
75
100
AcDbEntity
  8
401158038_218493
  6
Continuous
 62
     7
100
AcDbCircle
 10
132.0933621777
 20
450.4397452077
 30
0.0
 40
2.005488684796225
100
AcDbArc
 50
266.7444666774
 51
281.4353685103
  0
ARC
  5
99
330
75
100
AcDbEntity
  8
401158038_218493
  6
Continuous
 62
     7
100
AcDbCircle
 10
84.1250390669
 20
450.4384520506
 30
0.0
 40
2.004172457860575
100
AcDbArc
 50
258.5590793062
 51
273.2597112867
  0
ARC
  5
9A
330
75
100
AcDbEntity
  8
401158038_218493
  6
Continuous
 62
     7
100
AcDbCircle
 10
108.1093821386
 20
451.6594224323
 30
0.0
 40
26.69917405257661
100
AcDbArc
 50
333.4964365943
 51
0.0008388579
  0
ARC
  5
9B
330
75
100
AcDbEntity
  8
401158038_218493
  6
Continuous
 62
     7
100
AcDbCircle
 10
108.1090616444
 20
451.65939122
 30
0.0
 40
26.69914284043938
100
AcDbArc
 50
179.9990941602
 51
206.3752804722
  0
ARC
  5
9C
330
75
100
AcDbEntity
  8
401158038_218493
  6
Continuous
 62
     7
100
AcDbCircle
 10
108.1094101826
 20
451.6591053271
 30
0.0
 40
26.6991460150709
100
AcDbArc
 50
0.0015193595
 51
90.0003705778
  0
ARC
  5
9D
330
75
100
AcDbEntity
  8
401158038_218493
  6
Continuous
 62
     7
100
AcDbCircle
 10
108.1090956059
 20
451.6590745332
 30
0.0
 40
26.69917680879881
100
AcDbArc
 50
89.9996955035
 51
179.9984145593
  0
SPLINE
  5
9E
330
75
100
AcDbEntity
  8
401158038_218493
  6
Continuous
 62
     7
100
AcDbSpline
210
0.0
220
0.0
230
1.0
 70
     8
 71
     3
 72
    25
 73
    21
 74
     0
 42
0.0000000003802242
 43
0.0000000001
 40
0.0
 40
0.0
 40
0.0
 40
0.0
 40
0.0059976959632166
 40
0.0694870655550795
 40
0.1290469949915209
 40
0.1853074812237086
 40
0.2454485391747155
 40
0.3033321452971421
 40
0.3632149600464398
 40
0.4229887358670302
 40
0.48265208076246
 40
0.5349301369788272
 40
0.5896849562305687
 40
0.644941690143659
 40
0.702735874118226
 40
0.7638365746204211
 40
0.8290728905925391
 40
0.8993268833744231
 40
0.9755834448048026
 40
1.0
 40
1.0
 40
1.0
 40
1.0
 10
108.1091885261296
 20
353.3913164372891
 30
0.0
 10
108.1673026684367
 20
353.391099129347
 30
0.0
 10
108.7464893383402
 20
353.3893124108234
 30
0.0
 10
109.9208624380123
 20
353.477980429842
 30
0.0
 10
111.4728472393075
 20
353.6872882763813
 30
0.0
 10
112.9900211452361
 20
354.0278961674458
 30
0.0
 10
114.4492268116555
 20
354.5043439494027
 30
0.0
 10
115.886591832709
 20
355.1277317963205
 30
0.0
 10
117.2586408324055
 20
355.8749853134804
 30
0.0
 10
118.567497472272
 20
356.7546756260501
 30
0.0
 10
119.735962154659
 20
357.7093193042618
 30
0.0
 10
120.7826979662571
 20
358.7323332206928
 30
0.0
 10
121.6948876737984
 20
359.8250736731015
 30
0.0
 10
122.5266447813863
 20
361.0360693898869
 30
0.0
 10
123.2745500052528
 20
362.3624632888808
 30
0.0
 10
123.9459518646303
 20
363.8218948976751
 30
0.0
 10
124.5440005174134
 20
365.4314254287328
 30
0.0
 10
125.057783836969
 20
367.1866188033103
 30
0.0
 10
125.4114135653971
 20
368.6750312215801
 30
0.0
 10
125.5493439259536
 20
369.4835857188775
 30
0.0
 10
125.5881205872602
 20
369.7133156710213
 30
0.0
  0
SPLINE
  5
9F
330
75
100
AcDbEntity
  8
401158038_218493
  6
Continuous
 62
     7
100
AcDbSpline
210
0.0
220
0.0
230
1.0
 70
     8
 71
     3
 72
    25
 73
    21
 74
     0
 42
0.0000000003686802
 43
0.0000000001
 40
0.0
 40
0.0
 40
0.0
 40
0.0
 40
0.0525745480639319
 40
0.1272558406757316
 40
0.195369934127603
 40
0.2589260450189926
 40
0.3157335790201194
 40
0.3674234983687421
 40
0.4216415163071185
 40
0.4766733362767334
 40
0.5326126941353273
 40
0.5894523469694024
 40
0.6471044640311111
 40
0.7054090566892085
 40
0.764150940704492
 40
0.8230845460962265
 40
0.8818865878247664
 40
0.9399221975226347
 40
0.9987314495143816
 40
1.0
 40
1.0
 40
1.0
 40
1.0
 10
90.45826151497424
 20
370.468097877133
 30
0.0
 10
90.5366691618844
 20
369.9560724813159
 30
0.0
 10
90.70129840842051
 20
368.9073867864211
 30
0.0
 10
91.09388897954413
 20
367.1574154386751
 30
0.0
 10
91.60485185000613
 20
365.387425641745
 30
0.0
 10
92.19410394636215
 20
363.7955149780244
 30
0.0
 10
92.83261633629894
 20
362.3846149403878
 30
0.0
 10
93.55271567002713
 20
361.1053899212466
 30
0.0
 10
94.3866100862071
 20
359.9148214369461
 30
0.0
 10
95.35482598139676
 20
358.7777251472096
 30
0.0
 10
96.44358773526598
 20
357.7186925111232
 30
0.0
 10
97.64497288794348
 20
356.7486113953206
 30
0.0
 10
98.94898893879112
 20
355.8794479379682
 30
0.0
 10
100.3427213456394
 20
355.123240683039
 30
0.0
 10
101.8114194809188
 20
354.4910340542325
 30
0.0
 10
103.335386252285
 20
353.9939994406594
 30
0.0
 10
104.8983730426234
 20
353.636930754554
 30
0.0
 10
106.4673990407596
 20
353.4365370725432
 30
0.0
 10
107.5783138020422
 20
353.357009475902
 30
0.0
 10
108.0964770196253
 20
353.356992458595
 30
0.0
 10
108.1091577557679
 20
353.3569938787526
 30
0.0
  0
ARC
  5
A1
330
75
100
AcDbEntity
  8
09055038_51856__
  6
Continuous
 62
     7
100
AcDbCircle
 10
108.1092135563
 20
451.4792053322
 30
0.0
 40
26.62148539341141
100
AcDbArc
 50
179.6156020251
 51
193.2948826446
  0
CIRCLE
  5
A2
330
75
100
AcDbEntity
  8
09055038_51856__
  6
Continuous
 62
     7
100
AcDbCircle
 10
108.1092368459
 20
506.4811803139
 30
0.0
 40
6.350000460556679
  0
ARC
  5
A3
330
75
100
AcDbEntity
  8
09055038_51856__
  6
Continuous
 62
     7
100
AcDbCircle
 10
108.1092374978
 20
464.4811808813
 30
0.0
 40
80.49119630351392
100
AcDbArc
 50
283.8087099812
 51
0.0
  0
ARC
  5
A4
330
75
100
AcDbEntity
  8
09055038_51856__
  6
Continuous
 62
     7
100
AcDbCircle
 10
108.1092374978
 20
464.4811808813
 30
0.0
 40
80.49119630351392
100
AcDbArc
 50
0.0
 51
256.179370633
  0
CIRCLE
  5
A6
330
75
100
AcDbEntity
  8
$DDT_AUDIT_GENERATED_(A5)
  6
Continuous
 62
     7
100
AcDbCircle
 10
108.1092374978
 20
506.4811808813
 30
0.0
 40
6.0
  0
ENDBLK
  5
A8
330
75
100
AcDbEntity
  8
0
100
AcDbBlockEnd
  0
BLOCK
  5
F3
330
A9
100
AcDbEntity
  8
0
100
AcDbBlockBegin
  2
SE1
 70
     0
 10
0.0
 20
0.0
 30
0.0
  3
SE1
  1

  0
LINE
  5
AC
330
A9
100
AcDbEntity
  8
02822131_207296_
  6
Continuous
 62
     7
100
AcDbLine
 10
425.5945577681
 20
425.3918761952
 30
0.0
 11
417.920235079
 21
425.1909169831
 31
0.0
  0
LINE
  5
AD
330
A9
100
AcDbEntity
  8
02822131_207296_
  6
Continuous
 62
     7
100
AcDbLine
 10
425.5945577681
 20
425.3918761952
 30
0.0
 11
425.6354945345
 21
425.4817037305
 31
0.0
  0
ARC
  5
AE
330
A9
100
AcDbEntity
  8
401158038_218493
  6
Continuous
 62
     7
100
AcDbCircle
 10
453.4679050331
 20
353.7794041738
 30
0.0
 40
0.3999999993780467
100
AcDbArc
 50
195.6491713598
 51
332.2774688361
  0
LINE
  5
AF
330
A9
100
AcDbEntity
  8
401158038_218493
  6
Continuous
 62
     7
100
AcDbLine
 10
439.7372752155
 20
448.5199377895
 30
0.0
 11
440.3462671558
 21
448.4741029853
 31
0.0
  0
LINE
  5
B0
330
A9
100
AcDbEntity
  8
401158038_218493
  6
Continuous
 62
     7
100
AcDbLine
 10
437.4283090489
 20
448.6937184355
 30
0.0
 11
437.4060207337
 21
448.6953959299
 31
0.0
  0
LINE
  5
B1
330
A9
100
AcDbEntity
  8
401158038_218493
  6
Continuous
 62
     7
100
AcDbLine
 10
453.9870874107
 20
353.9074933718
 30
0.0
 11
453.8219893371
 21
353.5933281002
 31
0.0
  0
LINE
  5
B2
330
A9
100
AcDbEntity
  8
401158038_218493
  6
Continuous
 62
     7
100
AcDbLine
 10
437.4283090489
 20
448.6937184355
 30
0.0
 11
439.7140101893
 21
448.5216887945
 31
0.0
  0
LINE
  5
B3
330
A9
100
AcDbEntity
  8
401158038_218493
  6
Continuous
 62
     7
100
AcDbLine
 10
437.2429902229
 20
448.7076661606
 30
0.0
 11
437.4060207337
 21
448.6953959299
 31
0.0
  0
LINE
  5
B4
330
A9
100
AcDbEntity
  8
401158038_218493
  6
Continuous
 62
     7
100
AcDbLine
 10
455.6292134168
 20
357.0322972287
 30
0.0
 11
453.9870874107
 21
353.9074933718
 31
0.0
  0
SPLINE
  5
B5
330
A9
100
AcDbEntity
  8
401158038_218493
  6
Continuous
 62
     7
100
AcDbSpline
210
0.0
220
0.0
230
1.0
 70
     8
 71
     3
 72
    20
 73
    16
 74
     0
 42
0.0000000001039241
 43
0.0000000001
 40
0.0
 40
0.0
 40
0.0
 40
0.0
 40
0.0530612277342804
 40
0.1327969131905885
 40
0.2125325986468976
 40
0.2922682841032057
 40
0.3720039695595137
 40
0.4517396550158228
 40
0.531475340472131
 40
0.6112110259284396
 40
0.6909467113847482
 40
0.7706823968410562
 40
0.8504180822973653
 40
0.9301537677536736
 40
1.0
 40
1.0
 40
1.0
 40
1.0
 10
437.4283090488665
 20
448.6937184354575
 30
0.0
 10
437.7675205078013
 20
446.3566521646622
 30
0.0
 10
438.1182103106258
 20
443.9465023116097
 30
0.0
 10
439.4851696503043
 20
436.2529120421561
 30
0.0
 10
440.998946170877
 20
427.7327617102974
 30
0.0
 10
442.5241767479635
 20
419.1482530771824
 30
0.0
 10
444.0436617045199
 20
410.5959944897519
 30
0.0
 10
445.5659583622017
 20
402.0279495398117
 30
0.0
 10
447.0852362768207
 20
393.476836162703
 30
0.0
 10
448.6093480021782
 20
384.8985581012544
 30
0.0
 10
450.1293871489877
 20
376.3431076725984
 30
0.0
 10
451.4256572094169
 20
368.770807293815
 30
0.0
 10
452.867824568541
 20
360.4109027315299
 30
0.0
 10
453.7913922852017
 20
355.0502210328422
 30
0.0
 10
453.9870906302176
 20
353.907499498303
 30
0.0
 10
453.9870874106753
 20
353.9074933718307
 30
0.0
  0
LINE
  5
B6
330
A9
100
AcDbEntity
  8
401158038_218493
  6
Continuous
 62
     7
100
AcDbLine
 10
439.7372752155
 20
448.5199377895
 30
0.0
 11
439.7140101893
 21
448.5216887945
 31
0.0
  0
LINE
  5
B7
330
A9
100
AcDbEntity
  8
401158038_218493
  6
Continuous
 62
     7
100
AcDbLine
 10
437.22874169
 20
448.7087385533
 30
0.0
 11
437.2429902229
 21
448.7076661606
 31
0.0
  0
ARC
  5
B8
330
A9
100
AcDbEntity
  8
401158038_218493
  6
Continuous
 62
     7
100
AcDbCircle
 10
701.4831537313
 20
421.0256891249
 30
0.0
 40
266.3354789504313
100
AcDbArc
 50
175.5403423362
 51
178.9778230692
  0
ARC
  5
B9
330
A9
100
AcDbEntity
  8
401158038_218493
  6
Continuous
 62
     7
100
AcDbCircle
 10
536.1496176368
 20
428.4538875282
 30
0.0
 40
101.0719754331485
100
AcDbArc
 50
168.435311728
 51
172.4492541075
  0
LINE
  5
BA
330
A9
100
AcDbEntity
  8
401158038_218493
  6
Continuous
 62
     7
100
AcDbLine
 10
437.129505482
 20
448.7162074054
 30
0.0
 11
437.22874169
 21
448.7087385533
 31
0.0
  0
ARC
  5
BB
330
A9
100
AcDbEntity
  8
401158038_218493
  6
Continuous
 62
     7
100
AcDbCircle
 10
435.2827189284
 20
422.7783873819
 30
0.0
 40
2.99999999999996
100
AcDbArc
 50
11.3148241793
 51
91.76997403
  0
LINE
  5
BC
330
A9
100
AcDbEntity
  8
401158038_218493
  6
Continuous
 62
     7
100
AcDbLine
 10
440.4788417899
 20
450.4912408746
 30
0.0
 11
440.8322998958
 21
448.4375222208
 31
0.0
  0
LINE
  5
BD
330
A9
100
AcDbEntity
  8
401158038_218493
  6
Continuous
 62
     7
100
AcDbLine
 10
436.2710875267
 20
474.9398057153
 30
0.0
 11
440.4788417899
 21
450.4912408746
 31
0.0
  0
LINE
  5
BE
330
A9
100
AcDbEntity
  8
401158038_218493
  6
Continuous
 62
     7
100
AcDbLine
 10
435.8335478915
 20
475.3519412294
 30
0.0
 11
408.7767568951
 21
478.3582513416
 31
0.0
  0
ARC
  5
BF
330
A9
100
AcDbEntity
  8
401158038_218493
  6
Continuous
 62
     7
100
AcDbCircle
 10
435.7783321285
 20
474.854999362
 30
0.0
 40
0.500000000003587
100
AcDbArc
 50
9.7653017705
 51
83.6598082526
  0
LINE
  5
C0
330
A9
100
AcDbEntity
  8
401158038_218493
  6
Continuous
 62
     7
100
AcDbLine
 10
440.8322995237
 20
448.4375222493
 30
0.0
 11
456.3043969909
 21
358.5390763059
 31
0.0
  0
LINE
  5
C1
330
A9
100
AcDbEntity
  8
401158038_218493
  6
Continuous
 62
     7
100
AcDbLine
 10
456.2542470469
 20
358.2216750002
 30
0.0
 11
455.6292134168
 21
357.0322972287
 31
0.0
  0
LINE
  5
C2
330
A9
100
AcDbEntity
  8
401158038_218493
  6
Continuous
 62
     7
100
AcDbLine
 10
440.3462671558
 20
448.4741029853
 30
0.0
 11
440.8322995237
 21
448.4375222493
 31
0.0
  0
ARC
  5
C3
330
A9
100
AcDbEntity
  8
401158038_218493
  6
Continuous
 62
     7
100
AcDbCircle
 10
455.8116415927
 20
358.4542699527
 30
0.0
 40
0.5000000000000391
100
AcDbArc
 50
332.277486939
 51
9.7653017702
  0
LINE
  5
C4
330
A9
100
AcDbEntity
  8
401158038_218493
  6
Continuous
 62
     7
100
AcDbLine
 10
425.6354945345
 20
425.4817037305
 30
0.0
 11
435.1900580444
 21
425.7769560339
 31
0.0
  0
LINE
  5
C5
330
A9
100
AcDbEntity
  8
401158038_218493
  6
Continuous
 62
     7
100
AcDbLine
 10
408.5546705899
 20
451.6598133304
 30
0.0
 11
408.5546705899
 21
478.1594745947
 31
0.0
  0
LINE
  5
C6
330
A9
100
AcDbEntity
  8
401158038_218493
  6
Continuous
 62
     7
100
AcDbLine
 10
408.5546705899
 20
425.1601529569
 30
0.0
 11
408.5546705899
 21
451.6598133304
 31
0.0
  0
LINE
  5
C7
330
A9
100
AcDbEntity
  8
401158038_218493
  6
Continuous
 62
     7
100
AcDbLine
 10
408.7608479822
 20
424.9602483801
 30
0.0
 11
418.1673723473
 21
425.2509260215
 31
0.0
  0
ARC
  5
C8
330
A9
100
AcDbEntity
  8
401158038_218493
  6
Continuous
 62
     7
100
AcDbCircle
 10
408.7546705899
 20
478.1594745947
 30
0.0
 40
0.2000000000000023
100
AcDbArc
 50
83.6598082542
 51
179.9999999961
  0
ARC
  5
C9
330
A9
100
AcDbEntity
  8
401158038_218493
  6
Continuous
 62
     7
100
AcDbCircle
 10
408.7546705899
 20
425.1601529569
 30
0.0
 40
0.1999999999999837
100
AcDbArc
 50
180.0000000039
 51
271.7699740268
  0
LINE
  5
CA
330
A9
100
AcDbEntity
  8
401158038_218493
  6
Continuous
 62
     7
100
AcDbLine
 10
438.2244125543
 20
423.3669779023
 30
0.0
 11
447.3032375833
 21
377.993001944
 31
0.0
  0
ARC
  5
CB
330
A9
100
AcDbEntity
  8
401158038_218493
  6
Continuous
 62
     7
100
AcDbCircle
 10
760.6105245928
 20
439.605245312
 30
0.0
 40
319.3078837514758
100
AcDbArc
 50
191.1253199484
 51
195.612307409
  0
ARC
  5
CC
330
A9
100
AcDbEntity
  8
401158038_218493
  6
Continuous
 62
     7
100
AcDbCircle
 10
435.7795564369
 20
474.8558346281
 30
0.0
 40
0.4985262255833373
100
AcDbArc
 50
28.2207365569
 51
83.7724090354
  0
ARC
  5
CD
330
A9
100
AcDbEntity
  8
401158038_218493
  6
Continuous
 62
     7
100
AcDbCircle
 10
435.7795563529
 20
474.8558347718
 30
0.0
 40
0.4985262316657966
100
AcDbArc
 50
28.2207174433
 51
83.7724021815
  0
ARC
  5
CF
330
A9
100
AcDbEntity
  8
02693038_0__KAPP
  6
Continuous
 62
     7
100
AcDbCircle
 10
398.3601831032
 20
451.4811808813
 30
0.0
 40
25.87500000000042
100
AcDbArc
 50
66.7319474228
 51
89.5
  0
ARC
  5
D0
330
A9
100
AcDbEntity
  8
02693038_0__KAPP
  6
Continuous
 62
     7
100
AcDbCircle
 10
398.3601831032
 20
451.4811808813
 30
0.0
 40
25.87500000000077
100
AcDbArc
 50
270.5
 51
293.2306121028
  0
LINE
  5
D1
330
A9
100
AcDbEntity
  8
02693038_0__KAPP
  6
Continuous
 62
     7
100
AcDbLine
 10
398.5859822092
 20
477.3551956406
 30
0.0
 11
391.7689703116
 21
477.4146868022
 31
0.0
  0
LINE
  5
D2
330
A9
100
AcDbEntity
  8
02693038_0__KAPP
  6
Continuous
 62
     7
100
AcDbLine
 10
390.4169699581
 20
425.5358762322
 30
0.0
 11
398.5859822092
 21
425.6071661221
 31
0.0
  0
LINE
  5
D3
330
A9
100
AcDbEntity
  8
09055038_51856__
  6
Continuous
 62
     7
100
AcDbLine
 10
384.6526550188
 20
384.1416360755
 30
0.0
 11
384.6526550188
 21
544.8207256872
 31
0.0
  0
SPLINE
  5
D4
330
A9
100
AcDbEntity
  8
09055038_51856__
  6
Continuous
 62
     7
100
AcDbSpline
210
0.0
220
0.0
230
1.0
 70
     8
 71
     3
 72
    40
 73
    36
 74
     0
 42
0.0000000000929344
 43
0.0000000001
 40
0.3598644850092871
 40
0.3598644850092871
 40
0.3598644850092871
 40
0.3598644850092871
 40
0.3750000000000005
 40
0.3750000000000005
 40
0.4062500000000006
 40
0.4062500000000006
 40
0.4375000000000007
 40
0.4375000000000007
 40
0.4687500000000007
 40
0.4687500000000007
 40
0.5000000000000008
 40
0.5000000000000008
 40
0.5312500000000008
 40
0.5312500000000008
 40
0.5625000000000007
 40
0.5625000000000007
 40
0.5937500000000007
 40
0.5937500000000007
 40
0.6250000000000006
 40
0.6250000000000006
 40
0.6562500000000006
 40
0.6562500000000006
 40
0.6875000000000004
 40
0.6875000000000004
 40
0.7187500000000004
 40
0.7187500000000004
 40
0.7500000000000003
 40
0.7500000000000003
 40
0.7812500000000003
 40
0.7812500000000003
 40
0.8125000000000003
 40
0.8125000000000003
 40
0.8437500000000002
 40
0.8437500000000002
 40
0.8586226845106353
 40
0.8586226845106353
 40
0.8586226845106353
 40
0.8586226845106353
 10
390.3938354175477
 20
424.6491805914903
 30
0.0
 10
390.3940215096817
 20
424.6561798489381
 30
0.0
 10
390.3952630344881
 20
424.7036275377965
 30
0.0
 10
390.4023529091846
 20
424.9751686855499
 30
0.0
 10
390.4115554753722
 20
425.3286402893933
 30
0.0
 10
390.4385019255554
 20
426.3610172606698
 30
0.0
 10
390.4564849308944
 20
427.0495862151938
 30
0.0
 10
390.5002280008906
 20
428.7261200030097
 30
0.0
 10
390.5257525625872
 20
429.7051128384368
 30
0.0
 10
390.5841205819507
 20
431.9421660922981
 30
0.0
 10
390.6172464190499
 20
433.2122227770182
 30
0.0
 10
390.6881712726655
 20
435.9311206144782
 30
0.0
 10
390.7262141957317
 20
437.3891754505294
 30
0.0
 10
390.8074881796412
 20
440.5058493761709
 30
0.0
 10
390.8502944810491
 20
442.1474840651855
 30
0.0
 10
390.9375990469703
 20
445.4962118045783
 30
0.0
 10
390.9826989492151
 20
447.2270423075806
 30
0.0
 10
391.0743950367586
 20
450.7449490656984
 30
0.0
 10
391.1199894642553
 20
452.4939440348031
 30
0.0
 10
391.2106330597104
 20
455.9726766488895
 30
0.0
 10
391.2561642295656
 20
457.7210035695119
 30
0.0
 10
391.3435024321398
 20
461.0735313447474
 30
0.0
 10
391.385462076354
 20
462.6839184125271
 30
0.0
 10
391.4659121930051
 20
465.7730794298504
 30
0.0
 10
391.5043819901085
 20
467.2503701483777
 30
0.0
 10
391.5744673533745
 20
469.9421085472367
 30
0.0
 10
391.6065471695495
 20
471.1750551790545
 30
0.0
 10
391.6646316815832
 20
473.406106384421
 30
0.0
 10
391.6898608751002
 20
474.3748851198133
 30
0.0
 10
391.7323651976616
 20
476.0076852354425
 30
0.0
 10
391.749863165001
 20
476.6808379617291
 30
0.0
 10
391.7760312972009
 20
477.6861121837545
 30
0.0
 10
391.7846768294838
 20
478.0177466844773
 30
0.0
 10
391.7909704094259
 20
478.2596372079562
 30
0.0
 10
391.7919818336812
 20
478.29867153527
 30
0.0
 10
391.7919785627645
 20
478.2987082074825
 30
0.0
  0
SPLINE
  5
D5
330
A9
100
AcDbEntity
  8
09055038_51856__
  6
Continuous
 62
     7
100
AcDbSpline
210
0.0
220
0.0
230
1.0
 70
     8
 71
     3
 72
    12
 73
     8
 74
     0
 42
0.0000000006677392
 43
0.0000000001
 40
0.0
 40
0.0
 40
0.0
 40
0.0
 40
0.0625000000000001
 40
0.0625000000000001
 40
0.1250000000000002
 40
0.1250000000000002
 40
0.1250829084914897
 40
0.1250829084914897
 40
0.1250829084914897
 40
0.1250829084914897
 10
390.5532140300712
 20
501.9978012513784
 30
0.0
 10
390.6032669239502
 20
501.4036373700442
 30
0.0
 10
390.6425963647166
 20
500.9367191474478
 30
0.0
 10
390.6964481572912
 20
500.2973104751962
 30
0.0
 10
390.7104013344411
 20
500.1316176843552
 30
0.0
 10
390.7104380944385
 20
500.1311811791156
 30
0.0
 10
390.7104381176113
 20
500.1311809039846
 30
0.0
 10
390.7104381152631
 20
500.1311809319352
 30
0.0
  0
SPLINE
  5
D6
330
A9
100
AcDbEntity
  8
09055038_51856__
  6
Continuous
 62
     7
100
AcDbSpline
210
0.0
220
0.0
230
1.0
 70
     8
 71
     3
 72
    14
 73
    10
 74
     0
 42
0.0000000003446913
 43
0.0000000001
 40
0.6252577392816804
 40
0.6252577392816804
 40
0.6252577392816804
 40
0.6252577392816804
 40
0.6875000000000004
 40
0.6875000000000004
 40
0.7500000000000004
 40
0.7500000000000004
 40
0.8750000000000002
 40
0.8750000000000002
 40
1.0
 40
1.0
 40
1.0
 40
1.0
 10
389.6397668468288
 20
512.8311807350043
 30
0.0
 10
389.6397692805459
 20
512.8311519491978
 30
0.0
 10
389.6536156357766
 20
512.6670930449228
 30
0.0
 10
389.7071479033786
 20
512.0327390559522
 30
0.0
 10
389.7464792507776
 20
511.5666427041512
 30
0.0
 10
389.8963924598756
 20
509.7897661596123
 30
0.0
 10
390.0351521158963
 20
508.1446426900815
 30
0.0
 10
390.3141425795355
 20
504.835339731522
 30
0.0
 10
390.4531082423131
 20
503.1861290140468
 30
0.0
 10
390.5532140300712
 20
501.9978012513784
 30
0.0
  0
LINE
  5
D7
330
A9
100
AcDbEntity
  8
09055038_51856__
  6
Continuous
 62
     7
100
AcDbLine
 10
375.4601831032
 20
384.6464047116
 30
0.0
 11
375.4601831032
 21
544.4723771849
 31
0.0
  0
ARC
  5
D8
330
A9
100
AcDbEntity
  8
09055038_51856__
  6
Continuous
 62
     7
100
AcDbCircle
 10
375.9706091823
 20
384.6475641633
 30
0.0
 40
0.5104273960217747
100
AcDbArc
 50
180.1301492582
 51
269.8091875601
  0
LINE
  5
D9
330
A9
100
AcDbEntity
  8
09055038_51856__
  6
Continuous
 62
     7
100
AcDbLine
 10
377.4601831032
 20
384.0843278184
 30
0.0
 11
377.4601831032
 21
384.0160910112
 31
0.0
  0
ARC
  5
DA
330
A9
100
AcDbEntity
  8
09055038_51856__
  6
Continuous
 62
     7
100
AcDbCircle
 10
376.59381274
 20
377.6415423055
 30
0.0
 40
6.500775551516279
100
AcDbArc
 50
82.3412989833
 51
92.1634014273
  0
ARC
  5
DB
330
A9
100
AcDbEntity
  8
09055038_51856__
  6
Continuous
 62
     7
100
AcDbCircle
 10
374.545624287
 20
1507.920737931
 30
0.0
 40
1123.784499636261
100
AcDbArc
 50
270.0725657334
 51
270.0919145555
  0
LINE
  5
DC
330
A9
100
AcDbEntity
  8
09055038_51856__
  6
Continuous
 62
     7
100
AcDbLine
 10
377.4601831032
 20
384.0160910112
 30
0.0
 11
384.6526550188
 21
384.1416360755
 31
0.0
  0
LINE
  5
DD
330
A9
100
AcDbEntity
  8
09055038_51856__
  6
Continuous
 62
     7
100
AcDbLine
 10
384.6526550188
 20
544.8207256872
 30
0.0
 11
375.9689093064
 21
544.9723010324
 31
0.0
  0
ARC
  5
DE
330
A9
100
AcDbEntity
  8
09055038_51856__
  6
Continuous
 62
     7
100
AcDbCircle
 10
384.6352026124
 20
385.1414837706
 30
0.0
 40
0.9999999999999931
100
AcDbArc
 50
271.0
 51
350.8512941045
  0
ARC
  5
DF
330
A9
100
AcDbEntity
  8
09055038_51856__
  6
Continuous
 62
     7
100
AcDbCircle
 10
384.6352026124
 20
543.820877992
 30
0.0
 40
0.9999999999997122
100
AcDbArc
 50
9.1487058955
 51
89.0
  0
ARC
  5
E0
330
A9
100
AcDbEntity
  8
09055038_51856__
  6
Continuous
 62
     7
100
AcDbCircle
 10
375.9601831032
 20
544.4723771849
 30
0.0
 40
0.4999999999999892
100
AcDbArc
 50
88.9999999999
 51
180.0
  0
ARC
  5
E1
330
A9
100
AcDbEntity
  8
09055038_51856__
  6
Continuous
 62
     7
100
AcDbCircle
 10
-108.0170200177
 20
464.4811808813
 30
0.0
 40
499.9999999999999
100
AcDbArc
 50
5.5468943427
 51
9.1487058954
  0
ARC
  5
E2
330
A9
100
AcDbEntity
  8
09055038_51856__
  6
Continuous
 62
     7
100
AcDbCircle
 10
-108.0170200177
 20
464.4811808813
 30
0.0
 40
499.9999999999999
100
AcDbArc
 50
1.5830336733
 51
4.0908418168
  0
ARC
  5
E3
330
A9
100
AcDbEntity
  8
09055038_51856__
  6
Continuous
 62
     7
100
AcDbCircle
 10
-108.0170200177
 20
464.4811808813
 30
0.0
 40
499.9999999999999
100
AcDbArc
 50
350.8512941046
 51
355.432967664
  0
LINE
  5
E5
330
A9
100
AcDbEntity
  8
$DDT_AUDIT_GENERATED_(E4)
  6
Continuous
 62
     7
100
AcDbLine
 10
392.7574238278
 20
500.7811808813
 30
0.0
 11
392.7574238278
 21
512.1811808813
 31
0.0
  0
ARC
  5
E6
330
A9
100
AcDbEntity
  8
$DDT_AUDIT_GENERATED_(E4)
  6
Continuous
 62
     7
100
AcDbCircle
 10
392.4574238278
 20
500.7811808813
 30
0.0
 40
0.3000000000000017
100
AcDbArc
 50
270.0
 51
0.0
  0
ARC
  5
E7
330
A9
100
AcDbEntity
  8
$DDT_AUDIT_GENERATED_(E4)
  6
Continuous
 62
     7
100
AcDbCircle
 10
392.4574238278
 20
512.1811808813
 30
0.0
 40
0.2999999999999947
100
AcDbArc
 50
0.0
 51
90.0
  0
ARC
  5
E8
330
A9
100
AcDbEntity
  8
$DDT_AUDIT_GENERATED_(A5)
  6
Continuous
 62
     7
100
AcDbCircle
 10
364.2047168043
 20
506.4811808813
 30
0.0
 40
49.99999999999999
100
AcDbArc
 50
354.1432980901
 51
5.8567019099
  0
LINE
  5
E9
330
A9
100
AcDbEntity
  8
$DDT_AUDIT_GENERATED_(A5)
  6
Continuous
 62
     7
100
AcDbLine
 10
410.1729626409
 20
500.4811808813
 30
0.0
 11
412.9489472321
 21
500.4811808813
 31
0.0
  0
LINE
  5
EA
330
A9
100
AcDbEntity
  8
$DDT_AUDIT_GENERATED_(A5)
  6
Continuous
 62
     7
100
AcDbLine
 10
412.9489472321
 20
512.4811808813
 30
0.0
 11
410.1729626409
 21
512.4811808813
 31
0.0
  0
ARC
  5
EB
330
A9
100
AcDbEntity
  8
$DDT_AUDIT_GENERATED_(A5)
  6
Continuous
 62
     7
100
AcDbCircle
 10
410.1729626409
 20
501.4811808813
 30
0.0
 40
1.000000000000009
100
AcDbArc
 50
194.4775121859
 51
270.0
  0
ARC
  5
EC
330
A9
100
AcDbEntity
  8
$DDT_AUDIT_GENERATED_(A5)
  6
Continuous
 62
     7
100
AcDbCircle
 10
410.1729626409
 20
511.4811808813
 30
0.0
 40
1.000000000000001
100
AcDbArc
 50
90.0
 51
165.5224878141
  0
ARC
  5
ED
330
A9
100
AcDbEntity
  8
$DDT_AUDIT_GENERATED_(A5)
  6
Continuous
 62
     7
100
AcDbCircle
 10
408.2364709678
 20
500.9811808813
 30
0.0
 40
1.000000000000001
100
AcDbArc
 50
14.4775121859
 51
90.0
  0
ARC
  5
EE
330
A9
100
AcDbEntity
  8
$DDT_AUDIT_GENERATED_(A5)
  6
Continuous
 62
     7
100
AcDbCircle
 10
408.2364709678
 20
511.9811808813
 30
0.0
 40
0.9999999999999941
100
AcDbArc
 50
270.0
 51
345.5224878141
  0
LINE
  5
EF
330
A9
100
AcDbEntity
  8
$DDT_AUDIT_GENERATED_(A5)
  6
Continuous
 62
     7
100
AcDbLine
 10
392.7574238278
 20
501.9811808813
 30
0.0
 11
408.2364709678
 21
501.9811808813
 31
0.0
  0
LINE
  5
F0
330
A9
100
AcDbEntity
  8
$DDT_AUDIT_GENERATED_(A5)
  6
Continuous
 62
     7
100
AcDbLine
 10
408.2364709678
 20
510.9811808813
 30
0.0
 11
392.7574238278
 21
510.9811808813
 31
0.0
  0
ARC
  5
F1
330
A9
100
AcDbEntity
  8
$DDT_AUDIT_GENERATED_(A5)
  6
Continuous
 62
     7
100
AcDbCircle
 10
412.9489472321
 20
501.4811808813
 30
0.0
 40
1.000000000000001
100
AcDbArc
 50
270.0
 51
354.1432980901
  0
ARC
  5
F2
330
A9
100
AcDbEntity
  8
$DDT_AUDIT_GENERATED_(A5)
  6
Continuous
 62
     7
100
AcDbCircle
 10
412.9489472321
 20
511.4811808813
 30
0.0
 40
0.9999999999999861
100
AcDbArc
 50
5.8567019099
 51
90.0
  0
ENDBLK
  5
F4
330
A9
100
AcDbEntity
  8
0
100
AcDbBlockEnd
  0
BLOCK
  5
136
330
F5
100
AcDbEntity
  8
0
100
AcDbBlockBegin
  2
SE2
 70
     0
 10
0.0
 20
0.0
 30
0.0
  3
SE2
  1

  0
LINE
  5
F7
330
F5
100
AcDbEntity
  8
401158038_218493
  6
Continuous
 62
     7
100
AcDbLine
 10
83.7215817805
 20
122.3875219182
 30
0.0
 11
83.7274966282
 21
122.3081298351
 31
0.0
  0
LINE
  5
F8
330
F5
100
AcDbEntity
  8
401158038_218493
  6
Continuous
 62
     7
100
AcDbLine
 10
132.4983333276
 20
122.4068887342
 30
0.0
 11
132.4909752198
 21
122.3081236322
 31
0.0
  0
LINE
  5
F9
330
F5
100
AcDbEntity
  8
401158038_218493
  6
Continuous
 62
     7
100
AcDbLine
 10
132.5894418285
 20
122.6328969579
 30
0.0
 11
134.8085561883
 21
153.8855609445
 31
0.0
  0
SPLINE
  5
FA
330
F5
100
AcDbEntity
  8
401158038_218493
  6
Continuous
 62
     7
100
AcDbSpline
210
0.0
220
0.0
230
1.0
 70
     8
 71
     3
 72
    20
 73
    16
 74
     0
 42
0.0000000003921579
 43
0.0000000001
 40
0.0
 40
0.0
 40
0.0
 40
0.0
 40
0.2499999999999998
 40
0.2499999999999998
 40
0.3749999999999997
 40
0.3749999999999997
 40
0.4999999999999997
 40
0.4999999999999997
 40
0.75
 40
0.75
 40
0.8750000000000001
 40
0.8750000000000001
 40
0.9375
 40
0.9375
 40
1.0
 40
1.0
 40
1.0
 40
1.0
 10
108.1092374977961
 20
126.8208490993692
 30
0.0
 10
111.3529472315389
 20
126.8208480908093
 30
0.0
 10
114.6317263434705
 20
126.7088827042361
 30
0.0
 10
119.1233289213824
 20
126.3884370309564
 30
0.0
 10
120.5411970475681
 20
126.257882562473
 30
0.0
 10
123.2197719570906
 20
125.949756164608
 30
0.0
 10
124.4768053172015
 20
125.7716614397371
 30
0.0
 10
127.8478208558634
 20
125.1897150115455
 30
0.0
 10
129.6433016114368
 20
124.7232357953435
 30
0.0
 10
131.4239843117318
 20
123.9731490648562
 30
0.0
 10
131.8770510808735
 20
123.7110980568399
 30
0.0
 10
132.3213778442623
 20
123.3099485049223
 30
0.0
 10
132.4300180509299
 20
123.1754903875988
 30
0.0
 10
132.5689266165674
 20
122.9051018773736
 30
0.0
 10
132.5989707635765
 20
122.7670967142338
 30
0.0
 10
132.5894418284938
 20
122.6328969579318
 30
0.0
  0
LINE
  5
FB
330
F5
100
AcDbEntity
  8
401158038_218493
  6
Continuous
 62
     7
100
AcDbLine
 10
83.6290331671
 20
122.6328969579
 30
0.0
 11
81.4099188073
 21
153.8855609445
 31
0.0
  0
SPLINE
  5
FC
330
F5
100
AcDbEntity
  8
401158038_218493
  6
Continuous
 62
     7
100
AcDbSpline
210
0.0
220
0.0
230
1.0
 70
     8
 71
     3
 72
    18
 73
    14
 74
     0
 42
0.0000000003901564
 43
0.0000000001
 40
0.0
 40
0.0
 40
0.0
 40
0.0
 40
0.2500000000000001
 40
0.2500000000000001
 40
0.5000000000000002
 40
0.5000000000000002
 40
0.6250000000000001
 40
0.6250000000000001
 40
0.7500000000000001
 40
0.7500000000000001
 40
0.875
 40
0.875
 40
1.0
 40
1.0
 40
1.0
 40
1.0
 10
83.62903316709846
 20
122.6328969579317
 30
0.0
 10
83.59071335435264
 20
123.1725700155588
 30
0.0
 10
84.19440117175255
 20
123.7186364505201
 30
0.0
 10
86.55996732496996
 20
124.7185482528403
 30
0.0
 10
88.35049424822029
 20
125.1850828894374
 30
0.0
 10
91.71381603882523
 20
125.767419254038
 30
0.0
 10
92.96798573604968
 20
125.9456768125239
 30
0.0
 10
95.64208760149265
 20
126.2543670317033
 30
0.0
 10
97.05764314173216
 20
126.3852262158611
 30
0.0
 10
100.0471043566623
 20
126.5995605390133
 30
0.0
 10
101.6315737438917
 20
126.6828414739896
 30
0.0
 10
104.8316427682463
 20
126.7928603866079
 30
0.0
 10
106.4650835315692
 20
126.8208491351946
 30
0.0
 10
108.1092374977961
 20
126.8208490993692
 30
0.0
  0
ELLIPSE
  5
FD
330
F5
100
AcDbEntity
  8
401158038_218493
  6
Continuous
 62
     7
100
AcDbEllipse
 10
132.0906975313
 20
122.6683105992
 30
0.0
 11
-0.4987442972210037
 21
0.03541364129144853
 31
0.0
210
0.0
220
0.0
230
1.0
 40
0.9854393326
 41
2.9462120219574
 42
3.141592653589793
  0
ELLIPSE
  5
FE
330
F5
100
AcDbEntity
  8
401158038_218493
  6
Continuous
 62
     7
100
AcDbEllipse
 10
84.1277774643
 20
122.6683105992
 30
0.0
 11
0.4987442972209967
 21
0.03541364129146241
 31
0.0
210
0.0
220
0.0
230
1.0
 40
0.9854393326
 41
3.141592653589793
 42
3.339488074582319
  0
ARC
  5
FF
330
F5
100
AcDbEntity
  8
401158038_218493
  6
Continuous
 62
     7
100
AcDbCircle
 10
84.2477981694
 20
122.3435060968
 30
0.0
 40
0.5214828481139686
100
AcDbArc
 50
212.7121717529
 51
269.033328589
  0
SPLINE
  5
100
330
F5
100
AcDbEntity
  8
401158038_218493
  6
Continuous
 62
     7
100
AcDbSpline
210
0.0
220
0.0
230
1.0
 70
     8
 71
     3
 72
    14
 73
    10
 74
     0
 42
0.0000000001187526
 43
0.0000000001
 40
0.831171986691184
 40
0.831171986691184
 40
0.831171986691184
 40
0.831171986691184
 40
0.8437499999999998
 40
0.8437499999999998
 40
0.8749999999999997
 40
0.8749999999999997
 40
0.9374999999999999
 40
0.9374999999999999
 40
1.0
 40
1.0
 40
1.0
 40
1.0
 10
94.00174505315495
 20
107.7150628402147
 30
0.0
 10
94.20317678233432
 20
107.6515820907917
 30
0.0
 10
94.41925024453762
 20
107.5895148505128
 30
0.0
 10
95.22558575533094
 20
107.3803569577964
 30
0.0
 10
95.89627071406358
 20
107.2443652650803
 30
0.0
 10
98.1676875151575
 20
106.8719830997244
 30
0.0
 10
99.98200661557603
 20
106.6776503911466
 30
0.0
 10
103.9045250752284
 20
106.4160374428744
 30
0.0
 10
105.9900340571942
 20
106.35
 30
0.0
 10
108.1092374978188
 20
106.3500000000005
 30
0.0
  0
SPLINE
  5
101
330
F5
100
AcDbEntity
  8
401158038_218493
  6
Continuous
 62
     7
100
AcDbSpline
210
0.0
220
0.0
230
1.0
 70
     8
 71
     3
 72
    16
 73
    12
 74
     0
 42
0.0000000001163584
 43
0.0000000001
 40
0.0
 40
0.0
 40
0.0
 40
0.0
 40
0.0625000000000002
 40
0.0625000000000002
 40
0.0937500000000002
 40
0.0937500000000002
 40
0.1250000000000003
 40
0.1250000000000003
 40
0.1562500000000004
 40
0.1562500000000004
 40
0.1608603936993097
 40
0.1608603936993097
 40
0.1608603936993097
 40
0.1608603936993097
 10
108.1092374978188
 20
106.3500000000005
 30
0.0
 10
110.2344764463684
 20
106.35
 30
0.0
 10
112.3471963562471
 20
106.4176318079947
 30
0.0
 10
115.2768752458277
 20
106.6139677337578
 30
0.0
 10
116.2290474327757
 20
106.6964624594575
 30
0.0
 10
118.003981653381
 20
106.8892201967787
 30
0.0
 10
118.8290422822063
 20
106.9990936003867
 30
0.0
 10
120.3430452284149
 20
107.2482741021048
 30
0.0
 10
121.026577293311
 20
107.3879149464766
 30
0.0
 10
121.6804759400683
 20
107.5589211651727
 30
0.0
 10
121.7624265532396
 20
107.5811427403417
 30
0.0
 10
121.842331855028
 20
107.6035867911503
 30
0.0
  0
ARC
  5
102
330
F5
100
AcDbEntity
  8
401158038_218493
  6
Continuous
 62
     7
100
AcDbCircle
 10
131.9706730421
 20
122.3435017369
 30
0.0
 40
0.5214835421684739
100
AcDbArc
 50
270.9668011185
 51
326.6997064692
  0
ARC
  5
103
330
F5
100
AcDbEntity
  8
401158038_218493
  6
Continuous
 62
     7
100
AcDbCircle
 10
131.9713657478
 20
122.3427942095
 30
0.0
 40
0.5207648723479282
100
AcDbArc
 50
329.9123027266
 51
356.1826377447
  0
SPLINE
  5
104
330
F5
100
AcDbEntity
  8
401158038_218493
  6
Continuous
 62
     7
100
AcDbSpline
210
0.0
220
0.0
230
1.0
 70
     8
 71
     3
 72
    14
 73
    10
 74
     0
 42
0.0000000005010671
 43
0.0000000001
 40
0.444024934171513
 40
0.444024934171513
 40
0.444024934171513
 40
0.444024934171513
 40
0.5
 40
0.5
 40
0.625
 40
0.625
 40
0.6875000000000002
 40
0.6875000000000002
 40
0.7225828450953174
 40
0.7225828450953174
 40
0.7225828450953174
 40
0.7225828450953174
 10
128.2294242044449
 20
114.6146282386215
 30
0.0
 10
128.0491809321511
 20
114.2915269851146
 30
0.0
 10
127.8690019728524
 20
113.9684159157997
 30
0.0
 10
127.2867046911167
 20
112.9237133093521
 30
0.0
 10
126.882780485883
 20
112.2028700477631
 30
0.0
 10
126.2819840565484
 20
111.1200370140936
 30
0.0
 10
126.0814914403816
 20
110.7586235621657
 30
0.0
 10
125.7536364134665
 20
110.1940236316959
 30
0.0
 10
125.6351895233032
 20
109.9883127088629
 30
0.0
 10
125.4870598822579
 20
109.780576770929
 30
0.0
  0
SPLINE
  5
105
330
F5
100
AcDbEntity
  8
401158038_218493
  6
Continuous
 62
     7
100
AcDbSpline
210
0.0
220
0.0
230
1.0
 70
     8
 71
     3
 72
    14
 73
    10
 74
     0
 42
0.000000000501757
 43
0.0000000001
 40
0.2837357337466466
 40
0.2837357337466466
 40
0.2837357337466466
 40
0.2837357337466466
 40
0.3124999999999989
 40
0.3124999999999989
 40
0.374999999999999
 40
0.374999999999999
 40
0.4999999999999992
 40
0.4999999999999992
 40
0.5392934172532369
 40
0.5392934172532369
 40
0.5392934172532369
 40
0.5392934172532369
 10
90.65588759567521
 20
109.8897302838708
 30
0.0
 10
90.5422571749126
 20
110.0594840903826
 30
0.0
 10
90.44536186991864
 20
110.2276072887158
 30
0.0
 10
90.13859951887187
 20
110.755748976292
 30
0.0
 10
89.93802645370154
 20
111.1172720511453
 30
0.0
 10
89.33707232695977
 20
112.2003817147329
 30
0.0
 10
88.93306065138907
 20
112.9214007357314
 30
0.0
 10
88.40430437560993
 20
113.870041934407
 30
0.0
 10
88.27780645891681
 20
114.0969186506239
 30
0.0
 10
88.151275240393
 20
114.3237901598344
 30
0.0
  0
ARC
  5
106
330
F5
100
AcDbEntity
  8
401158038_218493
  6
Continuous
 62
     7
100
AcDbCircle
 10
84.2471111911
 20
122.3428045271
 30
0.0
 40
0.5207702259763148
100
AcDbArc
 50
183.8177766652
 51
269.1075978351
  0
LINE
  5
107
330
F5
100
AcDbEntity
  8
401158038_218493
  6
Continuous
 62
     7
100
AcDbLine
 10
112.4435054113
 20
144.2493698173
 30
0.0
 11
103.7749695843
 21
144.2493698173
 31
0.0
  0
LINE
  5
108
330
F5
100
AcDbEntity
  8
401158038_218493
  6
Continuous
 62
     7
100
AcDbLine
 10
81.6094165262
 20
154.099726401
 30
0.0
 11
103.5344277011
 21
154.099726401
 31
0.0
  0
LINE
  5
109
330
F5
100
AcDbEntity
  8
401158038_218493
  6
Continuous
 62
     7
100
AcDbLine
 10
112.6768622094
 20
154.099726401
 30
0.0
 11
134.6090584694
 21
154.099726401
 31
0.0
  0
ARC
  5
10A
330
F5
100
AcDbEntity
  8
401158038_218493
  6
Continuous
 62
     7
100
AcDbCircle
 10
81.6094165262
 20
153.899726401
 30
0.0
 40
0.1999999999999934
100
AcDbArc
 50
90.0
 51
184.0615049647
  0
ARC
  5
10B
330
F5
100
AcDbEntity
  8
401158038_218493
  6
Continuous
 62
     7
100
AcDbCircle
 10
134.6090584694
 20
153.899726401
 30
0.0
 40
0.1999999999999919
100
AcDbArc
 50
355.9384950353
 51
90.0
  0
ARC
  5
10C
330
F5
100
AcDbEntity
  8
401158038_218493
  6
Continuous
 62
     7
100
AcDbCircle
 10
85.0276907898
 20
122.8340278324
 30
0.0
 40
1.381521458793129
100
AcDbArc
 50
192.1132754095
 51
212.6096829636
  0
ARC
  5
10D
330
F5
100
AcDbEntity
  8
401158038_218493
  6
Continuous
 62
     7
100
AcDbCircle
 10
130.5549181546
 20
123.0905780494
 30
0.0
 40
2.063837962116001
100
AcDbArc
 50
330.9501229855
 51
344.658331212
  0
ARC
  5
10E
330
F5
100
AcDbEntity
  8
401158038_218493
  6
Continuous
 62
     7
100
AcDbCircle
 10
95.0384539726
 20
113.0010522181
 30
0.0
 40
5.391431734608576
100
AcDbArc
 50
216.9613160175
 51
257.6256272641
  0
ARC
  5
10F
330
F5
100
AcDbEntity
  8
401158038_218493
  6
Continuous
 62
     7
100
AcDbCircle
 10
322.0394757295
 20
247.8691726402
 30
0.0
 40
269.351751908704
100
AcDbArc
 50
207.835709889
 51
209.7561933667
  0
ARC
  5
110
330
F5
100
AcDbEntity
  8
401158038_218493
  6
Continuous
 62
     7
100
AcDbCircle
 10
-139.3379144267
 20
266.9329227487
 30
0.0
 40
307.9102591769281
100
AcDbArc
 50
330.3216783879
 51
331.941299834
  0
ARC
  5
111
330
F5
100
AcDbEntity
  8
401158038_218493
  6
Continuous
 62
     7
100
AcDbCircle
 10
120.9196079096
 20
113.3577542689
 30
0.0
 40
5.831225117214032
100
AcDbArc
 50
280.4752663217
 51
320.4895790762
  0
ARC
  5
112
330
F5
100
AcDbEntity
  8
02693038_0__KAPP
  6
Continuous
 62
     7
100
AcDbCircle
 10
108.1092374978
 20
164.2942138877
 30
0.0
 40
25.87500000000015
100
AcDbArc
 50
336.789723396
 51
359.5
  0
LINE
  5
113
330
F5
100
AcDbEntity
  8
02693038_0__KAPP
  6
Continuous
 62
     7
100
AcDbLine
 10
82.1717242156
 20
171.3446248126
 30
0.0
 11
82.2352227385
 21
164.0684147817
 31
0.0
  0
LINE
  5
114
330
F5
100
AcDbEntity
  8
02693038_0__KAPP
  6
Continuous
 62
     7
100
AcDbLine
 10
133.9832522571
 20
164.0684147817
 30
0.0
 11
134.04675078
 21
171.3446248126
 31
0.0
  0
ARC
  5
115
330
F5
100
AcDbEntity
  8
02693038_0__KAPP
  6
Continuous
 62
     7
100
AcDbCircle
 10
108.1092374978
 20
164.2942138877
 30
0.0
 40
25.87500000000026
100
AcDbArc
 50
180.5
 51
203.2626019637
  0
LINE
  5
116
330
F5
100
AcDbEntity
  8
09055038_51856__
  6
Continuous
 62
     7
100
AcDbLine
 10
188.4487823037
 20
178.0017419721
 30
0.0
 11
27.7696926919
 21
178.0017419721
 31
0.0
  0
SPLINE
  5
117
330
F5
100
AcDbEntity
  8
09055038_51856__
  6
Continuous
 62
     7
100
AcDbSpline
210
0.0
220
0.0
230
1.0
 70
     8
 71
     3
 72
     8
 73
     4
 74
     0
 42
0.0000000001061065
 43
0.0000000001
 40
0.0
 40
0.0
 40
0.0
 40
0.0
 40
0.0278638061067664
 40
0.0278638061067664
 40
0.0278638061067664
 40
0.0278638061067664
 10
128.9441398409261
 20
171.1208414748523
 30
0.0
 10
129.9394515652286
 20
171.1527969463999
 30
0.0
 10
130.8128094432901
 20
171.1865592166879
 30
0.0
 10
131.5681640179396
 20
171.2220389142731
 30
0.0
  0
SPLINE
  5
118
330
F5
100
AcDbEntity
  8
09055038_51856__
  6
Continuous
 62
     7
100
AcDbSpline
210
0.0
220
0.0
230
1.0
 70
     8
 71
     3
 72
    16
 73
    12
 74
     0
 42
0.000000000076407
 43
0.0000000001
 40
0.6892793563802271
 40
0.6892793563802271
 40
0.6892793563802271
 40
0.6892793563802271
 40
0.71875
 40
0.71875
 40
0.75
 40
0.75
 40
0.7812500000000001
 40
0.7812500000000001
 40
0.8125000000000001
 40
0.8125000000000001
 40
0.8226474267377604
 40
0.8226474267377604
 40
0.8226474267377604
 40
0.8226474267377604
 10
84.65429479614279
 20
171.2218560644669
 30
0.0
 10
85.4589607588786
 20
171.1841150142837
 30
0.0
 10
86.40678566729518
 20
171.1480196913822
 30
0.0
 10
88.57511558537169
 20
171.0799296375288
 30
0.0
 10
89.81683021501661
 20
171.0478498213539
 30
0.0
 10
92.56183687694127
 20
170.9897653093201
 30
0.0
 10
94.03082266096713
 20
170.9645361158032
 30
0.0
 10
97.12080568382144
 20
170.9220317932417
 30
0.0
 10
98.76407018700695
 20
170.9045338259023
 30
0.0
 10
100.9998607495512
 20
170.8872011325326
 30
0.0
 10
101.5508887996454
 20
170.8834205111742
 30
0.0
 10
102.1048846084077
 20
170.8801059386875
 30
0.0
  0
SPLINE
  5
119
330
F5
100
AcDbEntity
  8
09055038_51856__
  6
Continuous
 62
     7
100
AcDbSpline
210
0.0
220
0.0
230
1.0
 70
     8
 71
     3
 72
    12
 73
     8
 74
     0
 42
0.0000000000710672
 43
0.0000000001
 40
0.8945918076207767
 40
0.8945918076207767
 40
0.8945918076207767
 40
0.8945918076207767
 40
0.90625
 40
0.90625
 40
0.9375000000000001
 40
0.9375000000000001
 40
1.0
 40
1.0
 40
1.0
 40
1.0
 10
114.1143971043313
 20
170.8801064362615
 30
0.0
 10
114.7505281015286
 20
170.8839096386596
 30
0.0
 10
115.3825286148194
 20
170.8883272079754
 30
0.0
 10
117.6933411497307
 20
170.9068640703927
 30
0.0
 10
119.3299543906274
 20
170.9247755108793
 30
0.0
 10
123.9411135574274
 20
170.9896650927992
 30
0.0
 10
126.7116026731558
 20
171.0491636515116
 30
0.0
 10
128.9441398409261
 20
171.1208414748523
 30
0.0
  0
SPLINE
  5
11A
330
F5
100
AcDbEntity
  8
09055038_51856__
  6
Continuous
 62
     7
100
AcDbSpline
210
0.0
220
0.0
230
1.0
 70
     8
 71
     3
 72
    22
 73
    18
 74
     0
 42
0.0000000004378408
 43
0.0000000001
 40
0.322260786472342
 40
0.322260786472342
 40
0.322260786472342
 40
0.322260786472342
 40
0.3750000000000004
 40
0.3750000000000004
 40
0.4375000000000005
 40
0.4375000000000005
 40
0.5000000000000006
 40
0.5000000000000006
 40
0.6250000000000004
 40
0.6250000000000004
 40
0.6875000000000004
 40
0.6875000000000004
 40
0.7500000000000004
 40
0.7500000000000004
 40
0.8750000000000002
 40
0.8750000000000002
 40
0.9268144655786225
 40
0.9268144655786225
 40
0.9268144655786225
 40
0.9268144655786225
 10
114.1124468360854
 20
172.3045303604926
 30
0.0
 10
114.3406913722361
 20
172.360271973158
 30
0.0
 10
114.4585190878738
 20
172.4188898716875
 30
0.0
 10
114.4600817631201
 20
172.5490663476237
 30
0.0
 10
114.2964774687617
 20
172.6183682835305
 30
0.0
 10
113.6622529467895
 20
172.748032486489
 30
0.0
 10
113.1924855496115
 20
172.807465517715
 30
0.0
 10
111.4379584920135
 20
172.9560401370465
 30
0.0
 10
109.7785682472631
 20
173.0144040609696
 30
0.0
 10
107.2899050926169
 20
173.0147421626492
 30
0.0
 10
106.455646961006
 20
173.0008919621344
 30
0.0
 10
104.9160744752858
 20
172.9472490875247
 30
0.0
 10
104.2152485067393
 20
172.9079177401258
 30
0.0
 10
102.4359622258326
 20
172.7580045310277
 30
0.0
 10
101.7615393638881
 20
172.619244875007
 30
0.0
 10
101.758291983574
 20
172.4219266760874
 30
0.0
 10
101.8729691877168
 20
172.3641947012803
 30
0.0
 10
102.0919616854932
 20
172.3092837355466
 30
0.0
  0
LINE
  5
11B
330
F5
100
AcDbEntity
  8
09055038_51856__
  6
Continuous
 62
     7
100
AcDbLine
 10
28.1180411943
 20
187.1942138877
 30
0.0
 11
188.1004338013
 21
187.1942138877
 31
0.0
  0
LINE
  5
11C
330
F5
100
AcDbEntity
  8
09055038_51856__
  6
Continuous
 62
     7
100
AcDbLine
 10
27.6181173467
 20
186.6854876845
 30
0.0
 11
27.7696926919
 21
178.0017419721
 31
0.0
  0
LINE
  5
11D
330
F5
100
AcDbEntity
  8
09055038_51856__
  6
Continuous
 62
     7
100
AcDbLine
 10
188.4487823037
 20
178.0017419721
 30
0.0
 11
188.6003576489
 21
186.6854876845
 31
0.0
  0
ARC
  5
11E
330
F5
100
AcDbEntity
  8
09055038_51856__
  6
Continuous
 62
     7
100
AcDbCircle
 10
28.7695403871
 20
178.0191943785
 30
0.0
 40
0.9999999999999931
100
AcDbArc
 50
181.0
 51
260.8512941045
  0
ARC
  5
11F
330
F5
100
AcDbEntity
  8
09055038_51856__
  6
Continuous
 62
     7
100
AcDbCircle
 10
187.4489346085
 20
178.0191943785
 30
0.0
 40
0.9999999999997122
100
AcDbArc
 50
279.1487058955
 51
359.0
  0
ARC
  5
120
330
F5
100
AcDbEntity
  8
09055038_51856__
  6
Continuous
 62
     7
100
AcDbCircle
 10
188.1004338013
 20
186.6942138877
 30
0.0
 40
0.4999999999999891
100
AcDbArc
 50
358.9999999999
 51
90.0
  0
ARC
  5
121
330
F5
100
AcDbEntity
  8
09055038_51856__
  6
Continuous
 62
     7
100
AcDbCircle
 10
28.1180411943
 20
186.6942138877
 30
0.0
 40
0.5000000000000004
100
AcDbArc
 50
90.0
 51
181.0000000001
  0
ARC
  5
122
330
F5
100
AcDbEntity
  8
09055038_51856__
  6
Continuous
 62
     7
100
AcDbCircle
 10
108.1092374978
 20
670.6714170086
 30
0.0
 40
500.0
100
AcDbArc
 50
272.688289635
 51
279.1487058954
  0
ARC
  5
123
330
F5
100
AcDbEntity
  8
09055038_51856__
  6
Continuous
 62
     7
100
AcDbCircle
 10
108.1092374978
 20
670.6714170086
 30
0.0
 40
499.9999999999999
100
AcDbArc
 50
260.8512941046
 51
267.3134682892
  0
LINE
  5
124
330
F5
100
AcDbEntity
  8
$DDT_AUDIT_GENERATED_(E4)
  6
Continuous
 62
     7
100
AcDbLine
 10
102.4092374978
 20
169.8969731631
 30
0.0
 11
113.8092374978
 21
169.8969731631
 31
0.0
  0
LINE
  5
125
330
F5
100
AcDbEntity
  8
$DDT_AUDIT_GENERATED_(E4)
  6
Continuous
 62
     7
100
AcDbLine
 10
102.1092374978
 20
172.6492926467
 30
0.0
 11
102.1092374978
 21
170.1969731631
 31
0.0
  0
LINE
  5
126
330
F5
100
AcDbEntity
  8
$DDT_AUDIT_GENERATED_(E4)
  6
Continuous
 62
     7
100
AcDbLine
 10
114.1092374978
 20
170.1969731631
 30
0.0
 11
114.1092374978
 21
172.6535699784
 31
0.0
  0
ARC
  5
127
330
F5
100
AcDbEntity
  8
$DDT_AUDIT_GENERATED_(E4)
  6
Continuous
 62
     7
100
AcDbCircle
 10
102.4092374978
 20
170.1969731631
 30
0.0
 40
0.2999999999999999
100
AcDbArc
 50
180.0
 51
270.0
  0
ARC
  5
128
330
F5
100
AcDbEntity
  8
$DDT_AUDIT_GENERATED_(E4)
  6
Continuous
 62
     7
100
AcDbCircle
 10
113.8092374978
 20
170.1969731631
 30
0.0
 40
0.2999999999999947
100
AcDbArc
 50
270.0
 51
0.0
  0
LINE
  5
129
330
F5
100
AcDbEntity
  8
$DDT_AUDIT_GENERATED_(A5)
  6
Continuous
 62
     7
100
AcDbLine
 10
113.3592374978
 20
153.4496801866
 30
0.0
 11
102.8592374978
 21
153.4496801866
 31
0.0
  0
LINE
  5
12A
330
F5
100
AcDbEntity
  8
$DDT_AUDIT_GENERATED_(A5)
  6
Continuous
 62
     7
100
AcDbLine
 10
114.1092374978
 20
149.7054497588
 30
0.0
 11
102.1092374978
 21
149.7054497588
 31
0.0
  0
ARC
  5
12B
330
F5
100
AcDbEntity
  8
$DDT_AUDIT_GENERATED_(A5)
  6
Continuous
 62
     7
100
AcDbCircle
 10
108.1092374978
 20
198.4496801866
 30
0.0
 40
49.99999999999999
100
AcDbArc
 50
264.1432980901
 51
275.8567019099
  0
LINE
  5
12C
330
F5
100
AcDbEntity
  8
$DDT_AUDIT_GENERATED_(A5)
  6
Continuous
 62
     7
100
AcDbLine
 10
102.1092374978
 20
152.48143435
 30
0.0
 11
102.1092374978
 21
149.7054497588
 31
0.0
  0
LINE
  5
12D
330
F5
100
AcDbEntity
  8
$DDT_AUDIT_GENERATED_(A5)
  6
Continuous
 62
     7
100
AcDbLine
 10
114.1092374978
 20
149.7054497588
 30
0.0
 11
114.1092374978
 21
152.48143435
 31
0.0
  0
ARC
  5
12E
330
F5
100
AcDbEntity
  8
$DDT_AUDIT_GENERATED_(A5)
  6
Continuous
 62
     7
100
AcDbCircle
 10
103.1092374978
 20
152.48143435
 30
0.0
 40
1.000000000000009
100
AcDbArc
 50
104.4775121859
 51
180.0
  0
ARC
  5
12F
330
F5
100
AcDbEntity
  8
$DDT_AUDIT_GENERATED_(A5)
  6
Continuous
 62
     7
100
AcDbCircle
 10
113.1092374978
 20
152.48143435
 30
0.0
 40
1.0
100
AcDbArc
 50
0.0
 51
75.5224878141
  0
ARC
  5
130
330
F5
100
AcDbEntity
  8
$DDT_AUDIT_GENERATED_(A5)
  6
Continuous
 62
     7
100
AcDbCircle
 10
102.6092374978
 20
154.4179260232
 30
0.0
 40
1.000000000000001
100
AcDbArc
 50
284.4775121859
 51
0.0
  0
ARC
  5
131
330
F5
100
AcDbEntity
  8
$DDT_AUDIT_GENERATED_(A5)
  6
Continuous
 62
     7
100
AcDbCircle
 10
113.6092374978
 20
154.4179260232
 30
0.0
 40
0.999999999999994
100
AcDbArc
 50
180.0
 51
255.5224878141
  0
LINE
  5
132
330
F5
100
AcDbEntity
  8
$DDT_AUDIT_GENERATED_(A5)
  6
Continuous
 62
     7
100
AcDbLine
 10
103.6092374978
 20
169.8969731631
 30
0.0
 11
103.6092374978
 21
154.4179260232
 31
0.0
  0
LINE
  5
133
330
F5
100
AcDbEntity
  8
$DDT_AUDIT_GENERATED_(A5)
  6
Continuous
 62
     7
100
AcDbLine
 10
112.6092374978
 20
154.4179260232
 30
0.0
 11
112.6092374978
 21
169.8969731631
 31
0.0
  0
ARC
  5
134
330
F5
100
AcDbEntity
  8
$DDT_AUDIT_GENERATED_(A5)
  6
Continuous
 62
     7
100
AcDbCircle
 10
103.1092374978
 20
149.7054497588
 30
0.0
 40
1.000000000000001
100
AcDbArc
 50
180.0
 51
264.1432980901
  0
ARC
  5
135
330
F5
100
AcDbEntity
  8
$DDT_AUDIT_GENERATED_(A5)
  6
Continuous
 62
     7
100
AcDbCircle
 10
113.1092374978
 20
149.7054497588
 30
0.0
 40
0.9999999999999861
100
AcDbArc
 50
275.8567019099
 51
0.0
  0
ENDBLK
  5
137
330
F5
100
AcDbEntity
  8
0
100
AcDbBlockEnd
  0
ENDSEC
  0
SECTION
  2
ENTITIES
  0
INSERT
  5
5F
330
1F
100
AcDbEntity
  8
Default
100
AcDbBlockReference
  2
SEANNOT_GROUP
 10
0.0
 20
0.0
 30
0.0
  0
INSERT
  5
6A
330
1F
100
AcDbEntity
  8
Default
100
AcDbBlockReference
  2
SEANNOT_GROUP1
 10
0.0
 20
0.0
 30
0.0
  0
INSERT
  5
70
330
1F
100
AcDbEntity
  8
Default
100
AcDbBlockReference
  2
SEANNOT_GROUP2
 10
0.0
 20
0.0
 30
0.0
  0
INSERT
  5
76
330
1F
100
AcDbEntity
  8
Default
100
AcDbBlockReference
  2
SE
 10
0.0
 20
0.0
 30
0.0
  0
INSERT
  5
AA
330
1F
100
AcDbEntity
  8
Default
100
AcDbBlockReference
  2
SE1
 10
0.0
 20
0.0
 30
0.0
  0
INSERT
  5
F6
330
1F
100
AcDbEntity
  8
Default
100
AcDbBlockReference
  2
SE2
 10
0.0
 20
0.0
 30
0.0
  0
TEXT
  5
139
330
1F
100
AcDbEntity
  8
Default
  6
Continuous
 62
     7
100
AcDbText
 10
5.9362635081
 20
53.4225120485
 30
0.0
 40
10.0
  1
Grohe AG^J
  7
SEACAD_seiso_ttf
 11
5.9362635081
 21
63.4225120485
 31
0.0
100
AcDbText
 73
     3
  0
TEXT
  5
13A
330
1F
100
AcDbEntity
  8
Default
  6
Continuous
 62
     7
100
AcDbText
 10
5.9362635081
 20
37.0588756849
 30
0.0
 40
10.0
  1
 
  7
SEACAD_seiso_ttf
 11
5.9362635081
 21
47.0588756849
 31
0.0
100
AcDbText
 73
     3
  0
TEXT
  5
13B
330
1F
100
AcDbEntity
  8
Default
  6
Continuous
 62
     7
100
AcDbText
 10
5.9362635081
 20
20.6952393213
 30
0.0
 40
10.0
  1
ecn: 
  7
SEACAD_seiso_ttf
 11
5.9362635081
 21
30.6952393213
 31
0.0
100
AcDbText
 73
     3
  0
TEXT
  5
13C
330
1F
100
AcDbEntity
  8
Default
  6
Continuous
 62
     7
100
AcDbText
 10
5.9362635081
 20
4.3316029576
 30
0.0
 40
10.0
  1
unit: mm
  7
SEACAD_seiso_ttf
 11
5.9362635081
 21
14.3316029576
 31
0.0
100
AcDbText
 73
     3
  0
LINE
  5
13D
330
1F
100
AcDbEntity
  8
Default
  6
Continuous
 62
     7
100
AcDbLine
 10
0.0
 20
0.0
 30
0.0
 11
100.0
 21
0.0
 31
0.0
  0
LINE
  5
13E
330
1F
100
AcDbEntity
  8
Default
  6
Continuous
 62
     7
100
AcDbLine
 10
0.0
 20
0.0
 30
0.0
 11
0.0
 21
100.0
 31
0.0
  0
TEXT
  5
13F
330
1F
100
AcDbEntity
  8
Default
  6
Continuous
 62
     7
100
AcDbText
 10
24.3923665681
 20
-18.2375342018
 30
0.0
 40
10.0
  1
100 mm
  7
SEACAD_seiso_ttf
 11
24.3923665681
 21
-8.2375342018
 31
0.0
100
AcDbText
 73
     3
  0
TEXT
  5
140
330
1F
100
AcDbEntity
  8
Default
  6
Continuous
 62
     7
100
AcDbText
 10
-7.6150308803
 20
24.6231930421
 30
0.0
 40
10.0
  1
100 mm
 50
90.0
  7
SEACAD_seiso_ttf
 11
-17.6150308803
 21
24.6231930421
 31
0.0
100
AcDbText
 73
     3
  0
TEXT
  5
141
330
1F
100
AcDbEntity
  8
Default
  6
Continuous
 62
     7
100
AcDbText
 10
28.4878128572
 20
20.0907663715
 30
0.0
 40
10.0
  1
219356
  7
SEACAD_seiso_ttf
 11
28.4878128572
 21
30.0907663715
 31
0.0
100
AcDbText
 73
     3
  0
TEXT
  5
142
330
1F
100
AcDbEntity
  8
Default
  6
Continuous
 62
     7
100
AcDbText
 10
5.9012241913
 20
36.7242780188
 30
0.0
 40
10.0
  1
19548002
  7
SEACAD_seiso_ttf
 11
5.9012241913
 21
46.7242780188
 31
0.0
100
AcDbText
 73
     3
  0
ENDSEC
  0
SECTION
  2
OBJECTS
  0
DICTIONARY
  5
C
330
0
100
AcDbDictionary
281
     1
  3
ACAD_GROUP
350
D
  3
ACAD_LAYOUT
350
1A
  3
ACAD_MLEADERSTYLE
350
146
  3
ACAD_MLINESTYLE
350
17
  3
ACAD_PLOTSETTINGS
350
19
  3
ACAD_PLOTSTYLENAME
350
E
  3
ACAD_SCALELIST
350
3B
  3
ACAD_TABLESTYLE
350
145
  3
ACAD_VISUALSTYLE
350
2A
  3
AcDbVariableDictionary
350
143
  0
DICTIONARY
  5
D
102
{ACAD_REACTORS
330
C
102
}
330
C
100
AcDbDictionary
281
     1
  0
DICTIONARY
  5
1A
102
{ACAD_REACTORS
330
C
102
}
330
C
100
AcDbDictionary
281
     1
  3
Layout1
350
1E
  3
Model
350
22
  0
DICTIONARY
  5
146
102
{ACAD_REACTORS
330
C
102
}
330
C
100
AcDbDictionary
281
     1
  0
DICTIONARY
  5
17
102
{ACAD_REACTORS
330
C
102
}
330
C
100
AcDbDictionary
281
     1
  3
Standard
350
18
  0
DICTIONARY
  5
19
102
{ACAD_REACTORS
330
C
102
}
330
C
100
AcDbDictionary
281
     1
  0
ACDBDICTIONARYWDFLT
  5
E
102
{ACAD_REACTORS
330
C
102
}
330
C
100
AcDbDictionary
281
     1
  3
Normal
350
F
100
AcDbDictionaryWithDefault
340
F
  0
DICTIONARY
  5
3B
102
{ACAD_REACTORS
330
C
102
}
330
C
100
AcDbDictionary
281
     1
  3
A0
350
3C
  3
A1
350
3D
  3
A2
350
3E
  3
A3
350
3F
  3
A4
350
40
  3
A5
350
41
  3
A6
350
42
  3
A7
350
43
  3
A8
350
44
  3
A9
350
45
  3
B0
350
46
  3
B1
350
47
  3
B2
350
48
  3
B3
350
49
  3
B4
350
4A
  3
B5
350
4B
  3
B6
350
4C
  3
B7
350
4D
  3
B8
350
4E
  3
B9
350
4F
  3
C0
350
50
  3
C1
350
51
  3
C2
350
52
  3
C3
350
53
  3
C4
350
54
  3
C5
350
55
  3
C6
350
56
  3
C7
350
57
  3
C8
350
58
  3
C9
350
59
  3
D0
350
5A
  3
D1
350
5B
  3
D2
350
5C
  0
DICTIONARY
  5
145
102
{ACAD_REACTORS
330
C
102
}
330
C
100
AcDbDictionary
281
     1
  0
DICTIONARY
  5
2A
102
{ACAD_REACTORS
330
C
102
}
330
C
100
AcDbDictionary
281
     1
  3
2dWireframe
350
2F
  3
3D Hidden
350
31
  3
3dWireframe
350
30
  3
Basic
350
32
  3
Brighten
350
36
  3
ColorChange
350
3A
  3
Conceptual
350
34
  3
Dim
350
35
  3
Facepattern
350
39
  3
Flat
350
2B
  3
FlatWithEdges
350
2C
  3
Gouraud
350
2D
  3
GouraudWithEdges
350
2E
  3
Linepattern
350
38
  3
Realistic
350
33
  3
Thicken
350
37
  0
DICTIONARY
  5
143
102
{ACAD_REACTORS
330
C
102
}
330
C
100
AcDbDictionary
281
     1
  3
CANNOSCALE
350
144
  3
PSOLHEIGHT
350
148
  3
PSOLWIDTH
350
147
  0
LAYOUT
  5
1E
102
{ACAD_REACTORS
330
1A
102
}
330
1A
100
AcDbPlotSettings
  1

  2
none_device
  4

  6

 40
0.0
 41
0.0
 42
0.0
 43
0.0
 44
0.0
 45
0.0
 46
0.0
 47
0.0
 48
0.0
 49
0.0
140
0.0
141
0.0
142
1.0
143
1.0
 70
   688
 72
     0
 73
     0
 74
     5
  7

 75
    16
147
1.0
148
0.0
149
0.0
100
AcDbLayout
  1
Layout1
 70
     1
 71
     1
 10
0.0
 20
0.0
 11
1682.0
 21
2378.0
 12
0.0
 22
0.0
 32
0.0
 14
0.0
 24
0.0
 34
0.0
 15
1682.0
 25
2378.0
 35
0.0
146
0.0
 13
0.0
 23
0.0
 33
0.0
 16
1.0
 26
0.0
 36
0.0
 17
0.0
 27
1.0
 37
0.0
 76
     0
330
1B
  0
LAYOUT
  5
22
102
{ACAD_REACTORS
330
1A
102
}
330
1A
100
AcDbPlotSettings
  1

  2
none_device
  4

  6

 40
0.0
 41
0.0
 42
0.0
 43
0.0
 44
0.0
 45
0.0
 46
0.0
 47
0.0
 48
0.0
 49
0.0
140
0.0
141
0.0
142
1.0
143
1.0
 70
  1712
 72
     0
 73
     0
 74
     0
  7

 75
     0
147
1.0
148
0.0
149
0.0
100
AcDbLayout
  1
Model
 70
     1
 71
     0
 10
0.0
 20
0.0
 11
1682.0
 21
2378.0
 12
0.0
 22
0.0
 32
0.0
 14
0.0
 24
0.0
 34
0.0
 15
1682.0
 25
2378.0
 35
0.0
146
0.0
 13
0.0
 23
0.0
 33
0.0
 16
1.0
 26
0.0
 36
0.0
 17
0.0
 27
1.0
 37
0.0
 76
     0
330
1F
331
29
  0
MLINESTYLE
  5
18
102
{ACAD_REACTORS
330
17
102
}
330
17
100
AcDbMlineStyle
  2
Standard
 70
     0
  3

 62
   256
 51
90.0
 52
90.0
 71
     2
 49
0.5
 62
   256
  6
BYLAYER
 49
-0.5
 62
   256
  6
BYLAYER
  0
ACDBPLACEHOLDER
  5
F
102
{ACAD_REACTORS
330
E
102
}
330
E
  0
SCALE
  5
3C
102
{ACAD_REACTORS
330
3B
102
}
330
3B
100
AcDbScale
 70
     0
300
1:1
140
1.0
141
1.0
290
     1
  0
SCALE
  5
3D
102
{ACAD_REACTORS
330
3B
102
}
330
3B
100
AcDbScale
 70
     0
300
1:2
140
1.0
141
2.0
290
     0
  0
SCALE
  5
3E
102
{ACAD_REACTORS
330
3B
102
}
330
3B
100
AcDbScale
 70
     0
300
1:4
140
1.0
141
4.0
290
     0
  0
SCALE
  5
3F
102
{ACAD_REACTORS
330
3B
102
}
330
3B
100
AcDbScale
 70
     0
300
1:5
140
1.0
141
5.0
290
     0
  0
SCALE
  5
40
102
{ACAD_REACTORS
330
3B
102
}
330
3B
100
AcDbScale
 70
     0
300
1:8
140
1.0
141
8.0
290
     0
  0
SCALE
  5
41
102
{ACAD_REACTORS
330
3B
102
}
330
3B
100
AcDbScale
 70
     0
300
1:10
140
1.0
141
10.0
290
     0
  0
SCALE
  5
42
102
{ACAD_REACTORS
330
3B
102
}
330
3B
100
AcDbScale
 70
     0
300
1:16
140
1.0
141
16.0
290
     0
  0
SCALE
  5
43
102
{ACAD_REACTORS
330
3B
102
}
330
3B
100
AcDbScale
 70
     0
300
1:20
140
1.0
141
20.0
290
     0
  0
SCALE
  5
44
102
{ACAD_REACTORS
330
3B
102
}
330
3B
100
AcDbScale
 70
     0
300
1:30
140
1.0
141
30.0
290
     0
  0
SCALE
  5
45
102
{ACAD_REACTORS
330
3B
102
}
330
3B
100
AcDbScale
 70
     0
300
1:40
140
1.0
141
40.0
290
     0
  0
SCALE
  5
46
102
{ACAD_REACTORS
330
3B
102
}
330
3B
100
AcDbScale
 70
     0
300
1:50
140
1.0
141
50.0
290
     0
  0
SCALE
  5
47
102
{ACAD_REACTORS
330
3B
102
}
330
3B
100
AcDbScale
 70
     0
300
1:100
140
1.0
141
100.0
290
     0
  0
SCALE
  5
48
102
{ACAD_REACTORS
330
3B
102
}
330
3B
100
AcDbScale
 70
     0
300
2:1
140
2.0
141
1.0
290
     0
  0
SCALE
  5
49
102
{ACAD_REACTORS
330
3B
102
}
330
3B
100
AcDbScale
 70
     0
300
4:1
140
4.0
141
1.0
290
     0
  0
SCALE
  5
4A
102
{ACAD_REACTORS
330
3B
102
}
330
3B
100
AcDbScale
 70
     0
300
8:1
140
8.0
141
1.0
290
     0
  0
SCALE
  5
4B
102
{ACAD_REACTORS
330
3B
102
}
330
3B
100
AcDbScale
 70
     0
300
10:1
140
10.0
141
1.0
290
     0
  0
SCALE
  5
4C
102
{ACAD_REACTORS
330
3B
102
}
330
3B
100
AcDbScale
 70
     0
300
100:1
140
100.0
141
1.0
290
     0
  0
SCALE
  5
4D
102
{ACAD_REACTORS
330
3B
102
}
330
3B
100
AcDbScale
 70
     0
300
1/128" = 1'-0"
140
0.0078125
141
12.0
290
     0
  0
SCALE
  5
4E
102
{ACAD_REACTORS
330
3B
102
}
330
3B
100
AcDbScale
 70
     0
300
1/64" = 1'-0"
140
0.015625
141
12.0
290
     0
  0
SCALE
  5
4F
102
{ACAD_REACTORS
330
3B
102
}
330
3B
100
AcDbScale
 70
     0
300
1/32" = 1'-0"
140
0.03125
141
12.0
290
     0
  0
SCALE
  5
50
102
{ACAD_REACTORS
330
3B
102
}
330
3B
100
AcDbScale
 70
     0
300
1/16" = 1'-0"
140
0.0625
141
12.0
290
     0
  0
SCALE
  5
51
102
{ACAD_REACTORS
330
3B
102
}
330
3B
100
AcDbScale
 70
     0
300
3/32" = 1'-0"
140
0.09375
141
12.0
290
     0
  0
SCALE
  5
52
102
{ACAD_REACTORS
330
3B
102
}
330
3B
100
AcDbScale
 70
     0
300
1/8" = 1'-0"
140
0.125
141
12.0
290
     0
  0
SCALE
  5
53
102
{ACAD_REACTORS
330
3B
102
}
330
3B
100
AcDbScale
 70
     0
300
3/16" = 1'-0"
140
0.1875
141
12.0
290
     0
  0
SCALE
  5
54
102
{ACAD_REACTORS
330
3B
102
}
330
3B
100
AcDbScale
 70
     0
300
1/4" = 1'-0"
140
0.25
141
12.0
290
     0
  0
SCALE
  5
55
102
{ACAD_REACTORS
330
3B
102
}
330
3B
100
AcDbScale
 70
     0
300
3/8" = 1'-0"
140
0.375
141
12.0
290
     0
  0
SCALE
  5
56
102
{ACAD_REACTORS
330
3B
102
}
330
3B
100
AcDbScale
 70
     0
300
1/2" = 1'-0"
140
0.5
141
12.0
290
     0
  0
SCALE
  5
57
102
{ACAD_REACTORS
330
3B
102
}
330
3B
100
AcDbScale
 70
     0
300
3/4" = 1'-0"
140
0.75
141
12.0
290
     0
  0
SCALE
  5
58
102
{ACAD_REACTORS
330
3B
102
}
330
3B
100
AcDbScale
 70
     0
300
1" = 1'-0"
140
1.0
141
12.0
290
     0
  0
SCALE
  5
59
102
{ACAD_REACTORS
330
3B
102
}
330
3B
100
AcDbScale
 70
     0
300
1-1/2" = 1'-0"
140
1.5
141
12.0
290
     0
  0
SCALE
  5
5A
102
{ACAD_REACTORS
330
3B
102
}
330
3B
100
AcDbScale
 70
     0
300
3" = 1'-0"
140
3.0
141
12.0
290
     0
  0
SCALE
  5
5B
102
{ACAD_REACTORS
330
3B
102
}
330
3B
100
AcDbScale
 70
     0
300
6" = 1'-0"
140
6.0
141
12.0
290
     0
  0
SCALE
  5
5C
102
{ACAD_REACTORS
330
3B
102
}
330
3B
100
AcDbScale
 70
     0
300
1'-0" = 1'-0"
140
12.0
141
12.0
290
     0
  0
VISUALSTYLE
  5
2F
102
{ACAD_REACTORS
330
2A
102
}
330
2A
100
AcDbVisualStyle
  2
2dWireframe
 70
     4
 71
     0
 72
     2
 73
     0
 90
        0
 40
-0.6
 41
-30.0
 62
     5
 63
     7
 74
     1
 91
        4
 64
     7
 65
   257
 75
     1
175
     1
 42
1.0
 92
        0
 66
   257
 43
1.0
 76
     1
 77
     6
 78
     2
 67
     7
 79
     5
170
     0
171
     0
290
     0
174
     0
 93
        1
 44
0.0
173
     0
291
     0
 45
0.0
1001
ACAD
1000
AcDbSavedByObjectVersion
1070
     0
  0
VISUALSTYLE
  5
31
102
{ACAD_REACTORS
330
2A
102
}
330
2A
100
AcDbVisualStyle
  2
3D Hidden
 70
     6
 71
     1
 72
     2
 73
     2
 90
        0
 40
-0.6
 41
-30.0
 62
     5
 63
     7
 74
     2
 91
        2
 64
     7
 65
   257
 75
     2
175
     1
 42
40.0
 92
        0
 66
   257
 43
1.0
 76
     1
 77
     6
 78
     2
 67
     7
 79
     3
170
     0
171
     0
290
     0
174
     0
 93
        1
 44
0.0
173
     0
291
     0
 45
0.0
1001
ACAD
1000
AcDbSavedByObjectVersion
1070
     0
  0
VISUALSTYLE
  5
30
102
{ACAD_REACTORS
330
2A
102
}
330
2A
100
AcDbVisualStyle
  2
3dWireframe
 70
     5
 71
     0
 72
     2
 73
     0
 90
        0
 40
-0.6
 41
-30.0
 62
     5
 63
     7
 74
     1
 91
        4
 64
     7
 65
   257
 75
     1
175
     1
 42
1.0
 92
        0
 66
   257
 43
1.0
 76
     1
 77
     6
 78
     2
 67
     7
 79
     5
170
     0
171
     0
290
     0
174
     0
 93
        1
 44
0.0
173
     0
291
     0
 45
0.0
1001
ACAD
1000
AcDbSavedByObjectVersion
1070
     0
  0
VISUALSTYLE
  5
32
102
{ACAD_REACTORS
330
2A
102
}
330
2A
100
AcDbVisualStyle
  2
Basic
 70
     7
 71
     1
 72
     0
 73
     1
 90
        0
 40
-0.6
 41
-30.0
 62
     5
 63
     7
 74
     0
 91
        4
 64
     7
 65
   257
 75
     1
175
     1
 42
1.0
 92
        8
 66
     7
 43
1.0
 76
     1
 77
     6
 78
     2
 67
     7
 79
     5
170
     0
171
     0
290
     0
174
     0
 93
        1
 44
0.0
173
     0
291
     1
 45
0.0
1001
ACAD
1000
AcDbSavedByObjectVersion
1070
     0
  0
VISUALSTYLE
  5
36
102
{ACAD_REACTORS
330
2A
102
}
330
2A
100
AcDbVisualStyle
  2
Brighten
 70
    12
 71
     2
 72
     2
 73
     0
 90
        0
 40
-0.6
 41
-30.0
 62
     5
 63
     7
 74
     1
 91
        4
 64
     7
 65
   257
 75
     1
175
     1
 42
1.0
 92
        8
 66
     7
 43
1.0
 76
     1
 77
     6
 78
     2
 67
     7
 79
     5
170
     0
171
     0
290
     0
174
     0
 93
        1
 44
50.0
173
     0
291
     1
 45
0.0
1001
ACAD
1000
AcDbSavedByObjectVersion
1070
     0
  0
VISUALSTYLE
  5
3A
102
{ACAD_REACTORS
330
2A
102
}
330
2A
100
AcDbVisualStyle
  2
ColorChange
 70
    16
 71
     2
 72
     2
 73
     3
 90
        0
 40
-0.6
 41
-30.0
 62
     5
 63
     8
 74
     1
 91
        4
 64
     7
 65
   257
 75
     1
175
     1
 42
1.0
 92
        8
 66
     8
 43
1.0
 76
     1
 77
     6
 78
     2
 67
     7
 79
     5
170
     0
171
     0
290
     0
174
     0
 93
        1
 44
0.0
173
     0
291
     1
 45
0.0
1001
ACAD
1000
AcDbSavedByObjectVersion
1070
     0
  0
VISUALSTYLE
  5
34
102
{ACAD_REACTORS
330
2A
102
}
330
2A
100
AcDbVisualStyle
  2
Conceptual
 70
     9
 71
     3
 72
     2
 73
     0
 90
        0
 40
-0.6
 41
-30.0
 62
     5
 63
     7
 74
     2
 91
        2
 64
     7
 65
   257
 75
     1
175
     1
 42
40.0
 92
        8
 66
     7
 43
1.0
 76
     1
 77
     6
 78
     2
 67
     7
 79
     3
170
     0
171
     0
290
     0
174
     0
 93
        1
 44
0.0
173
     0
291
     0
 45
0.0
1001
ACAD
1000
AcDbSavedByObjectVersion
1070
     0
  0
VISUALSTYLE
  5
35
102
{ACAD_REACTORS
330
2A
102
}
330
2A
100
AcDbVisualStyle
  2
Dim
 70
    11
 71
     2
 72
     2
 73
     0
 90
        0
 40
-0.6
 41
-30.0
 62
     5
 63
     7
 74
     1
 91
        4
 64
     7
 65
   257
 75
     1
175
     1
 42
1.0
 92
        8
 66
     7
 43
1.0
 76
     1
 77
     6
 78
     2
 67
     7
 79
     5
170
     0
171
     0
290
     0
174
     0
 93
        1
 44
-50.0
173
     0
291
     1
 45
0.0
1001
ACAD
1000
AcDbSavedByObjectVersion
1070
     0
  0
VISUALSTYLE
  5
39
102
{ACAD_REACTORS
330
2A
102
}
330
2A
100
AcDbVisualStyle
  2
Facepattern
 70
    15
 71
     2
 72
     2
 73
     0
 90
        0
 40
-0.6
 41
-30.0
 62
     5
 63
     7
 74
     1
 91
        4
 64
     7
 65
   257
 75
     1
175
     1
 42
1.0
 92
        8
 66
     7
 43
1.0
 76
     1
 77
     6
 78
     2
 67
     7
 79
     5
170
     0
171
     0
290
     0
174
     0
 93
        1
 44
0.0
173
     0
291
     1
 45
0.0
1001
ACAD
1000
AcDbSavedByObjectVersion
1070
     0
  0
VISUALSTYLE
  5
2B
102
{ACAD_REACTORS
330
2A
102
}
330
2A
100
AcDbVisualStyle
  2
Flat
 70
     0
 71
     2
 72
     1
 73
     1
 90
        2
 40
-0.6
 41
30.0
 62
     5
 63
     7
 74
     0
 91
        4
 64
     7
 65
   257
 75
     1
175
     1
 42
1.0
 92
        8
 66
     7
 43
1.0
 76
     1
 77
     6
 78
     2
 67
     7
 79
     5
170
     0
171
     0
290
     0
174
     0
 93
       13
 44
0.0
173
     0
291
     1
 45
0.0
1001
ACAD
1000
AcDbSavedByObjectVersion
1070
     0
  0
VISUALSTYLE
  5
2C
102
{ACAD_REACTORS
330
2A
102
}
330
2A
100
AcDbVisualStyle
  2
FlatWithEdges
 70
     1
 71
     2
 72
     1
 73
     1
 90
        2
 40
-0.6
 41
30.0
 62
     5
 63
     7
 74
     1
 91
        4
 64
     7
 65
   257
 75
     1
175
     1
 42
1.0
 92
        0
 66
   257
 43
1.0
 76
     1
 77
     6
 78
     2
 67
     7
 79
     5
170
     0
171
     0
290
     0
174
     0
 93
       13
 44
0.0
173
     0
291
     1
 45
0.0
1001
ACAD
1000
AcDbSavedByObjectVersion
1070
     0
  0
VISUALSTYLE
  5
2D
102
{ACAD_REACTORS
330
2A
102
}
330
2A
100
AcDbVisualStyle
  2
Gouraud
 70
     2
 71
     2
 72
     2
 73
     1
 90
        2
 40
-0.6
 41
30.0
 62
     5
 63
     7
 74
     0
 91
        4
 64
     7
 65
   257
 75
     1
175
     1
 42
1.0
 92
        0
 66
     7
 43
1.0
 76
     1
 77
     6
 78
     2
 67
     7
 79
     5
170
     0
171
     0
290
     0
174
     0
 93
       13
 44
0.0
173
     0
291
     1
 45
0.0
1001
ACAD
1000
AcDbSavedByObjectVersion
1070
     0
  0
VISUALSTYLE
  5
2E
102
{ACAD_REACTORS
330
2A
102
}
330
2A
100
AcDbVisualStyle
  2
GouraudWithEdges
 70
     3
 71
     2
 72
     2
 73
     1
 90
        2
 40
-0.6
 41
30.0
 62
     5
 63
     7
 74
     1
 91
        4
 64
     7
 65
   257
 75
     1
175
     1
 42
1.0
 92
        0
 66
   257
 43
1.0
 76
     1
 77
     6
 78
     2
 67
     7
 79
     5
170
     0
171
     0
290
     0
174
     0
 93
       13
 44
0.0
173
     0
291
     1
 45
0.0
1001
ACAD
1000
AcDbSavedByObjectVersion
1070
     0
  0
VISUALSTYLE
  5
38
102
{ACAD_REACTORS
330
2A
102
}
330
2A
100
AcDbVisualStyle
  2
Linepattern
 70
    14
 71
     2
 72
     2
 73
     0
 90
        0
 40
-0.6
 41
-30.0
 62
     5
 63
     7
 74
     1
 91
        4
 64
     7
 65
   257
 75
     7
175
     7
 42
1.0
 92
        8
 66
     7
 43
1.0
 76
     1
 77
     6
 78
     2
 67
     7
 79
     5
170
     0
171
     0
290
     0
174
     0
 93
        1
 44
0.0
173
     0
291
     1
 45
0.0
1001
ACAD
1000
AcDbSavedByObjectVersion
1070
     0
  0
VISUALSTYLE
  5
33
102
{ACAD_REACTORS
330
2A
102
}
330
2A
100
AcDbVisualStyle
  2
Realistic
 70
     8
 71
     2
 72
     2
 73
     0
 90
        0
 40
-0.6
 41
-30.0
 62
     5
 63
     7
 74
     1
 91
        0
 64
     7
 65
   257
 75
     1
175
     1
 42
1.0
 92
        8
 66
     8
 43
1.0
 76
     1
 77
     6
 78
     2
 67
     7
 79
     5
170
     0
171
     0
290
     0
174
     0
 93
       13
 44
0.0
173
     0
291
     0
 45
0.0
1001
ACAD
1000
AcDbSavedByObjectVersion
1070
     0
  0
VISUALSTYLE
  5
37
102
{ACAD_REACTORS
330
2A
102
}
330
2A
100
AcDbVisualStyle
  2
Thicken
 70
    13
 71
     2
 72
     2
 73
     0
 90
        0
 40
-0.6
 41
-30.0
 62
     5
 63
     7
 74
     1
 91
        4
 64
     7
 65
   257
 75
     1
175
     1
 42
1.0
 92
       12
 66
     7
 43
1.0
 76
     1
 77
     6
 78
     2
 67
     7
 79
     5
170
     0
171
     0
290
     0
174
     0
 93
        1
 44
0.0
173
     0
291
     1
 45
0.0
1001
ACAD
1000
AcDbSavedByObjectVersion
1070
     0
  0
DICTIONARYVAR
  5
144
102
{ACAD_REACTORS
330
143
102
}
330
143
100
DictionaryVariables
280
     0
  1
1:1
  0
DICTIONARYVAR
  5
148
102
{ACAD_REACTORS
330
143
102
}
330
143
100
DictionaryVariables
280
     0
  1
80.000000
  0
DICTIONARYVAR
  5
147
102
{ACAD_REACTORS
330
143
102
}
330
143
100
DictionaryVariables
280
     0
  1
5.000000
  0
ENDSEC
  0
EOF
