  0
SECTION
  2
HEADER
  9
$ACADVER
  1
AC1009
  9
$DWGCODEPAGE
  3
ansi_1252
  9
$INSBASE
 10
0.0
 20
0.0
 30
0.0
  9
$EXTMIN
 10
1.000000000000000E+20
 20
1.000000000000000E+20
 30
1.000000000000000E+20
  9
$EXTMAX
 10
-1.000000000000000E+20
 20
-1.000000000000000E+20
 30
-1.000000000000000E+20
  9
$LIMMIN
 10
0.0
 20
0.0
  9
$LIMMAX
 10
12.0
 20
9.0
  9
$ORTHOMODE
 70
     0
  9
$REGENMODE
 70
     1
  9
$FILLMODE
 70
     1
  9
$QTEXTMODE
 70
     0
  9
$MIRRTEXT
 70
     1
  9
$DRAGMODE
 70
     2
  9
$LTSCALE
 40
1.0
  9
$OSMODE
 70
    37
  9
$ATTMODE
 70
     1
  9
$TEXTSIZE
 40
0.2
  9
$TRACEWID
 40
0.05
  9
$TEXTSTYLE
  7
STANDARD
  9
$CLAYER
  8
0
  9
$CELTYPE
  6
BYLAYER
  9
$CECOLOR
 62
   256
  9
$DIMSCALE
 40
1.0
  9
$DIMASZ
 40
0.18
  9
$DIMEXO
 40
0.0625
  9
$DIMDLI
 40
0.38
  9
$DIMRND
 40
0.0
  9
$DIMDLE
 40
0.0
  9
$DIMEXE
 40
0.18
  9
$DIMTP
 40
0.0
  9
$DIMTM
 40
0.0
  9
$DIMTXT
 40
0.18
  9
$DIMCEN
 40
0.09
  9
$DIMTSZ
 40
0.0
  9
$DIMTOL
 70
     0
  9
$DIMLIM
 70
     0
  9
$DIMTIH
 70
     1
  9
$DIMTOH
 70
     1
  9
$DIMSE1
 70
     0
  9
$DIMSE2
 70
     0
  9
$DIMTAD
 70
     0
  9
$DIMZIN
 70
     0
  9
$DIMBLK
  1

  9
$DIMASO
 70
     1
  9
$DIMSHO
 70
     1
  9
$DIMPOST
  1

  9
$DIMAPOST
  1

  9
$DIMALT
 70
     0
  9
$DIMALTD
 70
     2
  9
$DIMALTF
 40
25.4
  9
$DIMLFAC
 40
1.0
  9
$DIMTOFL
 70
     0
  9
$DIMTVP
 40
0.0
  9
$DIMTIX
 70
     0
  9
$DIMSOXD
 70
     0
  9
$DIMSAH
 70
     0
  9
$DIMBLK1
  1

  9
$DIMBLK2
  1

  9
$DIMSTYLE
  2
STANDARD
  9
$DIMCLRD
 70
     0
  9
$DIMCLRE
 70
     0
  9
$DIMCLRT
 70
     0
  9
$DIMTFAC
 40
1.0
  9
$DIMGAP
 40
0.09
  9
$LUNITS
 70
     2
  9
$LUPREC
 70
     4
  9
$SKETCHINC
 40
0.1
  9
$FILLETRAD
 40
0.5
  9
$AUNITS
 70
     0
  9
$AUPREC
 70
     0
  9
$MENU
  1
.
  9
$ELEVATION
 40
0.0
  9
$PELEVATION
 40
0.0
  9
$THICKNESS
 40
0.0
  9
$LIMCHECK
 70
     0
  9
$CHAMFERA
 40
0.5
  9
$CHAMFERB
 40
0.5
  9
$SKPOLY
 70
     0
  9
$TDCREATE
 40
2455615.446052083
  9
$TDUPDATE
 40
2455615.446052083
  9
$TDINDWG
 40
0.0000000116
  9
$TDUSRTIMER
 40
0.0000000116
  9
$USRTIMER
 70
     1
  9
$ANGBASE
 50
0.0
  9
$ANGDIR
 70
     0
  9
$PDMODE
 70
     0
  9
$PDSIZE
 40
0.0
  9
$PLINEWID
 40
0.0
  9
$COORDS
 70
     1
  9
$SPLFRAME
 70
     0
  9
$SPLINETYPE
 70
     6
  9
$SPLINESEGS
 70
     8
  9
$ATTDIA
 70
     0
  9
$ATTREQ
 70
     1
  9
$HANDLING
 70
     1
  9
$HANDSEED
  5
567
  9
$SURFTAB1
 70
     6
  9
$SURFTAB2
 70
     6
  9
$SURFTYPE
 70
     6
  9
$SURFU
 70
     6
  9
$SURFV
 70
     6
  9
$UCSNAME
  2

  9
$UCSORG
 10
0.0
 20
0.0
 30
0.0
  9
$UCSXDIR
 10
1.0
 20
0.0
 30
0.0
  9
$UCSYDIR
 10
0.0
 20
1.0
 30
0.0
  9
$PUCSNAME
  2

  9
$PUCSORG
 10
0.0
 20
0.0
 30
0.0
  9
$PUCSXDIR
 10
1.0
 20
0.0
 30
0.0
  9
$PUCSYDIR
 10
0.0
 20
1.0
 30
0.0
  9
$USERI1
 70
     0
  9
$USERI2
 70
     0
  9
$USERI3
 70
     0
  9
$USERI4
 70
     0
  9
$USERI5
 70
     0
  9
$USERR1
 40
0.0
  9
$USERR2
 40
0.0
  9
$USERR3
 40
0.0
  9
$USERR4
 40
0.0
  9
$USERR5
 40
0.0
  9
$WORLDVIEW
 70
     1
  9
$SHADEDGE
 70
     3
  9
$SHADEDIF
 70
    70
  9
$TILEMODE
 70
     1
  9
$MAXACTVP
 70
    64
  9
$PLIMCHECK
 70
     0
  9
$PEXTMIN
 10
1.000000000000000E+20
 20
1.000000000000000E+20
 30
1.000000000000000E+20
  9
$PEXTMAX
 10
-1.000000000000000E+20
 20
-1.000000000000000E+20
 30
-1.000000000000000E+20
  9
$PLIMMIN
 10
0.0
 20
0.0
  9
$PLIMMAX
 10
12.0
 20
9.0
  9
$UNITMODE
 70
     0
  9
$VISRETAIN
 70
     1
  9
$PLINEGEN
 70
     0
  9
$PSLTSCALE
 70
     1
  0
ENDSEC
  0
SECTION
  2
TABLES
  0
TABLE
  2
VPORT
 70
     1
  0
VPORT
  2
*ACTIVE
 70
     0
 10
0.0
 20
0.0
 11
1.0
 21
1.0
 12
0.0
 22
0.0
 13
0.0
 23
0.0
 14
0.5
 24
0.5
 15
0.5
 25
0.5
 16
375.0094604492188
 26
-375.0094604492188
 36
375.0094604492188
 17
101.8899536132812
 27
0.0047607421875
 37
111.7181396484375
 40
487.5632408131632
 41
1.972972972850329
 42
50.0
 43
0.0
 44
0.0
 50
0.0
 51
0.0
 71
     0
 72
   100
 73
     1
 74
     3
 75
     0
 76
     0
 77
     0
 78
     0
  0
ENDTAB
  0
TABLE
  2
LTYPE
 70
     1
  0
LTYPE
  2
CONTINUOUS
 70
     0
  3
Solid line
 72
    65
 73
     0
 40
0.0
  0
ENDTAB
  0
TABLE
  2
LAYER
 70
     2
  0
LAYER
  2
0
 70
     0
 62
     7
  6
CONTINUOUS
  0
LAYER
  2
LAYER_1
 70
     0
 62
     7
  6
CONTINUOUS
  0
ENDTAB
  0
TABLE
  2
STYLE
 70
     1
  0
STYLE
  2
STANDARD
 70
     0
 40
0.0
 41
1.0
 50
0.0
 71
     0
 42
0.2
  3
txt
  4

  0
ENDTAB
  0
TABLE
  2
VIEW
 70
     0
  0
ENDTAB
  0
TABLE
  2
UCS
 70
     0
  0
ENDTAB
  0
TABLE
  2
APPID
 70
     1
  0
APPID
  2
ACAD
 70
     0
  0
ENDTAB
  0
TABLE
  2
DIMSTYLE
 70
     1
  0
DIMSTYLE
  2
STANDARD
 70
     0
  3

  4

  5

  6

  7

 40
1.0
 41
0.18
 42
0.0625
 43
0.38
 44
0.18
 45
0.0
 46
0.0
 47
0.0
 48
0.0
140
0.18
141
0.09
142
0.0
143
25.4
144
1.0
145
0.0
146
1.0
147
0.09
 71
     0
 72
     0
 73
     1
 74
     1
 75
     0
 76
     0
 77
     0
 78
     0
170
     0
171
     2
172
     0
173
     0
174
     0
175
     0
176
     0
177
     0
178
     0
  0
ENDTAB
  0
ENDSEC
  0
SECTION
  2
BLOCKS
  0
BLOCK
  8
0
  2
$MODEL_SPACE
 70
     0
 10
0.0
 20
0.0
 30
0.0
  3
$MODEL_SPACE
  1

  0
ENDBLK
  5
21
  8
0
  0
BLOCK
 67
     1
  8
0
  2
$PAPER_SPACE
 70
     0
 10
0.0
 20
0.0
 30
0.0
  3
$PAPER_SPACE
  1

  0
ENDBLK
  5
1D
 67
     1
  8
0
  0
BLOCK
  8
0
  2
1
 70
     0
 10
0.0
 20
0.0
 30
0.0
  3
1
  1

  0
POLYLINE
  5
3C
  8
0
 62
     9
 66
     1
 10
0.0
 20
0.0
 30
0.0
 70
    64
 71
    61
 72
   118
  0
VERTEX
  5
3D
  8
0
 10
104.6145935058594
 20
10.96750450134277
 30
124.5633163452148
 70
   192
  0
VERTEX
  5
3E
  8
0
 10
104.6145935058594
 20
13.65201187133789
 30
130.1868743896484
 70
   192
  0
VERTEX
  5
3F
  8
0
 10
105.1145935058594
 20
13.40128707885742
 30
127.7023315429688
 70
   192
  0
VERTEX
  5
40
  8
0
 10
105.1145935058594
 20
14.5
 30
133.2483367919922
 70
   192
  0
VERTEX
  5
41
  8
0
 10
104.6145935058594
 20
13.63213157653809
 30
136.40966796875
 70
   192
  0
VERTEX
  5
42
  8
0
 10
105.1145935058594
 20
10.25058078765869
 30
122.9820404052734
 70
   192
  0
VERTEX
  5
43
  8
0
 10
104.6145935058594
 20
6.098679065704346
 30
120.6553192138672
 70
   192
  0
VERTEX
  5
44
  8
0
 10
105.1145935058594
 20
5.468576908111572
 30
120.0326309204102
 70
   192
  0
VERTEX
  5
45
  8
0
 10
104.6145935058594
 20
0.0000000000349026
 30
119.2483367919922
 70
   192
  0
VERTEX
  5
46
  8
0
 10
105.1145935058594
 20
0.0000000000349009
 30
118.7483367919922
 70
   192
  0
VERTEX
  5
47
  8
0
 10
105.1145935058594
 20
13.37674140930176
 30
138.8218841552734
 70
   192
  0
VERTEX
  5
48
  8
0
 10
104.6145935058594
 20
10.92036819458008
 30
142.0039215087891
 70
   192
  0
VERTEX
  5
49
  8
0
 10
105.1145935058594
 20
10.21191024780273
 30
143.4444274902344
 70
   192
  0
VERTEX
  5
4A
  8
0
 10
104.6145935058594
 20
6.05634069442749
 30
145.8696441650391
 70
   192
  0
VERTEX
  5
4B
  8
0
 10
105.1145935058594
 20
5.407266139984131
 30
146.6479797363281
 70
   192
  0
VERTEX
  5
4C
  8
0
 10
104.6145935058594
 20
0.0000000000348947
 30
147.2483367919922
 70
   192
  0
VERTEX
  5
4D
  8
0
 10
105.1145935058594
 20
0.0000000000348891
 30
147.7483367919922
 70
   192
  0
VERTEX
  5
4E
  8
0
 10
228.4631500244141
 20
7.156291961669922
 30
145.8510437011719
 70
   192
  0
VERTEX
  5
4F
  8
0
 10
228.7795715332031
 20
1.394146800041199
 30
147.6735992431641
 70
   192
  0
VERTEX
  5
50
  8
0
 10
229.2798919677734
 20
1.374018907546997
 30
147.1769714355469
 70
   192
  0
VERTEX
  5
51
  8
0
 10
225.7459869384766
 20
-14.15560150146484
 30
130.1068572998047
 70
   192
  0
VERTEX
  5
52
  8
0
 10
226.2270812988281
 20
-13.75368118286133
 30
130.1097106933594
 70
   192
  0
VERTEX
  5
53
  8
0
 10
226.2899932861328
 20
-14.50000095367432
 30
133.2483367919922
 70
   192
  0
VERTEX
  5
54
  8
0
 10
228.6468048095703
 20
9.390409469604492
 30
143.6484832763672
 70
   192
  0
VERTEX
  5
55
  8
0
 10
227.7730407714844
 20
11.66408634185791
 30
141.8535614013672
 70
   192
  0
VERTEX
  5
56
  8
0
 10
227.3185882568359
 20
13.75357532501221
 30
136.2143402099609
 70
   192
  0
VERTEX
  5
57
  8
0
 10
226.8307647705078
 20
14.15546321868896
 30
136.3904571533203
 70
   192
  0
VERTEX
  5
58
  8
0
 10
228.6607208251953
 20
-4.608330249786377
 30
146.9900207519531
 70
   192
  0
VERTEX
  5
59
  8
0
 10
228.1327362060547
 20
-9.791693687438965
 30
143.9380187988281
 70
   192
  0
VERTEX
  5
5A
  8
0
 10
228.9393463134766
 20
-7.160739421844482
 30
145.2825012207031
 70
   192
  0
VERTEX
  5
5B
  8
0
 10
227.7748413085938
 20
-12.9208288192749
 30
138.7684173583984
 70
   192
  0
VERTEX
  5
5C
  8
0
 10
227.2942962646484
 20
-13.27548694610596
 30
139.0777435302734
 70
   192
  0
VERTEX
  5
5D
  8
0
 10
105.1145935058594
 20
-5.573539257049561
 30
119.8715972900391
 70
   192
  0
VERTEX
  5
5E
  8
0
 10
223.798583984375
 20
-1.472092390060425
 30
118.8289260864258
 70
   192
  0
VERTEX
  5
5F
  8
0
 10
224.1169586181641
 20
-7.215751647949219
 30
120.6754379272461
 70
   192
  0
VERTEX
  5
60
  8
0
 10
224.8071594238281
 20
-11.69094371795654
 30
124.6730880737305
 70
   192
  0
VERTEX
  5
61
  8
0
 10
105.1145935058594
 20
-10.19608306884766
 30
123.0364303588867
 70
   192
  0
VERTEX
  5
62
  8
0
 10
105.1145935058594
 20
-13.39964389801025
 30
127.8410720825195
 70
   192
  0
VERTEX
  5
63
  8
0
 10
105.1145935058594
 20
-14.5
 30
133.2483367919922
 70
   192
  0
VERTEX
  5
64
  8
0
 10
223.9120025634766
 20
4.536904811859131
 30
119.4833068847656
 70
   192
  0
VERTEX
  5
65
  8
0
 10
224.4355773925781
 20
9.745990753173828
 30
122.5208587646484
 70
   192
  0
VERTEX
  5
66
  8
0
 10
225.2765655517578
 20
13.25835037231445
 30
127.3897933959961
 70
   192
  0
VERTEX
  5
67
  8
0
 10
226.2899932861328
 20
14.5
 30
133.2483367919922
 70
   192
  0
VERTEX
  5
68
  8
0
 10
228.596435546875
 20
4.808261871337891
 30
137.727294921875
 70
   192
  0
VERTEX
  5
69
  8
0
 10
226.8877716064453
 20
4.80803394317627
 30
128.1914520263672
 70
   192
  0
VERTEX
  5
6A
  8
0
 10
225.7879943847656
 20
12.95609664916992
 30
127.6538925170898
 70
   192
  0
VERTEX
  5
6B
  8
0
 10
224.6111755371094
 20
7.233575820922852
 30
121.0766448974609
 70
   192
  0
VERTEX
  5
6C
  8
0
 10
226.8927917480469
 20
-4.725152969360352
 30
128.1905059814453
 70
   192
  0
VERTEX
  5
6D
  8
0
 10
224.2666473388672
 20
-1.293296456336975
 30
119.1459655761719
 70
   192
  0
VERTEX
  5
6E
  8
0
 10
224.8832397460938
 20
-9.315858840942383
 30
122.5988311767578
 70
   192
  0
VERTEX
  5
6F
  8
0
 10
228.6014862060547
 20
-4.725321769714355
 30
137.7265014648438
 70
   192
  0
VERTEX
  5
70
  8
0
 10
105.1145935058594
 20
-13.21571159362793
 30
138.7169189453125
 70
   192
  0
VERTEX
  5
71
  8
0
 10
105.1145935058594
 20
-5.54600715637207
 30
146.6496276855469
 70
   192
  0
VERTEX
  5
72
  8
0
 10
105.1145935058594
 20
-10.26630020141602
 30
143.4989166259766
 70
   192
  0
VERTEX
  5
73
  8
0
 10
104.6145935058594
 20
-9.912555694580078
 30
123.3516693115234
 70
   192
  0
VERTEX
  5
74
  8
0
 10
104.6145935058594
 20
-12.94200611114502
 30
127.9090347290039
 70
   192
  0
VERTEX
  5
75
  8
0
 10
104.6145935058594
 20
-5.308189392089844
 30
120.4534149169922
 70
   192
  0
VERTEX
  5
76
  8
0
 10
104.6145935058594
 20
-14.0
 30
133.2483367919922
 70
   192
  0
VERTEX
  5
77
  8
0
 10
104.6145935058594
 20
-5.335576057434082
 30
146.1716461181641
 70
   192
  0
VERTEX
  5
78
  8
0
 10
104.6145935058594
 20
-12.92846775054932
 30
138.6198425292969
 70
   192
  0
VERTEX
  5
79
  8
0
 10
104.6145935058594
 20
-9.85977554321289
 30
143.0928344726562
 70
   192
  0
VERTEX
  5
7A
  8
0
 62
     9
 10
0.0
 20
0.0
 30
0.0
 70
   128
 71
     3
 72
     2
 73
     1
  0
VERTEX
  5
7B
  8
0
 62
     9
 10
0.0
 20
0.0
 30
0.0
 70
   128
 71
     5
 72
     2
 73
     4
  0
VERTEX
  5
7C
  8
0
 62
     9
 10
0.0
 20
0.0
 30
0.0
 70
   128
 71
     1
 72
     7
 73
     6
  0
VERTEX
  5
7D
  8
0
 62
     9
 10
0.0
 20
0.0
 30
0.0
 70
   128
 71
     6
 72
     3
 73
     1
  0
VERTEX
  5
7E
  8
0
 62
     9
 10
0.0
 20
0.0
 30
0.0
 70
   128
 71
     2
 72
     3
 73
     4
  0
VERTEX
  5
7F
  8
0
 62
     9
 10
0.0
 20
0.0
 30
0.0
 70
   128
 71
     6
 72
     7
 73
     8
  0
VERTEX
  5
80
  8
0
 62
     9
 10
0.0
 20
0.0
 30
0.0
 70
   128
 71
     7
 72
     9
 73
     8
  0
VERTEX
  5
81
  8
0
 62
     9
 10
0.0
 20
0.0
 30
0.0
 70
   128
 71
     9
 72
    10
 73
     8
  0
VERTEX
  5
82
  8
0
 62
     9
 10
0.0
 20
0.0
 30
0.0
 70
   128
 71
    11
 72
     5
 73
     4
  0
VERTEX
  5
83
  8
0
 62
     9
 10
0.0
 20
0.0
 30
0.0
 70
   128
 71
    11
 72
    13
 73
    12
  0
VERTEX
  5
84
  8
0
 62
     9
 10
0.0
 20
0.0
 30
0.0
 70
   128
 71
    12
 72
     5
 73
    11
  0
VERTEX
  5
85
  8
0
 62
     9
 10
0.0
 20
0.0
 30
0.0
 70
   128
 71
    15
 72
    14
 73
    13
  0
VERTEX
  5
86
  8
0
 62
     9
 10
0.0
 20
0.0
 30
0.0
 70
   128
 71
    12
 72
    13
 73
    14
  0
VERTEX
  5
87
  8
0
 62
     9
 10
0.0
 20
0.0
 30
0.0
 70
   128
 71
    15
 72
    16
 73
    14
  0
VERTEX
  5
88
  8
0
 62
     9
 10
0.0
 20
0.0
 30
0.0
 70
   128
 71
    17
 72
    16
 73
    15
  0
VERTEX
  5
89
  8
0
 62
     9
 10
0.0
 20
0.0
 30
0.0
 70
   128
 71
    20
 72
    19
 73
    18
  0
VERTEX
  5
8A
  8
0
 62
     9
 10
0.0
 20
0.0
 30
0.0
 70
   128
 71
    23
 72
    22
 73
    21
  0
VERTEX
  5
8B
  8
0
 62
     9
 10
0.0
 20
0.0
 30
0.0
 70
   128
 71
    18
 72
    25
 73
    24
  0
VERTEX
  5
8C
  8
0
 62
     9
 10
0.0
 20
0.0
 30
0.0
 70
   128
 71
    24
 72
    20
 73
    18
  0
VERTEX
  5
8D
  8
0
 62
     9
 10
0.0
 20
0.0
 30
0.0
 70
   128
 71
    24
 72
    25
 73
    26
  0
VERTEX
  5
8E
  8
0
 62
     9
 10
0.0
 20
0.0
 30
0.0
 70
   128
 71
    27
 72
    26
 73
    25
  0
VERTEX
  5
8F
  8
0
 62
     9
 10
0.0
 20
0.0
 30
0.0
 70
   128
 71
    28
 72
    19
 73
    20
  0
VERTEX
  5
90
  8
0
 62
     9
 10
0.0
 20
0.0
 30
0.0
 70
   128
 71
    30
 72
    29
 73
    28
  0
VERTEX
  5
91
  8
0
 62
     9
 10
0.0
 20
0.0
 30
0.0
 70
   128
 71
    28
 72
    20
 73
    30
  0
VERTEX
  5
92
  8
0
 62
     9
 10
0.0
 20
0.0
 30
0.0
 70
   128
 71
    32
 72
    29
 73
    31
  0
VERTEX
  5
93
  8
0
 62
     9
 10
0.0
 20
0.0
 30
0.0
 70
   128
 71
    30
 72
    31
 73
    29
  0
VERTEX
  5
94
  8
0
 62
     9
 10
0.0
 20
0.0
 30
0.0
 70
   128
 71
    31
 72
    23
 73
    32
  0
VERTEX
  5
95
  8
0
 62
     9
 10
0.0
 20
0.0
 30
0.0
 70
   128
 71
    22
 72
    23
 73
    31
  0
VERTEX
  5
96
  8
0
 62
     9
 10
0.0
 20
0.0
 30
0.0
 70
   128
 71
    35
 72
    34
 73
    33
  0
VERTEX
  5
97
  8
0
 62
     9
 10
0.0
 20
0.0
 30
0.0
 70
   128
 71
    33
 72
    34
 73
    10
  0
VERTEX
  5
98
  8
0
 62
     9
 10
0.0
 20
0.0
 30
0.0
 70
   128
 71
    35
 72
    37
 73
    36
  0
VERTEX
  5
99
  8
0
 62
     9
 10
0.0
 20
0.0
 30
0.0
 70
   128
 71
    37
 72
    35
 73
    33
  0
VERTEX
  5
9A
  8
0
 62
     9
 10
0.0
 20
0.0
 30
0.0
 70
   128
 71
    38
 72
    21
 73
    36
  0
VERTEX
  5
9B
  8
0
 62
     9
 10
0.0
 20
0.0
 30
0.0
 70
   128
 71
    36
 72
    37
 73
    38
  0
VERTEX
  5
9C
  8
0
 62
     9
 10
0.0
 20
0.0
 30
0.0
 70
   128
 71
    39
 72
    23
 73
    21
  0
VERTEX
  5
9D
  8
0
 62
     9
 10
0.0
 20
0.0
 30
0.0
 70
   128
 71
    39
 72
    21
 73
    38
  0
VERTEX
  5
9E
  8
0
 62
     9
 10
0.0
 20
0.0
 30
0.0
 70
   128
 71
    10
 72
    34
 73
    40
  0
VERTEX
  5
9F
  8
0
 62
     9
 10
0.0
 20
0.0
 30
0.0
 70
   128
 71
    40
 72
    41
 73
     8
  0
VERTEX
  5
A0
  8
0
 62
     9
 10
0.0
 20
0.0
 30
0.0
 70
   128
 71
     8
 72
    10
 73
    40
  0
VERTEX
  5
A1
  8
0
 62
     9
 10
0.0
 20
0.0
 30
0.0
 70
   128
 71
    42
 72
     6
 73
    41
  0
VERTEX
  5
A2
  8
0
 62
     9
 10
0.0
 20
0.0
 30
0.0
 70
   128
 71
     8
 72
    41
 73
     6
  0
VERTEX
  5
A3
  8
0
 62
     9
 10
0.0
 20
0.0
 30
0.0
 70
   128
 71
     3
 72
    42
 73
    43
  0
VERTEX
  5
A4
  8
0
 62
     9
 10
0.0
 20
0.0
 30
0.0
 70
   128
 71
    42
 72
     3
 73
     6
  0
VERTEX
  5
A5
  8
0
 62
     9
 10
0.0
 20
0.0
 30
0.0
 70
   128
 71
     4
 72
     3
 73
    43
  0
VERTEX
  5
A6
  8
0
 62
     9
 10
0.0
 20
0.0
 30
0.0
 70
   128
 71
    26
 72
    45
 73
    44
  0
VERTEX
  5
A7
  8
0
 62
     9
 10
0.0
 20
0.0
 30
0.0
 70
   128
 71
    47
 72
    45
 73
    46
  0
VERTEX
  5
A8
  8
0
 62
     9
 10
0.0
 20
0.0
 30
0.0
 70
   128
 71
    49
 72
    48
 73
    45
  0
VERTEX
  5
A9
  8
0
 62
     9
 10
0.0
 20
0.0
 30
0.0
 70
   128
 71
    20
 72
    24
 73
    44
  0
VERTEX
  5
AA
  8
0
 62
     9
 10
0.0
 20
0.0
 30
0.0
 70
   128
 71
    26
 72
    44
 73
    24
  0
VERTEX
  5
AB
  8
0
 62
     9
 10
0.0
 20
0.0
 30
0.0
 70
   128
 71
    22
 72
    48
 73
    50
  0
VERTEX
  5
AC
  8
0
 62
     9
 10
0.0
 20
0.0
 30
0.0
 70
   128
 71
    26
 72
    46
 73
    45
  0
VERTEX
  5
AD
  8
0
 62
     9
 10
0.0
 20
0.0
 30
0.0
 70
   128
 71
    51
 72
    48
 73
    22
  0
VERTEX
  5
AE
  8
0
 62
     9
 10
0.0
 20
0.0
 30
0.0
 70
   128
 71
    20
 72
    51
 73
    30
  0
VERTEX
  5
AF
  8
0
 62
     9
 10
0.0
 20
0.0
 30
0.0
 70
   128
 71
    51
 72
    31
 73
    30
  0
VERTEX
  5
B0
  8
0
 62
     9
 10
0.0
 20
0.0
 30
0.0
 70
   128
 71
    51
 72
    22
 73
    31
  0
VERTEX
  5
B1
  8
0
 62
     9
 10
0.0
 20
0.0
 30
0.0
 70
   128
 71
    45
 72
    47
 73
    49
  0
VERTEX
  5
B2
  8
0
 62
     9
 10
0.0
 20
0.0
 30
0.0
 70
   128
 71
    51
 72
    44
 73
    45
  0
VERTEX
  5
B3
  8
0
 62
     9
 10
0.0
 20
0.0
 30
0.0
 70
   128
 71
    20
 72
    44
 73
    51
  0
VERTEX
  5
B4
  8
0
 62
     9
 10
0.0
 20
0.0
 30
0.0
 70
   128
 71
    50
 72
    48
 73
    49
  0
VERTEX
  5
B5
  8
0
 62
     9
 10
0.0
 20
0.0
 30
0.0
 70
   128
 71
    48
 72
    51
 73
    45
  0
VERTEX
  5
B6
  8
0
 62
     9
 10
0.0
 20
0.0
 30
0.0
 70
   128
 71
    32
 72
    23
 73
    52
  0
VERTEX
  5
B7
  8
0
 62
     9
 10
0.0
 20
0.0
 30
0.0
 70
   128
 71
    19
 72
    17
 73
    15
  0
VERTEX
  5
B8
  8
0
 62
     9
 10
0.0
 20
0.0
 30
0.0
 70
   128
 71
    54
 72
    53
 73
    29
  0
VERTEX
  5
B9
  8
0
 62
     9
 10
0.0
 20
0.0
 30
0.0
 70
   128
 71
    25
 72
    13
 73
    11
  0
VERTEX
  5
BA
  8
0
 62
     9
 10
0.0
 20
0.0
 30
0.0
 70
   128
 71
    13
 72
    18
 73
    15
  0
VERTEX
  5
BB
  8
0
 62
     9
 10
0.0
 20
0.0
 30
0.0
 70
   128
 71
    11
 72
     4
 73
    27
  0
VERTEX
  5
BC
  8
0
 62
     9
 10
0.0
 20
0.0
 30
0.0
 70
   128
 71
    27
 72
    25
 73
    11
  0
VERTEX
  5
BD
  8
0
 62
     9
 10
0.0
 20
0.0
 30
0.0
 70
   128
 71
    27
 72
     4
 73
    43
  0
VERTEX
  5
BE
  8
0
 62
     9
 10
0.0
 20
0.0
 30
0.0
 70
   128
 71
    19
 72
    15
 73
    18
  0
VERTEX
  5
BF
  8
0
 62
     9
 10
0.0
 20
0.0
 30
0.0
 70
   128
 71
    25
 72
    18
 73
    13
  0
VERTEX
  5
C0
  8
0
 62
     9
 10
0.0
 20
0.0
 30
0.0
 70
   128
 71
    28
 72
    53
 73
    17
  0
VERTEX
  5
C1
  8
0
 62
     9
 10
0.0
 20
0.0
 30
0.0
 70
   128
 71
    19
 72
    28
 73
    17
  0
VERTEX
  5
C2
  8
0
 62
     9
 10
0.0
 20
0.0
 30
0.0
 70
   128
 71
    32
 72
    54
 73
    29
  0
VERTEX
  5
C3
  8
0
 62
     9
 10
0.0
 20
0.0
 30
0.0
 70
   128
 71
    29
 72
    53
 73
    28
  0
VERTEX
  5
C4
  8
0
 62
     9
 10
0.0
 20
0.0
 30
0.0
 70
   128
 71
    39
 72
    52
 73
    23
  0
VERTEX
  5
C5
  8
0
 62
     9
 10
0.0
 20
0.0
 30
0.0
 70
   128
 71
    52
 72
    54
 73
    32
  0
VERTEX
  5
C6
  8
0
 62
     9
 10
0.0
 20
0.0
 30
0.0
 70
   128
 71
     2
 72
     5
 73
     9
  0
VERTEX
  5
C7
  8
0
 62
     9
 10
0.0
 20
0.0
 30
0.0
 70
   128
 71
    14
 72
    56
 73
    55
  0
VERTEX
  5
C8
  8
0
 62
     9
 10
0.0
 20
0.0
 30
0.0
 70
   128
 71
     1
 72
     2
 73
     7
  0
VERTEX
  5
C9
  8
0
 62
     9
 10
0.0
 20
0.0
 30
0.0
 70
   128
 71
     5
 72
    57
 73
     9
  0
VERTEX
  5
CA
  8
0
 62
     9
 10
0.0
 20
0.0
 30
0.0
 70
   128
 71
     2
 72
     9
 73
     7
  0
VERTEX
  5
CB
  8
0
 62
     9
 10
0.0
 20
0.0
 30
0.0
 70
   128
 71
    12
 72
    57
 73
     5
  0
VERTEX
  5
CC
  8
0
 62
     9
 10
0.0
 20
0.0
 30
0.0
 70
   128
 71
    14
 72
    55
 73
    12
  0
VERTEX
  5
CD
  8
0
 62
     9
 10
0.0
 20
0.0
 30
0.0
 70
   128
 71
    57
 72
    12
 73
    55
  0
VERTEX
  5
CE
  8
0
 62
     9
 10
0.0
 20
0.0
 30
0.0
 70
   128
 71
    14
 72
    16
 73
    56
  0
VERTEX
  5
CF
  8
0
 62
     9
 10
0.0
 20
0.0
 30
0.0
 70
   128
 71
    16
 72
    58
 73
    56
  0
VERTEX
  5
D0
  8
0
 62
     9
 10
0.0
 20
0.0
 30
0.0
 70
   128
 71
    61
 72
    60
 73
    59
  0
VERTEX
  5
D1
  8
0
 62
     9
 10
0.0
 20
0.0
 30
0.0
 70
   128
 71
    60
 72
    58
 73
    16
  0
VERTEX
  5
D2
  8
0
 62
     9
 10
0.0
 20
0.0
 30
0.0
 70
   128
 71
    16
 72
    59
 73
    60
  0
VERTEX
  5
D3
  8
0
 62
     9
 10
0.0
 20
0.0
 30
0.0
 70
   128
 71
    43
 72
    42
 73
    46
  0
VERTEX
  5
D4
  8
0
 62
     9
 10
0.0
 20
0.0
 30
0.0
 70
   128
 71
    49
 72
    47
 73
    40
  0
VERTEX
  5
D5
  8
0
 62
     9
 10
0.0
 20
0.0
 30
0.0
 70
   128
 71
    50
 72
    36
 73
    22
  0
VERTEX
  5
D6
  8
0
 62
     9
 10
0.0
 20
0.0
 30
0.0
 70
   128
 71
    36
 72
    50
 73
    35
  0
VERTEX
  5
D7
  8
0
 62
     9
 10
0.0
 20
0.0
 30
0.0
 70
   128
 71
    22
 72
    36
 73
    21
  0
VERTEX
  5
D8
  8
0
 62
     9
 10
0.0
 20
0.0
 30
0.0
 70
   128
 71
    49
 72
    35
 73
    50
  0
VERTEX
  5
D9
  8
0
 62
     9
 10
0.0
 20
0.0
 30
0.0
 70
   128
 71
    40
 72
    34
 73
    49
  0
VERTEX
  5
DA
  8
0
 62
     9
 10
0.0
 20
0.0
 30
0.0
 70
   128
 71
    49
 72
    34
 73
    35
  0
VERTEX
  5
DB
  8
0
 62
     9
 10
0.0
 20
0.0
 30
0.0
 70
   128
 71
    47
 72
    41
 73
    40
  0
VERTEX
  5
DC
  8
0
 62
     9
 10
0.0
 20
0.0
 30
0.0
 70
   128
 71
    41
 72
    46
 73
    42
  0
VERTEX
  5
DD
  8
0
 62
     9
 10
0.0
 20
0.0
 30
0.0
 70
   128
 71
    46
 72
    41
 73
    47
  0
VERTEX
  5
DE
  8
0
 62
     9
 10
0.0
 20
0.0
 30
0.0
 70
   128
 71
    43
 72
    26
 73
    27
  0
VERTEX
  5
DF
  8
0
 62
     9
 10
0.0
 20
0.0
 30
0.0
 70
   128
 71
    26
 72
    43
 73
    46
  0
VERTEX
  5
E0
  8
0
 62
     9
 10
0.0
 20
0.0
 30
0.0
 70
   128
 71
    37
 72
    55
 73
    38
  0
VERTEX
  5
E1
  8
0
 62
     9
 10
0.0
 20
0.0
 30
0.0
 70
   128
 71
    58
 72
    39
 73
    56
  0
VERTEX
  5
E2
  8
0
 62
     9
 10
0.0
 20
0.0
 30
0.0
 70
   128
 71
    33
 72
    10
 73
     9
  0
VERTEX
  5
E3
  8
0
 62
     9
 10
0.0
 20
0.0
 30
0.0
 70
   128
 71
    60
 72
    54
 73
    52
  0
VERTEX
  5
E4
  8
0
 62
     9
 10
0.0
 20
0.0
 30
0.0
 70
   128
 71
    53
 72
    61
 73
    59
  0
VERTEX
  5
E5
  8
0
 62
     9
 10
0.0
 20
0.0
 30
0.0
 70
   128
 71
    61
 72
    53
 73
    54
  0
VERTEX
  5
E6
  8
0
 62
     9
 10
0.0
 20
0.0
 30
0.0
 70
   128
 71
    59
 72
    16
 73
    17
  0
VERTEX
  5
E7
  8
0
 62
     9
 10
0.0
 20
0.0
 30
0.0
 70
   128
 71
    17
 72
    53
 73
    59
  0
VERTEX
  5
E8
  8
0
 62
     9
 10
0.0
 20
0.0
 30
0.0
 70
   128
 71
    54
 72
    60
 73
    61
  0
VERTEX
  5
E9
  8
0
 62
     9
 10
0.0
 20
0.0
 30
0.0
 70
   128
 71
    52
 72
    58
 73
    60
  0
VERTEX
  5
EA
  8
0
 62
     9
 10
0.0
 20
0.0
 30
0.0
 70
   128
 71
    52
 72
    39
 73
    58
  0
VERTEX
  5
EB
  8
0
 62
     9
 10
0.0
 20
0.0
 30
0.0
 70
   128
 71
    56
 72
    39
 73
    38
  0
VERTEX
  5
EC
  8
0
 62
     9
 10
0.0
 20
0.0
 30
0.0
 70
   128
 71
    55
 72
    37
 73
    57
  0
VERTEX
  5
ED
  8
0
 62
     9
 10
0.0
 20
0.0
 30
0.0
 70
   128
 71
    38
 72
    55
 73
    56
  0
VERTEX
  5
EE
  8
0
 62
     9
 10
0.0
 20
0.0
 30
0.0
 70
   128
 71
    57
 72
    33
 73
     9
  0
VERTEX
  5
EF
  8
0
 62
     9
 10
0.0
 20
0.0
 30
0.0
 70
   128
 71
    33
 72
    57
 73
    37
  0
SEQEND
  5
F0
  8
0
 62
     9
  0
ENDBLK
  5
F4
  8
0
  0
BLOCK
  8
0
  2
39
 70
     0
 10
0.0
 20
0.0
 30
0.0
  3
39
  1

  0
POLYLINE
  5
F6
  8
0
 62
     9
 66
     1
 10
0.0
 20
0.0
 30
0.0
 70
    64
 71
    48
 72
    70
  0
VERTEX
  5
F7
  8
0
 10
204.8037872314453
 20
11.18188858032227
 30
111.4983367919922
 70
   192
  0
VERTEX
  5
F8
  8
0
 10
201.8145904541016
 20
11.57499980926514
 30
128.4983367919922
 70
   192
  0
VERTEX
  5
F9
  8
0
 10
201.8145904541016
 20
11.57499980926514
 30
111.4983367919922
 70
   192
  0
VERTEX
  5
FA
  8
0
 10
204.8060760498047
 20
11.18097496032715
 30
128.4983367919922
 70
   192
  0
VERTEX
  5
FB
  8
0
 10
207.5955963134766
 20
10.02737140655518
 30
111.4983367919922
 70
   192
  0
VERTEX
  5
FC
  8
0
 10
209.9993591308594
 20
8.184761047363281
 30
111.4983367919922
 70
   192
  0
VERTEX
  5
FD
  8
0
 10
207.6007995605469
 20
10.02997779846191
 30
128.4983367919922
 70
   192
  0
VERTEX
  5
FE
  8
0
 10
211.8350524902344
 20
5.793113708496094
 30
111.4983367919922
 70
   192
  0
VERTEX
  5
FF
  8
0
 10
210.0059051513672
 20
8.186772346496582
 30
128.4983367919922
 70
   192
  0
VERTEX
  5
100
  8
0
 10
211.8431091308594
 20
5.79121208190918
 30
128.4983367919922
 70
   192
  0
VERTEX
  5
101
  8
0
 10
212.9927978515625
 20
3.002632856369019
 30
111.4983367919922
 70
   192
  0
VERTEX
  5
102
  8
0
 10
213.3895874023438
 20
0.0000000000347
 30
111.4983367919922
 70
   192
  0
VERTEX
  5
103
  8
0
 10
212.9999542236328
 20
3.000666856765747
 30
128.4983367919922
 70
   192
  0
VERTEX
  5
104
  8
0
 10
213.3895874023438
 20
0.0000000000346962
 30
128.4983367919922
 70
   192
  0
VERTEX
  5
105
  8
0
 10
198.8107604980469
 20
11.17355728149414
 30
128.4983367919922
 70
   192
  0
VERTEX
  5
106
  8
0
 10
196.0230102539062
 20
10.01129245758057
 30
128.4983367919922
 70
   192
  0
VERTEX
  5
107
  8
0
 10
198.8119659423828
 20
11.1782112121582
 30
111.4983367919922
 70
   192
  0
VERTEX
  5
108
  8
0
 10
193.6323699951172
 20
8.174583435058594
 30
128.4983367919922
 70
   192
  0
VERTEX
  5
109
  8
0
 10
196.021484375
 20
10.02046489715576
 30
111.4983367919922
 70
   192
  0
VERTEX
  5
10A
  8
0
 10
193.6298370361328
 20
8.184761047363281
 30
111.4983367919922
 70
   192
  0
VERTEX
  5
10B
  8
0
 10
191.7924499511719
 20
5.774921894073486
 30
128.4983367919922
 70
   192
  0
VERTEX
  5
10C
  8
0
 10
190.6382141113281
 20
2.98673939704895
 30
128.4983367919922
 70
   192
  0
VERTEX
  5
10D
  8
0
 10
191.7872161865234
 20
5.781006813049316
 30
111.4983367919922
 70
   192
  0
VERTEX
  5
10E
  8
0
 10
190.2395935058594
 20
0.0000000000346995
 30
128.4983367919922
 70
   192
  0
VERTEX
  5
10F
  8
0
 10
190.6334686279297
 20
2.994047880172729
 30
111.4983367919922
 70
   192
  0
VERTEX
  5
110
  8
0
 10
190.2395935058594
 20
0.0000000000347033
 30
111.4983367919922
 70
   192
  0
VERTEX
  5
111
  8
0
 10
212.9957275390625
 20
-2.994047880172729
 30
111.4983367919922
 70
   192
  0
VERTEX
  5
112
  8
0
 10
212.990966796875
 20
-2.98673939704895
 30
128.4983367919922
 70
   192
  0
VERTEX
  5
113
  8
0
 10
204.8172302246094
 20
-11.1782112121582
 30
111.4983367919922
 70
   192
  0
VERTEX
  5
114
  8
0
 10
207.6061706542969
 20
-10.01129245758057
 30
128.4983367919922
 70
   192
  0
VERTEX
  5
115
  8
0
 10
207.6077117919922
 20
-10.02046489715576
 30
111.4983367919922
 70
   192
  0
VERTEX
  5
116
  8
0
 10
211.8367462158203
 20
-5.774921894073486
 30
128.4983367919922
 70
   192
  0
VERTEX
  5
117
  8
0
 10
211.8419647216797
 20
-5.781006813049316
 30
111.4983367919922
 70
   192
  0
VERTEX
  5
118
  8
0
 10
209.9993591308594
 20
-8.184761047363281
 30
111.4983367919922
 70
   192
  0
VERTEX
  5
119
  8
0
 10
198.8254089355469
 20
-11.18188858032227
 30
111.4983367919922
 70
   192
  0
VERTEX
  5
11A
  8
0
 10
196.0335845947266
 20
-10.02737140655518
 30
111.4983367919922
 70
   192
  0
VERTEX
  5
11B
  8
0
 10
198.8231201171875
 20
-11.18097496032715
 30
128.4983367919922
 70
   192
  0
VERTEX
  5
11C
  8
0
 10
204.8184204101562
 20
-11.17355728149414
 30
128.4983367919922
 70
   192
  0
VERTEX
  5
11D
  8
0
 10
201.8145904541016
 20
-11.57499980926514
 30
111.4983367919922
 70
   192
  0
VERTEX
  5
11E
  8
0
 10
201.8145904541016
 20
-11.57499980926514
 30
128.4983367919922
 70
   192
  0
VERTEX
  5
11F
  8
0
 10
193.6298370361328
 20
-8.184761047363281
 30
111.4983367919922
 70
   192
  0
VERTEX
  5
120
  8
0
 10
191.7941284179688
 20
-5.793113708496094
 30
111.4983367919922
 70
   192
  0
VERTEX
  5
121
  8
0
 10
193.6232757568359
 20
-8.186772346496582
 30
128.4983367919922
 70
   192
  0
VERTEX
  5
122
  8
0
 10
196.0283813476562
 20
-10.02997779846191
 30
128.4983367919922
 70
   192
  0
VERTEX
  5
123
  8
0
 10
190.6363830566406
 20
-3.002632856369019
 30
111.4983367919922
 70
   192
  0
VERTEX
  5
124
  8
0
 10
191.7860870361328
 20
-5.79121208190918
 30
128.4983367919922
 70
   192
  0
VERTEX
  5
125
  8
0
 10
190.6292266845703
 20
-3.000666856765747
 30
128.4983367919922
 70
   192
  0
VERTEX
  5
126
  8
0
 10
209.9968109130859
 20
-8.174583435058594
 30
128.4983367919922
 70
   192
  0
VERTEX
  5
127
  8
0
 62
     9
 10
0.0
 20
0.0
 30
0.0
 70
   128
 71
     3
 72
     2
 73
     1
  0
VERTEX
  5
128
  8
0
 62
     9
 10
0.0
 20
0.0
 30
0.0
 70
   128
 71
     5
 72
     1
 73
     4
  0
VERTEX
  5
129
  8
0
 62
     9
 10
0.0
 20
0.0
 30
0.0
 70
   128
 71
     2
 72
     4
 73
     1
  0
VERTEX
  5
12A
  8
0
 62
     9
 10
0.0
 20
0.0
 30
0.0
 70
   128
 71
     7
 72
     6
 73
     5
  0
VERTEX
  5
12B
  8
0
 62
     9
 10
0.0
 20
0.0
 30
0.0
 70
   128
 71
     5
 72
     4
 73
     7
  0
VERTEX
  5
12C
  8
0
 62
     9
 10
0.0
 20
0.0
 30
0.0
 70
   128
 71
     6
 72
     9
 73
     8
  0
VERTEX
  5
12D
  8
0
 62
     9
 10
0.0
 20
0.0
 30
0.0
 70
   128
 71
     9
 72
     6
 73
     7
  0
VERTEX
  5
12E
  8
0
 62
     9
 10
0.0
 20
0.0
 30
0.0
 70
   128
 71
    11
 72
     8
 73
    10
  0
VERTEX
  5
12F
  8
0
 62
     9
 10
0.0
 20
0.0
 30
0.0
 70
   128
 71
     9
 72
    10
 73
     8
  0
VERTEX
  5
130
  8
0
 62
     9
 10
0.0
 20
0.0
 30
0.0
 70
   128
 71
    13
 72
    12
 73
    11
  0
VERTEX
  5
131
  8
0
 62
     9
 10
0.0
 20
0.0
 30
0.0
 70
   128
 71
    11
 72
    10
 73
    13
  0
VERTEX
  5
132
  8
0
 62
     9
 10
0.0
 20
0.0
 30
0.0
 70
   128
 71
    14
 72
    12
 73
    13
  0
VERTEX
  5
133
  8
0
 62
     9
 10
0.0
 20
0.0
 30
0.0
 70
   128
 71
    15
 72
     2
 73
     3
  0
VERTEX
  5
134
  8
0
 62
     9
 10
0.0
 20
0.0
 30
0.0
 70
   128
 71
    17
 72
    16
 73
    15
  0
VERTEX
  5
135
  8
0
 62
     9
 10
0.0
 20
0.0
 30
0.0
 70
   128
 71
    15
 72
     3
 73
    17
  0
VERTEX
  5
136
  8
0
 62
     9
 10
0.0
 20
0.0
 30
0.0
 70
   128
 71
    16
 72
    19
 73
    18
  0
VERTEX
  5
137
  8
0
 62
     9
 10
0.0
 20
0.0
 30
0.0
 70
   128
 71
    19
 72
    16
 73
    17
  0
VERTEX
  5
138
  8
0
 62
     9
 10
0.0
 20
0.0
 30
0.0
 70
   128
 71
    21
 72
    18
 73
    20
  0
VERTEX
  5
139
  8
0
 62
     9
 10
0.0
 20
0.0
 30
0.0
 70
   128
 71
    19
 72
    20
 73
    18
  0
VERTEX
  5
13A
  8
0
 62
     9
 10
0.0
 20
0.0
 30
0.0
 70
   128
 71
    23
 72
    22
 73
    21
  0
VERTEX
  5
13B
  8
0
 62
     9
 10
0.0
 20
0.0
 30
0.0
 70
   128
 71
    21
 72
    20
 73
    23
  0
VERTEX
  5
13C
  8
0
 62
     9
 10
0.0
 20
0.0
 30
0.0
 70
   128
 71
    22
 72
    25
 73
    24
  0
VERTEX
  5
13D
  8
0
 62
     9
 10
0.0
 20
0.0
 30
0.0
 70
   128
 71
    25
 72
    22
 73
    23
  0
VERTEX
  5
13E
  8
0
 62
     9
 10
0.0
 20
0.0
 30
0.0
 70
   128
 71
    25
 72
    26
 73
    24
  0
VERTEX
  5
13F
  8
0
 62
     9
 10
0.0
 20
0.0
 30
0.0
 70
   128
 71
    14
 72
    28
 73
    27
  0
VERTEX
  5
140
  8
0
 62
     9
 10
0.0
 20
0.0
 30
0.0
 70
   128
 71
    31
 72
    30
 73
    29
  0
VERTEX
  5
141
  8
0
 62
     9
 10
0.0
 20
0.0
 30
0.0
 70
   128
 71
    34
 72
    33
 73
    32
  0
VERTEX
  5
142
  8
0
 62
     9
 10
0.0
 20
0.0
 30
0.0
 70
   128
 71
    37
 72
    36
 73
    35
  0
VERTEX
  5
143
  8
0
 62
     9
 10
0.0
 20
0.0
 30
0.0
 70
   128
 71
    40
 72
    39
 73
    38
  0
VERTEX
  5
144
  8
0
 62
     9
 10
0.0
 20
0.0
 30
0.0
 70
   128
 71
    43
 72
    42
 73
    41
  0
VERTEX
  5
145
  8
0
 62
     9
 10
0.0
 20
0.0
 30
0.0
 70
   128
 71
    41
 72
    36
 73
    44
  0
VERTEX
  5
146
  8
0
 62
     9
 10
0.0
 20
0.0
 30
0.0
 70
   128
 71
    42
 72
    46
 73
    45
  0
VERTEX
  5
147
  8
0
 62
     9
 10
0.0
 20
0.0
 30
0.0
 70
   128
 71
    46
 72
    42
 73
    43
  0
VERTEX
  5
148
  8
0
 62
     9
 10
0.0
 20
0.0
 30
0.0
 70
   128
 71
    26
 72
    45
 73
    47
  0
VERTEX
  5
149
  8
0
 62
     9
 10
0.0
 20
0.0
 30
0.0
 70
   128
 71
    46
 72
    47
 73
    45
  0
VERTEX
  5
14A
  8
0
 62
     9
 10
0.0
 20
0.0
 30
0.0
 70
   128
 71
    26
 72
    47
 73
    24
  0
VERTEX
  5
14B
  8
0
 62
     9
 10
0.0
 20
0.0
 30
0.0
 70
   128
 71
    36
 72
    37
 73
    44
  0
VERTEX
  5
14C
  8
0
 62
     9
 10
0.0
 20
0.0
 30
0.0
 70
   128
 71
    43
 72
    41
 73
    44
  0
VERTEX
  5
14D
  8
0
 62
     9
 10
0.0
 20
0.0
 30
0.0
 70
   128
 71
    40
 72
    35
 73
    39
  0
VERTEX
  5
14E
  8
0
 62
     9
 10
0.0
 20
0.0
 30
0.0
 70
   128
 71
    37
 72
    35
 73
    40
  0
VERTEX
  5
14F
  8
0
 62
     9
 10
0.0
 20
0.0
 30
0.0
 70
   128
 71
    30
 72
    38
 73
    29
  0
VERTEX
  5
150
  8
0
 62
     9
 10
0.0
 20
0.0
 30
0.0
 70
   128
 71
    38
 72
    39
 73
    29
  0
VERTEX
  5
151
  8
0
 62
     9
 10
0.0
 20
0.0
 30
0.0
 70
   128
 71
    34
 72
    48
 73
    31
  0
VERTEX
  5
152
  8
0
 62
     9
 10
0.0
 20
0.0
 30
0.0
 70
   128
 71
    48
 72
    30
 73
    31
  0
VERTEX
  5
153
  8
0
 62
     9
 10
0.0
 20
0.0
 30
0.0
 70
   128
 71
    33
 72
    28
 73
    32
  0
VERTEX
  5
154
  8
0
 62
     9
 10
0.0
 20
0.0
 30
0.0
 70
   128
 71
    34
 72
    32
 73
    48
  0
VERTEX
  5
155
  8
0
 62
     9
 10
0.0
 20
0.0
 30
0.0
 70
   128
 71
    27
 72
    12
 73
    14
  0
VERTEX
  5
156
  8
0
 62
     9
 10
0.0
 20
0.0
 30
0.0
 70
   128
 71
    33
 72
    27
 73
    28
  0
VERTEX
  5
157
  8
0
 62
     9
 10
0.0
 20
0.0
 30
0.0
 70
   128
 71
    34
 72
    31
 73
    33
  0
VERTEX
  5
158
  8
0
 62
     9
 10
0.0
 20
0.0
 30
0.0
 70
   128
 71
     6
 72
    41
 73
    42
  0
VERTEX
  5
159
  8
0
 62
     9
 10
0.0
 20
0.0
 30
0.0
 70
   128
 71
    33
 72
    29
 73
    27
  0
VERTEX
  5
15A
  8
0
 62
     9
 10
0.0
 20
0.0
 30
0.0
 70
   128
 71
    29
 72
    33
 73
    31
  0
VERTEX
  5
15B
  8
0
 62
     9
 10
0.0
 20
0.0
 30
0.0
 70
   128
 71
    12
 72
    27
 73
    29
  0
VERTEX
  5
15C
  8
0
 62
     9
 10
0.0
 20
0.0
 30
0.0
 70
   128
 71
    39
 72
    35
 73
    12
  0
VERTEX
  5
15D
  8
0
 62
     9
 10
0.0
 20
0.0
 30
0.0
 70
   128
 71
    39
 72
    12
 73
    29
  0
VERTEX
  5
15E
  8
0
 62
     9
 10
0.0
 20
0.0
 30
0.0
 70
   128
 71
     6
 72
    42
 73
     5
  0
VERTEX
  5
15F
  8
0
 62
     9
 10
0.0
 20
0.0
 30
0.0
 70
   128
 71
    11
 72
    36
 73
     8
  0
VERTEX
  5
160
  8
0
 62
     9
 10
0.0
 20
0.0
 30
0.0
 70
   128
 71
     3
 72
    26
 73
    17
  0
VERTEX
  5
161
  8
0
 62
     9
 10
0.0
 20
0.0
 30
0.0
 70
   128
 71
    45
 72
     1
 73
     5
  0
VERTEX
  5
162
  8
0
 62
     9
 10
0.0
 20
0.0
 30
0.0
 70
   128
 71
    19
 72
    23
 73
    20
  0
VERTEX
  5
163
  8
0
 62
     9
 10
0.0
 20
0.0
 30
0.0
 70
   128
 71
    23
 72
    17
 73
    25
  0
VERTEX
  5
164
  8
0
 62
     9
 10
0.0
 20
0.0
 30
0.0
 70
   128
 71
    17
 72
    23
 73
    19
  0
VERTEX
  5
165
  8
0
 62
     9
 10
0.0
 20
0.0
 30
0.0
 70
   128
 71
     3
 72
     1
 73
    26
  0
VERTEX
  5
166
  8
0
 62
     9
 10
0.0
 20
0.0
 30
0.0
 70
   128
 71
    25
 72
    17
 73
    26
  0
VERTEX
  5
167
  8
0
 62
     9
 10
0.0
 20
0.0
 30
0.0
 70
   128
 71
    45
 72
     5
 73
    42
  0
VERTEX
  5
168
  8
0
 62
     9
 10
0.0
 20
0.0
 30
0.0
 70
   128
 71
    26
 72
     1
 73
    45
  0
VERTEX
  5
169
  8
0
 62
     9
 10
0.0
 20
0.0
 30
0.0
 70
   128
 71
     6
 72
     8
 73
    41
  0
VERTEX
  5
16A
  8
0
 62
     9
 10
0.0
 20
0.0
 30
0.0
 70
   128
 71
    41
 72
     8
 73
    36
  0
VERTEX
  5
16B
  8
0
 62
     9
 10
0.0
 20
0.0
 30
0.0
 70
   128
 71
    35
 72
    11
 73
    12
  0
VERTEX
  5
16C
  8
0
 62
     9
 10
0.0
 20
0.0
 30
0.0
 70
   128
 71
    36
 72
    11
 73
    35
  0
SEQEND
  5
16D
  8
0
 62
     9
  0
ENDBLK
  5
170
  8
0
  0
BLOCK
  8
0
  2
1_5
 70
     0
 10
0.0
 20
0.0
 30
0.0
  3
1_5
  1

  0
POLYLINE
  5
172
  8
0
 62
     9
 66
     1
 10
0.0
 20
0.0
 30
0.0
 70
    64
 71
   178
 72
   352
  0
VERTEX
  5
173
  8
0
 10
2.798564434051514
 20
25.05860710144043
 30
181.4663391113281
 70
   192
  0
VERTEX
  5
174
  8
0
 10
-4.159982681274414
 20
24.81872749328613
 30
185.6353454589844
 70
   192
  0
VERTEX
  5
175
  8
0
 10
-3.990591764450073
 20
25.11779594421387
 30
185.8590393066406
 70
   192
  0
VERTEX
  5
176
  8
0
 10
-16.07162094116211
 20
19.53462791442871
 30
193.3184509277344
 70
   192
  0
VERTEX
  5
177
  8
0
 10
-10.35678863525391
 20
23.1480827331543
 30
189.7899169921875
 70
   192
  0
VERTEX
  5
178
  8
0
 10
-10.38326930999756
 20
22.88536071777344
 30
189.5240936279297
 70
   192
  0
VERTEX
  5
179
  8
0
 10
-23.91222190856934
 20
7.494742393493652
 30
197.9779205322266
 70
   192
  0
VERTEX
  5
17A
  8
0
 10
-24.02226448059082
 20
7.599478721618652
 30
198.2270812988281
 70
   192
  0
VERTEX
  5
17B
  8
0
 10
-20.74703598022461
 20
14.0829439163208
 30
196.0000915527344
 70
   192
  0
VERTEX
  5
17C
  8
0
 10
-20.81711578369141
 20
14.26204872131348
 30
196.2483062744141
 70
   192
  0
VERTEX
  5
17D
  8
0
 10
-16.02628517150879
 20
19.31449890136719
 30
193.0502319335938
 70
   192
  0
VERTEX
  5
17E
  8
0
 10
-25.04796028137207
 20
0.000002113699793
 30
198.6876068115234
 70
   192
  0
VERTEX
  5
17F
  8
0
 10
-25.18893814086914
 20
0.000002139150638
 30
198.9473266601562
 70
   192
  0
VERTEX
  5
180
  8
0
 10
-10.39164352416992
 20
-23.13922691345215
 30
189.8114471435547
 70
   192
  0
VERTEX
  5
181
  8
0
 10
-16.07382392883301
 20
-19.27461433410645
 30
193.0799407958984
 70
   192
  0
VERTEX
  5
182
  8
0
 10
-10.3901948928833
 20
-22.87435531616211
 30
189.5284118652344
 70
   192
  0
VERTEX
  5
183
  8
0
 10
2.268645286560059
 20
-25.09509468078613
 30
181.6183013916016
 70
   192
  0
VERTEX
  5
184
  8
0
 10
-4.086963176727295
 20
-25.10825729370117
 30
185.9185028076172
 70
   192
  0
VERTEX
  5
185
  8
0
 10
-4.179327964782715
 20
-24.81258201599121
 30
185.6474304199219
 70
   192
  0
VERTEX
  5
186
  8
0
 10
-23.90681076049805
 20
-7.466825008392334
 30
197.9745330810547
 70
   192
  0
VERTEX
  5
187
  8
0
 10
-20.87068939208984
 20
-14.20244693756104
 30
196.2813720703125
 70
   192
  0
VERTEX
  5
188
  8
0
 10
-24.0596752166748
 20
-7.509134292602539
 30
198.2501678466797
 70
   192
  0
VERTEX
  5
189
  8
0
 10
-20.74243927001953
 20
-14.07148838043213
 30
195.9972076416016
 70
   192
  0
VERTEX
  5
18A
  8
0
 10
-16.12350273132324
 20
-19.49103927612305
 30
193.3504791259766
 70
   192
  0
VERTEX
  5
18B
  8
0
 10
25.22928810119629
 20
0.0000002966818613
 30
181.4663391113281
 70
   192
  0
VERTEX
  5
18C
  8
0
 10
24.16197967529297
 20
7.263326644897461
 30
181.4663391113281
 70
   192
  0
VERTEX
  5
18D
  8
0
 10
24.45251083374023
 20
7.332893371582031
 30
181.7716674804688
 70
   192
  0
VERTEX
  5
18E
  8
0
 10
16.3231086730957
 20
19.54526901245117
 30
181.7716674804688
 70
   192
  0
VERTEX
  5
18F
  8
0
 10
21.30553817749023
 20
14.06197834014893
 30
181.7716522216797
 70
   192
  0
VERTEX
  5
190
  8
0
 10
21.04240989685059
 20
13.91347217559814
 30
181.4663391113281
 70
   192
  0
VERTEX
  5
191
  8
0
 10
9.891664505004883
 20
23.19986724853516
 30
181.4663391113281
 70
   192
  0
VERTEX
  5
192
  8
0
 10
10.01638889312744
 20
23.42720031738281
 30
181.7716827392578
 70
   192
  0
VERTEX
  5
193
  8
0
 10
16.15654182434082
 20
19.37154960632324
 30
181.4663391113281
 70
   192
  0
VERTEX
  5
194
  8
0
 10
25.53133201599121
 20
0.0000000000209427
 30
181.7716522216797
 70
   192
  0
VERTEX
  5
195
  8
0
 10
9.908866882324219
 20
-23.18956565856934
 30
181.4663391113281
 70
   192
  0
VERTEX
  5
196
  8
0
 10
10.01242065429688
 20
-23.47178268432617
 30
181.7716827392578
 70
   192
  0
VERTEX
  5
197
  8
0
 10
21.28491401672363
 20
-14.06183815002441
 30
181.7716522216797
 70
   192
  0
VERTEX
  5
198
  8
0
 10
16.37145233154297
 20
-19.63130378723145
 30
181.7716827392578
 70
   192
  0
VERTEX
  5
199
  8
0
 10
16.16047859191895
 20
-19.36661529541016
 30
181.4663391113281
 70
   192
  0
VERTEX
  5
19A
  8
0
 10
24.16492462158203
 20
-7.255404949188232
 30
181.4663391113281
 70
   192
  0
VERTEX
  5
19B
  8
0
 10
24.45098114013672
 20
-7.354166507720947
 30
181.7716674804688
 70
   192
  0
VERTEX
  5
19C
  8
0
 10
21.05564308166504
 20
-13.89421653747559
 30
181.4663391113281
 70
   192
  0
VERTEX
  5
19D
  8
0
 10
2.268645286560059
 20
5.01901912689209
 30
181.6183013916016
 70
   192
  0
VERTEX
  5
19E
  8
0
 10
2.268645286560059
 20
-5.01901912689209
 30
181.6183013916016
 70
   192
  0
VERTEX
  5
19F
  8
0
 10
2.268645286560059
 20
15.05705642700195
 30
181.6183013916016
 70
   192
  0
VERTEX
  5
1A0
  8
0
 10
2.268645286560059
 20
-15.05705642700195
 30
181.6183013916016
 70
   192
  0
VERTEX
  5
1A1
  8
0
 10
25.21892356872559
 20
0.0000000000209427
 30
199.4022064208984
 70
   192
  0
VERTEX
  5
1A2
  8
0
 10
24.81676292419434
 20
4.300643444061279
 30
201.2107849121094
 70
   192
  0
VERTEX
  5
1A3
  8
0
 10
25.44231414794922
 20
3.866467952728271
 30
201.6633758544922
 70
   192
  0
VERTEX
  5
1A4
  8
0
 10
24.37448310852051
 20
6.031459808349609
 30
205.5453338623047
 70
   192
  0
VERTEX
  5
1A5
  8
0
 10
25.05385971069336
 20
5.499672889709473
 30
205.5577392578125
 70
   192
  0
VERTEX
  5
1A6
  8
0
 10
25.79725646972656
 20
-0.0000369265289919
 30
200.1039733886719
 70
   192
  0
VERTEX
  5
1A7
  8
0
 10
24.6566047668457
 20
4.312948703765869
 30
209.997314453125
 70
   192
  0
VERTEX
  5
1A8
  8
0
 10
25.80870246887207
 20
-0.0000941352700465
 30
211.2626037597656
 70
   192
  0
VERTEX
  5
1A9
  8
0
 10
25.42532539367676
 20
3.918962717056274
 30
209.5364379882812
 70
   192
  0
VERTEX
  5
1AA
  8
0
 10
24.99650382995605
 20
0.0000000000209427
 30
211.9542694091797
 70
   192
  0
VERTEX
  5
1AB
  8
0
 10
24.37432670593262
 20
-6.032096385955811
 30
205.5453033447266
 70
   192
  0
VERTEX
  5
1AC
  8
0
 10
24.81688117980957
 20
-4.300091743469238
 30
201.2095489501953
 70
   192
  0
VERTEX
  5
1AD
  8
0
 10
25.40952301025391
 20
-3.913982152938843
 30
201.707275390625
 70
   192
  0
VERTEX
  5
1AE
  8
0
 10
25.05369758605957
 20
-5.500327110290527
 30
205.5577087402344
 70
   192
  0
VERTEX
  5
1AF
  8
0
 10
24.65600967407227
 20
-4.316699504852295
 30
209.9938812255859
 70
   192
  0
VERTEX
  5
1B0
  8
0
 10
25.44395065307617
 20
-3.905027151107788
 30
209.5578765869141
 70
   192
  0
VERTEX
  5
1B1
  8
0
 10
92.47725677490234
 20
4.799673080444336
 30
217.3228759765625
 70
   192
  0
VERTEX
  5
1B2
  8
0
 10
92.47725677490234
 20
3.407144784927368
 30
213.8900146484375
 70
   192
  0
VERTEX
  5
1B3
  8
0
 10
91.86294555664062
 20
3.900615453720093
 30
213.4009704589844
 70
   192
  0
VERTEX
  5
1B4
  8
0
 10
91.86302185058594
 20
-3.897670269012451
 30
213.3973083496094
 70
   192
  0
VERTEX
  5
1B5
  8
0
 10
91.89881134033203
 20
0.0046675670892
 30
211.7594604492188
 70
   192
  0
VERTEX
  5
1B6
  8
0
 10
92.47725677490234
 20
0.0040421383455396
 30
212.4488220214844
 70
   192
  0
VERTEX
  5
1B7
  8
0
 10
92.47725677490234
 20
-3.404700517654419
 30
213.8868560791016
 70
   192
  0
VERTEX
  5
1B8
  8
0
 10
92.47725677490234
 20
-4.800326824188232
 30
217.3228759765625
 70
   192
  0
VERTEX
  5
1B9
  8
0
 10
91.77725982666016
 20
-5.500327110290527
 30
217.3228759765625
 70
   192
  0
VERTEX
  5
1BA
  8
0
 10
91.77725982666016
 20
5.499672889709473
 30
217.3228759765625
 70
   192
  0
VERTEX
  5
1BB
  8
0
 10
92.47725677490234
 20
-3.407799005508423
 30
220.7557220458984
 70
   192
  0
VERTEX
  5
1BC
  8
0
 10
91.69156646728516
 20
-3.901269435882568
 30
221.2447662353516
 70
   192
  0
VERTEX
  5
1BD
  8
0
 10
91.69149017333984
 20
3.897016048431396
 30
221.2484283447266
 70
   192
  0
VERTEX
  5
1BE
  8
0
 10
91.65570068359375
 20
-0.0053216642700136
 30
222.8862762451172
 70
   192
  0
VERTEX
  5
1BF
  8
0
 10
92.47725677490234
 20
-0.0046962355263531
 30
222.1969146728516
 70
   192
  0
VERTEX
  5
1C0
  8
0
 10
92.47725677490234
 20
3.404046297073364
 30
220.7588958740234
 70
   192
  0
VERTEX
  5
1C1
  8
0
 10
5.470934867858887
 20
24.3346996307373
 30
214.3113250732422
 70
   192
  0
VERTEX
  5
1C2
  8
0
 10
-0.0512647032737732
 20
24.95455932617188
 30
213.4089813232422
 70
   192
  0
VERTEX
  5
1C3
  8
0
 10
-19.49923133850098
 20
15.63328838348389
 30
210.2508087158203
 70
   192
  0
VERTEX
  5
1C4
  8
0
 10
-22.4976749420166
 20
10.89768028259277
 30
209.7665863037109
 70
   192
  0
VERTEX
  5
1C5
  8
0
 10
-24.36771583557129
 20
5.596451282501221
 30
209.4649505615234
 70
   192
  0
VERTEX
  5
1C6
  8
0
 10
-25.00438690185547
 20
0.0000007397783861
 30
209.3623199462891
 70
   192
  0
VERTEX
  5
1C7
  8
0
 10
-15.53446483612061
 20
19.56868362426758
 30
210.8921966552734
 70
   192
  0
VERTEX
  5
1C8
  8
0
 10
-10.80989265441895
 20
22.51568794250488
 30
211.6581420898438
 70
   192
  0
VERTEX
  5
1C9
  8
0
 10
-5.563214302062988
 20
24.33821487426758
 30
212.5108184814453
 70
   192
  0
VERTEX
  5
1CA
  8
0
 10
19.4086856842041
 20
15.61609077453613
 30
216.60009765625
 70
   192
  0
VERTEX
  5
1CB
  8
0
 10
15.4475212097168
 20
19.5545482635498
 30
215.9479370117188
 70
   192
  0
VERTEX
  5
1CC
  8
0
 10
10.72268486022949
 20
22.50672721862793
 30
215.1718139648438
 70
   192
  0
VERTEX
  5
1CD
  8
0
 10
24.26512908935547
 20
5.58552885055542
 30
217.4015197753906
 70
   192
  0
VERTEX
  5
1CE
  8
0
 10
22.40122032165527
 20
10.88116836547852
 30
217.0936889648438
 70
   192
  0
VERTEX
  5
1CF
  8
0
 10
24.89812660217285
 20
0.0000000000209427
 30
217.5061340332031
 70
   192
  0
VERTEX
  5
1D0
  8
0
 10
-0.1157640963792801
 20
22.97212219238281
 30
215.3255615234375
 70
   192
  0
VERTEX
  5
1D1
  8
0
 10
7.140181541442871
 20
22.21680450439453
 30
216.32421875
 70
   192
  0
VERTEX
  5
1D2
  8
0
 10
-0.0248238742351532
 20
23.34272003173828
 30
215.1573181152344
 70
   192
  0
VERTEX
  5
1D3
  8
0
 10
-23.38469886779785
 20
-0.0000067994728852
 30
211.3539733886719
 70
   192
  0
VERTEX
  5
1D4
  8
0
 10
-23.08231163024902
 20
-0.0000331883857143
 30
211.5501251220703
 70
   192
  0
VERTEX
  5
1D5
  8
0
 10
-22.2237434387207
 20
7.256927967071533
 30
211.5440063476562
 70
   192
  0
VERTEX
  5
1D6
  8
0
 10
6.961496353149414
 20
21.86336135864258
 30
216.4900207519531
 70
   192
  0
VERTEX
  5
1D7
  8
0
 10
13.33782291412354
 20
18.64887428283691
 30
217.5369720458984
 70
   192
  0
VERTEX
  5
1D8
  8
0
 10
13.62694454193115
 20
18.91743469238281
 30
217.3784637451172
 70
   192
  0
VERTEX
  5
1D9
  8
0
 10
18.82248115539551
 20
13.80074691772461
 30
218.2231750488281
 70
   192
  0
VERTEX
  5
1DA
  8
0
 10
18.45786094665527
 20
13.57685661315918
 30
218.3784332275391
 70
   192
  0
VERTEX
  5
1DB
  8
0
 10
22.19461441040039
 20
7.265754222869873
 30
218.7724914550781
 70
   192
  0
VERTEX
  5
1DC
  8
0
 10
21.76150131225586
 20
7.149590969085693
 30
218.9222869873047
 70
   192
  0
VERTEX
  5
1DD
  8
0
 10
23.34611511230469
 20
0.0000000000853008
 30
218.9586486816406
 70
   192
  0
VERTEX
  5
1DE
  8
0
 10
22.90553665161133
 20
-0.0000002624562399
 30
219.1094055175781
 70
   192
  0
VERTEX
  5
1DF
  8
0
 10
-7.170003890991211
 20
21.85302352905273
 30
214.1669311523438
 70
   192
  0
VERTEX
  5
1E0
  8
0
 10
-13.55369567871094
 20
18.61912155151367
 30
213.11669921875
 70
   192
  0
VERTEX
  5
1E1
  8
0
 10
-7.198443412780762
 20
22.20850944519043
 30
213.9907379150391
 70
   192
  0
VERTEX
  5
1E2
  8
0
 10
-13.68194770812988
 20
18.90325164794922
 30
212.9341735839844
 70
   192
  0
VERTEX
  5
1E3
  8
0
 10
-18.6368522644043
 20
13.57209777832031
 30
212.2810516357422
 70
   192
  0
VERTEX
  5
1E4
  8
0
 10
-18.87364768981934
 20
13.77291393280029
 30
212.0887908935547
 70
   192
  0
VERTEX
  5
1E5
  8
0
 10
-21.93148994445801
 20
7.16657543182373
 30
211.7405395507812
 70
   192
  0
VERTEX
  5
1E6
  8
0
 10
10.60862350463867
 20
22.41440773010254
 30
215.4550170898438
 70
   192
  0
VERTEX
  5
1E7
  8
0
 10
19.26296997070312
 20
15.56978511810303
 30
216.8927612304688
 70
   192
  0
VERTEX
  5
1E8
  8
0
 10
15.31317520141602
 20
19.48496246337891
 30
216.2358245849609
 70
   192
  0
VERTEX
  5
1E9
  8
0
 10
22.25151634216309
 20
10.85546588897705
 30
217.3907165527344
 70
   192
  0
VERTEX
  5
1EA
  8
0
 10
5.386239528656006
 20
24.22371482849121
 30
214.5903778076172
 70
   192
  0
VERTEX
  5
1EB
  8
0
 10
24.11615371704102
 20
5.575510501861572
 30
217.7017974853516
 70
   192
  0
VERTEX
  5
1EC
  8
0
 10
24.75116348266602
 20
0.000001214181566
 30
217.8078155517578
 70
   192
  0
VERTEX
  5
1ED
  8
0
 10
-0.0984765365719795
 20
24.83241844177246
 30
213.6846466064453
 70
   192
  0
VERTEX
  5
1EE
  8
0
 10
-5.591981887817383
 20
24.21129989624023
 30
212.7798614501953
 70
   192
  0
VERTEX
  5
1EF
  8
0
 10
-10.81523418426514
 20
22.38884162902832
 30
211.9217681884766
 70
   192
  0
VERTEX
  5
1F0
  8
0
 10
-15.51325225830078
 20
19.44898223876953
 30
211.1517944335938
 70
   192
  0
VERTEX
  5
1F1
  8
0
 10
-19.45086669921875
 20
15.52948570251465
 30
210.5077514648438
 70
   192
  0
VERTEX
  5
1F2
  8
0
 10
-22.42476844787598
 20
10.81947231292725
 30
210.0221099853516
 70
   192
  0
VERTEX
  5
1F3
  8
0
 10
-24.27664947509766
 20
5.553398609161377
 30
209.7200622558594
 70
   192
  0
VERTEX
  5
1F4
  8
0
 10
-24.90554237365723
 20
-0.0000060886550273
 30
209.6175384521484
 70
   192
  0
VERTEX
  5
1F5
  8
0
 10
24.26508140563965
 20
-5.585514545440674
 30
217.4015197753906
 70
   192
  0
VERTEX
  5
1F6
  8
0
 10
24.12026977539062
 20
-5.565460681915283
 30
217.7024230957031
 70
   192
  0
VERTEX
  5
1F7
  8
0
 10
22.27060699462891
 20
-10.84295845031738
 30
217.3937835693359
 70
   192
  0
VERTEX
  5
1F8
  8
0
 10
19.40865707397461
 20
-15.61605644226074
 30
216.60009765625
 70
   192
  0
VERTEX
  5
1F9
  8
0
 10
22.40117263793945
 20
-10.88113784790039
 30
217.0936889648438
 70
   192
  0
VERTEX
  5
1FA
  8
0
 10
10.72268486022949
 20
-22.50668716430664
 30
215.1718139648438
 70
   192
  0
VERTEX
  5
1FB
  8
0
 10
10.60677814483643
 20
-22.29517364501953
 30
215.4546966552734
 70
   192
  0
VERTEX
  5
1FC
  8
0
 10
5.470942974090576
 20
-24.33465576171875
 30
214.3113250732422
 70
   192
  0
VERTEX
  5
1FD
  8
0
 10
15.37879657745361
 20
-19.49396705627441
 30
216.2464294433594
 70
   192
  0
VERTEX
  5
1FE
  8
0
 10
15.44749927520752
 20
-19.55450248718262
 30
215.9479522705078
 70
   192
  0
VERTEX
  5
1FF
  8
0
 10
19.22586822509766
 20
-15.49470329284668
 30
216.8865814208984
 70
   192
  0
VERTEX
  5
200
  8
0
 10
-5.547338962554932
 20
-24.21219444274902
 30
212.787353515625
 70
   192
  0
VERTEX
  5
201
  8
0
 10
-10.80984878540039
 20
-22.51565933227539
 30
211.6581420898438
 70
   192
  0
VERTEX
  5
202
  8
0
 10
-5.563176155090332
 20
-24.33818626403809
 30
212.5108184814453
 70
   192
  0
VERTEX
  5
203
  8
0
 10
-0.0637228786945343
 20
-24.79934120178223
 30
213.6904602050781
 70
   192
  0
VERTEX
  5
204
  8
0
 10
-0.0512378849089146
 20
-24.95452499389648
 30
213.4089965820312
 70
   192
  0
VERTEX
  5
205
  8
0
 10
5.424139976501465
 20
-24.18500328063965
 30
214.5966033935547
 70
   192
  0
VERTEX
  5
206
  8
0
 10
-19.42390632629395
 20
-15.55843162536621
 30
210.5125122070312
 70
   192
  0
VERTEX
  5
207
  8
0
 10
-19.49916839599609
 20
-15.63327503204346
 30
210.2507934570312
 70
   192
  0
VERTEX
  5
208
  8
0
 10
-15.47595882415771
 20
-19.47747421264648
 30
211.1582336425781
 70
   192
  0
VERTEX
  5
209
  8
0
 10
-15.53440952301025
 20
-19.56867027282715
 30
210.8921966552734
 70
   192
  0
VERTEX
  5
20A
  8
0
 10
-10.76698875427246
 20
-22.40641403198242
 30
211.9299468994141
 70
   192
  0
VERTEX
  5
20B
  8
0
 10
-22.40570259094238
 20
-10.85095119476318
 30
210.0254974365234
 70
   192
  0
VERTEX
  5
20C
  8
0
 10
-22.49761009216309
 20
-10.89767265319824
 30
209.7665863037109
 70
   192
  0
VERTEX
  5
20D
  8
0
 10
-24.36765098571777
 20
-5.596461296081543
 30
209.4649505615234
 70
   192
  0
VERTEX
  5
20E
  8
0
 10
-24.26589393615723
 20
-5.58940315246582
 30
209.7219085693359
 70
   192
  0
VERTEX
  5
20F
  8
0
 10
-0.1202722191810608
 20
-22.97210311889648
 30
215.3248291015625
 70
   192
  0
VERTEX
  5
210
  8
0
 10
-7.188216209411621
 20
-22.2309684753418
 30
213.9923248291016
 70
   192
  0
VERTEX
  5
211
  8
0
 10
-0.0109323021024466
 20
-23.34208297729492
 30
215.1595764160156
 70
   192
  0
VERTEX
  5
212
  8
0
 10
22.18006896972656
 20
-7.254199504852295
 30
218.7700653076172
 70
   192
  0
VERTEX
  5
213
  8
0
 10
-7.194186210632324
 20
-21.8451099395752
 30
214.1631774902344
 70
   192
  0
VERTEX
  5
214
  8
0
 10
-13.56610202789307
 20
-18.60980796813965
 30
213.1146392822266
 70
   192
  0
VERTEX
  5
215
  8
0
 10
-13.67715167999268
 20
-18.91910362243652
 30
212.93505859375
 70
   192
  0
VERTEX
  5
216
  8
0
 10
-18.86587333679199
 20
-13.77109146118164
 30
212.0899963378906
 70
   192
  0
VERTEX
  5
217
  8
0
 10
-18.64694976806641
 20
-13.56079196929932
 30
212.2794036865234
 70
   192
  0
VERTEX
  5
218
  8
0
 10
-22.20764923095703
 20
-7.254229545593262
 30
211.5467529296875
 70
   192
  0
VERTEX
  5
219
  8
0
 10
-21.94029235839844
 20
-7.143383979797363
 30
211.7388610839844
 70
   192
  0
VERTEX
  5
21A
  8
0
 10
6.940930843353271
 20
-21.8698844909668
 30
216.4864501953125
 70
   192
  0
VERTEX
  5
21B
  8
0
 10
13.33044719696045
 20
-18.65292167663574
 30
217.5357666015625
 70
   192
  0
VERTEX
  5
21C
  8
0
 10
7.155325412750244
 20
-22.18980026245117
 30
216.3267211914062
 70
   192
  0
VERTEX
  5
21D
  8
0
 10
13.65713500976562
 20
-18.92237091064453
 30
217.3833923339844
 70
   192
  0
VERTEX
  5
21E
  8
0
 10
18.44432640075684
 20
-13.59185886383057
 30
218.3762054443359
 70
   192
  0
VERTEX
  5
21F
  8
0
 10
18.80735778808594
 20
-13.75133228302002
 30
218.2208251953125
 70
   192
  0
VERTEX
  5
220
  8
0
 10
21.75313186645508
 20
-7.17204475402832
 30
218.9211273193359
 70
   192
  0
VERTEX
  5
221
  8
0
 10
-8.051494598388672
 20
7.746732711791992
 30
215.2860870361328
 70
   192
  0
VERTEX
  5
222
  8
0
 10
-8.046871185302734
 20
-7.742161273956299
 30
215.2875213623047
 70
   192
  0
VERTEX
  5
223
  8
0
 10
7.453823089599609
 20
7.744474411010742
 30
217.8354034423828
 70
   192
  0
VERTEX
  5
224
  8
0
 10
7.453763008117676
 20
-7.745091438293457
 30
217.8355255126953
 70
   192
  0
VERTEX
  5
225
  8
0
 62
     9
 10
0.0
 20
0.0
 30
0.0
 70
   128
 71
     3
 72
     2
 73
     1
  0
VERTEX
  5
226
  8
0
 62
     9
 10
0.0
 20
0.0
 30
0.0
 70
   128
 71
     6
 72
     5
 73
     4
  0
VERTEX
  5
227
  8
0
 62
     9
 10
0.0
 20
0.0
 30
0.0
 70
   128
 71
     9
 72
     8
 73
     7
  0
VERTEX
  5
228
  8
0
 62
     9
 10
0.0
 20
0.0
 30
0.0
 70
   128
 71
     9
 72
    11
 73
    10
  0
VERTEX
  5
229
  8
0
 62
     9
 10
0.0
 20
0.0
 30
0.0
 70
   128
 71
    13
 72
    12
 73
     7
  0
VERTEX
  5
22A
  8
0
 62
     9
 10
0.0
 20
0.0
 30
0.0
 70
   128
 71
     7
 72
     8
 73
    13
  0
VERTEX
  5
22B
  8
0
 62
     9
 10
0.0
 20
0.0
 30
0.0
 70
   128
 71
    10
 72
     8
 73
     9
  0
VERTEX
  5
22C
  8
0
 62
     9
 10
0.0
 20
0.0
 30
0.0
 70
   128
 71
     6
 72
     4
 73
    11
  0
VERTEX
  5
22D
  8
0
 62
     9
 10
0.0
 20
0.0
 30
0.0
 70
   128
 71
    11
 72
     4
 73
    10
  0
VERTEX
  5
22E
  8
0
 62
     9
 10
0.0
 20
0.0
 30
0.0
 70
   128
 71
     3
 72
     5
 73
     2
  0
VERTEX
  5
22F
  8
0
 62
     9
 10
0.0
 20
0.0
 30
0.0
 70
   128
 71
     2
 72
     5
 73
     6
  0
VERTEX
  5
230
  8
0
 62
     9
 10
0.0
 20
0.0
 30
0.0
 70
   128
 71
    16
 72
    15
 73
    14
  0
VERTEX
  5
231
  8
0
 62
     9
 10
0.0
 20
0.0
 30
0.0
 70
   128
 71
    19
 72
    18
 73
    17
  0
VERTEX
  5
232
  8
0
 62
     9
 10
0.0
 20
0.0
 30
0.0
 70
   128
 71
    22
 72
    21
 73
    20
  0
VERTEX
  5
233
  8
0
 62
     9
 10
0.0
 20
0.0
 30
0.0
 70
   128
 71
    24
 72
    23
 73
    21
  0
VERTEX
  5
234
  8
0
 62
     9
 10
0.0
 20
0.0
 30
0.0
 70
   128
 71
    22
 72
    12
 73
    13
  0
VERTEX
  5
235
  8
0
 62
     9
 10
0.0
 20
0.0
 30
0.0
 70
   128
 71
    12
 72
    22
 73
    20
  0
VERTEX
  5
236
  8
0
 62
     9
 10
0.0
 20
0.0
 30
0.0
 70
   128
 71
    20
 72
    21
 73
    23
  0
VERTEX
  5
237
  8
0
 62
     9
 10
0.0
 20
0.0
 30
0.0
 70
   128
 71
    14
 72
    15
 73
    24
  0
VERTEX
  5
238
  8
0
 62
     9
 10
0.0
 20
0.0
 30
0.0
 70
   128
 71
    24
 72
    15
 73
    23
  0
VERTEX
  5
239
  8
0
 62
     9
 10
0.0
 20
0.0
 30
0.0
 70
   128
 71
    19
 72
    16
 73
    18
  0
VERTEX
  5
23A
  8
0
 62
     9
 10
0.0
 20
0.0
 30
0.0
 70
   128
 71
    18
 72
    16
 73
    14
  0
VERTEX
  5
23B
  8
0
 62
     9
 10
0.0
 20
0.0
 30
0.0
 70
   128
 71
    27
 72
    26
 73
    25
  0
VERTEX
  5
23C
  8
0
 62
     9
 10
0.0
 20
0.0
 30
0.0
 70
   128
 71
    30
 72
    29
 73
    28
  0
VERTEX
  5
23D
  8
0
 62
     9
 10
0.0
 20
0.0
 30
0.0
 70
   128
 71
    32
 72
     1
 73
    31
  0
VERTEX
  5
23E
  8
0
 62
     9
 10
0.0
 20
0.0
 30
0.0
 70
   128
 71
    31
 72
    33
 73
    32
  0
VERTEX
  5
23F
  8
0
 62
     9
 10
0.0
 20
0.0
 30
0.0
 70
   128
 71
    28
 72
    32
 73
    33
  0
VERTEX
  5
240
  8
0
 62
     9
 10
0.0
 20
0.0
 30
0.0
 70
   128
 71
    26
 72
    29
 73
    30
  0
VERTEX
  5
241
  8
0
 62
     9
 10
0.0
 20
0.0
 30
0.0
 70
   128
 71
    30
 72
    28
 73
    33
  0
VERTEX
  5
242
  8
0
 62
     9
 10
0.0
 20
0.0
 30
0.0
 70
   128
 71
    34
 72
    27
 73
    25
  0
VERTEX
  5
243
  8
0
 62
     9
 10
0.0
 20
0.0
 30
0.0
 70
   128
 71
    27
 72
    29
 73
    26
  0
VERTEX
  5
244
  8
0
 62
     9
 10
0.0
 20
0.0
 30
0.0
 70
   128
 71
    36
 72
    35
 73
    17
  0
VERTEX
  5
245
  8
0
 62
     9
 10
0.0
 20
0.0
 30
0.0
 70
   128
 71
    39
 72
    38
 73
    37
  0
VERTEX
  5
246
  8
0
 62
     9
 10
0.0
 20
0.0
 30
0.0
 70
   128
 71
    41
 72
    34
 73
    40
  0
VERTEX
  5
247
  8
0
 62
     9
 10
0.0
 20
0.0
 30
0.0
 70
   128
 71
    40
 72
    42
 73
    41
  0
VERTEX
  5
248
  8
0
 62
     9
 10
0.0
 20
0.0
 30
0.0
 70
   128
 71
    40
 72
    34
 73
    25
  0
VERTEX
  5
249
  8
0
 62
     9
 10
0.0
 20
0.0
 30
0.0
 70
   128
 71
    37
 72
    41
 73
    42
  0
VERTEX
  5
24A
  8
0
 62
     9
 10
0.0
 20
0.0
 30
0.0
 70
   128
 71
    35
 72
    38
 73
    39
  0
VERTEX
  5
24B
  8
0
 62
     9
 10
0.0
 20
0.0
 30
0.0
 70
   128
 71
    39
 72
    37
 73
    42
  0
VERTEX
  5
24C
  8
0
 62
     9
 10
0.0
 20
0.0
 30
0.0
 70
   128
 71
    36
 72
    38
 73
    35
  0
VERTEX
  5
24D
  8
0
 62
     9
 10
0.0
 20
0.0
 30
0.0
 70
   128
 71
    43
 72
     9
 73
     7
  0
VERTEX
  5
24E
  8
0
 62
     9
 10
0.0
 20
0.0
 30
0.0
 70
   128
 71
    20
 72
    44
 73
    12
  0
VERTEX
  5
24F
  8
0
 62
     9
 10
0.0
 20
0.0
 30
0.0
 70
   128
 71
     7
 72
    12
 73
    43
  0
VERTEX
  5
250
  8
0
 62
     9
 10
0.0
 20
0.0
 30
0.0
 70
   128
 71
     9
 72
    43
 73
    11
  0
VERTEX
  5
251
  8
0
 62
     9
 10
0.0
 20
0.0
 30
0.0
 70
   128
 71
    12
 72
    44
 73
    43
  0
VERTEX
  5
252
  8
0
 62
     9
 10
0.0
 20
0.0
 30
0.0
 70
   128
 71
    43
 72
     6
 73
    11
  0
VERTEX
  5
253
  8
0
 62
     9
 10
0.0
 20
0.0
 30
0.0
 70
   128
 71
    45
 72
     2
 73
     6
  0
VERTEX
  5
254
  8
0
 62
     9
 10
0.0
 20
0.0
 30
0.0
 70
   128
 71
    43
 72
    45
 73
     6
  0
VERTEX
  5
255
  8
0
 62
     9
 10
0.0
 20
0.0
 30
0.0
 70
   128
 71
     2
 72
    45
 73
     1
  0
VERTEX
  5
256
  8
0
 62
     9
 10
0.0
 20
0.0
 30
0.0
 70
   128
 71
    23
 72
    44
 73
    20
  0
VERTEX
  5
257
  8
0
 62
     9
 10
0.0
 20
0.0
 30
0.0
 70
   128
 71
    16
 72
    46
 73
    44
  0
VERTEX
  5
258
  8
0
 62
     9
 10
0.0
 20
0.0
 30
0.0
 70
   128
 71
    19
 72
    17
 73
    46
  0
VERTEX
  5
259
  8
0
 62
     9
 10
0.0
 20
0.0
 30
0.0
 70
   128
 71
    15
 72
    16
 73
    44
  0
VERTEX
  5
25A
  8
0
 62
     9
 10
0.0
 20
0.0
 30
0.0
 70
   128
 71
    15
 72
    44
 73
    23
  0
VERTEX
  5
25B
  8
0
 62
     9
 10
0.0
 20
0.0
 30
0.0
 70
   128
 71
    16
 72
    19
 73
    46
  0
VERTEX
  5
25C
  8
0
 62
     9
 10
0.0
 20
0.0
 30
0.0
 70
   128
 71
    42
 72
    40
 73
    44
  0
VERTEX
  5
25D
  8
0
 62
     9
 10
0.0
 20
0.0
 30
0.0
 70
   128
 71
    42
 72
    46
 73
    39
  0
VERTEX
  5
25E
  8
0
 62
     9
 10
0.0
 20
0.0
 30
0.0
 70
   128
 71
    46
 72
    17
 73
    35
  0
VERTEX
  5
25F
  8
0
 62
     9
 10
0.0
 20
0.0
 30
0.0
 70
   128
 71
    39
 72
    46
 73
    35
  0
VERTEX
  5
260
  8
0
 62
     9
 10
0.0
 20
0.0
 30
0.0
 70
   128
 71
    25
 72
    44
 73
    40
  0
VERTEX
  5
261
  8
0
 62
     9
 10
0.0
 20
0.0
 30
0.0
 70
   128
 71
    46
 72
    42
 73
    44
  0
VERTEX
  5
262
  8
0
 62
     9
 10
0.0
 20
0.0
 30
0.0
 70
   128
 71
    43
 72
    44
 73
    25
  0
VERTEX
  5
263
  8
0
 62
     9
 10
0.0
 20
0.0
 30
0.0
 70
   128
 71
    25
 72
    26
 73
    43
  0
VERTEX
  5
264
  8
0
 62
     9
 10
0.0
 20
0.0
 30
0.0
 70
   128
 71
    43
 72
    26
 73
    30
  0
VERTEX
  5
265
  8
0
 62
     9
 10
0.0
 20
0.0
 30
0.0
 70
   128
 71
    43
 72
    30
 73
    45
  0
VERTEX
  5
266
  8
0
 62
     9
 10
0.0
 20
0.0
 30
0.0
 70
   128
 71
     1
 72
    45
 73
    31
  0
VERTEX
  5
267
  8
0
 62
     9
 10
0.0
 20
0.0
 30
0.0
 70
   128
 71
    31
 72
    45
 73
    33
  0
VERTEX
  5
268
  8
0
 62
     9
 10
0.0
 20
0.0
 30
0.0
 70
   128
 71
    30
 72
    33
 73
    45
  0
VERTEX
  5
269
  8
0
 62
     9
 10
0.0
 20
0.0
 30
0.0
 70
   128
 71
    49
 72
    48
 73
    47
  0
VERTEX
  5
26A
  8
0
 62
     9
 10
0.0
 20
0.0
 30
0.0
 70
   128
 71
    48
 72
    51
 73
    50
  0
VERTEX
  5
26B
  8
0
 62
     9
 10
0.0
 20
0.0
 30
0.0
 70
   128
 71
    52
 72
    49
 73
    47
  0
VERTEX
  5
26C
  8
0
 62
     9
 10
0.0
 20
0.0
 30
0.0
 70
   128
 71
    49
 72
    51
 73
    48
  0
VERTEX
  5
26D
  8
0
 62
     9
 10
0.0
 20
0.0
 30
0.0
 70
   128
 71
    55
 72
    54
 73
    53
  0
VERTEX
  5
26E
  8
0
 62
     9
 10
0.0
 20
0.0
 30
0.0
 70
   128
 71
    50
 72
    51
 73
    55
  0
VERTEX
  5
26F
  8
0
 62
     9
 10
0.0
 20
0.0
 30
0.0
 70
   128
 71
    53
 72
    50
 73
    55
  0
VERTEX
  5
270
  8
0
 62
     9
 10
0.0
 20
0.0
 30
0.0
 70
   128
 71
    56
 72
    53
 73
    54
  0
VERTEX
  5
271
  8
0
 62
     9
 10
0.0
 20
0.0
 30
0.0
 70
   128
 71
    59
 72
    58
 73
    57
  0
VERTEX
  5
272
  8
0
 62
     9
 10
0.0
 20
0.0
 30
0.0
 70
   128
 71
    58
 72
    52
 73
    47
  0
VERTEX
  5
273
  8
0
 62
     9
 10
0.0
 20
0.0
 30
0.0
 70
   128
 71
    60
 72
    59
 73
    57
  0
VERTEX
  5
274
  8
0
 62
     9
 10
0.0
 20
0.0
 30
0.0
 70
   128
 71
    59
 72
    52
 73
    58
  0
VERTEX
  5
275
  8
0
 62
     9
 10
0.0
 20
0.0
 30
0.0
 70
   128
 71
    62
 72
    61
 73
    56
  0
VERTEX
  5
276
  8
0
 62
     9
 10
0.0
 20
0.0
 30
0.0
 70
   128
 71
    61
 72
    60
 73
    57
  0
VERTEX
  5
277
  8
0
 62
     9
 10
0.0
 20
0.0
 30
0.0
 70
   128
 71
    54
 72
    62
 73
    56
  0
VERTEX
  5
278
  8
0
 62
     9
 10
0.0
 20
0.0
 30
0.0
 70
   128
 71
    62
 72
    60
 73
    61
  0
VERTEX
  5
279
  8
0
 62
     9
 10
0.0
 20
0.0
 30
0.0
 70
   128
 71
    65
 72
    64
 73
    63
  0
VERTEX
  5
27A
  8
0
 62
     9
 10
0.0
 20
0.0
 30
0.0
 70
   128
 71
    68
 72
    67
 73
    66
  0
VERTEX
  5
27B
  8
0
 62
     9
 10
0.0
 20
0.0
 30
0.0
 70
   128
 71
    71
 72
    70
 73
    69
  0
VERTEX
  5
27C
  8
0
 62
     9
 10
0.0
 20
0.0
 30
0.0
 70
   128
 71
    69
 72
    66
 73
    71
  0
VERTEX
  5
27D
  8
0
 62
     9
 10
0.0
 20
0.0
 30
0.0
 70
   128
 71
    69
 72
    68
 73
    66
  0
VERTEX
  5
27E
  8
0
 62
     9
 10
0.0
 20
0.0
 30
0.0
 70
   128
 71
    65
 72
    67
 73
    64
  0
VERTEX
  5
27F
  8
0
 62
     9
 10
0.0
 20
0.0
 30
0.0
 70
   128
 71
    64
 72
    67
 73
    68
  0
VERTEX
  5
280
  8
0
 62
     9
 10
0.0
 20
0.0
 30
0.0
 70
   128
 71
    72
 72
    65
 73
    63
  0
VERTEX
  5
281
  8
0
 62
     9
 10
0.0
 20
0.0
 30
0.0
 70
   128
 71
    74
 72
    73
 73
    70
  0
VERTEX
  5
282
  8
0
 62
     9
 10
0.0
 20
0.0
 30
0.0
 70
   128
 71
    77
 72
    76
 73
    75
  0
VERTEX
  5
283
  8
0
 62
     9
 10
0.0
 20
0.0
 30
0.0
 70
   128
 71
    72
 72
    63
 73
    78
  0
VERTEX
  5
284
  8
0
 62
     9
 10
0.0
 20
0.0
 30
0.0
 70
   128
 71
    78
 72
    75
 73
    72
  0
VERTEX
  5
285
  8
0
 62
     9
 10
0.0
 20
0.0
 30
0.0
 70
   128
 71
    78
 72
    77
 73
    75
  0
VERTEX
  5
286
  8
0
 62
     9
 10
0.0
 20
0.0
 30
0.0
 70
   128
 71
    74
 72
    76
 73
    73
  0
VERTEX
  5
287
  8
0
 62
     9
 10
0.0
 20
0.0
 30
0.0
 70
   128
 71
    73
 72
    76
 73
    77
  0
VERTEX
  5
288
  8
0
 62
     9
 10
0.0
 20
0.0
 30
0.0
 70
   128
 71
    71
 72
    74
 73
    70
  0
VERTEX
  5
289
  8
0
 62
     9
 10
0.0
 20
0.0
 30
0.0
 70
   128
 71
    54
 72
    76
 73
    74
  0
VERTEX
  5
28A
  8
0
 62
     9
 10
0.0
 20
0.0
 30
0.0
 70
   128
 71
    74
 72
    71
 73
    62
  0
VERTEX
  5
28B
  8
0
 62
     9
 10
0.0
 20
0.0
 30
0.0
 70
   128
 71
    62
 72
    54
 73
    74
  0
VERTEX
  5
28C
  8
0
 62
     9
 10
0.0
 20
0.0
 30
0.0
 70
   128
 71
    62
 72
    71
 73
    60
  0
VERTEX
  5
28D
  8
0
 62
     9
 10
0.0
 20
0.0
 30
0.0
 70
   128
 71
    76
 72
    54
 73
    75
  0
VERTEX
  5
28E
  8
0
 62
     9
 10
0.0
 20
0.0
 30
0.0
 70
   128
 71
    72
 72
    75
 73
    55
  0
VERTEX
  5
28F
  8
0
 62
     9
 10
0.0
 20
0.0
 30
0.0
 70
   128
 71
    54
 72
    55
 73
    75
  0
VERTEX
  5
290
  8
0
 62
     9
 10
0.0
 20
0.0
 30
0.0
 70
   128
 71
    51
 72
    72
 73
    55
  0
VERTEX
  5
291
  8
0
 62
     9
 10
0.0
 20
0.0
 30
0.0
 70
   128
 71
    49
 72
    67
 73
    65
  0
VERTEX
  5
292
  8
0
 62
     9
 10
0.0
 20
0.0
 30
0.0
 70
   128
 71
    49
 72
    65
 73
    51
  0
VERTEX
  5
293
  8
0
 62
     9
 10
0.0
 20
0.0
 30
0.0
 70
   128
 71
    72
 72
    51
 73
    65
  0
VERTEX
  5
294
  8
0
 62
     9
 10
0.0
 20
0.0
 30
0.0
 70
   128
 71
    67
 72
    49
 73
    52
  0
VERTEX
  5
295
  8
0
 62
     9
 10
0.0
 20
0.0
 30
0.0
 70
   128
 71
    67
 72
    52
 73
    66
  0
VERTEX
  5
296
  8
0
 62
     9
 10
0.0
 20
0.0
 30
0.0
 70
   128
 71
    66
 72
    59
 73
    60
  0
VERTEX
  5
297
  8
0
 62
     9
 10
0.0
 20
0.0
 30
0.0
 70
   128
 71
    52
 72
    59
 73
    66
  0
VERTEX
  5
298
  8
0
 62
     9
 10
0.0
 20
0.0
 30
0.0
 70
   128
 71
    71
 72
    66
 73
    60
  0
VERTEX
  5
299
  8
0
 62
     9
 10
0.0
 20
0.0
 30
0.0
 70
   128
 71
    68
 72
    69
 73
    70
  0
VERTEX
  5
29A
  8
0
 62
     9
 10
0.0
 20
0.0
 30
0.0
 70
   128
 71
    64
 72
    68
 73
    73
  0
VERTEX
  5
29B
  8
0
 62
     9
 10
0.0
 20
0.0
 30
0.0
 70
   128
 71
    77
 72
    78
 73
    63
  0
VERTEX
  5
29C
  8
0
 62
     9
 10
0.0
 20
0.0
 30
0.0
 70
   128
 71
    68
 72
    70
 73
    73
  0
VERTEX
  5
29D
  8
0
 62
     9
 10
0.0
 20
0.0
 30
0.0
 70
   128
 71
    64
 72
    73
 73
    77
  0
VERTEX
  5
29E
  8
0
 62
     9
 10
0.0
 20
0.0
 30
0.0
 70
   128
 71
    63
 72
    64
 73
    77
  0
VERTEX
  5
29F
  8
0
 62
     9
 10
0.0
 20
0.0
 30
0.0
 70
   128
 71
    80
 72
     1
 73
    79
  0
VERTEX
  5
2A0
  8
0
 62
     9
 10
0.0
 20
0.0
 30
0.0
 70
   128
 71
     4
 72
    81
 73
    10
  0
VERTEX
  5
2A1
  8
0
 62
     9
 10
0.0
 20
0.0
 30
0.0
 70
   128
 71
    82
 72
    10
 73
    81
  0
VERTEX
  5
2A2
  8
0
 62
     9
 10
0.0
 20
0.0
 30
0.0
 70
   128
 71
    82
 72
    83
 73
     8
  0
VERTEX
  5
2A3
  8
0
 62
     9
 10
0.0
 20
0.0
 30
0.0
 70
   128
 71
     8
 72
    10
 73
    82
  0
VERTEX
  5
2A4
  8
0
 62
     9
 10
0.0
 20
0.0
 30
0.0
 70
   128
 71
     8
 72
    83
 73
    13
  0
VERTEX
  5
2A5
  8
0
 62
     9
 10
0.0
 20
0.0
 30
0.0
 70
   128
 71
    83
 72
    84
 73
    13
  0
VERTEX
  5
2A6
  8
0
 62
     9
 10
0.0
 20
0.0
 30
0.0
 70
   128
 71
     4
 72
    85
 73
    81
  0
VERTEX
  5
2A7
  8
0
 62
     9
 10
0.0
 20
0.0
 30
0.0
 70
   128
 71
     4
 72
     5
 73
    86
  0
VERTEX
  5
2A8
  8
0
 62
     9
 10
0.0
 20
0.0
 30
0.0
 70
   128
 71
    86
 72
    85
 73
     4
  0
VERTEX
  5
2A9
  8
0
 62
     9
 10
0.0
 20
0.0
 30
0.0
 70
   128
 71
     3
 72
    87
 73
     5
  0
VERTEX
  5
2AA
  8
0
 62
     9
 10
0.0
 20
0.0
 30
0.0
 70
   128
 71
    86
 72
     5
 73
    87
  0
VERTEX
  5
2AB
  8
0
 62
     9
 10
0.0
 20
0.0
 30
0.0
 70
   128
 71
    80
 72
     3
 73
     1
  0
VERTEX
  5
2AC
  8
0
 62
     9
 10
0.0
 20
0.0
 30
0.0
 70
   128
 71
     3
 72
    80
 73
    87
  0
VERTEX
  5
2AD
  8
0
 62
     9
 10
0.0
 20
0.0
 30
0.0
 70
   128
 71
    89
 72
    28
 73
    88
  0
VERTEX
  5
2AE
  8
0
 62
     9
 10
0.0
 20
0.0
 30
0.0
 70
   128
 71
    32
 72
    90
 73
    79
  0
VERTEX
  5
2AF
  8
0
 62
     9
 10
0.0
 20
0.0
 30
0.0
 70
   128
 71
    92
 72
    50
 73
    91
  0
VERTEX
  5
2B0
  8
0
 62
     9
 10
0.0
 20
0.0
 30
0.0
 70
   128
 71
    92
 72
    88
 73
    29
  0
VERTEX
  5
2B1
  8
0
 62
     9
 10
0.0
 20
0.0
 30
0.0
 70
   128
 71
    53
 72
    56
 73
    93
  0
VERTEX
  5
2B2
  8
0
 62
     9
 10
0.0
 20
0.0
 30
0.0
 70
   128
 71
    93
 72
    91
 73
    53
  0
VERTEX
  5
2B3
  8
0
 62
     9
 10
0.0
 20
0.0
 30
0.0
 70
   128
 71
    53
 72
    91
 73
    50
  0
VERTEX
  5
2B4
  8
0
 62
     9
 10
0.0
 20
0.0
 30
0.0
 70
   128
 71
    50
 72
    92
 73
    27
  0
VERTEX
  5
2B5
  8
0
 62
     9
 10
0.0
 20
0.0
 30
0.0
 70
   128
 71
    27
 72
    48
 73
    50
  0
VERTEX
  5
2B6
  8
0
 62
     9
 10
0.0
 20
0.0
 30
0.0
 70
   128
 71
    34
 72
    48
 73
    27
  0
VERTEX
  5
2B7
  8
0
 62
     9
 10
0.0
 20
0.0
 30
0.0
 70
   128
 71
    48
 72
    34
 73
    47
  0
VERTEX
  5
2B8
  8
0
 62
     9
 10
0.0
 20
0.0
 30
0.0
 70
   128
 71
    29
 72
    88
 73
    28
  0
VERTEX
  5
2B9
  8
0
 62
     9
 10
0.0
 20
0.0
 30
0.0
 70
   128
 71
    92
 72
    29
 73
    27
  0
VERTEX
  5
2BA
  8
0
 62
     9
 10
0.0
 20
0.0
 30
0.0
 70
   128
 71
    32
 72
    28
 73
    90
  0
VERTEX
  5
2BB
  8
0
 62
     9
 10
0.0
 20
0.0
 30
0.0
 70
   128
 71
    28
 72
    89
 73
    90
  0
VERTEX
  5
2BC
  8
0
 62
     9
 10
0.0
 20
0.0
 30
0.0
 70
   128
 71
    79
 72
     1
 73
    32
  0
VERTEX
  5
2BD
  8
0
 62
     9
 10
0.0
 20
0.0
 30
0.0
 70
   128
 71
    96
 72
    95
 73
    94
  0
VERTEX
  5
2BE
  8
0
 62
     9
 10
0.0
 20
0.0
 30
0.0
 70
   128
 71
    99
 72
    98
 73
    97
  0
VERTEX
  5
2BF
  8
0
 62
     9
 10
0.0
 20
0.0
 30
0.0
 70
   128
 71
   102
 72
   101
 73
   100
  0
VERTEX
  5
2C0
  8
0
 62
     9
 10
0.0
 20
0.0
 30
0.0
 70
   128
 71
    95
 72
   102
 73
   100
  0
VERTEX
  5
2C1
  8
0
 62
     9
 10
0.0
 20
0.0
 30
0.0
 70
   128
 71
   101
 72
   102
 73
   103
  0
VERTEX
  5
2C2
  8
0
 62
     9
 10
0.0
 20
0.0
 30
0.0
 70
   128
 71
   103
 72
   105
 73
   104
  0
VERTEX
  5
2C3
  8
0
 62
     9
 10
0.0
 20
0.0
 30
0.0
 70
   128
 71
   104
 72
   101
 73
   103
  0
VERTEX
  5
2C4
  8
0
 62
     9
 10
0.0
 20
0.0
 30
0.0
 70
   128
 71
   105
 72
   106
 73
   104
  0
VERTEX
  5
2C5
  8
0
 62
     9
 10
0.0
 20
0.0
 30
0.0
 70
   128
 71
   105
 72
   107
 73
   106
  0
VERTEX
  5
2C6
  8
0
 62
     9
 10
0.0
 20
0.0
 30
0.0
 70
   128
 71
    94
 72
    95
 73
   100
  0
VERTEX
  5
2C7
  8
0
 62
     9
 10
0.0
 20
0.0
 30
0.0
 70
   128
 71
   108
 72
   106
 73
   107
  0
VERTEX
  5
2C8
  8
0
 62
     9
 10
0.0
 20
0.0
 30
0.0
 70
   128
 71
    96
 72
    94
 73
   109
  0
VERTEX
  5
2C9
  8
0
 62
     9
 10
0.0
 20
0.0
 30
0.0
 70
   128
 71
   111
 72
   109
 73
   110
  0
VERTEX
  5
2CA
  8
0
 62
     9
 10
0.0
 20
0.0
 30
0.0
 70
   128
 71
   109
 72
   111
 73
    96
  0
VERTEX
  5
2CB
  8
0
 62
     9
 10
0.0
 20
0.0
 30
0.0
 70
   128
 71
   110
 72
   113
 73
   112
  0
VERTEX
  5
2CC
  8
0
 62
     9
 10
0.0
 20
0.0
 30
0.0
 70
   128
 71
   112
 72
   111
 73
   110
  0
VERTEX
  5
2CD
  8
0
 62
     9
 10
0.0
 20
0.0
 30
0.0
 70
   128
 71
   115
 72
   114
 73
   113
  0
VERTEX
  5
2CE
  8
0
 62
     9
 10
0.0
 20
0.0
 30
0.0
 70
   128
 71
   112
 72
   113
 73
   114
  0
VERTEX
  5
2CF
  8
0
 62
     9
 10
0.0
 20
0.0
 30
0.0
 70
   128
 71
    99
 72
   115
 73
    98
  0
VERTEX
  5
2D0
  8
0
 62
     9
 10
0.0
 20
0.0
 30
0.0
 70
   128
 71
   115
 72
    99
 73
   114
  0
VERTEX
  5
2D1
  8
0
 62
     9
 10
0.0
 20
0.0
 30
0.0
 70
   128
 71
   102
 72
    95
 73
   116
  0
VERTEX
  5
2D2
  8
0
 62
     9
 10
0.0
 20
0.0
 30
0.0
 70
   128
 71
   103
 72
   118
 73
   117
  0
VERTEX
  5
2D3
  8
0
 62
     9
 10
0.0
 20
0.0
 30
0.0
 70
   128
 71
   116
 72
   118
 73
   102
  0
VERTEX
  5
2D4
  8
0
 62
     9
 10
0.0
 20
0.0
 30
0.0
 70
   128
 71
   119
 72
   105
 73
   103
  0
VERTEX
  5
2D5
  8
0
 62
     9
 10
0.0
 20
0.0
 30
0.0
 70
   128
 71
   103
 72
   102
 73
   118
  0
VERTEX
  5
2D6
  8
0
 62
     9
 10
0.0
 20
0.0
 30
0.0
 70
   128
 71
   117
 72
   119
 73
   103
  0
VERTEX
  5
2D7
  8
0
 62
     9
 10
0.0
 20
0.0
 30
0.0
 70
   128
 71
   116
 72
    95
 73
   120
  0
VERTEX
  5
2D8
  8
0
 62
     9
 10
0.0
 20
0.0
 30
0.0
 70
   128
 71
   119
 72
   121
 73
   105
  0
VERTEX
  5
2D9
  8
0
 62
     9
 10
0.0
 20
0.0
 30
0.0
 70
   128
 71
   107
 72
   105
 73
   121
  0
VERTEX
  5
2DA
  8
0
 62
     9
 10
0.0
 20
0.0
 30
0.0
 70
   128
 71
   107
 72
   121
 73
   122
  0
VERTEX
  5
2DB
  8
0
 62
     9
 10
0.0
 20
0.0
 30
0.0
 70
   128
 71
    95
 72
    96
 73
   120
  0
VERTEX
  5
2DC
  8
0
 62
     9
 10
0.0
 20
0.0
 30
0.0
 70
   128
 71
    96
 72
   124
 73
   123
  0
VERTEX
  5
2DD
  8
0
 62
     9
 10
0.0
 20
0.0
 30
0.0
 70
   128
 71
   120
 72
    96
 73
   123
  0
VERTEX
  5
2DE
  8
0
 62
     9
 10
0.0
 20
0.0
 30
0.0
 70
   128
 71
   125
 72
   124
 73
   111
  0
VERTEX
  5
2DF
  8
0
 62
     9
 10
0.0
 20
0.0
 30
0.0
 70
   128
 71
    96
 72
   111
 73
   124
  0
VERTEX
  5
2E0
  8
0
 62
     9
 10
0.0
 20
0.0
 30
0.0
 70
   128
 71
   125
 72
   112
 73
   126
  0
VERTEX
  5
2E1
  8
0
 62
     9
 10
0.0
 20
0.0
 30
0.0
 70
   128
 71
   112
 72
   125
 73
   111
  0
VERTEX
  5
2E2
  8
0
 62
     9
 10
0.0
 20
0.0
 30
0.0
 70
   128
 71
   114
 72
   127
 73
   126
  0
VERTEX
  5
2E3
  8
0
 62
     9
 10
0.0
 20
0.0
 30
0.0
 70
   128
 71
   126
 72
   112
 73
   114
  0
VERTEX
  5
2E4
  8
0
 62
     9
 10
0.0
 20
0.0
 30
0.0
 70
   128
 71
    99
 72
   128
 73
   114
  0
VERTEX
  5
2E5
  8
0
 62
     9
 10
0.0
 20
0.0
 30
0.0
 70
   128
 71
   127
 72
   114
 73
   128
  0
VERTEX
  5
2E6
  8
0
 62
     9
 10
0.0
 20
0.0
 30
0.0
 70
   128
 71
   129
 72
    99
 73
    97
  0
VERTEX
  5
2E7
  8
0
 62
     9
 10
0.0
 20
0.0
 30
0.0
 70
   128
 71
    99
 72
   129
 73
   128
  0
VERTEX
  5
2E8
  8
0
 62
     9
 10
0.0
 20
0.0
 30
0.0
 70
   128
 71
   130
 72
   129
 73
    97
  0
VERTEX
  5
2E9
  8
0
 62
     9
 10
0.0
 20
0.0
 30
0.0
 70
   128
 71
   132
 72
   122
 73
   131
  0
VERTEX
  5
2EA
  8
0
 62
     9
 10
0.0
 20
0.0
 30
0.0
 70
   128
 71
   135
 72
   134
 73
   133
  0
VERTEX
  5
2EB
  8
0
 62
     9
 10
0.0
 20
0.0
 30
0.0
 70
   128
 71
   138
 72
   137
 73
   136
  0
VERTEX
  5
2EC
  8
0
 62
     9
 10
0.0
 20
0.0
 30
0.0
 70
   128
 71
   141
 72
   140
 73
   139
  0
VERTEX
  5
2ED
  8
0
 62
     9
 10
0.0
 20
0.0
 30
0.0
 70
   128
 71
   144
 72
   143
 73
   142
  0
VERTEX
  5
2EE
  8
0
 62
     9
 10
0.0
 20
0.0
 30
0.0
 70
   128
 71
   147
 72
   146
 73
   145
  0
VERTEX
  5
2EF
  8
0
 62
     9
 10
0.0
 20
0.0
 30
0.0
 70
   128
 71
   150
 72
   149
 73
   148
  0
VERTEX
  5
2F0
  8
0
 62
     9
 10
0.0
 20
0.0
 30
0.0
 70
   128
 71
   150
 72
   152
 73
   151
  0
VERTEX
  5
2F1
  8
0
 62
     9
 10
0.0
 20
0.0
 30
0.0
 70
   128
 71
   154
 72
   153
 73
   148
  0
VERTEX
  5
2F2
  8
0
 62
     9
 10
0.0
 20
0.0
 30
0.0
 70
   128
 71
   148
 72
   149
 73
   154
  0
VERTEX
  5
2F3
  8
0
 62
     9
 10
0.0
 20
0.0
 30
0.0
 70
   128
 71
   156
 72
   153
 73
   155
  0
VERTEX
  5
2F4
  8
0
 62
     9
 10
0.0
 20
0.0
 30
0.0
 70
   128
 71
   154
 72
   155
 73
   153
  0
VERTEX
  5
2F5
  8
0
 62
     9
 10
0.0
 20
0.0
 30
0.0
 70
   128
 71
   156
 72
    84
 73
   130
  0
VERTEX
  5
2F6
  8
0
 62
     9
 10
0.0
 20
0.0
 30
0.0
 70
   128
 71
    84
 72
   156
 73
   155
  0
VERTEX
  5
2F7
  8
0
 62
     9
 10
0.0
 20
0.0
 30
0.0
 70
   128
 71
   142
 72
   143
 73
   152
  0
VERTEX
  5
2F8
  8
0
 62
     9
 10
0.0
 20
0.0
 30
0.0
 70
   128
 71
   152
 72
   143
 73
   151
  0
VERTEX
  5
2F9
  8
0
 62
     9
 10
0.0
 20
0.0
 30
0.0
 70
   128
 71
   151
 72
   149
 73
   150
  0
VERTEX
  5
2FA
  8
0
 62
     9
 10
0.0
 20
0.0
 30
0.0
 70
   128
 71
   144
 72
   145
 73
   146
  0
VERTEX
  5
2FB
  8
0
 62
     9
 10
0.0
 20
0.0
 30
0.0
 70
   128
 71
   144
 72
   142
 73
   145
  0
VERTEX
  5
2FC
  8
0
 62
     9
 10
0.0
 20
0.0
 30
0.0
 70
   128
 71
   147
 72
   137
 73
   138
  0
VERTEX
  5
2FD
  8
0
 62
     9
 10
0.0
 20
0.0
 30
0.0
 70
   128
 71
   146
 72
   147
 73
   138
  0
VERTEX
  5
2FE
  8
0
 62
     9
 10
0.0
 20
0.0
 30
0.0
 70
   128
 71
   139
 72
   140
 73
   136
  0
VERTEX
  5
2FF
  8
0
 62
     9
 10
0.0
 20
0.0
 30
0.0
 70
   128
 71
   137
 72
   139
 73
   136
  0
VERTEX
  5
300
  8
0
 62
     9
 10
0.0
 20
0.0
 30
0.0
 70
   128
 71
   133
 72
   134
 73
   141
  0
VERTEX
  5
301
  8
0
 62
     9
 10
0.0
 20
0.0
 30
0.0
 70
   128
 71
   141
 72
   134
 73
   140
  0
VERTEX
  5
302
  8
0
 62
     9
 10
0.0
 20
0.0
 30
0.0
 70
   128
 71
   122
 72
    93
 73
   131
  0
VERTEX
  5
303
  8
0
 62
     9
 10
0.0
 20
0.0
 30
0.0
 70
   128
 71
   131
 72
   135
 73
   132
  0
VERTEX
  5
304
  8
0
 62
     9
 10
0.0
 20
0.0
 30
0.0
 70
   128
 71
   132
 72
   135
 73
   133
  0
VERTEX
  5
305
  8
0
 62
     9
 10
0.0
 20
0.0
 30
0.0
 70
   128
 71
   138
 72
    17
 73
   146
  0
VERTEX
  5
306
  8
0
 62
     9
 10
0.0
 20
0.0
 30
0.0
 70
   128
 71
    58
 72
    47
 73
    34
  0
VERTEX
  5
307
  8
0
 62
     9
 10
0.0
 20
0.0
 30
0.0
 70
   128
 71
    41
 72
    58
 73
    34
  0
VERTEX
  5
308
  8
0
 62
     9
 10
0.0
 20
0.0
 30
0.0
 70
   128
 71
    57
 72
    41
 73
   135
  0
VERTEX
  5
309
  8
0
 62
     9
 10
0.0
 20
0.0
 30
0.0
 70
   128
 71
    41
 72
    57
 73
    58
  0
VERTEX
  5
30A
  8
0
 62
     9
 10
0.0
 20
0.0
 30
0.0
 70
   128
 71
   131
 72
    57
 73
   135
  0
VERTEX
  5
30B
  8
0
 62
     9
 10
0.0
 20
0.0
 30
0.0
 70
   128
 71
    41
 72
    37
 73
   135
  0
VERTEX
  5
30C
  8
0
 62
     9
 10
0.0
 20
0.0
 30
0.0
 70
   128
 71
    37
 72
   134
 73
   135
  0
VERTEX
  5
30D
  8
0
 62
     9
 10
0.0
 20
0.0
 30
0.0
 70
   128
 71
    57
 72
   131
 73
    61
  0
VERTEX
  5
30E
  8
0
 62
     9
 10
0.0
 20
0.0
 30
0.0
 70
   128
 71
    61
 72
   131
 73
    93
  0
VERTEX
  5
30F
  8
0
 62
     9
 10
0.0
 20
0.0
 30
0.0
 70
   128
 71
    93
 72
    56
 73
    61
  0
VERTEX
  5
310
  8
0
 62
     9
 10
0.0
 20
0.0
 30
0.0
 70
   128
 71
    38
 72
   140
 73
   134
  0
VERTEX
  5
311
  8
0
 62
     9
 10
0.0
 20
0.0
 30
0.0
 70
   128
 71
    38
 72
   134
 73
    37
  0
VERTEX
  5
312
  8
0
 62
     9
 10
0.0
 20
0.0
 30
0.0
 70
   128
 71
    36
 72
   136
 73
    38
  0
VERTEX
  5
313
  8
0
 62
     9
 10
0.0
 20
0.0
 30
0.0
 70
   128
 71
   140
 72
    38
 73
   136
  0
VERTEX
  5
314
  8
0
 62
     9
 10
0.0
 20
0.0
 30
0.0
 70
   128
 71
   138
 72
    36
 73
    17
  0
VERTEX
  5
315
  8
0
 62
     9
 10
0.0
 20
0.0
 30
0.0
 70
   128
 71
    36
 72
   138
 73
   136
  0
VERTEX
  5
316
  8
0
 62
     9
 10
0.0
 20
0.0
 30
0.0
 70
   128
 71
    14
 72
    24
 73
   143
  0
VERTEX
  5
317
  8
0
 62
     9
 10
0.0
 20
0.0
 30
0.0
 70
   128
 71
    18
 72
   144
 73
   146
  0
VERTEX
  5
318
  8
0
 62
     9
 10
0.0
 20
0.0
 30
0.0
 70
   128
 71
   149
 72
    21
 73
   154
  0
VERTEX
  5
319
  8
0
 62
     9
 10
0.0
 20
0.0
 30
0.0
 70
   128
 71
   149
 72
   151
 73
    24
  0
VERTEX
  5
31A
  8
0
 62
     9
 10
0.0
 20
0.0
 30
0.0
 70
   128
 71
    22
 72
    13
 73
   155
  0
VERTEX
  5
31B
  8
0
 62
     9
 10
0.0
 20
0.0
 30
0.0
 70
   128
 71
   155
 72
   154
 73
    22
  0
VERTEX
  5
31C
  8
0
 62
     9
 10
0.0
 20
0.0
 30
0.0
 70
   128
 71
   155
 72
    13
 73
    84
  0
VERTEX
  5
31D
  8
0
 62
     9
 10
0.0
 20
0.0
 30
0.0
 70
   128
 71
   146
 72
    17
 73
    18
  0
VERTEX
  5
31E
  8
0
 62
     9
 10
0.0
 20
0.0
 30
0.0
 70
   128
 71
   149
 72
    24
 73
    21
  0
VERTEX
  5
31F
  8
0
 62
     9
 10
0.0
 20
0.0
 30
0.0
 70
   128
 71
   154
 72
    21
 73
    22
  0
VERTEX
  5
320
  8
0
 62
     9
 10
0.0
 20
0.0
 30
0.0
 70
   128
 71
   143
 72
    24
 73
   151
  0
VERTEX
  5
321
  8
0
 62
     9
 10
0.0
 20
0.0
 30
0.0
 70
   128
 71
   144
 72
    14
 73
   143
  0
VERTEX
  5
322
  8
0
 62
     9
 10
0.0
 20
0.0
 30
0.0
 70
   128
 71
    18
 72
    14
 73
   144
  0
VERTEX
  5
323
  8
0
 62
     9
 10
0.0
 20
0.0
 30
0.0
 70
   128
 71
   159
 72
   158
 73
   157
  0
VERTEX
  5
324
  8
0
 62
     9
 10
0.0
 20
0.0
 30
0.0
 70
   128
 71
   160
 72
   108
 73
   107
  0
VERTEX
  5
325
  8
0
 62
     9
 10
0.0
 20
0.0
 30
0.0
 70
   128
 71
   163
 72
   162
 73
   161
  0
VERTEX
  5
326
  8
0
 62
     9
 10
0.0
 20
0.0
 30
0.0
 70
   128
 71
   158
 72
   163
 73
   161
  0
VERTEX
  5
327
  8
0
 62
     9
 10
0.0
 20
0.0
 30
0.0
 70
   128
 71
   162
 72
   163
 73
   164
  0
VERTEX
  5
328
  8
0
 62
     9
 10
0.0
 20
0.0
 30
0.0
 70
   128
 71
   164
 72
   165
 73
   162
  0
VERTEX
  5
329
  8
0
 62
     9
 10
0.0
 20
0.0
 30
0.0
 70
   128
 71
   164
 72
   166
 73
   165
  0
VERTEX
  5
32A
  8
0
 62
     9
 10
0.0
 20
0.0
 30
0.0
 70
   128
 71
   166
 72
   167
 73
   165
  0
VERTEX
  5
32B
  8
0
 62
     9
 10
0.0
 20
0.0
 30
0.0
 70
   128
 71
   166
 72
    97
 73
   167
  0
VERTEX
  5
32C
  8
0
 62
     9
 10
0.0
 20
0.0
 30
0.0
 70
   128
 71
   157
 72
   158
 73
   161
  0
VERTEX
  5
32D
  8
0
 62
     9
 10
0.0
 20
0.0
 30
0.0
 70
   128
 71
    98
 72
   167
 73
    97
  0
VERTEX
  5
32E
  8
0
 62
     9
 10
0.0
 20
0.0
 30
0.0
 70
   128
 71
   159
 72
   157
 73
   168
  0
VERTEX
  5
32F
  8
0
 62
     9
 10
0.0
 20
0.0
 30
0.0
 70
   128
 71
   170
 72
   168
 73
   169
  0
VERTEX
  5
330
  8
0
 62
     9
 10
0.0
 20
0.0
 30
0.0
 70
   128
 71
   168
 72
   170
 73
   159
  0
VERTEX
  5
331
  8
0
 62
     9
 10
0.0
 20
0.0
 30
0.0
 70
   128
 71
   169
 72
   172
 73
   171
  0
VERTEX
  5
332
  8
0
 62
     9
 10
0.0
 20
0.0
 30
0.0
 70
   128
 71
   171
 72
   170
 73
   169
  0
VERTEX
  5
333
  8
0
 62
     9
 10
0.0
 20
0.0
 30
0.0
 70
   128
 71
   174
 72
   173
 73
   172
  0
VERTEX
  5
334
  8
0
 62
     9
 10
0.0
 20
0.0
 30
0.0
 70
   128
 71
   171
 72
   172
 73
   173
  0
VERTEX
  5
335
  8
0
 62
     9
 10
0.0
 20
0.0
 30
0.0
 70
   128
 71
   160
 72
   174
 73
   108
  0
VERTEX
  5
336
  8
0
 62
     9
 10
0.0
 20
0.0
 30
0.0
 70
   128
 71
   174
 72
   160
 73
   173
  0
VERTEX
  5
337
  8
0
 62
     9
 10
0.0
 20
0.0
 30
0.0
 70
   128
 71
   147
 72
   145
 73
   159
  0
VERTEX
  5
338
  8
0
 62
     9
 10
0.0
 20
0.0
 30
0.0
 70
   128
 71
   145
 72
   142
 73
   159
  0
VERTEX
  5
339
  8
0
 62
     9
 10
0.0
 20
0.0
 30
0.0
 70
   128
 71
   147
 72
   170
 73
   137
  0
VERTEX
  5
33A
  8
0
 62
     9
 10
0.0
 20
0.0
 30
0.0
 70
   128
 71
   170
 72
   147
 73
   159
  0
VERTEX
  5
33B
  8
0
 62
     9
 10
0.0
 20
0.0
 30
0.0
 70
   128
 71
   171
 72
   139
 73
   137
  0
VERTEX
  5
33C
  8
0
 62
     9
 10
0.0
 20
0.0
 30
0.0
 70
   128
 71
   137
 72
   170
 73
   171
  0
VERTEX
  5
33D
  8
0
 62
     9
 10
0.0
 20
0.0
 30
0.0
 70
   128
 71
   173
 72
   141
 73
   171
  0
VERTEX
  5
33E
  8
0
 62
     9
 10
0.0
 20
0.0
 30
0.0
 70
   128
 71
   139
 72
   171
 73
   141
  0
VERTEX
  5
33F
  8
0
 62
     9
 10
0.0
 20
0.0
 30
0.0
 70
   128
 71
   133
 72
   173
 73
   160
  0
VERTEX
  5
340
  8
0
 62
     9
 10
0.0
 20
0.0
 30
0.0
 70
   128
 71
   173
 72
   133
 73
   141
  0
VERTEX
  5
341
  8
0
 62
     9
 10
0.0
 20
0.0
 30
0.0
 70
   128
 71
   142
 72
   158
 73
   159
  0
VERTEX
  5
342
  8
0
 62
     9
 10
0.0
 20
0.0
 30
0.0
 70
   128
 71
   107
 72
   132
 73
   160
  0
VERTEX
  5
343
  8
0
 62
     9
 10
0.0
 20
0.0
 30
0.0
 70
   128
 71
   133
 72
   160
 73
   132
  0
VERTEX
  5
344
  8
0
 62
     9
 10
0.0
 20
0.0
 30
0.0
 70
   128
 71
   107
 72
   122
 73
   132
  0
VERTEX
  5
345
  8
0
 62
     9
 10
0.0
 20
0.0
 30
0.0
 70
   128
 71
   158
 72
   142
 73
   152
  0
VERTEX
  5
346
  8
0
 62
     9
 10
0.0
 20
0.0
 30
0.0
 70
   128
 71
   150
 72
   163
 73
   152
  0
VERTEX
  5
347
  8
0
 62
     9
 10
0.0
 20
0.0
 30
0.0
 70
   128
 71
   158
 72
   152
 73
   163
  0
VERTEX
  5
348
  8
0
 62
     9
 10
0.0
 20
0.0
 30
0.0
 70
   128
 71
   164
 72
   150
 73
   148
  0
VERTEX
  5
349
  8
0
 62
     9
 10
0.0
 20
0.0
 30
0.0
 70
   128
 71
   150
 72
   164
 73
   163
  0
VERTEX
  5
34A
  8
0
 62
     9
 10
0.0
 20
0.0
 30
0.0
 70
   128
 71
   153
 72
   166
 73
   164
  0
VERTEX
  5
34B
  8
0
 62
     9
 10
0.0
 20
0.0
 30
0.0
 70
   128
 71
   164
 72
   148
 73
   153
  0
VERTEX
  5
34C
  8
0
 62
     9
 10
0.0
 20
0.0
 30
0.0
 70
   128
 71
    97
 72
   166
 73
   156
  0
VERTEX
  5
34D
  8
0
 62
     9
 10
0.0
 20
0.0
 30
0.0
 70
   128
 71
   153
 72
   156
 73
   166
  0
VERTEX
  5
34E
  8
0
 62
     9
 10
0.0
 20
0.0
 30
0.0
 70
   128
 71
   130
 72
    97
 73
   156
  0
VERTEX
  5
34F
  8
0
 62
     9
 10
0.0
 20
0.0
 30
0.0
 70
   128
 71
   109
 72
   175
 73
   110
  0
VERTEX
  5
350
  8
0
 62
     9
 10
0.0
 20
0.0
 30
0.0
 70
   128
 71
   176
 72
    98
 73
   175
  0
VERTEX
  5
351
  8
0
 62
     9
 10
0.0
 20
0.0
 30
0.0
 70
   128
 71
    94
 72
   177
 73
   175
  0
VERTEX
  5
352
  8
0
 62
     9
 10
0.0
 20
0.0
 30
0.0
 70
   128
 71
   175
 72
    98
 73
   115
  0
VERTEX
  5
353
  8
0
 62
     9
 10
0.0
 20
0.0
 30
0.0
 70
   128
 71
   175
 72
   113
 73
   110
  0
VERTEX
  5
354
  8
0
 62
     9
 10
0.0
 20
0.0
 30
0.0
 70
   128
 71
   175
 72
   109
 73
    94
  0
VERTEX
  5
355
  8
0
 62
     9
 10
0.0
 20
0.0
 30
0.0
 70
   128
 71
    98
 72
   176
 73
   167
  0
VERTEX
  5
356
  8
0
 62
     9
 10
0.0
 20
0.0
 30
0.0
 70
   128
 71
   177
 72
    94
 73
   100
  0
VERTEX
  5
357
  8
0
 62
     9
 10
0.0
 20
0.0
 30
0.0
 70
   128
 71
   165
 72
   176
 73
   162
  0
VERTEX
  5
358
  8
0
 62
     9
 10
0.0
 20
0.0
 30
0.0
 70
   128
 71
   162
 72
   176
 73
   161
  0
VERTEX
  5
359
  8
0
 62
     9
 10
0.0
 20
0.0
 30
0.0
 70
   128
 71
   177
 72
   101
 73
   104
  0
VERTEX
  5
35A
  8
0
 62
     9
 10
0.0
 20
0.0
 30
0.0
 70
   128
 71
   178
 72
   157
 73
   176
  0
VERTEX
  5
35B
  8
0
 62
     9
 10
0.0
 20
0.0
 30
0.0
 70
   128
 71
   157
 72
   161
 73
   176
  0
VERTEX
  5
35C
  8
0
 62
     9
 10
0.0
 20
0.0
 30
0.0
 70
   128
 71
   168
 72
   178
 73
   169
  0
VERTEX
  5
35D
  8
0
 62
     9
 10
0.0
 20
0.0
 30
0.0
 70
   128
 71
   157
 72
   178
 73
   168
  0
VERTEX
  5
35E
  8
0
 62
     9
 10
0.0
 20
0.0
 30
0.0
 70
   128
 71
   178
 72
   174
 73
   172
  0
VERTEX
  5
35F
  8
0
 62
     9
 10
0.0
 20
0.0
 30
0.0
 70
   128
 71
   178
 72
   172
 73
   169
  0
VERTEX
  5
360
  8
0
 62
     9
 10
0.0
 20
0.0
 30
0.0
 70
   128
 71
   174
 72
   178
 73
   108
  0
VERTEX
  5
361
  8
0
 62
     9
 10
0.0
 20
0.0
 30
0.0
 70
   128
 71
   108
 72
   177
 73
   106
  0
VERTEX
  5
362
  8
0
 62
     9
 10
0.0
 20
0.0
 30
0.0
 70
   128
 71
   177
 72
   104
 73
   106
  0
VERTEX
  5
363
  8
0
 62
     9
 10
0.0
 20
0.0
 30
0.0
 70
   128
 71
   177
 72
   178
 73
   176
  0
VERTEX
  5
364
  8
0
 62
     9
 10
0.0
 20
0.0
 30
0.0
 70
   128
 71
   176
 72
   165
 73
   167
  0
VERTEX
  5
365
  8
0
 62
     9
 10
0.0
 20
0.0
 30
0.0
 70
   128
 71
   177
 72
   108
 73
   178
  0
VERTEX
  5
366
  8
0
 62
     9
 10
0.0
 20
0.0
 30
0.0
 70
   128
 71
   177
 72
   100
 73
   101
  0
VERTEX
  5
367
  8
0
 62
     9
 10
0.0
 20
0.0
 30
0.0
 70
   128
 71
   113
 72
   175
 73
   115
  0
VERTEX
  5
368
  8
0
 62
     9
 10
0.0
 20
0.0
 30
0.0
 70
   128
 71
   175
 72
   177
 73
   176
  0
VERTEX
  5
369
  8
0
 62
     9
 10
0.0
 20
0.0
 30
0.0
 70
   128
 71
   129
 72
   130
 73
    83
  0
VERTEX
  5
36A
  8
0
 62
     9
 10
0.0
 20
0.0
 30
0.0
 70
   128
 71
    82
 72
    81
 73
   128
  0
VERTEX
  5
36B
  8
0
 62
     9
 10
0.0
 20
0.0
 30
0.0
 70
   128
 71
    87
 72
   125
 73
    86
  0
VERTEX
  5
36C
  8
0
 62
     9
 10
0.0
 20
0.0
 30
0.0
 70
   128
 71
   127
 72
    85
 73
   126
  0
VERTEX
  5
36D
  8
0
 62
     9
 10
0.0
 20
0.0
 30
0.0
 70
   128
 71
    79
 72
    90
 73
   120
  0
VERTEX
  5
36E
  8
0
 62
     9
 10
0.0
 20
0.0
 30
0.0
 70
   128
 71
   124
 72
    80
 73
   123
  0
VERTEX
  5
36F
  8
0
 62
     9
 10
0.0
 20
0.0
 30
0.0
 70
   128
 71
   118
 72
    88
 73
   117
  0
VERTEX
  5
370
  8
0
 62
     9
 10
0.0
 20
0.0
 30
0.0
 70
   128
 71
   118
 72
   116
 73
    89
  0
VERTEX
  5
371
  8
0
 62
     9
 10
0.0
 20
0.0
 30
0.0
 70
   128
 71
    92
 72
   119
 73
   117
  0
VERTEX
  5
372
  8
0
 62
     9
 10
0.0
 20
0.0
 30
0.0
 70
   128
 71
   117
 72
    88
 73
    92
  0
VERTEX
  5
373
  8
0
 62
     9
 10
0.0
 20
0.0
 30
0.0
 70
   128
 71
   121
 72
   119
 73
    91
  0
VERTEX
  5
374
  8
0
 62
     9
 10
0.0
 20
0.0
 30
0.0
 70
   128
 71
    92
 72
    91
 73
   119
  0
VERTEX
  5
375
  8
0
 62
     9
 10
0.0
 20
0.0
 30
0.0
 70
   128
 71
   121
 72
    93
 73
   122
  0
VERTEX
  5
376
  8
0
 62
     9
 10
0.0
 20
0.0
 30
0.0
 70
   128
 71
    93
 72
   121
 73
    91
  0
VERTEX
  5
377
  8
0
 62
     9
 10
0.0
 20
0.0
 30
0.0
 70
   128
 71
    89
 72
    88
 73
   118
  0
VERTEX
  5
378
  8
0
 62
     9
 10
0.0
 20
0.0
 30
0.0
 70
   128
 71
   116
 72
    90
 73
    89
  0
VERTEX
  5
379
  8
0
 62
     9
 10
0.0
 20
0.0
 30
0.0
 70
   128
 71
   123
 72
    79
 73
   120
  0
VERTEX
  5
37A
  8
0
 62
     9
 10
0.0
 20
0.0
 30
0.0
 70
   128
 71
    90
 72
   116
 73
   120
  0
VERTEX
  5
37B
  8
0
 62
     9
 10
0.0
 20
0.0
 30
0.0
 70
   128
 71
    87
 72
    80
 73
   124
  0
VERTEX
  5
37C
  8
0
 62
     9
 10
0.0
 20
0.0
 30
0.0
 70
   128
 71
    79
 72
   123
 73
    80
  0
VERTEX
  5
37D
  8
0
 62
     9
 10
0.0
 20
0.0
 30
0.0
 70
   128
 71
   125
 72
   126
 73
    86
  0
VERTEX
  5
37E
  8
0
 62
     9
 10
0.0
 20
0.0
 30
0.0
 70
   128
 71
   124
 72
   125
 73
    87
  0
VERTEX
  5
37F
  8
0
 62
     9
 10
0.0
 20
0.0
 30
0.0
 70
   128
 71
   126
 72
    85
 73
    86
  0
VERTEX
  5
380
  8
0
 62
     9
 10
0.0
 20
0.0
 30
0.0
 70
   128
 71
    81
 72
   127
 73
   128
  0
VERTEX
  5
381
  8
0
 62
     9
 10
0.0
 20
0.0
 30
0.0
 70
   128
 71
   127
 72
    81
 73
    85
  0
VERTEX
  5
382
  8
0
 62
     9
 10
0.0
 20
0.0
 30
0.0
 70
   128
 71
    82
 72
   129
 73
    83
  0
VERTEX
  5
383
  8
0
 62
     9
 10
0.0
 20
0.0
 30
0.0
 70
   128
 71
   128
 72
   129
 73
    82
  0
VERTEX
  5
384
  8
0
 62
     9
 10
0.0
 20
0.0
 30
0.0
 70
   128
 71
    84
 72
    83
 73
   130
  0
SEQEND
  5
385
  8
0
 62
     9
  0
ENDBLK
  5
388
  8
0
  0
BLOCK
  8
0
  2
41
 70
     0
 10
0.0
 20
0.0
 30
0.0
  3
41
  1

  0
POLYLINE
  5
38A
  8
0
 62
     9
 66
     1
 10
0.0
 20
0.0
 30
0.0
 70
    64
 71
    88
 72
   136
  0
VERTEX
  5
38B
  8
0
 10
18.76161003112793
 20
-0.0000000000208183
 30
187.6020660400391
 70
   192
  0
VERTEX
  5
38C
  8
0
 10
21.72697067260742
 20
-0.0000000000208201
 30
183.1692199707031
 70
   192
  0
VERTEX
  5
38D
  8
0
 10
21.36928939819336
 20
-3.726519584655762
 30
183.2141265869141
 70
   192
  0
VERTEX
  5
38E
  8
0
 10
9.900256156921387
 20
-19.31233596801758
 30
183.2141265869141
 70
   192
  0
VERTEX
  5
38F
  8
0
 10
13.73378467559814
 20
-19.25019645690918
 30
178.2483367919922
 70
   192
  0
VERTEX
  5
390
  8
0
 10
6.932602405548096
 20
-22.599609375
 30
178.2483367919922
 70
   192
  0
VERTEX
  5
391
  8
0
 10
0.0000000000002546
 20
-23.64931297302246
 30
178.2483367919922
 70
   192
  0
VERTEX
  5
392
  8
0
 10
3.762939691543579
 20
-21.378662109375
 30
183.2141265869141
 70
   192
  0
VERTEX
  5
393
  8
0
 10
0.0000000000002605
 20
-21.7342529296875
 30
183.1531982421875
 70
   192
  0
VERTEX
  5
394
  8
0
 10
0.0000000000002674
 20
-14.9629545211792
 30
191.2483367919922
 70
   192
  0
VERTEX
  5
395
  8
0
 10
3.260855913162231
 20
-18.52613639831543
 30
187.5474548339844
 70
   192
  0
VERTEX
  5
396
  8
0
 10
0.0000000000002649
 20
-18.77362442016602
 30
187.5892028808594
 70
   192
  0
VERTEX
  5
397
  8
0
 10
8.579278945922852
 20
-16.73551750183105
 30
187.5474548339844
 70
   192
  0
VERTEX
  5
398
  8
0
 10
15.36627864837646
 20
-15.31159687042236
 30
183.2141265869141
 70
   192
  0
VERTEX
  5
399
  8
0
 10
19.23678779602051
 20
-13.75419998168945
 30
178.2483367919922
 70
   192
  0
VERTEX
  5
39A
  8
0
 10
22.6065731048584
 20
-6.96434497833252
 30
178.2483367919922
 70
   192
  0
VERTEX
  5
39B
  8
0
 10
19.32931518554688
 20
-9.836024284362793
 30
183.2141265869141
 70
   192
  0
VERTEX
  5
39C
  8
0
 10
16.7502326965332
 20
-8.523616790771484
 30
187.5474548339844
 70
   192
  0
VERTEX
  5
39D
  8
0
 10
14.29880619049072
 20
-4.38626766204834
 30
191.2483367919922
 70
   192
  0
VERTEX
  5
39E
  8
0
 10
18.51801490783691
 20
-3.229295253753662
 30
187.5474548339844
 70
   192
  0
VERTEX
  5
39F
  8
0
 10
23.64931297302246
 20
-0.000000000020823
 30
178.2483367919922
 70
   192
  0
VERTEX
  5
3A0
  8
0
 10
14.9629545211792
 20
-0.0000000000208216
 30
191.2483367919922
 70
   192
  0
VERTEX
  5
3A1
  8
0
 10
12.17962646484375
 20
-8.689385414123535
 30
191.2483367919922
 70
   192
  0
VERTEX
  5
3A2
  8
0
 10
13.31597709655762
 20
-13.26859092712402
 30
187.5474548339844
 70
   192
  0
VERTEX
  5
3A3
  8
0
 10
8.702301979064941
 20
-12.171142578125
 30
191.2483367919922
 70
   192
  0
VERTEX
  5
3A4
  8
0
 10
4.406351089477539
 20
-14.3032112121582
 30
191.2483367919922
 70
   192
  0
VERTEX
  5
3A5
  8
0
 10
0.0000000000002614
 20
18.76161003112793
 30
187.6020660400391
 70
   192
  0
VERTEX
  5
3A6
  8
0
 10
0.0000000000002567
 20
21.72697067260742
 30
183.1692199707031
 70
   192
  0
VERTEX
  5
3A7
  8
0
 10
3.726519584655762
 20
21.36928939819336
 30
183.2141265869141
 70
   192
  0
VERTEX
  5
3A8
  8
0
 10
19.31233596801758
 20
9.900256156921387
 30
183.2141265869141
 70
   192
  0
VERTEX
  5
3A9
  8
0
 10
19.25019645690918
 20
13.73378467559814
 30
178.2483367919922
 70
   192
  0
VERTEX
  5
3AA
  8
0
 10
22.599609375
 20
6.932602405548096
 30
178.2483367919922
 70
   192
  0
VERTEX
  5
3AB
  8
0
 10
21.378662109375
 20
3.762939691543579
 30
183.2141265869141
 70
   192
  0
VERTEX
  5
3AC
  8
0
 10
18.52613639831543
 20
3.260855913162231
 30
187.5474548339844
 70
   192
  0
VERTEX
  5
3AD
  8
0
 10
16.73551750183105
 20
8.579278945922852
 30
187.5474548339844
 70
   192
  0
VERTEX
  5
3AE
  8
0
 10
15.31159687042236
 20
15.36627864837646
 30
183.2141265869141
 70
   192
  0
VERTEX
  5
3AF
  8
0
 10
13.75419998168945
 20
19.23678779602051
 30
178.2483367919922
 70
   192
  0
VERTEX
  5
3B0
  8
0
 10
6.96434497833252
 20
22.6065731048584
 30
178.2483367919922
 70
   192
  0
VERTEX
  5
3B1
  8
0
 10
9.836024284362793
 20
19.32931518554688
 30
183.2141265869141
 70
   192
  0
VERTEX
  5
3B2
  8
0
 10
8.523616790771484
 20
16.7502326965332
 30
187.5474548339844
 70
   192
  0
VERTEX
  5
3B3
  8
0
 10
4.38626766204834
 20
14.29880619049072
 30
191.2483367919922
 70
   192
  0
VERTEX
  5
3B4
  8
0
 10
3.229295253753662
 20
18.51801490783691
 30
187.5474548339844
 70
   192
  0
VERTEX
  5
3B5
  8
0
 10
0.0000000000002534
 20
23.64931297302246
 30
178.2483367919922
 70
   192
  0
VERTEX
  5
3B6
  8
0
 10
0.0000000000002603
 20
14.9629545211792
 30
191.2483367919922
 70
   192
  0
VERTEX
  5
3B7
  8
0
 10
8.689385414123535
 20
12.17962646484375
 30
191.2483367919922
 70
   192
  0
VERTEX
  5
3B8
  8
0
 10
13.26859092712402
 20
13.31597709655762
 30
187.5474548339844
 70
   192
  0
VERTEX
  5
3B9
  8
0
 10
12.171142578125
 20
8.702301979064941
 30
191.2483367919922
 70
   192
  0
VERTEX
  5
3BA
  8
0
 10
14.3032112121582
 20
4.406351089477539
 30
191.2483367919922
 70
   192
  0
VERTEX
  5
3BB
  8
0
 10
-18.76161003112793
 20
-0.0000000000208177
 30
187.6020660400391
 70
   192
  0
VERTEX
  5
3BC
  8
0
 10
-21.72697067260742
 20
-0.0000000000208194
 30
183.1692199707031
 70
   192
  0
VERTEX
  5
3BD
  8
0
 10
-21.36928939819336
 20
3.726519584655762
 30
183.2141265869141
 70
   192
  0
VERTEX
  5
3BE
  8
0
 10
-9.900256156921387
 20
19.31233596801758
 30
183.2141265869141
 70
   192
  0
VERTEX
  5
3BF
  8
0
 10
-13.73378467559814
 20
19.25019645690918
 30
178.2483367919922
 70
   192
  0
VERTEX
  5
3C0
  8
0
 10
-6.932602405548096
 20
22.599609375
 30
178.2483367919922
 70
   192
  0
VERTEX
  5
3C1
  8
0
 10
-3.762939691543579
 20
21.378662109375
 30
183.2141265869141
 70
   192
  0
VERTEX
  5
3C2
  8
0
 10
-3.260855913162231
 20
18.52613639831543
 30
187.5474548339844
 70
   192
  0
VERTEX
  5
3C3
  8
0
 10
-8.579278945922852
 20
16.73551750183105
 30
187.5474548339844
 70
   192
  0
VERTEX
  5
3C4
  8
0
 10
-15.36627864837646
 20
15.31159687042236
 30
183.2141265869141
 70
   192
  0
VERTEX
  5
3C5
  8
0
 10
-19.23678779602051
 20
13.75419998168945
 30
178.2483367919922
 70
   192
  0
VERTEX
  5
3C6
  8
0
 10
-22.6065731048584
 20
6.96434497833252
 30
178.2483367919922
 70
   192
  0
VERTEX
  5
3C7
  8
0
 10
-19.32931518554688
 20
9.836024284362793
 30
183.2141265869141
 70
   192
  0
VERTEX
  5
3C8
  8
0
 10
-16.7502326965332
 20
8.523616790771484
 30
187.5474548339844
 70
   192
  0
VERTEX
  5
3C9
  8
0
 10
-14.29880619049072
 20
4.38626766204834
 30
191.2483367919922
 70
   192
  0
VERTEX
  5
3CA
  8
0
 10
-18.51801490783691
 20
3.229295253753662
 30
187.5474548339844
 70
   192
  0
VERTEX
  5
3CB
  8
0
 10
-23.64931297302246
 20
-0.0000000000208219
 30
178.2483367919922
 70
   192
  0
VERTEX
  5
3CC
  8
0
 10
-14.9629545211792
 20
-0.000000000020813
 30
191.2483367919922
 70
   192
  0
VERTEX
  5
3CD
  8
0
 10
-12.17962646484375
 20
8.689385414123535
 30
191.2483367919922
 70
   192
  0
VERTEX
  5
3CE
  8
0
 10
-13.31597709655762
 20
13.26859092712402
 30
187.5474548339844
 70
   192
  0
VERTEX
  5
3CF
  8
0
 10
-8.702301979064941
 20
12.171142578125
 30
191.2483367919922
 70
   192
  0
VERTEX
  5
3D0
  8
0
 10
-4.406351089477539
 20
14.3032112121582
 30
191.2483367919922
 70
   192
  0
VERTEX
  5
3D1
  8
0
 10
-9.836024284362793
 20
-19.32931518554688
 30
183.2141265869141
 70
   192
  0
VERTEX
  5
3D2
  8
0
 10
-6.96434497833252
 20
-22.6065731048584
 30
178.2483367919922
 70
   192
  0
VERTEX
  5
3D3
  8
0
 10
-13.75419998168945
 20
-19.23678779602051
 30
178.2483367919922
 70
   192
  0
VERTEX
  5
3D4
  8
0
 10
-21.378662109375
 20
-3.762939691543579
 30
183.2141265869141
 70
   192
  0
VERTEX
  5
3D5
  8
0
 10
-4.38626766204834
 20
-14.29880619049072
 30
191.2483367919922
 70
   192
  0
VERTEX
  5
3D6
  8
0
 10
-3.229295253753662
 20
-18.51801490783691
 30
187.5474548339844
 70
   192
  0
VERTEX
  5
3D7
  8
0
 10
-8.523616790771484
 20
-16.7502326965332
 30
187.5474548339844
 70
   192
  0
VERTEX
  5
3D8
  8
0
 10
-19.31233596801758
 20
-9.900256156921387
 30
183.2141265869141
 70
   192
  0
VERTEX
  5
3D9
  8
0
 10
-19.25019645690918
 20
-13.73378467559814
 30
178.2483367919922
 70
   192
  0
VERTEX
  5
3DA
  8
0
 10
-22.599609375
 20
-6.932602405548096
 30
178.2483367919922
 70
   192
  0
VERTEX
  5
3DB
  8
0
 10
-18.52613639831543
 20
-3.260855913162231
 30
187.5474548339844
 70
   192
  0
VERTEX
  5
3DC
  8
0
 10
-16.73551750183105
 20
-8.579278945922852
 30
187.5474548339844
 70
   192
  0
VERTEX
  5
3DD
  8
0
 10
-3.726519584655762
 20
-21.36928939819336
 30
183.2141265869141
 70
   192
  0
VERTEX
  5
3DE
  8
0
 10
-15.31159687042236
 20
-15.36627864837646
 30
183.2141265869141
 70
   192
  0
VERTEX
  5
3DF
  8
0
 10
-8.689385414123535
 20
-12.17962646484375
 30
191.2483367919922
 70
   192
  0
VERTEX
  5
3E0
  8
0
 10
-13.26859092712402
 20
-13.31597709655762
 30
187.5474548339844
 70
   192
  0
VERTEX
  5
3E1
  8
0
 10
-12.171142578125
 20
-8.702301979064941
 30
191.2483367919922
 70
   192
  0
VERTEX
  5
3E2
  8
0
 10
-14.3032112121582
 20
-4.406351089477539
 30
191.2483367919922
 70
   192
  0
VERTEX
  5
3E3
  8
0
 62
     9
 10
0.0
 20
0.0
 30
0.0
 70
   128
 71
     3
 72
     2
 73
     1
  0
VERTEX
  5
3E4
  8
0
 62
     9
 10
0.0
 20
0.0
 30
0.0
 70
   128
 71
     6
 72
     5
 73
     4
  0
VERTEX
  5
3E5
  8
0
 62
     9
 10
0.0
 20
0.0
 30
0.0
 70
   128
 71
     8
 72
     7
 73
     6
  0
VERTEX
  5
3E6
  8
0
 62
     9
 10
0.0
 20
0.0
 30
0.0
 70
   128
 71
     7
 72
     8
 73
     9
  0
VERTEX
  5
3E7
  8
0
 62
     9
 10
0.0
 20
0.0
 30
0.0
 70
   128
 71
    12
 72
    11
 73
    10
  0
VERTEX
  5
3E8
  8
0
 62
     9
 10
0.0
 20
0.0
 30
0.0
 70
   128
 71
    13
 72
    11
 73
     8
  0
VERTEX
  5
3E9
  8
0
 62
     9
 10
0.0
 20
0.0
 30
0.0
 70
   128
 71
    15
 72
    14
 73
     5
  0
VERTEX
  5
3EA
  8
0
 62
     9
 10
0.0
 20
0.0
 30
0.0
 70
   128
 71
    14
 72
     4
 73
     5
  0
VERTEX
  5
3EB
  8
0
 62
     9
 10
0.0
 20
0.0
 30
0.0
 70
   128
 71
    17
 72
    15
 73
    16
  0
VERTEX
  5
3EC
  8
0
 62
     9
 10
0.0
 20
0.0
 30
0.0
 70
   128
 71
    15
 72
    17
 73
    14
  0
VERTEX
  5
3ED
  8
0
 62
     9
 10
0.0
 20
0.0
 30
0.0
 70
   128
 71
    20
 72
    19
 73
    18
  0
VERTEX
  5
3EE
  8
0
 62
     9
 10
0.0
 20
0.0
 30
0.0
 70
   128
 71
    16
 72
    21
 73
     3
  0
VERTEX
  5
3EF
  8
0
 62
     9
 10
0.0
 20
0.0
 30
0.0
 70
   128
 71
     2
 72
     3
 73
    21
  0
VERTEX
  5
3F0
  8
0
 62
     9
 10
0.0
 20
0.0
 30
0.0
 70
   128
 71
    20
 72
    22
 73
    19
  0
VERTEX
  5
3F1
  8
0
 62
     9
 10
0.0
 20
0.0
 30
0.0
 70
   128
 71
    23
 72
    18
 73
    19
  0
VERTEX
  5
3F2
  8
0
 62
     9
 10
0.0
 20
0.0
 30
0.0
 70
   128
 71
     3
 72
    17
 73
    16
  0
VERTEX
  5
3F3
  8
0
 62
     9
 10
0.0
 20
0.0
 30
0.0
 70
   128
 71
     1
 72
    20
 73
     3
  0
VERTEX
  5
3F4
  8
0
 62
     9
 10
0.0
 20
0.0
 30
0.0
 70
   128
 71
    14
 72
    18
 73
    24
  0
VERTEX
  5
3F5
  8
0
 62
     9
 10
0.0
 20
0.0
 30
0.0
 70
   128
 71
    17
 72
    18
 73
    14
  0
VERTEX
  5
3F6
  8
0
 62
     9
 10
0.0
 20
0.0
 30
0.0
 70
   128
 71
    24
 72
    13
 73
     4
  0
VERTEX
  5
3F7
  8
0
 62
     9
 10
0.0
 20
0.0
 30
0.0
 70
   128
 71
     4
 72
    14
 73
    24
  0
VERTEX
  5
3F8
  8
0
 62
     9
 10
0.0
 20
0.0
 30
0.0
 70
   128
 71
     4
 72
     8
 73
     6
  0
VERTEX
  5
3F9
  8
0
 62
     9
 10
0.0
 20
0.0
 30
0.0
 70
   128
 71
     4
 72
    13
 73
     8
  0
VERTEX
  5
3FA
  8
0
 62
     9
 10
0.0
 20
0.0
 30
0.0
 70
   128
 71
     8
 72
    11
 73
     9
  0
VERTEX
  5
3FB
  8
0
 62
     9
 10
0.0
 20
0.0
 30
0.0
 70
   128
 71
    20
 72
    17
 73
     3
  0
VERTEX
  5
3FC
  8
0
 62
     9
 10
0.0
 20
0.0
 30
0.0
 70
   128
 71
    20
 72
     1
 73
    22
  0
VERTEX
  5
3FD
  8
0
 62
     9
 10
0.0
 20
0.0
 30
0.0
 70
   128
 71
    23
 72
    24
 73
    18
  0
VERTEX
  5
3FE
  8
0
 62
     9
 10
0.0
 20
0.0
 30
0.0
 70
   128
 71
    20
 72
    18
 73
    17
  0
VERTEX
  5
3FF
  8
0
 62
     9
 10
0.0
 20
0.0
 30
0.0
 70
   128
 71
    25
 72
    24
 73
    23
  0
VERTEX
  5
400
  8
0
 62
     9
 10
0.0
 20
0.0
 30
0.0
 70
   128
 71
    25
 72
    13
 73
    24
  0
VERTEX
  5
401
  8
0
 62
     9
 10
0.0
 20
0.0
 30
0.0
 70
   128
 71
    26
 72
    13
 73
    25
  0
VERTEX
  5
402
  8
0
 62
     9
 10
0.0
 20
0.0
 30
0.0
 70
   128
 71
    11
 72
    26
 73
    10
  0
VERTEX
  5
403
  8
0
 62
     9
 10
0.0
 20
0.0
 30
0.0
 70
   128
 71
    11
 72
    13
 73
    26
  0
VERTEX
  5
404
  8
0
 62
     9
 10
0.0
 20
0.0
 30
0.0
 70
   128
 71
    11
 72
    12
 73
     9
  0
VERTEX
  5
405
  8
0
 62
     9
 10
0.0
 20
0.0
 30
0.0
 70
   128
 71
    29
 72
    28
 73
    27
  0
VERTEX
  5
406
  8
0
 62
     9
 10
0.0
 20
0.0
 30
0.0
 70
   128
 71
    32
 72
    31
 73
    30
  0
VERTEX
  5
407
  8
0
 62
     9
 10
0.0
 20
0.0
 30
0.0
 70
   128
 71
    33
 72
    21
 73
    32
  0
VERTEX
  5
408
  8
0
 62
     9
 10
0.0
 20
0.0
 30
0.0
 70
   128
 71
    21
 72
    33
 73
     2
  0
VERTEX
  5
409
  8
0
 62
     9
 10
0.0
 20
0.0
 30
0.0
 70
   128
 71
     1
 72
    34
 73
    22
  0
VERTEX
  5
40A
  8
0
 62
     9
 10
0.0
 20
0.0
 30
0.0
 70
   128
 71
    35
 72
    34
 73
    33
  0
VERTEX
  5
40B
  8
0
 62
     9
 10
0.0
 20
0.0
 30
0.0
 70
   128
 71
    37
 72
    36
 73
    31
  0
VERTEX
  5
40C
  8
0
 62
     9
 10
0.0
 20
0.0
 30
0.0
 70
   128
 71
    36
 72
    30
 73
    31
  0
VERTEX
  5
40D
  8
0
 62
     9
 10
0.0
 20
0.0
 30
0.0
 70
   128
 71
    39
 72
    37
 73
    38
  0
VERTEX
  5
40E
  8
0
 62
     9
 10
0.0
 20
0.0
 30
0.0
 70
   128
 71
    37
 72
    39
 73
    36
  0
VERTEX
  5
40F
  8
0
 62
     9
 10
0.0
 20
0.0
 30
0.0
 70
   128
 71
    42
 72
    41
 73
    40
  0
VERTEX
  5
410
  8
0
 62
     9
 10
0.0
 20
0.0
 30
0.0
 70
   128
 71
    38
 72
    43
 73
    29
  0
VERTEX
  5
411
  8
0
 62
     9
 10
0.0
 20
0.0
 30
0.0
 70
   128
 71
    28
 72
    29
 73
    43
  0
VERTEX
  5
412
  8
0
 62
     9
 10
0.0
 20
0.0
 30
0.0
 70
   128
 71
    42
 72
    44
 73
    41
  0
VERTEX
  5
413
  8
0
 62
     9
 10
0.0
 20
0.0
 30
0.0
 70
   128
 71
    45
 72
    40
 73
    41
  0
VERTEX
  5
414
  8
0
 62
     9
 10
0.0
 20
0.0
 30
0.0
 70
   128
 71
    29
 72
    39
 73
    38
  0
VERTEX
  5
415
  8
0
 62
     9
 10
0.0
 20
0.0
 30
0.0
 70
   128
 71
    27
 72
    42
 73
    29
  0
VERTEX
  5
416
  8
0
 62
     9
 10
0.0
 20
0.0
 30
0.0
 70
   128
 71
    36
 72
    40
 73
    46
  0
VERTEX
  5
417
  8
0
 62
     9
 10
0.0
 20
0.0
 30
0.0
 70
   128
 71
    39
 72
    40
 73
    36
  0
VERTEX
  5
418
  8
0
 62
     9
 10
0.0
 20
0.0
 30
0.0
 70
   128
 71
    46
 72
    35
 73
    30
  0
VERTEX
  5
419
  8
0
 62
     9
 10
0.0
 20
0.0
 30
0.0
 70
   128
 71
    30
 72
    36
 73
    46
  0
VERTEX
  5
41A
  8
0
 62
     9
 10
0.0
 20
0.0
 30
0.0
 70
   128
 71
    30
 72
    33
 73
    32
  0
VERTEX
  5
41B
  8
0
 62
     9
 10
0.0
 20
0.0
 30
0.0
 70
   128
 71
    30
 72
    35
 73
    33
  0
VERTEX
  5
41C
  8
0
 62
     9
 10
0.0
 20
0.0
 30
0.0
 70
   128
 71
    33
 72
    34
 73
     2
  0
VERTEX
  5
41D
  8
0
 62
     9
 10
0.0
 20
0.0
 30
0.0
 70
   128
 71
    42
 72
    39
 73
    29
  0
VERTEX
  5
41E
  8
0
 62
     9
 10
0.0
 20
0.0
 30
0.0
 70
   128
 71
    42
 72
    27
 73
    44
  0
VERTEX
  5
41F
  8
0
 62
     9
 10
0.0
 20
0.0
 30
0.0
 70
   128
 71
    45
 72
    46
 73
    40
  0
VERTEX
  5
420
  8
0
 62
     9
 10
0.0
 20
0.0
 30
0.0
 70
   128
 71
    42
 72
    40
 73
    39
  0
VERTEX
  5
421
  8
0
 62
     9
 10
0.0
 20
0.0
 30
0.0
 70
   128
 71
    47
 72
    46
 73
    45
  0
VERTEX
  5
422
  8
0
 62
     9
 10
0.0
 20
0.0
 30
0.0
 70
   128
 71
    47
 72
    35
 73
    46
  0
VERTEX
  5
423
  8
0
 62
     9
 10
0.0
 20
0.0
 30
0.0
 70
   128
 71
    48
 72
    35
 73
    47
  0
VERTEX
  5
424
  8
0
 62
     9
 10
0.0
 20
0.0
 30
0.0
 70
   128
 71
    34
 72
    48
 73
    22
  0
VERTEX
  5
425
  8
0
 62
     9
 10
0.0
 20
0.0
 30
0.0
 70
   128
 71
    34
 72
    35
 73
    48
  0
VERTEX
  5
426
  8
0
 62
     9
 10
0.0
 20
0.0
 30
0.0
 70
   128
 71
    34
 72
     1
 73
     2
  0
VERTEX
  5
427
  8
0
 62
     9
 10
0.0
 20
0.0
 30
0.0
 70
   128
 71
    51
 72
    50
 73
    49
  0
VERTEX
  5
428
  8
0
 62
     9
 10
0.0
 20
0.0
 30
0.0
 70
   128
 71
    54
 72
    53
 73
    52
  0
VERTEX
  5
429
  8
0
 62
     9
 10
0.0
 20
0.0
 30
0.0
 70
   128
 71
    55
 72
    43
 73
    54
  0
VERTEX
  5
42A
  8
0
 62
     9
 10
0.0
 20
0.0
 30
0.0
 70
   128
 71
    43
 72
    55
 73
    28
  0
VERTEX
  5
42B
  8
0
 62
     9
 10
0.0
 20
0.0
 30
0.0
 70
   128
 71
    27
 72
    56
 73
    44
  0
VERTEX
  5
42C
  8
0
 62
     9
 10
0.0
 20
0.0
 30
0.0
 70
   128
 71
    57
 72
    56
 73
    55
  0
VERTEX
  5
42D
  8
0
 62
     9
 10
0.0
 20
0.0
 30
0.0
 70
   128
 71
    59
 72
    58
 73
    53
  0
VERTEX
  5
42E
  8
0
 62
     9
 10
0.0
 20
0.0
 30
0.0
 70
   128
 71
    58
 72
    52
 73
    53
  0
VERTEX
  5
42F
  8
0
 62
     9
 10
0.0
 20
0.0
 30
0.0
 70
   128
 71
    61
 72
    59
 73
    60
  0
VERTEX
  5
430
  8
0
 62
     9
 10
0.0
 20
0.0
 30
0.0
 70
   128
 71
    59
 72
    61
 73
    58
  0
VERTEX
  5
431
  8
0
 62
     9
 10
0.0
 20
0.0
 30
0.0
 70
   128
 71
    64
 72
    63
 73
    62
  0
VERTEX
  5
432
  8
0
 62
     9
 10
0.0
 20
0.0
 30
0.0
 70
   128
 71
    60
 72
    65
 73
    51
  0
VERTEX
  5
433
  8
0
 62
     9
 10
0.0
 20
0.0
 30
0.0
 70
   128
 71
    50
 72
    51
 73
    65
  0
VERTEX
  5
434
  8
0
 62
     9
 10
0.0
 20
0.0
 30
0.0
 70
   128
 71
    64
 72
    66
 73
    63
  0
VERTEX
  5
435
  8
0
 62
     9
 10
0.0
 20
0.0
 30
0.0
 70
   128
 71
    67
 72
    62
 73
    63
  0
VERTEX
  5
436
  8
0
 62
     9
 10
0.0
 20
0.0
 30
0.0
 70
   128
 71
    51
 72
    61
 73
    60
  0
VERTEX
  5
437
  8
0
 62
     9
 10
0.0
 20
0.0
 30
0.0
 70
   128
 71
    49
 72
    64
 73
    51
  0
VERTEX
  5
438
  8
0
 62
     9
 10
0.0
 20
0.0
 30
0.0
 70
   128
 71
    58
 72
    62
 73
    68
  0
VERTEX
  5
439
  8
0
 62
     9
 10
0.0
 20
0.0
 30
0.0
 70
   128
 71
    61
 72
    62
 73
    58
  0
VERTEX
  5
43A
  8
0
 62
     9
 10
0.0
 20
0.0
 30
0.0
 70
   128
 71
    68
 72
    57
 73
    52
  0
VERTEX
  5
43B
  8
0
 62
     9
 10
0.0
 20
0.0
 30
0.0
 70
   128
 71
    52
 72
    58
 73
    68
  0
VERTEX
  5
43C
  8
0
 62
     9
 10
0.0
 20
0.0
 30
0.0
 70
   128
 71
    52
 72
    55
 73
    54
  0
VERTEX
  5
43D
  8
0
 62
     9
 10
0.0
 20
0.0
 30
0.0
 70
   128
 71
    52
 72
    57
 73
    55
  0
VERTEX
  5
43E
  8
0
 62
     9
 10
0.0
 20
0.0
 30
0.0
 70
   128
 71
    55
 72
    56
 73
    28
  0
VERTEX
  5
43F
  8
0
 62
     9
 10
0.0
 20
0.0
 30
0.0
 70
   128
 71
    64
 72
    61
 73
    51
  0
VERTEX
  5
440
  8
0
 62
     9
 10
0.0
 20
0.0
 30
0.0
 70
   128
 71
    64
 72
    49
 73
    66
  0
VERTEX
  5
441
  8
0
 62
     9
 10
0.0
 20
0.0
 30
0.0
 70
   128
 71
    67
 72
    68
 73
    62
  0
VERTEX
  5
442
  8
0
 62
     9
 10
0.0
 20
0.0
 30
0.0
 70
   128
 71
    64
 72
    62
 73
    61
  0
VERTEX
  5
443
  8
0
 62
     9
 10
0.0
 20
0.0
 30
0.0
 70
   128
 71
    69
 72
    68
 73
    67
  0
VERTEX
  5
444
  8
0
 62
     9
 10
0.0
 20
0.0
 30
0.0
 70
   128
 71
    69
 72
    57
 73
    68
  0
VERTEX
  5
445
  8
0
 62
     9
 10
0.0
 20
0.0
 30
0.0
 70
   128
 71
    70
 72
    57
 73
    69
  0
VERTEX
  5
446
  8
0
 62
     9
 10
0.0
 20
0.0
 30
0.0
 70
   128
 71
    56
 72
    70
 73
    44
  0
VERTEX
  5
447
  8
0
 62
     9
 10
0.0
 20
0.0
 30
0.0
 70
   128
 71
    56
 72
    57
 73
    70
  0
VERTEX
  5
448
  8
0
 62
     9
 10
0.0
 20
0.0
 30
0.0
 70
   128
 71
    56
 72
    27
 73
    28
  0
VERTEX
  5
449
  8
0
 62
     9
 10
0.0
 20
0.0
 30
0.0
 70
   128
 71
    73
 72
    72
 73
    71
  0
VERTEX
  5
44A
  8
0
 62
     9
 10
0.0
 20
0.0
 30
0.0
 70
   128
 71
    50
 72
    65
 73
    74
  0
VERTEX
  5
44B
  8
0
 62
     9
 10
0.0
 20
0.0
 30
0.0
 70
   128
 71
    77
 72
    76
 73
    75
  0
VERTEX
  5
44C
  8
0
 62
     9
 10
0.0
 20
0.0
 30
0.0
 70
   128
 71
    80
 72
    79
 73
    78
  0
VERTEX
  5
44D
  8
0
 62
     9
 10
0.0
 20
0.0
 30
0.0
 70
   128
 71
    75
 72
    76
 73
    10
  0
VERTEX
  5
44E
  8
0
 62
     9
 10
0.0
 20
0.0
 30
0.0
 70
   128
 71
    66
 72
    49
 73
    81
  0
VERTEX
  5
44F
  8
0
 62
     9
 10
0.0
 20
0.0
 30
0.0
 70
   128
 71
    74
 72
    65
 73
    80
  0
VERTEX
  5
450
  8
0
 62
     9
 10
0.0
 20
0.0
 30
0.0
 70
   128
 71
    81
 72
    74
 73
    82
  0
VERTEX
  5
451
  8
0
 62
     9
 10
0.0
 20
0.0
 30
0.0
 70
   128
 71
    72
 72
     7
 73
    83
  0
VERTEX
  5
452
  8
0
 62
     9
 10
0.0
 20
0.0
 30
0.0
 70
   128
 71
    84
 72
    78
 73
    79
  0
VERTEX
  5
453
  8
0
 62
     9
 10
0.0
 20
0.0
 30
0.0
 70
   128
 71
    83
 72
     9
 73
    12
  0
VERTEX
  5
454
  8
0
 62
     9
 10
0.0
 20
0.0
 30
0.0
 70
   128
 71
    84
 72
    73
 73
    71
  0
VERTEX
  5
455
  8
0
 62
     9
 10
0.0
 20
0.0
 30
0.0
 70
   128
 71
    79
 72
    73
 73
    84
  0
VERTEX
  5
456
  8
0
 62
     9
 10
0.0
 20
0.0
 30
0.0
 70
   128
 71
     7
 72
     9
 73
    83
  0
VERTEX
  5
457
  8
0
 62
     9
 10
0.0
 20
0.0
 30
0.0
 70
   128
 71
    85
 72
    77
 73
    75
  0
VERTEX
  5
458
  8
0
 62
     9
 10
0.0
 20
0.0
 30
0.0
 70
   128
 71
    83
 72
    71
 73
    72
  0
VERTEX
  5
459
  8
0
 62
     9
 10
0.0
 20
0.0
 30
0.0
 70
   128
 71
    12
 72
    76
 73
    83
  0
VERTEX
  5
45A
  8
0
 62
     9
 10
0.0
 20
0.0
 30
0.0
 70
   128
 71
    84
 72
    77
 73
    86
  0
VERTEX
  5
45B
  8
0
 62
     9
 10
0.0
 20
0.0
 30
0.0
 70
   128
 71
    71
 72
    77
 73
    84
  0
VERTEX
  5
45C
  8
0
 62
     9
 10
0.0
 20
0.0
 30
0.0
 70
   128
 71
    86
 72
    82
 73
    78
  0
VERTEX
  5
45D
  8
0
 62
     9
 10
0.0
 20
0.0
 30
0.0
 70
   128
 71
    78
 72
    84
 73
    86
  0
VERTEX
  5
45E
  8
0
 62
     9
 10
0.0
 20
0.0
 30
0.0
 70
   128
 71
    78
 72
    74
 73
    80
  0
VERTEX
  5
45F
  8
0
 62
     9
 10
0.0
 20
0.0
 30
0.0
 70
   128
 71
    78
 72
    82
 73
    74
  0
VERTEX
  5
460
  8
0
 62
     9
 10
0.0
 20
0.0
 30
0.0
 70
   128
 71
    74
 72
    81
 73
    50
  0
VERTEX
  5
461
  8
0
 62
     9
 10
0.0
 20
0.0
 30
0.0
 70
   128
 71
    76
 72
    71
 73
    83
  0
VERTEX
  5
462
  8
0
 62
     9
 10
0.0
 20
0.0
 30
0.0
 70
   128
 71
    76
 72
    12
 73
    10
  0
VERTEX
  5
463
  8
0
 62
     9
 10
0.0
 20
0.0
 30
0.0
 70
   128
 71
    85
 72
    86
 73
    77
  0
VERTEX
  5
464
  8
0
 62
     9
 10
0.0
 20
0.0
 30
0.0
 70
   128
 71
    76
 72
    77
 73
    71
  0
VERTEX
  5
465
  8
0
 62
     9
 10
0.0
 20
0.0
 30
0.0
 70
   128
 71
    87
 72
    86
 73
    85
  0
VERTEX
  5
466
  8
0
 62
     9
 10
0.0
 20
0.0
 30
0.0
 70
   128
 71
    87
 72
    82
 73
    86
  0
VERTEX
  5
467
  8
0
 62
     9
 10
0.0
 20
0.0
 30
0.0
 70
   128
 71
    88
 72
    82
 73
    87
  0
VERTEX
  5
468
  8
0
 62
     9
 10
0.0
 20
0.0
 30
0.0
 70
   128
 71
    81
 72
    88
 73
    66
  0
VERTEX
  5
469
  8
0
 62
     9
 10
0.0
 20
0.0
 30
0.0
 70
   128
 71
    81
 72
    82
 73
    88
  0
VERTEX
  5
46A
  8
0
 62
     9
 10
0.0
 20
0.0
 30
0.0
 70
   128
 71
    81
 72
    49
 73
    50
  0
SEQEND
  5
46B
  8
0
 62
     9
  0
ENDBLK
  5
46E
  8
0
  0
BLOCK
  8
0
  2
1_1_
 70
     0
 10
0.0
 20
0.0
 30
0.0
  3
1_1_
  1

  0
POLYLINE
  5
470
  8
0
 66
     1
 10
0.0
 20
0.0
 30
0.0
 70
    64
 71
    81
 72
   158
  0
VERTEX
  5
471
  8
0
 10
18.11788749694824
 20
17.97430038452148
 30
127.0024719238281
 70
   192
  0
VERTEX
  5
472
  8
0
 10
20.27452659606934
 20
15.62133884429932
 30
115.1412582397461
 70
   192
  0
VERTEX
  5
473
  8
0
 10
15.81915187835693
 20
19.97652626037598
 30
0.550000011920929
 70
   192
  0
VERTEX
  5
474
  8
0
 10
18.77934455871582
 20
17.15396308898926
 30
139.0980682373047
 70
   192
  0
VERTEX
  5
475
  8
0
 10
15.94767951965332
 20
19.89067077636719
 30
178.2483367919922
 70
   192
  0
VERTEX
  5
476
  8
0
 10
22.98879623413086
 20
11.0311918258667
 30
178.2483367919922
 70
   192
  0
VERTEX
  5
477
  8
0
 10
22.71589088439941
 20
11.24744987487793
 30
148.9012298583984
 70
   192
  0
VERTEX
  5
478
  8
0
 10
25.5
 20
-0.0000000000267879
 30
178.2483367919922
 70
   192
  0
VERTEX
  5
479
  8
0
 10
25.5
 20
-0.0000000000269822
 30
152.7483367919922
 70
   192
  0
VERTEX
  5
47A
  8
0
 10
5.758141040802002
 20
24.82995414733887
 30
178.2483367919922
 70
   192
  0
VERTEX
  5
47B
  8
0
 10
23.49567031860352
 20
10.23501968383789
 30
104.4425430297852
 70
   192
  0
VERTEX
  5
47C
  8
0
 10
22.93728446960449
 20
11.10830879211426
 30
0.550000011920929
 70
   192
  0
VERTEX
  5
47D
  8
0
 10
5.576232433319092
 20
24.86616325378418
 30
0.550000011920929
 70
   192
  0
VERTEX
  5
47E
  8
0
 10
25.5
 20
-0.0000000000281418
 30
0.550000011920929
 70
   192
  0
VERTEX
  5
47F
  8
0
 10
-5.758141040802002
 20
24.82995414733887
 30
0.550000011920929
 70
   192
  0
VERTEX
  5
480
  8
0
 10
25.5
 20
-0.0000000000273936
 30
98.74833679199219
 70
   192
  0
VERTEX
  5
481
  8
0
 10
-5.576232433319092
 20
24.86616325378418
 30
178.2483367919922
 70
   192
  0
VERTEX
  5
482
  8
0
 10
-15.94767951965332
 20
19.89067077636719
 30
0.550000011920929
 70
   192
  0
VERTEX
  5
483
  8
0
 10
-15.81915187835693
 20
19.97652626037598
 30
178.2483367919922
 70
   192
  0
VERTEX
  5
484
  8
0
 10
-22.93728446960449
 20
11.10830879211426
 30
178.2483367919922
 70
   192
  0
VERTEX
  5
485
  8
0
 10
-22.98879623413086
 20
11.0311918258667
 30
0.550000011920929
 70
   192
  0
VERTEX
  5
486
  8
0
 10
-25.5
 20
-0.0000000000208798
 30
178.2483367919922
 70
   192
  0
VERTEX
  5
487
  8
0
 10
-25.5
 20
-0.0000000000222337
 30
0.550000011920929
 70
   192
  0
VERTEX
  5
488
  8
0
 10
103.8222122192383
 20
-0.0000265989765467
 30
147.7483367919922
 70
   192
  0
VERTEX
  5
489
  8
0
 10
29.39138603210449
 20
8.245320320129395
 30
145.1370239257812
 70
   192
  0
VERTEX
  5
48A
  8
0
 10
30.5
 20
0.0000000000138213
 30
147.7483367919922
 70
   192
  0
VERTEX
  5
48B
  8
0
 10
104.3222122192383
 20
9.899471282958984
 30
143.1478881835938
 70
   192
  0
VERTEX
  5
48C
  8
0
 10
27.23283195495605
 20
13.55218315124512
 30
138.5256500244141
 70
   192
  0
VERTEX
  5
48D
  8
0
 10
28.25667572021484
 20
14.18436336517334
 30
130.0442962646484
 70
   192
  0
VERTEX
  5
48E
  8
0
 10
104.3222122192383
 20
14.00002002716064
 30
133.2483825683594
 70
   192
  0
VERTEX
  5
48F
  8
0
 10
104.3222122192383
 20
9.899507522583008
 30
123.3488693237305
 70
   192
  0
VERTEX
  5
490
  8
0
 10
34.51288986206055
 20
11.54927062988281
 30
124.380485534668
 70
   192
  0
VERTEX
  5
491
  8
0
 10
41.29204177856445
 20
7.249690532684326
 30
120.7264099121094
 70
   192
  0
VERTEX
  5
492
  8
0
 10
103.8222122192383
 20
0.0000000000139269
 30
118.7483367919922
 70
   192
  0
VERTEX
  5
493
  8
0
 10
45.5
 20
0.0000000000138431
 30
118.7483367919922
 70
   192
  0
VERTEX
  5
494
  8
0
 10
29.19891166687012
 20
-8.324605941772461
 30
145.0303497314453
 70
   192
  0
VERTEX
  5
495
  8
0
 10
34.70617294311523
 20
-11.61027526855469
 30
124.5366897583008
 70
   192
  0
VERTEX
  5
496
  8
0
 10
103.8222122192383
 20
-13.74086380004883
 30
128.7243804931641
 70
   192
  0
VERTEX
  5
497
  8
0
 10
28.31857299804688
 20
-14.1044397354126
 30
130.0382080078125
 70
   192
  0
VERTEX
  5
498
  8
0
 10
103.8222122192383
 20
-13.78191471099854
 30
137.6837310791016
 70
   192
  0
VERTEX
  5
499
  8
0
 10
26.6296329498291
 20
-13.5047607421875
 30
138.2881927490234
 70
   192
  0
VERTEX
  5
49A
  8
0
 10
41.57481002807617
 20
-7.390673160552979
 30
120.679931640625
 70
   192
  0
VERTEX
  5
49B
  8
0
 10
103.8222122192383
 20
-8.403594017028809
 30
121.5282669067383
 70
   192
  0
VERTEX
  5
49C
  8
0
 10
103.8222122192383
 20
-8.593121528625488
 30
144.9877166748047
 70
   192
  0
VERTEX
  5
49D
  8
0
 10
5.656510353088379
 20
-24.74247550964355
 30
178.2483367919922
 70
   192
  0
VERTEX
  5
49E
  8
0
 10
15.82629203796387
 20
-19.81828498840332
 30
178.2483367919922
 70
   192
  0
VERTEX
  5
49F
  8
0
 10
22.96767807006836
 20
-10.99174404144287
 30
178.2483367919922
 70
   192
  0
VERTEX
  5
4A0
  8
0
 10
-5.609611034393311
 20
-24.88369369506836
 30
178.2483367919922
 70
   192
  0
VERTEX
  5
4A1
  8
0
 10
-23.01676368713379
 20
-11.1673059463501
 30
178.2483367919922
 70
   192
  0
VERTEX
  5
4A2
  8
0
 10
-15.54877853393555
 20
-19.55966567993164
 30
178.2483367919922
 70
   192
  0
VERTEX
  5
4A3
  8
0
 10
23.02177619934082
 20
-11.16139125823975
 30
149.050048828125
 70
   192
  0
VERTEX
  5
4A4
  8
0
 10
-15.81916236877441
 20
-19.9765510559082
 30
0.550000011920929
 70
   192
  0
VERTEX
  5
4A5
  8
0
 10
5.758158206939697
 20
-24.82999610900879
 30
0.550000011920929
 70
   192
  0
VERTEX
  5
4A6
  8
0
 10
-5.576244354248047
 20
-24.86618041992188
 30
0.550000011920929
 70
   192
  0
VERTEX
  5
4A7
  8
0
 10
-22.93732261657715
 20
-11.10832214355469
 30
0.550000011920929
 70
   192
  0
VERTEX
  5
4A8
  8
0
 10
15.947678565979
 20
-19.89067840576172
 30
0.550000011920929
 70
   192
  0
VERTEX
  5
4A9
  8
0
 10
22.98884582519531
 20
-11.03121280670166
 30
0.550000011920929
 70
   192
  0
VERTEX
  5
4AA
  8
0
 10
23.29641914367676
 20
-10.09843730926514
 30
104.7547302246094
 70
   192
  0
VERTEX
  5
4AB
  8
0
 10
20.07081985473633
 20
-15.59009265899658
 30
115.1837997436523
 70
   192
  0
VERTEX
  5
4AC
  8
0
 10
18.98670768737793
 20
-17.2531566619873
 30
139.2931213378906
 70
   192
  0
VERTEX
  5
4AD
  8
0
 10
18.04290390014648
 20
-18.05295372009277
 30
127.0181350708008
 70
   192
  0
VERTEX
  5
4AE
  8
0
 10
28.15292739868164
 20
11.74917221069336
 30
123.0416793823242
 70
   192
  0
VERTEX
  5
4AF
  8
0
 10
27.9128589630127
 20
-0.0000000000134454
 30
148.4945373535156
 70
   192
  0
VERTEX
  5
4B0
  8
0
 10
25.44495582580566
 20
10.96062660217285
 30
143.4950103759766
 70
   192
  0
VERTEX
  5
4B1
  8
0
 10
23.15980339050293
 20
11.66231632232666
 30
145.2238159179688
 70
   192
  0
VERTEX
  5
4B2
  8
0
 10
26.9439640045166
 20
6.494712829589844
 30
111.307243347168
 70
   192
  0
VERTEX
  5
4B3
  8
0
 10
33.64392471313477
 20
5.632932186126709
 30
117.5986709594727
 70
   192
  0
VERTEX
  5
4B4
  8
0
 10
20.55435371398926
 20
16.12325668334961
 30
132.7870941162109
 70
   192
  0
VERTEX
  5
4B5
  8
0
 10
23.61122894287109
 20
14.86720371246338
 30
132.8795776367188
 70
   192
  0
VERTEX
  5
4B6
  8
0
 10
26.24619293212891
 20
-0.0000000000163728
 30
150.1611938476562
 70
   192
  0
VERTEX
  5
4B7
  8
0
 10
23.43475532531738
 20
13.05781936645508
 30
119.7743988037109
 70
   192
  0
VERTEX
  5
4B8
  8
0
 10
35.61951446533203
 20
0.0000000000089717
 30
116.1180725097656
 70
   192
  0
VERTEX
  5
4B9
  8
0
 10
28.04995536804199
 20
-0.0000000000038297
 30
108.434944152832
 70
   192
  0
VERTEX
  5
4BA
  8
0
 10
20.64938354492188
 20
-16.15899658203125
 30
133.0430297851562
 70
   192
  0
VERTEX
  5
4BB
  8
0
 10
33.53745651245117
 20
-5.762360572814941
 30
117.5431671142578
 70
   192
  0
VERTEX
  5
4BC
  8
0
 10
27.9814395904541
 20
-11.85892677307129
 30
123.0488433837891
 70
   192
  0
VERTEX
  5
4BD
  8
0
 10
26.90262985229492
 20
-6.629693031311035
 30
111.3279495239258
 70
   192
  0
VERTEX
  5
4BE
  8
0
 10
23.56989669799805
 20
-11.52835273742676
 30
145.4164733886719
 70
   192
  0
VERTEX
  5
4BF
  8
0
 10
25.85651969909668
 20
-10.84929656982422
 30
143.7435302734375
 70
   192
  0
VERTEX
  5
4C0
  8
0
 10
23.73052024841309
 20
-14.91156768798828
 30
133.0992736816406
 70
   192
  0
VERTEX
  5
4C1
  8
0
 10
23.2976245880127
 20
-13.16867542266846
 30
119.8156967163086
 70
   192
  0
VERTEX
  5
4C2
  8
0
 62
     9
 10
0.0
 20
0.0
 30
0.0
 70
   128
 71
     3
 72
     2
 73
     1
  0
VERTEX
  5
4C3
  8
0
 62
     9
 10
0.0
 20
0.0
 30
0.0
 70
   128
 71
     5
 72
     1
 73
     4
  0
VERTEX
  5
4C4
  8
0
 62
     9
 10
0.0
 20
0.0
 30
0.0
 70
   128
 71
     3
 72
     1
 73
     5
  0
VERTEX
  5
4C5
  8
0
 62
     9
 10
0.0
 20
0.0
 30
0.0
 70
   128
 71
     4
 72
     7
 73
     6
  0
VERTEX
  5
4C6
  8
0
 62
     9
 10
0.0
 20
0.0
 30
0.0
 70
   128
 71
     6
 72
     5
 73
     4
  0
VERTEX
  5
4C7
  8
0
 62
     9
 10
0.0
 20
0.0
 30
0.0
 70
   128
 71
     6
 72
     7
 73
     8
  0
VERTEX
  5
4C8
  8
0
 62
     9
 10
0.0
 20
0.0
 30
0.0
 70
   128
 71
     7
 72
     9
 73
     8
  0
VERTEX
  5
4C9
  8
0
 62
     9
 10
0.0
 20
0.0
 30
0.0
 70
   128
 71
     3
 72
     5
 73
    10
  0
VERTEX
  5
4CA
  8
0
 62
     9
 10
0.0
 20
0.0
 30
0.0
 70
   128
 71
    12
 72
    11
 73
     2
  0
VERTEX
  5
4CB
  8
0
 62
     9
 10
0.0
 20
0.0
 30
0.0
 70
   128
 71
     3
 72
    10
 73
    13
  0
VERTEX
  5
4CC
  8
0
 62
     9
 10
0.0
 20
0.0
 30
0.0
 70
   128
 71
     2
 72
     3
 73
    12
  0
VERTEX
  5
4CD
  8
0
 62
     9
 10
0.0
 20
0.0
 30
0.0
 70
   128
 71
    11
 72
    12
 73
    14
  0
VERTEX
  5
4CE
  8
0
 62
     9
 10
0.0
 20
0.0
 30
0.0
 70
   128
 71
    15
 72
    13
 73
    10
  0
VERTEX
  5
4CF
  8
0
 62
     9
 10
0.0
 20
0.0
 30
0.0
 70
   128
 71
    11
 72
    14
 73
    16
  0
VERTEX
  5
4D0
  8
0
 62
     9
 10
0.0
 20
0.0
 30
0.0
 70
   128
 71
    10
 72
    17
 73
    15
  0
VERTEX
  5
4D1
  8
0
 62
     9
 10
0.0
 20
0.0
 30
0.0
 70
   128
 71
    19
 72
    18
 73
    15
  0
VERTEX
  5
4D2
  8
0
 62
     9
 10
0.0
 20
0.0
 30
0.0
 70
   128
 71
    15
 72
    17
 73
    19
  0
VERTEX
  5
4D3
  8
0
 62
     9
 10
0.0
 20
0.0
 30
0.0
 70
   128
 71
    21
 72
    18
 73
    20
  0
VERTEX
  5
4D4
  8
0
 62
     9
 10
0.0
 20
0.0
 30
0.0
 70
   128
 71
    19
 72
    20
 73
    18
  0
VERTEX
  5
4D5
  8
0
 62
     9
 10
0.0
 20
0.0
 30
0.0
 70
   128
 71
    22
 72
    21
 73
    20
  0
VERTEX
  5
4D6
  8
0
 62
     9
 10
0.0
 20
0.0
 30
0.0
 70
   128
 71
    23
 72
    21
 73
    22
  0
VERTEX
  5
4D7
  8
0
 62
     9
 10
0.0
 20
0.0
 30
0.0
 70
   128
 71
    26
 72
    25
 73
    24
  0
VERTEX
  5
4D8
  8
0
 62
     9
 10
0.0
 20
0.0
 30
0.0
 70
   128
 71
    25
 72
    27
 73
    24
  0
VERTEX
  5
4D9
  8
0
 62
     9
 10
0.0
 20
0.0
 30
0.0
 70
   128
 71
    28
 72
    27
 73
    25
  0
VERTEX
  5
4DA
  8
0
 62
     9
 10
0.0
 20
0.0
 30
0.0
 70
   128
 71
    30
 72
    28
 73
    29
  0
VERTEX
  5
4DB
  8
0
 62
     9
 10
0.0
 20
0.0
 30
0.0
 70
   128
 71
    27
 72
    28
 73
    30
  0
VERTEX
  5
4DC
  8
0
 62
     9
 10
0.0
 20
0.0
 30
0.0
 70
   128
 71
    29
 72
    31
 73
    30
  0
VERTEX
  5
4DD
  8
0
 62
     9
 10
0.0
 20
0.0
 30
0.0
 70
   128
 71
    31
 72
    29
 73
    32
  0
VERTEX
  5
4DE
  8
0
 62
     9
 10
0.0
 20
0.0
 30
0.0
 70
   128
 71
    34
 72
    31
 73
    33
  0
VERTEX
  5
4DF
  8
0
 62
     9
 10
0.0
 20
0.0
 30
0.0
 70
   128
 71
    32
 72
    33
 73
    31
  0
VERTEX
  5
4E0
  8
0
 62
     9
 10
0.0
 20
0.0
 30
0.0
 70
   128
 71
    35
 72
    34
 73
    33
  0
VERTEX
  5
4E1
  8
0
 62
     9
 10
0.0
 20
0.0
 30
0.0
 70
   128
 71
    26
 72
    24
 73
    36
  0
VERTEX
  5
4E2
  8
0
 62
     9
 10
0.0
 20
0.0
 30
0.0
 70
   128
 71
    39
 72
    38
 73
    37
  0
VERTEX
  5
4E3
  8
0
 62
     9
 10
0.0
 20
0.0
 30
0.0
 70
   128
 71
    41
 72
    40
 73
    39
  0
VERTEX
  5
4E4
  8
0
 62
     9
 10
0.0
 20
0.0
 30
0.0
 70
   128
 71
    43
 72
    34
 73
    42
  0
VERTEX
  5
4E5
  8
0
 62
     9
 10
0.0
 20
0.0
 30
0.0
 70
   128
 71
    42
 72
    37
 73
    43
  0
VERTEX
  5
4E6
  8
0
 62
     9
 10
0.0
 20
0.0
 30
0.0
 70
   128
 71
    42
 72
    34
 73
    35
  0
VERTEX
  5
4E7
  8
0
 62
     9
 10
0.0
 20
0.0
 30
0.0
 70
   128
 71
    38
 72
    39
 73
    40
  0
VERTEX
  5
4E8
  8
0
 62
     9
 10
0.0
 20
0.0
 30
0.0
 70
   128
 71
    37
 72
    38
 73
    43
  0
VERTEX
  5
4E9
  8
0
 62
     9
 10
0.0
 20
0.0
 30
0.0
 70
   128
 71
    36
 72
    44
 73
    41
  0
VERTEX
  5
4EA
  8
0
 62
     9
 10
0.0
 20
0.0
 30
0.0
 70
   128
 71
    41
 72
    44
 73
    40
  0
VERTEX
  5
4EB
  8
0
 62
     9
 10
0.0
 20
0.0
 30
0.0
 70
   128
 71
    44
 72
    36
 73
    24
  0
VERTEX
  5
4EC
  8
0
 62
     9
 10
0.0
 20
0.0
 30
0.0
 70
   128
 71
    20
 72
    45
 73
    22
  0
VERTEX
  5
4ED
  8
0
 62
     9
 10
0.0
 20
0.0
 30
0.0
 70
   128
 71
     8
 72
    10
 73
     6
  0
VERTEX
  5
4EE
  8
0
 62
     9
 10
0.0
 20
0.0
 30
0.0
 70
   128
 71
    10
 72
     5
 73
     6
  0
VERTEX
  5
4EF
  8
0
 62
     9
 10
0.0
 20
0.0
 30
0.0
 70
   128
 71
    47
 72
    46
 73
    19
  0
VERTEX
  5
4F0
  8
0
 62
     9
 10
0.0
 20
0.0
 30
0.0
 70
   128
 71
     8
 72
    17
 73
    10
  0
VERTEX
  5
4F1
  8
0
 62
     9
 10
0.0
 20
0.0
 30
0.0
 70
   128
 71
    50
 72
    49
 73
    48
  0
VERTEX
  5
4F2
  8
0
 62
     9
 10
0.0
 20
0.0
 30
0.0
 70
   128
 71
    48
 72
    22
 73
    45
  0
VERTEX
  5
4F3
  8
0
 62
     9
 10
0.0
 20
0.0
 30
0.0
 70
   128
 71
    22
 72
    48
 73
    49
  0
VERTEX
  5
4F4
  8
0
 62
     9
 10
0.0
 20
0.0
 30
0.0
 70
   128
 71
    46
 72
    45
 73
    20
  0
VERTEX
  5
4F5
  8
0
 62
     9
 10
0.0
 20
0.0
 30
0.0
 70
   128
 71
    19
 72
    17
 73
    47
  0
VERTEX
  5
4F6
  8
0
 62
     9
 10
0.0
 20
0.0
 30
0.0
 70
   128
 71
    20
 72
    19
 73
    46
  0
VERTEX
  5
4F7
  8
0
 62
     9
 10
0.0
 20
0.0
 30
0.0
 70
   128
 71
     8
 72
    47
 73
    17
  0
VERTEX
  5
4F8
  8
0
 62
     9
 10
0.0
 20
0.0
 30
0.0
 70
   128
 71
    30
 72
    31
 73
    34
  0
VERTEX
  5
4F9
  8
0
 62
     9
 10
0.0
 20
0.0
 30
0.0
 70
   128
 71
    30
 72
    34
 73
    43
  0
VERTEX
  5
4FA
  8
0
 62
     9
 10
0.0
 20
0.0
 30
0.0
 70
   128
 71
    30
 72
    43
 73
    27
  0
VERTEX
  5
4FB
  8
0
 62
     9
 10
0.0
 20
0.0
 30
0.0
 70
   128
 71
    44
 72
    38
 73
    40
  0
VERTEX
  5
4FC
  8
0
 62
     9
 10
0.0
 20
0.0
 30
0.0
 70
   128
 71
    38
 72
    44
 73
    24
  0
VERTEX
  5
4FD
  8
0
 62
     9
 10
0.0
 20
0.0
 30
0.0
 70
   128
 71
    43
 72
    38
 73
    27
  0
VERTEX
  5
4FE
  8
0
 62
     9
 10
0.0
 20
0.0
 30
0.0
 70
   128
 71
    24
 72
    27
 73
    38
  0
VERTEX
  5
4FF
  8
0
 62
     9
 10
0.0
 20
0.0
 30
0.0
 70
   128
 71
     8
 72
     9
 73
    51
  0
VERTEX
  5
500
  8
0
 62
     9
 10
0.0
 20
0.0
 30
0.0
 70
   128
 71
    50
 72
    48
 73
    52
  0
VERTEX
  5
501
  8
0
 62
     9
 10
0.0
 20
0.0
 30
0.0
 70
   128
 71
    54
 72
    48
 73
    53
  0
VERTEX
  5
502
  8
0
 62
     9
 10
0.0
 20
0.0
 30
0.0
 70
   128
 71
    50
 72
    55
 73
    49
  0
VERTEX
  5
503
  8
0
 62
     9
 10
0.0
 20
0.0
 30
0.0
 70
   128
 71
    55
 72
    50
 73
    52
  0
VERTEX
  5
504
  8
0
 62
     9
 10
0.0
 20
0.0
 30
0.0
 70
   128
 71
    23
 72
    22
 73
    49
  0
VERTEX
  5
505
  8
0
 62
     9
 10
0.0
 20
0.0
 30
0.0
 70
   128
 71
    49
 72
    55
 73
    23
  0
VERTEX
  5
506
  8
0
 62
     9
 10
0.0
 20
0.0
 30
0.0
 70
   128
 71
    52
 72
    48
 73
    54
  0
VERTEX
  5
507
  8
0
 62
     9
 10
0.0
 20
0.0
 30
0.0
 70
   128
 71
    48
 72
    45
 73
    53
  0
VERTEX
  5
508
  8
0
 62
     9
 10
0.0
 20
0.0
 30
0.0
 70
   128
 71
    46
 72
    56
 73
    53
  0
VERTEX
  5
509
  8
0
 62
     9
 10
0.0
 20
0.0
 30
0.0
 70
   128
 71
    53
 72
    45
 73
    46
  0
VERTEX
  5
50A
  8
0
 62
     9
 10
0.0
 20
0.0
 30
0.0
 70
   128
 71
    59
 72
    58
 73
    57
  0
VERTEX
  5
50B
  8
0
 62
     9
 10
0.0
 20
0.0
 30
0.0
 70
   128
 71
    56
 72
    59
 73
    57
  0
VERTEX
  5
50C
  8
0
 62
     9
 10
0.0
 20
0.0
 30
0.0
 70
   128
 71
    57
 72
    58
 73
    14
  0
VERTEX
  5
50D
  8
0
 62
     9
 10
0.0
 20
0.0
 30
0.0
 70
   128
 71
     8
 72
    51
 73
    47
  0
VERTEX
  5
50E
  8
0
 62
     9
 10
0.0
 20
0.0
 30
0.0
 70
   128
 71
    58
 72
    16
 73
    14
  0
VERTEX
  5
50F
  8
0
 62
     9
 10
0.0
 20
0.0
 30
0.0
 70
   128
 71
    60
 72
    47
 73
    51
  0
VERTEX
  5
510
  8
0
 62
     9
 10
0.0
 20
0.0
 30
0.0
 70
   128
 71
    60
 72
    61
 73
    46
  0
VERTEX
  5
511
  8
0
 62
     9
 10
0.0
 20
0.0
 30
0.0
 70
   128
 71
    61
 72
    56
 73
    46
  0
VERTEX
  5
512
  8
0
 62
     9
 10
0.0
 20
0.0
 30
0.0
 70
   128
 71
    61
 72
    59
 73
    56
  0
VERTEX
  5
513
  8
0
 62
     9
 10
0.0
 20
0.0
 30
0.0
 70
   128
 71
    60
 72
    46
 73
    47
  0
VERTEX
  5
514
  8
0
 62
     9
 10
0.0
 20
0.0
 30
0.0
 70
   128
 71
    32
 72
    29
 73
    62
  0
VERTEX
  5
515
  8
0
 62
     9
 10
0.0
 20
0.0
 30
0.0
 70
   128
 71
    65
 72
    64
 73
    63
  0
VERTEX
  5
516
  8
0
 62
     9
 10
0.0
 20
0.0
 30
0.0
 70
   128
 71
    66
 72
    11
 73
    16
  0
VERTEX
  5
517
  8
0
 62
     9
 10
0.0
 20
0.0
 30
0.0
 70
   128
 71
    25
 72
    63
 73
    64
  0
VERTEX
  5
518
  8
0
 62
     9
 10
0.0
 20
0.0
 30
0.0
 70
   128
 71
    62
 72
    67
 73
    32
  0
VERTEX
  5
519
  8
0
 62
     9
 10
0.0
 20
0.0
 30
0.0
 70
   128
 71
    64
 72
    65
 73
    68
  0
VERTEX
  5
51A
  8
0
 62
     9
 10
0.0
 20
0.0
 30
0.0
 70
   128
 71
    26
 72
    63
 73
    25
  0
VERTEX
  5
51B
  8
0
 62
     9
 10
0.0
 20
0.0
 30
0.0
 70
   128
 71
    69
 72
    28
 73
    64
  0
VERTEX
  5
51C
  8
0
 62
     9
 10
0.0
 20
0.0
 30
0.0
 70
   128
 71
     9
 72
     7
 73
    70
  0
VERTEX
  5
51D
  8
0
 62
     9
 10
0.0
 20
0.0
 30
0.0
 70
   128
 71
    28
 72
    69
 73
    29
  0
VERTEX
  5
51E
  8
0
 62
     9
 10
0.0
 20
0.0
 30
0.0
 70
   128
 71
    69
 72
    68
 73
    71
  0
VERTEX
  5
51F
  8
0
 62
     9
 10
0.0
 20
0.0
 30
0.0
 70
   128
 71
    62
 72
    29
 73
    69
  0
VERTEX
  5
520
  8
0
 62
     9
 10
0.0
 20
0.0
 30
0.0
 70
   128
 71
    73
 72
    72
 73
    67
  0
VERTEX
  5
521
  8
0
 62
     9
 10
0.0
 20
0.0
 30
0.0
 70
   128
 71
    32
 72
    67
 73
    33
  0
VERTEX
  5
522
  8
0
 62
     9
 10
0.0
 20
0.0
 30
0.0
 70
   128
 71
    33
 72
    72
 73
    35
  0
VERTEX
  5
523
  8
0
 62
     9
 10
0.0
 20
0.0
 30
0.0
 70
   128
 71
    72
 72
    33
 73
    67
  0
VERTEX
  5
524
  8
0
 62
     9
 10
0.0
 20
0.0
 30
0.0
 70
   128
 71
     2
 72
    11
 73
    71
  0
VERTEX
  5
525
  8
0
 62
     9
 10
0.0
 20
0.0
 30
0.0
 70
   128
 71
    11
 72
    66
 73
    71
  0
VERTEX
  5
526
  8
0
 62
     9
 10
0.0
 20
0.0
 30
0.0
 70
   128
 71
    66
 72
    67
 73
    62
  0
VERTEX
  5
527
  8
0
 62
     9
 10
0.0
 20
0.0
 30
0.0
 70
   128
 71
    71
 72
    66
 73
    62
  0
VERTEX
  5
528
  8
0
 62
     9
 10
0.0
 20
0.0
 30
0.0
 70
   128
 71
    71
 72
    62
 73
    69
  0
VERTEX
  5
529
  8
0
 62
     9
 10
0.0
 20
0.0
 30
0.0
 70
   128
 71
    65
 72
    70
 73
     7
  0
VERTEX
  5
52A
  8
0
 62
     9
 10
0.0
 20
0.0
 30
0.0
 70
   128
 71
    68
 72
    69
 73
    64
  0
VERTEX
  5
52B
  8
0
 62
     9
 10
0.0
 20
0.0
 30
0.0
 70
   128
 71
    25
 72
    64
 73
    28
  0
VERTEX
  5
52C
  8
0
 62
     9
 10
0.0
 20
0.0
 30
0.0
 70
   128
 71
    66
 72
    73
 73
    67
  0
VERTEX
  5
52D
  8
0
 62
     9
 10
0.0
 20
0.0
 30
0.0
 70
   128
 71
    73
 72
    66
 73
    16
  0
VERTEX
  5
52E
  8
0
 62
     9
 10
0.0
 20
0.0
 30
0.0
 70
   128
 71
    71
 72
     1
 73
     2
  0
VERTEX
  5
52F
  8
0
 62
     9
 10
0.0
 20
0.0
 30
0.0
 70
   128
 71
    68
 72
     1
 73
    71
  0
VERTEX
  5
530
  8
0
 62
     9
 10
0.0
 20
0.0
 30
0.0
 70
   128
 71
    68
 72
     4
 73
     1
  0
VERTEX
  5
531
  8
0
 62
     9
 10
0.0
 20
0.0
 30
0.0
 70
   128
 71
    65
 72
     7
 73
     4
  0
VERTEX
  5
532
  8
0
 62
     9
 10
0.0
 20
0.0
 30
0.0
 70
   128
 71
     4
 72
    68
 73
    65
  0
VERTEX
  5
533
  8
0
 62
     9
 10
0.0
 20
0.0
 30
0.0
 70
   128
 71
    70
 72
    65
 73
    63
  0
VERTEX
  5
534
  8
0
 62
     9
 10
0.0
 20
0.0
 30
0.0
 70
   128
 71
    60
 72
    74
 73
    61
  0
VERTEX
  5
535
  8
0
 62
     9
 10
0.0
 20
0.0
 30
0.0
 70
   128
 71
    77
 72
    76
 73
    75
  0
VERTEX
  5
536
  8
0
 62
     9
 10
0.0
 20
0.0
 30
0.0
 70
   128
 71
    78
 72
    60
 73
    51
  0
VERTEX
  5
537
  8
0
 62
     9
 10
0.0
 20
0.0
 30
0.0
 70
   128
 71
    60
 72
    78
 73
    74
  0
VERTEX
  5
538
  8
0
 62
     9
 10
0.0
 20
0.0
 30
0.0
 70
   128
 71
    51
 72
     9
 73
    70
  0
VERTEX
  5
539
  8
0
 62
     9
 10
0.0
 20
0.0
 30
0.0
 70
   128
 71
    37
 72
    75
 73
    76
  0
VERTEX
  5
53A
  8
0
 62
     9
 10
0.0
 20
0.0
 30
0.0
 70
   128
 71
    79
 72
    74
 73
    78
  0
VERTEX
  5
53B
  8
0
 62
     9
 10
0.0
 20
0.0
 30
0.0
 70
   128
 71
    16
 72
    77
 73
    73
  0
VERTEX
  5
53C
  8
0
 62
     9
 10
0.0
 20
0.0
 30
0.0
 70
   128
 71
    76
 72
    39
 73
    37
  0
VERTEX
  5
53D
  8
0
 62
     9
 10
0.0
 20
0.0
 30
0.0
 70
   128
 71
    37
 72
    42
 73
    75
  0
VERTEX
  5
53E
  8
0
 62
     9
 10
0.0
 20
0.0
 30
0.0
 70
   128
 71
    42
 72
    35
 73
    72
  0
VERTEX
  5
53F
  8
0
 62
     9
 10
0.0
 20
0.0
 30
0.0
 70
   128
 71
    81
 72
    80
 73
    76
  0
VERTEX
  5
540
  8
0
 62
     9
 10
0.0
 20
0.0
 30
0.0
 70
   128
 71
    79
 72
    41
 73
    80
  0
VERTEX
  5
541
  8
0
 62
     9
 10
0.0
 20
0.0
 30
0.0
 70
   128
 71
    80
 72
    39
 73
    76
  0
VERTEX
  5
542
  8
0
 62
     9
 10
0.0
 20
0.0
 30
0.0
 70
   128
 71
    79
 72
    26
 73
    36
  0
VERTEX
  5
543
  8
0
 62
     9
 10
0.0
 20
0.0
 30
0.0
 70
   128
 71
    26
 72
    79
 73
    63
  0
VERTEX
  5
544
  8
0
 62
     9
 10
0.0
 20
0.0
 30
0.0
 70
   128
 71
    41
 72
    79
 73
    36
  0
VERTEX
  5
545
  8
0
 62
     9
 10
0.0
 20
0.0
 30
0.0
 70
   128
 71
    78
 72
    70
 73
    63
  0
VERTEX
  5
546
  8
0
 62
     9
 10
0.0
 20
0.0
 30
0.0
 70
   128
 71
    73
 72
    77
 73
    75
  0
VERTEX
  5
547
  8
0
 62
     9
 10
0.0
 20
0.0
 30
0.0
 70
   128
 71
    39
 72
    80
 73
    41
  0
VERTEX
  5
548
  8
0
 62
     9
 10
0.0
 20
0.0
 30
0.0
 70
   128
 71
    80
 72
    81
 73
    74
  0
VERTEX
  5
549
  8
0
 62
     9
 10
0.0
 20
0.0
 30
0.0
 70
   128
 71
    72
 72
    75
 73
    42
  0
VERTEX
  5
54A
  8
0
 62
     9
 10
0.0
 20
0.0
 30
0.0
 70
   128
 71
    77
 72
    81
 73
    76
  0
VERTEX
  5
54B
  8
0
 62
     9
 10
0.0
 20
0.0
 30
0.0
 70
   128
 71
    75
 72
    72
 73
    73
  0
VERTEX
  5
54C
  8
0
 62
     9
 10
0.0
 20
0.0
 30
0.0
 70
   128
 71
    79
 72
    78
 73
    63
  0
VERTEX
  5
54D
  8
0
 62
     9
 10
0.0
 20
0.0
 30
0.0
 70
   128
 71
    70
 72
    78
 73
    51
  0
VERTEX
  5
54E
  8
0
 62
     9
 10
0.0
 20
0.0
 30
0.0
 70
   128
 71
    61
 72
    74
 73
    59
  0
VERTEX
  5
54F
  8
0
 62
     9
 10
0.0
 20
0.0
 30
0.0
 70
   128
 71
    80
 72
    74
 73
    79
  0
VERTEX
  5
550
  8
0
 62
     9
 10
0.0
 20
0.0
 30
0.0
 70
   128
 71
    81
 72
    59
 73
    74
  0
VERTEX
  5
551
  8
0
 62
     9
 10
0.0
 20
0.0
 30
0.0
 70
   128
 71
    59
 72
    81
 73
    58
  0
VERTEX
  5
552
  8
0
 62
     9
 10
0.0
 20
0.0
 30
0.0
 70
   128
 71
    77
 72
    58
 73
    81
  0
VERTEX
  5
553
  8
0
 62
     9
 10
0.0
 20
0.0
 30
0.0
 70
   128
 71
    58
 72
    77
 73
    16
  0
VERTEX
  5
554
  8
0
 62
     9
 10
0.0
 20
0.0
 30
0.0
 70
   128
 71
    54
 72
    53
 73
    23
  0
VERTEX
  5
555
  8
0
 62
     9
 10
0.0
 20
0.0
 30
0.0
 70
   128
 71
    57
 72
    15
 73
    18
  0
VERTEX
  5
556
  8
0
 62
     9
 10
0.0
 20
0.0
 30
0.0
 70
   128
 71
    52
 72
    54
 73
    55
  0
VERTEX
  5
557
  8
0
 62
     9
 10
0.0
 20
0.0
 30
0.0
 70
   128
 71
    53
 72
    21
 73
    23
  0
VERTEX
  5
558
  8
0
 62
     9
 10
0.0
 20
0.0
 30
0.0
 70
   128
 71
    54
 72
    23
 73
    55
  0
VERTEX
  5
559
  8
0
 62
     9
 10
0.0
 20
0.0
 30
0.0
 70
   128
 71
    56
 72
    21
 73
    53
  0
VERTEX
  5
55A
  8
0
 62
     9
 10
0.0
 20
0.0
 30
0.0
 70
   128
 71
    57
 72
    18
 73
    56
  0
VERTEX
  5
55B
  8
0
 62
     9
 10
0.0
 20
0.0
 30
0.0
 70
   128
 71
    21
 72
    56
 73
    18
  0
VERTEX
  5
55C
  8
0
 62
     9
 10
0.0
 20
0.0
 30
0.0
 70
   128
 71
    57
 72
    14
 73
    15
  0
VERTEX
  5
55D
  8
0
 62
     9
 10
0.0
 20
0.0
 30
0.0
 70
   128
 71
    14
 72
    13
 73
    15
  0
VERTEX
  5
55E
  8
0
 62
     9
 10
0.0
 20
0.0
 30
0.0
 70
   128
 71
    12
 72
    13
 73
    14
  0
VERTEX
  5
55F
  8
0
 62
     9
 10
0.0
 20
0.0
 30
0.0
 70
   128
 71
    12
 72
     3
 73
    13
  0
SEQEND
  5
560
  8
0
  0
ENDBLK
  5
563
  8
0
  0
ENDSEC
  0
SECTION
  2
ENTITIES
  0
INSERT
  5
F1
  8
LAYER_1
  2
1
 10
0.0
 20
0.0
 30
0.0
  0
INSERT
  5
16E
  8
LAYER_1
  2
39
 10
0.0
 20
0.0
 30
0.0
  0
INSERT
  5
386
  8
LAYER_1
  2
1_5
 10
0.0
 20
0.0
 30
0.0
  0
INSERT
  5
46C
  8
LAYER_1
  2
41
 10
0.0
 20
0.0
 30
0.0
  0
INSERT
  5
561
  8
LAYER_1
  2
1_1_
 10
0.0
 20
0.0
 30
0.0
  0
ENDSEC
  0
EOF
