  0
SECTION
  2
HEADER
  9
$ACADVER
  1
AC1015
  9
$ACADMAINTVER
 70
     6
  9
$DWGCODEPAGE
  3
ANSI_1252
  9
$INSBASE
 10
0.0
 20
0.0
 30
0.0
  9
$EXTMIN
 10
0.0
 20
0.0
 30
0.0
  9
$EXTMAX
 10
1682.0
 20
2378.0
 30
0.0
  9
$LIMMIN
 10
0.0
 20
0.0
  9
$LIMMAX
 10
1682.0
 20
2378.0
  9
$ORTHOMODE
 70
     0
  9
$REGENMODE
 70
     1
  9
$FILLMODE
 70
     1
  9
$QTEXTMODE
 70
     0
  9
$MIRRTEXT
 70
     1
  9
$LTSCALE
 40
1.0
  9
$ATTMODE
 70
     1
  9
$TEXTSIZE
 40
2.5
  9
$TRACEWID
 40
1.0
  9
$TEXTSTYLE
  7
Standard
  9
$CLAYER
  8
0
  9
$CELTYPE
  6
ByLayer
  9
$CECOLOR
 62
   256
  9
$CELTSCALE
 40
1.0
  9
$DISPSILH
 70
     0
  9
$DIMSCALE
 40
1.0
  9
$DIMASZ
 40
2.5
  9
$DIMEXO
 40
0.625
  9
$DIMDLI
 40
3.75
  9
$DIMRND
 40
0.0
  9
$DIMDLE
 40
0.0
  9
$DIMEXE
 40
1.25
  9
$DIMTP
 40
0.0
  9
$DIMTM
 40
0.0
  9
$DIMTXT
 40
2.5
  9
$DIMCEN
 40
2.5
  9
$DIMTSZ
 40
0.0
  9
$DIMTOL
 70
     0
  9
$DIMLIM
 70
     0
  9
$DIMTIH
 70
     0
  9
$DIMTOH
 70
     0
  9
$DIMSE1
 70
     0
  9
$DIMSE2
 70
     0
  9
$DIMTAD
 70
     1
  9
$DIMZIN
 70
     8
  9
$DIMBLK
  1

  9
$DIMASO
 70
     1
  9
$DIMSHO
 70
     1
  9
$DIMPOST
  1

  9
$DIMAPOST
  1

  9
$DIMALT
 70
     0
  9
$DIMALTD
 70
     3
  9
$DIMALTF
 40
0.0393700787
  9
$DIMLFAC
 40
1.0
  9
$DIMTOFL
 70
     1
  9
$DIMTVP
 40
0.0
  9
$DIMTIX
 70
     0
  9
$DIMSOXD
 70
     0
  9
$DIMSAH
 70
     0
  9
$DIMBLK1
  1

  9
$DIMBLK2
  1

  9
$DIMSTYLE
  2
ISO-25
  9
$DIMCLRD
 70
     0
  9
$DIMCLRE
 70
     0
  9
$DIMCLRT
 70
     0
  9
$DIMTFAC
 40
1.0
  9
$DIMGAP
 40
0.625
  9
$DIMJUST
 70
     0
  9
$DIMSD1
 70
     0
  9
$DIMSD2
 70
     0
  9
$DIMTOLJ
 70
     0
  9
$DIMTZIN
 70
     8
  9
$DIMALTZ
 70
     0
  9
$DIMALTTZ
 70
     0
  9
$DIMUPT
 70
     0
  9
$DIMDEC
 70
     2
  9
$DIMTDEC
 70
     2
  9
$DIMALTU
 70
     2
  9
$DIMALTTD
 70
     3
  9
$DIMTXSTY
  7
Standard
  9
$DIMAUNIT
 70
     0
  9
$DIMADEC
 70
     0
  9
$DIMALTRND
 40
0.0
  9
$DIMAZIN
 70
     0
  9
$DIMDSEP
 70
    44
  9
$DIMATFIT
 70
     3
  9
$DIMFRAC
 70
     0
  9
$DIMLDRBLK
  1

  9
$DIMLUNIT
 70
     2
  9
$DIMLWD
 70
    -2
  9
$DIMLWE
 70
    -2
  9
$DIMTMOVE
 70
     0
  9
$LUNITS
 70
     2
  9
$LUPREC
 70
     4
  9
$SKETCHINC
 40
1.0
  9
$FILLETRAD
 40
10.0
  9
$AUNITS
 70
     0
  9
$AUPREC
 70
     0
  9
$MENU
  1
.
  9
$ELEVATION
 40
0.0
  9
$PELEVATION
 40
0.0
  9
$THICKNESS
 40
0.0
  9
$LIMCHECK
 70
     0
  9
$CHAMFERA
 40
10.0
  9
$CHAMFERB
 40
10.0
  9
$CHAMFERC
 40
20.0
  9
$CHAMFERD
 40
0.0
  9
$SKPOLY
 70
     0
  9
$TDCREATE
 40
2455610.375818171
  9
$TDUCREATE
 40
2455610.334151505
  9
$TDUPDATE
 40
2455610.375818183
  9
$TDUUPDATE
 40
2455610.334151516
  9
$TDINDWG
 40
0.0000000116
  9
$TDUSRTIMER
 40
0.0000000116
  9
$USRTIMER
 70
     1
  9
$ANGBASE
 50
0.0
  9
$ANGDIR
 70
     0
  9
$PDMODE
 70
     0
  9
$PDSIZE
 40
0.0
  9
$PLINEWID
 40
0.0
  9
$SPLFRAME
 70
     0
  9
$SPLINETYPE
 70
     6
  9
$SPLINESEGS
 70
     8
  9
$HANDSEED
  5
286
  9
$SURFTAB1
 70
     6
  9
$SURFTAB2
 70
     6
  9
$SURFTYPE
 70
     6
  9
$SURFU
 70
     6
  9
$SURFV
 70
     6
  9
$UCSBASE
  2

  9
$UCSNAME
  2

  9
$UCSORG
 10
0.0
 20
0.0
 30
0.0
  9
$UCSXDIR
 10
1.0
 20
0.0
 30
0.0
  9
$UCSYDIR
 10
0.0
 20
1.0
 30
0.0
  9
$UCSORTHOREF
  2

  9
$UCSORTHOVIEW
 70
     0
  9
$UCSORGTOP
 10
0.0
 20
0.0
 30
0.0
  9
$UCSORGBOTTOM
 10
0.0
 20
0.0
 30
0.0
  9
$UCSORGLEFT
 10
0.0
 20
0.0
 30
0.0
  9
$UCSORGRIGHT
 10
0.0
 20
0.0
 30
0.0
  9
$UCSORGFRONT
 10
0.0
 20
0.0
 30
0.0
  9
$UCSORGBACK
 10
0.0
 20
0.0
 30
0.0
  9
$PUCSBASE
  2

  9
$PUCSNAME
  2

  9
$PUCSORG
 10
0.0
 20
0.0
 30
0.0
  9
$PUCSXDIR
 10
1.0
 20
0.0
 30
0.0
  9
$PUCSYDIR
 10
0.0
 20
1.0
 30
0.0
  9
$PUCSORTHOREF
  2

  9
$PUCSORTHOVIEW
 70
     0
  9
$PUCSORGTOP
 10
0.0
 20
0.0
 30
0.0
  9
$PUCSORGBOTTOM
 10
0.0
 20
0.0
 30
0.0
  9
$PUCSORGLEFT
 10
0.0
 20
0.0
 30
0.0
  9
$PUCSORGRIGHT
 10
0.0
 20
0.0
 30
0.0
  9
$PUCSORGFRONT
 10
0.0
 20
0.0
 30
0.0
  9
$PUCSORGBACK
 10
0.0
 20
0.0
 30
0.0
  9
$USERI1
 70
     0
  9
$USERI2
 70
     0
  9
$USERI3
 70
     0
  9
$USERI4
 70
     0
  9
$USERI5
 70
     0
  9
$USERR1
 40
0.0
  9
$USERR2
 40
0.0
  9
$USERR3
 40
0.0
  9
$USERR4
 40
0.0
  9
$USERR5
 40
0.0
  9
$WORLDVIEW
 70
     1
  9
$SHADEDGE
 70
     3
  9
$SHADEDIF
 70
    70
  9
$TILEMODE
 70
     1
  9
$MAXACTVP
 70
    64
  9
$PINSBASE
 10
0.0
 20
0.0
 30
0.0
  9
$PLIMCHECK
 70
     0
  9
$PEXTMIN
 10
0.0
 20
0.0
 30
0.0
  9
$PEXTMAX
 10
1682.0
 20
2378.0
 30
0.0
  9
$PLIMMIN
 10
0.0
 20
0.0
  9
$PLIMMAX
 10
1682.0
 20
2378.0
  9
$UNITMODE
 70
     0
  9
$VISRETAIN
 70
     1
  9
$PLINEGEN
 70
     0
  9
$PSLTSCALE
 70
     1
  9
$TREEDEPTH
 70
  3020
  9
$CMLSTYLE
  2
Standard
  9
$CMLJUST
 70
     0
  9
$CMLSCALE
 40
20.0
  9
$PROXYGRAPHICS
 70
     1
  9
$MEASUREMENT
 70
     1
  9
$CELWEIGHT
370
    -1
  9
$ENDCAPS
280
     0
  9
$JOINSTYLE
280
     0
  9
$LWDISPLAY
290
     0
  9
$INSUNITS
 70
     4
  9
$HYPERLINKBASE
  1

  9
$STYLESHEET
  1

  9
$XEDIT
290
     1
  9
$CEPSNTYPE
380
     0
  9
$PSTYLEMODE
290
     1
  9
$FINGERPRINTGUID
  2
{3221185A-52AC-4775-A1AA-8A654A6E53E4}
  9
$VERSIONGUID
  2
{FAEB1C32-E019-11D5-929B-00C0DF256EC4}
  9
$EXTNAMES
290
     1
  9
$PSVPSCALE
 40
0.0
  9
$OLESTARTUP
290
     0
  0
ENDSEC
  0
SECTION
  2
CLASSES
  0
CLASS
  1
ACDBDICTIONARYWDFLT
  2
AcDbDictionaryWithDefault
  3
ObjectDBX Classes
 90
        0
280
     0
281
     0
  0
CLASS
  1
VISUALSTYLE
  2
AcDbVisualStyle
  3
ObjectDBX Classes
 90
     4095
280
     0
281
     0
  0
CLASS
  1
SCALE
  2
AcDbScale
  3
ObjectDBX Classes
 90
     1153
280
     0
281
     0
  0
CLASS
  1
DICTIONARYVAR
  2
AcDbDictionaryVar
  3
ObjectDBX Classes
 90
        0
280
     0
281
     0
  0
CLASS
  1
ACDBPLACEHOLDER
  2
AcDbPlaceHolder
  3
ObjectDBX Classes
 90
        0
280
     0
281
     0
  0
CLASS
  1
LAYOUT
  2
AcDbLayout
  3
ObjectDBX Classes
 90
        0
280
     0
281
     0
  0
ENDSEC
  0
SECTION
  2
TABLES
  0
TABLE
  2
VPORT
  5
8
330
0
100
AcDbSymbolTable
 70
     1
  0
VPORT
  5
29
330
8
100
AcDbSymbolTableRecord
100
AcDbViewportTableRecord
  2
*Active
 70
     0
 10
0.0
 20
0.0
 11
1.0
 21
1.0
 12
344.1869158879
 22
148.5
 13
0.0
 23
0.0
 14
10.0
 24
10.0
 15
10.0
 25
10.0
 16
0.0
 26
0.0
 36
1.0
 17
0.0
 27
0.0
 37
0.0
 40
297.0
 41
1.9729729729
 42
50.0
 43
0.0
 44
0.0
 50
0.0
 51
0.0
 71
     0
 72
   100
 73
     1
 74
     3
 75
     0
 76
     0
 77
     0
 78
     0
281
     0
 65
     1
110
0.0
120
0.0
130
0.0
111
1.0
121
0.0
131
0.0
112
0.0
122
1.0
132
0.0
 79
     0
146
0.0
  0
ENDTAB
  0
TABLE
  2
LTYPE
  5
5
330
0
100
AcDbSymbolTable
 70
     2
  0
LTYPE
  5
14
330
5
100
AcDbSymbolTableRecord
100
AcDbLinetypeTableRecord
  2
ByBlock
 70
     0
  3

 72
    65
 73
     0
 40
0.0
  0
LTYPE
  5
15
330
5
100
AcDbSymbolTableRecord
100
AcDbLinetypeTableRecord
  2
ByLayer
 70
     0
  3

 72
    65
 73
     0
 40
0.0
  0
LTYPE
  5
16
330
5
100
AcDbSymbolTableRecord
100
AcDbLinetypeTableRecord
  2
Continuous
 70
     0
  3
Solid line
 72
    65
 73
     0
 40
0.0
  0
LTYPE
  5
60
330
5
100
AcDbSymbolTableRecord
100
AcDbLinetypeTableRecord
  2
CENTER2
 70
     0
  3
Center (.5x) ___ _ ___ _ ___ _ ___ _ ___ _ ___
 72
    65
 73
     4
 40
28.575
 49
19.05
 74
     4
 75
     0
340
0
 46
0.0
 50
0.0
 44
0.0
 45
0.0
 49
-3.175
 74
     4
 75
     0
340
0
 46
0.0
 50
0.0
 44
0.0
 45
0.0
 49
3.175
 74
     4
 75
     0
340
0
 46
0.0
 50
0.0
 44
0.0
 45
0.0
 49
-3.175
 74
     4
 75
     0
340
0
 46
0.0
 50
0.0
 44
0.0
 45
0.0
  0
ENDTAB
  0
TABLE
  2
LAYER
  5
2
330
0
100
AcDbSymbolTable
 70
    11
  0
LAYER
  5
10
330
2
100
AcDbSymbolTableRecord
100
AcDbLayerTableRecord
  2
0
 70
     0
 62
     7
  6
Continuous
370
    -3
390
F
  0
LAYER
  5
5D
330
2
100
AcDbSymbolTableRecord
100
AcDbLayerTableRecord
  2
Default
 70
     0
 62
     7
  6
Continuous
370
    -3
390
F
  0
LAYER
  5
74
330
2
100
AcDbSymbolTableRecord
100
AcDbLayerTableRecord
  2
$DDT_AUDIT_GENERATED_(74)
 70
     0
 62
     7
  6
Continuous
370
    -3
390
F
  0
LAYER
  5
87
330
2
100
AcDbSymbolTableRecord
100
AcDbLayerTableRecord
  2
$DDT_AUDIT_GENERATED_(87)
 70
     0
 62
     7
  6
Continuous
370
    -3
390
F
  0
LAYER
  5
B5
330
2
100
AcDbSymbolTableRecord
100
AcDbLayerTableRecord
  2
$DDT_AUDIT_GENERATED_(B5)
 70
     0
 62
     7
  6
Continuous
370
    -3
390
F
  0
LAYER
  5
C0
330
2
100
AcDbSymbolTableRecord
100
AcDbLayerTableRecord
  2
02636038_GEHÄUSE
 70
     0
 62
     7
  6
Continuous
370
    -3
390
F
  0
LAYER
  5
D6
330
2
100
AcDbSymbolTableRecord
100
AcDbLayerTableRecord
  2
$DDT_AUDIT_GENERATED_(D6)
 70
     0
 62
     7
  6
Continuous
370
    -3
390
F
  0
LAYER
  5
194
330
2
100
AcDbSymbolTableRecord
100
AcDbLayerTableRecord
  2
$DDT_AUDIT_GENERATED_(194)
 70
     0
 62
     7
  6
Continuous
370
    -3
390
F
  0
LAYER
  5
1D5
330
2
100
AcDbSymbolTableRecord
100
AcDbLayerTableRecord
  2
$DDT_AUDIT_GENERATED_(1D5)
 70
     0
 62
     7
  6
Continuous
370
    -3
390
F
  0
LAYER
  5
1D8
330
2
100
AcDbSymbolTableRecord
100
AcDbLayerTableRecord
  2
01161038_BUEGEL_
 70
     0
 62
     7
  6
Continuous
370
    -3
390
F
  0
LAYER
  5
1E2
330
2
100
AcDbSymbolTableRecord
100
AcDbLayerTableRecord
  2
$DDT_AUDIT_GENERATED_(1E2)
 70
     0
 62
     7
  6
Continuous
370
    -3
390
F
  0
ENDTAB
  0
TABLE
  2
STYLE
  5
3
330
0
100
AcDbSymbolTable
 70
     2
  0
STYLE
  5
11
330
3
100
AcDbSymbolTableRecord
100
AcDbTextStyleTableRecord
  2
Standard
 70
     0
 40
0.0
 41
1.0
 50
0.0
 71
     0
 42
2.5
  3
txt
  4

  0
STYLE
  5
275
330
3
100
AcDbSymbolTableRecord
100
AcDbTextStyleTableRecord
  2
SEACAD_seiso_ttf
 70
     0
 40
0.0
 41
1.0
 50
0.0
 71
     0
 42
0.2
  3
seiso.ttf
  4

  0
ENDTAB
  0
TABLE
  2
VIEW
  5
6
330
0
100
AcDbSymbolTable
 70
     0
  0
ENDTAB
  0
TABLE
  2
UCS
  5
7
330
0
100
AcDbSymbolTable
 70
     0
  0
ENDTAB
  0
TABLE
  2
APPID
  5
9
330
0
100
AcDbSymbolTable
 70
     1
  0
APPID
  5
12
330
9
100
AcDbSymbolTableRecord
100
AcDbRegAppTableRecord
  2
ACAD
 70
     0
  0
ENDTAB
  0
TABLE
  2
DIMSTYLE
  5
A
330
0
100
AcDbSymbolTable
 70
     1
100
AcDbDimStyleTable
  0
DIMSTYLE
105
27
330
A
100
AcDbSymbolTableRecord
100
AcDbDimStyleTableRecord
  2
ISO-25
 70
     0
 41
2.5
 42
0.625
 43
3.75
 44
1.25
 73
     0
 74
     0
 77
     1
 78
     8
140
2.5
141
2.5
143
0.0393700787
147
0.625
171
     3
172
     1
271
     2
272
     2
274
     3
278
    44
283
     0
284
     8
340
11
  0
ENDTAB
  0
TABLE
  2
BLOCK_RECORD
  5
1
330
0
100
AcDbSymbolTable
 70
     7
  0
BLOCK_RECORD
  5
1F
330
1
100
AcDbSymbolTableRecord
100
AcDbBlockTableRecord
  2
*Model_Space
340
22
  0
BLOCK_RECORD
  5
1B
330
1
100
AcDbSymbolTableRecord
100
AcDbBlockTableRecord
  2
*Paper_Space
340
1E
  0
BLOCK_RECORD
  5
5E
330
1
100
AcDbSymbolTableRecord
100
AcDbBlockTableRecord
  2
SEANNOT_GROUP
340
0
102
{BLKREFS
331
5F
102
}
  0
BLOCK_RECORD
  5
65
330
1
100
AcDbSymbolTableRecord
100
AcDbBlockTableRecord
  2
SEANNOT_GROUP1
340
0
102
{BLKREFS
331
66
102
}
  0
BLOCK_RECORD
  5
6C
330
1
100
AcDbSymbolTableRecord
100
AcDbBlockTableRecord
  2
SEANNOT_GROUP2
340
0
102
{BLKREFS
331
6D
102
}
  0
BLOCK_RECORD
  5
72
330
1
100
AcDbSymbolTableRecord
100
AcDbBlockTableRecord
  2
SE
340
0
102
{BLKREFS
331
73
102
}
  0
BLOCK_RECORD
  5
199
330
1
100
AcDbSymbolTableRecord
100
AcDbBlockTableRecord
  2
SE1
340
0
102
{BLKREFS
331
19A
102
}
  0
BLOCK_RECORD
  5
202
330
1
100
AcDbSymbolTableRecord
100
AcDbBlockTableRecord
  2
SE2
340
0
102
{BLKREFS
331
203
102
}
  0
ENDTAB
  0
ENDSEC
  0
SECTION
  2
BLOCKS
  0
BLOCK
  5
20
330
1F
100
AcDbEntity
  8
0
100
AcDbBlockBegin
  2
*Model_Space
 70
     0
 10
0.0
 20
0.0
 30
0.0
  3
*Model_Space
  1

  0
ENDBLK
  5
21
330
1F
100
AcDbEntity
  8
0
100
AcDbBlockEnd
  0
BLOCK
  5
1C
330
1B
100
AcDbEntity
 67
     1
  8
0
100
AcDbBlockBegin
  2
*Paper_Space
 70
     0
 10
0.0
 20
0.0
 30
0.0
  3
*Paper_Space
  1

  0
ENDBLK
  5
1D
330
1B
100
AcDbEntity
 67
     1
  8
0
100
AcDbBlockEnd
  0
BLOCK
  5
63
330
5E
100
AcDbEntity
  8
0
100
AcDbBlockBegin
  2
SEANNOT_GROUP
 70
     0
 10
0.0
 20
0.0
 30
0.0
  3
SEANNOT_GROUP
  1

  0
LINE
  5
61
330
5E
100
AcDbEntity
  8
Default
  6
CENTER2
 62
     7
100
AcDbLine
 10
52.349999553
 20
300.955739697
 30
0.0
 11
12.350000447
 21
300.955739697
 31
0.0
  0
LINE
  5
62
330
5E
100
AcDbEntity
  8
Default
  6
CENTER2
 62
     7
100
AcDbLine
 10
32.35
 20
320.95573925
 30
0.0
 11
32.35
 21
280.955740144
 31
0.0
  0
ENDBLK
  5
64
330
5E
100
AcDbEntity
  8
0
100
AcDbBlockEnd
  0
BLOCK
  5
69
330
65
100
AcDbEntity
  8
0
100
AcDbBlockBegin
  2
SEANNOT_GROUP1
 70
     0
 10
0.0
 20
0.0
 30
0.0
  3
SEANNOT_GROUP1
  1

  0
LINE
  5
67
330
65
100
AcDbEntity
  8
Default
  6
CENTER2
 62
     7
100
AcDbLine
 10
167.724049545
 20
300.955739697
 30
0.0
 11
127.724050439
 21
300.955739697
 31
0.0
  0
LINE
  5
68
330
65
100
AcDbEntity
  8
Default
  6
CENTER2
 62
     7
100
AcDbLine
 10
147.724049992
 20
320.95573925
 30
0.0
 11
147.724049992
 21
280.955740144
 31
0.0
  0
ENDBLK
  5
6A
330
65
100
AcDbEntity
  8
0
100
AcDbBlockEnd
  0
BLOCK
  5
70
330
6C
100
AcDbEntity
  8
0
100
AcDbBlockBegin
  2
SEANNOT_GROUP2
 70
     0
 10
0.0
 20
0.0
 30
0.0
  3
SEANNOT_GROUP2
  1

  0
LINE
  5
6E
330
6C
100
AcDbEntity
  8
Default
  6
CENTER2
 62
     7
100
AcDbLine
 10
52.349999553
 20
216.35
 30
0.0
 11
12.350000447
 21
216.35
 31
0.0
  0
LINE
  5
6F
330
6C
100
AcDbEntity
  8
Default
  6
CENTER2
 62
     7
100
AcDbLine
 10
32.35
 20
236.349999553
 30
0.0
 11
32.35
 21
196.350000447
 31
0.0
  0
ENDBLK
  5
71
330
6C
100
AcDbEntity
  8
0
100
AcDbBlockEnd
  0
BLOCK
  5
197
330
72
100
AcDbEntity
  8
0
100
AcDbBlockBegin
  2
SE
 70
     0
 10
0.0
 20
0.0
 30
0.0
  3
SE
  1

  0
LINE
  5
75
330
72
100
AcDbEntity
  8
$DDT_AUDIT_GENERATED_(74)
  6
Continuous
 62
     7
100
AcDbLine
 10
11.35
 20
396.955739697
 30
0.0
 11
20.9774764224
 21
396.955739697
 31
0.0
  0
LINE
  5
76
330
72
100
AcDbEntity
  8
$DDT_AUDIT_GENERATED_(74)
  6
Continuous
 62
     7
100
AcDbLine
 10
43.7225235776
 20
396.955739697
 30
0.0
 11
53.35
 21
396.955739697
 31
0.0
  0
LINE
  5
77
330
72
100
AcDbEntity
  8
$DDT_AUDIT_GENERATED_(74)
  6
Continuous
 62
     7
100
AcDbLine
 10
11.35
 20
415.955739697
 30
0.0
 11
53.35
 21
415.955739697
 31
0.0
  0
LINE
  5
78
330
72
100
AcDbEntity
  8
$DDT_AUDIT_GENERATED_(74)
  6
Continuous
 62
     7
100
AcDbLine
 10
10.85
 20
391.955739697
 30
0.0
 11
10.85
 21
397.455739697
 31
0.0
  0
LINE
  5
79
330
72
100
AcDbEntity
  8
$DDT_AUDIT_GENERATED_(74)
  6
Continuous
 62
     7
100
AcDbLine
 10
10.85
 20
404.629403191
 30
0.0
 11
10.85
 21
397.455739697
 31
0.0
  0
LINE
  5
7A
330
72
100
AcDbEntity
  8
$DDT_AUDIT_GENERATED_(74)
  6
Continuous
 62
     7
100
AcDbLine
 10
10.85
 20
404.629403191
 30
0.0
 11
10.85
 21
415.455739697
 31
0.0
  0
LINE
  5
7B
330
72
100
AcDbEntity
  8
$DDT_AUDIT_GENERATED_(74)
  6
Continuous
 62
     7
100
AcDbLine
 10
10.85
 20
391.955739697
 30
0.0
 11
10.85
 21
308.955739697
 31
0.0
  0
LINE
  5
7C
330
72
100
AcDbEntity
  8
$DDT_AUDIT_GENERATED_(74)
  6
Continuous
 62
     7
100
AcDbLine
 10
53.85
 20
415.455739697
 30
0.0
 11
53.85
 21
404.629403191
 31
0.0
  0
LINE
  5
7D
330
72
100
AcDbEntity
  8
$DDT_AUDIT_GENERATED_(74)
  6
Continuous
 62
     7
100
AcDbLine
 10
53.85
 20
397.455739697
 30
0.0
 11
53.85
 21
404.629403191
 31
0.0
  0
LINE
  5
7E
330
72
100
AcDbEntity
  8
$DDT_AUDIT_GENERATED_(74)
  6
Continuous
 62
     7
100
AcDbLine
 10
53.85
 20
397.455739697
 30
0.0
 11
53.85
 21
391.955739697
 31
0.0
  0
LINE
  5
7F
330
72
100
AcDbEntity
  8
$DDT_AUDIT_GENERATED_(74)
  6
Continuous
 62
     7
100
AcDbLine
 10
53.85
 20
308.955739697
 30
0.0
 11
53.85
 21
391.955739697
 31
0.0
  0
ARC
  5
80
330
72
100
AcDbEntity
  8
$DDT_AUDIT_GENERATED_(74)
  6
Continuous
 62
     7
100
AcDbCircle
 10
11.35
 20
415.455739697
 30
0.0
 40
0.5000000000000664
100
AcDbArc
 50
90.0
 51
180.0
  0
ARC
  5
81
330
72
100
AcDbEntity
  8
$DDT_AUDIT_GENERATED_(74)
  6
Continuous
 62
     7
100
AcDbCircle
 10
53.35
 20
415.455739697
 30
0.0
 40
0.4999999999998894
100
AcDbArc
 50
0.0
 51
90.0
  0
ARC
  5
82
330
72
100
AcDbEntity
  8
$DDT_AUDIT_GENERATED_(74)
  6
Continuous
 62
     7
100
AcDbCircle
 10
11.35
 20
397.455739697
 30
0.0
 40
0.5000000000126015
100
AcDbArc
 50
180.0
 51
269.9999999993
  0
ARC
  5
83
330
72
100
AcDbEntity
  8
$DDT_AUDIT_GENERATED_(74)
  6
Continuous
 62
     7
100
AcDbCircle
 10
53.35
 20
397.455739697
 30
0.0
 40
0.5000000000022868
100
AcDbArc
 50
270.0
 51
0.0
  0
LINE
  5
84
330
72
100
AcDbEntity
  8
$DDT_AUDIT_GENERATED_(74)
  6
Continuous
 62
     7
100
AcDbLine
 10
53.35
 20
404.1464402778
 30
0.0
 11
11.35
 21
404.1464402778
 31
0.0
  0
ELLIPSE
  5
85
330
72
100
AcDbEntity
  8
$DDT_AUDIT_GENERATED_(74)
  6
Continuous
 62
     7
100
AcDbEllipse
 10
32.35
 20
400.4488996402
 30
0.0
 11
12.24999999999937
 21
1.387778780781446E-14
 31
0.0
210
0.0
220
0.0
230
1.0
 40
0.260762731
 41
0.0
 42
3.413481710702427
  0
ELLIPSE
  5
86
330
72
100
AcDbEntity
  8
$DDT_AUDIT_GENERATED_(74)
  6
Continuous
 62
     7
100
AcDbEllipse
 10
32.35
 20
400.4488996402
 30
0.0
 11
12.24999999999937
 21
1.387778780781446E-14
 31
0.0
210
0.0
220
0.0
230
1.0
 40
0.260762731
 41
6.011296250066953
 42
6.283185307179582
  0
LINE
  5
88
330
72
100
AcDbEntity
  8
$DDT_AUDIT_GENERATED_(87)
  6
Continuous
 62
     7
100
AcDbLine
 10
53.5771728747
 20
417.9485440243
 30
0.0
 11
53.3281242002
 21
417.9485440243
 31
0.0
  0
LINE
  5
89
330
72
100
AcDbEntity
  8
$DDT_AUDIT_GENERATED_(87)
  6
Continuous
 62
     7
100
AcDbLine
 10
53.3281242002
 20
417.9485440243
 30
0.0
 11
11.3718757998
 21
417.9485440243
 31
0.0
  0
LINE
  5
8A
330
72
100
AcDbEntity
  8
$DDT_AUDIT_GENERATED_(87)
  6
Continuous
 62
     7
100
AcDbLine
 10
11.3718757998
 20
417.9485440243
 30
0.0
 11
11.1228271253
 21
417.9485440243
 31
0.0
  0
ARC
  5
8B
330
72
100
AcDbEntity
  8
$DDT_AUDIT_GENERATED_(87)
  6
Continuous
 62
     7
100
AcDbCircle
 10
53.5771728747
 20
418.1985440243
 30
0.0
 40
0.2500000000000202
100
AcDbArc
 50
333.587104578
 51
5.0
  0
ARC
  5
8C
330
72
100
AcDbEntity
  8
$DDT_AUDIT_GENERATED_(87)
  6
Continuous
 62
     7
100
AcDbCircle
 10
53.5771728747
 20
418.1985440243
 30
0.0
 40
0.2500000000000202
100
AcDbArc
 50
270.0
 51
293.5976854981
  0
ARC
  5
8D
330
72
100
AcDbEntity
  8
$DDT_AUDIT_GENERATED_(87)
  6
Continuous
 62
     7
100
AcDbCircle
 10
11.1228271253
 20
418.1985440243
 30
0.0
 40
0.2500000000000002
100
AcDbArc
 50
247.3977471503
 51
270.0
  0
ARC
  5
8E
330
72
100
AcDbEntity
  8
$DDT_AUDIT_GENERATED_(87)
  6
Continuous
 62
     7
100
AcDbCircle
 10
11.1228271253
 20
418.1985440243
 30
0.0
 40
0.2500000000000002
100
AcDbArc
 50
175.0
 51
207.4622413315
  0
LINE
  5
8F
330
72
100
AcDbEntity
  8
$DDT_AUDIT_GENERATED_(87)
  6
Continuous
 62
     7
100
AcDbLine
 10
41.85
 20
449.2237800527
 30
0.0
 11
22.85
 21
449.2237800527
 31
0.0
  0
ELLIPSE
  5
90
330
72
100
AcDbEntity
  8
$DDT_AUDIT_GENERATED_(87)
  6
Continuous
 62
     7
100
AcDbEllipse
 10
22.8498620415
 20
449.5284365983
 30
0.0
 11
2.499862045347951
 21
-6.938893903907228E-13
 31
0.0
210
0.0
220
0.0
230
1.0
 40
0.1218693434
 41
3.141537467171996
 42
4.71244416682043
  0
LINE
  5
91
330
72
100
AcDbEntity
  8
$DDT_AUDIT_GENERATED_(87)
  6
Continuous
 62
     7
100
AcDbLine
 10
20.35
 20
449.5284534112
 30
0.0
 11
20.35
 21
451.8439725804
 31
0.0
  0
ELLIPSE
  5
92
330
72
100
AcDbEntity
  8
$DDT_AUDIT_GENERATED_(87)
  6
Continuous
 62
     7
100
AcDbEllipse
 10
22.8498620415
 20
451.8439893933
 30
0.0
 11
2.499862045342676
 21
-6.383782391594650E-13
 31
0.0
210
0.0
220
0.0
230
1.0
 40
0.1218693434
 41
1.57074114035916
 42
3.141647840043802
  0
ELLIPSE
  5
93
330
72
100
AcDbEntity
  8
$DDT_AUDIT_GENERATED_(87)
  6
Continuous
 62
     7
100
AcDbEllipse
 10
41.8501379585
 20
451.8439893933
 30
0.0
 11
-2.499862045347941
 21
6.383782391594650E-13
 31
0.0
210
0.0
220
0.0
230
1.0
 40
0.1218693434
 41
3.141537467141819
 42
4.712444166820437
  0
LINE
  5
94
330
72
100
AcDbEntity
  8
$DDT_AUDIT_GENERATED_(87)
  6
Continuous
 62
     7
100
AcDbLine
 10
44.35
 20
451.8439725804
 30
0.0
 11
44.35
 21
449.5284534112
 31
0.0
  0
ELLIPSE
  5
95
330
72
100
AcDbEntity
  8
$DDT_AUDIT_GENERATED_(87)
  6
Continuous
 62
     7
100
AcDbEllipse
 10
41.8501379585
 20
449.5284365983
 30
0.0
 11
-2.499862045347729
 21
2.775557561562891E-13
 31
0.0
210
0.0
220
0.0
230
1.0
 40
0.1218693434
 41
1.570741140361158
 42
3.141647839999543
  0
LINE
  5
96
330
72
100
AcDbEntity
  8
$DDT_AUDIT_GENERATED_(87)
  6
Continuous
 62
     7
100
AcDbLine
 10
13.899804303
 20
446.5748370222
 30
0.0
 11
50.800195697
 21
446.5748370222
 31
0.0
  0
LINE
  5
97
330
72
100
AcDbEntity
  8
$DDT_AUDIT_GENERATED_(87)
  6
Continuous
 62
     7
100
AcDbLine
 10
50.1792734231
 20
453.6720110869
 30
0.0
 11
14.5207265769
 21
453.6720110869
 31
0.0
  0
LINE
  5
98
330
72
100
AcDbEntity
  8
$DDT_AUDIT_GENERATED_(87)
  6
Continuous
 62
     7
100
AcDbLine
 10
13.5691884379
 20
443.335731339
 30
0.0
 11
51.1308115621
 21
443.335731339
 31
0.0
  0
LINE
  5
99
330
72
100
AcDbEntity
  8
$DDT_AUDIT_GENERATED_(87)
  6
Continuous
 62
     7
100
AcDbLine
 10
50.6773707723
 20
454.2118620342
 30
0.0
 11
50.4168611634
 21
457.1895004891
 31
0.0
  0
LINE
  5
9A
330
72
100
AcDbEntity
  8
$DDT_AUDIT_GENERATED_(87)
  6
Continuous
 62
     7
100
AcDbLine
 10
51.298293046
 20
447.1146879703
 30
0.0
 11
50.6773707723
 21
454.2118620342
 31
0.0
  0
LINE
  5
9B
330
72
100
AcDbEntity
  8
$DDT_AUDIT_GENERATED_(87)
  6
Continuous
 62
     7
100
AcDbLine
 10
14.2831388366
 20
457.1895004891
 30
0.0
 11
14.0226292277
 21
454.2118620342
 31
0.0
  0
LINE
  5
9C
330
72
100
AcDbEntity
  8
$DDT_AUDIT_GENERATED_(87)
  6
Continuous
 62
     7
100
AcDbLine
 10
14.0226292277
 20
454.2118620342
 30
0.0
 11
13.4017069541
 21
447.1146879704
 31
0.0
  0
LINE
  5
9D
330
72
100
AcDbEntity
  8
$DDT_AUDIT_GENERATED_(87)
  6
Continuous
 62
     7
100
AcDbLine
 10
53.8262215493
 20
418.22033296
 30
0.0
 11
51.6289089112
 21
443.3357313389
 31
0.0
  0
ARC
  5
9E
330
72
100
AcDbEntity
  8
$DDT_AUDIT_GENERATED_(87)
  6
Continuous
 62
     7
100
AcDbCircle
 10
11.1228271253
 20
415.4583844022
 30
0.0
 40
2.773154355243263
100
AcDbArc
 50
94.9441458641
 51
95.1525040712
  0
LINE
  5
9F
330
72
100
AcDbEntity
  8
$DDT_AUDIT_GENERATED_(87)
  6
Continuous
 62
     7
100
AcDbLine
 10
13.0710910888
 20
443.3357313389
 30
0.0
 11
10.8737784507
 21
418.22033296
 31
0.0
  0
LINE
  5
A0
330
72
100
AcDbEntity
  8
$DDT_AUDIT_GENERATED_(87)
  6
Continuous
 62
     7
100
AcDbLine
 10
51.6289089112
 20
443.3357313389
 30
0.0
 11
51.298293046
 21
447.1146879703
 31
0.0
  0
LINE
  5
A1
330
72
100
AcDbEntity
  8
$DDT_AUDIT_GENERATED_(87)
  6
Continuous
 62
     7
100
AcDbLine
 10
13.4017069541
 20
447.1146879704
 30
0.0
 11
13.0710910888
 21
443.3357313389
 31
0.0
  0
LINE
  5
A2
330
72
100
AcDbEntity
  8
$DDT_AUDIT_GENERATED_(87)
  6
Continuous
 62
     7
100
AcDbLine
 10
20.85
 20
452.0151839039
 30
0.0
 11
20.85
 21
450.024726487
 31
0.0
  0
LINE
  5
A3
330
72
100
AcDbEntity
  8
$DDT_AUDIT_GENERATED_(87)
  6
Continuous
 62
     7
100
AcDbLine
 10
22.85
 20
449.7809878002
 30
0.0
 11
41.85
 21
449.7809878002
 31
0.0
  0
LINE
  5
A4
330
72
100
AcDbEntity
  8
$DDT_AUDIT_GENERATED_(87)
  6
Continuous
 62
     7
100
AcDbLine
 10
43.85
 20
450.024726487
 30
0.0
 11
43.85
 21
452.0155562999
 31
0.0
  0
ARC
  5
A5
330
72
100
AcDbEntity
  8
$DDT_AUDIT_GENERATED_(87)
  6
Continuous
 62
     7
100
AcDbCircle
 10
20.3518565171
 20
450.0265969463
 30
0.0
 40
0.498146994554972
100
AcDbArc
 50
269.7864669628
 51
359.7848633565
  0
ARC
  5
A6
330
72
100
AcDbEntity
  8
$DDT_AUDIT_GENERATED_(87)
  6
Continuous
 62
     7
100
AcDbCircle
 10
20.3518565171
 20
452.3421161154
 30
0.0
 40
0.4981469945365422
100
AcDbArc
 50
269.786466962
 51
312.6918812691
  0
ARC
  5
A7
330
72
100
AcDbEntity
  8
$DDT_AUDIT_GENERATED_(87)
  6
Continuous
 62
     7
100
AcDbCircle
 10
44.3481434829
 20
452.3421161154
 30
0.0
 40
0.4981469945560201
100
AcDbArc
 50
227.2569166627
 51
270.2135330371
  0
ARC
  5
A8
330
72
100
AcDbEntity
  8
$DDT_AUDIT_GENERATED_(87)
  6
Continuous
 62
     7
100
AcDbCircle
 10
44.3481434829
 20
450.0265969463
 30
0.0
 40
0.4981469945355996
100
AcDbArc
 50
180.2151366413
 51
270.2135330381
  0
SPLINE
  5
A9
330
72
100
AcDbEntity
  8
$DDT_AUDIT_GENERATED_(87)
  6
Continuous
 62
     7
100
AcDbSpline
210
0.0
220
0.0
230
1.0
 70
    12
 71
     3
 72
     8
 73
     4
 74
     0
 42
0.000000004653303
 43
0.0000000001
 40
0.0
 40
0.0
 40
0.0
 40
0.0
 40
1.0
 40
1.0
 40
1.0
 40
1.0
 10
22.85000000000026
 20
449.7809878002207
 30
0.0
 41
1.0
 10
21.6783709620445
 20
449.7809761155828
 30
0.0
 41
0.8047099331477315
 10
20.84990412170733
 20
449.8819408254465
 30
0.0
 41
0.8047099331477315
 10
20.85000000000027
 20
450.0247264870317
 30
0.0
 41
1.0
  0
SPLINE
  5
AA
330
72
100
AcDbEntity
  8
$DDT_AUDIT_GENERATED_(87)
  6
Continuous
 62
     7
100
AcDbSpline
210
0.0
220
0.0
230
1.0
 70
    12
 71
     3
 72
     8
 73
     4
 74
     0
 42
0.000000004653303
 43
0.0000000001
 40
0.0
 40
0.0
 40
0.0
 40
0.0
 40
1.0
 40
1.0
 40
1.0
 40
1.0
 10
43.85000000000027
 20
450.0247264870317
 30
0.0
 41
1.0
 10
43.85009587829077
 20
449.8819408254485
 30
0.0
 41
0.8047099331477519
 10
43.02162903795613
 20
449.7809761155826
 30
0.0
 41
0.8047099331477519
 10
41.85000000000026
 20
449.7809878002207
 30
0.0
 41
1.0
  0
LINE
  5
AB
330
72
100
AcDbEntity
  8
$DDT_AUDIT_GENERATED_(87)
  6
Continuous
 62
     7
100
AcDbLine
 10
49.9187638144
 20
457.6459226177
 30
0.0
 11
14.7812361856
 21
457.6459226177
 31
0.0
  0
ARC
  5
AC
330
72
100
AcDbEntity
  8
$DDT_AUDIT_GENERATED_(87)
  6
Continuous
 62
     7
100
AcDbCircle
 10
49.9187638144
 20
457.1459226177
 30
0.0
 40
0.4999999999999333
100
AcDbArc
 50
5.0
 51
90.0
  0
ARC
  5
AD
330
72
100
AcDbEntity
  8
$DDT_AUDIT_GENERATED_(87)
  6
Continuous
 62
     7
100
AcDbCircle
 10
14.7812361856
 20
457.1459226177
 30
0.0
 40
0.5000000000036642
100
AcDbArc
 50
90.0
 51
175.0
  0
ARC
  5
AE
330
72
100
AcDbEntity
  8
$DDT_AUDIT_GENERATED_(87)
  6
Continuous
 62
     7
100
AcDbCircle
 10
53.5851894345
 20
418.184983499
 30
0.0
 40
0.23441907462279
100
AcDbArc
 50
291.8378165162
 51
9.610439349
  0
ARC
  5
AF
330
72
100
AcDbEntity
  8
$DDT_AUDIT_GENERATED_(87)
  6
Continuous
 62
     7
100
AcDbCircle
 10
11.1148112388
 20
418.1849862709
 30
0.0
 40
0.234421206359424
100
AcDbArc
 50
170.3904502197
 51
248.1446357239
  0
LINE
  5
B0
330
72
100
AcDbEntity
  8
$DDT_AUDIT_GENERATED_(87)
  6
Continuous
 62
     7
100
AcDbLine
 10
22.8475
 20
452.1449190147
 30
0.0
 11
41.8525
 21
452.1449190147
 31
0.0
  0
ARC
  5
B1
330
72
100
AcDbEntity
  8
$DDT_AUDIT_GENERATED_(87)
  6
Continuous
 62
     7
100
AcDbCircle
 10
22.849130632
 20
432.3341049292
 30
0.0
 40
19.81081934931787
100
AcDbArc
 50
89.9978282303
 51
91.0634011383
  0
SPLINE
  5
B2
330
72
100
AcDbEntity
  8
$DDT_AUDIT_GENERATED_(87)
  6
Continuous
 62
     7
100
AcDbSpline
210
0.0
220
0.0
230
1.0
 70
     8
 71
     3
 72
    20
 73
    16
 74
     0
 42
0.0000000041327015
 43
0.0000000001
 40
0.2344121022170567
 40
0.2344121022170567
 40
0.2344121022170567
 40
0.2344121022170567
 40
0.2535457782743988
 40
0.3035086864069257
 40
0.3593890890662837
 40
0.4200128232991526
 40
0.4842929240479086
 40
0.5512811313808982
 40
0.6201269406384693
 40
0.6900362103507058
 40
0.7601571706864735
 40
0.8292694927200335
 40
0.8947285859371076
 40
0.9540854972202375
 40
1.0
 40
1.0
 40
1.0
 40
1.0
 10
20.64205707757763
 20
451.9639163680544
 30
0.0
 10
20.64223681067493
 20
451.9639967766381
 30
0.0
 10
20.64585748721966
 20
451.9656039635848
 30
0.0
 10
20.66972487790411
 20
451.9742055486974
 30
0.0
 10
20.72854169365127
 20
451.9905014282084
 30
0.0
 10
20.81814731681632
 20
452.010235561743
 30
0.0
 10
20.93767581517347
 20
452.0314858546007
 30
0.0
 10
21.08531543001634
 20
452.0528378402493
 30
0.0
 10
21.25835173568214
 20
452.0732249588526
 30
0.0
 10
21.45316219148496
 20
452.0918271293549
 30
0.0
 10
21.66456742747288
 20
452.1079902325059
 30
0.0
 10
21.88533550191625
 20
452.1211975553483
 30
0.0
 10
22.1025449159617
 20
452.1310593589132
 30
0.0
 10
22.30531907761535
 20
452.1377770516353
 30
0.0
 10
22.42150979072945
 20
452.1402680956189
 30
0.0
 10
22.48146588304972
 20
452.1415122790255
 30
0.0
  0
SPLINE
  5
B3
330
72
100
AcDbEntity
  8
$DDT_AUDIT_GENERATED_(87)
  6
Continuous
 62
     7
100
AcDbSpline
210
0.0
220
0.0
230
1.0
 70
     8
 71
     3
 72
    22
 73
    18
 74
     0
 42
0.0000000040554891
 43
0.0000000001
 40
0.0
 40
0.0
 40
0.0
 40
0.0
 40
0.03026393461603
 40
0.0858051664039241
 40
0.1425759813728777
 40
0.2025022230405323
 40
0.2638399816078424
 40
0.3257790604795838
 40
0.3876005427770995
 40
0.4486848711887422
 40
0.5084341870321437
 40
0.5662209239831386
 40
0.6213490759608804
 40
0.6730453790912361
 40
0.7205220061378079
 40
0.7631765357684873
 40
0.7695186930705197
 40
0.7695186930705197
 40
0.7695186930705197
 40
0.7695186930705197
 10
42.17356600274102
 20
452.1422638987283
 30
0.0
 10
42.21376674654451
 20
452.1415663896136
 30
0.0
 10
42.31051478522714
 20
452.1398390691781
 30
0.0
 10
42.48447512907588
 20
452.1350494729946
 30
0.0
 10
42.68337567627923
 20
452.1274269666167
 30
0.0
 10
42.88389494503819
 20
452.1173180355839
 30
0.0
 10
43.08050190809376
 20
452.1047278505304
 30
0.0
 10
43.2678548616043
 20
452.0898783819869
 30
0.0
 10
43.44147402356663
 20
452.0731087742182
 30
0.0
 10
43.5978705649817
 20
452.0548741369652
 30
0.0
 10
43.73421187584476
 20
452.0357624548587
 30
0.0
 10
43.84830752644334
 20
452.0165242625751
 30
0.0
 10
43.93856646456426
 20
451.9981281698963
 30
0.0
 10
44.00404976953512
 20
451.9818410749587
 30
0.0
 10
44.04460282657219
 20
451.9693256881862
 30
0.0
 10
44.05699442293214
 20
451.9643641474836
 30
0.0
 10
44.05793171996365
 20
451.9639362488314
 30
0.0
 10
44.05796010433041
 20
451.9639214700799
 30
0.0
  0
ARC
  5
B4
330
72
100
AcDbEntity
  8
$DDT_AUDIT_GENERATED_(87)
  6
Continuous
 62
     7
100
AcDbCircle
 10
41.6358534048
 20
406.4308287282
 30
0.0
 40
45.71459767062614
100
AcDbArc
 50
89.3260495666
 51
89.7314527907
  0
LINE
  5
B6
330
72
100
AcDbEntity
  8
$DDT_AUDIT_GENERATED_(B5)
  6
Continuous
 62
     7
100
AcDbLine
 10
56.75
 20
308.955739697
 30
0.0
 11
57.85
 21
308.955739697
 31
0.0
  0
LINE
  5
B7
330
72
100
AcDbEntity
  8
$DDT_AUDIT_GENERATED_(B5)
  6
Continuous
 62
     7
100
AcDbLine
 10
6.85
 20
308.955739697
 30
0.0
 11
7.95
 21
308.955739697
 31
0.0
  0
LINE
  5
B8
330
72
100
AcDbEntity
  8
$DDT_AUDIT_GENERATED_(B5)
  6
Continuous
 62
     7
100
AcDbLine
 10
7.95
 20
308.955739697
 30
0.0
 11
56.75
 21
308.955739697
 31
0.0
  0
LINE
  5
B9
330
72
100
AcDbEntity
  8
$DDT_AUDIT_GENERATED_(B5)
  6
Continuous
 62
     7
100
AcDbLine
 10
6.35
 20
308.455739697
 30
0.0
 11
6.35
 21
300.955739697
 31
0.0
  0
LINE
  5
BA
330
72
100
AcDbEntity
  8
$DDT_AUDIT_GENERATED_(B5)
  6
Continuous
 62
     7
100
AcDbLine
 10
58.35
 20
308.455739697
 30
0.0
 11
58.35
 21
300.955739697
 31
0.0
  0
ARC
  5
BB
330
72
100
AcDbEntity
  8
$DDT_AUDIT_GENERATED_(B5)
  6
Continuous
 62
     7
100
AcDbCircle
 10
6.85
 20
308.455739697
 30
0.0
 40
0.5000000000000004
100
AcDbArc
 50
90.0
 51
180.0
  0
ARC
  5
BC
330
72
100
AcDbEntity
  8
$DDT_AUDIT_GENERATED_(B5)
  6
Continuous
 62
     7
100
AcDbCircle
 10
57.85
 20
308.455739697
 30
0.0
 40
0.499999999999997
100
AcDbArc
 50
0.0
 51
90.0
  0
LINE
  5
BD
330
72
100
AcDbEntity
  8
$DDT_AUDIT_GENERATED_(B5)
  6
Continuous
 62
     7
100
AcDbLine
 10
7.95
 20
300.955739697
 30
0.0
 11
6.35
 21
300.955739697
 31
0.0
  0
LINE
  5
BE
330
72
100
AcDbEntity
  8
$DDT_AUDIT_GENERATED_(B5)
  6
Continuous
 62
     7
100
AcDbLine
 10
58.35
 20
300.955739697
 30
0.0
 11
56.75
 21
300.955739697
 31
0.0
  0
LINE
  5
BF
330
72
100
AcDbEntity
  8
$DDT_AUDIT_GENERATED_(B5)
  6
Continuous
 62
     7
100
AcDbLine
 10
56.75
 20
300.955739697
 30
0.0
 11
7.95
 21
300.955739697
 31
0.0
  0
ELLIPSE
  5
C1
330
72
100
AcDbEntity
  8
02636038_GEHÄUSE
  6
Continuous
 62
     7
100
AcDbEllipse
 10
32.35
 20
395.3531999734
 30
0.0
 11
10.05000000000001
 21
0.0
 31
0.0
210
0.0
220
0.0
230
1.0
 40
0.3746065934
 41
0.0
 42
6.283185307179586
  0
ELLIPSE
  5
C2
330
72
100
AcDbEntity
  8
02636038_GEHÄUSE
  6
Continuous
 62
     7
100
AcDbEllipse
 10
32.35
 20
395.3531999734
 30
0.0
 11
10.75000000000001
 21
0.0
 31
0.0
210
0.0
220
0.0
230
1.0
 40
0.3746065934
 41
0.0
 42
6.283185307179586
  0
ELLIPSE
  5
C3
330
72
100
AcDbEntity
  8
02636038_GEHÄUSE
  6
Continuous
 62
     7
100
AcDbEllipse
 10
32.35
 20
395.6476203898
 30
0.0
 11
11.3
 21
-2.775557561562892E-14
 31
0.0
210
0.0
220
0.0
230
1.0
 40
0.3746065934
 41
-0.7751090107149743
 42
-0.7001925476853081
  0
ELLIPSE
  5
C4
330
72
100
AcDbEntity
  8
02636038_GEHÄUSE
  6
Continuous
 62
     7
100
AcDbEllipse
 10
32.35
 20
395.6476203898
 30
0.0
 11
11.3
 21
-2.775557561562892E-14
 31
0.0
210
0.0
220
0.0
230
1.0
 40
0.3746065934
 41
3.849414151614231
 42
3.916701664304769
  0
LINE
  5
C5
330
72
100
AcDbEntity
  8
02636038_GEHÄUSE
  6
Continuous
 62
     7
100
AcDbLine
 10
43.35
 20
394.6786991506
 30
0.0
 11
43.35
 21
396.6165416291
 31
0.0
  0
ELLIPSE
  5
C6
330
72
100
AcDbEntity
  8
02636038_GEHÄUSE
  6
Continuous
 62
     7
100
AcDbEllipse
 10
32.35
 20
398.1347515371
 30
0.0
 11
-11.79999999999988
 21
0.0
 31
0.0
210
0.0
220
0.0
230
1.0
 40
0.3746065934
 41
2.771250021498074
 42
3.511935285681511
  0
LINE
  5
C7
330
72
100
AcDbEntity
  8
02636038_GEHÄUSE
  6
Continuous
 62
     7
100
AcDbLine
 10
43.35
 20
394.6786991506
 30
0.0
 11
43.35
 21
394.5144690984
 31
0.0
  0
LINE
  5
C8
330
72
100
AcDbEntity
  8
02636038_GEHÄUSE
  6
Continuous
 62
     7
100
AcDbLine
 10
43.35
 20
396.6165416291
 30
0.0
 11
43.35
 21
398.0504667265
 31
0.0
  0
LINE
  5
C9
330
72
100
AcDbEntity
  8
02636038_GEHÄUSE
  6
Continuous
 62
     7
100
AcDbLine
 10
43.35
 20
398.0504667265
 30
0.0
 11
43.35
 21
399.7346331018
 31
0.0
  0
LINE
  5
CA
330
72
100
AcDbEntity
  8
02636038_GEHÄUSE
  6
Continuous
 62
     7
100
AcDbLine
 10
21.35
 20
396.6165416291
 30
0.0
 11
21.35
 21
394.6786991506
 31
0.0
  0
ELLIPSE
  5
CB
330
72
100
AcDbEntity
  8
02636038_GEHÄUSE
  6
Continuous
 62
     7
100
AcDbEllipse
 10
32.35
 20
396.4505851618
 30
0.0
 11
-11.80000000000002
 21
2.775557561562891E-14
 31
0.0
210
0.0
220
0.0
230
1.0
 40
0.3746065934
 41
3.511935285681512
 42
5.912842675087878
  0
ELLIPSE
  5
CC
330
72
100
AcDbEntity
  8
02636038_GEHÄUSE
  6
Continuous
 62
     7
100
AcDbEllipse
 10
32.35
 20
398.1347515371
 30
0.0
 11
11.79999999999956
 21
0.0
 31
0.0
210
0.0
220
0.0
230
1.0
 40
0.3746065934
 41
2.771250021498068
 42
3.511935285681516
  0
LINE
  5
CD
330
72
100
AcDbEntity
  8
02636038_GEHÄUSE
  6
Continuous
 62
     7
100
AcDbLine
 10
21.35
 20
399.7346331018
 30
0.0
 11
21.35
 21
398.0504667265
 31
0.0
  0
LINE
  5
CE
330
72
100
AcDbEntity
  8
02636038_GEHÄUSE
  6
Continuous
 62
     7
100
AcDbLine
 10
21.35
 20
398.0504667265
 30
0.0
 11
21.35
 21
396.6165416291
 31
0.0
  0
LINE
  5
CF
330
72
100
AcDbEntity
  8
02636038_GEHÄUSE
  6
Continuous
 62
     7
100
AcDbLine
 10
21.35
 20
394.5144235514
 30
0.0
 11
21.35
 21
394.6786991506
 31
0.0
  0
LINE
  5
D0
330
72
100
AcDbEntity
  8
02636038_GEHÄUSE
  6
Continuous
 62
     7
100
AcDbLine
 10
24.2779042881
 20
392.6853544537
 30
0.0
 11
24.6707939024
 21
392.5351151226
 31
0.0
  0
LINE
  5
D1
330
72
100
AcDbEntity
  8
02636038_GEHÄUSE
  6
Continuous
 62
     7
100
AcDbLine
 10
40.0292060976
 20
392.5351151226
 30
0.0
 11
40.4220957119
 21
392.6853544537
 31
0.0
  0
ARC
  5
D2
330
72
100
AcDbEntity
  8
02636038_GEHÄUSE
  6
Continuous
 62
     7
100
AcDbCircle
 10
38.5632561818
 20
399.0469957811
 30
0.0
 40
6.587815752192324
100
AcDbArc
 50
291.8305839183
 51
316.6318252272
  0
ARC
  5
D3
330
72
100
AcDbEntity
  8
02636038_GEHÄUSE
  6
Continuous
 62
     7
100
AcDbCircle
 10
26.2215434013
 20
399.1547800135
 30
0.0
 40
6.723806670532074
100
AcDbArc
 50
223.5799133673
 51
248.3671528159
  0
LINE
  5
D4
330
72
100
AcDbEntity
  8
02636038_GEHÄUSE
  6
Continuous
 62
     7
100
AcDbLine
 10
20.55
 20
401.3067456154
 30
0.0
 11
20.55
 21
398.1347515371
 31
0.0
  0
LINE
  5
D5
330
72
100
AcDbEntity
  8
02636038_GEHÄUSE
  6
Continuous
 62
     7
100
AcDbLine
 10
44.15
 20
398.1347515371
 30
0.0
 11
44.15
 21
401.3067456154
 31
0.0
  0
ELLIPSE
  5
D7
330
72
100
AcDbEntity
  8
$DDT_AUDIT_GENERATED_(D6)
  6
Continuous
 62
     7
100
AcDbEllipse
 10
32.35
 20
394.9823264316
 30
0.0
 11
9.000000000000002
 21
0.0
 31
0.0
210
0.0
220
0.0
230
1.0
 40
0.3746065934
 41
0.0
 42
6.283185307179586
  0
ELLIPSE
  5
D8
330
72
100
AcDbEntity
  8
$DDT_AUDIT_GENERATED_(D6)
  6
Continuous
 62
     7
100
AcDbEllipse
 10
32.35
 20
397.8440553881
 30
0.0
 11
9.386474103794413
 21
-1.249000902703301E-13
 31
0.0
210
0.0
220
0.0
230
1.0
 40
0.3746065934
 41
-0.2879555481429286
 42
-0.255400174246585
  0
ELLIPSE
  5
D9
330
72
100
AcDbEntity
  8
$DDT_AUDIT_GENERATED_(D6)
  6
Continuous
 62
     7
100
AcDbEllipse
 10
32.35
 20
397.8440553881
 30
0.0
 11
-9.386474103794363
 21
1.526556658859590E-13
 31
0.0
210
0.0
220
0.0
230
1.0
 40
0.3746065934
 41
0.2554001742465928
 42
0.2879555481429364
  0
ELLIPSE
  5
DA
330
72
100
AcDbEntity
  8
$DDT_AUDIT_GENERATED_(D6)
  6
Continuous
 62
     7
100
AcDbEllipse
 10
32.35
 20
394.9823264316
 30
0.0
 11
5.250000000000004
 21
0.0
 31
0.0
210
0.0
220
0.0
230
1.0
 40
0.3746065934
 41
0.0
 42
6.283185307179586
  0
ELLIPSE
  5
DB
330
72
100
AcDbEntity
  8
$DDT_AUDIT_GENERATED_(D6)
  6
Continuous
 62
     7
100
AcDbEllipse
 10
32.35
 20
394.9823264316
 30
0.0
 11
6.250000000000003
 21
0.0
 31
0.0
210
0.0
220
0.0
230
1.0
 40
0.3746065934
 41
0.0
 42
6.283185307179586
  0
ELLIPSE
  5
DC
330
72
100
AcDbEntity
  8
$DDT_AUDIT_GENERATED_(D6)
  6
Continuous
 62
     7
100
AcDbEllipse
 10
32.35
 20
394.9823264316
 30
0.0
 11
2.750000000000003
 21
0.0
 31
0.0
210
0.0
220
0.0
230
1.0
 40
0.3746065934
 41
0.0
 42
6.283185307179586
  0
ELLIPSE
  5
DD
330
72
100
AcDbEntity
  8
$DDT_AUDIT_GENERATED_(D6)
  6
Continuous
 62
     7
100
AcDbEllipse
 10
32.35
 20
394.9823264316
 30
0.0
 11
2.15
 21
0.0
 31
0.0
210
0.0
220
0.0
230
1.0
 40
0.3746065934
 41
0.0
 42
6.283185307179586
  0
ELLIPSE
  5
DE
330
72
100
AcDbEntity
  8
$DDT_AUDIT_GENERATED_(D6)
  6
Continuous
 62
     7
100
AcDbEllipse
 10
32.35
 20
395.1677632025
 30
0.0
 11
0.5196299438963558
 21
0.0
 31
0.0
210
0.0
220
0.0
230
1.0
 40
0.3746065934
 41
0.0
 42
6.283185307179586
  0
ELLIPSE
  5
DF
330
72
100
AcDbEntity
  8
$DDT_AUDIT_GENERATED_(D6)
  6
Continuous
 62
     7
100
AcDbEllipse
 10
32.35
 20
394.9823264316
 30
0.0
 11
8.699999999999999
 21
0.0
 31
0.0
210
0.0
220
0.0
230
1.0
 40
0.3746065934
 41
0.0
 42
6.283185307179586
  0
ARC
  5
E0
330
72
100
AcDbEntity
  8
$DDT_AUDIT_GENERATED_(D6)
  6
Continuous
 62
     7
100
AcDbCircle
 10
25.0433115542
 20
395.1677632025
 30
0.0
 40
1.193311429588834
100
AcDbArc
 50
178.2010644444
 51
181.7989355556
  0
ARC
  5
E1
330
72
100
AcDbEntity
  8
$DDT_AUDIT_GENERATED_(D6)
  6
Continuous
 62
     7
100
AcDbCircle
 10
26.9777509039
 20
395.1677632025
 30
0.0
 40
0.8777505904336018
100
AcDbArc
 50
177.5539865225
 51
180.0
  0
ELLIPSE
  5
E2
330
72
100
AcDbEntity
  8
$DDT_AUDIT_GENERATED_(D6)
  6
Continuous
 62
     7
100
AcDbEllipse
 10
32.35
 20
395.1677632025
 30
0.0
 11
-8.500000000029249
 21
-1.609823385706477E-12
 31
0.0
210
0.0
220
0.0
230
1.0
 40
0.3746065934
 41
0.0117649772879987
 42
0.2500344105105601
  0
LINE
  5
E3
330
72
100
AcDbEntity
  8
$DDT_AUDIT_GENERATED_(D6)
  6
Continuous
 62
     7
100
AcDbLine
 10
26.1008000512
 20
395.2052238618
 30
0.0
 11
26.1008000512
 21
395.7562478573
 31
0.0
  0
LINE
  5
E4
330
72
100
AcDbEntity
  8
$DDT_AUDIT_GENERATED_(D6)
  6
Continuous
 62
     7
100
AcDbLine
 10
26.1008000512
 20
395.2052238618
 30
0.0
 11
23.8505882556
 21
395.2052238618
 31
0.0
  0
LINE
  5
E5
330
72
100
AcDbEntity
  8
$DDT_AUDIT_GENERATED_(D6)
  6
Continuous
 62
     7
100
AcDbLine
 10
26.1
 20
395.1303025431
 30
0.0
 11
23.8505882556
 21
395.1303025431
 31
0.0
  0
LINE
  5
E6
330
72
100
AcDbEntity
  8
$DDT_AUDIT_GENERATED_(D6)
  6
Continuous
 62
     7
100
AcDbLine
 10
31.8944615509
 20
395.4907055945
 30
0.0
 11
31.8944615509
 21
395.7694447497
 31
0.0
  0
ELLIPSE
  5
E7
330
72
100
AcDbEntity
  8
$DDT_AUDIT_GENERATED_(D6)
  6
Continuous
 62
     7
100
AcDbEllipse
 10
32.35
 20
395.3970539461
 30
0.0
 11
0.5196299438963584
 21
0.0
 31
0.0
210
0.0
220
0.0
230
1.0
 40
0.3746065934
 41
2.639670372565415
 42
3.141592653589793
  0
LINE
  5
E8
330
72
100
AcDbEntity
  8
$DDT_AUDIT_GENERATED_(D6)
  6
Continuous
 62
     7
100
AcDbLine
 10
30.3782299702
 20
395.3034022978
 30
0.0
 11
31.8303700561
 21
395.3034022978
 31
0.0
  0
LINE
  5
E9
330
72
100
AcDbEntity
  8
$DDT_AUDIT_GENERATED_(D6)
  6
Continuous
 62
     7
100
AcDbLine
 10
30.6824342385
 20
395.4907055945
 30
0.0
 11
31.8944615509
 21
395.4907055945
 31
0.0
  0
ELLIPSE
  5
EA
330
72
100
AcDbEntity
  8
$DDT_AUDIT_GENERATED_(D6)
  6
Continuous
 62
     7
100
AcDbEllipse
 10
32.35
 20
395.3970539461
 30
0.0
 11
0.519629943896345
 21
-1.387778780781446E-14
 31
0.0
210
0.0
220
0.0
230
1.0
 40
0.3746065934
 41
0.5452752701721928
 42
1.549119832220907
  0
LINE
  5
EB
330
72
100
AcDbEntity
  8
$DDT_AUDIT_GENERATED_(D6)
  6
Continuous
 62
     7
100
AcDbLine
 10
32.3612628736
 20
395.5916650193
 30
0.0
 11
32.3612628736
 21
395.7877195562
 31
0.0
  0
LINE
  5
EC
330
72
100
AcDbEntity
  8
$DDT_AUDIT_GENERATED_(D6)
  6
Continuous
 62
     7
100
AcDbLine
 10
32.6512012062
 20
395.7797879264
 30
0.0
 11
32.3612628736
 21
395.5916650193
 31
0.0
  0
LINE
  5
ED
330
72
100
AcDbEntity
  8
$DDT_AUDIT_GENERATED_(D6)
  6
Continuous
 62
     7
100
AcDbLine
 10
33.1513491062
 20
395.7296961224
 30
0.0
 11
32.7942755755
 21
395.498013371
 31
0.0
  0
LINE
  5
EE
330
72
100
AcDbEntity
  8
$DDT_AUDIT_GENERATED_(D6)
  6
Continuous
 62
     7
100
AcDbLine
 10
33.6342141761
 20
394.7511107313
 30
0.0
 11
32.8696299439
 21
395.2472017698
 31
0.0
  0
LINE
  5
EF
330
72
100
AcDbEntity
  8
$DDT_AUDIT_GENERATED_(D6)
  6
Continuous
 62
     7
100
AcDbLine
 10
33.6342141761
 20
395.6282696464
 30
0.0
 11
33.6342141761
 21
394.7511107313
 31
0.0
  0
LINE
  5
F0
330
72
100
AcDbEntity
  8
$DDT_AUDIT_GENERATED_(D6)
  6
Continuous
 62
     7
100
AcDbLine
 10
33.2012014743
 20
394.6574590829
 30
0.0
 11
32.656833363
 21
395.0106656105
 31
0.0
  0
ELLIPSE
  5
F1
330
72
100
AcDbEntity
  8
$DDT_AUDIT_GENERATED_(D6)
  6
Continuous
 62
     7
100
AcDbEllipse
 10
32.35
 20
395.3970539461
 30
0.0
 11
2.149999999995849
 21
1.207367539279858E-12
 31
0.0
210
0.0
220
0.0
230
1.0
 40
0.3746065934
 41
-1.163740259647019
 42
-0.9306548427479715
  0
ELLIPSE
  5
F2
330
72
100
AcDbEntity
  8
$DDT_AUDIT_GENERATED_(D6)
  6
Continuous
 62
     7
100
AcDbEllipse
 10
32.3499995113
 20
395.1677632516
 30
0.0
 11
-8.49999951099535
 21
-5.521356982729486E-8
 31
0.0
210
0.0
220
0.0
230
1.0
 40
0.3746066031
 41
-0.2735643753111532
 42
-0.2500344200346412
  0
ELLIPSE
  5
F3
330
72
100
AcDbEntity
  8
$DDT_AUDIT_GENERATED_(D6)
  6
Continuous
 62
     7
100
AcDbEllipse
 10
32.35
 20
395.1677632025
 30
0.0
 11
-8.500000000026484
 21
9.020562075079397E-13
 31
0.0
210
0.0
220
0.0
230
1.0
 40
0.3746065934
 41
6.033150896668961
 42
6.271420329891568
  0
ELLIPSE
  5
F4
330
72
100
AcDbEntity
  8
$DDT_AUDIT_GENERATED_(D6)
  6
Continuous
 62
     7
100
AcDbEllipse
 10
32.3500000557
 20
395.1677631969
 30
0.0
 11
-6.250000055749053
 21
6.250597262003056E-9
 31
0.0
210
0.0
220
0.0
230
1.0
 40
0.3746065919
 41
-0.2778000689421987
 42
-0.2457987035992089
  0
LINE
  5
F5
330
72
100
AcDbEntity
  8
$DDT_AUDIT_GENERATED_(D6)
  6
Continuous
 62
     7
100
AcDbLine
 10
26.3396182803
 20
395.8098406066
 30
0.0
 11
26.3396182803
 21
396.4244280145
 31
0.0
  0
LINE
  5
F6
330
72
100
AcDbEntity
  8
$DDT_AUDIT_GENERATED_(D6)
  6
Continuous
 62
     7
100
AcDbLine
 10
26.3396182803
 20
395.8098406066
 30
0.0
 11
24.1660805924
 21
396.0280106131
 31
0.0
  0
LINE
  5
F7
330
72
100
AcDbEntity
  8
$DDT_AUDIT_GENERATED_(D6)
  6
Continuous
 62
     7
100
AcDbLine
 10
26.2878544713
 20
395.7374721699
 30
0.0
 11
24.1143167834
 21
395.9556421764
 31
0.0
  0
ELLIPSE
  5
F8
330
72
100
AcDbEntity
  8
$DDT_AUDIT_GENERATED_(D6)
  6
Continuous
 62
     7
100
AcDbEllipse
 10
32.35
 20
395.1677632025
 30
0.0
 11
-8.499999999989425
 21
-1.956768080901838E-12
 31
0.0
210
0.0
220
0.0
230
1.0
 40
0.3746065934
 41
-0.3894296236228474
 42
-0.2735643650874833
  0
ELLIPSE
  5
F9
330
72
100
AcDbEntity
  8
$DDT_AUDIT_GENERATED_(D6)
  6
Continuous
 62
     7
100
AcDbEllipse
 10
32.3500000501
 20
395.1677631916
 30
0.0
 11
-6.250000050637694
 21
1.092467782903839E-8
 31
0.0
210
0.0
220
0.0
230
1.0
 40
0.3746065925
 41
-0.5395994556096104
 42
-0.5075980902671189
  0
LINE
  5
FA
330
72
100
AcDbEntity
  8
$DDT_AUDIT_GENERATED_(D6)
  6
Continuous
 62
     7
100
AcDbLine
 10
26.988034091
 20
396.3707008373
 30
0.0
 11
26.988034091
 21
397.1234136132
 31
0.0
  0
LINE
  5
FB
330
72
100
AcDbEntity
  8
$DDT_AUDIT_GENERATED_(D6)
  6
Continuous
 62
     7
100
AcDbLine
 10
26.988034091
 20
396.3707008373
 30
0.0
 11
25.0938528733
 21
396.780372869
 31
0.0
  0
LINE
  5
FC
330
72
100
AcDbEntity
  8
$DDT_AUDIT_GENERATED_(D6)
  6
Continuous
 62
     7
100
AcDbLine
 10
26.888034091
 20
396.305817072
 30
0.0
 11
24.9853071433
 21
396.7173373675
 31
0.0
  0
ELLIPSE
  5
FD
330
72
100
AcDbEntity
  8
$DDT_AUDIT_GENERATED_(D6)
  6
Continuous
 62
     7
100
AcDbEllipse
 10
32.3500000228
 20
395.167763194
 30
0.0
 11
-6.250000024192319
 21
7.002551316581673E-9
 31
0.0
210
0.0
220
0.0
230
1.0
 40
0.3746065934
 41
-0.8013988443910041
 42
-0.7693974789829392
  0
LINE
  5
FE
330
72
100
AcDbEntity
  8
$DDT_AUDIT_GENERATED_(D6)
  6
Continuous
 62
     7
100
AcDbLine
 10
28.0018590173
 20
396.8495828562
 30
0.0
 11
28.0018590173
 21
397.8051721729
 31
0.0
  0
LINE
  5
FF
330
72
100
AcDbEntity
  8
$DDT_AUDIT_GENERATED_(D6)
  6
Continuous
 62
     7
100
AcDbLine
 10
28.0018590173
 20
396.8495828562
 30
0.0
 11
26.5246262424
 21
397.4029639937
 31
0.0
  0
LINE
  5
100
330
72
100
AcDbEntity
  8
$DDT_AUDIT_GENERATED_(D6)
  6
Continuous
 62
     7
100
AcDbLine
 10
27.8604376611
 20
396.7966054837
 30
0.0
 11
26.3775100432
 21
397.3521199469
 31
0.0
  0
ELLIPSE
  5
101
330
72
100
AcDbEntity
  8
$DDT_AUDIT_GENERATED_(D6)
  6
Continuous
 62
     7
100
AcDbEllipse
 10
32.3500000289
 20
395.1677631837
 30
0.0
 11
-6.250000036064554
 21
1.090834367278859E-8
 31
0.0
210
0.0
220
0.0
230
1.0
 40
0.3746065943
 41
-1.063198231214718
 42
-1.031196865871784
  0
LINE
  5
102
330
72
100
AcDbEntity
  8
$DDT_AUDIT_GENERATED_(D6)
  6
Continuous
 62
     7
100
AcDbLine
 10
29.312002566
 20
397.213851645
 30
0.0
 11
29.312002566
 21
398.0362450039
 31
0.0
  0
LINE
  5
103
330
72
100
AcDbEntity
  8
$DDT_AUDIT_GENERATED_(D6)
  6
Continuous
 62
     7
100
AcDbLine
 10
29.312002566
 20
397.213851645
 30
0.0
 11
28.3044229154
 21
397.8676072603
 31
0.0
  0
LINE
  5
104
330
72
100
AcDbEntity
  8
$DDT_AUDIT_GENERATED_(D6)
  6
Continuous
 62
     7
100
AcDbLine
 10
29.1387974852
 20
397.1763909857
 30
0.0
 11
28.128371567
 21
397.8319933666
 31
0.0
  0
ELLIPSE
  5
105
330
72
100
AcDbEntity
  8
$DDT_AUDIT_GENERATED_(D6)
  6
Continuous
 62
     7
100
AcDbEllipse
 10
32.3500000148
 20
395.1677631817
 30
0.0
 11
-6.250000030567173
 21
6.249917250400472E-9
 31
0.0
210
0.0
220
0.0
230
1.0
 40
0.3746065949
 41
-1.32499762014634
 42
-1.292996254802384
  0
LINE
  5
106
330
72
100
AcDbEntity
  8
$DDT_AUDIT_GENERATED_(D6)
  6
Continuous
 62
     7
100
AcDbLine
 10
30.8291806192
 20
397.4386828878
 30
0.0
 11
30.8291806192
 21
398.1912229629
 31
0.0
  0
LINE
  5
107
330
72
100
AcDbEntity
  8
$DDT_AUDIT_GENERATED_(D6)
  6
Continuous
 62
     7
100
AcDbLine
 10
30.8291806192
 20
397.4386828878
 30
0.0
 11
30.3193954238
 21
398.1513885081
 31
0.0
  0
LINE
  5
108
330
72
100
AcDbEntity
  8
$DDT_AUDIT_GENERATED_(D6)
  6
Continuous
 62
     7
100
AcDbLine
 10
30.635995454
 20
397.4192918236
 30
0.0
 11
30.1254478295
 21
398.1330633586
 31
0.0
  0
ARC
  5
109
330
72
100
AcDbEntity
  8
$DDT_AUDIT_GENERATED_(D6)
  6
Continuous
 62
     7
100
AcDbCircle
 10
32.35
 20
380.8267206514
 30
0.0
 40
16.68233377644223
100
AcDbArc
 50
89.6565461199
 51
90.3434538801
  0
LINE
  5
10A
330
72
100
AcDbEntity
  8
$DDT_AUDIT_GENERATED_(D6)
  6
Continuous
 62
     7
100
AcDbLine
 10
32.45
 20
397.5087547069
 30
0.0
 11
32.45
 21
398.241188496
 31
0.0
  0
LINE
  5
10B
330
72
100
AcDbEntity
  8
$DDT_AUDIT_GENERATED_(D6)
  6
Continuous
 62
     7
100
AcDbLine
 10
32.25
 20
397.5087547069
 30
0.0
 11
32.25
 21
398.241188496
 31
0.0
  0
ELLIPSE
  5
10C
330
72
100
AcDbEntity
  8
$DDT_AUDIT_GENERATED_(D6)
  6
Continuous
 62
     7
100
AcDbEllipse
 10
32.3499999841
 20
395.1677631802
 30
0.0
 11
6.250000032779375
 21
6.697073451356061E-9
 31
0.0
210
0.0
220
0.0
230
1.0
 40
0.374606595
 41
1.292996254701676
 42
1.324997620034985
  0
LINE
  5
10D
330
72
100
AcDbEntity
  8
$DDT_AUDIT_GENERATED_(D6)
  6
Continuous
 62
     7
100
AcDbLine
 10
34.064004546
 20
397.4192918236
 30
0.0
 11
34.5745521705
 21
398.1330633586
 31
0.0
  0
LINE
  5
10E
330
72
100
AcDbEntity
  8
$DDT_AUDIT_GENERATED_(D6)
  6
Continuous
 62
     7
100
AcDbLine
 10
33.8708193808
 20
397.4386828878
 30
0.0
 11
34.3806045762
 21
398.1513885081
 31
0.0
  0
LINE
  5
10F
330
72
100
AcDbEntity
  8
$DDT_AUDIT_GENERATED_(D6)
  6
Continuous
 62
     7
100
AcDbLine
 10
33.8708193808
 20
397.4386828878
 30
0.0
 11
33.8708193808
 21
398.1912229629
 31
0.0
  0
ELLIPSE
  5
110
330
72
100
AcDbEntity
  8
$DDT_AUDIT_GENERATED_(D6)
  6
Continuous
 62
     7
100
AcDbEllipse
 10
32.3499999712
 20
395.1677631838
 30
0.0
 11
6.25000003601348
 21
1.086020162688328E-8
 31
0.0
210
0.0
220
0.0
230
1.0
 40
0.3746065943
 41
1.031196865878584
 42
1.06319823122172
  0
LINE
  5
111
330
72
100
AcDbEntity
  8
$DDT_AUDIT_GENERATED_(D6)
  6
Continuous
 62
     7
100
AcDbLine
 10
35.5612025148
 20
397.1763909857
 30
0.0
 11
36.571628433
 21
397.8319933666
 31
0.0
  0
LINE
  5
112
330
72
100
AcDbEntity
  8
$DDT_AUDIT_GENERATED_(D6)
  6
Continuous
 62
     7
100
AcDbLine
 10
35.387997434
 20
397.213851645
 30
0.0
 11
36.3955770846
 21
397.8676072603
 31
0.0
  0
LINE
  5
113
330
72
100
AcDbEntity
  8
$DDT_AUDIT_GENERATED_(D6)
  6
Continuous
 62
     7
100
AcDbLine
 10
35.387997434
 20
397.213851645
 30
0.0
 11
35.387997434
 21
398.0362450039
 31
0.0
  0
ELLIPSE
  5
114
330
72
100
AcDbEntity
  8
$DDT_AUDIT_GENERATED_(D6)
  6
Continuous
 62
     7
100
AcDbEllipse
 10
32.3499999496
 20
395.1677631836
 30
0.0
 11
6.250000053454242
 21
1.554523176849898E-8
 31
0.0
210
0.0
220
0.0
230
1.0
 40
0.3746065934
 41
0.7693974769635256
 42
0.8013988422716151
  0
LINE
  5
115
330
72
100
AcDbEntity
  8
$DDT_AUDIT_GENERATED_(D6)
  6
Continuous
 62
     7
100
AcDbLine
 10
36.8395623389
 20
396.7966054837
 30
0.0
 11
38.3224899568
 21
397.3521199469
 31
0.0
  0
LINE
  5
116
330
72
100
AcDbEntity
  8
$DDT_AUDIT_GENERATED_(D6)
  6
Continuous
 62
     7
100
AcDbLine
 10
36.6981409827
 20
396.8495828562
 30
0.0
 11
38.1753737576
 21
397.4029639937
 31
0.0
  0
LINE
  5
117
330
72
100
AcDbEntity
  8
$DDT_AUDIT_GENERATED_(D6)
  6
Continuous
 62
     7
100
AcDbLine
 10
36.6981409827
 20
396.8495828562
 30
0.0
 11
36.6981409827
 21
397.8051721729
 31
0.0
  0
ELLIPSE
  5
118
330
72
100
AcDbEntity
  8
$DDT_AUDIT_GENERATED_(D6)
  6
Continuous
 62
     7
100
AcDbEllipse
 10
32.3499999501
 20
395.1677631917
 30
0.0
 11
6.250000050452566
 21
1.088486245581777E-8
 31
0.0
210
0.0
220
0.0
230
1.0
 40
0.3746065926
 41
0.5075980902768741
 42
0.5395994556199
  0
LINE
  5
119
330
72
100
AcDbEntity
  8
$DDT_AUDIT_GENERATED_(D6)
  6
Continuous
 62
     7
100
AcDbLine
 10
37.811965909
 20
396.305817072
 30
0.0
 11
39.7146928567
 21
396.7173373675
 31
0.0
  0
LINE
  5
11A
330
72
100
AcDbEntity
  8
$DDT_AUDIT_GENERATED_(D6)
  6
Continuous
 62
     7
100
AcDbLine
 10
37.711965909
 20
396.3707008373
 30
0.0
 11
39.6061471267
 21
396.780372869
 31
0.0
  0
LINE
  5
11B
330
72
100
AcDbEntity
  8
$DDT_AUDIT_GENERATED_(D6)
  6
Continuous
 62
     7
100
AcDbLine
 10
37.711965909
 20
396.3707008373
 30
0.0
 11
37.711965909
 21
397.1234136132
 31
0.0
  0
ELLIPSE
  5
11C
330
72
100
AcDbEntity
  8
$DDT_AUDIT_GENERATED_(D6)
  6
Continuous
 62
     7
100
AcDbEllipse
 10
32.3500004554
 20
395.1677632482
 30
0.0
 11
8.499999544376506
 21
-5.133811431523583E-8
 31
0.0
210
0.0
220
0.0
230
1.0
 40
0.3746066024
 41
0.2500344193803961
 42
0.2735643746090596
  0
ELLIPSE
  5
11D
330
72
100
AcDbEntity
  8
$DDT_AUDIT_GENERATED_(D6)
  6
Continuous
 62
     7
100
AcDbEllipse
 10
32.35
 20
395.1677632025
 30
0.0
 11
8.500000000002645
 21
2.498001805406602E-13
 31
0.0
210
0.0
220
0.0
230
1.0
 40
0.3746065934
 41
0.2735643650871861
 42
0.389429623622448
  0
ELLIPSE
  5
11E
330
72
100
AcDbEntity
  8
$DDT_AUDIT_GENERATED_(D6)
  6
Continuous
 62
     7
100
AcDbEllipse
 10
32.3499999313
 20
395.1677631956
 30
0.0
 11
6.250000068771903
 21
7.749217934005515E-9
 31
0.0
210
0.0
220
0.0
230
1.0
 40
0.3746065916
 41
0.2457987032575232
 42
0.2778000685659555
  0
LINE
  5
11F
330
72
100
AcDbEntity
  8
$DDT_AUDIT_GENERATED_(D6)
  6
Continuous
 62
     7
100
AcDbLine
 10
38.4121455287
 20
395.7374721699
 30
0.0
 11
40.5856832166
 21
395.9556421764
 31
0.0
  0
LINE
  5
120
330
72
100
AcDbEntity
  8
$DDT_AUDIT_GENERATED_(D6)
  6
Continuous
 62
     7
100
AcDbLine
 10
38.3603817197
 20
395.8098406066
 30
0.0
 11
40.5339194076
 21
396.0280106131
 31
0.0
  0
LINE
  5
121
330
72
100
AcDbEntity
  8
$DDT_AUDIT_GENERATED_(D6)
  6
Continuous
 62
     7
100
AcDbLine
 10
38.3603817197
 20
395.8098406066
 30
0.0
 11
38.3603817197
 21
396.4244280145
 31
0.0
  0
ARC
  5
122
330
72
100
AcDbEntity
  8
$DDT_AUDIT_GENERATED_(D6)
  6
Continuous
 62
     7
100
AcDbCircle
 10
39.6566884458
 20
395.1677632025
 30
0.0
 40
1.193311429589714
100
AcDbArc
 50
358.2010644444
 51
1.7989355556
  0
ELLIPSE
  5
123
330
72
100
AcDbEntity
  8
$DDT_AUDIT_GENERATED_(D6)
  6
Continuous
 62
     7
100
AcDbEllipse
 10
32.35
 20
395.1677632025
 30
0.0
 11
8.499999999998975
 21
-1.249000902703301E-13
 31
0.0
210
0.0
220
0.0
230
1.0
 40
0.3746065934
 41
0.0117649772881403
 42
0.2500344105110851
  0
ARC
  5
124
330
72
100
AcDbEntity
  8
$DDT_AUDIT_GENERATED_(D6)
  6
Continuous
 62
     7
100
AcDbCircle
 10
37.7222490961
 20
395.1677632025
 30
0.0
 40
0.8777505904338387
100
AcDbArc
 50
0.0
 51
2.4460134775
  0
LINE
  5
125
330
72
100
AcDbEntity
  8
$DDT_AUDIT_GENERATED_(D6)
  6
Continuous
 62
     7
100
AcDbLine
 10
38.6
 20
395.1303025431
 30
0.0
 11
40.8494117444
 21
395.1303025431
 31
0.0
  0
LINE
  5
126
330
72
100
AcDbEntity
  8
$DDT_AUDIT_GENERATED_(D6)
  6
Continuous
 62
     7
100
AcDbLine
 10
38.5991999488
 20
395.2052238618
 30
0.0
 11
40.8494117444
 21
395.2052238618
 31
0.0
  0
LINE
  5
127
330
72
100
AcDbEntity
  8
$DDT_AUDIT_GENERATED_(D6)
  6
Continuous
 62
     7
100
AcDbLine
 10
38.5991999488
 20
395.2052238618
 30
0.0
 11
38.5991999488
 21
395.7562478573
 31
0.0
  0
ELLIPSE
  5
128
330
72
100
AcDbEntity
  8
$DDT_AUDIT_GENERATED_(D6)
  6
Continuous
 62
     7
100
AcDbEllipse
 10
32.3500003898
 20
395.1677631634
 30
0.0
 11
8.499999609968592
 21
4.388805985300337E-8
 31
0.0
210
0.0
220
0.0
230
1.0
 40
0.3746066011
 41
-0.2735643732364865
 42
-0.2500344181018352
  0
ELLIPSE
  5
129
330
72
100
AcDbEntity
  8
$DDT_AUDIT_GENERATED_(D6)
  6
Continuous
 62
     7
100
AcDbEllipse
 10
32.35
 20
395.1677632025
 30
0.0
 11
8.499999999997945
 21
1.804112415015879E-13
 31
0.0
210
0.0
220
0.0
230
1.0
 40
0.3746065934
 41
6.033150896668491
 42
6.271420329891531
  0
LINE
  5
12A
330
72
100
AcDbEntity
  8
$DDT_AUDIT_GENERATED_(D6)
  6
Continuous
 62
     7
100
AcDbLine
 10
40.5856832166
 20
394.3798842286
 30
0.0
 11
40.5856832166
 21
395.1303025431
 31
0.0
  0
LINE
  5
12B
330
72
100
AcDbEntity
  8
$DDT_AUDIT_GENERATED_(D6)
  6
Continuous
 62
     7
100
AcDbLine
 10
38.4738487252
 20
394.5142964871
 30
0.0
 11
40.5339194076
 21
394.3075157919
 31
0.0
  0
LINE
  5
12C
330
72
100
AcDbEntity
  8
$DDT_AUDIT_GENERATED_(D6)
  6
Continuous
 62
     7
100
AcDbLine
 10
38.5107877325
 20
394.5881529712
 30
0.0
 11
40.5856832166
 21
394.3798842286
 31
0.0
  0
ELLIPSE
  5
12D
330
72
100
AcDbEntity
  8
$DDT_AUDIT_GENERATED_(D6)
  6
Continuous
 62
     7
100
AcDbEllipse
 10
32.3500004088
 20
395.1677631141
 30
0.0
 11
8.499999586995814
 21
8.905426396310645E-8
 31
0.0
210
0.0
220
0.0
230
1.0
 40
0.3746065986
 41
-0.5353637691610507
 42
-0.5118338139315641
  0
ELLIPSE
  5
12E
330
72
100
AcDbEntity
  8
$DDT_AUDIT_GENERATED_(D6)
  6
Continuous
 62
     7
100
AcDbEllipse
 10
32.35
 20
395.1677632025
 30
0.0
 11
8.500000000002649
 21
-2.498001805406602E-13
 31
0.0
210
0.0
220
0.0
230
1.0
 40
0.3746065934
 41
-0.5118337983101124
 42
-0.2735643650871804
  0
LINE
  5
12F
330
72
100
AcDbEntity
  8
$DDT_AUDIT_GENERATED_(D6)
  6
Continuous
 62
     7
100
AcDbLine
 10
39.7607064878
 20
393.6082372453
 30
0.0
 11
39.7607064878
 21
394.3851274518
 31
0.0
  0
LINE
  5
130
330
72
100
AcDbEntity
  8
$DDT_AUDIT_GENERATED_(D6)
  6
Continuous
 62
     7
100
AcDbLine
 10
37.9195170218
 20
393.9199365754
 30
0.0
 11
39.6607064878
 21
393.5433534801
 31
0.0
  0
LINE
  5
131
330
72
100
AcDbEntity
  8
$DDT_AUDIT_GENERATED_(D6)
  6
Continuous
 62
     7
100
AcDbLine
 10
38.0076070193
 20
393.9873962267
 30
0.0
 11
39.7607064878
 21
393.6082372453
 31
0.0
  0
ELLIPSE
  5
132
330
72
100
AcDbEntity
  8
$DDT_AUDIT_GENERATED_(D6)
  6
Continuous
 62
     7
100
AcDbEllipse
 10
32.3500003339
 20
395.1677630774
 30
0.0
 11
8.499999645830085
 21
1.028910151523732E-7
 31
0.0
210
0.0
220
0.0
230
1.0
 40
0.3746065934
 41
-0.7971631594364732
 42
-0.7736332042066669
  0
ELLIPSE
  5
133
330
72
100
AcDbEntity
  8
$DDT_AUDIT_GENERATED_(D6)
  6
Continuous
 62
     7
100
AcDbEllipse
 10
32.35
 20
395.1677632025
 30
0.0
 11
8.499999999990033
 21
2.539635168830046E-12
 31
0.0
210
0.0
220
0.0
230
1.0
 40
0.3746065934
 41
-0.7736331861099055
 42
-0.535363752886763
  0
LINE
  5
134
330
72
100
AcDbEntity
  8
$DDT_AUDIT_GENERATED_(D6)
  6
Continuous
 62
     7
100
AcDbLine
 10
38.4307023586
 20
392.9428693788
 30
0.0
 11
38.4307023586
 21
393.8093778107
 31
0.0
  0
LINE
  5
135
330
72
100
AcDbEntity
  8
$DDT_AUDIT_GENERATED_(D6)
  6
Continuous
 62
     7
100
AcDbLine
 10
36.9426775872
 20
393.3943385244
 30
0.0
 11
38.2892810024
 21
392.8898920063
 31
0.0
  0
LINE
  5
136
330
72
100
AcDbEntity
  8
$DDT_AUDIT_GENERATED_(D6)
  6
Continuous
 62
     7
100
AcDbLine
 10
37.0761651931
 20
393.4502879321
 30
0.0
 11
38.4307023586
 21
392.9428693788
 31
0.0
  0
ELLIPSE
  5
137
330
72
100
AcDbEntity
  8
$DDT_AUDIT_GENERATED_(D6)
  6
Continuous
 62
     7
100
AcDbEllipse
 10
32.3500002191
 20
395.1677630604
 30
0.0
 11
8.499999726211227
 21
8.265926831896309E-8
 31
0.0
210
0.0
220
0.0
230
1.0
 40
0.3746065886
 41
-1.058962543595946
 42
-1.03543258841354
  0
ELLIPSE
  5
138
330
72
100
AcDbEntity
  8
$DDT_AUDIT_GENERATED_(D6)
  6
Continuous
 62
     7
100
AcDbEllipse
 10
32.35
 20
395.1677632025
 30
0.0
 11
8.500000000009228
 21
-2.456368441983159E-12
 31
0.0
210
0.0
220
0.0
230
1.0
 40
0.3746065934
 41
-1.03543257390792
 42
-0.7971631406851456
  0
LINE
  5
139
330
72
100
AcDbEntity
  8
$DDT_AUDIT_GENERATED_(D6)
  6
Continuous
 62
     7
100
AcDbLine
 10
36.6863084126
 20
392.4291243496
 30
0.0
 11
36.6863084126
 21
393.2962251362
 31
0.0
  0
LINE
  5
13A
330
72
100
AcDbEntity
  8
$DDT_AUDIT_GENERATED_(D6)
  6
Continuous
 62
     7
100
AcDbLine
 10
35.6018757951
 20
392.9829024262
 30
0.0
 11
36.5131033318
 21
392.3916636903
 31
0.0
  0
LINE
  5
13B
330
72
100
AcDbEntity
  8
$DDT_AUDIT_GENERATED_(D6)
  6
Continuous
 62
     7
100
AcDbLine
 10
35.7711171189
 20
393.0229349203
 30
0.0
 11
36.6863084126
 21
392.4291243496
 31
0.0
  0
ELLIPSE
  5
13C
330
72
100
AcDbEntity
  8
$DDT_AUDIT_GENERATED_(D6)
  6
Continuous
 62
     7
100
AcDbEllipse
 10
32.3500001179
 20
395.1677630377
 30
0.0
 11
8.499999756954166
 21
4.963636446309039E-8
 31
0.0
210
0.0
220
0.0
230
1.0
 40
0.3746065847
 41
-1.320761925490928
 42
-1.297231970284168
  0
ELLIPSE
  5
13D
330
72
100
AcDbEntity
  8
$DDT_AUDIT_GENERATED_(D6)
  6
Continuous
 62
     7
100
AcDbEllipse
 10
32.35
 20
395.1677632025
 30
0.0
 11
8.500000000007748
 21
-2.040034807748725E-12
 31
0.0
210
0.0
220
0.0
230
1.0
 40
0.3746065934
 41
-1.297231961707199
 42
-1.058962528484424
  0
LINE
  5
13E
330
72
100
AcDbEntity
  8
$DDT_AUDIT_GENERATED_(D6)
  6
Continuous
 62
     7
100
AcDbLine
 10
34.6464022142
 20
392.1020130324
 30
0.0
 11
34.6464022142
 21
392.804800561
 31
0.0
  0
LINE
  5
13F
330
72
100
AcDbEntity
  8
$DDT_AUDIT_GENERATED_(D6)
  6
Continuous
 62
     7
100
AcDbLine
 10
33.9947644194
 20
392.7235620519
 30
0.0
 11
34.453217049
 21
392.0826219682
 31
0.0
  0
LINE
  5
140
330
72
100
AcDbEntity
  8
$DDT_AUDIT_GENERATED_(D6)
  6
Continuous
 62
     7
100
AcDbLine
 10
34.1868881096
 20
392.7444371122
 30
0.0
 11
34.6464022142
 21
392.1020130324
 31
0.0
  0
ARC
  5
141
330
72
100
AcDbEntity
  8
$DDT_AUDIT_GENERATED_(D6)
  6
Continuous
 62
     7
100
AcDbCircle
 10
32.35
 20
414.6727280753
 30
0.0
 40
22.68912092336243
100
AcDbArc
 50
269.7474738435
 51
270.2525261565
  0
ELLIPSE
  5
142
330
72
100
AcDbEntity
  8
$DDT_AUDIT_GENERATED_(D6)
  6
Continuous
 62
     7
100
AcDbEllipse
 10
32.35
 20
395.1677632025
 30
0.0
 11
8.499999999996028
 21
5.273559366969495E-13
 31
0.0
210
0.0
220
0.0
230
1.0
 40
0.3746065934
 41
4.724153957672641
 42
4.962423390895714
  0
LINE
  5
143
330
72
100
AcDbEntity
  8
$DDT_AUDIT_GENERATED_(D6)
  6
Continuous
 62
     7
100
AcDbLine
 10
32.25
 20
392.6413349272
 30
0.0
 11
32.25
 21
391.9838275229
 31
0.0
  0
LINE
  5
144
330
72
100
AcDbEntity
  8
$DDT_AUDIT_GENERATED_(D6)
  6
Continuous
 62
     7
100
AcDbLine
 10
32.45
 20
392.6413349272
 30
0.0
 11
32.45
 21
391.9838275229
 31
0.0
  0
ELLIPSE
  5
145
330
72
100
AcDbEntity
  8
$DDT_AUDIT_GENERATED_(D6)
  6
Continuous
 62
     7
100
AcDbEllipse
 10
32.3499998825
 20
395.1677630382
 30
0.0
 11
-8.499999757795537
 21
4.945202580763919E-8
 31
0.0
210
0.0
220
0.0
230
1.0
 40
0.3746065847
 41
1.297231970246083
 42
1.320761925450683
  0
ELLIPSE
  5
146
330
72
100
AcDbEntity
  8
$DDT_AUDIT_GENERATED_(D6)
  6
Continuous
 62
     7
100
AcDbEllipse
 10
32.35
 20
395.1677632025
 30
0.0
 11
-8.500000000003345
 21
-1.942890293094024E-13
 31
0.0
210
0.0
220
0.0
230
1.0
 40
0.3746065934
 41
1.320761916283832
 42
1.559031349506707
  0
LINE
  5
147
330
72
100
AcDbEntity
  8
$DDT_AUDIT_GENERATED_(D6)
  6
Continuous
 62
     7
100
AcDbLine
 10
30.0535977858
 20
392.1020130324
 30
0.0
 11
30.0535977858
 21
392.804800561
 31
0.0
  0
LINE
  5
148
330
72
100
AcDbEntity
  8
$DDT_AUDIT_GENERATED_(D6)
  6
Continuous
 62
     7
100
AcDbLine
 10
30.5131118904
 20
392.7444371122
 30
0.0
 11
30.0535977858
 21
392.1020130324
 31
0.0
  0
LINE
  5
149
330
72
100
AcDbEntity
  8
$DDT_AUDIT_GENERATED_(D6)
  6
Continuous
 62
     7
100
AcDbLine
 10
30.7052355806
 20
392.7235620519
 30
0.0
 11
30.246782951
 21
392.0826219682
 31
0.0
  0
ELLIPSE
  5
14A
330
72
100
AcDbEntity
  8
$DDT_AUDIT_GENERATED_(D6)
  6
Continuous
 62
     7
100
AcDbEllipse
 10
32.3499997644
 20
395.1677630497
 30
0.0
 11
-8.499999705501725
 21
8.889307345771869E-8
 31
0.0
210
0.0
220
0.0
230
1.0
 40
0.3746065882
 41
1.035432589504355
 42
1.058962544732726
  0
ELLIPSE
  5
14B
330
72
100
AcDbEntity
  8
$DDT_AUDIT_GENERATED_(D6)
  6
Continuous
 62
     7
100
AcDbEllipse
 10
32.35
 20
395.1677632025
 30
0.0
 11
-8.499999999997801
 21
6.106226635438361E-13
 31
0.0
210
0.0
220
0.0
230
1.0
 40
0.3746065934
 41
1.058962528484764
 42
1.297231961707791
  0
LINE
  5
14C
330
72
100
AcDbEntity
  8
$DDT_AUDIT_GENERATED_(D6)
  6
Continuous
 62
     7
100
AcDbLine
 10
28.0136915874
 20
392.4291243496
 30
0.0
 11
28.0136915874
 21
393.2962251362
 31
0.0
  0
LINE
  5
14D
330
72
100
AcDbEntity
  8
$DDT_AUDIT_GENERATED_(D6)
  6
Continuous
 62
     7
100
AcDbLine
 10
28.9288828811
 20
393.0229349203
 30
0.0
 11
28.0136915874
 21
392.4291243496
 31
0.0
  0
LINE
  5
14E
330
72
100
AcDbEntity
  8
$DDT_AUDIT_GENERATED_(D6)
  6
Continuous
 62
     7
100
AcDbLine
 10
29.0981242049
 20
392.9829024262
 30
0.0
 11
28.1868966682
 21
392.3916636903
 31
0.0
  0
ELLIPSE
  5
14F
330
72
100
AcDbEntity
  8
$DDT_AUDIT_GENERATED_(D6)
  6
Continuous
 62
     7
100
AcDbEllipse
 10
32.3499996904
 20
395.1677630865
 30
0.0
 11
-8.499999671562394
 21
9.540944423402919E-8
 31
0.0
210
0.0
220
0.0
230
1.0
 40
0.3746065934
 41
0.7736332028888426
 42
0.7971631580712332
  0
ELLIPSE
  5
150
330
72
100
AcDbEntity
  8
$DDT_AUDIT_GENERATED_(D6)
  6
Continuous
 62
     7
100
AcDbEllipse
 10
32.35
 20
395.1677632025
 30
0.0
 11
-8.500000000023228
 21
-7.549516567451064E-12
 31
0.0
210
0.0
220
0.0
230
1.0
 40
0.3746065934
 41
0.7971631406844636
 42
1.035432573906957
  0
LINE
  5
151
330
72
100
AcDbEntity
  8
$DDT_AUDIT_GENERATED_(D6)
  6
Continuous
 62
     7
100
AcDbLine
 10
26.2692976414
 20
392.9428693788
 30
0.0
 11
26.2692976414
 21
393.8093778107
 31
0.0
  0
LINE
  5
152
330
72
100
AcDbEntity
  8
$DDT_AUDIT_GENERATED_(D6)
  6
Continuous
 62
     7
100
AcDbLine
 10
27.6238348069
 20
393.4502879321
 30
0.0
 11
26.2692976414
 21
392.9428693788
 31
0.0
  0
LINE
  5
153
330
72
100
AcDbEntity
  8
$DDT_AUDIT_GENERATED_(D6)
  6
Continuous
 62
     7
100
AcDbLine
 10
27.7573224128
 20
393.3943385244
 30
0.0
 11
26.4107189976
 21
392.8898920063
 31
0.0
  0
ELLIPSE
  5
154
330
72
100
AcDbEntity
  8
$DDT_AUDIT_GENERATED_(D6)
  6
Continuous
 62
     7
100
AcDbEllipse
 10
32.3499996211
 20
395.1677631205
 30
0.0
 11
-8.499999617217577
 21
8.263595363544596E-8
 31
0.0
210
0.0
220
0.0
230
1.0
 40
0.3746065982
 41
0.5118338127914734
 42
0.5353637679732017
  0
ELLIPSE
  5
155
330
72
100
AcDbEntity
  8
$DDT_AUDIT_GENERATED_(D6)
  6
Continuous
 62
     7
100
AcDbEllipse
 10
32.35
 20
395.1677632025
 30
0.0
 11
-8.499999999990587
 21
2.400857290751901E-12
 31
0.0
210
0.0
220
0.0
230
1.0
 40
0.3746065934
 41
0.5353637528867469
 42
0.7736331861098781
  0
LINE
  5
156
330
72
100
AcDbEntity
  8
$DDT_AUDIT_GENERATED_(D6)
  6
Continuous
 62
     7
100
AcDbLine
 10
24.9392935122
 20
393.6082372453
 30
0.0
 11
24.9392935122
 21
394.3851274518
 31
0.0
  0
LINE
  5
157
330
72
100
AcDbEntity
  8
$DDT_AUDIT_GENERATED_(D6)
  6
Continuous
 62
     7
100
AcDbLine
 10
26.6923929807
 20
393.9873962267
 30
0.0
 11
24.9392935122
 21
393.6082372453
 31
0.0
  0
LINE
  5
158
330
72
100
AcDbEntity
  8
$DDT_AUDIT_GENERATED_(D6)
  6
Continuous
 62
     7
100
AcDbLine
 10
26.7804829782
 20
393.9199365754
 30
0.0
 11
25.0392935122
 21
393.5433534801
 31
0.0
  0
ELLIPSE
  5
159
330
72
100
AcDbEntity
  8
$DDT_AUDIT_GENERATED_(D6)
  6
Continuous
 62
     7
100
AcDbEllipse
 10
32.349999577
 20
395.16776316
 30
0.0
 11
-8.499999576756537
 21
4.774408646213146E-8
 31
0.0
210
0.0
220
0.0
230
1.0
 40
0.3746066018
 41
0.2500344187521387
 42
0.2735643739344541
  0
ELLIPSE
  5
15A
330
72
100
AcDbEntity
  8
$DDT_AUDIT_GENERATED_(D6)
  6
Continuous
 62
     7
100
AcDbEllipse
 10
32.35
 20
395.1677632025
 30
0.0
 11
-8.500000000027594
 21
-4.440892098500626E-12
 31
0.0
210
0.0
220
0.0
230
1.0
 40
0.3746065934
 41
0.2735643650866321
 42
0.5118337983091804
  0
LINE
  5
15B
330
72
100
AcDbEntity
  8
$DDT_AUDIT_GENERATED_(D6)
  6
Continuous
 62
     7
100
AcDbLine
 10
24.1143167834
 20
394.3798842286
 30
0.0
 11
24.1143167834
 21
395.1303025431
 31
0.0
  0
LINE
  5
15C
330
72
100
AcDbEntity
  8
$DDT_AUDIT_GENERATED_(D6)
  6
Continuous
 62
     7
100
AcDbLine
 10
26.1892122675
 20
394.5881529712
 30
0.0
 11
24.1143167834
 21
394.3798842286
 31
0.0
  0
LINE
  5
15D
330
72
100
AcDbEntity
  8
$DDT_AUDIT_GENERATED_(D6)
  6
Continuous
 62
     7
100
AcDbLine
 10
26.2261512748
 20
394.5142964871
 30
0.0
 11
24.1660805924
 21
394.3075157919
 31
0.0
  0
LINE
  5
15E
330
72
100
AcDbEntity
  8
$DDT_AUDIT_GENERATED_(D6)
  6
Continuous
 62
     7
100
AcDbLine
 10
29.6055738305
 20
395.6856278209
 30
0.0
 11
29.6055738305
 21
395.2333193563
 31
0.0
  0
ELLIPSE
  5
15F
330
72
100
AcDbEntity
  8
$DDT_AUDIT_GENERATED_(D6)
  6
Continuous
 62
     7
100
AcDbEllipse
 10
32.3500000001
 20
395.1677632025
 30
0.0
 11
2.750000000096849
 21
-1.998401444325282E-12
 31
0.0
210
0.0
220
0.0
230
1.0
 40
0.3746065934
 41
3.077913261334144
 42
3.141592653589793
  0
LINE
  5
160
330
72
100
AcDbEntity
  8
$DDT_AUDIT_GENERATED_(D6)
  6
Continuous
 62
     7
100
AcDbLine
 10
29.6055738305
 20
395.2333193563
 30
0.0
 11
27.1429301212
 21
395.2333193563
 31
0.0
  0
LINE
  5
161
330
72
100
AcDbEntity
  8
$DDT_AUDIT_GENERATED_(D6)
  6
Continuous
 62
     7
100
AcDbLine
 10
29.6
 20
395.1022070486
 30
0.0
 11
27.1097625166
 21
395.1022070486
 31
0.0
  0
LINE
  5
162
330
72
100
AcDbEntity
  8
$DDT_AUDIT_GENERATED_(D6)
  6
Continuous
 62
     7
100
AcDbLine
 10
30.0607572184
 20
396.5219978076
 30
0.0
 11
30.0607572184
 21
395.7385765662
 31
0.0
  0
ELLIPSE
  5
163
330
72
100
AcDbEntity
  8
$DDT_AUDIT_GENERATED_(D6)
  6
Continuous
 62
     7
100
AcDbEllipse
 10
32.3500000001
 20
395.1677632025
 30
0.0
 11
-2.750000000083882
 21
1.851296893562449E-11
 31
0.0
210
0.0
220
0.0
230
1.0
 40
0.3746065934
 41
-0.5872781678441381
 42
-0.4599193833323074
  0
LINE
  5
164
330
72
100
AcDbEntity
  8
$DDT_AUDIT_GENERATED_(D6)
  6
Continuous
 62
     7
100
AcDbLine
 10
30.0607572184
 20
395.7385765662
 30
0.0
 11
28.1353748649
 21
396.1549967551
 31
0.0
  0
LINE
  5
165
330
72
100
AcDbEntity
  8
$DDT_AUDIT_GENERATED_(D6)
  6
Continuous
 62
     7
100
AcDbLine
 10
29.8857572184
 20
395.625029977
 30
0.0
 11
27.93552707
 21
396.0468242275
 31
0.0
  0
LINE
  5
166
330
72
100
AcDbEntity
  8
$DDT_AUDIT_GENERATED_(D6)
  6
Continuous
 62
     7
100
AcDbLine
 10
31.1293413609
 20
396.8951137887
 30
0.0
 11
31.1293413609
 21
396.0908847963
 31
0.0
  0
ELLIPSE
  5
167
330
72
100
AcDbEntity
  8
$DDT_AUDIT_GENERATED_(D6)
  6
Continuous
 62
     7
100
AcDbEllipse
 10
32.35
 20
395.1677632025
 30
0.0
 11
-2.749999999997081
 21
-1.262878690511116E-12
 31
0.0
210
0.0
220
0.0
230
1.0
 40
0.3746065934
 41
-1.110876943454182
 42
-0.9835181589400452
  0
LINE
  5
168
330
72
100
AcDbEntity
  8
$DDT_AUDIT_GENERATED_(D6)
  6
Continuous
 62
     7
100
AcDbLine
 10
31.1293413609
 20
396.0908847963
 30
0.0
 11
30.0994177107
 21
396.7591380399
 31
0.0
  0
LINE
  5
169
330
72
100
AcDbEntity
  8
$DDT_AUDIT_GENERATED_(D6)
  6
Continuous
 62
     7
100
AcDbLine
 10
30.8262324696
 20
396.0253286424
 30
0.0
 11
29.788044733
 21
396.6989439364
 31
0.0
  0
ARC
  5
16A
330
72
100
AcDbEntity
  8
$DDT_AUDIT_GENERATED_(D6)
  6
Continuous
 62
     7
100
AcDbCircle
 10
32.35
 20
388.8696878011
 30
0.0
 40
7.328245355509104
100
AcDbArc
 50
88.6316349744
 51
91.3683650256
  0
LINE
  5
16B
330
72
100
AcDbEntity
  8
$DDT_AUDIT_GENERATED_(D6)
  6
Continuous
 62
     7
100
AcDbLine
 10
32.525
 20
396.1958433407
 30
0.0
 11
32.525
 21
396.9479181408
 31
0.0
  0
LINE
  5
16C
330
72
100
AcDbEntity
  8
$DDT_AUDIT_GENERATED_(D6)
  6
Continuous
 62
     7
100
AcDbLine
 10
32.175
 20
396.1958433407
 30
0.0
 11
32.175
 21
396.9479181408
 31
0.0
  0
ELLIPSE
  5
16D
330
72
100
AcDbEntity
  8
$DDT_AUDIT_GENERATED_(D6)
  6
Continuous
 62
     7
100
AcDbEllipse
 10
32.35
 20
395.1677632025
 30
0.0
 11
2.750000000046915
 21
1.386391002000664E-11
 31
0.0
210
0.0
220
0.0
230
1.0
 40
0.3746065934
 41
0.9835181589326032
 42
1.1108769434449
  0
LINE
  5
16E
330
72
100
AcDbEntity
  8
$DDT_AUDIT_GENERATED_(D6)
  6
Continuous
 62
     7
100
AcDbLine
 10
33.5706586391
 20
396.8951137887
 30
0.0
 11
33.5706586391
 21
396.0908847963
 31
0.0
  0
LINE
  5
16F
330
72
100
AcDbEntity
  8
$DDT_AUDIT_GENERATED_(D6)
  6
Continuous
 62
     7
100
AcDbLine
 10
33.8737675304
 20
396.0253286424
 30
0.0
 11
34.911955267
 21
396.6989439364
 31
0.0
  0
LINE
  5
170
330
72
100
AcDbEntity
  8
$DDT_AUDIT_GENERATED_(D6)
  6
Continuous
 62
     7
100
AcDbLine
 10
33.5706586391
 20
396.0908847963
 30
0.0
 11
34.6005822893
 21
396.7591380399
 31
0.0
  0
ELLIPSE
  5
171
330
72
100
AcDbEntity
  8
$DDT_AUDIT_GENERATED_(D6)
  6
Continuous
 62
     7
100
AcDbEllipse
 10
32.35
 20
395.1677632025
 30
0.0
 11
2.75000000000808
 21
3.941291737419306E-12
 31
0.0
210
0.0
220
0.0
230
1.0
 40
0.3746065934
 41
0.459919383340084
 42
0.5872781678539284
  0
LINE
  5
172
330
72
100
AcDbEntity
  8
$DDT_AUDIT_GENERATED_(D6)
  6
Continuous
 62
     7
100
AcDbLine
 10
34.6392427816
 20
396.5219978076
 30
0.0
 11
34.6392427816
 21
395.7385765662
 31
0.0
  0
LINE
  5
173
330
72
100
AcDbEntity
  8
$DDT_AUDIT_GENERATED_(D6)
  6
Continuous
 62
     7
100
AcDbLine
 10
34.8142427816
 20
395.625029977
 30
0.0
 11
36.76447293
 21
396.0468242275
 31
0.0
  0
LINE
  5
174
330
72
100
AcDbEntity
  8
$DDT_AUDIT_GENERATED_(D6)
  6
Continuous
 62
     7
100
AcDbLine
 10
34.6392427816
 20
395.7385765662
 30
0.0
 11
36.5646251351
 21
396.1549967551
 31
0.0
  0
ELLIPSE
  5
175
330
72
100
AcDbEntity
  8
$DDT_AUDIT_GENERATED_(D6)
  6
Continuous
 62
     7
100
AcDbEllipse
 10
32.35
 20
395.1677632025
 30
0.0
 11
-2.750000000003845
 21
-1.998401444325282E-12
 31
0.0
210
0.0
220
0.0
230
1.0
 40
0.3746065934
 41
3.14159265358984
 42
3.205272045846476
  0
LINE
  5
176
330
72
100
AcDbEntity
  8
$DDT_AUDIT_GENERATED_(D6)
  6
Continuous
 62
     7
100
AcDbLine
 10
35.0944261695
 20
395.6856278209
 30
0.0
 11
35.0944261695
 21
395.2333193563
 31
0.0
  0
LINE
  5
177
330
72
100
AcDbEntity
  8
$DDT_AUDIT_GENERATED_(D6)
  6
Continuous
 62
     7
100
AcDbLine
 10
35.1
 20
395.1022070486
 30
0.0
 11
37.5902374834
 21
395.1022070486
 31
0.0
  0
LINE
  5
178
330
72
100
AcDbEntity
  8
$DDT_AUDIT_GENERATED_(D6)
  6
Continuous
 62
     7
100
AcDbLine
 10
35.0944261695
 20
395.2333193563
 30
0.0
 11
37.5570698788
 21
395.2333193563
 31
0.0
  0
ELLIPSE
  5
179
330
72
100
AcDbEntity
  8
$DDT_AUDIT_GENERATED_(D6)
  6
Continuous
 62
     7
100
AcDbEllipse
 10
32.3500000031
 20
395.1677632018
 30
0.0
 11
5.24999999684652
 21
6.813855035758820E-10
 31
0.0
210
0.0
220
0.0
230
1.0
 40
0.3746065935
 41
-0.5569382850683722
 42
-0.4902592665228775
  0
LINE
  5
17A
330
72
100
AcDbEntity
  8
$DDT_AUDIT_GENERATED_(D6)
  6
Continuous
 62
     7
100
AcDbLine
 10
34.8482625518
 20
394.5517432064
 30
0.0
 11
36.8066067604
 21
394.1281940533
 31
0.0
  0
LINE
  5
17B
330
72
100
AcDbEntity
  8
$DDT_AUDIT_GENERATED_(D6)
  6
Continuous
 62
     7
100
AcDbLine
 10
34.9753239842
 20
394.6756579115
 30
0.0
 11
36.9816067604
 21
394.2417406425
 31
0.0
  0
LINE
  5
17C
330
72
100
AcDbEntity
  8
$DDT_AUDIT_GENERATED_(D6)
  6
Continuous
 62
     7
100
AcDbLine
 10
36.9816067604
 20
395.1022070486
 30
0.0
 11
36.9816067604
 21
394.2417406425
 31
0.0
  0
ELLIPSE
  5
17D
330
72
100
AcDbEntity
  8
$DDT_AUDIT_GENERATED_(D6)
  6
Continuous
 62
     7
100
AcDbEllipse
 10
32.3500000008
 20
395.167763202
 30
0.0
 11
5.249999999041665
 21
2.868399961997170E-10
 31
0.0
210
0.0
220
0.0
230
1.0
 40
0.3746065934
 41
-1.08053706054696
 42
-1.013858042014635
  0
LINE
  5
17E
330
72
100
AcDbEntity
  8
$DDT_AUDIT_GENERATED_(D6)
  6
Continuous
 62
     7
100
AcDbLine
 10
33.787316325
 20
394.1040659444
 30
0.0
 11
34.8219868157
 21
393.4327327719
 31
0.0
  0
LINE
  5
17F
330
72
100
AcDbEntity
  8
$DDT_AUDIT_GENERATED_(D6)
  6
Continuous
 62
     7
100
AcDbLine
 10
34.0745778305
 20
394.1799044788
 30
0.0
 11
35.125095707
 21
393.4982889258
 31
0.0
  0
LINE
  5
180
330
72
100
AcDbEntity
  8
$DDT_AUDIT_GENERATED_(D6)
  6
Continuous
 62
     7
100
AcDbLine
 10
35.125095707
 20
394.4918699482
 30
0.0
 11
35.125095707
 21
393.4982889258
 31
0.0
  0
ARC
  5
181
330
72
100
AcDbEntity
  8
$DDT_AUDIT_GENERATED_(D6)
  6
Continuous
 62
     7
100
AcDbCircle
 10
32.35
 20
407.2090859869
 30
0.0
 40
14.00800766098221
100
AcDbArc
 50
269.2841935491
 51
270.7158064509
  0
LINE
  5
182
330
72
100
AcDbEntity
  8
$DDT_AUDIT_GENERATED_(D6)
  6
Continuous
 62
     7
100
AcDbLine
 10
32.175
 20
393.9542462933
 30
0.0
 11
32.175
 21
393.2021714933
 31
0.0
  0
LINE
  5
183
330
72
100
AcDbEntity
  8
$DDT_AUDIT_GENERATED_(D6)
  6
Continuous
 62
     7
100
AcDbLine
 10
32.525
 20
393.9542462933
 30
0.0
 11
32.525
 21
393.2021714933
 31
0.0
  0
ELLIPSE
  5
184
330
72
100
AcDbEntity
  8
$DDT_AUDIT_GENERATED_(D6)
  6
Continuous
 62
     7
100
AcDbEllipse
 10
32.3499999989
 20
395.1677632018
 30
0.0
 11
-5.249999998575221
 21
4.272970866026071E-10
 31
0.0
210
0.0
220
0.0
230
1.0
 40
0.3746065934
 41
1.013858042053023
 42
1.080537060590102
  0
LINE
  5
185
330
72
100
AcDbEntity
  8
$DDT_AUDIT_GENERATED_(D6)
  6
Continuous
 62
     7
100
AcDbLine
 10
30.6254221695
 20
394.1799044788
 30
0.0
 11
29.574904293
 21
393.4982889258
 31
0.0
  0
LINE
  5
186
330
72
100
AcDbEntity
  8
$DDT_AUDIT_GENERATED_(D6)
  6
Continuous
 62
     7
100
AcDbLine
 10
30.912683675
 20
394.1040659444
 30
0.0
 11
29.8780131843
 21
393.4327327719
 31
0.0
  0
LINE
  5
187
330
72
100
AcDbEntity
  8
$DDT_AUDIT_GENERATED_(D6)
  6
Continuous
 62
     7
100
AcDbLine
 10
29.574904293
 20
394.4918699482
 30
0.0
 11
29.574904293
 21
393.4982889258
 31
0.0
  0
ELLIPSE
  5
188
330
72
100
AcDbEntity
  8
$DDT_AUDIT_GENERATED_(D6)
  6
Continuous
 62
     7
100
AcDbEllipse
 10
32.3499999968
 20
395.1677632018
 30
0.0
 11
-5.249999996766458
 21
6.987049827600345E-10
 31
0.0
210
0.0
220
0.0
230
1.0
 40
0.3746065935
 41
0.4902592665276848
 42
0.5569382850737404
  0
LINE
  5
189
330
72
100
AcDbEntity
  8
$DDT_AUDIT_GENERATED_(D6)
  6
Continuous
 62
     7
100
AcDbLine
 10
29.7246760158
 20
394.6756579115
 30
0.0
 11
27.7183932396
 21
394.2417406425
 31
0.0
  0
LINE
  5
18A
330
72
100
AcDbEntity
  8
$DDT_AUDIT_GENERATED_(D6)
  6
Continuous
 62
     7
100
AcDbLine
 10
29.8517374482
 20
394.5517432064
 30
0.0
 11
27.8933932396
 21
394.1281940533
 31
0.0
  0
LINE
  5
18B
330
72
100
AcDbEntity
  8
$DDT_AUDIT_GENERATED_(D6)
  6
Continuous
 62
     7
100
AcDbLine
 10
27.7183932396
 20
395.1022070486
 30
0.0
 11
27.7183932396
 21
394.2417406425
 31
0.0
  0
LINE
  5
18C
330
72
100
AcDbEntity
  8
$DDT_AUDIT_GENERATED_(D6)
  6
Continuous
 62
     7
100
AcDbLine
 10
23.35
 20
397.0285962912
 30
0.0
 11
23.35
 21
394.9823264316
 31
0.0
  0
LINE
  5
18D
330
72
100
AcDbEntity
  8
$DDT_AUDIT_GENERATED_(D6)
  6
Continuous
 62
     7
100
AcDbLine
 10
41.35
 20
394.9823264316
 30
0.0
 11
41.35
 21
397.0285962912
 31
0.0
  0
LINE
  5
18E
330
72
100
AcDbEntity
  8
$DDT_AUDIT_GENERATED_(D6)
  6
Continuous
 62
     7
100
AcDbLine
 10
26.1
 20
395.1677632025
 30
0.0
 11
26.1
 21
394.9823264316
 31
0.0
  0
LINE
  5
18F
330
72
100
AcDbEntity
  8
$DDT_AUDIT_GENERATED_(D6)
  6
Continuous
 62
     7
100
AcDbLine
 10
38.6
 20
394.9823264316
 30
0.0
 11
38.6
 21
395.1677632025
 31
0.0
  0
LINE
  5
190
330
72
100
AcDbEntity
  8
$DDT_AUDIT_GENERATED_(D6)
  6
Continuous
 62
     7
100
AcDbLine
 10
29.6
 20
395.1677632025
 30
0.0
 11
29.6
 21
394.9823264316
 31
0.0
  0
LINE
  5
191
330
72
100
AcDbEntity
  8
$DDT_AUDIT_GENERATED_(D6)
  6
Continuous
 62
     7
100
AcDbLine
 10
35.1
 20
394.9823264316
 30
0.0
 11
35.1
 21
395.1677632025
 31
0.0
  0
LINE
  5
192
330
72
100
AcDbEntity
  8
$DDT_AUDIT_GENERATED_(D6)
  6
Continuous
 62
     7
100
AcDbLine
 10
31.8303700561
 20
395.3970539461
 30
0.0
 11
31.8303700561
 21
395.1677632025
 31
0.0
  0
LINE
  5
193
330
72
100
AcDbEntity
  8
$DDT_AUDIT_GENERATED_(D6)
  6
Continuous
 62
     7
100
AcDbLine
 10
32.8696299439
 20
395.1677632025
 30
0.0
 11
32.8696299439
 21
395.5469061225
 31
0.0
  0
ARC
  5
195
330
72
100
AcDbEntity
  8
$DDT_AUDIT_GENERATED_(194)
  6
Continuous
 62
     7
100
AcDbCircle
 10
32.35
 20
407.555739697
 30
0.0
 40
20.5
100
AcDbArc
 50
149.5380486922
 51
155.810485846
  0
ARC
  5
196
330
72
100
AcDbEntity
  8
$DDT_AUDIT_GENERATED_(194)
  6
Continuous
 62
     7
100
AcDbCircle
 10
32.35
 20
407.555739697
 30
0.0
 40
20.5
100
AcDbArc
 50
24.189514154
 51
30.4619513078
  0
ENDBLK
  5
198
330
72
100
AcDbEntity
  8
0
100
AcDbBlockEnd
  0
BLOCK
  5
200
330
199
100
AcDbEntity
  8
0
100
AcDbBlockBegin
  2
SE1
 70
     0
 10
0.0
 20
0.0
 30
0.0
  3
SE1
  1

  0
LINE
  5
19B
330
199
100
AcDbEntity
  8
$DDT_AUDIT_GENERATED_(74)
  6
Continuous
 62
     7
100
AcDbLine
 10
169.224049992
 20
391.955739697
 30
0.0
 11
169.224049992
 21
308.955739697
 31
0.0
  0
SPLINE
  5
19C
330
199
100
AcDbEntity
  8
$DDT_AUDIT_GENERATED_(74)
  6
Continuous
 62
     7
100
AcDbSpline
210
0.0
220
0.0
230
1.0
 70
    12
 71
     3
 72
     8
 73
     4
 74
     0
 42
0.0000000011380171
 43
0.0000000001
 40
0.0
 40
0.0
 40
0.0
 40
0.0
 40
1.0
 40
1.0
 40
1.0
 40
1.0
 10
169.2240499919996
 20
391.9557396969905
 30
0.0
 41
1.0
 10
169.2238123767079
 20
394.8848110733083
 30
0.0
 41
0.8047110762465908
 10
171.2949786156817
 20
396.9559773122874
 30
0.0
 41
0.8047110762465908
 10
174.2240499919996
 20
396.9557396969904
 30
0.0
 41
1.0
  0
LINE
  5
19D
330
199
100
AcDbEntity
  8
$DDT_AUDIT_GENERATED_(74)
  6
Continuous
 62
     7
100
AcDbLine
 10
174.224049992
 20
396.955739697
 30
0.0
 11
230.4515733561
 21
396.955739697
 31
0.0
  0
LINE
  5
19E
330
199
100
AcDbEntity
  8
$DDT_AUDIT_GENERATED_(74)
  6
Continuous
 62
     7
100
AcDbLine
 10
257.224049992
 20
415.955739697
 30
0.0
 11
126.724049992
 21
415.955739697
 31
0.0
  0
LINE
  5
19F
330
199
100
AcDbEntity
  8
$DDT_AUDIT_GENERATED_(74)
  6
Continuous
 62
     7
100
AcDbLine
 10
126.224049992
 20
308.955739697
 30
0.0
 11
126.224049992
 21
415.455739697
 31
0.0
  0
ARC
  5
1A0
330
199
100
AcDbEntity
  8
$DDT_AUDIT_GENERATED_(74)
  6
Continuous
 62
     7
100
AcDbCircle
 10
230.451573356
 20
397.455739697
 30
0.0
 40
0.5000000000047189
100
AcDbArc
 50
270.0000000068
 51
285.0000000068
  0
ARC
  5
1A1
330
199
100
AcDbEntity
  8
$DDT_AUDIT_GENERATED_(74)
  6
Continuous
 62
     7
100
AcDbCircle
 10
257.224049992
 20
415.455739697
 30
0.0
 40
0.4999999999999727
100
AcDbArc
 50
0.0
 51
90.0
  0
ARC
  5
1A2
330
199
100
AcDbEntity
  8
$DDT_AUDIT_GENERATED_(74)
  6
Continuous
 62
     7
100
AcDbCircle
 10
126.724049992
 20
415.455739697
 30
0.0
 40
0.5000000000000386
100
AcDbArc
 50
90.0
 51
180.0
  0
LINE
  5
1A3
330
199
100
AcDbEntity
  8
$DDT_AUDIT_GENERATED_(74)
  6
Continuous
 62
     7
100
AcDbLine
 10
257.724049992
 20
404.629403191
 30
0.0
 11
257.724049992
 21
415.455739697
 31
0.0
  0
LINE
  5
1A4
330
199
100
AcDbEntity
  8
$DDT_AUDIT_GENERATED_(74)
  6
Continuous
 62
     7
100
AcDbLine
 10
257.3534595146
 20
404.1464402778
 30
0.0
 11
230.5809828786
 21
396.9727767839
 31
0.0
  0
ARC
  5
1A5
330
199
100
AcDbEntity
  8
$DDT_AUDIT_GENERATED_(74)
  6
Continuous
 62
     7
100
AcDbCircle
 10
257.224049992
 20
404.629403191
 30
0.0
 40
0.5000000000000022
100
AcDbArc
 50
285.0
 51
0.0
  0
LINE
  5
1A6
330
199
100
AcDbEntity
  8
$DDT_AUDIT_GENERATED_(87)
  6
Continuous
 62
     7
100
AcDbLine
 10
168.6574200315
 20
417.9485440243
 30
0.0
 11
149.0476544496
 21
417.9485440243
 31
0.0
  0
LINE
  5
1A7
330
199
100
AcDbEntity
  8
$DDT_AUDIT_GENERATED_(87)
  6
Continuous
 62
     7
100
AcDbLine
 10
168.906468706
 20
417.9485440243
 30
0.0
 11
168.6574200315
 21
417.9485440243
 31
0.0
  0
LINE
  5
1A8
330
199
100
AcDbEntity
  8
$DDT_AUDIT_GENERATED_(87)
  6
Continuous
 62
     7
100
AcDbLine
 10
227.3830250497
 20
453.672011087
 30
0.0
 11
169.5811808065
 21
446.5748370222
 31
0.0
  0
LINE
  5
1A9
330
199
100
AcDbEntity
  8
$DDT_AUDIT_GENERATED_(87)
  6
Continuous
 62
     7
100
AcDbLine
 10
128.9979562451
 20
445.6218829162
 30
0.0
 11
226.8955476761
 21
457.6421956936
 31
0.0
  0
ARC
  5
1AA
330
199
100
AcDbEntity
  8
$DDT_AUDIT_GENERATED_(87)
  6
Continuous
 62
     7
100
AcDbCircle
 10
169.9467888367
 20
443.5971985673
 30
0.0
 40
2.999999999999758
100
AcDbArc
 50
97.0
 51
185.0
  0
LINE
  5
1AB
330
199
100
AcDbEntity
  8
$DDT_AUDIT_GENERATED_(87)
  6
Continuous
 62
     7
100
AcDbLine
 10
227.4527554237
 20
457.2068572894
 30
0.0
 11
227.8183634539
 21
454.2292188345
 31
0.0
  0
ARC
  5
1AC
330
199
100
AcDbEntity
  8
$DDT_AUDIT_GENERATED_(87)
  6
Continuous
 62
     7
100
AcDbCircle
 10
227.322090378
 20
454.1682841628
 30
0.0
 40
0.4999999999993815
100
AcDbArc
 50
276.9999999998
 51
7.0000000001
  0
ARC
  5
1AD
330
199
100
AcDbEntity
  8
$DDT_AUDIT_GENERATED_(87)
  6
Continuous
 62
     7
100
AcDbCircle
 10
129.0588909168
 20
445.1256098404
 30
0.0
 40
0.50000000000059
100
AcDbArc
 50
97.0000000001
 51
175.0
  0
LINE
  5
1AE
330
199
100
AcDbEntity
  8
$DDT_AUDIT_GENERATED_(87)
  6
Continuous
 62
     7
100
AcDbLine
 10
169.1555173805
 20
418.22033296
 30
0.0
 11
166.9582047424
 21
443.335731339
 31
0.0
  0
ARC
  5
1AF
330
199
100
AcDbEntity
  8
$DDT_AUDIT_GENERATED_(87)
  6
Continuous
 62
     7
100
AcDbCircle
 10
226.9564823478
 20
457.1459226177
 30
0.0
 40
0.4999999999956214
100
AcDbArc
 50
6.9999999994
 51
97.0000000006
  0
ARC
  5
1B0
330
199
100
AcDbEntity
  8
$DDT_AUDIT_GENERATED_(87)
  6
Continuous
 62
     7
100
AcDbCircle
 10
168.906468706
 20
418.1985440243
 30
0.0
 40
0.2500000000001204
100
AcDbArc
 50
333.5871045777
 51
5.0
  0
ARC
  5
1B1
330
199
100
AcDbEntity
  8
$DDT_AUDIT_GENERATED_(87)
  6
Continuous
 62
     7
100
AcDbCircle
 10
168.906468706
 20
418.1985440243
 30
0.0
 40
0.2500000000001204
100
AcDbArc
 50
270.0
 51
293.5976854978
  0
LINE
  5
1B2
330
199
100
AcDbEntity
  8
$DDT_AUDIT_GENERATED_(87)
  6
Continuous
 62
     7
100
AcDbLine
 10
127.5061034821
 20
428.4269099543
 30
0.0
 11
127.2672470669
 21
428.5434080119
 31
0.0
  0
LINE
  5
1B3
330
199
100
AcDbEntity
  8
$DDT_AUDIT_GENERATED_(87)
  6
Continuous
 62
     7
100
AcDbLine
 10
148.9380616629
 20
417.9738455127
 30
0.0
 11
127.5061034821
 21
428.4269099543
 31
0.0
  0
LINE
  5
1B4
330
199
100
AcDbEntity
  8
$DDT_AUDIT_GENERATED_(87)
  6
Continuous
 62
     7
100
AcDbLine
 10
127.1277911791
 20
428.7898954592
 30
0.0
 11
128.5607935678
 21
445.1691877118
 31
0.0
  0
ARC
  5
1B5
330
199
100
AcDbEntity
  8
$DDT_AUDIT_GENERATED_(87)
  6
Continuous
 62
     7
100
AcDbCircle
 10
127.3768398536
 20
428.7681065235
 30
0.0
 40
0.2499999999999023
100
AcDbArc
 50
175.0
 51
244.0
  0
ARC
  5
1B6
330
199
100
AcDbEntity
  8
$DDT_AUDIT_GENERATED_(87)
  6
Continuous
 62
     7
100
AcDbCircle
 10
149.0476544496
 20
418.1985440243
 30
0.0
 40
0.2499999999942409
100
AcDbArc
 50
244.0000000001
 51
270.0
  0
ARC
  5
1B7
330
199
100
AcDbEntity
  8
$DDT_AUDIT_GENERATED_(87)
  6
Continuous
 62
     7
100
AcDbCircle
 10
168.9144852657
 20
418.184983499
 30
0.0
 40
0.2344190746228167
100
AcDbArc
 50
291.8378165158
 51
9.610439349
  0
LINE
  5
1B8
330
199
100
AcDbEntity
  8
$DDT_AUDIT_GENERATED_(B5)
  6
Continuous
 62
     7
100
AcDbLine
 10
122.224049992
 20
308.955739697
 30
0.0
 11
123.324049992
 21
308.955739697
 31
0.0
  0
LINE
  5
1B9
330
199
100
AcDbEntity
  8
$DDT_AUDIT_GENERATED_(B5)
  6
Continuous
 62
     7
100
AcDbLine
 10
123.324049992
 20
308.955739697
 30
0.0
 11
172.124049992
 21
308.955739697
 31
0.0
  0
LINE
  5
1BA
330
199
100
AcDbEntity
  8
$DDT_AUDIT_GENERATED_(B5)
  6
Continuous
 62
     7
100
AcDbLine
 10
172.124049992
 20
308.955739697
 30
0.0
 11
173.224049992
 21
308.955739697
 31
0.0
  0
LINE
  5
1BB
330
199
100
AcDbEntity
  8
$DDT_AUDIT_GENERATED_(B5)
  6
Continuous
 62
     7
100
AcDbLine
 10
173.724049992
 20
308.455739697
 30
0.0
 11
173.724049992
 21
300.955739697
 31
0.0
  0
LINE
  5
1BC
330
199
100
AcDbEntity
  8
$DDT_AUDIT_GENERATED_(B5)
  6
Continuous
 62
     7
100
AcDbLine
 10
121.724049992
 20
308.455739697
 30
0.0
 11
121.724049992
 21
300.955739697
 31
0.0
  0
ARC
  5
1BD
330
199
100
AcDbEntity
  8
$DDT_AUDIT_GENERATED_(B5)
  6
Continuous
 62
     7
100
AcDbCircle
 10
122.224049992
 20
308.455739697
 30
0.0
 40
0.5000000000000004
100
AcDbArc
 50
90.0
 51
180.0
  0
ARC
  5
1BE
330
199
100
AcDbEntity
  8
$DDT_AUDIT_GENERATED_(B5)
  6
Continuous
 62
     7
100
AcDbCircle
 10
173.224049992
 20
308.455739697
 30
0.0
 40
0.5000000000000004
100
AcDbArc
 50
0.0
 51
90.0
  0
LINE
  5
1BF
330
199
100
AcDbEntity
  8
$DDT_AUDIT_GENERATED_(B5)
  6
Continuous
 62
     7
100
AcDbLine
 10
173.724049992
 20
300.955739697
 30
0.0
 11
172.124049992
 21
300.955739697
 31
0.0
  0
LINE
  5
1C0
330
199
100
AcDbEntity
  8
$DDT_AUDIT_GENERATED_(B5)
  6
Continuous
 62
     7
100
AcDbLine
 10
172.124049992
 20
300.955739697
 30
0.0
 11
123.324049992
 21
300.955739697
 31
0.0
  0
LINE
  5
1C1
330
199
100
AcDbEntity
  8
$DDT_AUDIT_GENERATED_(B5)
  6
Continuous
 62
     7
100
AcDbLine
 10
123.324049992
 20
300.955739697
 30
0.0
 11
121.724049992
 21
300.955739697
 31
0.0
  0
LINE
  5
1C2
330
199
100
AcDbEntity
  8
02636038_GEHÄUSE
  6
Continuous
 62
     7
100
AcDbLine
 10
235.6456198598
 20
391.3261790942
 30
0.0
 11
255.580072733
 21
399.3802208526
 31
0.0
  0
SPLINE
  5
1C3
330
199
100
AcDbEntity
  8
02636038_GEHÄUSE
  6
Continuous
 62
     7
100
AcDbSpline
210
0.0
220
0.0
230
1.0
 70
     8
 71
     3
 72
    10
 73
     6
 74
     0
 42
0.0000000019260148
 43
0.0000000001
 40
0.0
 40
0.0
 40
0.0
 40
0.0
 40
0.5
 40
0.5
 40
1.0
 40
1.0
 40
1.0
 40
1.0
 10
247.8920569479906
 20
396.6165416290594
 30
0.0
 10
247.1352214723619
 20
396.1878539914039
 30
0.0
 10
246.3579611280041
 20
395.8099080815526
 30
0.0
 10
244.7591774277108
 20
395.1639793521912
 30
0.0
 10
243.9376546680005
 20
394.8959950514723
 30
0.0
 10
243.0957285054699
 20
394.6786991505622
 30
0.0
  0
LINE
  5
1C4
330
199
100
AcDbEntity
  8
02636038_GEHÄUSE
  6
Continuous
 62
     7
100
AcDbLine
 10
248.4488723438
 20
399.7346331018
 30
0.0
 11
240.5291806884
 21
396.5348699724
 31
0.0
  0
LINE
  5
1C5
330
199
100
AcDbEntity
  8
02636038_GEHÄUSE
  6
Continuous
 62
     7
100
AcDbLine
 10
248.4488723438
 20
399.7346331018
 30
0.0
 11
249.1293197281
 21
398.0504667265
 31
0.0
  0
SPLINE
  5
1C6
330
199
100
AcDbEntity
  8
02636038_GEHÄUSE
  6
Continuous
 62
     7
100
AcDbSpline
210
0.0
220
0.0
230
1.0
 70
     8
 71
     3
 72
    14
 73
    10
 74
     0
 42
0.0000000049320844
 43
0.0000000001
 40
0.0
 40
0.0
 40
0.0
 40
0.0
 40
0.1249999999999997
 40
0.1249999999999997
 40
0.2499999999999994
 40
0.2499999999999994
 40
0.4999999999999996
 40
0.4999999999999996
 40
1.0
 40
1.0
 40
1.0
 40
1.0
 10
249.1293197280989
 20
398.0504667264957
 30
0.0
 10
249.1609459612849
 20
397.972189052514
 30
0.0
 10
249.1625964914639
 20
397.8822135610602
 30
0.0
 10
249.1258913162708
 20
397.7172737809145
 30
0.0
 10
249.0894525500805
 20
397.6388958766428
 30
0.0
 10
248.9584488203268
 20
397.4229870613975
 30
0.0
 10
248.8405625844784
 20
397.2983611736472
 30
0.0
 10
248.4682415322781
 20
396.9631212175683
 30
0.0
 10
248.1827279502783
 20
396.7811838390486
 30
0.0
 10
247.8920569479906
 20
396.6165416290594
 30
0.0
  0
SPLINE
  5
1C7
330
199
100
AcDbEntity
  8
02636038_GEHÄUSE
  6
Continuous
 62
     7
100
AcDbSpline
210
0.0
220
0.0
230
1.0
 70
     8
 71
     3
 72
    14
 73
    10
 74
     0
 42
0.0000000049319876
 43
0.0000000001
 40
0.0
 40
0.0
 40
0.0
 40
0.0
 40
0.4999999999999996
 40
0.4999999999999996
 40
0.7499999999999993
 40
0.7499999999999993
 40
0.8749999999999997
 40
0.8749999999999997
 40
1.0
 40
1.0
 40
1.0
 40
1.0
 10
243.0957285054699
 20
394.6786991505622
 30
0.0
 10
242.7708792445647
 20
394.5948575787596
 30
0.0
 10
242.4417569501159
 20
394.5277459006875
 30
0.0
 10
241.9385159372166
 20
394.5102540216785
 30
0.0
 10
241.7685684439921
 20
394.5181821750928
 30
0.0
 10
241.5258716902392
 20
394.5818060064769
 30
0.0
 10
241.4447562366501
 20
394.6127783528634
 30
0.0
 10
241.3029278787985
 20
394.7061518809398
 30
0.0
 10
241.2414042618143
 20
394.7720547692959
 30
0.0
 10
241.209628072715
 20
394.8507035971932
 30
0.0
  0
LINE
  5
1C8
330
199
100
AcDbEntity
  8
02636038_GEHÄUSE
  6
Continuous
 62
     7
100
AcDbLine
 10
241.2096280727
 20
394.8507035972
 30
0.0
 11
240.5291806884
 21
396.5348699724
 31
0.0
  0
LINE
  5
1C9
330
199
100
AcDbEntity
  8
02636038_GEHÄUSE
  6
Continuous
 62
     7
100
AcDbLine
 10
235.0167151701
 20
391.4145658842
 30
0.0
 11
235.6456198598
 21
391.3261790942
 31
0.0
  0
LINE
  5
1CA
330
199
100
AcDbEntity
  8
02636038_GEHÄUSE
  6
Continuous
 62
     7
100
AcDbLine
 10
255.580072733
 20
399.3802208526
 30
0.0
 11
255.9710702833
 21
399.8806748954
 31
0.0
  0
ARC
  5
1CB
330
199
100
AcDbEntity
  8
02636038_GEHÄUSE
  6
Continuous
 62
     7
100
AcDbCircle
 10
255.1830595297
 20
400.4963363707
 30
0.0
 40
1.000000000000005
100
AcDbArc
 50
322.0
 51
22.0
  0
ARC
  5
1CC
330
199
100
AcDbEntity
  8
02636038_GEHÄUSE
  6
Continuous
 62
     7
100
AcDbCircle
 10
235.1558882711
 20
392.404833953
 30
0.0
 40
1.0
100
AcDbArc
 50
202.0
 51
262.0
  0
LINE
  5
1CD
330
199
100
AcDbEntity
  8
02636038_GEHÄUSE
  6
Continuous
 62
     7
100
AcDbLine
 10
232.0705288163
 20
397.371899415
 30
0.0
 11
234.2287044165
 21
392.0302273595
 31
0.0
  0
LINE
  5
1CE
330
199
100
AcDbEntity
  8
02636038_GEHÄUSE
  6
Continuous
 62
     7
100
AcDbLine
 10
256.1102433843
 20
400.8709429642
 30
0.0
 11
255.0375711677
 21
403.5258998655
 31
0.0
  0
LINE
  5
1CF
330
199
100
AcDbEntity
  8
$DDT_AUDIT_GENERATED_(D6)
  6
Continuous
 62
     7
100
AcDbLine
 10
237.4180342426
 20
391.6108670908
 30
0.0
 11
254.1073436248
 21
398.3537857723
 31
0.0
  0
LINE
  5
1D0
330
199
100
AcDbEntity
  8
$DDT_AUDIT_GENERATED_(D6)
  6
Continuous
 62
     7
100
AcDbLine
 10
237.2681916053
 20
391.9817406327
 30
0.0
 11
237.4180342426
 21
391.6108670908
 31
0.0
  0
LINE
  5
1D1
330
199
100
AcDbEntity
  8
$DDT_AUDIT_GENERATED_(D6)
  6
Continuous
 62
     7
100
AcDbLine
 10
254.1073436248
 20
398.3537857723
 30
0.0
 11
253.9575009875
 21
398.7246593141
 31
0.0
  0
LINE
  5
1D2
330
199
100
AcDbEntity
  8
$DDT_AUDIT_GENERATED_(194)
  6
Continuous
 62
     7
100
AcDbLine
 10
136.9848497385
 20
423.8038165063
 30
0.0
 11
135.224049992
 21
423.8038165063
 31
0.0
  0
ARC
  5
1D3
330
199
100
AcDbEntity
  8
$DDT_AUDIT_GENERATED_(194)
  6
Continuous
 62
     7
100
AcDbCircle
 10
147.724049992
 20
407.555739697
 30
0.0
 40
20.5
100
AcDbArc
 50
24.189514154
 51
30.4619513078
  0
ARC
  5
1D4
330
199
100
AcDbEntity
  8
$DDT_AUDIT_GENERATED_(194)
  6
Continuous
 62
     7
100
AcDbCircle
 10
147.724049992
 20
407.555739697
 30
0.0
 40
20.50000000000001
100
AcDbArc
 50
127.5718693197
 51
155.810485846
  0
LINE
  5
1D6
330
199
100
AcDbEntity
  8
$DDT_AUDIT_GENERATED_(1D5)
  6
Continuous
 62
     7
100
AcDbLine
 10
128.397941576
 20
443.3077809286
 30
0.0
 11
128.4057874856
 21
443.407472662
 31
0.0
  0
LINE
  5
1D7
330
199
100
AcDbEntity
  8
$DDT_AUDIT_GENERATED_(1D5)
  6
Continuous
 62
     7
100
AcDbLine
 10
128.4066574822
 20
443.4074041917
 30
0.0
 11
128.4057874856
 21
443.407472662
 31
0.0
  0
ARC
  5
1D9
330
199
100
AcDbEntity
  8
01161038_BUEGEL_
  6
Continuous
 62
     7
100
AcDbCircle
 10
123.724049992
 20
344.4558150745
 30
0.0
 40
0.9999999999995499
100
AcDbArc
 50
0.0
 51
180.0
  0
ARC
  5
1DA
330
199
100
AcDbEntity
  8
01161038_BUEGEL_
  6
Continuous
 62
     7
100
AcDbCircle
 10
123.724049992
 20
344.455739697
 30
0.0
 40
1.0
100
AcDbArc
 50
0.0
 51
180.0
  0
ARC
  5
1DB
330
199
100
AcDbEntity
  8
01161038_BUEGEL_
  6
Continuous
 62
     7
100
AcDbCircle
 10
123.724049992
 20
329.522383818
 30
0.0
 40
1.000000000000001
100
AcDbArc
 50
180.0
 51
0.0
  0
LINE
  5
1DC
330
199
100
AcDbEntity
  8
01161038_BUEGEL_
  6
Continuous
 62
     7
100
AcDbLine
 10
124.724049992
 20
329.522383818
 30
0.0
 11
124.724049992
 21
331.9499568319
 31
0.0
  0
LINE
  5
1DD
330
199
100
AcDbEntity
  8
01161038_BUEGEL_
  6
Continuous
 62
     7
100
AcDbLine
 10
122.724049992
 20
331.9499568319
 30
0.0
 11
122.724049992
 21
329.522383818
 31
0.0
  0
LINE
  5
1DE
330
199
100
AcDbEntity
  8
01161038_BUEGEL_
  6
Continuous
 62
     7
100
AcDbLine
 10
122.724049992
 20
342.669517432
 30
0.0
 11
122.724049992
 21
331.9499568319
 31
0.0
  0
LINE
  5
1DF
330
199
100
AcDbEntity
  8
01161038_BUEGEL_
  6
Continuous
 62
     7
100
AcDbLine
 10
124.724049992
 20
331.9499568319
 30
0.0
 11
124.724049992
 21
342.669517432
 31
0.0
  0
LINE
  5
1E0
330
199
100
AcDbEntity
  8
01161038_BUEGEL_
  6
Continuous
 62
     7
100
AcDbLine
 10
124.724049992
 20
342.669517432
 30
0.0
 11
124.724049992
 21
344.455739697
 31
0.0
  0
LINE
  5
1E1
330
199
100
AcDbEntity
  8
01161038_BUEGEL_
  6
Continuous
 62
     7
100
AcDbLine
 10
122.724049992
 20
344.455739697
 30
0.0
 11
122.724049992
 21
342.669517432
 31
0.0
  0
LINE
  5
1E3
330
199
100
AcDbEntity
  8
$DDT_AUDIT_GENERATED_(1E2)
  6
Continuous
 62
     7
100
AcDbLine
 10
126.224049992
 20
343.8287442024
 30
0.0
 11
124.724049992
 21
343.4268204137
 31
0.0
  0
LINE
  5
1E4
330
199
100
AcDbEntity
  8
$DDT_AUDIT_GENERATED_(1E2)
  6
Continuous
 62
     7
100
AcDbLine
 10
122.724049992
 20
342.8909220289
 30
0.0
 11
121.8238367783
 21
342.6497106252
 31
0.0
  0
ARC
  5
1E5
330
199
100
AcDbEntity
  8
$DDT_AUDIT_GENERATED_(1E2)
  6
Continuous
 62
     7
100
AcDbCircle
 10
124.4217753176
 20
346.0738064491
 30
0.0
 40
1.367316569381129
100
AcDbArc
 50
15.0105972599
 51
26.1172285601
  0
ARC
  5
1E6
330
199
100
AcDbEntity
  8
$DDT_AUDIT_GENERATED_(1E2)
  6
Continuous
 62
     7
100
AcDbCircle
 10
122.4267941716
 20
345.5392528547
 30
0.0
 40
1.367316576550784
100
AcDbArc
 50
183.8827714691
 51
194.9894027401
  0
SPLINE
  5
1E7
330
199
100
AcDbEntity
  8
$DDT_AUDIT_GENERATED_(1E2)
  6
Continuous
 62
     7
100
AcDbSpline
210
0.0
220
0.0
230
1.0
 70
     8
 71
     3
 72
    11
 73
     7
 74
     0
 42
0.0000003440380536
 43
0.0000000001
 40
0.0
 40
0.0
 40
0.0
 40
0.0
 40
0.5121488556905329
 40
0.5121488556905329
 40
0.5121488556905329
 40
1.0
 40
1.0
 40
1.0
 40
1.0
 10
121.0672535487484
 20
345.473317678078
 30
0.0
 10
121.0650012696233
 20
345.4729657093876
 30
0.0
 10
121.0635003715132
 20
345.4700766800831
 30
0.0
 10
121.0627891504825
 20
345.4652505514582
 30
0.0
 10
121.0621080088674
 20
345.4606285325579
 30
0.0
 10
121.0621074672323
 20
345.4541780591866
 30
0.0
 10
121.0626160165697
 20
345.44666461713
 30
0.0
  0
SPLINE
  5
1E8
330
199
100
AcDbEntity
  8
$DDT_AUDIT_GENERATED_(1E2)
  6
Continuous
 62
     7
100
AcDbSpline
210
0.0
220
0.0
230
1.0
 70
     8
 71
     3
 72
    11
 73
     7
 74
     0
 42
0.0000003446648399
 43
0.0000000001
 40
0.0
 40
0.0
 40
0.0
 40
0.0
 40
0.5143622367452403
 40
0.5143622367452403
 40
0.5143622367452403
 40
1.0
 40
1.0
 40
1.0
 40
1.0
 10
125.649482367261
 20
346.6757117582695
 30
0.0
 10
125.6459909210665
 20
346.6828299345068
 30
0.0
 10
125.6425967515844
 20
346.6886483487759
 30
0.0
 10
125.6395769530579
 20
346.6922921697007
 30
0.0
 10
125.6367328578578
 20
346.6957239793104
 30
0.0
 10
125.6341589980443
 20
346.6972551675014
 30
0.0
 10
125.6321396161276
 20
346.6964752199822
 30
0.0
  0
ARC
  5
1E9
330
199
100
AcDbEntity
  8
$DDT_AUDIT_GENERATED_(1E2)
  6
Continuous
 62
     7
100
AcDbCircle
 10
124.424217462
 20
346.0747226358
 30
0.0
 40
1.364720489138036
100
AcDbArc
 50
26.1278258209
 51
105.0
  0
LINE
  5
1EA
330
199
100
AcDbEntity
  8
$DDT_AUDIT_GENERATED_(1E2)
  6
Continuous
 62
     7
100
AcDbLine
 10
122.0710054636
 20
346.8570439965
 30
0.0
 11
124.0710018082
 21
347.3929414019
 31
0.0
  0
ARC
  5
1EB
330
199
100
AcDbEntity
  8
$DDT_AUDIT_GENERATED_(1E2)
  6
Continuous
 62
     7
100
AcDbCircle
 10
122.4242211192
 20
345.5388252234
 30
0.0
 40
1.364720496291072
100
AcDbArc
 50
105.0
 51
183.8721742083
  0
ARC
  5
1EC
330
199
100
AcDbEntity
  8
$DDT_AUDIT_GENERATED_(1E2)
  6
Continuous
 62
     7
100
AcDbCircle
 10
124.2401384678
 20
325.2383785693
 30
0.0
 40
20.48218639322101
100
AcDbArc
 50
97.8024112409
 51
98.9115466436
  0
ARC
  5
1ED
330
199
100
AcDbEntity
  8
$DDT_AUDIT_GENERATED_(1E2)
  6
Continuous
 62
     7
100
AcDbCircle
 10
133.0018101648
 20
327.5860616259
 30
0.0
 40
20.48218620487623
100
AcDbArc
 50
111.0884533721
 51
112.1975887851
  0
LINE
  5
1EE
330
199
100
AcDbEntity
  8
$DDT_AUDIT_GENERATED_(1E2)
  6
Continuous
 62
     7
100
AcDbLine
 10
122.2668840873
 20
345.2963583997
 30
0.0
 11
122.724049992
 21
343.5901920158
 31
0.0
  0
ARC
  5
1EF
330
199
100
AcDbEntity
  8
$DDT_AUDIT_GENERATED_(1E2)
  6
Continuous
 62
     7
100
AcDbCircle
 10
122.5252002251
 20
345.3655740002
 30
0.0
 40
0.2674285444752513
100
AcDbArc
 50
105.0
 51
195.0
  0
LINE
  5
1F0
330
199
100
AcDbEntity
  8
$DDT_AUDIT_GENERATED_(1E2)
  6
Continuous
 62
     7
100
AcDbLine
 10
124.4192978872
 20
346.1499583412
 30
0.0
 11
122.4559846246
 21
345.623890138
 31
0.0
  0
ARC
  5
1F1
330
199
100
AcDbEntity
  8
$DDT_AUDIT_GENERATED_(1E2)
  6
Continuous
 62
     7
100
AcDbCircle
 10
124.4710616963
 20
345.9567731759
 30
0.0
 40
0.2000000000000032
100
AcDbArc
 50
15.0
 51
105.0
  0
LINE
  5
1F2
330
199
100
AcDbEntity
  8
$DDT_AUDIT_GENERATED_(1E2)
  6
Continuous
 62
     7
100
AcDbLine
 10
125.3136820545
 20
343.5848118487
 30
0.0
 11
124.6642468615
 21
346.0085369849
 31
0.0
  0
LINE
  5
1F3
330
199
100
AcDbEntity
  8
$DDT_AUDIT_GENERATED_(1E2)
  6
Continuous
 62
     7
100
AcDbLine
 10
125.8599215419
 20
338.8560573412
 30
0.0
 11
125.2020013331
 21
338.6171822106
 31
0.0
  0
LINE
  5
1F4
330
199
100
AcDbEntity
  8
$DDT_AUDIT_GENERATED_(1E2)
  6
Continuous
 62
     7
100
AcDbLine
 10
125.3471135885
 20
338.2184011649
 30
0.0
 11
126.004898423
 21
338.4578152652
 31
0.0
  0
ARC
  5
1F5
330
199
100
AcDbEntity
  8
$DDT_AUDIT_GENERATED_(1E2)
  6
Continuous
 62
     7
100
AcDbCircle
 10
124.7206622381
 20
340.9684180701
 30
0.0
 40
2.400003866358581
100
AcDbArc
 50
195.0
 51
213.7034791493
  0
ARC
  5
1F6
330
199
100
AcDbEntity
  8
$DDT_AUDIT_GENERATED_(1E2)
  6
Continuous
 62
     7
100
AcDbCircle
 10
124.7206622381
 20
340.9684180701
 30
0.0
 40
2.400003866358581
100
AcDbArc
 50
270.0808765637
 51
281.693326315
  0
ARC
  5
1F7
330
199
100
AcDbEntity
  8
$DDT_AUDIT_GENERATED_(1E2)
  6
Continuous
 62
     7
100
AcDbCircle
 10
124.7206446864
 20
340.9684133671
 30
0.0
 40
2.400003866358583
100
AcDbArc
 50
298.2481783583
 51
308.7863310416
  0
LINE
  5
1F8
330
199
100
AcDbEntity
  8
$DDT_AUDIT_GENERATED_(1E2)
  6
Continuous
 62
     7
100
AcDbLine
 10
126.224049992
 20
344.6305312531
 30
0.0
 11
125.7424362281
 21
346.4279382896
 31
0.0
  0
LINE
  5
1F9
330
199
100
AcDbEntity
  8
$DDT_AUDIT_GENERATED_(1E2)
  6
Continuous
 62
     7
100
AcDbLine
 10
121.1060023462
 20
345.1856095678
 30
0.0
 11
122.4024365204
 21
340.3472513611
 31
0.0
  0
ARC
  5
1FA
330
199
100
AcDbEntity
  8
$DDT_AUDIT_GENERATED_(1E2)
  6
Continuous
 62
     7
100
AcDbCircle
 10
127.8015390337
 20
332.4982542163
 30
0.0
 40
1.749999999999999
100
AcDbArc
 50
154.3456578761
 51
205.6543421239
  0
ARC
  5
1FB
330
199
100
AcDbEntity
  8
$DDT_AUDIT_GENERATED_(1E2)
  6
Continuous
 62
     7
100
AcDbCircle
 10
126.2624483888
 20
336.7268710099
 30
0.0
 40
1.750000000000003
100
AcDbArc
 50
121.5369590325
 51
151.5321594867
  0
ARC
  5
1FC
330
199
100
AcDbEntity
  8
$DDT_AUDIT_GENERATED_(1E2)
  6
Continuous
 62
     7
100
AcDbCircle
 10
126.2624483888
 20
336.7268710099
 30
0.0
 40
1.750000000000003
100
AcDbArc
 50
208.4678405133
 51
268.7427184864
  0
ARC
  5
1FD
330
199
100
AcDbEntity
  8
$DDT_AUDIT_GENERATED_(1E2)
  6
Continuous
 62
     7
100
AcDbCircle
 10
126.2624483888
 20
336.7268710099
 30
0.0
 40
1.750000000000001
100
AcDbArc
 50
91.2572815136
 51
98.4630409675
  0
LINE
  5
1FE
330
199
100
AcDbEntity
  8
$DDT_AUDIT_GENERATED_(1E2)
  6
Continuous
 62
     7
100
AcDbLine
 10
125.2019741512
 20
338.6171684914
 30
0.0
 11
125.3471135885
 21
338.2184011649
 31
0.0
  0
LINE
  5
1FF
330
199
100
AcDbEntity
  8
$DDT_AUDIT_GENERATED_(1E2)
  6
Continuous
 62
     7
100
AcDbLine
 10
126.004898423
 20
338.4578152652
 30
0.0
 11
125.8599456482
 21
338.8560697408
 31
0.0
  0
ENDBLK
  5
201
330
199
100
AcDbEntity
  8
0
100
AcDbBlockEnd
  0
BLOCK
  5
273
330
202
100
AcDbEntity
  8
0
100
AcDbBlockBegin
  2
SE2
 70
     0
 10
0.0
 20
0.0
 30
0.0
  3
SE2
  1

  0
LINE
  5
204
330
202
100
AcDbEntity
  8
$DDT_AUDIT_GENERATED_(74)
  6
Continuous
 62
     7
100
AcDbLine
 10
11.35
 20
106.35
 30
0.0
 11
53.35
 21
106.35
 31
0.0
  0
LINE
  5
205
330
202
100
AcDbEntity
  8
$DDT_AUDIT_GENERATED_(74)
  6
Continuous
 62
     7
100
AcDbLine
 10
10.85
 20
106.85
 30
0.0
 11
10.85
 21
237.35
 31
0.0
  0
LINE
  5
206
330
202
100
AcDbEntity
  8
$DDT_AUDIT_GENERATED_(74)
  6
Continuous
 62
     7
100
AcDbLine
 10
11.35
 20
237.85
 30
0.0
 11
53.35
 21
237.85
 31
0.0
  0
LINE
  5
207
330
202
100
AcDbEntity
  8
$DDT_AUDIT_GENERATED_(74)
  6
Continuous
 62
     7
100
AcDbLine
 10
53.85
 20
237.35
 30
0.0
 11
53.85
 21
106.85
 31
0.0
  0
ARC
  5
208
330
202
100
AcDbEntity
  8
$DDT_AUDIT_GENERATED_(74)
  6
Continuous
 62
     7
100
AcDbCircle
 10
11.35
 20
106.85
 30
0.0
 40
0.5000000000000282
100
AcDbArc
 50
180.0
 51
270.0
  0
ARC
  5
209
330
202
100
AcDbEntity
  8
$DDT_AUDIT_GENERATED_(74)
  6
Continuous
 62
     7
100
AcDbCircle
 10
53.35
 20
106.85
 30
0.0
 40
0.5000000000000525
100
AcDbArc
 50
270.0
 51
0.0
  0
ARC
  5
20A
330
202
100
AcDbEntity
  8
$DDT_AUDIT_GENERATED_(74)
  6
Continuous
 62
     7
100
AcDbCircle
 10
11.35
 20
237.35
 30
0.0
 40
0.4999999999999935
100
AcDbArc
 50
90.0
 51
180.0
  0
ARC
  5
20B
330
202
100
AcDbEntity
  8
$DDT_AUDIT_GENERATED_(74)
  6
Continuous
 62
     7
100
AcDbCircle
 10
53.35
 20
237.35
 30
0.0
 40
0.4999999999998686
100
AcDbArc
 50
0.0
 51
90.0
  0
LINE
  5
20C
330
202
100
AcDbEntity
  8
$DDT_AUDIT_GENERATED_(87)
  6
Continuous
 62
     7
100
AcDbLine
 10
13.2314977365
 20
235.0151590752
 30
0.0
 11
11.7883030885
 21
236.4583537232
 31
0.0
  0
LINE
  5
20D
330
202
100
AcDbEntity
  8
$DDT_AUDIT_GENERATED_(87)
  6
Continuous
 62
     7
100
AcDbLine
 10
50.9704049144
 20
235.5132564242
 30
0.0
 11
52.4034073031
 21
236.9462588129
 31
0.0
  0
LINE
  5
20E
330
202
100
AcDbEntity
  8
$DDT_AUDIT_GENERATED_(87)
  6
Continuous
 62
     7
100
AcDbLine
 10
50.4168611634
 20
137.1175676441
 30
0.0
 11
51.4685022635
 21
235.0151590752
 31
0.0
  0
LINE
  5
20F
330
202
100
AcDbEntity
  8
$DDT_AUDIT_GENERATED_(87)
  6
Continuous
 62
     7
100
AcDbLine
 10
13.2314977365
 20
235.0151590752
 30
0.0
 11
14.2831388366
 21
137.1175676442
 31
0.0
  0
LINE
  5
210
330
202
100
AcDbEntity
  8
$DDT_AUDIT_GENERATED_(87)
  6
Continuous
 62
     7
100
AcDbLine
 10
50.9704049144
 20
235.5132564242
 30
0.0
 11
13.7295950856
 21
235.5132564242
 31
0.0
  0
LINE
  5
211
330
202
100
AcDbEntity
  8
$DDT_AUDIT_GENERATED_(87)
  6
Continuous
 62
     7
100
AcDbLine
 10
53.8262215493
 20
195.4166299605
 30
0.0
 11
51.6289089112
 21
197.6139425998
 31
0.0
  0
LINE
  5
212
330
202
100
AcDbEntity
  8
$DDT_AUDIT_GENERATED_(87)
  6
Continuous
 62
     7
100
AcDbLine
 10
51.4085333574
 20
196.8381234543
 30
0.0
 11
53.3281242002
 21
194.9185326115
 31
0.0
  0
LINE
  5
213
330
202
100
AcDbEntity
  8
$DDT_AUDIT_GENERATED_(87)
  6
Continuous
 62
     7
100
AcDbLine
 10
11.3718757998
 20
194.9185326115
 30
0.0
 11
13.2914666464
 21
196.8381234581
 31
0.0
  0
LINE
  5
214
330
202
100
AcDbEntity
  8
$DDT_AUDIT_GENERATED_(87)
  6
Continuous
 62
     7
100
AcDbLine
 10
13.0710910888
 20
197.6139425996
 30
0.0
 11
10.8737784507
 21
195.4166299605
 31
0.0
  0
LINE
  5
215
330
202
100
AcDbEntity
  8
$DDT_AUDIT_GENERATED_(87)
  6
Continuous
 62
     7
100
AcDbLine
 10
20.85
 20
170.8641368
 30
0.0
 11
20.85
 21
152.0057465258
 31
0.0
  0
LINE
  5
216
330
202
100
AcDbEntity
  8
$DDT_AUDIT_GENERATED_(87)
  6
Continuous
 62
     7
100
AcDbLine
 10
43.85
 20
152.0057465258
 30
0.0
 11
43.85
 21
170.8641368
 31
0.0
  0
ARC
  5
217
330
202
100
AcDbEntity
  8
$DDT_AUDIT_GENERATED_(87)
  6
Continuous
 62
     7
100
AcDbCircle
 10
22.8425739316
 20
170.8566549631
 30
0.0
 40
1.992587978143954
100
AcDbArc
 50
174.4561749415
 51
179.7848633587
  0
ARC
  5
218
330
202
100
AcDbEntity
  8
$DDT_AUDIT_GENERATED_(87)
  6
Continuous
 62
     7
100
AcDbCircle
 10
41.8574260684
 20
170.8566549631
 30
0.0
 40
1.99258797814409
100
AcDbArc
 50
0.2151366413
 51
5.5438250589
  0
ARC
  5
219
330
202
100
AcDbEntity
  8
$DDT_AUDIT_GENERATED_(87)
  6
Continuous
 62
     7
100
AcDbCircle
 10
41.8574260684
 20
152.0132283627
 30
0.0
 40
1.992587978145288
100
AcDbArc
 50
353.054745559
 51
359.7848633587
  0
SPLINE
  5
21A
330
202
100
AcDbEntity
  8
$DDT_AUDIT_GENERATED_(87)
  6
Continuous
 62
     7
100
AcDbSpline
210
0.0
220
0.0
230
1.0
 70
     8
 71
     3
 72
     8
 73
     4
 74
     0
 42
0.0000000796307553
 43
0.0000000001
 40
0.0
 40
0.0
 40
0.0
 40
0.0
 40
0.1062913835563808
 40
0.1062913835563808
 40
0.1062913835563808
 40
0.1062913835563808
 10
20.85000000000027
 20
170.8641367999737
 30
0.0
 10
20.85000000000029
 20
170.8675280605256
 30
0.0
 10
20.84756478967477
 20
170.8709148817509
 30
0.0
 10
20.84284051943335
 20
170.8742542634775
 30
0.0
  0
SPLINE
  5
21B
330
202
100
AcDbEntity
  8
$DDT_AUDIT_GENERATED_(87)
  6
Continuous
 62
     7
100
AcDbSpline
210
0.0
220
0.0
230
1.0
 70
     8
 71
     3
 72
     8
 73
     4
 74
     0
 42
0.0000000796307553
 43
0.0000000001
 40
0.8937086163743484
 40
0.8937086163743484
 40
0.8937086163743484
 40
0.8937086163743484
 40
1.0
 40
1.0
 40
1.0
 40
1.0
 10
43.85715948058238
 20
170.8742542634827
 30
0.0
 10
43.85243521033335
 20
170.8709148817545
 30
0.0
 10
43.85000000000272
 20
170.8675280605274
 30
0.0
 10
43.85000000000027
 20
170.8641367999737
 30
0.0
  0
LINE
  5
21C
330
202
100
AcDbEntity
  8
$DDT_AUDIT_GENERATED_(87)
  6
Continuous
 62
     7
100
AcDbLine
 10
22.85
 20
150.0242521104
 30
0.0
 11
22.85
 21
150.0207716434
 31
0.0
  0
ARC
  5
21D
330
202
100
AcDbEntity
  8
$DDT_AUDIT_GENERATED_(87)
  6
Continuous
 62
     7
100
AcDbCircle
 10
22.8424070422
 20
170.4912150755
 30
0.0
 40
1.992420465657959
100
AcDbArc
 50
173.5139142906
 51
179.7896805615
  0
ARC
  5
21E
330
202
100
AcDbEntity
  8
$DDT_AUDIT_GENERATED_(87)
  6
Continuous
 62
     7
100
AcDbCircle
 10
41.8575929578
 20
170.4912150755
 30
0.0
 40
1.992420465657775
100
AcDbArc
 50
0.2103194385
 51
6.9408933035
  0
ELLIPSE
  5
21F
330
202
100
AcDbEntity
  8
$DDT_AUDIT_GENERATED_(87)
  6
Continuous
 62
     7
100
AcDbEllipse
 10
32.35
 20
235.9593753658
 30
0.0
 11
-3.250000000000035
 21
1.699538841808614E-30
 31
0.0
210
0.0
220
0.0
230
1.0
 40
0.0871590615
 41
0.0
 42
6.283185307179586
  0
LINE
  5
220
330
202
100
AcDbEntity
  8
$DDT_AUDIT_GENERATED_(87)
  6
Continuous
 62
     7
100
AcDbLine
 10
52.9116969115
 20
236.4583537232
 30
0.0
 11
51.4685022635
 21
235.0151590752
 31
0.0
  0
LINE
  5
221
330
202
100
AcDbEntity
  8
$DDT_AUDIT_GENERATED_(87)
  6
Continuous
 62
     7
100
AcDbLine
 10
12.2965926969
 20
236.9462588129
 30
0.0
 11
13.7295950856
 21
235.5132564242
 31
0.0
  0
ELLIPSE
  5
222
330
202
100
AcDbEntity
  8
$DDT_AUDIT_GENERATED_(87)
  6
Continuous
 62
     7
100
AcDbEllipse
 10
12.2882287081
 20
236.4565254526
 30
0.0
 11
0.4646057836809082
 21
0.1904787160994063
 31
0.0
210
0.0
220
0.0
230
1.0
 40
0.9710952386
 41
1.175177737602149
 42
2.738377867844873
  0
ELLIPSE
  5
223
330
202
100
AcDbEntity
  8
$DDT_AUDIT_GENERATED_(87)
  6
Continuous
 62
     7
100
AcDbEllipse
 10
52.4117712919
 20
236.4565254526
 30
0.0
 11
0.4646057836809256
 21
-0.1904787160995139
 31
0.0
210
0.0
220
0.0
230
1.0
 40
0.9710952386
 41
0.4032147857717833
 42
1.966414915962028
  0
ELLIPSE
  5
224
330
202
100
AcDbEntity
  8
$DDT_AUDIT_GENERATED_(87)
  6
Continuous
 62
     7
100
AcDbEllipse
 10
52.662648237
 20
236.4583537232
 30
0.0
 11
-0.2497727077950644
 21
-0.01065806928010268
 31
0.0
210
0.0
220
0.0
230
1.0
 40
0.4380490987
 41
3.044487404942972
 42
3.141592653589874
  0
LINE
  5
225
330
202
100
AcDbEntity
  8
$DDT_AUDIT_GENERATED_(87)
  6
Continuous
 62
     7
100
AcDbLine
 10
52.4034073031
 20
236.9472101384
 30
0.0
 11
52.4034073031
 21
236.9462588129
 31
0.0
  0
LINE
  5
226
330
202
100
AcDbEntity
  8
$DDT_AUDIT_GENERATED_(87)
  6
Continuous
 62
     7
100
AcDbLine
 10
12.2965926969
 20
236.9472101384
 30
0.0
 11
12.2965926969
 21
236.9462588129
 31
0.0
  0
ELLIPSE
  5
227
330
202
100
AcDbEntity
  8
$DDT_AUDIT_GENERATED_(87)
  6
Continuous
 62
     7
100
AcDbEllipse
 10
12.037351763
 20
236.4583537232
 30
0.0
 11
0.2497727077963723
 21
-0.01065806928155638
 31
0.0
210
0.0
220
0.0
230
1.0
 40
0.4380490987
 41
3.141592653589793
 42
3.238697902244287
  0
LINE
  5
228
330
202
100
AcDbEntity
  8
$DDT_AUDIT_GENERATED_(87)
  6
Continuous
 62
     7
100
AcDbLine
 10
53.8271728748
 20
195.4166299605
 30
0.0
 11
53.8271728747
 21
215.0263955424
 31
0.0
  0
LINE
  5
229
330
202
100
AcDbEntity
  8
$DDT_AUDIT_GENERATED_(87)
  6
Continuous
 62
     7
100
AcDbLine
 10
10.8728271253
 20
215.0263955424
 30
0.0
 11
10.8728271253
 21
195.4166299605
 31
0.0
  0
LINE
  5
22A
330
202
100
AcDbEntity
  8
$DDT_AUDIT_GENERATED_(87)
  6
Continuous
 62
     7
100
AcDbLine
 10
50.679244577
 20
136.7465887953
 30
0.0
 11
51.3001668504
 21
194.5484330386
 31
0.0
  0
LINE
  5
22B
330
202
100
AcDbEntity
  8
$DDT_AUDIT_GENERATED_(87)
  6
Continuous
 62
     7
100
AcDbLine
 10
13.3998331495
 20
194.5484330386
 30
0.0
 11
14.0207554233
 21
136.7465887953
 31
0.0
  0
LINE
  5
22C
330
202
100
AcDbEntity
  8
$DDT_AUDIT_GENERATED_(87)
  6
Continuous
 62
     7
100
AcDbLine
 10
14.5207265767
 20
136.251959614
 30
0.0
 11
50.1792734233
 21
136.2519596139
 31
0.0
  0
SPLINE
  5
22D
330
202
100
AcDbEntity
  8
$DDT_AUDIT_GENERATED_(87)
  6
Continuous
 62
     7
100
AcDbSpline
210
0.0
220
0.0
230
1.0
 70
     8
 71
     3
 72
     8
 73
     4
 74
     0
 42
0.000000003320342
 43
0.0000000001
 40
0.5307964543004731
 40
0.5307964543004731
 40
0.5307964543004731
 40
0.5307964543004731
 40
0.5367105445064377
 40
0.5367105445064377
 40
0.5367105445064377
 40
0.5367105445064377
 10
51.38561341927406
 20
196.6012740533272
 30
0.0
 10
51.38616651162568
 20
196.6072147540818
 30
0.0
 10
51.38672082973909
 20
196.6131269725562
 30
0.0
 10
51.38727573174882
 20
196.6190080017058
 30
0.0
  0
ARC
  5
22E
330
202
100
AcDbEntity
  8
$DDT_AUDIT_GENERATED_(87)
  6
Continuous
 62
     7
100
AcDbCircle
 10
50.1792734233
 20
136.751959614
 30
0.0
 40
0.5000000000002502
100
AcDbArc
 50
270.0
 51
359.3845376769
  0
ARC
  5
22F
330
202
100
AcDbEntity
  8
$DDT_AUDIT_GENERATED_(87)
  6
Continuous
 62
     7
100
AcDbCircle
 10
14.5207265767
 20
136.751959614
 30
0.0
 40
0.4999999999957719
100
AcDbArc
 50
180.6154623234
 51
270.0
  0
LINE
  5
230
330
202
100
AcDbEntity
  8
$DDT_AUDIT_GENERATED_(87)
  6
Continuous
 62
     7
100
AcDbLine
 10
11.3718757998
 20
194.917581286
 30
0.0
 11
13.3960811404
 21
194.917581286
 31
0.0
  0
LINE
  5
231
330
202
100
AcDbEntity
  8
$DDT_AUDIT_GENERATED_(87)
  6
Continuous
 62
     7
100
AcDbLine
 10
51.303918843
 20
194.917581286
 30
0.0
 11
53.3281242002
 21
194.917581286
 31
0.0
  0
ARC
  5
232
330
202
100
AcDbEntity
  8
$DDT_AUDIT_GENERATED_(87)
  6
Continuous
 62
     7
100
AcDbCircle
 10
53.3308968581
 20
195.4138573026
 30
0.0
 40
0.4937924447718198
100
AcDbArc
 50
291.8799195733
 51
338.1199429508
  0
ARC
  5
233
330
202
100
AcDbEntity
  8
$DDT_AUDIT_GENERATED_(87)
  6
Continuous
 62
     7
100
AcDbCircle
 10
11.3691031418
 20
195.4138573026
 30
0.0
 40
0.4937924447717168
100
AcDbArc
 50
201.8799194693
 51
248.1199431601
  0
LINE
  5
234
330
202
100
AcDbEntity
  8
$DDT_AUDIT_GENERATED_(87)
  6
Continuous
 62
     7
100
AcDbLine
 10
22.8475
 20
172.4798941489
 30
0.0
 11
41.8525
 21
172.4798941489
 31
0.0
  0
LINE
  5
235
330
202
100
AcDbEntity
  8
$DDT_AUDIT_GENERATED_(87)
  6
Continuous
 62
     7
100
AcDbLine
 10
41.8525
 20
150.0243811466
 30
0.0
 11
22.8475
 21
150.0243811467
 31
0.0
  0
ARC
  5
236
330
202
100
AcDbEntity
  8
$DDT_AUDIT_GENERATED_(87)
  6
Continuous
 62
     7
100
AcDbCircle
 10
22.8422899903
 20
170.4902742786
 30
0.0
 40
1.993017329276696
100
AcDbArc
 50
168.8520888059
 51
174.4110603104
  0
ARC
  5
237
330
202
100
AcDbEntity
  8
$DDT_AUDIT_GENERATED_(87)
  6
Continuous
 62
     7
100
AcDbCircle
 10
22.8422899903
 20
170.4902742786
 30
0.0
 40
1.993017329276696
100
AcDbArc
 50
89.232622953
 51
103.1573140395
  0
LINE
  5
238
330
202
100
AcDbEntity
  8
$DDT_AUDIT_GENERATED_(87)
  6
Continuous
 62
     7
100
AcDbLine
 10
43.8311619668
 20
170.7308261519
 30
0.0
 11
43.8412529705
 21
170.6843757917
 31
0.0
  0
ARC
  5
239
330
202
100
AcDbEntity
  8
$DDT_AUDIT_GENERATED_(87)
  6
Continuous
 62
     7
100
AcDbCircle
 10
41.8656244366
 20
170.5049408949
 30
0.0
 40
1.978474647800249
100
AcDbArc
 50
78.4447594358
 51
91.0022440296
  0
ARC
  5
23A
330
202
100
AcDbEntity
  8
$DDT_AUDIT_GENERATED_(87)
  6
Continuous
 62
     7
100
AcDbCircle
 10
41.8656244366
 20
170.5049408949
 30
0.0
 40
1.978474647800249
100
AcDbArc
 50
6.5558360556
 51
10.4894535996
  0
LINE
  5
23B
330
202
100
AcDbEntity
  8
$DDT_AUDIT_GENERATED_(87)
  6
Continuous
 62
     7
100
AcDbLine
 10
20.8415699975
 20
170.8565312375
 30
0.0
 11
20.8587470295
 21
171.0499838222
 31
0.0
  0
LINE
  5
23C
330
202
100
AcDbEntity
  8
$DDT_AUDIT_GENERATED_(87)
  6
Continuous
 62
     7
100
AcDbLine
 10
20.8685812957
 20
151.7629615265
 30
0.0
 11
20.8587470295
 21
151.8198995039
 31
0.0
  0
ARC
  5
23D
330
202
100
AcDbEntity
  8
$DDT_AUDIT_GENERATED_(87)
  6
Continuous
 62
     7
100
AcDbCircle
 10
22.8419100154
 20
152.0096688749
 30
0.0
 40
1.988690713015097
100
AcDbArc
 50
187.1261958581
 51
270.7799950426
  0
LINE
  5
23E
330
202
100
AcDbEntity
  8
$DDT_AUDIT_GENERATED_(87)
  6
Continuous
 62
     7
100
AcDbLine
 10
43.8412529705
 20
171.0499838222
 30
0.0
 11
43.8584300025
 21
170.8565312377
 31
0.0
  0
ARC
  5
23F
330
202
100
AcDbEntity
  8
$DDT_AUDIT_GENERATED_(87)
  6
Continuous
 62
     7
100
AcDbCircle
 10
41.8656244366
 20
151.9993344007
 30
0.0
 40
1.978474647800091
100
AcDbArc
 50
268.9977559704
 51
353.4441639444
  0
LINE
  5
240
330
202
100
AcDbEntity
  8
$DDT_AUDIT_GENERATED_(87)
  6
Continuous
 62
     7
100
AcDbLine
 10
43.8412529705
 20
151.8198995038
 30
0.0
 11
43.8311619668
 21
151.7734491437
 31
0.0
  0
ARC
  5
241
330
202
100
AcDbEntity
  8
$DDT_AUDIT_GENERATED_(87)
  6
Continuous
 62
     7
100
AcDbCircle
 10
53.5771728747
 20
215.0263955424
 30
0.0
 40
0.250000000000021
100
AcDbArc
 50
0.0000000001
 51
2.4433900797
  0
LINE
  5
242
330
202
100
AcDbEntity
  8
$DDT_AUDIT_GENERATED_(87)
  6
Continuous
 62
     7
100
AcDbLine
 10
53.8269455825
 20
215.0370536117
 30
0.0
 11
52.9124209448
 21
236.4690117925
 31
0.0
  0
LINE
  5
243
330
202
100
AcDbEntity
  8
$DDT_AUDIT_GENERATED_(87)
  6
Continuous
 62
     7
100
AcDbLine
 10
52.4034073031
 20
236.9472101384
 30
0.0
 11
12.2965926969
 21
236.9472101384
 31
0.0
  0
LINE
  5
244
330
202
100
AcDbEntity
  8
$DDT_AUDIT_GENERATED_(87)
  6
Continuous
 62
     7
100
AcDbLine
 10
11.7875790552
 20
236.4690117925
 30
0.0
 11
10.8730544175
 21
215.0370536117
 31
0.0
  0
ARC
  5
245
330
202
100
AcDbEntity
  8
$DDT_AUDIT_GENERATED_(87)
  6
Continuous
 62
     7
100
AcDbCircle
 10
11.1228271253
 20
215.0263955424
 30
0.0
 40
0.2499999999931152
100
AcDbArc
 50
177.5566099195
 51
180.0
  0
LINE
  5
246
330
202
100
AcDbEntity
  8
$DDT_AUDIT_GENERATED_(B5)
  6
Continuous
 62
     7
100
AcDbLine
 10
56.75
 20
190.35
 30
0.0
 11
53.85
 21
190.35
 31
0.0
  0
LINE
  5
247
330
202
100
AcDbEntity
  8
$DDT_AUDIT_GENERATED_(B5)
  6
Continuous
 62
     7
100
AcDbLine
 10
10.85
 20
190.35
 30
0.0
 11
7.95
 21
190.35
 31
0.0
  0
ARC
  5
248
330
202
100
AcDbEntity
  8
$DDT_AUDIT_GENERATED_(B5)
  6
Continuous
 62
     7
100
AcDbCircle
 10
7.95
 20
191.95
 30
0.0
 40
1.600000000000001
100
AcDbArc
 50
180.0
 51
270.0
  0
ARC
  5
249
330
202
100
AcDbEntity
  8
$DDT_AUDIT_GENERATED_(B5)
  6
Continuous
 62
     7
100
AcDbCircle
 10
56.75
 20
191.95
 30
0.0
 40
1.600000000000001
100
AcDbArc
 50
270.0
 51
0.0
  0
LINE
  5
24A
330
202
100
AcDbEntity
  8
$DDT_AUDIT_GENERATED_(B5)
  6
Continuous
 62
     7
100
AcDbLine
 10
6.35
 20
191.95
 30
0.0
 11
6.35
 21
240.75
 31
0.0
  0
LINE
  5
24B
330
202
100
AcDbEntity
  8
$DDT_AUDIT_GENERATED_(B5)
  6
Continuous
 62
     7
100
AcDbLine
 10
58.35
 20
240.75
 30
0.0
 11
58.35
 21
191.95
 31
0.0
  0
ARC
  5
24C
330
202
100
AcDbEntity
  8
$DDT_AUDIT_GENERATED_(B5)
  6
Continuous
 62
     7
100
AcDbCircle
 10
7.95
 20
240.75
 30
0.0
 40
1.599999999999997
100
AcDbArc
 50
90.0
 51
180.0
  0
ARC
  5
24D
330
202
100
AcDbEntity
  8
$DDT_AUDIT_GENERATED_(B5)
  6
Continuous
 62
     7
100
AcDbCircle
 10
56.75
 20
240.75
 30
0.0
 40
1.600000000000001
100
AcDbArc
 50
0.0
 51
90.0
  0
LINE
  5
24E
330
202
100
AcDbEntity
  8
$DDT_AUDIT_GENERATED_(B5)
  6
Continuous
 62
     7
100
AcDbLine
 10
7.95
 20
242.35
 30
0.0
 11
31.6
 21
242.35
 31
0.0
  0
LINE
  5
24F
330
202
100
AcDbEntity
  8
$DDT_AUDIT_GENERATED_(B5)
  6
Continuous
 62
     7
100
AcDbLine
 10
33.1
 20
242.35
 30
0.0
 11
56.75
 21
242.35
 31
0.0
  0
LINE
  5
250
330
202
100
AcDbEntity
  8
01161038_BUEGEL_
  6
Continuous
 62
     7
100
AcDbLine
 10
35.9061191337
 20
241.35
 30
0.0
 11
33.1
 21
241.35
 31
0.0
  0
LINE
  5
251
330
202
100
AcDbEntity
  8
01161038_BUEGEL_
  6
Continuous
 62
     7
100
AcDbLine
 10
33.1
 20
239.35
 30
0.0
 11
35.9061191337
 21
239.35
 31
0.0
  0
ARC
  5
252
330
202
100
AcDbEntity
  8
01161038_BUEGEL_
  6
Continuous
 62
     7
100
AcDbCircle
 10
37.4061275119
 20
240.35
 30
0.0
 40
1.000000000000001
100
AcDbArc
 50
270.0
 51
90.0
  0
LINE
  5
253
330
202
100
AcDbEntity
  8
01161038_BUEGEL_
  6
Continuous
 62
     7
100
AcDbLine
 10
35.9061191337
 20
239.35
 30
0.0
 11
37.4061275119
 21
239.35
 31
0.0
  0
LINE
  5
254
330
202
100
AcDbEntity
  8
01161038_BUEGEL_
  6
Continuous
 62
     7
100
AcDbLine
 10
37.4061275119
 20
241.35
 30
0.0
 11
35.9061191337
 21
241.35
 31
0.0
  0
ARC
  5
255
330
202
100
AcDbEntity
  8
01161038_BUEGEL_
  6
Continuous
 62
     7
100
AcDbCircle
 10
27.2938875862
 20
240.35
 30
0.0
 40
1.000000000000001
100
AcDbArc
 50
90.0
 51
270.0
  0
LINE
  5
256
330
202
100
AcDbEntity
  8
01161038_BUEGEL_
  6
Continuous
 62
     7
100
AcDbLine
 10
27.2938875862
 20
239.35
 30
0.0
 11
28.7938949526
 21
239.35
 31
0.0
  0
LINE
  5
257
330
202
100
AcDbEntity
  8
01161038_BUEGEL_
  6
Continuous
 62
     7
100
AcDbLine
 10
28.7938949526
 20
241.35
 30
0.0
 11
27.2938875862
 21
241.35
 31
0.0
  0
LINE
  5
258
330
202
100
AcDbEntity
  8
01161038_BUEGEL_
  6
Continuous
 62
     7
100
AcDbLine
 10
31.6
 20
241.35
 30
0.0
 11
28.7938949526
 21
241.35
 31
0.0
  0
LINE
  5
259
330
202
100
AcDbEntity
  8
01161038_BUEGEL_
  6
Continuous
 62
     7
100
AcDbLine
 10
28.7938949526
 20
239.35
 30
0.0
 11
31.6
 21
239.35
 31
0.0
  0
ELLIPSE
  5
25A
330
202
100
AcDbEntity
  8
$DDT_AUDIT_GENERATED_(1E2)
  6
Continuous
 62
     7
100
AcDbEllipse
 10
32.35
 20
239.9677701792
 30
0.0
 11
-2.399994780943936
 21
-1.040834085586084E-14
 31
0.0
210
0.0
220
0.0
230
1.0
 40
0.9659258263
 41
3.780410678432772
 42
4.394564561062078
  0
ELLIPSE
  5
25B
330
202
100
AcDbEntity
  8
$DDT_AUDIT_GENERATED_(1E2)
  6
Continuous
 62
     7
100
AcDbEllipse
 10
32.35
 20
239.9677701792
 30
0.0
 11
-2.399994780943936
 21
-1.040834085586084E-14
 31
0.0
210
0.0
220
0.0
230
1.0
 40
0.9659258263
 41
1.989703321567593
 42
2.871848283528577
  0
ELLIPSE
  5
25C
330
202
100
AcDbEntity
  8
$DDT_AUDIT_GENERATED_(1E2)
  6
Continuous
 62
     7
100
AcDbEllipse
 10
32.35
 20
239.9677701792
 30
0.0
 11
2.399994780943933
 21
-3.122502256758253E-14
 31
0.0
210
0.0
220
0.0
230
1.0
 40
0.9659258263
 41
3.411337023651013
 42
4.293481985612006
  0
ELLIPSE
  5
25D
330
202
100
AcDbEntity
  8
$DDT_AUDIT_GENERATED_(1E2)
  6
Continuous
 62
     7
100
AcDbEllipse
 10
32.35
 20
239.9677701792
 30
0.0
 11
2.399994780943933
 21
-3.122502256758253E-14
 31
0.0
210
0.0
220
0.0
230
1.0
 40
0.9659258263
 41
1.88862074611751
 42
2.502774628746822
  0
ARC
  5
25E
330
202
100
AcDbEntity
  8
$DDT_AUDIT_GENERATED_(1E2)
  6
Continuous
 62
     7
100
AcDbCircle
 10
32.8813218034
 20
241.0376104703
 30
0.0
 40
2.757665866974726
100
AcDbArc
 50
251.3618821952
 51
258.8913073443
  0
ARC
  5
25F
330
202
100
AcDbEntity
  8
$DDT_AUDIT_GENERATED_(1E2)
  6
Continuous
 62
     7
100
AcDbCircle
 10
31.8547533383
 20
237.9882530806
 30
0.0
 40
0.4598553839813074
100
AcDbArc
 50
71.5876890729
 51
80.5822991085
  0
LINE
  5
260
330
202
100
AcDbEntity
  8
$DDT_AUDIT_GENERATED_(1E2)
  6
Continuous
 62
     7
100
AcDbLine
 10
31.6
 20
241.8995169104
 30
0.0
 11
31.6
 21
242.614549369
 31
0.0
  0
LINE
  5
261
330
202
100
AcDbEntity
  8
$DDT_AUDIT_GENERATED_(1E2)
  6
Continuous
 62
     7
100
AcDbLine
 10
31.6
 20
239.8995205658
 30
0.0
 11
31.6
 21
241.8995169104
 31
0.0
  0
LINE
  5
262
330
202
100
AcDbEntity
  8
$DDT_AUDIT_GENERATED_(1E2)
  6
Continuous
 62
     7
100
AcDbLine
 10
31.6
 20
238.8104471038
 30
0.0
 11
31.6
 21
239.8995205658
 31
0.0
  0
LINE
  5
263
330
202
100
AcDbEntity
  8
$DDT_AUDIT_GENERATED_(1E2)
  6
Continuous
 62
     7
100
AcDbLine
 10
31.6
 20
238.0657351443
 30
0.0
 11
31.6
 21
238.8104471038
 31
0.0
  0
ELLIPSE
  5
264
330
202
100
AcDbEntity
  8
$DDT_AUDIT_GENERATED_(1E2)
  6
Continuous
 62
     7
100
AcDbEllipse
 10
32.0
 20
238.0657351443
 30
0.0
 11
0.4000000000000034
 21
1.006139616066548E-13
 31
0.0
210
0.0
220
0.0
230
1.0
 40
0.9659258263
 41
3.141592653589827
 42
3.734004664416784
  0
ARC
  5
265
330
202
100
AcDbEntity
  8
$DDT_AUDIT_GENERATED_(1E2)
  6
Continuous
 62
     7
100
AcDbCircle
 10
31.9824847855
 20
238.8209217985
 30
0.0
 40
0.3826281881842893
100
AcDbArc
 50
181.5687050953
 51
262.1159019643
  0
LINE
  5
266
330
202
100
AcDbEntity
  8
$DDT_AUDIT_GENERATED_(1E2)
  6
Continuous
 62
     7
100
AcDbLine
 10
33.1
 20
242.614549369
 30
0.0
 11
33.1
 21
241.8995169104
 31
0.0
  0
LINE
  5
267
330
202
100
AcDbEntity
  8
$DDT_AUDIT_GENERATED_(1E2)
  6
Continuous
 62
     7
100
AcDbLine
 10
33.1
 20
241.8995169104
 30
0.0
 11
33.1
 21
239.8995205658
 31
0.0
  0
LINE
  5
268
330
202
100
AcDbEntity
  8
$DDT_AUDIT_GENERATED_(1E2)
  6
Continuous
 62
     7
100
AcDbLine
 10
33.1
 20
239.8995205658
 30
0.0
 11
33.1
 21
238.8104471038
 31
0.0
  0
LINE
  5
269
330
202
100
AcDbEntity
  8
$DDT_AUDIT_GENERATED_(1E2)
  6
Continuous
 62
     7
100
AcDbLine
 10
33.1
 20
238.8104471038
 30
0.0
 11
33.1
 21
238.0657351443
 31
0.0
  0
ARC
  5
26A
330
202
100
AcDbEntity
  8
$DDT_AUDIT_GENERATED_(1E2)
  6
Continuous
 62
     7
100
AcDbCircle
 10
31.818732076
 20
241.0374075978
 30
0.0
 40
2.757456414637957
100
AcDbArc
 50
281.1084062813
 51
288.6384041791
  0
ARC
  5
26B
330
202
100
AcDbEntity
  8
$DDT_AUDIT_GENERATED_(1E2)
  6
Continuous
 62
     7
100
AcDbCircle
 10
32.8450953433
 20
237.988863844
 30
0.0
 40
0.4592280949137897
100
AcDbArc
 50
99.4115450611
 51
108.4184667575
  0
ELLIPSE
  5
26C
330
202
100
AcDbEntity
  8
$DDT_AUDIT_GENERATED_(1E2)
  6
Continuous
 62
     7
100
AcDbEllipse
 10
32.7
 20
238.0657351443
 30
0.0
 11
0.399999999999999
 21
-1.040834085586084E-14
 31
0.0
210
0.0
220
0.0
230
1.0
 40
0.9659258263
 41
5.690773296352425
 42
6.283185307179586
  0
ARC
  5
26D
330
202
100
AcDbEntity
  8
$DDT_AUDIT_GENERATED_(1E2)
  6
Continuous
 62
     7
100
AcDbCircle
 10
32.7175152145
 20
238.8209217985
 30
0.0
 40
0.3826281881842912
100
AcDbArc
 50
277.8840980357
 51
358.4312949047
  0
ARC
  5
26E
330
202
100
AcDbEntity
  8
$DDT_AUDIT_GENERATED_(1E2)
  6
Continuous
 62
     7
100
AcDbCircle
 10
32.3500269397
 20
239.3516147055
 30
0.0
 40
2.395366104190898
100
AcDbArc
 50
179.8428216023
 51
218.7843311944
  0
ARC
  5
26F
330
202
100
AcDbEntity
  8
$DDT_AUDIT_GENERATED_(1E2)
  6
Continuous
 62
     7
100
AcDbCircle
 10
32.3500269397
 20
239.3516147055
 30
0.0
 40
2.395366104190898
100
AcDbArc
 50
321.1919820202
 51
0.096716773
  0
LINE
  5
270
330
202
100
AcDbEntity
  8
$DDT_AUDIT_GENERATED_(1E2)
  6
Continuous
 62
     7
100
AcDbLine
 10
32.7
 20
243.014549369
 30
0.0
 11
32.0
 21
243.014549369
 31
0.0
  0
ARC
  5
271
330
202
100
AcDbEntity
  8
$DDT_AUDIT_GENERATED_(1E2)
  6
Continuous
 62
     7
100
AcDbCircle
 10
32.0
 20
242.614549369
 30
0.0
 40
0.400000000000001
100
AcDbArc
 50
90.0
 51
180.0
  0
ARC
  5
272
330
202
100
AcDbEntity
  8
$DDT_AUDIT_GENERATED_(1E2)
  6
Continuous
 62
     7
100
AcDbCircle
 10
32.7
 20
242.614549369
 30
0.0
 40
0.4000000000000001
100
AcDbArc
 50
0.0
 51
90.0
  0
ENDBLK
  5
274
330
202
100
AcDbEntity
  8
0
100
AcDbBlockEnd
  0
ENDSEC
  0
SECTION
  2
ENTITIES
  0
INSERT
  5
5F
330
1F
100
AcDbEntity
  8
Default
100
AcDbBlockReference
  2
SEANNOT_GROUP
 10
0.0
 20
0.0
 30
0.0
  0
INSERT
  5
66
330
1F
100
AcDbEntity
  8
Default
100
AcDbBlockReference
  2
SEANNOT_GROUP1
 10
0.0
 20
0.0
 30
0.0
  0
LINE
  5
6B
330
1F
100
AcDbEntity
  8
Default
  6
Continuous
 62
     7
100
AcDbLine
 10
27.0127765171
 20
216.35
 30
0.0
 11
37.6872234829
 21
216.35
 31
0.0
  0
INSERT
  5
6D
330
1F
100
AcDbEntity
  8
Default
100
AcDbBlockReference
  2
SEANNOT_GROUP2
 10
0.0
 20
0.0
 30
0.0
  0
INSERT
  5
73
330
1F
100
AcDbEntity
  8
Default
100
AcDbBlockReference
  2
SE
 10
0.0
 20
0.0
 30
0.0
  0
INSERT
  5
19A
330
1F
100
AcDbEntity
  8
Default
100
AcDbBlockReference
  2
SE1
 10
0.0
 20
0.0
 30
0.0
  0
INSERT
  5
203
330
1F
100
AcDbEntity
  8
Default
100
AcDbBlockReference
  2
SE2
 10
0.0
 20
0.0
 30
0.0
  0
TEXT
  5
276
330
1F
100
AcDbEntity
  8
Default
  6
Continuous
 62
     7
100
AcDbText
 10
5.9362635081
 20
53.4225120485
 30
0.0
 40
10.0
  1
Grohe AG^J
  7
SEACAD_seiso_ttf
 11
5.9362635081
 21
63.4225120485
 31
0.0
100
AcDbText
 73
     3
  0
TEXT
  5
277
330
1F
100
AcDbEntity
  8
Default
  6
Continuous
 62
     7
100
AcDbText
 10
5.9362635081
 20
37.0588756849
 30
0.0
 40
10.0
  1
 
  7
SEACAD_seiso_ttf
 11
5.9362635081
 21
47.0588756849
 31
0.0
100
AcDbText
 73
     3
  0
TEXT
  5
278
330
1F
100
AcDbEntity
  8
Default
  6
Continuous
 62
     7
100
AcDbText
 10
5.9362635081
 20
20.6952393213
 30
0.0
 40
10.0
  1
ecn: 
  7
SEACAD_seiso_ttf
 11
5.9362635081
 21
30.6952393213
 31
0.0
100
AcDbText
 73
     3
  0
TEXT
  5
279
330
1F
100
AcDbEntity
  8
Default
  6
Continuous
 62
     7
100
AcDbText
 10
5.9362635081
 20
4.3316029576
 30
0.0
 40
10.0
  1
unit: mm
  7
SEACAD_seiso_ttf
 11
5.9362635081
 21
14.3316029576
 31
0.0
100
AcDbText
 73
     3
  0
LINE
  5
27A
330
1F
100
AcDbEntity
  8
Default
  6
Continuous
 62
     7
100
AcDbLine
 10
0.0
 20
0.0
 30
0.0
 11
100.0
 21
0.0
 31
0.0
  0
LINE
  5
27B
330
1F
100
AcDbEntity
  8
Default
  6
Continuous
 62
     7
100
AcDbLine
 10
0.0
 20
0.0
 30
0.0
 11
0.0
 21
100.0
 31
0.0
  0
TEXT
  5
27C
330
1F
100
AcDbEntity
  8
Default
  6
Continuous
 62
     7
100
AcDbText
 10
24.3923665681
 20
-18.2375342018
 30
0.0
 40
10.0
  1
100 mm
  7
SEACAD_seiso_ttf
 11
24.3923665681
 21
-8.2375342018
 31
0.0
100
AcDbText
 73
     3
  0
TEXT
  5
27D
330
1F
100
AcDbEntity
  8
Default
  6
Continuous
 62
     7
100
AcDbText
 10
-7.6150308803
 20
24.6231930421
 30
0.0
 40
10.0
  1
100 mm
 50
90.0
  7
SEACAD_seiso_ttf
 11
-17.6150308803
 21
24.6231930421
 31
0.0
100
AcDbText
 73
     3
  0
TEXT
  5
27E
330
1F
100
AcDbEntity
  8
Default
  6
Continuous
 62
     7
100
AcDbText
 10
28.4878128572
 20
20.0907663715
 30
0.0
 40
10.0
  1
220538
  7
SEACAD_seiso_ttf
 11
28.4878128572
 21
30.0907663715
 31
0.0
100
AcDbText
 73
     3
  0
TEXT
  5
27F
330
1F
100
AcDbEntity
  8
Default
  6
Continuous
 62
     7
100
AcDbText
 10
5.9012241913
 20
36.7242780188
 30
0.0
 40
10.0
  1
23131000
  7
SEACAD_seiso_ttf
 11
5.9012241913
 21
46.7242780188
 31
0.0
100
AcDbText
 73
     3
  0
ENDSEC
  0
SECTION
  2
OBJECTS
  0
DICTIONARY
  5
C
330
0
100
AcDbDictionary
281
     1
  3
ACAD_GROUP
350
D
  3
ACAD_LAYOUT
350
1A
  3
ACAD_MLEADERSTYLE
350
283
  3
ACAD_MLINESTYLE
350
17
  3
ACAD_PLOTSETTINGS
350
19
  3
ACAD_PLOTSTYLENAME
350
E
  3
ACAD_SCALELIST
350
3B
  3
ACAD_TABLESTYLE
350
282
  3
ACAD_VISUALSTYLE
350
2A
  3
AcDbVariableDictionary
350
280
  0
DICTIONARY
  5
D
102
{ACAD_REACTORS
330
C
102
}
330
C
100
AcDbDictionary
281
     1
  0
DICTIONARY
  5
1A
102
{ACAD_REACTORS
330
C
102
}
330
C
100
AcDbDictionary
281
     1
  3
Layout1
350
1E
  3
Model
350
22
  0
DICTIONARY
  5
283
102
{ACAD_REACTORS
330
C
102
}
330
C
100
AcDbDictionary
281
     1
  0
DICTIONARY
  5
17
102
{ACAD_REACTORS
330
C
102
}
330
C
100
AcDbDictionary
281
     1
  3
Standard
350
18
  0
DICTIONARY
  5
19
102
{ACAD_REACTORS
330
C
102
}
330
C
100
AcDbDictionary
281
     1
  0
ACDBDICTIONARYWDFLT
  5
E
102
{ACAD_REACTORS
330
C
102
}
330
C
100
AcDbDictionary
281
     1
  3
Normal
350
F
100
AcDbDictionaryWithDefault
340
F
  0
DICTIONARY
  5
3B
102
{ACAD_REACTORS
330
C
102
}
330
C
100
AcDbDictionary
281
     1
  3
A0
350
3C
  3
A1
350
3D
  3
A2
350
3E
  3
A3
350
3F
  3
A4
350
40
  3
A5
350
41
  3
A6
350
42
  3
A7
350
43
  3
A8
350
44
  3
A9
350
45
  3
B0
350
46
  3
B1
350
47
  3
B2
350
48
  3
B3
350
49
  3
B4
350
4A
  3
B5
350
4B
  3
B6
350
4C
  3
B7
350
4D
  3
B8
350
4E
  3
B9
350
4F
  3
C0
350
50
  3
C1
350
51
  3
C2
350
52
  3
C3
350
53
  3
C4
350
54
  3
C5
350
55
  3
C6
350
56
  3
C7
350
57
  3
C8
350
58
  3
C9
350
59
  3
D0
350
5A
  3
D1
350
5B
  3
D2
350
5C
  0
DICTIONARY
  5
282
102
{ACAD_REACTORS
330
C
102
}
330
C
100
AcDbDictionary
281
     1
  0
DICTIONARY
  5
2A
102
{ACAD_REACTORS
330
C
102
}
330
C
100
AcDbDictionary
281
     1
  3
2dWireframe
350
2F
  3
3D Hidden
350
31
  3
3dWireframe
350
30
  3
Basic
350
32
  3
Brighten
350
36
  3
ColorChange
350
3A
  3
Conceptual
350
34
  3
Dim
350
35
  3
Facepattern
350
39
  3
Flat
350
2B
  3
FlatWithEdges
350
2C
  3
Gouraud
350
2D
  3
GouraudWithEdges
350
2E
  3
Linepattern
350
38
  3
Realistic
350
33
  3
Thicken
350
37
  0
DICTIONARY
  5
280
102
{ACAD_REACTORS
330
C
102
}
330
C
100
AcDbDictionary
281
     1
  3
CANNOSCALE
350
281
  3
PSOLHEIGHT
350
285
  3
PSOLWIDTH
350
284
  0
LAYOUT
  5
1E
102
{ACAD_REACTORS
330
1A
102
}
330
1A
100
AcDbPlotSettings
  1

  2
none_device
  4

  6

 40
0.0
 41
0.0
 42
0.0
 43
0.0
 44
0.0
 45
0.0
 46
0.0
 47
0.0
 48
0.0
 49
0.0
140
0.0
141
0.0
142
1.0
143
1.0
 70
   688
 72
     0
 73
     0
 74
     5
  7

 75
    16
147
1.0
148
0.0
149
0.0
100
AcDbLayout
  1
Layout1
 70
     1
 71
     1
 10
0.0
 20
0.0
 11
1682.0
 21
2378.0
 12
0.0
 22
0.0
 32
0.0
 14
0.0
 24
0.0
 34
0.0
 15
1682.0
 25
2378.0
 35
0.0
146
0.0
 13
0.0
 23
0.0
 33
0.0
 16
1.0
 26
0.0
 36
0.0
 17
0.0
 27
1.0
 37
0.0
 76
     0
330
1B
  0
LAYOUT
  5
22
102
{ACAD_REACTORS
330
1A
102
}
330
1A
100
AcDbPlotSettings
  1

  2
none_device
  4

  6

 40
0.0
 41
0.0
 42
0.0
 43
0.0
 44
0.0
 45
0.0
 46
0.0
 47
0.0
 48
0.0
 49
0.0
140
0.0
141
0.0
142
1.0
143
1.0
 70
  1712
 72
     0
 73
     0
 74
     0
  7

 75
     0
147
1.0
148
0.0
149
0.0
100
AcDbLayout
  1
Model
 70
     1
 71
     0
 10
0.0
 20
0.0
 11
1682.0
 21
2378.0
 12
0.0
 22
0.0
 32
0.0
 14
0.0
 24
0.0
 34
0.0
 15
1682.0
 25
2378.0
 35
0.0
146
0.0
 13
0.0
 23
0.0
 33
0.0
 16
1.0
 26
0.0
 36
0.0
 17
0.0
 27
1.0
 37
0.0
 76
     0
330
1F
331
29
  0
MLINESTYLE
  5
18
102
{ACAD_REACTORS
330
17
102
}
330
17
100
AcDbMlineStyle
  2
Standard
 70
     0
  3

 62
   256
 51
90.0
 52
90.0
 71
     2
 49
0.5
 62
   256
  6
BYLAYER
 49
-0.5
 62
   256
  6
BYLAYER
  0
ACDBPLACEHOLDER
  5
F
102
{ACAD_REACTORS
330
E
102
}
330
E
  0
SCALE
  5
3C
102
{ACAD_REACTORS
330
3B
102
}
330
3B
100
AcDbScale
 70
     0
300
1:1
140
1.0
141
1.0
290
     1
  0
SCALE
  5
3D
102
{ACAD_REACTORS
330
3B
102
}
330
3B
100
AcDbScale
 70
     0
300
1:2
140
1.0
141
2.0
290
     0
  0
SCALE
  5
3E
102
{ACAD_REACTORS
330
3B
102
}
330
3B
100
AcDbScale
 70
     0
300
1:4
140
1.0
141
4.0
290
     0
  0
SCALE
  5
3F
102
{ACAD_REACTORS
330
3B
102
}
330
3B
100
AcDbScale
 70
     0
300
1:5
140
1.0
141
5.0
290
     0
  0
SCALE
  5
40
102
{ACAD_REACTORS
330
3B
102
}
330
3B
100
AcDbScale
 70
     0
300
1:8
140
1.0
141
8.0
290
     0
  0
SCALE
  5
41
102
{ACAD_REACTORS
330
3B
102
}
330
3B
100
AcDbScale
 70
     0
300
1:10
140
1.0
141
10.0
290
     0
  0
SCALE
  5
42
102
{ACAD_REACTORS
330
3B
102
}
330
3B
100
AcDbScale
 70
     0
300
1:16
140
1.0
141
16.0
290
     0
  0
SCALE
  5
43
102
{ACAD_REACTORS
330
3B
102
}
330
3B
100
AcDbScale
 70
     0
300
1:20
140
1.0
141
20.0
290
     0
  0
SCALE
  5
44
102
{ACAD_REACTORS
330
3B
102
}
330
3B
100
AcDbScale
 70
     0
300
1:30
140
1.0
141
30.0
290
     0
  0
SCALE
  5
45
102
{ACAD_REACTORS
330
3B
102
}
330
3B
100
AcDbScale
 70
     0
300
1:40
140
1.0
141
40.0
290
     0
  0
SCALE
  5
46
102
{ACAD_REACTORS
330
3B
102
}
330
3B
100
AcDbScale
 70
     0
300
1:50
140
1.0
141
50.0
290
     0
  0
SCALE
  5
47
102
{ACAD_REACTORS
330
3B
102
}
330
3B
100
AcDbScale
 70
     0
300
1:100
140
1.0
141
100.0
290
     0
  0
SCALE
  5
48
102
{ACAD_REACTORS
330
3B
102
}
330
3B
100
AcDbScale
 70
     0
300
2:1
140
2.0
141
1.0
290
     0
  0
SCALE
  5
49
102
{ACAD_REACTORS
330
3B
102
}
330
3B
100
AcDbScale
 70
     0
300
4:1
140
4.0
141
1.0
290
     0
  0
SCALE
  5
4A
102
{ACAD_REACTORS
330
3B
102
}
330
3B
100
AcDbScale
 70
     0
300
8:1
140
8.0
141
1.0
290
     0
  0
SCALE
  5
4B
102
{ACAD_REACTORS
330
3B
102
}
330
3B
100
AcDbScale
 70
     0
300
10:1
140
10.0
141
1.0
290
     0
  0
SCALE
  5
4C
102
{ACAD_REACTORS
330
3B
102
}
330
3B
100
AcDbScale
 70
     0
300
100:1
140
100.0
141
1.0
290
     0
  0
SCALE
  5
4D
102
{ACAD_REACTORS
330
3B
102
}
330
3B
100
AcDbScale
 70
     0
300
1/128" = 1'-0"
140
0.0078125
141
12.0
290
     0
  0
SCALE
  5
4E
102
{ACAD_REACTORS
330
3B
102
}
330
3B
100
AcDbScale
 70
     0
300
1/64" = 1'-0"
140
0.015625
141
12.0
290
     0
  0
SCALE
  5
4F
102
{ACAD_REACTORS
330
3B
102
}
330
3B
100
AcDbScale
 70
     0
300
1/32" = 1'-0"
140
0.03125
141
12.0
290
     0
  0
SCALE
  5
50
102
{ACAD_REACTORS
330
3B
102
}
330
3B
100
AcDbScale
 70
     0
300
1/16" = 1'-0"
140
0.0625
141
12.0
290
     0
  0
SCALE
  5
51
102
{ACAD_REACTORS
330
3B
102
}
330
3B
100
AcDbScale
 70
     0
300
3/32" = 1'-0"
140
0.09375
141
12.0
290
     0
  0
SCALE
  5
52
102
{ACAD_REACTORS
330
3B
102
}
330
3B
100
AcDbScale
 70
     0
300
1/8" = 1'-0"
140
0.125
141
12.0
290
     0
  0
SCALE
  5
53
102
{ACAD_REACTORS
330
3B
102
}
330
3B
100
AcDbScale
 70
     0
300
3/16" = 1'-0"
140
0.1875
141
12.0
290
     0
  0
SCALE
  5
54
102
{ACAD_REACTORS
330
3B
102
}
330
3B
100
AcDbScale
 70
     0
300
1/4" = 1'-0"
140
0.25
141
12.0
290
     0
  0
SCALE
  5
55
102
{ACAD_REACTORS
330
3B
102
}
330
3B
100
AcDbScale
 70
     0
300
3/8" = 1'-0"
140
0.375
141
12.0
290
     0
  0
SCALE
  5
56
102
{ACAD_REACTORS
330
3B
102
}
330
3B
100
AcDbScale
 70
     0
300
1/2" = 1'-0"
140
0.5
141
12.0
290
     0
  0
SCALE
  5
57
102
{ACAD_REACTORS
330
3B
102
}
330
3B
100
AcDbScale
 70
     0
300
3/4" = 1'-0"
140
0.75
141
12.0
290
     0
  0
SCALE
  5
58
102
{ACAD_REACTORS
330
3B
102
}
330
3B
100
AcDbScale
 70
     0
300
1" = 1'-0"
140
1.0
141
12.0
290
     0
  0
SCALE
  5
59
102
{ACAD_REACTORS
330
3B
102
}
330
3B
100
AcDbScale
 70
     0
300
1-1/2" = 1'-0"
140
1.5
141
12.0
290
     0
  0
SCALE
  5
5A
102
{ACAD_REACTORS
330
3B
102
}
330
3B
100
AcDbScale
 70
     0
300
3" = 1'-0"
140
3.0
141
12.0
290
     0
  0
SCALE
  5
5B
102
{ACAD_REACTORS
330
3B
102
}
330
3B
100
AcDbScale
 70
     0
300
6" = 1'-0"
140
6.0
141
12.0
290
     0
  0
SCALE
  5
5C
102
{ACAD_REACTORS
330
3B
102
}
330
3B
100
AcDbScale
 70
     0
300
1'-0" = 1'-0"
140
12.0
141
12.0
290
     0
  0
VISUALSTYLE
  5
2F
102
{ACAD_REACTORS
330
2A
102
}
330
2A
100
AcDbVisualStyle
  2
2dWireframe
 70
     4
 71
     0
 72
     2
 73
     0
 90
        0
 40
-0.6
 41
-30.0
 62
     5
 63
     7
 74
     1
 91
        4
 64
     7
 65
   257
 75
     1
175
     1
 42
1.0
 92
        0
 66
   257
 43
1.0
 76
     1
 77
     6
 78
     2
 67
     7
 79
     5
170
     0
171
     0
290
     0
174
     0
 93
        1
 44
0.0
173
     0
291
     0
 45
0.0
1001
ACAD
1000
AcDbSavedByObjectVersion
1070
     0
  0
VISUALSTYLE
  5
31
102
{ACAD_REACTORS
330
2A
102
}
330
2A
100
AcDbVisualStyle
  2
3D Hidden
 70
     6
 71
     1
 72
     2
 73
     2
 90
        0
 40
-0.6
 41
-30.0
 62
     5
 63
     7
 74
     2
 91
        2
 64
     7
 65
   257
 75
     2
175
     1
 42
40.0
 92
        0
 66
   257
 43
1.0
 76
     1
 77
     6
 78
     2
 67
     7
 79
     3
170
     0
171
     0
290
     0
174
     0
 93
        1
 44
0.0
173
     0
291
     0
 45
0.0
1001
ACAD
1000
AcDbSavedByObjectVersion
1070
     0
  0
VISUALSTYLE
  5
30
102
{ACAD_REACTORS
330
2A
102
}
330
2A
100
AcDbVisualStyle
  2
3dWireframe
 70
     5
 71
     0
 72
     2
 73
     0
 90
        0
 40
-0.6
 41
-30.0
 62
     5
 63
     7
 74
     1
 91
        4
 64
     7
 65
   257
 75
     1
175
     1
 42
1.0
 92
        0
 66
   257
 43
1.0
 76
     1
 77
     6
 78
     2
 67
     7
 79
     5
170
     0
171
     0
290
     0
174
     0
 93
        1
 44
0.0
173
     0
291
     0
 45
0.0
1001
ACAD
1000
AcDbSavedByObjectVersion
1070
     0
  0
VISUALSTYLE
  5
32
102
{ACAD_REACTORS
330
2A
102
}
330
2A
100
AcDbVisualStyle
  2
Basic
 70
     7
 71
     1
 72
     0
 73
     1
 90
        0
 40
-0.6
 41
-30.0
 62
     5
 63
     7
 74
     0
 91
        4
 64
     7
 65
   257
 75
     1
175
     1
 42
1.0
 92
        8
 66
     7
 43
1.0
 76
     1
 77
     6
 78
     2
 67
     7
 79
     5
170
     0
171
     0
290
     0
174
     0
 93
        1
 44
0.0
173
     0
291
     1
 45
0.0
1001
ACAD
1000
AcDbSavedByObjectVersion
1070
     0
  0
VISUALSTYLE
  5
36
102
{ACAD_REACTORS
330
2A
102
}
330
2A
100
AcDbVisualStyle
  2
Brighten
 70
    12
 71
     2
 72
     2
 73
     0
 90
        0
 40
-0.6
 41
-30.0
 62
     5
 63
     7
 74
     1
 91
        4
 64
     7
 65
   257
 75
     1
175
     1
 42
1.0
 92
        8
 66
     7
 43
1.0
 76
     1
 77
     6
 78
     2
 67
     7
 79
     5
170
     0
171
     0
290
     0
174
     0
 93
        1
 44
50.0
173
     0
291
     1
 45
0.0
1001
ACAD
1000
AcDbSavedByObjectVersion
1070
     0
  0
VISUALSTYLE
  5
3A
102
{ACAD_REACTORS
330
2A
102
}
330
2A
100
AcDbVisualStyle
  2
ColorChange
 70
    16
 71
     2
 72
     2
 73
     3
 90
        0
 40
-0.6
 41
-30.0
 62
     5
 63
     8
 74
     1
 91
        4
 64
     7
 65
   257
 75
     1
175
     1
 42
1.0
 92
        8
 66
     8
 43
1.0
 76
     1
 77
     6
 78
     2
 67
     7
 79
     5
170
     0
171
     0
290
     0
174
     0
 93
        1
 44
0.0
173
     0
291
     1
 45
0.0
1001
ACAD
1000
AcDbSavedByObjectVersion
1070
     0
  0
VISUALSTYLE
  5
34
102
{ACAD_REACTORS
330
2A
102
}
330
2A
100
AcDbVisualStyle
  2
Conceptual
 70
     9
 71
     3
 72
     2
 73
     0
 90
        0
 40
-0.6
 41
-30.0
 62
     5
 63
     7
 74
     2
 91
        2
 64
     7
 65
   257
 75
     1
175
     1
 42
40.0
 92
        8
 66
     7
 43
1.0
 76
     1
 77
     6
 78
     2
 67
     7
 79
     3
170
     0
171
     0
290
     0
174
     0
 93
        1
 44
0.0
173
     0
291
     0
 45
0.0
1001
ACAD
1000
AcDbSavedByObjectVersion
1070
     0
  0
VISUALSTYLE
  5
35
102
{ACAD_REACTORS
330
2A
102
}
330
2A
100
AcDbVisualStyle
  2
Dim
 70
    11
 71
     2
 72
     2
 73
     0
 90
        0
 40
-0.6
 41
-30.0
 62
     5
 63
     7
 74
     1
 91
        4
 64
     7
 65
   257
 75
     1
175
     1
 42
1.0
 92
        8
 66
     7
 43
1.0
 76
     1
 77
     6
 78
     2
 67
     7
 79
     5
170
     0
171
     0
290
     0
174
     0
 93
        1
 44
-50.0
173
     0
291
     1
 45
0.0
1001
ACAD
1000
AcDbSavedByObjectVersion
1070
     0
  0
VISUALSTYLE
  5
39
102
{ACAD_REACTORS
330
2A
102
}
330
2A
100
AcDbVisualStyle
  2
Facepattern
 70
    15
 71
     2
 72
     2
 73
     0
 90
        0
 40
-0.6
 41
-30.0
 62
     5
 63
     7
 74
     1
 91
        4
 64
     7
 65
   257
 75
     1
175
     1
 42
1.0
 92
        8
 66
     7
 43
1.0
 76
     1
 77
     6
 78
     2
 67
     7
 79
     5
170
     0
171
     0
290
     0
174
     0
 93
        1
 44
0.0
173
     0
291
     1
 45
0.0
1001
ACAD
1000
AcDbSavedByObjectVersion
1070
     0
  0
VISUALSTYLE
  5
2B
102
{ACAD_REACTORS
330
2A
102
}
330
2A
100
AcDbVisualStyle
  2
Flat
 70
     0
 71
     2
 72
     1
 73
     1
 90
        2
 40
-0.6
 41
30.0
 62
     5
 63
     7
 74
     0
 91
        4
 64
     7
 65
   257
 75
     1
175
     1
 42
1.0
 92
        8
 66
     7
 43
1.0
 76
     1
 77
     6
 78
     2
 67
     7
 79
     5
170
     0
171
     0
290
     0
174
     0
 93
       13
 44
0.0
173
     0
291
     1
 45
0.0
1001
ACAD
1000
AcDbSavedByObjectVersion
1070
     0
  0
VISUALSTYLE
  5
2C
102
{ACAD_REACTORS
330
2A
102
}
330
2A
100
AcDbVisualStyle
  2
FlatWithEdges
 70
     1
 71
     2
 72
     1
 73
     1
 90
        2
 40
-0.6
 41
30.0
 62
     5
 63
     7
 74
     1
 91
        4
 64
     7
 65
   257
 75
     1
175
     1
 42
1.0
 92
        0
 66
   257
 43
1.0
 76
     1
 77
     6
 78
     2
 67
     7
 79
     5
170
     0
171
     0
290
     0
174
     0
 93
       13
 44
0.0
173
     0
291
     1
 45
0.0
1001
ACAD
1000
AcDbSavedByObjectVersion
1070
     0
  0
VISUALSTYLE
  5
2D
102
{ACAD_REACTORS
330
2A
102
}
330
2A
100
AcDbVisualStyle
  2
Gouraud
 70
     2
 71
     2
 72
     2
 73
     1
 90
        2
 40
-0.6
 41
30.0
 62
     5
 63
     7
 74
     0
 91
        4
 64
     7
 65
   257
 75
     1
175
     1
 42
1.0
 92
        0
 66
     7
 43
1.0
 76
     1
 77
     6
 78
     2
 67
     7
 79
     5
170
     0
171
     0
290
     0
174
     0
 93
       13
 44
0.0
173
     0
291
     1
 45
0.0
1001
ACAD
1000
AcDbSavedByObjectVersion
1070
     0
  0
VISUALSTYLE
  5
2E
102
{ACAD_REACTORS
330
2A
102
}
330
2A
100
AcDbVisualStyle
  2
GouraudWithEdges
 70
     3
 71
     2
 72
     2
 73
     1
 90
        2
 40
-0.6
 41
30.0
 62
     5
 63
     7
 74
     1
 91
        4
 64
     7
 65
   257
 75
     1
175
     1
 42
1.0
 92
        0
 66
   257
 43
1.0
 76
     1
 77
     6
 78
     2
 67
     7
 79
     5
170
     0
171
     0
290
     0
174
     0
 93
       13
 44
0.0
173
     0
291
     1
 45
0.0
1001
ACAD
1000
AcDbSavedByObjectVersion
1070
     0
  0
VISUALSTYLE
  5
38
102
{ACAD_REACTORS
330
2A
102
}
330
2A
100
AcDbVisualStyle
  2
Linepattern
 70
    14
 71
     2
 72
     2
 73
     0
 90
        0
 40
-0.6
 41
-30.0
 62
     5
 63
     7
 74
     1
 91
        4
 64
     7
 65
   257
 75
     7
175
     7
 42
1.0
 92
        8
 66
     7
 43
1.0
 76
     1
 77
     6
 78
     2
 67
     7
 79
     5
170
     0
171
     0
290
     0
174
     0
 93
        1
 44
0.0
173
     0
291
     1
 45
0.0
1001
ACAD
1000
AcDbSavedByObjectVersion
1070
     0
  0
VISUALSTYLE
  5
33
102
{ACAD_REACTORS
330
2A
102
}
330
2A
100
AcDbVisualStyle
  2
Realistic
 70
     8
 71
     2
 72
     2
 73
     0
 90
        0
 40
-0.6
 41
-30.0
 62
     5
 63
     7
 74
     1
 91
        0
 64
     7
 65
   257
 75
     1
175
     1
 42
1.0
 92
        8
 66
     8
 43
1.0
 76
     1
 77
     6
 78
     2
 67
     7
 79
     5
170
     0
171
     0
290
     0
174
     0
 93
       13
 44
0.0
173
     0
291
     0
 45
0.0
1001
ACAD
1000
AcDbSavedByObjectVersion
1070
     0
  0
VISUALSTYLE
  5
37
102
{ACAD_REACTORS
330
2A
102
}
330
2A
100
AcDbVisualStyle
  2
Thicken
 70
    13
 71
     2
 72
     2
 73
     0
 90
        0
 40
-0.6
 41
-30.0
 62
     5
 63
     7
 74
     1
 91
        4
 64
     7
 65
   257
 75
     1
175
     1
 42
1.0
 92
       12
 66
     7
 43
1.0
 76
     1
 77
     6
 78
     2
 67
     7
 79
     5
170
     0
171
     0
290
     0
174
     0
 93
        1
 44
0.0
173
     0
291
     1
 45
0.0
1001
ACAD
1000
AcDbSavedByObjectVersion
1070
     0
  0
DICTIONARYVAR
  5
281
102
{ACAD_REACTORS
330
280
102
}
330
280
100
DictionaryVariables
280
     0
  1
1:1
  0
DICTIONARYVAR
  5
285
102
{ACAD_REACTORS
330
280
102
}
330
280
100
DictionaryVariables
280
     0
  1
80.000000
  0
DICTIONARYVAR
  5
284
102
{ACAD_REACTORS
330
280
102
}
330
280
100
DictionaryVariables
280
     0
  1
5.000000
  0
ENDSEC
  0
EOF
