  0
SECTION
  2
HEADER
  9
$ACADVER
  1
AC1015
  9
$ACADMAINTVER
 70
     6
  9
$DWGCODEPAGE
  3
ANSI_1252
  9
$INSBASE
 10
0.0
 20
0.0
 30
0.0
  9
$EXTMIN
 10
0.0
 20
0.0
 30
0.0
  9
$EXTMAX
 10
1682.0
 20
2378.0
 30
0.0
  9
$LIMMIN
 10
0.0
 20
0.0
  9
$LIMMAX
 10
1682.0
 20
2378.0
  9
$ORTHOMODE
 70
     0
  9
$REGENMODE
 70
     1
  9
$FILLMODE
 70
     1
  9
$QTEXTMODE
 70
     0
  9
$MIRRTEXT
 70
     1
  9
$LTSCALE
 40
1.0
  9
$ATTMODE
 70
     1
  9
$TEXTSIZE
 40
2.5
  9
$TRACEWID
 40
1.0
  9
$TEXTSTYLE
  7
Standard
  9
$CLAYER
  8
0
  9
$CELTYPE
  6
ByLayer
  9
$CECOLOR
 62
   256
  9
$CELTSCALE
 40
1.0
  9
$DISPSILH
 70
     0
  9
$DIMSCALE
 40
1.0
  9
$DIMASZ
 40
2.5
  9
$DIMEXO
 40
0.625
  9
$DIMDLI
 40
3.75
  9
$DIMRND
 40
0.0
  9
$DIMDLE
 40
0.0
  9
$DIMEXE
 40
1.25
  9
$DIMTP
 40
0.0
  9
$DIMTM
 40
0.0
  9
$DIMTXT
 40
2.5
  9
$DIMCEN
 40
2.5
  9
$DIMTSZ
 40
0.0
  9
$DIMTOL
 70
     0
  9
$DIMLIM
 70
     0
  9
$DIMTIH
 70
     0
  9
$DIMTOH
 70
     0
  9
$DIMSE1
 70
     0
  9
$DIMSE2
 70
     0
  9
$DIMTAD
 70
     1
  9
$DIMZIN
 70
     8
  9
$DIMBLK
  1

  9
$DIMASO
 70
     1
  9
$DIMSHO
 70
     1
  9
$DIMPOST
  1

  9
$DIMAPOST
  1

  9
$DIMALT
 70
     0
  9
$DIMALTD
 70
     3
  9
$DIMALTF
 40
0.0393700787
  9
$DIMLFAC
 40
1.0
  9
$DIMTOFL
 70
     1
  9
$DIMTVP
 40
0.0
  9
$DIMTIX
 70
     0
  9
$DIMSOXD
 70
     0
  9
$DIMSAH
 70
     0
  9
$DIMBLK1
  1

  9
$DIMBLK2
  1

  9
$DIMSTYLE
  2
ISO-25
  9
$DIMCLRD
 70
     0
  9
$DIMCLRE
 70
     0
  9
$DIMCLRT
 70
     0
  9
$DIMTFAC
 40
1.0
  9
$DIMGAP
 40
0.625
  9
$DIMJUST
 70
     0
  9
$DIMSD1
 70
     0
  9
$DIMSD2
 70
     0
  9
$DIMTOLJ
 70
     0
  9
$DIMTZIN
 70
     8
  9
$DIMALTZ
 70
     0
  9
$DIMALTTZ
 70
     0
  9
$DIMUPT
 70
     0
  9
$DIMDEC
 70
     2
  9
$DIMTDEC
 70
     2
  9
$DIMALTU
 70
     2
  9
$DIMALTTD
 70
     3
  9
$DIMTXSTY
  7
Standard
  9
$DIMAUNIT
 70
     0
  9
$DIMADEC
 70
     0
  9
$DIMALTRND
 40
0.0
  9
$DIMAZIN
 70
     0
  9
$DIMDSEP
 70
    44
  9
$DIMATFIT
 70
     3
  9
$DIMFRAC
 70
     0
  9
$DIMLDRBLK
  1

  9
$DIMLUNIT
 70
     2
  9
$DIMLWD
 70
    -2
  9
$DIMLWE
 70
    -2
  9
$DIMTMOVE
 70
     0
  9
$LUNITS
 70
     2
  9
$LUPREC
 70
     4
  9
$SKETCHINC
 40
1.0
  9
$FILLETRAD
 40
10.0
  9
$AUNITS
 70
     0
  9
$AUPREC
 70
     0
  9
$MENU
  1
.
  9
$ELEVATION
 40
0.0
  9
$PELEVATION
 40
0.0
  9
$THICKNESS
 40
0.0
  9
$LIMCHECK
 70
     0
  9
$CHAMFERA
 40
10.0
  9
$CHAMFERB
 40
10.0
  9
$CHAMFERC
 40
20.0
  9
$CHAMFERD
 40
0.0
  9
$SKPOLY
 70
     0
  9
$TDCREATE
 40
2455609.348110706
  9
$TDUCREATE
 40
2455609.30644404
  9
$TDUPDATE
 40
2455609.348110718
  9
$TDUUPDATE
 40
2455609.306444051
  9
$TDINDWG
 40
0.0000000116
  9
$TDUSRTIMER
 40
0.0000000116
  9
$USRTIMER
 70
     1
  9
$ANGBASE
 50
0.0
  9
$ANGDIR
 70
     0
  9
$PDMODE
 70
     0
  9
$PDSIZE
 40
0.0
  9
$PLINEWID
 40
0.0
  9
$SPLFRAME
 70
     0
  9
$SPLINETYPE
 70
     6
  9
$SPLINESEGS
 70
     8
  9
$HANDSEED
  5
3EC
  9
$SURFTAB1
 70
     6
  9
$SURFTAB2
 70
     6
  9
$SURFTYPE
 70
     6
  9
$SURFU
 70
     6
  9
$SURFV
 70
     6
  9
$UCSBASE
  2

  9
$UCSNAME
  2

  9
$UCSORG
 10
0.0
 20
0.0
 30
0.0
  9
$UCSXDIR
 10
1.0
 20
0.0
 30
0.0
  9
$UCSYDIR
 10
0.0
 20
1.0
 30
0.0
  9
$UCSORTHOREF
  2

  9
$UCSORTHOVIEW
 70
     0
  9
$UCSORGTOP
 10
0.0
 20
0.0
 30
0.0
  9
$UCSORGBOTTOM
 10
0.0
 20
0.0
 30
0.0
  9
$UCSORGLEFT
 10
0.0
 20
0.0
 30
0.0
  9
$UCSORGRIGHT
 10
0.0
 20
0.0
 30
0.0
  9
$UCSORGFRONT
 10
0.0
 20
0.0
 30
0.0
  9
$UCSORGBACK
 10
0.0
 20
0.0
 30
0.0
  9
$PUCSBASE
  2

  9
$PUCSNAME
  2

  9
$PUCSORG
 10
0.0
 20
0.0
 30
0.0
  9
$PUCSXDIR
 10
1.0
 20
0.0
 30
0.0
  9
$PUCSYDIR
 10
0.0
 20
1.0
 30
0.0
  9
$PUCSORTHOREF
  2

  9
$PUCSORTHOVIEW
 70
     0
  9
$PUCSORGTOP
 10
0.0
 20
0.0
 30
0.0
  9
$PUCSORGBOTTOM
 10
0.0
 20
0.0
 30
0.0
  9
$PUCSORGLEFT
 10
0.0
 20
0.0
 30
0.0
  9
$PUCSORGRIGHT
 10
0.0
 20
0.0
 30
0.0
  9
$PUCSORGFRONT
 10
0.0
 20
0.0
 30
0.0
  9
$PUCSORGBACK
 10
0.0
 20
0.0
 30
0.0
  9
$USERI1
 70
     0
  9
$USERI2
 70
     0
  9
$USERI3
 70
     0
  9
$USERI4
 70
     0
  9
$USERI5
 70
     0
  9
$USERR1
 40
0.0
  9
$USERR2
 40
0.0
  9
$USERR3
 40
0.0
  9
$USERR4
 40
0.0
  9
$USERR5
 40
0.0
  9
$WORLDVIEW
 70
     1
  9
$SHADEDGE
 70
     3
  9
$SHADEDIF
 70
    70
  9
$TILEMODE
 70
     1
  9
$MAXACTVP
 70
    64
  9
$PINSBASE
 10
0.0
 20
0.0
 30
0.0
  9
$PLIMCHECK
 70
     0
  9
$PEXTMIN
 10
0.0
 20
0.0
 30
0.0
  9
$PEXTMAX
 10
1682.0
 20
2378.0
 30
0.0
  9
$PLIMMIN
 10
0.0
 20
0.0
  9
$PLIMMAX
 10
1682.0
 20
2378.0
  9
$UNITMODE
 70
     0
  9
$VISRETAIN
 70
     1
  9
$PLINEGEN
 70
     0
  9
$PSLTSCALE
 70
     1
  9
$TREEDEPTH
 70
  3020
  9
$CMLSTYLE
  2
Standard
  9
$CMLJUST
 70
     0
  9
$CMLSCALE
 40
20.0
  9
$PROXYGRAPHICS
 70
     1
  9
$MEASUREMENT
 70
     1
  9
$CELWEIGHT
370
    -1
  9
$ENDCAPS
280
     0
  9
$JOINSTYLE
280
     0
  9
$LWDISPLAY
290
     0
  9
$INSUNITS
 70
     4
  9
$HYPERLINKBASE
  1

  9
$STYLESHEET
  1

  9
$XEDIT
290
     1
  9
$CEPSNTYPE
380
     0
  9
$PSTYLEMODE
290
     1
  9
$FINGERPRINTGUID
  2
{2BDE349B-CE0F-4200-864E-C16FCDAC29FB}
  9
$VERSIONGUID
  2
{FAEB1C32-E019-11D5-929B-00C0DF256EC4}
  9
$EXTNAMES
290
     1
  9
$PSVPSCALE
 40
0.0
  9
$OLESTARTUP
290
     0
  0
ENDSEC
  0
SECTION
  2
CLASSES
  0
CLASS
  1
ACDBDICTIONARYWDFLT
  2
AcDbDictionaryWithDefault
  3
ObjectDBX Classes
 90
        0
280
     0
281
     0
  0
CLASS
  1
VISUALSTYLE
  2
AcDbVisualStyle
  3
ObjectDBX Classes
 90
     4095
280
     0
281
     0
  0
CLASS
  1
SCALE
  2
AcDbScale
  3
ObjectDBX Classes
 90
     1153
280
     0
281
     0
  0
CLASS
  1
DICTIONARYVAR
  2
AcDbDictionaryVar
  3
ObjectDBX Classes
 90
        0
280
     0
281
     0
  0
CLASS
  1
ACDBPLACEHOLDER
  2
AcDbPlaceHolder
  3
ObjectDBX Classes
 90
        0
280
     0
281
     0
  0
CLASS
  1
LAYOUT
  2
AcDbLayout
  3
ObjectDBX Classes
 90
        0
280
     0
281
     0
  0
ENDSEC
  0
SECTION
  2
TABLES
  0
TABLE
  2
VPORT
  5
8
330
0
100
AcDbSymbolTable
 70
     1
  0
VPORT
  5
29
330
8
100
AcDbSymbolTableRecord
100
AcDbViewportTableRecord
  2
*Active
 70
     0
 10
0.0
 20
0.0
 11
1.0
 21
1.0
 12
344.1869158879
 22
148.5
 13
0.0
 23
0.0
 14
10.0
 24
10.0
 15
10.0
 25
10.0
 16
0.0
 26
0.0
 36
1.0
 17
0.0
 27
0.0
 37
0.0
 40
297.0
 41
1.9729729729
 42
50.0
 43
0.0
 44
0.0
 50
0.0
 51
0.0
 71
     0
 72
   100
 73
     1
 74
     3
 75
     0
 76
     0
 77
     0
 78
     0
281
     0
 65
     1
110
0.0
120
0.0
130
0.0
111
1.0
121
0.0
131
0.0
112
0.0
122
1.0
132
0.0
 79
     0
146
0.0
  0
ENDTAB
  0
TABLE
  2
LTYPE
  5
5
330
0
100
AcDbSymbolTable
 70
     2
  0
LTYPE
  5
14
330
5
100
AcDbSymbolTableRecord
100
AcDbLinetypeTableRecord
  2
ByBlock
 70
     0
  3

 72
    65
 73
     0
 40
0.0
  0
LTYPE
  5
15
330
5
100
AcDbSymbolTableRecord
100
AcDbLinetypeTableRecord
  2
ByLayer
 70
     0
  3

 72
    65
 73
     0
 40
0.0
  0
LTYPE
  5
16
330
5
100
AcDbSymbolTableRecord
100
AcDbLinetypeTableRecord
  2
Continuous
 70
     0
  3
Solid line
 72
    65
 73
     0
 40
0.0
  0
LTYPE
  5
60
330
5
100
AcDbSymbolTableRecord
100
AcDbLinetypeTableRecord
  2
CENTER2
 70
     0
  3
Center (.5x) ___ _ ___ _ ___ _ ___ _ ___ _ ___
 72
    65
 73
     4
 40
28.575
 49
19.05
 74
     4
 75
     0
340
0
 46
0.0
 50
0.0
 44
0.0
 45
0.0
 49
-3.175
 74
     4
 75
     0
340
0
 46
0.0
 50
0.0
 44
0.0
 45
0.0
 49
3.175
 74
     4
 75
     0
340
0
 46
0.0
 50
0.0
 44
0.0
 45
0.0
 49
-3.175
 74
     4
 75
     0
340
0
 46
0.0
 50
0.0
 44
0.0
 45
0.0
  0
ENDTAB
  0
TABLE
  2
LAYER
  5
2
330
0
100
AcDbSymbolTable
 70
     8
  0
LAYER
  5
10
330
2
100
AcDbSymbolTableRecord
100
AcDbLayerTableRecord
  2
0
 70
     0
 62
     7
  6
Continuous
370
    -3
390
F
  0
LAYER
  5
5D
330
2
100
AcDbSymbolTableRecord
100
AcDbLayerTableRecord
  2
Default
 70
     0
 62
     7
  6
Continuous
370
    -3
390
F
  0
LAYER
  5
75
330
2
100
AcDbSymbolTableRecord
100
AcDbLayerTableRecord
  2
$DDT_AUDIT_GENERATED_(75)
 70
     0
 62
     7
  6
Continuous
370
    -3
390
F
  0
LAYER
  5
87
330
2
100
AcDbSymbolTableRecord
100
AcDbLayerTableRecord
  2
02555038_GEHÄUSE
 70
     0
 62
     7
  6
Continuous
370
    -3
390
F
  0
LAYER
  5
95
330
2
100
AcDbSymbolTableRecord
100
AcDbLayerTableRecord
  2
$DDT_AUDIT_GENERATED_(95)
 70
     0
 62
     7
  6
Continuous
370
    -3
390
F
  0
LAYER
  5
99
330
2
100
AcDbSymbolTableRecord
100
AcDbLayerTableRecord
  2
$DDT_AUDIT_GENERATED_(99)
 70
     0
 62
     7
  6
Continuous
370
    -3
390
F
  0
LAYER
  5
31A
330
2
100
AcDbSymbolTableRecord
100
AcDbLayerTableRecord
  2
$DDT_AUDIT_GENERATED_(31A)
 70
     0
 62
     7
  6
Continuous
370
    -3
390
F
  0
LAYER
  5
39B
330
2
100
AcDbSymbolTableRecord
100
AcDbLayerTableRecord
  2
$DDT_AUDIT_GENERATED_(39B)
 70
     0
 62
     7
  6
Continuous
370
    -3
390
F
  0
ENDTAB
  0
TABLE
  2
STYLE
  5
3
330
0
100
AcDbSymbolTable
 70
     2
  0
STYLE
  5
11
330
3
100
AcDbSymbolTableRecord
100
AcDbTextStyleTableRecord
  2
Standard
 70
     0
 40
0.0
 41
1.0
 50
0.0
 71
     0
 42
2.5
  3
txt
  4

  0
STYLE
  5
3DB
330
3
100
AcDbSymbolTableRecord
100
AcDbTextStyleTableRecord
  2
SEACAD_seiso_ttf
 70
     0
 40
0.0
 41
1.0
 50
0.0
 71
     0
 42
0.2
  3
seiso.ttf
  4

  0
ENDTAB
  0
TABLE
  2
VIEW
  5
6
330
0
100
AcDbSymbolTable
 70
     0
  0
ENDTAB
  0
TABLE
  2
UCS
  5
7
330
0
100
AcDbSymbolTable
 70
     0
  0
ENDTAB
  0
TABLE
  2
APPID
  5
9
330
0
100
AcDbSymbolTable
 70
     1
  0
APPID
  5
12
330
9
100
AcDbSymbolTableRecord
100
AcDbRegAppTableRecord
  2
ACAD
 70
     0
  0
ENDTAB
  0
TABLE
  2
DIMSTYLE
  5
A
330
0
100
AcDbSymbolTable
 70
     1
100
AcDbDimStyleTable
  0
DIMSTYLE
105
27
330
A
100
AcDbSymbolTableRecord
100
AcDbDimStyleTableRecord
  2
ISO-25
 70
     0
 41
2.5
 42
0.625
 43
3.75
 44
1.25
 73
     0
 74
     0
 77
     1
 78
     8
140
2.5
141
2.5
143
0.0393700787
147
0.625
171
     3
172
     1
271
     2
272
     2
274
     3
278
    44
283
     0
284
     8
340
11
  0
ENDTAB
  0
TABLE
  2
BLOCK_RECORD
  5
1
330
0
100
AcDbSymbolTable
 70
     7
  0
BLOCK_RECORD
  5
1F
330
1
100
AcDbSymbolTableRecord
100
AcDbBlockTableRecord
  2
*Model_Space
340
22
  0
BLOCK_RECORD
  5
1B
330
1
100
AcDbSymbolTableRecord
100
AcDbBlockTableRecord
  2
*Paper_Space
340
1E
  0
BLOCK_RECORD
  5
5E
330
1
100
AcDbSymbolTableRecord
100
AcDbBlockTableRecord
  2
SEANNOT_GROUP
340
0
102
{BLKREFS
331
5F
102
}
  0
BLOCK_RECORD
  5
65
330
1
100
AcDbSymbolTableRecord
100
AcDbBlockTableRecord
  2
SEANNOT_GROUP1
340
0
102
{BLKREFS
331
66
102
}
  0
BLOCK_RECORD
  5
6D
330
1
100
AcDbSymbolTableRecord
100
AcDbBlockTableRecord
  2
SEANNOT_GROUP2
340
0
102
{BLKREFS
331
6E
102
}
  0
BLOCK_RECORD
  5
73
330
1
100
AcDbSymbolTableRecord
100
AcDbBlockTableRecord
  2
SE
340
0
102
{BLKREFS
331
74
102
}
  0
BLOCK_RECORD
  5
39F
330
1
100
AcDbSymbolTableRecord
100
AcDbBlockTableRecord
  2
SE1
340
0
102
{BLKREFS
331
3A0
102
}
  0
BLOCK_RECORD
  5
3C6
330
1
100
AcDbSymbolTableRecord
100
AcDbBlockTableRecord
  2
SE2
340
0
102
{BLKREFS
331
3C7
102
}
  0
ENDTAB
  0
ENDSEC
  0
SECTION
  2
BLOCKS
  0
BLOCK
  5
20
330
1F
100
AcDbEntity
  8
0
100
AcDbBlockBegin
  2
*Model_Space
 70
     0
 10
0.0
 20
0.0
 30
0.0
  3
*Model_Space
  1

  0
ENDBLK
  5
21
330
1F
100
AcDbEntity
  8
0
100
AcDbBlockEnd
  0
BLOCK
  5
1C
330
1B
100
AcDbEntity
 67
     1
  8
0
100
AcDbBlockBegin
  2
*Paper_Space
 70
     0
 10
0.0
 20
0.0
 30
0.0
  3
*Paper_Space
  1

  0
ENDBLK
  5
1D
330
1B
100
AcDbEntity
 67
     1
  8
0
100
AcDbBlockEnd
  0
BLOCK
  5
63
330
5E
100
AcDbEntity
  8
0
100
AcDbBlockBegin
  2
SEANNOT_GROUP
 70
     0
 10
0.0
 20
0.0
 30
0.0
  3
SEANNOT_GROUP
  1

  0
LINE
  5
61
330
5E
100
AcDbEntity
  8
Default
  6
CENTER2
 62
     7
100
AcDbLine
 10
111.5357537476
 20
306.1616922145
 30
0.0
 11
71.5357546417
 21
306.1616922145
 31
0.0
  0
LINE
  5
62
330
5E
100
AcDbEntity
  8
Default
  6
CENTER2
 62
     7
100
AcDbLine
 10
91.5357541947
 20
326.1616917675
 30
0.0
 11
91.5357541947
 21
286.1616926616
 31
0.0
  0
ENDBLK
  5
64
330
5E
100
AcDbEntity
  8
0
100
AcDbBlockEnd
  0
BLOCK
  5
69
330
65
100
AcDbEntity
  8
0
100
AcDbBlockBegin
  2
SEANNOT_GROUP1
 70
     0
 10
0.0
 20
0.0
 30
0.0
  3
SEANNOT_GROUP1
  1

  0
LINE
  5
67
330
65
100
AcDbEntity
  8
Default
  6
CENTER2
 62
     7
100
AcDbLine
 10
224.6644206733
 20
405.6547699261
 30
0.0
 11
184.6644215674
 21
405.6547699261
 31
0.0
  0
LINE
  5
68
330
65
100
AcDbEntity
  8
Default
  6
CENTER2
 62
     7
100
AcDbLine
 10
204.6644211203
 20
425.654769479
 30
0.0
 11
204.6644211203
 21
385.6547703731
 31
0.0
  0
ENDBLK
  5
6A
330
65
100
AcDbEntity
  8
0
100
AcDbBlockEnd
  0
BLOCK
  5
71
330
6D
100
AcDbEntity
  8
0
100
AcDbBlockBegin
  2
SEANNOT_GROUP2
 70
     0
 10
0.0
 20
0.0
 30
0.0
  3
SEANNOT_GROUP2
  1

  0
LINE
  5
6F
330
6D
100
AcDbEntity
  8
Default
  6
CENTER2
 62
     7
100
AcDbLine
 10
111.5357537476
 20
408.6551885289
 30
0.0
 11
71.5357546417
 21
408.6551885289
 31
0.0
  0
LINE
  5
70
330
6D
100
AcDbEntity
  8
Default
  6
CENTER2
 62
     7
100
AcDbLine
 10
91.5357541947
 20
428.6551880819
 30
0.0
 11
91.5357541947
 21
388.6551889759
 31
0.0
  0
ENDBLK
  5
72
330
6D
100
AcDbEntity
  8
0
100
AcDbBlockEnd
  0
BLOCK
  5
39D
330
73
100
AcDbEntity
  8
0
100
AcDbBlockBegin
  2
SE
 70
     0
 10
0.0
 20
0.0
 30
0.0
  3
SE
  1

  0
LINE
  5
76
330
73
100
AcDbEntity
  8
$DDT_AUDIT_GENERATED_(75)
  6
Continuous
 62
     7
100
AcDbLine
 10
115.3251746788
 20
413.3851720209
 30
0.0
 11
115.359056998
 21
412.3617585843
 31
0.0
  0
LINE
  5
77
330
73
100
AcDbEntity
  8
$DDT_AUDIT_GENERATED_(75)
  6
Continuous
 62
     7
100
AcDbLine
 10
67.7443218987
 20
413.3850610423
 30
0.0
 11
67.7101851078
 21
412.3616712566
 31
0.0
  0
LINE
  5
78
330
73
100
AcDbEntity
  8
$DDT_AUDIT_GENERATED_(75)
  6
Continuous
 62
     7
100
AcDbLine
 10
67.7443219061
 20
413.3850610418
 30
0.0
 11
68.4906872877
 21
421.6277170655
 31
0.0
  0
SPLINE
  5
79
330
73
100
AcDbEntity
  8
$DDT_AUDIT_GENERATED_(75)
  6
Continuous
 62
     7
100
AcDbSpline
210
0.0
220
0.0
230
1.0
 70
    12
 71
     3
 72
    16
 73
    12
 74
     0
 42
0.000000012355918
 43
0.0000000001
 40
0.0
 40
0.0
 40
0.0
 40
0.0
 40
0.1046639072783205
 40
0.2134796746430644
 40
0.3262329114706459
 40
0.4417020445245369
 40
0.5581368807017691
 40
0.6736238793703119
 40
0.7864118993141743
 40
0.8952770025583583
 40
1.0
 40
1.0
 40
1.0
 40
1.0
 10
68.4906872876817
 20
421.6277170655252
 30
0.0
 41
1.0
 10
68.49325697674219
 20
421.6560948203052
 30
0.0
 41
1.0
 10
68.5050751977294
 20
421.7134681312921
 30
0.0
 41
1.0
 10
68.53883694409699
 20
421.7957153561491
 30
0.0
 41
1.0
 10
68.5864234208285
 20
421.8738463643916
 30
0.0
 41
1.0
 10
68.64552770990109
 20
421.9458597190697
 30
0.0
 41
1.0
 10
68.7138988710809
 20
422.0097450567966
 30
0.0
 41
1.0
 10
68.789308302266
 20
422.0634198552194
 30
0.0
 41
1.0
 10
68.8695951251426
 20
422.1047720005629
 30
0.0
 41
1.0
 10
68.9526016873613
 20
422.1316316466728
 30
0.0
 41
1.0
 10
69.0094173238488
 20
422.1383913279781
 30
0.0
 41
1.0
 10
69.0372177979166
 20
422.1383913789001
 30
0.0
 41
1.0
  0
SPLINE
  5
7A
330
73
100
AcDbEntity
  8
$DDT_AUDIT_GENERATED_(75)
  6
Continuous
 62
     7
100
AcDbSpline
210
0.0
220
0.0
230
1.0
 70
    12
 71
     3
 72
    16
 73
    12
 74
     0
 42
0.0000000123581775
 43
0.0000000001
 40
0.0
 40
0.0
 40
0.0
 40
0.0
 40
0.1047188354327763
 40
0.2135820844759478
 40
0.3263710573989831
 40
0.4418610997342107
 40
0.5582997409091831
 40
0.6737719347418931
 40
0.7865261620620495
 40
0.8953401374992405
 40
1.0
 40
1.0
 40
1.0
 40
1.0
 10
114.0366391238812
 20
422.138473804029
 30
0.0
 41
1.0
 10
114.0644332737886
 20
422.1384738534801
 30
0.0
 41
1.0
 10
114.121236696283
 20
422.1317123591339
 30
0.0
 41
1.0
 10
114.2042229003313
 20
422.10484648069
 30
0.0
 41
1.0
 10
114.2844874861871
 20
422.0634863284108
 30
0.0
 41
1.0
 10
114.3598725986579
 20
422.0098032025004
 30
0.0
 41
1.0
 10
114.4282170804351
 20
421.9459106117994
 30
0.0
 41
1.0
 10
114.4872919828787
 20
421.8738924608346
 30
0.0
 41
1.0
 10
114.5348459296851
 20
421.7957604110907
 30
0.0
 41
1.0
 10
114.5685716723778
 20
421.7135171761999
 30
0.0
 41
1.0
 10
114.5803622660664
 20
421.6561503730088
 30
0.0
 41
1.0
 10
114.5829172609192
 20
421.6277777220807
 30
0.0
 41
1.0
  0
LINE
  5
7B
330
73
100
AcDbEntity
  8
$DDT_AUDIT_GENERATED_(75)
  6
Continuous
 62
     7
100
AcDbLine
 10
114.5829172609
 20
421.6277777221
 30
0.0
 11
115.32517468
 21
413.385172021
 31
0.0
  0
LINE
  5
7C
330
73
100
AcDbEntity
  8
$DDT_AUDIT_GENERATED_(75)
  6
Continuous
 62
     7
100
AcDbLine
 10
114.0366391239
 20
422.138473804
 30
0.0
 11
69.0372177979
 21
422.1383913789
 31
0.0
  0
ARC
  5
7D
330
73
100
AcDbEntity
  8
$DDT_AUDIT_GENERATED_(75)
  6
Continuous
 62
     7
100
AcDbCircle
 10
91.5346129675
 20
421.6000682853
 30
0.0
 40
15.77937711745003
100
AcDbArc
 50
215.7739012511
 51
324.226379682
  0
ARC
  5
7E
330
73
100
AcDbEntity
  8
$DDT_AUDIT_GENERATED_(75)
  6
Continuous
 62
     7
100
AcDbCircle
 10
107.2315469892
 20
596.5002131264
 30
0.0
 40
183.2938217405085
100
AcDbArc
 50
269.0494409769
 51
272.5308083646
  0
ARC
  5
7F
330
73
100
AcDbEntity
  8
$DDT_AUDIT_GENERATED_(75)
  6
Continuous
 62
     7
100
AcDbCircle
 10
75.6760689923
 20
584.5143063972
 30
0.0
 40
171.3129628127098
100
AcDbArc
 50
267.3462711243
 51
271.0710961697
  0
ARC
  5
80
330
73
100
AcDbEntity
  8
$DDT_AUDIT_GENERATED_(75)
  6
Continuous
 62
     7
100
AcDbCircle
 10
91.4949111359
 20
3380.593393204
 30
0.0
 40
2967.388936923066
100
AcDbArc
 50
269.7563942193
 51
270.2451385542
  0
SPLINE
  5
81
330
73
100
AcDbEntity
  8
$DDT_AUDIT_GENERATED_(75)
  6
Continuous
 62
     7
100
AcDbSpline
210
0.0
220
0.0
230
1.0
 70
     8
 71
     3
 72
    20
 73
    16
 74
     0
 42
0.0000000100829374
 43
0.0000000001
 40
0.0
 40
0.0
 40
0.0
 40
0.0
 40
0.0146125297868293
 40
0.0308478810184654
 40
0.0637016463025913
 40
0.1277288058808774
 40
0.2490860625682569
 40
0.4991509289339744
 40
0.7495085177772833
 40
0.8751163412978452
 40
0.9377396186547441
 40
0.9692492922669346
 40
0.9849994874097133
 40
0.9928620334038019
 40
1.0
 40
1.0
 40
1.0
 40
1.0
 10
104.1907714710414
 20
413.2316157822235
 30
0.0
 10
104.196327744768
 20
413.2304376248093
 30
0.0
 10
104.2056886590655
 20
413.2279478211623
 30
0.0
 10
104.2250797260559
 20
413.2224090114717
 30
0.0
 10
104.2593989744656
 20
413.2099737188167
 30
0.0
 10
104.3279388274643
 20
413.1765582518908
 30
0.0
 10
104.4009685510433
 20
413.0488521004814
 30
0.0
 10
104.4314819476796
 20
412.8593042916934
 30
0.0
 10
104.4290825398
 20
412.6510297423807
 30
0.0
 10
104.4083164225172
 20
412.5031668137996
 30
0.0
 10
104.3782188022287
 20
412.4354447211319
 30
0.0
 10
104.3586343067951
 20
412.4047552226131
 30
0.0
 10
104.3479978240409
 20
412.3899948169548
 30
0.0
 10
104.3418152833472
 20
412.3819836005381
 30
0.0
 10
104.3387827789162
 20
412.3780758053662
 30
0.0
 10
104.3369432058596
 20
412.3756939064305
 30
0.0
  0
SPLINE
  5
82
330
73
100
AcDbEntity
  8
$DDT_AUDIT_GENERATED_(75)
  6
Continuous
 62
     7
100
AcDbSpline
210
0.0
220
0.0
230
1.0
 70
     8
 71
     3
 72
    27
 73
    23
 74
     0
 42
0.0000000095621787
 43
0.0000000001
 40
0.0
 40
0.0
 40
0.0
 40
0.0
 40
0.0073164737838491
 40
0.0150787894335367
 40
0.0306413159011878
 40
0.0617769342554052
 40
0.1235376754777535
 40
0.2476904599286668
 40
0.4949588667167701
 40
0.6178221428059585
 40
0.6818452215621444
 40
0.7452808218000284
 40
0.773476389091731
 40
0.8066795919249273
 40
0.8596579847659048
 40
0.9318469739660509
 40
0.9679374037436941
 40
0.9850190442754736
 40
0.993194421133731
 40
0.9971751468788319
 40
0.999136824731199
 40
1.0
 40
1.0
 40
1.0
 40
1.0
 10
78.7323279582371
 20
412.3756311340745
 30
0.0
 10
78.7304837220951
 20
412.3781260744914
 30
0.0
 10
78.7271896345809
 20
412.3825497946307
 30
0.0
 10
78.72057964910614
 20
412.3915836845981
 30
0.0
 10
78.70937624142255
 20
412.4080852275233
 30
0.0
 10
78.68898883419669
 20
412.4424235491603
 30
0.0
 10
78.66178166926416
 20
412.5191973959518
 30
0.0
 10
78.64455472788056
 20
412.6806558077841
 30
0.0
 10
78.6264771838403
 20
412.8565785358829
 30
0.0
 10
78.63775056485805
 20
413.0021190462957
 30
0.0
 10
78.65018415412953
 20
413.0823413399881
 30
0.0
 10
78.64749477369674
 20
413.125545888496
 30
0.0
 10
78.65944588138663
 20
413.164242032928
 30
0.0
 10
78.69566928974
 20
413.1926696674384
 30
0.0
 10
78.7489610978783
 20
413.2144899499821
 30
0.0
 10
78.80243128361586
 20
413.2253179108982
 30
0.0
 10
78.84215870611348
 20
413.2297330206731
 30
0.0
 10
78.86113704180065
 20
413.2308730270145
 30
0.0
 10
78.87004334623121
 20
413.2311637216079
 30
0.0
 10
78.87431076309738
 20
413.2312449410554
 30
0.0
 10
78.87635549181519
 20
413.2312628976151
 30
0.0
 10
78.87720614284274
 20
413.2312734938619
 30
0.0
 10
78.87843350273221
 20
413.231277205094
 30
0.0
  0
SPLINE
  5
83
330
73
100
AcDbEntity
  8
$DDT_AUDIT_GENERATED_(75)
  6
Continuous
 62
     7
100
AcDbSpline
210
0.0
220
0.0
230
1.0
 70
     8
 71
     3
 72
    10
 73
     6
 74
     0
 42
0.000000000133634
 43
0.0000000001
 40
0.0
 40
0.0
 40
0.0
 40
0.0
 40
0.1198006694392718
 40
0.2465325031634507
 40
0.3107064395716996
 40
0.3107064395716996
 40
0.3107064395716996
 40
0.3107064395716996
 10
115.3590569985152
 20
412.3617585983395
 30
0.0
 10
115.2571963949502
 20
409.4069503370108
 30
0.0
 10
113.9074186890235
 20
403.3073898105504
 30
0.0
 10
109.5114046241299
 20
396.8749769318793
 30
0.0
 10
105.8588785871627
 20
393.9329685000491
 30
0.0
 10
104.5498749949476
 20
393.0738197889393
 30
0.0
  0
SPLINE
  5
84
330
73
100
AcDbEntity
  8
$DDT_AUDIT_GENERATED_(75)
  6
Continuous
 62
     7
100
AcDbSpline
210
0.0
220
0.0
230
1.0
 70
     8
 71
     3
 72
    10
 73
     6
 74
     0
 42
0.0000000001336419
 43
0.0000000001
 40
0.6892266768373145
 40
0.6892266768373145
 40
0.6892266768373145
 40
0.6892266768373145
 40
0.7534619610639639
 40
0.8801948562900402
 40
1.0
 40
1.0
 40
1.0
 40
1.0
 10
78.52171405195227
 20
393.0710611772094
 30
0.0
 10
77.2129906693881
 20
393.9298033455439
 30
0.0
 10
73.56458828744746
 20
396.8691869959584
 30
0.0
 10
69.16303478474515
 20
403.3018615258719
 30
0.0
 10
67.8120831996146
 20
409.4052771768559
 30
0.0
 10
67.71018510731034
 20
412.3616712703771
 30
0.0
  0
SPLINE
  5
85
330
73
100
AcDbEntity
  8
$DDT_AUDIT_GENERATED_(75)
  6
Continuous
 62
     7
100
AcDbSpline
210
0.0
220
0.0
230
1.0
 70
     8
 71
     3
 72
    32
 73
    28
 74
     0
 42
0.0000000001692527
 43
0.0000000001
 40
0.0
 40
0.0
 40
0.0
 40
0.0
 40
0.0312499999999998
 40
0.0312499999999998
 40
0.0624999999999997
 40
0.0624999999999997
 40
0.1250000000000001
 40
0.1250000000000001
 40
0.1875000000000006
 40
0.1875000000000006
 40
0.250000000000001
 40
0.250000000000001
 40
0.2812500000000012
 40
0.2812500000000012
 40
0.3125000000000014
 40
0.3125000000000014
 40
0.3437500000000017
 40
0.3437500000000017
 40
0.3750000000000019
 40
0.3750000000000019
 40
0.4375000000000018
 40
0.4375000000000018
 40
0.4687500000000018
 40
0.4687500000000018
 40
0.5000000000000018
 40
0.5000000000000018
 40
0.5275358966064394
 40
0.5275358966064394
 40
0.5275358966064394
 40
0.5275358966064394
 10
105.785754194673
 20
399.9077094739101
 30
0.0
 10
105.785754194673
 20
400.0237125925716
 30
0.0
 10
105.6839202763565
 20
400.0217652527414
 30
0.0
 10
105.3001562212376
 20
399.8408154056776
 30
0.0
 10
105.0161865564447
 20
399.6592607583946
 30
0.0
 10
103.9560732549995
 20
398.9870146488465
 30
0.0
 10
102.9501694091326
 20
398.3608072494027
 30
0.0
 10
100.4417783709785
 20
397.2025243638299
 30
0.0
 10
98.91557529780177
 20
396.6546342944011
 30
0.0
 10
95.43814020445261
 20
395.8843734278857
 30
0.0
 10
93.50600338102801
 20
395.6657531088365
 30
0.0
 10
90.5545490024906
 20
395.6649887510044
 30
0.0
 10
89.5879962837023
 20
395.7178155254841
 30
0.0
 10
87.68785854188356
 20
395.923261284775
 30
0.0
 10
86.76039248897119
 20
396.0767565306613
 30
0.0
 10
85.02687141303679
 20
396.4608269009399
 30
0.0
 10
84.20133841883117
 20
396.6959172613702
 30
0.0
 10
82.68831234445105
 20
397.211798189817
 30
0.0
 10
81.99752014027933
 20
397.4922823970792
 30
0.0
 10
80.1027858490214
 20
398.3687145120728
 30
0.0
 10
79.11152271542461
 20
398.9880066904998
 30
0.0
 10
78.04271811593931
 20
399.6630821767988
 30
0.0
 10
77.76593633348587
 20
399.8406254709029
 30
0.0
 10
77.38365362922008
 20
400.0179622765208
 30
0.0
 10
77.28330170543
 20
400.0160625087536
 30
0.0
 10
77.28800280309595
 20
399.7959113406957
 30
0.0
 10
77.37112167124356
 20
399.6020356624278
 30
0.0
 10
77.52663878889932
 20
399.3368888730249
 30
0.0
  0
SPLINE
  5
86
330
73
100
AcDbEntity
  8
$DDT_AUDIT_GENERATED_(75)
  6
Continuous
 62
     7
100
AcDbSpline
210
0.0
220
0.0
230
1.0
 70
     8
 71
     3
 72
     8
 73
     4
 74
     0
 42
0.0000000004385583
 43
0.0000000001
 40
0.9717051259116195
 40
0.9717051259116195
 40
0.9717051259116195
 40
0.9717051259116195
 40
1.0
 40
1.0
 40
1.0
 40
1.0
 10
105.537049229082
 20
399.3244269837992
 30
0.0
 10
105.6992824193217
 20
399.5997813101677
 30
0.0
 10
105.785754194673
 20
399.8026760775456
 30
0.0
 10
105.785754194673
 20
399.9077094739101
 30
0.0
  0
ELLIPSE
  5
88
330
73
100
AcDbEntity
  8
02555038_GEHÄUSE
  6
Continuous
 62
     7
100
AcDbEllipse
 10
91.5357541947
 20
389.2656697062
 30
0.0
 11
12.34999999999999
 21
0.0
 31
0.0
210
0.0
220
0.0
230
1.0
 40
0.1478094111
 41
0.0
 42
6.283185307179586
  0
ELLIPSE
  5
89
330
73
100
AcDbEntity
  8
02555038_GEHÄUSE
  6
Continuous
 62
     7
100
AcDbEllipse
 10
91.5357541947
 20
389.2656697062
 30
0.0
 11
-12.75
 21
0.0
 31
0.0
210
0.0
220
0.0
230
1.0
 40
0.1478094111
 41
0.0
 42
6.283185307179586
  0
ELLIPSE
  5
8A
330
73
100
AcDbEntity
  8
02555038_GEHÄUSE
  6
Continuous
 62
     7
100
AcDbEllipse
 10
91.5357541947
 20
389.9794304249
 30
0.0
 11
14.00000000000002
 21
6.938893903907228E-15
 31
0.0
210
0.0
220
0.0
230
1.0
 40
0.1478094111
 41
0.3802512066929337
 42
2.761341446896862
  0
LINE
  5
8B
330
73
100
AcDbEntity
  8
02555038_GEHÄUSE
  6
Continuous
 62
     7
100
AcDbLine
 10
104.5357541947
 20
390.7474706546
 30
0.0
 11
104.5357541947
 21
389.155443647
 31
0.0
  0
ELLIPSE
  5
8C
330
73
100
AcDbEntity
  8
02555038_GEHÄUSE
  6
Continuous
 62
     7
100
AcDbEllipse
 10
91.5357541947
 20
381.3535427993
 30
0.0
 11
-13.96150259139277
 21
-13.96150259139279
 31
0.0
210
0.0
220
0.0
230
1.0
 40
0.0743128367
 41
2.687164953687089
 42
3.447667367072984
  0
LINE
  5
8D
330
73
100
AcDbEntity
  8
02555038_GEHÄUSE
  6
Continuous
 62
     7
100
AcDbLine
 10
104.5357541947
 20
394.9787892527
 30
0.0
 11
104.5357541947
 21
390.7474706546
 31
0.0
  0
LINE
  5
8E
330
73
100
AcDbEntity
  8
02555038_GEHÄUSE
  6
Continuous
 62
     7
100
AcDbLine
 10
78.5357541947
 20
390.7474706546
 30
0.0
 11
78.5357541947
 21
389.155443647
 31
0.0
  0
ELLIPSE
  5
8F
330
73
100
AcDbEntity
  8
02555038_GEHÄUSE
  6
Continuous
 62
     7
100
AcDbEllipse
 10
91.5357541947
 20
381.3535427993
 30
0.0
 11
13.9615025913928
 21
-13.9615025913928
 31
0.0
210
0.0
220
0.0
230
1.0
 40
0.0743128367
 41
2.835517940106627
 42
3.596020353492468
  0
LINE
  5
90
330
73
100
AcDbEntity
  8
02555038_GEHÄUSE
  6
Continuous
 62
     7
100
AcDbLine
 10
78.5357541947
 20
394.9787892527
 30
0.0
 11
78.5357541947
 21
390.7474706546
 31
0.0
  0
LINE
  5
91
330
73
100
AcDbEntity
  8
02555038_GEHÄUSE
  6
Continuous
 62
     7
100
AcDbLine
 10
78.5357541947
 20
389.1554105032
 30
0.0
 11
79.2203286561
 21
388.7778360852
 31
0.0
  0
LINE
  5
92
330
73
100
AcDbEntity
  8
02555038_GEHÄUSE
  6
Continuous
 62
     7
100
AcDbLine
 10
103.8511797332
 20
388.7778360852
 30
0.0
 11
104.5357541947
 21
389.1554105032
 31
0.0
  0
LINE
  5
93
330
73
100
AcDbEntity
  8
02555038_GEHÄUSE
  6
Continuous
 62
     7
100
AcDbLine
 10
105.5357541947
 20
395.1997648864
 30
0.0
 11
105.5357541947
 21
399.9480039834
 31
0.0
  0
LINE
  5
94
330
73
100
AcDbEntity
  8
02555038_GEHÄUSE
  6
Continuous
 62
     7
100
AcDbLine
 10
77.5357541947
 20
399.939185983
 30
0.0
 11
77.5357541947
 21
395.1997648864
 31
0.0
  0
ELLIPSE
  5
96
330
73
100
AcDbEntity
  8
$DDT_AUDIT_GENERATED_(95)
  6
Continuous
 62
     7
100
AcDbEllipse
 10
91.5357541947
 20
390.5513903286
 30
0.0
 11
10.50000000000001
 21
1.734723475976807E-15
 31
0.0
210
0.0
220
0.0
230
1.0
 40
0.1478094111
 41
3.325424353278214
 42
6.099353607491159
  0
ELLIPSE
  5
97
330
73
100
AcDbEntity
  8
$DDT_AUDIT_GENERATED_(95)
  6
Continuous
 62
     7
100
AcDbEllipse
 10
91.5357541947
 20
390.2546855696
 30
0.0
 11
10.50000000000001
 21
1.734723475976807E-15
 31
0.0
210
0.0
220
0.0
230
1.0
 40
0.1478094111
 41
3.159378771516434
 42
6.265399189252864
  0
ELLIPSE
  5
98
330
73
100
AcDbEntity
  8
$DDT_AUDIT_GENERATED_(95)
  6
Continuous
 62
     7
100
AcDbEllipse
 10
91.5357541947
 20
390.2546855696
 30
0.0
 11
11.4
 21
1.734723475976807E-15
 31
0.0
210
0.0
220
0.0
230
1.0
 40
0.1478094111
 41
3.287689364736177
 42
6.137088596033202
  0
ELLIPSE
  5
9A
330
73
100
AcDbEntity
  8
$DDT_AUDIT_GENERATED_(99)
  6
Continuous
 62
     7
100
AcDbEllipse
 10
82.3214684804
 20
390.4232988907
 30
0.0
 11
-0.0757564984384118
 21
-0.07575649843839966
 31
0.0
210
0.0
220
0.0
230
1.0
 40
0.8616551265
 41
0.8595746566073621
 42
2.430370983402955
  0
ELLIPSE
  5
9B
330
73
100
AcDbEntity
  8
$DDT_AUDIT_GENERATED_(99)
  6
Continuous
 62
     7
100
AcDbEllipse
 10
82.3214684804
 20
390.4232988907
 30
0.0
 11
0.0757564984384014
 21
-0.07575649843840661
 31
0.0
210
0.0
220
0.0
230
1.0
 40
0.8616551265
 41
3.852814323777422
 42
5.423610650572343
  0
ELLIPSE
  5
9C
330
73
100
AcDbEntity
  8
$DDT_AUDIT_GENERATED_(99)
  6
Continuous
 62
     7
100
AcDbEllipse
 10
82.3214684804
 20
390.1963058664
 30
0.0
 11
-0.07575649843840314
 21
-0.07575649843840487
 31
0.0
210
0.0
220
0.0
230
1.0
 40
0.8616551265
 41
0.8595746566072636
 42
2.430370983402759
  0
ELLIPSE
  5
9D
330
73
100
AcDbEntity
  8
$DDT_AUDIT_GENERATED_(99)
  6
Continuous
 62
     7
100
AcDbEllipse
 10
82.3214684804
 20
390.1963058664
 30
0.0
 11
0.07575649843840314
 21
-0.07575649843840661
 31
0.0
210
0.0
220
0.0
230
1.0
 40
0.8616551265
 41
3.85281432377685
 42
5.423610650572322
  0
ELLIPSE
  5
9E
330
73
100
AcDbEntity
  8
$DDT_AUDIT_GENERATED_(99)
  6
Continuous
 62
     7
100
AcDbEllipse
 10
82.3214684804
 20
389.9693128422
 30
0.0
 11
-0.0757564984384014
 21
-0.07575649843840834
 31
0.0
210
0.0
220
0.0
230
0.9999999999999999
 40
0.8616551265
 41
0.8595746566072439
 42
2.430370983402285
  0
ELLIPSE
  5
9F
330
73
100
AcDbEntity
  8
$DDT_AUDIT_GENERATED_(99)
  6
Continuous
 62
     7
100
AcDbEllipse
 10
82.3214684804
 20
389.9693128422
 30
0.0
 11
0.0757564984384014
 21
-0.07575649843841008
 31
0.0
210
0.0
220
0.0
230
1.0
 40
0.8616551265
 41
3.852814323777324
 42
5.423610650572343
  0
ELLIPSE
  5
A0
330
73
100
AcDbEntity
  8
$DDT_AUDIT_GENERATED_(99)
  6
Continuous
 62
     7
100
AcDbEllipse
 10
83.8571827661
 20
389.5153267937
 30
0.0
 11
0.0757564984384092
 21
0.07575649843840834
 31
0.0
210
0.0
220
0.0
230
0.9999999999999998
 40
0.8616551265
 41
4.882732674984005
 42
5.571963636992207
  0
ELLIPSE
  5
A1
330
73
100
AcDbEntity
  8
$DDT_AUDIT_GENERATED_(99)
  6
Continuous
 62
     7
100
AcDbEllipse
 10
83.8571827661
 20
389.742319818
 30
0.0
 11
-0.07575649843840401
 21
-0.07575649843840487
 31
0.0
210
0.0
220
0.0
230
0.9999999999999998
 40
0.8616551265
 41
0.859574656606902
 42
2.430370983402183
  0
ELLIPSE
  5
A2
330
73
100
AcDbEntity
  8
$DDT_AUDIT_GENERATED_(99)
  6
Continuous
 62
     7
100
AcDbEllipse
 10
83.8571827661
 20
389.742319818
 30
0.0
 11
0.07575649843840487
 21
-0.07575649843840834
 31
0.0
210
0.0
220
0.0
230
1.0
 40
0.8616551265
 41
3.852814323777308
 42
5.42361065057317
  0
ELLIPSE
  5
A3
330
73
100
AcDbEntity
  8
$DDT_AUDIT_GENERATED_(99)
  6
Continuous
 62
     7
100
AcDbEllipse
 10
83.8571827661
 20
389.9693128422
 30
0.0
 11
-0.07575649843839707
 21
-0.07575649843841528
 31
0.0
210
0.0
220
0.0
230
1.0
 40
0.8616551265
 41
0.8595746566073187
 42
2.430370983402201
  0
ELLIPSE
  5
A4
330
73
100
AcDbEntity
  8
$DDT_AUDIT_GENERATED_(99)
  6
Continuous
 62
     7
100
AcDbEllipse
 10
83.8571827661
 20
389.9693128422
 30
0.0
 11
0.07575649843839966
 21
-0.0757564984384118
 31
0.0
210
0.0
220
0.0
230
1.0
 40
0.8616551265
 41
3.852814323777344
 42
5.423610650572362
  0
ELLIPSE
  5
A5
330
73
100
AcDbEntity
  8
$DDT_AUDIT_GENERATED_(99)
  6
Continuous
 62
     7
100
AcDbEllipse
 10
83.8571827661
 20
390.1963058664
 30
0.0
 11
-0.0757564984384092
 21
-0.07575649843840314
 31
0.0
210
0.0
220
0.0
230
1.0
 40
0.8616551265
 41
0.8595746566073323
 42
2.430370983402914
  0
ELLIPSE
  5
A6
330
73
100
AcDbEntity
  8
$DDT_AUDIT_GENERATED_(99)
  6
Continuous
 62
     7
100
AcDbEllipse
 10
83.8571827661
 20
390.1963058664
 30
0.0
 11
0.07575649843840226
 21
-0.07575649843840834
 31
0.0
210
0.0
220
0.0
230
1.0
 40
0.8616551265
 41
3.852814323776728
 42
5.423610650572333
  0
ELLIPSE
  5
A7
330
73
100
AcDbEntity
  8
$DDT_AUDIT_GENERATED_(99)
  6
Continuous
 62
     7
100
AcDbEllipse
 10
83.8571827661
 20
390.4232988907
 30
0.0
 11
-0.07575649843840573
 21
-0.07575649843840487
 31
0.0
210
0.0
220
0.0
230
0.9999999999999998
 40
0.8616551265
 41
0.859574656607293
 42
2.430370983402898
  0
ELLIPSE
  5
A8
330
73
100
AcDbEntity
  8
$DDT_AUDIT_GENERATED_(99)
  6
Continuous
 62
     7
100
AcDbEllipse
 10
83.8571827661
 20
390.4232988907
 30
0.0
 11
0.07575649843840487
 21
-0.07575649843840487
 31
0.0
210
0.0
220
0.0
230
0.9999999999999998
 40
0.8616551265
 41
3.852814323777261
 42
5.423610650572303
  0
ELLIPSE
  5
A9
330
73
100
AcDbEntity
  8
$DDT_AUDIT_GENERATED_(99)
  6
Continuous
 62
     7
100
AcDbEllipse
 10
83.8571827661
 20
390.6502919149
 30
0.0
 11
-0.075756498438404
 21
-0.07575649843840659
 31
0.0
210
0.0
220
0.0
230
1.0
 40
0.8616551265
 41
0.8595746566072736
 42
2.430370983402734
  0
ELLIPSE
  5
AA
330
73
100
AcDbEntity
  8
$DDT_AUDIT_GENERATED_(99)
  6
Continuous
 62
     7
100
AcDbEllipse
 10
83.8571827661
 20
390.6502919149
 30
0.0
 11
0.07575649843840748
 21
-0.07575649843840314
 31
0.0
210
0.0
220
0.0
230
1.0
 40
0.8616551265
 41
3.852814323776669
 42
5.423610650572273
  0
ELLIPSE
  5
AB
330
73
100
AcDbEntity
  8
$DDT_AUDIT_GENERATED_(99)
  6
Continuous
 62
     7
100
AcDbEllipse
 10
85.3928970518
 20
390.8772849391
 30
0.0
 11
-0.07575649843840572
 21
-0.07575649843840312
 31
0.0
210
0.0
220
0.0
230
1.0
 40
0.8616551265
 41
0.8595746566072933
 42
2.07942291801363
  0
ELLIPSE
  5
AC
330
73
100
AcDbEntity
  8
$DDT_AUDIT_GENERATED_(99)
  6
Continuous
 62
     7
100
AcDbEllipse
 10
85.3928970518
 20
390.8772849391
 30
0.0
 11
0.075756498438404
 21
-0.07575649843840659
 31
0.0
210
0.0
220
0.0
230
1.0
 40
0.8616551265
 41
4.363671785351103
 42
5.423610650572437
  0
ELLIPSE
  5
AD
330
73
100
AcDbEntity
  8
$DDT_AUDIT_GENERATED_(99)
  6
Continuous
 62
     7
100
AcDbEllipse
 10
85.3928970518
 20
390.6502919149
 30
0.0
 11
-0.07575649843840748
 21
-0.07575649843840314
 31
0.0
210
0.0
220
0.0
230
0.9999999999999999
 40
0.8616551265
 41
0.859574656607313
 42
2.430370983402918
  0
ELLIPSE
  5
AE
330
73
100
AcDbEntity
  8
$DDT_AUDIT_GENERATED_(99)
  6
Continuous
 62
     7
100
AcDbEllipse
 10
85.3928970518
 20
390.6502919149
 30
0.0
 11
0.075756498438404
 21
-0.07575649843840659
 31
0.0
210
0.0
220
0.0
230
1.0
 40
0.8616551265
 41
3.852814323776852
 42
5.423610650572313
  0
ELLIPSE
  5
AF
330
73
100
AcDbEntity
  8
$DDT_AUDIT_GENERATED_(99)
  6
Continuous
 62
     7
100
AcDbEllipse
 10
85.3928970518
 20
390.4232988907
 30
0.0
 11
-0.07575649843840226
 21
-0.07575649843840834
 31
0.0
210
0.0
220
0.0
230
1.0
 40
0.8616551265
 41
0.8595746566072536
 42
2.430370983402284
  0
ELLIPSE
  5
B0
330
73
100
AcDbEntity
  8
$DDT_AUDIT_GENERATED_(99)
  6
Continuous
 62
     7
100
AcDbEllipse
 10
85.3928970518
 20
390.4232988907
 30
0.0
 11
0.07575649843840487
 21
-0.07575649843840487
 31
0.0
210
0.0
220
0.0
230
0.9999999999999998
 40
0.8616551265
 41
3.852814323776687
 42
5.423610650572303
  0
ELLIPSE
  5
B1
330
73
100
AcDbEntity
  8
$DDT_AUDIT_GENERATED_(99)
  6
Continuous
 62
     7
100
AcDbEllipse
 10
85.3928970518
 20
390.1963058664
 30
0.0
 11
-0.07575649843840573
 21
-0.07575649843840487
 31
0.0
210
0.0
220
0.0
230
0.9999999999999998
 40
0.8616551265
 41
0.859574656607293
 42
2.430370983402898
  0
ELLIPSE
  5
B2
330
73
100
AcDbEntity
  8
$DDT_AUDIT_GENERATED_(99)
  6
Continuous
 62
     7
100
AcDbEllipse
 10
85.3928970518
 20
390.1963058664
 30
0.0
 11
0.07575649843840572
 21
-0.07575649843840312
 31
0.0
210
0.0
220
0.0
230
1.0
 40
0.8616551265
 41
3.852814323777241
 42
5.423610650572664
  0
ELLIPSE
  5
B3
330
73
100
AcDbEntity
  8
$DDT_AUDIT_GENERATED_(99)
  6
Continuous
 62
     7
100
AcDbEllipse
 10
85.3928970518
 20
389.9693128422
 30
0.0
 11
-0.07575649843839966
 21
-0.0757564984384118
 31
0.0
210
0.0
220
0.0
230
1.0
 40
0.8616551265
 41
0.859574656607224
 42
2.430370983402817
  0
ELLIPSE
  5
B4
330
73
100
AcDbEntity
  8
$DDT_AUDIT_GENERATED_(99)
  6
Continuous
 62
     7
100
AcDbEllipse
 10
85.3928970518
 20
389.9693128422
 30
0.0
 11
0.07575649843839966
 21
-0.0757564984384118
 31
0.0
210
0.0
220
0.0
230
1.0
 40
0.8616551265
 41
3.852814323776769
 42
5.423610650572362
  0
ELLIPSE
  5
B5
330
73
100
AcDbEntity
  8
$DDT_AUDIT_GENERATED_(99)
  6
Continuous
 62
     7
100
AcDbEllipse
 10
85.3928970518
 20
389.742319818
 30
0.0
 11
-0.07575649843840401
 21
-0.07575649843840487
 31
0.0
210
0.0
220
0.0
230
0.9999999999999998
 40
0.8616551265
 41
0.8595746566073974
 42
2.430370983402183
  0
ELLIPSE
  5
B6
330
73
100
AcDbEntity
  8
$DDT_AUDIT_GENERATED_(99)
  6
Continuous
 62
     7
100
AcDbEllipse
 10
85.3928970518
 20
389.742319818
 30
0.0
 11
0.07575649843840401
 21
-0.07575649843840487
 31
0.0
210
0.0
220
0.0
230
0.9999999999999998
 40
0.8616551265
 41
3.852814323777404
 42
5.423610650572066
  0
ELLIPSE
  5
B7
330
73
100
AcDbEntity
  8
$DDT_AUDIT_GENERATED_(99)
  6
Continuous
 62
     7
100
AcDbEllipse
 10
85.3928970518
 20
389.5153267937
 30
0.0
 11
-0.07575649843839793
 21
-0.07575649843841181
 31
0.0
210
0.0
220
0.0
230
1.0
 40
0.8616551265
 41
0.8595746566070805
 42
2.43037098340282
  0
ELLIPSE
  5
B8
330
73
100
AcDbEntity
  8
$DDT_AUDIT_GENERATED_(99)
  6
Continuous
 62
     7
100
AcDbEllipse
 10
85.3928970518
 20
389.5153267937
 30
0.0
 11
0.07575649843839966
 21
-0.0757564984384118
 31
0.0
210
0.0
220
0.0
230
1.0
 40
0.8616551265
 41
3.852814323776769
 42
5.423610650572362
  0
ELLIPSE
  5
B9
330
73
100
AcDbEntity
  8
$DDT_AUDIT_GENERATED_(99)
  6
Continuous
 62
     7
100
AcDbEllipse
 10
86.9286113375
 20
389.2883337695
 30
0.0
 11
-0.07575649843840748
 21
-0.0757564984384014
 31
0.0
210
0.0
220
0.0
230
1.0
 40
0.8616551265
 41
0.859574656607313
 42
2.430370983402366
  0
ELLIPSE
  5
BA
330
73
100
AcDbEntity
  8
$DDT_AUDIT_GENERATED_(99)
  6
Continuous
 62
     7
100
AcDbEllipse
 10
86.9286113375
 20
389.2883337695
 30
0.0
 11
0.07575649843840226
 21
-0.07575649843840834
 31
0.0
210
0.0
220
0.0
230
1.0
 40
0.8616551265
 41
3.852814323776871
 42
5.423610650572333
  0
ELLIPSE
  5
BB
330
73
100
AcDbEntity
  8
$DDT_AUDIT_GENERATED_(99)
  6
Continuous
 62
     7
100
AcDbEllipse
 10
86.9286113375
 20
389.5153267937
 30
0.0
 11
-0.07575649843839793
 21
-0.07575649843841181
 31
0.0
210
0.0
220
0.0
230
1.0
 40
0.8616551265
 41
0.8595746566070805
 42
2.43037098340282
  0
ELLIPSE
  5
BC
330
73
100
AcDbEntity
  8
$DDT_AUDIT_GENERATED_(99)
  6
Continuous
 62
     7
100
AcDbEllipse
 10
86.9286113375
 20
389.5153267937
 30
0.0
 11
0.07575649843839793
 21
-0.07575649843841181
 31
0.0
210
0.0
220
0.0
230
1.0
 40
0.8616551265
 41
3.852814323776909
 42
5.423610650572382
  0
ELLIPSE
  5
BD
330
73
100
AcDbEntity
  8
$DDT_AUDIT_GENERATED_(99)
  6
Continuous
 62
     7
100
AcDbEllipse
 10
86.9286113375
 20
389.742319818
 30
0.0
 11
-0.07575649843840401
 21
-0.07575649843840487
 31
0.0
210
0.0
220
0.0
230
0.9999999999999998
 40
0.8616551265
 41
0.859574656606902
 42
2.430370983402183
  0
ELLIPSE
  5
BE
330
73
100
AcDbEntity
  8
$DDT_AUDIT_GENERATED_(99)
  6
Continuous
 62
     7
100
AcDbEllipse
 10
86.9286113375
 20
389.742319818
 30
0.0
 11
0.07575649843840661
 21
-0.0757564984384014
 31
0.0
210
0.0
220
0.0
230
0.9999999999999999
 40
0.8616551265
 41
3.852814323777363
 42
5.423610650572531
  0
ELLIPSE
  5
BF
330
73
100
AcDbEntity
  8
$DDT_AUDIT_GENERATED_(99)
  6
Continuous
 62
     7
100
AcDbEllipse
 10
86.9286113375
 20
389.9693128422
 30
0.0
 11
-0.07575649843839966
 21
-0.0757564984384118
 31
0.0
210
0.0
220
0.0
230
1.0
 40
0.8616551265
 41
0.859574656607224
 42
2.430370983402817
  0
ELLIPSE
  5
C0
330
73
100
AcDbEntity
  8
$DDT_AUDIT_GENERATED_(99)
  6
Continuous
 62
     7
100
AcDbEllipse
 10
86.9286113375
 20
389.9693128422
 30
0.0
 11
0.07575649843839966
 21
-0.0757564984384118
 31
0.0
210
0.0
220
0.0
230
1.0
 40
0.8616551265
 41
3.852814323776913
 42
5.423610650572362
  0
ELLIPSE
  5
C1
330
73
100
AcDbEntity
  8
$DDT_AUDIT_GENERATED_(99)
  6
Continuous
 62
     7
100
AcDbEllipse
 10
86.9286113375
 20
390.1963058664
 30
0.0
 11
-0.07575649843840573
 21
-0.07575649843840487
 31
0.0
210
0.0
220
0.0
230
0.9999999999999998
 40
0.8616551265
 41
0.8595746566069216
 42
2.430370983402323
  0
ELLIPSE
  5
C2
330
73
100
AcDbEntity
  8
$DDT_AUDIT_GENERATED_(99)
  6
Continuous
 62
     7
100
AcDbEllipse
 10
86.9286113375
 20
390.1963058664
 30
0.0
 11
0.07575649843840226
 21
-0.07575649843841008
 31
0.0
210
0.0
220
0.0
230
1.0
 40
0.8616551265
 41
3.852814323776895
 42
5.423610650572333
  0
ELLIPSE
  5
C3
330
73
100
AcDbEntity
  8
$DDT_AUDIT_GENERATED_(99)
  6
Continuous
 62
     7
100
AcDbEllipse
 10
86.9286113375
 20
390.4232988907
 30
0.0
 11
-0.07575649843840054
 21
-0.07575649843841008
 31
0.0
210
0.0
220
0.0
230
1.0
 40
0.8616551265
 41
0.8595746566073579
 42
2.430370983402264
  0
ELLIPSE
  5
C4
330
73
100
AcDbEntity
  8
$DDT_AUDIT_GENERATED_(99)
  6
Continuous
 62
     7
100
AcDbEllipse
 10
86.9286113375
 20
390.4232988907
 30
0.0
 11
0.07575649843840487
 21
-0.07575649843840487
 31
0.0
210
0.0
220
0.0
230
0.9999999999999998
 40
0.8616551265
 41
3.852814323777405
 42
5.423610650572303
  0
ELLIPSE
  5
C5
330
73
100
AcDbEntity
  8
$DDT_AUDIT_GENERATED_(99)
  6
Continuous
 62
     7
100
AcDbEllipse
 10
86.9286113375
 20
390.6502919149
 30
0.0
 11
-0.07575649843840314
 21
-0.07575649843840661
 31
0.0
210
0.0
220
0.0
230
1.0
 40
0.8616551265
 41
0.8595746566072636
 42
2.430370983402736
  0
ELLIPSE
  5
C6
330
73
100
AcDbEntity
  8
$DDT_AUDIT_GENERATED_(99)
  6
Continuous
 62
     7
100
AcDbEllipse
 10
86.9286113375
 20
390.6502919149
 30
0.0
 11
0.075756498438404
 21
-0.07575649843840659
 31
0.0
210
0.0
220
0.0
230
1.0
 40
0.8616551265
 41
3.852814323776996
 42
5.423610650572313
  0
ELLIPSE
  5
C7
330
73
100
AcDbEntity
  8
$DDT_AUDIT_GENERATED_(99)
  6
Continuous
 62
     7
100
AcDbEllipse
 10
86.9286113375
 20
390.8772849391
 30
0.0
 11
-0.07575649843840572
 21
-0.07575649843840312
 31
0.0
210
0.0
220
0.0
230
1.0
 40
0.8616551265
 41
0.8595746566072933
 42
2.430370983402346
  0
ELLIPSE
  5
C8
330
73
100
AcDbEntity
  8
$DDT_AUDIT_GENERATED_(99)
  6
Continuous
 62
     7
100
AcDbEllipse
 10
86.9286113375
 20
390.8772849391
 30
0.0
 11
0.07575649843840572
 21
-0.07575649843840312
 31
0.0
210
0.0
220
0.0
230
1.0
 40
0.8616551265
 41
3.852814323777384
 42
5.423610650572293
  0
ELLIPSE
  5
C9
330
73
100
AcDbEntity
  8
$DDT_AUDIT_GENERATED_(99)
  6
Continuous
 62
     7
100
AcDbEllipse
 10
88.4643256232
 20
391.1042779634
 30
0.0
 11
-0.07575649843840618
 21
-0.07575649843840312
 31
0.0
210
0.0
220
0.0
230
1.0
 40
0.8616551265
 41
0.859574656607298
 42
1.53182606959992
  0
ELLIPSE
  5
CA
330
73
100
AcDbEntity
  8
$DDT_AUDIT_GENERATED_(99)
  6
Continuous
 62
     7
100
AcDbEllipse
 10
88.4643256232
 20
391.1042779634
 30
0.0
 11
0.07575649843840097
 21
-0.07575649843841008
 31
0.0
210
0.0
220
0.0
230
1.0
 40
0.8616551265
 41
4.815206690631189
 42
5.423610650572347
  0
ELLIPSE
  5
CB
330
73
100
AcDbEntity
  8
$DDT_AUDIT_GENERATED_(99)
  6
Continuous
 62
     7
100
AcDbEllipse
 10
88.4643256232
 20
390.8772849391
 30
0.0
 11
-0.07575649843840357
 21
-0.07575649843840661
 31
0.0
210
0.0
220
0.0
230
1.0
 40
0.8616551265
 41
0.8595746566072686
 42
2.43037098340216
  0
ELLIPSE
  5
CC
330
73
100
AcDbEntity
  8
$DDT_AUDIT_GENERATED_(99)
  6
Continuous
 62
     7
100
AcDbEllipse
 10
88.4643256232
 20
390.8772849391
 30
0.0
 11
0.07575649843840618
 21
-0.07575649843840312
 31
0.0
210
0.0
220
0.0
230
1.0
 40
0.8616551265
 41
3.852814323777384
 42
5.423610650572289
  0
ELLIPSE
  5
CD
330
73
100
AcDbEntity
  8
$DDT_AUDIT_GENERATED_(99)
  6
Continuous
 62
     7
100
AcDbEllipse
 10
88.4643256232
 20
390.6502919149
 30
0.0
 11
-0.07575649843840748
 21
-0.07575649843840314
 31
0.0
210
0.0
220
0.0
230
0.9999999999999999
 40
0.8616551265
 41
0.859574656607313
 42
2.430370983402918
  0
ELLIPSE
  5
CE
330
73
100
AcDbEntity
  8
$DDT_AUDIT_GENERATED_(99)
  6
Continuous
 62
     7
100
AcDbEllipse
 10
88.4643256232
 20
390.6502919149
 30
0.0
 11
0.07575649843840965
 21
-0.07575649843839967
 31
0.0
210
0.0
220
0.0
230
1.0
 40
0.8616551265
 41
3.85281432377677
 42
5.423610650572249
  0
ELLIPSE
  5
CF
330
73
100
AcDbEntity
  8
$DDT_AUDIT_GENERATED_(99)
  6
Continuous
 62
     7
100
AcDbEllipse
 10
88.4643256232
 20
390.4232988907
 30
0.0
 11
-0.07575649843840487
 21
-0.07575649843840834
 31
0.0
210
0.0
220
0.0
230
1.0
 40
0.8616551265
 41
0.8595746566072833
 42
2.430370983402279
  0
ELLIPSE
  5
D0
330
73
100
AcDbEntity
  8
$DDT_AUDIT_GENERATED_(99)
  6
Continuous
 62
     7
100
AcDbEllipse
 10
88.4643256232
 20
390.4232988907
 30
0.0
 11
0.07575649843840834
 21
-0.0757564984384014
 31
0.0
210
0.0
220
0.0
230
1.0
 40
0.8616551265
 41
3.852814323777366
 42
5.423610650572264
  0
ELLIPSE
  5
D1
330
73
100
AcDbEntity
  8
$DDT_AUDIT_GENERATED_(99)
  6
Continuous
 62
     7
100
AcDbEllipse
 10
88.4643256232
 20
390.1963058664
 30
0.0
 11
-0.07575649843840573
 21
-0.07575649843840487
 31
0.0
210
0.0
220
0.0
230
1.0
 40
0.8616551265
 41
0.8595746566069216
 42
2.430370983402323
  0
ELLIPSE
  5
D2
330
73
100
AcDbEntity
  8
$DDT_AUDIT_GENERATED_(99)
  6
Continuous
 62
     7
100
AcDbEllipse
 10
88.4643256232
 20
390.1963058664
 30
0.0
 11
0.07575649843840618
 21
-0.07575649843840312
 31
0.0
210
0.0
220
0.0
230
1.0
 40
0.8616551265
 41
3.852814323777384
 42
5.42361065057266
  0
ELLIPSE
  5
D3
330
73
100
AcDbEntity
  8
$DDT_AUDIT_GENERATED_(99)
  6
Continuous
 62
     7
100
AcDbEllipse
 10
88.4643256232
 20
389.9693128422
 30
0.0
 11
-0.07575649843840097
 21
-0.07575649843841181
 31
0.0
210
0.0
220
0.0
230
1.0
 40
0.8616551265
 41
0.8595746566073627
 42
2.430370983402814
  0
ELLIPSE
  5
D4
330
73
100
AcDbEntity
  8
$DDT_AUDIT_GENERATED_(99)
  6
Continuous
 62
     7
100
AcDbEllipse
 10
88.4643256232
 20
389.9693128422
 30
0.0
 11
0.07575649843840183
 21
-0.07575649843841008
 31
0.0
210
0.0
220
0.0
230
1.0
 40
0.8616551265
 41
3.852814323776894
 42
5.423610650572337
  0
ELLIPSE
  5
D5
330
73
100
AcDbEntity
  8
$DDT_AUDIT_GENERATED_(99)
  6
Continuous
 62
     7
100
AcDbEllipse
 10
88.4643256232
 20
389.742319818
 30
0.0
 11
-0.07575649843840271
 21
-0.07575649843840487
 31
0.0
210
0.0
220
0.0
230
0.9999999999999999
 40
0.8616551265
 41
0.8595746566068873
 42
2.430370983402185
  0
ELLIPSE
  5
D6
330
73
100
AcDbEntity
  8
$DDT_AUDIT_GENERATED_(99)
  6
Continuous
 62
     7
100
AcDbEllipse
 10
88.4643256232
 20
389.742319818
 30
0.0
 11
0.07575649843840401
 21
-0.07575649843840487
 31
0.0
210
0.0
220
0.0
230
1.0
 40
0.8616551265
 41
3.852814323777547
 42
5.423610650572684
  0
ELLIPSE
  5
D7
330
73
100
AcDbEntity
  8
$DDT_AUDIT_GENERATED_(99)
  6
Continuous
 62
     7
100
AcDbEllipse
 10
88.4643256232
 20
389.5153267937
 30
0.0
 11
-0.0757564984384001
 21
-0.07575649843841181
 31
0.0
210
0.0
220
0.0
230
1.0
 40
0.8616551265
 41
0.8595746566072289
 42
2.430370983402816
  0
ELLIPSE
  5
D8
330
73
100
AcDbEntity
  8
$DDT_AUDIT_GENERATED_(99)
  6
Continuous
 62
     7
100
AcDbEllipse
 10
88.4643256232
 20
389.5153267937
 30
0.0
 11
0.0757564984383975
 21
-0.07575649843841181
 31
0.0
210
0.0
220
0.0
230
1.0
 40
0.8616551265
 41
3.852814323776908
 42
5.423610650572387
  0
ELLIPSE
  5
D9
330
73
100
AcDbEntity
  8
$DDT_AUDIT_GENERATED_(99)
  6
Continuous
 62
     7
100
AcDbEllipse
 10
88.4643256232
 20
389.2883337695
 30
0.0
 11
-0.07575649843840748
 21
-0.0757564984384014
 31
0.0
210
0.0
220
0.0
230
1.0
 40
0.8616551265
 41
0.859574656607313
 42
2.430370983402366
  0
ELLIPSE
  5
DA
330
73
100
AcDbEntity
  8
$DDT_AUDIT_GENERATED_(99)
  6
Continuous
 62
     7
100
AcDbEllipse
 10
88.4643256232
 20
389.2883337695
 30
0.0
 11
0.07575649843840271
 21
-0.07575649843840834
 31
0.0
210
0.0
220
0.0
230
0.9999999999999998
 40
0.8616551265
 41
3.852814323776872
 42
5.423610650572328
  0
ELLIPSE
  5
DB
330
73
100
AcDbEntity
  8
$DDT_AUDIT_GENERATED_(99)
  6
Continuous
 62
     7
100
AcDbEllipse
 10
90.000039909
 20
389.0613407453
 30
0.0
 11
0.07575649843866594
 21
0.07575649843826956
 31
0.0
210
0.0
220
0.0
230
1.0
 40
0.8616551265
 41
5.31607808091722
 42
5.571963636994127
  0
ELLIPSE
  5
DC
330
73
100
AcDbEntity
  8
$DDT_AUDIT_GENERATED_(99)
  6
Continuous
 62
     7
100
AcDbEllipse
 10
90.000039909
 20
389.2883337695
 30
0.0
 11
-0.07575649843840812
 21
-0.0757564984384014
 31
0.0
210
0.0
220
0.0
230
1.0
 40
0.8616551265
 41
0.8595746566073201
 42
2.430370983402364
  0
ELLIPSE
  5
DD
330
73
100
AcDbEntity
  8
$DDT_AUDIT_GENERATED_(99)
  6
Continuous
 62
     7
100
AcDbEllipse
 10
90.000039909
 20
389.2883337695
 30
0.0
 11
0.07575649843840292
 21
-0.07575649843840834
 31
0.0
210
0.0
220
0.0
230
0.9999999999999998
 40
0.8616551265
 41
3.852814323777448
 42
5.423610650572325
  0
ELLIPSE
  5
DE
330
73
100
AcDbEntity
  8
$DDT_AUDIT_GENERATED_(99)
  6
Continuous
 62
     7
100
AcDbEllipse
 10
90.000039909
 20
389.5153267937
 30
0.0
 11
-0.07575649843839946
 21
-0.07575649843841183
 31
0.0
210
0.0
220
0.0
230
1.0
 40
0.8616551265
 41
0.8595746566072215
 42
2.430370983402674
  0
ELLIPSE
  5
DF
330
73
100
AcDbEntity
  8
$DDT_AUDIT_GENERATED_(99)
  6
Continuous
 62
     7
100
AcDbEllipse
 10
90.000039909
 20
389.5153267937
 30
0.0
 11
0.0757564984383986
 21
-0.07575649843841183
 31
0.0
210
0.0
220
0.0
230
0.9999999999999999
 40
0.8616551265
 41
3.852814323776911
 42
5.423610650572498
  0
ELLIPSE
  5
E0
330
73
100
AcDbEntity
  8
$DDT_AUDIT_GENERATED_(99)
  6
Continuous
 62
     7
100
AcDbEllipse
 10
90.000039909
 20
389.742319818
 30
0.0
 11
-0.07575649843840336
 21
-0.07575649843840487
 31
0.0
210
0.0
220
0.0
230
1.0
 40
0.8616551265
 41
0.8595746566068947
 42
2.43037098340204
  0
ELLIPSE
  5
E1
330
73
100
AcDbEntity
  8
$DDT_AUDIT_GENERATED_(99)
  6
Continuous
 62
     7
100
AcDbEllipse
 10
90.000039909
 20
389.742319818
 30
0.0
 11
0.07575649843840594
 21
-0.07575649843840139
 31
0.0
210
0.0
220
0.0
230
1.0
 40
0.8616551265
 41
3.852814323777361
 42
5.423610650572043
  0
ELLIPSE
  5
E2
330
73
100
AcDbEntity
  8
$DDT_AUDIT_GENERATED_(99)
  6
Continuous
 62
     7
100
AcDbEllipse
 10
90.000039909
 20
389.9693128422
 30
0.0
 11
-0.07575649843840075
 21
-0.07575649843841181
 31
0.0
210
0.0
220
0.0
230
1.0
 40
0.8616551265
 41
0.8595746566072362
 42
2.430370983402672
  0
ELLIPSE
  5
E3
330
73
100
AcDbEntity
  8
$DDT_AUDIT_GENERATED_(99)
  6
Continuous
 62
     7
100
AcDbEllipse
 10
90.000039909
 20
389.9693128422
 30
0.0
 11
0.07575649843840054
 21
-0.07575649843841181
 31
0.0
210
0.0
220
0.0
230
1.0
 40
0.8616551265
 41
3.852814323776915
 42
5.423610650572352
  0
ELLIPSE
  5
E4
330
73
100
AcDbEntity
  8
$DDT_AUDIT_GENERATED_(99)
  6
Continuous
 62
     7
100
AcDbEllipse
 10
90.000039909
 20
390.1963058664
 30
0.0
 11
-0.07575649843840596
 21
-0.07575649843840487
 31
0.0
210
0.0
220
0.0
230
1.0
 40
0.8616551265
 41
0.8595746566072956
 42
2.430370983402898
  0
ELLIPSE
  5
E5
330
73
100
AcDbEntity
  8
$DDT_AUDIT_GENERATED_(99)
  6
Continuous
 62
     7
100
AcDbEllipse
 10
90.000039909
 20
390.1963058664
 30
0.0
 11
0.07575649843840725
 21
-0.07575649843840312
 31
0.0
210
0.0
220
0.0
230
1.0
 40
0.8616551265
 41
3.852814323777387
 42
5.423610650572647
  0
ELLIPSE
  5
E6
330
73
100
AcDbEntity
  8
$DDT_AUDIT_GENERATED_(99)
  6
Continuous
 62
     7
100
AcDbEllipse
 10
90.000039909
 20
390.4232988907
 30
0.0
 11
-0.07575649843840682
 21
-0.07575649843840312
 31
0.0
210
0.0
220
0.0
230
1.0
 40
0.8616551265
 41
0.8595746566073054
 42
2.430370983402344
  0
ELLIPSE
  5
E7
330
73
100
AcDbEntity
  8
$DDT_AUDIT_GENERATED_(99)
  6
Continuous
 62
     7
100
AcDbEllipse
 10
90.000039909
 20
390.4232988907
 30
0.0
 11
0.075756498438404
 21
-0.07575649843840659
 31
0.0
210
0.0
220
0.0
230
1.0
 40
0.8616551265
 41
3.85281432377757
 42
5.423610650572313
  0
ELLIPSE
  5
E8
330
73
100
AcDbEntity
  8
$DDT_AUDIT_GENERATED_(99)
  6
Continuous
 62
     7
100
AcDbEllipse
 10
90.000039909
 20
390.6502919149
 30
0.0
 11
-0.07575649843840812
 21
-0.0757564984384014
 31
0.0
210
0.0
220
0.0
230
1.0
 40
0.8616551265
 41
0.8595746566073201
 42
2.430370983402939
  0
ELLIPSE
  5
E9
330
73
100
AcDbEntity
  8
$DDT_AUDIT_GENERATED_(99)
  6
Continuous
 62
     7
100
AcDbEllipse
 10
90.000039909
 20
390.6502919149
 30
0.0
 11
0.07575649843840487
 21
-0.07575649843840487
 31
0.0
210
0.0
220
0.0
230
0.9999999999999998
 40
0.8616551265
 41
3.852814323776831
 42
5.423610650572303
  0
ELLIPSE
  5
EA
330
73
100
AcDbEntity
  8
$DDT_AUDIT_GENERATED_(99)
  6
Continuous
 62
     7
100
AcDbEllipse
 10
90.000039909
 20
390.8772849391
 30
0.0
 11
-0.07575649843840422
 21
-0.07575649843840659
 31
0.0
210
0.0
220
0.0
230
1.0
 40
0.8616551265
 41
0.8595746566072757
 42
2.430370983402159
  0
ELLIPSE
  5
EB
330
73
100
AcDbEntity
  8
$DDT_AUDIT_GENERATED_(99)
  6
Continuous
 62
     7
100
AcDbEllipse
 10
90.000039909
 20
390.8772849391
 30
0.0
 11
0.07575649843840618
 21
-0.07575649843840312
 31
0.0
210
0.0
220
0.0
230
1.0
 40
0.8616551265
 41
3.852814323777384
 42
5.423610650572289
  0
ELLIPSE
  5
EC
330
73
100
AcDbEntity
  8
$DDT_AUDIT_GENERATED_(99)
  6
Continuous
 62
     7
100
AcDbEllipse
 10
90.000039909
 20
391.1042779634
 30
0.0
 11
-0.07575649843840336
 21
-0.07575649843840834
 31
0.0
210
0.0
220
0.0
230
1.0
 40
0.8616551265
 41
0.8595746566072661
 42
2.022292552646339
  0
ELLIPSE
  5
ED
330
73
100
AcDbEntity
  8
$DDT_AUDIT_GENERATED_(99)
  6
Continuous
 62
     7
100
AcDbEllipse
 10
90.000039909
 20
391.1042779634
 30
0.0
 11
0.07575649843840618
 21
-0.07575649843840312
 31
0.0
210
0.0
220
0.0
230
1.0
 40
0.8616551265
 41
4.295955574490799
 42
5.423610650572289
  0
ELLIPSE
  5
EE
330
73
100
AcDbEntity
  8
$DDT_AUDIT_GENERATED_(99)
  6
Continuous
 62
     7
100
AcDbEllipse
 10
91.5357541947
 20
389.0613407453
 30
0.0
 11
-0.07575649843840594
 21
-0.07575649843840487
 31
0.0
210
0.0
220
0.0
230
0.9999999999999998
 40
0.8616551265
 41
1.614342964576752
 42
2.430370983402179
  0
ELLIPSE
  5
EF
330
73
100
AcDbEntity
  8
$DDT_AUDIT_GENERATED_(99)
  6
Continuous
 62
     7
100
AcDbEllipse
 10
91.5357541947
 20
389.0613407453
 30
0.0
 11
-0.07575649843840498
 21
0.07575649843840487
 31
0.0
210
0.0
220
0.0
230
1.0
 40
0.8616551265
 41
0.7112216701874688
 42
1.527249688999622
  0
ELLIPSE
  5
F0
330
73
100
AcDbEntity
  8
$DDT_AUDIT_GENERATED_(99)
  6
Continuous
 62
     7
100
AcDbEllipse
 10
91.5357541947
 20
391.1042779634
 30
0.0
 11
-0.07575649843840272
 21
-0.07575649843840834
 31
0.0
210
0.0
220
0.0
230
1.0
 40
0.8616551265
 41
0.8595746566072587
 42
2.430370983402139
  0
ELLIPSE
  5
F1
330
73
100
AcDbEntity
  8
$DDT_AUDIT_GENERATED_(99)
  6
Continuous
 62
     7
100
AcDbEllipse
 10
91.5357541947
 20
391.1042779634
 30
0.0
 11
0.07575649843840288
 21
-0.07575649843840834
 31
0.0
210
0.0
220
0.0
230
1.0
 40
0.8616551265
 41
3.852814323777304
 42
5.423610650572326
  0
ELLIPSE
  5
F2
330
73
100
AcDbEntity
  8
$DDT_AUDIT_GENERATED_(99)
  6
Continuous
 62
     7
100
AcDbEllipse
 10
91.5357541947
 20
390.8772849391
 30
0.0
 11
-0.07575649843840576
 21
-0.07575649843840314
 31
0.0
210
0.0
220
0.0
230
1.0
 40
0.8616551265
 41
0.8595746566072934
 42
2.430370983402202
  0
ELLIPSE
  5
F3
330
73
100
AcDbEntity
  8
$DDT_AUDIT_GENERATED_(99)
  6
Continuous
 62
     7
100
AcDbEllipse
 10
91.5357541947
 20
390.8772849391
 30
0.0
 11
0.07575649843840435
 21
-0.07575649843840661
 31
0.0
210
0.0
220
0.0
230
1.0
 40
0.8616551265
 41
3.852814323776996
 42
5.423610650572309
  0
ELLIPSE
  5
F4
330
73
100
AcDbEntity
  8
$DDT_AUDIT_GENERATED_(99)
  6
Continuous
 62
     7
100
AcDbEllipse
 10
91.5357541947
 20
390.6502919149
 30
0.0
 11
-0.07575649843840412
 21
-0.07575649843840487
 31
0.0
210
0.0
220
0.0
230
0.9999999999999998
 40
0.8616551265
 41
0.859574656607275
 42
2.430370983402613
  0
ELLIPSE
  5
F5
330
73
100
AcDbEntity
  8
$DDT_AUDIT_GENERATED_(99)
  6
Continuous
 62
     7
100
AcDbEllipse
 10
91.5357541947
 20
390.6502919149
 30
0.0
 11
0.07575649843840422
 21
-0.07575649843840662
 31
0.0
210
0.0
220
0.0
230
1.0
 40
0.8616551265
 41
3.852814323776852
 42
5.423610650572311
  0
ELLIPSE
  5
F6
330
73
100
AcDbEntity
  8
$DDT_AUDIT_GENERATED_(99)
  6
Continuous
 62
     7
100
AcDbEllipse
 10
91.5357541947
 20
390.4232988907
 30
0.0
 11
-0.07575649843840354
 21
-0.07575649843840661
 31
0.0
210
0.0
220
0.0
230
1.0
 40
0.8616551265
 41
0.859574656607268
 42
2.430370983402017
  0
ELLIPSE
  5
F7
330
73
100
AcDbEntity
  8
$DDT_AUDIT_GENERATED_(99)
  6
Continuous
 62
     7
100
AcDbEllipse
 10
91.5357541947
 20
390.4232988907
 30
0.0
 11
0.0757564984384038
 21
-0.07575649843840661
 31
0.0
210
0.0
220
0.0
230
1.0
 40
0.8616551265
 41
3.852814323776852
 42
5.423610650572315
  0
ELLIPSE
  5
F8
330
73
100
AcDbEntity
  8
$DDT_AUDIT_GENERATED_(99)
  6
Continuous
 62
     7
100
AcDbEllipse
 10
91.5357541947
 20
390.1963058664
 30
0.0
 11
-0.07575649843840598
 21
-0.07575649843840486
 31
0.0
210
0.0
220
0.0
230
1.0
 40
0.8616551265
 41
0.8595746566069248
 42
2.430370983402179
  0
ELLIPSE
  5
F9
330
73
100
AcDbEntity
  8
$DDT_AUDIT_GENERATED_(99)
  6
Continuous
 62
     7
100
AcDbEllipse
 10
91.5357541947
 20
390.1963058664
 30
0.0
 11
0.07575649843840608
 21
-0.07575649843840314
 31
0.0
210
0.0
220
0.0
230
1.0
 40
0.8616551265
 41
3.852814323777241
 42
5.423610650572537
  0
ELLIPSE
  5
FA
330
73
100
AcDbEntity
  8
$DDT_AUDIT_GENERATED_(99)
  6
Continuous
 62
     7
100
AcDbEllipse
 10
91.5357541947
 20
389.9693128422
 30
0.0
 11
-0.07575649843840028
 21
-0.07575649843841181
 31
0.0
210
0.0
220
0.0
230
0.9999999999999998
 40
0.8616551265
 41
0.8595746566072311
 42
2.430370983402097
  0
ELLIPSE
  5
FB
330
73
100
AcDbEntity
  8
$DDT_AUDIT_GENERATED_(99)
  6
Continuous
 62
     7
100
AcDbEllipse
 10
91.5357541947
 20
389.9693128422
 30
0.0
 11
0.07575649843840032
 21
-0.07575649843841181
 31
0.0
210
0.0
220
0.0
230
0.9999999999999998
 40
0.8616551265
 41
3.852814323776914
 42
5.423610650572355
  0
ELLIPSE
  5
FC
330
73
100
AcDbEntity
  8
$DDT_AUDIT_GENERATED_(99)
  6
Continuous
 62
     7
100
AcDbEllipse
 10
91.5357541947
 20
389.742319818
 30
0.0
 11
-0.07575649843840356
 21
-0.07575649843840487
 31
0.0
210
0.0
220
0.0
230
1.0
 40
0.8616551265
 41
0.859574656607516
 42
2.43037098340204
  0
ELLIPSE
  5
FD
330
73
100
AcDbEntity
  8
$DDT_AUDIT_GENERATED_(99)
  6
Continuous
 62
     7
100
AcDbEllipse
 10
91.5357541947
 20
389.742319818
 30
0.0
 11
0.07575649843840537
 21
-0.07575649843840487
 31
0.0
210
0.0
220
0.0
230
0.9999999999999998
 40
0.8616551265
 41
3.852814323777263
 42
5.423610650572173
  0
ELLIPSE
  5
FE
330
73
100
AcDbEntity
  8
$DDT_AUDIT_GENERATED_(99)
  6
Continuous
 62
     7
100
AcDbEllipse
 10
91.5357541947
 20
389.5153267937
 30
0.0
 11
-0.07575649843839904
 21
-0.07575649843841181
 31
0.0
210
0.0
220
0.0
230
1.0
 40
0.8616551265
 41
0.8595746566072171
 42
2.430370983402675
  0
ELLIPSE
  5
FF
330
73
100
AcDbEntity
  8
$DDT_AUDIT_GENERATED_(99)
  6
Continuous
 62
     7
100
AcDbEllipse
 10
91.5357541947
 20
389.5153267937
 30
0.0
 11
0.07575649843839909
 21
-0.07575649843841181
 31
0.0
210
0.0
220
0.0
230
1.0
 40
0.8616551265
 41
3.852814323776911
 42
5.423610650572368
  0
ELLIPSE
  5
100
330
73
100
AcDbEntity
  8
$DDT_AUDIT_GENERATED_(99)
  6
Continuous
 62
     7
100
AcDbEllipse
 10
91.5357541947
 20
389.2883337695
 30
0.0
 11
-0.07575649843840818
 21
-0.07575649843840139
 31
0.0
210
0.0
220
0.0
230
1.0
 40
0.8616551265
 41
0.8595746566073209
 42
2.430370983402221
  0
ELLIPSE
  5
101
330
73
100
AcDbEntity
  8
$DDT_AUDIT_GENERATED_(99)
  6
Continuous
 62
     7
100
AcDbEllipse
 10
91.5357541947
 20
389.2883337695
 30
0.0
 11
0.07575649843840225
 21
-0.07575649843840834
 31
0.0
210
0.0
220
0.0
230
0.9999999999999998
 40
0.8616551265
 41
3.852814323777303
 42
5.423610650572333
  0
ELLIPSE
  5
102
330
73
100
AcDbEntity
  8
$DDT_AUDIT_GENERATED_(99)
  6
Continuous
 62
     7
100
AcDbEllipse
 10
93.0714684804
 20
389.0613407453
 30
0.0
 11
-0.07575649843789985
 21
0.07575649843857835
 31
0.0
210
0.0
220
0.0
230
1.0
 40
0.8616551265
 41
0.7112216701922363
 42
0.967107226269702
  0
ELLIPSE
  5
103
330
73
100
AcDbEntity
  8
$DDT_AUDIT_GENERATED_(99)
  6
Continuous
 62
     7
100
AcDbEllipse
 10
93.0714684804
 20
389.2883337695
 30
0.0
 11
-0.07575649843840812
 21
-0.0757564984384014
 31
0.0
210
0.0
220
0.0
230
1.0
 40
0.8616551265
 41
0.8595746566073201
 42
2.430370983402221
  0
ELLIPSE
  5
104
330
73
100
AcDbEntity
  8
$DDT_AUDIT_GENERATED_(99)
  6
Continuous
 62
     7
100
AcDbEllipse
 10
93.0714684804
 20
389.2883337695
 30
0.0
 11
0.07575649843840249
 21
-0.07575649843840834
 31
0.0
210
0.0
220
0.0
230
1.0
 40
0.8616551265
 41
3.852814323777303
 42
5.42361065057233
  0
ELLIPSE
  5
105
330
73
100
AcDbEntity
  8
$DDT_AUDIT_GENERATED_(99)
  6
Continuous
 62
     7
100
AcDbEllipse
 10
93.0714684804
 20
389.5153267937
 30
0.0
 11
-0.0757564984383986
 21
-0.07575649843841183
 31
0.0
210
0.0
220
0.0
230
0.9999999999999999
 40
0.8616551265
 41
0.8595746566070879
 42
2.430370983402676
  0
ELLIPSE
  5
106
330
73
100
AcDbEntity
  8
$DDT_AUDIT_GENERATED_(99)
  6
Continuous
 62
     7
100
AcDbEllipse
 10
93.0714684804
 20
389.5153267937
 30
0.0
 11
0.07575649843839946
 21
-0.07575649843841183
 31
0.0
210
0.0
220
0.0
230
1.0
 40
0.8616551265
 41
3.852814323776769
 42
5.423610650572365
  0
ELLIPSE
  5
107
330
73
100
AcDbEntity
  8
$DDT_AUDIT_GENERATED_(99)
  6
Continuous
 62
     7
100
AcDbEllipse
 10
93.0714684804
 20
389.742319818
 30
0.0
 11
-0.07575649843840336
 21
-0.07575649843840487
 31
0.0
210
0.0
220
0.0
230
1.0
 40
0.8616551265
 41
0.85957465660739
 42
2.43037098340204
  0
ELLIPSE
  5
108
330
73
100
AcDbEntity
  8
$DDT_AUDIT_GENERATED_(99)
  6
Continuous
 62
     7
100
AcDbEllipse
 10
93.0714684804
 20
389.742319818
 30
0.0
 11
0.07575649843840553
 21
-0.07575649843840487
 31
0.0
210
0.0
220
0.0
230
1.0
 40
0.8616551265
 41
3.852814323777263
 42
5.423610650572172
  0
ELLIPSE
  5
109
330
73
100
AcDbEntity
  8
$DDT_AUDIT_GENERATED_(99)
  6
Continuous
 62
     7
100
AcDbEllipse
 10
93.0714684804
 20
389.9693128422
 30
0.0
 11
-0.07575649843840054
 21
-0.07575649843841181
 31
0.0
210
0.0
220
0.0
230
1.0
 40
0.8616551265
 41
0.859574656607234
 42
2.430370983402672
  0
ELLIPSE
  5
10A
330
73
100
AcDbEntity
  8
$DDT_AUDIT_GENERATED_(99)
  6
Continuous
 62
     7
100
AcDbEllipse
 10
93.0714684804
 20
389.9693128422
 30
0.0
 11
0.07575649843840054
 21
-0.07575649843841181
 31
0.0
210
0.0
220
0.0
230
1.0
 40
0.8616551265
 41
3.852814323776771
 42
5.423610650572352
  0
ELLIPSE
  5
10B
330
73
100
AcDbEntity
  8
$DDT_AUDIT_GENERATED_(99)
  6
Continuous
 62
     7
100
AcDbEllipse
 10
93.0714684804
 20
390.1963058664
 30
0.0
 11
-0.07575649843840639
 21
-0.07575649843840314
 31
0.0
210
0.0
220
0.0
230
1.0
 40
0.8616551265
 41
0.859574656606929
 42
2.430370983402201
  0
ELLIPSE
  5
10C
330
73
100
AcDbEntity
  8
$DDT_AUDIT_GENERATED_(99)
  6
Continuous
 62
     7
100
AcDbEllipse
 10
93.0714684804
 20
390.1963058664
 30
0.0
 11
0.07575649843840618
 21
-0.07575649843840312
 31
0.0
210
0.0
220
0.0
230
1.0
 40
0.8616551265
 41
3.852814323777241
 42
5.42361065057266
  0
ELLIPSE
  5
10D
330
73
100
AcDbEntity
  8
$DDT_AUDIT_GENERATED_(99)
  6
Continuous
 62
     7
100
AcDbEllipse
 10
93.0714684804
 20
390.4232988907
 30
0.0
 11
-0.07575649843840357
 21
-0.07575649843840661
 31
0.0
210
0.0
220
0.0
230
1.0
 40
0.8616551265
 41
0.8595746566072686
 42
2.430370983402017
  0
ELLIPSE
  5
10E
330
73
100
AcDbEntity
  8
$DDT_AUDIT_GENERATED_(99)
  6
Continuous
 62
     7
100
AcDbEllipse
 10
93.0714684804
 20
390.4232988907
 30
0.0
 11
0.075756498438404
 21
-0.07575649843840659
 31
0.0
210
0.0
220
0.0
230
1.0
 40
0.8616551265
 41
3.852814323777427
 42
5.423610650572313
  0
ELLIPSE
  5
10F
330
73
100
AcDbEntity
  8
$DDT_AUDIT_GENERATED_(99)
  6
Continuous
 62
     7
100
AcDbEllipse
 10
93.0714684804
 20
390.6502919149
 30
0.0
 11
-0.07575649843840812
 21
-0.0757564984384014
 31
0.0
210
0.0
220
0.0
230
1.0
 40
0.8616551265
 41
0.8595746566073201
 42
2.430370983402796
  0
ELLIPSE
  5
110
330
73
100
AcDbEntity
  8
$DDT_AUDIT_GENERATED_(99)
  6
Continuous
 62
     7
100
AcDbEllipse
 10
93.0714684804
 20
390.6502919149
 30
0.0
 11
0.07575649843840357
 21
-0.07575649843840661
 31
0.0
210
0.0
220
0.0
230
1.0
 40
0.8616551265
 41
3.852814323776851
 42
5.423610650572318
  0
ELLIPSE
  5
111
330
73
100
AcDbEntity
  8
$DDT_AUDIT_GENERATED_(99)
  6
Continuous
 62
     7
100
AcDbEllipse
 10
93.0714684804
 20
390.8772849391
 30
0.0
 11
-0.07575649843840118
 21
-0.07575649843841008
 31
0.0
210
0.0
220
0.0
230
1.0
 40
0.8616551265
 41
0.8595746566072415
 42
2.430370983402119
  0
ELLIPSE
  5
112
330
73
100
AcDbEntity
  8
$DDT_AUDIT_GENERATED_(99)
  6
Continuous
 62
     7
100
AcDbEllipse
 10
93.0714684804
 20
390.8772849391
 30
0.0
 11
0.07575649843840986
 21
-0.07575649843839793
 31
0.0
210
0.0
220
0.0
230
0.9999999999999998
 40
0.8616551265
 41
3.852814323776604
 42
5.423610650572246
  0
ELLIPSE
  5
113
330
73
100
AcDbEntity
  8
$DDT_AUDIT_GENERATED_(99)
  6
Continuous
 62
     7
100
AcDbEllipse
 10
93.0714684804
 20
391.1042779634
 30
0.0
 11
-0.07575649843840336
 21
-0.07575649843840834
 31
0.0
210
0.0
220
0.0
230
1.0
 40
0.8616551265
 41
0.8595746566072661
 42
1.98722973268935
  0
ELLIPSE
  5
114
330
73
100
AcDbEntity
  8
$DDT_AUDIT_GENERATED_(99)
  6
Continuous
 62
     7
100
AcDbEllipse
 10
93.0714684804
 20
391.1042779634
 30
0.0
 11
0.07575649843840163
 21
-0.07575649843841008
 31
0.0
210
0.0
220
0.0
230
1.0
 40
0.8616551265
 41
4.260892754533268
 42
5.42361065057234
  0
ELLIPSE
  5
115
330
73
100
AcDbEntity
  8
$DDT_AUDIT_GENERATED_(99)
  6
Continuous
 62
     7
100
AcDbEllipse
 10
94.6071827661
 20
391.1042779634
 30
0.0
 11
-0.07575649843840487
 21
-0.07575649843840314
 31
0.0
210
0.0
220
0.0
230
1.0
 40
0.8616551265
 41
0.8595746566072833
 42
1.467978616548552
  0
ELLIPSE
  5
116
330
73
100
AcDbEntity
  8
$DDT_AUDIT_GENERATED_(99)
  6
Continuous
 62
     7
100
AcDbEllipse
 10
94.6071827661
 20
391.1042779634
 30
0.0
 11
0.07575649843840097
 21
-0.07575649843841008
 31
0.0
210
0.0
220
0.0
230
1.0
 40
0.8616551265
 41
4.751359237579734
 42
5.423610650572347
  0
ELLIPSE
  5
117
330
73
100
AcDbEntity
  8
$DDT_AUDIT_GENERATED_(99)
  6
Continuous
 62
     7
100
AcDbEllipse
 10
94.6071827661
 20
390.8772849391
 30
0.0
 11
-0.07575649843840748
 21
-0.0757564984384014
 31
0.0
210
0.0
220
0.0
230
1.0
 40
0.8616551265
 41
0.859574656607313
 42
2.430370983402222
  0
ELLIPSE
  5
118
330
73
100
AcDbEntity
  8
$DDT_AUDIT_GENERATED_(99)
  6
Continuous
 62
     7
100
AcDbEllipse
 10
94.6071827661
 20
390.8772849391
 30
0.0
 11
0.07575649843840618
 21
-0.07575649843840312
 31
0.0
210
0.0
220
0.0
230
1.0
 40
0.8616551265
 41
3.852814323777241
 42
5.423610650572289
  0
ELLIPSE
  5
119
330
73
100
AcDbEntity
  8
$DDT_AUDIT_GENERATED_(99)
  6
Continuous
 62
     7
100
AcDbEllipse
 10
94.6071827661
 20
390.6502919149
 30
0.0
 11
-0.07575649843840357
 21
-0.07575649843840661
 31
0.0
210
0.0
220
0.0
230
1.0
 40
0.8616551265
 41
0.8595746566072686
 42
2.430370983402591
  0
ELLIPSE
  5
11A
330
73
100
AcDbEntity
  8
$DDT_AUDIT_GENERATED_(99)
  6
Continuous
 62
     7
100
AcDbEllipse
 10
94.6071827661
 20
390.6502919149
 30
0.0
 11
0.07575649843840487
 21
-0.07575649843840487
 31
0.0
210
0.0
220
0.0
230
0.9999999999999998
 40
0.8616551265
 41
3.852814323776687
 42
5.423610650572303
  0
ELLIPSE
  5
11B
330
73
100
AcDbEntity
  8
$DDT_AUDIT_GENERATED_(99)
  6
Continuous
 62
     7
100
AcDbEllipse
 10
94.6071827661
 20
390.4232988907
 30
0.0
 11
-0.07575649843840314
 21
-0.07575649843840834
 31
0.0
210
0.0
220
0.0
230
0.9999999999999999
 40
0.8616551265
 41
0.8595746566072635
 42
2.430370983402138
  0
ELLIPSE
  5
11C
330
73
100
AcDbEntity
  8
$DDT_AUDIT_GENERATED_(99)
  6
Continuous
 62
     7
100
AcDbEllipse
 10
94.6071827661
 20
390.4232988907
 30
0.0
 11
0.07575649843840965
 21
-0.0757564984384014
 31
0.0
210
0.0
220
0.0
230
1.0
 40
0.8616551265
 41
3.852814323777225
 42
5.423610650572249
  0
ELLIPSE
  5
11D
330
73
100
AcDbEntity
  8
$DDT_AUDIT_GENERATED_(99)
  6
Continuous
 62
     7
100
AcDbEllipse
 10
94.6071827661
 20
390.1963058664
 30
0.0
 11
-0.07575649843840573
 21
-0.07575649843840487
 31
0.0
210
0.0
220
0.0
230
0.9999999999999998
 40
0.8616551265
 41
0.859574656607293
 42
2.430370983402754
  0
ELLIPSE
  5
11E
330
73
100
AcDbEntity
  8
$DDT_AUDIT_GENERATED_(99)
  6
Continuous
 62
     7
100
AcDbEllipse
 10
94.6071827661
 20
390.1963058664
 30
0.0
 11
0.07575649843840618
 21
-0.07575649843840312
 31
0.0
210
0.0
220
0.0
230
1.0
 40
0.8616551265
 41
3.852814323777241
 42
5.42361065057266
  0
ELLIPSE
  5
11F
330
73
100
AcDbEntity
  8
$DDT_AUDIT_GENERATED_(99)
  6
Continuous
 62
     7
100
AcDbEllipse
 10
94.6071827661
 20
389.9693128422
 30
0.0
 11
-0.07575649843840097
 21
-0.07575649843841181
 31
0.0
210
0.0
220
0.0
230
1.0
 40
0.8616551265
 41
0.8595746566073627
 42
2.430370983402671
  0
ELLIPSE
  5
120
330
73
100
AcDbEntity
  8
$DDT_AUDIT_GENERATED_(99)
  6
Continuous
 62
     7
100
AcDbEllipse
 10
94.6071827661
 20
389.9693128422
 30
0.0
 11
0.0757564984384014
 21
-0.07575649843841008
 31
0.0
210
0.0
220
0.0
230
1.0
 40
0.8616551265
 41
3.852814323776749
 42
5.423610650572343
  0
ELLIPSE
  5
121
330
73
100
AcDbEntity
  8
$DDT_AUDIT_GENERATED_(99)
  6
Continuous
 62
     7
100
AcDbEllipse
 10
94.6071827661
 20
389.742319818
 30
0.0
 11
-0.07575649843840444
 21
-0.07575649843840487
 31
0.0
210
0.0
220
0.0
230
0.9999999999999998
 40
0.8616551265
 41
0.859574656607526
 42
2.430370983402038
  0
ELLIPSE
  5
122
330
73
100
AcDbEntity
  8
$DDT_AUDIT_GENERATED_(99)
  6
Continuous
 62
     7
100
AcDbEllipse
 10
94.6071827661
 20
389.742319818
 30
0.0
 11
0.07575649843840487
 21
-0.07575649843840487
 31
0.0
210
0.0
220
0.0
230
0.9999999999999998
 40
0.8616551265
 41
3.852814323777261
 42
5.423610650572055
  0
ELLIPSE
  5
123
330
73
100
AcDbEntity
  8
$DDT_AUDIT_GENERATED_(99)
  6
Continuous
 62
     7
100
AcDbEllipse
 10
94.6071827661
 20
389.5153267937
 30
0.0
 11
-0.0757564984384001
 21
-0.07575649843841181
 31
0.0
210
0.0
220
0.0
230
1.0
 40
0.8616551265
 41
0.8595746566072289
 42
2.430370983402673
  0
ELLIPSE
  5
124
330
73
100
AcDbEntity
  8
$DDT_AUDIT_GENERATED_(99)
  6
Continuous
 62
     7
100
AcDbEllipse
 10
94.6071827661
 20
389.5153267937
 30
0.0
 11
0.0757564984383975
 21
-0.07575649843841181
 31
0.0
210
0.0
220
0.0
230
1.0
 40
0.8616551265
 41
3.852814323776765
 42
5.423610650572387
  0
ELLIPSE
  5
125
330
73
100
AcDbEntity
  8
$DDT_AUDIT_GENERATED_(99)
  6
Continuous
 62
     7
100
AcDbEllipse
 10
94.6071827661
 20
389.2883337695
 30
0.0
 11
-0.07575649843840748
 21
-0.0757564984384014
 31
0.0
210
0.0
220
0.0
230
1.0
 40
0.8616551265
 41
0.859574656607313
 42
2.430370983402222
  0
ELLIPSE
  5
126
330
73
100
AcDbEntity
  8
$DDT_AUDIT_GENERATED_(99)
  6
Continuous
 62
     7
100
AcDbEllipse
 10
94.6071827661
 20
389.2883337695
 30
0.0
 11
0.07575649843840226
 21
-0.07575649843840834
 31
0.0
210
0.0
220
0.0
230
1.0
 40
0.8616551265
 41
3.852814323777303
 42
5.423610650572333
  0
ELLIPSE
  5
127
330
73
100
AcDbEntity
  8
$DDT_AUDIT_GENERATED_(99)
  6
Continuous
 62
     7
100
AcDbEllipse
 10
96.1428970518
 20
389.2883337695
 30
0.0
 11
-0.07575649843839793
 21
-0.07575649843841181
 31
0.0
210
0.0
220
0.0
230
1.0
 40
0.8616551265
 41
0.8595746566070805
 42
2.430370983402102
  0
ELLIPSE
  5
128
330
73
100
AcDbEntity
  8
$DDT_AUDIT_GENERATED_(99)
  6
Continuous
 62
     7
100
AcDbEllipse
 10
96.1428970518
 20
389.2883337695
 30
0.0
 11
0.07575649843839793
 21
-0.07575649843841181
 31
0.0
210
0.0
220
0.0
230
1.0
 40
0.8616551265
 41
3.85281432377734
 42
5.423610650572382
  0
ELLIPSE
  5
129
330
73
100
AcDbEntity
  8
$DDT_AUDIT_GENERATED_(99)
  6
Continuous
 62
     7
100
AcDbEllipse
 10
96.1428970518
 20
389.5153267937
 30
0.0
 11
-0.07575649843840314
 21
-0.07575649843840487
 31
0.0
210
0.0
220
0.0
230
0.9999999999999998
 40
0.8616551265
 41
0.8595746566071399
 42
2.430370983402041
  0
ELLIPSE
  5
12A
330
73
100
AcDbEntity
  8
$DDT_AUDIT_GENERATED_(99)
  6
Continuous
 62
     7
100
AcDbEllipse
 10
96.1428970518
 20
389.5153267937
 30
0.0
 11
0.07575649843840487
 21
-0.07575649843840487
 31
0.0
210
0.0
220
0.0
230
0.9999999999999998
 40
0.8616551265
 41
3.852814323776687
 42
5.423610650572303
  0
ELLIPSE
  5
12B
330
73
100
AcDbEntity
  8
$DDT_AUDIT_GENERATED_(99)
  6
Continuous
 62
     7
100
AcDbEllipse
 10
96.1428970518
 20
389.742319818
 30
0.0
 11
-0.07575649843839966
 21
-0.0757564984384118
 31
0.0
210
0.0
220
0.0
230
1.0
 40
0.8616551265
 41
0.8595746566063573
 42
2.430370983402099
  0
ELLIPSE
  5
12C
330
73
100
AcDbEntity
  8
$DDT_AUDIT_GENERATED_(99)
  6
Continuous
 62
     7
100
AcDbEllipse
 10
96.1428970518
 20
389.742319818
 30
0.0
 11
0.07575649843840401
 21
-0.07575649843840487
 31
0.0
210
0.0
220
0.0
230
0.9999999999999998
 40
0.8616551265
 41
3.852814323777404
 42
5.423610650572684
  0
ELLIPSE
  5
12D
330
73
100
AcDbEntity
  8
$DDT_AUDIT_GENERATED_(99)
  6
Continuous
 62
     7
100
AcDbEllipse
 10
96.1428970518
 20
389.9693128422
 30
0.0
 11
-0.07575649843840573
 21
-0.07575649843840487
 31
0.0
210
0.0
220
0.0
230
0.9999999999999998
 40
0.8616551265
 41
0.8595746566071693
 42
2.43037098340218
  0
ELLIPSE
  5
12E
330
73
100
AcDbEntity
  8
$DDT_AUDIT_GENERATED_(99)
  6
Continuous
 62
     7
100
AcDbEllipse
 10
96.1428970518
 20
389.9693128422
 30
0.0
 11
0.07575649843840748
 21
-0.07575649843840314
 31
0.0
210
0.0
220
0.0
230
1.0
 40
0.8616551265
 41
3.852814323776669
 42
5.423610650572273
  0
ELLIPSE
  5
12F
330
73
100
AcDbEntity
  8
$DDT_AUDIT_GENERATED_(99)
  6
Continuous
 62
     7
100
AcDbEllipse
 10
96.1428970518
 20
390.1963058664
 30
0.0
 11
-0.07575649843840314
 21
-0.07575649843840661
 31
0.0
210
0.0
220
0.0
230
1.0
 40
0.8616551265
 41
0.8595746566072636
 42
2.430370983402736
  0
ELLIPSE
  5
130
330
73
100
AcDbEntity
  8
$DDT_AUDIT_GENERATED_(99)
  6
Continuous
 62
     7
100
AcDbEllipse
 10
96.1428970518
 20
390.1963058664
 30
0.0
 11
0.075756498438404
 21
-0.07575649843840834
 31
0.0
210
0.0
220
0.0
230
1.0
 40
0.8616551265
 41
3.852814323776731
 42
5.423610650572313
  0
ELLIPSE
  5
131
330
73
100
AcDbEntity
  8
$DDT_AUDIT_GENERATED_(99)
  6
Continuous
 62
     7
100
AcDbEllipse
 10
96.1428970518
 20
390.4232988907
 30
0.0
 11
-0.07575649843840314
 21
-0.07575649843840661
 31
0.0
210
0.0
220
0.0
230
1.0
 40
0.8616551265
 41
0.8595746566071397
 42
2.430370983402161
  0
ELLIPSE
  5
132
330
73
100
AcDbEntity
  8
$DDT_AUDIT_GENERATED_(99)
  6
Continuous
 62
     7
100
AcDbEllipse
 10
96.1428970518
 20
390.4232988907
 30
0.0
 11
0.07575649843840226
 21
-0.07575649843840834
 31
0.0
210
0.0
220
0.0
230
1.0
 40
0.8616551265
 41
3.852814323776728
 42
5.423610650572333
  0
ELLIPSE
  5
133
330
73
100
AcDbEntity
  8
$DDT_AUDIT_GENERATED_(99)
  6
Continuous
 62
     7
100
AcDbEllipse
 10
96.1428970518
 20
390.6502919149
 30
0.0
 11
-0.075756498438404
 21
-0.07575649843840659
 31
0.0
210
0.0
220
0.0
230
1.0
 40
0.8616551265
 41
0.8595746566072736
 42
2.430370983402734
  0
ELLIPSE
  5
134
330
73
100
AcDbEntity
  8
$DDT_AUDIT_GENERATED_(99)
  6
Continuous
 62
     7
100
AcDbEllipse
 10
96.1428970518
 20
390.6502919149
 30
0.0
 11
0.0757564984384014
 21
-0.07575649843840834
 31
0.0
210
0.0
220
0.0
230
0.9999999999999998
 40
0.8616551265
 41
3.852814323776726
 42
5.423610650572343
  0
ELLIPSE
  5
135
330
73
100
AcDbEntity
  8
$DDT_AUDIT_GENERATED_(99)
  6
Continuous
 62
     7
100
AcDbEllipse
 10
96.1428970518
 20
390.8772849391
 30
0.0
 11
-0.07575649843840314
 21
-0.07575649843840661
 31
0.0
210
0.0
220
0.0
230
1.0
 40
0.8616551265
 41
0.8595746566061492
 42
2.430370983402161
  0
ELLIPSE
  5
136
330
73
100
AcDbEntity
  8
$DDT_AUDIT_GENERATED_(99)
  6
Continuous
 62
     7
100
AcDbEllipse
 10
96.1428970518
 20
390.8772849391
 30
0.0
 11
0.07575649843840748
 21
-0.0757564984384014
 31
0.0
210
0.0
220
0.0
230
1.0
 40
0.8616551265
 41
3.85281432377722
 42
5.423610650572273
  0
ELLIPSE
  5
137
330
73
100
AcDbEntity
  8
$DDT_AUDIT_GENERATED_(99)
  6
Continuous
 62
     7
100
AcDbEllipse
 10
97.6786113375
 20
390.8772849391
 30
0.0
 11
-0.07575649843840314
 21
-0.07575649843840487
 31
0.0
210
0.0
220
0.0
230
1.0
 40
0.8616551265
 41
0.8595746566071399
 42
1.919513521828494
  0
ELLIPSE
  5
138
330
73
100
AcDbEntity
  8
$DDT_AUDIT_GENERATED_(99)
  6
Continuous
 62
     7
100
AcDbEllipse
 10
97.6786113375
 20
390.8772849391
 30
0.0
 11
0.075756498438404
 21
-0.07575649843840659
 31
0.0
210
0.0
220
0.0
230
1.0
 40
0.8616551265
 41
4.203762389165993
 42
5.423610650572437
  0
ELLIPSE
  5
139
330
73
100
AcDbEntity
  8
$DDT_AUDIT_GENERATED_(99)
  6
Continuous
 62
     7
100
AcDbEllipse
 10
97.6786113375
 20
390.6502919149
 30
0.0
 11
-0.07575649843840314
 21
-0.07575649843840661
 31
0.0
210
0.0
220
0.0
230
1.0
 40
0.8616551265
 41
0.8595746566072636
 42
2.430370983402736
  0
ELLIPSE
  5
13A
330
73
100
AcDbEntity
  8
$DDT_AUDIT_GENERATED_(99)
  6
Continuous
 62
     7
100
AcDbEllipse
 10
97.6786113375
 20
390.6502919149
 30
0.0
 11
0.075756498438404
 21
-0.07575649843840659
 31
0.0
210
0.0
220
0.0
230
1.0
 40
0.8616551265
 41
3.852814323776852
 42
5.423610650572313
  0
ELLIPSE
  5
13B
330
73
100
AcDbEntity
  8
$DDT_AUDIT_GENERATED_(99)
  6
Continuous
 62
     7
100
AcDbEllipse
 10
97.6786113375
 20
390.4232988907
 30
0.0
 11
-0.07575649843840314
 21
-0.07575649843840661
 31
0.0
210
0.0
220
0.0
230
0.9999999999999998
 40
0.8616551265
 41
0.8595746566073873
 42
2.430370983402305
  0
ELLIPSE
  5
13C
330
73
100
AcDbEntity
  8
$DDT_AUDIT_GENERATED_(99)
  6
Continuous
 62
     7
100
AcDbEllipse
 10
97.6786113375
 20
390.4232988907
 30
0.0
 11
0.07575649843840487
 21
-0.07575649843840487
 31
0.0
210
0.0
220
0.0
230
0.9999999999999998
 40
0.8616551265
 41
3.852814323776687
 42
5.423610650572303
  0
ELLIPSE
  5
13D
330
73
100
AcDbEntity
  8
$DDT_AUDIT_GENERATED_(99)
  6
Continuous
 62
     7
100
AcDbEllipse
 10
97.6786113375
 20
390.1963058664
 30
0.0
 11
-0.0757564984384092
 21
-0.07575649843840314
 31
0.0
210
0.0
220
0.0
230
1.0
 40
0.8616551265
 41
0.859574656606961
 42
2.430370983402339
  0
ELLIPSE
  5
13E
330
73
100
AcDbEntity
  8
$DDT_AUDIT_GENERATED_(99)
  6
Continuous
 62
     7
100
AcDbEllipse
 10
97.6786113375
 20
390.1963058664
 30
0.0
 11
0.07575649843840226
 21
-0.07575649843841008
 31
0.0
210
0.0
220
0.0
230
1.0
 40
0.8616551265
 41
3.852814323776751
 42
5.423610650572333
  0
ELLIPSE
  5
13F
330
73
100
AcDbEntity
  8
$DDT_AUDIT_GENERATED_(99)
  6
Continuous
 62
     7
100
AcDbEllipse
 10
97.6786113375
 20
389.9693128422
 30
0.0
 11
-0.07575649843839966
 21
-0.0757564984384118
 31
0.0
210
0.0
220
0.0
230
1.0
 40
0.8616551265
 41
0.859574656607224
 42
2.430370983402243
  0
ELLIPSE
  5
140
330
73
100
AcDbEntity
  8
$DDT_AUDIT_GENERATED_(99)
  6
Continuous
 62
     7
100
AcDbEllipse
 10
97.6786113375
 20
389.9693128422
 30
0.0
 11
0.07575649843839966
 21
-0.0757564984384118
 31
0.0
210
0.0
220
0.0
230
1.0
 40
0.8616551265
 41
3.852814323776769
 42
5.423610650572362
  0
ELLIPSE
  5
141
330
73
100
AcDbEntity
  8
$DDT_AUDIT_GENERATED_(99)
  6
Continuous
 62
     7
100
AcDbEllipse
 10
97.6786113375
 20
389.742319818
 30
0.0
 11
-0.07575649843840661
 21
-0.07575649843840487
 31
0.0
210
0.0
220
0.0
230
0.9999999999999999
 40
0.8616551265
 41
0.8595746566069316
 42
2.430370983402322
  0
ELLIPSE
  5
142
330
73
100
AcDbEntity
  8
$DDT_AUDIT_GENERATED_(99)
  6
Continuous
 62
     7
100
AcDbEllipse
 10
97.6786113375
 20
389.742319818
 30
0.0
 11
0.07575649843840661
 21
-0.0757564984384014
 31
0.0
210
0.0
220
0.0
230
0.9999999999999999
 40
0.8616551265
 41
3.852814323777219
 42
5.423610650572531
  0
ELLIPSE
  5
143
330
73
100
AcDbEntity
  8
$DDT_AUDIT_GENERATED_(99)
  6
Continuous
 62
     7
100
AcDbEllipse
 10
97.6786113375
 20
389.5153267937
 30
0.0
 11
-0.07575649843839793
 21
-0.07575649843841181
 31
0.0
210
0.0
220
0.0
230
1.0
 40
0.8616551265
 41
0.8595746566070805
 42
2.430370983402246
  0
ELLIPSE
  5
144
330
73
100
AcDbEntity
  8
$DDT_AUDIT_GENERATED_(99)
  6
Continuous
 62
     7
100
AcDbEllipse
 10
97.6786113375
 20
389.5153267937
 30
0.0
 11
0.07575649843839793
 21
-0.07575649843841181
 31
0.0
210
0.0
220
0.0
230
1.0
 40
0.8616551265
 41
3.852814323776766
 42
5.423610650572382
  0
ELLIPSE
  5
145
330
73
100
AcDbEntity
  8
$DDT_AUDIT_GENERATED_(99)
  6
Continuous
 62
     7
100
AcDbEllipse
 10
99.2143256232
 20
389.5153267937
 30
0.0
 11
-0.07575649843840314
 21
0.07575649843840139
 31
0.0
210
0.0
220
0.0
230
1.0
 40
0.8616551265
 41
0.7112216701874189
 42
1.400452632196798
  0
ELLIPSE
  5
146
330
73
100
AcDbEntity
  8
$DDT_AUDIT_GENERATED_(99)
  6
Continuous
 62
     7
100
AcDbEllipse
 10
99.2143256232
 20
389.742319818
 30
0.0
 11
-0.07575649843840401
 21
-0.07575649843840487
 31
0.0
210
0.0
220
0.0
230
0.9999999999999998
 40
0.8616551265
 41
0.8595746566073974
 42
2.430370983402183
  0
ELLIPSE
  5
147
330
73
100
AcDbEntity
  8
$DDT_AUDIT_GENERATED_(99)
  6
Continuous
 62
     7
100
AcDbEllipse
 10
99.2143256232
 20
389.742319818
 30
0.0
 11
0.07575649843840401
 21
-0.07575649843840487
 31
0.0
210
0.0
220
0.0
230
0.9999999999999998
 40
0.8616551265
 41
3.852814323777404
 42
5.423610650572066
  0
ELLIPSE
  5
148
330
73
100
AcDbEntity
  8
$DDT_AUDIT_GENERATED_(99)
  6
Continuous
 62
     7
100
AcDbEllipse
 10
99.2143256232
 20
389.9693128422
 30
0.0
 11
-0.07575649843839966
 21
-0.0757564984384118
 31
0.0
210
0.0
220
0.0
230
1.0
 40
0.8616551265
 41
0.859574656607224
 42
2.430370983402817
  0
ELLIPSE
  5
149
330
73
100
AcDbEntity
  8
$DDT_AUDIT_GENERATED_(99)
  6
Continuous
 62
     7
100
AcDbEllipse
 10
99.2143256232
 20
389.9693128422
 30
0.0
 11
0.07575649843840226
 21
-0.07575649843841008
 31
0.0
210
0.0
220
0.0
230
1.0
 40
0.8616551265
 41
3.852814323776751
 42
5.423610650572333
  0
ELLIPSE
  5
14A
330
73
100
AcDbEntity
  8
$DDT_AUDIT_GENERATED_(99)
  6
Continuous
 62
     7
100
AcDbEllipse
 10
99.2143256232
 20
390.1963058664
 30
0.0
 11
-0.07575649843840573
 21
-0.07575649843840487
 31
0.0
210
0.0
220
0.0
230
1.0
 40
0.8616551265
 41
0.8595746566069216
 42
2.430370983402323
  0
ELLIPSE
  5
14B
330
73
100
AcDbEntity
  8
$DDT_AUDIT_GENERATED_(99)
  6
Continuous
 62
     7
100
AcDbEllipse
 10
99.2143256232
 20
390.1963058664
 30
0.0
 11
0.07575649843840572
 21
-0.07575649843840312
 31
0.0
210
0.0
220
0.0
230
1.0
 40
0.8616551265
 41
3.852814323777241
 42
5.423610650572664
  0
ELLIPSE
  5
14C
330
73
100
AcDbEntity
  8
$DDT_AUDIT_GENERATED_(99)
  6
Continuous
 62
     7
100
AcDbEllipse
 10
99.2143256232
 20
390.4232988907
 30
0.0
 11
-0.07575649843840054
 21
-0.07575649843841008
 31
0.0
210
0.0
220
0.0
230
1.0
 40
0.8616551265
 41
0.8595746566073579
 42
2.430370983402264
  0
ELLIPSE
  5
14D
330
73
100
AcDbEntity
  8
$DDT_AUDIT_GENERATED_(99)
  6
Continuous
 62
     7
100
AcDbEllipse
 10
99.2143256232
 20
390.4232988907
 30
0.0
 11
0.07575649843840572
 21
-0.07575649843840312
 31
0.0
210
0.0
220
0.0
230
1.0
 40
0.8616551265
 41
3.852814323776665
 42
5.423610650572293
  0
ELLIPSE
  5
14E
330
73
100
AcDbEntity
  8
$DDT_AUDIT_GENERATED_(99)
  6
Continuous
 62
     7
100
AcDbEllipse
 10
99.2143256232
 20
390.6502919149
 30
0.0
 11
-0.07575649843840748
 21
-0.07575649843840314
 31
0.0
210
0.0
220
0.0
230
0.9999999999999999
 40
0.8616551265
 41
0.859574656607313
 42
2.430370983402918
  0
ELLIPSE
  5
14F
330
73
100
AcDbEntity
  8
$DDT_AUDIT_GENERATED_(99)
  6
Continuous
 62
     7
100
AcDbEllipse
 10
99.2143256232
 20
390.6502919149
 30
0.0
 11
0.07575649843840573
 21
-0.07575649843840487
 31
0.0
210
0.0
220
0.0
230
0.9999999999999999
 40
0.8616551265
 41
3.852814323776689
 42
5.423610650572293
  0
ELLIPSE
  5
150
330
73
100
AcDbEntity
  8
$DDT_AUDIT_GENERATED_(99)
  6
Continuous
 62
     7
100
AcDbEllipse
 10
100.750039909
 20
390.4232988907
 30
0.0
 11
-0.0757564984384118
 21
-0.07575649843839966
 31
0.0
210
0.0
220
0.0
230
1.0
 40
0.8616551265
 41
0.8595746566073621
 42
2.430370983402955
  0
ELLIPSE
  5
151
330
73
100
AcDbEntity
  8
$DDT_AUDIT_GENERATED_(99)
  6
Continuous
 62
     7
100
AcDbEllipse
 10
100.750039909
 20
390.4232988907
 30
0.0
 11
0.0757564984384014
 21
-0.07575649843840661
 31
0.0
210
0.0
220
0.0
230
1.0
 40
0.8616551265
 41
3.852814323776991
 42
5.423610650572343
  0
ELLIPSE
  5
152
330
73
100
AcDbEntity
  8
$DDT_AUDIT_GENERATED_(99)
  6
Continuous
 62
     7
100
AcDbEllipse
 10
100.750039909
 20
390.1963058664
 30
0.0
 11
-0.07575649843840314
 21
-0.07575649843840661
 31
0.0
210
0.0
220
0.0
230
0.9999999999999999
 40
0.8616551265
 41
0.8595746566072636
 42
2.430370983402736
  0
ELLIPSE
  5
153
330
73
100
AcDbEntity
  8
$DDT_AUDIT_GENERATED_(99)
  6
Continuous
 62
     7
100
AcDbEllipse
 10
100.750039909
 20
390.1963058664
 30
0.0
 11
0.07575649843840314
 21
-0.07575649843840661
 31
0.0
210
0.0
220
0.0
230
0.9999999999999999
 40
0.8616551265
 41
3.852814323777569
 42
5.423610650573189
  0
ELLIPSE
  5
154
330
73
100
AcDbEntity
  8
$DDT_AUDIT_GENERATED_(99)
  6
Continuous
 62
     7
100
AcDbEllipse
 10
100.750039909
 20
389.9693128422
 30
0.0
 11
-0.0757564984384014
 21
-0.07575649843840834
 31
0.0
210
0.0
220
0.0
230
0.9999999999999999
 40
0.8616551265
 41
0.8595746566072439
 42
2.43037098340286
  0
ELLIPSE
  5
155
330
73
100
AcDbEntity
  8
$DDT_AUDIT_GENERATED_(99)
  6
Continuous
 62
     7
100
AcDbEllipse
 10
100.750039909
 20
389.9693128422
 30
0.0
 11
0.0757564984384014
 21
-0.07575649843841008
 31
0.0
210
0.0
220
0.0
230
1.0
 40
0.8616551265
 41
3.852814323777468
 42
5.423610650572343
  0
SPLINE
  5
156
330
73
100
AcDbEntity
  8
$DDT_AUDIT_GENERATED_(99)
  6
Continuous
 62
     7
100
AcDbSpline
210
0.0
220
0.0
230
1.0
 70
     8
 71
     3
 72
    11
 73
     7
 74
     0
 42
0.000000030237773
 43
0.0000000001
 40
0.1038440616089181
 40
0.1038440616089181
 40
0.1038440616089181
 40
0.1038440616089181
 40
0.1245775322052435
 40
0.1245775322052435
 40
0.1245775322052435
 40
0.167504663818358
 40
0.167504663818358
 40
0.167504663818358
 40
0.167504663818358
 10
86.83444670861378
 20
389.1880691865802
 30
0.0
 10
86.83520642731781
 20
389.1859057832919
 30
0.0
 10
86.83603527462324
 20
389.1837716355146
 30
0.0
 10
86.83692998558826
 20
389.1816757072455
 30
0.0
 10
86.83878386495793
 20
389.1773328542677
 30
0.0
 10
86.84093952305827
 20
389.1731032303238
 30
0.0
 10
86.84334951673526
 20
389.1690416169142
 30
0.0
  0
SPLINE
  5
157
330
73
100
AcDbEntity
  8
$DDT_AUDIT_GENERATED_(99)
  6
Continuous
 62
     7
100
AcDbSpline
210
0.0
220
0.0
230
1.0
 70
     8
 71
     3
 72
    14
 73
    10
 74
     0
 42
0.0000000311217532
 43
0.0000000001
 40
0.0
 40
0.0
 40
0.0
 40
0.0
 40
0.0153753909095174
 40
0.0153753909095174
 40
0.0153753909095174
 40
0.116088964302445
 40
0.116088964302445
 40
0.116088964302445
 40
0.1809442283589669
 40
0.1809442283589669
 40
0.1809442283589669
 40
0.1809442283589669
 10
88.36432562324441
 20
389.132061586863
 30
0.0
 10
88.36432562324441
 20
389.1304251849081
 30
0.0
 10
88.36436671767977
 20
389.1287863560525
 30
0.0
 10
88.3644488089964
 20
389.1271484153987
 30
0.0
 10
88.36498115220101
 20
389.1165267490338
 30
0.0
 10
88.36729643059005
 20
389.1057771609062
 30
0.0
 10
88.37117468783472
 20
389.0957771579882
 30
0.0
 10
88.37367331113951
 20
389.0893345115203
 30
0.0
 10
88.37686077893602
 20
389.0830926933811
 30
0.0
 10
88.38060863153241
 20
389.077240504979
 30
0.0
  0
ARC
  5
158
330
73
100
AcDbEntity
  8
$DDT_AUDIT_GENERATED_(99)
  6
Continuous
 62
     7
100
AcDbCircle
 10
90.0007335602
 20
389.080849987
 30
0.0
 40
0.1006986907012894
100
AcDbArc
 50
180.5732164673
 51
214.829928977
  0
SPLINE
  5
159
330
73
100
AcDbEntity
  8
$DDT_AUDIT_GENERATED_(99)
  6
Continuous
 62
     7
100
AcDbSpline
210
0.0
220
0.0
230
1.0
 70
     8
 71
     3
 72
    10
 73
     6
 74
     0
 42
0.0000000068817718
 43
0.0000000001
 40
0.0
 40
0.0
 40
0.0
 40
0.0
 40
0.0625000000000001
 40
0.0625000000000001
 40
0.0930674285290967
 40
0.0930674285290967
 40
0.0930674285290967
 40
0.0930674285290967
 10
90.09678386284247
 20
389.0506082000909
 30
0.0
 10
90.12356496783718
 20
389.0363984574259
 30
0.0
 10
90.1534550519643
 20
389.0292623964156
 30
0.0
 10
90.19713941537117
 20
389.0194150169258
 30
0.0
 10
90.21155882407304
 20
389.0165401341114
 30
0.0
 10
90.22603148012882
 20
389.0139287691504
 30
0.0
  0
SPLINE
  5
15A
330
73
100
AcDbEntity
  8
$DDT_AUDIT_GENERATED_(99)
  6
Continuous
 62
     7
100
AcDbSpline
210
0.0
220
0.0
230
1.0
 70
     8
 71
     3
 72
    10
 73
     6
 74
     0
 42
0.0000000068934955
 43
0.0000000001
 40
0.8932348414740187
 40
0.8932348414740187
 40
0.8932348414740187
 40
0.8932348414740187
 40
0.9375000000000001
 40
0.9375000000000001
 40
1.0
 40
1.0
 40
1.0
 40
1.0
 10
92.82613152815347
 20
389.0105915539743
 30
0.0
 10
92.84712411239063
 20
389.0140561032941
 30
0.0
 10
92.86803423731305
 20
389.0179844104123
 30
0.0
 10
92.91815266984628
 20
389.0292885061669
 30
0.0
 10
92.94785048468928
 20
389.0363491462221
 30
0.0
 10
92.97472452650346
 20
389.0506082000909
 30
0.0
  0
SPLINE
  5
15B
330
73
100
AcDbEntity
  8
$DDT_AUDIT_GENERATED_(99)
  6
Continuous
 62
     7
100
AcDbSpline
210
0.0
220
0.0
230
1.0
 70
     8
 71
     3
 72
    14
 73
    10
 74
     0
 42
0.0000000311835071
 43
0.0000000001
 40
0.8053671315845609
 40
0.8053671315845609
 40
0.8053671315845609
 40
0.8053671315845609
 40
0.8380597748551375
 40
0.8380597748551375
 40
0.8380597748551375
 40
0.9447541863129585
 40
0.9447541863129585
 40
0.9447541863129585
 40
1.0
 40
1.0
 40
1.0
 40
1.0
 10
94.6885274215047
 20
389.0737017293429
 30
0.0
 10
94.69053221442495
 20
389.0765608404971
 30
0.0
 10
94.69239394972328
 20
389.079515818997
 30
0.0
 10
94.69409349820167
 20
389.0825465210953
 30
0.0
 10
94.6996429356179
 20
389.0924424974889
 30
0.0
 10
94.70362040512909
 20
389.1034369109501
 30
0.0
 10
94.70561749675565
 20
389.1145597998725
 30
0.0
 10
94.70665577126508
 20
389.1203425150397
 30
0.0
 10
94.7071827661018
 20
389.1262264182971
 30
0.0
 10
94.70718276612786
 20
389.1320615868681
 30
0.0
  0
SPLINE
  5
15C
330
73
100
AcDbEntity
  8
$DDT_AUDIT_GENERATED_(99)
  6
Continuous
 62
     7
100
AcDbSpline
210
0.0
220
0.0
230
1.0
 70
     8
 71
     3
 72
    11
 73
     7
 74
     0
 42
0.0000000315640305
 43
0.0000000001
 40
0.0609975066771226
 40
0.0609975066771226
 40
0.0609975066771226
 40
0.0609975066771226
 40
0.125661223158587
 40
0.125661223158587
 40
0.125661223158587
 40
0.1685671052176174
 40
0.1685671052176174
 40
0.1685671052176174
 40
0.1685671052176174
 10
96.04493768636758
 20
389.1880362681098
 30
0.0
 10
96.04637351800974
 20
389.1812298901508
 30
0.0
 10
96.04854903324606
 20
389.1746280897844
 30
0.0
 10
96.05136750815927
 20
389.1684864932612
 30
0.0
 10
96.05323897035173
 20
389.1644084843919
 30
0.0
 10
96.05541335686803
 20
389.1604853562131
 30
0.0
 10
96.05784321041787
 20
389.156765870419
 30
0.0
  0
LINE
  5
15D
330
73
100
AcDbEntity
  8
$DDT_AUDIT_GENERATED_(99)
  6
Continuous
 62
     7
100
AcDbLine
 10
84.2683437135
 20
389.5301077348
 30
0.0
 11
83.9571827661
 21
389.5301077348
 31
0.0
  0
LINE
  5
15E
330
73
100
AcDbEntity
  8
$DDT_AUDIT_GENERATED_(99)
  6
Continuous
 62
     7
100
AcDbLine
 10
83.9571827661
 20
389.5301077348
 30
0.0
 11
83.9571827661
 21
389.5761002512
 31
0.0
  0
LINE
  5
15F
330
73
100
AcDbEntity
  8
$DDT_AUDIT_GENERATED_(99)
  6
Continuous
 62
     7
100
AcDbLine
 10
83.7571827661
 20
389.607802433
 30
0.0
 11
83.7571827661
 21
389.5535468161
 31
0.0
  0
LINE
  5
160
330
73
100
AcDbEntity
  8
$DDT_AUDIT_GENERATED_(99)
  6
Continuous
 62
     7
100
AcDbLine
 10
99.1143256232
 20
389.5761002512
 30
0.0
 11
99.1143256232
 21
389.5301077348
 31
0.0
  0
LINE
  5
161
330
73
100
AcDbEntity
  8
$DDT_AUDIT_GENERATED_(99)
  6
Continuous
 62
     7
100
AcDbLine
 10
99.1143256232
 20
389.5301077348
 30
0.0
 11
98.8031646759
 21
389.5301077348
 31
0.0
  0
LINE
  5
162
330
73
100
AcDbEntity
  8
$DDT_AUDIT_GENERATED_(99)
  6
Continuous
 62
     7
100
AcDbLine
 10
99.3143256232
 20
389.5535468161
 30
0.0
 11
99.3143256232
 21
389.607802433
 31
0.0
  0
LINE
  5
163
330
73
100
AcDbEntity
  8
$DDT_AUDIT_GENERATED_(99)
  6
Continuous
 62
     7
100
AcDbLine
 10
92.9714684804
 20
389.1128699301
 30
0.0
 11
92.9714684804
 21
389.0761216864
 31
0.0
  0
LINE
  5
164
330
73
100
AcDbEntity
  8
$DDT_AUDIT_GENERATED_(99)
  6
Continuous
 62
     7
100
AcDbLine
 10
92.9714684804
 20
389.0761216864
 30
0.0
 11
91.6357541947
 21
389.0761216864
 31
0.0
  0
LINE
  5
165
330
73
100
AcDbEntity
  8
$DDT_AUDIT_GENERATED_(99)
  6
Continuous
 62
     7
100
AcDbLine
 10
91.6357541947
 20
389.0761216864
 30
0.0
 11
91.6357541947
 21
389.0983634851
 31
0.0
  0
LINE
  5
166
330
73
100
AcDbEntity
  8
$DDT_AUDIT_GENERATED_(99)
  6
Continuous
 62
     7
100
AcDbLine
 10
91.4357541947
 20
389.0983634851
 30
0.0
 11
91.4357541947
 21
389.0761216864
 31
0.0
  0
LINE
  5
167
330
73
100
AcDbEntity
  8
$DDT_AUDIT_GENERATED_(99)
  6
Continuous
 62
     7
100
AcDbLine
 10
91.4357541947
 20
389.0761216864
 30
0.0
 11
90.100039909
 21
389.0761216864
 31
0.0
  0
LINE
  5
168
330
73
100
AcDbEntity
  8
$DDT_AUDIT_GENERATED_(99)
  6
Continuous
 62
     7
100
AcDbLine
 10
90.100039909
 20
389.0761216864
 30
0.0
 11
90.100039909
 21
389.1128699301
 31
0.0
  0
LINE
  5
169
330
73
100
AcDbEntity
  8
$DDT_AUDIT_GENERATED_(99)
  6
Continuous
 62
     7
100
AcDbLine
 10
89.900039909
 20
389.1172408143
 30
0.0
 11
89.900039909
 21
389.0798425623
 31
0.0
  0
ELLIPSE
  5
16A
330
73
100
AcDbEntity
  8
$DDT_AUDIT_GENERATED_(99)
  6
Continuous
 62
     7
100
AcDbEllipse
 10
91.5357541947
 20
390.6502919149
 30
0.0
 11
10.50000000003668
 21
-8.066464163292153E-13
 31
0.0
210
0.0
220
0.0
230
1.0
 40
0.1478094111
 41
4.721912933887844
 42
4.849553373274058
  0
LINE
  5
16B
330
73
100
AcDbEntity
  8
$DDT_AUDIT_GENERATED_(99)
  6
Continuous
 62
     7
100
AcDbLine
 10
100.850039909
 20
389.8569727439
 30
0.0
 11
100.850039909
 21
389.8693128422
 31
0.0
  0
LINE
  5
16C
330
73
100
AcDbEntity
  8
$DDT_AUDIT_GENERATED_(99)
  6
Continuous
 62
     7
100
AcDbLine
 10
100.650039909
 20
389.8693128422
 30
0.0
 11
100.650039909
 21
389.8077485037
 31
0.0
  0
ELLIPSE
  5
16D
330
73
100
AcDbEntity
  8
$DDT_AUDIT_GENERATED_(99)
  6
Continuous
 62
     7
100
AcDbEllipse
 10
91.5357541903
 20
390.6502919156
 30
0.0
 11
10.50000000462119
 21
-4.668834763243979E-10
 31
0.0
210
0.0
220
0.0
230
1.0
 40
0.1478094111
 41
-0.8063543652525684
 42
-0.7644419612379281
  0
LINE
  5
16E
330
73
100
AcDbEntity
  8
$DDT_AUDIT_GENERATED_(99)
  6
Continuous
 62
     7
100
AcDbLine
 10
97.7786113375
 20
389.3567337793
 30
0.0
 11
97.7786113375
 21
389.402402834
 31
0.0
  0
LINE
  5
16F
330
73
100
AcDbEntity
  8
$DDT_AUDIT_GENERATED_(99)
  6
Continuous
 62
     7
100
AcDbLine
 10
97.5786113375
 20
389.3810756659
 30
0.0
 11
97.5786113375
 21
389.3361475626
 31
0.0
  0
LINE
  5
170
330
73
100
AcDbEntity
  8
$DDT_AUDIT_GENERATED_(99)
  6
Continuous
 62
     7
100
AcDbLine
 10
94.7071827661
 20
389.1320615869
 30
0.0
 11
94.7071827661
 21
389.1707792124
 31
0.0
  0
ELLIPSE
  5
171
330
73
100
AcDbEntity
  8
$DDT_AUDIT_GENERATED_(99)
  6
Continuous
 62
     7
100
AcDbEllipse
 10
91.5357541947
 20
390.6502919149
 30
0.0
 11
-10.50000000001401
 21
-1.405126015541214E-13
 31
0.0
210
0.0
220
0.0
230
1.0
 40
0.1478094111
 41
1.433631933905585
 42
1.561272373292072
  0
LINE
  5
172
330
73
100
AcDbEntity
  8
$DDT_AUDIT_GENERATED_(99)
  6
Continuous
 62
     7
100
AcDbLine
 10
88.3643256232
 20
389.1707792124
 30
0.0
 11
88.3643256232
 21
389.1320615869
 31
0.0
  0
LINE
  5
173
330
73
100
AcDbEntity
  8
$DDT_AUDIT_GENERATED_(99)
  6
Continuous
 62
     7
100
AcDbLine
 10
85.4928970518
 20
389.3361475626
 30
0.0
 11
85.4928970518
 21
389.3810756659
 31
0.0
  0
LINE
  5
174
330
73
100
AcDbEntity
  8
$DDT_AUDIT_GENERATED_(99)
  6
Continuous
 62
     7
100
AcDbLine
 10
85.2928970518
 20
389.402402834
 30
0.0
 11
85.2928970518
 21
389.3567337793
 31
0.0
  0
ELLIPSE
  5
175
330
73
100
AcDbEntity
  8
$DDT_AUDIT_GENERATED_(99)
  6
Continuous
 62
     7
100
AcDbEllipse
 10
91.5357542197
 20
390.6502919186
 30
0.0
 11
-10.50000002652062
 21
-2.673543678111123E-9
 31
0.0
210
0.0
220
0.0
230
1.0
 40
0.1478094111
 41
0.7644419605404882
 42
0.8063543644968426
  0
LINE
  5
176
330
73
100
AcDbEntity
  8
$DDT_AUDIT_GENERATED_(99)
  6
Continuous
 62
     7
100
AcDbLine
 10
82.4214684804
 20
389.8077485037
 30
0.0
 11
82.4214684804
 21
389.8693128422
 31
0.0
  0
LINE
  5
177
330
73
100
AcDbEntity
  8
$DDT_AUDIT_GENERATED_(99)
  6
Continuous
 62
     7
100
AcDbLine
 10
82.2214684804
 20
389.8693128422
 30
0.0
 11
82.2214684804
 21
389.8569727439
 31
0.0
  0
LINE
  5
178
330
73
100
AcDbEntity
  8
$DDT_AUDIT_GENERATED_(99)
  6
Continuous
 62
     7
100
AcDbLine
 10
82.052312664
 20
389.9840937833
 30
0.0
 11
81.7762376459
 21
389.9840937833
 31
0.0
  0
LINE
  5
179
330
73
100
AcDbEntity
  8
$DDT_AUDIT_GENERATED_(99)
  6
Continuous
 62
     7
100
AcDbLine
 10
81.4649740737
 20
390.2110868075
 30
0.0
 11
81.2912749453
 21
390.2110868075
 31
0.0
  0
LINE
  5
17A
330
73
100
AcDbEntity
  8
$DDT_AUDIT_GENERATED_(99)
  6
Continuous
 62
     7
100
AcDbLine
 10
82.9489109126
 20
389.7571007591
 30
0.0
 11
82.6449512191
 21
389.7571007591
 31
0.0
  0
LINE
  5
17B
330
73
100
AcDbEntity
  8
$DDT_AUDIT_GENERATED_(99)
  6
Continuous
 62
     7
100
AcDbLine
 10
86.3223296082
 20
389.3031147106
 30
0.0
 11
85.8355528019
 21
389.3031147106
 31
0.0
  0
LINE
  5
17C
330
73
100
AcDbEntity
  8
$DDT_AUDIT_GENERATED_(99)
  6
Continuous
 62
     7
100
AcDbLine
 10
97.2359555875
 20
389.3031147106
 30
0.0
 11
96.7491787811
 21
389.3031147106
 31
0.0
  0
LINE
  5
17D
330
73
100
AcDbEntity
  8
$DDT_AUDIT_GENERATED_(99)
  6
Continuous
 62
     7
100
AcDbLine
 10
100.4265571703
 20
389.7571007591
 30
0.0
 11
100.1225974768
 21
389.7571007591
 31
0.0
  0
LINE
  5
17E
330
73
100
AcDbEntity
  8
$DDT_AUDIT_GENERATED_(99)
  6
Continuous
 62
     7
100
AcDbLine
 10
101.7802334441
 20
390.2110868076
 30
0.0
 11
101.6065343156
 21
390.2110868075
 31
0.0
  0
LINE
  5
17F
330
73
100
AcDbEntity
  8
$DDT_AUDIT_GENERATED_(99)
  6
Continuous
 62
     7
100
AcDbLine
 10
101.2952707434
 20
389.9840937833
 30
0.0
 11
101.0191957253
 21
389.9840937833
 31
0.0
  0
ELLIPSE
  5
180
330
73
100
AcDbEntity
  8
$DDT_AUDIT_GENERATED_(99)
  6
Continuous
 62
     7
100
AcDbEllipse
 10
91.5357541947
 20
392.1338157099
 30
0.0
 11
10.50000000000001
 21
0.0
 31
0.0
210
0.0
220
0.0
230
1.0
 40
0.1478094111
 41
-1.100527314167179
 42
-1.063485200472542
  0
ELLIPSE
  5
181
330
73
100
AcDbEntity
  8
$DDT_AUDIT_GENERATED_(99)
  6
Continuous
 62
     7
100
AcDbEllipse
 10
91.5357541947
 20
392.1338157099
 30
0.0
 11
10.50000000000001
 21
0.0
 31
0.0
210
0.0
220
0.0
230
1.0
 40
0.1478094111
 41
4.205077854062331
 42
4.242119967756969
  0
SPLINE
  5
182
330
73
100
AcDbEntity
  8
$DDT_AUDIT_GENERATED_(99)
  6
Continuous
 62
     7
100
AcDbSpline
210
0.0
220
0.0
230
1.0
 70
     8
 71
     3
 72
    20
 73
    16
 74
     0
 42
0.0000000435752929
 43
0.0000000001
 40
0.5494703622985035
 40
0.5494703622985035
 40
0.5494703622985035
 40
0.5494703622985035
 40
0.6351011276431104
 40
0.6351011276431104
 40
0.6351011276431104
 40
0.7591072870863911
 40
0.7591072870863911
 40
0.7591072870863911
 40
0.8736081295475382
 40
0.8736081295475382
 40
0.8736081295475382
 40
0.9758390508885152
 40
0.9758390508885152
 40
0.9758390508885152
 40
1.0
 40
1.0
 40
1.0
 40
1.0
 10
100.9781475120018
 20
390.0693052135763
 30
0.0
 10
100.9822572866819
 20
390.0693126109946
 30
0.0
 10
100.9863074902069
 20
390.0682328370847
 30
0.0
 10
100.990131337646
 20
390.0660524463577
 30
0.0
 10
100.9956610061922
 20
390.0628993817511
 30
0.0
 10
101.000886986405
 20
390.0573251119185
 30
0.0
 10
101.0052535741777
 20
390.0496395456809
 30
0.0
 10
101.0092860500582
 20
390.0425420448188
 30
0.0
 10
101.0127098794749
 20
390.0333935667936
 30
0.0
 10
101.015098472329
 20
390.0229710811881
 30
0.0
 10
101.0172353857222
 20
390.013646784231
 30
0.0
 10
101.0186063691199
 20
390.0030097980555
 30
0.0
 10
101.019039464184
 20
389.992058445309
 30
0.0
 10
101.0191434994813
 20
389.9894277821302
 30
0.0
 10
101.0191957253256
 20
389.9867675637004
 30
0.0
 10
101.0191957253256
 20
389.9840937833143
 30
0.0
  0
SPLINE
  5
183
330
73
100
AcDbEntity
  8
$DDT_AUDIT_GENERATED_(99)
  6
Continuous
 62
     7
100
AcDbSpline
210
0.0
220
0.0
230
1.0
 70
     8
 71
     3
 72
    20
 73
    16
 74
     0
 42
0.0000000479139737
 43
0.0000000001
 40
0.5481875513560311
 40
0.5481875513560311
 40
0.5481875513560311
 40
0.5481875513560311
 40
0.6409625805799282
 40
0.6409625805799282
 40
0.6409625805799282
 40
0.7547166054757164
 40
0.7547166054757164
 40
0.7547166054757164
 40
0.8646149942940208
 40
0.8646149942940208
 40
0.8646149942940208
 40
0.9697699668739693
 40
0.9697699668739693
 40
0.9697699668739693
 40
1.0
 40
1.0
 40
1.0
 40
1.0
 10
101.5809606786926
 20
390.2963017982543
 30
0.0
 10
101.5838212699901
 20
390.2963046257262
 30
0.0
 10
101.5866334852231
 20
390.294949675101
 30
0.0
 10
101.5892400593253
 20
390.2922686424017
 30
0.0
 10
101.5924346513287
 20
390.2889827946621
 30
0.0
 10
101.5954124445666
 20
390.2836021264667
 30
0.0
 10
101.5979045434832
 20
390.276525957425
 30
0.0
 10
101.6003125511608
 20
390.2696885605354
 30
0.0
 10
101.602336772458
 20
390.2610617198803
 30
0.0
 10
101.6037848069745
 20
390.2513682432876
 30
0.0
 10
101.6051712902416
 20
390.2420868049362
 30
0.0
 10
101.6060691108158
 20
390.2315582143077
 30
0.0
 10
101.6063926267572
 20
390.2206962497771
 30
0.0
 10
101.606486951361
 20
390.2175293254596
 30
0.0
 10
101.6065343156417
 20
390.2143178310608
 30
0.0
 10
101.6065343156417
 20
390.2110868075491
 30
0.0
  0
SPLINE
  5
184
330
73
100
AcDbEntity
  8
$DDT_AUDIT_GENERATED_(99)
  6
Continuous
 62
     7
100
AcDbSpline
210
0.0
220
0.0
230
1.0
 70
     8
 71
     3
 72
    20
 73
    16
 74
     0
 42
0.0000000479136761
 43
0.0000000001
 40
0.0
 40
0.0
 40
0.0
 40
0.0
 40
0.1017562370295364
 40
0.1017562370295364
 40
0.1017562370295364
 40
0.2034005268556059
 40
0.2034005268556059
 40
0.2034005268556059
 40
0.3067859438713758
 40
0.3067859438713758
 40
0.3067859438713758
 40
0.4142440429790633
 40
0.4142440429790633
 40
0.4142440429790633
 40
0.4511652806459581
 40
0.4511652806459581
 40
0.4511652806459581
 40
0.4511652806459581
 10
81.4649740737043
 20
390.2110868075491
 30
0.0
 10
81.4649740737043
 20
390.2218182306221
 30
0.0
 10
81.46551072101876
 20
390.2324284010954
 30
0.0
 10
81.46653521620719
 20
390.2420349259131
 30
0.0
 10
81.46755908260967
 20
390.2516355547072
 30
0.0
 10
81.46909661260021
 20
390.2604954370652
 30
0.0
 10
81.47101712469919
 20
390.2679419767283
 30
0.0
 10
81.47297100467361
 20
390.2755178960542
 30
0.0
 10
81.47537145615425
 20
390.281834305594
 30
0.0
 10
81.4780286881227
 20
390.286466045758
 30
0.0
 10
81.48078968958745
 20
390.2912786633726
 30
0.0
 10
81.48389976522371
 20
390.2944022348115
 30
0.0
 10
81.48711986006201
 20
390.295655206323
 30
0.0
 10
81.48822555225402
 20
390.2960854423523
 30
0.0
 10
81.48935399569748
 20
390.2962990647957
 30
0.0
 10
81.49049509785877
 20
390.2962987564979
 30
0.0
  0
SPLINE
  5
185
330
73
100
AcDbEntity
  8
$DDT_AUDIT_GENERATED_(99)
  6
Continuous
 62
     7
100
AcDbSpline
210
0.0
220
0.0
230
1.0
 70
     8
 71
     3
 72
    20
 73
    16
 74
     0
 42
0.0000000435525116
 43
0.0000000001
 40
0.0
 40
0.0
 40
0.0
 40
0.0
 40
0.0942642591671514
 40
0.0942642591671514
 40
0.0942642591671514
 40
0.1882851755571734
 40
0.1882851755571734
 40
0.1882851755571734
 40
0.2859213929164569
 40
0.2859213929164569
 40
0.2859213929164569
 40
0.392640775825026
 40
0.392640775825026
 40
0.392640775825026
 40
0.4494915841791756
 40
0.4494915841791756
 40
0.4494915841791756
 40
0.4494915841791756
 10
82.0523126640204
 20
389.9840937833143
 30
0.0
 10
82.0523126640204
 20
389.9943718384034
 30
0.0
 10
82.05310836729734
 20
390.0045441318355
 30
0.0
 10
82.05461135862217
 20
390.0137557377974
 30
0.0
 10
82.05611217572037
 20
390.0229540182538
 30
0.0
 10
82.0583527870628
 20
390.0314433822111
 30
0.0
 10
82.06112000216066
 20
390.0386501828148
 30
0.0
 10
82.06399520453499
 20
390.0461382202366
 30
0.0
 10
82.06750560419852
 20
390.0524363741829
 30
0.0
 10
82.07137007960074
 20
390.0572323415504
 30
0.0
 10
82.07559130825281
 20
390.0624710538614
 30
0.0
 10
82.08033590030732
 20
390.0660531215265
 30
0.0
 10
82.08525614630365
 20
390.0678664734745
 30
0.0
 10
82.08787398081381
 20
390.0688312738752
 30
0.0
 10
82.09057384716333
 20
390.0693081728121
 30
0.0
 10
82.09330729145582
 20
390.0693054118196
 30
0.0
  0
SPLINE
  5
186
330
73
100
AcDbEntity
  8
$DDT_AUDIT_GENERATED_(99)
  6
Continuous
 62
     7
100
AcDbSpline
210
0.0
220
0.0
230
1.0
 70
     8
 71
     3
 72
    20
 73
    16
 74
     0
 42
0.0000000383054108
 43
0.0000000001
 40
0.0
 40
0.0
 40
0.0
 40
0.0
 40
0.0832017959455893
 40
0.0832017959455893
 40
0.0832017959455893
 40
0.1659997400616034
 40
0.1659997400616034
 40
0.1659997400616034
 40
0.254206896634064
 40
0.254206896634064
 40
0.254206896634064
 40
0.3578602431674886
 40
0.3578602431674886
 40
0.3578602431674886
 40
0.4471624490969177
 40
0.4471624490969177
 40
0.4471624490969177
 40
0.4471624490969177
 10
82.94891091259193
 20
389.7571007590796
 30
0.0
 10
82.94891091259193
 20
389.7667046246721
 30
0.0
 10
82.94994504245237
 20
389.776225351075
 30
0.0
 10
82.95186780198226
 20
389.7848403039815
 30
0.0
 10
82.95378529669915
 20
389.7934316678144
 30
0.0
 10
82.95662325533274
 20
389.8013571923312
 30
0.0
 10
82.9600750473546
 20
389.8081666863256
 30
0.0
 10
82.96375610213316
 20
389.8154284565161
 30
0.0
 10
82.96820999921111
 20
389.8216028837125
 30
0.0
 10
82.97307737279257
 20
389.8265169332964
 30
0.0
 10
82.9787917027649
 20
389.8322860612158
 30
0.0
 10
82.98519658439386
 20
389.8364571145388
 30
0.0
 10
82.9918499972093
 20
389.8390339383141
 30
0.0
 10
82.99757227172218
 20
389.8412501382438
 30
0.0
 10
83.00357383342987
 20
389.8423286332475
 30
0.0
 10
83.0096431615441
 20
389.8423168461709
 30
0.0
  0
SPLINE
  5
187
330
73
100
AcDbEntity
  8
$DDT_AUDIT_GENERATED_(99)
  6
Continuous
 62
     7
100
AcDbSpline
210
0.0
220
0.0
230
1.0
 70
     8
 71
     3
 72
    20
 73
    16
 74
     0
 42
0.0000000317655037
 43
0.0000000001
 40
0.0
 40
0.0
 40
0.0
 40
0.0
 40
0.0673834338595884
 40
0.0673834338595884
 40
0.0673834338595884
 40
0.1341841609296699
 40
0.1341841609296699
 40
0.1341841609296699
 40
0.2298970625894853
 40
0.2298970625894853
 40
0.2298970625894853
 40
0.366380126959955
 40
0.366380126959955
 40
0.366380126959955
 40
0.4428916209257861
 40
0.4428916209257861
 40
0.4428916209257861
 40
0.4428916209257861
 10
84.26834371348777
 20
389.5301077348448
 30
0.0
 10
84.26834371348777
 20
389.5387676089821
 30
0.0
 10
84.26960050905541
 20
389.5473754376051
 30
0.0
 10
84.27187802967501
 20
389.5551314521516
 30
0.0
 10
84.274144321393
 20
389.5628492270774
 30
0.0
 10
84.27745262237612
 20
389.5699489105396
 30
0.0
 10
84.28138865342422
 20
389.5761206719205
 30
0.0
 10
84.28700607821307
 20
389.5849288863243
 30
0.0
 10
84.29403575611268
 20
389.592126912427
 30
0.0
 10
84.30161636328964
 20
389.5977136552777
 30
0.0
 10
84.31239430404828
 20
389.6056567635371
 30
0.0
 10
84.32461389026734
 20
389.6106602888602
 30
0.0
 10
84.33709012279691
 20
389.6132187604167
 30
0.0
 10
84.34406399478115
 20
389.6146488758837
 30
0.0
 10
84.35121918491626
 20
389.6153405852874
 30
0.0
 10
84.35844424929303
 20
389.6153293181613
 30
0.0
  0
SPLINE
  5
188
330
73
100
AcDbEntity
  8
$DDT_AUDIT_GENERATED_(99)
  6
Continuous
 62
     7
100
AcDbSpline
210
0.0
220
0.0
230
1.0
 70
     8
 71
     3
 72
    20
 73
    16
 74
     0
 42
0.0000000224870576
 43
0.0000000001
 40
0.0
 40
0.0
 40
0.0
 40
0.0
 40
0.0355411990572529
 40
0.0355411990572529
 40
0.0355411990572529
 40
0.0791686672612848
 40
0.0791686672612848
 40
0.0791686672612848
 40
0.1467328771940977
 40
0.1467328771940977
 40
0.1467328771940977
 40
0.2716650371935698
 40
0.2716650371935698
 40
0.2716650371935698
 40
0.4357074243703318
 40
0.4357074243703318
 40
0.4357074243703318
 40
0.4357074243703318
 10
86.32232960824543
 20
389.3031147106101
 30
0.0
 10
86.32232960824543
 20
389.3090001845911
 30
0.0
 10
86.32330282483228
 20
389.3148763264434
 30
0.0
 10
86.32505169972758
 20
389.3202665747561
 30
0.0
 10
86.32719686650665
 20
389.3268782435739
 30
0.0
 10
86.33053287054435
 20
389.3329607467676
 30
0.0
 10
86.33447520864492
 20
389.3382826327799
 30
0.0
 10
86.34056428432781
 20
389.3465024672736
 30
0.0
 10
86.34822739112522
 20
389.3532340813368
 30
0.0
 10
86.35636706718856
 20
389.3587711471629
 30
0.0
 10
86.37135799504775
 20
389.3689688201052
 30
0.0
 10
86.3884376509814
 20
389.3756118086567
 30
0.0
 10
86.40577319134074
 20
389.3801418101149
 30
0.0
 10
86.42841481146381
 20
389.386058359011
 30
0.0
 10
86.4521196140123
 20
389.3885464613077
 30
0.0
 10
86.47597330392061
 20
389.3883750289397
 30
0.0
  0
SPLINE
  5
189
330
73
100
AcDbEntity
  8
$DDT_AUDIT_GENERATED_(99)
  6
Continuous
 62
     7
100
AcDbSpline
210
0.0
220
0.0
230
1.0
 70
     8
 71
     3
 72
    20
 73
    16
 74
     0
 42
0.0000000224601404
 43
0.0000000001
 40
0.563251577104708
 40
0.563251577104708
 40
0.563251577104708
 40
0.563251577104708
 40
0.7863478977128285
 40
0.7863478977128285
 40
0.7863478977128285
 40
0.8531658411868754
 40
0.8531658411868754
 40
0.8531658411868754
 40
0.9207144446978978
 40
0.9207144446978978
 40
0.9207144446978978
 40
0.9606044589611058
 40
0.9606044589611058
 40
0.9606044589611058
 40
1.0
 40
1.0
 40
1.0
 40
1.0
 10
96.59508314617786
 20
389.3883644406006
 30
0.0
 10
96.62743014519575
 20
389.3886942910589
 30
0.0
 10
96.65983173201649
 20
389.3843380445024
 30
0.0
 10
96.6892120379187
 20
389.3724197234514
 30
0.0
 10
96.69819114359557
 20
389.3687772881219
 30
0.0
 10
96.70693151202413
 20
389.364342897912
 30
0.0
 10
96.7150382779078
 20
389.3588411613543
 30
0.0
 10
96.72319408228101
 20
389.3533061443425
 30
0.0
 10
96.73087404622181
 20
389.3465757093579
 30
0.0
 10
96.73698028294875
 20
389.3383539490113
 30
0.0
 10
96.7406034827334
 20
389.3334754810368
 30
0.0
 10
96.74371388369927
 20
389.3279707120673
 30
0.0
 10
96.74586450805224
 20
389.3219971843433
 30
0.0
 10
96.74797796450017
 20
389.3161268933891
 30
0.0
 10
96.74917878110054
 20
389.3096250530577
 30
0.0
 10
96.74917878110054
 20
389.3031147106101
 30
0.0
  0
SPLINE
  5
18A
330
73
100
AcDbEntity
  8
$DDT_AUDIT_GENERATED_(99)
  6
Continuous
 62
     7
100
AcDbSpline
210
0.0
220
0.0
230
1.0
 70
     8
 71
     3
 72
    20
 73
    16
 74
     0
 42
0.0000000316960916
 43
0.0000000001
 40
0.557426703460406
 40
0.557426703460406
 40
0.557426703460406
 40
0.557426703460406
 40
0.7339871658485196
 40
0.7339871658485196
 40
0.7339871658485196
 40
0.8330977817276228
 40
0.8330977817276228
 40
0.8330977817276228
 40
0.9110488010567984
 40
0.9110488010567984
 40
0.9110488010567984
 40
0.9745831472273071
 40
0.9745831472273071
 40
0.9745831472273071
 40
1.0
 40
1.0
 40
1.0
 40
1.0
 10
98.71308201330316
 20
389.6153266850213
 30
0.0
 10
98.72962202253201
 20
389.6153503565284
 30
0.0
 10
98.74617346198559
 20
389.6117002169932
 30
0.0
 10
98.7608632931076
 20
389.6035169633336
 30
0.0
 10
98.7691983094028
 20
389.5988737817997
 30
0.0
 10
98.77709942935226
 20
389.5926508366801
 30
0.0
 10
98.78380002554552
 20
389.5847104581787
 30
0.0
 10
98.7890727829963
 20
389.5784621052415
 30
0.0
 10
98.79370217439373
 20
389.5709886600529
 30
0.0
 10
98.79707068829265
 20
389.5625455982193
 30
0.0
 10
98.79981977832598
 20
389.5556551005595
 30
0.0
 10
98.80177509582342
 20
389.5479482225389
 30
0.0
 10
98.80263790026686
 20
389.5399611033559
 30
0.0
 10
98.80298723671889
 20
389.5367272397633
 30
0.0
 10
98.8031646758582
 20
389.5334258124435
 30
0.0
 10
98.8031646758582
 20
389.5301077348448
 30
0.0
  0
SPLINE
  5
18B
330
73
100
AcDbEntity
  8
$DDT_AUDIT_GENERATED_(99)
  6
Continuous
 62
     7
100
AcDbSpline
210
0.0
220
0.0
230
1.0
 70
     8
 71
     3
 72
    20
 73
    16
 74
     0
 42
0.0000000382888078
 43
0.0000000001
 40
0.5523172529250961
 40
0.5523172529250961
 40
0.5523172529250961
 40
0.5523172529250961
 40
0.6234853338230735
 40
0.6234853338230735
 40
0.6234853338230735
 40
0.7676446319378943
 40
0.7676446319378943
 40
0.7676446319378943
 40
0.8640786681210727
 40
0.8640786681210727
 40
0.8640786681210727
 40
0.9614462293687265
 40
0.9614462293687265
 40
0.9614462293687265
 40
1.0
 40
1.0
 40
1.0
 40
1.0
 10
100.0619009922204
 20
389.8423125415721
 30
0.0
 10
100.0667347042544
 20
389.8423209405927
 30
0.0
 10
100.0715113316109
 20
389.8416408837347
 30
0.0
 10
100.0761284581052
 20
389.8402481919977
 30
0.0
 10
100.0854465978681
 20
389.8374375052493
 30
0.0
 10
100.0944385718087
 20
389.8315799699317
 30
0.0
 10
100.1019278020234
 20
389.8226852031646
 30
0.0
 10
100.1069795451445
 20
389.8166853773425
 30
0.0
 10
100.111471294682
 20
389.8091432232048
 30
0.0
 10
100.1149124917648
 20
389.8004012594199
 30
0.0
 10
100.1183732539053
 20
389.7916095928653
 30
0.0
 10
100.1208541233781
 20
389.7812947859182
 30
0.0
 10
100.1219387579613
 20
389.7704619984955
 30
0.0
 10
100.1223754225794
 20
389.7661008108146
 30
0.0
 10
100.122597476754
 20
389.7616164090537
 30
0.0
 10
100.122597476754
 20
389.7571007590796
 30
0.0
  0
ELLIPSE
  5
18C
330
73
100
AcDbEntity
  8
$DDT_AUDIT_GENERATED_(99)
  6
Continuous
 62
     7
100
AcDbEllipse
 10
91.5357541947
 20
390.6502919149
 30
0.0
 11
11.0
 21
-1.734723475976807E-15
 31
0.0
210
0.0
220
0.0
230
1.0
 40
0.1478094111
 41
-0.9665615913257088
 42
-0.8626305563469385
  0
ELLIPSE
  5
18D
330
73
100
AcDbEntity
  8
$DDT_AUDIT_GENERATED_(99)
  6
Continuous
 62
     7
100
AcDbEllipse
 10
91.5357541947
 20
390.6502919149
 30
0.0
 11
11.0
 21
-1.734723475976807E-15
 31
0.0
210
0.0
220
0.0
230
1.0
 40
0.1478094111
 41
-1.024869054017121
 42
-0.9861307301601219
  0
ELLIPSE
  5
18E
330
73
100
AcDbEntity
  8
$DDT_AUDIT_GENERATED_(99)
  6
Continuous
 62
     7
100
AcDbEllipse
 10
91.5357541947
 20
390.6502919149
 30
0.0
 11
11.0
 21
-1.734723475976807E-15
 31
0.0
210
0.0
220
0.0
230
1.0
 40
0.1478094111
 41
-1.128804303613729
 42
-1.117861326708804
  0
ELLIPSE
  5
18F
330
73
100
AcDbEntity
  8
$DDT_AUDIT_GENERATED_(99)
  6
Continuous
 62
     7
100
AcDbEllipse
 10
91.5357541947
 20
390.6502919149
 30
0.0
 11
11.0
 21
-1.734723475976807E-15
 31
0.0
210
0.0
220
0.0
230
1.0
 40
0.1478094111
 41
-1.278906610333355
 42
-1.146784592597115
  0
ELLIPSE
  5
190
330
73
100
AcDbEntity
  8
$DDT_AUDIT_GENERATED_(99)
  6
Continuous
 62
     7
100
AcDbEllipse
 10
91.5357541947
 20
390.6502919149
 30
0.0
 11
11.0
 21
-1.734723475976807E-15
 31
0.0
210
0.0
220
0.0
230
1.0
 40
0.1478094111
 41
-1.421642270742351
 42
-1.296390203344584
  0
ELLIPSE
  5
191
330
73
100
AcDbEntity
  8
$DDT_AUDIT_GENERATED_(99)
  6
Continuous
 62
     7
100
AcDbEllipse
 10
91.5357541947
 20
390.6502919149
 30
0.0
 11
11.0
 21
-1.734723475976807E-15
 31
0.0
210
0.0
220
0.0
230
1.0
 40
0.1478094111
 41
4.437528115319106
 42
4.563023790408585
  0
ELLIPSE
  5
192
330
73
100
AcDbEntity
  8
$DDT_AUDIT_GENERATED_(99)
  6
Continuous
 62
     7
100
AcDbEllipse
 10
91.5357541947
 20
390.6502919149
 30
0.0
 11
11.0
 21
-1.734723475976807E-15
 31
0.0
210
0.0
220
0.0
230
1.0
 40
0.1478094111
 41
4.289039857006347
 42
4.419611574307486
  0
ELLIPSE
  5
193
330
73
100
AcDbEntity
  8
$DDT_AUDIT_GENERATED_(99)
  6
Continuous
 62
     7
100
AcDbEllipse
 10
91.5357541947
 20
390.6502919149
 30
0.0
 11
11.0
 21
-1.734723475976807E-15
 31
0.0
210
0.0
220
0.0
230
1.0
 40
0.1478094111
 41
4.259453980298595
 42
4.270583232203652
  0
ELLIPSE
  5
194
330
73
100
AcDbEntity
  8
$DDT_AUDIT_GENERATED_(99)
  6
Continuous
 62
     7
100
AcDbEllipse
 10
91.5357541947
 20
390.6502919149
 30
0.0
 11
11.0
 21
-1.734723475976807E-15
 31
0.0
210
0.0
220
0.0
230
1.0
 40
0.1478094111
 41
4.128577872218514
 42
4.166767861077728
  0
ELLIPSE
  5
195
330
73
100
AcDbEntity
  8
$DDT_AUDIT_GENERATED_(99)
  6
Continuous
 62
     7
100
AcDbEllipse
 10
91.5357541947
 20
390.6502919149
 30
0.0
 11
11.0
 21
-1.734723475976807E-15
 31
0.0
210
0.0
220
0.0
230
1.0
 40
0.1478094111
 41
4.004223209936728
 42
4.109711620739368
  0
ELLIPSE
  5
196
330
73
100
AcDbEntity
  8
$DDT_AUDIT_GENERATED_(99)
  6
Continuous
 62
     7
100
AcDbEllipse
 10
91.5357541943
 20
390.6502919149
 30
0.0
 11
10.50000000034338
 21
-1.124621229475764E-11
 31
0.0
210
0.0
220
0.0
230
1.0
 40
0.1478094111
 41
-0.2869134470907255
 42
-0.233301088454593
  0
ELLIPSE
  5
197
330
73
100
AcDbEntity
  8
$DDT_AUDIT_GENERATED_(99)
  6
Continuous
 62
     7
100
AcDbEllipse
 10
91.5357541948
 20
390.6502919149
 30
0.0
 11
10.49999999985478
 21
7.905134880026310E-12
 31
0.0
210
0.0
220
0.0
230
1.0
 40
0.1478094111
 41
-0.4436641018990262
 42
-0.3650008041101698
  0
ELLIPSE
  5
198
330
73
100
AcDbEntity
  8
$DDT_AUDIT_GENERATED_(99)
  6
Continuous
 62
     7
100
AcDbEllipse
 10
91.5357541955
 20
390.6502919148
 30
0.0
 11
10.49999999914937
 21
6.763860305181169E-11
 31
0.0
210
0.0
220
0.0
230
1.0
 40
0.1478094111
 41
-0.6132278892470531
 42
-0.5273076683736333
  0
ELLIPSE
  5
199
330
73
100
AcDbEntity
  8
$DDT_AUDIT_GENERATED_(99)
  6
Continuous
 62
     7
100
AcDbEllipse
 10
91.5357541934
 20
390.6502919151
 30
0.0
 11
10.50000000129424
 21
-1.199023519360409E-10
 31
0.0
210
0.0
220
0.0
230
1.0
 40
0.1478094111
 41
-0.736511481148991
 42
-0.7068833393088596
  0
ELLIPSE
  5
19A
330
73
100
AcDbEntity
  8
$DDT_AUDIT_GENERATED_(99)
  6
Continuous
 62
     7
100
AcDbEllipse
 10
91.5357541948
 20
390.6502919149
 30
0.0
 11
10.49999999988991
 21
1.183948772354171E-11
 31
0.0
210
0.0
220
0.0
230
1.0
 40
0.1478094111
 41
-0.9340807250666314
 42
-0.9202046026949589
  0
ELLIPSE
  5
19B
330
73
100
AcDbEntity
  8
$DDT_AUDIT_GENERATED_(99)
  6
Continuous
 62
     7
100
AcDbEllipse
 10
91.5357541945
 20
390.6502919149
 30
0.0
 11
10.50000000018257
 21
-1.918430692082751E-11
 31
0.0
210
0.0
220
0.0
230
1.0
 40
0.1478094111
 41
-1.051215154815021
 42
-0.9575684375666516
  0
ELLIPSE
  5
19C
330
73
100
AcDbEntity
  8
$DDT_AUDIT_GENERATED_(99)
  6
Continuous
 62
     7
100
AcDbEllipse
 10
91.5357541947
 20
390.6502919149
 30
0.0
 11
10.49999999989926
 21
9.235667786100521E-12
 31
0.0
210
0.0
220
0.0
230
1.0
 40
0.1478094111
 41
-1.263963594178573
 42
-1.228493070222489
  0
ELLIPSE
  5
19D
330
73
100
AcDbEntity
  8
$DDT_AUDIT_GENERATED_(99)
  6
Continuous
 62
     7
100
AcDbEllipse
 10
91.5357541946
 20
390.6502919149
 30
0.0
 11
10.50000000011248
 21
-7.063793994177558E-12
 31
0.0
210
0.0
220
0.0
230
1.0
 40
0.1478094111
 41
-1.414376940911625
 42
-1.283882879697645
  0
ELLIPSE
  5
19E
330
73
100
AcDbEntity
  8
$DDT_AUDIT_GENERATED_(99)
  6
Continuous
 62
     7
100
AcDbEllipse
 10
91.5357541947
 20
390.6502919149
 30
0.0
 11
-10.50000000001905
 21
-1.455432996344541E-12
 31
0.0
210
0.0
220
0.0
230
1.0
 40
0.1478094111
 41
1.283882879698881
 42
1.414376940913991
  0
ELLIPSE
  5
19F
330
73
100
AcDbEntity
  8
$DDT_AUDIT_GENERATED_(99)
  6
Continuous
 62
     7
100
AcDbEllipse
 10
91.5357541946
 20
390.6502919149
 30
0.0
 11
-10.49999999987551
 21
1.133815263898441E-11
 31
0.0
210
0.0
220
0.0
230
1.0
 40
0.1478094111
 41
1.228493070223159
 42
1.263963594179264
  0
ELLIPSE
  5
1A0
330
73
100
AcDbEntity
  8
$DDT_AUDIT_GENERATED_(99)
  6
Continuous
 62
     7
100
AcDbEllipse
 10
91.5357541944
 20
390.6502919148
 30
0.0
 11
-10.49999999971497
 21
3.049817343114825E-11
 31
0.0
210
0.0
220
0.0
230
1.0
 40
0.1478094111
 41
0.9575684375813738
 42
1.051215154832995
  0
ELLIPSE
  5
1A1
330
73
100
AcDbEntity
  8
$DDT_AUDIT_GENERATED_(99)
  6
Continuous
 62
     7
100
AcDbEllipse
 10
91.5357541952
 20
390.650291915
 30
0.0
 11
-10.5000000005313
 21
-5.664912983149861E-11
 31
0.0
210
0.0
220
0.0
230
1.0
 40
0.1478094111
 41
0.9202046026709579
 42
0.9340807250419719
  0
ELLIPSE
  5
1A2
330
73
100
AcDbEntity
  8
$DDT_AUDIT_GENERATED_(99)
  6
Continuous
 62
     7
100
AcDbEllipse
 10
91.5357541947
 20
390.6502919149
 30
0.0
 11
-10.49999999998381
 21
2.166669621495032E-12
 31
0.0
210
0.0
220
0.0
230
1.0
 40
0.1478094111
 41
0.7068833393504362
 42
0.7365114811929508
  0
ELLIPSE
  5
1A3
330
73
100
AcDbEntity
  8
$DDT_AUDIT_GENERATED_(99)
  6
Continuous
 62
     7
100
AcDbEllipse
 10
91.5357541948
 20
390.6502919149
 30
0.0
 11
-10.50000000011487
 21
-8.174017018802715E-12
 31
0.0
210
0.0
220
0.0
230
1.0
 40
0.1478094111
 41
0.5273076683502774
 42
0.6132278892191307
  0
ELLIPSE
  5
1A4
330
73
100
AcDbEntity
  8
$DDT_AUDIT_GENERATED_(99)
  6
Continuous
 62
     7
100
AcDbEllipse
 10
91.5357541948
 20
390.6502919149
 30
0.0
 11
-10.50000000008297
 21
-4.532832442727397E-12
 31
0.0
210
0.0
220
0.0
230
1.0
 40
0.1478094111
 41
0.3650008041061183
 42
0.4436641018940708
  0
ELLIPSE
  5
1A5
330
73
100
AcDbEntity
  8
$DDT_AUDIT_GENERATED_(99)
  6
Continuous
 62
     7
100
AcDbEllipse
 10
91.535754195
 20
390.6502919149
 30
0.0
 11
-10.50000000032544
 21
-1.105886215935215E-11
 31
0.0
210
0.0
220
0.0
230
1.0
 40
0.1478094111
 41
0.233301088454804
 42
0.2869134470909729
  0
LINE
  5
1A6
330
73
100
AcDbEntity
  8
$DDT_AUDIT_GENERATED_(99)
  6
Continuous
 62
     7
100
AcDbLine
 10
82.1041209586
 20
389.8693128422
 30
0.0
 11
82.3066875393
 21
389.8693128422
 31
0.0
  0
LINE
  5
1A7
330
73
100
AcDbEntity
  8
$DDT_AUDIT_GENERATED_(99)
  6
Continuous
 62
     7
100
AcDbLine
 10
82.2214684804
 20
390.0693128422
 30
0.0
 11
82.0934114751
 21
390.0693128422
 31
0.0
  0
LINE
  5
1A8
330
73
100
AcDbEntity
  8
$DDT_AUDIT_GENERATED_(99)
  6
Continuous
 62
     7
100
AcDbLine
 10
81.4972970427
 20
390.0963058664
 30
0.0
 11
82.3066875393
 21
390.0963058664
 31
0.0
  0
LINE
  5
1A9
330
73
100
AcDbEntity
  8
$DDT_AUDIT_GENERATED_(99)
  6
Continuous
 62
     7
100
AcDbLine
 10
82.2214684804
 20
390.2963058664
 30
0.0
 11
81.4905612474
 21
390.2963058664
 31
0.0
  0
LINE
  5
1AA
330
73
100
AcDbEntity
  8
$DDT_AUDIT_GENERATED_(99)
  6
Continuous
 62
     7
100
AcDbLine
 10
81.4698037443
 20
390.3232988907
 30
0.0
 11
82.3066875393
 21
390.3232988907
 31
0.0
  0
LINE
  5
1AB
330
73
100
AcDbEntity
  8
$DDT_AUDIT_GENERATED_(99)
  6
Continuous
 62
     7
100
AcDbLine
 10
82.4214684804
 20
390.4380798318
 30
0.0
 11
82.4214684804
 21
390.4974844283
 31
0.0
  0
LINE
  5
1AC
330
73
100
AcDbEntity
  8
$DDT_AUDIT_GENERATED_(99)
  6
Continuous
 62
     7
100
AcDbLine
 10
82.2214684804
 20
390.4643537417
 30
0.0
 11
82.2214684804
 21
390.4380798318
 31
0.0
  0
LINE
  5
1AD
330
73
100
AcDbEntity
  8
$DDT_AUDIT_GENERATED_(99)
  6
Continuous
 62
     7
100
AcDbLine
 10
82.4214684804
 20
390.2110868075
 30
0.0
 11
82.4214684804
 21
390.3232988907
 31
0.0
  0
LINE
  5
1AE
330
73
100
AcDbEntity
  8
$DDT_AUDIT_GENERATED_(99)
  6
Continuous
 62
     7
100
AcDbLine
 10
82.2214684804
 20
390.3232988907
 30
0.0
 11
82.2214684804
 21
390.2110868075
 31
0.0
  0
LINE
  5
1AF
330
73
100
AcDbEntity
  8
$DDT_AUDIT_GENERATED_(99)
  6
Continuous
 62
     7
100
AcDbLine
 10
82.4214684804
 20
389.9840937833
 30
0.0
 11
82.4214684804
 21
390.0963058664
 31
0.0
  0
LINE
  5
1B0
330
73
100
AcDbEntity
  8
$DDT_AUDIT_GENERATED_(99)
  6
Continuous
 62
     7
100
AcDbLine
 10
82.2214684804
 20
390.0963058664
 30
0.0
 11
82.2214684804
 21
389.9840937833
 31
0.0
  0
LINE
  5
1B1
330
73
100
AcDbEntity
  8
$DDT_AUDIT_GENERATED_(99)
  6
Continuous
 62
     7
100
AcDbLine
 10
82.7614866747
 20
390.5502919149
 30
0.0
 11
83.842401825
 21
390.5502919149
 31
0.0
  0
LINE
  5
1B2
330
73
100
AcDbEntity
  8
$DDT_AUDIT_GENERATED_(99)
  6
Continuous
 62
     7
100
AcDbLine
 10
82.3362494215
 20
390.3232988907
 30
0.0
 11
83.842401825
 21
390.3232988907
 31
0.0
  0
LINE
  5
1B3
330
73
100
AcDbEntity
  8
$DDT_AUDIT_GENERATED_(99)
  6
Continuous
 62
     7
100
AcDbLine
 10
83.7571827661
 20
390.5232988907
 30
0.0
 11
82.5842875253
 21
390.5232988907
 31
0.0
  0
LINE
  5
1B4
330
73
100
AcDbEntity
  8
$DDT_AUDIT_GENERATED_(99)
  6
Continuous
 62
     7
100
AcDbLine
 10
82.3362494215
 20
390.0963058664
 30
0.0
 11
83.842401825
 21
390.0963058664
 31
0.0
  0
LINE
  5
1B5
330
73
100
AcDbEntity
  8
$DDT_AUDIT_GENERATED_(99)
  6
Continuous
 62
     7
100
AcDbLine
 10
83.7571827661
 20
390.2963058664
 30
0.0
 11
82.4214684804
 21
390.2963058664
 31
0.0
  0
LINE
  5
1B6
330
73
100
AcDbEntity
  8
$DDT_AUDIT_GENERATED_(99)
  6
Continuous
 62
     7
100
AcDbLine
 10
82.3362494215
 20
389.8693128422
 30
0.0
 11
83.842401825
 21
389.8693128422
 31
0.0
  0
LINE
  5
1B7
330
73
100
AcDbEntity
  8
$DDT_AUDIT_GENERATED_(99)
  6
Continuous
 62
     7
100
AcDbLine
 10
83.7571827661
 20
390.0693128422
 30
0.0
 11
82.4214684804
 21
390.0693128422
 31
0.0
  0
LINE
  5
1B8
330
73
100
AcDbEntity
  8
$DDT_AUDIT_GENERATED_(99)
  6
Continuous
 62
     7
100
AcDbLine
 10
83.0255278598
 20
389.642319818
 30
0.0
 11
83.842401825
 21
389.642319818
 31
0.0
  0
LINE
  5
1B9
330
73
100
AcDbEntity
  8
$DDT_AUDIT_GENERATED_(99)
  6
Continuous
 62
     7
100
AcDbLine
 10
83.7571827661
 20
389.842319818
 30
0.0
 11
83.0097444699
 21
389.842319818
 31
0.0
  0
LINE
  5
1BA
330
73
100
AcDbEntity
  8
$DDT_AUDIT_GENERATED_(99)
  6
Continuous
 62
     7
100
AcDbLine
 10
83.9571827661
 20
389.5761002512
 30
0.0
 11
83.9571827661
 21
389.642319818
 31
0.0
  0
LINE
  5
1BB
330
73
100
AcDbEntity
  8
$DDT_AUDIT_GENERATED_(99)
  6
Continuous
 62
     7
100
AcDbLine
 10
83.7571827661
 20
389.642319818
 30
0.0
 11
83.7571827661
 21
389.607802433
 31
0.0
  0
LINE
  5
1BC
330
73
100
AcDbEntity
  8
$DDT_AUDIT_GENERATED_(99)
  6
Continuous
 62
     7
100
AcDbLine
 10
83.9571827661
 20
389.7571007591
 30
0.0
 11
83.9571827661
 21
389.8693128422
 31
0.0
  0
LINE
  5
1BD
330
73
100
AcDbEntity
  8
$DDT_AUDIT_GENERATED_(99)
  6
Continuous
 62
     7
100
AcDbLine
 10
83.7571827661
 20
389.8693128422
 30
0.0
 11
83.7571827661
 21
389.7571007591
 31
0.0
  0
LINE
  5
1BE
330
73
100
AcDbEntity
  8
$DDT_AUDIT_GENERATED_(99)
  6
Continuous
 62
     7
100
AcDbLine
 10
83.9571827661
 20
389.9840937833
 30
0.0
 11
83.9571827661
 21
390.0963058664
 31
0.0
  0
LINE
  5
1BF
330
73
100
AcDbEntity
  8
$DDT_AUDIT_GENERATED_(99)
  6
Continuous
 62
     7
100
AcDbLine
 10
83.7571827661
 20
390.0963058664
 30
0.0
 11
83.7571827661
 21
389.9840937833
 31
0.0
  0
LINE
  5
1C0
330
73
100
AcDbEntity
  8
$DDT_AUDIT_GENERATED_(99)
  6
Continuous
 62
     7
100
AcDbLine
 10
83.9571827661
 20
390.2110868075
 30
0.0
 11
83.9571827661
 21
390.3232988907
 31
0.0
  0
LINE
  5
1C1
330
73
100
AcDbEntity
  8
$DDT_AUDIT_GENERATED_(99)
  6
Continuous
 62
     7
100
AcDbLine
 10
83.7571827661
 20
390.3232988907
 30
0.0
 11
83.7571827661
 21
390.2110868075
 31
0.0
  0
LINE
  5
1C2
330
73
100
AcDbEntity
  8
$DDT_AUDIT_GENERATED_(99)
  6
Continuous
 62
     7
100
AcDbLine
 10
83.9571827661
 20
390.4380798318
 30
0.0
 11
83.9571827661
 21
390.5502919149
 31
0.0
  0
LINE
  5
1C3
330
73
100
AcDbEntity
  8
$DDT_AUDIT_GENERATED_(99)
  6
Continuous
 62
     7
100
AcDbLine
 10
83.7571827661
 20
390.5502919149
 30
0.0
 11
83.7571827661
 21
390.4380798318
 31
0.0
  0
LINE
  5
1C4
330
73
100
AcDbEntity
  8
$DDT_AUDIT_GENERATED_(99)
  6
Continuous
 62
     7
100
AcDbLine
 10
83.9571827661
 20
390.665072856
 30
0.0
 11
83.9571827661
 21
390.7070028849
 31
0.0
  0
LINE
  5
1C5
330
73
100
AcDbEntity
  8
$DDT_AUDIT_GENERATED_(99)
  6
Continuous
 62
     7
100
AcDbLine
 10
83.7571827661
 20
390.6835335648
 30
0.0
 11
83.7571827661
 21
390.665072856
 31
0.0
  0
LINE
  5
1C6
330
73
100
AcDbEntity
  8
$DDT_AUDIT_GENERATED_(99)
  6
Continuous
 62
     7
100
AcDbLine
 10
84.3820584849
 20
389.4153267937
 30
0.0
 11
85.3781161107
 21
389.4153267937
 31
0.0
  0
LINE
  5
1C7
330
73
100
AcDbEntity
  8
$DDT_AUDIT_GENERATED_(99)
  6
Continuous
 62
     7
100
AcDbLine
 10
85.2928970518
 20
389.6153267937
 30
0.0
 11
84.3586901727
 21
389.6153267937
 31
0.0
  0
LINE
  5
1C8
330
73
100
AcDbEntity
  8
$DDT_AUDIT_GENERATED_(99)
  6
Continuous
 62
     7
100
AcDbLine
 10
83.8719637072
 20
389.642319818
 30
0.0
 11
85.3781161107
 21
389.642319818
 31
0.0
  0
LINE
  5
1C9
330
73
100
AcDbEntity
  8
$DDT_AUDIT_GENERATED_(99)
  6
Continuous
 62
     7
100
AcDbLine
 10
85.2928970518
 20
389.842319818
 30
0.0
 11
83.9571827661
 21
389.842319818
 31
0.0
  0
LINE
  5
1CA
330
73
100
AcDbEntity
  8
$DDT_AUDIT_GENERATED_(99)
  6
Continuous
 62
     7
100
AcDbLine
 10
83.8719637072
 20
389.8693128422
 30
0.0
 11
85.3781161107
 21
389.8693128422
 31
0.0
  0
LINE
  5
1CB
330
73
100
AcDbEntity
  8
$DDT_AUDIT_GENERATED_(99)
  6
Continuous
 62
     7
100
AcDbLine
 10
85.2928970518
 20
390.0693128422
 30
0.0
 11
83.9571827661
 21
390.0693128422
 31
0.0
  0
LINE
  5
1CC
330
73
100
AcDbEntity
  8
$DDT_AUDIT_GENERATED_(99)
  6
Continuous
 62
     7
100
AcDbLine
 10
83.8719637072
 20
390.0963058664
 30
0.0
 11
85.3781161107
 21
390.0963058664
 31
0.0
  0
LINE
  5
1CD
330
73
100
AcDbEntity
  8
$DDT_AUDIT_GENERATED_(99)
  6
Continuous
 62
     7
100
AcDbLine
 10
85.2928970518
 20
390.2963058664
 30
0.0
 11
83.9571827661
 21
390.2963058664
 31
0.0
  0
LINE
  5
1CE
330
73
100
AcDbEntity
  8
$DDT_AUDIT_GENERATED_(99)
  6
Continuous
 62
     7
100
AcDbLine
 10
83.8719637072
 20
390.3232988907
 30
0.0
 11
85.3781161107
 21
390.3232988907
 31
0.0
  0
LINE
  5
1CF
330
73
100
AcDbEntity
  8
$DDT_AUDIT_GENERATED_(99)
  6
Continuous
 62
     7
100
AcDbLine
 10
85.2928970518
 20
390.5232988907
 30
0.0
 11
83.9571827661
 21
390.5232988907
 31
0.0
  0
LINE
  5
1D0
330
73
100
AcDbEntity
  8
$DDT_AUDIT_GENERATED_(99)
  6
Continuous
 62
     7
100
AcDbLine
 10
83.8719637072
 20
390.5502919149
 30
0.0
 11
85.3781161107
 21
390.5502919149
 31
0.0
  0
LINE
  5
1D1
330
73
100
AcDbEntity
  8
$DDT_AUDIT_GENERATED_(99)
  6
Continuous
 62
     7
100
AcDbLine
 10
85.2928970518
 20
390.7502919149
 30
0.0
 11
84.3498487839
 21
390.7502919149
 31
0.0
  0
LINE
  5
1D2
330
73
100
AcDbEntity
  8
$DDT_AUDIT_GENERATED_(99)
  6
Continuous
 62
     7
100
AcDbLine
 10
84.61221855
 20
390.7772849391
 30
0.0
 11
85.3781161107
 21
390.7772849391
 31
0.0
  0
LINE
  5
1D3
330
73
100
AcDbEntity
  8
$DDT_AUDIT_GENERATED_(99)
  6
Continuous
 62
     7
100
AcDbLine
 10
85.4928970518
 20
390.665072856
 30
0.0
 11
85.4928970518
 21
390.7772849391
 31
0.0
  0
LINE
  5
1D4
330
73
100
AcDbEntity
  8
$DDT_AUDIT_GENERATED_(99)
  6
Continuous
 62
     7
100
AcDbLine
 10
85.2928970518
 20
390.7772849391
 30
0.0
 11
85.2928970518
 21
390.665072856
 31
0.0
  0
LINE
  5
1D5
330
73
100
AcDbEntity
  8
$DDT_AUDIT_GENERATED_(99)
  6
Continuous
 62
     7
100
AcDbLine
 10
85.4928970518
 20
390.4380798318
 30
0.0
 11
85.4928970518
 21
390.5502919149
 31
0.0
  0
LINE
  5
1D6
330
73
100
AcDbEntity
  8
$DDT_AUDIT_GENERATED_(99)
  6
Continuous
 62
     7
100
AcDbLine
 10
85.2928970518
 20
390.5502919149
 30
0.0
 11
85.2928970518
 21
390.4380798318
 31
0.0
  0
LINE
  5
1D7
330
73
100
AcDbEntity
  8
$DDT_AUDIT_GENERATED_(99)
  6
Continuous
 62
     7
100
AcDbLine
 10
85.4928970518
 20
390.2110868075
 30
0.0
 11
85.4928970518
 21
390.3232988907
 31
0.0
  0
LINE
  5
1D8
330
73
100
AcDbEntity
  8
$DDT_AUDIT_GENERATED_(99)
  6
Continuous
 62
     7
100
AcDbLine
 10
85.2928970518
 20
390.3232988907
 30
0.0
 11
85.2928970518
 21
390.2110868075
 31
0.0
  0
LINE
  5
1D9
330
73
100
AcDbEntity
  8
$DDT_AUDIT_GENERATED_(99)
  6
Continuous
 62
     7
100
AcDbLine
 10
85.4928970518
 20
389.9840937833
 30
0.0
 11
85.4928970518
 21
390.0963058664
 31
0.0
  0
LINE
  5
1DA
330
73
100
AcDbEntity
  8
$DDT_AUDIT_GENERATED_(99)
  6
Continuous
 62
     7
100
AcDbLine
 10
85.2928970518
 20
390.0963058664
 30
0.0
 11
85.2928970518
 21
389.9840937833
 31
0.0
  0
LINE
  5
1DB
330
73
100
AcDbEntity
  8
$DDT_AUDIT_GENERATED_(99)
  6
Continuous
 62
     7
100
AcDbLine
 10
85.4928970518
 20
389.7571007591
 30
0.0
 11
85.4928970518
 21
389.8693128422
 31
0.0
  0
LINE
  5
1DC
330
73
100
AcDbEntity
  8
$DDT_AUDIT_GENERATED_(99)
  6
Continuous
 62
     7
100
AcDbLine
 10
85.2928970518
 20
389.8693128422
 30
0.0
 11
85.2928970518
 21
389.7571007591
 31
0.0
  0
LINE
  5
1DD
330
73
100
AcDbEntity
  8
$DDT_AUDIT_GENERATED_(99)
  6
Continuous
 62
     7
100
AcDbLine
 10
85.4928970518
 20
389.5301077348
 30
0.0
 11
85.4928970518
 21
389.642319818
 31
0.0
  0
LINE
  5
1DE
330
73
100
AcDbEntity
  8
$DDT_AUDIT_GENERATED_(99)
  6
Continuous
 62
     7
100
AcDbLine
 10
85.2928970518
 20
389.642319818
 30
0.0
 11
85.2928970518
 21
389.5301077348
 31
0.0
  0
LINE
  5
1DF
330
73
100
AcDbEntity
  8
$DDT_AUDIT_GENERATED_(99)
  6
Continuous
 62
     7
100
AcDbLine
 10
85.4928970518
 20
389.3810756659
 30
0.0
 11
85.4928970518
 21
389.4153267937
 31
0.0
  0
LINE
  5
1E0
330
73
100
AcDbEntity
  8
$DDT_AUDIT_GENERATED_(99)
  6
Continuous
 62
     7
100
AcDbLine
 10
85.2928970518
 20
389.4153267937
 30
0.0
 11
85.2928970518
 21
389.402402834
 31
0.0
  0
LINE
  5
1E1
330
73
100
AcDbEntity
  8
$DDT_AUDIT_GENERATED_(99)
  6
Continuous
 62
     7
100
AcDbLine
 10
85.4076779929
 20
390.7772849391
 30
0.0
 11
86.9138303964
 21
390.7772849391
 31
0.0
  0
LINE
  5
1E2
330
73
100
AcDbEntity
  8
$DDT_AUDIT_GENERATED_(99)
  6
Continuous
 62
     7
100
AcDbLine
 10
85.4076779929
 20
390.5502919149
 30
0.0
 11
86.9138303964
 21
390.5502919149
 31
0.0
  0
LINE
  5
1E3
330
73
100
AcDbEntity
  8
$DDT_AUDIT_GENERATED_(99)
  6
Continuous
 62
     7
100
AcDbLine
 10
86.8286113375
 20
390.7502919149
 30
0.0
 11
85.4928970518
 21
390.7502919149
 31
0.0
  0
LINE
  5
1E4
330
73
100
AcDbEntity
  8
$DDT_AUDIT_GENERATED_(99)
  6
Continuous
 62
     7
100
AcDbLine
 10
85.4076779929
 20
390.3232988907
 30
0.0
 11
86.9138303964
 21
390.3232988907
 31
0.0
  0
LINE
  5
1E5
330
73
100
AcDbEntity
  8
$DDT_AUDIT_GENERATED_(99)
  6
Continuous
 62
     7
100
AcDbLine
 10
86.8286113375
 20
390.5232988907
 30
0.0
 11
85.4928970518
 21
390.5232988907
 31
0.0
  0
LINE
  5
1E6
330
73
100
AcDbEntity
  8
$DDT_AUDIT_GENERATED_(99)
  6
Continuous
 62
     7
100
AcDbLine
 10
85.4076779929
 20
390.0963058664
 30
0.0
 11
86.9138303964
 21
390.0963058664
 31
0.0
  0
LINE
  5
1E7
330
73
100
AcDbEntity
  8
$DDT_AUDIT_GENERATED_(99)
  6
Continuous
 62
     7
100
AcDbLine
 10
86.8286113375
 20
390.2963058664
 30
0.0
 11
85.4928970518
 21
390.2963058664
 31
0.0
  0
LINE
  5
1E8
330
73
100
AcDbEntity
  8
$DDT_AUDIT_GENERATED_(99)
  6
Continuous
 62
     7
100
AcDbLine
 10
85.4076779929
 20
389.8693128422
 30
0.0
 11
86.9138303964
 21
389.8693128422
 31
0.0
  0
LINE
  5
1E9
330
73
100
AcDbEntity
  8
$DDT_AUDIT_GENERATED_(99)
  6
Continuous
 62
     7
100
AcDbLine
 10
86.8286113375
 20
390.0693128422
 30
0.0
 11
85.4928970518
 21
390.0693128422
 31
0.0
  0
LINE
  5
1EA
330
73
100
AcDbEntity
  8
$DDT_AUDIT_GENERATED_(99)
  6
Continuous
 62
     7
100
AcDbLine
 10
85.4076779929
 20
389.642319818
 30
0.0
 11
86.9138303964
 21
389.642319818
 31
0.0
  0
LINE
  5
1EB
330
73
100
AcDbEntity
  8
$DDT_AUDIT_GENERATED_(99)
  6
Continuous
 62
     7
100
AcDbLine
 10
86.8286113375
 20
389.842319818
 30
0.0
 11
85.4928970518
 21
389.842319818
 31
0.0
  0
LINE
  5
1EC
330
73
100
AcDbEntity
  8
$DDT_AUDIT_GENERATED_(99)
  6
Continuous
 62
     7
100
AcDbLine
 10
85.4076779929
 20
389.4153267937
 30
0.0
 11
86.9138303964
 21
389.4153267937
 31
0.0
  0
LINE
  5
1ED
330
73
100
AcDbEntity
  8
$DDT_AUDIT_GENERATED_(99)
  6
Continuous
 62
     7
100
AcDbLine
 10
86.8286113375
 20
389.6153267937
 30
0.0
 11
85.4928970518
 21
389.6153267937
 31
0.0
  0
LINE
  5
1EE
330
73
100
AcDbEntity
  8
$DDT_AUDIT_GENERATED_(99)
  6
Continuous
 62
     7
100
AcDbLine
 10
86.5148045226
 20
389.1883337695
 30
0.0
 11
86.9138303964
 21
389.1883337695
 31
0.0
  0
LINE
  5
1EF
330
73
100
AcDbEntity
  8
$DDT_AUDIT_GENERATED_(99)
  6
Continuous
 62
     7
100
AcDbLine
 10
86.8286113375
 20
389.3883337695
 30
0.0
 11
86.4762587686
 21
389.3883337695
 31
0.0
  0
LINE
  5
1F0
330
73
100
AcDbEntity
  8
$DDT_AUDIT_GENERATED_(99)
  6
Continuous
 62
     7
100
AcDbLine
 10
87.0286113375
 20
389.3031147106
 30
0.0
 11
87.0286113375
 21
389.4153267937
 31
0.0
  0
LINE
  5
1F1
330
73
100
AcDbEntity
  8
$DDT_AUDIT_GENERATED_(99)
  6
Continuous
 62
     7
100
AcDbLine
 10
86.8286113375
 20
389.4153267937
 30
0.0
 11
86.8286113375
 21
389.3031147106
 31
0.0
  0
LINE
  5
1F2
330
73
100
AcDbEntity
  8
$DDT_AUDIT_GENERATED_(99)
  6
Continuous
 62
     7
100
AcDbLine
 10
87.0286113375
 20
389.5301077348
 30
0.0
 11
87.0286113375
 21
389.642319818
 31
0.0
  0
LINE
  5
1F3
330
73
100
AcDbEntity
  8
$DDT_AUDIT_GENERATED_(99)
  6
Continuous
 62
     7
100
AcDbLine
 10
86.8286113375
 20
389.642319818
 30
0.0
 11
86.8286113375
 21
389.5301077348
 31
0.0
  0
LINE
  5
1F4
330
73
100
AcDbEntity
  8
$DDT_AUDIT_GENERATED_(99)
  6
Continuous
 62
     7
100
AcDbLine
 10
87.0286113375
 20
389.7571007591
 30
0.0
 11
87.0286113375
 21
389.8693128422
 31
0.0
  0
LINE
  5
1F5
330
73
100
AcDbEntity
  8
$DDT_AUDIT_GENERATED_(99)
  6
Continuous
 62
     7
100
AcDbLine
 10
86.8286113375
 20
389.8693128422
 30
0.0
 11
86.8286113375
 21
389.7571007591
 31
0.0
  0
LINE
  5
1F6
330
73
100
AcDbEntity
  8
$DDT_AUDIT_GENERATED_(99)
  6
Continuous
 62
     7
100
AcDbLine
 10
87.0286113375
 20
389.9840937833
 30
0.0
 11
87.0286113375
 21
390.0963058664
 31
0.0
  0
LINE
  5
1F7
330
73
100
AcDbEntity
  8
$DDT_AUDIT_GENERATED_(99)
  6
Continuous
 62
     7
100
AcDbLine
 10
86.8286113375
 20
390.0963058664
 30
0.0
 11
86.8286113375
 21
389.9840937833
 31
0.0
  0
LINE
  5
1F8
330
73
100
AcDbEntity
  8
$DDT_AUDIT_GENERATED_(99)
  6
Continuous
 62
     7
100
AcDbLine
 10
87.0286113375
 20
390.2110868075
 30
0.0
 11
87.0286113375
 21
390.3232988907
 31
0.0
  0
LINE
  5
1F9
330
73
100
AcDbEntity
  8
$DDT_AUDIT_GENERATED_(99)
  6
Continuous
 62
     7
100
AcDbLine
 10
86.8286113375
 20
390.3232988907
 30
0.0
 11
86.8286113375
 21
390.2110868075
 31
0.0
  0
LINE
  5
1FA
330
73
100
AcDbEntity
  8
$DDT_AUDIT_GENERATED_(99)
  6
Continuous
 62
     7
100
AcDbLine
 10
87.0286113375
 20
390.4380798318
 30
0.0
 11
87.0286113375
 21
390.5502919149
 31
0.0
  0
LINE
  5
1FB
330
73
100
AcDbEntity
  8
$DDT_AUDIT_GENERATED_(99)
  6
Continuous
 62
     7
100
AcDbLine
 10
86.8286113375
 20
390.5502919149
 30
0.0
 11
86.8286113375
 21
390.4380798318
 31
0.0
  0
LINE
  5
1FC
330
73
100
AcDbEntity
  8
$DDT_AUDIT_GENERATED_(99)
  6
Continuous
 62
     7
100
AcDbLine
 10
87.0286113375
 20
390.665072856
 30
0.0
 11
87.0286113375
 21
390.7772849391
 31
0.0
  0
LINE
  5
1FD
330
73
100
AcDbEntity
  8
$DDT_AUDIT_GENERATED_(99)
  6
Continuous
 62
     7
100
AcDbLine
 10
86.8286113375
 20
390.7772849391
 30
0.0
 11
86.8286113375
 21
390.665072856
 31
0.0
  0
LINE
  5
1FE
330
73
100
AcDbEntity
  8
$DDT_AUDIT_GENERATED_(99)
  6
Continuous
 62
     7
100
AcDbLine
 10
87.0286113375
 20
390.8920658803
 30
0.0
 11
87.0286113375
 21
390.9652090493
 31
0.0
  0
LINE
  5
1FF
330
73
100
AcDbEntity
  8
$DDT_AUDIT_GENERATED_(99)
  6
Continuous
 62
     7
100
AcDbLine
 10
86.8286113375
 20
390.9533224941
 30
0.0
 11
86.8286113375
 21
390.8920658803
 31
0.0
  0
LINE
  5
200
330
73
100
AcDbEntity
  8
$DDT_AUDIT_GENERATED_(99)
  6
Continuous
 62
     7
100
AcDbLine
 10
86.9433922786
 20
389.1883337695
 30
0.0
 11
88.4495446821
 21
389.1883337695
 31
0.0
  0
LINE
  5
201
330
73
100
AcDbEntity
  8
$DDT_AUDIT_GENERATED_(99)
  6
Continuous
 62
     7
100
AcDbLine
 10
88.3643256232
 20
389.3883337695
 30
0.0
 11
87.0286113375
 21
389.3883337695
 31
0.0
  0
LINE
  5
202
330
73
100
AcDbEntity
  8
$DDT_AUDIT_GENERATED_(99)
  6
Continuous
 62
     7
100
AcDbLine
 10
86.9433922786
 20
389.4153267937
 30
0.0
 11
88.4495446821
 21
389.4153267937
 31
0.0
  0
LINE
  5
203
330
73
100
AcDbEntity
  8
$DDT_AUDIT_GENERATED_(99)
  6
Continuous
 62
     7
100
AcDbLine
 10
88.3643256232
 20
389.6153267937
 30
0.0
 11
87.0286113375
 21
389.6153267937
 31
0.0
  0
LINE
  5
204
330
73
100
AcDbEntity
  8
$DDT_AUDIT_GENERATED_(99)
  6
Continuous
 62
     7
100
AcDbLine
 10
86.9433922786
 20
389.642319818
 30
0.0
 11
88.4495446821
 21
389.642319818
 31
0.0
  0
LINE
  5
205
330
73
100
AcDbEntity
  8
$DDT_AUDIT_GENERATED_(99)
  6
Continuous
 62
     7
100
AcDbLine
 10
88.3643256232
 20
389.842319818
 30
0.0
 11
87.0286113375
 21
389.842319818
 31
0.0
  0
LINE
  5
206
330
73
100
AcDbEntity
  8
$DDT_AUDIT_GENERATED_(99)
  6
Continuous
 62
     7
100
AcDbLine
 10
86.9433922786
 20
389.8693128422
 30
0.0
 11
88.4495446821
 21
389.8693128422
 31
0.0
  0
LINE
  5
207
330
73
100
AcDbEntity
  8
$DDT_AUDIT_GENERATED_(99)
  6
Continuous
 62
     7
100
AcDbLine
 10
88.3643256232
 20
390.0693128422
 30
0.0
 11
87.0286113375
 21
390.0693128422
 31
0.0
  0
LINE
  5
208
330
73
100
AcDbEntity
  8
$DDT_AUDIT_GENERATED_(99)
  6
Continuous
 62
     7
100
AcDbLine
 10
86.9433922786
 20
390.0963058664
 30
0.0
 11
88.4495446821
 21
390.0963058664
 31
0.0
  0
LINE
  5
209
330
73
100
AcDbEntity
  8
$DDT_AUDIT_GENERATED_(99)
  6
Continuous
 62
     7
100
AcDbLine
 10
88.3643256232
 20
390.2963058664
 30
0.0
 11
87.0286113375
 21
390.2963058664
 31
0.0
  0
LINE
  5
20A
330
73
100
AcDbEntity
  8
$DDT_AUDIT_GENERATED_(99)
  6
Continuous
 62
     7
100
AcDbLine
 10
86.9433922786
 20
390.3232988907
 30
0.0
 11
88.4495446821
 21
390.3232988907
 31
0.0
  0
LINE
  5
20B
330
73
100
AcDbEntity
  8
$DDT_AUDIT_GENERATED_(99)
  6
Continuous
 62
     7
100
AcDbLine
 10
88.3643256232
 20
390.5232988907
 30
0.0
 11
87.0286113375
 21
390.5232988907
 31
0.0
  0
LINE
  5
20C
330
73
100
AcDbEntity
  8
$DDT_AUDIT_GENERATED_(99)
  6
Continuous
 62
     7
100
AcDbLine
 10
86.9433922786
 20
390.5502919149
 30
0.0
 11
88.4495446821
 21
390.5502919149
 31
0.0
  0
LINE
  5
20D
330
73
100
AcDbEntity
  8
$DDT_AUDIT_GENERATED_(99)
  6
Continuous
 62
     7
100
AcDbLine
 10
88.3643256232
 20
390.7502919149
 30
0.0
 11
87.0286113375
 21
390.7502919149
 31
0.0
  0
LINE
  5
20E
330
73
100
AcDbEntity
  8
$DDT_AUDIT_GENERATED_(99)
  6
Continuous
 62
     7
100
AcDbLine
 10
86.9433922786
 20
390.7772849391
 30
0.0
 11
88.4495446821
 21
390.7772849391
 31
0.0
  0
LINE
  5
20F
330
73
100
AcDbEntity
  8
$DDT_AUDIT_GENERATED_(99)
  6
Continuous
 62
     7
100
AcDbLine
 10
88.3643256232
 20
390.9772849391
 30
0.0
 11
87.2428669519
 21
390.9772849391
 31
0.0
  0
LINE
  5
210
330
73
100
AcDbEntity
  8
$DDT_AUDIT_GENERATED_(99)
  6
Continuous
 62
     7
100
AcDbLine
 10
87.7719682819
 20
391.0042779634
 30
0.0
 11
88.4495446821
 21
391.0042779634
 31
0.0
  0
LINE
  5
211
330
73
100
AcDbEntity
  8
$DDT_AUDIT_GENERATED_(99)
  6
Continuous
 62
     7
100
AcDbLine
 10
88.5643256232
 20
390.8920658803
 30
0.0
 11
88.5643256232
 21
391.0042779634
 31
0.0
  0
LINE
  5
212
330
73
100
AcDbEntity
  8
$DDT_AUDIT_GENERATED_(99)
  6
Continuous
 62
     7
100
AcDbLine
 10
88.3643256232
 20
391.0042779634
 30
0.0
 11
88.3643256232
 21
390.8920658803
 31
0.0
  0
LINE
  5
213
330
73
100
AcDbEntity
  8
$DDT_AUDIT_GENERATED_(99)
  6
Continuous
 62
     7
100
AcDbLine
 10
88.5643256232
 20
390.665072856
 30
0.0
 11
88.5643256232
 21
390.7772849391
 31
0.0
  0
LINE
  5
214
330
73
100
AcDbEntity
  8
$DDT_AUDIT_GENERATED_(99)
  6
Continuous
 62
     7
100
AcDbLine
 10
88.3643256232
 20
390.7772849391
 30
0.0
 11
88.3643256232
 21
390.665072856
 31
0.0
  0
LINE
  5
215
330
73
100
AcDbEntity
  8
$DDT_AUDIT_GENERATED_(99)
  6
Continuous
 62
     7
100
AcDbLine
 10
88.5643256232
 20
390.4380798318
 30
0.0
 11
88.5643256232
 21
390.5502919149
 31
0.0
  0
LINE
  5
216
330
73
100
AcDbEntity
  8
$DDT_AUDIT_GENERATED_(99)
  6
Continuous
 62
     7
100
AcDbLine
 10
88.3643256232
 20
390.5502919149
 30
0.0
 11
88.3643256232
 21
390.4380798318
 31
0.0
  0
LINE
  5
217
330
73
100
AcDbEntity
  8
$DDT_AUDIT_GENERATED_(99)
  6
Continuous
 62
     7
100
AcDbLine
 10
88.5643256232
 20
390.2110868075
 30
0.0
 11
88.5643256232
 21
390.3232988907
 31
0.0
  0
LINE
  5
218
330
73
100
AcDbEntity
  8
$DDT_AUDIT_GENERATED_(99)
  6
Continuous
 62
     7
100
AcDbLine
 10
88.3643256232
 20
390.3232988907
 30
0.0
 11
88.3643256232
 21
390.2110868075
 31
0.0
  0
LINE
  5
219
330
73
100
AcDbEntity
  8
$DDT_AUDIT_GENERATED_(99)
  6
Continuous
 62
     7
100
AcDbLine
 10
88.5643256232
 20
389.9840937833
 30
0.0
 11
88.5643256232
 21
390.0963058664
 31
0.0
  0
LINE
  5
21A
330
73
100
AcDbEntity
  8
$DDT_AUDIT_GENERATED_(99)
  6
Continuous
 62
     7
100
AcDbLine
 10
88.3643256232
 20
390.0963058664
 30
0.0
 11
88.3643256232
 21
389.9840937833
 31
0.0
  0
LINE
  5
21B
330
73
100
AcDbEntity
  8
$DDT_AUDIT_GENERATED_(99)
  6
Continuous
 62
     7
100
AcDbLine
 10
88.5643256232
 20
389.7571007591
 30
0.0
 11
88.5643256232
 21
389.8693128422
 31
0.0
  0
LINE
  5
21C
330
73
100
AcDbEntity
  8
$DDT_AUDIT_GENERATED_(99)
  6
Continuous
 62
     7
100
AcDbLine
 10
88.3643256232
 20
389.8693128422
 30
0.0
 11
88.3643256232
 21
389.7571007591
 31
0.0
  0
LINE
  5
21D
330
73
100
AcDbEntity
  8
$DDT_AUDIT_GENERATED_(99)
  6
Continuous
 62
     7
100
AcDbLine
 10
88.5643256232
 20
389.5301077348
 30
0.0
 11
88.5643256232
 21
389.642319818
 31
0.0
  0
LINE
  5
21E
330
73
100
AcDbEntity
  8
$DDT_AUDIT_GENERATED_(99)
  6
Continuous
 62
     7
100
AcDbLine
 10
88.3643256232
 20
389.642319818
 30
0.0
 11
88.3643256232
 21
389.5301077348
 31
0.0
  0
LINE
  5
21F
330
73
100
AcDbEntity
  8
$DDT_AUDIT_GENERATED_(99)
  6
Continuous
 62
     7
100
AcDbLine
 10
88.5643256232
 20
389.3031147106
 30
0.0
 11
88.5643256232
 21
389.4153267937
 31
0.0
  0
LINE
  5
220
330
73
100
AcDbEntity
  8
$DDT_AUDIT_GENERATED_(99)
  6
Continuous
 62
     7
100
AcDbLine
 10
88.3643256232
 20
389.4153267937
 30
0.0
 11
88.3643256232
 21
389.3031147106
 31
0.0
  0
LINE
  5
221
330
73
100
AcDbEntity
  8
$DDT_AUDIT_GENERATED_(99)
  6
Continuous
 62
     7
100
AcDbLine
 10
88.5643256232
 20
389.1617358356
 30
0.0
 11
88.5643256232
 21
389.1883337695
 31
0.0
  0
LINE
  5
222
330
73
100
AcDbEntity
  8
$DDT_AUDIT_GENERATED_(99)
  6
Continuous
 62
     7
100
AcDbLine
 10
88.3643256232
 20
389.1883337695
 30
0.0
 11
88.3643256232
 21
389.1707792124
 31
0.0
  0
LINE
  5
223
330
73
100
AcDbEntity
  8
$DDT_AUDIT_GENERATED_(99)
  6
Continuous
 62
     7
100
AcDbLine
 10
88.4791065644
 20
391.0042779634
 30
0.0
 11
89.9852589678
 21
391.0042779634
 31
0.0
  0
LINE
  5
224
330
73
100
AcDbEntity
  8
$DDT_AUDIT_GENERATED_(99)
  6
Continuous
 62
     7
100
AcDbLine
 10
88.4791065644
 20
390.7772849391
 30
0.0
 11
89.9852589678
 21
390.7772849391
 31
0.0
  0
LINE
  5
225
330
73
100
AcDbEntity
  8
$DDT_AUDIT_GENERATED_(99)
  6
Continuous
 62
     7
100
AcDbLine
 10
89.900039909
 20
390.9772849391
 30
0.0
 11
88.5643256232
 21
390.9772849391
 31
0.0
  0
LINE
  5
226
330
73
100
AcDbEntity
  8
$DDT_AUDIT_GENERATED_(99)
  6
Continuous
 62
     7
100
AcDbLine
 10
88.4791065644
 20
390.5502919149
 30
0.0
 11
89.9852589678
 21
390.5502919149
 31
0.0
  0
LINE
  5
227
330
73
100
AcDbEntity
  8
$DDT_AUDIT_GENERATED_(99)
  6
Continuous
 62
     7
100
AcDbLine
 10
89.900039909
 20
390.7502919149
 30
0.0
 11
88.5643256232
 21
390.7502919149
 31
0.0
  0
LINE
  5
228
330
73
100
AcDbEntity
  8
$DDT_AUDIT_GENERATED_(99)
  6
Continuous
 62
     7
100
AcDbLine
 10
88.4791065644
 20
390.3232988907
 30
0.0
 11
89.9852589678
 21
390.3232988907
 31
0.0
  0
LINE
  5
229
330
73
100
AcDbEntity
  8
$DDT_AUDIT_GENERATED_(99)
  6
Continuous
 62
     7
100
AcDbLine
 10
89.900039909
 20
390.5232988907
 30
0.0
 11
88.5643256232
 21
390.5232988907
 31
0.0
  0
LINE
  5
22A
330
73
100
AcDbEntity
  8
$DDT_AUDIT_GENERATED_(99)
  6
Continuous
 62
     7
100
AcDbLine
 10
88.4791065644
 20
390.0963058664
 30
0.0
 11
89.9852589678
 21
390.0963058664
 31
0.0
  0
LINE
  5
22B
330
73
100
AcDbEntity
  8
$DDT_AUDIT_GENERATED_(99)
  6
Continuous
 62
     7
100
AcDbLine
 10
89.900039909
 20
390.2963058664
 30
0.0
 11
88.5643256232
 21
390.2963058664
 31
0.0
  0
LINE
  5
22C
330
73
100
AcDbEntity
  8
$DDT_AUDIT_GENERATED_(99)
  6
Continuous
 62
     7
100
AcDbLine
 10
88.4791065644
 20
389.8693128422
 30
0.0
 11
89.9852589678
 21
389.8693128422
 31
0.0
  0
LINE
  5
22D
330
73
100
AcDbEntity
  8
$DDT_AUDIT_GENERATED_(99)
  6
Continuous
 62
     7
100
AcDbLine
 10
89.900039909
 20
390.0693128422
 30
0.0
 11
88.5643256232
 21
390.0693128422
 31
0.0
  0
LINE
  5
22E
330
73
100
AcDbEntity
  8
$DDT_AUDIT_GENERATED_(99)
  6
Continuous
 62
     7
100
AcDbLine
 10
88.4791065644
 20
389.642319818
 30
0.0
 11
89.9852589678
 21
389.642319818
 31
0.0
  0
LINE
  5
22F
330
73
100
AcDbEntity
  8
$DDT_AUDIT_GENERATED_(99)
  6
Continuous
 62
     7
100
AcDbLine
 10
89.900039909
 20
389.842319818
 30
0.0
 11
88.5643256232
 21
389.842319818
 31
0.0
  0
LINE
  5
230
330
73
100
AcDbEntity
  8
$DDT_AUDIT_GENERATED_(99)
  6
Continuous
 62
     7
100
AcDbLine
 10
88.4791065644
 20
389.4153267937
 30
0.0
 11
89.9852589678
 21
389.4153267937
 31
0.0
  0
LINE
  5
231
330
73
100
AcDbEntity
  8
$DDT_AUDIT_GENERATED_(99)
  6
Continuous
 62
     7
100
AcDbLine
 10
89.900039909
 20
389.6153267937
 30
0.0
 11
88.5643256232
 21
389.6153267937
 31
0.0
  0
LINE
  5
232
330
73
100
AcDbEntity
  8
$DDT_AUDIT_GENERATED_(99)
  6
Continuous
 62
     7
100
AcDbLine
 10
88.4791065644
 20
389.1883337695
 30
0.0
 11
89.9852589678
 21
389.1883337695
 31
0.0
  0
LINE
  5
233
330
73
100
AcDbEntity
  8
$DDT_AUDIT_GENERATED_(99)
  6
Continuous
 62
     7
100
AcDbLine
 10
89.900039909
 20
389.3883337695
 30
0.0
 11
88.5643256232
 21
389.3883337695
 31
0.0
  0
LINE
  5
234
330
73
100
AcDbEntity
  8
$DDT_AUDIT_GENERATED_(99)
  6
Continuous
 62
     7
100
AcDbLine
 10
90.100039909
 20
389.1128699301
 30
0.0
 11
90.100039909
 21
389.1883337695
 31
0.0
  0
LINE
  5
235
330
73
100
AcDbEntity
  8
$DDT_AUDIT_GENERATED_(99)
  6
Continuous
 62
     7
100
AcDbLine
 10
89.900039909
 20
389.1883337695
 30
0.0
 11
89.900039909
 21
389.1172408143
 31
0.0
  0
LINE
  5
236
330
73
100
AcDbEntity
  8
$DDT_AUDIT_GENERATED_(99)
  6
Continuous
 62
     7
100
AcDbLine
 10
90.100039909
 20
389.3031147106
 30
0.0
 11
90.100039909
 21
389.4153267937
 31
0.0
  0
LINE
  5
237
330
73
100
AcDbEntity
  8
$DDT_AUDIT_GENERATED_(99)
  6
Continuous
 62
     7
100
AcDbLine
 10
89.900039909
 20
389.4153267937
 30
0.0
 11
89.900039909
 21
389.3031147106
 31
0.0
  0
LINE
  5
238
330
73
100
AcDbEntity
  8
$DDT_AUDIT_GENERATED_(99)
  6
Continuous
 62
     7
100
AcDbLine
 10
90.100039909
 20
389.5301077348
 30
0.0
 11
90.100039909
 21
389.642319818
 31
0.0
  0
LINE
  5
239
330
73
100
AcDbEntity
  8
$DDT_AUDIT_GENERATED_(99)
  6
Continuous
 62
     7
100
AcDbLine
 10
89.900039909
 20
389.642319818
 30
0.0
 11
89.900039909
 21
389.5301077348
 31
0.0
  0
LINE
  5
23A
330
73
100
AcDbEntity
  8
$DDT_AUDIT_GENERATED_(99)
  6
Continuous
 62
     7
100
AcDbLine
 10
90.100039909
 20
389.7571007591
 30
0.0
 11
90.100039909
 21
389.8693128422
 31
0.0
  0
LINE
  5
23B
330
73
100
AcDbEntity
  8
$DDT_AUDIT_GENERATED_(99)
  6
Continuous
 62
     7
100
AcDbLine
 10
89.900039909
 20
389.8693128422
 30
0.0
 11
89.900039909
 21
389.7571007591
 31
0.0
  0
LINE
  5
23C
330
73
100
AcDbEntity
  8
$DDT_AUDIT_GENERATED_(99)
  6
Continuous
 62
     7
100
AcDbLine
 10
90.100039909
 20
389.9840937833
 30
0.0
 11
90.100039909
 21
390.0963058664
 31
0.0
  0
LINE
  5
23D
330
73
100
AcDbEntity
  8
$DDT_AUDIT_GENERATED_(99)
  6
Continuous
 62
     7
100
AcDbLine
 10
89.900039909
 20
390.0963058664
 30
0.0
 11
89.900039909
 21
389.9840937833
 31
0.0
  0
LINE
  5
23E
330
73
100
AcDbEntity
  8
$DDT_AUDIT_GENERATED_(99)
  6
Continuous
 62
     7
100
AcDbLine
 10
90.100039909
 20
390.2110868075
 30
0.0
 11
90.100039909
 21
390.3232988907
 31
0.0
  0
LINE
  5
23F
330
73
100
AcDbEntity
  8
$DDT_AUDIT_GENERATED_(99)
  6
Continuous
 62
     7
100
AcDbLine
 10
89.900039909
 20
390.3232988907
 30
0.0
 11
89.900039909
 21
390.2110868075
 31
0.0
  0
LINE
  5
240
330
73
100
AcDbEntity
  8
$DDT_AUDIT_GENERATED_(99)
  6
Continuous
 62
     7
100
AcDbLine
 10
90.100039909
 20
390.4380798318
 30
0.0
 11
90.100039909
 21
390.5502919149
 31
0.0
  0
LINE
  5
241
330
73
100
AcDbEntity
  8
$DDT_AUDIT_GENERATED_(99)
  6
Continuous
 62
     7
100
AcDbLine
 10
89.900039909
 20
390.5502919149
 30
0.0
 11
89.900039909
 21
390.4380798318
 31
0.0
  0
LINE
  5
242
330
73
100
AcDbEntity
  8
$DDT_AUDIT_GENERATED_(99)
  6
Continuous
 62
     7
100
AcDbLine
 10
90.100039909
 20
390.665072856
 30
0.0
 11
90.100039909
 21
390.7772849391
 31
0.0
  0
LINE
  5
243
330
73
100
AcDbEntity
  8
$DDT_AUDIT_GENERATED_(99)
  6
Continuous
 62
     7
100
AcDbLine
 10
89.900039909
 20
390.7772849391
 30
0.0
 11
89.900039909
 21
390.665072856
 31
0.0
  0
LINE
  5
244
330
73
100
AcDbEntity
  8
$DDT_AUDIT_GENERATED_(99)
  6
Continuous
 62
     7
100
AcDbLine
 10
90.100039909
 20
390.8920658803
 30
0.0
 11
90.100039909
 21
391.0042779634
 31
0.0
  0
LINE
  5
245
330
73
100
AcDbEntity
  8
$DDT_AUDIT_GENERATED_(99)
  6
Continuous
 62
     7
100
AcDbLine
 10
89.900039909
 20
391.0042779634
 30
0.0
 11
89.900039909
 21
390.8920658803
 31
0.0
  0
LINE
  5
246
330
73
100
AcDbEntity
  8
$DDT_AUDIT_GENERATED_(99)
  6
Continuous
 62
     7
100
AcDbLine
 10
90.0148208501
 20
389.1883337695
 30
0.0
 11
91.5209732536
 21
389.1883337695
 31
0.0
  0
LINE
  5
247
330
73
100
AcDbEntity
  8
$DDT_AUDIT_GENERATED_(99)
  6
Continuous
 62
     7
100
AcDbLine
 10
91.4357541947
 20
389.3883337695
 30
0.0
 11
90.100039909
 21
389.3883337695
 31
0.0
  0
LINE
  5
248
330
73
100
AcDbEntity
  8
$DDT_AUDIT_GENERATED_(99)
  6
Continuous
 62
     7
100
AcDbLine
 10
90.0148208501
 20
389.4153267937
 30
0.0
 11
91.5209732536
 21
389.4153267937
 31
0.0
  0
LINE
  5
249
330
73
100
AcDbEntity
  8
$DDT_AUDIT_GENERATED_(99)
  6
Continuous
 62
     7
100
AcDbLine
 10
91.4357541947
 20
389.6153267937
 30
0.0
 11
90.100039909
 21
389.6153267937
 31
0.0
  0
LINE
  5
24A
330
73
100
AcDbEntity
  8
$DDT_AUDIT_GENERATED_(99)
  6
Continuous
 62
     7
100
AcDbLine
 10
90.0148208501
 20
389.642319818
 30
0.0
 11
91.5209732536
 21
389.642319818
 31
0.0
  0
LINE
  5
24B
330
73
100
AcDbEntity
  8
$DDT_AUDIT_GENERATED_(99)
  6
Continuous
 62
     7
100
AcDbLine
 10
91.4357541947
 20
389.842319818
 30
0.0
 11
90.100039909
 21
389.842319818
 31
0.0
  0
LINE
  5
24C
330
73
100
AcDbEntity
  8
$DDT_AUDIT_GENERATED_(99)
  6
Continuous
 62
     7
100
AcDbLine
 10
90.0148208501
 20
389.8693128422
 30
0.0
 11
91.5209732536
 21
389.8693128422
 31
0.0
  0
LINE
  5
24D
330
73
100
AcDbEntity
  8
$DDT_AUDIT_GENERATED_(99)
  6
Continuous
 62
     7
100
AcDbLine
 10
91.4357541947
 20
390.0693128422
 30
0.0
 11
90.100039909
 21
390.0693128422
 31
0.0
  0
LINE
  5
24E
330
73
100
AcDbEntity
  8
$DDT_AUDIT_GENERATED_(99)
  6
Continuous
 62
     7
100
AcDbLine
 10
90.0148208501
 20
390.0963058664
 30
0.0
 11
91.5209732536
 21
390.0963058664
 31
0.0
  0
LINE
  5
24F
330
73
100
AcDbEntity
  8
$DDT_AUDIT_GENERATED_(99)
  6
Continuous
 62
     7
100
AcDbLine
 10
91.4357541947
 20
390.2963058664
 30
0.0
 11
90.100039909
 21
390.2963058664
 31
0.0
  0
LINE
  5
250
330
73
100
AcDbEntity
  8
$DDT_AUDIT_GENERATED_(99)
  6
Continuous
 62
     7
100
AcDbLine
 10
90.0148208501
 20
390.3232988907
 30
0.0
 11
91.5209732536
 21
390.3232988907
 31
0.0
  0
LINE
  5
251
330
73
100
AcDbEntity
  8
$DDT_AUDIT_GENERATED_(99)
  6
Continuous
 62
     7
100
AcDbLine
 10
91.4357541947
 20
390.5232988907
 30
0.0
 11
90.100039909
 21
390.5232988907
 31
0.0
  0
LINE
  5
252
330
73
100
AcDbEntity
  8
$DDT_AUDIT_GENERATED_(99)
  6
Continuous
 62
     7
100
AcDbLine
 10
90.0148208501
 20
390.5502919149
 30
0.0
 11
91.5209732536
 21
390.5502919149
 31
0.0
  0
LINE
  5
253
330
73
100
AcDbEntity
  8
$DDT_AUDIT_GENERATED_(99)
  6
Continuous
 62
     7
100
AcDbLine
 10
91.4357541947
 20
390.7502919149
 30
0.0
 11
90.100039909
 21
390.7502919149
 31
0.0
  0
LINE
  5
254
330
73
100
AcDbEntity
  8
$DDT_AUDIT_GENERATED_(99)
  6
Continuous
 62
     7
100
AcDbLine
 10
90.0148208501
 20
390.7772849391
 30
0.0
 11
91.5209732536
 21
390.7772849391
 31
0.0
  0
LINE
  5
255
330
73
100
AcDbEntity
  8
$DDT_AUDIT_GENERATED_(99)
  6
Continuous
 62
     7
100
AcDbLine
 10
91.4357541947
 20
390.9772849391
 30
0.0
 11
90.100039909
 21
390.9772849391
 31
0.0
  0
LINE
  5
256
330
73
100
AcDbEntity
  8
$DDT_AUDIT_GENERATED_(99)
  6
Continuous
 62
     7
100
AcDbLine
 10
90.0148208501
 20
391.0042779634
 30
0.0
 11
91.5209732536
 21
391.0042779634
 31
0.0
  0
LINE
  5
257
330
73
100
AcDbEntity
  8
$DDT_AUDIT_GENERATED_(99)
  6
Continuous
 62
     7
100
AcDbLine
 10
91.6357541947
 20
390.8920658803
 30
0.0
 11
91.6357541947
 21
391.0042779634
 31
0.0
  0
LINE
  5
258
330
73
100
AcDbEntity
  8
$DDT_AUDIT_GENERATED_(99)
  6
Continuous
 62
     7
100
AcDbLine
 10
91.4357541947
 20
391.0042779634
 30
0.0
 11
91.4357541947
 21
390.8920658803
 31
0.0
  0
LINE
  5
259
330
73
100
AcDbEntity
  8
$DDT_AUDIT_GENERATED_(99)
  6
Continuous
 62
     7
100
AcDbLine
 10
91.6357541947
 20
390.665072856
 30
0.0
 11
91.6357541947
 21
390.7772849391
 31
0.0
  0
LINE
  5
25A
330
73
100
AcDbEntity
  8
$DDT_AUDIT_GENERATED_(99)
  6
Continuous
 62
     7
100
AcDbLine
 10
91.4357541947
 20
390.7772849391
 30
0.0
 11
91.4357541947
 21
390.665072856
 31
0.0
  0
LINE
  5
25B
330
73
100
AcDbEntity
  8
$DDT_AUDIT_GENERATED_(99)
  6
Continuous
 62
     7
100
AcDbLine
 10
91.6357541947
 20
390.4380798318
 30
0.0
 11
91.6357541947
 21
390.5502919149
 31
0.0
  0
LINE
  5
25C
330
73
100
AcDbEntity
  8
$DDT_AUDIT_GENERATED_(99)
  6
Continuous
 62
     7
100
AcDbLine
 10
91.4357541947
 20
390.5502919149
 30
0.0
 11
91.4357541947
 21
390.4380798318
 31
0.0
  0
LINE
  5
25D
330
73
100
AcDbEntity
  8
$DDT_AUDIT_GENERATED_(99)
  6
Continuous
 62
     7
100
AcDbLine
 10
91.6357541947
 20
390.2110868075
 30
0.0
 11
91.6357541947
 21
390.3232988907
 31
0.0
  0
LINE
  5
25E
330
73
100
AcDbEntity
  8
$DDT_AUDIT_GENERATED_(99)
  6
Continuous
 62
     7
100
AcDbLine
 10
91.4357541947
 20
390.3232988907
 30
0.0
 11
91.4357541947
 21
390.2110868075
 31
0.0
  0
LINE
  5
25F
330
73
100
AcDbEntity
  8
$DDT_AUDIT_GENERATED_(99)
  6
Continuous
 62
     7
100
AcDbLine
 10
91.6357541947
 20
389.9840937833
 30
0.0
 11
91.6357541947
 21
390.0963058664
 31
0.0
  0
LINE
  5
260
330
73
100
AcDbEntity
  8
$DDT_AUDIT_GENERATED_(99)
  6
Continuous
 62
     7
100
AcDbLine
 10
91.4357541947
 20
390.0963058664
 30
0.0
 11
91.4357541947
 21
389.9840937833
 31
0.0
  0
LINE
  5
261
330
73
100
AcDbEntity
  8
$DDT_AUDIT_GENERATED_(99)
  6
Continuous
 62
     7
100
AcDbLine
 10
91.6357541947
 20
389.7571007591
 30
0.0
 11
91.6357541947
 21
389.8693128422
 31
0.0
  0
LINE
  5
262
330
73
100
AcDbEntity
  8
$DDT_AUDIT_GENERATED_(99)
  6
Continuous
 62
     7
100
AcDbLine
 10
91.4357541947
 20
389.8693128422
 30
0.0
 11
91.4357541947
 21
389.7571007591
 31
0.0
  0
LINE
  5
263
330
73
100
AcDbEntity
  8
$DDT_AUDIT_GENERATED_(99)
  6
Continuous
 62
     7
100
AcDbLine
 10
91.6357541947
 20
389.5301077348
 30
0.0
 11
91.6357541947
 21
389.642319818
 31
0.0
  0
LINE
  5
264
330
73
100
AcDbEntity
  8
$DDT_AUDIT_GENERATED_(99)
  6
Continuous
 62
     7
100
AcDbLine
 10
91.4357541947
 20
389.642319818
 30
0.0
 11
91.4357541947
 21
389.5301077348
 31
0.0
  0
LINE
  5
265
330
73
100
AcDbEntity
  8
$DDT_AUDIT_GENERATED_(99)
  6
Continuous
 62
     7
100
AcDbLine
 10
91.6357541947
 20
389.3031147106
 30
0.0
 11
91.6357541947
 21
389.4153267937
 31
0.0
  0
LINE
  5
266
330
73
100
AcDbEntity
  8
$DDT_AUDIT_GENERATED_(99)
  6
Continuous
 62
     7
100
AcDbLine
 10
91.4357541947
 20
389.4153267937
 30
0.0
 11
91.4357541947
 21
389.3031147106
 31
0.0
  0
LINE
  5
267
330
73
100
AcDbEntity
  8
$DDT_AUDIT_GENERATED_(99)
  6
Continuous
 62
     7
100
AcDbLine
 10
91.6357541947
 20
389.0983634851
 30
0.0
 11
91.6357541947
 21
389.1883337695
 31
0.0
  0
LINE
  5
268
330
73
100
AcDbEntity
  8
$DDT_AUDIT_GENERATED_(99)
  6
Continuous
 62
     7
100
AcDbLine
 10
91.4357541947
 20
389.1883337695
 30
0.0
 11
91.4357541947
 21
389.0983634851
 31
0.0
  0
LINE
  5
269
330
73
100
AcDbEntity
  8
$DDT_AUDIT_GENERATED_(99)
  6
Continuous
 62
     7
100
AcDbLine
 10
91.5505351358
 20
391.0042779634
 30
0.0
 11
93.0566875393
 21
391.0042779634
 31
0.0
  0
LINE
  5
26A
330
73
100
AcDbEntity
  8
$DDT_AUDIT_GENERATED_(99)
  6
Continuous
 62
     7
100
AcDbLine
 10
91.5505351358
 20
390.7772849391
 30
0.0
 11
93.0566875393
 21
390.7772849391
 31
0.0
  0
LINE
  5
26B
330
73
100
AcDbEntity
  8
$DDT_AUDIT_GENERATED_(99)
  6
Continuous
 62
     7
100
AcDbLine
 10
92.9714684804
 20
390.9772849391
 30
0.0
 11
91.6357541947
 21
390.9772849391
 31
0.0
  0
LINE
  5
26C
330
73
100
AcDbEntity
  8
$DDT_AUDIT_GENERATED_(99)
  6
Continuous
 62
     7
100
AcDbLine
 10
91.5505351358
 20
390.5502919149
 30
0.0
 11
93.0566875393
 21
390.5502919149
 31
0.0
  0
LINE
  5
26D
330
73
100
AcDbEntity
  8
$DDT_AUDIT_GENERATED_(99)
  6
Continuous
 62
     7
100
AcDbLine
 10
92.9714684804
 20
390.7502919149
 30
0.0
 11
91.6357541947
 21
390.7502919149
 31
0.0
  0
LINE
  5
26E
330
73
100
AcDbEntity
  8
$DDT_AUDIT_GENERATED_(99)
  6
Continuous
 62
     7
100
AcDbLine
 10
91.5505351358
 20
390.3232988907
 30
0.0
 11
93.0566875393
 21
390.3232988907
 31
0.0
  0
LINE
  5
26F
330
73
100
AcDbEntity
  8
$DDT_AUDIT_GENERATED_(99)
  6
Continuous
 62
     7
100
AcDbLine
 10
92.9714684804
 20
390.5232988907
 30
0.0
 11
91.6357541947
 21
390.5232988907
 31
0.0
  0
LINE
  5
270
330
73
100
AcDbEntity
  8
$DDT_AUDIT_GENERATED_(99)
  6
Continuous
 62
     7
100
AcDbLine
 10
91.5505351358
 20
390.0963058664
 30
0.0
 11
93.0566875393
 21
390.0963058664
 31
0.0
  0
LINE
  5
271
330
73
100
AcDbEntity
  8
$DDT_AUDIT_GENERATED_(99)
  6
Continuous
 62
     7
100
AcDbLine
 10
92.9714684804
 20
390.2963058664
 30
0.0
 11
91.6357541947
 21
390.2963058664
 31
0.0
  0
LINE
  5
272
330
73
100
AcDbEntity
  8
$DDT_AUDIT_GENERATED_(99)
  6
Continuous
 62
     7
100
AcDbLine
 10
91.5505351358
 20
389.8693128422
 30
0.0
 11
93.0566875393
 21
389.8693128422
 31
0.0
  0
LINE
  5
273
330
73
100
AcDbEntity
  8
$DDT_AUDIT_GENERATED_(99)
  6
Continuous
 62
     7
100
AcDbLine
 10
92.9714684804
 20
390.0693128422
 30
0.0
 11
91.6357541947
 21
390.0693128422
 31
0.0
  0
LINE
  5
274
330
73
100
AcDbEntity
  8
$DDT_AUDIT_GENERATED_(99)
  6
Continuous
 62
     7
100
AcDbLine
 10
91.5505351358
 20
389.642319818
 30
0.0
 11
93.0566875393
 21
389.642319818
 31
0.0
  0
LINE
  5
275
330
73
100
AcDbEntity
  8
$DDT_AUDIT_GENERATED_(99)
  6
Continuous
 62
     7
100
AcDbLine
 10
92.9714684804
 20
389.842319818
 30
0.0
 11
91.6357541947
 21
389.842319818
 31
0.0
  0
LINE
  5
276
330
73
100
AcDbEntity
  8
$DDT_AUDIT_GENERATED_(99)
  6
Continuous
 62
     7
100
AcDbLine
 10
91.5505351358
 20
389.4153267937
 30
0.0
 11
93.0566875393
 21
389.4153267937
 31
0.0
  0
LINE
  5
277
330
73
100
AcDbEntity
  8
$DDT_AUDIT_GENERATED_(99)
  6
Continuous
 62
     7
100
AcDbLine
 10
92.9714684804
 20
389.6153267937
 30
0.0
 11
91.6357541947
 21
389.6153267937
 31
0.0
  0
LINE
  5
278
330
73
100
AcDbEntity
  8
$DDT_AUDIT_GENERATED_(99)
  6
Continuous
 62
     7
100
AcDbLine
 10
91.5505351358
 20
389.1883337695
 30
0.0
 11
93.0566875393
 21
389.1883337695
 31
0.0
  0
LINE
  5
279
330
73
100
AcDbEntity
  8
$DDT_AUDIT_GENERATED_(99)
  6
Continuous
 62
     7
100
AcDbLine
 10
92.9714684804
 20
389.3883337695
 30
0.0
 11
91.6357541947
 21
389.3883337695
 31
0.0
  0
LINE
  5
27A
330
73
100
AcDbEntity
  8
$DDT_AUDIT_GENERATED_(99)
  6
Continuous
 62
     7
100
AcDbLine
 10
93.1714684804
 20
389.1172408143
 30
0.0
 11
93.1714684804
 21
389.1883337695
 31
0.0
  0
LINE
  5
27B
330
73
100
AcDbEntity
  8
$DDT_AUDIT_GENERATED_(99)
  6
Continuous
 62
     7
100
AcDbLine
 10
92.9714684804
 20
389.1883337695
 30
0.0
 11
92.9714684804
 21
389.1128699301
 31
0.0
  0
LINE
  5
27C
330
73
100
AcDbEntity
  8
$DDT_AUDIT_GENERATED_(99)
  6
Continuous
 62
     7
100
AcDbLine
 10
93.1714684804
 20
389.3031147106
 30
0.0
 11
93.1714684804
 21
389.4153267937
 31
0.0
  0
LINE
  5
27D
330
73
100
AcDbEntity
  8
$DDT_AUDIT_GENERATED_(99)
  6
Continuous
 62
     7
100
AcDbLine
 10
92.9714684804
 20
389.4153267937
 30
0.0
 11
92.9714684804
 21
389.3031147106
 31
0.0
  0
LINE
  5
27E
330
73
100
AcDbEntity
  8
$DDT_AUDIT_GENERATED_(99)
  6
Continuous
 62
     7
100
AcDbLine
 10
93.1714684804
 20
389.5301077348
 30
0.0
 11
93.1714684804
 21
389.642319818
 31
0.0
  0
LINE
  5
27F
330
73
100
AcDbEntity
  8
$DDT_AUDIT_GENERATED_(99)
  6
Continuous
 62
     7
100
AcDbLine
 10
92.9714684804
 20
389.642319818
 30
0.0
 11
92.9714684804
 21
389.5301077348
 31
0.0
  0
LINE
  5
280
330
73
100
AcDbEntity
  8
$DDT_AUDIT_GENERATED_(99)
  6
Continuous
 62
     7
100
AcDbLine
 10
93.1714684804
 20
389.7571007591
 30
0.0
 11
93.1714684804
 21
389.8693128422
 31
0.0
  0
LINE
  5
281
330
73
100
AcDbEntity
  8
$DDT_AUDIT_GENERATED_(99)
  6
Continuous
 62
     7
100
AcDbLine
 10
92.9714684804
 20
389.8693128422
 30
0.0
 11
92.9714684804
 21
389.7571007591
 31
0.0
  0
LINE
  5
282
330
73
100
AcDbEntity
  8
$DDT_AUDIT_GENERATED_(99)
  6
Continuous
 62
     7
100
AcDbLine
 10
93.1714684804
 20
389.9840937833
 30
0.0
 11
93.1714684804
 21
390.0963058664
 31
0.0
  0
LINE
  5
283
330
73
100
AcDbEntity
  8
$DDT_AUDIT_GENERATED_(99)
  6
Continuous
 62
     7
100
AcDbLine
 10
92.9714684804
 20
390.0963058664
 30
0.0
 11
92.9714684804
 21
389.9840937833
 31
0.0
  0
LINE
  5
284
330
73
100
AcDbEntity
  8
$DDT_AUDIT_GENERATED_(99)
  6
Continuous
 62
     7
100
AcDbLine
 10
93.1714684804
 20
390.2110868075
 30
0.0
 11
93.1714684804
 21
390.3232988907
 31
0.0
  0
LINE
  5
285
330
73
100
AcDbEntity
  8
$DDT_AUDIT_GENERATED_(99)
  6
Continuous
 62
     7
100
AcDbLine
 10
92.9714684804
 20
390.3232988907
 30
0.0
 11
92.9714684804
 21
390.2110868075
 31
0.0
  0
LINE
  5
286
330
73
100
AcDbEntity
  8
$DDT_AUDIT_GENERATED_(99)
  6
Continuous
 62
     7
100
AcDbLine
 10
93.1714684804
 20
390.4380798318
 30
0.0
 11
93.1714684804
 21
390.5502919149
 31
0.0
  0
LINE
  5
287
330
73
100
AcDbEntity
  8
$DDT_AUDIT_GENERATED_(99)
  6
Continuous
 62
     7
100
AcDbLine
 10
92.9714684804
 20
390.5502919149
 30
0.0
 11
92.9714684804
 21
390.4380798318
 31
0.0
  0
LINE
  5
288
330
73
100
AcDbEntity
  8
$DDT_AUDIT_GENERATED_(99)
  6
Continuous
 62
     7
100
AcDbLine
 10
93.1714684804
 20
390.665072856
 30
0.0
 11
93.1714684804
 21
390.7772849391
 31
0.0
  0
LINE
  5
289
330
73
100
AcDbEntity
  8
$DDT_AUDIT_GENERATED_(99)
  6
Continuous
 62
     7
100
AcDbLine
 10
92.9714684804
 20
390.7772849391
 30
0.0
 11
92.9714684804
 21
390.665072856
 31
0.0
  0
LINE
  5
28A
330
73
100
AcDbEntity
  8
$DDT_AUDIT_GENERATED_(99)
  6
Continuous
 62
     7
100
AcDbLine
 10
93.1714684804
 20
390.8920658803
 30
0.0
 11
93.1714684804
 21
391.0042779634
 31
0.0
  0
LINE
  5
28B
330
73
100
AcDbEntity
  8
$DDT_AUDIT_GENERATED_(99)
  6
Continuous
 62
     7
100
AcDbLine
 10
92.9714684804
 20
391.0042779634
 30
0.0
 11
92.9714684804
 21
390.8920658803
 31
0.0
  0
LINE
  5
28C
330
73
100
AcDbEntity
  8
$DDT_AUDIT_GENERATED_(99)
  6
Continuous
 62
     7
100
AcDbLine
 10
93.0862494215
 20
389.1883337695
 30
0.0
 11
94.592401825
 21
389.1883337695
 31
0.0
  0
LINE
  5
28D
330
73
100
AcDbEntity
  8
$DDT_AUDIT_GENERATED_(99)
  6
Continuous
 62
     7
100
AcDbLine
 10
94.5071827661
 20
389.3883337695
 30
0.0
 11
93.1714684804
 21
389.3883337695
 31
0.0
  0
LINE
  5
28E
330
73
100
AcDbEntity
  8
$DDT_AUDIT_GENERATED_(99)
  6
Continuous
 62
     7
100
AcDbLine
 10
93.0862494215
 20
389.4153267937
 30
0.0
 11
94.592401825
 21
389.4153267937
 31
0.0
  0
LINE
  5
28F
330
73
100
AcDbEntity
  8
$DDT_AUDIT_GENERATED_(99)
  6
Continuous
 62
     7
100
AcDbLine
 10
94.5071827661
 20
389.6153267937
 30
0.0
 11
93.1714684804
 21
389.6153267937
 31
0.0
  0
LINE
  5
290
330
73
100
AcDbEntity
  8
$DDT_AUDIT_GENERATED_(99)
  6
Continuous
 62
     7
100
AcDbLine
 10
93.0862494215
 20
389.642319818
 30
0.0
 11
94.592401825
 21
389.642319818
 31
0.0
  0
LINE
  5
291
330
73
100
AcDbEntity
  8
$DDT_AUDIT_GENERATED_(99)
  6
Continuous
 62
     7
100
AcDbLine
 10
94.5071827661
 20
389.842319818
 30
0.0
 11
93.1714684804
 21
389.842319818
 31
0.0
  0
LINE
  5
292
330
73
100
AcDbEntity
  8
$DDT_AUDIT_GENERATED_(99)
  6
Continuous
 62
     7
100
AcDbLine
 10
93.0862494215
 20
389.8693128422
 30
0.0
 11
94.592401825
 21
389.8693128422
 31
0.0
  0
LINE
  5
293
330
73
100
AcDbEntity
  8
$DDT_AUDIT_GENERATED_(99)
  6
Continuous
 62
     7
100
AcDbLine
 10
94.5071827661
 20
390.0693128422
 30
0.0
 11
93.1714684804
 21
390.0693128422
 31
0.0
  0
LINE
  5
294
330
73
100
AcDbEntity
  8
$DDT_AUDIT_GENERATED_(99)
  6
Continuous
 62
     7
100
AcDbLine
 10
93.0862494215
 20
390.0963058664
 30
0.0
 11
94.592401825
 21
390.0963058664
 31
0.0
  0
LINE
  5
295
330
73
100
AcDbEntity
  8
$DDT_AUDIT_GENERATED_(99)
  6
Continuous
 62
     7
100
AcDbLine
 10
94.5071827661
 20
390.2963058664
 30
0.0
 11
93.1714684804
 21
390.2963058664
 31
0.0
  0
LINE
  5
296
330
73
100
AcDbEntity
  8
$DDT_AUDIT_GENERATED_(99)
  6
Continuous
 62
     7
100
AcDbLine
 10
93.0862494215
 20
390.3232988907
 30
0.0
 11
94.592401825
 21
390.3232988907
 31
0.0
  0
LINE
  5
297
330
73
100
AcDbEntity
  8
$DDT_AUDIT_GENERATED_(99)
  6
Continuous
 62
     7
100
AcDbLine
 10
94.5071827661
 20
390.5232988907
 30
0.0
 11
93.1714684804
 21
390.5232988907
 31
0.0
  0
LINE
  5
298
330
73
100
AcDbEntity
  8
$DDT_AUDIT_GENERATED_(99)
  6
Continuous
 62
     7
100
AcDbLine
 10
93.0862494215
 20
390.5502919149
 30
0.0
 11
94.592401825
 21
390.5502919149
 31
0.0
  0
LINE
  5
299
330
73
100
AcDbEntity
  8
$DDT_AUDIT_GENERATED_(99)
  6
Continuous
 62
     7
100
AcDbLine
 10
94.5071827661
 20
390.7502919149
 30
0.0
 11
93.1714684804
 21
390.7502919149
 31
0.0
  0
LINE
  5
29A
330
73
100
AcDbEntity
  8
$DDT_AUDIT_GENERATED_(99)
  6
Continuous
 62
     7
100
AcDbLine
 10
93.0862494215
 20
390.7772849391
 30
0.0
 11
94.592401825
 21
390.7772849391
 31
0.0
  0
LINE
  5
29B
330
73
100
AcDbEntity
  8
$DDT_AUDIT_GENERATED_(99)
  6
Continuous
 62
     7
100
AcDbLine
 10
94.5071827661
 20
390.9772849391
 30
0.0
 11
93.1714684804
 21
390.9772849391
 31
0.0
  0
LINE
  5
29C
330
73
100
AcDbEntity
  8
$DDT_AUDIT_GENERATED_(99)
  6
Continuous
 62
     7
100
AcDbLine
 10
93.0862494215
 20
391.0042779634
 30
0.0
 11
94.592401825
 21
391.0042779634
 31
0.0
  0
LINE
  5
29D
330
73
100
AcDbEntity
  8
$DDT_AUDIT_GENERATED_(99)
  6
Continuous
 62
     7
100
AcDbLine
 10
94.7071827661
 20
390.8920658803
 30
0.0
 11
94.7071827661
 21
391.0042779634
 31
0.0
  0
LINE
  5
29E
330
73
100
AcDbEntity
  8
$DDT_AUDIT_GENERATED_(99)
  6
Continuous
 62
     7
100
AcDbLine
 10
94.5071827661
 20
391.0042779634
 30
0.0
 11
94.5071827661
 21
390.8920658803
 31
0.0
  0
LINE
  5
29F
330
73
100
AcDbEntity
  8
$DDT_AUDIT_GENERATED_(99)
  6
Continuous
 62
     7
100
AcDbLine
 10
94.7071827661
 20
390.665072856
 30
0.0
 11
94.7071827661
 21
390.7772849391
 31
0.0
  0
LINE
  5
2A0
330
73
100
AcDbEntity
  8
$DDT_AUDIT_GENERATED_(99)
  6
Continuous
 62
     7
100
AcDbLine
 10
94.5071827661
 20
390.7772849391
 30
0.0
 11
94.5071827661
 21
390.665072856
 31
0.0
  0
LINE
  5
2A1
330
73
100
AcDbEntity
  8
$DDT_AUDIT_GENERATED_(99)
  6
Continuous
 62
     7
100
AcDbLine
 10
94.7071827661
 20
390.4380798318
 30
0.0
 11
94.7071827661
 21
390.5502919149
 31
0.0
  0
LINE
  5
2A2
330
73
100
AcDbEntity
  8
$DDT_AUDIT_GENERATED_(99)
  6
Continuous
 62
     7
100
AcDbLine
 10
94.5071827661
 20
390.5502919149
 30
0.0
 11
94.5071827661
 21
390.4380798318
 31
0.0
  0
LINE
  5
2A3
330
73
100
AcDbEntity
  8
$DDT_AUDIT_GENERATED_(99)
  6
Continuous
 62
     7
100
AcDbLine
 10
94.7071827661
 20
390.2110868075
 30
0.0
 11
94.7071827661
 21
390.3232988907
 31
0.0
  0
LINE
  5
2A4
330
73
100
AcDbEntity
  8
$DDT_AUDIT_GENERATED_(99)
  6
Continuous
 62
     7
100
AcDbLine
 10
94.5071827661
 20
390.3232988907
 30
0.0
 11
94.5071827661
 21
390.2110868075
 31
0.0
  0
LINE
  5
2A5
330
73
100
AcDbEntity
  8
$DDT_AUDIT_GENERATED_(99)
  6
Continuous
 62
     7
100
AcDbLine
 10
94.7071827661
 20
389.9840937833
 30
0.0
 11
94.7071827661
 21
390.0963058664
 31
0.0
  0
LINE
  5
2A6
330
73
100
AcDbEntity
  8
$DDT_AUDIT_GENERATED_(99)
  6
Continuous
 62
     7
100
AcDbLine
 10
94.5071827661
 20
390.0963058664
 30
0.0
 11
94.5071827661
 21
389.9840937833
 31
0.0
  0
LINE
  5
2A7
330
73
100
AcDbEntity
  8
$DDT_AUDIT_GENERATED_(99)
  6
Continuous
 62
     7
100
AcDbLine
 10
94.7071827661
 20
389.7571007591
 30
0.0
 11
94.7071827661
 21
389.8693128422
 31
0.0
  0
LINE
  5
2A8
330
73
100
AcDbEntity
  8
$DDT_AUDIT_GENERATED_(99)
  6
Continuous
 62
     7
100
AcDbLine
 10
94.5071827661
 20
389.8693128422
 30
0.0
 11
94.5071827661
 21
389.7571007591
 31
0.0
  0
LINE
  5
2A9
330
73
100
AcDbEntity
  8
$DDT_AUDIT_GENERATED_(99)
  6
Continuous
 62
     7
100
AcDbLine
 10
94.7071827661
 20
389.5301077348
 30
0.0
 11
94.7071827661
 21
389.642319818
 31
0.0
  0
LINE
  5
2AA
330
73
100
AcDbEntity
  8
$DDT_AUDIT_GENERATED_(99)
  6
Continuous
 62
     7
100
AcDbLine
 10
94.5071827661
 20
389.642319818
 30
0.0
 11
94.5071827661
 21
389.5301077348
 31
0.0
  0
LINE
  5
2AB
330
73
100
AcDbEntity
  8
$DDT_AUDIT_GENERATED_(99)
  6
Continuous
 62
     7
100
AcDbLine
 10
94.7071827661
 20
389.3031147106
 30
0.0
 11
94.7071827661
 21
389.4153267937
 31
0.0
  0
LINE
  5
2AC
330
73
100
AcDbEntity
  8
$DDT_AUDIT_GENERATED_(99)
  6
Continuous
 62
     7
100
AcDbLine
 10
94.5071827661
 20
389.4153267937
 30
0.0
 11
94.5071827661
 21
389.3031147106
 31
0.0
  0
LINE
  5
2AD
330
73
100
AcDbEntity
  8
$DDT_AUDIT_GENERATED_(99)
  6
Continuous
 62
     7
100
AcDbLine
 10
94.7071827661
 20
389.1707792124
 30
0.0
 11
94.7071827661
 21
389.1883337695
 31
0.0
  0
LINE
  5
2AE
330
73
100
AcDbEntity
  8
$DDT_AUDIT_GENERATED_(99)
  6
Continuous
 62
     7
100
AcDbLine
 10
94.5071827661
 20
389.1883337695
 30
0.0
 11
94.5071827661
 21
389.1617358356
 31
0.0
  0
LINE
  5
2AF
330
73
100
AcDbEntity
  8
$DDT_AUDIT_GENERATED_(99)
  6
Continuous
 62
     7
100
AcDbLine
 10
94.6219637072
 20
391.0042779634
 30
0.0
 11
95.2995401075
 21
391.0042779634
 31
0.0
  0
LINE
  5
2B0
330
73
100
AcDbEntity
  8
$DDT_AUDIT_GENERATED_(99)
  6
Continuous
 62
     7
100
AcDbLine
 10
94.6219637072
 20
390.7772849391
 30
0.0
 11
96.1281161107
 21
390.7772849391
 31
0.0
  0
LINE
  5
2B1
330
73
100
AcDbEntity
  8
$DDT_AUDIT_GENERATED_(99)
  6
Continuous
 62
     7
100
AcDbLine
 10
95.8286414375
 20
390.9772849391
 30
0.0
 11
94.7071827661
 21
390.9772849391
 31
0.0
  0
LINE
  5
2B2
330
73
100
AcDbEntity
  8
$DDT_AUDIT_GENERATED_(99)
  6
Continuous
 62
     7
100
AcDbLine
 10
94.6219637072
 20
390.5502919149
 30
0.0
 11
96.1281161107
 21
390.5502919149
 31
0.0
  0
LINE
  5
2B3
330
73
100
AcDbEntity
  8
$DDT_AUDIT_GENERATED_(99)
  6
Continuous
 62
     7
100
AcDbLine
 10
96.0428970518
 20
390.7502919149
 30
0.0
 11
94.7071827661
 21
390.7502919149
 31
0.0
  0
LINE
  5
2B4
330
73
100
AcDbEntity
  8
$DDT_AUDIT_GENERATED_(99)
  6
Continuous
 62
     7
100
AcDbLine
 10
94.6219637072
 20
390.3232988907
 30
0.0
 11
96.1281161107
 21
390.3232988907
 31
0.0
  0
LINE
  5
2B5
330
73
100
AcDbEntity
  8
$DDT_AUDIT_GENERATED_(99)
  6
Continuous
 62
     7
100
AcDbLine
 10
96.0428970518
 20
390.5232988907
 30
0.0
 11
94.7071827661
 21
390.5232988907
 31
0.0
  0
LINE
  5
2B6
330
73
100
AcDbEntity
  8
$DDT_AUDIT_GENERATED_(99)
  6
Continuous
 62
     7
100
AcDbLine
 10
94.6219637072
 20
390.0963058664
 30
0.0
 11
96.1281161107
 21
390.0963058664
 31
0.0
  0
LINE
  5
2B7
330
73
100
AcDbEntity
  8
$DDT_AUDIT_GENERATED_(99)
  6
Continuous
 62
     7
100
AcDbLine
 10
96.0428970518
 20
390.2963058664
 30
0.0
 11
94.7071827661
 21
390.2963058664
 31
0.0
  0
LINE
  5
2B8
330
73
100
AcDbEntity
  8
$DDT_AUDIT_GENERATED_(99)
  6
Continuous
 62
     7
100
AcDbLine
 10
94.6219637072
 20
389.8693128422
 30
0.0
 11
96.1281161107
 21
389.8693128422
 31
0.0
  0
LINE
  5
2B9
330
73
100
AcDbEntity
  8
$DDT_AUDIT_GENERATED_(99)
  6
Continuous
 62
     7
100
AcDbLine
 10
96.0428970518
 20
390.0693128422
 30
0.0
 11
94.7071827661
 21
390.0693128422
 31
0.0
  0
LINE
  5
2BA
330
73
100
AcDbEntity
  8
$DDT_AUDIT_GENERATED_(99)
  6
Continuous
 62
     7
100
AcDbLine
 10
94.6219637072
 20
389.642319818
 30
0.0
 11
96.1281161107
 21
389.642319818
 31
0.0
  0
LINE
  5
2BB
330
73
100
AcDbEntity
  8
$DDT_AUDIT_GENERATED_(99)
  6
Continuous
 62
     7
100
AcDbLine
 10
96.0428970518
 20
389.842319818
 30
0.0
 11
94.7071827661
 21
389.842319818
 31
0.0
  0
LINE
  5
2BC
330
73
100
AcDbEntity
  8
$DDT_AUDIT_GENERATED_(99)
  6
Continuous
 62
     7
100
AcDbLine
 10
94.6219637072
 20
389.4153267937
 30
0.0
 11
96.1281161107
 21
389.4153267937
 31
0.0
  0
LINE
  5
2BD
330
73
100
AcDbEntity
  8
$DDT_AUDIT_GENERATED_(99)
  6
Continuous
 62
     7
100
AcDbLine
 10
96.0428970518
 20
389.6153267937
 30
0.0
 11
94.7071827661
 21
389.6153267937
 31
0.0
  0
LINE
  5
2BE
330
73
100
AcDbEntity
  8
$DDT_AUDIT_GENERATED_(99)
  6
Continuous
 62
     7
100
AcDbLine
 10
94.6219637072
 20
389.1883337695
 30
0.0
 11
96.1281161107
 21
389.1883337695
 31
0.0
  0
LINE
  5
2BF
330
73
100
AcDbEntity
  8
$DDT_AUDIT_GENERATED_(99)
  6
Continuous
 62
     7
100
AcDbLine
 10
96.0428970518
 20
389.3883337695
 30
0.0
 11
94.7071827661
 21
389.3883337695
 31
0.0
  0
LINE
  5
2C0
330
73
100
AcDbEntity
  8
$DDT_AUDIT_GENERATED_(99)
  6
Continuous
 62
     7
100
AcDbLine
 10
96.2428970518
 20
389.3031147106
 30
0.0
 11
96.2428970518
 21
389.4153267937
 31
0.0
  0
LINE
  5
2C1
330
73
100
AcDbEntity
  8
$DDT_AUDIT_GENERATED_(99)
  6
Continuous
 62
     7
100
AcDbLine
 10
96.0428970518
 20
389.4153267937
 30
0.0
 11
96.0428970518
 21
389.3031147106
 31
0.0
  0
LINE
  5
2C2
330
73
100
AcDbEntity
  8
$DDT_AUDIT_GENERATED_(99)
  6
Continuous
 62
     7
100
AcDbLine
 10
96.2428970518
 20
389.5301077348
 30
0.0
 11
96.2428970518
 21
389.642319818
 31
0.0
  0
LINE
  5
2C3
330
73
100
AcDbEntity
  8
$DDT_AUDIT_GENERATED_(99)
  6
Continuous
 62
     7
100
AcDbLine
 10
96.0428970518
 20
389.642319818
 30
0.0
 11
96.0428970518
 21
389.5301077348
 31
0.0
  0
LINE
  5
2C4
330
73
100
AcDbEntity
  8
$DDT_AUDIT_GENERATED_(99)
  6
Continuous
 62
     7
100
AcDbLine
 10
96.2428970518
 20
389.7571007591
 30
0.0
 11
96.2428970518
 21
389.8693128422
 31
0.0
  0
LINE
  5
2C5
330
73
100
AcDbEntity
  8
$DDT_AUDIT_GENERATED_(99)
  6
Continuous
 62
     7
100
AcDbLine
 10
96.0428970518
 20
389.8693128422
 30
0.0
 11
96.0428970518
 21
389.7571007591
 31
0.0
  0
LINE
  5
2C6
330
73
100
AcDbEntity
  8
$DDT_AUDIT_GENERATED_(99)
  6
Continuous
 62
     7
100
AcDbLine
 10
96.2428970518
 20
389.9840937833
 30
0.0
 11
96.2428970518
 21
390.0963058664
 31
0.0
  0
LINE
  5
2C7
330
73
100
AcDbEntity
  8
$DDT_AUDIT_GENERATED_(99)
  6
Continuous
 62
     7
100
AcDbLine
 10
96.0428970518
 20
390.0963058664
 30
0.0
 11
96.0428970518
 21
389.9840937833
 31
0.0
  0
LINE
  5
2C8
330
73
100
AcDbEntity
  8
$DDT_AUDIT_GENERATED_(99)
  6
Continuous
 62
     7
100
AcDbLine
 10
96.2428970518
 20
390.2110868075
 30
0.0
 11
96.2428970518
 21
390.3232988907
 31
0.0
  0
LINE
  5
2C9
330
73
100
AcDbEntity
  8
$DDT_AUDIT_GENERATED_(99)
  6
Continuous
 62
     7
100
AcDbLine
 10
96.0428970518
 20
390.3232988907
 30
0.0
 11
96.0428970518
 21
390.2110868075
 31
0.0
  0
LINE
  5
2CA
330
73
100
AcDbEntity
  8
$DDT_AUDIT_GENERATED_(99)
  6
Continuous
 62
     7
100
AcDbLine
 10
96.2428970518
 20
390.4380798318
 30
0.0
 11
96.2428970518
 21
390.5502919149
 31
0.0
  0
LINE
  5
2CB
330
73
100
AcDbEntity
  8
$DDT_AUDIT_GENERATED_(99)
  6
Continuous
 62
     7
100
AcDbLine
 10
96.0428970518
 20
390.5502919149
 30
0.0
 11
96.0428970518
 21
390.4380798318
 31
0.0
  0
LINE
  5
2CC
330
73
100
AcDbEntity
  8
$DDT_AUDIT_GENERATED_(99)
  6
Continuous
 62
     7
100
AcDbLine
 10
96.2428970518
 20
390.665072856
 30
0.0
 11
96.2428970518
 21
390.7772849391
 31
0.0
  0
LINE
  5
2CD
330
73
100
AcDbEntity
  8
$DDT_AUDIT_GENERATED_(99)
  6
Continuous
 62
     7
100
AcDbLine
 10
96.0428970518
 20
390.7772849391
 30
0.0
 11
96.0428970518
 21
390.665072856
 31
0.0
  0
LINE
  5
2CE
330
73
100
AcDbEntity
  8
$DDT_AUDIT_GENERATED_(99)
  6
Continuous
 62
     7
100
AcDbLine
 10
96.2428970518
 20
390.8920658803
 30
0.0
 11
96.2428970518
 21
390.9533224941
 31
0.0
  0
LINE
  5
2CF
330
73
100
AcDbEntity
  8
$DDT_AUDIT_GENERATED_(99)
  6
Continuous
 62
     7
100
AcDbLine
 10
96.0428970518
 20
390.9652090493
 30
0.0
 11
96.0428970518
 21
390.8920658803
 31
0.0
  0
LINE
  5
2D0
330
73
100
AcDbEntity
  8
$DDT_AUDIT_GENERATED_(99)
  6
Continuous
 62
     7
100
AcDbLine
 10
96.1576779929
 20
389.1883337695
 30
0.0
 11
96.5567038668
 21
389.1883337695
 31
0.0
  0
LINE
  5
2D1
330
73
100
AcDbEntity
  8
$DDT_AUDIT_GENERATED_(99)
  6
Continuous
 62
     7
100
AcDbLine
 10
96.5948486819
 20
389.3883337695
 30
0.0
 11
96.2428970518
 21
389.3883337695
 31
0.0
  0
LINE
  5
2D2
330
73
100
AcDbEntity
  8
$DDT_AUDIT_GENERATED_(99)
  6
Continuous
 62
     7
100
AcDbLine
 10
96.1576779929
 20
389.4153267937
 30
0.0
 11
97.6638303964
 21
389.4153267937
 31
0.0
  0
LINE
  5
2D3
330
73
100
AcDbEntity
  8
$DDT_AUDIT_GENERATED_(99)
  6
Continuous
 62
     7
100
AcDbLine
 10
97.5786113375
 20
389.6153267937
 30
0.0
 11
96.2428970518
 21
389.6153267937
 31
0.0
  0
LINE
  5
2D4
330
73
100
AcDbEntity
  8
$DDT_AUDIT_GENERATED_(99)
  6
Continuous
 62
     7
100
AcDbLine
 10
96.1576779929
 20
389.642319818
 30
0.0
 11
97.6638303964
 21
389.642319818
 31
0.0
  0
LINE
  5
2D5
330
73
100
AcDbEntity
  8
$DDT_AUDIT_GENERATED_(99)
  6
Continuous
 62
     7
100
AcDbLine
 10
97.5786113375
 20
389.842319818
 30
0.0
 11
96.2428970518
 21
389.842319818
 31
0.0
  0
LINE
  5
2D6
330
73
100
AcDbEntity
  8
$DDT_AUDIT_GENERATED_(99)
  6
Continuous
 62
     7
100
AcDbLine
 10
96.1576779929
 20
389.8693128422
 30
0.0
 11
97.6638303964
 21
389.8693128422
 31
0.0
  0
LINE
  5
2D7
330
73
100
AcDbEntity
  8
$DDT_AUDIT_GENERATED_(99)
  6
Continuous
 62
     7
100
AcDbLine
 10
97.5786113375
 20
390.0693128422
 30
0.0
 11
96.2428970518
 21
390.0693128422
 31
0.0
  0
LINE
  5
2D8
330
73
100
AcDbEntity
  8
$DDT_AUDIT_GENERATED_(99)
  6
Continuous
 62
     7
100
AcDbLine
 10
96.1576779929
 20
390.0963058664
 30
0.0
 11
97.6638303964
 21
390.0963058664
 31
0.0
  0
LINE
  5
2D9
330
73
100
AcDbEntity
  8
$DDT_AUDIT_GENERATED_(99)
  6
Continuous
 62
     7
100
AcDbLine
 10
97.5786113375
 20
390.2963058664
 30
0.0
 11
96.2428970518
 21
390.2963058664
 31
0.0
  0
LINE
  5
2DA
330
73
100
AcDbEntity
  8
$DDT_AUDIT_GENERATED_(99)
  6
Continuous
 62
     7
100
AcDbLine
 10
96.1576779929
 20
390.3232988907
 30
0.0
 11
97.6638303964
 21
390.3232988907
 31
0.0
  0
LINE
  5
2DB
330
73
100
AcDbEntity
  8
$DDT_AUDIT_GENERATED_(99)
  6
Continuous
 62
     7
100
AcDbLine
 10
97.5786113375
 20
390.5232988907
 30
0.0
 11
96.2428970518
 21
390.5232988907
 31
0.0
  0
LINE
  5
2DC
330
73
100
AcDbEntity
  8
$DDT_AUDIT_GENERATED_(99)
  6
Continuous
 62
     7
100
AcDbLine
 10
96.1576779929
 20
390.5502919149
 30
0.0
 11
97.6638303964
 21
390.5502919149
 31
0.0
  0
LINE
  5
2DD
330
73
100
AcDbEntity
  8
$DDT_AUDIT_GENERATED_(99)
  6
Continuous
 62
     7
100
AcDbLine
 10
97.5786113375
 20
390.7502919149
 30
0.0
 11
96.2428970518
 21
390.7502919149
 31
0.0
  0
LINE
  5
2DE
330
73
100
AcDbEntity
  8
$DDT_AUDIT_GENERATED_(99)
  6
Continuous
 62
     7
100
AcDbLine
 10
96.1576779929
 20
390.7772849391
 30
0.0
 11
97.6638303964
 21
390.7772849391
 31
0.0
  0
LINE
  5
2DF
330
73
100
AcDbEntity
  8
$DDT_AUDIT_GENERATED_(99)
  6
Continuous
 62
     7
100
AcDbLine
 10
97.7786113375
 20
390.665072856
 30
0.0
 11
97.7786113375
 21
390.7772849391
 31
0.0
  0
LINE
  5
2E0
330
73
100
AcDbEntity
  8
$DDT_AUDIT_GENERATED_(99)
  6
Continuous
 62
     7
100
AcDbLine
 10
97.5786113375
 20
390.7772849391
 30
0.0
 11
97.5786113375
 21
390.665072856
 31
0.0
  0
LINE
  5
2E1
330
73
100
AcDbEntity
  8
$DDT_AUDIT_GENERATED_(99)
  6
Continuous
 62
     7
100
AcDbLine
 10
97.7786113375
 20
390.4380798318
 30
0.0
 11
97.7786113375
 21
390.5502919149
 31
0.0
  0
LINE
  5
2E2
330
73
100
AcDbEntity
  8
$DDT_AUDIT_GENERATED_(99)
  6
Continuous
 62
     7
100
AcDbLine
 10
97.5786113375
 20
390.5502919149
 30
0.0
 11
97.5786113375
 21
390.4380798318
 31
0.0
  0
LINE
  5
2E3
330
73
100
AcDbEntity
  8
$DDT_AUDIT_GENERATED_(99)
  6
Continuous
 62
     7
100
AcDbLine
 10
97.7786113375
 20
390.2110868075
 30
0.0
 11
97.7786113375
 21
390.3232988907
 31
0.0
  0
LINE
  5
2E4
330
73
100
AcDbEntity
  8
$DDT_AUDIT_GENERATED_(99)
  6
Continuous
 62
     7
100
AcDbLine
 10
97.5786113375
 20
390.3232988907
 30
0.0
 11
97.5786113375
 21
390.2110868075
 31
0.0
  0
LINE
  5
2E5
330
73
100
AcDbEntity
  8
$DDT_AUDIT_GENERATED_(99)
  6
Continuous
 62
     7
100
AcDbLine
 10
97.7786113375
 20
389.9840937833
 30
0.0
 11
97.7786113375
 21
390.0963058664
 31
0.0
  0
LINE
  5
2E6
330
73
100
AcDbEntity
  8
$DDT_AUDIT_GENERATED_(99)
  6
Continuous
 62
     7
100
AcDbLine
 10
97.5786113375
 20
390.0963058664
 30
0.0
 11
97.5786113375
 21
389.9840937833
 31
0.0
  0
LINE
  5
2E7
330
73
100
AcDbEntity
  8
$DDT_AUDIT_GENERATED_(99)
  6
Continuous
 62
     7
100
AcDbLine
 10
97.7786113375
 20
389.7571007591
 30
0.0
 11
97.7786113375
 21
389.8693128422
 31
0.0
  0
LINE
  5
2E8
330
73
100
AcDbEntity
  8
$DDT_AUDIT_GENERATED_(99)
  6
Continuous
 62
     7
100
AcDbLine
 10
97.5786113375
 20
389.8693128422
 30
0.0
 11
97.5786113375
 21
389.7571007591
 31
0.0
  0
LINE
  5
2E9
330
73
100
AcDbEntity
  8
$DDT_AUDIT_GENERATED_(99)
  6
Continuous
 62
     7
100
AcDbLine
 10
97.7786113375
 20
389.5301077348
 30
0.0
 11
97.7786113375
 21
389.642319818
 31
0.0
  0
LINE
  5
2EA
330
73
100
AcDbEntity
  8
$DDT_AUDIT_GENERATED_(99)
  6
Continuous
 62
     7
100
AcDbLine
 10
97.5786113375
 20
389.642319818
 30
0.0
 11
97.5786113375
 21
389.5301077348
 31
0.0
  0
LINE
  5
2EB
330
73
100
AcDbEntity
  8
$DDT_AUDIT_GENERATED_(99)
  6
Continuous
 62
     7
100
AcDbLine
 10
97.7786113375
 20
389.402402834
 30
0.0
 11
97.7786113375
 21
389.4153267937
 31
0.0
  0
LINE
  5
2EC
330
73
100
AcDbEntity
  8
$DDT_AUDIT_GENERATED_(99)
  6
Continuous
 62
     7
100
AcDbLine
 10
97.5786113375
 20
389.4153267937
 30
0.0
 11
97.5786113375
 21
389.3810756659
 31
0.0
  0
LINE
  5
2ED
330
73
100
AcDbEntity
  8
$DDT_AUDIT_GENERATED_(99)
  6
Continuous
 62
     7
100
AcDbLine
 10
97.6933922786
 20
390.7772849391
 30
0.0
 11
98.4592898393
 21
390.7772849391
 31
0.0
  0
LINE
  5
2EE
330
73
100
AcDbEntity
  8
$DDT_AUDIT_GENERATED_(99)
  6
Continuous
 62
     7
100
AcDbLine
 10
97.6933922786
 20
390.5502919149
 30
0.0
 11
99.1995446821
 21
390.5502919149
 31
0.0
  0
LINE
  5
2EF
330
73
100
AcDbEntity
  8
$DDT_AUDIT_GENERATED_(99)
  6
Continuous
 62
     7
100
AcDbLine
 10
98.7216596055
 20
390.7502919149
 30
0.0
 11
97.7786113375
 21
390.7502919149
 31
0.0
  0
LINE
  5
2F0
330
73
100
AcDbEntity
  8
$DDT_AUDIT_GENERATED_(99)
  6
Continuous
 62
     7
100
AcDbLine
 10
97.6933922786
 20
390.3232988907
 30
0.0
 11
99.1995446821
 21
390.3232988907
 31
0.0
  0
LINE
  5
2F1
330
73
100
AcDbEntity
  8
$DDT_AUDIT_GENERATED_(99)
  6
Continuous
 62
     7
100
AcDbLine
 10
99.1143256232
 20
390.5232988907
 30
0.0
 11
97.7786113375
 21
390.5232988907
 31
0.0
  0
LINE
  5
2F2
330
73
100
AcDbEntity
  8
$DDT_AUDIT_GENERATED_(99)
  6
Continuous
 62
     7
100
AcDbLine
 10
97.6933922786
 20
390.0963058664
 30
0.0
 11
99.1995446821
 21
390.0963058664
 31
0.0
  0
LINE
  5
2F3
330
73
100
AcDbEntity
  8
$DDT_AUDIT_GENERATED_(99)
  6
Continuous
 62
     7
100
AcDbLine
 10
99.1143256232
 20
390.2963058664
 30
0.0
 11
97.7786113375
 21
390.2963058664
 31
0.0
  0
LINE
  5
2F4
330
73
100
AcDbEntity
  8
$DDT_AUDIT_GENERATED_(99)
  6
Continuous
 62
     7
100
AcDbLine
 10
97.6933922786
 20
389.8693128422
 30
0.0
 11
99.1995446821
 21
389.8693128422
 31
0.0
  0
LINE
  5
2F5
330
73
100
AcDbEntity
  8
$DDT_AUDIT_GENERATED_(99)
  6
Continuous
 62
     7
100
AcDbLine
 10
99.1143256232
 20
390.0693128422
 30
0.0
 11
97.7786113375
 21
390.0693128422
 31
0.0
  0
LINE
  5
2F6
330
73
100
AcDbEntity
  8
$DDT_AUDIT_GENERATED_(99)
  6
Continuous
 62
     7
100
AcDbLine
 10
97.6933922786
 20
389.642319818
 30
0.0
 11
99.1995446821
 21
389.642319818
 31
0.0
  0
LINE
  5
2F7
330
73
100
AcDbEntity
  8
$DDT_AUDIT_GENERATED_(99)
  6
Continuous
 62
     7
100
AcDbLine
 10
99.1143256232
 20
389.842319818
 30
0.0
 11
97.7786113375
 21
389.842319818
 31
0.0
  0
LINE
  5
2F8
330
73
100
AcDbEntity
  8
$DDT_AUDIT_GENERATED_(99)
  6
Continuous
 62
     7
100
AcDbLine
 10
97.6933922786
 20
389.4153267937
 30
0.0
 11
98.6894499044
 21
389.4153267937
 31
0.0
  0
LINE
  5
2F9
330
73
100
AcDbEntity
  8
$DDT_AUDIT_GENERATED_(99)
  6
Continuous
 62
     7
100
AcDbLine
 10
98.7130431994
 20
389.6153267937
 30
0.0
 11
97.7786113375
 21
389.6153267937
 31
0.0
  0
LINE
  5
2FA
330
73
100
AcDbEntity
  8
$DDT_AUDIT_GENERATED_(99)
  6
Continuous
 62
     7
100
AcDbLine
 10
99.3143256232
 20
389.607802433
 30
0.0
 11
99.3143256232
 21
389.642319818
 31
0.0
  0
LINE
  5
2FB
330
73
100
AcDbEntity
  8
$DDT_AUDIT_GENERATED_(99)
  6
Continuous
 62
     7
100
AcDbLine
 10
99.1143256232
 20
389.642319818
 30
0.0
 11
99.1143256232
 21
389.5761002512
 31
0.0
  0
LINE
  5
2FC
330
73
100
AcDbEntity
  8
$DDT_AUDIT_GENERATED_(99)
  6
Continuous
 62
     7
100
AcDbLine
 10
99.3143256232
 20
389.7571007591
 30
0.0
 11
99.3143256232
 21
389.8693128422
 31
0.0
  0
LINE
  5
2FD
330
73
100
AcDbEntity
  8
$DDT_AUDIT_GENERATED_(99)
  6
Continuous
 62
     7
100
AcDbLine
 10
99.1143256232
 20
389.8693128422
 30
0.0
 11
99.1143256232
 21
389.7571007591
 31
0.0
  0
LINE
  5
2FE
330
73
100
AcDbEntity
  8
$DDT_AUDIT_GENERATED_(99)
  6
Continuous
 62
     7
100
AcDbLine
 10
99.3143256232
 20
389.9840937833
 30
0.0
 11
99.3143256232
 21
390.0963058664
 31
0.0
  0
LINE
  5
2FF
330
73
100
AcDbEntity
  8
$DDT_AUDIT_GENERATED_(99)
  6
Continuous
 62
     7
100
AcDbLine
 10
99.1143256232
 20
390.0963058664
 30
0.0
 11
99.1143256232
 21
389.9840937833
 31
0.0
  0
LINE
  5
300
330
73
100
AcDbEntity
  8
$DDT_AUDIT_GENERATED_(99)
  6
Continuous
 62
     7
100
AcDbLine
 10
99.3143256232
 20
390.2110868075
 30
0.0
 11
99.3143256232
 21
390.3232988907
 31
0.0
  0
LINE
  5
301
330
73
100
AcDbEntity
  8
$DDT_AUDIT_GENERATED_(99)
  6
Continuous
 62
     7
100
AcDbLine
 10
99.1143256232
 20
390.3232988907
 30
0.0
 11
99.1143256232
 21
390.2110868075
 31
0.0
  0
LINE
  5
302
330
73
100
AcDbEntity
  8
$DDT_AUDIT_GENERATED_(99)
  6
Continuous
 62
     7
100
AcDbLine
 10
99.3143256232
 20
390.4380798318
 30
0.0
 11
99.3143256232
 21
390.5502919149
 31
0.0
  0
LINE
  5
303
330
73
100
AcDbEntity
  8
$DDT_AUDIT_GENERATED_(99)
  6
Continuous
 62
     7
100
AcDbLine
 10
99.1143256232
 20
390.5502919149
 30
0.0
 11
99.1143256232
 21
390.4380798318
 31
0.0
  0
LINE
  5
304
330
73
100
AcDbEntity
  8
$DDT_AUDIT_GENERATED_(99)
  6
Continuous
 62
     7
100
AcDbLine
 10
99.3143256232
 20
390.665072856
 30
0.0
 11
99.3143256232
 21
390.6835335648
 31
0.0
  0
LINE
  5
305
330
73
100
AcDbEntity
  8
$DDT_AUDIT_GENERATED_(99)
  6
Continuous
 62
     7
100
AcDbLine
 10
99.1143256232
 20
390.7070028849
 30
0.0
 11
99.1143256232
 21
390.665072856
 31
0.0
  0
LINE
  5
306
330
73
100
AcDbEntity
  8
$DDT_AUDIT_GENERATED_(99)
  6
Continuous
 62
     7
100
AcDbLine
 10
99.2291065644
 20
389.642319818
 30
0.0
 11
100.0459805295
 21
389.642319818
 31
0.0
  0
LINE
  5
307
330
73
100
AcDbEntity
  8
$DDT_AUDIT_GENERATED_(99)
  6
Continuous
 62
     7
100
AcDbLine
 10
100.0617337254
 20
389.842319818
 30
0.0
 11
99.3143256232
 21
389.842319818
 31
0.0
  0
LINE
  5
308
330
73
100
AcDbEntity
  8
$DDT_AUDIT_GENERATED_(99)
  6
Continuous
 62
     7
100
AcDbLine
 10
99.2291065644
 20
389.8693128422
 30
0.0
 11
100.7352589678
 21
389.8693128422
 31
0.0
  0
LINE
  5
309
330
73
100
AcDbEntity
  8
$DDT_AUDIT_GENERATED_(99)
  6
Continuous
 62
     7
100
AcDbLine
 10
100.650039909
 20
390.0693128422
 30
0.0
 11
99.3143256232
 21
390.0693128422
 31
0.0
  0
LINE
  5
30A
330
73
100
AcDbEntity
  8
$DDT_AUDIT_GENERATED_(99)
  6
Continuous
 62
     7
100
AcDbLine
 10
99.2291065644
 20
390.0963058664
 30
0.0
 11
100.7352589678
 21
390.0963058664
 31
0.0
  0
LINE
  5
30B
330
73
100
AcDbEntity
  8
$DDT_AUDIT_GENERATED_(99)
  6
Continuous
 62
     7
100
AcDbLine
 10
100.650039909
 20
390.2963058664
 30
0.0
 11
99.3143256232
 21
390.2963058664
 31
0.0
  0
LINE
  5
30C
330
73
100
AcDbEntity
  8
$DDT_AUDIT_GENERATED_(99)
  6
Continuous
 62
     7
100
AcDbLine
 10
99.2291065644
 20
390.3232988907
 30
0.0
 11
100.7352589678
 21
390.3232988907
 31
0.0
  0
LINE
  5
30D
330
73
100
AcDbEntity
  8
$DDT_AUDIT_GENERATED_(99)
  6
Continuous
 62
     7
100
AcDbLine
 10
100.487220864
 20
390.5232988907
 30
0.0
 11
99.3143256232
 21
390.5232988907
 31
0.0
  0
LINE
  5
30E
330
73
100
AcDbEntity
  8
$DDT_AUDIT_GENERATED_(99)
  6
Continuous
 62
     7
100
AcDbLine
 10
99.2291065644
 20
390.5502919149
 30
0.0
 11
100.3100217147
 21
390.5502919149
 31
0.0
  0
LINE
  5
30F
330
73
100
AcDbEntity
  8
$DDT_AUDIT_GENERATED_(99)
  6
Continuous
 62
     7
100
AcDbLine
 10
100.850039909
 20
390.4380798318
 30
0.0
 11
100.850039909
 21
390.4643537417
 31
0.0
  0
LINE
  5
310
330
73
100
AcDbEntity
  8
$DDT_AUDIT_GENERATED_(99)
  6
Continuous
 62
     7
100
AcDbLine
 10
100.650039909
 20
390.4974844283
 30
0.0
 11
100.650039909
 21
390.4380798318
 31
0.0
  0
LINE
  5
311
330
73
100
AcDbEntity
  8
$DDT_AUDIT_GENERATED_(99)
  6
Continuous
 62
     7
100
AcDbLine
 10
100.850039909
 20
390.2110868075
 30
0.0
 11
100.850039909
 21
390.3232988907
 31
0.0
  0
LINE
  5
312
330
73
100
AcDbEntity
  8
$DDT_AUDIT_GENERATED_(99)
  6
Continuous
 62
     7
100
AcDbLine
 10
100.650039909
 20
390.3232988907
 30
0.0
 11
100.650039909
 21
390.2110868075
 31
0.0
  0
LINE
  5
313
330
73
100
AcDbEntity
  8
$DDT_AUDIT_GENERATED_(99)
  6
Continuous
 62
     7
100
AcDbLine
 10
100.850039909
 20
389.9840937833
 30
0.0
 11
100.850039909
 21
390.0963058664
 31
0.0
  0
LINE
  5
314
330
73
100
AcDbEntity
  8
$DDT_AUDIT_GENERATED_(99)
  6
Continuous
 62
     7
100
AcDbLine
 10
100.650039909
 20
390.0963058664
 30
0.0
 11
100.650039909
 21
389.9840937833
 31
0.0
  0
LINE
  5
315
330
73
100
AcDbEntity
  8
$DDT_AUDIT_GENERATED_(99)
  6
Continuous
 62
     7
100
AcDbLine
 10
100.7648208501
 20
390.3232988907
 30
0.0
 11
101.601704645
 21
390.3232988907
 31
0.0
  0
LINE
  5
316
330
73
100
AcDbEntity
  8
$DDT_AUDIT_GENERATED_(99)
  6
Continuous
 62
     7
100
AcDbLine
 10
100.7648208501
 20
390.0963058664
 30
0.0
 11
101.5742113467
 21
390.0963058664
 31
0.0
  0
LINE
  5
317
330
73
100
AcDbEntity
  8
$DDT_AUDIT_GENERATED_(99)
  6
Continuous
 62
     7
100
AcDbLine
 10
101.5809120858
 20
390.2963058664
 30
0.0
 11
100.850039909
 21
390.2963058664
 31
0.0
  0
LINE
  5
318
330
73
100
AcDbEntity
  8
$DDT_AUDIT_GENERATED_(99)
  6
Continuous
 62
     7
100
AcDbLine
 10
100.7648208501
 20
389.8693128422
 30
0.0
 11
100.9673874307
 21
389.8693128422
 31
0.0
  0
LINE
  5
319
330
73
100
AcDbEntity
  8
$DDT_AUDIT_GENERATED_(99)
  6
Continuous
 62
     7
100
AcDbLine
 10
100.978044773
 20
390.0693128422
 30
0.0
 11
100.850039909
 21
390.0693128422
 31
0.0
  0
LINE
  5
31B
330
73
100
AcDbEntity
  8
$DDT_AUDIT_GENERATED_(31A)
  6
Continuous
 62
     7
100
AcDbLine
 10
96.4398818706
 20
390.7614984042
 30
0.0
 11
96.4398818706
 21
390.7772849391
 31
0.0
  0
LINE
  5
31C
330
73
100
AcDbEntity
  8
$DDT_AUDIT_GENERATED_(31A)
  6
Continuous
 62
     7
100
AcDbLine
 10
95.4590563354
 20
390.9772849391
 30
0.0
 11
95.4590563354
 21
390.9965564107
 31
0.0
  0
LINE
  5
31D
330
73
100
AcDbEntity
  8
$DDT_AUDIT_GENERATED_(31A)
  6
Continuous
 62
     7
100
AcDbLine
 10
94.9686435679
 20
390.9772849391
 30
0.0
 11
94.9686435679
 21
391.0042779634
 31
0.0
  0
LINE
  5
31E
330
73
100
AcDbEntity
  8
$DDT_AUDIT_GENERATED_(31A)
  6
Continuous
 62
     7
100
AcDbLine
 10
93.9878180327
 20
390.9772849391
 30
0.0
 11
93.9878180327
 21
391.0042779634
 31
0.0
  0
LINE
  5
31F
330
73
100
AcDbEntity
  8
$DDT_AUDIT_GENERATED_(31A)
  6
Continuous
 62
     7
100
AcDbLine
 10
94.4782308003
 20
390.9772849391
 30
0.0
 11
94.4782308003
 21
391.001520162
 31
0.0
  0
ELLIPSE
  5
320
330
73
100
AcDbEntity
  8
$DDT_AUDIT_GENERATED_(31A)
  6
Continuous
 62
     7
100
AcDbEllipse
 10
95.4590563354
 20
390.8060016777
 30
0.0
 11
0.07071067811865485
 21
0.0
 31
0.0
210
0.0
220
0.0
230
1.0
 40
0.6993398237
 41
4.504098766116171
 42
4.71238898038469
  0
LINE
  5
321
330
73
100
AcDbEntity
  8
$DDT_AUDIT_GENERATED_(31A)
  6
Continuous
 62
     7
100
AcDbLine
 10
95.4590563354
 20
390.7565508846
 30
0.0
 11
95.4590563354
 21
390.7772849391
 31
0.0
  0
ELLIPSE
  5
322
330
73
100
AcDbEntity
  8
$DDT_AUDIT_GENERATED_(31A)
  6
Continuous
 62
     7
100
AcDbEllipse
 10
95.4590563354
 20
390.8060016777
 30
0.0
 11
-0.07071067811865485
 21
0.0
 31
0.0
210
0.0
220
0.0
230
1.0
 40
0.6993398237
 41
1.570796326794897
 42
1.779086541063209
  0
LINE
  5
323
330
73
100
AcDbEntity
  8
$DDT_AUDIT_GENERATED_(31A)
  6
Continuous
 62
     7
100
AcDbLine
 10
95.4590563354
 20
390.7554584383
 30
0.0
 11
95.4590563354
 21
390.7565508846
 31
0.0
  0
LINE
  5
324
330
73
100
AcDbEntity
  8
$DDT_AUDIT_GENERATED_(31A)
  6
Continuous
 62
     7
100
AcDbLine
 10
94.9686435679
 20
390.7502919149
 30
0.0
 11
94.9686435679
 21
390.7772849391
 31
0.0
  0
ELLIPSE
  5
325
330
73
100
AcDbEntity
  8
$DDT_AUDIT_GENERATED_(31A)
  6
Continuous
 62
     7
100
AcDbEllipse
 10
94.4782308003
 20
390.8060016777
 30
0.0
 11
-0.07071067811865485
 21
0.0
 31
0.0
210
0.0
220
0.0
230
1.0
 40
0.6993398237
 41
1.570796326794897
 42
1.779086541063415
  0
LINE
  5
326
330
73
100
AcDbEntity
  8
$DDT_AUDIT_GENERATED_(31A)
  6
Continuous
 62
     7
100
AcDbLine
 10
94.4782308003
 20
390.7554584383
 30
0.0
 11
94.4782308003
 21
390.7565508846
 31
0.0
  0
ELLIPSE
  5
327
330
73
100
AcDbEntity
  8
$DDT_AUDIT_GENERATED_(31A)
  6
Continuous
 62
     7
100
AcDbEllipse
 10
94.4782308003
 20
390.8060016777
 30
0.0
 11
0.07071067811865528
 21
0.0
 31
0.0
210
0.0
220
0.0
230
1.0
 40
0.6993398237
 41
4.504098766116378
 42
4.71238898038469
  0
LINE
  5
328
330
73
100
AcDbEntity
  8
$DDT_AUDIT_GENERATED_(31A)
  6
Continuous
 62
     7
100
AcDbLine
 10
94.4782308003
 20
390.7565508846
 30
0.0
 11
94.4782308003
 21
390.7772849391
 31
0.0
  0
LINE
  5
329
330
73
100
AcDbEntity
  8
$DDT_AUDIT_GENERATED_(31A)
  6
Continuous
 62
     7
100
AcDbLine
 10
93.4974052651
 20
390.9772849391
 30
0.0
 11
93.4974052651
 21
391.001520162
 31
0.0
  0
LINE
  5
32A
330
73
100
AcDbEntity
  8
$DDT_AUDIT_GENERATED_(31A)
  6
Continuous
 62
     7
100
AcDbLine
 10
92.0261669623
 20
390.9772849391
 30
0.0
 11
92.0261669623
 21
391.0042779634
 31
0.0
  0
LINE
  5
32B
330
73
100
AcDbEntity
  8
$DDT_AUDIT_GENERATED_(31A)
  6
Continuous
 62
     7
100
AcDbLine
 10
92.5165797299
 20
390.9772849391
 30
0.0
 11
92.5165797299
 21
391.001520162
 31
0.0
  0
ELLIPSE
  5
32C
330
73
100
AcDbEntity
  8
$DDT_AUDIT_GENERATED_(31A)
  6
Continuous
 62
     7
100
AcDbEllipse
 10
93.4974052651
 20
390.8060016777
 30
0.0
 11
0.07071067811865507
 21
0.0
 31
0.0
210
0.0
220
0.0
230
1.0
 40
0.6993398237
 41
4.504098766116583
 42
4.71238898038469
  0
LINE
  5
32D
330
73
100
AcDbEntity
  8
$DDT_AUDIT_GENERATED_(31A)
  6
Continuous
 62
     7
100
AcDbLine
 10
93.4974052651
 20
390.7565508846
 30
0.0
 11
93.4974052651
 21
390.7772849391
 31
0.0
  0
LINE
  5
32E
330
73
100
AcDbEntity
  8
$DDT_AUDIT_GENERATED_(31A)
  6
Continuous
 62
     7
100
AcDbLine
 10
93.9878180327
 20
390.7502919149
 30
0.0
 11
93.9878180327
 21
390.7772849391
 31
0.0
  0
ELLIPSE
  5
32F
330
73
100
AcDbEntity
  8
$DDT_AUDIT_GENERATED_(31A)
  6
Continuous
 62
     7
100
AcDbEllipse
 10
93.4974052651
 20
390.8060016777
 30
0.0
 11
-0.07071067811865485
 21
0.0
 31
0.0
210
0.0
220
0.0
230
1.0
 40
0.6993398237
 41
1.570796326794897
 42
1.779086541063415
  0
LINE
  5
330
330
73
100
AcDbEntity
  8
$DDT_AUDIT_GENERATED_(31A)
  6
Continuous
 62
     7
100
AcDbLine
 10
93.4974052651
 20
390.7554584383
 30
0.0
 11
93.4974052651
 21
390.7565508846
 31
0.0
  0
ELLIPSE
  5
331
330
73
100
AcDbEntity
  8
$DDT_AUDIT_GENERATED_(31A)
  6
Continuous
 62
     7
100
AcDbEllipse
 10
92.5165797299
 20
390.8060016777
 30
0.0
 11
-0.07071067811865485
 21
0.0
 31
0.0
210
0.0
220
0.0
230
1.0
 40
0.6993398237
 41
1.570796326794897
 42
1.779086541063415
  0
LINE
  5
332
330
73
100
AcDbEntity
  8
$DDT_AUDIT_GENERATED_(31A)
  6
Continuous
 62
     7
100
AcDbLine
 10
92.5165797299
 20
390.7554584383
 30
0.0
 11
92.5165797299
 21
390.7565508846
 31
0.0
  0
ELLIPSE
  5
333
330
73
100
AcDbEntity
  8
$DDT_AUDIT_GENERATED_(31A)
  6
Continuous
 62
     7
100
AcDbEllipse
 10
92.5165797299
 20
390.8060016777
 30
0.0
 11
0.07071067811865474
 21
0.0
 31
0.0
210
0.0
220
0.0
230
1.0
 40
0.6993398237
 41
4.504098766116583
 42
4.71238898038469
  0
LINE
  5
334
330
73
100
AcDbEntity
  8
$DDT_AUDIT_GENERATED_(31A)
  6
Continuous
 62
     7
100
AcDbLine
 10
92.5165797299
 20
390.7565508846
 30
0.0
 11
92.5165797299
 21
390.7772849391
 31
0.0
  0
LINE
  5
335
330
73
100
AcDbEntity
  8
$DDT_AUDIT_GENERATED_(31A)
  6
Continuous
 62
     7
100
AcDbLine
 10
91.0453414271
 20
390.9772849391
 30
0.0
 11
91.0453414271
 21
391.0042779634
 31
0.0
  0
LINE
  5
336
330
73
100
AcDbEntity
  8
$DDT_AUDIT_GENERATED_(31A)
  6
Continuous
 62
     7
100
AcDbLine
 10
90.5549286595
 20
390.9772849391
 30
0.0
 11
90.5549286595
 21
391.001520162
 31
0.0
  0
LINE
  5
337
330
73
100
AcDbEntity
  8
$DDT_AUDIT_GENERATED_(31A)
  6
Continuous
 62
     7
100
AcDbLine
 10
92.0261669623
 20
390.7502919149
 30
0.0
 11
92.0261669623
 21
390.7772849391
 31
0.0
  0
LINE
  5
338
330
73
100
AcDbEntity
  8
$DDT_AUDIT_GENERATED_(31A)
  6
Continuous
 62
     7
100
AcDbLine
 10
91.0453414271
 20
390.7502919149
 30
0.0
 11
91.0453414271
 21
390.7772849391
 31
0.0
  0
ELLIPSE
  5
339
330
73
100
AcDbEntity
  8
$DDT_AUDIT_GENERATED_(31A)
  6
Continuous
 62
     7
100
AcDbEllipse
 10
90.5549286595
 20
390.8060016777
 30
0.0
 11
-0.07071067811865474
 21
0.0
 31
0.0
210
0.0
220
0.0
230
1.0
 40
0.6993398237
 41
1.570796326794897
 42
1.779086541063004
  0
LINE
  5
33A
330
73
100
AcDbEntity
  8
$DDT_AUDIT_GENERATED_(31A)
  6
Continuous
 62
     7
100
AcDbLine
 10
90.5549286595
 20
390.7554584383
 30
0.0
 11
90.5549286595
 21
390.7565508846
 31
0.0
  0
ELLIPSE
  5
33B
330
73
100
AcDbEntity
  8
$DDT_AUDIT_GENERATED_(31A)
  6
Continuous
 62
     7
100
AcDbEllipse
 10
90.5549286595
 20
390.8060016777
 30
0.0
 11
0.07071067811865485
 21
0.0
 31
0.0
210
0.0
220
0.0
230
1.0
 40
0.6993398237
 41
4.504098766116376
 42
4.71238898038469
  0
LINE
  5
33C
330
73
100
AcDbEntity
  8
$DDT_AUDIT_GENERATED_(31A)
  6
Continuous
 62
     7
100
AcDbLine
 10
90.5549286595
 20
390.7565508846
 30
0.0
 11
90.5549286595
 21
390.7772849391
 31
0.0
  0
LINE
  5
33D
330
73
100
AcDbEntity
  8
$DDT_AUDIT_GENERATED_(31A)
  6
Continuous
 62
     7
100
AcDbLine
 10
89.5741031243
 20
390.9772849391
 30
0.0
 11
89.5741031243
 21
391.001520162
 31
0.0
  0
LINE
  5
33E
330
73
100
AcDbEntity
  8
$DDT_AUDIT_GENERATED_(31A)
  6
Continuous
 62
     7
100
AcDbLine
 10
89.0836903567
 20
390.9772849391
 30
0.0
 11
89.0836903567
 21
391.0042779634
 31
0.0
  0
LINE
  5
33F
330
73
100
AcDbEntity
  8
$DDT_AUDIT_GENERATED_(31A)
  6
Continuous
 62
     7
100
AcDbLine
 10
88.1028648215
 20
390.9772849391
 30
0.0
 11
88.1028648215
 21
391.0042779634
 31
0.0
  0
LINE
  5
340
330
73
100
AcDbEntity
  8
$DDT_AUDIT_GENERATED_(31A)
  6
Continuous
 62
     7
100
AcDbLine
 10
88.5932775891
 20
390.9772849391
 30
0.0
 11
88.5932775891
 21
391.001520162
 31
0.0
  0
ELLIPSE
  5
341
330
73
100
AcDbEntity
  8
$DDT_AUDIT_GENERATED_(31A)
  6
Continuous
 62
     7
100
AcDbEllipse
 10
89.5741031243
 20
390.8060016777
 30
0.0
 11
0.07071067811865485
 21
0.0
 31
0.0
210
0.0
220
0.0
230
1.0
 40
0.6993398237
 41
4.504098766116171
 42
4.71238898038469
  0
LINE
  5
342
330
73
100
AcDbEntity
  8
$DDT_AUDIT_GENERATED_(31A)
  6
Continuous
 62
     7
100
AcDbLine
 10
89.5741031243
 20
390.7565508846
 30
0.0
 11
89.5741031243
 21
390.7772849391
 31
0.0
  0
ELLIPSE
  5
343
330
73
100
AcDbEntity
  8
$DDT_AUDIT_GENERATED_(31A)
  6
Continuous
 62
     7
100
AcDbEllipse
 10
89.5741031243
 20
390.8060016777
 30
0.0
 11
-0.07071067811865485
 21
0.0
 31
0.0
210
0.0
220
0.0
230
1.0
 40
0.6993398237
 41
1.570796326794897
 42
1.779086541063004
  0
LINE
  5
344
330
73
100
AcDbEntity
  8
$DDT_AUDIT_GENERATED_(31A)
  6
Continuous
 62
     7
100
AcDbLine
 10
89.5741031243
 20
390.7554584383
 30
0.0
 11
89.5741031243
 21
390.7565508846
 31
0.0
  0
LINE
  5
345
330
73
100
AcDbEntity
  8
$DDT_AUDIT_GENERATED_(31A)
  6
Continuous
 62
     7
100
AcDbLine
 10
89.0836903567
 20
390.7502919149
 30
0.0
 11
89.0836903567
 21
390.7772849391
 31
0.0
  0
ELLIPSE
  5
346
330
73
100
AcDbEntity
  8
$DDT_AUDIT_GENERATED_(31A)
  6
Continuous
 62
     7
100
AcDbEllipse
 10
88.5932775891
 20
390.8060016777
 30
0.0
 11
-0.07071067811865485
 21
0.0
 31
0.0
210
0.0
220
0.0
230
1.0
 40
0.6993398237
 41
1.570796326794897
 42
1.779086541063209
  0
LINE
  5
347
330
73
100
AcDbEntity
  8
$DDT_AUDIT_GENERATED_(31A)
  6
Continuous
 62
     7
100
AcDbLine
 10
88.5932775891
 20
390.7554584383
 30
0.0
 11
88.5932775891
 21
390.7565508846
 31
0.0
  0
ELLIPSE
  5
348
330
73
100
AcDbEntity
  8
$DDT_AUDIT_GENERATED_(31A)
  6
Continuous
 62
     7
100
AcDbEllipse
 10
88.5932775891
 20
390.8060016777
 30
0.0
 11
0.07071067811865485
 21
0.0
 31
0.0
210
0.0
220
0.0
230
1.0
 40
0.6993398237
 41
4.504098766116171
 42
4.71238898038469
  0
LINE
  5
349
330
73
100
AcDbEntity
  8
$DDT_AUDIT_GENERATED_(31A)
  6
Continuous
 62
     7
100
AcDbLine
 10
88.5932775891
 20
390.7565508846
 30
0.0
 11
88.5932775891
 21
390.7772849391
 31
0.0
  0
LINE
  5
34A
330
73
100
AcDbEntity
  8
$DDT_AUDIT_GENERATED_(31A)
  6
Continuous
 62
     7
100
AcDbLine
 10
87.6124520539
 20
390.9772849391
 30
0.0
 11
87.6124520539
 21
390.9965564107
 31
0.0
  0
ELLIPSE
  5
34B
330
73
100
AcDbEntity
  8
$DDT_AUDIT_GENERATED_(31A)
  6
Continuous
 62
     7
100
AcDbEllipse
 10
87.6124520539
 20
390.8060016777
 30
0.0
 11
0.07071067811865485
 21
0.0
 31
0.0
210
0.0
220
0.0
230
1.0
 40
0.6993398237
 41
4.504098766116171
 42
4.71238898038469
  0
LINE
  5
34C
330
73
100
AcDbEntity
  8
$DDT_AUDIT_GENERATED_(31A)
  6
Continuous
 62
     7
100
AcDbLine
 10
87.6124520539
 20
390.7565508846
 30
0.0
 11
87.6124520539
 21
390.7772849391
 31
0.0
  0
LINE
  5
34D
330
73
100
AcDbEntity
  8
$DDT_AUDIT_GENERATED_(31A)
  6
Continuous
 62
     7
100
AcDbLine
 10
88.1028648215
 20
390.7502919149
 30
0.0
 11
88.1028648215
 21
390.7772849391
 31
0.0
  0
ELLIPSE
  5
34E
330
73
100
AcDbEntity
  8
$DDT_AUDIT_GENERATED_(31A)
  6
Continuous
 62
     7
100
AcDbEllipse
 10
87.6124520539
 20
390.8060016777
 30
0.0
 11
-0.07071067811865485
 21
0.0
 31
0.0
210
0.0
220
0.0
230
1.0
 40
0.6993398237
 41
1.570796326794897
 42
1.779086541063209
  0
LINE
  5
34F
330
73
100
AcDbEntity
  8
$DDT_AUDIT_GENERATED_(31A)
  6
Continuous
 62
     7
100
AcDbLine
 10
87.6124520539
 20
390.7554584383
 30
0.0
 11
87.6124520539
 21
390.7565508846
 31
0.0
  0
LINE
  5
350
330
73
100
AcDbEntity
  8
$DDT_AUDIT_GENERATED_(31A)
  6
Continuous
 62
     7
100
AcDbLine
 10
86.6316265187
 20
390.7614984042
 30
0.0
 11
86.6316265187
 21
390.7772849391
 31
0.0
  0
SPLINE
  5
351
330
73
100
AcDbEntity
  8
$DDT_AUDIT_GENERATED_(31A)
  6
Continuous
 62
     7
100
AcDbSpline
210
0.0
220
0.0
230
1.0
 70
     8
 71
     3
 72
    11
 73
     7
 74
     0
 42
0.0000000624320168
 43
0.0000000001
 40
0.923050794240396
 40
0.923050794240396
 40
0.923050794240396
 40
0.923050794240396
 40
0.9723878293675788
 40
0.9723878293675788
 40
0.9723878293675788
 40
1.0
 40
1.0
 40
1.0
 40
1.0
 10
87.26817751588955
 20
390.7775237363165
 30
0.0
 10
87.26752701031842
 20
390.7750059493147
 30
0.0
 10
87.2670748131094
 20
390.7724175625306
 30
0.0
 10
87.26683846394165
 20
390.7698107890328
 30
0.0
 10
87.26670418488808
 20
390.7683297807371
 30
0.0
 10
87.26663674756932
 20
390.7668355395892
 30
0.0
 10
87.26663674756932
 20
390.7653386246317
 30
0.0
  0
SPLINE
  5
352
330
73
100
AcDbEntity
  8
$DDT_AUDIT_GENERATED_(31A)
  6
Continuous
 62
     7
100
AcDbSpline
210
0.0
220
0.0
230
1.0
 70
     8
 71
     3
 72
     8
 73
     4
 74
     0
 42
0.0000000624572254
 43
0.0000000001
 40
0.0
 40
0.0
 40
0.0
 40
0.0
 40
0.0765281620491388
 40
0.0765281620491388
 40
0.0765281620491388
 40
0.0765281620491388
 10
95.80487164177666
 20
390.7653386246317
 30
0.0
 10
95.80487164177666
 20
390.7694299880583
 30
0.0
 10
95.80435302195644
 20
390.7735310530221
 30
0.0
 10
95.80335775411716
 20
390.7774339524343
 30
0.0
  0
LINE
  5
353
330
73
100
AcDbEntity
  8
$DDT_AUDIT_GENERATED_(31A)
  6
Continuous
 62
     7
100
AcDbLine
 10
95.8048716418
 20
390.7653386246
 30
0.0
 11
95.9066696911
 21
390.7502919149
 31
0.0
  0
LINE
  5
354
330
73
100
AcDbEntity
  8
$DDT_AUDIT_GENERATED_(31A)
  6
Continuous
 62
     7
100
AcDbLine
 10
95.992268515
 20
390.7502919149
 30
0.0
 11
96.0428970518
 21
390.7577752891
 31
0.0
  0
LINE
  5
355
330
73
100
AcDbEntity
  8
$DDT_AUDIT_GENERATED_(31A)
  6
Continuous
 62
     7
100
AcDbLine
 10
87.0286113375
 20
390.7577752891
 30
0.0
 11
87.0792398744
 21
390.7502919149
 31
0.0
  0
LINE
  5
356
330
73
100
AcDbEntity
  8
$DDT_AUDIT_GENERATED_(31A)
  6
Continuous
 62
     7
100
AcDbLine
 10
87.1648386982
 20
390.7502919149
 30
0.0
 11
87.2666367476
 21
390.7653386246
 31
0.0
  0
ELLIPSE
  5
357
330
73
100
AcDbEntity
  8
$DDT_AUDIT_GENERATED_(31A)
  6
Continuous
 62
     7
100
AcDbEllipse
 10
91.5357541918
 20
392.1832665022
 30
0.0
 11
-10.49999999611356
 21
3.870896658764166E-10
 31
0.0
210
0.0
220
0.0
230
1.0
 40
0.1478094111
 41
1.133539413754244
 42
1.152085905929962
  0
ELLIPSE
  5
358
330
73
100
AcDbEntity
  8
$DDT_AUDIT_GENERATED_(31A)
  6
Continuous
 62
     7
100
AcDbEllipse
 10
91.5357541931
 20
392.1832665036
 30
0.0
 11
10.50000000209148
 21
-2.083767186578100E-10
 31
0.0
210
0.0
220
0.0
230
1.0
 40
0.1478094111
 41
-1.15208590571806
 42
-1.133539413551414
  0
LINE
  5
359
330
73
100
AcDbEntity
  8
$DDT_AUDIT_GENERATED_(31A)
  6
Continuous
 62
     7
100
AcDbLine
 10
94.9981655968
 20
390.9772849391
 30
0.0
 11
95.1807860675
 21
391.0042779634
 31
0.0
  0
LINE
  5
35A
330
73
100
AcDbEntity
  8
$DDT_AUDIT_GENERATED_(31A)
  6
Continuous
 62
     7
100
AcDbLine
 10
96.5276252838
 20
390.7684277405
 30
0.0
 11
96.5875483873
 21
390.7772849391
 31
0.0
  0
LINE
  5
35B
330
73
100
AcDbEntity
  8
$DDT_AUDIT_GENERATED_(31A)
  6
Continuous
 62
     7
100
AcDbLine
 10
96.292215354
 20
390.7772849391
 30
0.0
 11
96.4131104145
 21
390.7594155114
 31
0.0
  0
LINE
  5
35C
330
73
100
AcDbEntity
  8
$DDT_AUDIT_GENERATED_(31A)
  6
Continuous
 62
     7
100
AcDbLine
 10
94.7565010683
 20
391.0042779634
 30
0.0
 11
94.939121539
 21
390.9772849391
 31
0.0
  0
LINE
  5
35D
330
73
100
AcDbEntity
  8
$DDT_AUDIT_GENERATED_(31A)
  6
Continuous
 62
     7
100
AcDbLine
 10
95.4736784108
 20
390.7576197186
 30
0.0
 11
95.6067228521
 21
390.7772849391
 31
0.0
  0
LINE
  5
35E
330
73
100
AcDbEntity
  8
$DDT_AUDIT_GENERATED_(31A)
  6
Continuous
 62
     7
100
AcDbLine
 10
94.4968886204
 20
391.0042779634
 30
0.0
 11
94.4782308003
 21
391.001520162
 31
0.0
  0
LINE
  5
35F
330
73
100
AcDbEntity
  8
$DDT_AUDIT_GENERATED_(31A)
  6
Continuous
 62
     7
100
AcDbLine
 10
94.0173400616
 20
390.9772849391
 30
0.0
 11
94.1999605323
 21
391.0042779634
 31
0.0
  0
LINE
  5
360
330
73
100
AcDbEntity
  8
$DDT_AUDIT_GENERATED_(31A)
  6
Continuous
 62
     7
100
AcDbLine
 10
93.7756755331
 20
391.0042779634
 30
0.0
 11
93.9582960038
 21
390.9772849391
 31
0.0
  0
LINE
  5
361
330
73
100
AcDbEntity
  8
$DDT_AUDIT_GENERATED_(31A)
  6
Continuous
 62
     7
100
AcDbLine
 10
94.4782308003
 20
391.001520162
 30
0.0
 11
94.4595729801
 21
391.0042779634
 31
0.0
  0
LINE
  5
362
330
73
100
AcDbEntity
  8
$DDT_AUDIT_GENERATED_(31A)
  6
Continuous
 62
     7
100
AcDbLine
 10
95.3113898188
 20
390.7772849391
 30
0.0
 11
95.4444342601
 21
390.7576197186
 31
0.0
  0
LINE
  5
363
330
73
100
AcDbEntity
  8
$DDT_AUDIT_GENERATED_(31A)
  6
Continuous
 62
     7
100
AcDbLine
 10
95.4590563354
 20
390.7554584383
 30
0.0
 11
95.4940102895
 21
390.7502919149
 31
0.0
  0
LINE
  5
364
330
73
100
AcDbEntity
  8
$DDT_AUDIT_GENERATED_(31A)
  6
Continuous
 62
     7
100
AcDbLine
 10
93.1714684804
 20
390.9972324036
 30
0.0
 11
93.2191349971
 21
391.0042779634
 31
0.0
  0
LINE
  5
365
330
73
100
AcDbEntity
  8
$DDT_AUDIT_GENERATED_(31A)
  6
Continuous
 62
     7
100
AcDbLine
 10
93.5160630852
 20
391.0042779634
 30
0.0
 11
93.4974052651
 21
391.001520162
 31
0.0
  0
LINE
  5
366
330
73
100
AcDbEntity
  8
$DDT_AUDIT_GENERATED_(31A)
  6
Continuous
 62
     7
100
AcDbLine
 10
94.4928528756
 20
390.7576197186
 30
0.0
 11
94.5071827661
 21
390.7597378113
 31
0.0
  0
LINE
  5
367
330
73
100
AcDbEntity
  8
$DDT_AUDIT_GENERATED_(31A)
  6
Continuous
 62
     7
100
AcDbLine
 10
95.4241023814
 20
390.7502919149
 30
0.0
 11
95.4590563354
 21
390.7554584383
 31
0.0
  0
LINE
  5
368
330
73
100
AcDbEntity
  8
$DDT_AUDIT_GENERATED_(31A)
  6
Continuous
 62
     7
100
AcDbLine
 10
94.4782308003
 20
390.7554584383
 30
0.0
 11
94.5071827661
 21
390.7511790652
 31
0.0
  0
LINE
  5
369
330
73
100
AcDbEntity
  8
$DDT_AUDIT_GENERATED_(31A)
  6
Continuous
 62
     7
100
AcDbLine
 10
94.3305642836
 20
390.7772849391
 30
0.0
 11
94.4636087249
 21
390.7576197186
 31
0.0
  0
LINE
  5
36A
330
73
100
AcDbEntity
  8
$DDT_AUDIT_GENERATED_(31A)
  6
Continuous
 62
     7
100
AcDbLine
 10
93.4974052651
 20
391.001520162
 30
0.0
 11
93.4787474449
 21
391.0042779634
 31
0.0
  0
LINE
  5
36B
330
73
100
AcDbEntity
  8
$DDT_AUDIT_GENERATED_(31A)
  6
Continuous
 62
     7
100
AcDbLine
 10
92.7948499979
 20
391.0042779634
 30
0.0
 11
92.9714684804
 21
390.9781720895
 31
0.0
  0
LINE
  5
36C
330
73
100
AcDbEntity
  8
$DDT_AUDIT_GENERATED_(31A)
  6
Continuous
 62
     7
100
AcDbLine
 10
94.4432768462
 20
390.7502919149
 30
0.0
 11
94.4782308003
 21
390.7554584383
 31
0.0
  0
LINE
  5
36D
330
73
100
AcDbEntity
  8
$DDT_AUDIT_GENERATED_(31A)
  6
Continuous
 62
     7
100
AcDbLine
 10
93.5120273404
 20
390.7576197186
 30
0.0
 11
93.6450717817
 21
390.7772849391
 31
0.0
  0
LINE
  5
36E
330
73
100
AcDbEntity
  8
$DDT_AUDIT_GENERATED_(31A)
  6
Continuous
 62
     7
100
AcDbLine
 10
92.53523755
 20
391.0042779634
 30
0.0
 11
92.5165797299
 21
391.001520162
 31
0.0
  0
LINE
  5
36F
330
73
100
AcDbEntity
  8
$DDT_AUDIT_GENERATED_(31A)
  6
Continuous
 62
     7
100
AcDbLine
 10
92.0556889912
 20
390.9772849391
 30
0.0
 11
92.2383094619
 21
391.0042779634
 31
0.0
  0
LINE
  5
370
330
73
100
AcDbEntity
  8
$DDT_AUDIT_GENERATED_(31A)
  6
Continuous
 62
     7
100
AcDbLine
 10
91.8140244627
 20
391.0042779634
 30
0.0
 11
91.9966449334
 21
390.9772849391
 31
0.0
  0
LINE
  5
371
330
73
100
AcDbEntity
  8
$DDT_AUDIT_GENERATED_(31A)
  6
Continuous
 62
     7
100
AcDbLine
 10
92.5165797299
 20
391.001520162
 30
0.0
 11
92.4979219097
 21
391.0042779634
 31
0.0
  0
LINE
  5
372
330
73
100
AcDbEntity
  8
$DDT_AUDIT_GENERATED_(31A)
  6
Continuous
 62
     7
100
AcDbLine
 10
93.3497387484
 20
390.7772849391
 30
0.0
 11
93.4827831897
 21
390.7576197186
 31
0.0
  0
LINE
  5
373
330
73
100
AcDbEntity
  8
$DDT_AUDIT_GENERATED_(31A)
  6
Continuous
 62
     7
100
AcDbLine
 10
93.4974052651
 20
390.7554584383
 30
0.0
 11
93.5323592191
 21
390.7502919149
 31
0.0
  0
LINE
  5
374
330
73
100
AcDbEntity
  8
$DDT_AUDIT_GENERATED_(31A)
  6
Continuous
 62
     7
100
AcDbLine
 10
91.074863456
 20
390.9772849391
 30
0.0
 11
91.2574839267
 21
391.0042779634
 31
0.0
  0
LINE
  5
375
330
73
100
AcDbEntity
  8
$DDT_AUDIT_GENERATED_(31A)
  6
Continuous
 62
     7
100
AcDbLine
 10
92.5312018052
 20
390.7576197186
 30
0.0
 11
92.6642462465
 21
390.7772849391
 31
0.0
  0
LINE
  5
376
330
73
100
AcDbEntity
  8
$DDT_AUDIT_GENERATED_(31A)
  6
Continuous
 62
     7
100
AcDbLine
 10
93.462451311
 20
390.7502919149
 30
0.0
 11
93.4974052651
 21
390.7554584383
 31
0.0
  0
LINE
  5
377
330
73
100
AcDbEntity
  8
$DDT_AUDIT_GENERATED_(31A)
  6
Continuous
 62
     7
100
AcDbLine
 10
92.5165797299
 20
390.7554584383
 30
0.0
 11
92.5515336839
 21
390.7502919149
 31
0.0
  0
LINE
  5
378
330
73
100
AcDbEntity
  8
$DDT_AUDIT_GENERATED_(31A)
  6
Continuous
 62
     7
100
AcDbLine
 10
92.3689132132
 20
390.7772849391
 30
0.0
 11
92.5019576545
 21
390.7576197186
 31
0.0
  0
LINE
  5
379
330
73
100
AcDbEntity
  8
$DDT_AUDIT_GENERATED_(31A)
  6
Continuous
 62
     7
100
AcDbLine
 10
90.8331989275
 20
391.0042779634
 30
0.0
 11
91.0158193982
 21
390.9772849391
 31
0.0
  0
LINE
  5
37A
330
73
100
AcDbEntity
  8
$DDT_AUDIT_GENERATED_(31A)
  6
Continuous
 62
     7
100
AcDbLine
 10
92.4816257758
 20
390.7502919149
 30
0.0
 11
92.5165797299
 21
390.7554584383
 31
0.0
  0
LINE
  5
37B
330
73
100
AcDbEntity
  8
$DDT_AUDIT_GENERATED_(31A)
  6
Continuous
 62
     7
100
AcDbLine
 10
91.6357541947
 20
390.7702393794
 30
0.0
 11
91.6834207114
 21
390.7772849391
 31
0.0
  0
LINE
  5
37C
330
73
100
AcDbEntity
  8
$DDT_AUDIT_GENERATED_(31A)
  6
Continuous
 62
     7
100
AcDbLine
 10
90.5735864796
 20
391.0042779634
 30
0.0
 11
90.5549286595
 21
391.001520162
 31
0.0
  0
LINE
  5
37D
330
73
100
AcDbEntity
  8
$DDT_AUDIT_GENERATED_(31A)
  6
Continuous
 62
     7
100
AcDbLine
 10
90.100039909
 20
390.9781720895
 30
0.0
 11
90.2766583915
 21
391.0042779634
 31
0.0
  0
LINE
  5
37E
330
73
100
AcDbEntity
  8
$DDT_AUDIT_GENERATED_(31A)
  6
Continuous
 62
     7
100
AcDbLine
 10
89.8523733923
 20
391.0042779634
 30
0.0
 11
89.900039909
 21
390.9972324036
 31
0.0
  0
LINE
  5
37F
330
73
100
AcDbEntity
  8
$DDT_AUDIT_GENERATED_(31A)
  6
Continuous
 62
     7
100
AcDbLine
 10
90.5549286595
 20
391.001520162
 30
0.0
 11
90.5362708393
 21
391.0042779634
 31
0.0
  0
LINE
  5
380
330
73
100
AcDbEntity
  8
$DDT_AUDIT_GENERATED_(31A)
  6
Continuous
 62
     7
100
AcDbLine
 10
91.388087678
 20
390.7772849391
 30
0.0
 11
91.4357541947
 21
390.7702393794
 31
0.0
  0
LINE
  5
381
330
73
100
AcDbEntity
  8
$DDT_AUDIT_GENERATED_(31A)
  6
Continuous
 62
     7
100
AcDbLine
 10
89.1132123856
 20
390.9772849391
 30
0.0
 11
89.2958328563
 21
391.0042779634
 31
0.0
  0
LINE
  5
382
330
73
100
AcDbEntity
  8
$DDT_AUDIT_GENERATED_(31A)
  6
Continuous
 62
     7
100
AcDbLine
 10
89.5927609445
 20
391.0042779634
 30
0.0
 11
89.5741031243
 21
391.001520162
 31
0.0
  0
LINE
  5
383
330
73
100
AcDbEntity
  8
$DDT_AUDIT_GENERATED_(31A)
  6
Continuous
 62
     7
100
AcDbLine
 10
90.5695507348
 20
390.7576197186
 30
0.0
 11
90.7025951762
 21
390.7772849391
 31
0.0
  0
LINE
  5
384
330
73
100
AcDbEntity
  8
$DDT_AUDIT_GENERATED_(31A)
  6
Continuous
 62
     7
100
AcDbLine
 10
90.5549286595
 20
390.7554584383
 30
0.0
 11
90.5898826135
 21
390.7502919149
 31
0.0
  0
LINE
  5
385
330
73
100
AcDbEntity
  8
$DDT_AUDIT_GENERATED_(31A)
  6
Continuous
 62
     7
100
AcDbLine
 10
90.4072621428
 20
390.7772849391
 30
0.0
 11
90.5403065841
 21
390.7576197186
 31
0.0
  0
LINE
  5
386
330
73
100
AcDbEntity
  8
$DDT_AUDIT_GENERATED_(31A)
  6
Continuous
 62
     7
100
AcDbLine
 10
89.5741031243
 20
391.001520162
 30
0.0
 11
89.5554453041
 21
391.0042779634
 31
0.0
  0
LINE
  5
387
330
73
100
AcDbEntity
  8
$DDT_AUDIT_GENERATED_(31A)
  6
Continuous
 62
     7
100
AcDbLine
 10
88.8715478571
 20
391.0042779634
 30
0.0
 11
89.0541683278
 21
390.9772849391
 31
0.0
  0
LINE
  5
388
330
73
100
AcDbEntity
  8
$DDT_AUDIT_GENERATED_(31A)
  6
Continuous
 62
     7
100
AcDbLine
 10
90.5199747055
 20
390.7502919149
 30
0.0
 11
90.5549286595
 21
390.7554584383
 31
0.0
  0
LINE
  5
389
330
73
100
AcDbEntity
  8
$DDT_AUDIT_GENERATED_(31A)
  6
Continuous
 62
     7
100
AcDbLine
 10
89.5887251996
 20
390.7576197186
 30
0.0
 11
89.721769641
 21
390.7772849391
 31
0.0
  0
LINE
  5
38A
330
73
100
AcDbEntity
  8
$DDT_AUDIT_GENERATED_(31A)
  6
Continuous
 62
     7
100
AcDbLine
 10
88.6119354093
 20
391.0042779634
 30
0.0
 11
88.5932775891
 21
391.001520162
 31
0.0
  0
LINE
  5
38B
330
73
100
AcDbEntity
  8
$DDT_AUDIT_GENERATED_(31A)
  6
Continuous
 62
     7
100
AcDbLine
 10
88.1323868504
 20
390.9772849391
 30
0.0
 11
88.3150073211
 21
391.0042779634
 31
0.0
  0
LINE
  5
38C
330
73
100
AcDbEntity
  8
$DDT_AUDIT_GENERATED_(31A)
  6
Continuous
 62
     7
100
AcDbLine
 10
87.8907223219
 20
391.0042779634
 30
0.0
 11
88.0733427926
 21
390.9772849391
 31
0.0
  0
LINE
  5
38D
330
73
100
AcDbEntity
  8
$DDT_AUDIT_GENERATED_(31A)
  6
Continuous
 62
     7
100
AcDbLine
 10
88.5932775891
 20
391.001520162
 30
0.0
 11
88.5746197689
 21
391.0042779634
 31
0.0
  0
LINE
  5
38E
330
73
100
AcDbEntity
  8
$DDT_AUDIT_GENERATED_(31A)
  6
Continuous
 62
     7
100
AcDbLine
 10
89.4264366076
 20
390.7772849391
 30
0.0
 11
89.5594810489
 21
390.7576197186
 31
0.0
  0
LINE
  5
38F
330
73
100
AcDbEntity
  8
$DDT_AUDIT_GENERATED_(31A)
  6
Continuous
 62
     7
100
AcDbLine
 10
89.5741031243
 20
390.7554584383
 30
0.0
 11
89.6090570783
 21
390.7502919149
 31
0.0
  0
LINE
  5
390
330
73
100
AcDbEntity
  8
$DDT_AUDIT_GENERATED_(31A)
  6
Continuous
 62
     7
100
AcDbLine
 10
88.6078996644
 20
390.7576197186
 30
0.0
 11
88.7409441058
 21
390.7772849391
 31
0.0
  0
LINE
  5
391
330
73
100
AcDbEntity
  8
$DDT_AUDIT_GENERATED_(31A)
  6
Continuous
 62
     7
100
AcDbLine
 10
89.5391491703
 20
390.7502919149
 30
0.0
 11
89.5741031243
 21
390.7554584383
 31
0.0
  0
LINE
  5
392
330
73
100
AcDbEntity
  8
$DDT_AUDIT_GENERATED_(31A)
  6
Continuous
 62
     7
100
AcDbLine
 10
88.5932775891
 20
390.7554584383
 30
0.0
 11
88.6282315431
 21
390.7502919149
 31
0.0
  0
LINE
  5
393
330
73
100
AcDbEntity
  8
$DDT_AUDIT_GENERATED_(31A)
  6
Continuous
 62
     7
100
AcDbLine
 10
88.5643256232
 20
390.7597378113
 30
0.0
 11
88.5786555137
 21
390.7576197186
 31
0.0
  0
LINE
  5
394
330
73
100
AcDbEntity
  8
$DDT_AUDIT_GENERATED_(31A)
  6
Continuous
 62
     7
100
AcDbLine
 10
88.5643256232
 20
390.7511790652
 30
0.0
 11
88.5932775891
 21
390.7554584383
 31
0.0
  0
LINE
  5
395
330
73
100
AcDbEntity
  8
$DDT_AUDIT_GENERATED_(31A)
  6
Continuous
 62
     7
100
AcDbLine
 10
87.6270741292
 20
390.7576197186
 30
0.0
 11
87.7601185706
 21
390.7772849391
 31
0.0
  0
LINE
  5
396
330
73
100
AcDbEntity
  8
$DDT_AUDIT_GENERATED_(31A)
  6
Continuous
 62
     7
100
AcDbLine
 10
87.4647855372
 20
390.7772849391
 30
0.0
 11
87.5978299785
 21
390.7576197186
 31
0.0
  0
LINE
  5
397
330
73
100
AcDbEntity
  8
$DDT_AUDIT_GENERATED_(31A)
  6
Continuous
 62
     7
100
AcDbLine
 10
87.6124520539
 20
390.7554584383
 30
0.0
 11
87.6474060079
 21
390.7502919149
 31
0.0
  0
LINE
  5
398
330
73
100
AcDbEntity
  8
$DDT_AUDIT_GENERATED_(31A)
  6
Continuous
 62
     7
100
AcDbLine
 10
86.6583979749
 20
390.7594155114
 30
0.0
 11
86.7792930354
 21
390.7772849391
 31
0.0
  0
LINE
  5
399
330
73
100
AcDbEntity
  8
$DDT_AUDIT_GENERATED_(31A)
  6
Continuous
 62
     7
100
AcDbLine
 10
87.5774980999
 20
390.7502919149
 30
0.0
 11
87.6124520539
 21
390.7554584383
 31
0.0
  0
LINE
  5
39A
330
73
100
AcDbEntity
  8
$DDT_AUDIT_GENERATED_(31A)
  6
Continuous
 62
     7
100
AcDbLine
 10
86.483960002
 20
390.7772849391
 30
0.0
 11
86.5438831055
 21
390.7684277405
 31
0.0
  0
SPLINE
  5
39C
330
73
100
AcDbEntity
  8
$DDT_AUDIT_GENERATED_(39B)
  6
Continuous
 62
     7
100
AcDbSpline
210
0.0
220
0.0
230
1.0
 70
    11
 71
     6
 72
    14
 73
     7
 74
     0
 42
0.0000000000205832
 43
0.0000000001
 40
0.0
 40
0.0
 40
0.0
 40
0.0
 40
0.0
 40
0.0
 40
0.0
 40
1.0
 40
1.0
 40
1.0
 40
1.0
 40
1.0
 40
1.0
 40
1.0
 10
91.535754194673
 20
445.6579808093633
 30
0.0
 10
140.97033141271
 20
445.6579808093633
 30
0.0
 10
176.721508389348
 20
372.2085836894372
 30
0.0
 10
91.53575419467164
 20
299.8115268362353
 30
0.0
 10
6.349999999999994
 20
372.2085836894373
 30
0.0
 10
42.10117697663599
 20
445.6579808093633
 30
0.0
 10
91.535754194673
 20
445.6579808093633
 30
0.0
  0
ENDBLK
  5
39E
330
73
100
AcDbEntity
  8
0
100
AcDbBlockEnd
  0
BLOCK
  5
3C4
330
39F
100
AcDbEntity
  8
0
100
AcDbBlockBegin
  2
SE1
 70
     0
 10
0.0
 20
0.0
 30
0.0
  3
SE1
  1

  0
LINE
  5
3A1
330
39F
100
AcDbEntity
  8
$DDT_AUDIT_GENERATED_(75)
  6
Continuous
 62
     7
100
AcDbLine
 10
212.6644212404
 20
413.3850610423
 30
0.0
 11
212.6644212403
 21
412.3616712566
 31
0.0
  0
LINE
  5
3A2
330
39F
100
AcDbEntity
  8
$DDT_AUDIT_GENERATED_(75)
  6
Continuous
 62
     7
100
AcDbLine
 10
212.6644213053
 20
413.3850610418
 30
0.0
 11
212.6644213043
 21
421.6277170655
 31
0.0
  0
LINE
  5
3A3
330
39F
100
AcDbEntity
  8
$DDT_AUDIT_GENERATED_(75)
  6
Continuous
 62
     7
100
AcDbLine
 10
212.6644213043
 20
421.6277170655
 30
0.0
 11
212.6644213036
 21
422.1383913789
 31
0.0
  0
LINE
  5
3A4
330
39F
100
AcDbEntity
  8
$DDT_AUDIT_GENERATED_(75)
  6
Continuous
 62
     7
100
AcDbLine
 10
212.6644213036
 20
422.1383913789
 30
0.0
 11
212.6644212422
 21
422.138473804
 31
0.0
  0
SPLINE
  5
3A5
330
39F
100
AcDbEntity
  8
$DDT_AUDIT_GENERATED_(75)
  6
Continuous
 62
     7
100
AcDbSpline
210
0.0
220
0.0
230
1.0
 70
     8
 71
     3
 72
   165
 73
   161
 74
     0
 42
0.0000000000278704
 43
0.0000000001
 40
0.0
 40
0.0
 40
0.0
 40
0.0
 40
0.0076719457739157
 40
0.0156205402825757
 40
0.0313788210239023
 40
0.0472039198621212
 40
0.0550708475930905
 40
0.0629949771812638
 40
0.0788992790111132
 40
0.0946553906027559
 40
0.11041069735526
 40
0.1263152848111517
 40
0.1341346458373124
 40
0.1420871961726475
 40
0.1500150472644863
 40
0.1579224823305308
 40
0.1737132524225481
 40
0.1894644841018942
 40
0.2053922697865474
 40
0.2132573382038425
 40
0.2211116211675561
 40
0.2290588166217274
 40
0.2369769362292815
 40
0.2448134863271942
 40
0.2527840348850904
 40
0.2685630092607008
 40
0.2844513258618173
 40
0.3001794206312482
 40
0.3160426586828022
 40
0.3239309303880751
 40
0.3318431537479149
 40
0.3397725039034201
 40
0.3476019481004611
 40
0.355532123584744
 40
0.3634531888831451
 40
0.3714213141308968
 40
0.379285756575914
 40
0.3951198475415921
 40
0.4029528828867895
 40
0.4109110616320765
 40
0.4147798674208037
 40
0.4188406176314659
 40
0.4227858313054659
 40
0.4266769386817545
 40
0.4307044700398925
 40
0.4345888715077936
 40
0.4385785030817636
 40
0.4405561299781235
 40
0.4425337568744834
 40
0.4444948207279098
 40
0.4464558845813334
 40
0.4484572162482168
 40
0.4504585479151002
 40
0.4524245913610304
 40
0.4543906348069579
 40
0.4563484027499602
 40
0.45830617069296
 40
0.4603192586858469
 40
0.4623323466787311
 40
0.4642775274217068
 40
0.4662227081646825
 40
0.4682072494134086
 40
0.4701917906621322
 40
0.4721723265028612
 40
0.4741528623435928
 40
0.4761048306662671
 40
0.4780567989889415
 40
0.481987959567475
 40
0.4860319791324078
 40
0.4899912732586895
 40
0.4919206108215928
 40
0.4938499483844935
 40
0.4958514403912767
 40
0.4978529323980571
 40
0.4998072152785455
 40
0.5017614981590366
 40
0.5036951374303992
 40
0.5056287767017617
 40
0.5075577262128351
 40
0.5094866757239059
 40
0.5114009271155926
 40
0.5133151785072766
 40
0.5153089272833132
 40
0.5173026760593525
 40
0.5192047206922938
 40
0.5211067653252377
 40
0.5229918902862756
 40
0.5248770152473162
 40
0.5268311189279578
 40
0.5287852226085967
 40
0.5307165066624842
 40
0.5326477907163716
 40
0.5345562098068787
 40
0.5364646288973859
 40
0.5384122394267836
 40
0.5403598499561814
 40
0.5412913525900419
 40
0.5422228552239026
 40
0.5432162709238303
 40
0.544209686623758
 40
0.5461344975572966
 40
0.5480593084908351
 40
0.5500111008652279
 40
0.5519628932396232
 40
0.5538601702383142
 40
0.5557574472370053
 40
0.559624701785823
 40
0.5615711733075259
 40
0.5635176448292288
 40
0.5654471118541414
 40
0.5673765788790541
 40
0.5692889659821811
 40
0.5712013530853055
 40
0.5751639044261608
 40
0.5770659696597082
 40
0.5789680348932558
 40
0.5809581190664124
 40
0.5829482032395691
 40
0.5848398683215636
 40
0.5867315334035581
 40
0.5905454392424206
 40
0.5944189291409764
 40
0.5982924190395295
 40
0.6021593905785543
 40
0.6060263621175792
 40
0.6098574822963478
 40
0.6136886024751191
 40
0.6214668670588664
 40
0.6292092935376993
 40
0.6446473533062836
 40
0.6601574638740647
 40
0.6755396390903372
 40
0.6909493592445265
 40
0.7065157104251135
 40
0.7219290982371186
 40
0.7373700308424231
 40
0.7527821906934755
 40
0.7682299863178543
 40
0.7837264955541394
 40
0.7915190439660081
 40
0.7991391641756379
 40
0.8069042220705255
 40
0.8146148400379427
 40
0.8223138368530779
 40
0.8300461416649968
 40
0.8378363291907526
 40
0.8454598303169186
 40
0.8609362005861533
 40
0.8763558779241006
 40
0.8841674059296047
 40
0.8919334772654192
 40
0.8995340874089572
 40
0.9073337523531146
 40
0.9226757085855322
 40
0.938232651375393
 40
0.9536806417148241
 40
0.9691183586674454
 40
0.9767955984413499
 40
0.9845684222443949
 40
1.0
 40
1.0
 40
1.0
 40
1.0
 10
212.6644212421979
 20
422.138473804029
 30
0.0
 10
213.6352519179652
 20
422.1384737438217
 30
0.0
 10
215.6119213407186
 20
422.1384736212353
 30
0.0
 10
219.582690213471
 20
422.1384733749834
 30
0.0
 10
224.5851832216942
 20
422.1384730647487
 30
0.0
 10
229.5773418651697
 20
422.1384727551535
 30
0.0
 10
233.5781438400283
 20
422.1384725070386
 30
0.0
 10
237.5889683936814
 20
422.1384722583025
 30
0.0
 10
242.5981136235219
 20
422.1384719476544
 30
0.0
 10
248.5982391887069
 20
422.1384715755492
 30
0.0
 10
254.5984008982696
 20
422.1384712034418
 30
0.0
 10
259.5942227009089
 20
422.1384708936201
 30
0.0
 10
263.6026606131269
 20
422.1384706450316
 30
0.0
 10
266.6016986972905
 20
422.1384704590428
 30
0.0
 10
269.6118819311759
 20
422.1384702723627
 30
0.0
 10
273.6139366915482
 20
422.1384700241707
 30
0.0
 10
278.6059851860603
 20
422.1384697145829
 30
0.0
 10
284.6129525853902
 20
422.138469342053
 30
0.0
 10
289.6169782373876
 20
422.1384690317224
 30
0.0
 10
293.6217006265861
 20
422.1384687833647
 30
0.0
 10
296.6165355081511
 20
422.1384685976363
 30
0.0
 10
299.618083644344
 20
422.1384684114917
 30
0.0
 10
302.6173878112161
 20
422.1384682254865
 30
0.0
 10
305.6196471489496
 20
422.1384680392973
 30
0.0
 10
309.6166423145271
 20
422.1384677914189
 30
0.0
 10
314.6325318439489
 20
422.1384674803528
 30
0.0
 10
320.6300842307119
 20
422.1384671084073
 30
0.0
 10
326.6382995924209
 20
422.1384667358
 30
0.0
 10
331.6341655955609
 20
422.1384664259757
 30
0.0
 10
335.6409880981739
 20
422.1384661774873
 30
0.0
 10
338.6438329447739
 20
422.1384659912625
 30
0.0
 10
341.6392335843709
 20
422.138465805499
 30
0.0
 10
344.6369059389279
 20
422.1384656195943
 30
0.0
 10
347.6335299104699
 20
422.1384654337558
 30
0.0
 10
350.6477029595738
 20
422.1384652468275
 30
0.0
 10
353.6535580352859
 20
422.1384650604163
 30
0.0
 10
357.6607521387829
 20
422.1384648119226
 30
0.0
 10
361.6508449509919
 20
422.1384645644112
 30
0.0
 10
365.6528162849949
 20
422.1384643163447
 30
0.0
 10
368.1407284575209
 20
422.1384641616211
 30
0.0
 10
370.1509938584799
 20
422.1384640384755
 30
0.0
 10
371.6472878866039
 20
422.1384639309895
 30
0.0
 10
373.1419843145609
 20
422.1384637789274
 30
0.0
 10
374.6264718666129
 20
422.1384635690755
 30
0.0
 10
376.0955087827399
 20
422.1384632781038
 30
0.0
 10
377.5648788748389
 20
422.1384628828617
 30
0.0
 10
378.7680602920209
 20
422.1384624516172
 30
0.0
 10
379.7248483729888
 20
422.1384620273864
 30
0.0
 10
380.4325619211459
 20
422.1384616711845
 30
0.0
 10
381.1257743372439
 20
422.1384612741189
 30
0.0
 10
381.8142220114909
 20
422.1384608240493
 30
0.0
 10
382.4952413981209
 20
422.13846032448
 30
0.0
 10
383.1600814054329
 20
422.1384597694433
 30
0.0
 10
383.8063783195619
 20
422.1384591598326
 30
0.0
 10
384.4280072704839
 20
422.138458500295
 30
0.0
 10
385.0262759217518
 20
422.1384577814932
 30
0.0
 10
385.6079698190279
 20
422.1384569961926
 30
0.0
 10
386.1708969654299
 20
422.1384561463429
 30
0.0
 10
386.715463903709
 20
422.1384552421085
 30
0.0
 10
387.2336159618889
 20
422.1384543131227
 30
0.0
 10
387.7258477294329
 20
422.1384533505616
 30
0.0
 10
388.1977619605009
 20
422.1384523428449
 30
0.0
 10
388.6501211775048
 20
422.1384512900946
 30
0.0
 10
389.0765350762149
 20
422.1384502092563
 30
0.0
 10
389.4734950804129
 20
422.1384490990314
 30
0.0
 10
389.8440222404989
 20
422.1384479640359
 30
0.0
 10
390.3013546892309
 20
422.1384464179635
 30
0.0
 10
390.8119359592829
 20
422.1384443946781
 30
0.0
 10
391.3080497538559
 20
422.138441873547
 30
0.0
 10
391.6212253834559
 20
422.1384397189565
 30
0.0
 10
391.8070568309699
 20
422.1384379997983
 30
0.0
 10
391.9174192916709
 20
422.1384366999736
 30
0.0
 10
391.9987105377269
 20
422.1384353786876
 30
0.0
 10
392.0475358891649
 20
422.1384340475465
 30
0.0
 10
392.0659381826479
 20
422.1384327188895
 30
0.0
 10
392.0554400274269
 20
422.1384314112194
 30
0.0
 10
392.0114462615919
 20
422.1384301115769
 30
0.0
 10
391.9396221733469
 20
422.1384288117342
 30
0.0
 10
391.8408159674069
 20
422.1384275301832
 30
0.0
 10
391.7090465204388
 20
422.1384262589875
 30
0.0
 10
391.5518036714449
 20
422.1384249946084
 30
0.0
 10
391.3643938057269
 20
422.1384237431417
 30
0.0
 10
391.1404722660479
 20
422.1384224789633
 30
0.0
 10
390.8932906453589
 20
422.1384212337776
 30
0.0
 10
390.6212325562529
 20
422.1384200413367
 30
0.0
 10
390.3232622314119
 20
422.1384188825559
 30
0.0
 10
390.0045826035579
 20
422.1384177467952
 30
0.0
 10
389.6590085717219
 20
422.138416635652
 30
0.0
 10
389.2795429824389
 20
422.1384155326668
 30
0.0
 10
388.8746149891349
 20
422.1384144497989
 30
0.0
 10
388.4468628450849
 20
422.1384134070664
 30
0.0
 10
387.9978130612339
 20
422.1384124043133
 30
0.0
 10
387.5283837081869
 20
422.1384114383957
 30
0.0
 10
387.0374051328829
 20
422.1384105072995
 30
0.0
 10
386.5211585345589
 20
422.1384096098084
 30
0.0
 10
386.0740692850369
 20
422.1384088933685
 30
0.0
 10
385.7139146297379
 20
422.1384083513903
 30
0.0
 10
385.4400622364149
 20
422.1384079604357
 30
0.0
 10
385.1549734171139
 20
422.1384075767616
 30
0.0
 10
384.7628167138059
 20
422.1384070814171
 30
0.0
 10
384.2633571226639
 20
422.1384065008422
 30
0.0
 10
383.6478293794949
 20
422.1384058659636
 30
0.0
 10
383.0082699849939
 20
422.1384052826628
 30
0.0
 10
382.3575467459759
 20
422.1384047526505
 30
0.0
 10
381.7007555282609
 20
422.1384042802234
 30
0.0
 10
380.8084908064259
 20
422.1384037107953
 30
0.0
 10
379.8918171093559
 20
422.1384032264888
 30
0.0
 10
378.9559981964129
 20
422.1384028158939
 30
0.0
 10
378.2479375816249
 20
422.1384025459159
 30
0.0
 10
377.5365508304029
 20
422.1384023076592
 30
0.0
 10
376.8261189144659
 20
422.1384021016477
 30
0.0
 10
376.1138542035569
 20
422.1384019216902
 30
0.0
 10
375.1476715212139
 20
422.1384017133998
 30
0.0
 10
374.1756406064839
 20
422.1384015480896
 30
0.0
 10
373.2042490783149
 20
422.1384014185293
 30
0.0
 10
372.4763952570968
 20
422.1384013366811
 30
0.0
 10
371.7374189265798
 20
422.1384012657786
 30
0.0
 10
370.997763670901
 20
422.1384012056532
 30
0.0
 10
370.2699764032229
 20
422.1384011540624
 30
0.0
 10
369.3101340353959
 20
422.1384010928961
 30
0.0
 10
368.0975483247609
 20
422.1384010185762
 30
0.0
 10
366.6347528177339
 20
422.1384009274047
 30
0.0
 10
365.1650228260278
 20
422.13840083649
 30
0.0
 10
363.6962177958939
 20
422.1384007452738
 30
0.0
 10
362.2327223060289
 20
422.1384006545824
 30
0.0
 10
360.7737911155439
 20
422.1384005640689
 30
0.0
 10
358.8198979078509
 20
422.1384004429192
 30
0.0
 10
356.3710703495699
 20
422.1384002910214
 30
0.0
 10
352.4534259023639
 20
422.1384000481904
 30
0.0
 10
347.5574228933559
 20
422.1383997444663
 30
0.0
 10
341.6946558209719
 20
422.1383993808581
 30
0.0
 10
335.8354565173069
 20
422.1383990175041
 30
0.0
 10
329.9691504835419
 20
422.1383986536914
 30
0.0
 10
324.0988888479369
 20
422.1383982896447
 30
0.0
 10
318.2246808853579
 20
422.1383979253458
 30
0.0
 10
312.3699828381011
 20
422.1383975622609
 30
0.0
 10
306.5109318461312
 20
422.138397198904
 30
0.0
 10
300.6448473444857
 20
422.1383968351126
 30
0.0
 10
295.7429714455657
 20
422.1383965311163
 30
0.0
 10
291.831632505031
 20
422.1383962885499
 30
0.0
 10
288.8986544445391
 20
422.1383961066574
 30
0.0
 10
285.9760440219695
 20
422.1383959254085
 30
0.0
 10
283.0434523707191
 20
422.1383957435403
 30
0.0
 10
280.1150053620466
 20
422.1383955619292
 30
0.0
 10
277.1764894027102
 20
422.1383953796932
 30
0.0
 10
274.2475268817494
 20
422.1383951980511
 30
0.0
 10
270.3386074029618
 20
422.1383949556337
 30
0.0
 10
265.4642296997513
 20
422.1383946533444
 30
0.0
 10
260.5660585205249
 20
422.1383943495771
 30
0.0
 10
256.6435713872503
 20
422.13839410632
 30
0.0
 10
253.710532159244
 20
422.1383939244237
 30
0.0
 10
250.778994117802
 20
422.1383937426211
 30
0.0
 10
246.8887811795536
 20
422.1383935013652
 30
0.0
 10
241.991750359976
 20
422.1383931976696
 30
0.0
 10
236.1268778080842
 20
422.1383928339527
 30
0.0
 10
230.2498874125338
 20
422.1383924694834
 30
0.0
 10
225.3700179547031
 20
422.1383921668532
 30
0.0
 10
221.4613867929644
 20
422.1383919244541
 30
0.0
 10
217.5535324874967
 20
422.1383916821043
 30
0.0
 10
214.6171788623428
 20
422.1383915000023
 30
0.0
 10
212.6644213035687
 20
422.1383913789001
 30
0.0
  0
ARC
  5
3A6
330
39F
100
AcDbEntity
  8
$DDT_AUDIT_GENERATED_(75)
  6
Continuous
 62
     7
100
AcDbCircle
 10
286.796942276
 20
-23324.0852957066
 30
0.0
 40
23737.58611502429
100
AcDbArc
 50
89.7269557228
 51
90.1789351057
  0
SPLINE
  5
3A7
330
39F
100
AcDbEntity
  8
$DDT_AUDIT_GENERATED_(75)
  6
Continuous
 62
     7
100
AcDbSpline
210
0.0
220
0.0
230
1.0
 70
     8
 71
     3
 72
    12
 73
     8
 74
     0
 42
0.0000000011764519
 43
0.0000000001
 40
0.4994935064782045
 40
0.4994935064782045
 40
0.4994935064782045
 40
0.4994935064782045
 40
0.5000109870535346
 40
0.7174083767424085
 40
0.8732515919577781
 40
0.9675933696214658
 40
1.0
 40
1.0
 40
1.0
 40
1.0
 10
404.1715834528808
 20
413.204798457512
 30
0.0
 10
404.171586430318
 20
413.2047984733625
 30
0.0
 10
404.1721835371157
 20
413.2048085147773
 30
0.0
 10
403.6988668091707
 20
413.2072536780172
 30
0.0
 10
402.1080788338101
 20
413.2184628669034
 30
0.0
 10
400.7726743089554
 20
413.2265773438374
 30
0.0
 10
400.0924233465592
 20
413.2303247847574
 30
0.0
 10
399.9184944552298
 20
413.231277205094
 30
0.0
  0
LINE
  5
3A8
330
39F
100
AcDbEntity
  8
$DDT_AUDIT_GENERATED_(75)
  6
Continuous
 62
     7
100
AcDbLine
 10
212.6644212404
 20
412.3616712704
 30
0.0
 11
212.6644212729
 21
389.1775290296
 31
0.0
  0
SPLINE
  5
3A9
330
39F
100
AcDbEntity
  8
$DDT_AUDIT_GENERATED_(75)
  6
Continuous
 62
     7
100
AcDbSpline
210
0.0
220
0.0
230
1.0
 70
     8
 71
     3
 72
    30
 73
    26
 74
     0
 42
0.0000000001566762
 43
0.0000000001
 40
0.250051025217172
 40
0.250051025217172
 40
0.250051025217172
 40
0.250051025217172
 40
0.2812500000000013
 40
0.2812500000000013
 40
0.3125000000000015
 40
0.3125000000000015
 40
0.3437500000000017
 40
0.3437500000000017
 40
0.3750000000000019
 40
0.3750000000000019
 40
0.4375000000000018
 40
0.4375000000000018
 40
0.4687500000000018
 40
0.4687500000000018
 40
0.5000000000000018
 40
0.5000000000000018
 40
0.5312500000000017
 40
0.5312500000000017
 40
0.5625000000000017
 40
0.5625000000000017
 40
0.6250000000000016
 40
0.6250000000000016
 40
0.6875000000000014
 40
0.6875000000000014
 40
0.7497595466329992
 40
0.7497595466329992
 40
0.7497595466329992
 40
0.7497595466329992
 10
388.3897274247702
 20
395.6652427134414
 30
0.0
 10
388.3895894331242
 20
395.6651613958792
 30
0.0
 10
388.2799734502738
 20
395.7179832521159
 30
0.0
 10
387.8505859414982
 20
395.923261284775
 30
0.0
 10
387.5286174436738
 20
396.0767565306613
 30
0.0
 10
386.7154649595708
 20
396.4608269009399
 30
0.0
 10
386.2155819039866
 20
396.6959172613702
 30
0.0
 10
385.0832865586575
 20
397.211798189817
 30
0.0
 10
384.4517438197709
 20
397.4922823970792
 30
0.0
 10
382.3689087640527
 20
398.3687145120728
 30
0.0
 10
380.7818488035388
 20
398.9880066904998
 30
0.0
 10
378.1098500479163
 20
399.6630821767988
 30
0.0
 10
377.1895890224496
 20
399.8406254709029
 30
0.0
 10
375.2733193046715
 20
400.0179622765208
 30
0.0
 10
374.282771296049
 20
400.0160625087536
 30
0.0
 10
372.3410009639779
 20
399.782002150778
 30
0.0
 10
371.3728804494968
 20
399.5480837713058
 30
0.0
 10
369.5693636982277
 20
398.9034281364376
 30
0.0
 10
368.7104408287457
 20
398.4865044497794
 30
0.0
 10
366.3560980754315
 20
397.1271010918219
 30
0.0
 10
365.0181840279356
 20
396.0469804915157
 30
0.0
 10
362.7808674396294
 20
394.0489898594292
 30
0.0
 10
361.8654543981976
 20
393.1100792073357
 30
0.0
 10
360.5797687740868
 20
391.7587237484885
 30
0.0
 10
360.2182898031707
 20
391.3509510218213
 30
0.0
 10
360.2180060494662
 20
391.3507701820731
 30
0.0
  0
ARC
  5
3AA
330
39F
100
AcDbEntity
  8
$DDT_AUDIT_GENERATED_(75)
  6
Continuous
 62
     7
100
AcDbCircle
 10
217.5086138039
 20
366.0774217092
 30
0.0
 40
23.26155886688371
100
AcDbArc
 50
85.7526465898
 51
95.949719266
  0
ARC
  5
3AB
330
39F
100
AcDbEntity
  8
$DDT_AUDIT_GENERATED_(75)
  6
Continuous
 62
     7
100
AcDbCircle
 10
383.4453097185
 20
417.3119694081
 30
0.0
 40
21.56929703052845
100
AcDbArc
 50
327.6906368775
 51
346.881182436
  0
ARC
  5
3AC
330
39F
100
AcDbEntity
  8
$DDT_AUDIT_GENERATED_(75)
  6
Continuous
 62
     7
100
AcDbCircle
 10
379.7038021457
 20
420.8648048913
 30
0.0
 40
26.64821818336264
100
AcDbArc
 50
289.002629608
 51
325.6292505883
  0
ARC
  5
3AD
330
39F
100
AcDbEntity
  8
$DDT_AUDIT_GENERATED_(75)
  6
Continuous
 62
     7
100
AcDbCircle
 10
1320.2257808198
 20
-69602.3915760027
 30
0.0
 40
70000.32565555724
100
AcDbArc
 50
90.7857745466
 51
90.9012086244
  0
LINE
  5
3AE
330
39F
100
AcDbEntity
  8
$DDT_AUDIT_GENERATED_(75)
  6
Continuous
 62
     7
100
AcDbLine
 10
212.6644212729
 20
389.1775285309
 30
0.0
 11
215.1231936868
 21
389.2140586979
 31
0.0
  0
SPLINE
  5
3AF
330
39F
100
AcDbEntity
  8
$DDT_AUDIT_GENERATED_(75)
  6
Continuous
 62
     7
100
AcDbSpline
210
0.0
220
0.0
230
1.0
 70
     8
 71
     3
 72
    52
 73
    48
 74
     0
 42
0.0000000000554379
 43
0.0000000001
 40
0.0
 40
0.0
 40
0.0
 40
0.0
 40
0.0002554738062247
 40
0.000534922297349
 40
0.0012526921150507
 40
0.0035893075329095
 40
0.0072762529557724
 40
0.012348479807465
 40
0.0188164193454688
 40
0.0266853446421562
 40
0.0355301255102872
 40
0.0443281098974403
 40
0.0559207713267738
 40
0.0673616115297841
 40
0.07865473273798
 40
0.0869905606415543
 40
0.0952356107876274
 40
0.1034254951800934
 40
0.1115644836367468
 40
0.1251538902144876
 40
0.1385796765747155
 40
0.1518306167150428
 40
0.1649749362825431
 40
0.178053739730415
 40
0.2283924205319476
 40
0.2718591881264533
 40
0.3143626157203406
 40
0.4652644941188634
 40
0.5163895858554536
 40
0.5675146795707484
 40
0.6186397733231204
 40
0.6697180684889562
 40
0.719890222992334
 40
0.7401385942374856
 40
0.7601798892188607
 40
0.7800573782299666
 40
0.7927363261905003
 40
0.8068072867477204
 40
0.8222702599035905
 40
0.839125245658993
 40
0.8577591258270985
 40
0.8778424151963523
 40
0.89937511377215
 40
0.9223572215507709
 40
0.9467887385351053
 40
0.972669664715795
 40
1.0
 40
1.0
 40
1.0
 40
1.0
 10
392.979693812313
 20
421.8504147835208
 30
0.0
 10
392.9650910842918
 20
421.8603683493501
 30
0.0
 10
392.9387720155033
 20
421.8782605591963
 30
0.0
 10
392.879051021928
 20
421.9153894063176
 30
0.0
 10
392.7682792102852
 20
421.9761025651371
 30
0.0
 10
392.6488574080736
 20
422.0236373949947
 30
0.0
 10
392.5038495114133
 20
422.0635726268077
 30
0.0
 10
392.3228567994981
 20
422.0878102680369
 30
0.0
 10
392.0625428563886
 20
422.1030569607602
 30
0.0
 10
391.6789518307023
 20
422.1102558682633
 30
0.0
 10
391.1390118619568
 20
422.1131243158182
 30
0.0
 10
390.3490293758448
 20
422.1169341484221
 30
0.0
 10
389.2931878345415
 20
422.1200789374994
 30
0.0
 10
387.9290774070416
 20
422.1228577115019
 30
0.0
 10
386.5161487276777
 20
422.1249628732727
 30
0.0
 10
385.1219843499243
 20
422.126148871762
 30
0.0
 10
383.7728472172826
 20
422.126931723657
 30
0.0
 10
382.3592612053157
 20
422.1276714771404
 30
0.0
 10
380.5748408007415
 20
422.128456269923
 30
0.0
 10
378.4113931840444
 20
422.129148044118
 30
0.0
 10
375.8927345089317
 20
422.1295549966606
 30
0.0
 10
373.3847755457095
 20
422.1293505252827
 30
0.0
 10
370.8926401340258
 20
422.1291090358632
 30
0.0
 10
366.0562033300658
 20
422.1291319674107
 30
0.0
 10
359.3047480676817
 20
422.1289805594505
 30
0.0
 10
350.6944063962471
 20
422.1288658398092
 30
0.0
 10
335.7318035912667
 20
422.1286311754588
 30
0.0
 10
320.2854107578593
 20
422.128397031143
 30
0.0
 10
304.2944186361499
 20
422.128150912784
 30
0.0
 10
294.6060783272022
 20
422.128002607124
 30
0.0
 10
284.9206938565806
 20
422.1278565758201
 30
0.0
 10
275.2955033372126
 20
422.1277121588513
 30
0.0
 10
267.6207196274802
 20
422.1275995903387
 30
0.0
 10
261.9064670602273
 20
422.1275162862489
 30
0.0
 10
258.1058545553706
 20
422.127461196423
 30
0.0
 10
254.7833839226743
 20
422.1274136826594
 30
0.0
 10
251.838045113828
 20
422.1273720023118
 30
0.0
 10
249.1715592212696
 20
422.1273345139528
 30
0.0
 10
246.2412884575973
 20
422.1272934656284
 30
0.0
 10
243.0227662561091
 20
422.1272486312477
 30
0.0
 10
239.5124879319438
 20
422.127200191721
 30
0.0
 10
235.7063170250827
 20
422.1271484067074
 30
0.0
 10
231.6271930234383
 20
422.1270934575919
 30
0.0
 10
227.2663400223383
 20
422.1270353741302
 30
0.0
 10
222.6597405975614
 20
422.1269753011608
 30
0.0
 10
217.6606760058313
 20
422.1269109791613
 30
0.0
 10
214.5479779811765
 20
422.1268720164356
 30
0.0
 10
212.6489479787233
 20
422.1268480627594
 30
0.0
  0
ARC
  5
3B0
330
39F
100
AcDbEntity
  8
$DDT_AUDIT_GENERATED_(75)
  6
Continuous
 62
     7
100
AcDbCircle
 10
312.3385575612
 20
305.8925398523
 30
0.0
 40
141.2417251773388
100
AcDbArc
 50
49.4099975192
 51
55.218316695
  0
ARC
  5
3B1
330
39F
100
AcDbEntity
  8
$DDT_AUDIT_GENERATED_(75)
  6
Continuous
 62
     7
100
AcDbCircle
 10
403.5699996669
 20
412.5500103226
 30
0.0
 40
0.889188924699519
100
AcDbArc
 50
348.6595868988
 51
47.4247895488
  0
LINE
  5
3B2
330
39F
100
AcDbEntity
  8
02555038_GEHÄUSE
  6
Continuous
 62
     7
100
AcDbLine
 10
387.5478401185
 20
391.1502396981
 30
0.0
 11
362.3279356028
 21
387.3810997143
 31
0.0
  0
LINE
  5
3B3
330
39F
100
AcDbEntity
  8
02555038_GEHÄUSE
  6
Continuous
 62
     7
100
AcDbLine
 10
388.6774376936
 20
392.0487621807
 30
0.0
 11
379.970292781
 21
390.7474706546
 31
0.0
  0
LINE
  5
3B4
330
39F
100
AcDbEntity
  8
02555038_GEHÄUSE
  6
Continuous
 62
     7
100
AcDbLine
 10
369.692138432
 20
389.2113901951
 30
0.0
 11
360.9849935195
 21
387.9100986691
 31
0.0
  0
SPLINE
  5
3B5
330
39F
100
AcDbEntity
  8
02555038_GEHÄUSE
  6
Continuous
 62
     7
100
AcDbSpline
210
0.0
220
0.0
230
1.0
 70
     8
 71
     3
 72
    14
 73
    10
 74
     0
 42
0.0000000009541162
 43
0.0000000001
 40
0.0
 40
0.0
 40
0.0
 40
0.0
 40
0.25
 40
0.25
 40
0.5
 40
0.5
 40
0.75
 40
0.75
 40
1.0
 40
1.0
 40
1.0
 40
1.0
 10
379.9702927810483
 20
390.74747065462
 30
0.0
 10
379.1565298717702
 20
390.4416822679976
 30
0.0
 10
378.327148782413
 20
390.1702838499854
 30
0.0
 10
376.628427061262
 20
389.7154746926213
 30
0.0
 10
375.7698635493524
 20
389.5356520651493
 30
0.0
 10
374.048103114419
 20
389.2789315539179
 30
0.0
 10
373.1826604840797
 20
389.2013797771934
 30
0.0
 10
371.4433457001903
 20
389.1401500716532
 30
0.0
 10
370.5692837339598
 20
389.1562854718732
 30
0.0
 10
369.6921384320418
 20
389.21139019514
 30
0.0
  0
ARC
  5
3B6
330
39F
100
AcDbEntity
  8
02555038_GEHÄUSE
  6
Continuous
 62
     7
100
AcDbCircle
 10
376.1203631497
 20
381.3535427993
 30
0.0
 40
14.00000000000002
100
AcDbArc
 50
76.7132107017
 51
120.2867892983
  0
LINE
  5
3B7
330
39F
100
AcDbEntity
  8
02555038_GEHÄUSE
  6
Continuous
 62
     7
100
AcDbLine
 10
379.3379179795
 20
394.9787892527
 30
0.0
 11
379.970292781
 21
390.7474706546
 31
0.0
  0
LINE
  5
3B8
330
39F
100
AcDbEntity
  8
02555038_GEHÄUSE
  6
Continuous
 62
     7
100
AcDbLine
 10
369.692138432
 20
389.2113901951
 30
0.0
 11
369.0597636305
 21
393.4427087933
 31
0.0
  0
LINE
  5
3B9
330
39F
100
AcDbEntity
  8
02555038_GEHÄUSE
  6
Continuous
 62
     7
100
AcDbLine
 10
379.3379179795
 20
394.9787892527
 30
0.0
 11
369.0597636305
 21
393.4427087933
 31
0.0
  0
LINE
  5
3BA
330
39F
100
AcDbEntity
  8
02555038_GEHÄUSE
  6
Continuous
 62
     7
100
AcDbLine
 10
360.9849935195
 20
387.9100986691
 30
0.0
 11
362.3279356028
 21
387.3810997143
 31
0.0
  0
LINE
  5
3BB
330
39F
100
AcDbEntity
  8
02555038_GEHÄUSE
  6
Continuous
 62
     7
100
AcDbLine
 10
387.5478401185
 20
391.1502396981
 30
0.0
 11
388.6774376936
 21
392.0487621807
 31
0.0
  0
LINE
  5
3BC
330
39F
100
AcDbEntity
  8
02555038_GEHÄUSE
  6
Continuous
 62
     7
100
AcDbLine
 10
388.6774376936
 20
392.0487621807
 30
0.0
 11
388.1174587632
 21
395.795668694
 31
0.0
  0
LINE
  5
3BD
330
39F
100
AcDbEntity
  8
02555038_GEHÄUSE
  6
Continuous
 62
     7
100
AcDbLine
 10
360.4350797936
 20
391.5896573263
 30
0.0
 11
360.9849935195
 21
387.9100986691
 31
0.0
  0
LINE
  5
3BE
330
39F
100
AcDbEntity
  8
$DDT_AUDIT_GENERATED_(39B)
  6
Continuous
 62
     7
100
AcDbLine
 10
204.6644211203
 20
445.6579808094
 30
0.0
 11
204.6644211203
 21
365.6515590428
 31
0.0
  0
LINE
  5
3BF
330
39F
100
AcDbEntity
  8
$DDT_AUDIT_GENERATED_(39B)
  6
Continuous
 62
     7
100
AcDbLine
 10
212.6644212398
 20
444.6579808094
 30
0.0
 11
212.6644212398
 21
366.6515762099
 31
0.0
  0
LINE
  5
3C0
330
39F
100
AcDbEntity
  8
$DDT_AUDIT_GENERATED_(39B)
  6
Continuous
 62
     7
100
AcDbLine
 10
211.6644212398
 20
445.6579808094
 30
0.0
 11
204.6644211203
 21
445.6579808094
 31
0.0
  0
LINE
  5
3C1
330
39F
100
AcDbEntity
  8
$DDT_AUDIT_GENERATED_(39B)
  6
Continuous
 62
     7
100
AcDbLine
 10
204.6644211203
 20
365.6515590428
 30
0.0
 11
211.6644212398
 21
365.6515590428
 31
0.0
  0
SPLINE
  5
3C2
330
39F
100
AcDbEntity
  8
$DDT_AUDIT_GENERATED_(39B)
  6
Continuous
 62
     7
100
AcDbSpline
210
0.0
220
0.0
230
1.0
 70
     8
 71
     3
 72
    13
 73
     9
 74
     0
 42
0.0000000063014691
 43
0.0000000001
 40
0.0
 40
0.0
 40
0.0
 40
0.0
 40
0.1294353894207187
 40
0.2550301634045701
 40
0.5000000700765443
 40
0.7449699367923123
 40
0.8705646657481416
 40
1.0
 40
1.0
 40
1.0
 40
1.0
 10
211.6644212397524
 20
365.6515766449236
 30
0.0
 10
211.7386006173443
 20
365.6552576526021
 30
0.0
 10
211.8625120787887
 20
365.6633309771465
 30
0.0
 10
212.1174575755105
 20
365.7434020347733
 30
0.0
 10
212.3890472790624
 20
365.9269504388386
 30
0.0
 10
212.5725957992493
 20
366.1985400423666
 30
0.0
 10
212.6526669015896
 20
366.4534854504284
 30
0.0
 10
212.6607402300794
 20
366.5773968641474
 30
0.0
 10
212.6644212397524
 20
366.6515762099453
 30
0.0
  0
SPLINE
  5
3C3
330
39F
100
AcDbEntity
  8
$DDT_AUDIT_GENERATED_(39B)
  6
Continuous
 62
     7
100
AcDbSpline
210
0.0
220
0.0
230
1.0
 70
     8
 71
     3
 72
    13
 73
     9
 74
     0
 42
0.0000000063014677
 43
0.0000000001
 40
0.0
 40
0.0
 40
0.0
 40
0.0
 40
0.1294353618363176
 40
0.2550301133061735
 40
0.5000000000000013
 40
0.7449698866938298
 40
0.870564638163682
 40
1.0
 40
1.0
 40
1.0
 40
1.0
 10
212.6644212397524
 20
444.6579808093633
 30
0.0
 10
212.660740230276
 20
444.7321601871913
 30
0.0
 10
212.6526669020031
 20
444.8560716517223
 30
0.0
 10
212.572595804605
 20
445.1110171595623
 30
0.0
 10
212.3890473025591
 20
445.3826068721699
 30
0.0
 10
212.1174575899514
 20
445.5661553742158
 30
0.0
 10
211.8625120821116
 20
445.6462264716139
 30
0.0
 10
211.7386006175805
 20
445.6542997998869
 30
0.0
 10
211.6644212397524
 20
445.6579808093633
 30
0.0
  0
ENDBLK
  5
3C5
330
39F
100
AcDbEntity
  8
0
100
AcDbBlockEnd
  0
BLOCK
  5
3D9
330
3C6
100
AcDbEntity
  8
0
100
AcDbBlockBegin
  2
SE2
 70
     0
 10
0.0
 20
0.0
 30
0.0
  3
SE2
  1

  0
LINE
  5
3C8
330
3C6
100
AcDbEntity
  8
$DDT_AUDIT_GENERATED_(75)
  6
Continuous
 62
     7
100
AcDbLine
 10
115.3251746788
 20
298.1616920944
 30
0.0
 11
115.346683125
 21
298.1616920945
 31
0.0
  0
LINE
  5
3C9
330
3C6
100
AcDbEntity
  8
$DDT_AUDIT_GENERATED_(75)
  6
Continuous
 62
     7
100
AcDbLine
 10
67.7443218987
 20
298.1616920944
 30
0.0
 11
67.7226377272
 21
298.1616920945
 31
0.0
  0
LINE
  5
3CA
330
3C6
100
AcDbEntity
  8
$DDT_AUDIT_GENERATED_(75)
  6
Continuous
 62
     7
100
AcDbLine
 10
67.7443219061
 20
298.1616920295
 30
0.0
 11
68.4906872877
 21
298.1616920306
 31
0.0
  0
LINE
  5
3CB
330
3C6
100
AcDbEntity
  8
$DDT_AUDIT_GENERATED_(75)
  6
Continuous
 62
     7
100
AcDbLine
 10
68.4906872877
 20
298.1616920306
 30
0.0
 11
69.0372177979
 21
298.1616920313
 31
0.0
  0
LINE
  5
3CC
330
3C6
100
AcDbEntity
  8
$DDT_AUDIT_GENERATED_(75)
  6
Continuous
 62
     7
100
AcDbLine
 10
69.0372177979
 20
298.1616920313
 30
0.0
 11
114.0366391239
 21
298.1616920927
 31
0.0
  0
LINE
  5
3CD
330
3C6
100
AcDbEntity
  8
$DDT_AUDIT_GENERATED_(75)
  6
Continuous
 62
     7
100
AcDbLine
 10
114.0366391239
 20
298.1616920927
 30
0.0
 11
114.5829172609
 21
298.1616920934
 31
0.0
  0
LINE
  5
3CE
330
3C6
100
AcDbEntity
  8
$DDT_AUDIT_GENERATED_(75)
  6
Continuous
 62
     7
100
AcDbLine
 10
114.5829172609
 20
298.1616920934
 30
0.0
 11
115.32517468
 21
298.1616920944
 31
0.0
  0
SPLINE
  5
3CF
330
3C6
100
AcDbEntity
  8
$DDT_AUDIT_GENERATED_(75)
  6
Continuous
 62
     7
100
AcDbSpline
210
0.0
220
0.0
230
1.0
 70
     8
 71
     3
 72
    57
 73
    53
 74
     0
 42
0.0000000000262461
 43
0.0000000001
 40
0.0
 40
0.0
 40
0.0
 40
0.0
 40
0.2494131331139172
 40
0.3741196875811565
 40
0.4052962778674335
 40
0.4091933807207149
 40
0.4130911493224388
 40
0.4208997218943262
 40
0.4271596542330064
 40
0.4318642551500925
 40
0.4365790191227709
 40
0.4397299430451117
 40
0.4428873322027864
 40
0.4452606923610576
 40
0.4476378313148313
 40
0.452406990778528
 40
0.4544018195127994
 40
0.456398444979972
 40
0.4603828967980275
 40
0.4626497991607241
 40
0.464351685775435
 40
0.4683233559524351
 40
0.4722937924257102
 40
0.4762634151394654
 40
0.4841955578859392
 40
0.4999953945356858
 40
0.5079265643284087
 40
0.5158544281923323
 40
0.5181230064131549
 40
0.5203953944073223
 40
0.5215275076926401
 40
0.5226599075689201
 40
0.5249317924063106
 40
0.526633755913415
 40
0.5283340947938875
 40
0.5317391609778138
 40
0.5357085048359724
 40
0.5396793111853028
 40
0.5419506916249714
 40
0.5430928441440307
 40
0.5442357978808233
 40
0.5476536138554222
 40
0.5634230080833234
 40
0.5712736153250355
 40
0.579100358500197
 40
0.5869088838108043
 40
0.5908066419848571
 40
0.5947036730153588
 40
0.6258803058654956
 40
0.6882335878539023
 40
0.7505868670123477
 40
1.0
 40
1.0
 40
1.0
 40
1.0
 10
114.5829172609192
 20
298.1616920934213
 30
0.0
 10
113.547102337631
 20
266.5216372298602
 30
0.0
 10
111.9933800029075
 20
219.0615564681965
 30
0.0
 10
110.2989799289177
 20
167.6468134651987
 30
0.0
 10
109.6344405840638
 20
147.3774610994013
 30
0.0
 10
109.4696200967595
 20
142.4337050986453
 30
0.0
 10
109.4035677674182
 20
140.4543453225936
 30
0.0
 10
109.3193521505082
 20
138.1753505609111
 30
0.0
 10
109.1497015816116
 20
135.7979082127785
 30
0.0
 10
108.9223740690088
 20
133.8202784095047
 30
0.0
 10
108.6614530667532
 20
132.2453291964556
 30
0.0
 10
108.3593414580965
 20
130.8787981221575
 30
0.0
 10
108.0687445860189
 20
129.815334417388
 30
0.0
 10
107.7548733532284
 20
128.8616153582938
 30
0.0
 10
107.3235710112421
 20
127.7326647649953
 30
0.0
 10
106.8236741025348
 20
126.68231725646
 30
0.0
 10
106.2602722205841
 20
125.7232636519319
 30
0.0
 10
105.6993265147813
 20
124.8800154286122
 30
0.0
 10
105.0457616175861
 20
124.059435899402
 30
0.0
 10
104.3610784737642
 20
123.317347165589
 30
0.0
 10
103.6494140451508
 20
122.6034631984477
 30
0.0
 10
102.7302283515148
 20
121.7926321219099
 30
0.0
 10
101.5161569071399
 20
120.8886553098605
 30
0.0
 10
99.7994544147908
 20
119.8297314225322
 30
0.0
 10
96.5857637345512
 20
118.3688025164032
 30
0.0
 10
92.53357268982208
 20
117.6748997606587
 30
0.0
 10
88.51480448195971
 20
118.0163001635038
 30
0.0
 10
86.27751740199704
 20
118.6061019227316
 30
0.0
 10
84.79666474083834
 20
119.1652669933859
 30
0.0
 10
84.1377650551504
 20
119.4566944236714
 30
0.0
 10
83.61962480648437
 20
119.7080072846038
 30
0.0
 10
83.10680387021199
 20
119.9698943278407
 30
0.0
 10
82.54072445393432
 20
120.2861746056251
 30
0.0
 10
81.92876706956808
 20
120.666176470903
 30
0.0
 10
81.21032568689515
 20
121.1464261278253
 30
0.0
 10
80.28917195959322
 20
121.8397183337357
 30
0.0
 10
79.20891738450695
 20
122.7945439027712
 30
0.0
 10
78.31468957474272
 20
123.7349210397405
 30
0.0
 10
77.71384385007266
 20
124.4547945647291
 30
0.0
 10
77.36489486970136
 20
124.9160878093289
 30
0.0
 10
76.94810989855598
 20
125.5079479198603
 30
0.0
 10
75.59482406553575
 20
127.7095562828692
 30
0.0
 10
74.55262682082957
 20
131.0545080017606
 30
0.0
 10
73.98577415884641
 20
135.0015119497723
 30
0.0
 10
73.76165444844682
 20
137.9770141081338
 30
0.0
 10
73.67013307708244
 20
140.4543185056919
 30
0.0
 10
73.6039906020711
 20
142.4337145780494
 30
0.0
 10
73.43929033656259
 20
147.3774396361867
 30
0.0
 10
73.03414790383893
 20
159.7368374336428
 30
0.0
 10
72.38195638874717
 20
179.5116978881044
 30
0.0
 10
70.82338693940167
 20
226.971633196063
 30
0.0
 10
69.52744269599944
 20
266.5216656513816
 30
0.0
 10
68.4906872876817
 20
298.16169203056
 30
0.0
  0
ARC
  5
3D0
330
3C6
100
AcDbEntity
  8
$DDT_AUDIT_GENERATED_(75)
  6
Continuous
 62
     7
100
AcDbCircle
 10
91.5367180473
 20
127.3957981347
 30
0.0
 40
21.04579813467091
100
AcDbArc
 50
232.2772024141
 51
307.723094059
  0
SPLINE
  5
3D1
330
3C6
100
AcDbEntity
  8
$DDT_AUDIT_GENERATED_(75)
  6
Continuous
 62
     7
100
AcDbSpline
210
0.0
220
0.0
230
1.0
 70
     8
 71
     3
 72
    55
 73
    51
 74
     0
 42
0.0000000000526419
 43
0.0000000001
 40
0.0
 40
0.0
 40
0.0
 40
0.0
 40
0.020036283103993
 40
0.0384718880519504
 40
0.055306814995702
 40
0.0705410641975926
 40
0.0841746359615792
 40
0.096006694157186
 40
0.1062947325663853
 40
0.1152033896321788
 40
0.1239464906026461
 40
0.1558229480651711
 40
0.188587315185235
 40
0.3060490246888086
 40
0.5158020114259939
 40
0.5498528186199305
 40
0.583903625521113
 40
0.6179544321617767
 40
0.6520052390149825
 40
0.6861044877261195
 40
0.7206949976212191
 40
0.7561377882371221
 40
0.7681407085252308
 40
0.780376998242854
 40
0.7928466882399432
 40
0.8053233168091968
 40
0.8162073817360702
 40
0.8251877190569334
 40
0.8295882608684096
 40
0.8335692944941191
 40
0.8385248895173104
 40
0.8446784738263703
 40
0.8520301754857776
 40
0.8605796230406815
 40
0.8696352974846435
 40
0.8774538054914446
 40
0.8840561720540456
 40
0.8892890553356825
 40
0.8934243173752495
 40
0.8983384962378683
 40
0.9043890914732545
 40
0.9135915869964197
 40
0.9228426635173739
 40
0.9320180847311829
 40
0.9424301068453498
 40
0.9532718680539758
 40
0.964614412859007
 40
0.9764332890776554
 40
0.9882731130765752
 40
1.0
 40
1.0
 40
1.0
 40
1.0
 10
67.70750744114079
 20
298.1616490841836
 30
0.0
 10
67.73080619215744
 20
296.7664484743101
 30
0.0
 10
67.76844952055993
 20
294.5120748620099
 30
0.0
 10
67.82799099016906
 20
290.9440716739356
 30
0.0
 10
67.88103223252243
 20
287.7625883396133
 30
0.0
 10
67.92930438195455
 20
284.8658366698312
 30
0.0
 10
67.97219852330018
 20
282.2902080317525
 30
0.0
 10
68.00987268996121
 20
280.026695416205
 30
0.0
 10
68.04255321878398
 20
278.0625023498583
 30
0.0
 10
68.0719670197955
 20
276.2938027600873
 30
0.0
 10
68.12409010774678
 20
273.1584883317562
 30
0.0
 10
68.20128113757055
 20
268.5130116522077
 30
0.0
 10
68.39265831950144
 20
256.9852403642008
 30
0.0
 10
68.77058774989297
 20
234.1971974098184
 30
0.0
 10
69.1492361137479
 20
211.3277034773376
 30
0.0
 10
69.44030851247939
 20
193.7384367814659
 30
0.0
 10
69.54729989284414
 20
187.2717945999811
 30
0.0
 10
69.65427388399915
 20
180.8051521050256
 30
0.0
 10
69.76128408535656
 20
174.3354427767796
 30
0.0
 10
69.86884779635966
 20
167.8315679307122
 30
0.0
 10
69.97785686371246
 20
161.239574792037
 30
0.0
 10
70.06368690913199
 20
156.0463638735691
 30
0.0
 10
70.12607318648548
 20
152.2682609669361
 30
0.0
 10
70.16456076760159
 20
149.9444467204374
 30
0.0
 10
70.20374873969443
 20
147.5906484217048
 30
0.0
 10
70.24139203493866
 20
145.3224491786695
 30
0.0
 10
70.27532238281002
 20
143.2751385507399
 30
0.0
 10
70.30092496798267
 20
141.7390775879336
 30
0.0
 10
70.31942230071935
 20
140.6400072613695
 30
0.0
 10
70.33372723872495
 20
139.7957191166399
 30
0.0
 10
70.34997937885862
 20
138.8404582157681
 30
0.0
 10
70.36991238652612
 20
137.671823627234
 30
0.0
 10
70.3935848160946
 20
136.2756834037291
 30
0.0
 10
70.4185615217013
 20
134.6958023699734
 30
0.0
 10
70.44690436886636
 20
133.0864126946619
 30
0.0
 10
70.48291357963646
 20
131.6004742127518
 30
0.0
 10
70.52430995661985
 20
130.3568112572131
 30
0.0
 10
70.56957456663346
 20
129.3466683770201
 30
0.0
 10
70.62074101578058
 20
128.4438517329199
 30
0.0
 10
70.68720958056002
 20
127.4901313558236
 30
0.0
 10
70.79752517772366
 20
126.2180236569492
 30
0.0
 10
70.98217046034581
 20
124.6772050538852
 30
0.0
 10
71.27234923574582
 20
122.9515170371102
 30
0.0
 10
71.68241466452828
 20
121.1711474986669
 30
0.0
 10
72.27014931258836
 20
119.3337467969093
 30
0.0
 10
73.08912853174868
 20
117.4363686464503
 30
0.0
 10
74.16590494106626
 20
115.5634003887983
 30
0.0
 10
75.474127393406
 20
113.7846800472786
 30
0.0
 10
77.01905875519381
 20
112.0939739007001
 30
0.0
 10
78.08562076834613
 20
111.2091758464663
 30
0.0
 10
78.71822132229349
 20
110.6927246830708
 30
0.0
  0
SPLINE
  5
3D2
330
3C6
100
AcDbEntity
  8
$DDT_AUDIT_GENERATED_(75)
  6
Continuous
 62
     7
100
AcDbSpline
210
0.0
220
0.0
230
1.0
 70
     8
 71
     3
 72
    53
 73
    49
 74
     0
 42
0.000000000052642
 43
0.0000000001
 40
0.0
 40
0.0
 40
0.0
 40
0.0
 40
0.0117262052727637
 40
0.0235655115498828
 40
0.0353844910083449
 40
0.0467255816743925
 40
0.0575698346799505
 40
0.0679816562324973
 40
0.0765926674939989
 40
0.0852709445475824
 40
0.0939858318731706
 40
0.1015989859739538
 40
0.1074960811870782
 40
0.1115702415252168
 40
0.1168450697320589
 40
0.1233978221008204
 40
0.131229143332806
 40
0.1401899121893442
 40
0.1493985657506126
 40
0.157164113803
 40
0.1634862566380328
 40
0.168365220584708
 40
0.172850829316624
 40
0.1781316979000175
 40
0.1842089813401439
 40
0.1910826928732674
 40
0.2100237592256768
 40
0.2290479082332256
 40
0.2475185758411924
 40
0.2654369291175231
 40
0.2830321967064124
 40
0.3004761207963318
 40
0.3618418988750213
 40
0.4230198747783896
 40
0.4841978496312659
 40
0.7511562896150712
 40
0.7903102102648389
 40
0.8294631365658367
 40
0.8678423637713906
 40
0.8777339165931473
 40
0.8875249811945979
 40
0.8980049822465145
 40
0.9104151821342182
 40
0.9247706829366628
 40
0.940763340964687
 40
0.9586324462749607
 40
0.9783779992028879
 40
1.0
 40
1.0
 40
1.0
 40
1.0
 10
104.3511724406546
 20
110.6927456749823
 30
0.0
 10
104.983770439897
 20
111.2091246171781
 30
0.0
 10
106.050346144618
 20
112.0938019455547
 30
0.0
 10
107.5952997642109
 20
113.784369910862
 30
0.0
 10
108.9037125089236
 20
115.5628306615067
 30
0.0
 10
109.9800734728216
 20
117.4361837532274
 30
0.0
 10
110.7985756059514
 20
119.3337094601193
 30
0.0
 10
111.3772949144051
 20
121.1366753911339
 30
0.0
 10
111.7725360544778
 20
122.8463593783704
 30
0.0
 10
112.0557719276775
 20
124.4687108532285
 30
0.0
 10
112.2545022306733
 20
126.0398378805793
 30
0.0
 10
112.3802013383649
 20
127.4414662559772
 30
0.0
 10
112.4557628688422
 20
128.5522454714605
 30
0.0
 10
112.5082512295078
 20
129.5160988610232
 30
0.0
 10
112.5510129168073
 20
130.5219944486765
 30
0.0
 10
112.5908484778133
 20
131.7660295703627
 30
0.0
 10
112.625384679565
 20
133.2436624327234
 30
0.0
 10
112.6538329957021
 20
134.8895935307511
 30
0.0
 10
112.6799373344103
 20
136.5313945259731
 30
0.0
 10
112.7051112421452
 20
138.0061308273492
 30
0.0
 10
112.7255904955504
 20
139.2067832623931
 30
0.0
 10
112.7424405096698
 20
140.1998059033319
 30
0.0
 10
112.7580771194125
 20
141.1269137770436
 30
0.0
 10
112.7748977761336
 20
142.1298813748574
 30
0.0
 10
112.7941087594963
 20
143.2840270316634
 30
0.0
 10
112.8275765582695
 20
145.302917115279
 30
0.0
 10
112.8748001888291
 20
148.1413909830703
 30
0.0
 10
112.9339239716991
 20
151.7140014596971
 30
0.0
 10
112.991967918118
 20
155.2218705153572
 30
0.0
 10
113.0484662752366
 20
158.639286751216
 30
0.0
 10
113.1039026721104
 20
161.9917059274197
 30
0.0
 10
113.2048061335347
 20
168.0945167596555
 30
0.0
 10
113.3513697564427
 20
176.9562823376237
 30
0.0
 10
113.5437739465913
 20
188.5865824625453
 30
0.0
 10
113.9516054344253
 20
213.2316960680794
 30
0.0
 10
114.3365383982197
 20
236.4826041630152
 30
0.0
 10
114.6991220236291
 20
258.3392154929732
 30
0.0
 10
114.8217142441591
 20
265.725885769372
 30
0.0
 10
114.9136574229097
 20
271.2601376485612
 30
0.0
 10
114.9747351251151
 20
274.9356644184421
 30
0.0
 10
115.0064776451838
 20
276.8450790584717
 30
0.0
 10
115.0408858158247
 20
278.9138841156164
 30
0.0
 10
115.0801251263672
 20
281.2718550089701
 30
0.0
 10
115.1251774540221
 20
283.977763694539
 30
0.0
 10
115.1760942028305
 20
287.033838558356
 30
0.0
 10
115.2323875981552
 20
290.4108800632474
 30
0.0
 10
115.2961360361777
 20
294.2322421227225
 30
0.0
 10
115.3366154592817
 20
296.6560279649471
 30
0.0
 10
115.361762251488
 20
298.1616487244563
 30
0.0
  0
LINE
  5
3D3
330
3C6
100
AcDbEntity
  8
$DDT_AUDIT_GENERATED_(39B)
  6
Continuous
 62
     7
100
AcDbLine
 10
51.5478807463
 20
306.1616922145
 30
0.0
 11
131.523627643
 21
306.1616922145
 31
0.0
  0
LINE
  5
3D4
330
3C6
100
AcDbEntity
  8
$DDT_AUDIT_GENERATED_(39B)
  6
Continuous
 62
     7
100
AcDbLine
 10
130.5236031606
 20
298.1616920951
 30
0.0
 11
52.5479052288
 21
298.1616920951
 31
0.0
  0
LINE
  5
3D5
330
3C6
100
AcDbEntity
  8
$DDT_AUDIT_GENERATED_(39B)
  6
Continuous
 62
     7
100
AcDbLine
 10
131.523627643
 20
299.1616920951
 30
0.0
 11
131.523627643
 21
306.1616922145
 31
0.0
  0
LINE
  5
3D6
330
3C6
100
AcDbEntity
  8
$DDT_AUDIT_GENERATED_(39B)
  6
Continuous
 62
     7
100
AcDbLine
 10
51.5478807463
 20
306.1616922145
 30
0.0
 11
51.5478807463
 21
299.1616920951
 31
0.0
  0
ARC
  5
3D7
330
3C6
100
AcDbEntity
  8
$DDT_AUDIT_GENERATED_(39B)
  6
Continuous
 62
     7
100
AcDbCircle
 10
52.5475740093
 20
299.1613602945
 30
0.0
 40
0.9996682542517037
100
AcDbArc
 50
179.9809829157
 51
270.0189837752
  0
ARC
  5
3D8
330
3C6
100
AcDbEntity
  8
$DDT_AUDIT_GENERATED_(39B)
  6
Continuous
 62
     7
100
AcDbCircle
 10
130.52393438
 20
299.1613602945
 30
0.0
 40
0.9996682542517017
100
AcDbArc
 50
269.9810162248
 51
0.0190170843
  0
ENDBLK
  5
3DA
330
3C6
100
AcDbEntity
  8
0
100
AcDbBlockEnd
  0
ENDSEC
  0
SECTION
  2
ENTITIES
  0
INSERT
  5
5F
330
1F
100
AcDbEntity
  8
Default
100
AcDbBlockReference
  2
SEANNOT_GROUP
 10
0.0
 20
0.0
 30
0.0
  0
INSERT
  5
66
330
1F
100
AcDbEntity
  8
Default
100
AcDbBlockReference
  2
SEANNOT_GROUP1
 10
0.0
 20
0.0
 30
0.0
  0
LINE
  5
6B
330
1F
100
AcDbEntity
  8
Default
  6
Continuous
 62
     7
100
AcDbLine
 10
88.7930448408
 20
408.6526692383
 30
0.0
 11
94.2784635486
 21
408.6526692383
 31
0.0
  0
LINE
  5
6C
330
1F
100
AcDbEntity
  8
Default
  6
Continuous
 62
     7
100
AcDbLine
 10
91.5357541947
 20
411.3978990398
 30
0.0
 11
91.5357541947
 21
405.912478018
 31
0.0
  0
INSERT
  5
6E
330
1F
100
AcDbEntity
  8
Default
100
AcDbBlockReference
  2
SEANNOT_GROUP2
 10
0.0
 20
0.0
 30
0.0
  0
INSERT
  5
74
330
1F
100
AcDbEntity
  8
Default
100
AcDbBlockReference
  2
SE
 10
0.0
 20
0.0
 30
0.0
  0
INSERT
  5
3A0
330
1F
100
AcDbEntity
  8
Default
100
AcDbBlockReference
  2
SE1
 10
0.0
 20
0.0
 30
0.0
  0
INSERT
  5
3C7
330
1F
100
AcDbEntity
  8
Default
100
AcDbBlockReference
  2
SE2
 10
0.0
 20
0.0
 30
0.0
  0
TEXT
  5
3DC
330
1F
100
AcDbEntity
  8
Default
  6
Continuous
 62
     7
100
AcDbText
 10
5.9362635081
 20
53.4225120485
 30
0.0
 40
10.0
  1
Grohe AG^J
  7
SEACAD_seiso_ttf
 11
5.9362635081
 21
63.4225120485
 31
0.0
100
AcDbText
 73
     3
  0
TEXT
  5
3DD
330
1F
100
AcDbEntity
  8
Default
  6
Continuous
 62
     7
100
AcDbText
 10
5.9362635081
 20
37.0588756849
 30
0.0
 40
10.0
  1
 
  7
SEACAD_seiso_ttf
 11
5.9362635081
 21
47.0588756849
 31
0.0
100
AcDbText
 73
     3
  0
TEXT
  5
3DE
330
1F
100
AcDbEntity
  8
Default
  6
Continuous
 62
     7
100
AcDbText
 10
5.9362635081
 20
20.6952393213
 30
0.0
 40
10.0
  1
ecn: 
  7
SEACAD_seiso_ttf
 11
5.9362635081
 21
30.6952393213
 31
0.0
100
AcDbText
 73
     3
  0
TEXT
  5
3DF
330
1F
100
AcDbEntity
  8
Default
  6
Continuous
 62
     7
100
AcDbText
 10
5.9362635081
 20
4.3316029576
 30
0.0
 40
10.0
  1
unit: mm
  7
SEACAD_seiso_ttf
 11
5.9362635081
 21
14.3316029576
 31
0.0
100
AcDbText
 73
     3
  0
LINE
  5
3E0
330
1F
100
AcDbEntity
  8
Default
  6
Continuous
 62
     7
100
AcDbLine
 10
0.0
 20
0.0
 30
0.0
 11
100.0
 21
0.0
 31
0.0
  0
LINE
  5
3E1
330
1F
100
AcDbEntity
  8
Default
  6
Continuous
 62
     7
100
AcDbLine
 10
0.0
 20
0.0
 30
0.0
 11
0.0
 21
100.0
 31
0.0
  0
TEXT
  5
3E2
330
1F
100
AcDbEntity
  8
Default
  6
Continuous
 62
     7
100
AcDbText
 10
24.3923665681
 20
-18.2375342018
 30
0.0
 40
10.0
  1
100 mm
  7
SEACAD_seiso_ttf
 11
24.3923665681
 21
-8.2375342018
 31
0.0
100
AcDbText
 73
     3
  0
TEXT
  5
3E3
330
1F
100
AcDbEntity
  8
Default
  6
Continuous
 62
     7
100
AcDbText
 10
-7.6150308803
 20
24.6231930421
 30
0.0
 40
10.0
  1
100 mm
 50
90.0
  7
SEACAD_seiso_ttf
 11
-17.6150308803
 21
24.6231930421
 31
0.0
100
AcDbText
 73
     3
  0
TEXT
  5
3E4
330
1F
100
AcDbEntity
  8
Default
  6
Continuous
 62
     7
100
AcDbText
 10
28.4878128572
 20
20.0907663715
 30
0.0
 40
10.0
  1
219356
  7
SEACAD_seiso_ttf
 11
28.4878128572
 21
30.0907663715
 31
0.0
100
AcDbText
 73
     3
  0
TEXT
  5
3E5
330
1F
100
AcDbEntity
  8
Default
  6
Continuous
 62
     7
100
AcDbText
 10
5.9012241913
 20
36.7242780188
 30
0.0
 40
10.0
  1
13278002
  7
SEACAD_seiso_ttf
 11
5.9012241913
 21
46.7242780188
 31
0.0
100
AcDbText
 73
     3
  0
ENDSEC
  0
SECTION
  2
OBJECTS
  0
DICTIONARY
  5
C
330
0
100
AcDbDictionary
281
     1
  3
ACAD_GROUP
350
D
  3
ACAD_LAYOUT
350
1A
  3
ACAD_MLEADERSTYLE
350
3E9
  3
ACAD_MLINESTYLE
350
17
  3
ACAD_PLOTSETTINGS
350
19
  3
ACAD_PLOTSTYLENAME
350
E
  3
ACAD_SCALELIST
350
3B
  3
ACAD_TABLESTYLE
350
3E8
  3
ACAD_VISUALSTYLE
350
2A
  3
AcDbVariableDictionary
350
3E6
  0
DICTIONARY
  5
D
102
{ACAD_REACTORS
330
C
102
}
330
C
100
AcDbDictionary
281
     1
  0
DICTIONARY
  5
1A
102
{ACAD_REACTORS
330
C
102
}
330
C
100
AcDbDictionary
281
     1
  3
Layout1
350
1E
  3
Model
350
22
  0
DICTIONARY
  5
3E9
102
{ACAD_REACTORS
330
C
102
}
330
C
100
AcDbDictionary
281
     1
  0
DICTIONARY
  5
17
102
{ACAD_REACTORS
330
C
102
}
330
C
100
AcDbDictionary
281
     1
  3
Standard
350
18
  0
DICTIONARY
  5
19
102
{ACAD_REACTORS
330
C
102
}
330
C
100
AcDbDictionary
281
     1
  0
ACDBDICTIONARYWDFLT
  5
E
102
{ACAD_REACTORS
330
C
102
}
330
C
100
AcDbDictionary
281
     1
  3
Normal
350
F
100
AcDbDictionaryWithDefault
340
F
  0
DICTIONARY
  5
3B
102
{ACAD_REACTORS
330
C
102
}
330
C
100
AcDbDictionary
281
     1
  3
A0
350
3C
  3
A1
350
3D
  3
A2
350
3E
  3
A3
350
3F
  3
A4
350
40
  3
A5
350
41
  3
A6
350
42
  3
A7
350
43
  3
A8
350
44
  3
A9
350
45
  3
B0
350
46
  3
B1
350
47
  3
B2
350
48
  3
B3
350
49
  3
B4
350
4A
  3
B5
350
4B
  3
B6
350
4C
  3
B7
350
4D
  3
B8
350
4E
  3
B9
350
4F
  3
C0
350
50
  3
C1
350
51
  3
C2
350
52
  3
C3
350
53
  3
C4
350
54
  3
C5
350
55
  3
C6
350
56
  3
C7
350
57
  3
C8
350
58
  3
C9
350
59
  3
D0
350
5A
  3
D1
350
5B
  3
D2
350
5C
  0
DICTIONARY
  5
3E8
102
{ACAD_REACTORS
330
C
102
}
330
C
100
AcDbDictionary
281
     1
  0
DICTIONARY
  5
2A
102
{ACAD_REACTORS
330
C
102
}
330
C
100
AcDbDictionary
281
     1
  3
2dWireframe
350
2F
  3
3D Hidden
350
31
  3
3dWireframe
350
30
  3
Basic
350
32
  3
Brighten
350
36
  3
ColorChange
350
3A
  3
Conceptual
350
34
  3
Dim
350
35
  3
Facepattern
350
39
  3
Flat
350
2B
  3
FlatWithEdges
350
2C
  3
Gouraud
350
2D
  3
GouraudWithEdges
350
2E
  3
Linepattern
350
38
  3
Realistic
350
33
  3
Thicken
350
37
  0
DICTIONARY
  5
3E6
102
{ACAD_REACTORS
330
C
102
}
330
C
100
AcDbDictionary
281
     1
  3
CANNOSCALE
350
3E7
  3
PSOLHEIGHT
350
3EB
  3
PSOLWIDTH
350
3EA
  0
LAYOUT
  5
1E
102
{ACAD_REACTORS
330
1A
102
}
330
1A
100
AcDbPlotSettings
  1

  2
none_device
  4

  6

 40
0.0
 41
0.0
 42
0.0
 43
0.0
 44
0.0
 45
0.0
 46
0.0
 47
0.0
 48
0.0
 49
0.0
140
0.0
141
0.0
142
1.0
143
1.0
 70
   688
 72
     0
 73
     0
 74
     5
  7

 75
    16
147
1.0
148
0.0
149
0.0
100
AcDbLayout
  1
Layout1
 70
     1
 71
     1
 10
0.0
 20
0.0
 11
1682.0
 21
2378.0
 12
0.0
 22
0.0
 32
0.0
 14
0.0
 24
0.0
 34
0.0
 15
1682.0
 25
2378.0
 35
0.0
146
0.0
 13
0.0
 23
0.0
 33
0.0
 16
1.0
 26
0.0
 36
0.0
 17
0.0
 27
1.0
 37
0.0
 76
     0
330
1B
  0
LAYOUT
  5
22
102
{ACAD_REACTORS
330
1A
102
}
330
1A
100
AcDbPlotSettings
  1

  2
none_device
  4

  6

 40
0.0
 41
0.0
 42
0.0
 43
0.0
 44
0.0
 45
0.0
 46
0.0
 47
0.0
 48
0.0
 49
0.0
140
0.0
141
0.0
142
1.0
143
1.0
 70
  1712
 72
     0
 73
     0
 74
     0
  7

 75
     0
147
1.0
148
0.0
149
0.0
100
AcDbLayout
  1
Model
 70
     1
 71
     0
 10
0.0
 20
0.0
 11
1682.0
 21
2378.0
 12
0.0
 22
0.0
 32
0.0
 14
0.0
 24
0.0
 34
0.0
 15
1682.0
 25
2378.0
 35
0.0
146
0.0
 13
0.0
 23
0.0
 33
0.0
 16
1.0
 26
0.0
 36
0.0
 17
0.0
 27
1.0
 37
0.0
 76
     0
330
1F
331
29
  0
MLINESTYLE
  5
18
102
{ACAD_REACTORS
330
17
102
}
330
17
100
AcDbMlineStyle
  2
Standard
 70
     0
  3

 62
   256
 51
90.0
 52
90.0
 71
     2
 49
0.5
 62
   256
  6
BYLAYER
 49
-0.5
 62
   256
  6
BYLAYER
  0
ACDBPLACEHOLDER
  5
F
102
{ACAD_REACTORS
330
E
102
}
330
E
  0
SCALE
  5
3C
102
{ACAD_REACTORS
330
3B
102
}
330
3B
100
AcDbScale
 70
     0
300
1:1
140
1.0
141
1.0
290
     1
  0
SCALE
  5
3D
102
{ACAD_REACTORS
330
3B
102
}
330
3B
100
AcDbScale
 70
     0
300
1:2
140
1.0
141
2.0
290
     0
  0
SCALE
  5
3E
102
{ACAD_REACTORS
330
3B
102
}
330
3B
100
AcDbScale
 70
     0
300
1:4
140
1.0
141
4.0
290
     0
  0
SCALE
  5
3F
102
{ACAD_REACTORS
330
3B
102
}
330
3B
100
AcDbScale
 70
     0
300
1:5
140
1.0
141
5.0
290
     0
  0
SCALE
  5
40
102
{ACAD_REACTORS
330
3B
102
}
330
3B
100
AcDbScale
 70
     0
300
1:8
140
1.0
141
8.0
290
     0
  0
SCALE
  5
41
102
{ACAD_REACTORS
330
3B
102
}
330
3B
100
AcDbScale
 70
     0
300
1:10
140
1.0
141
10.0
290
     0
  0
SCALE
  5
42
102
{ACAD_REACTORS
330
3B
102
}
330
3B
100
AcDbScale
 70
     0
300
1:16
140
1.0
141
16.0
290
     0
  0
SCALE
  5
43
102
{ACAD_REACTORS
330
3B
102
}
330
3B
100
AcDbScale
 70
     0
300
1:20
140
1.0
141
20.0
290
     0
  0
SCALE
  5
44
102
{ACAD_REACTORS
330
3B
102
}
330
3B
100
AcDbScale
 70
     0
300
1:30
140
1.0
141
30.0
290
     0
  0
SCALE
  5
45
102
{ACAD_REACTORS
330
3B
102
}
330
3B
100
AcDbScale
 70
     0
300
1:40
140
1.0
141
40.0
290
     0
  0
SCALE
  5
46
102
{ACAD_REACTORS
330
3B
102
}
330
3B
100
AcDbScale
 70
     0
300
1:50
140
1.0
141
50.0
290
     0
  0
SCALE
  5
47
102
{ACAD_REACTORS
330
3B
102
}
330
3B
100
AcDbScale
 70
     0
300
1:100
140
1.0
141
100.0
290
     0
  0
SCALE
  5
48
102
{ACAD_REACTORS
330
3B
102
}
330
3B
100
AcDbScale
 70
     0
300
2:1
140
2.0
141
1.0
290
     0
  0
SCALE
  5
49
102
{ACAD_REACTORS
330
3B
102
}
330
3B
100
AcDbScale
 70
     0
300
4:1
140
4.0
141
1.0
290
     0
  0
SCALE
  5
4A
102
{ACAD_REACTORS
330
3B
102
}
330
3B
100
AcDbScale
 70
     0
300
8:1
140
8.0
141
1.0
290
     0
  0
SCALE
  5
4B
102
{ACAD_REACTORS
330
3B
102
}
330
3B
100
AcDbScale
 70
     0
300
10:1
140
10.0
141
1.0
290
     0
  0
SCALE
  5
4C
102
{ACAD_REACTORS
330
3B
102
}
330
3B
100
AcDbScale
 70
     0
300
100:1
140
100.0
141
1.0
290
     0
  0
SCALE
  5
4D
102
{ACAD_REACTORS
330
3B
102
}
330
3B
100
AcDbScale
 70
     0
300
1/128" = 1'-0"
140
0.0078125
141
12.0
290
     0
  0
SCALE
  5
4E
102
{ACAD_REACTORS
330
3B
102
}
330
3B
100
AcDbScale
 70
     0
300
1/64" = 1'-0"
140
0.015625
141
12.0
290
     0
  0
SCALE
  5
4F
102
{ACAD_REACTORS
330
3B
102
}
330
3B
100
AcDbScale
 70
     0
300
1/32" = 1'-0"
140
0.03125
141
12.0
290
     0
  0
SCALE
  5
50
102
{ACAD_REACTORS
330
3B
102
}
330
3B
100
AcDbScale
 70
     0
300
1/16" = 1'-0"
140
0.0625
141
12.0
290
     0
  0
SCALE
  5
51
102
{ACAD_REACTORS
330
3B
102
}
330
3B
100
AcDbScale
 70
     0
300
3/32" = 1'-0"
140
0.09375
141
12.0
290
     0
  0
SCALE
  5
52
102
{ACAD_REACTORS
330
3B
102
}
330
3B
100
AcDbScale
 70
     0
300
1/8" = 1'-0"
140
0.125
141
12.0
290
     0
  0
SCALE
  5
53
102
{ACAD_REACTORS
330
3B
102
}
330
3B
100
AcDbScale
 70
     0
300
3/16" = 1'-0"
140
0.1875
141
12.0
290
     0
  0
SCALE
  5
54
102
{ACAD_REACTORS
330
3B
102
}
330
3B
100
AcDbScale
 70
     0
300
1/4" = 1'-0"
140
0.25
141
12.0
290
     0
  0
SCALE
  5
55
102
{ACAD_REACTORS
330
3B
102
}
330
3B
100
AcDbScale
 70
     0
300
3/8" = 1'-0"
140
0.375
141
12.0
290
     0
  0
SCALE
  5
56
102
{ACAD_REACTORS
330
3B
102
}
330
3B
100
AcDbScale
 70
     0
300
1/2" = 1'-0"
140
0.5
141
12.0
290
     0
  0
SCALE
  5
57
102
{ACAD_REACTORS
330
3B
102
}
330
3B
100
AcDbScale
 70
     0
300
3/4" = 1'-0"
140
0.75
141
12.0
290
     0
  0
SCALE
  5
58
102
{ACAD_REACTORS
330
3B
102
}
330
3B
100
AcDbScale
 70
     0
300
1" = 1'-0"
140
1.0
141
12.0
290
     0
  0
SCALE
  5
59
102
{ACAD_REACTORS
330
3B
102
}
330
3B
100
AcDbScale
 70
     0
300
1-1/2" = 1'-0"
140
1.5
141
12.0
290
     0
  0
SCALE
  5
5A
102
{ACAD_REACTORS
330
3B
102
}
330
3B
100
AcDbScale
 70
     0
300
3" = 1'-0"
140
3.0
141
12.0
290
     0
  0
SCALE
  5
5B
102
{ACAD_REACTORS
330
3B
102
}
330
3B
100
AcDbScale
 70
     0
300
6" = 1'-0"
140
6.0
141
12.0
290
     0
  0
SCALE
  5
5C
102
{ACAD_REACTORS
330
3B
102
}
330
3B
100
AcDbScale
 70
     0
300
1'-0" = 1'-0"
140
12.0
141
12.0
290
     0
  0
VISUALSTYLE
  5
2F
102
{ACAD_REACTORS
330
2A
102
}
330
2A
100
AcDbVisualStyle
  2
2dWireframe
 70
     4
 71
     0
 72
     2
 73
     0
 90
        0
 40
-0.6
 41
-30.0
 62
     5
 63
     7
 74
     1
 91
        4
 64
     7
 65
   257
 75
     1
175
     1
 42
1.0
 92
        0
 66
   257
 43
1.0
 76
     1
 77
     6
 78
     2
 67
     7
 79
     5
170
     0
171
     0
290
     0
174
     0
 93
        1
 44
0.0
173
     0
291
     0
 45
0.0
1001
ACAD
1000
AcDbSavedByObjectVersion
1070
     0
  0
VISUALSTYLE
  5
31
102
{ACAD_REACTORS
330
2A
102
}
330
2A
100
AcDbVisualStyle
  2
3D Hidden
 70
     6
 71
     1
 72
     2
 73
     2
 90
        0
 40
-0.6
 41
-30.0
 62
     5
 63
     7
 74
     2
 91
        2
 64
     7
 65
   257
 75
     2
175
     1
 42
40.0
 92
        0
 66
   257
 43
1.0
 76
     1
 77
     6
 78
     2
 67
     7
 79
     3
170
     0
171
     0
290
     0
174
     0
 93
        1
 44
0.0
173
     0
291
     0
 45
0.0
1001
ACAD
1000
AcDbSavedByObjectVersion
1070
     0
  0
VISUALSTYLE
  5
30
102
{ACAD_REACTORS
330
2A
102
}
330
2A
100
AcDbVisualStyle
  2
3dWireframe
 70
     5
 71
     0
 72
     2
 73
     0
 90
        0
 40
-0.6
 41
-30.0
 62
     5
 63
     7
 74
     1
 91
        4
 64
     7
 65
   257
 75
     1
175
     1
 42
1.0
 92
        0
 66
   257
 43
1.0
 76
     1
 77
     6
 78
     2
 67
     7
 79
     5
170
     0
171
     0
290
     0
174
     0
 93
        1
 44
0.0
173
     0
291
     0
 45
0.0
1001
ACAD
1000
AcDbSavedByObjectVersion
1070
     0
  0
VISUALSTYLE
  5
32
102
{ACAD_REACTORS
330
2A
102
}
330
2A
100
AcDbVisualStyle
  2
Basic
 70
     7
 71
     1
 72
     0
 73
     1
 90
        0
 40
-0.6
 41
-30.0
 62
     5
 63
     7
 74
     0
 91
        4
 64
     7
 65
   257
 75
     1
175
     1
 42
1.0
 92
        8
 66
     7
 43
1.0
 76
     1
 77
     6
 78
     2
 67
     7
 79
     5
170
     0
171
     0
290
     0
174
     0
 93
        1
 44
0.0
173
     0
291
     1
 45
0.0
1001
ACAD
1000
AcDbSavedByObjectVersion
1070
     0
  0
VISUALSTYLE
  5
36
102
{ACAD_REACTORS
330
2A
102
}
330
2A
100
AcDbVisualStyle
  2
Brighten
 70
    12
 71
     2
 72
     2
 73
     0
 90
        0
 40
-0.6
 41
-30.0
 62
     5
 63
     7
 74
     1
 91
        4
 64
     7
 65
   257
 75
     1
175
     1
 42
1.0
 92
        8
 66
     7
 43
1.0
 76
     1
 77
     6
 78
     2
 67
     7
 79
     5
170
     0
171
     0
290
     0
174
     0
 93
        1
 44
50.0
173
     0
291
     1
 45
0.0
1001
ACAD
1000
AcDbSavedByObjectVersion
1070
     0
  0
VISUALSTYLE
  5
3A
102
{ACAD_REACTORS
330
2A
102
}
330
2A
100
AcDbVisualStyle
  2
ColorChange
 70
    16
 71
     2
 72
     2
 73
     3
 90
        0
 40
-0.6
 41
-30.0
 62
     5
 63
     8
 74
     1
 91
        4
 64
     7
 65
   257
 75
     1
175
     1
 42
1.0
 92
        8
 66
     8
 43
1.0
 76
     1
 77
     6
 78
     2
 67
     7
 79
     5
170
     0
171
     0
290
     0
174
     0
 93
        1
 44
0.0
173
     0
291
     1
 45
0.0
1001
ACAD
1000
AcDbSavedByObjectVersion
1070
     0
  0
VISUALSTYLE
  5
34
102
{ACAD_REACTORS
330
2A
102
}
330
2A
100
AcDbVisualStyle
  2
Conceptual
 70
     9
 71
     3
 72
     2
 73
     0
 90
        0
 40
-0.6
 41
-30.0
 62
     5
 63
     7
 74
     2
 91
        2
 64
     7
 65
   257
 75
     1
175
     1
 42
40.0
 92
        8
 66
     7
 43
1.0
 76
     1
 77
     6
 78
     2
 67
     7
 79
     3
170
     0
171
     0
290
     0
174
     0
 93
        1
 44
0.0
173
     0
291
     0
 45
0.0
1001
ACAD
1000
AcDbSavedByObjectVersion
1070
     0
  0
VISUALSTYLE
  5
35
102
{ACAD_REACTORS
330
2A
102
}
330
2A
100
AcDbVisualStyle
  2
Dim
 70
    11
 71
     2
 72
     2
 73
     0
 90
        0
 40
-0.6
 41
-30.0
 62
     5
 63
     7
 74
     1
 91
        4
 64
     7
 65
   257
 75
     1
175
     1
 42
1.0
 92
        8
 66
     7
 43
1.0
 76
     1
 77
     6
 78
     2
 67
     7
 79
     5
170
     0
171
     0
290
     0
174
     0
 93
        1
 44
-50.0
173
     0
291
     1
 45
0.0
1001
ACAD
1000
AcDbSavedByObjectVersion
1070
     0
  0
VISUALSTYLE
  5
39
102
{ACAD_REACTORS
330
2A
102
}
330
2A
100
AcDbVisualStyle
  2
Facepattern
 70
    15
 71
     2
 72
     2
 73
     0
 90
        0
 40
-0.6
 41
-30.0
 62
     5
 63
     7
 74
     1
 91
        4
 64
     7
 65
   257
 75
     1
175
     1
 42
1.0
 92
        8
 66
     7
 43
1.0
 76
     1
 77
     6
 78
     2
 67
     7
 79
     5
170
     0
171
     0
290
     0
174
     0
 93
        1
 44
0.0
173
     0
291
     1
 45
0.0
1001
ACAD
1000
AcDbSavedByObjectVersion
1070
     0
  0
VISUALSTYLE
  5
2B
102
{ACAD_REACTORS
330
2A
102
}
330
2A
100
AcDbVisualStyle
  2
Flat
 70
     0
 71
     2
 72
     1
 73
     1
 90
        2
 40
-0.6
 41
30.0
 62
     5
 63
     7
 74
     0
 91
        4
 64
     7
 65
   257
 75
     1
175
     1
 42
1.0
 92
        8
 66
     7
 43
1.0
 76
     1
 77
     6
 78
     2
 67
     7
 79
     5
170
     0
171
     0
290
     0
174
     0
 93
       13
 44
0.0
173
     0
291
     1
 45
0.0
1001
ACAD
1000
AcDbSavedByObjectVersion
1070
     0
  0
VISUALSTYLE
  5
2C
102
{ACAD_REACTORS
330
2A
102
}
330
2A
100
AcDbVisualStyle
  2
FlatWithEdges
 70
     1
 71
     2
 72
     1
 73
     1
 90
        2
 40
-0.6
 41
30.0
 62
     5
 63
     7
 74
     1
 91
        4
 64
     7
 65
   257
 75
     1
175
     1
 42
1.0
 92
        0
 66
   257
 43
1.0
 76
     1
 77
     6
 78
     2
 67
     7
 79
     5
170
     0
171
     0
290
     0
174
     0
 93
       13
 44
0.0
173
     0
291
     1
 45
0.0
1001
ACAD
1000
AcDbSavedByObjectVersion
1070
     0
  0
VISUALSTYLE
  5
2D
102
{ACAD_REACTORS
330
2A
102
}
330
2A
100
AcDbVisualStyle
  2
Gouraud
 70
     2
 71
     2
 72
     2
 73
     1
 90
        2
 40
-0.6
 41
30.0
 62
     5
 63
     7
 74
     0
 91
        4
 64
     7
 65
   257
 75
     1
175
     1
 42
1.0
 92
        0
 66
     7
 43
1.0
 76
     1
 77
     6
 78
     2
 67
     7
 79
     5
170
     0
171
     0
290
     0
174
     0
 93
       13
 44
0.0
173
     0
291
     1
 45
0.0
1001
ACAD
1000
AcDbSavedByObjectVersion
1070
     0
  0
VISUALSTYLE
  5
2E
102
{ACAD_REACTORS
330
2A
102
}
330
2A
100
AcDbVisualStyle
  2
GouraudWithEdges
 70
     3
 71
     2
 72
     2
 73
     1
 90
        2
 40
-0.6
 41
30.0
 62
     5
 63
     7
 74
     1
 91
        4
 64
     7
 65
   257
 75
     1
175
     1
 42
1.0
 92
        0
 66
   257
 43
1.0
 76
     1
 77
     6
 78
     2
 67
     7
 79
     5
170
     0
171
     0
290
     0
174
     0
 93
       13
 44
0.0
173
     0
291
     1
 45
0.0
1001
ACAD
1000
AcDbSavedByObjectVersion
1070
     0
  0
VISUALSTYLE
  5
38
102
{ACAD_REACTORS
330
2A
102
}
330
2A
100
AcDbVisualStyle
  2
Linepattern
 70
    14
 71
     2
 72
     2
 73
     0
 90
        0
 40
-0.6
 41
-30.0
 62
     5
 63
     7
 74
     1
 91
        4
 64
     7
 65
   257
 75
     7
175
     7
 42
1.0
 92
        8
 66
     7
 43
1.0
 76
     1
 77
     6
 78
     2
 67
     7
 79
     5
170
     0
171
     0
290
     0
174
     0
 93
        1
 44
0.0
173
     0
291
     1
 45
0.0
1001
ACAD
1000
AcDbSavedByObjectVersion
1070
     0
  0
VISUALSTYLE
  5
33
102
{ACAD_REACTORS
330
2A
102
}
330
2A
100
AcDbVisualStyle
  2
Realistic
 70
     8
 71
     2
 72
     2
 73
     0
 90
        0
 40
-0.6
 41
-30.0
 62
     5
 63
     7
 74
     1
 91
        0
 64
     7
 65
   257
 75
     1
175
     1
 42
1.0
 92
        8
 66
     8
 43
1.0
 76
     1
 77
     6
 78
     2
 67
     7
 79
     5
170
     0
171
     0
290
     0
174
     0
 93
       13
 44
0.0
173
     0
291
     0
 45
0.0
1001
ACAD
1000
AcDbSavedByObjectVersion
1070
     0
  0
VISUALSTYLE
  5
37
102
{ACAD_REACTORS
330
2A
102
}
330
2A
100
AcDbVisualStyle
  2
Thicken
 70
    13
 71
     2
 72
     2
 73
     0
 90
        0
 40
-0.6
 41
-30.0
 62
     5
 63
     7
 74
     1
 91
        4
 64
     7
 65
   257
 75
     1
175
     1
 42
1.0
 92
       12
 66
     7
 43
1.0
 76
     1
 77
     6
 78
     2
 67
     7
 79
     5
170
     0
171
     0
290
     0
174
     0
 93
        1
 44
0.0
173
     0
291
     1
 45
0.0
1001
ACAD
1000
AcDbSavedByObjectVersion
1070
     0
  0
DICTIONARYVAR
  5
3E7
102
{ACAD_REACTORS
330
3E6
102
}
330
3E6
100
DictionaryVariables
280
     0
  1
1:1
  0
DICTIONARYVAR
  5
3EB
102
{ACAD_REACTORS
330
3E6
102
}
330
3E6
100
DictionaryVariables
280
     0
  1
80.000000
  0
DICTIONARYVAR
  5
3EA
102
{ACAD_REACTORS
330
3E6
102
}
330
3E6
100
DictionaryVariables
280
     0
  1
5.000000
  0
ENDSEC
  0
EOF
