  0
SECTION
  2
HEADER
  9
$ACADVER
  1
AC1009
  9
$DWGCODEPAGE
  3
ansi_1252
  9
$INSBASE
 10
0.0
 20
0.0
 30
0.0
  9
$EXTMIN
 10
1.000000000000000E+20
 20
1.000000000000000E+20
 30
1.000000000000000E+20
  9
$EXTMAX
 10
-1.000000000000000E+20
 20
-1.000000000000000E+20
 30
-1.000000000000000E+20
  9
$LIMMIN
 10
0.0
 20
0.0
  9
$LIMMAX
 10
12.0
 20
9.0
  9
$ORTHOMODE
 70
     0
  9
$REGENMODE
 70
     1
  9
$FILLMODE
 70
     1
  9
$QTEXTMODE
 70
     0
  9
$MIRRTEXT
 70
     1
  9
$DRAGMODE
 70
     2
  9
$LTSCALE
 40
1.0
  9
$OSMODE
 70
    37
  9
$ATTMODE
 70
     1
  9
$TEXTSIZE
 40
0.2
  9
$TRACEWID
 40
0.05
  9
$TEXTSTYLE
  7
STANDARD
  9
$CLAYER
  8
0
  9
$CELTYPE
  6
BYLAYER
  9
$CECOLOR
 62
   256
  9
$DIMSCALE
 40
1.0
  9
$DIMASZ
 40
0.18
  9
$DIMEXO
 40
0.0625
  9
$DIMDLI
 40
0.38
  9
$DIMRND
 40
0.0
  9
$DIMDLE
 40
0.0
  9
$DIMEXE
 40
0.18
  9
$DIMTP
 40
0.0
  9
$DIMTM
 40
0.0
  9
$DIMTXT
 40
0.18
  9
$DIMCEN
 40
0.09
  9
$DIMTSZ
 40
0.0
  9
$DIMTOL
 70
     0
  9
$DIMLIM
 70
     0
  9
$DIMTIH
 70
     1
  9
$DIMTOH
 70
     1
  9
$DIMSE1
 70
     0
  9
$DIMSE2
 70
     0
  9
$DIMTAD
 70
     0
  9
$DIMZIN
 70
     0
  9
$DIMBLK
  1

  9
$DIMASO
 70
     1
  9
$DIMSHO
 70
     1
  9
$DIMPOST
  1

  9
$DIMAPOST
  1

  9
$DIMALT
 70
     0
  9
$DIMALTD
 70
     2
  9
$DIMALTF
 40
25.4
  9
$DIMLFAC
 40
1.0
  9
$DIMTOFL
 70
     0
  9
$DIMTVP
 40
0.0
  9
$DIMTIX
 70
     0
  9
$DIMSOXD
 70
     0
  9
$DIMSAH
 70
     0
  9
$DIMBLK1
  1

  9
$DIMBLK2
  1

  9
$DIMSTYLE
  2
STANDARD
  9
$DIMCLRD
 70
     0
  9
$DIMCLRE
 70
     0
  9
$DIMCLRT
 70
     0
  9
$DIMTFAC
 40
1.0
  9
$DIMGAP
 40
0.09
  9
$LUNITS
 70
     2
  9
$LUPREC
 70
     4
  9
$SKETCHINC
 40
0.1
  9
$FILLETRAD
 40
0.5
  9
$AUNITS
 70
     0
  9
$AUPREC
 70
     0
  9
$MENU
  1
.
  9
$ELEVATION
 40
0.0
  9
$PELEVATION
 40
0.0
  9
$THICKNESS
 40
0.0
  9
$LIMCHECK
 70
     0
  9
$CHAMFERA
 40
0.5
  9
$CHAMFERB
 40
0.5
  9
$SKPOLY
 70
     0
  9
$TDCREATE
 40
2455608.632240949
  9
$TDUPDATE
 40
2455608.632240949
  9
$TDINDWG
 40
0.0000000116
  9
$TDUSRTIMER
 40
0.0000000116
  9
$USRTIMER
 70
     1
  9
$ANGBASE
 50
0.0
  9
$ANGDIR
 70
     0
  9
$PDMODE
 70
     0
  9
$PDSIZE
 40
0.0
  9
$PLINEWID
 40
0.0
  9
$COORDS
 70
     1
  9
$SPLFRAME
 70
     0
  9
$SPLINETYPE
 70
     6
  9
$SPLINESEGS
 70
     8
  9
$ATTDIA
 70
     0
  9
$ATTREQ
 70
     1
  9
$HANDLING
 70
     1
  9
$HANDSEED
  5
427
  9
$SURFTAB1
 70
     6
  9
$SURFTAB2
 70
     6
  9
$SURFTYPE
 70
     6
  9
$SURFU
 70
     6
  9
$SURFV
 70
     6
  9
$UCSNAME
  2

  9
$UCSORG
 10
0.0
 20
0.0
 30
0.0
  9
$UCSXDIR
 10
1.0
 20
0.0
 30
0.0
  9
$UCSYDIR
 10
0.0
 20
1.0
 30
0.0
  9
$PUCSNAME
  2

  9
$PUCSORG
 10
0.0
 20
0.0
 30
0.0
  9
$PUCSXDIR
 10
1.0
 20
0.0
 30
0.0
  9
$PUCSYDIR
 10
0.0
 20
1.0
 30
0.0
  9
$USERI1
 70
     0
  9
$USERI2
 70
     0
  9
$USERI3
 70
     0
  9
$USERI4
 70
     0
  9
$USERI5
 70
     0
  9
$USERR1
 40
0.0
  9
$USERR2
 40
0.0
  9
$USERR3
 40
0.0
  9
$USERR4
 40
0.0
  9
$USERR5
 40
0.0
  9
$WORLDVIEW
 70
     1
  9
$SHADEDGE
 70
     3
  9
$SHADEDIF
 70
    70
  9
$TILEMODE
 70
     1
  9
$MAXACTVP
 70
    64
  9
$PLIMCHECK
 70
     0
  9
$PEXTMIN
 10
1.000000000000000E+20
 20
1.000000000000000E+20
 30
1.000000000000000E+20
  9
$PEXTMAX
 10
-1.000000000000000E+20
 20
-1.000000000000000E+20
 30
-1.000000000000000E+20
  9
$PLIMMIN
 10
0.0
 20
0.0
  9
$PLIMMAX
 10
12.0
 20
9.0
  9
$UNITMODE
 70
     0
  9
$VISRETAIN
 70
     1
  9
$PLINEGEN
 70
     0
  9
$PSLTSCALE
 70
     1
  0
ENDSEC
  0
SECTION
  2
TABLES
  0
TABLE
  2
VPORT
 70
     1
  0
VPORT
  2
*ACTIVE
 70
     0
 10
0.0
 20
0.0
 11
1.0
 21
1.0
 12
0.0
 22
0.0
 13
0.0
 23
0.0
 14
0.5
 24
0.5
 15
0.5
 25
0.5
 16
251.822265625
 26
-251.822265625
 36
251.8222808837891
 17
42.0
 27
0.0
 37
60.00816345214844
 40
327.4031882293632
 41
1.972972972850329
 42
50.0
 43
0.0
 44
0.0
 50
0.0
 51
0.0
 71
     0
 72
   100
 73
     1
 74
     3
 75
     0
 76
     0
 77
     0
 78
     0
  0
ENDTAB
  0
TABLE
  2
LTYPE
 70
     1
  0
LTYPE
  2
CONTINUOUS
 70
     0
  3
Solid line
 72
    65
 73
     0
 40
0.0
  0
ENDTAB
  0
TABLE
  2
LAYER
 70
     2
  0
LAYER
  2
0
 70
     0
 62
     7
  6
CONTINUOUS
  0
LAYER
  2
LAYER_1
 70
     0
 62
     7
  6
CONTINUOUS
  0
ENDTAB
  0
TABLE
  2
STYLE
 70
     1
  0
STYLE
  2
STANDARD
 70
     0
 40
0.0
 41
1.0
 50
0.0
 71
     0
 42
0.2
  3
txt
  4

  0
ENDTAB
  0
TABLE
  2
VIEW
 70
     0
  0
ENDTAB
  0
TABLE
  2
UCS
 70
     0
  0
ENDTAB
  0
TABLE
  2
APPID
 70
     1
  0
APPID
  2
ACAD
 70
     0
  0
ENDTAB
  0
TABLE
  2
DIMSTYLE
 70
     1
  0
DIMSTYLE
  2
STANDARD
 70
     0
  3

  4

  5

  6

  7

 40
1.0
 41
0.18
 42
0.0625
 43
0.38
 44
0.18
 45
0.0
 46
0.0
 47
0.0
 48
0.0
140
0.18
141
0.09
142
0.0
143
25.4
144
1.0
145
0.0
146
1.0
147
0.09
 71
     0
 72
     0
 73
     1
 74
     1
 75
     0
 76
     0
 77
     0
 78
     0
170
     0
171
     2
172
     0
173
     0
174
     0
175
     0
176
     0
177
     0
178
     0
  0
ENDTAB
  0
ENDSEC
  0
SECTION
  2
BLOCKS
  0
BLOCK
  8
0
  2
$MODEL_SPACE
 70
     0
 10
0.0
 20
0.0
 30
0.0
  3
$MODEL_SPACE
  1

  0
ENDBLK
  5
21
  8
0
  0
BLOCK
 67
     1
  8
0
  2
$PAPER_SPACE
 70
     0
 10
0.0
 20
0.0
 30
0.0
  3
$PAPER_SPACE
  1

  0
ENDBLK
  5
1D
 67
     1
  8
0
  0
BLOCK
  8
0
  2
38
 70
     0
 10
0.0
 20
0.0
 30
0.0
  3
38
  1

  0
POLYLINE
  5
3C
  8
0
 66
     1
 10
0.0
 20
0.0
 30
0.0
 70
    64
 71
    33
 72
    38
  0
VERTEX
  5
3D
  8
0
 10
-0.9824842214584351
 20
0.1500000059604645
 30
116.1713638305664
 70
   192
  0
VERTEX
  5
3E
  8
0
 10
-0.9824842214584351
 20
3.950000047683716
 30
116.1713638305664
 70
   192
  0
VERTEX
  5
3F
  8
0
 10
1.199540972709656
 20
4.210000038146973
 30
125.6227569580078
 70
   192
  0
VERTEX
  5
40
  8
0
 10
-0.9824842214584351
 20
-0.1500000059604645
 30
116.1713638305664
 70
   192
  0
VERTEX
  5
41
  8
0
 10
1.042075276374817
 20
-3.950000047683716
 30
124.9406967163086
 70
   192
  0
VERTEX
  5
42
  8
0
 10
-0.9813697338104248
 20
-4.25
 30
116.1711044311523
 70
   192
  0
VERTEX
  5
43
  8
0
 10
9.004436492919922
 20
4.065000057220459
 30
119.5319061279297
 70
   192
  0
VERTEX
  5
44
  8
0
 10
9.405641555786133
 20
2.900000095367432
 30
121.7142562866211
 70
   192
  0
VERTEX
  5
45
  8
0
 10
9.693069458007812
 20
0.1500000059604645
 30
122.5147018432617
 70
   192
  0
VERTEX
  5
46
  8
0
 10
8.383461952209473
 20
4.065000057220459
 30
116.8421630859375
 70
   192
  0
VERTEX
  5
47
  8
0
 10
8.693949699401855
 20
4.065000057220459
 30
118.1870346069336
 70
   192
  0
VERTEX
  5
48
  8
0
 10
7.762486934661865
 20
-0.1500000059604645
 30
114.1524276733398
 70
   192
  0
VERTEX
  5
49
  8
0
 10
7.87496280670166
 20
3.599999904632568
 30
114.6396102905273
 70
   192
  0
VERTEX
  5
4A
  8
0
 10
8.07297420501709
 20
4.065000057220459
 30
115.4972991943359
 70
   192
  0
VERTEX
  5
4B
  8
0
 10
8.07297420501709
 20
-4.065000057220459
 30
115.4972991943359
 70
   192
  0
VERTEX
  5
4C
  8
0
 10
7.762486934661865
 20
-4.065000057220459
 30
114.1524276733398
 70
   192
  0
VERTEX
  5
4D
  8
0
 10
8.693949699401855
 20
-4.065000057220459
 30
118.1870346069336
 70
   192
  0
VERTEX
  5
4E
  8
0
 10
8.383461952209473
 20
-4.065000057220459
 30
116.8421630859375
 70
   192
  0
VERTEX
  5
4F
  8
0
 10
9.004436492919922
 20
-4.065000057220459
 30
119.5319061279297
 70
   192
  0
VERTEX
  5
50
  8
0
 10
9.314924240112305
 20
-4.065000057220459
 30
120.8767700195312
 70
   192
  0
VERTEX
  5
51
  8
0
 10
-0.1591414958238602
 20
-4.065000057220459
 30
115.9812774658203
 70
   192
  0
VERTEX
  5
52
  8
0
 10
-0.1591414958238602
 20
4.065000057220459
 30
115.9812774658203
 70
   192
  0
VERTEX
  5
53
  8
0
 10
7.942745685577393
 20
-4.908856391906738
 30
114.1108093261719
 70
   192
  0
VERTEX
  5
54
  8
0
 10
3.94782829284668
 20
-4.909999847412109
 30
115.0331115722656
 70
   192
  0
VERTEX
  5
55
  8
0
 10
0.6836886405944824
 20
-4.909999847412109
 30
115.7866973876953
 70
   192
  0
VERTEX
  5
56
  8
0
 10
8.584714889526367
 20
4.25
 30
113.9626007080078
 70
   192
  0
VERTEX
  5
57
  8
0
 10
3.655517339706421
 20
4.909999847412109
 30
115.1005935668945
 70
   192
  0
VERTEX
  5
58
  8
0
 10
-1.142454862594604
 20
0.1500000059604645
 30
116.2082977294922
 70
   192
  0
VERTEX
  5
59
  8
0
 10
-1.142454862594604
 20
-0.1500000059604645
 30
116.2082977294922
 70
   192
  0
VERTEX
  5
5A
  8
0
 10
-0.3393999636173248
 20
4.908856391906738
 30
116.0228958129883
 70
   192
  0
VERTEX
  5
5B
  8
0
 10
6.919657230377197
 20
4.909999847412109
 30
114.3470077514648
 70
   192
  0
VERTEX
  5
5C
  8
0
 10
8.585829734802246
 20
0.1500000059604645
 30
113.9623413085938
 70
   192
  0
VERTEX
  5
5D
  8
0
 10
8.585829734802246
 20
-3.200000047683716
 30
113.9623413085938
 70
   192
  0
VERTEX
  5
5E
  8
0
 62
     9
 10
0.0
 20
0.0
 30
0.0
 70
   128
 71
     3
 72
     2
 73
     1
  0
VERTEX
  5
5F
  8
0
 62
     9
 10
0.0
 20
0.0
 30
0.0
 70
   128
 71
     5
 72
     3
 73
     4
  0
VERTEX
  5
60
  8
0
 62
     9
 10
0.0
 20
0.0
 30
0.0
 70
   128
 71
     3
 72
     1
 73
     4
  0
VERTEX
  5
61
  8
0
 62
     9
 10
0.0
 20
0.0
 30
0.0
 70
   128
 71
     6
 72
     5
 73
     4
  0
VERTEX
  5
62
  8
0
 62
     9
 10
0.0
 20
0.0
 30
0.0
 70
   128
 71
     9
 72
     8
 73
     7
  0
VERTEX
  5
63
  8
0
 62
     9
 10
0.0
 20
0.0
 30
0.0
 70
   128
 71
    12
 72
    11
 73
    10
  0
VERTEX
  5
64
  8
0
 62
     9
 10
0.0
 20
0.0
 30
0.0
 70
   128
 71
    11
 72
    12
 73
     9
  0
VERTEX
  5
65
  8
0
 62
     9
 10
0.0
 20
0.0
 30
0.0
 70
   128
 71
    11
 72
     9
 73
     7
  0
VERTEX
  5
66
  8
0
 62
     9
 10
0.0
 20
0.0
 30
0.0
 70
   128
 71
    12
 72
    14
 73
    13
  0
VERTEX
  5
67
  8
0
 62
     9
 10
0.0
 20
0.0
 30
0.0
 70
   128
 71
    10
 72
    14
 73
    12
  0
VERTEX
  5
68
  8
0
 62
     9
 10
0.0
 20
0.0
 30
0.0
 70
   128
 71
    12
 72
    16
 73
    15
  0
VERTEX
  5
69
  8
0
 62
     9
 10
0.0
 20
0.0
 30
0.0
 70
   128
 71
    18
 72
    17
 73
    12
  0
VERTEX
  5
6A
  8
0
 62
     9
 10
0.0
 20
0.0
 30
0.0
 70
   128
 71
    17
 72
    19
 73
     9
  0
VERTEX
  5
6B
  8
0
 62
     9
 10
0.0
 20
0.0
 30
0.0
 70
   128
 71
    18
 72
    12
 73
    15
  0
VERTEX
  5
6C
  8
0
 62
     9
 10
0.0
 20
0.0
 30
0.0
 70
   128
 71
    17
 72
     9
 73
    12
  0
VERTEX
  5
6D
  8
0
 62
     9
 10
0.0
 20
0.0
 30
0.0
 70
   128
 71
    19
 72
    20
 73
     9
  0
VERTEX
  5
6E
  8
0
 62
     9
 10
0.0
 20
0.0
 30
0.0
 70
   128
 71
    22
 72
    21
 73
     4
  0
VERTEX
  5
6F
  8
0
 62
     9
 10
0.0
 20
0.0
 30
0.0
 70
   128
 71
    24
 72
    16
 73
    23
  0
VERTEX
  5
70
  8
0
 62
     9
 10
0.0
 20
0.0
 30
0.0
 70
   128
 71
    16
 72
    24
 73
    21
  0
VERTEX
  5
71
  8
0
 62
     9
 10
0.0
 20
0.0
 30
0.0
 70
   128
 71
     6
 72
    21
 73
    25
  0
VERTEX
  5
72
  8
0
 62
     9
 10
0.0
 20
0.0
 30
0.0
 70
   128
 71
    26
 72
    12
 73
    13
  0
VERTEX
  5
73
  8
0
 62
     9
 10
0.0
 20
0.0
 30
0.0
 70
   128
 71
    13
 72
    22
 73
    27
  0
VERTEX
  5
74
  8
0
 62
     9
 10
0.0
 20
0.0
 30
0.0
 70
   128
 71
     1
 72
    29
 73
    28
  0
VERTEX
  5
75
  8
0
 62
     9
 10
0.0
 20
0.0
 30
0.0
 70
   128
 71
     4
 72
     1
 73
    22
  0
VERTEX
  5
76
  8
0
 62
     9
 10
0.0
 20
0.0
 30
0.0
 70
   128
 71
     1
 72
     4
 73
    29
  0
VERTEX
  5
77
  8
0
 62
     9
 10
0.0
 20
0.0
 30
0.0
 70
   128
 71
    30
 72
    22
 73
     2
  0
VERTEX
  5
78
  8
0
 62
     9
 10
0.0
 20
0.0
 30
0.0
 70
   128
 71
    27
 72
    31
 73
    13
  0
VERTEX
  5
79
  8
0
 62
     9
 10
0.0
 20
0.0
 30
0.0
 70
   128
 71
    26
 72
    13
 73
    31
  0
VERTEX
  5
7A
  8
0
 62
     9
 10
0.0
 20
0.0
 30
0.0
 70
   128
 71
    26
 72
    32
 73
    12
  0
VERTEX
  5
7B
  8
0
 62
     9
 10
0.0
 20
0.0
 30
0.0
 70
   128
 71
    22
 72
    30
 73
    27
  0
VERTEX
  5
7C
  8
0
 62
     9
 10
0.0
 20
0.0
 30
0.0
 70
   128
 71
     2
 72
    22
 73
     1
  0
VERTEX
  5
7D
  8
0
 62
     9
 10
0.0
 20
0.0
 30
0.0
 70
   128
 71
    21
 72
     6
 73
     4
  0
VERTEX
  5
7E
  8
0
 62
     9
 10
0.0
 20
0.0
 30
0.0
 70
   128
 71
    25
 72
    21
 73
    24
  0
VERTEX
  5
7F
  8
0
 62
     9
 10
0.0
 20
0.0
 30
0.0
 70
   128
 71
    33
 72
    16
 73
    32
  0
VERTEX
  5
80
  8
0
 62
     9
 10
0.0
 20
0.0
 30
0.0
 70
   128
 71
    23
 72
    16
 73
    33
  0
VERTEX
  5
81
  8
0
 62
     9
 10
0.0
 20
0.0
 30
0.0
 70
   128
 71
    16
 72
    12
 73
    32
  0
VERTEX
  5
82
  8
0
 62
     9
 10
0.0
 20
0.0
 30
0.0
 70
   128
 71
     4
 72
     1
 73
    29
  0
VERTEX
  5
83
  8
0
 62
     9
 10
0.0
 20
0.0
 30
0.0
 70
   128
 71
     1
 72
    28
 73
    29
  0
SEQEND
  5
84
  8
0
  0
ENDBLK
  5
88
  8
0
  0
BLOCK
  8
0
  2
39
 70
     0
 10
0.0
 20
0.0
 30
0.0
  3
39
  1

  0
POLYLINE
  5
8A
  8
0
 62
     9
 66
     1
 10
0.0
 20
0.0
 30
0.0
 70
    64
 71
    90
 72
   141
  0
VERTEX
  5
8B
  8
0
 10
-0.0000000000000026
 20
-12.5
 30
114.8480758666992
 70
   192
  0
VERTEX
  5
8C
  8
0
 10
3.059832096099854
 20
-12.12287902832031
 30
114.8480758666992
 70
   192
  0
VERTEX
  5
8D
  8
0
 10
2.123216867446899
 20
-15.94521999359131
 30
111.3079452514648
 70
   192
  0
VERTEX
  5
8E
  8
0
 10
14.91146469116211
 20
-6.033762454986572
 30
111.3079452514648
 70
   192
  0
VERTEX
  5
8F
  8
0
 10
10.90363025665283
 20
-6.103554725646973
 30
114.8480758666992
 70
   192
  0
VERTEX
  5
90
  8
0
 10
12.11947154998779
 20
-3.044296979904175
 30
114.8480758666992
 70
   192
  0
VERTEX
  5
91
  8
0
 10
12.80428504943848
 20
-9.736958503723145
 30
111.3079452514648
 70
   192
  0
VERTEX
  5
92
  8
0
 10
8.838834762573242
 20
-8.838834762573242
 30
114.8480758666992
 70
   192
  0
VERTEX
  5
93
  8
0
 10
15.94521999359131
 20
-2.123216867446899
 30
111.3079452514648
 70
   192
  0
VERTEX
  5
94
  8
0
 10
12.5
 20
-0.000000000000006
 30
114.8480758666992
 70
   192
  0
VERTEX
  5
95
  8
0
 10
13.22289657592773
 20
-13.22289657592773
 30
107.0
 70
   192
  0
VERTEX
  5
96
  8
0
 10
9.736958503723145
 20
-12.80428504943848
 30
111.3079452514648
 70
   192
  0
VERTEX
  5
97
  8
0
 10
18.70000076293945
 20
0.0000000000000026
 30
107.0
 70
   192
  0
VERTEX
  5
98
  8
0
 10
16.08595848083496
 20
0.0000000000000034
 30
111.3079452514648
 70
   192
  0
VERTEX
  5
99
  8
0
 10
6.120501041412354
 20
-10.90060234069824
 30
114.8480758666992
 70
   192
  0
VERTEX
  5
9A
  8
0
 10
6.033762454986572
 20
-14.91146469116211
 30
111.3079452514648
 70
   192
  0
VERTEX
  5
9B
  8
0
 10
-0.0000000000000034
 20
-16.08595848083496
 30
111.3079452514648
 70
   192
  0
VERTEX
  5
9C
  8
0
 10
4.859103679656982
 20
-18.05679702758789
 30
107.0
 70
   192
  0
VERTEX
  5
9D
  8
0
 10
-0.0000000000000023
 20
-18.70000076293945
 30
107.0
 70
   192
  0
VERTEX
  5
9E
  8
0
 10
9.343085289001465
 20
-16.19947052001953
 30
107.0
 70
   192
  0
VERTEX
  5
9F
  8
0
 10
16.20398712158203
 20
-9.332178115844727
 30
107.0
 70
   192
  0
VERTEX
  5
A0
  8
0
 10
18.06131362915039
 20
-4.848196506500244
 30
107.0
 70
   192
  0
VERTEX
  5
A1
  8
0
 10
-12.5
 20
0.00000000000001
 30
114.8480758666992
 70
   192
  0
VERTEX
  5
A2
  8
0
 10
-12.12287902832031
 20
-3.059832096099854
 30
114.8480758666992
 70
   192
  0
VERTEX
  5
A3
  8
0
 10
-15.94521999359131
 20
-2.123216867446899
 30
111.3079452514648
 70
   192
  0
VERTEX
  5
A4
  8
0
 10
-6.033762454986572
 20
-14.91146469116211
 30
111.3079452514648
 70
   192
  0
VERTEX
  5
A5
  8
0
 10
-6.103554725646973
 20
-10.90363025665283
 30
114.8480758666992
 70
   192
  0
VERTEX
  5
A6
  8
0
 10
-3.044296979904175
 20
-12.11947154998779
 30
114.8480758666992
 70
   192
  0
VERTEX
  5
A7
  8
0
 10
-9.736958503723145
 20
-12.80428504943848
 30
111.3079452514648
 70
   192
  0
VERTEX
  5
A8
  8
0
 10
-8.838834762573242
 20
-8.838834762573242
 30
114.8480758666992
 70
   192
  0
VERTEX
  5
A9
  8
0
 10
-2.123216867446899
 20
-15.94521999359131
 30
111.3079452514648
 70
   192
  0
VERTEX
  5
AA
  8
0
 10
-13.22289657592773
 20
-13.22289657592773
 30
107.0
 70
   192
  0
VERTEX
  5
AB
  8
0
 10
-12.80428504943848
 20
-9.736958503723145
 30
111.3079452514648
 70
   192
  0
VERTEX
  5
AC
  8
0
 10
-10.90060234069824
 20
-6.120501041412354
 30
114.8480758666992
 70
   192
  0
VERTEX
  5
AD
  8
0
 10
-14.91146469116211
 20
-6.033762454986572
 30
111.3079452514648
 70
   192
  0
VERTEX
  5
AE
  8
0
 10
-16.08595848083496
 20
0.0000000000000095
 30
111.3079452514648
 70
   192
  0
VERTEX
  5
AF
  8
0
 10
-18.05679702758789
 20
-4.859103679656982
 30
107.0
 70
   192
  0
VERTEX
  5
B0
  8
0
 10
-18.70000076293945
 20
0.0000000000000088
 30
107.0
 70
   192
  0
VERTEX
  5
B1
  8
0
 10
-16.19947052001953
 20
-9.343085289001465
 30
107.0
 70
   192
  0
VERTEX
  5
B2
  8
0
 10
-9.332178115844727
 20
-16.20398712158203
 30
107.0
 70
   192
  0
VERTEX
  5
B3
  8
0
 10
-4.848196506500244
 20
-18.06131362915039
 30
107.0
 70
   192
  0
VERTEX
  5
B4
  8
0
 10
0.0000000000000013
 20
12.5
 30
114.8480758666992
 70
   192
  0
VERTEX
  5
B5
  8
0
 10
-3.059832096099854
 20
12.12287902832031
 30
114.8480758666992
 70
   192
  0
VERTEX
  5
B6
  8
0
 10
-2.123216867446899
 20
15.94521999359131
 30
111.3079452514648
 70
   192
  0
VERTEX
  5
B7
  8
0
 10
-14.91146469116211
 20
6.033762454986572
 30
111.3079452514648
 70
   192
  0
VERTEX
  5
B8
  8
0
 10
-10.90363025665283
 20
6.103554725646973
 30
114.8480758666992
 70
   192
  0
VERTEX
  5
B9
  8
0
 10
-12.11947154998779
 20
3.044296979904175
 30
114.8480758666992
 70
   192
  0
VERTEX
  5
BA
  8
0
 10
-12.80428504943848
 20
9.736958503723145
 30
111.3079452514648
 70
   192
  0
VERTEX
  5
BB
  8
0
 10
-8.838834762573242
 20
8.838834762573242
 30
114.8480758666992
 70
   192
  0
VERTEX
  5
BC
  8
0
 10
-15.94521999359131
 20
2.123216867446899
 30
111.3079452514648
 70
   192
  0
VERTEX
  5
BD
  8
0
 10
-13.22289657592773
 20
13.22289657592773
 30
107.0
 70
   192
  0
VERTEX
  5
BE
  8
0
 10
-9.736958503723145
 20
12.80428504943848
 30
111.3079452514648
 70
   192
  0
VERTEX
  5
BF
  8
0
 10
-6.120501041412354
 20
10.90060234069824
 30
114.8480758666992
 70
   192
  0
VERTEX
  5
C0
  8
0
 10
-6.033762454986572
 20
14.91146469116211
 30
111.3079452514648
 70
   192
  0
VERTEX
  5
C1
  8
0
 10
0.0
 20
16.08595848083496
 30
111.3079452514648
 70
   192
  0
VERTEX
  5
C2
  8
0
 10
-4.848075866699219
 20
18.05974197387695
 30
107.0
 70
   192
  0
VERTEX
  5
C3
  8
0
 10
-0.0000000000000005
 20
18.70000076293945
 30
107.0
 70
   192
  0
VERTEX
  5
C4
  8
0
 10
-9.355862617492676
 20
16.19089317321777
 30
107.0
 70
   192
  0
VERTEX
  5
C5
  8
0
 10
-16.19827270507812
 20
9.342058181762695
 30
107.0
 70
   192
  0
VERTEX
  5
C6
  8
0
 10
-18.06428527832031
 20
4.833096981048584
 30
107.0
 70
   192
  0
VERTEX
  5
C7
  8
0
 10
12.12287902832031
 20
3.059832096099854
 30
114.8480758666992
 70
   192
  0
VERTEX
  5
C8
  8
0
 10
10.90060234069824
 20
6.120501041412354
 30
114.8480758666992
 70
   192
  0
VERTEX
  5
C9
  8
0
 10
14.91146469116211
 20
6.033762454986572
 30
111.3079452514648
 70
   192
  0
VERTEX
  5
CA
  8
0
 10
12.80428504943848
 20
9.736958503723145
 30
111.3079452514648
 70
   192
  0
VERTEX
  5
CB
  8
0
 10
9.736958503723145
 20
12.80428504943848
 30
111.3079452514648
 70
   192
  0
VERTEX
  5
CC
  8
0
 10
13.22289657592773
 20
13.22289657592773
 30
107.0
 70
   192
  0
VERTEX
  5
CD
  8
0
 10
15.94521999359131
 20
2.123216867446899
 30
111.3079452514648
 70
   192
  0
VERTEX
  5
CE
  8
0
 10
18.05679702758789
 20
4.859103679656982
 30
107.0
 70
   192
  0
VERTEX
  5
CF
  8
0
 10
6.033762454986572
 20
14.91146469116211
 30
111.3079452514648
 70
   192
  0
VERTEX
  5
D0
  8
0
 10
6.103554725646973
 20
10.90363025665283
 30
114.8480758666992
 70
   192
  0
VERTEX
  5
D1
  8
0
 10
3.044296979904175
 20
12.11947154998779
 30
114.8480758666992
 70
   192
  0
VERTEX
  5
D2
  8
0
 10
2.123216867446899
 20
15.94521999359131
 30
111.3079452514648
 70
   192
  0
VERTEX
  5
D3
  8
0
 10
8.838834762573242
 20
8.838834762573242
 30
114.8480758666992
 70
   192
  0
VERTEX
  5
D4
  8
0
 10
16.19947052001953
 20
9.343085289001465
 30
107.0
 70
   192
  0
VERTEX
  5
D5
  8
0
 10
9.332178115844727
 20
16.20398712158203
 30
107.0
 70
   192
  0
VERTEX
  5
D6
  8
0
 10
4.848196506500244
 20
18.06131362915039
 30
107.0
 70
   192
  0
VERTEX
  5
D7
  8
0
 10
-19.02371406555176
 20
4.048847198486328
 30
107.0
 70
   192
  0
VERTEX
  5
D8
  8
0
 10
-19.02470016479492
 20
-4.045377254486084
 30
107.0
 70
   192
  0
VERTEX
  5
D9
  8
0
 10
6.000930309295654
 20
-18.50071144104004
 30
107.0
 70
   192
  0
VERTEX
  5
DA
  8
0
 10
-2.045067071914673
 20
-19.34113121032715
 30
107.0
 70
   192
  0
VERTEX
  5
DB
  8
0
 10
-15.72838115692139
 20
11.44064044952393
 30
107.0
 70
   192
  0
VERTEX
  5
DC
  8
0
 10
-9.715803146362305
 20
16.84769058227539
 30
107.0
 70
   192
  0
VERTEX
  5
DD
  8
0
 10
-2.025485992431641
 20
19.343505859375
 30
107.0
 70
   192
  0
VERTEX
  5
DE
  8
0
 10
6.014314651489258
 20
18.49690246582031
 30
107.0
 70
   192
  0
VERTEX
  5
DF
  8
0
 10
13.01984405517578
 20
14.4490909576416
 30
107.0
 70
   192
  0
VERTEX
  5
E0
  8
0
 10
17.77156257629395
 20
7.903299808502197
 30
107.0
 70
   192
  0
VERTEX
  5
E1
  8
0
 10
17.76672172546387
 20
-7.912500381469727
 30
107.0
 70
   192
  0
VERTEX
  5
E2
  8
0
 10
13.01015758514404
 20
-14.45759677886963
 30
107.0
 70
   192
  0
VERTEX
  5
E3
  8
0
 10
-9.733495712280273
 20
-16.83838272094727
 30
107.0
 70
   192
  0
VERTEX
  5
E4
  8
0
 10
-15.7353401184082
 20
-11.43271541595459
 30
107.0
 70
   192
  0
VERTEX
  5
E5
  8
0
 62
     9
 10
0.0
 20
0.0
 30
0.0
 70
   128
 71
     3
 72
     2
 73
     1
  0
VERTEX
  5
E6
  8
0
 62
     9
 10
0.0
 20
0.0
 30
0.0
 70
   128
 71
     6
 72
     5
 73
     4
  0
VERTEX
  5
E7
  8
0
 62
     9
 10
0.0
 20
0.0
 30
0.0
 70
   128
 71
     7
 72
     4
 73
     5
  0
VERTEX
  5
E8
  8
0
 62
     9
 10
0.0
 20
0.0
 30
0.0
 70
   128
 71
     8
 72
     7
 73
     5
  0
VERTEX
  5
E9
  8
0
 62
     9
 10
0.0
 20
0.0
 30
0.0
 70
   128
 71
     6
 72
     4
 73
     9
  0
VERTEX
  5
EA
  8
0
 62
     9
 10
0.0
 20
0.0
 30
0.0
 70
   128
 71
     6
 72
     9
 73
    10
  0
VERTEX
  5
EB
  8
0
 62
     9
 10
0.0
 20
0.0
 30
0.0
 70
   128
 71
    12
 72
    11
 73
     7
  0
VERTEX
  5
EC
  8
0
 62
     9
 10
0.0
 20
0.0
 30
0.0
 70
   128
 71
    14
 72
     9
 73
    13
  0
VERTEX
  5
ED
  8
0
 62
     9
 10
0.0
 20
0.0
 30
0.0
 70
   128
 71
    16
 72
    12
 73
    15
  0
VERTEX
  5
EE
  8
0
 62
     9
 10
0.0
 20
0.0
 30
0.0
 70
   128
 71
    16
 72
     2
 73
     3
  0
VERTEX
  5
EF
  8
0
 62
     9
 10
0.0
 20
0.0
 30
0.0
 70
   128
 71
    12
 72
     8
 73
    15
  0
VERTEX
  5
F0
  8
0
 62
     9
 10
0.0
 20
0.0
 30
0.0
 70
   128
 71
    17
 72
     3
 73
     1
  0
VERTEX
  5
F1
  8
0
 62
     9
 10
0.0
 20
0.0
 30
0.0
 70
   128
 71
     2
 72
    16
 73
    15
  0
VERTEX
  5
F2
  8
0
 62
     9
 10
0.0
 20
0.0
 30
0.0
 70
   128
 71
     3
 72
    19
 73
    18
  0
VERTEX
  5
F3
  8
0
 62
     9
 10
0.0
 20
0.0
 30
0.0
 70
   128
 71
     3
 72
    17
 73
    19
  0
VERTEX
  5
F4
  8
0
 62
     9
 10
0.0
 20
0.0
 30
0.0
 70
   128
 71
    18
 72
    20
 73
    16
  0
VERTEX
  5
F5
  8
0
 62
     9
 10
0.0
 20
0.0
 30
0.0
 70
   128
 71
    16
 72
     3
 73
    18
  0
VERTEX
  5
F6
  8
0
 62
     9
 10
0.0
 20
0.0
 30
0.0
 70
   128
 71
    20
 72
    11
 73
    12
  0
VERTEX
  5
F7
  8
0
 62
     9
 10
0.0
 20
0.0
 30
0.0
 70
   128
 71
    12
 72
    16
 73
    20
  0
VERTEX
  5
F8
  8
0
 62
     9
 10
0.0
 20
0.0
 30
0.0
 70
   128
 71
    11
 72
    21
 73
     7
  0
VERTEX
  5
F9
  8
0
 62
     9
 10
0.0
 20
0.0
 30
0.0
 70
   128
 71
    22
 72
     4
 73
    21
  0
VERTEX
  5
FA
  8
0
 62
     9
 10
0.0
 20
0.0
 30
0.0
 70
   128
 71
    12
 72
     7
 73
     8
  0
VERTEX
  5
FB
  8
0
 62
     9
 10
0.0
 20
0.0
 30
0.0
 70
   128
 71
     4
 72
     7
 73
    21
  0
VERTEX
  5
FC
  8
0
 62
     9
 10
0.0
 20
0.0
 30
0.0
 70
   128
 71
    10
 72
     9
 73
    14
  0
VERTEX
  5
FD
  8
0
 62
     9
 10
0.0
 20
0.0
 30
0.0
 70
   128
 71
    22
 72
     9
 73
     4
  0
VERTEX
  5
FE
  8
0
 62
     9
 10
0.0
 20
0.0
 30
0.0
 70
   128
 71
     9
 72
    22
 73
    13
  0
VERTEX
  5
FF
  8
0
 62
     9
 10
0.0
 20
0.0
 30
0.0
 70
   128
 71
    25
 72
    24
 73
    23
  0
VERTEX
  5
100
  8
0
 62
     9
 10
0.0
 20
0.0
 30
0.0
 70
   128
 71
    28
 72
    27
 73
    26
  0
VERTEX
  5
101
  8
0
 62
     9
 10
0.0
 20
0.0
 30
0.0
 70
   128
 71
    29
 72
    26
 73
    27
  0
VERTEX
  5
102
  8
0
 62
     9
 10
0.0
 20
0.0
 30
0.0
 70
   128
 71
    30
 72
    29
 73
    27
  0
VERTEX
  5
103
  8
0
 62
     9
 10
0.0
 20
0.0
 30
0.0
 70
   128
 71
    28
 72
    26
 73
    31
  0
VERTEX
  5
104
  8
0
 62
     9
 10
0.0
 20
0.0
 30
0.0
 70
   128
 71
    28
 72
    31
 73
     1
  0
VERTEX
  5
105
  8
0
 62
     9
 10
0.0
 20
0.0
 30
0.0
 70
   128
 71
    33
 72
    32
 73
    29
  0
VERTEX
  5
106
  8
0
 62
     9
 10
0.0
 20
0.0
 30
0.0
 70
   128
 71
    17
 72
    31
 73
    19
  0
VERTEX
  5
107
  8
0
 62
     9
 10
0.0
 20
0.0
 30
0.0
 70
   128
 71
    35
 72
    33
 73
    34
  0
VERTEX
  5
108
  8
0
 62
     9
 10
0.0
 20
0.0
 30
0.0
 70
   128
 71
    35
 72
    24
 73
    25
  0
VERTEX
  5
109
  8
0
 62
     9
 10
0.0
 20
0.0
 30
0.0
 70
   128
 71
    33
 72
    30
 73
    34
  0
VERTEX
  5
10A
  8
0
 62
     9
 10
0.0
 20
0.0
 30
0.0
 70
   128
 71
    36
 72
    25
 73
    23
  0
VERTEX
  5
10B
  8
0
 62
     9
 10
0.0
 20
0.0
 30
0.0
 70
   128
 71
    24
 72
    35
 73
    34
  0
VERTEX
  5
10C
  8
0
 62
     9
 10
0.0
 20
0.0
 30
0.0
 70
   128
 71
    25
 72
    38
 73
    37
  0
VERTEX
  5
10D
  8
0
 62
     9
 10
0.0
 20
0.0
 30
0.0
 70
   128
 71
    25
 72
    36
 73
    38
  0
VERTEX
  5
10E
  8
0
 62
     9
 10
0.0
 20
0.0
 30
0.0
 70
   128
 71
    37
 72
    39
 73
    35
  0
VERTEX
  5
10F
  8
0
 62
     9
 10
0.0
 20
0.0
 30
0.0
 70
   128
 71
    35
 72
    25
 73
    37
  0
VERTEX
  5
110
  8
0
 62
     9
 10
0.0
 20
0.0
 30
0.0
 70
   128
 71
    39
 72
    32
 73
    33
  0
VERTEX
  5
111
  8
0
 62
     9
 10
0.0
 20
0.0
 30
0.0
 70
   128
 71
    33
 72
    35
 73
    39
  0
VERTEX
  5
112
  8
0
 62
     9
 10
0.0
 20
0.0
 30
0.0
 70
   128
 71
    32
 72
    40
 73
    29
  0
VERTEX
  5
113
  8
0
 62
     9
 10
0.0
 20
0.0
 30
0.0
 70
   128
 71
    41
 72
    26
 73
    40
  0
VERTEX
  5
114
  8
0
 62
     9
 10
0.0
 20
0.0
 30
0.0
 70
   128
 71
    33
 72
    29
 73
    30
  0
VERTEX
  5
115
  8
0
 62
     9
 10
0.0
 20
0.0
 30
0.0
 70
   128
 71
    26
 72
    29
 73
    40
  0
VERTEX
  5
116
  8
0
 62
     9
 10
0.0
 20
0.0
 30
0.0
 70
   128
 71
     1
 72
    31
 73
    17
  0
VERTEX
  5
117
  8
0
 62
     9
 10
0.0
 20
0.0
 30
0.0
 70
   128
 71
    41
 72
    31
 73
    26
  0
VERTEX
  5
118
  8
0
 62
     9
 10
0.0
 20
0.0
 30
0.0
 70
   128
 71
    31
 72
    41
 73
    19
  0
VERTEX
  5
119
  8
0
 62
     9
 10
0.0
 20
0.0
 30
0.0
 70
   128
 71
    44
 72
    43
 73
    42
  0
VERTEX
  5
11A
  8
0
 62
     9
 10
0.0
 20
0.0
 30
0.0
 70
   128
 71
    47
 72
    46
 73
    45
  0
VERTEX
  5
11B
  8
0
 62
     9
 10
0.0
 20
0.0
 30
0.0
 70
   128
 71
    48
 72
    45
 73
    46
  0
VERTEX
  5
11C
  8
0
 62
     9
 10
0.0
 20
0.0
 30
0.0
 70
   128
 71
    49
 72
    48
 73
    46
  0
VERTEX
  5
11D
  8
0
 62
     9
 10
0.0
 20
0.0
 30
0.0
 70
   128
 71
    47
 72
    45
 73
    50
  0
VERTEX
  5
11E
  8
0
 62
     9
 10
0.0
 20
0.0
 30
0.0
 70
   128
 71
    47
 72
    50
 73
    23
  0
VERTEX
  5
11F
  8
0
 62
     9
 10
0.0
 20
0.0
 30
0.0
 70
   128
 71
    52
 72
    51
 73
    48
  0
VERTEX
  5
120
  8
0
 62
     9
 10
0.0
 20
0.0
 30
0.0
 70
   128
 71
    36
 72
    50
 73
    38
  0
VERTEX
  5
121
  8
0
 62
     9
 10
0.0
 20
0.0
 30
0.0
 70
   128
 71
    54
 72
    52
 73
    53
  0
VERTEX
  5
122
  8
0
 62
     9
 10
0.0
 20
0.0
 30
0.0
 70
   128
 71
    54
 72
    43
 73
    44
  0
VERTEX
  5
123
  8
0
 62
     9
 10
0.0
 20
0.0
 30
0.0
 70
   128
 71
    52
 72
    49
 73
    53
  0
VERTEX
  5
124
  8
0
 62
     9
 10
0.0
 20
0.0
 30
0.0
 70
   128
 71
    55
 72
    44
 73
    42
  0
VERTEX
  5
125
  8
0
 62
     9
 10
0.0
 20
0.0
 30
0.0
 70
   128
 71
    43
 72
    54
 73
    53
  0
VERTEX
  5
126
  8
0
 62
     9
 10
0.0
 20
0.0
 30
0.0
 70
   128
 71
    44
 72
    57
 73
    56
  0
VERTEX
  5
127
  8
0
 62
     9
 10
0.0
 20
0.0
 30
0.0
 70
   128
 71
    44
 72
    55
 73
    57
  0
VERTEX
  5
128
  8
0
 62
     9
 10
0.0
 20
0.0
 30
0.0
 70
   128
 71
    56
 72
    58
 73
    54
  0
VERTEX
  5
129
  8
0
 62
     9
 10
0.0
 20
0.0
 30
0.0
 70
   128
 71
    54
 72
    44
 73
    56
  0
VERTEX
  5
12A
  8
0
 62
     9
 10
0.0
 20
0.0
 30
0.0
 70
   128
 71
    58
 72
    51
 73
    52
  0
VERTEX
  5
12B
  8
0
 62
     9
 10
0.0
 20
0.0
 30
0.0
 70
   128
 71
    52
 72
    54
 73
    58
  0
VERTEX
  5
12C
  8
0
 62
     9
 10
0.0
 20
0.0
 30
0.0
 70
   128
 71
    51
 72
    59
 73
    48
  0
VERTEX
  5
12D
  8
0
 62
     9
 10
0.0
 20
0.0
 30
0.0
 70
   128
 71
    60
 72
    45
 73
    59
  0
VERTEX
  5
12E
  8
0
 62
     9
 10
0.0
 20
0.0
 30
0.0
 70
   128
 71
    52
 72
    48
 73
    49
  0
VERTEX
  5
12F
  8
0
 62
     9
 10
0.0
 20
0.0
 30
0.0
 70
   128
 71
    45
 72
    48
 73
    59
  0
VERTEX
  5
130
  8
0
 62
     9
 10
0.0
 20
0.0
 30
0.0
 70
   128
 71
    23
 72
    50
 73
    36
  0
VERTEX
  5
131
  8
0
 62
     9
 10
0.0
 20
0.0
 30
0.0
 70
   128
 71
    60
 72
    50
 73
    45
  0
VERTEX
  5
132
  8
0
 62
     9
 10
0.0
 20
0.0
 30
0.0
 70
   128
 71
    50
 72
    60
 73
    38
  0
VERTEX
  5
133
  8
0
 62
     9
 10
0.0
 20
0.0
 30
0.0
 70
   128
 71
    63
 72
    62
 73
    61
  0
VERTEX
  5
134
  8
0
 62
     9
 10
0.0
 20
0.0
 30
0.0
 70
   128
 71
    66
 72
    65
 73
    64
  0
VERTEX
  5
135
  8
0
 62
     9
 10
0.0
 20
0.0
 30
0.0
 70
   128
 71
    67
 72
    63
 73
    61
  0
VERTEX
  5
136
  8
0
 62
     9
 10
0.0
 20
0.0
 30
0.0
 70
   128
 71
    68
 72
    67
 73
    13
  0
VERTEX
  5
137
  8
0
 62
     9
 10
0.0
 20
0.0
 30
0.0
 70
   128
 71
    71
 72
    70
 73
    69
  0
VERTEX
  5
138
  8
0
 62
     9
 10
0.0
 20
0.0
 30
0.0
 70
   128
 71
    55
 72
    72
 73
    57
  0
VERTEX
  5
139
  8
0
 62
     9
 10
0.0
 20
0.0
 30
0.0
 70
   128
 71
    72
 72
    42
 73
    71
  0
VERTEX
  5
13A
  8
0
 62
     9
 10
0.0
 20
0.0
 30
0.0
 70
   128
 71
    65
 72
    69
 73
    70
  0
VERTEX
  5
13B
  8
0
 62
     9
 10
0.0
 20
0.0
 30
0.0
 70
   128
 71
    71
 72
    69
 73
    72
  0
VERTEX
  5
13C
  8
0
 62
     9
 10
0.0
 20
0.0
 30
0.0
 70
   128
 71
    64
 72
    62
 73
    63
  0
VERTEX
  5
13D
  8
0
 62
     9
 10
0.0
 20
0.0
 30
0.0
 70
   128
 71
    65
 72
    70
 73
    73
  0
VERTEX
  5
13E
  8
0
 62
     9
 10
0.0
 20
0.0
 30
0.0
 70
   128
 71
    61
 72
    10
 73
    67
  0
VERTEX
  5
13F
  8
0
 62
     9
 10
0.0
 20
0.0
 30
0.0
 70
   128
 71
    73
 72
    62
 73
    64
  0
VERTEX
  5
140
  8
0
 62
     9
 10
0.0
 20
0.0
 30
0.0
 70
   128
 71
    10
 72
    14
 73
    67
  0
VERTEX
  5
141
  8
0
 62
     9
 10
0.0
 20
0.0
 30
0.0
 70
   128
 71
    67
 72
    14
 73
    13
  0
VERTEX
  5
142
  8
0
 62
     9
 10
0.0
 20
0.0
 30
0.0
 70
   128
 71
    68
 72
    74
 73
    63
  0
VERTEX
  5
143
  8
0
 62
     9
 10
0.0
 20
0.0
 30
0.0
 70
   128
 71
    63
 72
    67
 73
    68
  0
VERTEX
  5
144
  8
0
 62
     9
 10
0.0
 20
0.0
 30
0.0
 70
   128
 71
    74
 72
    66
 73
    64
  0
VERTEX
  5
145
  8
0
 62
     9
 10
0.0
 20
0.0
 30
0.0
 70
   128
 71
    64
 72
    63
 73
    74
  0
VERTEX
  5
146
  8
0
 62
     9
 10
0.0
 20
0.0
 30
0.0
 70
   128
 71
    66
 72
    75
 73
    65
  0
VERTEX
  5
147
  8
0
 62
     9
 10
0.0
 20
0.0
 30
0.0
 70
   128
 71
    76
 72
    69
 73
    75
  0
VERTEX
  5
148
  8
0
 62
     9
 10
0.0
 20
0.0
 30
0.0
 70
   128
 71
    64
 72
    65
 73
    73
  0
VERTEX
  5
149
  8
0
 62
     9
 10
0.0
 20
0.0
 30
0.0
 70
   128
 71
    69
 72
    65
 73
    75
  0
VERTEX
  5
14A
  8
0
 62
     9
 10
0.0
 20
0.0
 30
0.0
 70
   128
 71
    42
 72
    72
 73
    55
  0
VERTEX
  5
14B
  8
0
 62
     9
 10
0.0
 20
0.0
 30
0.0
 70
   128
 71
    76
 72
    72
 73
    69
  0
VERTEX
  5
14C
  8
0
 62
     9
 10
0.0
 20
0.0
 30
0.0
 70
   128
 71
    72
 72
    76
 73
    57
  0
VERTEX
  5
14D
  8
0
 62
     9
 10
0.0
 20
0.0
 30
0.0
 70
   128
 71
    78
 72
    38
 73
    77
  0
VERTEX
  5
14E
  8
0
 62
     9
 10
0.0
 20
0.0
 30
0.0
 70
   128
 71
    19
 72
    80
 73
    79
  0
VERTEX
  5
14F
  8
0
 62
     9
 10
0.0
 20
0.0
 30
0.0
 70
   128
 71
    60
 72
    59
 73
    77
  0
VERTEX
  5
150
  8
0
 62
     9
 10
0.0
 20
0.0
 30
0.0
 70
   128
 71
    38
 72
    60
 73
    77
  0
VERTEX
  5
151
  8
0
 62
     9
 10
0.0
 20
0.0
 30
0.0
 70
   128
 71
    59
 72
    81
 73
    77
  0
VERTEX
  5
152
  8
0
 62
     9
 10
0.0
 20
0.0
 30
0.0
 70
   128
 71
    81
 72
    51
 73
    82
  0
VERTEX
  5
153
  8
0
 62
     9
 10
0.0
 20
0.0
 30
0.0
 70
   128
 71
    59
 72
    51
 73
    81
  0
VERTEX
  5
154
  8
0
 62
     9
 10
0.0
 20
0.0
 30
0.0
 70
   128
 71
    58
 72
    56
 73
    82
  0
VERTEX
  5
155
  8
0
 62
     9
 10
0.0
 20
0.0
 30
0.0
 70
   128
 71
    51
 72
    58
 73
    82
  0
VERTEX
  5
156
  8
0
 62
     9
 10
0.0
 20
0.0
 30
0.0
 70
   128
 71
    56
 72
    83
 73
    82
  0
VERTEX
  5
157
  8
0
 62
     9
 10
0.0
 20
0.0
 30
0.0
 70
   128
 71
    83
 72
    57
 73
    84
  0
VERTEX
  5
158
  8
0
 62
     9
 10
0.0
 20
0.0
 30
0.0
 70
   128
 71
    56
 72
    57
 73
    83
  0
VERTEX
  5
159
  8
0
 62
     9
 10
0.0
 20
0.0
 30
0.0
 70
   128
 71
    57
 72
    76
 73
    84
  0
VERTEX
  5
15A
  8
0
 62
     9
 10
0.0
 20
0.0
 30
0.0
 70
   128
 71
    84
 72
    75
 73
    85
  0
VERTEX
  5
15B
  8
0
 62
     9
 10
0.0
 20
0.0
 30
0.0
 70
   128
 71
    76
 72
    75
 73
    84
  0
VERTEX
  5
15C
  8
0
 62
     9
 10
0.0
 20
0.0
 30
0.0
 70
   128
 71
    66
 72
    74
 73
    85
  0
VERTEX
  5
15D
  8
0
 62
     9
 10
0.0
 20
0.0
 30
0.0
 70
   128
 71
    75
 72
    66
 73
    85
  0
VERTEX
  5
15E
  8
0
 62
     9
 10
0.0
 20
0.0
 30
0.0
 70
   128
 71
    74
 72
    86
 73
    85
  0
VERTEX
  5
15F
  8
0
 62
     9
 10
0.0
 20
0.0
 30
0.0
 70
   128
 71
    86
 72
    68
 73
    13
  0
VERTEX
  5
160
  8
0
 62
     9
 10
0.0
 20
0.0
 30
0.0
 70
   128
 71
    74
 72
    68
 73
    86
  0
VERTEX
  5
161
  8
0
 62
     9
 10
0.0
 20
0.0
 30
0.0
 70
   128
 71
    22
 72
    87
 73
    13
  0
VERTEX
  5
162
  8
0
 62
     9
 10
0.0
 20
0.0
 30
0.0
 70
   128
 71
    87
 72
    21
 73
    88
  0
VERTEX
  5
163
  8
0
 62
     9
 10
0.0
 20
0.0
 30
0.0
 70
   128
 71
    22
 72
    21
 73
    87
  0
VERTEX
  5
164
  8
0
 62
     9
 10
0.0
 20
0.0
 30
0.0
 70
   128
 71
    21
 72
    11
 73
    88
  0
VERTEX
  5
165
  8
0
 62
     9
 10
0.0
 20
0.0
 30
0.0
 70
   128
 71
    88
 72
    20
 73
    79
  0
VERTEX
  5
166
  8
0
 62
     9
 10
0.0
 20
0.0
 30
0.0
 70
   128
 71
    11
 72
    20
 73
    88
  0
VERTEX
  5
167
  8
0
 62
     9
 10
0.0
 20
0.0
 30
0.0
 70
   128
 71
    18
 72
    19
 73
    79
  0
VERTEX
  5
168
  8
0
 62
     9
 10
0.0
 20
0.0
 30
0.0
 70
   128
 71
    20
 72
    18
 73
    79
  0
VERTEX
  5
169
  8
0
 62
     9
 10
0.0
 20
0.0
 30
0.0
 70
   128
 71
    80
 72
    41
 73
    89
  0
VERTEX
  5
16A
  8
0
 62
     9
 10
0.0
 20
0.0
 30
0.0
 70
   128
 71
    19
 72
    41
 73
    80
  0
VERTEX
  5
16B
  8
0
 62
     9
 10
0.0
 20
0.0
 30
0.0
 70
   128
 71
    40
 72
    32
 73
    89
  0
VERTEX
  5
16C
  8
0
 62
     9
 10
0.0
 20
0.0
 30
0.0
 70
   128
 71
    41
 72
    40
 73
    89
  0
VERTEX
  5
16D
  8
0
 62
     9
 10
0.0
 20
0.0
 30
0.0
 70
   128
 71
    32
 72
    90
 73
    89
  0
VERTEX
  5
16E
  8
0
 62
     9
 10
0.0
 20
0.0
 30
0.0
 70
   128
 71
    90
 72
    39
 73
    78
  0
VERTEX
  5
16F
  8
0
 62
     9
 10
0.0
 20
0.0
 30
0.0
 70
   128
 71
    32
 72
    39
 73
    90
  0
VERTEX
  5
170
  8
0
 62
     9
 10
0.0
 20
0.0
 30
0.0
 70
   128
 71
    78
 72
    37
 73
    38
  0
VERTEX
  5
171
  8
0
 62
     9
 10
0.0
 20
0.0
 30
0.0
 70
   128
 71
    39
 72
    37
 73
    78
  0
SEQEND
  5
172
  8
0
 62
     9
  0
ENDBLK
  5
175
  8
0
  0
BLOCK
  8
0
  2
40
 70
     0
 10
0.0
 20
0.0
 30
0.0
  3
40
  1

  0
POLYLINE
  5
177
  8
0
 62
     9
 66
     1
 10
0.0
 20
0.0
 30
0.0
 70
    64
 71
    26
 72
    24
  0
VERTEX
  5
178
  8
0
 10
101.8240737915039
 20
8.87457275390625
 30
89.06594848632812
 70
   192
  0
VERTEX
  5
179
  8
0
 10
88.83013916015625
 20
-3.558930635452271
 30
83.8160629272461
 70
   192
  0
VERTEX
  5
17A
  8
0
 10
99.7324447631836
 20
9.729937553405762
 30
88.22087860107422
 70
   192
  0
VERTEX
  5
17B
  8
0
 10
88.28700256347656
 20
1.203623294830322
 30
83.59661865234375
 70
   192
  0
VERTEX
  5
17C
  8
0
 10
88.82128143310547
 20
3.552859783172607
 30
83.81248474121094
 70
   192
  0
VERTEX
  5
17D
  8
0
 10
95.28649139404297
 20
9.738091468811035
 30
86.42459106445312
 70
   192
  0
VERTEX
  5
17E
  8
0
 10
91.3469009399414
 20
7.507206916809082
 30
84.83290100097656
 70
   192
  0
VERTEX
  5
17F
  8
0
 10
93.19081115722656
 20
8.879858016967773
 30
85.577880859375
 70
   192
  0
VERTEX
  5
180
  8
0
 10
97.51419067382812
 20
10.02499961853027
 30
87.32464599609375
 70
   192
  0
VERTEX
  5
181
  8
0
 10
88.28884887695312
 20
-1.214300394058228
 30
83.59736633300781
 70
   192
  0
VERTEX
  5
182
  8
0
 10
89.86113739013672
 20
5.698465347290039
 30
84.23261260986328
 70
   192
  0
VERTEX
  5
183
  8
0
 10
103.6668014526367
 20
7.503952503204346
 30
89.81046295166016
 70
   192
  0
VERTEX
  5
184
  8
0
 10
89.87449645996094
 20
-5.69559907913208
 30
84.23800659179688
 70
   192
  0
VERTEX
  5
185
  8
0
 10
91.36157989501953
 20
-7.503952503204346
 30
84.83882904052734
 70
   192
  0
VERTEX
  5
186
  8
0
 10
105.1538848876953
 20
5.69559907913208
 30
90.4112777709961
 70
   192
  0
VERTEX
  5
187
  8
0
 10
106.1982421875
 20
3.558930635452271
 30
90.8332290649414
 70
   192
  0
VERTEX
  5
188
  8
0
 10
93.20430755615234
 20
-8.87457275390625
 30
85.58333587646484
 70
   192
  0
VERTEX
  5
189
  8
0
 10
95.29593658447266
 20
-9.729937553405762
 30
86.42841339111328
 70
   192
  0
VERTEX
  5
18A
  8
0
 10
97.51419067382812
 20
-10.02499961853027
 30
87.32464599609375
 70
   192
  0
VERTEX
  5
18B
  8
0
 10
106.7395248413086
 20
1.214300394058228
 30
91.05192565917969
 70
   192
  0
VERTEX
  5
18C
  8
0
 10
99.74188995361328
 20
-9.738091468811035
 30
88.22469329833984
 70
   192
  0
VERTEX
  5
18D
  8
0
 10
106.7413787841797
 20
-1.203623294830322
 30
91.05266571044922
 70
   192
  0
VERTEX
  5
18E
  8
0
 10
106.2070922851562
 20
-3.552859783172607
 30
90.83680725097656
 70
   192
  0
VERTEX
  5
18F
  8
0
 10
105.1672439575195
 20
-5.698465347290039
 30
90.41667938232422
 70
   192
  0
VERTEX
  5
190
  8
0
 10
101.8375701904297
 20
-8.879858016967773
 30
89.07140350341797
 70
   192
  0
VERTEX
  5
191
  8
0
 10
103.6814727783203
 20
-7.507206916809082
 30
89.81639099121094
 70
   192
  0
VERTEX
  5
192
  8
0
 62
     9
 10
0.0
 20
0.0
 30
0.0
 70
   128
 71
     3
 72
     2
 73
     1
  0
VERTEX
  5
193
  8
0
 62
     9
 10
0.0
 20
0.0
 30
0.0
 70
   128
 71
     6
 72
     5
 73
     4
  0
VERTEX
  5
194
  8
0
 62
     9
 10
0.0
 20
0.0
 30
0.0
 70
   128
 71
     6
 72
     8
 73
     7
  0
VERTEX
  5
195
  8
0
 62
     9
 10
0.0
 20
0.0
 30
0.0
 70
   128
 71
     4
 72
    10
 73
     9
  0
VERTEX
  5
196
  8
0
 62
     9
 10
0.0
 20
0.0
 30
0.0
 70
   128
 71
     5
 72
     6
 73
    11
  0
VERTEX
  5
197
  8
0
 62
     9
 10
0.0
 20
0.0
 30
0.0
 70
   128
 71
     6
 72
     7
 73
    11
  0
VERTEX
  5
198
  8
0
 62
     9
 10
0.0
 20
0.0
 30
0.0
 70
   128
 71
     6
 72
     4
 73
     9
  0
VERTEX
  5
199
  8
0
 62
     9
 10
0.0
 20
0.0
 30
0.0
 70
   128
 71
    10
 72
     2
 73
     3
  0
VERTEX
  5
19A
  8
0
 62
     9
 10
0.0
 20
0.0
 30
0.0
 70
   128
 71
    10
 72
     3
 73
     9
  0
VERTEX
  5
19B
  8
0
 62
     9
 10
0.0
 20
0.0
 30
0.0
 70
   128
 71
    13
 72
    12
 73
     1
  0
VERTEX
  5
19C
  8
0
 62
     9
 10
0.0
 20
0.0
 30
0.0
 70
   128
 71
    13
 72
     1
 73
     2
  0
VERTEX
  5
19D
  8
0
 62
     9
 10
0.0
 20
0.0
 30
0.0
 70
   128
 71
    13
 72
    14
 73
    12
  0
VERTEX
  5
19E
  8
0
 62
     9
 10
0.0
 20
0.0
 30
0.0
 70
   128
 71
    14
 72
    15
 73
    12
  0
VERTEX
  5
19F
  8
0
 62
     9
 10
0.0
 20
0.0
 30
0.0
 70
   128
 71
    15
 72
    17
 73
    16
  0
VERTEX
  5
1A0
  8
0
 62
     9
 10
0.0
 20
0.0
 30
0.0
 70
   128
 71
    17
 72
    15
 73
    14
  0
VERTEX
  5
1A1
  8
0
 62
     9
 10
0.0
 20
0.0
 30
0.0
 70
   128
 71
    17
 72
    18
 73
    16
  0
VERTEX
  5
1A2
  8
0
 62
     9
 10
0.0
 20
0.0
 30
0.0
 70
   128
 71
    20
 72
    18
 73
    19
  0
VERTEX
  5
1A3
  8
0
 62
     9
 10
0.0
 20
0.0
 30
0.0
 70
   128
 71
    18
 72
    20
 73
    16
  0
VERTEX
  5
1A4
  8
0
 62
     9
 10
0.0
 20
0.0
 30
0.0
 70
   128
 71
    23
 72
    22
 73
    21
  0
VERTEX
  5
1A5
  8
0
 62
     9
 10
0.0
 20
0.0
 30
0.0
 70
   128
 71
    22
 72
    20
 73
    19
  0
VERTEX
  5
1A6
  8
0
 62
     9
 10
0.0
 20
0.0
 30
0.0
 70
   128
 71
    23
 72
    25
 73
    24
  0
VERTEX
  5
1A7
  8
0
 62
     9
 10
0.0
 20
0.0
 30
0.0
 70
   128
 71
    25
 72
    26
 73
    24
  0
VERTEX
  5
1A8
  8
0
 62
     9
 10
0.0
 20
0.0
 30
0.0
 70
   128
 71
    19
 72
    21
 73
    22
  0
VERTEX
  5
1A9
  8
0
 62
     9
 10
0.0
 20
0.0
 30
0.0
 70
   128
 71
    23
 72
    21
 73
    25
  0
SEQEND
  5
1AA
  8
0
 62
     9
  0
ENDBLK
  5
1AD
  8
0
  0
BLOCK
  8
0
  2
41
 70
     0
 10
0.0
 20
0.0
 30
0.0
  3
41
  1

  0
POLYLINE
  5
1AF
  8
0
 62
     9
 66
     1
 10
0.0
 20
0.0
 30
0.0
 70
    64
 71
   135
 72
   226
  0
VERTEX
  5
1B0
  8
0
 10
86.7724838256836
 20
-0.0000000000000013
 30
87.08314514160156
 70
   192
  0
VERTEX
  5
1B1
  8
0
 10
88.57162475585938
 20
0.0103601068258286
 30
82.6330795288086
 70
   192
  0
VERTEX
  5
1B2
  8
0
 10
89.0244140625
 20
-3.099323272705078
 30
82.8160171508789
 70
   192
  0
VERTEX
  5
1B3
  8
0
 10
87.23342895507812
 20
3.113473176956177
 30
87.26937866210938
 70
   192
  0
VERTEX
  5
1B4
  8
0
 10
89.02857971191406
 20
3.111265659332275
 30
82.81770324707031
 70
   192
  0
VERTEX
  5
1B5
  8
0
 10
90.61930847167969
 20
8.135910034179688
 30
88.63736724853516
 70
   192
  0
VERTEX
  5
1B6
  8
0
 10
90.35409545898438
 20
5.912840843200684
 30
83.3532485961914
 70
   192
  0
VERTEX
  5
1B7
  8
0
 10
88.5583724975586
 20
5.909772872924805
 30
87.8046875
 70
   192
  0
VERTEX
  5
1B8
  8
0
 10
92.42002868652344
 20
8.13584041595459
 30
84.18793487548828
 70
   192
  0
VERTEX
  5
1B9
  8
0
 10
95.01254272460938
 20
9.559259414672852
 30
85.23538208007812
 70
   192
  0
VERTEX
  5
1BA
  8
0
 10
93.22383880615234
 20
9.502857208251953
 30
89.68965911865234
 70
   192
  0
VERTEX
  5
1BB
  8
0
 10
96.09068298339844
 20
10.05000019073486
 30
90.84794616699219
 70
   192
  0
VERTEX
  5
1BC
  8
0
 10
97.8887939453125
 20
10.05000019073486
 30
86.3974609375
 70
   192
  0
VERTEX
  5
1BD
  8
0
 10
87.22723388671875
 20
-3.099177122116089
 30
87.26687622070312
 70
   192
  0
VERTEX
  5
1BE
  8
0
 10
90.3454818725586
 20
-5.899191379547119
 30
83.34976196289062
 70
   192
  0
VERTEX
  5
1BF
  8
0
 10
88.5470199584961
 20
-5.903810977935791
 30
87.80010223388672
 70
   192
  0
VERTEX
  5
1C0
  8
0
 10
90.60829162597656
 20
-8.130605697631836
 30
88.6329116821289
 70
   192
  0
VERTEX
  5
1C1
  8
0
 10
92.40604400634766
 20
-8.125934600830078
 30
84.18228149414062
 70
   192
  0
VERTEX
  5
1C2
  8
0
 10
94.9991226196289
 20
-9.554110527038574
 30
85.2299575805664
 70
   192
  0
VERTEX
  5
1C3
  8
0
 10
93.2083511352539
 20
-9.522933006286621
 30
89.68340301513672
 70
   192
  0
VERTEX
  5
1C4
  8
0
 10
97.8887939453125
 20
-10.04781627655029
 30
86.3974609375
 70
   192
  0
VERTEX
  5
1C5
  8
0
 10
96.09068298339844
 20
-10.05000019073486
 30
90.84794616699219
 70
   192
  0
VERTEX
  5
1C6
  8
0
 10
100.9641418457031
 20
10.22502040863037
 30
87.63998413085938
 70
   192
  0
VERTEX
  5
1C7
  8
0
 10
103.741943359375
 20
8.700541496276855
 30
88.76228332519531
 70
   192
  0
VERTEX
  5
1C8
  8
0
 10
103.0117950439453
 20
9.790250778198242
 30
88.80976867675781
 70
   192
  0
VERTEX
  5
1C9
  8
0
 10
107.3656921386719
 20
3.32810640335083
 30
90.22637176513672
 70
   192
  0
VERTEX
  5
1CA
  8
0
 10
106.8485336303711
 20
5.648739814758301
 30
90.35990905761719
 70
   192
  0
VERTEX
  5
1CB
  8
0
 10
105.9499206542969
 20
6.321956634521484
 30
89.65436553955078
 70
   192
  0
VERTEX
  5
1CC
  8
0
 10
105.1801452636719
 20
7.996707439422607
 30
89.68583679199219
 70
   192
  0
VERTEX
  5
1CD
  8
0
 10
100.4859161376953
 20
10.91962146759033
 30
87.78924560546875
 70
   192
  0
VERTEX
  5
1CE
  8
0
 10
107.8903656005859
 20
2.920409202575684
 30
90.78083801269531
 70
   192
  0
VERTEX
  5
1CF
  8
0
 10
97.8887939453125
 20
10.75
 30
86.3974609375
 70
   192
  0
VERTEX
  5
1D0
  8
0
 10
97.76984405517578
 20
11.30000019073486
 30
86.69187927246094
 70
   192
  0
VERTEX
  5
1D1
  8
0
 10
107.8554611206055
 20
0.0081024533137679
 30
90.42425537109375
 70
   192
  0
VERTEX
  5
1D2
  8
0
 10
108.2470169067383
 20
0.0000000000000306
 30
90.92493438720703
 70
   192
  0
VERTEX
  5
1D3
  8
0
 10
107.8836517333984
 20
-2.932462930679321
 30
90.77812194824219
 70
   192
  0
VERTEX
  5
1D4
  8
0
 10
107.369514465332
 20
-3.316784381866455
 30
90.22792053222656
 70
   192
  0
VERTEX
  5
1D5
  8
0
 10
106.8316192626953
 20
-5.653984546661377
 30
90.35308074951172
 70
   192
  0
VERTEX
  5
1D6
  8
0
 10
105.1691131591797
 20
-7.987827301025391
 30
89.68138122558594
 70
   192
  0
VERTEX
  5
1D7
  8
0
 10
105.9544372558594
 20
-6.315277576446533
 30
89.65618896484375
 70
   192
  0
VERTEX
  5
1D8
  8
0
 10
103.7521514892578
 20
-8.692551612854004
 30
88.76641082763672
 70
   192
  0
VERTEX
  5
1D9
  8
0
 10
102.9970474243164
 20
-9.784041404724121
 30
88.8038101196289
 70
   192
  0
VERTEX
  5
1DA
  8
0
 10
100.9727554321289
 20
-10.2222957611084
 30
87.64346313476562
 70
   192
  0
VERTEX
  5
1DB
  8
0
 10
100.4733047485352
 20
-10.91084861755371
 30
87.78414916992188
 70
   192
  0
VERTEX
  5
1DC
  8
0
 10
97.8887939453125
 20
-10.75
 30
86.3974609375
 70
   192
  0
VERTEX
  5
1DD
  8
0
 10
97.76984405517578
 20
-11.30000019073486
 30
86.69187927246094
 70
   192
  0
VERTEX
  5
1DE
  8
0
 10
107.6774749755859
 20
4.181920051574707
 30
91.62886047363281
 70
   192
  0
VERTEX
  5
1DF
  8
0
 10
108.3063507080078
 20
1.416733622550964
 30
91.88294219970703
 70
   192
  0
VERTEX
  5
1E0
  8
0
 10
104.7046737670898
 20
8.836413383483887
 30
90.42777252197266
 70
   192
  0
VERTEX
  5
1E1
  8
0
 10
106.4535064697266
 20
6.707420349121094
 30
91.13434600830078
 70
   192
  0
VERTEX
  5
1E2
  8
0
 10
102.534294128418
 20
10.45210266113281
 30
89.5508804321289
 70
   192
  0
VERTEX
  5
1E3
  8
0
 10
100.0675582885742
 20
11.46229267120361
 30
88.55425262451172
 70
   192
  0
VERTEX
  5
1E4
  8
0
 10
97.44542694091797
 20
11.80000019073486
 30
87.49484252929688
 70
   192
  0
VERTEX
  5
1E5
  8
0
 10
108.3041763305664
 20
-1.429301261901855
 30
91.88206481933594
 70
   192
  0
VERTEX
  5
1E6
  8
0
 10
107.6670532226562
 20
-4.189065456390381
 30
91.62464904785156
 70
   192
  0
VERTEX
  5
1E7
  8
0
 10
106.4377822875977
 20
-6.704047203063965
 30
91.12799072265625
 70
   192
  0
VERTEX
  5
1E8
  8
0
 10
104.6874008178711
 20
-8.832582473754883
 30
90.42079162597656
 70
   192
  0
VERTEX
  5
1E9
  8
0
 10
102.5184020996094
 20
-10.44588088989258
 30
89.54446411132812
 70
   192
  0
VERTEX
  5
1EA
  8
0
 10
100.0564422607422
 20
-11.4526948928833
 30
88.54976654052734
 70
   192
  0
VERTEX
  5
1EB
  8
0
 10
97.44542694091797
 20
-11.80000019073486
 30
87.49484252929688
 70
   192
  0
VERTEX
  5
1EC
  8
0
 10
105.6454086303711
 20
-0.0000000000000031
 30
98.69888305664062
 70
   192
  0
VERTEX
  5
1ED
  8
0
 10
105.2659606933594
 20
3.062217950820923
 30
98.54557800292969
 70
   192
  0
VERTEX
  5
1EE
  8
0
 10
104.1673812866211
 20
5.904160976409912
 30
98.10172271728516
 70
   192
  0
VERTEX
  5
1EF
  8
0
 10
102.4313125610352
 20
8.34127140045166
 30
97.40029907226562
 70
   192
  0
VERTEX
  5
1F0
  8
0
 10
100.1631393432617
 20
10.21696376800537
 30
96.48390197753906
 70
   192
  0
VERTEX
  5
1F1
  8
0
 10
97.52772521972656
 20
11.39362907409668
 30
95.41912078857422
 70
   192
  0
VERTEX
  5
1F2
  8
0
 10
94.70464324951172
 20
11.80000019073486
 30
94.27852630615234
 70
   192
  0
VERTEX
  5
1F3
  8
0
 10
105.2729721069336
 20
-3.049630641937256
 30
98.54840850830078
 70
   192
  0
VERTEX
  5
1F4
  8
0
 10
104.1850433349609
 20
-5.898684024810791
 30
98.10885620117188
 70
   192
  0
VERTEX
  5
1F5
  8
0
 10
102.4428329467773
 20
-8.350543975830078
 30
97.40495300292969
 70
   192
  0
VERTEX
  5
1F6
  8
0
 10
100.1785354614258
 20
-10.22344779968262
 30
96.49011993408203
 70
   192
  0
VERTEX
  5
1F7
  8
0
 10
97.5408935546875
 20
-11.40279006958008
 30
95.42444610595703
 70
   192
  0
VERTEX
  5
1F8
  8
0
 10
94.70464324951172
 20
-11.80000019073486
 30
94.27852630615234
 70
   192
  0
VERTEX
  5
1F9
  8
0
 10
94.82328796386719
 20
11.46229267120361
 30
86.43543243408203
 70
   192
  0
VERTEX
  5
1FA
  8
0
 10
85.22423553466797
 20
5.898684024810791
 30
90.44818878173828
 70
   192
  0
VERTEX
  5
1FB
  8
0
 10
88.43733978271484
 20
6.707420349121094
 30
83.8553466796875
 70
   192
  0
VERTEX
  5
1FC
  8
0
 10
86.96644592285156
 20
8.350543975830078
 30
91.15209197998047
 70
   192
  0
VERTEX
  5
1FD
  8
0
 10
90.18617248535156
 20
8.836413383483887
 30
84.56192016601562
 70
   192
  0
VERTEX
  5
1FE
  8
0
 10
92.35655212402344
 20
10.45210266113281
 30
85.43881225585938
 70
   192
  0
VERTEX
  5
1FF
  8
0
 10
89.23074340820312
 20
10.22344779968262
 30
92.06692504882812
 70
   192
  0
VERTEX
  5
200
  8
0
 10
83.76387023925781
 20
-0.0000000000000058
 30
89.85816192626953
 70
   192
  0
VERTEX
  5
201
  8
0
 10
84.14331817626953
 20
-3.062217950820923
 30
90.011474609375
 70
   192
  0
VERTEX
  5
202
  8
0
 10
86.586669921875
 20
-1.429301261901855
 30
83.10762786865234
 70
   192
  0
VERTEX
  5
203
  8
0
 10
87.21337890625
 20
4.181920051574707
 30
83.36083221435547
 70
   192
  0
VERTEX
  5
204
  8
0
 10
84.13630676269531
 20
3.049630641937256
 30
90.00863647460938
 70
   192
  0
VERTEX
  5
205
  8
0
 10
86.5844955444336
 20
1.416733622550964
 30
83.10674285888672
 70
   192
  0
VERTEX
  5
206
  8
0
 10
85.24189758300781
 20
-5.904160976409912
 30
90.45532989501953
 70
   192
  0
VERTEX
  5
207
  8
0
 10
86.97796630859375
 20
-8.34127140045166
 30
91.15674591064453
 70
   192
  0
VERTEX
  5
208
  8
0
 10
88.45306396484375
 20
-6.704047203063965
 30
83.8616943359375
 70
   192
  0
VERTEX
  5
209
  8
0
 10
87.22380065917969
 20
-4.189065456390381
 30
83.36504364013672
 70
   192
  0
VERTEX
  5
20A
  8
0
 10
89.24614715576172
 20
-10.21696376800537
 30
92.07315063476562
 70
   192
  0
VERTEX
  5
20B
  8
0
 10
92.37244415283203
 20
-10.44588088989258
 30
85.44522857666016
 70
   192
  0
VERTEX
  5
20C
  8
0
 10
90.20344543457031
 20
-8.832582473754883
 30
84.56889343261719
 70
   192
  0
VERTEX
  5
20D
  8
0
 10
94.83441162109375
 20
-11.4526948928833
 30
86.43992614746094
 70
   192
  0
VERTEX
  5
20E
  8
0
 10
91.88155364990234
 20
-11.39362907409668
 30
93.13792419433594
 70
   192
  0
VERTEX
  5
20F
  8
0
 10
91.86839294433594
 20
11.40279006958008
 30
93.13260650634766
 70
   192
  0
VERTEX
  5
210
  8
0
 10
95.25881958007812
 20
10.97660160064697
 30
85.67736053466797
 70
   192
  0
VERTEX
  5
211
  8
0
 10
92.8966064453125
 20
10.00921630859375
 30
84.72296142578125
 70
   192
  0
VERTEX
  5
212
  8
0
 10
87.97135925292969
 20
4.004719734191895
 30
82.7330322265625
 70
   192
  0
VERTEX
  5
213
  8
0
 10
87.36912536621094
 20
1.356702566146851
 30
82.48971557617188
 70
   192
  0
VERTEX
  5
214
  8
0
 10
89.1434555053711
 20
6.423207759857178
 30
83.20659637451172
 70
   192
  0
VERTEX
  5
215
  8
0
 10
87.98133850097656
 20
-4.011562347412109
 30
82.73706817626953
 70
   192
  0
VERTEX
  5
216
  8
0
 10
87.37120819091797
 20
-1.368737578392029
 30
82.49056243896484
 70
   192
  0
VERTEX
  5
217
  8
0
 10
90.83472442626953
 20
-8.458320617675781
 30
83.8899154663086
 70
   192
  0
VERTEX
  5
218
  8
0
 10
89.15851593017578
 20
-6.419977188110352
 30
83.21267700195312
 70
   192
  0
VERTEX
  5
219
  8
0
 10
92.91181945800781
 20
-10.00325870513916
 30
84.72911071777344
 70
   192
  0
VERTEX
  5
21A
  8
0
 10
95.26946258544922
 20
-10.96741104125977
 30
85.6816635131836
 70
   192
  0
VERTEX
  5
21B
  8
0
 10
90.81819152832031
 20
8.46198844909668
 30
83.88323211669922
 70
   192
  0
VERTEX
  5
21C
  8
0
 10
94.80472564697266
 20
10.22218227386475
 30
85.15141296386719
 70
   192
  0
VERTEX
  5
21D
  8
0
 10
89.82304382324219
 20
6.3150634765625
 30
83.13868713378906
 70
   192
  0
VERTEX
  5
21E
  8
0
 10
92.02565002441406
 20
8.692864418029785
 30
84.02859497070312
 70
   192
  0
VERTEX
  5
21F
  8
0
 10
88.41152954101562
 20
-3.327676773071289
 30
82.56839752197266
 70
   192
  0
VERTEX
  5
220
  8
0
 10
88.4080810546875
 20
3.318488121032715
 30
82.56700134277344
 70
   192
  0
VERTEX
  5
221
  8
0
 10
92.03727722167969
 20
-8.701231002807617
 30
84.03329467773438
 70
   192
  0
VERTEX
  5
222
  8
0
 10
89.82723999023438
 20
-6.32163143157959
 30
83.140380859375
 70
   192
  0
VERTEX
  5
223
  8
0
 10
94.81144714355469
 20
-10.22491455078125
 30
85.15412902832031
 70
   192
  0
VERTEX
  5
224
  8
0
 10
87.92277526855469
 20
-0.0098711960017681
 30
82.37092590332031
 70
   192
  0
VERTEX
  5
225
  8
0
 10
100.772590637207
 20
9.556370735168457
 30
87.56258392333984
 70
   192
  0
VERTEX
  5
226
  8
0
 10
103.3713989257812
 20
8.125969886779785
 30
88.61257934570312
 70
   192
  0
VERTEX
  5
227
  8
0
 10
100.7592239379883
 20
-9.561397552490234
 30
87.55718994140625
 70
   192
  0
VERTEX
  5
228
  8
0
 10
103.3605194091797
 20
-8.134736061096191
 30
88.6081771850586
 70
   192
  0
VERTEX
  5
229
  8
0
 10
105.4223709106445
 20
-5.913917064666748
 30
89.44122314453125
 70
   192
  0
VERTEX
  5
22A
  8
0
 10
106.7479934692383
 20
-3.114268064498901
 30
89.976806640625
 70
   192
  0
VERTEX
  5
22B
  8
0
 10
107.2063064575195
 20
-0.0094975847750902
 30
90.16197967529297
 70
   192
  0
VERTEX
  5
22C
  8
0
 10
106.7525329589844
 20
3.100160121917725
 30
89.9786376953125
 70
   192
  0
VERTEX
  5
22D
  8
0
 10
105.4319076538086
 20
5.899110794067383
 30
89.44507598876953
 70
   192
  0
VERTEX
  5
22E
  8
0
 10
98.97301483154297
 20
9.522933006286621
 30
92.01248168945312
 70
   192
  0
VERTEX
  5
22F
  8
0
 10
105.4088821411133
 20
-0.0000000000000094
 30
94.61273956298828
 70
   192
  0
VERTEX
  5
230
  8
0
 10
104.9541320800781
 20
3.099177122116089
 30
94.42900848388672
 70
   192
  0
VERTEX
  5
231
  8
0
 10
103.6343460083008
 20
5.903810977935791
 30
93.89578247070312
 70
   192
  0
VERTEX
  5
232
  8
0
 10
101.5730743408203
 20
8.130605697631836
 30
93.06297302246094
 70
   192
  0
VERTEX
  5
233
  8
0
 10
103.6229934692383
 20
-5.909772872924805
 30
93.89119720458984
 70
   192
  0
VERTEX
  5
234
  8
0
 10
104.9479370117188
 20
-3.113473176956177
 30
94.42650604248047
 70
   192
  0
VERTEX
  5
235
  8
0
 10
98.95753479003906
 20
-9.502857208251953
 30
92.0062255859375
 70
   192
  0
VERTEX
  5
236
  8
0
 10
101.5620574951172
 20
-8.135910034179688
 30
93.05852508544922
 70
   192
  0
VERTEX
  5
237
  8
0
 62
     9
 10
0.0
 20
0.0
 30
0.0
 70
   128
 71
     3
 72
     2
 73
     1
  0
VERTEX
  5
238
  8
0
 62
     9
 10
0.0
 20
0.0
 30
0.0
 70
   128
 71
     2
 72
     4
 73
     1
  0
VERTEX
  5
239
  8
0
 62
     9
 10
0.0
 20
0.0
 30
0.0
 70
   128
 71
     4
 72
     2
 73
     5
  0
VERTEX
  5
23A
  8
0
 62
     9
 10
0.0
 20
0.0
 30
0.0
 70
   128
 71
     8
 72
     7
 73
     6
  0
VERTEX
  5
23B
  8
0
 62
     9
 10
0.0
 20
0.0
 30
0.0
 70
   128
 71
     5
 72
     7
 73
     8
  0
VERTEX
  5
23C
  8
0
 62
     9
 10
0.0
 20
0.0
 30
0.0
 70
   128
 71
     6
 72
     7
 73
     9
  0
VERTEX
  5
23D
  8
0
 62
     9
 10
0.0
 20
0.0
 30
0.0
 70
   128
 71
    11
 72
     9
 73
    10
  0
VERTEX
  5
23E
  8
0
 62
     9
 10
0.0
 20
0.0
 30
0.0
 70
   128
 71
     6
 72
     9
 73
    11
  0
VERTEX
  5
23F
  8
0
 62
     9
 10
0.0
 20
0.0
 30
0.0
 70
   128
 71
    10
 72
    12
 73
    11
  0
VERTEX
  5
240
  8
0
 62
     9
 10
0.0
 20
0.0
 30
0.0
 70
   128
 71
    13
 72
    12
 73
    10
  0
VERTEX
  5
241
  8
0
 62
     9
 10
0.0
 20
0.0
 30
0.0
 70
   128
 71
     8
 72
     4
 73
     5
  0
VERTEX
  5
242
  8
0
 62
     9
 10
0.0
 20
0.0
 30
0.0
 70
   128
 71
     1
 72
    14
 73
     3
  0
VERTEX
  5
243
  8
0
 62
     9
 10
0.0
 20
0.0
 30
0.0
 70
   128
 71
    14
 72
    16
 73
    15
  0
VERTEX
  5
244
  8
0
 62
     9
 10
0.0
 20
0.0
 30
0.0
 70
   128
 71
    15
 72
     3
 73
    14
  0
VERTEX
  5
245
  8
0
 62
     9
 10
0.0
 20
0.0
 30
0.0
 70
   128
 71
    18
 72
    16
 73
    17
  0
VERTEX
  5
246
  8
0
 62
     9
 10
0.0
 20
0.0
 30
0.0
 70
   128
 71
    16
 72
    18
 73
    15
  0
VERTEX
  5
247
  8
0
 62
     9
 10
0.0
 20
0.0
 30
0.0
 70
   128
 71
    20
 72
    19
 73
    17
  0
VERTEX
  5
248
  8
0
 62
     9
 10
0.0
 20
0.0
 30
0.0
 70
   128
 71
    18
 72
    17
 73
    19
  0
VERTEX
  5
249
  8
0
 62
     9
 10
0.0
 20
0.0
 30
0.0
 70
   128
 71
    20
 72
    22
 73
    21
  0
VERTEX
  5
24A
  8
0
 62
     9
 10
0.0
 20
0.0
 30
0.0
 70
   128
 71
    21
 72
    19
 73
    20
  0
VERTEX
  5
24B
  8
0
 62
     9
 10
0.0
 20
0.0
 30
0.0
 70
   128
 71
    25
 72
    24
 73
    23
  0
VERTEX
  5
24C
  8
0
 62
     9
 10
0.0
 20
0.0
 30
0.0
 70
   128
 71
    28
 72
    27
 73
    26
  0
VERTEX
  5
24D
  8
0
 62
     9
 10
0.0
 20
0.0
 30
0.0
 70
   128
 71
    28
 72
    24
 73
    29
  0
VERTEX
  5
24E
  8
0
 62
     9
 10
0.0
 20
0.0
 30
0.0
 70
   128
 71
    24
 72
    25
 73
    29
  0
VERTEX
  5
24F
  8
0
 62
     9
 10
0.0
 20
0.0
 30
0.0
 70
   128
 71
    27
 72
    28
 73
    29
  0
VERTEX
  5
250
  8
0
 62
     9
 10
0.0
 20
0.0
 30
0.0
 70
   128
 71
    25
 72
    23
 73
    30
  0
VERTEX
  5
251
  8
0
 62
     9
 10
0.0
 20
0.0
 30
0.0
 70
   128
 71
    26
 72
    27
 73
    31
  0
VERTEX
  5
252
  8
0
 62
     9
 10
0.0
 20
0.0
 30
0.0
 70
   128
 71
    33
 72
    30
 73
    32
  0
VERTEX
  5
253
  8
0
 62
     9
 10
0.0
 20
0.0
 30
0.0
 70
   128
 71
    26
 72
    31
 73
    34
  0
VERTEX
  5
254
  8
0
 62
     9
 10
0.0
 20
0.0
 30
0.0
 70
   128
 71
    30
 72
    23
 73
    32
  0
VERTEX
  5
255
  8
0
 62
     9
 10
0.0
 20
0.0
 30
0.0
 70
   128
 71
    36
 72
    34
 73
    35
  0
VERTEX
  5
256
  8
0
 62
     9
 10
0.0
 20
0.0
 30
0.0
 70
   128
 71
    34
 72
    31
 73
    35
  0
VERTEX
  5
257
  8
0
 62
     9
 10
0.0
 20
0.0
 30
0.0
 70
   128
 71
    36
 72
    38
 73
    37
  0
VERTEX
  5
258
  8
0
 62
     9
 10
0.0
 20
0.0
 30
0.0
 70
   128
 71
    37
 72
    34
 73
    36
  0
VERTEX
  5
259
  8
0
 62
     9
 10
0.0
 20
0.0
 30
0.0
 70
   128
 71
    40
 72
    38
 73
    39
  0
VERTEX
  5
25A
  8
0
 62
     9
 10
0.0
 20
0.0
 30
0.0
 70
   128
 71
    38
 72
    40
 73
    37
  0
VERTEX
  5
25B
  8
0
 62
     9
 10
0.0
 20
0.0
 30
0.0
 70
   128
 71
    42
 72
    41
 73
    39
  0
VERTEX
  5
25C
  8
0
 62
     9
 10
0.0
 20
0.0
 30
0.0
 70
   128
 71
    40
 72
    39
 73
    41
  0
VERTEX
  5
25D
  8
0
 62
     9
 10
0.0
 20
0.0
 30
0.0
 70
   128
 71
    42
 72
    44
 73
    43
  0
VERTEX
  5
25E
  8
0
 62
     9
 10
0.0
 20
0.0
 30
0.0
 70
   128
 71
    43
 72
    41
 73
    42
  0
VERTEX
  5
25F
  8
0
 62
     9
 10
0.0
 20
0.0
 30
0.0
 70
   128
 71
    44
 72
    45
 73
    43
  0
VERTEX
  5
260
  8
0
 62
     9
 10
0.0
 20
0.0
 30
0.0
 70
   128
 71
    44
 72
    46
 73
    45
  0
VERTEX
  5
261
  8
0
 62
     9
 10
0.0
 20
0.0
 30
0.0
 70
   128
 71
    31
 72
    27
 73
    47
  0
VERTEX
  5
262
  8
0
 62
     9
 10
0.0
 20
0.0
 30
0.0
 70
   128
 71
    47
 72
    48
 73
    31
  0
VERTEX
  5
263
  8
0
 62
     9
 10
0.0
 20
0.0
 30
0.0
 70
   128
 71
    49
 72
    29
 73
    25
  0
VERTEX
  5
264
  8
0
 62
     9
 10
0.0
 20
0.0
 30
0.0
 70
   128
 71
    27
 72
    50
 73
    47
  0
VERTEX
  5
265
  8
0
 62
     9
 10
0.0
 20
0.0
 30
0.0
 70
   128
 71
    49
 72
    25
 73
    51
  0
VERTEX
  5
266
  8
0
 62
     9
 10
0.0
 20
0.0
 30
0.0
 70
   128
 71
    50
 72
    29
 73
    49
  0
VERTEX
  5
267
  8
0
 62
     9
 10
0.0
 20
0.0
 30
0.0
 70
   128
 71
    50
 72
    27
 73
    29
  0
VERTEX
  5
268
  8
0
 62
     9
 10
0.0
 20
0.0
 30
0.0
 70
   128
 71
    51
 72
    30
 73
    52
  0
VERTEX
  5
269
  8
0
 62
     9
 10
0.0
 20
0.0
 30
0.0
 70
   128
 71
    35
 72
    31
 73
    48
  0
VERTEX
  5
26A
  8
0
 62
     9
 10
0.0
 20
0.0
 30
0.0
 70
   128
 71
    25
 72
    30
 73
    51
  0
VERTEX
  5
26B
  8
0
 62
     9
 10
0.0
 20
0.0
 30
0.0
 70
   128
 71
    33
 72
    52
 73
    30
  0
VERTEX
  5
26C
  8
0
 62
     9
 10
0.0
 20
0.0
 30
0.0
 70
   128
 71
    52
 72
    33
 73
    53
  0
VERTEX
  5
26D
  8
0
 62
     9
 10
0.0
 20
0.0
 30
0.0
 70
   128
 71
    36
 72
    35
 73
    54
  0
VERTEX
  5
26E
  8
0
 62
     9
 10
0.0
 20
0.0
 30
0.0
 70
   128
 71
    48
 72
    54
 73
    35
  0
VERTEX
  5
26F
  8
0
 62
     9
 10
0.0
 20
0.0
 30
0.0
 70
   128
 71
    55
 72
    38
 73
    36
  0
VERTEX
  5
270
  8
0
 62
     9
 10
0.0
 20
0.0
 30
0.0
 70
   128
 71
    36
 72
    54
 73
    55
  0
VERTEX
  5
271
  8
0
 62
     9
 10
0.0
 20
0.0
 30
0.0
 70
   128
 71
    38
 72
    56
 73
    39
  0
VERTEX
  5
272
  8
0
 62
     9
 10
0.0
 20
0.0
 30
0.0
 70
   128
 71
    56
 72
    38
 73
    55
  0
VERTEX
  5
273
  8
0
 62
     9
 10
0.0
 20
0.0
 30
0.0
 70
   128
 71
    42
 72
    39
 73
    57
  0
VERTEX
  5
274
  8
0
 62
     9
 10
0.0
 20
0.0
 30
0.0
 70
   128
 71
    56
 72
    57
 73
    39
  0
VERTEX
  5
275
  8
0
 62
     9
 10
0.0
 20
0.0
 30
0.0
 70
   128
 71
    58
 72
    44
 73
    42
  0
VERTEX
  5
276
  8
0
 62
     9
 10
0.0
 20
0.0
 30
0.0
 70
   128
 71
    42
 72
    57
 73
    58
  0
VERTEX
  5
277
  8
0
 62
     9
 10
0.0
 20
0.0
 30
0.0
 70
   128
 71
    44
 72
    59
 73
    46
  0
VERTEX
  5
278
  8
0
 62
     9
 10
0.0
 20
0.0
 30
0.0
 70
   128
 71
    59
 72
    44
 73
    58
  0
VERTEX
  5
279
  8
0
 62
     9
 10
0.0
 20
0.0
 30
0.0
 70
   128
 71
    59
 72
    60
 73
    46
  0
VERTEX
  5
27A
  8
0
 62
     9
 10
0.0
 20
0.0
 30
0.0
 70
   128
 71
    54
 72
    48
 73
    61
  0
VERTEX
  5
27B
  8
0
 62
     9
 10
0.0
 20
0.0
 30
0.0
 70
   128
 71
    62
 72
    48
 73
    47
  0
VERTEX
  5
27C
  8
0
 62
     9
 10
0.0
 20
0.0
 30
0.0
 70
   128
 71
    48
 72
    62
 73
    61
  0
VERTEX
  5
27D
  8
0
 62
     9
 10
0.0
 20
0.0
 30
0.0
 70
   128
 71
    50
 72
    63
 73
    47
  0
VERTEX
  5
27E
  8
0
 62
     9
 10
0.0
 20
0.0
 30
0.0
 70
   128
 71
    62
 72
    47
 73
    63
  0
VERTEX
  5
27F
  8
0
 62
     9
 10
0.0
 20
0.0
 30
0.0
 70
   128
 71
    50
 72
    49
 73
    64
  0
VERTEX
  5
280
  8
0
 62
     9
 10
0.0
 20
0.0
 30
0.0
 70
   128
 71
    64
 72
    63
 73
    50
  0
VERTEX
  5
281
  8
0
 62
     9
 10
0.0
 20
0.0
 30
0.0
 70
   128
 71
    65
 72
    49
 73
    51
  0
VERTEX
  5
282
  8
0
 62
     9
 10
0.0
 20
0.0
 30
0.0
 70
   128
 71
    49
 72
    65
 73
    64
  0
VERTEX
  5
283
  8
0
 62
     9
 10
0.0
 20
0.0
 30
0.0
 70
   128
 71
    52
 72
    66
 73
    51
  0
VERTEX
  5
284
  8
0
 62
     9
 10
0.0
 20
0.0
 30
0.0
 70
   128
 71
    65
 72
    51
 73
    66
  0
VERTEX
  5
285
  8
0
 62
     9
 10
0.0
 20
0.0
 30
0.0
 70
   128
 71
    67
 72
    66
 73
    52
  0
VERTEX
  5
286
  8
0
 62
     9
 10
0.0
 20
0.0
 30
0.0
 70
   128
 71
    53
 72
    67
 73
    52
  0
VERTEX
  5
287
  8
0
 62
     9
 10
0.0
 20
0.0
 30
0.0
 70
   128
 71
    61
 72
    68
 73
    54
  0
VERTEX
  5
288
  8
0
 62
     9
 10
0.0
 20
0.0
 30
0.0
 70
   128
 71
    69
 72
    55
 73
    68
  0
VERTEX
  5
289
  8
0
 62
     9
 10
0.0
 20
0.0
 30
0.0
 70
   128
 71
    54
 72
    68
 73
    55
  0
VERTEX
  5
28A
  8
0
 62
     9
 10
0.0
 20
0.0
 30
0.0
 70
   128
 71
    69
 72
    70
 73
    56
  0
VERTEX
  5
28B
  8
0
 62
     9
 10
0.0
 20
0.0
 30
0.0
 70
   128
 71
    56
 72
    55
 73
    69
  0
VERTEX
  5
28C
  8
0
 62
     9
 10
0.0
 20
0.0
 30
0.0
 70
   128
 71
    57
 72
    70
 73
    71
  0
VERTEX
  5
28D
  8
0
 62
     9
 10
0.0
 20
0.0
 30
0.0
 70
   128
 71
    70
 72
    57
 73
    56
  0
VERTEX
  5
28E
  8
0
 62
     9
 10
0.0
 20
0.0
 30
0.0
 70
   128
 71
    72
 72
    58
 73
    71
  0
VERTEX
  5
28F
  8
0
 62
     9
 10
0.0
 20
0.0
 30
0.0
 70
   128
 71
    57
 72
    71
 73
    58
  0
VERTEX
  5
290
  8
0
 62
     9
 10
0.0
 20
0.0
 30
0.0
 70
   128
 71
    72
 72
    73
 73
    59
  0
VERTEX
  5
291
  8
0
 62
     9
 10
0.0
 20
0.0
 30
0.0
 70
   128
 71
    59
 72
    58
 73
    72
  0
VERTEX
  5
292
  8
0
 62
     9
 10
0.0
 20
0.0
 30
0.0
 70
   128
 71
    73
 72
    60
 73
    59
  0
VERTEX
  5
293
  8
0
 62
     9
 10
0.0
 20
0.0
 30
0.0
 70
   128
 71
    67
 72
    53
 73
    74
  0
VERTEX
  5
294
  8
0
 62
     9
 10
0.0
 20
0.0
 30
0.0
 70
   128
 71
    77
 72
    76
 73
    75
  0
VERTEX
  5
295
  8
0
 62
     9
 10
0.0
 20
0.0
 30
0.0
 70
   128
 71
    80
 72
    79
 73
    78
  0
VERTEX
  5
296
  8
0
 62
     9
 10
0.0
 20
0.0
 30
0.0
 70
   128
 71
    83
 72
    82
 73
    81
  0
VERTEX
  5
297
  8
0
 62
     9
 10
0.0
 20
0.0
 30
0.0
 70
   128
 71
    86
 72
    85
 73
    84
  0
VERTEX
  5
298
  8
0
 62
     9
 10
0.0
 20
0.0
 30
0.0
 70
   128
 71
    89
 72
    88
 73
    87
  0
VERTEX
  5
299
  8
0
 62
     9
 10
0.0
 20
0.0
 30
0.0
 70
   128
 71
    87
 72
    82
 73
    90
  0
VERTEX
  5
29A
  8
0
 62
     9
 10
0.0
 20
0.0
 30
0.0
 70
   128
 71
    93
 72
    92
 73
    91
  0
VERTEX
  5
29B
  8
0
 62
     9
 10
0.0
 20
0.0
 30
0.0
 70
   128
 71
    91
 72
    88
 73
    93
  0
VERTEX
  5
29C
  8
0
 62
     9
 10
0.0
 20
0.0
 30
0.0
 70
   128
 71
    95
 72
    92
 73
    94
  0
VERTEX
  5
29D
  8
0
 62
     9
 10
0.0
 20
0.0
 30
0.0
 70
   128
 71
    92
 72
    95
 73
    91
  0
VERTEX
  5
29E
  8
0
 62
     9
 10
0.0
 20
0.0
 30
0.0
 70
   128
 71
    60
 72
    73
 73
    94
  0
VERTEX
  5
29F
  8
0
 62
     9
 10
0.0
 20
0.0
 30
0.0
 70
   128
 71
    95
 72
    94
 73
    73
  0
VERTEX
  5
2A0
  8
0
 62
     9
 10
0.0
 20
0.0
 30
0.0
 70
   128
 71
    87
 72
    90
 73
    89
  0
VERTEX
  5
2A1
  8
0
 62
     9
 10
0.0
 20
0.0
 30
0.0
 70
   128
 71
    93
 72
    88
 73
    89
  0
VERTEX
  5
2A2
  8
0
 62
     9
 10
0.0
 20
0.0
 30
0.0
 70
   128
 71
    81
 72
    86
 73
    83
  0
VERTEX
  5
2A3
  8
0
 62
     9
 10
0.0
 20
0.0
 30
0.0
 70
   128
 71
    90
 72
    82
 73
    83
  0
VERTEX
  5
2A4
  8
0
 62
     9
 10
0.0
 20
0.0
 30
0.0
 70
   128
 71
    84
 72
    85
 73
    75
  0
VERTEX
  5
2A5
  8
0
 62
     9
 10
0.0
 20
0.0
 30
0.0
 70
   128
 71
    86
 72
    81
 73
    85
  0
VERTEX
  5
2A6
  8
0
 62
     9
 10
0.0
 20
0.0
 30
0.0
 70
   128
 71
    78
 72
    76
 73
    77
  0
VERTEX
  5
2A7
  8
0
 62
     9
 10
0.0
 20
0.0
 30
0.0
 70
   128
 71
    76
 72
    84
 73
    75
  0
VERTEX
  5
2A8
  8
0
 62
     9
 10
0.0
 20
0.0
 30
0.0
 70
   128
 71
    96
 72
    79
 73
    80
  0
VERTEX
  5
2A9
  8
0
 62
     9
 10
0.0
 20
0.0
 30
0.0
 70
   128
 71
    80
 72
    78
 73
    77
  0
VERTEX
  5
2AA
  8
0
 62
     9
 10
0.0
 20
0.0
 30
0.0
 70
   128
 71
    74
 72
    96
 73
    67
  0
VERTEX
  5
2AB
  8
0
 62
     9
 10
0.0
 20
0.0
 30
0.0
 70
   128
 71
    96
 72
    74
 73
    79
  0
VERTEX
  5
2AC
  8
0
 62
     9
 10
0.0
 20
0.0
 30
0.0
 70
   128
 71
    33
 72
    97
 73
    74
  0
VERTEX
  5
2AD
  8
0
 62
     9
 10
0.0
 20
0.0
 30
0.0
 70
   128
 71
    78
 72
    79
 73
    98
  0
VERTEX
  5
2AE
  8
0
 62
     9
 10
0.0
 20
0.0
 30
0.0
 70
   128
 71
   100
 72
    86
 73
    99
  0
VERTEX
  5
2AF
  8
0
 62
     9
 10
0.0
 20
0.0
 30
0.0
 70
   128
 71
    76
 72
   101
 73
    84
  0
VERTEX
  5
2B0
  8
0
 62
     9
 10
0.0
 20
0.0
 30
0.0
 70
   128
 71
    89
 72
    90
 73
   102
  0
VERTEX
  5
2B1
  8
0
 62
     9
 10
0.0
 20
0.0
 30
0.0
 70
   128
 71
    83
 72
   103
 73
    90
  0
VERTEX
  5
2B2
  8
0
 62
     9
 10
0.0
 20
0.0
 30
0.0
 70
   128
 71
    92
 72
    93
 73
   104
  0
VERTEX
  5
2B3
  8
0
 62
     9
 10
0.0
 20
0.0
 30
0.0
 70
   128
 71
   105
 72
   104
 73
    93
  0
VERTEX
  5
2B4
  8
0
 62
     9
 10
0.0
 20
0.0
 30
0.0
 70
   128
 71
   106
 72
    94
 73
    92
  0
VERTEX
  5
2B5
  8
0
 62
     9
 10
0.0
 20
0.0
 30
0.0
 70
   128
 71
    92
 72
   104
 73
   106
  0
VERTEX
  5
2B6
  8
0
 62
     9
 10
0.0
 20
0.0
 30
0.0
 70
   128
 71
    94
 72
   107
 73
    60
  0
VERTEX
  5
2B7
  8
0
 62
     9
 10
0.0
 20
0.0
 30
0.0
 70
   128
 71
   107
 72
    94
 73
   106
  0
VERTEX
  5
2B8
  8
0
 62
     9
 10
0.0
 20
0.0
 30
0.0
 70
   128
 71
   107
 72
    46
 73
    60
  0
VERTEX
  5
2B9
  8
0
 62
     9
 10
0.0
 20
0.0
 30
0.0
 70
   128
 71
   105
 72
    89
 73
   102
  0
VERTEX
  5
2BA
  8
0
 62
     9
 10
0.0
 20
0.0
 30
0.0
 70
   128
 71
    93
 72
    89
 73
   105
  0
VERTEX
  5
2BB
  8
0
 62
     9
 10
0.0
 20
0.0
 30
0.0
 70
   128
 71
    78
 72
   108
 73
    76
  0
VERTEX
  5
2BC
  8
0
 62
     9
 10
0.0
 20
0.0
 30
0.0
 70
   128
 71
   103
 72
    83
 73
   100
  0
VERTEX
  5
2BD
  8
0
 62
     9
 10
0.0
 20
0.0
 30
0.0
 70
   128
 71
   102
 72
    90
 73
   103
  0
VERTEX
  5
2BE
  8
0
 62
     9
 10
0.0
 20
0.0
 30
0.0
 70
   128
 71
   100
 72
    83
 73
    86
  0
VERTEX
  5
2BF
  8
0
 62
     9
 10
0.0
 20
0.0
 30
0.0
 70
   128
 71
    84
 72
   101
 73
    99
  0
VERTEX
  5
2C0
  8
0
 62
     9
 10
0.0
 20
0.0
 30
0.0
 70
   128
 71
    99
 72
    86
 73
    84
  0
VERTEX
  5
2C1
  8
0
 62
     9
 10
0.0
 20
0.0
 30
0.0
 70
   128
 71
   101
 72
    76
 73
   108
  0
VERTEX
  5
2C2
  8
0
 62
     9
 10
0.0
 20
0.0
 30
0.0
 70
   128
 71
    97
 72
    98
 73
    79
  0
VERTEX
  5
2C3
  8
0
 62
     9
 10
0.0
 20
0.0
 30
0.0
 70
   128
 71
    78
 72
    98
 73
   108
  0
VERTEX
  5
2C4
  8
0
 62
     9
 10
0.0
 20
0.0
 30
0.0
 70
   128
 71
    53
 72
    33
 73
    74
  0
VERTEX
  5
2C5
  8
0
 62
     9
 10
0.0
 20
0.0
 30
0.0
 70
   128
 71
    79
 72
    74
 73
    97
  0
VERTEX
  5
2C6
  8
0
 62
     9
 10
0.0
 20
0.0
 30
0.0
 70
   128
 71
    32
 72
   109
 73
    97
  0
VERTEX
  5
2C7
  8
0
 62
     9
 10
0.0
 20
0.0
 30
0.0
 70
   128
 71
   108
 72
   111
 73
   110
  0
VERTEX
  5
2C8
  8
0
 62
     9
 10
0.0
 20
0.0
 30
0.0
 70
   128
 71
   102
 72
   103
 73
   112
  0
VERTEX
  5
2C9
  8
0
 62
     9
 10
0.0
 20
0.0
 30
0.0
 70
   128
 71
    99
 72
   113
 73
   100
  0
VERTEX
  5
2CA
  8
0
 62
     9
 10
0.0
 20
0.0
 30
0.0
 70
   128
 71
   106
 72
   104
 73
   114
  0
VERTEX
  5
2CB
  8
0
 62
     9
 10
0.0
 20
0.0
 30
0.0
 70
   128
 71
   105
 72
   115
 73
   104
  0
VERTEX
  5
2CC
  8
0
 62
     9
 10
0.0
 20
0.0
 30
0.0
 70
   128
 71
   116
 72
   107
 73
   106
  0
VERTEX
  5
2CD
  8
0
 62
     9
 10
0.0
 20
0.0
 30
0.0
 70
   128
 71
   106
 72
   114
 73
   116
  0
VERTEX
  5
2CE
  8
0
 62
     9
 10
0.0
 20
0.0
 30
0.0
 70
   128
 71
   107
 72
    45
 73
    46
  0
VERTEX
  5
2CF
  8
0
 62
     9
 10
0.0
 20
0.0
 30
0.0
 70
   128
 71
    45
 72
   107
 73
   116
  0
VERTEX
  5
2D0
  8
0
 62
     9
 10
0.0
 20
0.0
 30
0.0
 70
   128
 71
   117
 72
   103
 73
   100
  0
VERTEX
  5
2D1
  8
0
 62
     9
 10
0.0
 20
0.0
 30
0.0
 70
   128
 71
   105
 72
   112
 73
   115
  0
VERTEX
  5
2D2
  8
0
 62
     9
 10
0.0
 20
0.0
 30
0.0
 70
   128
 71
   114
 72
   104
 73
   115
  0
VERTEX
  5
2D3
  8
0
 62
     9
 10
0.0
 20
0.0
 30
0.0
 70
   128
 71
   103
 72
   117
 73
   112
  0
VERTEX
  5
2D4
  8
0
 62
     9
 10
0.0
 20
0.0
 30
0.0
 70
   128
 71
   112
 72
   105
 73
   102
  0
VERTEX
  5
2D5
  8
0
 62
     9
 10
0.0
 20
0.0
 30
0.0
 70
   128
 71
   109
 72
   111
 73
    98
  0
VERTEX
  5
2D6
  8
0
 62
     9
 10
0.0
 20
0.0
 30
0.0
 70
   128
 71
   113
 72
   117
 73
   100
  0
VERTEX
  5
2D7
  8
0
 62
     9
 10
0.0
 20
0.0
 30
0.0
 70
   128
 71
   113
 72
    99
 73
   110
  0
VERTEX
  5
2D8
  8
0
 62
     9
 10
0.0
 20
0.0
 30
0.0
 70
   128
 71
   101
 72
   108
 73
   110
  0
VERTEX
  5
2D9
  8
0
 62
     9
 10
0.0
 20
0.0
 30
0.0
 70
   128
 71
   101
 72
   110
 73
    99
  0
VERTEX
  5
2DA
  8
0
 62
     9
 10
0.0
 20
0.0
 30
0.0
 70
   128
 71
   111
 72
   108
 73
    98
  0
VERTEX
  5
2DB
  8
0
 62
     9
 10
0.0
 20
0.0
 30
0.0
 70
   128
 71
    97
 72
    33
 73
    32
  0
VERTEX
  5
2DC
  8
0
 62
     9
 10
0.0
 20
0.0
 30
0.0
 70
   128
 71
    98
 72
    97
 73
   109
  0
VERTEX
  5
2DD
  8
0
 62
     9
 10
0.0
 20
0.0
 30
0.0
 70
   128
 71
     2
 72
   117
 73
   113
  0
VERTEX
  5
2DE
  8
0
 62
     9
 10
0.0
 20
0.0
 30
0.0
 70
   128
 71
    10
 72
    32
 73
    13
  0
VERTEX
  5
2DF
  8
0
 62
     9
 10
0.0
 20
0.0
 30
0.0
 70
   128
 71
   111
 72
   109
 73
     9
  0
VERTEX
  5
2E0
  8
0
 62
     9
 10
0.0
 20
0.0
 30
0.0
 70
   128
 71
    10
 72
   109
 73
    32
  0
VERTEX
  5
2E1
  8
0
 62
     9
 10
0.0
 20
0.0
 30
0.0
 70
   128
 71
   111
 72
     7
 73
   110
  0
VERTEX
  5
2E2
  8
0
 62
     9
 10
0.0
 20
0.0
 30
0.0
 70
   128
 71
    13
 72
    32
 73
    23
  0
VERTEX
  5
2E3
  8
0
 62
     9
 10
0.0
 20
0.0
 30
0.0
 70
   128
 71
    15
 72
   115
 73
   112
  0
VERTEX
  5
2E4
  8
0
 62
     9
 10
0.0
 20
0.0
 30
0.0
 70
   128
 71
   112
 72
   117
 73
     3
  0
VERTEX
  5
2E5
  8
0
 62
     9
 10
0.0
 20
0.0
 30
0.0
 70
   128
 71
    18
 72
   114
 73
   115
  0
VERTEX
  5
2E6
  8
0
 62
     9
 10
0.0
 20
0.0
 30
0.0
 70
   128
 71
   116
 72
   114
 73
    19
  0
VERTEX
  5
2E7
  8
0
 62
     9
 10
0.0
 20
0.0
 30
0.0
 70
   128
 71
   119
 72
   118
 73
    24
  0
VERTEX
  5
2E8
  8
0
 62
     9
 10
0.0
 20
0.0
 30
0.0
 70
   128
 71
   113
 72
   110
 73
     5
  0
VERTEX
  5
2E9
  8
0
 62
     9
 10
0.0
 20
0.0
 30
0.0
 70
   128
 71
    10
 72
     9
 73
   109
  0
VERTEX
  5
2EA
  8
0
 62
     9
 10
0.0
 20
0.0
 30
0.0
 70
   128
 71
     9
 72
     7
 73
   111
  0
VERTEX
  5
2EB
  8
0
 62
     9
 10
0.0
 20
0.0
 30
0.0
 70
   128
 71
     7
 72
     5
 73
   110
  0
VERTEX
  5
2EC
  8
0
 62
     9
 10
0.0
 20
0.0
 30
0.0
 70
   128
 71
     5
 72
     2
 73
   113
  0
VERTEX
  5
2ED
  8
0
 62
     9
 10
0.0
 20
0.0
 30
0.0
 70
   128
 71
     2
 72
     3
 73
   117
  0
VERTEX
  5
2EE
  8
0
 62
     9
 10
0.0
 20
0.0
 30
0.0
 70
   128
 71
     3
 72
    15
 73
   112
  0
VERTEX
  5
2EF
  8
0
 62
     9
 10
0.0
 20
0.0
 30
0.0
 70
   128
 71
    15
 72
    18
 73
   115
  0
VERTEX
  5
2F0
  8
0
 62
     9
 10
0.0
 20
0.0
 30
0.0
 70
   128
 71
    18
 72
    19
 73
   114
  0
VERTEX
  5
2F1
  8
0
 62
     9
 10
0.0
 20
0.0
 30
0.0
 70
   128
 71
    19
 72
    21
 73
   116
  0
VERTEX
  5
2F2
  8
0
 62
     9
 10
0.0
 20
0.0
 30
0.0
 70
   128
 71
    21
 72
   120
 73
    45
  0
VERTEX
  5
2F3
  8
0
 62
     9
 10
0.0
 20
0.0
 30
0.0
 70
   128
 71
    21
 72
    45
 73
   116
  0
VERTEX
  5
2F4
  8
0
 62
     9
 10
0.0
 20
0.0
 30
0.0
 70
   128
 71
   120
 72
   121
 73
    43
  0
VERTEX
  5
2F5
  8
0
 62
     9
 10
0.0
 20
0.0
 30
0.0
 70
   128
 71
   120
 72
    43
 73
    45
  0
VERTEX
  5
2F6
  8
0
 62
     9
 10
0.0
 20
0.0
 30
0.0
 70
   128
 71
   121
 72
   122
 73
    41
  0
VERTEX
  5
2F7
  8
0
 62
     9
 10
0.0
 20
0.0
 30
0.0
 70
   128
 71
   121
 72
    41
 73
    43
  0
VERTEX
  5
2F8
  8
0
 62
     9
 10
0.0
 20
0.0
 30
0.0
 70
   128
 71
   122
 72
   123
 73
    40
  0
VERTEX
  5
2F9
  8
0
 62
     9
 10
0.0
 20
0.0
 30
0.0
 70
   128
 71
   122
 72
    40
 73
    41
  0
VERTEX
  5
2FA
  8
0
 62
     9
 10
0.0
 20
0.0
 30
0.0
 70
   128
 71
   123
 72
   124
 73
    37
  0
VERTEX
  5
2FB
  8
0
 62
     9
 10
0.0
 20
0.0
 30
0.0
 70
   128
 71
   123
 72
    37
 73
    40
  0
VERTEX
  5
2FC
  8
0
 62
     9
 10
0.0
 20
0.0
 30
0.0
 70
   128
 71
   124
 72
   125
 73
    34
  0
VERTEX
  5
2FD
  8
0
 62
     9
 10
0.0
 20
0.0
 30
0.0
 70
   128
 71
   124
 72
    34
 73
    37
  0
VERTEX
  5
2FE
  8
0
 62
     9
 10
0.0
 20
0.0
 30
0.0
 70
   128
 71
   125
 72
   126
 73
    26
  0
VERTEX
  5
2FF
  8
0
 62
     9
 10
0.0
 20
0.0
 30
0.0
 70
   128
 71
   125
 72
    26
 73
    34
  0
VERTEX
  5
300
  8
0
 62
     9
 10
0.0
 20
0.0
 30
0.0
 70
   128
 71
   126
 72
   119
 73
    28
  0
VERTEX
  5
301
  8
0
 62
     9
 10
0.0
 20
0.0
 30
0.0
 70
   128
 71
   126
 72
    28
 73
    26
  0
VERTEX
  5
302
  8
0
 62
     9
 10
0.0
 20
0.0
 30
0.0
 70
   128
 71
   119
 72
    24
 73
    28
  0
VERTEX
  5
303
  8
0
 62
     9
 10
0.0
 20
0.0
 30
0.0
 70
   128
 71
    23
 72
   118
 73
    13
  0
VERTEX
  5
304
  8
0
 62
     9
 10
0.0
 20
0.0
 30
0.0
 70
   128
 71
   118
 72
    23
 73
    24
  0
VERTEX
  5
305
  8
0
 62
     9
 10
0.0
 20
0.0
 30
0.0
 70
   128
 71
   118
 72
   127
 73
    13
  0
VERTEX
  5
306
  8
0
 62
     9
 10
0.0
 20
0.0
 30
0.0
 70
   128
 71
   129
 72
   125
 73
   128
  0
VERTEX
  5
307
  8
0
 62
     9
 10
0.0
 20
0.0
 30
0.0
 70
   128
 71
   131
 72
   119
 73
   130
  0
VERTEX
  5
308
  8
0
 62
     9
 10
0.0
 20
0.0
 30
0.0
 70
   128
 71
   123
 72
   122
 73
   132
  0
VERTEX
  5
309
  8
0
 62
     9
 10
0.0
 20
0.0
 30
0.0
 70
   128
 71
   123
 72
   133
 73
   124
  0
VERTEX
  5
30A
  8
0
 62
     9
 10
0.0
 20
0.0
 30
0.0
 70
   128
 71
   135
 72
   121
 73
   134
  0
VERTEX
  5
30B
  8
0
 62
     9
 10
0.0
 20
0.0
 30
0.0
 70
   128
 71
   121
 72
   135
 73
   122
  0
VERTEX
  5
30C
  8
0
 62
     9
 10
0.0
 20
0.0
 30
0.0
 70
   128
 71
    22
 72
   134
 73
   120
  0
VERTEX
  5
30D
  8
0
 62
     9
 10
0.0
 20
0.0
 30
0.0
 70
   128
 71
   121
 72
   120
 73
   134
  0
VERTEX
  5
30E
  8
0
 62
     9
 10
0.0
 20
0.0
 30
0.0
 70
   128
 71
    22
 72
   120
 73
    21
  0
VERTEX
  5
30F
  8
0
 62
     9
 10
0.0
 20
0.0
 30
0.0
 70
   128
 71
   132
 72
   133
 73
   123
  0
VERTEX
  5
310
  8
0
 62
     9
 10
0.0
 20
0.0
 30
0.0
 70
   128
 71
   122
 72
   135
 73
   132
  0
VERTEX
  5
311
  8
0
 62
     9
 10
0.0
 20
0.0
 30
0.0
 70
   128
 71
   125
 72
   124
 73
   128
  0
VERTEX
  5
312
  8
0
 62
     9
 10
0.0
 20
0.0
 30
0.0
 70
   128
 71
   124
 72
   133
 73
   128
  0
VERTEX
  5
313
  8
0
 62
     9
 10
0.0
 20
0.0
 30
0.0
 70
   128
 71
   130
 72
   126
 73
   129
  0
VERTEX
  5
314
  8
0
 62
     9
 10
0.0
 20
0.0
 30
0.0
 70
   128
 71
   126
 72
   125
 73
   129
  0
VERTEX
  5
315
  8
0
 62
     9
 10
0.0
 20
0.0
 30
0.0
 70
   128
 71
   118
 72
   119
 73
   131
  0
VERTEX
  5
316
  8
0
 62
     9
 10
0.0
 20
0.0
 30
0.0
 70
   128
 71
   130
 72
   119
 73
   126
  0
VERTEX
  5
317
  8
0
 62
     9
 10
0.0
 20
0.0
 30
0.0
 70
   128
 71
   127
 72
    12
 73
    13
  0
VERTEX
  5
318
  8
0
 62
     9
 10
0.0
 20
0.0
 30
0.0
 70
   128
 71
   131
 72
   127
 73
   118
  0
SEQEND
  5
319
  8
0
 62
     9
  0
ENDBLK
  5
31C
  8
0
  0
BLOCK
  8
0
  2
42
 70
     0
 10
0.0
 20
0.0
 30
0.0
  3
42
  1

  0
POLYLINE
  5
31E
  8
0
 66
     1
 10
0.0
 20
0.0
 30
0.0
 70
    64
 71
    87
 72
   170
  0
VERTEX
  5
31F
  8
0
 10
21.5
 20
21.5
 30
0.0000000000000104
 70
   192
  0
VERTEX
  5
320
  8
0
 10
26.0
 20
-26.0
 30
0.0000000000000104
 70
   192
  0
VERTEX
  5
321
  8
0
 10
26.0
 20
26.0
 30
0.0000000000000104
 70
   192
  0
VERTEX
  5
322
  8
0
 10
21.5
 20
-21.5
 30
0.0000000000000104
 70
   192
  0
VERTEX
  5
323
  8
0
 10
-26.0
 20
26.0
 30
0.0000000000000104
 70
   192
  0
VERTEX
  5
324
  8
0
 10
-21.5
 20
21.5
 30
0.0000000000000104
 70
   192
  0
VERTEX
  5
325
  8
0
 10
-21.5
 20
-21.5
 30
0.0000000000000104
 70
   192
  0
VERTEX
  5
326
  8
0
 10
-26.0
 20
-26.0
 30
0.0000000000000104
 70
   192
  0
VERTEX
  5
327
  8
0
 10
19.29031562805176
 20
19.29035377502441
 30
-10.0
 70
   192
  0
VERTEX
  5
328
  8
0
 10
26.0
 20
-26.0
 30
-10.0
 70
   192
  0
VERTEX
  5
329
  8
0
 10
19.29035377502441
 20
-19.29031753540039
 30
-10.0
 70
   192
  0
VERTEX
  5
32A
  8
0
 10
-26.0
 20
26.0
 30
-10.0
 70
   192
  0
VERTEX
  5
32B
  8
0
 10
26.0
 20
26.0
 30
-10.0
 70
   192
  0
VERTEX
  5
32C
  8
0
 10
-26.0
 20
-26.0
 30
-10.0
 70
   192
  0
VERTEX
  5
32D
  8
0
 10
-19.29031562805176
 20
-19.29035377502441
 30
-10.0
 70
   192
  0
VERTEX
  5
32E
  8
0
 10
-19.29035377502441
 20
19.29031562805176
 30
-10.0
 70
   192
  0
VERTEX
  5
32F
  8
0
 10
13.67871570587158
 20
13.6785945892334
 30
-19.31398010253906
 70
   192
  0
VERTEX
  5
330
  8
0
 10
14.13224506378174
 20
-14.13224792480469
 30
-18.71706199645996
 70
   192
  0
VERTEX
  5
331
  8
0
 10
6.580268383026123
 20
6.58028507232666
 30
-26.08578681945801
 70
   192
  0
VERTEX
  5
332
  8
0
 10
7.61527156829834
 20
-7.615274429321289
 30
-25.41037178039551
 70
   192
  0
VERTEX
  5
333
  8
0
 10
-0.0000000000000008
 20
0.0000000000000018
 30
-28.73168182373047
 70
   192
  0
VERTEX
  5
334
  8
0
 10
-13.6785945892334
 20
13.67871570587158
 30
-19.31398010253906
 70
   192
  0
VERTEX
  5
335
  8
0
 10
-6.58028507232666
 20
6.580268383026123
 30
-26.08578681945801
 70
   192
  0
VERTEX
  5
336
  8
0
 10
-13.67871570587158
 20
-13.6785945892334
 30
-19.31398010253906
 70
   192
  0
VERTEX
  5
337
  8
0
 10
-6.580268383026123
 20
-6.58028507232666
 30
-26.08578681945801
 70
   192
  0
VERTEX
  5
338
  8
0
 10
21.5
 20
21.5
 30
88.0
 70
   192
  0
VERTEX
  5
339
  8
0
 10
-21.5
 20
21.5
 30
107.0
 70
   192
  0
VERTEX
  5
33A
  8
0
 10
110.0
 20
21.5
 30
107.0
 70
   192
  0
VERTEX
  5
33B
  8
0
 10
110.0
 20
21.5
 30
95.29000091552734
 70
   192
  0
VERTEX
  5
33C
  8
0
 10
82.79335021972656
 20
21.5
 30
88.0
 70
   192
  0
VERTEX
  5
33D
  8
0
 10
-21.5
 20
-21.5
 30
107.0
 70
   192
  0
VERTEX
  5
33E
  8
0
 10
21.5
 20
-21.5
 30
88.0
 70
   192
  0
VERTEX
  5
33F
  8
0
 10
82.79335021972656
 20
-21.5
 30
88.0
 70
   192
  0
VERTEX
  5
340
  8
0
 10
110.0
 20
-21.5
 30
95.29000091552734
 70
   192
  0
VERTEX
  5
341
  8
0
 10
110.0
 20
-21.5
 30
107.0
 70
   192
  0
VERTEX
  5
342
  8
0
 10
66.26038360595703
 20
-11.5
 30
147.102783203125
 70
   192
  0
VERTEX
  5
343
  8
0
 10
66.74786376953125
 20
11.5
 30
143.1325988769531
 70
   192
  0
VERTEX
  5
344
  8
0
 10
66.74786376953125
 20
-11.5
 30
143.1325988769531
 70
   192
  0
VERTEX
  5
345
  8
0
 10
66.26038360595703
 20
11.5
 30
147.102783203125
 70
   192
  0
VERTEX
  5
346
  8
0
 10
43.43181228637695
 20
11.5
 30
144.2997894287109
 70
   192
  0
VERTEX
  5
347
  8
0
 10
43.91928863525391
 20
11.5
 30
140.3296051025391
 70
   192
  0
VERTEX
  5
348
  8
0
 10
43.91928863525391
 20
-11.5
 30
140.3296051025391
 70
   192
  0
VERTEX
  5
349
  8
0
 10
43.43181228637695
 20
-11.5
 30
144.2997894287109
 70
   192
  0
VERTEX
  5
34A
  8
0
 10
-19.1359920501709
 20
-19.08321380615234
 30
136.617431640625
 70
   192
  0
VERTEX
  5
34B
  8
0
 10
-19.1359920501709
 20
19.08321380615234
 30
136.617431640625
 70
   192
  0
VERTEX
  5
34C
  8
0
 10
-20.49225997924805
 20
20.43948173522949
 30
121.1152191162109
 70
   192
  0
VERTEX
  5
34D
  8
0
 10
-20.49225997924805
 20
-20.43948173522949
 30
121.1152191162109
 70
   192
  0
VERTEX
  5
34E
  8
0
 10
18.9736328125
 20
19.02641296386719
 30
137.2666625976562
 70
   192
  0
VERTEX
  5
34F
  8
0
 10
79.65974426269531
 20
18.02192497253418
 30
148.7480163574219
 70
   192
  0
VERTEX
  5
350
  8
0
 10
80.14722442626953
 20
18.36927032470703
 30
144.77783203125
 70
   192
  0
VERTEX
  5
351
  8
0
 10
2.305497407913208
 20
21.5
 30
108.9934387207031
 70
   192
  0
VERTEX
  5
352
  8
0
 10
21.44722175598145
 20
21.5
 30
108.9934387207031
 70
   192
  0
VERTEX
  5
353
  8
0
 10
21.44722175598145
 20
-21.5
 30
108.9934387207031
 70
   192
  0
VERTEX
  5
354
  8
0
 10
18.9736328125
 20
-19.02641296386719
 30
137.2666625976562
 70
   192
  0
VERTEX
  5
355
  8
0
 10
2.305497407913208
 20
-21.5
 30
108.9934387207031
 70
   192
  0
VERTEX
  5
356
  8
0
 10
80.14722442626953
 20
-18.36927032470703
 30
144.77783203125
 70
   192
  0
VERTEX
  5
357
  8
0
 10
79.65974426269531
 20
-18.02192497253418
 30
148.7480163574219
 70
   192
  0
VERTEX
  5
358
  8
0
 10
-8.64862060546875
 20
-10.46085834503174
 30
114.8178405761719
 70
   192
  0
VERTEX
  5
359
  8
0
 10
-3.848124265670776
 20
-15.414306640625
 30
112.2653732299805
 70
   192
  0
VERTEX
  5
35A
  8
0
 10
2.305497407913208
 20
17.75856399536133
 30
108.9934387207031
 70
   192
  0
VERTEX
  5
35B
  8
0
 10
-3.884098291397095
 20
15.38253116607666
 30
112.2845001220703
 70
   192
  0
VERTEX
  5
35C
  8
0
 10
-11.28222846984863
 20
-3.733437061309814
 30
116.2181549072266
 70
   192
  0
VERTEX
  5
35D
  8
0
 10
-11.29871559143066
 20
3.631800889968872
 30
116.226921081543
 70
   192
  0
VERTEX
  5
35E
  8
0
 10
-8.688042640686035
 20
10.38722229003906
 30
114.8388061523438
 70
   192
  0
VERTEX
  5
35F
  8
0
 10
2.305497407913208
 20
-17.75856399536133
 30
108.9934387207031
 70
   192
  0
VERTEX
  5
360
  8
0
 10
13.89263534545898
 20
-7.895111083984375
 30
112.0675048828125
 70
   192
  0
VERTEX
  5
361
  8
0
 10
15.12530612945557
 20
0.0000000000004786
 30
113.1252365112305
 70
   192
  0
VERTEX
  5
362
  8
0
 10
17.47046852111816
 20
-3.699140071868896
 30
108.9934387207031
 70
   192
  0
VERTEX
  5
363
  8
0
 10
17.48777770996094
 20
3.601190805435181
 30
108.9934387207031
 70
   192
  0
VERTEX
  5
364
  8
0
 10
8.77747917175293
 20
0.0000000000004844
 30
118.0462951660156
 70
   192
  0
VERTEX
  5
365
  8
0
 10
13.89263534545898
 20
7.895111083984375
 30
112.0675048828125
 70
   192
  0
VERTEX
  5
366
  8
0
 10
6.220425605773926
 20
14.07553100585938
 30
112.8497772216797
 70
   192
  0
VERTEX
  5
367
  8
0
 10
9.22495174407959
 20
15.31649017333984
 30
108.9934387207031
 70
   192
  0
VERTEX
  5
368
  8
0
 10
0.6493077278137207
 20
0.000000000000464
 30
120.0888671875
 70
   192
  0
VERTEX
  5
369
  8
0
 10
0.5922885537147522
 20
7.895111083984375
 30
118.4655914306641
 70
   192
  0
VERTEX
  5
36A
  8
0
 10
9.185100555419922
 20
-15.34785175323486
 30
108.9934387207031
 70
   192
  0
VERTEX
  5
36B
  8
0
 10
6.220425605773926
 20
-14.07553100585938
 30
112.8497772216797
 70
   192
  0
VERTEX
  5
36C
  8
0
 10
8.060340881347656
 20
7.895111083984375
 30
116.5889053344727
 70
   192
  0
VERTEX
  5
36D
  8
0
 10
0.5922885537147522
 20
-7.895111083984375
 30
118.4655914306641
 70
   192
  0
VERTEX
  5
36E
  8
0
 10
8.060340881347656
 20
-7.895111083984375
 30
116.5889053344727
 70
   192
  0
VERTEX
  5
36F
  8
0
 10
14.5399808883667
 20
-10.38654708862305
 30
108.9934387207031
 70
   192
  0
VERTEX
  5
370
  8
0
 10
-6.684583187103271
 20
-7.895111083984375
 30
117.2384796142578
 70
   192
  0
VERTEX
  5
371
  8
0
 10
0.4459984004497528
 20
-14.07553100585938
 30
114.3008651733398
 70
   192
  0
VERTEX
  5
372
  8
0
 10
-6.684583187103271
 20
7.895111083984375
 30
117.2384796142578
 70
   192
  0
VERTEX
  5
373
  8
0
 10
0.4459984004497528
 20
14.07553100585938
 30
114.3008651733398
 70
   192
  0
VERTEX
  5
374
  8
0
 10
14.58305263519287
 20
10.3138256072998
 30
108.9934387207031
 70
   192
  0
VERTEX
  5
375
  8
0
 10
-7.270785331726074
 20
0.0000000000004224
 30
118.7532806396484
 70
   192
  0
VERTEX
  5
376
  8
0
 62
     9
 10
0.0
 20
0.0
 30
0.0
 70
   128
 71
     3
 72
     2
 73
     1
  0
VERTEX
  5
377
  8
0
 62
     9
 10
0.0
 20
0.0
 30
0.0
 70
   128
 71
     2
 72
     4
 73
     1
  0
VERTEX
  5
378
  8
0
 62
     9
 10
0.0
 20
0.0
 30
0.0
 70
   128
 71
     1
 72
     5
 73
     3
  0
VERTEX
  5
379
  8
0
 62
     9
 10
0.0
 20
0.0
 30
0.0
 70
   128
 71
     5
 72
     1
 73
     6
  0
VERTEX
  5
37A
  8
0
 62
     9
 10
0.0
 20
0.0
 30
0.0
 70
   128
 71
     7
 72
     4
 73
     2
  0
VERTEX
  5
37B
  8
0
 62
     9
 10
0.0
 20
0.0
 30
0.0
 70
   128
 71
     7
 72
     8
 73
     5
  0
VERTEX
  5
37C
  8
0
 62
     9
 10
0.0
 20
0.0
 30
0.0
 70
   128
 71
     8
 72
     7
 73
     2
  0
VERTEX
  5
37D
  8
0
 62
     9
 10
0.0
 20
0.0
 30
0.0
 70
   128
 71
     6
 72
     7
 73
     5
  0
VERTEX
  5
37E
  8
0
 62
     9
 10
0.0
 20
0.0
 30
0.0
 70
   128
 71
    11
 72
    10
 73
     9
  0
VERTEX
  5
37F
  8
0
 62
     9
 10
0.0
 20
0.0
 30
0.0
 70
   128
 71
    13
 72
    12
 73
     9
  0
VERTEX
  5
380
  8
0
 62
     9
 10
0.0
 20
0.0
 30
0.0
 70
   128
 71
    15
 72
    14
 73
    10
  0
VERTEX
  5
381
  8
0
 62
     9
 10
0.0
 20
0.0
 30
0.0
 70
   128
 71
    15
 72
    12
 73
    14
  0
VERTEX
  5
382
  8
0
 62
     9
 10
0.0
 20
0.0
 30
0.0
 70
   128
 71
    11
 72
    15
 73
    10
  0
VERTEX
  5
383
  8
0
 62
     9
 10
0.0
 20
0.0
 30
0.0
 70
   128
 71
    12
 72
    16
 73
     9
  0
VERTEX
  5
384
  8
0
 62
     9
 10
0.0
 20
0.0
 30
0.0
 70
   128
 71
    13
 72
     9
 73
    10
  0
VERTEX
  5
385
  8
0
 62
     9
 10
0.0
 20
0.0
 30
0.0
 70
   128
 71
    16
 72
    12
 73
    15
  0
VERTEX
  5
386
  8
0
 62
     9
 10
0.0
 20
0.0
 30
0.0
 70
   128
 71
     2
 72
    10
 73
     8
  0
VERTEX
  5
387
  8
0
 62
     9
 10
0.0
 20
0.0
 30
0.0
 70
   128
 71
    14
 72
     8
 73
    10
  0
VERTEX
  5
388
  8
0
 62
     9
 10
0.0
 20
0.0
 30
0.0
 70
   128
 71
     2
 72
     3
 73
    13
  0
VERTEX
  5
389
  8
0
 62
     9
 10
0.0
 20
0.0
 30
0.0
 70
   128
 71
    10
 72
     2
 73
    13
  0
VERTEX
  5
38A
  8
0
 62
     9
 10
0.0
 20
0.0
 30
0.0
 70
   128
 71
     3
 72
     5
 73
    12
  0
VERTEX
  5
38B
  8
0
 62
     9
 10
0.0
 20
0.0
 30
0.0
 70
   128
 71
    13
 72
     3
 73
    12
  0
VERTEX
  5
38C
  8
0
 62
     9
 10
0.0
 20
0.0
 30
0.0
 70
   128
 71
     5
 72
     8
 73
    12
  0
VERTEX
  5
38D
  8
0
 62
     9
 10
0.0
 20
0.0
 30
0.0
 70
   128
 71
    14
 72
    12
 73
     8
  0
VERTEX
  5
38E
  8
0
 62
     9
 10
0.0
 20
0.0
 30
0.0
 70
   128
 71
    18
 72
    11
 73
    17
  0
VERTEX
  5
38F
  8
0
 62
     9
 10
0.0
 20
0.0
 30
0.0
 70
   128
 71
    19
 72
    18
 73
    17
  0
VERTEX
  5
390
  8
0
 62
     9
 10
0.0
 20
0.0
 30
0.0
 70
   128
 71
     9
 72
    17
 73
    11
  0
VERTEX
  5
391
  8
0
 62
     9
 10
0.0
 20
0.0
 30
0.0
 70
   128
 71
    19
 72
    20
 73
    18
  0
VERTEX
  5
392
  8
0
 62
     9
 10
0.0
 20
0.0
 30
0.0
 70
   128
 71
    21
 72
    20
 73
    19
  0
VERTEX
  5
393
  8
0
 62
     9
 10
0.0
 20
0.0
 30
0.0
 70
   128
 71
    17
 72
     9
 73
    22
  0
VERTEX
  5
394
  8
0
 62
     9
 10
0.0
 20
0.0
 30
0.0
 70
   128
 71
    23
 72
    17
 73
    22
  0
VERTEX
  5
395
  8
0
 62
     9
 10
0.0
 20
0.0
 30
0.0
 70
   128
 71
    16
 72
    22
 73
     9
  0
VERTEX
  5
396
  8
0
 62
     9
 10
0.0
 20
0.0
 30
0.0
 70
   128
 71
    23
 72
    19
 73
    17
  0
VERTEX
  5
397
  8
0
 62
     9
 10
0.0
 20
0.0
 30
0.0
 70
   128
 71
    21
 72
    19
 73
    23
  0
VERTEX
  5
398
  8
0
 62
     9
 10
0.0
 20
0.0
 30
0.0
 70
   128
 71
    22
 72
    16
 73
    24
  0
VERTEX
  5
399
  8
0
 62
     9
 10
0.0
 20
0.0
 30
0.0
 70
   128
 71
    25
 72
    22
 73
    24
  0
VERTEX
  5
39A
  8
0
 62
     9
 10
0.0
 20
0.0
 30
0.0
 70
   128
 71
    15
 72
    24
 73
    16
  0
VERTEX
  5
39B
  8
0
 62
     9
 10
0.0
 20
0.0
 30
0.0
 70
   128
 71
    25
 72
    23
 73
    22
  0
VERTEX
  5
39C
  8
0
 62
     9
 10
0.0
 20
0.0
 30
0.0
 70
   128
 71
    21
 72
    23
 73
    25
  0
VERTEX
  5
39D
  8
0
 62
     9
 10
0.0
 20
0.0
 30
0.0
 70
   128
 71
    24
 72
    15
 73
    18
  0
VERTEX
  5
39E
  8
0
 62
     9
 10
0.0
 20
0.0
 30
0.0
 70
   128
 71
    20
 72
    24
 73
    18
  0
VERTEX
  5
39F
  8
0
 62
     9
 10
0.0
 20
0.0
 30
0.0
 70
   128
 71
    11
 72
    18
 73
    15
  0
VERTEX
  5
3A0
  8
0
 62
     9
 10
0.0
 20
0.0
 30
0.0
 70
   128
 71
    20
 72
    25
 73
    24
  0
VERTEX
  5
3A1
  8
0
 62
     9
 10
0.0
 20
0.0
 30
0.0
 70
   128
 71
    21
 72
    25
 73
    20
  0
VERTEX
  5
3A2
  8
0
 62
     9
 10
0.0
 20
0.0
 30
0.0
 70
   128
 71
    27
 72
     6
 73
    26
  0
VERTEX
  5
3A3
  8
0
 62
     9
 10
0.0
 20
0.0
 30
0.0
 70
   128
 71
    30
 72
    29
 73
    28
  0
VERTEX
  5
3A4
  8
0
 62
     9
 10
0.0
 20
0.0
 30
0.0
 70
   128
 71
    28
 72
    26
 73
    30
  0
VERTEX
  5
3A5
  8
0
 62
     9
 10
0.0
 20
0.0
 30
0.0
 70
   128
 71
    26
 72
    28
 73
    27
  0
VERTEX
  5
3A6
  8
0
 62
     9
 10
0.0
 20
0.0
 30
0.0
 70
   128
 71
     1
 72
    26
 73
     6
  0
VERTEX
  5
3A7
  8
0
 62
     9
 10
0.0
 20
0.0
 30
0.0
 70
   128
 71
    27
 72
    31
 73
     6
  0
VERTEX
  5
3A8
  8
0
 62
     9
 10
0.0
 20
0.0
 30
0.0
 70
   128
 71
    31
 72
     7
 73
     6
  0
VERTEX
  5
3A9
  8
0
 62
     9
 10
0.0
 20
0.0
 30
0.0
 70
   128
 71
     7
 72
    31
 73
    32
  0
VERTEX
  5
3AA
  8
0
 62
     9
 10
0.0
 20
0.0
 30
0.0
 70
   128
 71
    35
 72
    34
 73
    33
  0
VERTEX
  5
3AB
  8
0
 62
     9
 10
0.0
 20
0.0
 30
0.0
 70
   128
 71
    31
 72
    35
 73
    32
  0
VERTEX
  5
3AC
  8
0
 62
     9
 10
0.0
 20
0.0
 30
0.0
 70
   128
 71
    33
 72
    32
 73
    35
  0
VERTEX
  5
3AD
  8
0
 62
     9
 10
0.0
 20
0.0
 30
0.0
 70
   128
 71
     4
 72
     7
 73
    32
  0
VERTEX
  5
3AE
  8
0
 62
     9
 10
0.0
 20
0.0
 30
0.0
 70
   128
 71
    35
 72
    27
 73
    28
  0
VERTEX
  5
3AF
  8
0
 62
     9
 10
0.0
 20
0.0
 30
0.0
 70
   128
 71
    27
 72
    35
 73
    31
  0
VERTEX
  5
3B0
  8
0
 62
     9
 10
0.0
 20
0.0
 30
0.0
 70
   128
 71
    28
 72
    29
 73
    34
  0
VERTEX
  5
3B1
  8
0
 62
     9
 10
0.0
 20
0.0
 30
0.0
 70
   128
 71
    35
 72
    28
 73
    34
  0
VERTEX
  5
3B2
  8
0
 62
     9
 10
0.0
 20
0.0
 30
0.0
 70
   128
 71
    33
 72
    30
 73
    32
  0
VERTEX
  5
3B3
  8
0
 62
     9
 10
0.0
 20
0.0
 30
0.0
 70
   128
 71
    30
 72
    26
 73
    32
  0
VERTEX
  5
3B4
  8
0
 62
     9
 10
0.0
 20
0.0
 30
0.0
 70
   128
 71
    33
 72
    34
 73
    29
  0
VERTEX
  5
3B5
  8
0
 62
     9
 10
0.0
 20
0.0
 30
0.0
 70
   128
 71
    30
 72
    33
 73
    29
  0
VERTEX
  5
3B6
  8
0
 62
     9
 10
0.0
 20
0.0
 30
0.0
 70
   128
 71
    32
 72
    26
 73
     4
  0
VERTEX
  5
3B7
  8
0
 62
     9
 10
0.0
 20
0.0
 30
0.0
 70
   128
 71
     1
 72
     4
 73
    26
  0
VERTEX
  5
3B8
  8
0
 62
     9
 10
0.0
 20
0.0
 30
0.0
 70
   128
 71
    38
 72
    37
 73
    36
  0
VERTEX
  5
3B9
  8
0
 62
     9
 10
0.0
 20
0.0
 30
0.0
 70
   128
 71
    39
 72
    36
 73
    37
  0
VERTEX
  5
3BA
  8
0
 62
     9
 10
0.0
 20
0.0
 30
0.0
 70
   128
 71
    41
 72
    40
 73
    39
  0
VERTEX
  5
3BB
  8
0
 62
     9
 10
0.0
 20
0.0
 30
0.0
 70
   128
 71
    37
 72
    41
 73
    39
  0
VERTEX
  5
3BC
  8
0
 62
     9
 10
0.0
 20
0.0
 30
0.0
 70
   128
 71
    43
 72
    40
 73
    42
  0
VERTEX
  5
3BD
  8
0
 62
     9
 10
0.0
 20
0.0
 30
0.0
 70
   128
 71
    41
 72
    42
 73
    40
  0
VERTEX
  5
3BE
  8
0
 62
     9
 10
0.0
 20
0.0
 30
0.0
 70
   128
 71
    38
 72
    36
 73
    42
  0
VERTEX
  5
3BF
  8
0
 62
     9
 10
0.0
 20
0.0
 30
0.0
 70
   128
 71
    43
 72
    42
 73
    36
  0
VERTEX
  5
3C0
  8
0
 62
     9
 10
0.0
 20
0.0
 30
0.0
 70
   128
 71
    46
 72
    45
 73
    44
  0
VERTEX
  5
3C1
  8
0
 62
     9
 10
0.0
 20
0.0
 30
0.0
 70
   128
 71
    47
 72
    46
 73
    44
  0
VERTEX
  5
3C2
  8
0
 62
     9
 10
0.0
 20
0.0
 30
0.0
 70
   128
 71
    50
 72
    49
 73
    48
  0
VERTEX
  5
3C3
  8
0
 62
     9
 10
0.0
 20
0.0
 30
0.0
 70
   128
 71
    51
 72
    48
 73
    45
  0
VERTEX
  5
3C4
  8
0
 62
     9
 10
0.0
 20
0.0
 30
0.0
 70
   128
 71
    45
 72
    48
 73
    49
  0
VERTEX
  5
3C5
  8
0
 62
     9
 10
0.0
 20
0.0
 30
0.0
 70
   128
 71
    48
 72
    51
 73
    52
  0
VERTEX
  5
3C6
  8
0
 62
     9
 10
0.0
 20
0.0
 30
0.0
 70
   128
 71
    45
 72
    46
 73
    51
  0
VERTEX
  5
3C7
  8
0
 62
     9
 10
0.0
 20
0.0
 30
0.0
 70
   128
 71
    54
 72
    48
 73
    53
  0
VERTEX
  5
3C8
  8
0
 62
     9
 10
0.0
 20
0.0
 30
0.0
 70
   128
 71
    52
 72
    53
 73
    48
  0
VERTEX
  5
3C9
  8
0
 62
     9
 10
0.0
 20
0.0
 30
0.0
 70
   128
 71
    54
 72
    53
 73
    55
  0
VERTEX
  5
3CA
  8
0
 62
     9
 10
0.0
 20
0.0
 30
0.0
 70
   128
 71
    55
 72
    47
 73
    44
  0
VERTEX
  5
3CB
  8
0
 62
     9
 10
0.0
 20
0.0
 30
0.0
 70
   128
 71
    54
 72
    57
 73
    56
  0
VERTEX
  5
3CC
  8
0
 62
     9
 10
0.0
 20
0.0
 30
0.0
 70
   128
 71
    54
 72
    44
 73
    57
  0
VERTEX
  5
3CD
  8
0
 62
     9
 10
0.0
 20
0.0
 30
0.0
 70
   128
 71
    44
 72
    54
 73
    55
  0
VERTEX
  5
3CE
  8
0
 62
     9
 10
0.0
 20
0.0
 30
0.0
 70
   128
 71
    59
 72
    58
 73
    47
  0
VERTEX
  5
3CF
  8
0
 62
     9
 10
0.0
 20
0.0
 30
0.0
 70
   128
 71
    61
 72
    60
 73
    51
  0
VERTEX
  5
3D0
  8
0
 62
     9
 10
0.0
 20
0.0
 30
0.0
 70
   128
 71
    58
 72
    62
 73
    47
  0
VERTEX
  5
3D1
  8
0
 62
     9
 10
0.0
 20
0.0
 30
0.0
 70
   128
 71
    46
 72
    61
 73
    51
  0
VERTEX
  5
3D2
  8
0
 62
     9
 10
0.0
 20
0.0
 30
0.0
 70
   128
 71
    46
 72
    47
 73
    62
  0
VERTEX
  5
3D3
  8
0
 62
     9
 10
0.0
 20
0.0
 30
0.0
 70
   128
 71
    64
 72
    46
 73
    63
  0
VERTEX
  5
3D4
  8
0
 62
     9
 10
0.0
 20
0.0
 30
0.0
 70
   128
 71
    64
 72
    61
 73
    46
  0
VERTEX
  5
3D5
  8
0
 62
     9
 10
0.0
 20
0.0
 30
0.0
 70
   128
 71
    62
 72
    63
 73
    46
  0
VERTEX
  5
3D6
  8
0
 62
     9
 10
0.0
 20
0.0
 30
0.0
 70
   128
 71
    59
 72
    55
 73
    65
  0
VERTEX
  5
3D7
  8
0
 62
     9
 10
0.0
 20
0.0
 30
0.0
 70
   128
 71
    59
 72
    47
 73
    55
  0
VERTEX
  5
3D8
  8
0
 62
     9
 10
0.0
 20
0.0
 30
0.0
 70
   128
 71
    57
 72
    49
 73
    56
  0
VERTEX
  5
3D9
  8
0
 62
     9
 10
0.0
 20
0.0
 30
0.0
 70
   128
 71
    50
 72
    56
 73
    49
  0
VERTEX
  5
3DA
  8
0
 62
     9
 10
0.0
 20
0.0
 30
0.0
 70
   128
 71
    68
 72
    67
 73
    66
  0
VERTEX
  5
3DB
  8
0
 62
     9
 10
0.0
 20
0.0
 30
0.0
 70
   128
 71
    68
 72
    69
 73
    67
  0
VERTEX
  5
3DC
  8
0
 62
     9
 10
0.0
 20
0.0
 30
0.0
 70
   128
 71
    70
 72
    66
 73
    67
  0
VERTEX
  5
3DD
  8
0
 62
     9
 10
0.0
 20
0.0
 30
0.0
 70
   128
 71
    73
 72
    72
 73
    71
  0
VERTEX
  5
3DE
  8
0
 62
     9
 10
0.0
 20
0.0
 30
0.0
 70
   128
 71
    75
 72
    74
 73
    70
  0
VERTEX
  5
3DF
  8
0
 62
     9
 10
0.0
 20
0.0
 30
0.0
 70
   128
 71
    71
 72
    67
 73
    69
  0
VERTEX
  5
3E0
  8
0
 62
     9
 10
0.0
 20
0.0
 30
0.0
 70
   128
 71
    66
 72
    77
 73
    76
  0
VERTEX
  5
3E1
  8
0
 62
     9
 10
0.0
 20
0.0
 30
0.0
 70
   128
 71
    70
 72
    67
 73
    78
  0
VERTEX
  5
3E2
  8
0
 62
     9
 10
0.0
 20
0.0
 30
0.0
 70
   128
 71
    77
 72
    80
 73
    79
  0
VERTEX
  5
3E3
  8
0
 62
     9
 10
0.0
 20
0.0
 30
0.0
 70
   128
 71
    81
 72
    66
 73
    76
  0
VERTEX
  5
3E4
  8
0
 62
     9
 10
0.0
 20
0.0
 30
0.0
 70
   128
 71
    59
 72
    83
 73
    82
  0
VERTEX
  5
3E5
  8
0
 62
     9
 10
0.0
 20
0.0
 30
0.0
 70
   128
 71
    76
 72
    77
 73
    65
  0
VERTEX
  5
3E6
  8
0
 62
     9
 10
0.0
 20
0.0
 30
0.0
 70
   128
 71
    85
 72
    84
 73
    75
  0
VERTEX
  5
3E7
  8
0
 62
     9
 10
0.0
 20
0.0
 30
0.0
 70
   128
 71
    66
 72
    81
 73
    68
  0
VERTEX
  5
3E8
  8
0
 62
     9
 10
0.0
 20
0.0
 30
0.0
 70
   128
 71
    72
 72
    60
 73
    85
  0
VERTEX
  5
3E9
  8
0
 62
     9
 10
0.0
 20
0.0
 30
0.0
 70
   128
 71
    86
 72
    71
 73
    69
  0
VERTEX
  5
3EA
  8
0
 62
     9
 10
0.0
 20
0.0
 30
0.0
 70
   128
 71
    72
 72
    78
 73
    71
  0
VERTEX
  5
3EB
  8
0
 62
     9
 10
0.0
 20
0.0
 30
0.0
 70
   128
 71
    71
 72
    86
 73
    73
  0
VERTEX
  5
3EC
  8
0
 62
     9
 10
0.0
 20
0.0
 30
0.0
 70
   128
 71
    80
 72
    77
 73
    66
  0
VERTEX
  5
3ED
  8
0
 62
     9
 10
0.0
 20
0.0
 30
0.0
 70
   128
 71
    65
 72
    83
 73
    59
  0
VERTEX
  5
3EE
  8
0
 62
     9
 10
0.0
 20
0.0
 30
0.0
 70
   128
 71
    80
 72
    70
 73
    74
  0
VERTEX
  5
3EF
  8
0
 62
     9
 10
0.0
 20
0.0
 30
0.0
 70
   128
 71
    66
 72
    70
 73
    80
  0
VERTEX
  5
3F0
  8
0
 62
     9
 10
0.0
 20
0.0
 30
0.0
 70
   128
 71
    80
 72
    74
 73
    79
  0
VERTEX
  5
3F1
  8
0
 62
     9
 10
0.0
 20
0.0
 30
0.0
 70
   128
 71
    70
 72
    78
 73
    75
  0
VERTEX
  5
3F2
  8
0
 62
     9
 10
0.0
 20
0.0
 30
0.0
 70
   128
 71
    71
 72
    78
 73
    67
  0
VERTEX
  5
3F3
  8
0
 62
     9
 10
0.0
 20
0.0
 30
0.0
 70
   128
 71
    85
 72
    75
 73
    78
  0
VERTEX
  5
3F4
  8
0
 62
     9
 10
0.0
 20
0.0
 30
0.0
 70
   128
 71
    72
 72
    73
 73
    60
  0
VERTEX
  5
3F5
  8
0
 62
     9
 10
0.0
 20
0.0
 30
0.0
 70
   128
 71
    79
 72
    83
 73
    77
  0
VERTEX
  5
3F6
  8
0
 62
     9
 10
0.0
 20
0.0
 30
0.0
 70
   128
 71
    77
 72
    83
 73
    65
  0
VERTEX
  5
3F7
  8
0
 62
     9
 10
0.0
 20
0.0
 30
0.0
 70
   128
 71
    82
 72
    83
 73
    79
  0
VERTEX
  5
3F8
  8
0
 62
     9
 10
0.0
 20
0.0
 30
0.0
 70
   128
 71
    87
 72
    79
 73
    74
  0
VERTEX
  5
3F9
  8
0
 62
     9
 10
0.0
 20
0.0
 30
0.0
 70
   128
 71
    87
 72
    82
 73
    79
  0
VERTEX
  5
3FA
  8
0
 62
     9
 10
0.0
 20
0.0
 30
0.0
 70
   128
 71
    74
 72
    75
 73
    84
  0
VERTEX
  5
3FB
  8
0
 62
     9
 10
0.0
 20
0.0
 30
0.0
 70
   128
 71
    74
 72
    84
 73
    87
  0
VERTEX
  5
3FC
  8
0
 62
     9
 10
0.0
 20
0.0
 30
0.0
 70
   128
 71
    72
 72
    85
 73
    78
  0
VERTEX
  5
3FD
  8
0
 62
     9
 10
0.0
 20
0.0
 30
0.0
 70
   128
 71
    61
 72
    85
 73
    60
  0
VERTEX
  5
3FE
  8
0
 62
     9
 10
0.0
 20
0.0
 30
0.0
 70
   128
 71
    82
 72
    58
 73
    59
  0
VERTEX
  5
3FF
  8
0
 62
     9
 10
0.0
 20
0.0
 30
0.0
 70
   128
 71
    82
 72
    62
 73
    58
  0
VERTEX
  5
400
  8
0
 62
     9
 10
0.0
 20
0.0
 30
0.0
 70
   128
 71
    87
 72
    62
 73
    82
  0
VERTEX
  5
401
  8
0
 62
     9
 10
0.0
 20
0.0
 30
0.0
 70
   128
 71
    87
 72
    63
 73
    62
  0
VERTEX
  5
402
  8
0
 62
     9
 10
0.0
 20
0.0
 30
0.0
 70
   128
 71
    84
 72
    64
 73
    63
  0
VERTEX
  5
403
  8
0
 62
     9
 10
0.0
 20
0.0
 30
0.0
 70
   128
 71
    87
 72
    84
 73
    63
  0
VERTEX
  5
404
  8
0
 62
     9
 10
0.0
 20
0.0
 30
0.0
 70
   128
 71
    85
 72
    61
 73
    84
  0
VERTEX
  5
405
  8
0
 62
     9
 10
0.0
 20
0.0
 30
0.0
 70
   128
 71
    84
 72
    61
 73
    64
  0
VERTEX
  5
406
  8
0
 62
     9
 10
0.0
 20
0.0
 30
0.0
 70
   128
 71
    68
 72
    81
 73
    53
  0
VERTEX
  5
407
  8
0
 62
     9
 10
0.0
 20
0.0
 30
0.0
 70
   128
 71
    52
 72
    69
 73
    53
  0
VERTEX
  5
408
  8
0
 62
     9
 10
0.0
 20
0.0
 30
0.0
 70
   128
 71
    76
 72
    65
 73
    55
  0
VERTEX
  5
409
  8
0
 62
     9
 10
0.0
 20
0.0
 30
0.0
 70
   128
 71
    53
 72
    76
 73
    55
  0
VERTEX
  5
40A
  8
0
 62
     9
 10
0.0
 20
0.0
 30
0.0
 70
   128
 71
    68
 72
    53
 73
    69
  0
VERTEX
  5
40B
  8
0
 62
     9
 10
0.0
 20
0.0
 30
0.0
 70
   128
 71
    81
 72
    76
 73
    53
  0
VERTEX
  5
40C
  8
0
 62
     9
 10
0.0
 20
0.0
 30
0.0
 70
   128
 71
    69
 72
    52
 73
    86
  0
VERTEX
  5
40D
  8
0
 62
     9
 10
0.0
 20
0.0
 30
0.0
 70
   128
 71
    51
 72
    73
 73
    52
  0
VERTEX
  5
40E
  8
0
 62
     9
 10
0.0
 20
0.0
 30
0.0
 70
   128
 71
    51
 72
    60
 73
    73
  0
VERTEX
  5
40F
  8
0
 62
     9
 10
0.0
 20
0.0
 30
0.0
 70
   128
 71
    52
 72
    73
 73
    86
  0
VERTEX
  5
410
  8
0
 62
     9
 10
0.0
 20
0.0
 30
0.0
 70
   128
 71
    45
 72
    49
 73
    40
  0
VERTEX
  5
411
  8
0
 62
     9
 10
0.0
 20
0.0
 30
0.0
 70
   128
 71
    40
 72
    49
 73
    39
  0
VERTEX
  5
412
  8
0
 62
     9
 10
0.0
 20
0.0
 30
0.0
 70
   128
 71
    44
 72
    45
 73
    43
  0
VERTEX
  5
413
  8
0
 62
     9
 10
0.0
 20
0.0
 30
0.0
 70
   128
 71
    39
 72
    49
 73
    57
  0
VERTEX
  5
414
  8
0
 62
     9
 10
0.0
 20
0.0
 30
0.0
 70
   128
 71
    43
 72
    36
 73
    57
  0
VERTEX
  5
415
  8
0
 62
     9
 10
0.0
 20
0.0
 30
0.0
 70
   128
 71
    36
 72
    39
 73
    57
  0
VERTEX
  5
416
  8
0
 62
     9
 10
0.0
 20
0.0
 30
0.0
 70
   128
 71
    44
 72
    43
 73
    57
  0
VERTEX
  5
417
  8
0
 62
     9
 10
0.0
 20
0.0
 30
0.0
 70
   128
 71
    40
 72
    43
 73
    45
  0
VERTEX
  5
418
  8
0
 62
     9
 10
0.0
 20
0.0
 30
0.0
 70
   128
 71
    56
 72
    50
 73
    38
  0
VERTEX
  5
419
  8
0
 62
     9
 10
0.0
 20
0.0
 30
0.0
 70
   128
 71
    37
 72
    38
 73
    50
  0
VERTEX
  5
41A
  8
0
 62
     9
 10
0.0
 20
0.0
 30
0.0
 70
   128
 71
    42
 72
    54
 73
    56
  0
VERTEX
  5
41B
  8
0
 62
     9
 10
0.0
 20
0.0
 30
0.0
 70
   128
 71
    48
 72
    54
 73
    41
  0
VERTEX
  5
41C
  8
0
 62
     9
 10
0.0
 20
0.0
 30
0.0
 70
   128
 71
    38
 72
    42
 73
    56
  0
VERTEX
  5
41D
  8
0
 62
     9
 10
0.0
 20
0.0
 30
0.0
 70
   128
 71
    41
 72
    50
 73
    48
  0
VERTEX
  5
41E
  8
0
 62
     9
 10
0.0
 20
0.0
 30
0.0
 70
   128
 71
    41
 72
    37
 73
    50
  0
VERTEX
  5
41F
  8
0
 62
     9
 10
0.0
 20
0.0
 30
0.0
 70
   128
 71
    42
 72
    41
 73
    54
  0
SEQEND
  5
420
  8
0
  0
ENDBLK
  5
423
  8
0
  0
ENDSEC
  0
SECTION
  2
ENTITIES
  0
INSERT
  5
85
  8
LAYER_1
  2
38
 10
0.0
 20
0.0
 30
0.0
  0
INSERT
  5
173
  8
LAYER_1
  2
39
 10
0.0
 20
0.0
 30
0.0
  0
INSERT
  5
1AB
  8
LAYER_1
  2
40
 10
0.0
 20
0.0
 30
0.0
  0
INSERT
  5
31A
  8
LAYER_1
  2
41
 10
0.0
 20
0.0
 30
0.0
  0
INSERT
  5
421
  8
LAYER_1
  2
42
 10
0.0
 20
0.0
 30
0.0
  0
ENDSEC
  0
EOF
