  0
SECTION
  2
HEADER
  9
$ACADVER
  1
AC1015
  9
$ACADMAINTVER
 70
     6
  9
$DWGCODEPAGE
  3
ANSI_1252
  9
$INSBASE
 10
0.0
 20
0.0
 30
0.0
  9
$EXTMIN
 10
0.0
 20
0.0
 30
0.0
  9
$EXTMAX
 10
1682.0
 20
2378.0
 30
0.0
  9
$LIMMIN
 10
0.0
 20
0.0
  9
$LIMMAX
 10
1682.0
 20
2378.0
  9
$ORTHOMODE
 70
     0
  9
$REGENMODE
 70
     1
  9
$FILLMODE
 70
     1
  9
$QTEXTMODE
 70
     0
  9
$MIRRTEXT
 70
     1
  9
$LTSCALE
 40
1.0
  9
$ATTMODE
 70
     1
  9
$TEXTSIZE
 40
2.5
  9
$TRACEWID
 40
1.0
  9
$TEXTSTYLE
  7
Standard
  9
$CLAYER
  8
0
  9
$CELTYPE
  6
ByLayer
  9
$CECOLOR
 62
   256
  9
$CELTSCALE
 40
1.0
  9
$DISPSILH
 70
     0
  9
$DIMSCALE
 40
1.0
  9
$DIMASZ
 40
2.5
  9
$DIMEXO
 40
0.625
  9
$DIMDLI
 40
3.75
  9
$DIMRND
 40
0.0
  9
$DIMDLE
 40
0.0
  9
$DIMEXE
 40
1.25
  9
$DIMTP
 40
0.0
  9
$DIMTM
 40
0.0
  9
$DIMTXT
 40
2.5
  9
$DIMCEN
 40
2.5
  9
$DIMTSZ
 40
0.0
  9
$DIMTOL
 70
     0
  9
$DIMLIM
 70
     0
  9
$DIMTIH
 70
     0
  9
$DIMTOH
 70
     0
  9
$DIMSE1
 70
     0
  9
$DIMSE2
 70
     0
  9
$DIMTAD
 70
     1
  9
$DIMZIN
 70
     8
  9
$DIMBLK
  1

  9
$DIMASO
 70
     1
  9
$DIMSHO
 70
     1
  9
$DIMPOST
  1

  9
$DIMAPOST
  1

  9
$DIMALT
 70
     0
  9
$DIMALTD
 70
     3
  9
$DIMALTF
 40
0.0393700787
  9
$DIMLFAC
 40
1.0
  9
$DIMTOFL
 70
     1
  9
$DIMTVP
 40
0.0
  9
$DIMTIX
 70
     0
  9
$DIMSOXD
 70
     0
  9
$DIMSAH
 70
     0
  9
$DIMBLK1
  1

  9
$DIMBLK2
  1

  9
$DIMSTYLE
  2
ISO-25
  9
$DIMCLRD
 70
     0
  9
$DIMCLRE
 70
     0
  9
$DIMCLRT
 70
     0
  9
$DIMTFAC
 40
1.0
  9
$DIMGAP
 40
0.625
  9
$DIMJUST
 70
     0
  9
$DIMSD1
 70
     0
  9
$DIMSD2
 70
     0
  9
$DIMTOLJ
 70
     0
  9
$DIMTZIN
 70
     8
  9
$DIMALTZ
 70
     0
  9
$DIMALTTZ
 70
     0
  9
$DIMUPT
 70
     0
  9
$DIMDEC
 70
     2
  9
$DIMTDEC
 70
     2
  9
$DIMALTU
 70
     2
  9
$DIMALTTD
 70
     3
  9
$DIMTXSTY
  7
Standard
  9
$DIMAUNIT
 70
     0
  9
$DIMADEC
 70
     0
  9
$DIMALTRND
 40
0.0
  9
$DIMAZIN
 70
     0
  9
$DIMDSEP
 70
    44
  9
$DIMATFIT
 70
     3
  9
$DIMFRAC
 70
     0
  9
$DIMLDRBLK
  1

  9
$DIMLUNIT
 70
     2
  9
$DIMLWD
 70
    -2
  9
$DIMLWE
 70
    -2
  9
$DIMTMOVE
 70
     0
  9
$LUNITS
 70
     2
  9
$LUPREC
 70
     4
  9
$SKETCHINC
 40
1.0
  9
$FILLETRAD
 40
10.0
  9
$AUNITS
 70
     0
  9
$AUPREC
 70
     0
  9
$MENU
  1
.
  9
$ELEVATION
 40
0.0
  9
$PELEVATION
 40
0.0
  9
$THICKNESS
 40
0.0
  9
$LIMCHECK
 70
     0
  9
$CHAMFERA
 40
10.0
  9
$CHAMFERB
 40
10.0
  9
$CHAMFERC
 40
20.0
  9
$CHAMFERD
 40
0.0
  9
$SKPOLY
 70
     0
  9
$TDCREATE
 40
2455608.59547456
  9
$TDUCREATE
 40
2455608.553807893
  9
$TDUPDATE
 40
2455608.595474572
  9
$TDUUPDATE
 40
2455608.553807905
  9
$TDINDWG
 40
0.0000000116
  9
$TDUSRTIMER
 40
0.0000000116
  9
$USRTIMER
 70
     1
  9
$ANGBASE
 50
0.0
  9
$ANGDIR
 70
     0
  9
$PDMODE
 70
     0
  9
$PDSIZE
 40
0.0
  9
$PLINEWID
 40
0.0
  9
$SPLFRAME
 70
     0
  9
$SPLINETYPE
 70
     6
  9
$SPLINESEGS
 70
     8
  9
$HANDSEED
  5
3C2
  9
$SURFTAB1
 70
     6
  9
$SURFTAB2
 70
     6
  9
$SURFTYPE
 70
     6
  9
$SURFU
 70
     6
  9
$SURFV
 70
     6
  9
$UCSBASE
  2

  9
$UCSNAME
  2

  9
$UCSORG
 10
0.0
 20
0.0
 30
0.0
  9
$UCSXDIR
 10
1.0
 20
0.0
 30
0.0
  9
$UCSYDIR
 10
0.0
 20
1.0
 30
0.0
  9
$UCSORTHOREF
  2

  9
$UCSORTHOVIEW
 70
     0
  9
$UCSORGTOP
 10
0.0
 20
0.0
 30
0.0
  9
$UCSORGBOTTOM
 10
0.0
 20
0.0
 30
0.0
  9
$UCSORGLEFT
 10
0.0
 20
0.0
 30
0.0
  9
$UCSORGRIGHT
 10
0.0
 20
0.0
 30
0.0
  9
$UCSORGFRONT
 10
0.0
 20
0.0
 30
0.0
  9
$UCSORGBACK
 10
0.0
 20
0.0
 30
0.0
  9
$PUCSBASE
  2

  9
$PUCSNAME
  2

  9
$PUCSORG
 10
0.0
 20
0.0
 30
0.0
  9
$PUCSXDIR
 10
1.0
 20
0.0
 30
0.0
  9
$PUCSYDIR
 10
0.0
 20
1.0
 30
0.0
  9
$PUCSORTHOREF
  2

  9
$PUCSORTHOVIEW
 70
     0
  9
$PUCSORGTOP
 10
0.0
 20
0.0
 30
0.0
  9
$PUCSORGBOTTOM
 10
0.0
 20
0.0
 30
0.0
  9
$PUCSORGLEFT
 10
0.0
 20
0.0
 30
0.0
  9
$PUCSORGRIGHT
 10
0.0
 20
0.0
 30
0.0
  9
$PUCSORGFRONT
 10
0.0
 20
0.0
 30
0.0
  9
$PUCSORGBACK
 10
0.0
 20
0.0
 30
0.0
  9
$USERI1
 70
     0
  9
$USERI2
 70
     0
  9
$USERI3
 70
     0
  9
$USERI4
 70
     0
  9
$USERI5
 70
     0
  9
$USERR1
 40
0.0
  9
$USERR2
 40
0.0
  9
$USERR3
 40
0.0
  9
$USERR4
 40
0.0
  9
$USERR5
 40
0.0
  9
$WORLDVIEW
 70
     1
  9
$SHADEDGE
 70
     3
  9
$SHADEDIF
 70
    70
  9
$TILEMODE
 70
     1
  9
$MAXACTVP
 70
    64
  9
$PINSBASE
 10
0.0
 20
0.0
 30
0.0
  9
$PLIMCHECK
 70
     0
  9
$PEXTMIN
 10
0.0
 20
0.0
 30
0.0
  9
$PEXTMAX
 10
1682.0
 20
2378.0
 30
0.0
  9
$PLIMMIN
 10
0.0
 20
0.0
  9
$PLIMMAX
 10
1682.0
 20
2378.0
  9
$UNITMODE
 70
     0
  9
$VISRETAIN
 70
     1
  9
$PLINEGEN
 70
     0
  9
$PSLTSCALE
 70
     1
  9
$TREEDEPTH
 70
  3020
  9
$CMLSTYLE
  2
Standard
  9
$CMLJUST
 70
     0
  9
$CMLSCALE
 40
20.0
  9
$PROXYGRAPHICS
 70
     1
  9
$MEASUREMENT
 70
     1
  9
$CELWEIGHT
370
    -1
  9
$ENDCAPS
280
     0
  9
$JOINSTYLE
280
     0
  9
$LWDISPLAY
290
     0
  9
$INSUNITS
 70
     4
  9
$HYPERLINKBASE
  1

  9
$STYLESHEET
  1

  9
$XEDIT
290
     1
  9
$CEPSNTYPE
380
     0
  9
$PSTYLEMODE
290
     1
  9
$FINGERPRINTGUID
  2
{2F478252-6908-4EA6-808B-213B91998758}
  9
$VERSIONGUID
  2
{FAEB1C32-E019-11D5-929B-00C0DF256EC4}
  9
$EXTNAMES
290
     1
  9
$PSVPSCALE
 40
0.0
  9
$OLESTARTUP
290
     0
  0
ENDSEC
  0
SECTION
  2
CLASSES
  0
CLASS
  1
ACDBDICTIONARYWDFLT
  2
AcDbDictionaryWithDefault
  3
ObjectDBX Classes
 90
        0
280
     0
281
     0
  0
CLASS
  1
VISUALSTYLE
  2
AcDbVisualStyle
  3
ObjectDBX Classes
 90
     4095
280
     0
281
     0
  0
CLASS
  1
SCALE
  2
AcDbScale
  3
ObjectDBX Classes
 90
     1153
280
     0
281
     0
  0
CLASS
  1
DICTIONARYVAR
  2
AcDbDictionaryVar
  3
ObjectDBX Classes
 90
        0
280
     0
281
     0
  0
CLASS
  1
ACDBPLACEHOLDER
  2
AcDbPlaceHolder
  3
ObjectDBX Classes
 90
        0
280
     0
281
     0
  0
CLASS
  1
LAYOUT
  2
AcDbLayout
  3
ObjectDBX Classes
 90
        0
280
     0
281
     0
  0
ENDSEC
  0
SECTION
  2
TABLES
  0
TABLE
  2
VPORT
  5
8
330
0
100
AcDbSymbolTable
 70
     1
  0
VPORT
  5
29
330
8
100
AcDbSymbolTableRecord
100
AcDbViewportTableRecord
  2
*Active
 70
     0
 10
0.0
 20
0.0
 11
1.0
 21
1.0
 12
344.1869158879
 22
148.5
 13
0.0
 23
0.0
 14
10.0
 24
10.0
 15
10.0
 25
10.0
 16
0.0
 26
0.0
 36
1.0
 17
0.0
 27
0.0
 37
0.0
 40
297.0
 41
1.9729729729
 42
50.0
 43
0.0
 44
0.0
 50
0.0
 51
0.0
 71
     0
 72
   100
 73
     1
 74
     3
 75
     0
 76
     0
 77
     0
 78
     0
281
     0
 65
     1
110
0.0
120
0.0
130
0.0
111
1.0
121
0.0
131
0.0
112
0.0
122
1.0
132
0.0
 79
     0
146
0.0
  0
ENDTAB
  0
TABLE
  2
LTYPE
  5
5
330
0
100
AcDbSymbolTable
 70
     2
  0
LTYPE
  5
14
330
5
100
AcDbSymbolTableRecord
100
AcDbLinetypeTableRecord
  2
ByBlock
 70
     0
  3

 72
    65
 73
     0
 40
0.0
  0
LTYPE
  5
15
330
5
100
AcDbSymbolTableRecord
100
AcDbLinetypeTableRecord
  2
ByLayer
 70
     0
  3

 72
    65
 73
     0
 40
0.0
  0
LTYPE
  5
16
330
5
100
AcDbSymbolTableRecord
100
AcDbLinetypeTableRecord
  2
Continuous
 70
     0
  3
Solid line
 72
    65
 73
     0
 40
0.0
  0
LTYPE
  5
60
330
5
100
AcDbSymbolTableRecord
100
AcDbLinetypeTableRecord
  2
CENTER2
 70
     0
  3
Center (.5x) ___ _ ___ _ ___ _ ___ _ ___ _ ___
 72
    65
 73
     4
 40
28.575
 49
19.05
 74
     4
 75
     0
340
0
 46
0.0
 50
0.0
 44
0.0
 45
0.0
 49
-3.175
 74
     4
 75
     0
340
0
 46
0.0
 50
0.0
 44
0.0
 45
0.0
 49
3.175
 74
     4
 75
     0
340
0
 46
0.0
 50
0.0
 44
0.0
 45
0.0
 49
-3.175
 74
     4
 75
     0
340
0
 46
0.0
 50
0.0
 44
0.0
 45
0.0
  0
ENDTAB
  0
TABLE
  2
LAYER
  5
2
330
0
100
AcDbSymbolTable
 70
     9
  0
LAYER
  5
10
330
2
100
AcDbSymbolTableRecord
100
AcDbLayerTableRecord
  2
0
 70
     0
 62
     7
  6
Continuous
370
    -3
390
F
  0
LAYER
  5
5D
330
2
100
AcDbSymbolTableRecord
100
AcDbLayerTableRecord
  2
Default
 70
     0
 62
     7
  6
Continuous
370
    -3
390
F
  0
LAYER
  5
77
330
2
100
AcDbSymbolTableRecord
100
AcDbLayerTableRecord
  2
$DDT_AUDIT_GENERATED_(77)
 70
     0
 62
     7
  6
Continuous
370
    -3
390
F
  0
LAYER
  5
87
330
2
100
AcDbSymbolTableRecord
100
AcDbLayerTableRecord
  2
$DDT_AUDIT_GENERATED_(87)
 70
     0
 62
     7
  6
Continuous
370
    -3
390
F
  0
LAYER
  5
8B
330
2
100
AcDbSymbolTableRecord
100
AcDbLayerTableRecord
  2
$DDT_AUDIT_GENERATED_(8B)
 70
     0
 62
     7
  6
Continuous
370
    -3
390
F
  0
LAYER
  5
90
330
2
100
AcDbSymbolTableRecord
100
AcDbLayerTableRecord
  2
$DDT_AUDIT_GENERATED_(90)
 70
     0
 62
     7
  6
Continuous
370
    -3
390
F
  0
LAYER
  5
C4
330
2
100
AcDbSymbolTableRecord
100
AcDbLayerTableRecord
  2
02636038_GEHÄUSE
 70
     0
 62
     7
  6
Continuous
370
    -3
390
F
  0
LAYER
  5
D9
330
2
100
AcDbSymbolTableRecord
100
AcDbLayerTableRecord
  2
$DDT_AUDIT_GENERATED_(D9)
 70
     0
 62
     7
  6
Continuous
370
    -3
390
F
  0
LAYER
  5
35B
330
2
100
AcDbSymbolTableRecord
100
AcDbLayerTableRecord
  2
$DDT_AUDIT_GENERATED_(35B)
 70
     0
 62
     7
  6
Continuous
370
    -3
390
F
  0
ENDTAB
  0
TABLE
  2
STYLE
  5
3
330
0
100
AcDbSymbolTable
 70
     2
  0
STYLE
  5
11
330
3
100
AcDbSymbolTableRecord
100
AcDbTextStyleTableRecord
  2
Standard
 70
     0
 40
0.0
 41
1.0
 50
0.0
 71
     0
 42
2.5
  3
txt
  4

  0
STYLE
  5
3B1
330
3
100
AcDbSymbolTableRecord
100
AcDbTextStyleTableRecord
  2
SEACAD_seiso_ttf
 70
     0
 40
0.0
 41
1.0
 50
0.0
 71
     0
 42
0.2
  3
seiso.ttf
  4

  0
ENDTAB
  0
TABLE
  2
VIEW
  5
6
330
0
100
AcDbSymbolTable
 70
     0
  0
ENDTAB
  0
TABLE
  2
UCS
  5
7
330
0
100
AcDbSymbolTable
 70
     0
  0
ENDTAB
  0
TABLE
  2
APPID
  5
9
330
0
100
AcDbSymbolTable
 70
     1
  0
APPID
  5
12
330
9
100
AcDbSymbolTableRecord
100
AcDbRegAppTableRecord
  2
ACAD
 70
     0
  0
ENDTAB
  0
TABLE
  2
DIMSTYLE
  5
A
330
0
100
AcDbSymbolTable
 70
     1
100
AcDbDimStyleTable
  0
DIMSTYLE
105
27
330
A
100
AcDbSymbolTableRecord
100
AcDbDimStyleTableRecord
  2
ISO-25
 70
     0
 41
2.5
 42
0.625
 43
3.75
 44
1.25
 73
     0
 74
     0
 77
     1
 78
     8
140
2.5
141
2.5
143
0.0393700787
147
0.625
171
     3
172
     1
271
     2
272
     2
274
     3
278
    44
283
     0
284
     8
340
11
  0
ENDTAB
  0
TABLE
  2
BLOCK_RECORD
  5
1
330
0
100
AcDbSymbolTable
 70
     7
  0
BLOCK_RECORD
  5
1F
330
1
100
AcDbSymbolTableRecord
100
AcDbBlockTableRecord
  2
*Model_Space
340
22
  0
BLOCK_RECORD
  5
1B
330
1
100
AcDbSymbolTableRecord
100
AcDbBlockTableRecord
  2
*Paper_Space
340
1E
  0
BLOCK_RECORD
  5
5E
330
1
100
AcDbSymbolTableRecord
100
AcDbBlockTableRecord
  2
SEANNOT_GROUP
340
0
102
{BLKREFS
331
5F
102
}
  0
BLOCK_RECORD
  5
65
330
1
100
AcDbSymbolTableRecord
100
AcDbBlockTableRecord
  2
SEANNOT_GROUP1
340
0
102
{BLKREFS
331
66
102
}
  0
BLOCK_RECORD
  5
6B
330
1
100
AcDbSymbolTableRecord
100
AcDbBlockTableRecord
  2
SEANNOT_GROUP2
340
0
102
{BLKREFS
331
6C
102
}
  0
BLOCK_RECORD
  5
75
330
1
100
AcDbSymbolTableRecord
100
AcDbBlockTableRecord
  2
SE
340
0
102
{BLKREFS
331
76
102
}
  0
BLOCK_RECORD
  5
326
330
1
100
AcDbSymbolTableRecord
100
AcDbBlockTableRecord
  2
SE1
340
0
102
{BLKREFS
331
327
102
}
  0
BLOCK_RECORD
  5
372
330
1
100
AcDbSymbolTableRecord
100
AcDbBlockTableRecord
  2
SE2
340
0
102
{BLKREFS
331
373
102
}
  0
ENDTAB
  0
ENDSEC
  0
SECTION
  2
BLOCKS
  0
BLOCK
  5
20
330
1F
100
AcDbEntity
  8
0
100
AcDbBlockBegin
  2
*Model_Space
 70
     0
 10
0.0
 20
0.0
 30
0.0
  3
*Model_Space
  1

  0
ENDBLK
  5
21
330
1F
100
AcDbEntity
  8
0
100
AcDbBlockEnd
  0
BLOCK
  5
1C
330
1B
100
AcDbEntity
 67
     1
  8
0
100
AcDbBlockBegin
  2
*Paper_Space
 70
     0
 10
0.0
 20
0.0
 30
0.0
  3
*Paper_Space
  1

  0
ENDBLK
  5
1D
330
1B
100
AcDbEntity
 67
     1
  8
0
100
AcDbBlockEnd
  0
BLOCK
  5
63
330
5E
100
AcDbEntity
  8
0
100
AcDbBlockBegin
  2
SEANNOT_GROUP
 70
     0
 10
0.0
 20
0.0
 30
0.0
  3
SEANNOT_GROUP
  1

  0
LINE
  5
61
330
5E
100
AcDbEntity
  8
Default
  6
CENTER2
 62
     7
100
AcDbLine
 10
64.353997472
 20
369.2115883019
 30
0.0
 11
24.3539983661
 21
369.2115883019
 31
0.0
  0
LINE
  5
62
330
5E
100
AcDbEntity
  8
Default
  6
CENTER2
 62
     7
100
AcDbLine
 10
44.3539979191
 20
389.2115878549
 30
0.0
 11
44.3539979191
 21
349.2115887489
 31
0.0
  0
ENDBLK
  5
64
330
5E
100
AcDbEntity
  8
0
100
AcDbBlockEnd
  0
BLOCK
  5
69
330
65
100
AcDbEntity
  8
0
100
AcDbBlockBegin
  2
SEANNOT_GROUP1
 70
     0
 10
0.0
 20
0.0
 30
0.0
  3
SEANNOT_GROUP1
  1

  0
LINE
  5
67
330
65
100
AcDbEntity
  8
Default
  6
CENTER2
 62
     7
100
AcDbLine
 10
204.0997105725
 20
369.2115883019
 30
0.0
 11
164.0997114665
 21
369.2115883019
 31
0.0
  0
LINE
  5
68
330
65
100
AcDbEntity
  8
Default
  6
CENTER2
 62
     7
100
AcDbLine
 10
184.0997110195
 20
389.2115878549
 30
0.0
 11
184.0997110195
 21
349.2115887489
 31
0.0
  0
ENDBLK
  5
6A
330
65
100
AcDbEntity
  8
0
100
AcDbBlockEnd
  0
BLOCK
  5
73
330
6B
100
AcDbEntity
  8
0
100
AcDbBlockBegin
  2
SEANNOT_GROUP2
 70
     0
 10
0.0
 20
0.0
 30
0.0
  3
SEANNOT_GROUP2
  1

  0
LINE
  5
6D
330
6B
100
AcDbEntity
  8
Default
  6
CENTER2
 62
     7
100
AcDbLine
 10
44.3539979191
 20
220.5972032511
 30
0.0
 11
44.3539979191
 21
260.5972023571
 31
0.0
  0
LINE
  5
6E
330
6B
100
AcDbEntity
  8
Default
  6
CENTER2
 62
     7
100
AcDbLine
 10
64.353997472
 20
240.5972028041
 30
0.0
 11
24.3539983661
 21
240.5972028041
 31
0.0
  0
LINE
  5
6F
330
6B
100
AcDbEntity
  8
Default
  6
CENTER2
 62
     7
100
AcDbLine
 10
44.3539979191
 20
215.5972033629
 30
0.0
 11
44.3539979191
 21
211.9139461242
 31
0.0
  0
LINE
  5
70
330
6B
100
AcDbEntity
  8
Default
  6
CENTER2
 62
     7
100
AcDbLine
 10
69.3539973603
 20
240.5972028041
 30
0.0
 11
72.8539979191
 21
240.5972028041
 31
0.0
  0
LINE
  5
71
330
6B
100
AcDbEntity
  8
Default
  6
CENTER2
 62
     7
100
AcDbLine
 10
44.3539979191
 20
265.5972022453
 30
0.0
 11
44.3539979191
 21
269.280459484
 31
0.0
  0
LINE
  5
72
330
6B
100
AcDbEntity
  8
Default
  6
CENTER2
 62
     7
100
AcDbLine
 10
19.3539984779
 20
240.5972028041
 30
0.0
 11
15.8539979191
 21
240.5972028041
 31
0.0
  0
ENDBLK
  5
74
330
6B
100
AcDbEntity
  8
0
100
AcDbBlockEnd
  0
BLOCK
  5
324
330
75
100
AcDbEntity
  8
0
100
AcDbBlockBegin
  2
SE
 70
     0
 10
0.0
 20
0.0
 30
0.0
  3
SE
  1

  0
SPLINE
  5
78
330
75
100
AcDbEntity
  8
$DDT_AUDIT_GENERATED_(77)
  6
Continuous
 62
     7
100
AcDbSpline
210
0.0
220
0.0
230
1.0
 70
     8
 71
     3
 72
    20
 73
    16
 74
     0
 42
0.0000000006346783
 43
0.0000000001
 40
0.0
 40
0.0
 40
0.0
 40
0.0
 40
0.5000000000000003
 40
0.5000000000000003
 40
0.7500000000000002
 40
0.7500000000000002
 40
0.8125000000000003
 40
0.8125000000000003
 40
0.8750000000000003
 40
0.8750000000000003
 40
0.9375000000000004
 40
0.9375000000000004
 40
0.9687500000000002
 40
0.9687500000000002
 40
1.0
 40
1.0
 40
1.0
 40
1.0
 10
69.28823488936227
 20
480.2591073869372
 30
0.0
 10
67.90151769148352
 20
478.7525505102025
 30
0.0
 10
66.5110712655154
 20
477.2426057781034
 30
0.0
 10
64.41009623125092
 20
474.9703351102823
 30
0.0
 10
63.70596639573939
 20
474.2123658122003
 30
0.0
 10
62.82340625508437
 20
473.2623310891462
 30
0.0
 10
62.64714947041458
 20
473.0718125877758
 30
0.0
 10
62.28263321596349
 20
472.6909140538294
 30
0.0
 10
62.14680952332059
 20
472.499989733064
 30
0.0
 10
61.71805134410589
 20
472.107806207608
 30
0.0
 10
61.38835022384507
 20
471.9059731202688
 30
0.0
 10
60.27917949179564
 20
471.6155145964366
 30
0.0
 10
59.8159283173104
 20
471.5212914282081
 30
0.0
 10
58.68975156137787
 20
471.3443009696105
 30
0.0
 10
58.01336386661698
 20
471.2539439045806
 30
0.0
 10
57.21636588044708
 20
471.1925045881562
 30
0.0
  0
SPLINE
  5
79
330
75
100
AcDbEntity
  8
$DDT_AUDIT_GENERATED_(77)
  6
Continuous
 62
     7
100
AcDbSpline
210
0.0
220
0.0
230
1.0
 70
     8
 71
     3
 72
    24
 73
    20
 74
     0
 42
0.0000000006346997
 43
0.0000000001
 40
0.0
 40
0.0
 40
0.0
 40
0.0
 40
0.0312499999999999
 40
0.0312499999999999
 40
0.0624999999999999
 40
0.0624999999999999
 40
0.1249999999999997
 40
0.1249999999999997
 40
0.1874999999999996
 40
0.1874999999999996
 40
0.2499999999999994
 40
0.2499999999999994
 40
0.4999999999999996
 40
0.4999999999999996
 40
0.7499999999999996
 40
0.7499999999999996
 40
0.8749999999999998
 40
0.8749999999999998
 40
1.0
 40
1.0
 40
1.0
 40
1.0
 10
31.49158285276317
 20
471.1926048836339
 30
0.0
 10
30.69850815513537
 20
471.2523899714167
 30
0.0
 10
30.01601939022455
 20
471.3450494731657
 30
0.0
 10
28.8823361552769
 20
471.5222766693507
 30
0.0
 10
28.41655353159432
 20
471.6177050111854
 30
0.0
 10
27.31949865492308
 20
471.9082157501785
 30
0.0
 10
26.98827884632264
 20
472.1086300617313
 30
0.0
 10
26.56008493887618
 20
472.50176501911
 30
0.0
 10
26.42430697091973
 20
472.6920058748318
 30
0.0
 10
26.05974811321782
 20
473.0730058680197
 30
0.0
 10
25.88360938023998
 20
473.2633911679238
 30
0.0
 10
25.00106847434185
 20
474.2134569418644
 30
0.0
 10
24.29713005042156
 20
474.9711125687824
 30
0.0
 10
22.89666253032469
 20
476.4858147769683
 30
0.0
 10
22.1991091045103
 20
477.2419074473298
 30
0.0
 10
21.15520858946106
 20
478.374497784936
 30
0.0
 10
20.80765189277046
 20
478.7518310579105
 30
0.0
 10
20.11322574420382
 20
479.5057735523488
 30
0.0
 10
19.76488206325752
 20
479.8840768626434
 30
0.0
 10
19.41976174099128
 20
480.2591060824251
 30
0.0
  0
ARC
  5
7A
330
75
100
AcDbEntity
  8
$DDT_AUDIT_GENERATED_(77)
  6
Continuous
 62
     7
100
AcDbCircle
 10
44.35465819
 20
646.5863834378
 30
0.0
 40
175.8648238353557
100
AcDbArc
 50
265.8055361834
 51
274.1940170484
  0
SPLINE
  5
7B
330
75
100
AcDbEntity
  8
$DDT_AUDIT_GENERATED_(77)
  6
Continuous
 62
     7
100
AcDbSpline
210
0.0
220
0.0
230
1.0
 70
     8
 71
     3
 72
    36
 73
    32
 74
     0
 42
0.0000000001627678
 43
0.0000000001
 40
0.0
 40
0.0
 40
0.0
 40
0.0
 40
0.2499999999999984
 40
0.2499999999999984
 40
0.3749999999999976
 40
0.3749999999999976
 40
0.4062499999999974
 40
0.4062499999999974
 40
0.4374999999999972
 40
0.4374999999999972
 40
0.4531249999999971
 40
0.4531249999999971
 40
0.4687499999999969
 40
0.4687499999999969
 40
0.4999999999999968
 40
0.4999999999999968
 40
0.5312499999999967
 40
0.5312499999999967
 40
0.5468749999999967
 40
0.5468749999999967
 40
0.5624999999999968
 40
0.5624999999999968
 40
0.5781249999999969
 40
0.5781249999999969
 40
0.5937499999999971
 40
0.5937499999999971
 40
0.6249999999999973
 40
0.6249999999999973
 40
0.7499999999999982
 40
0.7499999999999982
 40
1.0
 40
1.0
 40
1.0
 40
1.0
 10
69.24160299063922
 20
491.4935981433292
 30
0.0
 10
67.37043372478595
 20
489.09043338114
 30
0.0
 10
65.50198332518318
 20
486.6918193116234
 30
0.0
 10
62.70137249365177
 20
483.1068174839827
 30
0.0
 10
61.76744576463702
 20
481.9112790509319
 30
0.0
 10
60.60098183627359
 20
480.4270778117038
 30
0.0
 10
60.4147535819306
 20
480.1324504667679
 30
0.0
 10
59.5847721763916
 20
479.5820870489568
 30
0.0
 10
58.92240851785595
 20
479.3147447250638
 30
0.0
 10
56.9760444391726
 20
478.9871714002707
 30
0.0
 10
56.14803538944901
 20
478.884981922925
 30
0.0
 10
54.28962754268853
 20
478.6958308617897
 30
0.0
 10
53.27819360692192
 20
478.6135323023755
 30
0.0
 10
49.98511060368755
 20
478.407437062121
 30
0.0
 10
47.46621691945831
 20
478.3259621705411
 30
0.0
 10
42.38830444757166
 20
478.3055826513813
 30
0.0
 10
39.83702729496055
 20
478.3651856584696
 30
0.0
 10
36.39229821749787
 20
478.5469984194101
 30
0.0
 10
35.31259199101122
 20
478.6221571535725
 30
0.0
 10
33.34076410152397
 20
478.7981914533482
 30
0.0
 10
32.44992182372338
 20
478.896071980457
 30
0.0
 10
30.97050304088084
 20
479.1038110506723
 30
0.0
 10
30.37861622308409
 20
479.2206349442746
 30
0.0
 10
29.4810311514578
 20
479.4679590188044
 30
0.0
 10
29.15754110137489
 20
479.6002800757329
 30
0.0
 10
28.40715514195173
 20
480.0111413255887
 30
0.0
 10
28.20281922789908
 20
480.3041731704498
 30
0.0
 10
27.02621676082726
 20
481.8060505081831
 30
0.0
 10
26.07900848635604
 20
483.0140533419165
 30
0.0
 10
23.24686483710672
 20
486.639655290661
 30
0.0
 10
21.35671904077277
 20
489.0657702494207
 30
0.0
 10
19.46425845301918
 20
491.4963286589846
 30
0.0
  0
SPLINE
  5
7C
330
75
100
AcDbEntity
  8
$DDT_AUDIT_GENERATED_(77)
  6
Continuous
 62
     7
100
AcDbSpline
210
0.0
220
0.0
230
1.0
 70
     8
 71
     3
 72
    16
 73
    12
 74
     0
 42
0.0000000001326795
 43
0.0000000001
 40
0.0
 40
0.0
 40
0.0
 40
0.0
 40
0.0312499999999998
 40
0.0312499999999998
 40
0.0624999999999997
 40
0.0624999999999997
 40
0.1249999999999997
 40
0.1249999999999997
 40
0.2499999999999996
 40
0.2499999999999996
 40
0.3748379067001796
 40
0.3748379067001796
 40
0.3748379067001796
 40
0.3748379067001796
 10
19.41976174099128
 20
480.2591060824251
 30
0.0
 10
19.47372927442639
 20
479.5384247423831
 30
0.0
 10
19.55362106788614
 20
478.7907524399668
 30
0.0
 10
19.76276584186344
 20
477.3390153087915
 30
0.0
 10
19.89247083178527
 20
476.6171336747473
 30
0.0
 10
20.35623217640187
 20
474.4654605716356
 30
0.0
 10
20.76534300349182
 20
473.0500357766351
 30
0.0
 10
22.31149637036701
 20
468.8623144161463
 30
0.0
 10
23.78566963798736
 20
466.1213408574203
 30
0.0
 10
27.72615947761923
 20
461.1375669768065
 30
0.0
 10
30.22811811010306
 20
458.8383758206531
 30
0.0
 10
33.34749095010336
 20
457.0929016616756
 30
0.0
  0
SPLINE
  5
7D
330
75
100
AcDbEntity
  8
$DDT_AUDIT_GENERATED_(77)
  6
Continuous
 62
     7
100
AcDbSpline
210
0.0
220
0.0
230
1.0
 70
     8
 71
     3
 72
    20
 73
    16
 74
     0
 42
0.0000000001328618
 43
0.0000000001
 40
0.6257814333360022
 40
0.6257814333360022
 40
0.6257814333360022
 40
0.6257814333360022
 40
0.6874999999999993
 40
0.6874999999999993
 40
0.7499999999999994
 40
0.7499999999999994
 40
0.8124999999999996
 40
0.8124999999999996
 40
0.8749999999999997
 40
0.8749999999999997
 40
0.9374999999999998
 40
0.9374999999999998
 40
0.9687499999999998
 40
0.9687499999999998
 40
0.9999919255234154
 40
0.9999919255234154
 40
0.9999919255234154
 40
0.9999919255234154
 10
55.36535318776337
 20
457.0956642867775
 30
0.0
 10
56.90558662994223
 20
457.9580052441794
 30
0.0
 10
58.31315347515151
 20
458.9722435413086
 30
0.0
 10
60.8179394484393
 20
461.1577288080237
 30
0.0
 10
61.92934582366843
 20
462.3405218932065
 30
0.0
 10
63.91264947375028
 20
464.8397355551012
 30
0.0
 10
64.7798576248975
 20
466.1563009035996
 30
0.0
 10
66.26389723176324
 20
468.8325877217648
 30
0.0
 10
66.88748981831522
 20
470.201991211883
 30
0.0
 10
67.92656266566482
 20
472.9967378389105
 30
0.0
 10
68.34113311854892
 20
474.4214377025332
 30
0.0
 10
68.81222457205055
 20
476.5985204868008
 30
0.0
 10
68.94326603100693
 20
477.3273367968055
 30
0.0
 10
69.15402518495304
 20
478.7892373669653
 30
0.0
 10
69.23455269577883
 20
479.5311658054762
 30
0.0
 10
69.28819330449937
 20
480.2585434175568
 30
0.0
  0
SPLINE
  5
7E
330
75
100
AcDbEntity
  8
$DDT_AUDIT_GENERATED_(77)
  6
Continuous
 62
     7
100
AcDbSpline
210
0.0
220
0.0
230
1.0
 70
     8
 71
     3
 72
    26
 73
    22
 74
     0
 42
0.0000000002070183
 43
0.0000000001
 40
0.0
 40
0.0
 40
0.0
 40
0.0
 40
0.0625000000000001
 40
0.0625000000000001
 40
0.1250000000000002
 40
0.1250000000000002
 40
0.1875000000000004
 40
0.1875000000000004
 40
0.2500000000000005
 40
0.2500000000000005
 40
0.2812500000000006
 40
0.2812500000000006
 40
0.3125000000000006
 40
0.3125000000000006
 40
0.3750000000000003
 40
0.3750000000000003
 40
0.4375000000000005
 40
0.4375000000000005
 40
0.5000000000000006
 40
0.5000000000000006
 40
0.5456463585011055
 40
0.5456463585011055
 40
0.5456463585011055
 40
0.5456463585011055
 10
56.60399495944214
 20
464.345036455231
 30
0.0
 10
56.60399495944214
 20
464.5829893787927
 30
0.0
 10
56.27312925553977
 20
464.5054988826331
 30
0.0
 10
55.09464876130519
 20
464.1352122698893
 30
0.0
 10
54.239581799251
 20
463.852021012613
 30
0.0
 10
52.09685554112736
 20
463.3422512365443
 30
0.0
 10
50.77240832520187
 20
463.1070821636908
 30
0.0
 10
47.84228488803533
 20
462.7840118646924
 30
0.0
 10
46.19164779834194
 20
462.692431326251
 30
0.0
 10
43.72057405399958
 20
462.6829510543973
 30
0.0
 10
42.88126728339931
 20
462.701052871776
 30
0.0
 10
41.26869245254399
 20
462.7764718772808
 30
0.0
 10
40.4833574467355
 20
462.8342850154485
 30
0.0
 10
38.21247508714094
 20
463.064851034844
 30
0.0
 10
36.87220773715413
 20
463.2915488524875
 30
0.0
 10
34.65521396906835
 20
463.7987707326497
 30
0.0
 10
33.76874100721734
 20
464.0841158231387
 30
0.0
 10
32.52629681562753
 20
464.4790865563261
 30
0.0
 10
32.15238124326009
 20
464.5844639554095
 30
0.0
 10
32.0762695022154
 20
464.2451423352666
 30
0.0
 10
32.228636763011
 20
463.9247474875431
 30
0.0
 10
32.54598551741586
 20
463.4874357792752
 30
0.0
  0
SPLINE
  5
7F
330
75
100
AcDbEntity
  8
$DDT_AUDIT_GENERATED_(77)
  6
Continuous
 62
     7
100
AcDbSpline
210
0.0
220
0.0
230
1.0
 70
     8
 71
     3
 72
     8
 73
     4
 74
     0
 42
0.0000000004163936
 43
0.0000000001
 40
0.9584885657133686
 40
0.9584885657133686
 40
0.9584885657133686
 40
0.9584885657133686
 40
1.0
 40
1.0
 40
1.0
 40
1.0
 10
56.15665216263584
 20
463.480334811792
 30
0.0
 10
56.44862569003604
 20
463.8816891722483
 30
0.0
 10
56.60399495944214
 20
464.186992180835
 30
0.0
 10
56.60399495944214
 20
464.345036455231
 30
0.0
  0
LINE
  5
80
330
75
100
AcDbEntity
  8
$DDT_AUDIT_GENERATED_(77)
  6
Continuous
 62
     7
100
AcDbLine
 10
69.0539979191
 20
369.2115883019
 30
0.0
 11
19.6539979191
 21
369.2115883019
 31
0.0
  0
SPLINE
  5
81
330
75
100
AcDbEntity
  8
$DDT_AUDIT_GENERATED_(77)
  6
Continuous
 62
     7
100
AcDbSpline
210
0.0
220
0.0
230
1.0
 70
     8
 71
     3
 72
    17
 73
    13
 74
     0
 42
0.0000000004568053
 43
0.0000000001
 40
0.0
 40
0.0
 40
0.0
 40
0.0
 40
0.0054339669064888
 40
0.0141611759049818
 40
0.0230601338177361
 40
0.0325929133191615
 40
0.0432511125984806
 40
0.0554663228276378
 40
0.0692013941215166
 40
0.0836158015927161
 40
0.097803354921676
 40
0.1041500564579964
 40
0.1041500564579964
 40
0.1041500564579964
 40
0.1041500564579964
 10
69.34895739064909
 20
491.7802808990908
 30
0.0
 10
69.3496915999849
 20
491.8236650438309
 30
0.0
 10
69.35058728461553
 20
491.9190284482233
 30
0.0
 10
69.30641363694068
 20
492.0831147611584
 30
0.0
 10
69.22795118797026
 20
492.2503641678485
 30
0.0
 10
69.11641862272211
 20
492.4073183100954
 30
0.0
 10
68.97035471499387
 20
492.5579795160444
 30
0.0
 10
68.78083853809508
 20
492.7076394070221
 30
0.0
 10
68.54142380642637
 20
492.8566222933472
 30
0.0
 10
68.25320923724185
 20
493.001968581128
 30
0.0
 10
67.98232731274251
 20
493.1160437528733
 30
0.0
 10
67.80876135553243
 20
493.1812676394624
 30
0.0
 10
67.75372810086732
 20
493.20126993093
 30
0.0
  0
SPLINE
  5
82
330
75
100
AcDbEntity
  8
$DDT_AUDIT_GENERATED_(77)
  6
Continuous
 62
     7
100
AcDbSpline
210
0.0
220
0.0
230
1.0
 70
     8
 71
     3
 72
    17
 73
    13
 74
     0
 42
0.0000000004556354
 43
0.0000000001
 40
0.8949435873711886
 40
0.8949435873711886
 40
0.8949435873711886
 40
0.8949435873711886
 40
0.89794493037387
 40
0.9115659635573512
 40
0.9253970226802769
 40
0.9395147036911687
 40
0.9539464860698588
 40
0.9656202135744341
 40
0.9757187416518236
 40
0.9847831271955446
 40
0.9932710128147046
 40
1.0
 40
1.0
 40
1.0
 40
1.0
 10
20.9795855800796
 20
493.2104248689286
 30
0.0
 10
20.95335965549434
 20
493.2009881316586
 30
0.0
 10
20.80983422581919
 20
493.1485342044445
 30
0.0
 10
20.5643042417727
 20
493.0504300957177
 30
0.0
 10
20.26732379075419
 20
492.9105507393769
 30
0.0
 10
20.00235235918509
 20
492.7588545682767
 30
0.0
 10
19.78500938786509
 20
492.6004946746503
 30
0.0
 10
19.61662630456425
 20
492.4373223843588
 30
0.0
 10
19.4946681378314
 20
492.2749710878147
 30
0.0
 10
19.41074877289413
 20
492.107635357586
 30
0.0
 10
19.36055589911093
 20
491.9374871536592
 30
0.0
 10
19.35867008149271
 20
491.8353009789246
 30
0.0
 10
19.35815215985141
 20
491.7815192978602
 30
0.0
  0
LINE
  5
83
330
75
100
AcDbEntity
  8
$DDT_AUDIT_GENERATED_(77)
  6
Continuous
 62
     7
100
AcDbLine
 10
19.3539979191
 20
491.7821190591
 30
0.0
 11
19.3539979191
 21
369.5115883019
 31
0.0
  0
LINE
  5
84
330
75
100
AcDbEntity
  8
$DDT_AUDIT_GENERATED_(77)
  6
Continuous
 62
     7
100
AcDbLine
 10
69.3539979191
 20
369.5115883019
 30
0.0
 11
69.3539979191
 21
491.7821190591
 31
0.0
  0
ARC
  5
85
330
75
100
AcDbEntity
  8
$DDT_AUDIT_GENERATED_(77)
  6
Continuous
 62
     7
100
AcDbCircle
 10
69.0539979191
 20
369.5115883019
 30
0.0
 40
0.2999999999999984
100
AcDbArc
 50
270.0
 51
0.6952724236
  0
ARC
  5
86
330
75
100
AcDbEntity
  8
$DDT_AUDIT_GENERATED_(77)
  6
Continuous
 62
     7
100
AcDbCircle
 10
19.6539979191
 20
369.5115883019
 30
0.0
 40
0.2999999999999989
100
AcDbArc
 50
179.4489157187
 51
270.0
  0
ELLIPSE
  5
88
330
75
100
AcDbEntity
  8
$DDT_AUDIT_GENERATED_(87)
  6
Continuous
 62
     7
100
AcDbEllipse
 10
44.3539949594
 20
505.0485254051
 30
0.0
 11
-1.679217777651809E-14
 21
3.829126358332463
 31
0.0
210
0.0
220
0.0
230
1.0
 40
0.9009888098
 41
0.0
 42
6.283185307179586
  0
LINE
  5
89
330
75
100
AcDbEntity
  8
$DDT_AUDIT_GENERATED_(87)
  6
Continuous
 62
     7
100
AcDbLine
 10
40.9039949594
 20
505.3266758903
 30
0.0
 11
40.9039949594
 21
505.0485254051
 31
0.0
  0
LINE
  5
8A
330
75
100
AcDbEntity
  8
$DDT_AUDIT_GENERATED_(87)
  6
Continuous
 62
     7
100
AcDbLine
 10
47.8039949594
 20
505.0485254051
 30
0.0
 11
47.8039949594
 21
505.3266758903
 31
0.0
  0
ELLIPSE
  5
8C
330
75
100
AcDbEntity
  8
$DDT_AUDIT_GENERATED_(8B)
  6
Continuous
 62
     7
100
AcDbEllipse
 10
44.3539949594
 20
492.27839276
 30
0.0
 11
23.64931288642444
 21
-1.387778780781446E-14
 31
0.0
210
0.0
220
0.0
230
1.0
 40
0.1218693434
 41
3.108358458993492
 42
6.283185307179586
  0
ELLIPSE
  5
8D
330
75
100
AcDbEntity
  8
$DDT_AUDIT_GENERATED_(8B)
  6
Continuous
 62
     7
100
AcDbEllipse
 10
44.3539949594
 20
492.27839276
 30
0.0
 11
23.64931288642444
 21
-1.387778780781446E-14
 31
0.0
210
0.0
220
0.0
230
1.0
 40
0.1218693434
 41
0.0000000000000048
 42
0.0332341945962909
  0
ARC
  5
8E
330
75
100
AcDbEntity
  8
$DDT_AUDIT_GENERATED_(8B)
  6
Continuous
 62
     7
100
AcDbCircle
 10
44.3539949594
 20
485.9260973895
 30
0.0
 40
24.5
100
AcDbArc
 50
15.2592067034
 51
18.8868186686
  0
ARC
  5
8F
330
75
100
AcDbEntity
  8
$DDT_AUDIT_GENERATED_(8B)
  6
Continuous
 62
     7
100
AcDbCircle
 10
44.3539949594
 20
485.9260973895
 30
0.0
 40
24.5
100
AcDbArc
 50
161.1150912698
 51
164.7407932966
  0
LINE
  5
91
330
75
100
AcDbEntity
  8
$DDT_AUDIT_GENERATED_(90)
  6
Continuous
 62
     7
100
AcDbLine
 10
21.1028216253
 20
524.3845261415
 30
0.0
 11
21.1028566577
 21
524.3856607554
 31
0.0
  0
ARC
  5
92
330
75
100
AcDbEntity
  8
$DDT_AUDIT_GENERATED_(90)
  6
Continuous
 62
     7
100
AcDbCircle
 10
21.5976654878
 20
524.3765923205
 30
0.0
 40
0.4948919223644303
100
AcDbArc
 50
116.2555475073
 51
178.9500492756
  0
ARC
  5
93
330
75
100
AcDbEntity
  8
$DDT_AUDIT_GENERATED_(90)
  6
Continuous
 62
     7
100
AcDbCircle
 10
22.0360861621
 20
521.440551057
 30
0.0
 40
1.060013214302532
100
AcDbArc
 50
176.5131505569
 51
182.0282146517
  0
ARC
  5
94
330
75
100
AcDbEntity
  8
$DDT_AUDIT_GENERATED_(90)
  6
Continuous
 62
     7
100
AcDbCircle
 10
-8.9519208748
 20
581.630569223
 30
0.0
 40
67.41874075855588
100
AcDbArc
 50
296.711569157
 51
302.5530721647
  0
ARC
  5
95
330
75
100
AcDbEntity
  8
$DDT_AUDIT_GENERATED_(90)
  6
Continuous
 62
     7
100
AcDbCircle
 10
27.4210446203
 20
525.2961927614
 30
0.0
 40
0.5017526882505509
100
AcDbArc
 50
159.3998304681
 51
258.9406382969
  0
SPLINE
  5
96
330
75
100
AcDbEntity
  8
$DDT_AUDIT_GENERATED_(90)
  6
Continuous
 62
     7
100
AcDbSpline
210
0.0
220
0.0
230
1.0
 70
    12
 71
     2
 72
     6
 73
     3
 74
     0
 42
0.0000006115759083
 43
0.0000000001
 40
0.8445261684810577
 40
0.8445261684810577
 40
0.8445261684810577
 40
1.0
 40
1.0
 40
1.0
 10
44.35490633000165
 20
529.5181052265585
 30
0.0
 41
0.9860296485091381
 10
44.35490256197125
 20
529.5193271675885
 30
0.0
 41
0.9917288818202113
 10
44.35489716994311
 20
529.518006941723
 30
0.0
 41
1.0
  0
SPLINE
  5
97
330
75
100
AcDbEntity
  8
$DDT_AUDIT_GENERATED_(90)
  6
Continuous
 62
     7
100
AcDbSpline
210
0.0
220
0.0
230
1.0
 70
    12
 71
     3
 72
    10
 73
     6
 74
     0
 42
0.0000000001033643
 43
0.0000000001
 40
0.0158079145729396
 40
0.0158079145729396
 40
0.0158079145729396
 40
0.0158079145729396
 40
0.0176959745387938
 40
0.0176959745387938
 40
0.0186921800376806
 40
0.0186921800376806
 40
0.0186921800376806
 40
0.0186921800376806
 10
42.8100786726747
 20
529.5139664763308
 30
0.0
 41
1.0
 10
42.74909754915014
 20
529.5136440548379
 30
0.0
 41
1.0
 10
42.68817875222354
 20
529.5133023443584
 30
0.0
 41
1.0
 10
42.59521229110845
 20
529.512750875318
 30
0.0
 41
1.0
 10
42.56311967375641
 20
529.5125550289708
 30
0.0
 41
1.0
 10
42.53104440719263
 20
529.5123538128597
 30
0.0
 41
1.0
  0
SPLINE
  5
98
330
75
100
AcDbEntity
  8
$DDT_AUDIT_GENERATED_(90)
  6
Continuous
 62
     7
100
AcDbSpline
210
0.0
220
0.0
230
1.0
 70
    12
 71
     3
 72
    10
 73
     6
 74
     0
 42
0.0000000001049405
 43
0.0000000001
 40
0.0289213189890607
 40
0.0289213189890607
 40
0.0289213189890607
 40
0.0289213189890607
 40
0.0335088411720262
 40
0.0335088411720262
 40
0.0336106698422125
 40
0.0336106698422125
 40
0.0336106698422125
 40
0.0336106698422125
 10
41.54846019332498
 20
529.5044619896664
 30
0.0
 41
1.0
 10
41.40238393691719
 20
529.5030308680844
 30
0.0
 41
1.0
 10
41.25666783600602
 20
529.5014882847047
 30
0.0
 41
1.0
 10
41.10808007519499
 20
529.49979918595
 30
0.0
 41
1.0
 10
41.10485368532959
 20
529.499762453262
 30
0.0
 41
1.0
 10
41.10162747034869
 20
529.4997256664501
 30
0.0
 41
1.0
  0
SPLINE
  5
99
330
75
100
AcDbEntity
  8
$DDT_AUDIT_GENERATED_(90)
  6
Continuous
 62
     7
100
AcDbSpline
210
0.0
220
0.0
230
1.0
 70
    12
 71
     3
 72
    10
 73
     6
 74
     0
 42
0.0000000001173392
 43
0.0000000001
 40
0.0745443082279337
 40
0.0745443082279337
 40
0.0745443082279337
 40
0.0745443082279337
 40
0.0809474410717225
 40
0.0809474410717225
 40
0.0820307125511351
 40
0.0820307125511351
 40
0.0820307125511351
 40
0.0820307125511351
 10
37.34757408120544
 20
529.4291735045114
 30
0.0
 41
1.0
 10
37.16338299417346
 20
529.4241892053216
 30
0.0
 41
1.0
 10
36.9812327939916
 20
529.4190119507123
 30
0.0
 41
1.0
 10
36.7706054420239
 20
529.4127377027178
 30
0.0
 41
1.0
 10
36.74018523592793
 20
529.4118244151896
 30
0.0
 41
1.0
 10
36.70982231618387
 20
529.4109057115298
 30
0.0
 41
1.0
  0
ARC
  5
9A
330
75
100
AcDbEntity
  8
$DDT_AUDIT_GENERATED_(90)
  6
Continuous
 62
     7
100
AcDbCircle
 10
40.5491541006
 20
609.7656479576
 30
0.0
 40
90.4201463825654
100
AcDbArc
 50
257.7427007649
 51
272.4122660395
  0
SPLINE
  5
9B
330
75
100
AcDbEntity
  8
$DDT_AUDIT_GENERATED_(90)
  6
Continuous
 62
     7
100
AcDbSpline
210
0.0
220
0.0
230
1.0
 70
    12
 71
     3
 72
   140
 73
   136
 74
     0
 42
0.0000000005806314
 43
0.0000000001
 40
0.0
 40
0.0
 40
0.0
 40
0.0
 40
0.0157194533715449
 40
0.0157194533715449
 40
0.0314392148330125
 40
0.0314392148330125
 40
0.0628787377559476
 40
0.0628787377559476
 40
0.0943182606788824
 40
0.0943182606788824
 40
0.1257577836018175
 40
0.1257577836018175
 40
0.1571973065247521
 40
0.1571973065247521
 40
0.1886368294476872
 40
0.1886368294476872
 40
0.2200763523706195
 40
0.2200763523706195
 40
0.2515158752935546
 40
0.2515158752935546
 40
0.2593757560242881
 40
0.2593757560242881
 40
0.2672356367550222
 40
0.2672356367550222
 40
0.28295539821649
 40
0.28295539821649
 40
0.2986751596779564
 40
0.2986751596779564
 40
0.3143949211394229
 40
0.3143949211394229
 40
0.3301146826008921
 40
0.3301146826008921
 40
0.3340446229662588
 40
0.3340446229662588
 40
0.3379745633316253
 40
0.3379745633316253
 40
0.3458344440623586
 40
0.3458344440623586
 40
0.3536943247930946
 40
0.3536943247930946
 40
0.3615542055238278
 40
0.3615542055238278
 40
0.3772739669852943
 40
0.3772739669852943
 40
0.3929937284467607
 40
0.3929937284467607
 40
0.4008536091774967
 40
0.4008536091774967
 40
0.4087134899082299
 40
0.4087134899082299
 40
0.4401530128311656
 40
0.4401530128311656
 40
0.4715925357540985
 40
0.4715925357540985
 40
0.487312297215565
 40
0.487312297215565
 40
0.5030320586770342
 40
0.5030320586770342
 40
0.5187518201385034
 40
0.5187518201385034
 40
0.5226817605038672
 40
0.5226817605038672
 40
0.5266117008692338
 40
0.5266117008692338
 40
0.5344715815999671
 40
0.5344715815999671
 40
0.5501913430614334
 40
0.5501913430614334
 40
0.5580512237921667
 40
0.5580512237921667
 40
0.5659111045229027
 40
0.5659111045229027
 40
0.5973506274458356
 40
0.5973506274458356
 40
0.6287901503687713
 40
0.6287901503687713
 40
0.6602296732917069
 40
0.6602296732917069
 40
0.6759494347531734
 40
0.6759494347531734
 40
0.6798793751185399
 40
0.6798793751185399
 40
0.6838093154839066
 40
0.6838093154839066
 40
0.6916691962146426
 40
0.6916691962146426
 40
0.707388957676109
 40
0.707388957676109
 40
0.7231087191375756
 40
0.7231087191375756
 40
0.7388284805990448
 40
0.7388284805990448
 40
0.7545482420605111
 40
0.7545482420605111
 40
0.7859877649834469
 40
0.7859877649834469
 40
0.8174272879063713
 40
0.8174272879063713
 40
0.8331470493678574
 40
0.8331470493678574
 40
0.841006930098585
 40
0.841006930098585
 40
0.8449368704639488
 40
0.8449368704639488
 40
0.8488668108293125
 40
0.8488668108293125
 40
0.8645865722907706
 40
0.8645865722907706
 40
0.8724464530215263
 40
0.8724464530215263
 40
0.8763763933868901
 40
0.8763763933868901
 40
0.8803063337522539
 40
0.8803063337522539
 40
0.896026095213709
 40
0.896026095213709
 40
0.9117458566751949
 40
0.9117458566751949
 40
0.9274656181366502
 40
0.9274656181366502
 40
0.9431853795981053
 40
0.9431853795981053
 40
0.9746249025210466
 40
0.9746249025210466
 40
0.990344663982533
 40
0.990344663982533
 40
0.9982045447132605
 40
0.9982045447132605
 40
0.9991870298045931
 40
0.9991870298045931
 40
0.9996782723502606
 40
0.9996782723502606
 40
0.9999238936231086
 40
0.9999238936231086
 40
1.0
 40
1.0
 40
1.0
 40
1.0
 10
27.32479545198356
 20
524.8037581386207
 30
0.0
 41
1.0
 10
27.34135545717382
 20
524.8137294692518
 30
0.0
 41
1.0
 10
27.3580288085957
 20
524.8237972782679
 30
0.0
 41
1.0
 10
27.39143231043436
 20
524.8439350935307
 30
0.0
 41
1.0
 10
27.40816537216546
 20
524.8540182825559
 30
0.0
 41
1.0
 10
27.45843556351667
 20
524.8843052813663
 30
0.0
 41
1.0
 10
27.49204816071216
 20
524.9045487792085
 30
0.0
 41
1.0
 10
27.55921768119057
 20
524.9450620121621
 30
0.0
 41
1.0
 10
27.59277431139435
 20
524.9653313252534
 30
0.0
 41
1.0
 10
27.65955600837986
 20
525.0057301693738
 30
0.0
 41
1.0
 10
27.69274950887756
 20
525.0258409060202
 30
0.0
 41
1.0
 10
27.75873021407996
 20
525.0658342736427
 30
0.0
 41
1.0
 10
27.79154010463866
 20
525.085723371537
 30
0.0
 41
1.0
 10
27.85695691537505
 20
525.1252798963085
 30
0.0
 41
1.0
 10
27.88956578036846
 20
525.1449472060439
 30
0.0
 41
1.0
 10
27.95472799186346
 20
525.1840533880834
 30
0.0
 41
1.0
 10
27.98724993114805
 20
525.2034830104286
 30
0.0
 41
1.0
 10
28.05228081769145
 20
525.2422326876822
 30
0.0
 41
1.0
 10
28.08479669447626
 20
525.2615546306945
 30
0.0
 41
1.0
 10
28.12555799323896
 20
525.2858212284983
 30
0.0
 41
1.0
 10
28.13371616065635
 20
525.290680593066
 30
0.0
 41
1.0
 10
28.15004755680085
 20
525.3004172728021
 30
0.0
 41
1.0
 10
28.15821926861756
 20
525.3052947449826
 30
0.0
 41
1.0
 10
28.18298131396156
 20
525.3199364541204
 30
0.0
 41
1.0
 10
28.19981739234676
 20
525.3297092952505
 30
0.0
 41
1.0
 10
28.23539682868045
 20
525.3491963544767
 30
0.0
 41
1.0
 10
28.25414401765356
 20
525.3589103110507
 30
0.0
 41
1.0
 10
28.29481338527535
 20
525.3782223933051
 30
0.0
 41
1.0
 10
28.31673253326336
 20
525.3878212666614
 30
0.0
 41
1.0
 10
28.36501777474466
 20
525.4068515831026
 30
0.0
 41
1.0
 10
28.39138396284086
 20
525.4162833156117
 30
0.0
 41
1.0
 10
28.42794483524335
 20
525.4279309785214
 30
0.0
 41
1.0
 10
28.43543777471425
 20
525.4302533227344
 30
0.0
 41
1.0
 10
28.45080266255776
 20
525.43488293076
 30
0.0
 41
1.0
 10
28.45867313741785
 20
525.4371903613857
 30
0.0
 41
1.0
 10
28.48284928562325
 20
525.444092159743
 30
0.0
 41
1.0
 10
28.49971960768045
 20
525.4486661184477
 30
0.0
 41
1.0
 10
28.53497129788606
 20
525.4577662833358
 30
0.0
 41
1.0
 10
28.55335267560896
 20
525.4622924963743
 30
0.0
 41
1.0
 10
28.59163404327835
 20
525.4713011274233
 30
0.0
 41
1.0
 10
28.61154644091506
 20
525.4757859616499
 30
0.0
 41
1.0
 10
28.67336869826955
 20
525.4891331135365
 30
0.0
 41
1.0
 10
28.71741374048345
 20
525.4979024299867
 30
0.0
 41
1.0
 10
28.81107978960275
 20
525.5151611498867
 30
0.0
 41
1.0
 10
28.86069472140665
 20
525.5236434780647
 30
0.0
 41
1.0
 10
28.93928401644545
 20
525.5361493317432
 30
0.0
 41
1.0
 10
28.96617605216515
 20
525.5402821189327
 30
0.0
 41
1.0
 10
29.02135628837775
 20
525.5484774448087
 30
0.0
 41
1.0
 10
29.04964585018865
 20
525.5525398079243
 30
0.0
 41
1.0
 10
29.19458224715985
 20
525.5726809468166
 30
0.0
 41
1.0
 10
29.32165159989075
 20
525.5882537572115
 30
0.0
 41
1.0
 10
29.59703626507115
 20
525.6185551001151
 30
0.0
 41
1.0
 10
29.74535409033125
 20
525.6332851293488
 30
0.0
 41
1.0
 10
29.98326265458635
 20
525.6548675848792
 30
0.0
 41
1.0
 10
30.06512893853495
 20
525.661977480428
 30
0.0
 41
1.0
 10
30.23401727807895
 20
525.6760210842785
 30
0.0
 41
1.0
 10
30.32104872436815
 20
525.6829520451802
 30
0.0
 41
1.0
 10
30.50041208091785
 20
525.6966143756467
 30
0.0
 41
1.0
 10
30.59274395706325
 20
525.7033458094245
 30
0.0
 41
1.0
 10
30.71156595070475
 20
525.7116308923208
 30
0.0
 41
1.0
 10
30.73549098768675
 20
525.7132807727556
 30
0.0
 41
1.0
 10
30.78359810586295
 20
525.7165618634089
 30
0.0
 41
1.0
 10
30.80778948091904
 20
525.7181937239376
 30
0.0
 41
1.0
 10
30.88077691279754
 20
525.7230634162255
 30
0.0
 41
1.0
 10
30.92998625439734
 20
525.726275350428
 30
0.0
 41
1.0
 10
31.07926716064425
 20
525.7358092643327
 30
0.0
 41
1.0
 10
31.18099136145195
 20
525.7420293554164
 30
0.0
 41
1.0
 10
31.33688743610875
 20
525.7511638277823
 30
0.0
 41
1.0
 10
31.38940541942174
 20
525.7541758664195
 30
0.0
 41
1.0
 10
31.49553814683355
 20
525.7601375194631
 30
0.0
 41
1.0
 10
31.54915246266615
 20
525.7630872251103
 30
0.0
 41
1.0
 10
31.81993937579405
 20
525.7776881179095
 30
0.0
 41
1.0
 10
32.04526798346864
 20
525.7889064385254
 30
0.0
 41
1.0
 10
32.51291159045974
 20
525.8105047278278
 30
0.0
 41
1.0
 10
32.75521115122544
 20
525.8208670370044
 30
0.0
 41
1.0
 10
33.25678020227484
 20
525.8406355982264
 30
0.0
 41
1.0
 10
33.51607299375704
 20
525.8500379622426
 30
0.0
 41
1.0
 10
33.91820267181964
 20
525.863355376123
 30
0.0
 41
1.0
 10
34.05444521417105
 20
525.8676641395479
 30
0.0
 41
1.0
 10
34.22754784711464
 20
525.8728840391996
 30
0.0
 41
1.0
 10
34.26230835827285
 20
525.873919721676
 30
0.0
 41
1.0
 10
34.33211065112084
 20
525.875974430802
 30
0.0
 41
1.0
 10
34.36716077284663
 20
525.8769936858945
 30
0.0
 41
1.0
 10
34.47254165522641
 20
525.880020891992
 30
0.0
 41
1.0
 10
34.54316226648218
 20
525.8820000586139
 30
0.0
 41
1.0
 10
34.75611617675892
 20
525.887821718567
 30
0.0
 41
1.0
 10
34.89954318079715
 20
525.8915478698498
 30
0.0
 41
1.0
 10
35.1892581458613
 20
525.8986988238805
 30
0.0
 41
1.0
 10
35.33554300236717
 20
525.9021249248802
 30
0.0
 41
1.0
 10
35.63090409603792
 20
525.9086856192467
 30
0.0
 41
1.0
 10
35.77997837277537
 20
525.9118185277755
 30
0.0
 41
1.0
 10
36.0808800733823
 20
525.9177946067679
 30
0.0
 41
1.0
 10
36.23271663814826
 20
525.9206390930176
 30
0.0
 41
1.0
 10
36.69240837813113
 20
525.9287815588551
 30
0.0
 41
1.0
 10
37.0044325676599
 20
525.9336878657413
 30
0.0
 41
1.0
 10
37.64006009127361
 20
525.9426951516089
 30
0.0
 41
1.0
 10
37.96367206320401
 20
525.9467936094994
 30
0.0
 41
1.0
 10
38.45831662618373
 20
525.9525664576321
 30
0.0
 41
1.0
 10
38.62473726222295
 20
525.9544289310403
 30
0.0
 41
1.0
 10
38.87675715043686
 20
525.957165609733
 30
0.0
 41
1.0
 10
38.96116204434004
 20
525.9580683799376
 30
0.0
 41
1.0
 10
39.08837791617766
 20
525.9594133436334
 30
0.0
 41
1.0
 10
39.13089109351468
 20
525.9598602046756
 30
0.0
 41
1.0
 10
39.2160953342222
 20
525.9607514777351
 30
0.0
 41
1.0
 10
39.25873339277707
 20
525.9611953365284
 30
0.0
 41
1.0
 10
39.47210365330473
 20
525.9634080983307
 30
0.0
 41
1.0
 10
39.64337588081669
 20
525.9651565909546
 30
0.0
 41
1.0
 10
39.90115022944833
 20
525.9678036039439
 30
0.0
 41
1.0
 10
39.98721939322247
 20
525.9686900489214
 30
0.0
 41
1.0
 10
40.11654052533886
 20
525.970033564215
 30
0.0
 41
1.0
 10
40.15968529636991
 20
525.9704838927383
 30
0.0
 41
1.0
 10
40.24602443947704
 20
525.9713899716237
 30
0.0
 41
1.0
 10
40.28922142801475
 20
525.971845407182
 30
0.0
 41
1.0
 10
40.50534221260359
 20
525.9741292745559
 30
0.0
 41
1.0
 10
40.67867300514565
 20
525.9759767954914
 30
0.0
 41
1.0
 10
41.02617991245468
 20
525.979591905303
 30
0.0
 41
1.0
 10
41.20035613534544
 20
525.9813594187326
 30
0.0
 41
1.0
 10
41.5495429071204
 20
525.9847206640147
 30
0.0
 41
1.0
 10
41.72455356747351
 20
525.9863145497803
 30
0.0
 41
1.0
 10
42.07540657422949
 20
525.9892611649352
 30
0.0
 41
1.0
 10
42.25124927836927
 20
525.9906138816386
 30
0.0
 41
1.0
 10
42.7800291089555
 20
525.9942367881467
 30
0.0
 41
1.0
 10
43.13422174634714
 20
525.9960737007611
 30
0.0
 41
1.0
 10
43.66799745580393
 20
525.9977426662317
 30
0.0
 41
1.0
 10
43.84633638371663
 20
525.9981181238488
 30
0.0
 41
1.0
 10
44.11445213715599
 20
525.9983687743079
 30
0.0
 41
1.0
 10
44.20392519120908
 20
525.9984000526299
 30
0.0
 41
1.0
 10
44.30469425571648
 20
525.9983709920889
 30
0.0
 41
1.0
 10
44.31589237177464
 20
525.998366869346
 30
0.0
 41
1.0
 10
44.33269187020842
 20
525.998359328455
 30
0.0
 41
1.0
 10
44.33829209041183
 20
525.9983565886889
 30
0.0
 41
1.0
 10
44.34669300107892
 20
525.998352137788
 30
0.0
 41
1.0
 10
44.34949340136309
 20
525.998350597277
 30
0.0
 41
1.0
 10
44.35316163942464
 20
525.9983485047106
 30
0.0
 41
1.0
 10
44.35402938924574
 20
525.9983480042242
 30
0.0
 41
1.0
 10
44.35489716496268
 20
525.9983476783513
 30
0.0
 41
1.0
  0
ARC
  5
9C
330
75
100
AcDbEntity
  8
$DDT_AUDIT_GENERATED_(90)
  6
Continuous
 62
     7
100
AcDbCircle
 10
-1185.6363821054
 20
575.2373624056
 30
0.0
 40
1207.810215545755
100
AcDbArc
 50
357.4502179356
 51
357.5869433969
  0
LINE
  5
9D
330
75
100
AcDbEntity
  8
$DDT_AUDIT_GENERATED_(90)
  6
Continuous
 62
     7
100
AcDbLine
 10
44.3548971699
 20
523.2175584266
 30
0.0
 11
44.354897165
 21
525.9983476784
 31
0.0
  0
ARC
  5
9E
330
75
100
AcDbEntity
  8
$DDT_AUDIT_GENERATED_(90)
  6
Continuous
 62
     7
100
AcDbCircle
 10
44.3540188747
 20
615.4223662184
 30
0.0
 40
92.20480779601073
100
AcDbArc
 50
259.356992917
 51
270.0005457699
  0
ARC
  5
9F
330
75
100
AcDbEntity
  8
$DDT_AUDIT_GENERATED_(90)
  6
Continuous
 62
     7
100
AcDbCircle
 10
67.1121754632
 20
524.3766400132
 30
0.0
 40
0.4948444474356952
100
AcDbArc
 50
1.0445284142
 51
63.7153115518
  0
LINE
  5
A0
330
75
100
AcDbEntity
  8
$DDT_AUDIT_GENERATED_(90)
  6
Continuous
 62
     7
100
AcDbLine
 10
67.6069376822
 20
524.3856607554
 30
0.0
 11
67.6069727146
 21
524.3845261415
 31
0.0
  0
ARC
  5
A1
330
75
100
AcDbEntity
  8
$DDT_AUDIT_GENERATED_(90)
  6
Continuous
 62
     7
100
AcDbCircle
 10
66.6736247736
 20
521.4405499953
 30
0.0
 40
1.060096528742697
100
AcDbArc
 50
357.972002234
 51
3.4866325574
  0
ARC
  5
A2
330
75
100
AcDbEntity
  8
$DDT_AUDIT_GENERATED_(90)
  6
Continuous
 62
     7
100
AcDbCircle
 10
61.288710792
 20
525.2962144813
 30
0.0
 40
0.5017814731761472
100
AcDbArc
 50
281.0632483507
 51
20.5960696525
  0
ARC
  5
A3
330
75
100
AcDbEntity
  8
$DDT_AUDIT_GENERATED_(90)
  6
Continuous
 62
     7
100
AcDbCircle
 10
97.6617152148
 20
581.6305692232
 30
0.0
 40
67.41874075887743
100
AcDbArc
 50
237.4469278353
 51
243.288430843
  0
SPLINE
  5
A4
330
75
100
AcDbEntity
  8
$DDT_AUDIT_GENERATED_(90)
  6
Continuous
 62
     7
100
AcDbSpline
210
0.0
220
0.0
230
1.0
 70
    12
 71
     3
 72
     8
 73
     4
 74
     0
 42
0.0000000001105506
 43
0.0000000001
 40
0.9375040474317756
 40
0.9375040474317756
 40
0.9375040474317756
 40
0.9375040474317756
 40
0.940404535853731
 40
0.940404535853731
 40
0.940404535853731
 40
0.940404535853731
 10
50.30044097536391
 20
529.4552257769827
 30
0.0
 41
1.0
 10
50.21344320554063
 20
529.457146702251
 30
0.0
 41
1.0
 10
50.12600845047565
 20
529.4590263127978
 30
0.0
 41
1.0
 10
50.03813404282321
 20
529.4608643564393
 30
0.0
 41
1.0
  0
SPLINE
  5
A5
330
75
100
AcDbEntity
  8
$DDT_AUDIT_GENERATED_(90)
  6
Continuous
 62
     7
100
AcDbSpline
210
0.0
220
0.0
230
1.0
 70
    12
 71
     3
 72
    10
 73
     6
 74
     0
 42
0.0000000001068388
 43
0.0000000001
 40
0.9491907368939793
 40
0.9491907368939793
 40
0.9491907368939793
 40
0.9491907368939793
 40
0.9506782921947412
 40
0.9506782921947412
 40
0.9550653922341652
 40
0.9550653922341652
 40
0.9550653922341652
 40
0.9550653922341652
 10
49.2277629668385
 20
529.4764124462317
 30
0.0
 41
1.0
 10
49.18151238644888
 20
529.4772219715367
 30
0.0
 41
1.0
 10
49.13522218845144
 20
529.478019235888
 30
0.0
 41
1.0
 10
48.95225798376389
 20
529.4811198562836
 30
0.0
 41
1.0
 10
48.81528309012229
 20
529.483330093099
 30
0.0
 41
1.0
 10
48.67797550355434
 20
529.4854373673006
 30
0.0
 41
1.0
  0
SPLINE
  5
A6
330
75
100
AcDbEntity
  8
$DDT_AUDIT_GENERATED_(90)
  6
Continuous
 62
     7
100
AcDbSpline
210
0.0
220
0.0
230
1.0
 70
    12
 71
     3
 72
    10
 73
     6
 74
     0
 42
0.0000000001044458
 43
0.0000000001
 40
0.9697581239410487
 40
0.9697581239410487
 40
0.9697581239410487
 40
0.9697581239410487
 40
0.9743975921445894
 40
0.9743975921445894
 40
0.9765231077757852
 40
0.9765231077757852
 40
0.9765231077757852
 40
0.9765231077757852
 10
47.28739260021378
 20
529.5031984390564
 30
0.0
 41
1.0
 10
47.13987152984062
 20
529.5047105265884
 30
0.0
 41
1.0
 10
46.99198364734507
 20
529.5061090922153
 30
0.0
 41
1.0
 10
46.77579995785585
 20
529.5079804121386
 30
0.0
 41
1.0
 10
46.7077977101711
 20
529.5085440178865
 30
0.0
 41
1.0
 10
46.63971668569545
 20
529.5090832436024
 30
0.0
 41
1.0
  0
ARC
  5
A7
330
75
100
AcDbEntity
  8
$DDT_AUDIT_GENERATED_(90)
  6
Continuous
 62
     7
100
AcDbCircle
 10
48.1606402393
 20
609.7656479576
 30
0.0
 40
90.42014638256649
100
AcDbArc
 50
267.5877339605
 51
282.2572992351
  0
SPLINE
  5
A8
330
75
100
AcDbEntity
  8
$DDT_AUDIT_GENERATED_(90)
  6
Continuous
 62
     7
100
AcDbSpline
210
0.0
220
0.0
230
1.0
 70
     8
 71
     3
 72
    21
 73
    17
 74
     0
 42
0.0000000005805075
 43
0.0000000001
 40
0.0
 40
0.0
 40
0.0
 40
0.0
 40
0.1403469123061349
 40
0.2021685260533163
 40
0.2638266549220825
 40
0.2929734067465167
 40
0.3212194417742704
 40
0.3800874522049583
 40
0.503559871457825
 40
0.5658046960960342
 40
0.6282232737391801
 40
0.7520783012189192
 40
0.87549275589027
 40
0.9377562263296819
 40
0.9687450293468065
 40
1.0
 40
1.0
 40
1.0
 40
1.0
 10
61.38499888791067
 20
524.8037581386207
 30
0.0
 10
61.23523288803139
 20
524.894249317012
 30
0.0
 10
61.01949241148406
 20
525.0246214168462
 30
0.0
 10
60.74543849389348
 20
525.1897689837209
 30
0.0
 10
60.5894755190769
 20
525.2832160181671
 30
0.0
 10
60.46347135881098
 20
525.3573314148795
 30
0.0
 10
60.30335553033921
 20
525.4281050223301
 30
0.0
 10
59.81931087840606
 20
525.5488989729504
 30
0.0
 10
58.713695869487
 20
525.6675567843295
 30
0.0
 10
57.14781686378439
 20
525.767406981758
 30
0.0
 10
55.2896627573902
 20
525.8535614162934
 30
0.0
 10
52.48916698054161
 20
525.9311933468705
 30
0.0
 10
49.23098627787477
 20
525.9629298910862
 30
0.0
 10
46.8165893134088
 20
525.9889079803147
 30
0.0
 10
45.41317456061203
 20
525.9974531468295
 30
0.0
 10
44.7086605142277
 20
525.998048652337
 30
0.0
 10
44.35489716496268
 20
525.9983476783513
 30
0.0
  0
ARC
  5
A9
330
75
100
AcDbEntity
  8
$DDT_AUDIT_GENERATED_(90)
  6
Continuous
 62
     7
100
AcDbCircle
 10
1274.8902155024
 20
575.260940675
 30
0.0
 40
1208.354764906405
100
AcDbArc
 50
182.413087495
 51
182.5497513405
  0
ARC
  5
AA
330
75
100
AcDbEntity
  8
$DDT_AUDIT_GENERATED_(90)
  6
Continuous
 62
     7
100
AcDbCircle
 10
44.3563265823
 20
615.4164491954
 30
0.0
 40
92.19889077992264
100
AcDbArc
 50
269.9991117106
 51
280.6433496025
  0
SPLINE
  5
AB
330
75
100
AcDbEntity
  8
$DDT_AUDIT_GENERATED_(90)
  6
Continuous
 62
     7
100
AcDbSpline
210
0.0
220
0.0
230
1.0
 70
     8
 71
     3
 72
    11
 73
     7
 74
     0
 42
0.0000000498317297
 43
0.0000000001
 40
0.0
 40
0.0
 40
0.0
 40
0.0
 40
0.9999382739948266
 40
0.9999382739948266
 40
0.9999382739948266
 40
1.0
 40
1.0
 40
1.0
 40
1.0
 10
69.28651115322424
 20
495.8970442939635
 30
0.0
 10
69.28387493240423
 20
495.963866903146
 30
0.0
 10
69.28072337276272
 20
496.0306821820317
 30
0.0
 10
69.27705636116052
 20
496.0974854499609
 30
0.0
 10
69.27705613479657
 20
496.0974895737143
 30
0.0
 10
69.27705634412479
 20
496.0974872530669
 30
0.0
 10
69.27705633498441
 20
496.0974881545799
 30
0.0
  0
ARC
  5
AC
330
75
100
AcDbEntity
  8
$DDT_AUDIT_GENERATED_(90)
  6
Continuous
 62
     7
100
AcDbCircle
 10
53.2931054244
 20
494.5303183213
 30
0.0
 40
16.06059488312972
100
AcDbArc
 50
5.5997505588
 51
6.0851994381
  0
SPLINE
  5
AD
330
75
100
AcDbEntity
  8
$DDT_AUDIT_GENERATED_(90)
  6
Continuous
 62
     7
100
AcDbSpline
210
0.0
220
0.0
230
1.0
 70
     8
 71
     3
 72
    11
 73
     7
 74
     0
 42
0.0000000498317298
 43
0.0000000001
 40
0.0
 40
0.0
 40
0.0
 40
0.0
 40
0.0000617285417404
 40
0.0000617285417404
 40
0.0000617285417404
 40
1.0
 40
1.0
 40
1.0
 40
1.0
 10
19.43273800495799
 20
496.0974881554254
 30
0.0
 10
19.43273799579335
 20
496.0974872535101
 30
0.0
 10
19.43273820508747
 20
496.0974895735218
 30
0.0
 10
19.43273797871421
 20
496.097485449599
 30
0.0
 10
19.4290709671205
 20
496.0306821817903
 30
0.0
 10
19.4259194074856
 20
495.9638669030253
 30
0.0
 10
19.42328318667037
 20
495.8970442939633
 30
0.0
  0
ARC
  5
AE
330
75
100
AcDbEntity
  8
$DDT_AUDIT_GENERATED_(90)
  6
Continuous
 62
     7
100
AcDbCircle
 10
35.2412496076
 20
494.6331460941
 30
0.0
 40
15.87618772762008
100
AcDbArc
 50
174.2205295877
 51
174.7077950583
  0
SPLINE
  5
AF
330
75
100
AcDbEntity
  8
$DDT_AUDIT_GENERATED_(90)
  6
Continuous
 62
     7
100
AcDbSpline
210
0.0
220
0.0
230
1.0
 70
     8
 71
     3
 72
    12
 73
     8
 74
     0
 42
0.0000000003121337
 43
0.0000000001
 40
0.0
 40
0.0
 40
0.0
 40
0.0
 40
0.2500000000000002
 40
0.2500000000000002
 40
0.5000000000000004
 40
0.5000000000000004
 40
0.572941963198139
 40
0.572941963198139
 40
0.572941963198139
 40
0.572941963198139
 10
44.35423651474376
 20
491.8972959471132
 30
0.0
 10
41.33701492428566
 20
491.897296168765
 30
0.0
 10
38.39424985285123
 20
491.9633253234642
 30
0.0
 10
32.76440545484051
 20
492.2243105636741
 30
0.0
 10
30.14918717838919
 20
492.4182605083179
 30
0.0
 10
27.25247442939909
 20
492.7337974731291
 30
0.0
 10
26.62795565356208
 20
492.8095827756171
 30
0.0
 10
26.03959410154738
 20
492.888947322454
 30
0.0
  0
SPLINE
  5
B0
330
75
100
AcDbEntity
  8
$DDT_AUDIT_GENERATED_(90)
  6
Continuous
 62
     7
100
AcDbSpline
210
0.0
220
0.0
230
1.0
 70
     8
 71
     3
 72
    16
 73
    12
 74
     0
 42
0.0000000003086374
 43
0.0000000001
 40
0.4587550483993873
 40
0.4587550483993873
 40
0.4587550483993873
 40
0.4587550483993873
 40
0.5000000000000003
 40
0.5000000000000003
 40
0.6250000000000003
 40
0.6250000000000003
 40
0.7500000000000002
 40
0.7500000000000002
 40
0.8750000000000001
 40
0.8750000000000001
 40
1.0
 40
1.0
 40
1.0
 40
1.0
 10
61.85937661193369
 20
492.7846756167183
 30
0.0
 10
61.50959039545508
 20
492.7417561481838
 30
0.0
 10
61.14921681047277
 20
492.7001327942121
 30
0.0
 10
59.65628913586721
 20
492.5379392928916
 30
0.0
 10
58.4355100026339
 20
492.4280656041839
 30
0.0
 10
55.88165021513395
 20
492.2392165176723
 30
0.0
 10
54.54564067884402
 20
492.1595931468264
 30
0.0
 10
51.75560173716217
 20
492.0299138221883
 30
0.0
 10
50.29300827037743
 20
491.9799529859146
 30
0.0
 10
47.35316458571865
 20
491.9140118835343
 30
0.0
 10
45.86416869233123
 20
491.8972960579391
 30
0.0
 10
44.35555782514642
 20
491.8972959569496
 30
0.0
  0
ELLIPSE
  5
B1
330
75
100
AcDbEntity
  8
$DDT_AUDIT_GENERATED_(90)
  6
Continuous
 62
     7
100
AcDbEllipse
 10
19.8326402631
 20
494.8627263455
 30
0.0
 11
0.2193315273576988
 21
0.2046794594162682
 31
0.0
210
0.0
220
0.0
230
1.0
 40
0.9861889216
 41
3.10677990192649
 42
3.143354782528279
  0
ELLIPSE
  5
B2
330
75
100
AcDbEntity
  8
$DDT_AUDIT_GENERATED_(90)
  6
Continuous
 62
     7
100
AcDbEllipse
 10
68.8771540768
 20
494.8627263455
 30
0.0
 11
-0.2193315273574768
 21
0.2046794594164902
 31
0.0
210
0.0
220
0.0
230
1.0
 40
0.9861889216
 41
3.130928488912553
 42
3.179474389061209
  0
ARC
  5
B3
330
75
100
AcDbEntity
  8
$DDT_AUDIT_GENERATED_(90)
  6
Continuous
 62
     7
100
AcDbCircle
 10
21.6286510727
 20
524.1970010302
 30
0.0
 40
0.6731190353659138
100
AcDbArc
 50
110.2660942585
 51
174.3994915973
  0
SPLINE
  5
B4
330
75
100
AcDbEntity
  8
$DDT_AUDIT_GENERATED_(90)
  6
Continuous
 62
     7
100
AcDbSpline
210
0.0
220
0.0
230
1.0
 70
     8
 71
     3
 72
    70
 73
    66
 74
     0
 42
0.0000000006006645
 43
0.0000000001
 40
0.0
 40
0.0
 40
0.0
 40
0.0
 40
0.008289787863716
 40
0.0238838035963298
 40
0.0385831836824102
 40
0.0521752980308524
 40
0.0647337576473646
 40
0.0763296346189732
 40
0.0870057333753045
 40
0.0966848548153136
 40
0.1053055875312003
 40
0.1129056631242215
 40
0.1195059874966979
 40
0.1251161761564804
 40
0.1356025961810887
 40
0.145271462409836
 40
0.1540533511028863
 40
0.1623168614006344
 40
0.1721701640305138
 40
0.1838930514007479
 40
0.1975203380562837
 40
0.2117127979829778
 40
0.2273172791085051
 40
0.2431895473379832
 40
0.2591560397551957
 40
0.2752178349481519
 40
0.2913755888396277
 40
0.3108905730650102
 40
0.3305419949118621
 40
0.350330478413896
 40
0.3701004301524262
 40
0.3886626694091608
 40
0.405476422648798
 40
0.4208859202708695
 40
0.4348913477118677
 40
0.4474926163278711
 40
0.4572484630606063
 40
0.4667960480724065
 40
0.4772239136213096
 40
0.4885364512720521
 40
0.5007336214120585
 40
0.5135740619452153
 40
0.5272678930791911
 40
0.5418151583924595
 40
0.5570758253906842
 40
0.5836350196152731
 40
0.6089054011213213
 40
0.6328869462910485
 40
0.6555795402074531
 40
0.6679415092409905
 40
0.6798844919737492
 40
0.6918161743998261
 40
0.7053163953071105
 40
0.7205428500708587
 40
0.7371776887048934
 40
0.7554776483524696
 40
0.7754427663206567
 40
0.7970730319059113
 40
0.8208611891069263
 40
0.8463831557638928
 40
0.8736389341372812
 40
0.9026284669594785
 40
0.9333518552697624
 40
0.965809069595021
 40
1.0
 40
1.0
 40
1.0
 40
1.0
 10
37.02259894405959
 20
529.4190499826042
 30
0.0
 10
36.77928037310785
 20
529.4123370481379
 30
0.0
 10
36.18459809183345
 20
529.3957777535281
 30
0.0
 10
35.19988566212623
 20
529.3601247909397
 30
0.0
 10
34.17627022744111
 20
529.3165856629414
 30
0.0
 10
33.28702797219106
 20
529.2713280343636
 30
0.0
 10
32.5294362554279
 20
529.2264021920776
 30
0.0
 10
31.88591709348507
 20
529.1823664751583
 30
0.0
 10
31.34731026677004
 20
529.1398867978729
 30
0.0
 10
30.90406482395692
 20
529.0997450383471
 30
0.0
 10
30.5448571367948
 20
529.0626756123946
 30
0.0
 10
30.25731937163993
 20
529.0291358176534
 30
0.0
 10
30.03012594507963
 20
528.9993507843527
 30
0.0
 10
29.79231033648096
 20
528.9645490371632
 30
0.0
 10
29.55609602077059
 20
528.9237984710336
 30
0.0
 10
29.33765748997946
 20
528.8758840492404
 30
0.0
 10
29.17335908570447
 20
528.8292179084922
 30
0.0
 10
29.0399574480309
 20
528.7785873528696
 30
0.0
 10
28.9321793208615
 20
528.7251050662337
 30
0.0
 10
28.82610818974383
 20
528.6654018791623
 30
0.0
 10
28.69681745479089
 20
528.6002214619637
 30
0.0
 10
28.55431919931756
 20
528.5293257490439
 30
0.0
 10
28.41277665791136
 20
528.4563781337037
 30
0.0
 10
28.26682845468918
 20
528.3807749879261
 30
0.0
 10
28.11924888813688
 20
528.3046254596418
 30
0.0
 10
27.97054515004336
 20
528.2281405425729
 30
0.0
 10
27.81101070687463
 20
528.1461502303042
 30
0.0
 10
27.64133148671533
 20
528.0586946776675
 30
0.0
 10
27.46101312908981
 20
527.9657552706751
 30
0.0
 10
27.2802827361849
 20
527.8726479311721
 30
0.0
 10
27.10346706202414
 20
527.781536222699
 30
0.0
 10
26.93579029922673
 20
527.6950873847985
 30
0.0
 10
26.78143798429006
 20
527.6155094683218
 30
0.0
 10
26.64097366682121
 20
527.5431010269305
 30
0.0
 10
26.5133863113397
 20
527.4773099909522
 30
0.0
 10
26.40304655714895
 20
527.4203929028414
 30
0.0
 10
26.30630261591145
 20
527.3704821523046
 30
0.0
 10
26.21618859493864
 20
527.3239900934508
 30
0.0
 10
26.12135456139075
 20
527.2750616330106
 30
0.0
 10
26.0185040367111
 20
527.2219939291579
 30
0.0
 10
25.90835755344795
 20
527.1651563649373
 30
0.0
 10
25.79101680758975
 20
527.1045988241374
 30
0.0
 10
25.66658653768091
 20
527.0403694165489
 30
0.0
 10
25.53485238202176
 20
526.9723612815415
 30
0.0
 10
25.36419498133128
 20
526.8842499879399
 30
0.0
 10
25.16110971637572
 20
526.7793568106158
 30
0.0
 10
24.93161712082409
 20
526.6608115009636
 30
0.0
 10
24.71386405746127
 20
526.5482726312454
 30
0.0
 10
24.53518009029301
 20
526.4558965861055
 30
0.0
 10
24.39289287441869
 20
526.3823393186889
 30
0.0
 10
24.28316726721358
 20
526.3256112735795
 30
0.0
 10
24.16997669357958
 20
526.2670831289693
 30
0.0
 10
24.04682692084004
 20
526.2033888347339
 30
0.0
 10
23.90944073992685
 20
526.132309015687
 30
0.0
 10
23.75751850659891
 20
526.0536969160052
 30
0.0
 10
23.5912580457892
 20
525.9676500839628
 30
0.0
 10
23.40989869658674
 20
525.8737677511067
 30
0.0
 10
23.21196423895969
 20
525.7712786625174
 30
0.0
 10
22.99726492830344
 20
525.6600830400686
 30
0.0
 10
22.76559598297739
 20
525.5400572827608
 30
0.0
 10
22.51842023811718
 20
525.4119326579365
 30
0.0
 10
22.25519169177393
 20
525.2754428025954
 30
0.0
 10
21.97806489266755
 20
525.1317250554503
 30
0.0
 10
21.67844585032408
 20
524.9761778726396
 30
0.0
 10
21.49217798935485
 20
524.8794687276543
 30
0.0
 10
21.37868654151035
 20
524.8205395936161
 30
0.0
  0
ARC
  5
B5
330
75
100
AcDbEntity
  8
$DDT_AUDIT_GENERATED_(90)
  6
Continuous
 62
     7
100
AcDbCircle
 10
43.3453678331
 20
311.9769997541
 30
0.0
 40
217.533957381323
100
AcDbArc
 50
90.5335980427
 51
91.665574442
  0
ARC
  5
B6
330
75
100
AcDbEntity
  8
$DDT_AUDIT_GENERATED_(90)
  6
Continuous
 62
     7
100
AcDbCircle
 10
43.5395300045
 20
346.1677719779
 30
0.0
 40
183.3471925675047
100
AcDbArc
 50
90.226457524
 51
90.6937755386
  0
ARC
  5
B7
330
75
100
AcDbEntity
  8
$DDT_AUDIT_GENERATED_(90)
  6
Continuous
 62
     7
100
AcDbCircle
 10
44.2854845715
 20
289.8549565253
 30
0.0
 40
239.6630879714972
100
AcDbArc
 50
89.9834030237
 51
90.3515802999
  0
SPLINE
  5
B8
330
75
100
AcDbEntity
  8
$DDT_AUDIT_GENERATED_(90)
  6
Continuous
 62
     7
100
AcDbSpline
210
0.0
220
0.0
230
1.0
 70
     8
 71
     3
 72
    12
 73
     8
 74
     0
 42
0.0000000130891665
 43
0.0000000001
 40
0.0
 40
0.0
 40
0.0
 40
0.0
 40
0.1144182372050592
 40
0.2155749780093378
 40
0.42053544998238
 40
0.6907726533042653
 40
1.0
 40
1.0
 40
1.0
 40
1.0
 10
67.75128296515251
 20
524.2571372936276
 30
0.0
 10
67.74830083772306
 20
524.2935970878402
 30
0.0
 10
67.74309520815888
 20
524.3511061193278
 30
0.0
 10
67.70994903810637
 20
524.4614636934566
 30
0.0
 10
67.64009145385732
 20
524.5896172479015
 30
0.0
 10
67.50134823058252
 20
524.72965325545
 30
0.0
 10
67.38796448411709
 20
524.7910021241813
 30
0.0
 10
67.31448441035351
 20
524.8283667735367
 30
0.0
  0
ARC
  5
B9
330
75
100
AcDbEntity
  8
$DDT_AUDIT_GENERATED_(90)
  6
Continuous
 62
     7
100
AcDbCircle
 10
44.4590046327
 20
286.0545829028
 30
0.0
 40
243.4635428420453
100
AcDbArc
 50
89.4773426721
 51
90.0245027863
  0
ARC
  5
BA
330
75
100
AcDbEntity
  8
$DDT_AUDIT_GENERATED_(90)
  6
Continuous
 62
     7
100
AcDbCircle
 10
45.586459476
 20
347.0884277793
 30
0.0
 40
182.4228453125806
100
AcDbArc
 50
88.9661795905
 51
89.6565769441
  0
ARC
  5
BB
330
75
100
AcDbEntity
  8
$DDT_AUDIT_GENERATED_(90)
  6
Continuous
 62
     7
100
AcDbCircle
 10
46.8299920257
 20
384.9483818215
 30
0.0
 40
144.5477032856342
100
AcDbArc
 50
88.6171306861
 51
89.1882473164
  0
SPLINE
  5
BC
330
75
100
AcDbEntity
  8
$DDT_AUDIT_GENERATED_(90)
  6
Continuous
 62
     7
100
AcDbSpline
210
0.0
220
0.0
230
1.0
 70
     8
 71
     3
 72
    73
 73
    69
 74
     0
 42
0.0000000005550224
 43
0.0000000001
 40
0.0
 40
0.0
 40
0.0
 40
0.0
 40
0.027678491240007
 40
0.0539640020244868
 40
0.0788564774388903
 40
0.1023559047873312
 40
0.1244622596953491
 40
0.1451756175346113
 40
0.1677994088567852
 40
0.1884882126567914
 40
0.2072420492507684
 40
0.2240609253314131
 40
0.241669265108988
 40
0.2587626553746253
 40
0.2761582645342853
 40
0.2938560606803526
 40
0.311856060333505
 40
0.3301582576729049
 40
0.3525197239034457
 40
0.3752812994281578
 40
0.3971733382960706
 40
0.4175591576168974
 40
0.4364388006396117
 40
0.4502161753732959
 40
0.4630637452015884
 40
0.475009322985567
 40
0.4874934426405254
 40
0.5013273791814885
 40
0.5170361705413626
 40
0.5341854557760957
 40
0.5527752327269279
 40
0.572732839706005
 40
0.5932357793477288
 40
0.614052891993558
 40
0.6351840477420858
 40
0.6548300858927364
 40
0.6747398429044813
 40
0.6949139592142818
 40
0.7152253210508341
 40
0.7343455059374325
 40
0.7519216008635099
 40
0.7672610999390428
 40
0.7811974764809796
 40
0.793717341564006
 40
0.8048529696660353
 40
0.8094749654291005
 40
0.8138817418696377
 40
0.8180713327494424
 40
0.8220421501694327
 40
0.8257930809317142
 40
0.8294269037019741
 40
0.8339983407487863
 40
0.839749463482774
 40
0.8466971780997423
 40
0.8547877849071863
 40
0.8640156367568874
 40
0.8743958130225604
 40
0.8859695913097773
 40
0.8988113323113486
 40
0.9128045823348527
 40
0.9227253459870925
 40
0.9331546876483819
 40
0.9441357475214256
 40
0.9557235016450663
 40
0.9678013889150193
 40
0.9803225881866143
 40
0.9933534948536007
 40
1.0
 40
1.0
 40
1.0
 40
1.0
 10
67.33136446961518
 20
524.8204129234853
 30
0.0
 10
67.23791761509429
 20
524.868931573255
 30
0.0
 10
67.08451972591838
 20
524.9485718834211
 30
0.0
 10
66.83777931625919
 20
525.0766887388295
 30
0.0
 10
66.60950869870058
 20
525.195113206748
 30
0.0
 10
66.39254532928457
 20
525.3076263067868
 30
0.0
 10
66.18873442762151
 20
525.4133015161777
 30
0.0
 10
65.98747626997218
 20
525.5176278505081
 30
0.0
 10
65.79053175076255
 20
525.61967919893
 30
0.0
 10
65.59954832842537
 20
525.7186023828033
 30
0.0
 10
65.42641096168376
 20
525.8082659631475
 30
0.0
 10
65.26273860022846
 20
525.8930090248673
 30
0.0
 10
65.10418617591282
 20
525.9750851397314
 30
0.0
 10
64.94386720372475
 20
526.0580586090549
 30
0.0
 10
64.78327589972068
 20
526.1411588928318
 30
0.0
 10
64.6198940244599
 20
526.2256873978625
 30
0.0
 10
64.453688812048
 20
526.3116387093746
 30
0.0
 10
64.27311112002049
 20
526.4049950852402
 30
0.0
 10
64.07789023188545
 20
526.505916909023
 30
0.0
 10
63.87162318817521
 20
526.6125411774069
 30
0.0
 10
63.67136861628282
 20
526.7159964234838
 30
0.0
 10
63.48307591464797
 20
526.8132572828064
 30
0.0
 10
63.31977383763696
 20
526.8975928677796
 30
0.0
 10
63.17969310704866
 20
526.969916692007
 30
0.0
 10
63.06097326966231
 20
527.03120554427
 30
0.0
 10
62.94629984843063
 20
527.0904007742496
 30
0.0
 10
62.82848605779592
 20
527.1512041466831
 30
0.0
 10
62.69893715452532
 20
527.2180539002809
 30
0.0
 10
62.55488393327055
 20
527.2923786159146
 30
0.0
 10
62.3960361483748
 20
527.3743307927904
 30
0.0
 10
62.22396304337409
 20
527.4631028218427
 30
0.0
 10
62.04134441811683
 20
527.5572686737686
 30
0.0
 10
61.85185279135533
 20
527.6549457503212
 30
0.0
 10
61.65880633454478
 20
527.7544862977262
 30
0.0
 10
61.46838178374615
 20
527.8526228309465
 30
0.0
 10
61.28073406314144
 20
527.9492937859924
 30
0.0
 10
61.09618047148317
 20
528.0444039665289
 30
0.0
 10
60.90960648403347
 20
528.1406027214304
 30
0.0
 10
60.72517790280187
 20
528.2353838110678
 30
0.0
 10
60.54731904766572
 20
528.3269724020759
 30
0.0
 10
60.38359422133114
 20
528.4116235955665
 30
0.0
 10
60.23439995164716
 20
528.4889604209153
 30
0.0
 10
60.09571754188607
 20
528.5592810661866
 30
0.0
 10
59.96649723304554
 20
528.6232250392908
 30
0.0
 10
59.87207052047814
 20
528.6718127931136
 30
0.0
 10
59.80813674435836
 20
528.7067377028494
 30
0.0
 10
59.76494717617145
 20
528.7300295637489
 30
0.0
 10
59.72108960507985
 20
528.7524201147124
 30
0.0
 10
59.67543132698407
 20
528.7738576291714
 30
0.0
 10
59.62695247646348
 20
528.7944209679008
 30
0.0
 10
59.56926161550768
 20
528.816273599694
 30
0.0
 10
59.49491498134827
 20
528.840877514964
 30
0.0
 10
59.38872200997218
 20
528.870493665956
 30
0.0
 10
59.23894871856879
 20
528.9052644879553
 30
0.0
 10
59.03247584906676
 20
528.9448844772573
 30
0.0
 10
58.75439297573635
 20
528.988897143865
 30
0.0
 10
58.38914405115496
 20
529.0369044840926
 30
0.0
 10
57.91897067043305
 20
529.0885920812774
 30
0.0
 10
57.32437546264406
 20
529.1432035031501
 30
0.0
 10
56.67728224599888
 20
529.1925761554722
 30
0.0
 10
56.01341378660331
 20
529.2361074445641
 30
0.0
 10
55.36475748133368
 20
529.2737679336741
 30
0.0
 10
54.63537778523665
 20
529.3109981152518
 30
0.0
 10
53.82103089954901
 20
529.3471174714483
 30
0.0
 10
52.9196290389738
 20
529.3815558002543
 30
0.0
 10
51.94328280432234
 20
529.4132369255288
 30
0.0
 10
51.04824416294314
 20
529.4383424312973
 30
0.0
 10
50.52608823459646
 20
529.4495612135721
 30
0.0
 10
50.31840214148726
 20
529.4539855883725
 30
0.0
  0
ARC
  5
BD
330
75
100
AcDbEntity
  8
$DDT_AUDIT_GENERATED_(90)
  6
Continuous
 62
     7
100
AcDbCircle
 10
1269.0894273351
 20
575.2577063813
 30
0.0
 40
1202.42009030348
100
AcDbArc
 50
182.4306648847
 51
183.7682493109
  0
ARC
  5
BE
330
75
100
AcDbEntity
  8
$DDT_AUDIT_GENERATED_(90)
  6
Continuous
 62
     7
100
AcDbCircle
 10
-1183.0612983113
 20
575.4038379045
 30
0.0
 40
1205.105522645499
100
AcDbArc
 50
356.2331542812
 51
357.5677993995
  0
SPLINE
  5
BF
330
75
100
AcDbEntity
  8
$DDT_AUDIT_GENERATED_(90)
  6
Continuous
 62
     7
100
AcDbSpline
210
0.0
220
0.0
230
1.0
 70
     8
 71
     3
 72
    23
 73
    19
 74
     0
 42
0.0000000014879239
 43
0.0000000001
 40
0.0
 40
0.0
 40
0.0
 40
0.0
 40
0.0511623285864968
 40
0.117805703917466
 40
0.1877095411152852
 40
0.2574356990651078
 40
0.3262000842250234
 40
0.3941577021338041
 40
0.4615313133503468
 40
0.5284923031868
 40
0.5951607538698417
 40
0.661270637862225
 40
0.7269275523524987
 40
0.7927302108398262
 40
0.8586683306344998
 40
0.9247170911503165
 40
0.9908405521179432
 40
1.0
 40
1.0
 40
1.0
 40
1.0
 10
19.61547535650411
 20
494.6589447802506
 30
0.0
 10
19.65953150934135
 20
494.6137665170563
 30
0.0
 10
19.74649303968455
 20
494.5260201266147
 30
0.0
 10
19.93735224622171
 20
494.3895852521441
 30
0.0
 10
20.17678056045946
 20
494.2512235771137
 30
0.0
 10
20.46085419067137
 20
494.1165792310306
 30
0.0
 10
20.78191301087875
 20
493.9875652148737
 30
0.0
 10
21.1391492870948
 20
493.8632770649603
 30
0.0
 10
21.53219518480924
 20
493.7430002639908
 30
0.0
 10
21.96109396520735
 20
493.6262212467546
 30
0.0
 10
22.42465836145637
 20
493.5128670680346
 30
0.0
 10
22.92225940020683
 20
493.4029841569844
 30
0.0
 10
23.45356506238753
 20
493.2964012308366
 30
0.0
 10
24.0186796779133
 20
493.1929115141414
 30
0.0
 10
24.61991744042922
 20
493.0918895255678
 30
0.0
 10
25.25006163582445
 20
492.9952090404703
 30
0.0
 10
25.73507952547761
 20
492.9250089690976
 30
0.0
 10
25.98552394865244
 20
492.8924082562057
 30
0.0
 10
26.02102053088123
 20
492.8877916313548
 30
0.0
  0
LINE
  5
C0
330
75
100
AcDbEntity
  8
$DDT_AUDIT_GENERATED_(90)
  6
Continuous
 62
     7
100
AcDbLine
 10
44.3542364927
 20
491.8950597938
 30
0.0
 11
44.3555597228
 21
491.8950598024
 31
0.0
  0
SPLINE
  5
C1
330
75
100
AcDbEntity
  8
$DDT_AUDIT_GENERATED_(90)
  6
Continuous
 62
     7
100
AcDbSpline
210
0.0
220
0.0
230
1.0
 70
     8
 71
     3
 72
    14
 73
    10
 74
     0
 42
0.0000000086029164
 43
0.0000000001
 40
0.0
 40
0.0
 40
0.0
 40
0.0
 40
0.0808351742824563
 40
0.2542178490826767
 40
0.4327938291395478
 40
0.6193156065717257
 40
0.8202375355293579
 40
0.9379337609773454
 40
1.0
 40
1.0
 40
1.0
 40
1.0
 10
19.42143117490638
 20
495.7924949010629
 30
0.0
 10
19.42000257145483
 20
495.7450254114078
 30
0.0
 10
19.41636074142068
 20
495.6184173854207
 30
0.0
 10
19.42007887392191
 20
495.4152260978998
 30
0.0
 10
19.43407280684125
 20
495.1982209737218
 30
0.0
 10
19.46243763436406
 20
495.0012471475309
 30
0.0
 10
19.50572759387639
 20
494.8515296093552
 30
0.0
 10
19.55850278081932
 20
494.7383080206298
 30
0.0
 10
19.59998105918408
 20
494.6916733622969
 30
0.0
 10
19.61692349480992
 20
494.6727781332552
 30
0.0
  0
ARC
  5
C2
330
75
100
AcDbEntity
  8
$DDT_AUDIT_GENERATED_(90)
  6
Continuous
 62
     7
100
AcDbCircle
 10
61.7658189818
 20
508.0567310943
 30
0.0
 40
15.26992814811279
100
AcDbArc
 50
270.5380007011
 51
298.6704951243
  0
SPLINE
  5
C3
330
75
100
AcDbEntity
  8
$DDT_AUDIT_GENERATED_(90)
  6
Continuous
 62
     7
100
AcDbSpline
210
0.0
220
0.0
230
1.0
 70
     8
 71
     3
 72
    14
 73
    10
 74
     0
 42
0.0000000079350204
 43
0.0000000001
 40
0.0
 40
0.0
 40
0.0
 40
0.0
 40
0.0718465961813831
 40
0.1800546847904866
 40
0.3202973259835766
 40
0.5075239328625113
 40
0.673629744720231
 40
0.8493300871340504
 40
1.0
 40
1.0
 40
1.0
 40
1.0
 10
69.09429048747853
 20
494.672467681156
 30
0.0
 10
69.1139192075195
 20
494.6959866608867
 30
0.0
 10
69.15530779094914
 20
494.7460870629935
 30
0.0
 10
69.20132383612648
 20
494.8470993149724
 30
0.0
 10
69.24320386145871
 20
494.9845580418182
 30
0.0
 10
69.2719128545535
 20
495.1620024231886
 30
0.0
 10
69.28874817998204
 20
495.3829985022912
 30
0.0
 10
69.2937671771913
 20
495.6258894069102
 30
0.0
 10
69.28893245395109
 20
495.7971808998278
 30
0.0
 10
69.28603799511882
 20
495.8913662324424
 30
0.0
  0
ELLIPSE
  5
C5
330
75
100
AcDbEntity
  8
02636038_GEHÄUSE
  6
Continuous
 62
     7
100
AcDbEllipse
 10
44.3539949594
 20
456.4455152043
 30
0.0
 11
10.02278736572428
 21
0.0
 31
0.0
210
0.0
220
0.0
230
1.0
 40
0.2588190451
 41
0.0
 42
6.283185307179586
  0
ELLIPSE
  5
C6
330
75
100
AcDbEntity
  8
02636038_GEHÄUSE
  6
Continuous
 62
     7
100
AcDbEllipse
 10
44.3539949594
 20
456.4455152043
 30
0.0
 11
10.75000000000001
 21
0.0
 31
0.0
210
0.0
220
0.0
230
1.0
 40
0.2588190451
 41
0.0
 42
6.283185307179586
  0
LINE
  5
C7
330
75
100
AcDbEntity
  8
02636038_GEHÄUSE
  6
Continuous
 62
     7
100
AcDbLine
 10
33.3539949594
 20
457.4216741972
 30
0.0
 11
33.3539949594
 21
456.0828015007
 31
0.0
  0
ELLIPSE
  5
C8
330
75
100
AcDbEntity
  8
02636038_GEHÄUSE
  6
Continuous
 62
     7
100
AcDbEllipse
 10
44.3539949594
 20
457.5887541527
 30
0.0
 11
-11.79999999999997
 21
-1.387778780781446E-14
 31
0.0
210
0.0
220
0.0
230
1.0
 40
0.2588190451
 41
3.511935285681513
 42
5.912842675087877
  0
ELLIPSE
  5
C9
330
75
100
AcDbEntity
  8
02636038_GEHÄUSE
  6
Continuous
 62
     7
100
AcDbEllipse
 10
44.3539949594
 20
459.3432926831
 30
0.0
 11
11.79999999999993
 21
0.0
 31
0.0
210
0.0
220
0.0
230
1.0
 40
0.2588190451
 41
2.77125002149808
 42
3.511935285681516
  0
LINE
  5
CA
330
75
100
AcDbEntity
  8
02636038_GEHÄUSE
  6
Continuous
 62
     7
100
AcDbLine
 10
33.3539949594
 20
460.4486651622
 30
0.0
 11
33.3539949594
 21
458.6941266318
 31
0.0
  0
LINE
  5
CB
330
75
100
AcDbEntity
  8
02636038_GEHÄUSE
  6
Continuous
 62
     7
100
AcDbLine
 10
33.3539949594
 20
458.6941266318
 30
0.0
 11
33.3539949594
 21
457.4216741972
 31
0.0
  0
LINE
  5
CC
330
75
100
AcDbEntity
  8
02636038_GEHÄUSE
  6
Continuous
 62
     7
100
AcDbLine
 10
33.3539949594
 20
456.0302491198
 30
0.0
 11
33.3539949594
 21
456.0828015007
 31
0.0
  0
ELLIPSE
  5
CD
330
75
100
AcDbEntity
  8
02636038_GEHÄUSE
  6
Continuous
 62
     7
100
AcDbEllipse
 10
44.3539949594
 20
456.752237849
 30
0.0
 11
11.29999999999999
 21
-1.387778780781446E-14
 31
0.0
210
0.0
220
0.0
230
1.0
 40
0.2588190451
 41
3.624212767020519
 42
3.627167475043384
  0
LINE
  5
CE
330
75
100
AcDbEntity
  8
02636038_GEHÄUSE
  6
Continuous
 62
     7
100
AcDbLine
 10
55.3539949594
 20
456.0828015007
 30
0.0
 11
55.3539949594
 21
457.4216741972
 31
0.0
  0
ELLIPSE
  5
CF
330
75
100
AcDbEntity
  8
02636038_GEHÄUSE
  6
Continuous
 62
     7
100
AcDbEllipse
 10
44.3539949594
 20
459.3432926831
 30
0.0
 11
-11.80000000000042
 21
-5.551115123125783E-14
 31
0.0
210
0.0
220
0.0
230
1.0
 40
0.2588190451
 41
2.771250021498088
 42
3.511935285681502
  0
LINE
  5
D0
330
75
100
AcDbEntity
  8
02636038_GEHÄUSE
  6
Continuous
 62
     7
100
AcDbLine
 10
55.3539949594
 20
456.0828015007
 30
0.0
 11
55.3539949594
 21
456.0297124699
 31
0.0
  0
LINE
  5
D1
330
75
100
AcDbEntity
  8
02636038_GEHÄUSE
  6
Continuous
 62
     7
100
AcDbLine
 10
55.3539949594
 20
457.4216741972
 30
0.0
 11
55.3539949594
 21
458.6941266318
 31
0.0
  0
LINE
  5
D2
330
75
100
AcDbEntity
  8
02636038_GEHÄUSE
  6
Continuous
 62
     7
100
AcDbLine
 10
55.3539949594
 20
458.6941266318
 30
0.0
 11
55.3539949594
 21
460.4486651622
 31
0.0
  0
LINE
  5
D3
330
75
100
AcDbEntity
  8
02636038_GEHÄUSE
  6
Continuous
 62
     7
100
AcDbLine
 10
34.3446587466
 20
455.3949006425
 30
0.0
 11
34.8318388278
 21
455.154243083
 31
0.0
  0
LINE
  5
D4
330
75
100
AcDbEntity
  8
02636038_GEHÄUSE
  6
Continuous
 62
     7
100
AcDbLine
 10
53.8761510911
 20
455.154243083
 30
0.0
 11
54.3633311723
 21
455.3949006425
 31
0.0
  0
ARC
  5
D5
330
75
100
AcDbEntity
  8
02636038_GEHÄUSE
  6
Continuous
 62
     7
100
AcDbCircle
 10
52.6398177463
 20
459.1663698377
 30
0.0
 40
4.143128655150747
100
AcDbArc
 50
294.6623563309
 51
310.9154374876
  0
ARC
  5
D6
330
75
100
AcDbEntity
  8
02636038_GEHÄUSE
  6
Continuous
 62
     7
100
AcDbCircle
 10
36.2630321269
 20
459.4612473053
 30
0.0
 40
4.495261790948232
100
AcDbArc
 50
229.6820229064
 51
245.0069808682
  0
LINE
  5
D7
330
75
100
AcDbEntity
  8
02636038_GEHÄUSE
  6
Continuous
 62
     7
100
AcDbLine
 10
32.5539949594
 20
464.4522531537
 30
0.0
 11
32.5539949594
 21
459.3432926831
 31
0.0
  0
LINE
  5
D8
330
75
100
AcDbEntity
  8
02636038_GEHÄUSE
  6
Continuous
 62
     7
100
AcDbLine
 10
56.1539949594
 20
459.3432926831
 30
0.0
 11
56.1539949594
 21
464.4520901661
 31
0.0
  0
ELLIPSE
  5
DA
330
75
100
AcDbEntity
  8
$DDT_AUDIT_GENERATED_(D9)
  6
Continuous
 62
     7
100
AcDbEllipse
 10
44.3539949594
 20
456.5421077869
 30
0.0
 11
8.250000000000002
 21
0.0
 31
0.0
210
0.0
220
0.0
230
1.0
 40
0.2588190451
 41
0.0
 42
6.283185307179586
  0
ELLIPSE
  5
DB
330
75
100
AcDbEntity
  8
$DDT_AUDIT_GENERATED_(D9)
  6
Continuous
 62
     7
100
AcDbEllipse
 10
44.3539949594
 20
456.5421077869
 30
0.0
 11
9.400000000000002
 21
0.0
 31
0.0
210
0.0
220
0.0
230
1.0
 40
0.2588190451
 41
0.0
 42
6.283185307179586
  0
LINE
  5
DC
330
75
100
AcDbEntity
  8
$DDT_AUDIT_GENERATED_(D9)
  6
Continuous
 62
     7
100
AcDbLine
 10
43.8539949594
 20
456.8956611775
 30
0.0
 11
43.8539949594
 21
457.1544802226
 31
0.0
  0
LINE
  5
DD
330
75
100
AcDbEntity
  8
$DDT_AUDIT_GENERATED_(D9)
  6
Continuous
 62
     7
100
AcDbLine
 10
43.8539949594
 20
457.1544802226
 30
0.0
 11
44.8539949594
 21
457.1544802226
 31
0.0
  0
LINE
  5
DE
330
75
100
AcDbEntity
  8
$DDT_AUDIT_GENERATED_(D9)
  6
Continuous
 62
     7
100
AcDbLine
 10
43.8539949594
 20
457.2062440316
 30
0.0
 11
43.8539949594
 21
457.4650630767
 31
0.0
  0
LINE
  5
DF
330
75
100
AcDbEntity
  8
$DDT_AUDIT_GENERATED_(D9)
  6
Continuous
 62
     7
100
AcDbLine
 10
43.8539949594
 20
457.4650630767
 30
0.0
 11
44.8539949594
 21
457.4650630767
 31
0.0
  0
LINE
  5
E0
330
75
100
AcDbEntity
  8
$DDT_AUDIT_GENERATED_(D9)
  6
Continuous
 62
     7
100
AcDbLine
 10
44.8539949594
 20
457.2062440316
 30
0.0
 11
43.8539949594
 21
457.2062440316
 31
0.0
  0
LINE
  5
E1
330
75
100
AcDbEntity
  8
$DDT_AUDIT_GENERATED_(D9)
  6
Continuous
 62
     7
100
AcDbLine
 10
43.8539949594
 20
457.5168268857
 30
0.0
 11
43.8539949594
 21
457.7756459308
 31
0.0
  0
LINE
  5
E2
330
75
100
AcDbEntity
  8
$DDT_AUDIT_GENERATED_(D9)
  6
Continuous
 62
     7
100
AcDbLine
 10
43.8539949594
 20
457.7756459308
 30
0.0
 11
44.8539949594
 21
457.7756459308
 31
0.0
  0
LINE
  5
E3
330
75
100
AcDbEntity
  8
$DDT_AUDIT_GENERATED_(D9)
  6
Continuous
 62
     7
100
AcDbLine
 10
44.8539949594
 20
457.5168268857
 30
0.0
 11
43.8539949594
 21
457.5168268857
 31
0.0
  0
LINE
  5
E4
330
75
100
AcDbEntity
  8
$DDT_AUDIT_GENERATED_(D9)
  6
Continuous
 62
     7
100
AcDbLine
 10
43.8539949594
 20
457.8274097399
 30
0.0
 11
43.8539949594
 21
458.086228785
 31
0.0
  0
LINE
  5
E5
330
75
100
AcDbEntity
  8
$DDT_AUDIT_GENERATED_(D9)
  6
Continuous
 62
     7
100
AcDbLine
 10
43.8539949594
 20
458.086228785
 30
0.0
 11
44.8539949594
 21
458.086228785
 31
0.0
  0
LINE
  5
E6
330
75
100
AcDbEntity
  8
$DDT_AUDIT_GENERATED_(D9)
  6
Continuous
 62
     7
100
AcDbLine
 10
44.8539949594
 20
457.8274097399
 30
0.0
 11
43.8539949594
 21
457.8274097399
 31
0.0
  0
LINE
  5
E7
330
75
100
AcDbEntity
  8
$DDT_AUDIT_GENERATED_(D9)
  6
Continuous
 62
     7
100
AcDbLine
 10
43.8539949594
 20
458.137992594
 30
0.0
 11
43.8539949594
 21
458.3968116391
 31
0.0
  0
LINE
  5
E8
330
75
100
AcDbEntity
  8
$DDT_AUDIT_GENERATED_(D9)
  6
Continuous
 62
     7
100
AcDbLine
 10
43.8539949594
 20
458.3968116391
 30
0.0
 11
44.8539949594
 21
458.3968116391
 31
0.0
  0
LINE
  5
E9
330
75
100
AcDbEntity
  8
$DDT_AUDIT_GENERATED_(D9)
  6
Continuous
 62
     7
100
AcDbLine
 10
44.8539949594
 20
458.137992594
 30
0.0
 11
43.8539949594
 21
458.137992594
 31
0.0
  0
LINE
  5
EA
330
75
100
AcDbEntity
  8
$DDT_AUDIT_GENERATED_(D9)
  6
Continuous
 62
     7
100
AcDbLine
 10
43.8539949594
 20
458.4485754481
 30
0.0
 11
43.8539949594
 21
458.6734398007
 31
0.0
  0
LINE
  5
EB
330
75
100
AcDbEntity
  8
$DDT_AUDIT_GENERATED_(D9)
  6
Continuous
 62
     7
100
AcDbLine
 10
44.8539949594
 20
458.4485754481
 30
0.0
 11
43.8539949594
 21
458.4485754481
 31
0.0
  0
LINE
  5
EC
330
75
100
AcDbEntity
  8
$DDT_AUDIT_GENERATED_(D9)
  6
Continuous
 62
     7
100
AcDbLine
 10
42.6539949594
 20
456.8956611775
 30
0.0
 11
42.6539949594
 21
457.1544802226
 31
0.0
  0
LINE
  5
ED
330
75
100
AcDbEntity
  8
$DDT_AUDIT_GENERATED_(D9)
  6
Continuous
 62
     7
100
AcDbLine
 10
42.6539949594
 20
457.1544802226
 30
0.0
 11
43.6539949594
 21
457.1544802226
 31
0.0
  0
LINE
  5
EE
330
75
100
AcDbEntity
  8
$DDT_AUDIT_GENERATED_(D9)
  6
Continuous
 62
     7
100
AcDbLine
 10
43.6539949594
 20
457.1544802226
 30
0.0
 11
43.6539949594
 21
456.8956611775
 31
0.0
  0
LINE
  5
EF
330
75
100
AcDbEntity
  8
$DDT_AUDIT_GENERATED_(D9)
  6
Continuous
 62
     7
100
AcDbLine
 10
42.6539949594
 20
457.2062440316
 30
0.0
 11
42.6539949594
 21
457.4650630767
 31
0.0
  0
LINE
  5
F0
330
75
100
AcDbEntity
  8
$DDT_AUDIT_GENERATED_(D9)
  6
Continuous
 62
     7
100
AcDbLine
 10
42.6539949594
 20
457.4650630767
 30
0.0
 11
43.6539949594
 21
457.4650630767
 31
0.0
  0
LINE
  5
F1
330
75
100
AcDbEntity
  8
$DDT_AUDIT_GENERATED_(D9)
  6
Continuous
 62
     7
100
AcDbLine
 10
43.6539949594
 20
457.4650630767
 30
0.0
 11
43.6539949594
 21
457.2062440316
 31
0.0
  0
LINE
  5
F2
330
75
100
AcDbEntity
  8
$DDT_AUDIT_GENERATED_(D9)
  6
Continuous
 62
     7
100
AcDbLine
 10
43.6539949594
 20
457.2062440316
 30
0.0
 11
42.6539949594
 21
457.2062440316
 31
0.0
  0
LINE
  5
F3
330
75
100
AcDbEntity
  8
$DDT_AUDIT_GENERATED_(D9)
  6
Continuous
 62
     7
100
AcDbLine
 10
42.6539949594
 20
457.5168268857
 30
0.0
 11
42.6539949594
 21
457.7756459308
 31
0.0
  0
LINE
  5
F4
330
75
100
AcDbEntity
  8
$DDT_AUDIT_GENERATED_(D9)
  6
Continuous
 62
     7
100
AcDbLine
 10
42.6539949594
 20
457.7756459308
 30
0.0
 11
43.6539949594
 21
457.7756459308
 31
0.0
  0
LINE
  5
F5
330
75
100
AcDbEntity
  8
$DDT_AUDIT_GENERATED_(D9)
  6
Continuous
 62
     7
100
AcDbLine
 10
43.6539949594
 20
457.7756459308
 30
0.0
 11
43.6539949594
 21
457.5168268857
 31
0.0
  0
LINE
  5
F6
330
75
100
AcDbEntity
  8
$DDT_AUDIT_GENERATED_(D9)
  6
Continuous
 62
     7
100
AcDbLine
 10
43.6539949594
 20
457.5168268857
 30
0.0
 11
42.6539949594
 21
457.5168268857
 31
0.0
  0
LINE
  5
F7
330
75
100
AcDbEntity
  8
$DDT_AUDIT_GENERATED_(D9)
  6
Continuous
 62
     7
100
AcDbLine
 10
42.6539949594
 20
457.8274097399
 30
0.0
 11
42.6539949594
 21
458.086228785
 31
0.0
  0
LINE
  5
F8
330
75
100
AcDbEntity
  8
$DDT_AUDIT_GENERATED_(D9)
  6
Continuous
 62
     7
100
AcDbLine
 10
42.6539949594
 20
458.086228785
 30
0.0
 11
43.6539949594
 21
458.086228785
 31
0.0
  0
LINE
  5
F9
330
75
100
AcDbEntity
  8
$DDT_AUDIT_GENERATED_(D9)
  6
Continuous
 62
     7
100
AcDbLine
 10
43.6539949594
 20
458.086228785
 30
0.0
 11
43.6539949594
 21
457.8274097399
 31
0.0
  0
LINE
  5
FA
330
75
100
AcDbEntity
  8
$DDT_AUDIT_GENERATED_(D9)
  6
Continuous
 62
     7
100
AcDbLine
 10
43.6539949594
 20
457.8274097399
 30
0.0
 11
42.6539949594
 21
457.8274097399
 31
0.0
  0
LINE
  5
FB
330
75
100
AcDbEntity
  8
$DDT_AUDIT_GENERATED_(D9)
  6
Continuous
 62
     7
100
AcDbLine
 10
42.6539949594
 20
458.137992594
 30
0.0
 11
42.6539949594
 21
458.3968116391
 31
0.0
  0
LINE
  5
FC
330
75
100
AcDbEntity
  8
$DDT_AUDIT_GENERATED_(D9)
  6
Continuous
 62
     7
100
AcDbLine
 10
42.6539949594
 20
458.3968116391
 30
0.0
 11
43.6539949594
 21
458.3968116391
 31
0.0
  0
LINE
  5
FD
330
75
100
AcDbEntity
  8
$DDT_AUDIT_GENERATED_(D9)
  6
Continuous
 62
     7
100
AcDbLine
 10
43.6539949594
 20
458.3968116391
 30
0.0
 11
43.6539949594
 21
458.137992594
 31
0.0
  0
LINE
  5
FE
330
75
100
AcDbEntity
  8
$DDT_AUDIT_GENERATED_(D9)
  6
Continuous
 62
     7
100
AcDbLine
 10
43.6539949594
 20
458.137992594
 30
0.0
 11
42.6539949594
 21
458.137992594
 31
0.0
  0
LINE
  5
FF
330
75
100
AcDbEntity
  8
$DDT_AUDIT_GENERATED_(D9)
  6
Continuous
 62
     7
100
AcDbLine
 10
42.6539949594
 20
458.4485754481
 30
0.0
 11
42.6539949594
 21
458.6315406492
 31
0.0
  0
LINE
  5
100
330
75
100
AcDbEntity
  8
$DDT_AUDIT_GENERATED_(D9)
  6
Continuous
 62
     7
100
AcDbLine
 10
43.6539949594
 20
458.669664884
 30
0.0
 11
43.6539949594
 21
458.4485754481
 31
0.0
  0
LINE
  5
101
330
75
100
AcDbEntity
  8
$DDT_AUDIT_GENERATED_(D9)
  6
Continuous
 62
     7
100
AcDbLine
 10
43.6539949594
 20
458.4485754481
 30
0.0
 11
42.6539949594
 21
458.4485754481
 31
0.0
  0
LINE
  5
102
330
75
100
AcDbEntity
  8
$DDT_AUDIT_GENERATED_(D9)
  6
Continuous
 62
     7
100
AcDbLine
 10
41.4539949594
 20
456.8956611775
 30
0.0
 11
41.4539949594
 21
457.1544802226
 31
0.0
  0
LINE
  5
103
330
75
100
AcDbEntity
  8
$DDT_AUDIT_GENERATED_(D9)
  6
Continuous
 62
     7
100
AcDbLine
 10
41.4539949594
 20
457.1544802226
 30
0.0
 11
42.4539949594
 21
457.1544802226
 31
0.0
  0
LINE
  5
104
330
75
100
AcDbEntity
  8
$DDT_AUDIT_GENERATED_(D9)
  6
Continuous
 62
     7
100
AcDbLine
 10
42.4539949594
 20
457.1544802226
 30
0.0
 11
42.4539949594
 21
456.8956611775
 31
0.0
  0
LINE
  5
105
330
75
100
AcDbEntity
  8
$DDT_AUDIT_GENERATED_(D9)
  6
Continuous
 62
     7
100
AcDbLine
 10
41.4539949594
 20
457.2062440316
 30
0.0
 11
41.4539949594
 21
457.4650630767
 31
0.0
  0
LINE
  5
106
330
75
100
AcDbEntity
  8
$DDT_AUDIT_GENERATED_(D9)
  6
Continuous
 62
     7
100
AcDbLine
 10
41.4539949594
 20
457.4650630767
 30
0.0
 11
42.4539949594
 21
457.4650630767
 31
0.0
  0
LINE
  5
107
330
75
100
AcDbEntity
  8
$DDT_AUDIT_GENERATED_(D9)
  6
Continuous
 62
     7
100
AcDbLine
 10
42.4539949594
 20
457.4650630767
 30
0.0
 11
42.4539949594
 21
457.2062440316
 31
0.0
  0
LINE
  5
108
330
75
100
AcDbEntity
  8
$DDT_AUDIT_GENERATED_(D9)
  6
Continuous
 62
     7
100
AcDbLine
 10
42.4539949594
 20
457.2062440316
 30
0.0
 11
41.4539949594
 21
457.2062440316
 31
0.0
  0
LINE
  5
109
330
75
100
AcDbEntity
  8
$DDT_AUDIT_GENERATED_(D9)
  6
Continuous
 62
     7
100
AcDbLine
 10
41.4539949594
 20
457.5168268857
 30
0.0
 11
41.4539949594
 21
457.7756459308
 31
0.0
  0
LINE
  5
10A
330
75
100
AcDbEntity
  8
$DDT_AUDIT_GENERATED_(D9)
  6
Continuous
 62
     7
100
AcDbLine
 10
41.4539949594
 20
457.7756459308
 30
0.0
 11
42.4539949594
 21
457.7756459308
 31
0.0
  0
LINE
  5
10B
330
75
100
AcDbEntity
  8
$DDT_AUDIT_GENERATED_(D9)
  6
Continuous
 62
     7
100
AcDbLine
 10
42.4539949594
 20
457.7756459308
 30
0.0
 11
42.4539949594
 21
457.5168268857
 31
0.0
  0
LINE
  5
10C
330
75
100
AcDbEntity
  8
$DDT_AUDIT_GENERATED_(D9)
  6
Continuous
 62
     7
100
AcDbLine
 10
42.4539949594
 20
457.5168268857
 30
0.0
 11
41.4539949594
 21
457.5168268857
 31
0.0
  0
LINE
  5
10D
330
75
100
AcDbEntity
  8
$DDT_AUDIT_GENERATED_(D9)
  6
Continuous
 62
     7
100
AcDbLine
 10
41.4539949594
 20
457.8274097399
 30
0.0
 11
41.4539949594
 21
458.086228785
 31
0.0
  0
LINE
  5
10E
330
75
100
AcDbEntity
  8
$DDT_AUDIT_GENERATED_(D9)
  6
Continuous
 62
     7
100
AcDbLine
 10
41.4539949594
 20
458.086228785
 30
0.0
 11
42.4539949594
 21
458.086228785
 31
0.0
  0
LINE
  5
10F
330
75
100
AcDbEntity
  8
$DDT_AUDIT_GENERATED_(D9)
  6
Continuous
 62
     7
100
AcDbLine
 10
42.4539949594
 20
458.086228785
 30
0.0
 11
42.4539949594
 21
457.8274097399
 31
0.0
  0
LINE
  5
110
330
75
100
AcDbEntity
  8
$DDT_AUDIT_GENERATED_(D9)
  6
Continuous
 62
     7
100
AcDbLine
 10
42.4539949594
 20
457.8274097399
 30
0.0
 11
41.4539949594
 21
457.8274097399
 31
0.0
  0
LINE
  5
111
330
75
100
AcDbEntity
  8
$DDT_AUDIT_GENERATED_(D9)
  6
Continuous
 62
     7
100
AcDbLine
 10
41.4539949594
 20
458.137992594
 30
0.0
 11
41.4539949594
 21
458.3968116391
 31
0.0
  0
LINE
  5
112
330
75
100
AcDbEntity
  8
$DDT_AUDIT_GENERATED_(D9)
  6
Continuous
 62
     7
100
AcDbLine
 10
41.4539949594
 20
458.3968116391
 30
0.0
 11
42.4539949594
 21
458.3968116391
 31
0.0
  0
LINE
  5
113
330
75
100
AcDbEntity
  8
$DDT_AUDIT_GENERATED_(D9)
  6
Continuous
 62
     7
100
AcDbLine
 10
42.4539949594
 20
458.3968116391
 30
0.0
 11
42.4539949594
 21
458.137992594
 31
0.0
  0
LINE
  5
114
330
75
100
AcDbEntity
  8
$DDT_AUDIT_GENERATED_(D9)
  6
Continuous
 62
     7
100
AcDbLine
 10
42.4539949594
 20
458.137992594
 30
0.0
 11
41.4539949594
 21
458.137992594
 31
0.0
  0
LINE
  5
115
330
75
100
AcDbEntity
  8
$DDT_AUDIT_GENERATED_(D9)
  6
Continuous
 62
     7
100
AcDbLine
 10
41.4539949594
 20
458.4485754481
 30
0.0
 11
41.4539949594
 21
458.5410974818
 31
0.0
  0
LINE
  5
116
330
75
100
AcDbEntity
  8
$DDT_AUDIT_GENERATED_(D9)
  6
Continuous
 62
     7
100
AcDbLine
 10
42.4539949594
 20
458.6199669812
 30
0.0
 11
42.4539949594
 21
458.4485754481
 31
0.0
  0
LINE
  5
117
330
75
100
AcDbEntity
  8
$DDT_AUDIT_GENERATED_(D9)
  6
Continuous
 62
     7
100
AcDbLine
 10
42.4539949594
 20
458.4485754481
 30
0.0
 11
41.4539949594
 21
458.4485754481
 31
0.0
  0
LINE
  5
118
330
75
100
AcDbEntity
  8
$DDT_AUDIT_GENERATED_(D9)
  6
Continuous
 62
     7
100
AcDbLine
 10
40.2539949594
 20
456.8956611775
 30
0.0
 11
40.2539949594
 21
457.1544802226
 31
0.0
  0
LINE
  5
119
330
75
100
AcDbEntity
  8
$DDT_AUDIT_GENERATED_(D9)
  6
Continuous
 62
     7
100
AcDbLine
 10
40.2539949594
 20
457.1544802226
 30
0.0
 11
41.2539949594
 21
457.1544802226
 31
0.0
  0
LINE
  5
11A
330
75
100
AcDbEntity
  8
$DDT_AUDIT_GENERATED_(D9)
  6
Continuous
 62
     7
100
AcDbLine
 10
41.2539949594
 20
457.1544802226
 30
0.0
 11
41.2539949594
 21
456.8956611775
 31
0.0
  0
LINE
  5
11B
330
75
100
AcDbEntity
  8
$DDT_AUDIT_GENERATED_(D9)
  6
Continuous
 62
     7
100
AcDbLine
 10
40.2539949594
 20
457.2062440316
 30
0.0
 11
40.2539949594
 21
457.4650630767
 31
0.0
  0
LINE
  5
11C
330
75
100
AcDbEntity
  8
$DDT_AUDIT_GENERATED_(D9)
  6
Continuous
 62
     7
100
AcDbLine
 10
40.2539949594
 20
457.4650630767
 30
0.0
 11
41.2539949594
 21
457.4650630767
 31
0.0
  0
LINE
  5
11D
330
75
100
AcDbEntity
  8
$DDT_AUDIT_GENERATED_(D9)
  6
Continuous
 62
     7
100
AcDbLine
 10
41.2539949594
 20
457.4650630767
 30
0.0
 11
41.2539949594
 21
457.2062440316
 31
0.0
  0
LINE
  5
11E
330
75
100
AcDbEntity
  8
$DDT_AUDIT_GENERATED_(D9)
  6
Continuous
 62
     7
100
AcDbLine
 10
41.2539949594
 20
457.2062440316
 30
0.0
 11
40.2539949594
 21
457.2062440316
 31
0.0
  0
LINE
  5
11F
330
75
100
AcDbEntity
  8
$DDT_AUDIT_GENERATED_(D9)
  6
Continuous
 62
     7
100
AcDbLine
 10
40.2539949594
 20
457.5168268857
 30
0.0
 11
40.2539949594
 21
457.7756459308
 31
0.0
  0
LINE
  5
120
330
75
100
AcDbEntity
  8
$DDT_AUDIT_GENERATED_(D9)
  6
Continuous
 62
     7
100
AcDbLine
 10
40.2539949594
 20
457.7756459308
 30
0.0
 11
41.2539949594
 21
457.7756459308
 31
0.0
  0
LINE
  5
121
330
75
100
AcDbEntity
  8
$DDT_AUDIT_GENERATED_(D9)
  6
Continuous
 62
     7
100
AcDbLine
 10
41.2539949594
 20
457.7756459308
 30
0.0
 11
41.2539949594
 21
457.5168268857
 31
0.0
  0
LINE
  5
122
330
75
100
AcDbEntity
  8
$DDT_AUDIT_GENERATED_(D9)
  6
Continuous
 62
     7
100
AcDbLine
 10
41.2539949594
 20
457.5168268857
 30
0.0
 11
40.2539949594
 21
457.5168268857
 31
0.0
  0
LINE
  5
123
330
75
100
AcDbEntity
  8
$DDT_AUDIT_GENERATED_(D9)
  6
Continuous
 62
     7
100
AcDbLine
 10
40.2539949594
 20
457.8274097399
 30
0.0
 11
40.2539949594
 21
458.086228785
 31
0.0
  0
LINE
  5
124
330
75
100
AcDbEntity
  8
$DDT_AUDIT_GENERATED_(D9)
  6
Continuous
 62
     7
100
AcDbLine
 10
40.2539949594
 20
458.086228785
 30
0.0
 11
41.2539949594
 21
458.086228785
 31
0.0
  0
LINE
  5
125
330
75
100
AcDbEntity
  8
$DDT_AUDIT_GENERATED_(D9)
  6
Continuous
 62
     7
100
AcDbLine
 10
41.2539949594
 20
458.086228785
 30
0.0
 11
41.2539949594
 21
457.8274097399
 31
0.0
  0
LINE
  5
126
330
75
100
AcDbEntity
  8
$DDT_AUDIT_GENERATED_(D9)
  6
Continuous
 62
     7
100
AcDbLine
 10
41.2539949594
 20
457.8274097399
 30
0.0
 11
40.2539949594
 21
457.8274097399
 31
0.0
  0
LINE
  5
127
330
75
100
AcDbEntity
  8
$DDT_AUDIT_GENERATED_(D9)
  6
Continuous
 62
     7
100
AcDbLine
 10
40.2539949594
 20
458.137992594
 30
0.0
 11
40.2539949594
 21
458.3950153659
 31
0.0
  0
LINE
  5
128
330
75
100
AcDbEntity
  8
$DDT_AUDIT_GENERATED_(D9)
  6
Continuous
 62
     7
100
AcDbLine
 10
40.2661373406
 20
458.3968116391
 30
0.0
 11
41.2539949594
 21
458.3968116391
 31
0.0
  0
LINE
  5
129
330
75
100
AcDbEntity
  8
$DDT_AUDIT_GENERATED_(D9)
  6
Continuous
 62
     7
100
AcDbLine
 10
41.2539949594
 20
458.3968116391
 30
0.0
 11
41.2539949594
 21
458.137992594
 31
0.0
  0
LINE
  5
12A
330
75
100
AcDbEntity
  8
$DDT_AUDIT_GENERATED_(D9)
  6
Continuous
 62
     7
100
AcDbLine
 10
41.2539949594
 20
458.137992594
 30
0.0
 11
40.2539949594
 21
458.137992594
 31
0.0
  0
LINE
  5
12B
330
75
100
AcDbEntity
  8
$DDT_AUDIT_GENERATED_(D9)
  6
Continuous
 62
     7
100
AcDbLine
 10
41.2539949594
 20
458.5208889882
 30
0.0
 11
41.2539949594
 21
458.4485754481
 31
0.0
  0
LINE
  5
12C
330
75
100
AcDbEntity
  8
$DDT_AUDIT_GENERATED_(D9)
  6
Continuous
 62
     7
100
AcDbLine
 10
41.2539949594
 20
458.4485754481
 30
0.0
 11
40.638598648
 21
458.4485754481
 31
0.0
  0
LINE
  5
12D
330
75
100
AcDbEntity
  8
$DDT_AUDIT_GENERATED_(D9)
  6
Continuous
 62
     7
100
AcDbLine
 10
39.0539949594
 20
456.8956611775
 30
0.0
 11
39.0539949594
 21
457.1544802226
 31
0.0
  0
LINE
  5
12E
330
75
100
AcDbEntity
  8
$DDT_AUDIT_GENERATED_(D9)
  6
Continuous
 62
     7
100
AcDbLine
 10
39.0539949594
 20
457.1544802226
 30
0.0
 11
40.0539949594
 21
457.1544802226
 31
0.0
  0
LINE
  5
12F
330
75
100
AcDbEntity
  8
$DDT_AUDIT_GENERATED_(D9)
  6
Continuous
 62
     7
100
AcDbLine
 10
40.0539949594
 20
457.1544802226
 30
0.0
 11
40.0539949594
 21
456.8956611775
 31
0.0
  0
LINE
  5
130
330
75
100
AcDbEntity
  8
$DDT_AUDIT_GENERATED_(D9)
  6
Continuous
 62
     7
100
AcDbLine
 10
39.0539949594
 20
457.2062440316
 30
0.0
 11
39.0539949594
 21
457.4650630767
 31
0.0
  0
LINE
  5
131
330
75
100
AcDbEntity
  8
$DDT_AUDIT_GENERATED_(D9)
  6
Continuous
 62
     7
100
AcDbLine
 10
39.0539949594
 20
457.4650630767
 30
0.0
 11
40.0539949594
 21
457.4650630767
 31
0.0
  0
LINE
  5
132
330
75
100
AcDbEntity
  8
$DDT_AUDIT_GENERATED_(D9)
  6
Continuous
 62
     7
100
AcDbLine
 10
40.0539949594
 20
457.4650630767
 30
0.0
 11
40.0539949594
 21
457.2062440316
 31
0.0
  0
LINE
  5
133
330
75
100
AcDbEntity
  8
$DDT_AUDIT_GENERATED_(D9)
  6
Continuous
 62
     7
100
AcDbLine
 10
40.0539949594
 20
457.2062440316
 30
0.0
 11
39.0539949594
 21
457.2062440316
 31
0.0
  0
LINE
  5
134
330
75
100
AcDbEntity
  8
$DDT_AUDIT_GENERATED_(D9)
  6
Continuous
 62
     7
100
AcDbLine
 10
39.0539949594
 20
457.5168268857
 30
0.0
 11
39.0539949594
 21
457.7756459308
 31
0.0
  0
LINE
  5
135
330
75
100
AcDbEntity
  8
$DDT_AUDIT_GENERATED_(D9)
  6
Continuous
 62
     7
100
AcDbLine
 10
39.0539949594
 20
457.7756459308
 30
0.0
 11
40.0539949594
 21
457.7756459308
 31
0.0
  0
LINE
  5
136
330
75
100
AcDbEntity
  8
$DDT_AUDIT_GENERATED_(D9)
  6
Continuous
 62
     7
100
AcDbLine
 10
40.0539949594
 20
457.7756459308
 30
0.0
 11
40.0539949594
 21
457.5168268857
 31
0.0
  0
LINE
  5
137
330
75
100
AcDbEntity
  8
$DDT_AUDIT_GENERATED_(D9)
  6
Continuous
 62
     7
100
AcDbLine
 10
40.0539949594
 20
457.5168268857
 30
0.0
 11
39.0539949594
 21
457.5168268857
 31
0.0
  0
LINE
  5
138
330
75
100
AcDbEntity
  8
$DDT_AUDIT_GENERATED_(D9)
  6
Continuous
 62
     7
100
AcDbLine
 10
39.0539949594
 20
457.8274097399
 30
0.0
 11
39.0539949594
 21
458.086228785
 31
0.0
  0
LINE
  5
139
330
75
100
AcDbEntity
  8
$DDT_AUDIT_GENERATED_(D9)
  6
Continuous
 62
     7
100
AcDbLine
 10
39.0539949594
 20
458.086228785
 30
0.0
 11
40.0539949594
 21
458.086228785
 31
0.0
  0
LINE
  5
13A
330
75
100
AcDbEntity
  8
$DDT_AUDIT_GENERATED_(D9)
  6
Continuous
 62
     7
100
AcDbLine
 10
40.0539949594
 20
458.086228785
 30
0.0
 11
40.0539949594
 21
457.8274097399
 31
0.0
  0
LINE
  5
13B
330
75
100
AcDbEntity
  8
$DDT_AUDIT_GENERATED_(D9)
  6
Continuous
 62
     7
100
AcDbLine
 10
40.0539949594
 20
457.8274097399
 30
0.0
 11
39.0539949594
 21
457.8274097399
 31
0.0
  0
LINE
  5
13C
330
75
100
AcDbEntity
  8
$DDT_AUDIT_GENERATED_(D9)
  6
Continuous
 62
     7
100
AcDbLine
 10
39.0539949594
 20
458.137992594
 30
0.0
 11
39.0539949594
 21
458.1784603692
 31
0.0
  0
LINE
  5
13D
330
75
100
AcDbEntity
  8
$DDT_AUDIT_GENERATED_(D9)
  6
Continuous
 62
     7
100
AcDbLine
 10
40.0539949594
 20
458.3643942176
 30
0.0
 11
40.0539949594
 21
458.137992594
 31
0.0
  0
LINE
  5
13E
330
75
100
AcDbEntity
  8
$DDT_AUDIT_GENERATED_(D9)
  6
Continuous
 62
     7
100
AcDbLine
 10
40.0539949594
 20
458.137992594
 30
0.0
 11
39.0539949594
 21
458.137992594
 31
0.0
  0
LINE
  5
13F
330
75
100
AcDbEntity
  8
$DDT_AUDIT_GENERATED_(D9)
  6
Continuous
 62
     7
100
AcDbLine
 10
37.8539949594
 20
456.8956611775
 30
0.0
 11
37.8539949594
 21
457.1544802226
 31
0.0
  0
LINE
  5
140
330
75
100
AcDbEntity
  8
$DDT_AUDIT_GENERATED_(D9)
  6
Continuous
 62
     7
100
AcDbLine
 10
37.8539949594
 20
457.1544802226
 30
0.0
 11
38.8539949594
 21
457.1544802226
 31
0.0
  0
LINE
  5
141
330
75
100
AcDbEntity
  8
$DDT_AUDIT_GENERATED_(D9)
  6
Continuous
 62
     7
100
AcDbLine
 10
38.8539949594
 20
457.1544802226
 30
0.0
 11
38.8539949594
 21
456.8956611775
 31
0.0
  0
LINE
  5
142
330
75
100
AcDbEntity
  8
$DDT_AUDIT_GENERATED_(D9)
  6
Continuous
 62
     7
100
AcDbLine
 10
37.8539949594
 20
457.2062440316
 30
0.0
 11
37.8539949594
 21
457.4650630767
 31
0.0
  0
LINE
  5
143
330
75
100
AcDbEntity
  8
$DDT_AUDIT_GENERATED_(D9)
  6
Continuous
 62
     7
100
AcDbLine
 10
37.8539949594
 20
457.4650630767
 30
0.0
 11
38.8539949594
 21
457.4650630767
 31
0.0
  0
LINE
  5
144
330
75
100
AcDbEntity
  8
$DDT_AUDIT_GENERATED_(D9)
  6
Continuous
 62
     7
100
AcDbLine
 10
38.8539949594
 20
457.4650630767
 30
0.0
 11
38.8539949594
 21
457.2062440316
 31
0.0
  0
LINE
  5
145
330
75
100
AcDbEntity
  8
$DDT_AUDIT_GENERATED_(D9)
  6
Continuous
 62
     7
100
AcDbLine
 10
38.8539949594
 20
457.2062440316
 30
0.0
 11
37.8539949594
 21
457.2062440316
 31
0.0
  0
LINE
  5
146
330
75
100
AcDbEntity
  8
$DDT_AUDIT_GENERATED_(D9)
  6
Continuous
 62
     7
100
AcDbLine
 10
37.8539949594
 20
457.5168268857
 30
0.0
 11
37.8539949594
 21
457.7756459308
 31
0.0
  0
LINE
  5
147
330
75
100
AcDbEntity
  8
$DDT_AUDIT_GENERATED_(D9)
  6
Continuous
 62
     7
100
AcDbLine
 10
37.8539949594
 20
457.7756459308
 30
0.0
 11
38.8539949594
 21
457.7756459308
 31
0.0
  0
LINE
  5
148
330
75
100
AcDbEntity
  8
$DDT_AUDIT_GENERATED_(D9)
  6
Continuous
 62
     7
100
AcDbLine
 10
38.8539949594
 20
457.7756459308
 30
0.0
 11
38.8539949594
 21
457.5168268857
 31
0.0
  0
LINE
  5
149
330
75
100
AcDbEntity
  8
$DDT_AUDIT_GENERATED_(D9)
  6
Continuous
 62
     7
100
AcDbLine
 10
38.8539949594
 20
457.5168268857
 30
0.0
 11
37.8539949594
 21
457.5168268857
 31
0.0
  0
LINE
  5
14A
330
75
100
AcDbEntity
  8
$DDT_AUDIT_GENERATED_(D9)
  6
Continuous
 62
     7
100
AcDbLine
 10
37.8539949594
 20
457.8274097399
 30
0.0
 11
37.8539949594
 21
457.8570639202
 31
0.0
  0
LINE
  5
14B
330
75
100
AcDbEntity
  8
$DDT_AUDIT_GENERATED_(D9)
  6
Continuous
 62
     7
100
AcDbLine
 10
38.6558337752
 20
458.086228785
 30
0.0
 11
38.8539949594
 21
458.086228785
 31
0.0
  0
LINE
  5
14C
330
75
100
AcDbEntity
  8
$DDT_AUDIT_GENERATED_(D9)
  6
Continuous
 62
     7
100
AcDbLine
 10
38.8539949594
 20
458.086228785
 30
0.0
 11
38.8539949594
 21
457.8274097399
 31
0.0
  0
LINE
  5
14D
330
75
100
AcDbEntity
  8
$DDT_AUDIT_GENERATED_(D9)
  6
Continuous
 62
     7
100
AcDbLine
 10
38.8539949594
 20
457.8274097399
 30
0.0
 11
37.8539949594
 21
457.8274097399
 31
0.0
  0
LINE
  5
14E
330
75
100
AcDbEntity
  8
$DDT_AUDIT_GENERATED_(D9)
  6
Continuous
 62
     7
100
AcDbLine
 10
36.6539949594
 20
456.8956611775
 30
0.0
 11
36.6539949594
 21
457.1544802226
 31
0.0
  0
LINE
  5
14F
330
75
100
AcDbEntity
  8
$DDT_AUDIT_GENERATED_(D9)
  6
Continuous
 62
     7
100
AcDbLine
 10
36.6539949594
 20
457.1544802226
 30
0.0
 11
37.6539949594
 21
457.1544802226
 31
0.0
  0
LINE
  5
150
330
75
100
AcDbEntity
  8
$DDT_AUDIT_GENERATED_(D9)
  6
Continuous
 62
     7
100
AcDbLine
 10
37.6539949594
 20
457.1544802226
 30
0.0
 11
37.6539949594
 21
456.8956611775
 31
0.0
  0
LINE
  5
151
330
75
100
AcDbEntity
  8
$DDT_AUDIT_GENERATED_(D9)
  6
Continuous
 62
     7
100
AcDbLine
 10
36.6539949594
 20
457.2062440316
 30
0.0
 11
36.6539949594
 21
457.3086885541
 31
0.0
  0
LINE
  5
152
330
75
100
AcDbEntity
  8
$DDT_AUDIT_GENERATED_(D9)
  6
Continuous
 62
     7
100
AcDbLine
 10
36.9145082285
 20
457.4650630767
 30
0.0
 11
37.6539949594
 21
457.4650630767
 31
0.0
  0
LINE
  5
153
330
75
100
AcDbEntity
  8
$DDT_AUDIT_GENERATED_(D9)
  6
Continuous
 62
     7
100
AcDbLine
 10
37.6539949594
 20
457.4650630767
 30
0.0
 11
37.6539949594
 21
457.2062440316
 31
0.0
  0
LINE
  5
154
330
75
100
AcDbEntity
  8
$DDT_AUDIT_GENERATED_(D9)
  6
Continuous
 62
     7
100
AcDbLine
 10
37.6539949594
 20
457.2062440316
 30
0.0
 11
36.6539949594
 21
457.2062440316
 31
0.0
  0
LINE
  5
155
330
75
100
AcDbEntity
  8
$DDT_AUDIT_GENERATED_(D9)
  6
Continuous
 62
     7
100
AcDbLine
 10
37.6199395802
 20
457.7756459308
 30
0.0
 11
37.6539949594
 21
457.7756459308
 31
0.0
  0
LINE
  5
156
330
75
100
AcDbEntity
  8
$DDT_AUDIT_GENERATED_(D9)
  6
Continuous
 62
     7
100
AcDbLine
 10
37.6539949594
 20
457.7756459308
 30
0.0
 11
37.6539949594
 21
457.5168268857
 31
0.0
  0
LINE
  5
157
330
75
100
AcDbEntity
  8
$DDT_AUDIT_GENERATED_(D9)
  6
Continuous
 62
     7
100
AcDbLine
 10
37.6539949594
 20
457.5168268857
 30
0.0
 11
37.0137257097
 21
457.5168268857
 31
0.0
  0
LINE
  5
158
330
75
100
AcDbEntity
  8
$DDT_AUDIT_GENERATED_(D9)
  6
Continuous
 62
     7
100
AcDbLine
 10
36.4505511665
 20
457.1544802226
 30
0.0
 11
36.4539949594
 21
457.1544802226
 31
0.0
  0
LINE
  5
159
330
75
100
AcDbEntity
  8
$DDT_AUDIT_GENERATED_(D9)
  6
Continuous
 62
     7
100
AcDbLine
 10
36.4539949594
 20
457.1544802226
 30
0.0
 11
36.4539949594
 21
456.8956611775
 31
0.0
  0
LINE
  5
15A
330
75
100
AcDbEntity
  8
$DDT_AUDIT_GENERATED_(D9)
  6
Continuous
 62
     7
100
AcDbLine
 10
44.8539949594
 20
457.1544802226
 30
0.0
 11
44.8539949594
 21
456.8956611775
 31
0.0
  0
LINE
  5
15B
330
75
100
AcDbEntity
  8
$DDT_AUDIT_GENERATED_(D9)
  6
Continuous
 62
     7
100
AcDbLine
 10
45.0539949594
 20
457.1544802226
 30
0.0
 11
46.0539949594
 21
457.1544802226
 31
0.0
  0
LINE
  5
15C
330
75
100
AcDbEntity
  8
$DDT_AUDIT_GENERATED_(D9)
  6
Continuous
 62
     7
100
AcDbLine
 10
46.0539949594
 20
457.1544802226
 30
0.0
 11
46.0539949594
 21
456.8956611775
 31
0.0
  0
LINE
  5
15D
330
75
100
AcDbEntity
  8
$DDT_AUDIT_GENERATED_(D9)
  6
Continuous
 62
     7
100
AcDbLine
 10
45.0539949594
 20
456.8956611775
 30
0.0
 11
45.0539949594
 21
457.1544802226
 31
0.0
  0
LINE
  5
15E
330
75
100
AcDbEntity
  8
$DDT_AUDIT_GENERATED_(D9)
  6
Continuous
 62
     7
100
AcDbLine
 10
46.2539949594
 20
457.1544802226
 30
0.0
 11
47.2539949594
 21
457.1544802226
 31
0.0
  0
LINE
  5
15F
330
75
100
AcDbEntity
  8
$DDT_AUDIT_GENERATED_(D9)
  6
Continuous
 62
     7
100
AcDbLine
 10
47.2539949594
 20
457.1544802226
 30
0.0
 11
47.2539949594
 21
456.8956611775
 31
0.0
  0
LINE
  5
160
330
75
100
AcDbEntity
  8
$DDT_AUDIT_GENERATED_(D9)
  6
Continuous
 62
     7
100
AcDbLine
 10
46.2539949594
 20
456.8956611775
 30
0.0
 11
46.2539949594
 21
457.1544802226
 31
0.0
  0
LINE
  5
161
330
75
100
AcDbEntity
  8
$DDT_AUDIT_GENERATED_(D9)
  6
Continuous
 62
     7
100
AcDbLine
 10
47.4539949594
 20
457.1544802226
 30
0.0
 11
48.4539949594
 21
457.1544802226
 31
0.0
  0
LINE
  5
162
330
75
100
AcDbEntity
  8
$DDT_AUDIT_GENERATED_(D9)
  6
Continuous
 62
     7
100
AcDbLine
 10
48.4539949594
 20
457.1544802226
 30
0.0
 11
48.4539949594
 21
456.8956611775
 31
0.0
  0
LINE
  5
163
330
75
100
AcDbEntity
  8
$DDT_AUDIT_GENERATED_(D9)
  6
Continuous
 62
     7
100
AcDbLine
 10
47.4539949594
 20
456.8956611775
 30
0.0
 11
47.4539949594
 21
457.1544802226
 31
0.0
  0
LINE
  5
164
330
75
100
AcDbEntity
  8
$DDT_AUDIT_GENERATED_(D9)
  6
Continuous
 62
     7
100
AcDbLine
 10
48.6539949594
 20
457.1544802226
 30
0.0
 11
49.6539949594
 21
457.1544802226
 31
0.0
  0
LINE
  5
165
330
75
100
AcDbEntity
  8
$DDT_AUDIT_GENERATED_(D9)
  6
Continuous
 62
     7
100
AcDbLine
 10
49.6539949594
 20
457.1544802226
 30
0.0
 11
49.6539949594
 21
456.8956611775
 31
0.0
  0
LINE
  5
166
330
75
100
AcDbEntity
  8
$DDT_AUDIT_GENERATED_(D9)
  6
Continuous
 62
     7
100
AcDbLine
 10
48.6539949594
 20
456.8956611775
 30
0.0
 11
48.6539949594
 21
457.1544802226
 31
0.0
  0
LINE
  5
167
330
75
100
AcDbEntity
  8
$DDT_AUDIT_GENERATED_(D9)
  6
Continuous
 62
     7
100
AcDbLine
 10
49.8539949594
 20
457.1544802226
 30
0.0
 11
50.8539949594
 21
457.1544802226
 31
0.0
  0
LINE
  5
168
330
75
100
AcDbEntity
  8
$DDT_AUDIT_GENERATED_(D9)
  6
Continuous
 62
     7
100
AcDbLine
 10
50.8539949594
 20
457.1544802226
 30
0.0
 11
50.8539949594
 21
456.8956611775
 31
0.0
  0
LINE
  5
169
330
75
100
AcDbEntity
  8
$DDT_AUDIT_GENERATED_(D9)
  6
Continuous
 62
     7
100
AcDbLine
 10
49.8539949594
 20
456.8956611775
 30
0.0
 11
49.8539949594
 21
457.1544802226
 31
0.0
  0
LINE
  5
16A
330
75
100
AcDbEntity
  8
$DDT_AUDIT_GENERATED_(D9)
  6
Continuous
 62
     7
100
AcDbLine
 10
52.0539949594
 20
457.1544802226
 30
0.0
 11
52.0539949594
 21
456.8956611775
 31
0.0
  0
LINE
  5
16B
330
75
100
AcDbEntity
  8
$DDT_AUDIT_GENERATED_(D9)
  6
Continuous
 62
     7
100
AcDbLine
 10
51.0539949594
 20
457.1544802226
 30
0.0
 11
52.0539949594
 21
457.1544802226
 31
0.0
  0
LINE
  5
16C
330
75
100
AcDbEntity
  8
$DDT_AUDIT_GENERATED_(D9)
  6
Continuous
 62
     7
100
AcDbLine
 10
51.0539949594
 20
456.8956611775
 30
0.0
 11
51.0539949594
 21
457.1544802226
 31
0.0
  0
LINE
  5
16D
330
75
100
AcDbEntity
  8
$DDT_AUDIT_GENERATED_(D9)
  6
Continuous
 62
     7
100
AcDbLine
 10
44.8539949594
 20
457.4650630767
 30
0.0
 11
44.8539949594
 21
457.2062440316
 31
0.0
  0
LINE
  5
16E
330
75
100
AcDbEntity
  8
$DDT_AUDIT_GENERATED_(D9)
  6
Continuous
 62
     7
100
AcDbLine
 10
45.0539949594
 20
457.4650630767
 30
0.0
 11
46.0539949594
 21
457.4650630767
 31
0.0
  0
LINE
  5
16F
330
75
100
AcDbEntity
  8
$DDT_AUDIT_GENERATED_(D9)
  6
Continuous
 62
     7
100
AcDbLine
 10
46.0539949594
 20
457.4650630767
 30
0.0
 11
46.0539949594
 21
457.2062440316
 31
0.0
  0
LINE
  5
170
330
75
100
AcDbEntity
  8
$DDT_AUDIT_GENERATED_(D9)
  6
Continuous
 62
     7
100
AcDbLine
 10
46.0539949594
 20
457.2062440316
 30
0.0
 11
45.0539949594
 21
457.2062440316
 31
0.0
  0
LINE
  5
171
330
75
100
AcDbEntity
  8
$DDT_AUDIT_GENERATED_(D9)
  6
Continuous
 62
     7
100
AcDbLine
 10
45.0539949594
 20
457.2062440316
 30
0.0
 11
45.0539949594
 21
457.4650630767
 31
0.0
  0
LINE
  5
172
330
75
100
AcDbEntity
  8
$DDT_AUDIT_GENERATED_(D9)
  6
Continuous
 62
     7
100
AcDbLine
 10
46.2539949594
 20
457.4650630767
 30
0.0
 11
47.2539949594
 21
457.4650630767
 31
0.0
  0
LINE
  5
173
330
75
100
AcDbEntity
  8
$DDT_AUDIT_GENERATED_(D9)
  6
Continuous
 62
     7
100
AcDbLine
 10
47.2539949594
 20
457.4650630767
 30
0.0
 11
47.2539949594
 21
457.2062440316
 31
0.0
  0
LINE
  5
174
330
75
100
AcDbEntity
  8
$DDT_AUDIT_GENERATED_(D9)
  6
Continuous
 62
     7
100
AcDbLine
 10
47.2539949594
 20
457.2062440316
 30
0.0
 11
46.2539949594
 21
457.2062440316
 31
0.0
  0
LINE
  5
175
330
75
100
AcDbEntity
  8
$DDT_AUDIT_GENERATED_(D9)
  6
Continuous
 62
     7
100
AcDbLine
 10
46.2539949594
 20
457.2062440316
 30
0.0
 11
46.2539949594
 21
457.4650630767
 31
0.0
  0
LINE
  5
176
330
75
100
AcDbEntity
  8
$DDT_AUDIT_GENERATED_(D9)
  6
Continuous
 62
     7
100
AcDbLine
 10
47.4539949594
 20
457.4650630767
 30
0.0
 11
48.4539949594
 21
457.4650630767
 31
0.0
  0
LINE
  5
177
330
75
100
AcDbEntity
  8
$DDT_AUDIT_GENERATED_(D9)
  6
Continuous
 62
     7
100
AcDbLine
 10
48.4539949594
 20
457.4650630767
 30
0.0
 11
48.4539949594
 21
457.2062440316
 31
0.0
  0
LINE
  5
178
330
75
100
AcDbEntity
  8
$DDT_AUDIT_GENERATED_(D9)
  6
Continuous
 62
     7
100
AcDbLine
 10
48.4539949594
 20
457.2062440316
 30
0.0
 11
47.4539949594
 21
457.2062440316
 31
0.0
  0
LINE
  5
179
330
75
100
AcDbEntity
  8
$DDT_AUDIT_GENERATED_(D9)
  6
Continuous
 62
     7
100
AcDbLine
 10
47.4539949594
 20
457.2062440316
 30
0.0
 11
47.4539949594
 21
457.4650630767
 31
0.0
  0
LINE
  5
17A
330
75
100
AcDbEntity
  8
$DDT_AUDIT_GENERATED_(D9)
  6
Continuous
 62
     7
100
AcDbLine
 10
48.6539949594
 20
457.4650630767
 30
0.0
 11
49.6539949594
 21
457.4650630767
 31
0.0
  0
LINE
  5
17B
330
75
100
AcDbEntity
  8
$DDT_AUDIT_GENERATED_(D9)
  6
Continuous
 62
     7
100
AcDbLine
 10
49.6539949594
 20
457.4650630767
 30
0.0
 11
49.6539949594
 21
457.2062440316
 31
0.0
  0
LINE
  5
17C
330
75
100
AcDbEntity
  8
$DDT_AUDIT_GENERATED_(D9)
  6
Continuous
 62
     7
100
AcDbLine
 10
49.6539949594
 20
457.2062440316
 30
0.0
 11
48.6539949594
 21
457.2062440316
 31
0.0
  0
LINE
  5
17D
330
75
100
AcDbEntity
  8
$DDT_AUDIT_GENERATED_(D9)
  6
Continuous
 62
     7
100
AcDbLine
 10
48.6539949594
 20
457.2062440316
 30
0.0
 11
48.6539949594
 21
457.4650630767
 31
0.0
  0
LINE
  5
17E
330
75
100
AcDbEntity
  8
$DDT_AUDIT_GENERATED_(D9)
  6
Continuous
 62
     7
100
AcDbLine
 10
49.8539949594
 20
457.4650630767
 30
0.0
 11
50.8539949594
 21
457.4650630767
 31
0.0
  0
LINE
  5
17F
330
75
100
AcDbEntity
  8
$DDT_AUDIT_GENERATED_(D9)
  6
Continuous
 62
     7
100
AcDbLine
 10
50.8539949594
 20
457.4650630767
 30
0.0
 11
50.8539949594
 21
457.2062440316
 31
0.0
  0
LINE
  5
180
330
75
100
AcDbEntity
  8
$DDT_AUDIT_GENERATED_(D9)
  6
Continuous
 62
     7
100
AcDbLine
 10
50.8539949594
 20
457.2062440316
 30
0.0
 11
49.8539949594
 21
457.2062440316
 31
0.0
  0
LINE
  5
181
330
75
100
AcDbEntity
  8
$DDT_AUDIT_GENERATED_(D9)
  6
Continuous
 62
     7
100
AcDbLine
 10
49.8539949594
 20
457.2062440316
 30
0.0
 11
49.8539949594
 21
457.4650630767
 31
0.0
  0
LINE
  5
182
330
75
100
AcDbEntity
  8
$DDT_AUDIT_GENERATED_(D9)
  6
Continuous
 62
     7
100
AcDbLine
 10
51.0539949594
 20
457.4650630767
 30
0.0
 11
51.7934816904
 21
457.4650630767
 31
0.0
  0
LINE
  5
183
330
75
100
AcDbEntity
  8
$DDT_AUDIT_GENERATED_(D9)
  6
Continuous
 62
     7
100
AcDbLine
 10
52.0539949594
 20
457.3086885541
 30
0.0
 11
52.0539949594
 21
457.2062440316
 31
0.0
  0
LINE
  5
184
330
75
100
AcDbEntity
  8
$DDT_AUDIT_GENERATED_(D9)
  6
Continuous
 62
     7
100
AcDbLine
 10
52.0539949594
 20
457.2062440316
 30
0.0
 11
51.0539949594
 21
457.2062440316
 31
0.0
  0
LINE
  5
185
330
75
100
AcDbEntity
  8
$DDT_AUDIT_GENERATED_(D9)
  6
Continuous
 62
     7
100
AcDbLine
 10
51.0539949594
 20
457.2062440316
 30
0.0
 11
51.0539949594
 21
457.4650630767
 31
0.0
  0
LINE
  5
186
330
75
100
AcDbEntity
  8
$DDT_AUDIT_GENERATED_(D9)
  6
Continuous
 62
     7
100
AcDbLine
 10
44.8539949594
 20
457.7756459308
 30
0.0
 11
44.8539949594
 21
457.5168268857
 31
0.0
  0
LINE
  5
187
330
75
100
AcDbEntity
  8
$DDT_AUDIT_GENERATED_(D9)
  6
Continuous
 62
     7
100
AcDbLine
 10
45.0539949594
 20
457.7756459308
 30
0.0
 11
46.0539949594
 21
457.7756459308
 31
0.0
  0
LINE
  5
188
330
75
100
AcDbEntity
  8
$DDT_AUDIT_GENERATED_(D9)
  6
Continuous
 62
     7
100
AcDbLine
 10
46.0539949594
 20
457.7756459308
 30
0.0
 11
46.0539949594
 21
457.5168268857
 31
0.0
  0
LINE
  5
189
330
75
100
AcDbEntity
  8
$DDT_AUDIT_GENERATED_(D9)
  6
Continuous
 62
     7
100
AcDbLine
 10
46.0539949594
 20
457.5168268857
 30
0.0
 11
45.0539949594
 21
457.5168268857
 31
0.0
  0
LINE
  5
18A
330
75
100
AcDbEntity
  8
$DDT_AUDIT_GENERATED_(D9)
  6
Continuous
 62
     7
100
AcDbLine
 10
45.0539949594
 20
457.5168268857
 30
0.0
 11
45.0539949594
 21
457.7756459308
 31
0.0
  0
LINE
  5
18B
330
75
100
AcDbEntity
  8
$DDT_AUDIT_GENERATED_(D9)
  6
Continuous
 62
     7
100
AcDbLine
 10
46.2539949594
 20
457.7756459308
 30
0.0
 11
47.2539949594
 21
457.7756459308
 31
0.0
  0
LINE
  5
18C
330
75
100
AcDbEntity
  8
$DDT_AUDIT_GENERATED_(D9)
  6
Continuous
 62
     7
100
AcDbLine
 10
47.2539949594
 20
457.7756459308
 30
0.0
 11
47.2539949594
 21
457.5168268857
 31
0.0
  0
LINE
  5
18D
330
75
100
AcDbEntity
  8
$DDT_AUDIT_GENERATED_(D9)
  6
Continuous
 62
     7
100
AcDbLine
 10
47.2539949594
 20
457.5168268857
 30
0.0
 11
46.2539949594
 21
457.5168268857
 31
0.0
  0
LINE
  5
18E
330
75
100
AcDbEntity
  8
$DDT_AUDIT_GENERATED_(D9)
  6
Continuous
 62
     7
100
AcDbLine
 10
46.2539949594
 20
457.5168268857
 30
0.0
 11
46.2539949594
 21
457.7756459308
 31
0.0
  0
LINE
  5
18F
330
75
100
AcDbEntity
  8
$DDT_AUDIT_GENERATED_(D9)
  6
Continuous
 62
     7
100
AcDbLine
 10
47.4539949594
 20
457.7756459308
 30
0.0
 11
48.4539949594
 21
457.7756459308
 31
0.0
  0
LINE
  5
190
330
75
100
AcDbEntity
  8
$DDT_AUDIT_GENERATED_(D9)
  6
Continuous
 62
     7
100
AcDbLine
 10
48.4539949594
 20
457.7756459308
 30
0.0
 11
48.4539949594
 21
457.5168268857
 31
0.0
  0
LINE
  5
191
330
75
100
AcDbEntity
  8
$DDT_AUDIT_GENERATED_(D9)
  6
Continuous
 62
     7
100
AcDbLine
 10
48.4539949594
 20
457.5168268857
 30
0.0
 11
47.4539949594
 21
457.5168268857
 31
0.0
  0
LINE
  5
192
330
75
100
AcDbEntity
  8
$DDT_AUDIT_GENERATED_(D9)
  6
Continuous
 62
     7
100
AcDbLine
 10
47.4539949594
 20
457.5168268857
 30
0.0
 11
47.4539949594
 21
457.7756459308
 31
0.0
  0
LINE
  5
193
330
75
100
AcDbEntity
  8
$DDT_AUDIT_GENERATED_(D9)
  6
Continuous
 62
     7
100
AcDbLine
 10
48.6539949594
 20
457.7756459308
 30
0.0
 11
49.6539949594
 21
457.7756459308
 31
0.0
  0
LINE
  5
194
330
75
100
AcDbEntity
  8
$DDT_AUDIT_GENERATED_(D9)
  6
Continuous
 62
     7
100
AcDbLine
 10
49.6539949594
 20
457.7756459308
 30
0.0
 11
49.6539949594
 21
457.5168268857
 31
0.0
  0
LINE
  5
195
330
75
100
AcDbEntity
  8
$DDT_AUDIT_GENERATED_(D9)
  6
Continuous
 62
     7
100
AcDbLine
 10
49.6539949594
 20
457.5168268857
 30
0.0
 11
48.6539949594
 21
457.5168268857
 31
0.0
  0
LINE
  5
196
330
75
100
AcDbEntity
  8
$DDT_AUDIT_GENERATED_(D9)
  6
Continuous
 62
     7
100
AcDbLine
 10
48.6539949594
 20
457.5168268857
 30
0.0
 11
48.6539949594
 21
457.7756459308
 31
0.0
  0
LINE
  5
197
330
75
100
AcDbEntity
  8
$DDT_AUDIT_GENERATED_(D9)
  6
Continuous
 62
     7
100
AcDbLine
 10
49.8539949594
 20
457.7756459308
 30
0.0
 11
50.8539949594
 21
457.7756459308
 31
0.0
  0
LINE
  5
198
330
75
100
AcDbEntity
  8
$DDT_AUDIT_GENERATED_(D9)
  6
Continuous
 62
     7
100
AcDbLine
 10
50.8539949594
 20
457.7756459308
 30
0.0
 11
50.8539949594
 21
457.5168268857
 31
0.0
  0
LINE
  5
199
330
75
100
AcDbEntity
  8
$DDT_AUDIT_GENERATED_(D9)
  6
Continuous
 62
     7
100
AcDbLine
 10
50.8539949594
 20
457.5168268857
 30
0.0
 11
49.8539949594
 21
457.5168268857
 31
0.0
  0
LINE
  5
19A
330
75
100
AcDbEntity
  8
$DDT_AUDIT_GENERATED_(D9)
  6
Continuous
 62
     7
100
AcDbLine
 10
49.8539949594
 20
457.5168268857
 30
0.0
 11
49.8539949594
 21
457.7756459308
 31
0.0
  0
LINE
  5
19B
330
75
100
AcDbEntity
  8
$DDT_AUDIT_GENERATED_(D9)
  6
Continuous
 62
     7
100
AcDbLine
 10
44.8539949594
 20
458.086228785
 30
0.0
 11
44.8539949594
 21
457.8274097399
 31
0.0
  0
LINE
  5
19C
330
75
100
AcDbEntity
  8
$DDT_AUDIT_GENERATED_(D9)
  6
Continuous
 62
     7
100
AcDbLine
 10
45.0539949594
 20
458.086228785
 30
0.0
 11
46.0539949594
 21
458.086228785
 31
0.0
  0
LINE
  5
19D
330
75
100
AcDbEntity
  8
$DDT_AUDIT_GENERATED_(D9)
  6
Continuous
 62
     7
100
AcDbLine
 10
46.0539949594
 20
458.086228785
 30
0.0
 11
46.0539949594
 21
457.8274097399
 31
0.0
  0
LINE
  5
19E
330
75
100
AcDbEntity
  8
$DDT_AUDIT_GENERATED_(D9)
  6
Continuous
 62
     7
100
AcDbLine
 10
46.0539949594
 20
457.8274097399
 30
0.0
 11
45.0539949594
 21
457.8274097399
 31
0.0
  0
LINE
  5
19F
330
75
100
AcDbEntity
  8
$DDT_AUDIT_GENERATED_(D9)
  6
Continuous
 62
     7
100
AcDbLine
 10
45.0539949594
 20
457.8274097399
 30
0.0
 11
45.0539949594
 21
458.086228785
 31
0.0
  0
LINE
  5
1A0
330
75
100
AcDbEntity
  8
$DDT_AUDIT_GENERATED_(D9)
  6
Continuous
 62
     7
100
AcDbLine
 10
46.2539949594
 20
458.086228785
 30
0.0
 11
47.2539949594
 21
458.086228785
 31
0.0
  0
LINE
  5
1A1
330
75
100
AcDbEntity
  8
$DDT_AUDIT_GENERATED_(D9)
  6
Continuous
 62
     7
100
AcDbLine
 10
47.2539949594
 20
458.086228785
 30
0.0
 11
47.2539949594
 21
457.8274097399
 31
0.0
  0
LINE
  5
1A2
330
75
100
AcDbEntity
  8
$DDT_AUDIT_GENERATED_(D9)
  6
Continuous
 62
     7
100
AcDbLine
 10
47.2539949594
 20
457.8274097399
 30
0.0
 11
46.2539949594
 21
457.8274097399
 31
0.0
  0
LINE
  5
1A3
330
75
100
AcDbEntity
  8
$DDT_AUDIT_GENERATED_(D9)
  6
Continuous
 62
     7
100
AcDbLine
 10
46.2539949594
 20
457.8274097399
 30
0.0
 11
46.2539949594
 21
458.086228785
 31
0.0
  0
LINE
  5
1A4
330
75
100
AcDbEntity
  8
$DDT_AUDIT_GENERATED_(D9)
  6
Continuous
 62
     7
100
AcDbLine
 10
47.4539949594
 20
458.086228785
 30
0.0
 11
48.4539949594
 21
458.086228785
 31
0.0
  0
LINE
  5
1A5
330
75
100
AcDbEntity
  8
$DDT_AUDIT_GENERATED_(D9)
  6
Continuous
 62
     7
100
AcDbLine
 10
48.4539949594
 20
458.086228785
 30
0.0
 11
48.4539949594
 21
457.8274097399
 31
0.0
  0
LINE
  5
1A6
330
75
100
AcDbEntity
  8
$DDT_AUDIT_GENERATED_(D9)
  6
Continuous
 62
     7
100
AcDbLine
 10
48.4539949594
 20
457.8274097399
 30
0.0
 11
47.4539949594
 21
457.8274097399
 31
0.0
  0
LINE
  5
1A7
330
75
100
AcDbEntity
  8
$DDT_AUDIT_GENERATED_(D9)
  6
Continuous
 62
     7
100
AcDbLine
 10
47.4539949594
 20
457.8274097399
 30
0.0
 11
47.4539949594
 21
458.086228785
 31
0.0
  0
LINE
  5
1A8
330
75
100
AcDbEntity
  8
$DDT_AUDIT_GENERATED_(D9)
  6
Continuous
 62
     7
100
AcDbLine
 10
48.6539949594
 20
458.086228785
 30
0.0
 11
49.6539949594
 21
458.086228785
 31
0.0
  0
LINE
  5
1A9
330
75
100
AcDbEntity
  8
$DDT_AUDIT_GENERATED_(D9)
  6
Continuous
 62
     7
100
AcDbLine
 10
49.6539949594
 20
458.086228785
 30
0.0
 11
49.6539949594
 21
457.8274097399
 31
0.0
  0
LINE
  5
1AA
330
75
100
AcDbEntity
  8
$DDT_AUDIT_GENERATED_(D9)
  6
Continuous
 62
     7
100
AcDbLine
 10
49.6539949594
 20
457.8274097399
 30
0.0
 11
48.6539949594
 21
457.8274097399
 31
0.0
  0
LINE
  5
1AB
330
75
100
AcDbEntity
  8
$DDT_AUDIT_GENERATED_(D9)
  6
Continuous
 62
     7
100
AcDbLine
 10
48.6539949594
 20
457.8274097399
 30
0.0
 11
48.6539949594
 21
458.086228785
 31
0.0
  0
LINE
  5
1AC
330
75
100
AcDbEntity
  8
$DDT_AUDIT_GENERATED_(D9)
  6
Continuous
 62
     7
100
AcDbLine
 10
50.8539949594
 20
457.8570639202
 30
0.0
 11
50.8539949594
 21
457.8274097399
 31
0.0
  0
LINE
  5
1AD
330
75
100
AcDbEntity
  8
$DDT_AUDIT_GENERATED_(D9)
  6
Continuous
 62
     7
100
AcDbLine
 10
49.8539949594
 20
458.086228785
 30
0.0
 11
50.0521561437
 21
458.086228785
 31
0.0
  0
LINE
  5
1AE
330
75
100
AcDbEntity
  8
$DDT_AUDIT_GENERATED_(D9)
  6
Continuous
 62
     7
100
AcDbLine
 10
50.8539949594
 20
457.8274097399
 30
0.0
 11
49.8539949594
 21
457.8274097399
 31
0.0
  0
LINE
  5
1AF
330
75
100
AcDbEntity
  8
$DDT_AUDIT_GENERATED_(D9)
  6
Continuous
 62
     7
100
AcDbLine
 10
49.8539949594
 20
457.8274097399
 30
0.0
 11
49.8539949594
 21
458.086228785
 31
0.0
  0
LINE
  5
1B0
330
75
100
AcDbEntity
  8
$DDT_AUDIT_GENERATED_(D9)
  6
Continuous
 62
     7
100
AcDbLine
 10
44.8539949594
 20
458.3968116391
 30
0.0
 11
44.8539949594
 21
458.137992594
 31
0.0
  0
LINE
  5
1B1
330
75
100
AcDbEntity
  8
$DDT_AUDIT_GENERATED_(D9)
  6
Continuous
 62
     7
100
AcDbLine
 10
45.0539949594
 20
458.3968116391
 30
0.0
 11
46.0539949594
 21
458.3968116391
 31
0.0
  0
LINE
  5
1B2
330
75
100
AcDbEntity
  8
$DDT_AUDIT_GENERATED_(D9)
  6
Continuous
 62
     7
100
AcDbLine
 10
46.0539949594
 20
458.3968116391
 30
0.0
 11
46.0539949594
 21
458.137992594
 31
0.0
  0
LINE
  5
1B3
330
75
100
AcDbEntity
  8
$DDT_AUDIT_GENERATED_(D9)
  6
Continuous
 62
     7
100
AcDbLine
 10
46.0539949594
 20
458.137992594
 30
0.0
 11
45.0539949594
 21
458.137992594
 31
0.0
  0
LINE
  5
1B4
330
75
100
AcDbEntity
  8
$DDT_AUDIT_GENERATED_(D9)
  6
Continuous
 62
     7
100
AcDbLine
 10
45.0539949594
 20
458.137992594
 30
0.0
 11
45.0539949594
 21
458.3968116391
 31
0.0
  0
LINE
  5
1B5
330
75
100
AcDbEntity
  8
$DDT_AUDIT_GENERATED_(D9)
  6
Continuous
 62
     7
100
AcDbLine
 10
46.2539949594
 20
458.3968116391
 30
0.0
 11
47.2539949594
 21
458.3968116391
 31
0.0
  0
LINE
  5
1B6
330
75
100
AcDbEntity
  8
$DDT_AUDIT_GENERATED_(D9)
  6
Continuous
 62
     7
100
AcDbLine
 10
47.2539949594
 20
458.3968116391
 30
0.0
 11
47.2539949594
 21
458.137992594
 31
0.0
  0
LINE
  5
1B7
330
75
100
AcDbEntity
  8
$DDT_AUDIT_GENERATED_(D9)
  6
Continuous
 62
     7
100
AcDbLine
 10
47.2539949594
 20
458.137992594
 30
0.0
 11
46.2539949594
 21
458.137992594
 31
0.0
  0
LINE
  5
1B8
330
75
100
AcDbEntity
  8
$DDT_AUDIT_GENERATED_(D9)
  6
Continuous
 62
     7
100
AcDbLine
 10
46.2539949594
 20
458.137992594
 30
0.0
 11
46.2539949594
 21
458.3968116391
 31
0.0
  0
LINE
  5
1B9
330
75
100
AcDbEntity
  8
$DDT_AUDIT_GENERATED_(D9)
  6
Continuous
 62
     7
100
AcDbLine
 10
47.4539949594
 20
458.3968116391
 30
0.0
 11
48.4418525783
 21
458.3968116391
 31
0.0
  0
LINE
  5
1BA
330
75
100
AcDbEntity
  8
$DDT_AUDIT_GENERATED_(D9)
  6
Continuous
 62
     7
100
AcDbLine
 10
48.4539949594
 20
458.3950153659
 30
0.0
 11
48.4539949594
 21
458.137992594
 31
0.0
  0
LINE
  5
1BB
330
75
100
AcDbEntity
  8
$DDT_AUDIT_GENERATED_(D9)
  6
Continuous
 62
     7
100
AcDbLine
 10
48.4539949594
 20
458.137992594
 30
0.0
 11
47.4539949594
 21
458.137992594
 31
0.0
  0
LINE
  5
1BC
330
75
100
AcDbEntity
  8
$DDT_AUDIT_GENERATED_(D9)
  6
Continuous
 62
     7
100
AcDbLine
 10
47.4539949594
 20
458.137992594
 30
0.0
 11
47.4539949594
 21
458.3968116391
 31
0.0
  0
LINE
  5
1BD
330
75
100
AcDbEntity
  8
$DDT_AUDIT_GENERATED_(D9)
  6
Continuous
 62
     7
100
AcDbLine
 10
49.6539949594
 20
458.1784603692
 30
0.0
 11
49.6539949594
 21
458.137992594
 31
0.0
  0
LINE
  5
1BE
330
75
100
AcDbEntity
  8
$DDT_AUDIT_GENERATED_(D9)
  6
Continuous
 62
     7
100
AcDbLine
 10
49.6539949594
 20
458.137992594
 30
0.0
 11
48.6539949594
 21
458.137992594
 31
0.0
  0
LINE
  5
1BF
330
75
100
AcDbEntity
  8
$DDT_AUDIT_GENERATED_(D9)
  6
Continuous
 62
     7
100
AcDbLine
 10
48.6539949594
 20
458.137992594
 30
0.0
 11
48.6539949594
 21
458.3643942176
 31
0.0
  0
LINE
  5
1C0
330
75
100
AcDbEntity
  8
$DDT_AUDIT_GENERATED_(D9)
  6
Continuous
 62
     7
100
AcDbLine
 10
44.8539949594
 20
458.6734398007
 30
0.0
 11
44.8539949594
 21
458.4485754481
 31
0.0
  0
LINE
  5
1C1
330
75
100
AcDbEntity
  8
$DDT_AUDIT_GENERATED_(D9)
  6
Continuous
 62
     7
100
AcDbLine
 10
46.0539949594
 20
458.6315406492
 30
0.0
 11
46.0539949594
 21
458.4485754481
 31
0.0
  0
LINE
  5
1C2
330
75
100
AcDbEntity
  8
$DDT_AUDIT_GENERATED_(D9)
  6
Continuous
 62
     7
100
AcDbLine
 10
46.0539949594
 20
458.4485754481
 30
0.0
 11
45.0539949594
 21
458.4485754481
 31
0.0
  0
LINE
  5
1C3
330
75
100
AcDbEntity
  8
$DDT_AUDIT_GENERATED_(D9)
  6
Continuous
 62
     7
100
AcDbLine
 10
45.0539949594
 20
458.4485754481
 30
0.0
 11
45.0539949594
 21
458.669664884
 31
0.0
  0
LINE
  5
1C4
330
75
100
AcDbEntity
  8
$DDT_AUDIT_GENERATED_(D9)
  6
Continuous
 62
     7
100
AcDbLine
 10
47.2539949594
 20
458.5410974818
 30
0.0
 11
47.2539949594
 21
458.4485754481
 31
0.0
  0
LINE
  5
1C5
330
75
100
AcDbEntity
  8
$DDT_AUDIT_GENERATED_(D9)
  6
Continuous
 62
     7
100
AcDbLine
 10
47.2539949594
 20
458.4485754481
 30
0.0
 11
46.2539949594
 21
458.4485754481
 31
0.0
  0
LINE
  5
1C6
330
75
100
AcDbEntity
  8
$DDT_AUDIT_GENERATED_(D9)
  6
Continuous
 62
     7
100
AcDbLine
 10
46.2539949594
 20
458.4485754481
 30
0.0
 11
46.2539949594
 21
458.6199669812
 31
0.0
  0
LINE
  5
1C7
330
75
100
AcDbEntity
  8
$DDT_AUDIT_GENERATED_(D9)
  6
Continuous
 62
     7
100
AcDbLine
 10
48.0693912708
 20
458.4485754481
 30
0.0
 11
47.4539949594
 21
458.4485754481
 31
0.0
  0
LINE
  5
1C8
330
75
100
AcDbEntity
  8
$DDT_AUDIT_GENERATED_(D9)
  6
Continuous
 62
     7
100
AcDbLine
 10
47.4539949594
 20
458.4485754481
 30
0.0
 11
47.4539949594
 21
458.5208889882
 31
0.0
  0
LINE
  5
1C9
330
75
100
AcDbEntity
  8
$DDT_AUDIT_GENERATED_(D9)
  6
Continuous
 62
     7
100
AcDbLine
 10
51.0539949594
 20
457.7756459308
 30
0.0
 11
51.0880503387
 21
457.7756459308
 31
0.0
  0
LINE
  5
1CA
330
75
100
AcDbEntity
  8
$DDT_AUDIT_GENERATED_(D9)
  6
Continuous
 62
     7
100
AcDbLine
 10
51.6942642091
 20
457.5168268857
 30
0.0
 11
51.0539949594
 21
457.5168268857
 31
0.0
  0
LINE
  5
1CB
330
75
100
AcDbEntity
  8
$DDT_AUDIT_GENERATED_(D9)
  6
Continuous
 62
     7
100
AcDbLine
 10
51.0539949594
 20
457.5168268857
 30
0.0
 11
51.0539949594
 21
457.7756459308
 31
0.0
  0
LINE
  5
1CC
330
75
100
AcDbEntity
  8
$DDT_AUDIT_GENERATED_(D9)
  6
Continuous
 62
     7
100
AcDbLine
 10
52.2539949594
 20
456.8956611775
 30
0.0
 11
52.2539949594
 21
457.1544802226
 31
0.0
  0
LINE
  5
1CD
330
75
100
AcDbEntity
  8
$DDT_AUDIT_GENERATED_(D9)
  6
Continuous
 62
     7
100
AcDbLine
 10
52.2539949594
 20
457.1544802226
 30
0.0
 11
52.2574387524
 21
457.1544802226
 31
0.0
  0
LINE
  5
1CE
330
75
100
AcDbEntity
  8
$DDT_AUDIT_GENERATED_(D9)
  6
Continuous
 62
     7
100
AcDbLine
 10
44.8539949594
 20
456.8956611775
 30
0.0
 11
43.8539949594
 21
456.8956611775
 31
0.0
  0
LINE
  5
1CF
330
75
100
AcDbEntity
  8
$DDT_AUDIT_GENERATED_(D9)
  6
Continuous
 62
     7
100
AcDbLine
 10
44.8539949594
 20
456.8438973685
 30
0.0
 11
44.8539949594
 21
456.5850783234
 31
0.0
  0
LINE
  5
1D0
330
75
100
AcDbEntity
  8
$DDT_AUDIT_GENERATED_(D9)
  6
Continuous
 62
     7
100
AcDbLine
 10
44.8539949594
 20
456.5850783234
 30
0.0
 11
43.8539949594
 21
456.5850783234
 31
0.0
  0
LINE
  5
1D1
330
75
100
AcDbEntity
  8
$DDT_AUDIT_GENERATED_(D9)
  6
Continuous
 62
     7
100
AcDbLine
 10
43.8539949594
 20
456.8438973685
 30
0.0
 11
44.8539949594
 21
456.8438973685
 31
0.0
  0
LINE
  5
1D2
330
75
100
AcDbEntity
  8
$DDT_AUDIT_GENERATED_(D9)
  6
Continuous
 62
     7
100
AcDbLine
 10
44.8539949594
 20
456.5333145144
 30
0.0
 11
44.8539949594
 21
456.2744954693
 31
0.0
  0
LINE
  5
1D3
330
75
100
AcDbEntity
  8
$DDT_AUDIT_GENERATED_(D9)
  6
Continuous
 62
     7
100
AcDbLine
 10
44.8539949594
 20
456.2744954693
 30
0.0
 11
43.8539949594
 21
456.2744954693
 31
0.0
  0
LINE
  5
1D4
330
75
100
AcDbEntity
  8
$DDT_AUDIT_GENERATED_(D9)
  6
Continuous
 62
     7
100
AcDbLine
 10
43.8539949594
 20
456.5333145144
 30
0.0
 11
44.8539949594
 21
456.5333145144
 31
0.0
  0
LINE
  5
1D5
330
75
100
AcDbEntity
  8
$DDT_AUDIT_GENERATED_(D9)
  6
Continuous
 62
     7
100
AcDbLine
 10
44.8539949594
 20
456.2227316602
 30
0.0
 11
44.8539949594
 21
455.9639126151
 31
0.0
  0
LINE
  5
1D6
330
75
100
AcDbEntity
  8
$DDT_AUDIT_GENERATED_(D9)
  6
Continuous
 62
     7
100
AcDbLine
 10
44.8539949594
 20
455.9639126151
 30
0.0
 11
43.8539949594
 21
455.9639126151
 31
0.0
  0
LINE
  5
1D7
330
75
100
AcDbEntity
  8
$DDT_AUDIT_GENERATED_(D9)
  6
Continuous
 62
     7
100
AcDbLine
 10
43.8539949594
 20
456.2227316602
 30
0.0
 11
44.8539949594
 21
456.2227316602
 31
0.0
  0
LINE
  5
1D8
330
75
100
AcDbEntity
  8
$DDT_AUDIT_GENERATED_(D9)
  6
Continuous
 62
     7
100
AcDbLine
 10
44.8539949594
 20
455.9121488061
 30
0.0
 11
44.8539949594
 21
455.653329761
 31
0.0
  0
LINE
  5
1D9
330
75
100
AcDbEntity
  8
$DDT_AUDIT_GENERATED_(D9)
  6
Continuous
 62
     7
100
AcDbLine
 10
44.8539949594
 20
455.653329761
 30
0.0
 11
43.8539949594
 21
455.653329761
 31
0.0
  0
LINE
  5
1DA
330
75
100
AcDbEntity
  8
$DDT_AUDIT_GENERATED_(D9)
  6
Continuous
 62
     7
100
AcDbLine
 10
43.8539949594
 20
455.9121488061
 30
0.0
 11
44.8539949594
 21
455.9121488061
 31
0.0
  0
LINE
  5
1DB
330
75
100
AcDbEntity
  8
$DDT_AUDIT_GENERATED_(D9)
  6
Continuous
 62
     7
100
AcDbLine
 10
44.8539949594
 20
455.601565952
 30
0.0
 11
44.8539949594
 21
455.3427469069
 31
0.0
  0
LINE
  5
1DC
330
75
100
AcDbEntity
  8
$DDT_AUDIT_GENERATED_(D9)
  6
Continuous
 62
     7
100
AcDbLine
 10
44.8539949594
 20
455.3427469069
 30
0.0
 11
43.8539949594
 21
455.3427469069
 31
0.0
  0
LINE
  5
1DD
330
75
100
AcDbEntity
  8
$DDT_AUDIT_GENERATED_(D9)
  6
Continuous
 62
     7
100
AcDbLine
 10
43.8539949594
 20
455.601565952
 30
0.0
 11
44.8539949594
 21
455.601565952
 31
0.0
  0
LINE
  5
1DE
330
75
100
AcDbEntity
  8
$DDT_AUDIT_GENERATED_(D9)
  6
Continuous
 62
     7
100
AcDbLine
 10
44.8539949594
 20
455.0321640528
 30
0.0
 11
43.8539949594
 21
455.0321640528
 31
0.0
  0
LINE
  5
1DF
330
75
100
AcDbEntity
  8
$DDT_AUDIT_GENERATED_(D9)
  6
Continuous
 62
     7
100
AcDbLine
 10
44.8539949594
 20
455.2909830979
 30
0.0
 11
44.8539949594
 21
455.0321640528
 31
0.0
  0
LINE
  5
1E0
330
75
100
AcDbEntity
  8
$DDT_AUDIT_GENERATED_(D9)
  6
Continuous
 62
     7
100
AcDbLine
 10
43.8539949594
 20
455.2909830979
 30
0.0
 11
44.8539949594
 21
455.2909830979
 31
0.0
  0
LINE
  5
1E1
330
75
100
AcDbEntity
  8
$DDT_AUDIT_GENERATED_(D9)
  6
Continuous
 62
     7
100
AcDbLine
 10
46.0539949594
 20
456.8956611775
 30
0.0
 11
45.0539949594
 21
456.8956611775
 31
0.0
  0
LINE
  5
1E2
330
75
100
AcDbEntity
  8
$DDT_AUDIT_GENERATED_(D9)
  6
Continuous
 62
     7
100
AcDbLine
 10
46.0539949594
 20
456.8438973685
 30
0.0
 11
46.0539949594
 21
456.5850783234
 31
0.0
  0
LINE
  5
1E3
330
75
100
AcDbEntity
  8
$DDT_AUDIT_GENERATED_(D9)
  6
Continuous
 62
     7
100
AcDbLine
 10
46.0539949594
 20
456.5850783234
 30
0.0
 11
45.0539949594
 21
456.5850783234
 31
0.0
  0
LINE
  5
1E4
330
75
100
AcDbEntity
  8
$DDT_AUDIT_GENERATED_(D9)
  6
Continuous
 62
     7
100
AcDbLine
 10
45.0539949594
 20
456.5850783234
 30
0.0
 11
45.0539949594
 21
456.8438973685
 31
0.0
  0
LINE
  5
1E5
330
75
100
AcDbEntity
  8
$DDT_AUDIT_GENERATED_(D9)
  6
Continuous
 62
     7
100
AcDbLine
 10
45.0539949594
 20
456.8438973685
 30
0.0
 11
46.0539949594
 21
456.8438973685
 31
0.0
  0
LINE
  5
1E6
330
75
100
AcDbEntity
  8
$DDT_AUDIT_GENERATED_(D9)
  6
Continuous
 62
     7
100
AcDbLine
 10
46.0539949594
 20
456.5333145144
 30
0.0
 11
46.0539949594
 21
456.2744954693
 31
0.0
  0
LINE
  5
1E7
330
75
100
AcDbEntity
  8
$DDT_AUDIT_GENERATED_(D9)
  6
Continuous
 62
     7
100
AcDbLine
 10
46.0539949594
 20
456.2744954693
 30
0.0
 11
45.0539949594
 21
456.2744954693
 31
0.0
  0
LINE
  5
1E8
330
75
100
AcDbEntity
  8
$DDT_AUDIT_GENERATED_(D9)
  6
Continuous
 62
     7
100
AcDbLine
 10
45.0539949594
 20
456.2744954693
 30
0.0
 11
45.0539949594
 21
456.5333145144
 31
0.0
  0
LINE
  5
1E9
330
75
100
AcDbEntity
  8
$DDT_AUDIT_GENERATED_(D9)
  6
Continuous
 62
     7
100
AcDbLine
 10
45.0539949594
 20
456.5333145144
 30
0.0
 11
46.0539949594
 21
456.5333145144
 31
0.0
  0
LINE
  5
1EA
330
75
100
AcDbEntity
  8
$DDT_AUDIT_GENERATED_(D9)
  6
Continuous
 62
     7
100
AcDbLine
 10
46.0539949594
 20
456.2227316602
 30
0.0
 11
46.0539949594
 21
455.9639126151
 31
0.0
  0
LINE
  5
1EB
330
75
100
AcDbEntity
  8
$DDT_AUDIT_GENERATED_(D9)
  6
Continuous
 62
     7
100
AcDbLine
 10
46.0539949594
 20
455.9639126151
 30
0.0
 11
45.0539949594
 21
455.9639126151
 31
0.0
  0
LINE
  5
1EC
330
75
100
AcDbEntity
  8
$DDT_AUDIT_GENERATED_(D9)
  6
Continuous
 62
     7
100
AcDbLine
 10
45.0539949594
 20
455.9639126151
 30
0.0
 11
45.0539949594
 21
456.2227316602
 31
0.0
  0
LINE
  5
1ED
330
75
100
AcDbEntity
  8
$DDT_AUDIT_GENERATED_(D9)
  6
Continuous
 62
     7
100
AcDbLine
 10
45.0539949594
 20
456.2227316602
 30
0.0
 11
46.0539949594
 21
456.2227316602
 31
0.0
  0
LINE
  5
1EE
330
75
100
AcDbEntity
  8
$DDT_AUDIT_GENERATED_(D9)
  6
Continuous
 62
     7
100
AcDbLine
 10
46.0539949594
 20
455.9121488061
 30
0.0
 11
46.0539949594
 21
455.653329761
 31
0.0
  0
LINE
  5
1EF
330
75
100
AcDbEntity
  8
$DDT_AUDIT_GENERATED_(D9)
  6
Continuous
 62
     7
100
AcDbLine
 10
46.0539949594
 20
455.653329761
 30
0.0
 11
45.0539949594
 21
455.653329761
 31
0.0
  0
LINE
  5
1F0
330
75
100
AcDbEntity
  8
$DDT_AUDIT_GENERATED_(D9)
  6
Continuous
 62
     7
100
AcDbLine
 10
45.0539949594
 20
455.653329761
 30
0.0
 11
45.0539949594
 21
455.9121488061
 31
0.0
  0
LINE
  5
1F1
330
75
100
AcDbEntity
  8
$DDT_AUDIT_GENERATED_(D9)
  6
Continuous
 62
     7
100
AcDbLine
 10
45.0539949594
 20
455.9121488061
 30
0.0
 11
46.0539949594
 21
455.9121488061
 31
0.0
  0
LINE
  5
1F2
330
75
100
AcDbEntity
  8
$DDT_AUDIT_GENERATED_(D9)
  6
Continuous
 62
     7
100
AcDbLine
 10
46.0539949594
 20
455.601565952
 30
0.0
 11
46.0539949594
 21
455.3427469069
 31
0.0
  0
LINE
  5
1F3
330
75
100
AcDbEntity
  8
$DDT_AUDIT_GENERATED_(D9)
  6
Continuous
 62
     7
100
AcDbLine
 10
46.0539949594
 20
455.3427469069
 30
0.0
 11
45.0539949594
 21
455.3427469069
 31
0.0
  0
LINE
  5
1F4
330
75
100
AcDbEntity
  8
$DDT_AUDIT_GENERATED_(D9)
  6
Continuous
 62
     7
100
AcDbLine
 10
45.0539949594
 20
455.3427469069
 30
0.0
 11
45.0539949594
 21
455.601565952
 31
0.0
  0
LINE
  5
1F5
330
75
100
AcDbEntity
  8
$DDT_AUDIT_GENERATED_(D9)
  6
Continuous
 62
     7
100
AcDbLine
 10
45.0539949594
 20
455.601565952
 30
0.0
 11
46.0539949594
 21
455.601565952
 31
0.0
  0
LINE
  5
1F6
330
75
100
AcDbEntity
  8
$DDT_AUDIT_GENERATED_(D9)
  6
Continuous
 62
     7
100
AcDbLine
 10
46.0539949594
 20
455.2909830979
 30
0.0
 11
46.0539949594
 21
455.0321640528
 31
0.0
  0
LINE
  5
1F7
330
75
100
AcDbEntity
  8
$DDT_AUDIT_GENERATED_(D9)
  6
Continuous
 62
     7
100
AcDbLine
 10
46.0539949594
 20
455.0321640528
 30
0.0
 11
45.0539949594
 21
455.0321640528
 31
0.0
  0
LINE
  5
1F8
330
75
100
AcDbEntity
  8
$DDT_AUDIT_GENERATED_(D9)
  6
Continuous
 62
     7
100
AcDbLine
 10
45.0539949594
 20
455.0321640528
 30
0.0
 11
45.0539949594
 21
455.2909830979
 31
0.0
  0
LINE
  5
1F9
330
75
100
AcDbEntity
  8
$DDT_AUDIT_GENERATED_(D9)
  6
Continuous
 62
     7
100
AcDbLine
 10
45.0539949594
 20
455.2909830979
 30
0.0
 11
46.0539949594
 21
455.2909830979
 31
0.0
  0
LINE
  5
1FA
330
75
100
AcDbEntity
  8
$DDT_AUDIT_GENERATED_(D9)
  6
Continuous
 62
     7
100
AcDbLine
 10
47.2539949594
 20
456.8956611775
 30
0.0
 11
46.2539949594
 21
456.8956611775
 31
0.0
  0
LINE
  5
1FB
330
75
100
AcDbEntity
  8
$DDT_AUDIT_GENERATED_(D9)
  6
Continuous
 62
     7
100
AcDbLine
 10
47.2539949594
 20
456.8438973685
 30
0.0
 11
47.2539949594
 21
456.5850783234
 31
0.0
  0
LINE
  5
1FC
330
75
100
AcDbEntity
  8
$DDT_AUDIT_GENERATED_(D9)
  6
Continuous
 62
     7
100
AcDbLine
 10
47.2539949594
 20
456.5850783234
 30
0.0
 11
46.2539949594
 21
456.5850783234
 31
0.0
  0
LINE
  5
1FD
330
75
100
AcDbEntity
  8
$DDT_AUDIT_GENERATED_(D9)
  6
Continuous
 62
     7
100
AcDbLine
 10
46.2539949594
 20
456.5850783234
 30
0.0
 11
46.2539949594
 21
456.8438973685
 31
0.0
  0
LINE
  5
1FE
330
75
100
AcDbEntity
  8
$DDT_AUDIT_GENERATED_(D9)
  6
Continuous
 62
     7
100
AcDbLine
 10
46.2539949594
 20
456.8438973685
 30
0.0
 11
47.2539949594
 21
456.8438973685
 31
0.0
  0
LINE
  5
1FF
330
75
100
AcDbEntity
  8
$DDT_AUDIT_GENERATED_(D9)
  6
Continuous
 62
     7
100
AcDbLine
 10
47.2539949594
 20
456.5333145144
 30
0.0
 11
47.2539949594
 21
456.2744954693
 31
0.0
  0
LINE
  5
200
330
75
100
AcDbEntity
  8
$DDT_AUDIT_GENERATED_(D9)
  6
Continuous
 62
     7
100
AcDbLine
 10
47.2539949594
 20
456.2744954693
 30
0.0
 11
46.2539949594
 21
456.2744954693
 31
0.0
  0
LINE
  5
201
330
75
100
AcDbEntity
  8
$DDT_AUDIT_GENERATED_(D9)
  6
Continuous
 62
     7
100
AcDbLine
 10
46.2539949594
 20
456.2744954693
 30
0.0
 11
46.2539949594
 21
456.5333145144
 31
0.0
  0
LINE
  5
202
330
75
100
AcDbEntity
  8
$DDT_AUDIT_GENERATED_(D9)
  6
Continuous
 62
     7
100
AcDbLine
 10
46.2539949594
 20
456.5333145144
 30
0.0
 11
47.2539949594
 21
456.5333145144
 31
0.0
  0
LINE
  5
203
330
75
100
AcDbEntity
  8
$DDT_AUDIT_GENERATED_(D9)
  6
Continuous
 62
     7
100
AcDbLine
 10
47.2539949594
 20
456.2227316602
 30
0.0
 11
47.2539949594
 21
455.9639126151
 31
0.0
  0
LINE
  5
204
330
75
100
AcDbEntity
  8
$DDT_AUDIT_GENERATED_(D9)
  6
Continuous
 62
     7
100
AcDbLine
 10
47.2539949594
 20
455.9639126151
 30
0.0
 11
46.2539949594
 21
455.9639126151
 31
0.0
  0
LINE
  5
205
330
75
100
AcDbEntity
  8
$DDT_AUDIT_GENERATED_(D9)
  6
Continuous
 62
     7
100
AcDbLine
 10
46.2539949594
 20
455.9639126151
 30
0.0
 11
46.2539949594
 21
456.2227316602
 31
0.0
  0
LINE
  5
206
330
75
100
AcDbEntity
  8
$DDT_AUDIT_GENERATED_(D9)
  6
Continuous
 62
     7
100
AcDbLine
 10
46.2539949594
 20
456.2227316602
 30
0.0
 11
47.2539949594
 21
456.2227316602
 31
0.0
  0
LINE
  5
207
330
75
100
AcDbEntity
  8
$DDT_AUDIT_GENERATED_(D9)
  6
Continuous
 62
     7
100
AcDbLine
 10
47.2539949594
 20
455.9121488061
 30
0.0
 11
47.2539949594
 21
455.653329761
 31
0.0
  0
LINE
  5
208
330
75
100
AcDbEntity
  8
$DDT_AUDIT_GENERATED_(D9)
  6
Continuous
 62
     7
100
AcDbLine
 10
47.2539949594
 20
455.653329761
 30
0.0
 11
46.2539949594
 21
455.653329761
 31
0.0
  0
LINE
  5
209
330
75
100
AcDbEntity
  8
$DDT_AUDIT_GENERATED_(D9)
  6
Continuous
 62
     7
100
AcDbLine
 10
46.2539949594
 20
455.653329761
 30
0.0
 11
46.2539949594
 21
455.9121488061
 31
0.0
  0
LINE
  5
20A
330
75
100
AcDbEntity
  8
$DDT_AUDIT_GENERATED_(D9)
  6
Continuous
 62
     7
100
AcDbLine
 10
46.2539949594
 20
455.9121488061
 30
0.0
 11
47.2539949594
 21
455.9121488061
 31
0.0
  0
LINE
  5
20B
330
75
100
AcDbEntity
  8
$DDT_AUDIT_GENERATED_(D9)
  6
Continuous
 62
     7
100
AcDbLine
 10
47.2539949594
 20
455.601565952
 30
0.0
 11
47.2539949594
 21
455.3427469069
 31
0.0
  0
LINE
  5
20C
330
75
100
AcDbEntity
  8
$DDT_AUDIT_GENERATED_(D9)
  6
Continuous
 62
     7
100
AcDbLine
 10
47.2539949594
 20
455.3427469069
 30
0.0
 11
46.2539949594
 21
455.3427469069
 31
0.0
  0
LINE
  5
20D
330
75
100
AcDbEntity
  8
$DDT_AUDIT_GENERATED_(D9)
  6
Continuous
 62
     7
100
AcDbLine
 10
46.2539949594
 20
455.3427469069
 30
0.0
 11
46.2539949594
 21
455.601565952
 31
0.0
  0
LINE
  5
20E
330
75
100
AcDbEntity
  8
$DDT_AUDIT_GENERATED_(D9)
  6
Continuous
 62
     7
100
AcDbLine
 10
46.2539949594
 20
455.601565952
 30
0.0
 11
47.2539949594
 21
455.601565952
 31
0.0
  0
LINE
  5
20F
330
75
100
AcDbEntity
  8
$DDT_AUDIT_GENERATED_(D9)
  6
Continuous
 62
     7
100
AcDbLine
 10
48.4539949594
 20
456.8956611775
 30
0.0
 11
47.4539949594
 21
456.8956611775
 31
0.0
  0
LINE
  5
210
330
75
100
AcDbEntity
  8
$DDT_AUDIT_GENERATED_(D9)
  6
Continuous
 62
     7
100
AcDbLine
 10
48.4539949594
 20
456.8438973685
 30
0.0
 11
48.4539949594
 21
456.5850783234
 31
0.0
  0
LINE
  5
211
330
75
100
AcDbEntity
  8
$DDT_AUDIT_GENERATED_(D9)
  6
Continuous
 62
     7
100
AcDbLine
 10
48.4539949594
 20
456.5850783234
 30
0.0
 11
47.4539949594
 21
456.5850783234
 31
0.0
  0
LINE
  5
212
330
75
100
AcDbEntity
  8
$DDT_AUDIT_GENERATED_(D9)
  6
Continuous
 62
     7
100
AcDbLine
 10
47.4539949594
 20
456.5850783234
 30
0.0
 11
47.4539949594
 21
456.8438973685
 31
0.0
  0
LINE
  5
213
330
75
100
AcDbEntity
  8
$DDT_AUDIT_GENERATED_(D9)
  6
Continuous
 62
     7
100
AcDbLine
 10
47.4539949594
 20
456.8438973685
 30
0.0
 11
48.4539949594
 21
456.8438973685
 31
0.0
  0
LINE
  5
214
330
75
100
AcDbEntity
  8
$DDT_AUDIT_GENERATED_(D9)
  6
Continuous
 62
     7
100
AcDbLine
 10
48.4539949594
 20
456.5333145144
 30
0.0
 11
48.4539949594
 21
456.2744954693
 31
0.0
  0
LINE
  5
215
330
75
100
AcDbEntity
  8
$DDT_AUDIT_GENERATED_(D9)
  6
Continuous
 62
     7
100
AcDbLine
 10
48.4539949594
 20
456.2744954693
 30
0.0
 11
47.4539949594
 21
456.2744954693
 31
0.0
  0
LINE
  5
216
330
75
100
AcDbEntity
  8
$DDT_AUDIT_GENERATED_(D9)
  6
Continuous
 62
     7
100
AcDbLine
 10
47.4539949594
 20
456.2744954693
 30
0.0
 11
47.4539949594
 21
456.5333145144
 31
0.0
  0
LINE
  5
217
330
75
100
AcDbEntity
  8
$DDT_AUDIT_GENERATED_(D9)
  6
Continuous
 62
     7
100
AcDbLine
 10
47.4539949594
 20
456.5333145144
 30
0.0
 11
48.4539949594
 21
456.5333145144
 31
0.0
  0
LINE
  5
218
330
75
100
AcDbEntity
  8
$DDT_AUDIT_GENERATED_(D9)
  6
Continuous
 62
     7
100
AcDbLine
 10
48.4539949594
 20
456.2227316602
 30
0.0
 11
48.4539949594
 21
455.9639126151
 31
0.0
  0
LINE
  5
219
330
75
100
AcDbEntity
  8
$DDT_AUDIT_GENERATED_(D9)
  6
Continuous
 62
     7
100
AcDbLine
 10
48.4539949594
 20
455.9639126151
 30
0.0
 11
47.4539949594
 21
455.9639126151
 31
0.0
  0
LINE
  5
21A
330
75
100
AcDbEntity
  8
$DDT_AUDIT_GENERATED_(D9)
  6
Continuous
 62
     7
100
AcDbLine
 10
47.4539949594
 20
455.9639126151
 30
0.0
 11
47.4539949594
 21
456.2227316602
 31
0.0
  0
LINE
  5
21B
330
75
100
AcDbEntity
  8
$DDT_AUDIT_GENERATED_(D9)
  6
Continuous
 62
     7
100
AcDbLine
 10
47.4539949594
 20
456.2227316602
 30
0.0
 11
48.4539949594
 21
456.2227316602
 31
0.0
  0
LINE
  5
21C
330
75
100
AcDbEntity
  8
$DDT_AUDIT_GENERATED_(D9)
  6
Continuous
 62
     7
100
AcDbLine
 10
48.4539949594
 20
455.9121488061
 30
0.0
 11
48.4539949594
 21
455.653329761
 31
0.0
  0
LINE
  5
21D
330
75
100
AcDbEntity
  8
$DDT_AUDIT_GENERATED_(D9)
  6
Continuous
 62
     7
100
AcDbLine
 10
48.4539949594
 20
455.653329761
 30
0.0
 11
47.4539949594
 21
455.653329761
 31
0.0
  0
LINE
  5
21E
330
75
100
AcDbEntity
  8
$DDT_AUDIT_GENERATED_(D9)
  6
Continuous
 62
     7
100
AcDbLine
 10
47.4539949594
 20
455.653329761
 30
0.0
 11
47.4539949594
 21
455.9121488061
 31
0.0
  0
LINE
  5
21F
330
75
100
AcDbEntity
  8
$DDT_AUDIT_GENERATED_(D9)
  6
Continuous
 62
     7
100
AcDbLine
 10
47.4539949594
 20
455.9121488061
 30
0.0
 11
48.4539949594
 21
455.9121488061
 31
0.0
  0
LINE
  5
220
330
75
100
AcDbEntity
  8
$DDT_AUDIT_GENERATED_(D9)
  6
Continuous
 62
     7
100
AcDbLine
 10
48.4539949594
 20
455.3427469069
 30
0.0
 11
47.4539949594
 21
455.3427469069
 31
0.0
  0
LINE
  5
221
330
75
100
AcDbEntity
  8
$DDT_AUDIT_GENERATED_(D9)
  6
Continuous
 62
     7
100
AcDbLine
 10
48.4539949594
 20
455.601565952
 30
0.0
 11
48.4539949594
 21
455.3427469069
 31
0.0
  0
LINE
  5
222
330
75
100
AcDbEntity
  8
$DDT_AUDIT_GENERATED_(D9)
  6
Continuous
 62
     7
100
AcDbLine
 10
47.4539949594
 20
455.3427469069
 30
0.0
 11
47.4539949594
 21
455.601565952
 31
0.0
  0
LINE
  5
223
330
75
100
AcDbEntity
  8
$DDT_AUDIT_GENERATED_(D9)
  6
Continuous
 62
     7
100
AcDbLine
 10
47.4539949594
 20
455.601565952
 30
0.0
 11
48.4539949594
 21
455.601565952
 31
0.0
  0
LINE
  5
224
330
75
100
AcDbEntity
  8
$DDT_AUDIT_GENERATED_(D9)
  6
Continuous
 62
     7
100
AcDbLine
 10
49.6539949594
 20
456.8956611775
 30
0.0
 11
48.6539949594
 21
456.8956611775
 31
0.0
  0
LINE
  5
225
330
75
100
AcDbEntity
  8
$DDT_AUDIT_GENERATED_(D9)
  6
Continuous
 62
     7
100
AcDbLine
 10
49.6539949594
 20
456.8438973685
 30
0.0
 11
49.6539949594
 21
456.5850783234
 31
0.0
  0
LINE
  5
226
330
75
100
AcDbEntity
  8
$DDT_AUDIT_GENERATED_(D9)
  6
Continuous
 62
     7
100
AcDbLine
 10
49.6539949594
 20
456.5850783234
 30
0.0
 11
48.6539949594
 21
456.5850783234
 31
0.0
  0
LINE
  5
227
330
75
100
AcDbEntity
  8
$DDT_AUDIT_GENERATED_(D9)
  6
Continuous
 62
     7
100
AcDbLine
 10
48.6539949594
 20
456.5850783234
 30
0.0
 11
48.6539949594
 21
456.8438973685
 31
0.0
  0
LINE
  5
228
330
75
100
AcDbEntity
  8
$DDT_AUDIT_GENERATED_(D9)
  6
Continuous
 62
     7
100
AcDbLine
 10
48.6539949594
 20
456.8438973685
 30
0.0
 11
49.6539949594
 21
456.8438973685
 31
0.0
  0
LINE
  5
229
330
75
100
AcDbEntity
  8
$DDT_AUDIT_GENERATED_(D9)
  6
Continuous
 62
     7
100
AcDbLine
 10
49.6539949594
 20
456.5333145144
 30
0.0
 11
49.6539949594
 21
456.2744954693
 31
0.0
  0
LINE
  5
22A
330
75
100
AcDbEntity
  8
$DDT_AUDIT_GENERATED_(D9)
  6
Continuous
 62
     7
100
AcDbLine
 10
49.6539949594
 20
456.2744954693
 30
0.0
 11
48.6539949594
 21
456.2744954693
 31
0.0
  0
LINE
  5
22B
330
75
100
AcDbEntity
  8
$DDT_AUDIT_GENERATED_(D9)
  6
Continuous
 62
     7
100
AcDbLine
 10
48.6539949594
 20
456.2744954693
 30
0.0
 11
48.6539949594
 21
456.5333145144
 31
0.0
  0
LINE
  5
22C
330
75
100
AcDbEntity
  8
$DDT_AUDIT_GENERATED_(D9)
  6
Continuous
 62
     7
100
AcDbLine
 10
48.6539949594
 20
456.5333145144
 30
0.0
 11
49.6539949594
 21
456.5333145144
 31
0.0
  0
LINE
  5
22D
330
75
100
AcDbEntity
  8
$DDT_AUDIT_GENERATED_(D9)
  6
Continuous
 62
     7
100
AcDbLine
 10
49.6539949594
 20
456.2227316602
 30
0.0
 11
49.6539949594
 21
455.9639126151
 31
0.0
  0
LINE
  5
22E
330
75
100
AcDbEntity
  8
$DDT_AUDIT_GENERATED_(D9)
  6
Continuous
 62
     7
100
AcDbLine
 10
49.6539949594
 20
455.9639126151
 30
0.0
 11
48.6539949594
 21
455.9639126151
 31
0.0
  0
LINE
  5
22F
330
75
100
AcDbEntity
  8
$DDT_AUDIT_GENERATED_(D9)
  6
Continuous
 62
     7
100
AcDbLine
 10
48.6539949594
 20
455.9639126151
 30
0.0
 11
48.6539949594
 21
456.2227316602
 31
0.0
  0
LINE
  5
230
330
75
100
AcDbEntity
  8
$DDT_AUDIT_GENERATED_(D9)
  6
Continuous
 62
     7
100
AcDbLine
 10
48.6539949594
 20
456.2227316602
 30
0.0
 11
49.6539949594
 21
456.2227316602
 31
0.0
  0
LINE
  5
231
330
75
100
AcDbEntity
  8
$DDT_AUDIT_GENERATED_(D9)
  6
Continuous
 62
     7
100
AcDbLine
 10
49.6539949594
 20
455.9121488061
 30
0.0
 11
49.6539949594
 21
455.653329761
 31
0.0
  0
LINE
  5
232
330
75
100
AcDbEntity
  8
$DDT_AUDIT_GENERATED_(D9)
  6
Continuous
 62
     7
100
AcDbLine
 10
49.6539949594
 20
455.653329761
 30
0.0
 11
48.6539949594
 21
455.653329761
 31
0.0
  0
LINE
  5
233
330
75
100
AcDbEntity
  8
$DDT_AUDIT_GENERATED_(D9)
  6
Continuous
 62
     7
100
AcDbLine
 10
48.6539949594
 20
455.653329761
 30
0.0
 11
48.6539949594
 21
455.9121488061
 31
0.0
  0
LINE
  5
234
330
75
100
AcDbEntity
  8
$DDT_AUDIT_GENERATED_(D9)
  6
Continuous
 62
     7
100
AcDbLine
 10
48.6539949594
 20
455.9121488061
 30
0.0
 11
49.6539949594
 21
455.9121488061
 31
0.0
  0
LINE
  5
235
330
75
100
AcDbEntity
  8
$DDT_AUDIT_GENERATED_(D9)
  6
Continuous
 62
     7
100
AcDbLine
 10
50.8539949594
 20
456.8956611775
 30
0.0
 11
49.8539949594
 21
456.8956611775
 31
0.0
  0
LINE
  5
236
330
75
100
AcDbEntity
  8
$DDT_AUDIT_GENERATED_(D9)
  6
Continuous
 62
     7
100
AcDbLine
 10
50.8539949594
 20
456.8438973685
 30
0.0
 11
50.8539949594
 21
456.5850783234
 31
0.0
  0
LINE
  5
237
330
75
100
AcDbEntity
  8
$DDT_AUDIT_GENERATED_(D9)
  6
Continuous
 62
     7
100
AcDbLine
 10
50.8539949594
 20
456.5850783234
 30
0.0
 11
49.8539949594
 21
456.5850783234
 31
0.0
  0
LINE
  5
238
330
75
100
AcDbEntity
  8
$DDT_AUDIT_GENERATED_(D9)
  6
Continuous
 62
     7
100
AcDbLine
 10
49.8539949594
 20
456.5850783234
 30
0.0
 11
49.8539949594
 21
456.8438973685
 31
0.0
  0
LINE
  5
239
330
75
100
AcDbEntity
  8
$DDT_AUDIT_GENERATED_(D9)
  6
Continuous
 62
     7
100
AcDbLine
 10
49.8539949594
 20
456.8438973685
 30
0.0
 11
50.8539949594
 21
456.8438973685
 31
0.0
  0
LINE
  5
23A
330
75
100
AcDbEntity
  8
$DDT_AUDIT_GENERATED_(D9)
  6
Continuous
 62
     7
100
AcDbLine
 10
50.8539949594
 20
456.5333145144
 30
0.0
 11
50.8539949594
 21
456.2744954693
 31
0.0
  0
LINE
  5
23B
330
75
100
AcDbEntity
  8
$DDT_AUDIT_GENERATED_(D9)
  6
Continuous
 62
     7
100
AcDbLine
 10
50.8539949594
 20
456.2744954693
 30
0.0
 11
49.8539949594
 21
456.2744954693
 31
0.0
  0
LINE
  5
23C
330
75
100
AcDbEntity
  8
$DDT_AUDIT_GENERATED_(D9)
  6
Continuous
 62
     7
100
AcDbLine
 10
49.8539949594
 20
456.2744954693
 30
0.0
 11
49.8539949594
 21
456.5333145144
 31
0.0
  0
LINE
  5
23D
330
75
100
AcDbEntity
  8
$DDT_AUDIT_GENERATED_(D9)
  6
Continuous
 62
     7
100
AcDbLine
 10
49.8539949594
 20
456.5333145144
 30
0.0
 11
50.8539949594
 21
456.5333145144
 31
0.0
  0
LINE
  5
23E
330
75
100
AcDbEntity
  8
$DDT_AUDIT_GENERATED_(D9)
  6
Continuous
 62
     7
100
AcDbLine
 10
50.8539949594
 20
456.2227316602
 30
0.0
 11
50.8539949594
 21
455.9639126151
 31
0.0
  0
LINE
  5
23F
330
75
100
AcDbEntity
  8
$DDT_AUDIT_GENERATED_(D9)
  6
Continuous
 62
     7
100
AcDbLine
 10
50.8539949594
 20
455.9639126151
 30
0.0
 11
49.8539949594
 21
455.9639126151
 31
0.0
  0
LINE
  5
240
330
75
100
AcDbEntity
  8
$DDT_AUDIT_GENERATED_(D9)
  6
Continuous
 62
     7
100
AcDbLine
 10
49.8539949594
 20
455.9639126151
 30
0.0
 11
49.8539949594
 21
456.2227316602
 31
0.0
  0
LINE
  5
241
330
75
100
AcDbEntity
  8
$DDT_AUDIT_GENERATED_(D9)
  6
Continuous
 62
     7
100
AcDbLine
 10
49.8539949594
 20
456.2227316602
 30
0.0
 11
50.8539949594
 21
456.2227316602
 31
0.0
  0
LINE
  5
242
330
75
100
AcDbEntity
  8
$DDT_AUDIT_GENERATED_(D9)
  6
Continuous
 62
     7
100
AcDbLine
 10
52.0539949594
 20
456.8956611775
 30
0.0
 11
51.0539949594
 21
456.8956611775
 31
0.0
  0
LINE
  5
243
330
75
100
AcDbEntity
  8
$DDT_AUDIT_GENERATED_(D9)
  6
Continuous
 62
     7
100
AcDbLine
 10
52.0539949594
 20
456.8438973685
 30
0.0
 11
52.0539949594
 21
456.5850783234
 31
0.0
  0
LINE
  5
244
330
75
100
AcDbEntity
  8
$DDT_AUDIT_GENERATED_(D9)
  6
Continuous
 62
     7
100
AcDbLine
 10
52.0539949594
 20
456.5850783234
 30
0.0
 11
51.0539949594
 21
456.5850783234
 31
0.0
  0
LINE
  5
245
330
75
100
AcDbEntity
  8
$DDT_AUDIT_GENERATED_(D9)
  6
Continuous
 62
     7
100
AcDbLine
 10
51.0539949594
 20
456.5850783234
 30
0.0
 11
51.0539949594
 21
456.8438973685
 31
0.0
  0
LINE
  5
246
330
75
100
AcDbEntity
  8
$DDT_AUDIT_GENERATED_(D9)
  6
Continuous
 62
     7
100
AcDbLine
 10
51.0539949594
 20
456.8438973685
 30
0.0
 11
52.0539949594
 21
456.8438973685
 31
0.0
  0
LINE
  5
247
330
75
100
AcDbEntity
  8
$DDT_AUDIT_GENERATED_(D9)
  6
Continuous
 62
     7
100
AcDbLine
 10
52.0539949594
 20
456.5333145144
 30
0.0
 11
52.0539949594
 21
456.2744954693
 31
0.0
  0
LINE
  5
248
330
75
100
AcDbEntity
  8
$DDT_AUDIT_GENERATED_(D9)
  6
Continuous
 62
     7
100
AcDbLine
 10
52.0539949594
 20
456.2744954693
 30
0.0
 11
51.0539949594
 21
456.2744954693
 31
0.0
  0
LINE
  5
249
330
75
100
AcDbEntity
  8
$DDT_AUDIT_GENERATED_(D9)
  6
Continuous
 62
     7
100
AcDbLine
 10
51.0539949594
 20
456.2744954693
 30
0.0
 11
51.0539949594
 21
456.5333145144
 31
0.0
  0
LINE
  5
24A
330
75
100
AcDbEntity
  8
$DDT_AUDIT_GENERATED_(D9)
  6
Continuous
 62
     7
100
AcDbLine
 10
51.0539949594
 20
456.5333145144
 30
0.0
 11
52.0539949594
 21
456.5333145144
 31
0.0
  0
LINE
  5
24B
330
75
100
AcDbEntity
  8
$DDT_AUDIT_GENERATED_(D9)
  6
Continuous
 62
     7
100
AcDbLine
 10
52.4901165537
 20
456.8956611775
 30
0.0
 11
52.2539949594
 21
456.8956611775
 31
0.0
  0
LINE
  5
24C
330
75
100
AcDbEntity
  8
$DDT_AUDIT_GENERATED_(D9)
  6
Continuous
 62
     7
100
AcDbLine
 10
52.4269436153
 20
456.5850783234
 30
0.0
 11
52.4269436153
 21
456.8438973685
 31
0.0
  0
LINE
  5
24D
330
75
100
AcDbEntity
  8
$DDT_AUDIT_GENERATED_(D9)
  6
Continuous
 62
     7
100
AcDbLine
 10
52.4269436153
 20
456.5850783234
 30
0.0
 11
52.2539949594
 21
456.5850783234
 31
0.0
  0
LINE
  5
24E
330
75
100
AcDbEntity
  8
$DDT_AUDIT_GENERATED_(D9)
  6
Continuous
 62
     7
100
AcDbLine
 10
52.2539949594
 20
456.5850783234
 30
0.0
 11
52.2539949594
 21
456.8438973685
 31
0.0
  0
LINE
  5
24F
330
75
100
AcDbEntity
  8
$DDT_AUDIT_GENERATED_(D9)
  6
Continuous
 62
     7
100
AcDbLine
 10
52.2539949594
 20
456.8438973685
 30
0.0
 11
52.5211783636
 21
456.8438973685
 31
0.0
  0
ELLIPSE
  5
250
330
75
100
AcDbEntity
  8
$DDT_AUDIT_GENERATED_(D9)
  6
Continuous
 62
     7
100
AcDbEllipse
 10
44.3539947097
 20
457.0250707145
 30
0.0
 11
8.250000249827462
 21
-1.511700487011325E-8
 31
0.0
210
0.0
220
0.0
230
1.0
 40
0.2588190415
 41
-0.2323890685114804
 42
-0.2075474468985785
  0
LINE
  5
251
330
75
100
AcDbEntity
  8
$DDT_AUDIT_GENERATED_(D9)
  6
Continuous
 62
     7
100
AcDbLine
 10
52.2539949594
 20
456.4097287605
 30
0.0
 11
52.2539949594
 21
456.5333145144
 31
0.0
  0
LINE
  5
252
330
75
100
AcDbEntity
  8
$DDT_AUDIT_GENERATED_(D9)
  6
Continuous
 62
     7
100
AcDbLine
 10
52.2539949594
 20
456.5333145144
 30
0.0
 11
52.3822263961
 21
456.5333145144
 31
0.0
  0
ELLIPSE
  5
253
330
75
100
AcDbEntity
  8
$DDT_AUDIT_GENERATED_(D9)
  6
Continuous
 62
     7
100
AcDbEllipse
 10
44.3539949614
 20
457.0250706999
 30
0.0
 11
8.249999997993552
 21
1.849631559025511E-10
 31
0.0
210
0.0
220
0.0
230
1.0
 40
0.2588190451
 41
-0.3852141217143688
 42
-0.2923273931936627
  0
LINE
  5
254
330
75
100
AcDbEntity
  8
$DDT_AUDIT_GENERATED_(D9)
  6
Continuous
 62
     7
100
AcDbLine
 10
51.5130800965
 20
455.9639126151
 30
0.0
 11
51.5130800965
 21
456.2227316602
 31
0.0
  0
LINE
  5
255
330
75
100
AcDbEntity
  8
$DDT_AUDIT_GENERATED_(D9)
  6
Continuous
 62
     7
100
AcDbLine
 10
51.5130800965
 20
455.9639126151
 30
0.0
 11
51.0539949594
 21
455.9639126151
 31
0.0
  0
LINE
  5
256
330
75
100
AcDbEntity
  8
$DDT_AUDIT_GENERATED_(D9)
  6
Continuous
 62
     7
100
AcDbLine
 10
51.0539949594
 20
455.9639126151
 30
0.0
 11
51.0539949594
 21
456.2227316602
 31
0.0
  0
LINE
  5
257
330
75
100
AcDbEntity
  8
$DDT_AUDIT_GENERATED_(D9)
  6
Continuous
 62
     7
100
AcDbLine
 10
51.0539949594
 20
456.2227316602
 30
0.0
 11
51.9994184271
 21
456.2227316602
 31
0.0
  0
ELLIPSE
  5
258
330
75
100
AcDbEntity
  8
$DDT_AUDIT_GENERATED_(D9)
  6
Continuous
 62
     7
100
AcDbEllipse
 10
44.3539949632
 20
457.0250706993
 30
0.0
 11
8.249999996166535
 21
6.428052534701578E-10
 31
0.0
210
0.0
220
0.0
230
1.0
 40
0.2588190451
 41
-0.6634394343984562
 42
-0.6230179599727537
  0
LINE
  5
259
330
75
100
AcDbEntity
  8
$DDT_AUDIT_GENERATED_(D9)
  6
Continuous
 62
     7
100
AcDbLine
 10
50.6763758401
 20
455.653329761
 30
0.0
 11
50.6763758401
 21
455.9121488061
 31
0.0
  0
LINE
  5
25A
330
75
100
AcDbEntity
  8
$DDT_AUDIT_GENERATED_(D9)
  6
Continuous
 62
     7
100
AcDbLine
 10
50.6763758401
 20
455.653329761
 30
0.0
 11
49.8539949594
 21
455.653329761
 31
0.0
  0
LINE
  5
25B
330
75
100
AcDbEntity
  8
$DDT_AUDIT_GENERATED_(D9)
  6
Continuous
 62
     7
100
AcDbLine
 10
49.8539949594
 20
455.653329761
 30
0.0
 11
49.8539949594
 21
455.9121488061
 31
0.0
  0
LINE
  5
25C
330
75
100
AcDbEntity
  8
$DDT_AUDIT_GENERATED_(D9)
  6
Continuous
 62
     7
100
AcDbLine
 10
49.8539949594
 20
455.9121488061
 30
0.0
 11
50.8539949594
 21
455.9121488061
 31
0.0
  0
LINE
  5
25D
330
75
100
AcDbEntity
  8
$DDT_AUDIT_GENERATED_(D9)
  6
Continuous
 62
     7
100
AcDbLine
 10
50.8539949594
 20
455.9121488061
 30
0.0
 11
50.8539949594
 21
455.7101145668
 31
0.0
  0
ELLIPSE
  5
25E
330
75
100
AcDbEntity
  8
$DDT_AUDIT_GENERATED_(D9)
  6
Continuous
 62
     7
100
AcDbEllipse
 10
44.3539949406
 20
457.0250707029
 30
0.0
 11
8.250000019025844
 21
-2.604458315680347E-9
 31
0.0
210
0.0
220
0.0
230
1.0
 40
0.2588190449
 41
-0.5482706334002598
 42
-0.5201032026185146
  0
LINE
  5
25F
330
75
100
AcDbEntity
  8
$DDT_AUDIT_GENERATED_(D9)
  6
Continuous
 62
     7
100
AcDbLine
 10
51.0539949594
 20
455.7791721627
 30
0.0
 11
51.0539949594
 21
455.9121488061
 31
0.0
  0
LINE
  5
260
330
75
100
AcDbEntity
  8
$DDT_AUDIT_GENERATED_(D9)
  6
Continuous
 62
     7
100
AcDbLine
 10
51.0539949594
 20
455.9121488061
 30
0.0
 11
51.3947690646
 21
455.9121488061
 31
0.0
  0
ELLIPSE
  5
261
330
75
100
AcDbEntity
  8
$DDT_AUDIT_GENERATED_(D9)
  6
Continuous
 62
     7
100
AcDbEllipse
 10
44.35399488
 20
457.0250707238
 30
0.0
 11
8.250000086649056
 21
-1.666972115899057E-8
 31
0.0
210
0.0
220
0.0
230
1.0
 40
0.2588190454
 41
-0.8731388696443085
 42
-0.8410686665215188
  0
LINE
  5
262
330
75
100
AcDbEntity
  8
$DDT_AUDIT_GENERATED_(D9)
  6
Continuous
 62
     7
100
AcDbLine
 10
49.4345953177
 20
455.3427469069
 30
0.0
 11
49.4345953177
 21
455.601565952
 31
0.0
  0
LINE
  5
263
330
75
100
AcDbEntity
  8
$DDT_AUDIT_GENERATED_(D9)
  6
Continuous
 62
     7
100
AcDbLine
 10
49.4345953177
 20
455.3427469069
 30
0.0
 11
48.6539949594
 21
455.3427469069
 31
0.0
  0
LINE
  5
264
330
75
100
AcDbEntity
  8
$DDT_AUDIT_GENERATED_(D9)
  6
Continuous
 62
     7
100
AcDbLine
 10
48.6539949594
 20
455.3427469069
 30
0.0
 11
48.6539949594
 21
455.601565952
 31
0.0
  0
LINE
  5
265
330
75
100
AcDbEntity
  8
$DDT_AUDIT_GENERATED_(D9)
  6
Continuous
 62
     7
100
AcDbLine
 10
48.6539949594
 20
455.601565952
 30
0.0
 11
49.6539949594
 21
455.601565952
 31
0.0
  0
LINE
  5
266
330
75
100
AcDbEntity
  8
$DDT_AUDIT_GENERATED_(D9)
  6
Continuous
 62
     7
100
AcDbLine
 10
49.6539949594
 20
455.601565952
 30
0.0
 11
49.6539949594
 21
455.3887181177
 31
0.0
  0
ELLIPSE
  5
267
330
75
100
AcDbEntity
  8
$DDT_AUDIT_GENERATED_(D9)
  6
Continuous
 62
     7
100
AcDbEllipse
 10
44.3539948678
 20
457.0250707206
 30
0.0
 11
8.250000095236594
 21
-1.664979265569855E-8
 31
0.0
210
0.0
220
0.0
230
1.0
 40
0.2588190448
 41
-0.7297276519496618
 42
-0.6976574488266829
  0
LINE
  5
268
330
75
100
AcDbEntity
  8
$DDT_AUDIT_GENERATED_(D9)
  6
Continuous
 62
     7
100
AcDbLine
 10
49.8539949594
 20
455.4335440086
 30
0.0
 11
49.8539949594
 21
455.601565952
 31
0.0
  0
LINE
  5
269
330
75
100
AcDbEntity
  8
$DDT_AUDIT_GENERATED_(D9)
  6
Continuous
 62
     7
100
AcDbLine
 10
49.8539949594
 20
455.601565952
 30
0.0
 11
50.5031818976
 21
455.601565952
 31
0.0
  0
LINE
  5
26A
330
75
100
AcDbEntity
  8
$DDT_AUDIT_GENERATED_(D9)
  6
Continuous
 62
     7
100
AcDbLine
 10
47.2539949594
 20
455.2909830979
 30
0.0
 11
47.2539949594
 21
455.0321640528
 31
0.0
  0
LINE
  5
26B
330
75
100
AcDbEntity
  8
$DDT_AUDIT_GENERATED_(D9)
  6
Continuous
 62
     7
100
AcDbLine
 10
47.2539949594
 20
455.0321640528
 30
0.0
 11
46.2539949594
 21
455.0321640528
 31
0.0
  0
LINE
  5
26C
330
75
100
AcDbEntity
  8
$DDT_AUDIT_GENERATED_(D9)
  6
Continuous
 62
     7
100
AcDbLine
 10
46.2539949594
 20
455.0321640528
 30
0.0
 11
46.2539949594
 21
455.2909830979
 31
0.0
  0
LINE
  5
26D
330
75
100
AcDbEntity
  8
$DDT_AUDIT_GENERATED_(D9)
  6
Continuous
 62
     7
100
AcDbLine
 10
46.2539949594
 20
455.2909830979
 30
0.0
 11
47.2539949594
 21
455.2909830979
 31
0.0
  0
ELLIPSE
  5
26E
330
75
100
AcDbEntity
  8
$DDT_AUDIT_GENERATED_(D9)
  6
Continuous
 62
     7
100
AcDbEllipse
 10
44.3539948689
 20
457.0250707398
 30
0.0
 11
8.250000112066216
 21
-2.164966816931013E-8
 31
0.0
210
0.0
220
0.0
230
1.0
 40
0.2588190465
 41
-1.050693117980247
 42
-1.022525687465302
  0
LINE
  5
26F
330
75
100
AcDbEntity
  8
$DDT_AUDIT_GENERATED_(D9)
  6
Continuous
 62
     7
100
AcDbLine
 10
47.4539949594
 20
455.0462894987
 30
0.0
 11
47.4539949594
 21
455.2909830979
 31
0.0
  0
LINE
  5
270
330
75
100
AcDbEntity
  8
$DDT_AUDIT_GENERATED_(D9)
  6
Continuous
 62
     7
100
AcDbLine
 10
47.4539949594
 20
455.2909830979
 30
0.0
 11
48.4539949594
 21
455.2909830979
 31
0.0
  0
LINE
  5
271
330
75
100
AcDbEntity
  8
$DDT_AUDIT_GENERATED_(D9)
  6
Continuous
 62
     7
100
AcDbLine
 10
48.4539949594
 20
455.2909830979
 30
0.0
 11
48.4539949594
 21
455.1721631211
 31
0.0
  0
ELLIPSE
  5
272
330
75
100
AcDbEntity
  8
$DDT_AUDIT_GENERATED_(D9)
  6
Continuous
 62
     7
100
AcDbEllipse
 10
44.3539949452
 20
457.0250707049
 30
0.0
 11
8.250000016091489
 21
-3.143443838560245E-9
 31
0.0
210
0.0
220
0.0
230
1.0
 40
0.2588190452
 41
-0.9477783661559256
 42
-0.9073568917997097
  0
LINE
  5
273
330
75
100
AcDbEntity
  8
$DDT_AUDIT_GENERATED_(D9)
  6
Continuous
 62
     7
100
AcDbLine
 10
48.6539949594
 20
455.2027842694
 30
0.0
 11
48.6539949594
 21
455.2909830979
 31
0.0
  0
LINE
  5
274
330
75
100
AcDbEntity
  8
$DDT_AUDIT_GENERATED_(D9)
  6
Continuous
 62
     7
100
AcDbLine
 10
48.6539949594
 20
455.2909830979
 30
0.0
 11
49.1677772561
 21
455.2909830979
 31
0.0
  0
ELLIPSE
  5
275
330
75
100
AcDbEntity
  8
$DDT_AUDIT_GENERATED_(D9)
  6
Continuous
 62
     7
100
AcDbEllipse
 10
44.3539949368
 20
457.0250707805
 30
0.0
 11
8.250000156728706
 21
-6.258729645658434E-9
 31
0.0
210
0.0
220
0.0
230
1.0
 40
0.2588190499
 41
-1.510153100970822
 42
-1.485845701575979
  0
LINE
  5
276
330
75
100
AcDbEntity
  8
$DDT_AUDIT_GENERATED_(D9)
  6
Continuous
 62
     7
100
AcDbLine
 10
43.8539949594
 20
454.9804002437
 30
0.0
 11
44.8539949594
 21
454.9804002437
 31
0.0
  0
LINE
  5
277
330
75
100
AcDbEntity
  8
$DDT_AUDIT_GENERATED_(D9)
  6
Continuous
 62
     7
100
AcDbLine
 10
44.8539949594
 20
454.9804002437
 30
0.0
 11
44.8539949594
 21
454.8937386863
 31
0.0
  0
ELLIPSE
  5
278
330
75
100
AcDbEntity
  8
$DDT_AUDIT_GENERATED_(D9)
  6
Continuous
 62
     7
100
AcDbEllipse
 10
44.3539948928
 20
457.0250707774
 30
0.0
 11
8.250000160400379
 21
-1.804022209395129E-8
 31
0.0
210
0.0
220
0.0
230
1.0
 40
0.2588190495
 41
-1.363248871582934
 42
-1.338407250045836
  0
LINE
  5
279
330
75
100
AcDbEntity
  8
$DDT_AUDIT_GENERATED_(D9)
  6
Continuous
 62
     7
100
AcDbLine
 10
45.0539949594
 20
454.897513603
 30
0.0
 11
45.0539949594
 21
454.9804002437
 31
0.0
  0
LINE
  5
27A
330
75
100
AcDbEntity
  8
$DDT_AUDIT_GENERATED_(D9)
  6
Continuous
 62
     7
100
AcDbLine
 10
45.0539949594
 20
454.9804002437
 30
0.0
 11
46.0539949594
 21
454.9804002437
 31
0.0
  0
LINE
  5
27B
330
75
100
AcDbEntity
  8
$DDT_AUDIT_GENERATED_(D9)
  6
Continuous
 62
     7
100
AcDbLine
 10
46.0539949594
 20
454.9804002437
 30
0.0
 11
46.0539949594
 21
454.9356378378
 31
0.0
  0
ELLIPSE
  5
27C
330
75
100
AcDbEntity
  8
$DDT_AUDIT_GENERATED_(D9)
  6
Continuous
 62
     7
100
AcDbEllipse
 10
44.35399496
 20
457.0250706996
 30
0.0
 11
8.24999999902878
 21
1.531968996104638E-10
 31
0.0
210
0.0
220
0.0
230
1.0
 40
0.2588190451
 41
-1.278468933684545
 42
-1.185582205165962
  0
LINE
  5
27D
330
75
100
AcDbEntity
  8
$DDT_AUDIT_GENERATED_(D9)
  6
Continuous
 62
     7
100
AcDbLine
 10
46.2539949594
 20
454.9472115058
 30
0.0
 11
46.2539949594
 21
454.9804002437
 31
0.0
  0
LINE
  5
27E
330
75
100
AcDbEntity
  8
$DDT_AUDIT_GENERATED_(D9)
  6
Continuous
 62
     7
100
AcDbLine
 10
46.2539949594
 20
454.9804002437
 30
0.0
 11
46.731493645
 21
454.9804002437
 31
0.0
  0
LINE
  5
27F
330
75
100
AcDbEntity
  8
$DDT_AUDIT_GENERATED_(D9)
  6
Continuous
 62
     7
100
AcDbLine
 10
43.6539949594
 20
456.8956611775
 30
0.0
 11
42.6539949594
 21
456.8956611775
 31
0.0
  0
LINE
  5
280
330
75
100
AcDbEntity
  8
$DDT_AUDIT_GENERATED_(D9)
  6
Continuous
 62
     7
100
AcDbLine
 10
42.4539949594
 20
456.8956611775
 30
0.0
 11
41.4539949594
 21
456.8956611775
 31
0.0
  0
LINE
  5
281
330
75
100
AcDbEntity
  8
$DDT_AUDIT_GENERATED_(D9)
  6
Continuous
 62
     7
100
AcDbLine
 10
41.2539949594
 20
456.8956611775
 30
0.0
 11
40.2539949594
 21
456.8956611775
 31
0.0
  0
LINE
  5
282
330
75
100
AcDbEntity
  8
$DDT_AUDIT_GENERATED_(D9)
  6
Continuous
 62
     7
100
AcDbLine
 10
40.0539949594
 20
456.8956611775
 30
0.0
 11
39.0539949594
 21
456.8956611775
 31
0.0
  0
LINE
  5
283
330
75
100
AcDbEntity
  8
$DDT_AUDIT_GENERATED_(D9)
  6
Continuous
 62
     7
100
AcDbLine
 10
38.8539949594
 20
456.8956611775
 30
0.0
 11
37.8539949594
 21
456.8956611775
 31
0.0
  0
LINE
  5
284
330
75
100
AcDbEntity
  8
$DDT_AUDIT_GENERATED_(D9)
  6
Continuous
 62
     7
100
AcDbLine
 10
37.6539949594
 20
456.8956611775
 30
0.0
 11
36.6539949594
 21
456.8956611775
 31
0.0
  0
LINE
  5
285
330
75
100
AcDbEntity
  8
$DDT_AUDIT_GENERATED_(D9)
  6
Continuous
 62
     7
100
AcDbLine
 10
43.8539949594
 20
456.5850783234
 30
0.0
 11
43.8539949594
 21
456.8438973685
 31
0.0
  0
LINE
  5
286
330
75
100
AcDbEntity
  8
$DDT_AUDIT_GENERATED_(D9)
  6
Continuous
 62
     7
100
AcDbLine
 10
43.6539949594
 20
456.5850783234
 30
0.0
 11
42.6539949594
 21
456.5850783234
 31
0.0
  0
LINE
  5
287
330
75
100
AcDbEntity
  8
$DDT_AUDIT_GENERATED_(D9)
  6
Continuous
 62
     7
100
AcDbLine
 10
42.6539949594
 20
456.5850783234
 30
0.0
 11
42.6539949594
 21
456.8438973685
 31
0.0
  0
LINE
  5
288
330
75
100
AcDbEntity
  8
$DDT_AUDIT_GENERATED_(D9)
  6
Continuous
 62
     7
100
AcDbLine
 10
42.6539949594
 20
456.8438973685
 30
0.0
 11
43.6539949594
 21
456.8438973685
 31
0.0
  0
LINE
  5
289
330
75
100
AcDbEntity
  8
$DDT_AUDIT_GENERATED_(D9)
  6
Continuous
 62
     7
100
AcDbLine
 10
43.6539949594
 20
456.8438973685
 30
0.0
 11
43.6539949594
 21
456.5850783234
 31
0.0
  0
LINE
  5
28A
330
75
100
AcDbEntity
  8
$DDT_AUDIT_GENERATED_(D9)
  6
Continuous
 62
     7
100
AcDbLine
 10
42.4539949594
 20
456.5850783234
 30
0.0
 11
41.4539949594
 21
456.5850783234
 31
0.0
  0
LINE
  5
28B
330
75
100
AcDbEntity
  8
$DDT_AUDIT_GENERATED_(D9)
  6
Continuous
 62
     7
100
AcDbLine
 10
41.4539949594
 20
456.5850783234
 30
0.0
 11
41.4539949594
 21
456.8438973685
 31
0.0
  0
LINE
  5
28C
330
75
100
AcDbEntity
  8
$DDT_AUDIT_GENERATED_(D9)
  6
Continuous
 62
     7
100
AcDbLine
 10
41.4539949594
 20
456.8438973685
 30
0.0
 11
42.4539949594
 21
456.8438973685
 31
0.0
  0
LINE
  5
28D
330
75
100
AcDbEntity
  8
$DDT_AUDIT_GENERATED_(D9)
  6
Continuous
 62
     7
100
AcDbLine
 10
42.4539949594
 20
456.8438973685
 30
0.0
 11
42.4539949594
 21
456.5850783234
 31
0.0
  0
LINE
  5
28E
330
75
100
AcDbEntity
  8
$DDT_AUDIT_GENERATED_(D9)
  6
Continuous
 62
     7
100
AcDbLine
 10
41.2539949594
 20
456.5850783234
 30
0.0
 11
40.2539949594
 21
456.5850783234
 31
0.0
  0
LINE
  5
28F
330
75
100
AcDbEntity
  8
$DDT_AUDIT_GENERATED_(D9)
  6
Continuous
 62
     7
100
AcDbLine
 10
40.2539949594
 20
456.5850783234
 30
0.0
 11
40.2539949594
 21
456.8438973685
 31
0.0
  0
LINE
  5
290
330
75
100
AcDbEntity
  8
$DDT_AUDIT_GENERATED_(D9)
  6
Continuous
 62
     7
100
AcDbLine
 10
40.2539949594
 20
456.8438973685
 30
0.0
 11
41.2539949594
 21
456.8438973685
 31
0.0
  0
LINE
  5
291
330
75
100
AcDbEntity
  8
$DDT_AUDIT_GENERATED_(D9)
  6
Continuous
 62
     7
100
AcDbLine
 10
41.2539949594
 20
456.8438973685
 30
0.0
 11
41.2539949594
 21
456.5850783234
 31
0.0
  0
LINE
  5
292
330
75
100
AcDbEntity
  8
$DDT_AUDIT_GENERATED_(D9)
  6
Continuous
 62
     7
100
AcDbLine
 10
40.0539949594
 20
456.5850783234
 30
0.0
 11
39.0539949594
 21
456.5850783234
 31
0.0
  0
LINE
  5
293
330
75
100
AcDbEntity
  8
$DDT_AUDIT_GENERATED_(D9)
  6
Continuous
 62
     7
100
AcDbLine
 10
39.0539949594
 20
456.5850783234
 30
0.0
 11
39.0539949594
 21
456.8438973685
 31
0.0
  0
LINE
  5
294
330
75
100
AcDbEntity
  8
$DDT_AUDIT_GENERATED_(D9)
  6
Continuous
 62
     7
100
AcDbLine
 10
39.0539949594
 20
456.8438973685
 30
0.0
 11
40.0539949594
 21
456.8438973685
 31
0.0
  0
LINE
  5
295
330
75
100
AcDbEntity
  8
$DDT_AUDIT_GENERATED_(D9)
  6
Continuous
 62
     7
100
AcDbLine
 10
40.0539949594
 20
456.8438973685
 30
0.0
 11
40.0539949594
 21
456.5850783234
 31
0.0
  0
LINE
  5
296
330
75
100
AcDbEntity
  8
$DDT_AUDIT_GENERATED_(D9)
  6
Continuous
 62
     7
100
AcDbLine
 10
38.8539949594
 20
456.5850783234
 30
0.0
 11
37.8539949594
 21
456.5850783234
 31
0.0
  0
LINE
  5
297
330
75
100
AcDbEntity
  8
$DDT_AUDIT_GENERATED_(D9)
  6
Continuous
 62
     7
100
AcDbLine
 10
37.8539949594
 20
456.5850783234
 30
0.0
 11
37.8539949594
 21
456.8438973685
 31
0.0
  0
LINE
  5
298
330
75
100
AcDbEntity
  8
$DDT_AUDIT_GENERATED_(D9)
  6
Continuous
 62
     7
100
AcDbLine
 10
37.8539949594
 20
456.8438973685
 30
0.0
 11
38.8539949594
 21
456.8438973685
 31
0.0
  0
LINE
  5
299
330
75
100
AcDbEntity
  8
$DDT_AUDIT_GENERATED_(D9)
  6
Continuous
 62
     7
100
AcDbLine
 10
38.8539949594
 20
456.8438973685
 30
0.0
 11
38.8539949594
 21
456.5850783234
 31
0.0
  0
LINE
  5
29A
330
75
100
AcDbEntity
  8
$DDT_AUDIT_GENERATED_(D9)
  6
Continuous
 62
     7
100
AcDbLine
 10
37.6539949594
 20
456.5850783234
 30
0.0
 11
36.6539949594
 21
456.5850783234
 31
0.0
  0
LINE
  5
29B
330
75
100
AcDbEntity
  8
$DDT_AUDIT_GENERATED_(D9)
  6
Continuous
 62
     7
100
AcDbLine
 10
36.6539949594
 20
456.5850783234
 30
0.0
 11
36.6539949594
 21
456.8438973685
 31
0.0
  0
LINE
  5
29C
330
75
100
AcDbEntity
  8
$DDT_AUDIT_GENERATED_(D9)
  6
Continuous
 62
     7
100
AcDbLine
 10
36.6539949594
 20
456.8438973685
 30
0.0
 11
37.6539949594
 21
456.8438973685
 31
0.0
  0
LINE
  5
29D
330
75
100
AcDbEntity
  8
$DDT_AUDIT_GENERATED_(D9)
  6
Continuous
 62
     7
100
AcDbLine
 10
37.6539949594
 20
456.8438973685
 30
0.0
 11
37.6539949594
 21
456.5850783234
 31
0.0
  0
LINE
  5
29E
330
75
100
AcDbEntity
  8
$DDT_AUDIT_GENERATED_(D9)
  6
Continuous
 62
     7
100
AcDbLine
 10
43.8539949594
 20
456.2744954693
 30
0.0
 11
43.8539949594
 21
456.5333145144
 31
0.0
  0
LINE
  5
29F
330
75
100
AcDbEntity
  8
$DDT_AUDIT_GENERATED_(D9)
  6
Continuous
 62
     7
100
AcDbLine
 10
43.6539949594
 20
456.2744954693
 30
0.0
 11
42.6539949594
 21
456.2744954693
 31
0.0
  0
LINE
  5
2A0
330
75
100
AcDbEntity
  8
$DDT_AUDIT_GENERATED_(D9)
  6
Continuous
 62
     7
100
AcDbLine
 10
42.6539949594
 20
456.2744954693
 30
0.0
 11
42.6539949594
 21
456.5333145144
 31
0.0
  0
LINE
  5
2A1
330
75
100
AcDbEntity
  8
$DDT_AUDIT_GENERATED_(D9)
  6
Continuous
 62
     7
100
AcDbLine
 10
42.6539949594
 20
456.5333145144
 30
0.0
 11
43.6539949594
 21
456.5333145144
 31
0.0
  0
LINE
  5
2A2
330
75
100
AcDbEntity
  8
$DDT_AUDIT_GENERATED_(D9)
  6
Continuous
 62
     7
100
AcDbLine
 10
43.6539949594
 20
456.5333145144
 30
0.0
 11
43.6539949594
 21
456.2744954693
 31
0.0
  0
LINE
  5
2A3
330
75
100
AcDbEntity
  8
$DDT_AUDIT_GENERATED_(D9)
  6
Continuous
 62
     7
100
AcDbLine
 10
42.4539949594
 20
456.2744954693
 30
0.0
 11
41.4539949594
 21
456.2744954693
 31
0.0
  0
LINE
  5
2A4
330
75
100
AcDbEntity
  8
$DDT_AUDIT_GENERATED_(D9)
  6
Continuous
 62
     7
100
AcDbLine
 10
41.4539949594
 20
456.2744954693
 30
0.0
 11
41.4539949594
 21
456.5333145144
 31
0.0
  0
LINE
  5
2A5
330
75
100
AcDbEntity
  8
$DDT_AUDIT_GENERATED_(D9)
  6
Continuous
 62
     7
100
AcDbLine
 10
41.4539949594
 20
456.5333145144
 30
0.0
 11
42.4539949594
 21
456.5333145144
 31
0.0
  0
LINE
  5
2A6
330
75
100
AcDbEntity
  8
$DDT_AUDIT_GENERATED_(D9)
  6
Continuous
 62
     7
100
AcDbLine
 10
42.4539949594
 20
456.5333145144
 30
0.0
 11
42.4539949594
 21
456.2744954693
 31
0.0
  0
LINE
  5
2A7
330
75
100
AcDbEntity
  8
$DDT_AUDIT_GENERATED_(D9)
  6
Continuous
 62
     7
100
AcDbLine
 10
41.2539949594
 20
456.2744954693
 30
0.0
 11
40.2539949594
 21
456.2744954693
 31
0.0
  0
LINE
  5
2A8
330
75
100
AcDbEntity
  8
$DDT_AUDIT_GENERATED_(D9)
  6
Continuous
 62
     7
100
AcDbLine
 10
40.2539949594
 20
456.2744954693
 30
0.0
 11
40.2539949594
 21
456.5333145144
 31
0.0
  0
LINE
  5
2A9
330
75
100
AcDbEntity
  8
$DDT_AUDIT_GENERATED_(D9)
  6
Continuous
 62
     7
100
AcDbLine
 10
40.2539949594
 20
456.5333145144
 30
0.0
 11
41.2539949594
 21
456.5333145144
 31
0.0
  0
LINE
  5
2AA
330
75
100
AcDbEntity
  8
$DDT_AUDIT_GENERATED_(D9)
  6
Continuous
 62
     7
100
AcDbLine
 10
41.2539949594
 20
456.5333145144
 30
0.0
 11
41.2539949594
 21
456.2744954693
 31
0.0
  0
LINE
  5
2AB
330
75
100
AcDbEntity
  8
$DDT_AUDIT_GENERATED_(D9)
  6
Continuous
 62
     7
100
AcDbLine
 10
40.0539949594
 20
456.2744954693
 30
0.0
 11
39.0539949594
 21
456.2744954693
 31
0.0
  0
LINE
  5
2AC
330
75
100
AcDbEntity
  8
$DDT_AUDIT_GENERATED_(D9)
  6
Continuous
 62
     7
100
AcDbLine
 10
39.0539949594
 20
456.2744954693
 30
0.0
 11
39.0539949594
 21
456.5333145144
 31
0.0
  0
LINE
  5
2AD
330
75
100
AcDbEntity
  8
$DDT_AUDIT_GENERATED_(D9)
  6
Continuous
 62
     7
100
AcDbLine
 10
39.0539949594
 20
456.5333145144
 30
0.0
 11
40.0539949594
 21
456.5333145144
 31
0.0
  0
LINE
  5
2AE
330
75
100
AcDbEntity
  8
$DDT_AUDIT_GENERATED_(D9)
  6
Continuous
 62
     7
100
AcDbLine
 10
40.0539949594
 20
456.5333145144
 30
0.0
 11
40.0539949594
 21
456.2744954693
 31
0.0
  0
LINE
  5
2AF
330
75
100
AcDbEntity
  8
$DDT_AUDIT_GENERATED_(D9)
  6
Continuous
 62
     7
100
AcDbLine
 10
38.8539949594
 20
456.2744954693
 30
0.0
 11
37.8539949594
 21
456.2744954693
 31
0.0
  0
LINE
  5
2B0
330
75
100
AcDbEntity
  8
$DDT_AUDIT_GENERATED_(D9)
  6
Continuous
 62
     7
100
AcDbLine
 10
37.8539949594
 20
456.2744954693
 30
0.0
 11
37.8539949594
 21
456.5333145144
 31
0.0
  0
LINE
  5
2B1
330
75
100
AcDbEntity
  8
$DDT_AUDIT_GENERATED_(D9)
  6
Continuous
 62
     7
100
AcDbLine
 10
37.8539949594
 20
456.5333145144
 30
0.0
 11
38.8539949594
 21
456.5333145144
 31
0.0
  0
LINE
  5
2B2
330
75
100
AcDbEntity
  8
$DDT_AUDIT_GENERATED_(D9)
  6
Continuous
 62
     7
100
AcDbLine
 10
38.8539949594
 20
456.5333145144
 30
0.0
 11
38.8539949594
 21
456.2744954693
 31
0.0
  0
LINE
  5
2B3
330
75
100
AcDbEntity
  8
$DDT_AUDIT_GENERATED_(D9)
  6
Continuous
 62
     7
100
AcDbLine
 10
43.8539949594
 20
455.9639126151
 30
0.0
 11
43.8539949594
 21
456.2227316602
 31
0.0
  0
LINE
  5
2B4
330
75
100
AcDbEntity
  8
$DDT_AUDIT_GENERATED_(D9)
  6
Continuous
 62
     7
100
AcDbLine
 10
43.6539949594
 20
455.9639126151
 30
0.0
 11
42.6539949594
 21
455.9639126151
 31
0.0
  0
LINE
  5
2B5
330
75
100
AcDbEntity
  8
$DDT_AUDIT_GENERATED_(D9)
  6
Continuous
 62
     7
100
AcDbLine
 10
42.6539949594
 20
455.9639126151
 30
0.0
 11
42.6539949594
 21
456.2227316602
 31
0.0
  0
LINE
  5
2B6
330
75
100
AcDbEntity
  8
$DDT_AUDIT_GENERATED_(D9)
  6
Continuous
 62
     7
100
AcDbLine
 10
42.6539949594
 20
456.2227316602
 30
0.0
 11
43.6539949594
 21
456.2227316602
 31
0.0
  0
LINE
  5
2B7
330
75
100
AcDbEntity
  8
$DDT_AUDIT_GENERATED_(D9)
  6
Continuous
 62
     7
100
AcDbLine
 10
43.6539949594
 20
456.2227316602
 30
0.0
 11
43.6539949594
 21
455.9639126151
 31
0.0
  0
LINE
  5
2B8
330
75
100
AcDbEntity
  8
$DDT_AUDIT_GENERATED_(D9)
  6
Continuous
 62
     7
100
AcDbLine
 10
42.4539949594
 20
455.9639126151
 30
0.0
 11
41.4539949594
 21
455.9639126151
 31
0.0
  0
LINE
  5
2B9
330
75
100
AcDbEntity
  8
$DDT_AUDIT_GENERATED_(D9)
  6
Continuous
 62
     7
100
AcDbLine
 10
41.4539949594
 20
455.9639126151
 30
0.0
 11
41.4539949594
 21
456.2227316602
 31
0.0
  0
LINE
  5
2BA
330
75
100
AcDbEntity
  8
$DDT_AUDIT_GENERATED_(D9)
  6
Continuous
 62
     7
100
AcDbLine
 10
41.4539949594
 20
456.2227316602
 30
0.0
 11
42.4539949594
 21
456.2227316602
 31
0.0
  0
LINE
  5
2BB
330
75
100
AcDbEntity
  8
$DDT_AUDIT_GENERATED_(D9)
  6
Continuous
 62
     7
100
AcDbLine
 10
42.4539949594
 20
456.2227316602
 30
0.0
 11
42.4539949594
 21
455.9639126151
 31
0.0
  0
LINE
  5
2BC
330
75
100
AcDbEntity
  8
$DDT_AUDIT_GENERATED_(D9)
  6
Continuous
 62
     7
100
AcDbLine
 10
41.2539949594
 20
455.9639126151
 30
0.0
 11
40.2539949594
 21
455.9639126151
 31
0.0
  0
LINE
  5
2BD
330
75
100
AcDbEntity
  8
$DDT_AUDIT_GENERATED_(D9)
  6
Continuous
 62
     7
100
AcDbLine
 10
40.2539949594
 20
455.9639126151
 30
0.0
 11
40.2539949594
 21
456.2227316602
 31
0.0
  0
LINE
  5
2BE
330
75
100
AcDbEntity
  8
$DDT_AUDIT_GENERATED_(D9)
  6
Continuous
 62
     7
100
AcDbLine
 10
40.2539949594
 20
456.2227316602
 30
0.0
 11
41.2539949594
 21
456.2227316602
 31
0.0
  0
LINE
  5
2BF
330
75
100
AcDbEntity
  8
$DDT_AUDIT_GENERATED_(D9)
  6
Continuous
 62
     7
100
AcDbLine
 10
41.2539949594
 20
456.2227316602
 30
0.0
 11
41.2539949594
 21
455.9639126151
 31
0.0
  0
LINE
  5
2C0
330
75
100
AcDbEntity
  8
$DDT_AUDIT_GENERATED_(D9)
  6
Continuous
 62
     7
100
AcDbLine
 10
40.0539949594
 20
455.9639126151
 30
0.0
 11
39.0539949594
 21
455.9639126151
 31
0.0
  0
LINE
  5
2C1
330
75
100
AcDbEntity
  8
$DDT_AUDIT_GENERATED_(D9)
  6
Continuous
 62
     7
100
AcDbLine
 10
39.0539949594
 20
455.9639126151
 30
0.0
 11
39.0539949594
 21
456.2227316602
 31
0.0
  0
LINE
  5
2C2
330
75
100
AcDbEntity
  8
$DDT_AUDIT_GENERATED_(D9)
  6
Continuous
 62
     7
100
AcDbLine
 10
39.0539949594
 20
456.2227316602
 30
0.0
 11
40.0539949594
 21
456.2227316602
 31
0.0
  0
LINE
  5
2C3
330
75
100
AcDbEntity
  8
$DDT_AUDIT_GENERATED_(D9)
  6
Continuous
 62
     7
100
AcDbLine
 10
40.0539949594
 20
456.2227316602
 30
0.0
 11
40.0539949594
 21
455.9639126151
 31
0.0
  0
LINE
  5
2C4
330
75
100
AcDbEntity
  8
$DDT_AUDIT_GENERATED_(D9)
  6
Continuous
 62
     7
100
AcDbLine
 10
37.8539949594
 20
455.9639126151
 30
0.0
 11
37.8539949594
 21
456.2227316602
 31
0.0
  0
LINE
  5
2C5
330
75
100
AcDbEntity
  8
$DDT_AUDIT_GENERATED_(D9)
  6
Continuous
 62
     7
100
AcDbLine
 10
38.8539949594
 20
455.9639126151
 30
0.0
 11
37.8539949594
 21
455.9639126151
 31
0.0
  0
LINE
  5
2C6
330
75
100
AcDbEntity
  8
$DDT_AUDIT_GENERATED_(D9)
  6
Continuous
 62
     7
100
AcDbLine
 10
37.8539949594
 20
456.2227316602
 30
0.0
 11
38.8539949594
 21
456.2227316602
 31
0.0
  0
LINE
  5
2C7
330
75
100
AcDbEntity
  8
$DDT_AUDIT_GENERATED_(D9)
  6
Continuous
 62
     7
100
AcDbLine
 10
38.8539949594
 20
456.2227316602
 30
0.0
 11
38.8539949594
 21
455.9639126151
 31
0.0
  0
LINE
  5
2C8
330
75
100
AcDbEntity
  8
$DDT_AUDIT_GENERATED_(D9)
  6
Continuous
 62
     7
100
AcDbLine
 10
43.8539949594
 20
455.653329761
 30
0.0
 11
43.8539949594
 21
455.9121488061
 31
0.0
  0
LINE
  5
2C9
330
75
100
AcDbEntity
  8
$DDT_AUDIT_GENERATED_(D9)
  6
Continuous
 62
     7
100
AcDbLine
 10
43.6539949594
 20
455.653329761
 30
0.0
 11
42.6539949594
 21
455.653329761
 31
0.0
  0
LINE
  5
2CA
330
75
100
AcDbEntity
  8
$DDT_AUDIT_GENERATED_(D9)
  6
Continuous
 62
     7
100
AcDbLine
 10
42.6539949594
 20
455.653329761
 30
0.0
 11
42.6539949594
 21
455.9121488061
 31
0.0
  0
LINE
  5
2CB
330
75
100
AcDbEntity
  8
$DDT_AUDIT_GENERATED_(D9)
  6
Continuous
 62
     7
100
AcDbLine
 10
42.6539949594
 20
455.9121488061
 30
0.0
 11
43.6539949594
 21
455.9121488061
 31
0.0
  0
LINE
  5
2CC
330
75
100
AcDbEntity
  8
$DDT_AUDIT_GENERATED_(D9)
  6
Continuous
 62
     7
100
AcDbLine
 10
43.6539949594
 20
455.9121488061
 30
0.0
 11
43.6539949594
 21
455.653329761
 31
0.0
  0
LINE
  5
2CD
330
75
100
AcDbEntity
  8
$DDT_AUDIT_GENERATED_(D9)
  6
Continuous
 62
     7
100
AcDbLine
 10
42.4539949594
 20
455.653329761
 30
0.0
 11
41.4539949594
 21
455.653329761
 31
0.0
  0
LINE
  5
2CE
330
75
100
AcDbEntity
  8
$DDT_AUDIT_GENERATED_(D9)
  6
Continuous
 62
     7
100
AcDbLine
 10
41.4539949594
 20
455.653329761
 30
0.0
 11
41.4539949594
 21
455.9121488061
 31
0.0
  0
LINE
  5
2CF
330
75
100
AcDbEntity
  8
$DDT_AUDIT_GENERATED_(D9)
  6
Continuous
 62
     7
100
AcDbLine
 10
41.4539949594
 20
455.9121488061
 30
0.0
 11
42.4539949594
 21
455.9121488061
 31
0.0
  0
LINE
  5
2D0
330
75
100
AcDbEntity
  8
$DDT_AUDIT_GENERATED_(D9)
  6
Continuous
 62
     7
100
AcDbLine
 10
42.4539949594
 20
455.9121488061
 30
0.0
 11
42.4539949594
 21
455.653329761
 31
0.0
  0
LINE
  5
2D1
330
75
100
AcDbEntity
  8
$DDT_AUDIT_GENERATED_(D9)
  6
Continuous
 62
     7
100
AcDbLine
 10
41.2539949594
 20
455.653329761
 30
0.0
 11
40.2539949594
 21
455.653329761
 31
0.0
  0
LINE
  5
2D2
330
75
100
AcDbEntity
  8
$DDT_AUDIT_GENERATED_(D9)
  6
Continuous
 62
     7
100
AcDbLine
 10
40.2539949594
 20
455.653329761
 30
0.0
 11
40.2539949594
 21
455.9121488061
 31
0.0
  0
LINE
  5
2D3
330
75
100
AcDbEntity
  8
$DDT_AUDIT_GENERATED_(D9)
  6
Continuous
 62
     7
100
AcDbLine
 10
40.2539949594
 20
455.9121488061
 30
0.0
 11
41.2539949594
 21
455.9121488061
 31
0.0
  0
LINE
  5
2D4
330
75
100
AcDbEntity
  8
$DDT_AUDIT_GENERATED_(D9)
  6
Continuous
 62
     7
100
AcDbLine
 10
41.2539949594
 20
455.9121488061
 30
0.0
 11
41.2539949594
 21
455.653329761
 31
0.0
  0
LINE
  5
2D5
330
75
100
AcDbEntity
  8
$DDT_AUDIT_GENERATED_(D9)
  6
Continuous
 62
     7
100
AcDbLine
 10
40.0539949594
 20
455.653329761
 30
0.0
 11
39.0539949594
 21
455.653329761
 31
0.0
  0
LINE
  5
2D6
330
75
100
AcDbEntity
  8
$DDT_AUDIT_GENERATED_(D9)
  6
Continuous
 62
     7
100
AcDbLine
 10
39.0539949594
 20
455.653329761
 30
0.0
 11
39.0539949594
 21
455.9121488061
 31
0.0
  0
LINE
  5
2D7
330
75
100
AcDbEntity
  8
$DDT_AUDIT_GENERATED_(D9)
  6
Continuous
 62
     7
100
AcDbLine
 10
39.0539949594
 20
455.9121488061
 30
0.0
 11
40.0539949594
 21
455.9121488061
 31
0.0
  0
LINE
  5
2D8
330
75
100
AcDbEntity
  8
$DDT_AUDIT_GENERATED_(D9)
  6
Continuous
 62
     7
100
AcDbLine
 10
40.0539949594
 20
455.9121488061
 30
0.0
 11
40.0539949594
 21
455.653329761
 31
0.0
  0
LINE
  5
2D9
330
75
100
AcDbEntity
  8
$DDT_AUDIT_GENERATED_(D9)
  6
Continuous
 62
     7
100
AcDbLine
 10
43.8539949594
 20
455.3427469069
 30
0.0
 11
43.8539949594
 21
455.601565952
 31
0.0
  0
LINE
  5
2DA
330
75
100
AcDbEntity
  8
$DDT_AUDIT_GENERATED_(D9)
  6
Continuous
 62
     7
100
AcDbLine
 10
43.6539949594
 20
455.3427469069
 30
0.0
 11
42.6539949594
 21
455.3427469069
 31
0.0
  0
LINE
  5
2DB
330
75
100
AcDbEntity
  8
$DDT_AUDIT_GENERATED_(D9)
  6
Continuous
 62
     7
100
AcDbLine
 10
42.6539949594
 20
455.3427469069
 30
0.0
 11
42.6539949594
 21
455.601565952
 31
0.0
  0
LINE
  5
2DC
330
75
100
AcDbEntity
  8
$DDT_AUDIT_GENERATED_(D9)
  6
Continuous
 62
     7
100
AcDbLine
 10
42.6539949594
 20
455.601565952
 30
0.0
 11
43.6539949594
 21
455.601565952
 31
0.0
  0
LINE
  5
2DD
330
75
100
AcDbEntity
  8
$DDT_AUDIT_GENERATED_(D9)
  6
Continuous
 62
     7
100
AcDbLine
 10
43.6539949594
 20
455.601565952
 30
0.0
 11
43.6539949594
 21
455.3427469069
 31
0.0
  0
LINE
  5
2DE
330
75
100
AcDbEntity
  8
$DDT_AUDIT_GENERATED_(D9)
  6
Continuous
 62
     7
100
AcDbLine
 10
42.4539949594
 20
455.3427469069
 30
0.0
 11
41.4539949594
 21
455.3427469069
 31
0.0
  0
LINE
  5
2DF
330
75
100
AcDbEntity
  8
$DDT_AUDIT_GENERATED_(D9)
  6
Continuous
 62
     7
100
AcDbLine
 10
41.4539949594
 20
455.3427469069
 30
0.0
 11
41.4539949594
 21
455.601565952
 31
0.0
  0
LINE
  5
2E0
330
75
100
AcDbEntity
  8
$DDT_AUDIT_GENERATED_(D9)
  6
Continuous
 62
     7
100
AcDbLine
 10
41.4539949594
 20
455.601565952
 30
0.0
 11
42.4539949594
 21
455.601565952
 31
0.0
  0
LINE
  5
2E1
330
75
100
AcDbEntity
  8
$DDT_AUDIT_GENERATED_(D9)
  6
Continuous
 62
     7
100
AcDbLine
 10
42.4539949594
 20
455.601565952
 30
0.0
 11
42.4539949594
 21
455.3427469069
 31
0.0
  0
LINE
  5
2E2
330
75
100
AcDbEntity
  8
$DDT_AUDIT_GENERATED_(D9)
  6
Continuous
 62
     7
100
AcDbLine
 10
41.2539949594
 20
455.3427469069
 30
0.0
 11
40.2539949594
 21
455.3427469069
 31
0.0
  0
LINE
  5
2E3
330
75
100
AcDbEntity
  8
$DDT_AUDIT_GENERATED_(D9)
  6
Continuous
 62
     7
100
AcDbLine
 10
40.2539949594
 20
455.3427469069
 30
0.0
 11
40.2539949594
 21
455.601565952
 31
0.0
  0
LINE
  5
2E4
330
75
100
AcDbEntity
  8
$DDT_AUDIT_GENERATED_(D9)
  6
Continuous
 62
     7
100
AcDbLine
 10
40.2539949594
 20
455.601565952
 30
0.0
 11
41.2539949594
 21
455.601565952
 31
0.0
  0
LINE
  5
2E5
330
75
100
AcDbEntity
  8
$DDT_AUDIT_GENERATED_(D9)
  6
Continuous
 62
     7
100
AcDbLine
 10
41.2539949594
 20
455.601565952
 30
0.0
 11
41.2539949594
 21
455.3427469069
 31
0.0
  0
LINE
  5
2E6
330
75
100
AcDbEntity
  8
$DDT_AUDIT_GENERATED_(D9)
  6
Continuous
 62
     7
100
AcDbLine
 10
43.8539949594
 20
455.0321640528
 30
0.0
 11
43.8539949594
 21
455.2909830979
 31
0.0
  0
LINE
  5
2E7
330
75
100
AcDbEntity
  8
$DDT_AUDIT_GENERATED_(D9)
  6
Continuous
 62
     7
100
AcDbLine
 10
43.6539949594
 20
455.0321640528
 30
0.0
 11
42.6539949594
 21
455.0321640528
 31
0.0
  0
LINE
  5
2E8
330
75
100
AcDbEntity
  8
$DDT_AUDIT_GENERATED_(D9)
  6
Continuous
 62
     7
100
AcDbLine
 10
42.6539949594
 20
455.0321640528
 30
0.0
 11
42.6539949594
 21
455.2909830979
 31
0.0
  0
LINE
  5
2E9
330
75
100
AcDbEntity
  8
$DDT_AUDIT_GENERATED_(D9)
  6
Continuous
 62
     7
100
AcDbLine
 10
42.6539949594
 20
455.2909830979
 30
0.0
 11
43.6539949594
 21
455.2909830979
 31
0.0
  0
LINE
  5
2EA
330
75
100
AcDbEntity
  8
$DDT_AUDIT_GENERATED_(D9)
  6
Continuous
 62
     7
100
AcDbLine
 10
43.6539949594
 20
455.2909830979
 30
0.0
 11
43.6539949594
 21
455.0321640528
 31
0.0
  0
LINE
  5
2EB
330
75
100
AcDbEntity
  8
$DDT_AUDIT_GENERATED_(D9)
  6
Continuous
 62
     7
100
AcDbLine
 10
42.4539949594
 20
455.0321640528
 30
0.0
 11
41.4539949594
 21
455.0321640528
 31
0.0
  0
LINE
  5
2EC
330
75
100
AcDbEntity
  8
$DDT_AUDIT_GENERATED_(D9)
  6
Continuous
 62
     7
100
AcDbLine
 10
41.4539949594
 20
455.0321640528
 30
0.0
 11
41.4539949594
 21
455.2909830979
 31
0.0
  0
LINE
  5
2ED
330
75
100
AcDbEntity
  8
$DDT_AUDIT_GENERATED_(D9)
  6
Continuous
 62
     7
100
AcDbLine
 10
41.4539949594
 20
455.2909830979
 30
0.0
 11
42.4539949594
 21
455.2909830979
 31
0.0
  0
LINE
  5
2EE
330
75
100
AcDbEntity
  8
$DDT_AUDIT_GENERATED_(D9)
  6
Continuous
 62
     7
100
AcDbLine
 10
42.4539949594
 20
455.2909830979
 30
0.0
 11
42.4539949594
 21
455.0321640528
 31
0.0
  0
LINE
  5
2EF
330
75
100
AcDbEntity
  8
$DDT_AUDIT_GENERATED_(D9)
  6
Continuous
 62
     7
100
AcDbLine
 10
43.8539949594
 20
454.8937386863
 30
0.0
 11
43.8539949594
 21
454.9804002437
 31
0.0
  0
ELLIPSE
  5
2F0
330
75
100
AcDbEntity
  8
$DDT_AUDIT_GENERATED_(D9)
  6
Continuous
 62
     7
100
AcDbEllipse
 10
44.3539949825
 20
457.0250707815
 30
0.0
 11
-8.250000158657596
 21
-6.380285189067081E-9
 31
0.0
210
0.0
220
0.0
230
1.0
 40
0.25881905
 41
1.485845701547819
 42
1.510153100936956
  0
LINE
  5
2F1
330
75
100
AcDbEntity
  8
$DDT_AUDIT_GENERATED_(D9)
  6
Continuous
 62
     7
100
AcDbLine
 10
42.6539949594
 20
454.9356378378
 30
0.0
 11
42.6539949594
 21
454.9804002437
 31
0.0
  0
LINE
  5
2F2
330
75
100
AcDbEntity
  8
$DDT_AUDIT_GENERATED_(D9)
  6
Continuous
 62
     7
100
AcDbLine
 10
42.6539949594
 20
454.9804002437
 30
0.0
 11
43.6539949594
 21
454.9804002437
 31
0.0
  0
LINE
  5
2F3
330
75
100
AcDbEntity
  8
$DDT_AUDIT_GENERATED_(D9)
  6
Continuous
 62
     7
100
AcDbLine
 10
43.6539949594
 20
454.9804002437
 30
0.0
 11
43.6539949594
 21
454.897513603
 31
0.0
  0
ELLIPSE
  5
2F4
330
75
100
AcDbEntity
  8
$DDT_AUDIT_GENERATED_(D9)
  6
Continuous
 62
     7
100
AcDbEllipse
 10
44.3539950266
 20
457.0250707776
 30
0.0
 11
-8.250000160781928
 21
-1.817927752778559E-8
 31
0.0
210
0.0
220
0.0
230
1.0
 40
0.2588190495
 41
1.338407249990732
 42
1.363248871526974
  0
LINE
  5
2F5
330
75
100
AcDbEntity
  8
$DDT_AUDIT_GENERATED_(D9)
  6
Continuous
 62
     7
100
AcDbLine
 10
41.9764962738
 20
454.9804002437
 30
0.0
 11
42.4539949594
 21
454.9804002437
 31
0.0
  0
LINE
  5
2F6
330
75
100
AcDbEntity
  8
$DDT_AUDIT_GENERATED_(D9)
  6
Continuous
 62
     7
100
AcDbLine
 10
42.4539949594
 20
454.9804002437
 30
0.0
 11
42.4539949594
 21
454.9472115058
 31
0.0
  0
ELLIPSE
  5
2F7
330
75
100
AcDbEntity
  8
$DDT_AUDIT_GENERATED_(D9)
  6
Continuous
 62
     7
100
AcDbEllipse
 10
44.3539949595
 20
457.0250707001
 30
0.0
 11
-8.250000000139847
 21
-2.110811525568579E-11
 31
0.0
210
0.0
220
0.0
230
1.0
 40
0.2588190451
 41
1.185582205128243
 42
1.278468933635538
  0
LINE
  5
2F8
330
75
100
AcDbEntity
  8
$DDT_AUDIT_GENERATED_(D9)
  6
Continuous
 62
     7
100
AcDbLine
 10
40.2539949594
 20
455.1721631211
 30
0.0
 11
40.2539949594
 21
455.2909830979
 31
0.0
  0
LINE
  5
2F9
330
75
100
AcDbEntity
  8
$DDT_AUDIT_GENERATED_(D9)
  6
Continuous
 62
     7
100
AcDbLine
 10
40.2539949594
 20
455.2909830979
 30
0.0
 11
41.2539949594
 21
455.2909830979
 31
0.0
  0
LINE
  5
2FA
330
75
100
AcDbEntity
  8
$DDT_AUDIT_GENERATED_(D9)
  6
Continuous
 62
     7
100
AcDbLine
 10
41.2539949594
 20
455.2909830979
 30
0.0
 11
41.2539949594
 21
455.0462894987
 31
0.0
  0
ELLIPSE
  5
2FB
330
75
100
AcDbEntity
  8
$DDT_AUDIT_GENERATED_(D9)
  6
Continuous
 62
     7
100
AcDbEllipse
 10
44.3539949529
 20
457.0250706978
 30
0.0
 11
-8.249999992565677
 21
1.447980624291745E-9
 31
0.0
210
0.0
220
0.0
230
1.0
 40
0.2588190451
 41
0.9073568929112656
 42
0.9477783673521546
  0
LINE
  5
2FC
330
75
100
AcDbEntity
  8
$DDT_AUDIT_GENERATED_(D9)
  6
Continuous
 62
     7
100
AcDbLine
 10
39.0539949594
 20
455.3887181177
 30
0.0
 11
39.0539949594
 21
455.601565952
 31
0.0
  0
LINE
  5
2FD
330
75
100
AcDbEntity
  8
$DDT_AUDIT_GENERATED_(D9)
  6
Continuous
 62
     7
100
AcDbLine
 10
39.0539949594
 20
455.601565952
 30
0.0
 11
40.0539949594
 21
455.601565952
 31
0.0
  0
LINE
  5
2FE
330
75
100
AcDbEntity
  8
$DDT_AUDIT_GENERATED_(D9)
  6
Continuous
 62
     7
100
AcDbLine
 10
40.0539949594
 20
455.601565952
 30
0.0
 11
40.0539949594
 21
455.3427469069
 31
0.0
  0
LINE
  5
2FF
330
75
100
AcDbEntity
  8
$DDT_AUDIT_GENERATED_(D9)
  6
Continuous
 62
     7
100
AcDbLine
 10
40.0539949594
 20
455.3427469069
 30
0.0
 11
39.2733946012
 21
455.3427469069
 31
0.0
  0
LINE
  5
300
330
75
100
AcDbEntity
  8
$DDT_AUDIT_GENERATED_(D9)
  6
Continuous
 62
     7
100
AcDbLine
 10
39.2733946012
 20
455.3427469069
 30
0.0
 11
39.2733946012
 21
455.601565952
 31
0.0
  0
ELLIPSE
  5
301
330
75
100
AcDbEntity
  8
$DDT_AUDIT_GENERATED_(D9)
  6
Continuous
 62
     7
100
AcDbEllipse
 10
44.3539949706
 20
457.025070705
 30
0.0
 11
-8.250000013820777
 21
-2.677302823883565E-9
 31
0.0
210
0.0
220
0.0
230
1.0
 40
0.2588190453
 41
1.022525692072404
 42
1.050693122853726
  0
LINE
  5
302
330
75
100
AcDbEntity
  8
$DDT_AUDIT_GENERATED_(D9)
  6
Continuous
 62
     7
100
AcDbLine
 10
39.5402126627
 20
455.2909830979
 30
0.0
 11
40.0539949594
 21
455.2909830979
 31
0.0
  0
LINE
  5
303
330
75
100
AcDbEntity
  8
$DDT_AUDIT_GENERATED_(D9)
  6
Continuous
 62
     7
100
AcDbLine
 10
40.0539949594
 20
455.2909830979
 30
0.0
 11
40.0539949594
 21
455.2027842694
 31
0.0
  0
ELLIPSE
  5
304
330
75
100
AcDbEntity
  8
$DDT_AUDIT_GENERATED_(D9)
  6
Continuous
 62
     7
100
AcDbEllipse
 10
44.3539948822
 20
457.0250706828
 30
0.0
 11
-8.249999919716643
 21
1.402576665920918E-8
 31
0.0
210
0.0
220
0.0
230
1.0
 40
0.2588190453
 41
0.6976574562777432
 42
0.7297276598347301
  0
LINE
  5
305
330
75
100
AcDbEntity
  8
$DDT_AUDIT_GENERATED_(D9)
  6
Continuous
 62
     7
100
AcDbLine
 10
37.8539949594
 20
455.7101145668
 30
0.0
 11
37.8539949594
 21
455.9121488061
 31
0.0
  0
LINE
  5
306
330
75
100
AcDbEntity
  8
$DDT_AUDIT_GENERATED_(D9)
  6
Continuous
 62
     7
100
AcDbLine
 10
37.8539949594
 20
455.9121488061
 30
0.0
 11
38.8539949594
 21
455.9121488061
 31
0.0
  0
LINE
  5
307
330
75
100
AcDbEntity
  8
$DDT_AUDIT_GENERATED_(D9)
  6
Continuous
 62
     7
100
AcDbLine
 10
38.8539949594
 20
455.9121488061
 30
0.0
 11
38.8539949594
 21
455.653329761
 31
0.0
  0
LINE
  5
308
330
75
100
AcDbEntity
  8
$DDT_AUDIT_GENERATED_(D9)
  6
Continuous
 62
     7
100
AcDbLine
 10
38.8539949594
 20
455.653329761
 30
0.0
 11
38.0316140788
 21
455.653329761
 31
0.0
  0
LINE
  5
309
330
75
100
AcDbEntity
  8
$DDT_AUDIT_GENERATED_(D9)
  6
Continuous
 62
     7
100
AcDbLine
 10
38.0316140788
 20
455.653329761
 30
0.0
 11
38.0316140788
 21
455.9121488061
 31
0.0
  0
ELLIPSE
  5
30A
330
75
100
AcDbEntity
  8
$DDT_AUDIT_GENERATED_(D9)
  6
Continuous
 62
     7
100
AcDbEllipse
 10
44.3539950477
 20
457.0250707264
 30
0.0
 11
-8.250000096245085
 21
-1.851141462339001E-8
 31
0.0
210
0.0
220
0.0
230
1.0
 40
0.2588190454
 41
0.841068666075941
 42
0.8731388691725659
  0
LINE
  5
30B
330
75
100
AcDbEntity
  8
$DDT_AUDIT_GENERATED_(D9)
  6
Continuous
 62
     7
100
AcDbLine
 10
38.2048080213
 20
455.601565952
 30
0.0
 11
38.8539949594
 21
455.601565952
 31
0.0
  0
LINE
  5
30C
330
75
100
AcDbEntity
  8
$DDT_AUDIT_GENERATED_(D9)
  6
Continuous
 62
     7
100
AcDbLine
 10
38.8539949594
 20
455.601565952
 30
0.0
 11
38.8539949594
 21
455.4335440086
 31
0.0
  0
LINE
  5
30D
330
75
100
AcDbEntity
  8
$DDT_AUDIT_GENERATED_(D9)
  6
Continuous
 62
     7
100
AcDbLine
 10
37.6539949594
 20
456.2744954693
 30
0.0
 11
36.6539949594
 21
456.2744954693
 31
0.0
  0
LINE
  5
30E
330
75
100
AcDbEntity
  8
$DDT_AUDIT_GENERATED_(D9)
  6
Continuous
 62
     7
100
AcDbLine
 10
36.6539949594
 20
456.2744954693
 30
0.0
 11
36.6539949594
 21
456.5333145144
 31
0.0
  0
LINE
  5
30F
330
75
100
AcDbEntity
  8
$DDT_AUDIT_GENERATED_(D9)
  6
Continuous
 62
     7
100
AcDbLine
 10
36.6539949594
 20
456.5333145144
 30
0.0
 11
37.6539949594
 21
456.5333145144
 31
0.0
  0
LINE
  5
310
330
75
100
AcDbEntity
  8
$DDT_AUDIT_GENERATED_(D9)
  6
Continuous
 62
     7
100
AcDbLine
 10
37.6539949594
 20
456.5333145144
 30
0.0
 11
37.6539949594
 21
456.2744954693
 31
0.0
  0
ELLIPSE
  5
311
330
75
100
AcDbEntity
  8
$DDT_AUDIT_GENERATED_(D9)
  6
Continuous
 62
     7
100
AcDbEllipse
 10
44.3539951128
 20
457.0250707235
 30
0.0
 11
-8.250000155044443
 21
-2.166754276000660E-8
 31
0.0
210
0.0
220
0.0
230
1.0
 40
0.2588190438
 41
0.5201031980033567
 42
0.5482706285183214
  0
LINE
  5
312
330
75
100
AcDbEntity
  8
$DDT_AUDIT_GENERATED_(D9)
  6
Continuous
 62
     7
100
AcDbLine
 10
36.7085714918
 20
456.2227316602
 30
0.0
 11
37.6539949594
 21
456.2227316602
 31
0.0
  0
LINE
  5
313
330
75
100
AcDbEntity
  8
$DDT_AUDIT_GENERATED_(D9)
  6
Continuous
 62
     7
100
AcDbLine
 10
37.6539949594
 20
456.2227316602
 30
0.0
 11
37.6539949594
 21
455.9639126151
 31
0.0
  0
LINE
  5
314
330
75
100
AcDbEntity
  8
$DDT_AUDIT_GENERATED_(D9)
  6
Continuous
 62
     7
100
AcDbLine
 10
37.6539949594
 20
455.9639126151
 30
0.0
 11
37.1949098224
 21
455.9639126151
 31
0.0
  0
LINE
  5
315
330
75
100
AcDbEntity
  8
$DDT_AUDIT_GENERATED_(D9)
  6
Continuous
 62
     7
100
AcDbLine
 10
37.1949098224
 20
455.9639126151
 30
0.0
 11
37.1949098224
 21
456.2227316602
 31
0.0
  0
ELLIPSE
  5
316
330
75
100
AcDbEntity
  8
$DDT_AUDIT_GENERATED_(D9)
  6
Continuous
 62
     7
100
AcDbEllipse
 10
44.3539949559
 20
457.0250706994
 30
0.0
 11
-8.249999996362195
 21
5.832140326234025E-10
 31
0.0
210
0.0
220
0.0
230
1.0
 40
0.2588190451
 41
0.6230179599659879
 42
0.6634394343910167
  0
LINE
  5
317
330
75
100
AcDbEntity
  8
$DDT_AUDIT_GENERATED_(D9)
  6
Continuous
 62
     7
100
AcDbLine
 10
37.3132208543
 20
455.9121488061
 30
0.0
 11
37.6539949594
 21
455.9121488061
 31
0.0
  0
LINE
  5
318
330
75
100
AcDbEntity
  8
$DDT_AUDIT_GENERATED_(D9)
  6
Continuous
 62
     7
100
AcDbLine
 10
37.6539949594
 20
455.9121488061
 30
0.0
 11
37.6539949594
 21
455.7791721627
 31
0.0
  0
LINE
  5
319
330
75
100
AcDbEntity
  8
$DDT_AUDIT_GENERATED_(D9)
  6
Continuous
 62
     7
100
AcDbLine
 10
36.4539949594
 20
456.8956611775
 30
0.0
 11
36.2178733652
 21
456.8956611775
 31
0.0
  0
ELLIPSE
  5
31A
330
75
100
AcDbEntity
  8
$DDT_AUDIT_GENERATED_(D9)
  6
Continuous
 62
     7
100
AcDbEllipse
 10
44.3539952657
 20
457.0250707177
 30
0.0
 11
-8.250000306385225
 21
-1.849290165445439E-8
 31
0.0
210
0.0
220
0.0
230
1.0
 40
0.2588190406
 41
0.2075474460877267
 42
0.232389067613484
  0
LINE
  5
31B
330
75
100
AcDbEntity
  8
$DDT_AUDIT_GENERATED_(D9)
  6
Continuous
 62
     7
100
AcDbLine
 10
36.1868115552
 20
456.8438973685
 30
0.0
 11
36.4539949594
 21
456.8438973685
 31
0.0
  0
LINE
  5
31C
330
75
100
AcDbEntity
  8
$DDT_AUDIT_GENERATED_(D9)
  6
Continuous
 62
     7
100
AcDbLine
 10
36.4539949594
 20
456.8438973685
 30
0.0
 11
36.4539949594
 21
456.5850783234
 31
0.0
  0
LINE
  5
31D
330
75
100
AcDbEntity
  8
$DDT_AUDIT_GENERATED_(D9)
  6
Continuous
 62
     7
100
AcDbLine
 10
36.4539949594
 20
456.5850783234
 30
0.0
 11
36.2810463036
 21
456.5850783234
 31
0.0
  0
LINE
  5
31E
330
75
100
AcDbEntity
  8
$DDT_AUDIT_GENERATED_(D9)
  6
Continuous
 62
     7
100
AcDbLine
 10
36.2810463036
 20
456.5850783234
 30
0.0
 11
36.2810463036
 21
456.8438973685
 31
0.0
  0
ELLIPSE
  5
31F
330
75
100
AcDbEntity
  8
$DDT_AUDIT_GENERATED_(D9)
  6
Continuous
 62
     7
100
AcDbEllipse
 10
44.3539949606
 20
457.0250707002
 30
0.0
 11
-8.250000001196387
 21
-1.069283550592104E-10
 31
0.0
210
0.0
220
0.0
230
1.0
 40
0.2588190451
 41
0.2923273931295835
 42
0.3852141216311929
  0
LINE
  5
320
330
75
100
AcDbEntity
  8
$DDT_AUDIT_GENERATED_(D9)
  6
Continuous
 62
     7
100
AcDbLine
 10
36.3257635228
 20
456.5333145144
 30
0.0
 11
36.4539949594
 21
456.5333145144
 31
0.0
  0
LINE
  5
321
330
75
100
AcDbEntity
  8
$DDT_AUDIT_GENERATED_(D9)
  6
Continuous
 62
     7
100
AcDbLine
 10
36.4539949594
 20
456.5333145144
 30
0.0
 11
36.4539949594
 21
456.4097287605
 31
0.0
  0
LINE
  5
322
330
75
100
AcDbEntity
  8
$DDT_AUDIT_GENERATED_(D9)
  6
Continuous
 62
     7
100
AcDbLine
 10
53.7539949594
 20
456.5421077869
 30
0.0
 11
53.7539949594
 21
457.3456797533
 31
0.0
  0
LINE
  5
323
330
75
100
AcDbEntity
  8
$DDT_AUDIT_GENERATED_(D9)
  6
Continuous
 62
     7
100
AcDbLine
 10
34.9539949594
 20
457.3456797533
 30
0.0
 11
34.9539949594
 21
456.5421077869
 31
0.0
  0
ENDBLK
  5
325
330
75
100
AcDbEntity
  8
0
100
AcDbBlockEnd
  0
BLOCK
  5
370
330
326
100
AcDbEntity
  8
0
100
AcDbBlockBegin
  2
SE1
 70
     0
 10
0.0
 20
0.0
 30
0.0
  3
SE1
  1

  0
ARC
  5
328
330
326
100
AcDbEntity
  8
$DDT_AUDIT_GENERATED_(77)
  6
Continuous
 62
     7
100
AcDbCircle
 10
-1139.535172184
 20
-16940.7718063141
 30
0.0
 40
17472.41815783348
100
AcDbArc
 50
85.2324195202
 51
85.6046315189
  0
LINE
  5
329
330
326
100
AcDbEntity
  8
$DDT_AUDIT_GENERATED_(77)
  6
Continuous
 62
     7
100
AcDbLine
 10
201.4536827002
 20
491.9984312415
 30
0.0
 11
174.8562071322
 21
495.2641919023
 31
0.0
  0
LINE
  5
32A
330
326
100
AcDbEntity
  8
$DDT_AUDIT_GENERATED_(77)
  6
Continuous
 62
     7
100
AcDbLine
 10
201.4536713037
 20
491.9984326408
 30
0.0
 11
311.5687061924
 21
478.4780010425
 31
0.0
  0
SPLINE
  5
32B
330
326
100
AcDbEntity
  8
$DDT_AUDIT_GENERATED_(77)
  6
Continuous
 62
     7
100
AcDbSpline
210
0.0
220
0.0
230
1.0
 70
     8
 71
     3
 72
    24
 73
    20
 74
     0
 42
0.0000000001379228
 43
0.0000000001
 40
0.5001979667510955
 40
0.5001979667510955
 40
0.5001979667510955
 40
0.5001979667510955
 40
0.5625000000000003
 40
0.5625000000000003
 40
0.6250000000000002
 40
0.6250000000000002
 40
0.6875000000000002
 40
0.6875000000000002
 40
0.7500000000000001
 40
0.7500000000000001
 40
0.8125
 40
0.8125
 40
0.8749999999999999
 40
0.8749999999999999
 40
0.9374999999999999
 40
0.9374999999999999
 40
0.96875
 40
0.96875
 40
1.0
 40
1.0
 40
1.0
 40
1.0
 10
219.1448405103464
 20
449.793503419022
 30
0.0
 10
219.1448329345151
 20
449.7933066594607
 30
0.0
 10
218.9386871763324
 20
450.1141963789095
 30
0.0
 10
218.1635494722127
 20
451.3217605665255
 30
0.0
 10
217.6113709414301
 20
452.1810672820932
 30
0.0
 10
216.2706486219845
 20
454.267832279816
 30
0.0
 10
215.5038786607215
 20
455.4611720796712
 30
0.0
 10
213.8284971193256
 20
458.0669758544444
 30
0.0
 10
212.9142767927653
 20
459.4888323168473
 30
0.0
 10
211.0312358820423
 20
462.4152825223471
 30
0.0
 10
210.0548323844461
 20
463.931946289578
 30
0.0
 10
208.0445949442903
 20
467.0543536695909
 30
0.0
 10
207.0040311462516
 20
468.6676547539648
 30
0.0
 10
204.9016509616481
 20
471.9319035985195
 30
0.0
 10
203.8389398144723
 20
473.5783477318797
 30
0.0
 10
202.2310742778152
 20
476.0689474661687
 30
0.0
 10
201.6916227512601
 20
476.9018512407717
 30
0.0
 10
200.6099587457073
 20
478.5757623332495
 30
0.0
 10
200.0655855709441
 20
479.4316183321736
 30
0.0
 10
199.523538819894
 20
480.2591060824251
 30
0.0
  0
SPLINE
  5
32C
330
326
100
AcDbEntity
  8
$DDT_AUDIT_GENERATED_(77)
  6
Continuous
 62
     7
100
AcDbSpline
210
0.0
220
0.0
230
1.0
 70
     8
 71
     3
 72
    26
 73
    22
 74
     0
 42
0.0000000001893832
 43
0.0000000001
 40
0.2523908817176483
 40
0.2523908817176483
 40
0.2523908817176483
 40
0.2523908817176483
 40
0.2812500000000006
 40
0.2812500000000006
 40
0.3125000000000006
 40
0.3125000000000006
 40
0.3750000000000003
 40
0.3750000000000003
 40
0.4375000000000005
 40
0.4375000000000005
 40
0.5000000000000006
 40
0.5000000000000006
 40
0.5625000000000007
 40
0.5625000000000007
 40
0.6250000000000008
 40
0.6250000000000008
 40
0.6875000000000009
 40
0.6875000000000009
 40
0.750000000000001
 40
0.750000000000001
 40
0.7523322336957239
 40
0.7523322336957239
 40
0.7523322336957239
 40
0.7523322336957239
 10
311.3593302441319
 20
462.6857584556881
 30
0.0
 10
311.35909161722
 20
462.6858357035906
 30
0.0
 10
311.2790513746982
 20
462.7039379585188
 30
0.0
 10
310.9555999118945
 20
462.7764718772808
 30
0.0
 10
310.6995838361432
 20
462.8342850154485
 30
0.0
 10
309.678612466592
 20
463.064851034844
 30
0.0
 10
308.6850464013573
 20
463.2915488524875
 30
0.0
 10
306.2915069651363
 20
463.7987707326497
 30
0.0
 10
304.8813026098718
 20
464.0841158231387
 30
0.0
 10
301.8619399138089
 20
464.4790865563261
 30
0.0
 10
300.2069770298237
 20
464.5844639554095
 30
0.0
 10
296.9148118583852
 20
464.1922620994642
 30
0.0
 10
295.3102285804036
 20
463.6640005590974
 30
0.0
 10
292.5622547353182
 20
462.252514195049
 30
0.0
 10
291.3958433429551
 20
461.3964644960108
 30
0.0
 10
289.4693756045301
 20
459.8170389976972
 30
0.0
 10
288.7195474574356
 20
459.0774653360901
 30
0.0
 10
287.6560314976713
 20
457.9964721833438
 30
0.0
 10
287.3659476042921
 20
457.6737456444585
 30
0.0
 10
287.3447279882901
 20
457.6507424706142
 30
0.0
 10
287.3443414842937
 20
457.6503257176796
 30
0.0
 10
287.3443308412679
 20
457.650317656328
 30
0.0
  0
ARC
  5
32D
330
326
100
AcDbEntity
  8
$DDT_AUDIT_GENERATED_(77)
  6
Continuous
 62
     7
100
AcDbCircle
 10
25.0188129889
 20
418.9484839831
 30
0.0
 40
139.0561344371783
100
AcDbArc
 50
350.4642886667
 51
355.5356973163
  0
LINE
  5
32E
330
326
100
AcDbEntity
  8
$DDT_AUDIT_GENERATED_(77)
  6
Continuous
 62
     7
100
AcDbLine
 10
208.9852038557
 20
369.2115883019
 30
0.0
 11
159.2142181833
 21
369.2115883019
 31
0.0
  0
ARC
  5
32F
330
326
100
AcDbEntity
  8
$DDT_AUDIT_GENERATED_(77)
  6
Continuous
 62
     7
100
AcDbCircle
 10
305.7635749356
 20
474.9715634263
 30
0.0
 40
13.26265766229773
100
AcDbArc
 50
313.1456323963
 51
341.6470835386
  0
ARC
  5
330
330
326
100
AcDbEntity
  8
$DDT_AUDIT_GENERATED_(77)
  6
Continuous
 62
     7
100
AcDbCircle
 10
302.3621524915
 20
478.3608420298
 30
0.0
 40
18.06134087995394
100
AcDbArc
 50
299.7464495954
 51
313.7960097645
  0
ARC
  5
331
330
326
100
AcDbEntity
  8
$DDT_AUDIT_GENERATED_(77)
  6
Continuous
 62
     7
100
AcDbCircle
 10
115.1459822086
 20
3023.6549924372
 30
0.0
 40
2571.776100164582
100
AcDbArc
 50
272.4220176756
 51
273.8396952844
  0
LINE
  5
332
330
326
100
AcDbEntity
  8
$DDT_AUDIT_GENERATED_(77)
  6
Continuous
 62
     7
100
AcDbLine
 10
318.222266513
 20
471.2233602214
 30
0.0
 11
311.8433508292
 21
478.3587659562
 31
0.0
  0
ARC
  5
333
330
326
100
AcDbEntity
  8
$DDT_AUDIT_GENERATED_(77)
  6
Continuous
 62
     7
100
AcDbCircle
 10
317.8536970915
 20
470.8854307812
 30
0.0
 40
0.500000000001766
100
AcDbArc
 50
340.2634242049
 51
42.620689273
  0
ARC
  5
334
330
326
100
AcDbEntity
  8
$DDT_AUDIT_GENERATED_(77)
  6
Continuous
 62
     7
100
AcDbCircle
 10
174.7952698644
 20
494.7679191453
 30
0.0
 40
0.5000000000000054
100
AcDbArc
 50
82.9999972367
 51
172.9999972367
  0
ARC
  5
335
330
326
100
AcDbEntity
  8
$DDT_AUDIT_GENERATED_(77)
  6
Continuous
 62
     7
100
AcDbCircle
 10
311.5096319025
 20
477.9815181081
 30
0.0
 40
0.4999815712369906
100
AcDbArc
 50
44.985734244
 51
83.0830440747
  0
ARC
  5
336
330
326
100
AcDbEntity
  8
$DDT_AUDIT_GENERATED_(77)
  6
Continuous
 62
     7
100
AcDbCircle
 10
224.086250431
 20
449.2104905516
 30
0.0
 40
4.963391649894981
100
AcDbArc
 50
92.9661226893
 51
173.2701505288
  0
LINE
  5
337
330
326
100
AcDbEntity
  8
$DDT_AUDIT_GENERATED_(77)
  6
Continuous
 62
     7
100
AcDbLine
 10
162.1535447172
 20
395.912124062
 30
0.0
 11
158.9164543396
 21
369.5481491193
 31
0.0
  0
LINE
  5
338
330
326
100
AcDbEntity
  8
$DDT_AUDIT_GENERATED_(77)
  6
Continuous
 62
     7
100
AcDbLine
 10
174.2989967915
 20
494.8288538409
 30
0.0
 11
163.6526200832
 21
408.1211082964
 31
0.0
  0
LINE
  5
339
330
326
100
AcDbEntity
  8
$DDT_AUDIT_GENERATED_(77)
  6
Continuous
 62
     7
100
AcDbLine
 10
209.2829676994
 20
369.4750274845
 30
0.0
 11
219.1448428533
 21
449.7935231436
 31
0.0
  0
ARC
  5
33A
330
326
100
AcDbEntity
  8
$DDT_AUDIT_GENERATED_(77)
  6
Continuous
 62
     7
100
AcDbCircle
 10
159.2142181833
 20
369.5115883019
 30
0.0
 40
0.3
100
AcDbArc
 50
172.9999972367
 51
270.0
  0
ARC
  5
33B
330
326
100
AcDbEntity
  8
$DDT_AUDIT_GENERATED_(77)
  6
Continuous
 62
     7
100
AcDbCircle
 10
208.9852038557
 20
369.5115883019
 30
0.0
 40
0.3
100
AcDbArc
 50
270.0
 51
353.051783858
  0
LINE
  5
33C
330
326
100
AcDbEntity
  8
$DDT_AUDIT_GENERATED_(87)
  6
Continuous
 62
     7
100
AcDbLine
 10
225.4132839155
 20
501.2193990468
 30
0.0
 11
225.9488011131
 21
508.8776517635
 31
0.0
  0
LINE
  5
33D
330
326
100
AcDbEntity
  8
$DDT_AUDIT_GENERATED_(87)
  6
Continuous
 62
     7
100
AcDbLine
 10
225.1623941189
 20
501.3642503384
 30
0.0
 11
225.4132839155
 21
501.2193990468
 31
0.0
  0
LINE
  5
33E
330
326
100
AcDbEntity
  8
$DDT_AUDIT_GENERATED_(87)
  6
Continuous
 62
     7
100
AcDbLine
 10
225.9488011131
 20
508.8776517635
 30
0.0
 11
225.8553128745
 21
508.9316272232
 31
0.0
  0
LINE
  5
33F
330
326
100
AcDbEntity
  8
$DDT_AUDIT_GENERATED_(8B)
  6
Continuous
 62
     7
100
AcDbLine
 10
222.6466145101
 20
489.3962665266
 30
0.0
 11
175.7005455213
 21
495.1605189935
 31
0.0
  0
ARC
  5
340
330
326
100
AcDbEntity
  8
$DDT_AUDIT_GENERATED_(8B)
  6
Continuous
 62
     7
100
AcDbCircle
 10
198.3936162179
 20
485.9260973895
 30
0.0
 40
24.5
100
AcDbArc
 50
120.7520013062
 51
157.8572685595
  0
ARC
  5
341
330
326
100
AcDbEntity
  8
$DDT_AUDIT_GENERATED_(8B)
  6
Continuous
 62
     7
100
AcDbCircle
 10
198.3936162179
 20
485.9260973895
 30
0.0
 40
24.5
100
AcDbArc
 50
8.1427314405
 51
14.6710632542
  0
LINE
  5
342
330
326
100
AcDbEntity
  8
$DDT_AUDIT_GENERATED_(90)
  6
Continuous
 62
     7
100
AcDbLine
 10
206.5241919368
 20
524.8714789651
 30
0.0
 11
181.1163153509
 21
523.5399089744
 31
0.0
  0
ARC
  5
343
330
326
100
AcDbEntity
  8
$DDT_AUDIT_GENERATED_(90)
  6
Continuous
 62
     7
100
AcDbCircle
 10
181.1424833195
 20
523.040594218
 30
0.0
 40
0.4999999884904529
100
AcDbArc
 50
92.999998972
 51
166.6601229896
  0
ARC
  5
344
330
326
100
AcDbEntity
  8
$DDT_AUDIT_GENERATED_(90)
  6
Continuous
 62
     7
100
AcDbCircle
 10
616.0416301058
 20
-5762.0203978803
 30
0.0
 40
6296.776461270222
100
AcDbArc
 50
93.1116002567
 51
93.7320301909
  0
ARC
  5
345
330
326
100
AcDbEntity
  8
$DDT_AUDIT_GENERATED_(90)
  6
Continuous
 62
     7
100
AcDbCircle
 10
295.2114218795
 20
529.0186921571
 30
0.0
 40
0.5000000160429012
100
AcDbArc
 50
55.4538474919
 51
92.9999973393
  0
LINE
  5
346
330
326
100
AcDbEntity
  8
$DDT_AUDIT_GENERATED_(90)
  6
Continuous
 62
     7
100
AcDbLine
 10
295.1852542605
 20
529.5180069636
 30
0.0
 11
206.5241919203
 21
524.8714789642
 31
0.0
  0
ARC
  5
347
330
326
100
AcDbEntity
  8
$DDT_AUDIT_GENERATED_(90)
  6
Continuous
 62
     7
100
AcDbCircle
 10
229.5690747124
 20
516.4362145212
 30
0.0
 40
3.000000035352103
100
AcDbArc
 50
94.8148241607
 51
174.7699729273
  0
ARC
  5
348
330
326
100
AcDbEntity
  8
$DDT_AUDIT_GENERATED_(90)
  6
Continuous
 62
     7
100
AcDbCircle
 10
233.8615324895
 20
599.3503066335
 30
0.0
 40
82.96066200983446
100
AcDbArc
 50
252.9171440245
 51
264.965702758
  0
ARC
  5
349
330
326
100
AcDbEntity
  8
$DDT_AUDIT_GENERATED_(90)
  6
Continuous
 62
     7
100
AcDbCircle
 10
298.8888179784
 20
526.4869238796
 30
0.0
 40
0.5000001138631925
100
AcDbArc
 50
282.2712948469
 51
55.4537764096
  0
ARC
  5
34A
330
326
100
AcDbEntity
  8
$DDT_AUDIT_GENERATED_(90)
  6
Continuous
 62
     7
100
AcDbCircle
 10
325.5020223212
 20
-151.8810525938
 30
0.0
 40
679.2902791532382
100
AcDbArc
 50
92.2213727246
 51
94.3273431706
  0
ARC
  5
34B
330
326
100
AcDbEntity
  8
$DDT_AUDIT_GENERATED_(90)
  6
Continuous
 62
     7
100
AcDbCircle
 10
257.5653540328
 20
782.667744971
 30
0.0
 40
259.9915429375122
100
AcDbArc
 50
273.6980692619
 51
279.1691882339
  0
LINE
  5
34C
330
326
100
AcDbEntity
  8
$DDT_AUDIT_GENERATED_(90)
  6
Continuous
 62
     7
100
AcDbLine
 10
229.3172677192
 20
519.4256280797
 30
0.0
 11
274.3344655504
 21
523.2175584266
 31
0.0
  0
LINE
  5
34D
330
326
100
AcDbEntity
  8
$DDT_AUDIT_GENERATED_(90)
  6
Continuous
 62
     7
100
AcDbLine
 10
225.8688792573
 20
508.9237946686
 30
0.0
 11
226.5815644083
 21
516.7096779703
 31
0.0
  0
LINE
  5
34E
330
326
100
AcDbEntity
  8
$DDT_AUDIT_GENERATED_(90)
  6
Continuous
 62
     7
100
AcDbLine
 10
199.7319510257
 20
495.645354826
 30
0.0
 11
178.4362589757
 21
512.928277379
 31
0.0
  0
LINE
  5
34F
330
326
100
AcDbEntity
  8
$DDT_AUDIT_GENERATED_(90)
  6
Continuous
 62
     7
100
AcDbLine
 10
224.3351020457
 20
492.1677134516
 30
0.0
 11
225.1761834141
 21
501.356289079
 31
0.0
  0
SPLINE
  5
350
330
326
100
AcDbEntity
  8
$DDT_AUDIT_GENERATED_(90)
  6
Continuous
 62
     7
100
AcDbSpline
210
0.0
220
0.0
230
1.0
 70
     8
 71
     3
 72
     8
 73
     4
 74
     0
 42
0.0000000162574547
 43
0.0000000001
 40
0.9764640160299269
 40
0.9764640160299269
 40
0.9764640160299269
 40
0.9764640160299269
 40
1.0
 40
1.0
 40
1.0
 40
1.0
 10
224.3207335539118
 20
492.1694829600236
 30
0.0
 10
224.3303092275636
 20
492.1683037003729
 30
0.0
 10
224.3351018749613
 20
492.1677134790689
 30
0.0
 10
224.3351020456911
 20
492.1677134516177
 30
0.0
  0
LINE
  5
351
330
326
100
AcDbEntity
  8
$DDT_AUDIT_GENERATED_(90)
  6
Continuous
 62
     7
100
AcDbLine
 10
223.9997902156
 20
491.8972959471
 30
0.0
 11
202.2733896548
 21
494.5649625
 31
0.0
  0
ARC
  5
352
330
326
100
AcDbEntity
  8
$DDT_AUDIT_GENERATED_(90)
  6
Continuous
 62
     7
100
AcDbCircle
 10
202.8827363719
 20
499.5276932582
 30
0.0
 40
4.999999999999535
100
AcDbArc
 50
230.9382882293
 51
263.0
  0
ARC
  5
353
330
326
100
AcDbEntity
  8
$DDT_AUDIT_GENERATED_(90)
  6
Continuous
 62
     7
100
AcDbCircle
 10
224.0363510187
 20
492.1950597926
 30
0.0
 40
0.2999999975256629
100
AcDbArc
 50
263.0
 51
354.7699735849
  0
LINE
  5
354
330
326
100
AcDbEntity
  8
$DDT_AUDIT_GENERATED_(90)
  6
Continuous
 62
     7
100
AcDbLine
 10
180.6587896422
 20
523.1677326371
 30
0.0
 11
178.3074602958
 21
513.2514860723
 31
0.0
  0
ARC
  5
355
330
326
100
AcDbEntity
  8
$DDT_AUDIT_GENERATED_(90)
  6
Continuous
 62
     7
100
AcDbCircle
 10
181.1359184461
 20
523.0571447468
 30
0.0
 40
0.4821980680099037
100
AcDbArc
 50
110.5532304974
 51
168.128965066
  0
LINE
  5
356
330
326
100
AcDbEntity
  8
$DDT_AUDIT_GENERATED_(90)
  6
Continuous
 62
     7
100
AcDbLine
 10
295.191474136
 20
529.4111828338
 30
0.0
 11
295.2980578932
 21
529.4481863897
 31
0.0
  0
LINE
  5
357
330
326
100
AcDbEntity
  8
$DDT_AUDIT_GENERATED_(90)
  6
Continuous
 62
     7
100
AcDbLine
 10
299.1721733466
 20
526.898883388
 30
0.0
 11
295.4678434486
 21
529.4491939593
 31
0.0
  0
LINE
  5
358
330
326
100
AcDbEntity
  8
$DDT_AUDIT_GENERATED_(90)
  6
Continuous
 62
     7
100
AcDbLine
 10
225.8239352378
 20
508.5888804521
 30
0.0
 11
226.5676079365
 21
516.7125406631
 31
0.0
  0
LINE
  5
359
330
326
100
AcDbEntity
  8
$DDT_AUDIT_GENERATED_(90)
  6
Continuous
 62
     7
100
AcDbLine
 10
224.3205421221
 20
492.1705906369
 30
0.0
 11
225.19688227
 21
501.7409010013
 31
0.0
  0
ARC
  5
35A
330
326
100
AcDbEntity
  8
$DDT_AUDIT_GENERATED_(90)
  6
Continuous
 62
     7
100
AcDbCircle
 10
178.5993662529
 20
513.1822696567
 30
0.0
 40
0.3000000000000017
100
AcDbArc
 50
170.1081951818
 51
230.9382882293
  0
LINE
  5
35C
330
326
100
AcDbEntity
  8
$DDT_AUDIT_GENERATED_(35B)
  6
Continuous
 62
     7
100
AcDbLine
 10
152.318192411
 20
429.887798746
 30
0.0
 11
140.947819995
 21
429.887798746
 31
0.0
  0
LINE
  5
35D
330
326
100
AcDbEntity
  8
$DDT_AUDIT_GENERATED_(35B)
  6
Continuous
 62
     7
100
AcDbLine
 10
140.947819995
 20
425.887798746
 30
0.0
 11
152.318192411
 21
425.887798746
 31
0.0
  0
ARC
  5
35E
330
326
100
AcDbEntity
  8
$DDT_AUDIT_GENERATED_(35B)
  6
Continuous
 62
     7
100
AcDbCircle
 10
152.318192411
 20
424.887798746
 30
0.0
 40
1.000000000000001
100
AcDbArc
 50
18.0
 51
90.0
  0
ARC
  5
35F
330
326
100
AcDbEntity
  8
$DDT_AUDIT_GENERATED_(35B)
  6
Continuous
 62
     7
100
AcDbCircle
 10
152.318192411
 20
424.887798746
 30
0.0
 40
5.000000000000002
100
AcDbArc
 50
18.0
 51
90.0
  0
LINE
  5
360
330
326
100
AcDbEntity
  8
$DDT_AUDIT_GENERATED_(35B)
  6
Continuous
 62
     7
100
AcDbLine
 10
163.5203043151
 20
406.5915832446
 30
0.0
 11
157.0734749925
 21
426.4328837179
 31
0.0
  0
LINE
  5
361
330
326
100
AcDbEntity
  8
$DDT_AUDIT_GENERATED_(35B)
  6
Continuous
 62
     7
100
AcDbLine
 10
153.2692489273
 20
425.1968157404
 30
0.0
 11
162.3663559739
 21
397.1987991473
 31
0.0
  0
ARC
  5
362
330
326
100
AcDbEntity
  8
$DDT_AUDIT_GENERATED_(35B)
  6
Continuous
 62
     7
100
AcDbCircle
 10
140.947819995
 20
427.887798746
 30
0.0
 40
2.000000000000002
100
AcDbArc
 50
90.0
 51
270.0
  0
LINE
  5
363
330
326
100
AcDbEntity
  8
02636038_GEHÄUSE
  6
Continuous
 62
     7
100
AcDbLine
 10
289.965600478
 20
453.6632104694
 30
0.0
 11
310.7330057432
 21
459.2278199391
 31
0.0
  0
SPLINE
  5
364
330
326
100
AcDbEntity
  8
02636038_GEHÄUSE
  6
Continuous
 62
     7
100
AcDbSpline
210
0.0
220
0.0
230
1.0
 70
     8
 71
     3
 72
    10
 73
     6
 74
     0
 42
0.0000000019260148
 43
0.0000000001
 40
0.0
 40
0.0
 40
0.0
 40
0.0
 40
0.5
 40
0.5
 40
1.0
 40
1.0
 40
1.0
 40
1.0
 10
302.7654874897455
 20
457.421674197219
 30
0.0
 10
301.9623234218737
 20
457.0885306068778
 30
0.0
 10
301.1449491955155
 20
456.8081476469121
 30
0.0
 10
299.4793741463612
 20
456.3618372175329
 30
0.0
 10
298.631172908318
 20
456.1959112898825
 30
0.0
 10
297.7687465616368
 20
456.0828015007447
 30
0.0
  0
LINE
  5
365
330
326
100
AcDbEntity
  8
02636038_GEHÄUSE
  6
Continuous
 62
     7
100
AcDbLine
 10
303.6981522285
 20
460.4486651622
 30
0.0
 11
295.4475397222
 21
458.2379202041
 31
0.0
  0
LINE
  5
366
330
326
100
AcDbEntity
  8
02636038_GEHÄUSE
  6
Continuous
 62
     7
100
AcDbLine
 10
303.6981522285
 20
460.4486651622
 30
0.0
 11
304.1682794108
 21
458.6941266318
 31
0.0
  0
SPLINE
  5
367
330
326
100
AcDbEntity
  8
02636038_GEHÄUSE
  6
Continuous
 62
     7
100
AcDbSpline
210
0.0
220
0.0
230
1.0
 70
     8
 71
     3
 72
    14
 73
    10
 74
     0
 42
0.0000000049321089
 43
0.0000000001
 40
0.0
 40
0.0
 40
0.0
 40
0.0
 40
0.1250000000000004
 40
0.1250000000000004
 40
0.2500000000000009
 40
0.2500000000000009
 40
0.5000000000000008
 40
0.5000000000000008
 40
1.0
 40
1.0
 40
1.0
 40
1.0
 10
304.1682794108277
 20
458.6941266317899
 30
0.0
 10
304.1900826633738
 20
458.6127557855176
 30
0.0
 10
304.1808223499247
 20
458.5231691967462
 30
0.0
 10
304.1243160426133
 20
458.3639201058055
 30
0.0
 10
304.0786144842961
 20
458.2905771692175
 30
0.0
 10
303.9223110472204
 20
458.0922439122839
 30
0.0
 10
303.7901175557308
 20
457.9828991662532
 30
0.0
 10
303.3797468039637
 20
457.6955231854035
 30
0.0
 10
303.074626436016
 20
457.5499016199767
 30
0.0
 10
302.7654874897455
 20
457.421674197219
 30
0.0
  0
SPLINE
  5
368
330
326
100
AcDbEntity
  8
02636038_GEHÄUSE
  6
Continuous
 62
     7
100
AcDbSpline
210
0.0
220
0.0
230
1.0
 70
     8
 71
     3
 72
    18
 73
    14
 74
     0
 42
0.0000000049401632
 43
0.0000000001
 40
0.0
 40
0.0
 40
0.0
 40
0.0
 40
0.2499999999999998
 40
0.2499999999999998
 40
0.4999999999999997
 40
0.4999999999999997
 40
0.6249999999999992
 40
0.6249999999999992
 40
0.7499999999999989
 40
0.7499999999999989
 40
0.8749999999999994
 40
0.8749999999999994
 40
1.0
 40
1.0
 40
1.0
 40
1.0
 10
297.7687465616368
 20
456.0828015007447
 30
0.0
 10
297.6023322668437
 20
456.060975769346
 30
0.0
 10
297.4354134436862
 20
456.0442793394774
 30
0.0
 10
297.099932094237
 20
456.0275972329829
 30
0.0
 10
296.9314619309152
 20
456.0274414641265
 30
0.0
 10
296.6817732545206
 20
456.0494985090021
 30
0.0
 10
296.59890792253
 20
456.0605982421245
 30
0.0
 10
296.4342828529884
 20
456.0941727300416
 30
0.0
 10
296.3520547045118
 20
456.1167974148306
 30
0.0
 10
296.1966438280586
 20
456.1789922059591
 30
0.0
 10
296.1213511770913
 20
456.2189766368583
 30
0.0
 10
295.9918794036367
 20
456.3293875873596
 30
0.0
 10
295.9398608920655
 20
456.4005525843227
 30
0.0
 10
295.9176669044705
 20
456.4833816736494
 30
0.0
  0
LINE
  5
369
330
326
100
AcDbEntity
  8
02636038_GEHÄUSE
  6
Continuous
 62
     7
100
AcDbLine
 10
295.9176669045
 20
456.4833816736
 30
0.0
 11
295.4475397222
 21
458.2379202041
 31
0.0
  0
LINE
  5
36A
330
326
100
AcDbEntity
  8
02636038_GEHÄUSE
  6
Continuous
 62
     7
100
AcDbLine
 10
289.3521551886
 20
453.8275826393
 30
0.0
 11
289.965600478
 21
453.6632104694
 31
0.0
  0
LINE
  5
36B
330
326
100
AcDbEntity
  8
02636038_GEHÄUSE
  6
Continuous
 62
     7
100
AcDbLine
 10
310.7330057432
 20
459.2278199391
 30
0.0
 11
311.1820788628
 21
459.6768930586
 31
0.0
  0
ARC
  5
36C
330
326
100
AcDbEntity
  8
02636038_GEHÄUSE
  6
Continuous
 62
     7
100
AcDbCircle
 10
289.6109742337
 20
454.7935084656
 30
0.0
 40
1.000000000000004
100
AcDbArc
 50
195.0
 51
255.0
  0
ARC
  5
36D
330
326
100
AcDbEntity
  8
02636038_GEHÄUSE
  6
Continuous
 62
     7
100
AcDbCircle
 10
310.4749720816
 20
460.3839998398
 30
0.0
 40
1.000000000000006
100
AcDbArc
 50
315.0
 51
15.0
  0
LINE
  5
36E
330
326
100
AcDbEntity
  8
02636038_GEHÄUSE
  6
Continuous
 62
     7
100
AcDbLine
 10
287.706784105
 20
458.036339468
 30
0.0
 11
288.6450484074
 21
454.5346894205
 31
0.0
  0
LINE
  5
36F
330
326
100
AcDbEntity
  8
02636038_GEHÄUSE
  6
Continuous
 62
     7
100
AcDbLine
 10
311.4408979079
 20
460.6428188849
 30
0.0
 11
310.8635937375
 21
462.7973473801
 31
0.0
  0
ENDBLK
  5
371
330
326
100
AcDbEntity
  8
0
100
AcDbBlockEnd
  0
BLOCK
  5
3AF
330
372
100
AcDbEntity
  8
0
100
AcDbBlockBegin
  2
SE2
 70
     0
 10
0.0
 20
0.0
 30
0.0
  3
SE2
  1

  0
SPLINE
  5
374
330
372
100
AcDbEntity
  8
$DDT_AUDIT_GENERATED_(77)
  6
Continuous
 62
     7
100
AcDbSpline
210
0.0
220
0.0
230
1.0
 70
     8
 71
     3
 72
     8
 73
     4
 74
     0
 42
0.0000000000873098
 43
0.0000000001
 40
0.0546834794926217
 40
0.0546834794926217
 40
0.0546834794926217
 40
0.0546834794926217
 40
0.2079235829536694
 40
0.2079235829536694
 40
0.2079235829536694
 40
0.2079235829536694
 10
68.83310947382112
 20
218.9267499137632
 30
0.0
 10
68.40783436744493
 20
213.0917674054599
 30
0.0
 10
67.98214246400946
 20
207.2568417183011
 30
0.0
 10
67.55584738118746
 20
201.4219900994028
 30
0.0
  0
SPLINE
  5
375
330
372
100
AcDbEntity
  8
$DDT_AUDIT_GENERATED_(77)
  6
Continuous
 62
     7
100
AcDbSpline
210
0.0
220
0.0
230
1.0
 70
     8
 71
     3
 72
    10
 73
     6
 74
     0
 42
0.000000000087283
 43
0.0000000001
 40
0.7917124975203257
 40
0.7917124975203257
 40
0.7917124975203257
 40
0.7917124975203257
 40
0.875
 40
0.875
 40
0.9450117388922631
 40
0.9450117388922631
 40
0.9450117388922631
 40
0.9450117388922631
 10
21.15496038963857
 20
201.3848521653294
 30
0.0
 10
20.9232875281847
 20
204.5556380729916
 30
0.0
 10
20.69178689676991
 20
207.7264454450915
 30
0.0
 10
20.2659668897135
 20
213.5626875503157
 30
0.0
 10
20.07114028376265
 20
216.2343995865529
 30
0.0
 10
19.87672401135656
 20
218.9017382040385
 30
0.0
  0
SPLINE
  5
376
330
372
100
AcDbEntity
  8
$DDT_AUDIT_GENERATED_(77)
  6
Continuous
 62
     7
100
AcDbSpline
210
0.0
220
0.0
230
1.0
 70
     8
 71
     3
 72
    14
 73
    10
 74
     0
 42
0.0000000000872998
 43
0.0000000001
 40
0.6195368169746683
 40
0.6195368169746683
 40
0.6195368169746683
 40
0.6195368169746683
 40
0.7500000000000006
 40
0.7500000000000006
 40
0.8750000000000004
 40
0.8750000000000004
 40
0.9375000000000002
 40
0.9375000000000002
 40
0.9453846020976846
 40
0.9453846020976846
 40
0.9453846020976846
 40
0.9453846020976846
 10
66.11797456045376
 20
181.7093783551719
 30
0.0
 10
66.48117745812557
 20
186.6775232236581
 30
0.0
 10
66.8440059740931
 20
191.645665680593
 30
0.0
 10
67.55395174620882
 20
201.3738975492492
 30
0.0
 10
67.9010758617912
 20
206.1339867946155
 30
0.0
 10
68.42148540343219
 20
213.2741112022958
 30
0.0
 10
68.59490522483449
 20
215.654150677267
 30
0.0
 10
68.7901563954732
 20
218.3344371591851
 30
0.0
 10
68.81204616316748
 20
218.6349355163858
 30
0.0
 10
68.83394637405554
 20
218.9355862660203
 30
0.0
  0
SPLINE
  5
377
330
372
100
AcDbEntity
  8
$DDT_AUDIT_GENERATED_(77)
  6
Continuous
 62
     7
100
AcDbSpline
210
0.0
220
0.0
230
1.0
 70
     8
 71
     3
 72
     8
 73
     4
 74
     0
 42
0.0000000000873391
 43
0.0000000001
 40
0.0548134420334763
 40
0.0548134420334763
 40
0.0548134420334763
 40
0.0548134420334763
 40
0.3885075612307637
 40
0.3885075612307637
 40
0.3885075612307637
 40
0.3885075612307637
 10
19.87560300624176
 20
218.9141168303951
 30
0.0
 10
20.8007923362495
 20
206.2123661921817
 30
0.0
 10
21.72705531240463
 20
193.5105316492506
 30
0.0
 10
22.65582199521408
 20
180.8086859818679
 30
0.0
  0
ELLIPSE
  5
378
330
372
100
AcDbEntity
  8
$DDT_AUDIT_GENERATED_(77)
  6
Continuous
 62
     7
100
AcDbEllipse
 10
44.3539979191
 20
225.584263388
 30
0.0
 11
24.99999999999957
 21
4.744468706796568E-12
 31
0.0
210
0.0
220
0.0
230
1.0
 40
0.9925461458
 41
-0.0591632342460215
 42
3.199419016781375
  0
SPLINE
  5
379
330
372
100
AcDbEntity
  8
$DDT_AUDIT_GENERATED_(77)
  6
Continuous
 62
     7
100
AcDbSpline
210
0.0
220
0.0
230
1.0
 70
     8
 71
     3
 72
     8
 73
     4
 74
     0
 42
0.000000000042036
 43
0.0000000001
 40
0.003150787344802
 40
0.003150787344802
 40
0.003150787344802
 40
0.003150787344802
 40
0.1634396748060708
 40
0.1634396748060708
 40
0.1634396748060708
 40
0.1634396748060708
 10
69.17085640622703
 20
222.4892371777586
 30
0.0
 10
67.97118965004728
 20
209.8358204450485
 30
0.0
 10
66.77263361198507
 20
197.1820660369403
 30
0.0
 10
65.57483449239983
 20
184.5278801508266
 30
0.0
  0
SPLINE
  5
37A
330
372
100
AcDbEntity
  8
$DDT_AUDIT_GENERATED_(77)
  6
Continuous
 62
     7
100
AcDbSpline
210
0.0
220
0.0
230
1.0
 70
     8
 71
     3
 72
    36
 73
    32
 74
     0
 42
0.000000000041598
 43
0.0000000001
 40
0.1634396748060708
 40
0.1634396748060708
 40
0.1634396748060708
 40
0.1634396748060708
 40
0.2499999999999984
 40
0.2499999999999984
 40
0.3749999999999976
 40
0.3749999999999976
 40
0.4062499999999974
 40
0.4062499999999974
 40
0.4374999999999972
 40
0.4374999999999972
 40
0.4531249999999971
 40
0.4531249999999971
 40
0.4687499999999969
 40
0.4687499999999969
 40
0.4999999999999968
 40
0.4999999999999968
 40
0.5312499999999967
 40
0.5312499999999967
 40
0.5468749999999967
 40
0.5468749999999967
 40
0.5624999999999968
 40
0.5624999999999968
 40
0.5781249999999969
 40
0.5781249999999969
 40
0.5937499999999971
 40
0.5937499999999971
 40
0.6249999999999973
 40
0.6249999999999973
 40
0.7499999999999982
 40
0.7499999999999982
 40
0.8434044875036818
 40
0.8434044875036818
 40
0.8434044875036818
 40
0.8434044875036818
 10
65.57483449239983
 20
184.5278801508266
 30
0.0
 10
64.92799064096094
 20
177.6942782541818
 30
0.0
 10
64.2813675290129
 20
170.8605505259737
 30
0.0
 10
62.70137249365176
 20
154.1580323281586
 30
0.0
 10
61.76744576463701
 20
144.2894951718936
 30
0.0
 10
60.60098183627358
 20
131.9524684483756
 30
0.0
 10
60.41475358193059
 20
129.4784570302129
 30
0.0
 10
59.58477217639159
 20
124.5875998485734
 30
0.0
 10
58.92240851785594
 20
122.1177794744237
 30
0.0
 10
56.97604443917259
 20
118.9093963151495
 30
0.0
 10
56.14803538944901
 20
117.930873960793
 30
0.0
 10
54.28962754268851
 20
116.2120598636343
 30
0.0
 10
53.27819360692191
 20
115.4719108389278
 30
0.0
 10
49.98511060368754
 20
113.6265332080919
 30
0.0
 10
47.4662169194583
 20
112.9140163524727
 30
0.0
 10
42.38830444757166
 20
112.7335874288489
 30
0.0
 10
39.83702729496054
 20
113.2556535043229
 30
0.0
 10
36.39229821749787
 20
114.8750156566986
 30
0.0
 10
35.31259199101121
 20
115.550166290465
 30
0.0
 10
33.34076410152397
 20
117.1417741525277
 30
0.0
 10
32.44992182372337
 20
118.0351848262698
 30
0.0
 10
30.97050304088084
 20
120.0479616841241
 30
0.0
 10
30.37861622308408
 20
121.1884889642012
 30
0.0
 10
29.48103115145779
 20
123.5236284773336
 30
0.0
 10
29.15754110137488
 20
124.7308293329154
 30
0.0
 10
28.40715514195173
 20
128.4221825213671
 30
0.0
 10
28.20281922789907
 20
130.9315507274061
 30
0.0
 10
27.02621676082725
 20
143.40975273267
 30
0.0
 10
26.07900848635603
 20
153.3909401236144
 30
0.0
 10
24.42953413368641
 20
170.8308683981826
 30
0.0
 10
23.72382149962499
 20
178.2891774339409
 30
0.0
 10
23.01780889287097
 20
185.7473336498191
 30
0.0
  0
SPLINE
  5
37B
330
372
100
AcDbEntity
  8
$DDT_AUDIT_GENERATED_(77)
  6
Continuous
 62
     7
100
AcDbSpline
210
0.0
220
0.0
230
1.0
 70
     8
 71
     3
 72
     8
 73
     4
 74
     0
 42
0.0000000000415612
 43
0.0000000001
 40
0.8434044875036818
 40
0.8434044875036818
 40
0.8434044875036818
 40
0.8434044875036818
 40
0.9973606041669092
 40
0.9973606041669092
 40
0.9973606041669092
 40
0.9973606041669092
 10
23.01780889287097
 20
185.7473336498191
 30
0.0
 10
21.85410721047757
 20
198.0404129134791
 30
0.0
 10
20.68959056087711
 20
210.3330769953781
 30
0.0
 10
19.52419711036823
 20
222.6254493965779
 30
0.0
  0
SPLINE
  5
37C
330
372
100
AcDbEntity
  8
$DDT_AUDIT_GENERATED_(77)
  6
Continuous
 62
     7
100
AcDbSpline
210
0.0
220
0.0
230
1.0
 70
     8
 71
     3
 72
    30
 73
    26
 74
     0
 42
0.0000000010636383
 43
0.0000000001
 40
0.1066865292371799
 40
0.1066865292371799
 40
0.1066865292371799
 40
0.1066865292371799
 40
0.1250000000000011
 40
0.1250000000000011
 40
0.2500000000000018
 40
0.2500000000000018
 40
0.3750000000000026
 40
0.3750000000000026
 40
0.437500000000003
 40
0.437500000000003
 40
0.4687500000000032
 40
0.4687500000000032
 40
0.5000000000000033
 40
0.5000000000000033
 40
0.5312500000000036
 40
0.5312500000000036
 40
0.5625000000000038
 40
0.5625000000000038
 40
0.6250000000000036
 40
0.6250000000000036
 40
0.7500000000000023
 40
0.7500000000000023
 40
0.8750000000000012
 40
0.8750000000000012
 40
0.8949477378761013
 40
0.8949477378761013
 40
0.8949477378761013
 40
0.8949477378761013
 10
46.36593185107412
 20
262.2097935298602
 30
0.0
 10
46.42581992513885
 20
262.1849422380407
 30
0.0
 10
46.47947956772474
 20
262.1600469182748
 30
0.0
 10
46.8636732148889
 20
261.9664764953391
 30
0.0
 10
46.971368102155
 20
261.8087991957638
 30
0.0
 10
46.93276908812183
 20
261.5227577165186
 30
0.0
 10
46.78565281030144
 20
261.3965236504606
 30
0.0
 10
46.27934843941775
 20
261.2292351662689
 30
0.0
 10
46.06835538962805
 20
261.1784038807397
 30
0.0
 10
45.60365227119174
 20
261.1115000804846
 30
0.0
 10
45.42066608414935
 20
261.0904828922717
 30
0.0
 10
44.96702611656254
 20
261.0569829075927
 30
0.0
 10
44.68666043471455
 20
261.0445740854468
 30
0.0
 10
44.07631245759243
 20
261.0432036794988
 30
0.0
 10
43.78801812485477
 20
261.0545730808767
 30
0.0
 10
43.32410117371191
 20
261.0868788257375
 30
0.0
 10
43.1380826582038
 20
261.1074290184983
 30
0.0
 10
42.66005702976306
 20
261.174088278913
 30
0.0
 10
42.44195482588746
 20
261.2258202724714
 30
0.0
 10
41.92948827247797
 20
261.3922864666612
 30
0.0
 10
41.77769432797405
 20
261.519757463108
 30
0.0
 10
41.73499768876419
 20
261.8058210469754
 30
0.0
 10
41.8398041731769
 20
261.9629890445194
 30
0.0
 10
42.22771967693343
 20
262.1598312443804
 30
0.0
 10
42.28627973083255
 20
262.1870052101248
 30
0.0
 10
42.35225115832048
 20
262.2140599326639
 30
0.0
  0
ELLIPSE
  5
37D
330
372
100
AcDbEntity
  8
$DDT_AUDIT_GENERATED_(77)
  6
Continuous
 62
     7
100
AcDbEllipse
 10
44.3539979191
 20
240.5972028041
 30
0.0
 11
-4.420322864560427E-12
 21
-25.18325667992569
 31
0.0
210
0.0
220
0.0
230
1.0
 40
0.9927230746
 41
1.570796326795071
 42
3.061507192322035
  0
ELLIPSE
  5
37E
330
372
100
AcDbEntity
  8
$DDT_AUDIT_GENERATED_(77)
  6
Continuous
 62
     7
100
AcDbEllipse
 10
44.3539979191
 20
240.5972028041
 30
0.0
 11
-4.420322864560427E-12
 21
-25.18325667992569
 31
0.0
210
0.0
220
0.0
230
1.0
 40
0.9927230746
 41
3.221678352389411
 42
4.712388980384864
  0
SPLINE
  5
37F
330
372
100
AcDbEntity
  8
$DDT_AUDIT_GENERATED_(77)
  6
Continuous
 62
     7
100
AcDbSpline
210
0.0
220
0.0
230
1.0
 70
     8
 71
     3
 72
    29
 73
    25
 74
     0
 42
0.0000000001409293
 43
0.0000000001
 40
0.0
 40
0.0
 40
0.0
 40
0.0
 40
0.0081048059911639
 40
0.0191409512389744
 40
0.0293313199025182
 40
0.040206343644769
 40
0.0505128847989787
 40
0.0621776835483611
 40
0.0741365021988298
 40
0.0864154018282448
 40
0.0990140807960078
 40
0.1119621256656002
 40
0.1249703049432534
 40
0.1386485961111412
 40
0.1531374880193619
 40
0.1686490542881519
 40
0.1854955476626889
 40
0.20419271312614
 40
0.2257299999246999
 40
0.2550874035346352
 40
0.3411963929904239
 40
0.4510713552183289
 40
0.5861098537681634
 40
1.0
 40
1.0
 40
1.0
 40
1.0
 10
57.22451341348539
 20
112.0036120302995
 30
0.0
 10
57.36408243241801
 20
112.1614116599244
 30
0.0
 10
57.64210012584581
 20
112.4774968796211
 30
0.0
 10
58.08426703283133
 20
113.0330278882268
 30
0.0
 10
58.52874672521014
 20
113.6440391254222
 30
0.0
 10
58.93045120366514
 20
114.269930306356
 30
0.0
 10
59.31732541661354
 20
114.9433481932279
 30
0.0
 10
59.68585500114617
 20
115.656494778385
 30
0.0
 10
60.04030567380447
 20
116.4281828668824
 30
0.0
 10
60.3680610655568
 20
117.2354509890455
 30
0.0
 10
60.66842305428884
 20
118.0781577071608
 30
0.0
 10
60.93615419761007
 20
118.9498455238612
 30
0.0
 10
61.17351252505856
 20
119.8566245740073
 30
0.0
 10
61.38367351530737
 20
120.8074180237236
 30
0.0
 10
61.57038682803756
 20
121.8233336450592
 30
0.0
 10
61.73503320158397
 20
122.9188913657201
 30
0.0
 10
61.87977222759549
 20
124.1175915146596
 30
0.0
 10
62.00880508510502
 20
125.4613854799072
 30
0.0
 10
62.1340904670584
 20
127.1025795923726
 30
0.0
 10
62.37917367387833
 20
130.3333694428838
 30
0.0
 10
62.7593006630742
 20
135.6534097118531
 30
0.0
 10
63.31616310308194
 20
143.4438173630111
 30
0.0
 10
64.47569108171925
 20
159.1432208498442
 30
0.0
 10
65.33530592093469
 20
170.9726599937927
 30
0.0
 10
66.11932147666178
 20
181.7123823334854
 30
0.0
  0
ARC
  5
380
330
372
100
AcDbEntity
  8
$DDT_AUDIT_GENERATED_(77)
  6
Continuous
 62
     7
100
AcDbCircle
 10
44.3521206344
 20
123.8396973974
 30
0.0
 40
17.48969739742628
100
AcDbArc
 50
222.6061937331
 51
317.4014387226
  0
SPLINE
  5
381
330
372
100
AcDbEntity
  8
$DDT_AUDIT_GENERATED_(77)
  6
Continuous
 62
     7
100
AcDbSpline
210
0.0
220
0.0
230
1.0
 70
     8
 71
     3
 72
    28
 73
    24
 74
     0
 42
0.0000000001427441
 43
0.0000000001
 40
0.0
 40
0.0
 40
0.0
 40
0.0
 40
0.4882026664530185
 40
0.6569017356268659
 40
0.7241654012765267
 40
0.7577557136040506
 40
0.785825518512786
 40
0.8072021966198653
 40
0.8252478245922622
 40
0.8408403243307782
 40
0.8556806943289449
 40
0.8697919655004355
 40
0.8847565453941871
 40
0.8990244328679946
 40
0.912699598710316
 40
0.9258911080914148
 40
0.9386911922033432
 40
0.9511475355928485
 40
0.963177669852245
 40
0.9748315960524018
 40
0.9861738141194233
 40
0.997264748959192
 40
1.0
 40
1.0
 40
1.0
 40
1.0
 10
22.65629736604187
 20
180.8119794252586
 30
0.0
 10
23.56947690853428
 20
168.3053051375031
 30
0.0
 10
24.59886285472728
 20
154.3286761413683
 30
0.0
 10
25.83811276917723
 20
137.2685909314004
 30
0.0
 10
26.31560395801639
 20
131.0021643247092
 30
0.0
 10
26.5059136762858
 20
127.99653051717
 30
0.0
 10
26.64306338097251
 20
126.0624151056986
 30
0.0
 10
26.78563240401927
 20
124.492827576493
 30
0.0
 10
26.93013020528742
 20
123.216414773012
 30
0.0
 10
27.08884763930196
 20
122.095626608627
 30
0.0
 10
27.27032073963999
 20
121.0714972008812
 30
0.0
 10
27.48488463490214
 20
120.0688245919129
 30
0.0
 10
27.73574979314102
 20
119.0883408026337
 30
0.0
 10
28.02632724712257
 20
118.1295222401265
 30
0.0
 10
28.34638977626203
 20
117.2239179555347
 30
0.0
 10
28.69564369618557
 20
116.366012869339
 30
0.0
 10
29.07379899020593
 20
115.551722180155
 30
0.0
 10
29.47893006002975
 20
114.7807801270629
 30
0.0
 10
29.9088492233941
 20
114.0551133717568
 30
0.0
 10
30.36330105350885
 20
113.3726302461829
 30
0.0
 10
30.83607898627654
 20
112.7401554188811
 30
0.0
 10
31.22328370971078
 20
112.2736242785291
 30
0.0
 10
31.42832952133077
 20
112.0496055275577
 30
0.0
 10
31.47580454189501
 20
111.9978752494545
 30
0.0
  0
LINE
  5
382
330
372
100
AcDbEntity
  8
$DDT_AUDIT_GENERATED_(77)
  6
Continuous
 62
     7
100
AcDbLine
 10
69.3539979191
 20
225.584263388
 30
0.0
 11
69.3539979191
 21
240.5972028041
 31
0.0
  0
LINE
  5
383
330
372
100
AcDbEntity
  8
$DDT_AUDIT_GENERATED_(77)
  6
Continuous
 62
     7
100
AcDbLine
 10
19.3539979191
 20
240.5972028041
 30
0.0
 11
19.3539979191
 21
225.584263388
 31
0.0
  0
ELLIPSE
  5
384
330
372
100
AcDbEntity
  8
$DDT_AUDIT_GENERATED_(8B)
  6
Continuous
 62
     7
100
AcDbEllipse
 10
44.3539949594
 20
225.5233338079
 30
0.0
 11
23.6493128864244
 21
-3.339342691255354E-12
 31
0.0
210
0.0
220
0.0
230
1.0
 40
0.9925461516
 41
0.4640977630177811
 42
2.678480232033004
  0
LINE
  5
385
330
372
100
AcDbEntity
  8
$DDT_AUDIT_GENERATED_(90)
  6
Continuous
 62
     7
100
AcDbLine
 10
21.1028216253
 20
218.0944196411
 30
0.0
 11
21.1028566577
 21
218.0943784748
 31
0.0
  0
ARC
  5
386
330
372
100
AcDbEntity
  8
$DDT_AUDIT_GENERATED_(90)
  6
Continuous
 62
     7
100
AcDbCircle
 10
21.7665258713
 20
215.4995723157
 30
0.0
 40
2.678334525143423
100
AcDbArc
 50
93.5657186604
 51
104.3468780353
  0
ARC
  5
387
330
372
100
AcDbEntity
  8
$DDT_AUDIT_GENERATED_(90)
  6
Continuous
 62
     7
100
AcDbCircle
 10
44.3488360666
 20
220.6292017359
 30
0.0
 40
23.41161696032002
100
AcDbArc
 50
92.9741438044
 51
138.1207745884
  0
ARC
  5
388
330
372
100
AcDbEntity
  8
$DDT_AUDIT_GENERATED_(90)
  6
Continuous
 62
     7
100
AcDbCircle
 10
44.2924606326
 20
220.682950648
 30
0.0
 40
23.33376178192333
100
AcDbArc
 50
138.126630474
 51
180.1130439494
  0
SPLINE
  5
389
330
372
100
AcDbEntity
  8
$DDT_AUDIT_GENERATED_(90)
  6
Continuous
 62
     7
100
AcDbSpline
210
0.0
220
0.0
230
1.0
 70
     8
 71
     3
 72
    10
 73
     6
 74
     0
 42
0.0000002900430173
 43
0.0000000001
 40
0.0
 40
0.0
 40
0.0
 40
0.0
 40
0.4999310748782213
 40
0.4999310748782213
 40
1.0
 40
1.0
 40
1.0
 40
1.0
 10
20.97673702485023
 20
218.5135037777497
 30
0.0
 10
20.97640117667373
 20
218.5199109580747
 30
0.0
 10
20.97606174946043
 20
218.5277554702548
 30
0.0
 10
20.97612450160713
 20
218.5385277511942
 30
0.0
 10
20.97645552898993
 20
218.5422768326517
 30
0.0
 10
20.97803526115633
 20
218.536827507379
 30
0.0
  0
SPLINE
  5
38A
330
372
100
AcDbEntity
  8
$DDT_AUDIT_GENERATED_(90)
  6
Continuous
 62
     7
100
AcDbSpline
210
0.0
220
0.0
230
1.0
 70
     8
 71
     3
 72
     9
 73
     5
 74
     0
 42
0.0000000587654786
 43
0.0000000001
 40
0.7807437528702447
 40
0.7807437528702447
 40
0.7807437528702447
 40
0.7807437528702447
 40
0.8429516512393253
 40
1.0
 40
1.0
 40
1.0
 40
1.0
 10
26.91884182273016
 20
150.4369297533507
 30
0.0
 10
26.9184427338992
 20
150.4379198018003
 30
0.0
 10
26.92091510208379
 20
150.4417514446058
 30
0.0
 10
26.93866252136346
 20
150.4468313806403
 30
0.0
 10
26.95137475428065
 20
150.450470035597
 30
0.0
  0
SPLINE
  5
38B
330
372
100
AcDbEntity
  8
$DDT_AUDIT_GENERATED_(90)
  6
Continuous
 62
     7
100
AcDbSpline
210
0.0
220
0.0
230
1.0
 70
    12
 71
     3
 72
   168
 73
   164
 74
     0
 42
0.0000000001017673
 43
0.0000000001
 40
0.0
 40
0.0
 40
0.0
 40
0.0
 40
0.0255987962048819
 40
0.0255987962048819
 40
0.0572254203057118
 40
0.0572254203057118
 40
0.0888520444065426
 40
0.0888520444065426
 40
0.1204786685073734
 40
0.1204786685073734
 40
0.1521052926082044
 40
0.1521052926082044
 40
0.1837319167090341
 40
0.1837319167090341
 40
0.2469851649106949
 40
0.2469851649106949
 40
0.2786117890115358
 40
0.2786117890115358
 40
0.3102384131123656
 40
0.3102384131123656
 40
0.3418650372131964
 40
0.3418650372131964
 40
0.3734916613140263
 40
0.3734916613140263
 40
0.4051182854148571
 40
0.4051182854148571
 40
0.436744909515687
 40
0.436744909515687
 40
0.4999981577173476
 40
0.4999981577173476
 40
0.5316247818181784
 40
0.5316247818181784
 40
0.5632514059190193
 40
0.5632514059190193
 40
0.5948780300198493
 40
0.5948780300198493
 40
0.6265046541206781
 40
0.6265046541206781
 40
0.6423179661710935
 40
0.6423179661710935
 40
0.6581312782215089
 40
0.6581312782215089
 40
0.6739445902719243
 40
0.6739445902719243
 40
0.6897579023223408
 40
0.6897579023223408
 40
0.7055712143727572
 40
0.7055712143727572
 40
0.7213845264231716
 40
0.7213845264231716
 40
0.7292911824483803
 40
0.7292911824483803
 40
0.7332445104609842
 40
0.7332445104609842
 40
0.7371978384735881
 40
0.7371978384735881
 40
0.7530111505240035
 40
0.7530111505240035
 40
0.754987814530306
 40
0.754987814530306
 40
0.7559761465334567
 40
0.7559761465334567
 40
0.7569644785366084
 40
0.7569644785366084
 40
0.7609178065492122
 40
0.7609178065492122
 40
0.7688244625744199
 40
0.7688244625744199
 40
0.7767311185996276
 40
0.7767311185996276
 40
0.778707782605929
 40
0.778707782605929
 40
0.7796961146090807
 40
0.7796961146090807
 40
0.7806844466122305
 40
0.7806844466122305
 40
0.7846377746248342
 40
0.7846377746248342
 40
0.7885911026374401
 40
0.7885911026374401
 40
0.7905677666437426
 40
0.7905677666437426
 40
0.7925444306500441
 40
0.7925444306500441
 40
0.8004510866752507
 40
0.8004510866752507
 40
0.8044044146878546
 40
0.8044044146878546
 40
0.8083577427004585
 40
0.8083577427004585
 40
0.8162643987256681
 40
0.8162643987256681
 40
0.8241710547508749
 40
0.8241710547508749
 40
0.8320777107760826
 40
0.8320777107760826
 40
0.8399843668012902
 40
0.8399843668012902
 40
0.8409726988044419
 40
0.8409726988044419
 40
0.8419610308075917
 40
0.8419610308075917
 40
0.8439376948138941
 40
0.8439376948138941
 40
0.847891022826499
 40
0.847891022826499
 40
0.8557976788517068
 40
0.8557976788517068
 40
0.8637043348769144
 40
0.8637043348769144
 40
0.8716109909021221
 40
0.8716109909021221
 40
0.8795176469273308
 40
0.8795176469273308
 40
0.8874243029525375
 40
0.8874243029525375
 40
0.8913776309651414
 40
0.8913776309651414
 40
0.8933542949714438
 40
0.8933542949714438
 40
0.8953309589777453
 40
0.8953309589777453
 40
0.903237615002954
 40
0.903237615002954
 40
0.9111442710281619
 40
0.9111442710281619
 40
0.9190509270533694
 40
0.9190509270533694
 40
0.926957583078578
 40
0.926957583078578
 40
0.9348642391037855
 40
0.9348642391037855
 40
0.9427708951289933
 40
0.9427708951289933
 40
0.946724223141597
 40
0.946724223141597
 40
0.9477125551447486
 40
0.9477125551447486
 40
0.948700887147899
 40
0.948700887147899
 40
0.9506775511542008
 40
0.9506775511542008
 40
0.9585842071794094
 40
0.9585842071794094
 40
0.9664908632046172
 40
0.9664908632046172
 40
0.9743975192298248
 40
0.9743975192298248
 40
0.9823041752550333
 40
0.9823041752550333
 40
0.9902108312802409
 40
0.9902108312802409
 40
0.9981174873054486
 40
0.9981174873054486
 40
0.9991058193086
 40
0.9991058193086
 40
0.9995999853101751
 40
0.9995999853101751
 40
0.9998470683109628
 40
0.9998470683109628
 40
0.9999706098113571
 40
0.9999706098113571
 40
1.0
 40
1.0
 40
1.0
 40
1.0
 10
21.10285665769043
 20
218.0943784748455
 30
0.0
 41
1.0
 10
21.18671758446553
 20
217.2641066037538
 30
0.0
 41
1.0
 10
21.27061572203923
 20
216.433841219926
 30
0.0
 41
1.0
 10
21.45818424755072
 20
214.57783460234
 30
0.0
 41
1.0
 10
21.56186157854542
 20
213.552058154701
 30
0.0
 41
1.0
 10
21.76940900630182
 20
211.5005227539272
 30
0.0
 41
1.0
 10
21.87325416437331
 20
210.4747707496332
 30
0.0
 41
1.0
 10
22.08102047226681
 20
208.4232781063973
 30
0.0
 41
1.0
 10
22.18494193003932
 20
207.3975388154121
 30
0.0
 41
1.0
 10
22.39287439362401
 20
205.3460605996111
 30
0.0
 41
1.0
 10
22.49688834022221
 20
204.320323458445
 30
0.0
 41
1.0
 10
22.70503314818591
 20
202.2688565553353
 30
0.0
 41
1.0
 10
22.8091610293215
 20
201.2431335072984
 30
0.0
 41
1.0
 10
23.1216576922864
 20
198.1659756640742
 30
0.0
 41
1.0
 10
23.3301715138331
 20
196.114545819783
 30
0.0
 41
1.0
 10
23.6432009620627
 20
193.0374395839293
 30
0.0
 41
1.0
 10
23.7475781832257
 20
192.01173883317
 30
0.0
 41
1.0
 10
23.9564601067874
 20
189.9603334993172
 30
0.0
 41
1.0
 10
24.06096047351899
 20
188.9346417410204
 30
0.0
 41
1.0
 10
24.27002215315699
 20
186.8832724995531
 30
0.0
 41
1.0
 10
24.37457638848529
 20
185.8575986855381
 30
0.0
 41
1.0
 10
24.58376294164809
 20
183.8062312239573
 30
0.0
 41
1.0
 10
24.68842003437389
 20
182.7805404355093
 30
0.0
 41
1.0
 10
24.89781051377568
 20
180.7291972043773
 30
0.0
 41
1.0
 10
25.00253144281298
 20
179.703529494887
 30
0.0
 41
1.0
 10
25.21207134649328
 20
177.6521876194114
 30
0.0
 41
1.0
 10
25.31688318820048
 20
176.626527900948
 30
0.0
 41
1.0
 10
25.63140288295768
 20
173.5495462755951
 30
0.0
 41
1.0
 10
25.84125654723887
 20
171.4982345383423
 30
0.0
 41
1.0
 10
26.15617421344567
 20
168.4212888626941
 30
0.0
 41
1.0
 10
26.26117644141387
 20
167.3956338462401
 30
0.0
 41
1.0
 10
26.47130287884077
 20
165.3443264654393
 30
0.0
 41
1.0
 10
26.57640002075966
 20
164.3187029187862
 30
0.0
 41
1.0
 10
26.78659800188576
 20
162.2674304359701
 30
0.0
 41
1.0
 10
26.89174169995996
 20
161.2417713547569
 30
0.0
 41
1.0
 10
27.10212087302006
 20
159.1904965365871
 30
0.0
 41
1.0
 10
27.20735224358186
 20
158.1648760335453
 30
0.0
 41
1.0
 10
27.36512953816476
 20
156.6264476621844
 30
0.0
 41
1.0
 10
27.41770245044046
 20
156.1136320750583
 30
0.0
 41
1.0
 10
27.52292032015605
 20
155.087969799058
 30
0.0
 41
1.0
 10
27.57557601768525
 20
154.5751166379187
 30
0.0
 41
1.0
 10
27.68102566136566
 20
153.5494576119437
 30
0.0
 41
1.0
 10
27.73379233648945
 20
153.0366628681884
 30
0.0
 41
1.0
 10
27.83917561914785
 20
152.011116663976
 30
0.0
 41
1.0
 10
27.89177004671075
 20
151.4983660718615
 30
0.0
 41
1.0
 10
27.99675256395166
 20
150.4728115766673
 30
0.0
 41
1.0
 10
28.04914380232295
 20
149.960028907386
 30
0.0
 41
1.0
 10
28.15380482153215
 20
148.9344016321311
 30
0.0
 41
1.0
 10
28.20616578405175
 20
148.4214029262776
 30
0.0
 41
1.0
 10
28.28579653779645
 20
147.6517400360984
 30
0.0
 41
1.0
 10
28.31252202069175
 20
147.3951578500125
 30
0.0
 41
1.0
 10
28.35302508363645
 20
147.010253754032
 30
0.0
 41
1.0
 10
28.36659908391024
 20
146.8819589371522
 30
0.0
 41
1.0
 10
28.39373550896315
 20
146.6255215974874
 30
0.0
 41
1.0
 10
28.40730500739545
 20
146.4973585462565
 30
0.0
 41
1.0
 10
28.47489653033274
 20
145.8567935505219
 30
0.0
 41
1.0
 10
28.52811418994584
 20
145.3451515702908
 30
0.0
 41
1.0
 10
28.58344739434664
 20
144.7699625450122
 30
0.0
 41
1.0
 10
28.58953327577324
 20
144.7060582034041
 30
0.0
 41
1.0
 10
28.59856055368374
 20
144.6102085891294
 30
0.0
 41
1.0
 10
28.60155127031104
 20
144.5782612095933
 30
0.0
 41
1.0
 10
28.60753223996344
 20
144.5143124731113
 30
0.0
 41
1.0
 10
28.61051926906274
 20
144.4823181879545
 30
0.0
 41
1.0
 10
28.62545830056214
 20
144.3222494133237
 30
0.0
 41
1.0
 10
28.63742134251594
 20
144.1938829459787
 30
0.0
 41
1.0
 10
28.67417188123954
 20
143.8079332057558
 30
0.0
 41
1.0
 10
28.69980577900514
 20
143.5494990547902
 30
0.0
 41
1.0
 10
28.75801864959384
 20
143.0308045046007
 30
0.0
 41
1.0
 10
28.79058841010664
 20
142.7705405398939
 30
0.0
 41
1.0
 10
28.83892333641055
 20
142.4443796716616
 30
0.0
 41
1.0
 10
28.84897328914314
 20
142.3791062706116
 30
0.0
 41
1.0
 10
28.86469034882985
 20
142.2811414486608
 30
0.0
 41
1.0
 10
28.87003641779134
 20
142.248477394763
 30
0.0
 41
1.0
 10
28.88095427482164
 20
142.1831323383218
 30
0.0
 41
1.0
 10
28.88652872972344
 20
142.150448474356
 30
0.0
 41
1.0
 10
28.91490027245115
 20
141.987115282135
 30
0.0
 41
1.0
 10
28.93924819826664
 20
141.8566275878994
 30
0.0
 41
1.0
 10
28.99131304363314
 20
141.5960255013377
 30
0.0
 41
1.0
 10
29.01902997171184
 20
141.4659111160377
 30
0.0
 41
1.0
 10
29.06318412929954
 20
141.27103157631
 30
0.0
 41
1.0
 10
29.07833339440884
 20
141.206117420836
 30
0.0
 41
1.0
 10
29.10942250014075
 20
141.0767010981455
 30
0.0
 41
1.0
 10
29.12537101680794
 20
141.0121597926056
 30
0.0
 41
1.0
 10
29.20713173987914
 20
140.6902900830948
 30
0.0
 41
1.0
 10
29.27899921376254
 20
140.4354726564025
 30
0.0
 41
1.0
 10
29.39644661848474
 20
140.057307418409
 30
0.0
 41
1.0
 10
29.43720835588134
 20
139.9319241537962
 30
0.0
 41
1.0
 10
29.52191599695624
 20
139.6825378074687
 30
0.0
 41
1.0
 10
29.56583752655244
 20
139.5585546569689
 30
0.0
 41
1.0
 10
29.70221901740794
 20
139.1886731482262
 30
0.0
 41
1.0
 10
29.79928698186214
 20
138.9448384696867
 30
0.0
 41
1.0
 10
30.00548333352044
 20
138.462451884641
 30
0.0
 41
1.0
 10
30.11461213218784
 20
138.2239002276133
 30
0.0
 41
1.0
 10
30.34497872905614
 20
137.7519909005129
 30
0.0
 41
1.0
 10
30.46620048030194
 20
137.5186340657592
 30
0.0
 41
1.0
 10
30.72122385237714
 20
137.057115805682
 30
0.0
 41
1.0
 10
30.85502301325314
 20
136.8289819349482
 30
0.0
 41
1.0
 10
31.01279982980734
 20
136.5754132032973
 30
0.0
 41
1.0
 10
31.03043126151604
 20
136.5472816695276
 30
0.0
 41
1.0
 10
31.06589599588753
 20
136.4911045272837
 30
0.0
 41
1.0
 10
31.08373600162894
 20
136.4630485118477
 30
0.0
 41
1.0
 10
31.13749563513414
 20
136.3791093901067
 30
0.0
 41
1.0
 10
31.17365885356314
 20
136.3234481904756
 30
0.0
 41
1.0
 10
31.28310971545324
 20
136.157353980195
 30
0.0
 41
1.0
 10
31.35735866854673
 20
136.0478105234568
 30
0.0
 41
1.0
 10
31.58387313977584
 20
135.7226900187296
 30
0.0
 41
1.0
 10
31.73992004458073
 20
135.5106271896676
 30
0.0
 41
1.0
 10
32.06150822432183
 20
135.0955571956352
 30
0.0
 41
1.0
 10
32.22705668528543
 20
134.8925160314915
 30
0.0
 41
1.0
 10
32.56755464418953
 20
134.4950913618367
 30
0.0
 41
1.0
 10
32.74250428436874
 20
134.3007086877552
 30
0.0
 41
1.0
 10
33.10199192749733
 20
133.9205690726086
 30
0.0
 41
1.0
 10
33.28654811623664
 20
133.7348091716716
 30
0.0
 41
1.0
 10
33.66564416899654
 20
133.3721878287722
 30
0.0
 41
1.0
 10
33.86017046760743
 20
133.1953381235694
 30
0.0
 41
1.0
 10
34.15956653978274
 20
132.9369571516807
 30
0.0
 41
1.0
 10
34.26063238442244
 20
132.8519784853437
 30
0.0
 41
1.0
 10
34.41414366422005
 20
132.7262524228977
 30
0.0
 41
1.0
 10
34.46563280356641
 20
132.6846340159337
 30
0.0
 41
1.0
 10
34.5692499983407
 20
132.6019804859358
 30
0.0
 41
1.0
 10
34.62140202307518
 20
132.560927453341
 30
0.0
 41
1.0
 10
34.88300619942476
 20
132.3577067292703
 30
0.0
 41
1.0
 10
35.09552525284614
 20
132.2012453922095
 30
0.0
 41
1.0
 10
35.52665024138236
 20
131.9000409407746
 30
0.0
 41
1.0
 10
35.74525336697781
 20
131.7552733074437
 30
0.0
 41
1.0
 10
36.18847587763929
 20
131.476974542305
 30
0.0
 41
1.0
 10
36.41309534038664
 20
131.3434445426812
 30
0.0
 41
1.0
 10
36.8684576136206
 20
131.0875416951694
 30
0.0
 41
1.0
 10
37.09920085265816
 20
130.9651682827686
 30
0.0
 41
1.0
 10
37.56709236365106
 20
130.7318372163458
 30
0.0
 41
1.0
 10
37.8042425265648
 20
130.6209014795532
 30
0.0
 41
1.0
 10
38.28504428200967
 20
130.4108537814734
 30
0.0
 41
1.0
 10
38.52869578323072
 20
130.3117424370693
 30
0.0
 41
1.0
 10
38.89905449100792
 20
130.1720964322795
 30
0.0
 41
1.0
 10
39.02332031098678
 20
130.1270499443027
 30
0.0
 41
1.0
 10
39.17966455466825
 20
130.0726252855085
 30
0.0
 41
1.0
 10
39.21099530521287
 20
130.0618306757785
 30
0.0
 41
1.0
 10
39.27368333129022
 20
130.0404550473556
 30
0.0
 41
1.0
 10
39.30504333465371
 20
130.0298729831186
 30
0.0
 41
1.0
 10
39.3991707313258
 20
129.9984419553896
 30
0.0
 41
1.0
 10
39.4619855243422
 20
129.9779081701388
 30
0.0
 41
1.0
 10
39.77636749278651
 20
129.877311707255
 30
0.0
 41
1.0
 10
40.02884946747605
 20
129.8034460826488
 30
0.0
 41
1.0
 10
40.53583927622282
 20
129.6683804311202
 30
0.0
 41
1.0
 10
40.790346868717
 20
129.6071824311223
 30
0.0
 41
1.0
 10
41.3015195815687
 20
129.4973561385421
 30
0.0
 41
1.0
 10
41.55818417635902
 20
129.4487276132412
 30
0.0
 41
1.0
 10
42.073872461328
 20
129.3643711732166
 30
0.0
 41
1.0
 10
42.33285843739186
 20
129.3286961156555
 30
0.0
 41
1.0
 10
42.8529374179945
 20
129.2704161157403
 30
0.0
 41
1.0
 10
43.11405320239755
 20
129.2478042891476
 30
0.0
 41
1.0
 10
43.63841015617874
 20
129.2156330396584
 30
0.0
 41
1.0
 10
43.90165126601636
 20
129.2060736205614
 30
0.0
 41
1.0
 10
44.19897844056181
 20
129.2026455568754
 30
0.0
 41
1.0
 10
44.23203119657132
 20
129.2023663994776
 30
0.0
 41
1.0
 10
44.28163489981858
 20
129.2021002106287
 30
0.0
 41
1.0
 10
44.29817356244752
 20
129.2020369055137
 30
0.0
 41
1.0
 10
44.32298769430002
 20
129.2019800765967
 30
0.0
 41
1.0
 10
44.33126009457061
 20
129.2019674884175
 30
0.0
 41
1.0
 10
44.34367022890633
 20
129.2019581373085
 30
0.0
 41
1.0
 10
44.34780719600786
 20
129.2019566087994
 30
0.0
 41
1.0
 10
44.35292865280513
 20
129.2019566829883
 30
0.0
 41
1.0
 10
44.35391290532068
 20
129.201956787145
 30
0.0
 41
1.0
 10
44.35489716994716
 20
129.2019569862038
 30
0.0
 41
1.0
  0
ELLIPSE
  5
38C
330
372
100
AcDbEntity
  8
$DDT_AUDIT_GENERATED_(90)
  6
Continuous
 62
     7
100
AcDbEllipse
 10
-1214.0153630442
 20
210.0205413747
 30
0.0
 11
1236.189157584613
 21
0.267117841731293
 31
0.0
210
0.0
220
0.0
230
0.9999999999999998
 40
0.1518704373
 41
0.0415959240452694
 42
0.0439547106754202
  0
ARC
  5
38D
330
372
100
AcDbEntity
  8
$DDT_AUDIT_GENERATED_(90)
  6
Continuous
 62
     7
100
AcDbCircle
 10
66.9389799472
 20
215.4723615781
 30
0.0
 40
2.705760547845107
100
AcDbArc
 50
75.7079203017
 51
86.3794846249
  0
LINE
  5
38E
330
372
100
AcDbEntity
  8
$DDT_AUDIT_GENERATED_(90)
  6
Continuous
 62
     7
100
AcDbLine
 10
67.6069376822
 20
218.0943784748
 30
0.0
 11
67.6069727146
 21
218.0944196411
 31
0.0
  0
ARC
  5
38F
330
372
100
AcDbEntity
  8
$DDT_AUDIT_GENERATED_(90)
  6
Continuous
 62
     7
100
AcDbCircle
 10
44.4169006299
 20
220.6827855196
 30
0.0
 40
23.33419448244026
100
AcDbArc
 50
359.8871286865
 51
41.8729616418
  0
ARC
  5
390
330
372
100
AcDbEntity
  8
$DDT_AUDIT_GENERATED_(90)
  6
Continuous
 62
     7
100
AcDbCircle
 10
44.3615828544
 20
220.6299125064
 30
0.0
 40
23.41067744255754
100
AcDbArc
 50
41.8789506664
 51
87.024384526
  0
SPLINE
  5
391
330
372
100
AcDbEntity
  8
$DDT_AUDIT_GENERATED_(90)
  6
Continuous
 62
     7
100
AcDbSpline
210
0.0
220
0.0
230
1.0
 70
     8
 71
     3
 72
    10
 73
     6
 74
     0
 42
0.0000002900630989
 43
0.0000000001
 40
0.0
 40
0.0
 40
0.0
 40
0.0
 40
0.4999602785231705
 40
0.4999602785231705
 40
1.0
 40
1.0
 40
1.0
 40
1.0
 10
67.73175907873814
 20
218.536827507379
 30
0.0
 10
67.73333846768415
 20
218.5422756486932
 30
0.0
 10
67.73366966027544
 20
218.5385290868809
 30
0.0
 10
67.73373274109353
 20
218.5277588155595
 30
0.0
 10
67.73339323620664
 20
218.5199123505033
 30
0.0
 10
67.73305731504415
 20
218.5135037777497
 30
0.0
  0
SPLINE
  5
392
330
372
100
AcDbEntity
  8
$DDT_AUDIT_GENERATED_(90)
  6
Continuous
 62
     7
100
AcDbSpline
210
0.0
220
0.0
230
1.0
 70
     8
 71
     3
 72
    10
 73
     6
 74
     0
 42
0.0000000598569294
 43
0.0000000001
 40
0.0
 40
0.0
 40
0.0
 40
0.0
 40
0.0832082138359025
 40
0.167741570842401
 40
0.2191521543109241
 40
0.2191521543109241
 40
0.2191521543109241
 40
0.2191521543109241
 10
61.75842023440267
 20
150.450469878378
 30
0.0
 10
61.76600108260159
 20
150.4484839051503
 30
0.0
 10
61.78128316945629
 20
150.444480356716
 30
0.0
 10
61.78983121657843
 20
150.4401201056618
 30
0.0
 10
61.79077164728354
 20
150.4377944291794
 30
0.0
 10
61.79046940760501
 20
150.4369746801025
 30
0.0
  0
SPLINE
  5
393
330
372
100
AcDbEntity
  8
$DDT_AUDIT_GENERATED_(90)
  6
Continuous
 62
     7
100
AcDbSpline
210
0.0
220
0.0
230
1.0
 70
    12
 71
     3
 72
   168
 73
   164
 74
     0
 42
0.0000000001017673
 43
0.0000000001
 40
0.0
 40
0.0
 40
0.0
 40
0.0
 40
0.0000293901886429
 40
0.0000293901886429
 40
0.0001529316890372
 40
0.0001529316890372
 40
0.0004000146898248
 40
0.0004000146898248
 40
0.0008941806914
 40
0.0008941806914
 40
0.0018825126945515
 40
0.0018825126945515
 40
0.0097891687197592
 40
0.0097891687197592
 40
0.0176958247449668
 40
0.0176958247449668
 40
0.0256024807701756
 40
0.0256024807701756
 40
0.0335091367953832
 40
0.0335091367953832
 40
0.041415792820591
 40
0.041415792820591
 40
0.0493224488457997
 40
0.0493224488457997
 40
0.0512991128521015
 40
0.0512991128521015
 40
0.0522874448552519
 40
0.0522874448552519
 40
0.0532757768584034
 40
0.0532757768584034
 40
0.0572291048710073
 40
0.0572291048710073
 40
0.0651357608962151
 40
0.0651357608962151
 40
0.0730424169214227
 40
0.0730424169214227
 40
0.0809490729466314
 40
0.0809490729466314
 40
0.0888557289718391
 40
0.0888557289718391
 40
0.096762384997046
 40
0.096762384997046
 40
0.1046690410222558
 40
0.1046690410222558
 40
0.1066457050285572
 40
0.1066457050285572
 40
0.1086223690348596
 40
0.1086223690348596
 40
0.1125756970474635
 40
0.1125756970474635
 40
0.1204823530726702
 40
0.1204823530726702
 40
0.1283890090978789
 40
0.1283890090978789
 40
0.1362956651230866
 40
0.1362956651230866
 40
0.1442023211482943
 40
0.1442023211482943
 40
0.152108977173503
 40
0.152108977173503
 40
0.1560623051861069
 40
0.1560623051861069
 40
0.1580389691924093
 40
0.1580389691924093
 40
0.1590273011955601
 40
0.1590273011955601
 40
0.1600156331987107
 40
0.1600156331987107
 40
0.1679222892239184
 40
0.1679222892239184
 40
0.1758289452491272
 40
0.1758289452491272
 40
0.1837356012743339
 40
0.1837356012743339
 40
0.1916422572995436
 40
0.1916422572995436
 40
0.1955955853121475
 40
0.1955955853121475
 40
0.1995489133247513
 40
0.1995489133247513
 40
0.207455569349958
 40
0.207455569349958
 40
0.2094322333562594
 40
0.2094322333562594
 40
0.2114088973625619
 40
0.2114088973625619
 40
0.2153622253751677
 40
0.2153622253751677
 40
0.2193155533877716
 40
0.2193155533877716
 40
0.2203038853909213
 40
0.2203038853909213
 40
0.221292217394073
 40
0.221292217394073
 40
0.2232688814003744
 40
0.2232688814003744
 40
0.2311755374255822
 40
0.2311755374255822
 40
0.2390821934507909
 40
0.2390821934507909
 40
0.2430355214633947
 40
0.2430355214633947
 40
0.2440238534665454
 40
0.2440238534665454
 40
0.2450121854696972
 40
0.2450121854696972
 40
0.2469888494759986
 40
0.2469888494759986
 40
0.262802161526415
 40
0.262802161526415
 40
0.2667554895390189
 40
0.2667554895390189
 40
0.2707088175516227
 40
0.2707088175516227
 40
0.2786154735768304
 40
0.2786154735768304
 40
0.2944287856272459
 40
0.2944287856272459
 40
0.3102420976776623
 40
0.3102420976776623
 40
0.3260554097280788
 40
0.3260554097280788
 40
0.3418687217784941
 40
0.3418687217784941
 40
0.3576820338289106
 40
0.3576820338289106
 40
0.373495345879325
 40
0.373495345879325
 40
0.4051219699801548
 40
0.4051219699801548
 40
0.4367485940809847
 40
0.4367485940809847
 40
0.4683752181818256
 40
0.4683752181818256
 40
0.5000018422826575
 40
0.5000018422826575
 40
0.5632550904843181
 40
0.5632550904843181
 40
0.5948817145851489
 40
0.5948817145851489
 40
0.6265083386859798
 40
0.6265083386859798
 40
0.6581349627868106
 40
0.6581349627868106
 40
0.6897615868876416
 40
0.6897615868876416
 40
0.7213882109884713
 40
0.7213882109884713
 40
0.7530148350893123
 40
0.7530148350893123
 40
0.816268083290974
 40
0.816268083290974
 40
0.8478947073918047
 40
0.8478947073918047
 40
0.8795213314926357
 40
0.8795213314926357
 40
0.9111479555934665
 40
0.9111479555934665
 40
0.9427745796942972
 40
0.9427745796942972
 40
0.9744012037951272
 40
0.9744012037951272
 40
1.0
 40
1.0
 40
1.0
 40
1.0
 10
44.35489716994716
 20
129.2019569862038
 30
0.0
 41
1.0
 10
44.35588143457353
 20
129.201956787145
 30
0.0
 41
1.0
 10
44.35686568708906
 20
129.2019566829883
 30
0.0
 41
1.0
 10
44.36198714388645
 20
129.2019566087994
 30
0.0
 41
1.0
 10
44.36612411098787
 20
129.2019581373085
 30
0.0
 41
1.0
 10
44.37853424532359
 20
129.2019674884175
 30
0.0
 41
1.0
 10
44.38680664559417
 20
129.2019800765967
 30
0.0
 41
1.0
 10
44.41162077744668
 20
129.2020369055137
 30
0.0
 41
1.0
 10
44.42815944007561
 20
129.2021002106287
 30
0.0
 41
1.0
 10
44.47776314332287
 20
129.2023663994776
 30
0.0
 41
1.0
 10
44.51081589933239
 20
129.2026455568754
 30
0.0
 41
1.0
 10
44.80814307387784
 20
129.2060736205614
 30
0.0
 41
1.0
 10
45.07138418371546
 20
129.2156330396584
 30
0.0
 41
1.0
 10
45.59574113749665
 20
129.2478042891476
 30
0.0
 41
1.0
 10
45.85685692189969
 20
129.2704161157403
 30
0.0
 41
1.0
 10
46.37693590250235
 20
129.3286961156555
 30
0.0
 41
1.0
 10
46.6359218785662
 20
129.3643711732166
 30
0.0
 41
1.0
 10
47.15161016353517
 20
129.4487276132412
 30
0.0
 41
1.0
 10
47.40827475832549
 20
129.4973561385421
 30
0.0
 41
1.0
 10
47.91944747117721
 20
129.6071824311223
 30
0.0
 41
1.0
 10
48.17395506367139
 20
129.6683804311202
 30
0.0
 41
1.0
 10
48.68094487241814
 20
129.8034460826488
 30
0.0
 41
1.0
 10
48.93342684710769
 20
129.877311707255
 30
0.0
 41
1.0
 10
49.24780881555199
 20
129.9779081701388
 30
0.0
 41
1.0
 10
49.3106236085684
 20
129.9984419553896
 30
0.0
 41
1.0
 10
49.40475100524049
 20
130.0298729831186
 30
0.0
 41
1.0
 10
49.43611100860398
 20
130.0404550473556
 30
0.0
 41
1.0
 10
49.49879903468133
 20
130.0618306757785
 30
0.0
 41
1.0
 10
49.53012978522595
 20
130.0726252855085
 30
0.0
 41
1.0
 10
49.68647402890743
 20
130.1270499443027
 30
0.0
 41
1.0
 10
49.81073984888628
 20
130.1720964322795
 30
0.0
 41
1.0
 10
50.18109855666347
 20
130.3117424370693
 30
0.0
 41
1.0
 10
50.42475005788454
 20
130.4108537814734
 30
0.0
 41
1.0
 10
50.9055518133294
 20
130.6209014795532
 30
0.0
 41
1.0
 10
51.14270197624314
 20
130.7318372163458
 30
0.0
 41
1.0
 10
51.61059348723603
 20
130.9651682827686
 30
0.0
 41
1.0
 10
51.8413367262736
 20
131.0875416951693
 30
0.0
 41
1.0
 10
52.29669899950756
 20
131.3434445426811
 30
0.0
 41
1.0
 10
52.5213184622549
 20
131.476974542305
 30
0.0
 41
1.0
 10
52.9645409729164
 20
131.7552733074437
 30
0.0
 41
1.0
 10
53.18314409851196
 20
131.9000409407745
 30
0.0
 41
1.0
 10
53.61426908704807
 20
132.2012453922095
 30
0.0
 41
1.0
 10
53.82678814046945
 20
132.3577067292703
 30
0.0
 41
1.0
 10
54.08839231681902
 20
132.560927453341
 30
0.0
 41
1.0
 10
54.14054434155351
 20
132.6019804859358
 30
0.0
 41
1.0
 10
54.24416153632781
 20
132.6846340159337
 30
0.0
 41
1.0
 10
54.29565067567417
 20
132.7262524228977
 30
0.0
 41
1.0
 10
54.44916195547174
 20
132.8519784853437
 30
0.0
 41
1.0
 10
54.55022780011154
 20
132.9369571516807
 30
0.0
 41
1.0
 10
54.84962387228674
 20
133.1953381235694
 30
0.0
 41
1.0
 10
55.04415017089774
 20
133.3721878287722
 30
0.0
 41
1.0
 10
55.42324622365754
 20
133.7348091716715
 30
0.0
 41
1.0
 10
55.60780241239694
 20
133.9205690726085
 30
0.0
 41
1.0
 10
55.96729005552543
 20
134.3007086877552
 30
0.0
 41
1.0
 10
56.14223969570465
 20
134.4950913618367
 30
0.0
 41
1.0
 10
56.48273765460884
 20
134.8925160314915
 30
0.0
 41
1.0
 10
56.64828611557234
 20
135.0955571956352
 30
0.0
 41
1.0
 10
56.96987429531345
 20
135.5106271896675
 30
0.0
 41
1.0
 10
57.12592120011845
 20
135.7226900187295
 30
0.0
 41
1.0
 10
57.35243567134744
 20
136.0478105234568
 30
0.0
 41
1.0
 10
57.42668462444095
 20
136.157353980195
 30
0.0
 41
1.0
 10
57.53613548633105
 20
136.3234481904756
 30
0.0
 41
1.0
 10
57.57229870476004
 20
136.3791093901067
 30
0.0
 41
1.0
 10
57.62605833826534
 20
136.4630485118477
 30
0.0
 41
1.0
 10
57.64389834400674
 20
136.4911045272836
 30
0.0
 41
1.0
 10
57.67936307837814
 20
136.5472816695276
 30
0.0
 41
1.0
 10
57.69699451008695
 20
136.5754132032972
 30
0.0
 41
1.0
 10
57.85477132664105
 20
136.8289819349482
 30
0.0
 41
1.0
 10
57.98857048751704
 20
137.057115805682
 30
0.0
 41
1.0
 10
58.24359385959234
 20
137.5186340657592
 30
0.0
 41
1.0
 10
58.36481561083814
 20
137.7519909005129
 30
0.0
 41
1.0
 10
58.59518220770644
 20
138.2239002276133
 30
0.0
 41
1.0
 10
58.70431100637374
 20
138.462451884641
 30
0.0
 41
1.0
 10
58.91050735803205
 20
138.9448384696867
 30
0.0
 41
1.0
 10
59.00757532248625
 20
139.1886731482261
 30
0.0
 41
1.0
 10
59.14395681334175
 20
139.5585546569689
 30
0.0
 41
1.0
 10
59.18787834293794
 20
139.6825378074687
 30
0.0
 41
1.0
 10
59.27258598401294
 20
139.9319241537962
 30
0.0
 41
1.0
 10
59.31334772140945
 20
140.057307418409
 30
0.0
 41
1.0
 10
59.43079512613165
 20
140.4354726564025
 30
0.0
 41
1.0
 10
59.50266260001505
 20
140.6902900830948
 30
0.0
 41
1.0
 10
59.58442332308625
 20
141.0121597926056
 30
0.0
 41
1.0
 10
59.60037183975345
 20
141.0767010981455
 30
0.0
 41
1.0
 10
59.63146094548534
 20
141.206117420836
 30
0.0
 41
1.0
 10
59.64661021059465
 20
141.27103157631
 30
0.0
 41
1.0
 10
59.69076436818235
 20
141.4659111160377
 30
0.0
 41
1.0
 10
59.71848129626105
 20
141.5960255013377
 30
0.0
 41
1.0
 10
59.77054614162755
 20
141.8566275878993
 30
0.0
 41
1.0
 10
59.79489406744305
 20
141.9871152821349
 30
0.0
 41
1.0
 10
59.82326561017075
 20
142.150448474356
 30
0.0
 41
1.0
 10
59.82884006507265
 20
142.1831323383217
 30
0.0
 41
1.0
 10
59.83975792210286
 20
142.248477394763
 30
0.0
 41
1.0
 10
59.84510399106445
 20
142.2811414486607
 30
0.0
 41
1.0
 10
59.86082105075105
 20
142.3791062706115
 30
0.0
 41
1.0
 10
59.87087100348365
 20
142.4443796716615
 30
0.0
 41
1.0
 10
59.91920592978755
 20
142.7705405398939
 30
0.0
 41
1.0
 10
59.95177569030045
 20
143.0308045046007
 30
0.0
 41
1.0
 10
60.00998856088905
 20
143.5494990547901
 30
0.0
 41
1.0
 10
60.03562245865475
 20
143.8079332057558
 30
0.0
 41
1.0
 10
60.07237299737835
 20
144.1938829459787
 30
0.0
 41
1.0
 10
60.08433603933204
 20
144.3222494133237
 30
0.0
 41
1.0
 10
60.09927507083145
 20
144.4823181879544
 30
0.0
 41
1.0
 10
60.10226209993085
 20
144.5143124731113
 30
0.0
 41
1.0
 10
60.10824306958315
 20
144.5782612095933
 30
0.0
 41
1.0
 10
60.11123378621045
 20
144.6102085891294
 30
0.0
 41
1.0
 10
60.12026106412095
 20
144.7060582034041
 30
0.0
 41
1.0
 10
60.12634694554765
 20
144.7699625450122
 30
0.0
 41
1.0
 10
60.18168014994835
 20
145.3451515702908
 30
0.0
 41
1.0
 10
60.23489780956145
 20
145.8567935505219
 30
0.0
 41
1.0
 10
60.30248933249875
 20
146.4973585462564
 30
0.0
 41
1.0
 10
60.31605883093106
 20
146.6255215974874
 30
0.0
 41
1.0
 10
60.34319525598395
 20
146.8819589371521
 30
0.0
 41
1.0
 10
60.35676925625786
 20
147.010253754032
 30
0.0
 41
1.0
 10
60.39727231920245
 20
147.3951578500125
 30
0.0
 41
1.0
 10
60.42399780209776
 20
147.6517400360984
 30
0.0
 41
1.0
 10
60.50362855584246
 20
148.4214029262776
 30
0.0
 41
1.0
 10
60.55598951836215
 20
148.9344016321311
 30
0.0
 41
1.0
 10
60.66065053757126
 20
149.9600289073859
 30
0.0
 41
1.0
 10
60.71304177594266
 20
150.4728115766673
 30
0.0
 41
1.0
 10
60.81802429318346
 20
151.4983660718615
 30
0.0
 41
1.0
 10
60.87061872074636
 20
152.011116663976
 30
0.0
 41
1.0
 10
60.97600200340477
 20
153.0366628681884
 30
0.0
 41
1.0
 10
61.02876867852866
 20
153.5494576119436
 30
0.0
 41
1.0
 10
61.13421832220896
 20
154.5751166379186
 30
0.0
 41
1.0
 10
61.18687401973816
 20
155.087969799058
 30
0.0
 41
1.0
 10
61.29209188945376
 20
156.1136320750582
 30
0.0
 41
1.0
 10
61.34466480172956
 20
156.6264476621844
 30
0.0
 41
1.0
 10
61.50244209631236
 20
158.1648760335453
 30
0.0
 41
1.0
 10
61.60767346687417
 20
159.1904965365871
 30
0.0
 41
1.0
 10
61.81805263993427
 20
161.2417713547569
 30
0.0
 41
1.0
 10
61.92319633800857
 20
162.2674304359701
 30
0.0
 41
1.0
 10
62.13339431913457
 20
164.3187029187862
 30
0.0
 41
1.0
 10
62.23849146105347
 20
165.3443264654393
 30
0.0
 41
1.0
 10
62.44861789848038
 20
167.3956338462401
 30
0.0
 41
1.0
 10
62.55362012644868
 20
168.4212888626941
 30
0.0
 41
1.0
 10
62.86853779265539
 20
171.4982345383422
 30
0.0
 41
1.0
 10
63.07839145693659
 20
173.549546275595
 30
0.0
 41
1.0
 10
63.39291115169389
 20
176.6265279009479
 30
0.0
 41
1.0
 10
63.49772299340098
 20
177.6521876194113
 30
0.0
 41
1.0
 10
63.70726289708139
 20
179.703529494887
 30
0.0
 41
1.0
 10
63.81198382611869
 20
180.7291972043772
 30
0.0
 41
1.0
 10
64.0213743055205
 20
182.7805404355092
 30
0.0
 41
1.0
 10
64.1260313982463
 20
183.8062312239573
 30
0.0
 41
1.0
 10
64.33521795140909
 20
185.857598685538
 30
0.0
 41
1.0
 10
64.4397721867373
 20
186.883272499553
 30
0.0
 41
1.0
 10
64.6488338663753
 20
188.9346417410203
 30
0.0
 41
1.0
 10
64.7533342331069
 20
189.9603334993172
 30
0.0
 41
1.0
 10
64.9622161566687
 20
192.01173883317
 30
0.0
 41
1.0
 10
65.06659337783161
 20
193.0374395839292
 30
0.0
 41
1.0
 10
65.37962282606122
 20
196.1145458197829
 30
0.0
 41
1.0
 10
65.58813664760801
 20
198.1659756640741
 30
0.0
 41
1.0
 10
65.90063331057291
 20
201.2431335072983
 30
0.0
 41
1.0
 10
66.00476119170852
 20
202.2688565553352
 30
0.0
 41
1.0
 10
66.21290599967212
 20
204.320323458445
 30
0.0
 41
1.0
 10
66.31691994627032
 20
205.3460605996111
 30
0.0
 41
1.0
 10
66.52485240985511
 20
207.397538815412
 30
0.0
 41
1.0
 10
66.62877386762753
 20
208.4232781063972
 30
0.0
 41
1.0
 10
66.83654017552101
 20
210.4747707496331
 30
0.0
 41
1.0
 10
66.94038533359253
 20
211.5005227539272
 30
0.0
 41
1.0
 10
67.14793276134893
 20
213.5520581547009
 30
0.0
 41
1.0
 10
67.25161009234374
 20
214.5778346023399
 30
0.0
 41
1.0
 10
67.43917861785523
 20
216.4338412199255
 30
0.0
 41
1.0
 10
67.52307675542883
 20
217.2641066037533
 30
0.0
 41
1.0
 10
67.60693768220382
 20
218.0943784748441
 30
0.0
 41
1.0
  0
ARC
  5
394
330
372
100
AcDbEntity
  8
$DDT_AUDIT_GENERATED_(90)
  6
Continuous
 62
     7
100
AcDbCircle
 10
98.3750917042
 20
209.6547109344
 30
0.0
 40
31.90463648458206
100
AcDbArc
 50
163.8355160707
 51
164.6610189502
  0
ARC
  5
395
330
372
100
AcDbEntity
  8
$DDT_AUDIT_GENERATED_(90)
  6
Continuous
 62
     7
100
AcDbCircle
 10
44.4353628942
 20
225.2729370071
 30
0.0
 40
24.91125305991028
100
AcDbArc
 50
337.7860253328
 51
353.2643944786
  0
ARC
  5
396
330
372
100
AcDbEntity
  8
$DDT_AUDIT_GENERATED_(90)
  6
Continuous
 62
     7
100
AcDbCircle
 10
50.2431612815
 20
224.5240054519
 30
0.0
 40
19.05580249893254
100
AcDbArc
 50
353.4525500671
 51
354.2766923462
  0
ARC
  5
397
330
372
100
AcDbEntity
  8
$DDT_AUDIT_GENERATED_(90)
  6
Continuous
 62
     7
100
AcDbCircle
 10
52.8252501782
 20
224.3283542988
 30
0.0
 40
16.46719370968458
100
AcDbArc
 50
354.0581105145
 51
1.538042498
  0
SPLINE
  5
398
330
372
100
AcDbEntity
  8
$DDT_AUDIT_GENERATED_(90)
  6
Continuous
 62
     7
100
AcDbSpline
210
0.0
220
0.0
230
1.0
 70
     8
 71
     3
 72
    11
 73
     7
 74
     0
 42
0.0000000400192896
 43
0.0000000001
 40
0.0
 40
0.0
 40
0.0
 40
0.0
 40
0.9999382739948266
 40
0.9999382739948266
 40
0.9999382739948266
 40
1.0
 40
1.0
 40
1.0
 40
1.0
 10
69.28651115322424
 20
224.7703450054501
 30
0.0
 10
69.28387493240423
 20
224.8535817074699
 30
0.0
 10
69.28072337276272
 20
224.9368095708213
 30
0.0
 10
69.27705636116052
 20
225.0200227653352
 30
0.0
 10
69.27705613479657
 20
225.0200279020704
 30
0.0
 10
69.27705634412479
 20
225.0200358236292
 30
0.0
 10
69.2770563349844
 20
225.0200423527809
 30
0.0
  0
ARC
  5
399
330
372
100
AcDbEntity
  8
$DDT_AUDIT_GENERATED_(90)
  6
Continuous
 62
     7
100
AcDbCircle
 10
48.085610874
 20
223.8855761869
 30
0.0
 40
21.22179008018754
100
AcDbArc
 50
3.0643560976
 51
28.6518608501
  0
ARC
  5
39A
330
372
100
AcDbEntity
  8
$DDT_AUDIT_GENERATED_(90)
  6
Continuous
 62
     7
100
AcDbCircle
 10
44.274414398
 20
225.2729177658
 30
0.0
 40
24.91123387311933
100
AcDbArc
 50
186.7355661707
 51
202.1628887781
  0
ARC
  5
39B
330
372
100
AcDbEntity
  8
$DDT_AUDIT_GENERATED_(90)
  6
Continuous
 62
     7
100
AcDbCircle
 10
38.4666231078
 20
224.5240043822
 30
0.0
 40
19.05579249127425
100
AcDbArc
 50
185.7233074373
 51
186.5474501492
  0
ARC
  5
39C
330
372
100
AcDbEntity
  8
$DDT_AUDIT_GENERATED_(90)
  6
Continuous
 62
     7
100
AcDbCircle
 10
36.0398245435
 20
224.33432479
 30
0.0
 40
16.62226098610914
100
AcDbArc
 50
178.4968961836
 51
185.9069508039
  0
ARC
  5
39D
330
372
100
AcDbEntity
  8
$DDT_AUDIT_GENERATED_(90)
  6
Continuous
 62
     7
100
AcDbCircle
 10
40.5601038492
 20
223.9157228152
 30
0.0
 40
21.1562073434142
100
AcDbArc
 50
151.2792974567
 51
177.0078939035
  0
ARC
  5
39E
330
372
100
AcDbEntity
  8
$DDT_AUDIT_GENERATED_(90)
  6
Continuous
 62
     7
100
AcDbCircle
 10
41.4425333205
 20
220.5603283734
 30
0.0
 40
20.56882505896066
100
AcDbArc
 50
185.8294351228
 51
185.8366463648
  0
ARC
  5
39F
330
372
100
AcDbEntity
  8
$DDT_AUDIT_GENERATED_(90)
  6
Continuous
 62
     7
100
AcDbCircle
 10
25574.5151464446
 20
2414.6429336965
 30
0.0
 40
25647.73442895547
100
AcDbArc
 50
184.912914663
 51
185.0647183027
  0
SPLINE
  5
3A0
330
372
100
AcDbEntity
  8
$DDT_AUDIT_GENERATED_(90)
  6
Continuous
 62
     7
100
AcDbSpline
210
0.0
220
0.0
230
1.0
 70
     8
 71
     3
 72
    50
 73
    46
 74
     0
 42
0.0000000002888567
 43
0.0000000001
 40
0.0
 40
0.0
 40
0.0
 40
0.0
 40
0.0526221525430087
 40
0.1005254291088237
 40
0.1437208784951226
 40
0.182224455701426
 40
0.2160264834399921
 40
0.2406008872672905
 40
0.2619201946303826
 40
0.2800836775846874
 40
0.2973645923284783
 40
0.3101486543639306
 40
0.3189625843387602
 40
0.3291050299515965
 40
0.342501168418392
 40
0.3587355817055458
 40
0.3769295153747397
 40
0.3998512290359422
 40
0.4207833327704413
 40
0.4404346883291141
 40
0.4625632745840885
 40
0.4793507727818773
 40
0.4976094997536192
 40
0.517389118881998
 40
0.5366886420307169
 40
0.5524062974446607
 40
0.5645498030752009
 40
0.5716037746746007
 40
0.5764782187627611
 40
0.5806597442481789
 40
0.5871367696510212
 40
0.5959926723563633
 40
0.6072285066510863
 40
0.6264003266880863
 40
0.6500708486281879
 40
0.6783582483071304
 40
0.7111112186167322
 40
0.7480446486822286
 40
0.782145016511239
 40
0.819478884808638
 40
0.8602665622193226
 40
0.8927141700707407
 40
0.9266878821286388
 40
0.9623769887566154
 40
1.0
 40
1.0
 40
1.0
 40
1.0
 10
26.91928824630263
 20
150.4369263520747
 30
0.0
 10
26.97891961118638
 20
149.7724505704413
 30
0.0
 10
27.07466767368759
 20
148.7044123568174
 30
0.0
 10
27.22633483870752
 20
147.0232427859177
 30
0.0
 10
27.35830983169262
 20
145.5425270556226
 30
0.0
 10
27.47634533048736
 20
144.2147980494378
 30
0.0
 10
27.5756337380375
 20
143.1028254299751
 30
0.0
 10
27.65772157836784
 20
142.1877264689323
 30
0.0
 10
27.72336058926986
 20
141.4521540354083
 30
0.0
 10
27.78353164706708
 20
140.8006608143362
 30
0.0
 10
27.84202129423001
 20
140.2479483405494
 30
0.0
 10
27.89749319355475
 20
139.8033992636043
 30
0.0
 10
27.9491654903853
 20
139.4412969308239
 30
0.0
 10
28.00845737776924
 20
139.0731502963926
 30
0.0
 10
28.09281123140114
 20
138.6224494035407
 30
0.0
 10
28.21140187214682
 20
138.0838493691271
 30
0.0
 10
28.37746946014827
 20
137.4435485291889
 30
0.0
 10
28.5877153137243
 20
136.7592399901831
 30
0.0
 10
28.83626064961875
 20
136.0699712288684
 30
0.0
 10
29.11092251617769
 20
135.4005519707647
 30
0.0
 10
29.39429307798836
 20
134.786979827336
 30
0.0
 10
29.69412460073751
 20
134.1993675422838
 30
0.0
 10
30.00107726334546
 20
133.6461827216459
 30
0.0
 10
30.34401777643178
 20
133.0803035533179
 30
0.0
 10
30.69304439364077
 20
132.5529409120268
 30
0.0
 10
31.00965992205818
 20
132.1102522091045
 30
0.0
 10
31.25348023318038
 20
131.7894627076899
 30
0.0
 10
31.42591467058069
 20
131.5716799506993
 30
0.0
 10
31.54309648125896
 20
131.4273597282694
 30
0.0
 10
31.65736367557276
 20
131.2892765778078
 30
0.0
 10
31.80280628463188
 20
131.1173845030987
 30
0.0
 10
32.00447919641682
 20
130.8864816515401
 30
0.0
 10
32.30943647805131
 20
130.5513973818656
 30
0.0
 10
32.74362013129613
 20
130.1029852711353
 30
0.0
 10
33.33990961262528
 20
129.538454191026
 30
0.0
 10
34.08508901780478
 20
128.9047873276918
 30
0.0
 10
34.99176540867872
 20
128.2276434300631
 30
0.0
 10
36.00110440892743
 20
127.5802379791471
 30
0.0
 10
37.10017903082525
 20
126.9809115023593
 30
0.0
 10
38.28140268069525
 20
126.4454929480613
 30
0.0
 10
39.48520501299328
 20
126.0171734772463
 30
0.0
 10
40.68408209921289
 20
125.6994074341662
 30
0.0
 10
41.83760377270766
 20
125.4820906252335
 30
0.0
 10
43.09304254230927
 20
125.3365891907703
 30
0.0
 10
43.87733914761904
 20
125.3172299447618
 30
0.0
 10
44.35502101020514
 20
125.3080956332917
 30
0.0
  0
ARC
  5
3A1
330
372
100
AcDbEntity
  8
$DDT_AUDIT_GENERATED_(90)
  6
Continuous
 62
     7
100
AcDbCircle
 10
47.2737742172
 20
220.5591251204
 30
0.0
 40
20.56222334042917
100
AcDbArc
 50
354.164843472
 51
354.1720570309
  0
ARC
  5
3A2
330
372
100
AcDbEntity
  8
$DDT_AUDIT_GENERATED_(90)
  6
Continuous
 62
     7
100
AcDbCircle
 10
-25467.1143777881
 20
2413.0141792927
 30
0.0
 40
25628.97264408578
100
AcDbArc
 50
354.9352198576
 51
355.0871340663
  0
SPLINE
  5
3A3
330
372
100
AcDbEntity
  8
$DDT_AUDIT_GENERATED_(90)
  6
Continuous
 62
     7
100
AcDbSpline
210
0.0
220
0.0
230
1.0
 70
     8
 71
     3
 72
    51
 73
    47
 74
     0
 42
0.0000000002888782
 43
0.0000000001
 40
0.0
 40
0.0
 40
0.0
 40
0.0
 40
0.0409258097789722
 40
0.0784105922037579
 40
0.1127183193979987
 40
0.1440173863003336
 40
0.1722292257108244
 40
0.1969993238357728
 40
0.2184141992048853
 40
0.2372221107454576
 40
0.256245050717138
 40
0.2758237498531197
 40
0.2984650486820509
 40
0.3219186306221221
 40
0.3460241461858943
 40
0.3691584475936901
 40
0.3883210596825445
 40
0.4005668629806443
 40
0.410352631826295
 40
0.4195900629469548
 40
0.4317054026792105
 40
0.4467871101929196
 40
0.4638362468720265
 40
0.4836217788575969
 40
0.505449062358314
 40
0.5264439413192309
 40
0.5463312855790523
 40
0.5651594144460359
 40
0.5863948454524391
 40
0.6061824148951128
 40
0.6243223551959755
 40
0.6390882358464655
 40
0.6500557179525523
 40
0.654951263827306
 40
0.6600526798329698
 40
0.667789825912861
 40
0.678164142703192
 40
0.6959984334602167
 40
0.7183077000749222
 40
0.7449800515851179
 40
0.7760692155476203
 40
0.8117253044203003
 40
0.8519475242377885
 40
0.8967241908996565
 40
0.9460705496387954
 40
1.0
 40
1.0
 40
1.0
 40
1.0
 10
44.35477330922755
 20
125.308095633283
 30
0.0
 10
44.87438621125904
 20
125.3188807956673
 30
0.0
 10
45.71292351597586
 20
125.3412904131858
 30
0.0
 10
47.03044644097378
 20
125.5057361667376
 30
0.0
 10
48.19271994102809
 20
125.7380661224826
 30
0.0
 10
49.23870634709987
 20
126.0276683863504
 30
0.0
 10
50.15719248779003
 20
126.3495924892297
 30
0.0
 10
50.95052436714044
 20
126.6797877608272
 30
0.0
 10
51.62851921592546
 20
127.0016253557639
 30
0.0
 10
52.23384293690459
 20
127.320305765089
 30
0.0
 10
52.80812822151186
 20
127.6513624063167
 30
0.0
 10
53.40661768829622
 20
128.0279690004288
 30
0.0
 10
54.03066201290143
 20
128.4588356833577
 30
0.0
 10
54.67508965889219
 20
128.9505463285575
 30
0.0
 10
55.29891353551398
 20
129.476987125109
 30
0.0
 10
55.86011545078448
 20
129.9992974238774
 30
0.0
 10
56.30213751141014
 20
130.4476619842275
 30
0.0
 10
56.62495578919957
 20
130.7966933696047
 30
0.0
 10
56.86398442140003
 20
131.0670364983859
 30
0.0
 10
57.09674464698642
 20
131.3408201283265
 30
0.0
 10
57.36201481027427
 20
131.6670832162093
 30
0.0
 10
57.67295059156103
 20
132.0721755104081
 30
0.0
 10
58.02166968950444
 20
132.5594368832325
 30
0.0
 10
58.39444940608129
 20
133.1246188125751
 30
0.0
 10
58.76639194435927
 20
133.7441138015782
 30
0.0
 10
59.11191890686422
 20
134.3799809714059
 30
0.0
 10
59.41607507961579
 20
134.9982333052397
 30
0.0
 10
59.69668588774829
 20
135.6304834662334
 30
0.0
 10
59.95023514466501
 20
136.2728414934033
 30
0.0
 10
60.17248566563917
 20
136.9181799440773
 30
0.0
 10
60.34642604850519
 20
137.5005901805376
 30
0.0
 10
60.47396059999077
 20
137.9902368564367
 30
0.0
 10
60.55347719561157
 20
138.3343426399167
 30
0.0
 10
60.60388115540717
 20
138.5707486561994
 30
0.0
 10
60.6443649687882
 20
138.7711222510233
 30
0.0
 10
60.6937435099132
 20
139.0340140090459
 30
0.0
 10
60.76214086710543
 20
139.4424774137589
 30
0.0
 10
60.84212932228238
 20
140.0190889043722
 30
0.0
 10
60.92583384959371
 20
140.7845473596516
 30
0.0
 10
61.00860300102794
 20
141.7038335847907
 30
0.0
 10
61.10481340733804
 20
142.7766466745948
 30
0.0
 10
61.21461043106223
 20
144.0044577166645
 30
0.0
 10
61.33799323148245
 20
145.3915308805091
 30
0.0
 10
61.47471213904146
 20
146.9265046620786
 30
0.0
 10
61.63097257607668
 20
148.6585002953692
 30
0.0
 10
61.72937383931575
 20
149.7559050862096
 30
0.0
 10
61.79050609359162
 20
150.4369263520747
 30
0.0
  0
ARC
  5
3A4
330
372
100
AcDbEntity
  8
$DDT_AUDIT_GENERATED_(90)
  6
Continuous
 62
     7
100
AcDbCircle
 10
21.3838285802
 20
224.8355071734
 30
0.0
 40
1.957486401158191
100
AcDbArc
 50
175.1871567196
 51
180.3412630307
  0
ARC
  5
3A5
330
372
100
AcDbEntity
  8
$DDT_AUDIT_GENERATED_(90)
  6
Continuous
 62
     7
100
AcDbCircle
 10
43.6120267717
 20
221.2564189294
 30
0.0
 40
25.11911085165384
100
AcDbArc
 50
91.0853151578
 51
149.2411063046
  0
ARC
  5
3A6
330
372
100
AcDbEntity
  8
$DDT_AUDIT_GENERATED_(90)
  6
Continuous
 62
     7
100
AcDbCircle
 10
44.357609022
 20
218.087760076
 30
0.0
 40
28.30978795706525
100
AcDbArc
 50
87.5057826681
 51
92.4727259487
  0
ARC
  5
3A7
330
372
100
AcDbEntity
  8
$DDT_AUDIT_GENERATED_(90)
  6
Continuous
 62
     7
100
AcDbCircle
 10
45.1142006535
 20
221.2646403804
 30
0.0
 40
25.1011186021574
100
AcDbArc
 50
30.7130167066
 51
88.9497460469
  0
LINE
  5
3A8
330
372
100
AcDbEntity
  8
$DDT_AUDIT_GENERATED_(35B)
  6
Continuous
 62
     7
100
AcDbLine
 10
46.3539949594
 20
272.3787214126
 30
0.0
 11
46.3539949594
 21
283.7490938286
 31
0.0
  0
LINE
  5
3A9
330
372
100
AcDbEntity
  8
$DDT_AUDIT_GENERATED_(35B)
  6
Continuous
 62
     7
100
AcDbLine
 10
42.3539949594
 20
283.7490938286
 30
0.0
 11
42.3539949594
 21
272.3787214126
 31
0.0
  0
LINE
  5
3AA
330
372
100
AcDbEntity
  8
$DDT_AUDIT_GENERATED_(35B)
  6
Continuous
 62
     7
100
AcDbLine
 10
42.3539949594
 20
272.3787214126
 30
0.0
 11
42.3539949594
 21
269.5255518637
 31
0.0
  0
LINE
  5
3AB
330
372
100
AcDbEntity
  8
$DDT_AUDIT_GENERATED_(35B)
  6
Continuous
 62
     7
100
AcDbLine
 10
46.3539949594
 20
269.5255518637
 30
0.0
 11
46.3539949594
 21
272.3787214126
 31
0.0
  0
LINE
  5
3AC
330
372
100
AcDbEntity
  8
$DDT_AUDIT_GENERATED_(35B)
  6
Continuous
 62
     7
100
AcDbLine
 10
46.3539949594
 20
261.2582764597
 30
0.0
 11
46.3539949594
 21
269.5255518637
 31
0.0
  0
LINE
  5
3AD
330
372
100
AcDbEntity
  8
$DDT_AUDIT_GENERATED_(35B)
  6
Continuous
 62
     7
100
AcDbLine
 10
42.3539949594
 20
269.5255518637
 30
0.0
 11
42.3539949594
 21
261.260638586
 31
0.0
  0
ARC
  5
3AE
330
372
100
AcDbEntity
  8
$DDT_AUDIT_GENERATED_(35B)
  6
Continuous
 62
     7
100
AcDbCircle
 10
44.3539949594
 20
283.7490938286
 30
0.0
 40
2.000000000000002
100
AcDbArc
 50
0.0
 51
180.0
  0
ENDBLK
  5
3B0
330
372
100
AcDbEntity
  8
0
100
AcDbBlockEnd
  0
ENDSEC
  0
SECTION
  2
ENTITIES
  0
INSERT
  5
5F
330
1F
100
AcDbEntity
  8
Default
100
AcDbBlockReference
  2
SEANNOT_GROUP
 10
0.0
 20
0.0
 30
0.0
  0
INSERT
  5
66
330
1F
100
AcDbEntity
  8
Default
100
AcDbBlockReference
  2
SEANNOT_GROUP1
 10
0.0
 20
0.0
 30
0.0
  0
INSERT
  5
6C
330
1F
100
AcDbEntity
  8
Default
100
AcDbBlockReference
  2
SEANNOT_GROUP2
 10
0.0
 20
0.0
 30
0.0
  0
INSERT
  5
76
330
1F
100
AcDbEntity
  8
Default
100
AcDbBlockReference
  2
SE
 10
0.0
 20
0.0
 30
0.0
  0
INSERT
  5
327
330
1F
100
AcDbEntity
  8
Default
100
AcDbBlockReference
  2
SE1
 10
0.0
 20
0.0
 30
0.0
  0
INSERT
  5
373
330
1F
100
AcDbEntity
  8
Default
100
AcDbBlockReference
  2
SE2
 10
0.0
 20
0.0
 30
0.0
  0
TEXT
  5
3B2
330
1F
100
AcDbEntity
  8
Default
  6
Continuous
 62
     7
100
AcDbText
 10
5.9362635081
 20
53.4225120485
 30
0.0
 40
10.0
  1
Grohe AG^J
  7
SEACAD_seiso_ttf
 11
5.9362635081
 21
63.4225120485
 31
0.0
100
AcDbText
 73
     3
  0
TEXT
  5
3B3
330
1F
100
AcDbEntity
  8
Default
  6
Continuous
 62
     7
100
AcDbText
 10
5.9362635081
 20
37.0588756849
 30
0.0
 40
10.0
  1
 
  7
SEACAD_seiso_ttf
 11
5.9362635081
 21
47.0588756849
 31
0.0
100
AcDbText
 73
     3
  0
TEXT
  5
3B4
330
1F
100
AcDbEntity
  8
Default
  6
Continuous
 62
     7
100
AcDbText
 10
5.9362635081
 20
20.6952393213
 30
0.0
 40
10.0
  1
ecn: 
  7
SEACAD_seiso_ttf
 11
5.9362635081
 21
30.6952393213
 31
0.0
100
AcDbText
 73
     3
  0
TEXT
  5
3B5
330
1F
100
AcDbEntity
  8
Default
  6
Continuous
 62
     7
100
AcDbText
 10
5.9362635081
 20
4.3316029576
 30
0.0
 40
10.0
  1
unit: mm
  7
SEACAD_seiso_ttf
 11
5.9362635081
 21
14.3316029576
 31
0.0
100
AcDbText
 73
     3
  0
LINE
  5
3B6
330
1F
100
AcDbEntity
  8
Default
  6
Continuous
 62
     7
100
AcDbLine
 10
0.0
 20
0.0
 30
0.0
 11
100.0
 21
0.0
 31
0.0
  0
LINE
  5
3B7
330
1F
100
AcDbEntity
  8
Default
  6
Continuous
 62
     7
100
AcDbLine
 10
0.0
 20
0.0
 30
0.0
 11
0.0
 21
100.0
 31
0.0
  0
TEXT
  5
3B8
330
1F
100
AcDbEntity
  8
Default
  6
Continuous
 62
     7
100
AcDbText
 10
24.3923665681
 20
-18.2375342018
 30
0.0
 40
10.0
  1
100 mm
  7
SEACAD_seiso_ttf
 11
24.3923665681
 21
-8.2375342018
 31
0.0
100
AcDbText
 73
     3
  0
TEXT
  5
3B9
330
1F
100
AcDbEntity
  8
Default
  6
Continuous
 62
     7
100
AcDbText
 10
-7.6150308803
 20
24.6231930421
 30
0.0
 40
10.0
  1
100 mm
 50
90.0
  7
SEACAD_seiso_ttf
 11
-17.6150308803
 21
24.6231930421
 31
0.0
100
AcDbText
 73
     3
  0
TEXT
  5
3BA
330
1F
100
AcDbEntity
  8
Default
  6
Continuous
 62
     7
100
AcDbText
 10
28.4878128572
 20
20.0907663715
 30
0.0
 40
10.0
  1
218645
  7
SEACAD_seiso_ttf
 11
28.4878128572
 21
30.0907663715
 31
0.0
100
AcDbText
 73
     3
  0
TEXT
  5
3BB
330
1F
100
AcDbEntity
  8
Default
  6
Continuous
 62
     7
100
AcDbText
 10
5.9012241913
 20
36.7242780188
 30
0.0
 40
10.0
  1
33190002
  7
SEACAD_seiso_ttf
 11
5.9012241913
 21
46.7242780188
 31
0.0
100
AcDbText
 73
     3
  0
ENDSEC
  0
SECTION
  2
OBJECTS
  0
DICTIONARY
  5
C
330
0
100
AcDbDictionary
281
     1
  3
ACAD_GROUP
350
D
  3
ACAD_LAYOUT
350
1A
  3
ACAD_MLEADERSTYLE
350
3BF
  3
ACAD_MLINESTYLE
350
17
  3
ACAD_PLOTSETTINGS
350
19
  3
ACAD_PLOTSTYLENAME
350
E
  3
ACAD_SCALELIST
350
3B
  3
ACAD_TABLESTYLE
350
3BE
  3
ACAD_VISUALSTYLE
350
2A
  3
AcDbVariableDictionary
350
3BC
  0
DICTIONARY
  5
D
102
{ACAD_REACTORS
330
C
102
}
330
C
100
AcDbDictionary
281
     1
  0
DICTIONARY
  5
1A
102
{ACAD_REACTORS
330
C
102
}
330
C
100
AcDbDictionary
281
     1
  3
Layout1
350
1E
  3
Model
350
22
  0
DICTIONARY
  5
3BF
102
{ACAD_REACTORS
330
C
102
}
330
C
100
AcDbDictionary
281
     1
  0
DICTIONARY
  5
17
102
{ACAD_REACTORS
330
C
102
}
330
C
100
AcDbDictionary
281
     1
  3
Standard
350
18
  0
DICTIONARY
  5
19
102
{ACAD_REACTORS
330
C
102
}
330
C
100
AcDbDictionary
281
     1
  0
ACDBDICTIONARYWDFLT
  5
E
102
{ACAD_REACTORS
330
C
102
}
330
C
100
AcDbDictionary
281
     1
  3
Normal
350
F
100
AcDbDictionaryWithDefault
340
F
  0
DICTIONARY
  5
3B
102
{ACAD_REACTORS
330
C
102
}
330
C
100
AcDbDictionary
281
     1
  3
A0
350
3C
  3
A1
350
3D
  3
A2
350
3E
  3
A3
350
3F
  3
A4
350
40
  3
A5
350
41
  3
A6
350
42
  3
A7
350
43
  3
A8
350
44
  3
A9
350
45
  3
B0
350
46
  3
B1
350
47
  3
B2
350
48
  3
B3
350
49
  3
B4
350
4A
  3
B5
350
4B
  3
B6
350
4C
  3
B7
350
4D
  3
B8
350
4E
  3
B9
350
4F
  3
C0
350
50
  3
C1
350
51
  3
C2
350
52
  3
C3
350
53
  3
C4
350
54
  3
C5
350
55
  3
C6
350
56
  3
C7
350
57
  3
C8
350
58
  3
C9
350
59
  3
D0
350
5A
  3
D1
350
5B
  3
D2
350
5C
  0
DICTIONARY
  5
3BE
102
{ACAD_REACTORS
330
C
102
}
330
C
100
AcDbDictionary
281
     1
  0
DICTIONARY
  5
2A
102
{ACAD_REACTORS
330
C
102
}
330
C
100
AcDbDictionary
281
     1
  3
2dWireframe
350
2F
  3
3D Hidden
350
31
  3
3dWireframe
350
30
  3
Basic
350
32
  3
Brighten
350
36
  3
ColorChange
350
3A
  3
Conceptual
350
34
  3
Dim
350
35
  3
Facepattern
350
39
  3
Flat
350
2B
  3
FlatWithEdges
350
2C
  3
Gouraud
350
2D
  3
GouraudWithEdges
350
2E
  3
Linepattern
350
38
  3
Realistic
350
33
  3
Thicken
350
37
  0
DICTIONARY
  5
3BC
102
{ACAD_REACTORS
330
C
102
}
330
C
100
AcDbDictionary
281
     1
  3
CANNOSCALE
350
3BD
  3
PSOLHEIGHT
350
3C1
  3
PSOLWIDTH
350
3C0
  0
LAYOUT
  5
1E
102
{ACAD_REACTORS
330
1A
102
}
330
1A
100
AcDbPlotSettings
  1

  2
none_device
  4

  6

 40
0.0
 41
0.0
 42
0.0
 43
0.0
 44
0.0
 45
0.0
 46
0.0
 47
0.0
 48
0.0
 49
0.0
140
0.0
141
0.0
142
1.0
143
1.0
 70
   688
 72
     0
 73
     0
 74
     5
  7

 75
    16
147
1.0
148
0.0
149
0.0
100
AcDbLayout
  1
Layout1
 70
     1
 71
     1
 10
0.0
 20
0.0
 11
1682.0
 21
2378.0
 12
0.0
 22
0.0
 32
0.0
 14
0.0
 24
0.0
 34
0.0
 15
1682.0
 25
2378.0
 35
0.0
146
0.0
 13
0.0
 23
0.0
 33
0.0
 16
1.0
 26
0.0
 36
0.0
 17
0.0
 27
1.0
 37
0.0
 76
     0
330
1B
  0
LAYOUT
  5
22
102
{ACAD_REACTORS
330
1A
102
}
330
1A
100
AcDbPlotSettings
  1

  2
none_device
  4

  6

 40
0.0
 41
0.0
 42
0.0
 43
0.0
 44
0.0
 45
0.0
 46
0.0
 47
0.0
 48
0.0
 49
0.0
140
0.0
141
0.0
142
1.0
143
1.0
 70
  1712
 72
     0
 73
     0
 74
     0
  7

 75
     0
147
1.0
148
0.0
149
0.0
100
AcDbLayout
  1
Model
 70
     1
 71
     0
 10
0.0
 20
0.0
 11
1682.0
 21
2378.0
 12
0.0
 22
0.0
 32
0.0
 14
0.0
 24
0.0
 34
0.0
 15
1682.0
 25
2378.0
 35
0.0
146
0.0
 13
0.0
 23
0.0
 33
0.0
 16
1.0
 26
0.0
 36
0.0
 17
0.0
 27
1.0
 37
0.0
 76
     0
330
1F
331
29
  0
MLINESTYLE
  5
18
102
{ACAD_REACTORS
330
17
102
}
330
17
100
AcDbMlineStyle
  2
Standard
 70
     0
  3

 62
   256
 51
90.0
 52
90.0
 71
     2
 49
0.5
 62
   256
  6
BYLAYER
 49
-0.5
 62
   256
  6
BYLAYER
  0
ACDBPLACEHOLDER
  5
F
102
{ACAD_REACTORS
330
E
102
}
330
E
  0
SCALE
  5
3C
102
{ACAD_REACTORS
330
3B
102
}
330
3B
100
AcDbScale
 70
     0
300
1:1
140
1.0
141
1.0
290
     1
  0
SCALE
  5
3D
102
{ACAD_REACTORS
330
3B
102
}
330
3B
100
AcDbScale
 70
     0
300
1:2
140
1.0
141
2.0
290
     0
  0
SCALE
  5
3E
102
{ACAD_REACTORS
330
3B
102
}
330
3B
100
AcDbScale
 70
     0
300
1:4
140
1.0
141
4.0
290
     0
  0
SCALE
  5
3F
102
{ACAD_REACTORS
330
3B
102
}
330
3B
100
AcDbScale
 70
     0
300
1:5
140
1.0
141
5.0
290
     0
  0
SCALE
  5
40
102
{ACAD_REACTORS
330
3B
102
}
330
3B
100
AcDbScale
 70
     0
300
1:8
140
1.0
141
8.0
290
     0
  0
SCALE
  5
41
102
{ACAD_REACTORS
330
3B
102
}
330
3B
100
AcDbScale
 70
     0
300
1:10
140
1.0
141
10.0
290
     0
  0
SCALE
  5
42
102
{ACAD_REACTORS
330
3B
102
}
330
3B
100
AcDbScale
 70
     0
300
1:16
140
1.0
141
16.0
290
     0
  0
SCALE
  5
43
102
{ACAD_REACTORS
330
3B
102
}
330
3B
100
AcDbScale
 70
     0
300
1:20
140
1.0
141
20.0
290
     0
  0
SCALE
  5
44
102
{ACAD_REACTORS
330
3B
102
}
330
3B
100
AcDbScale
 70
     0
300
1:30
140
1.0
141
30.0
290
     0
  0
SCALE
  5
45
102
{ACAD_REACTORS
330
3B
102
}
330
3B
100
AcDbScale
 70
     0
300
1:40
140
1.0
141
40.0
290
     0
  0
SCALE
  5
46
102
{ACAD_REACTORS
330
3B
102
}
330
3B
100
AcDbScale
 70
     0
300
1:50
140
1.0
141
50.0
290
     0
  0
SCALE
  5
47
102
{ACAD_REACTORS
330
3B
102
}
330
3B
100
AcDbScale
 70
     0
300
1:100
140
1.0
141
100.0
290
     0
  0
SCALE
  5
48
102
{ACAD_REACTORS
330
3B
102
}
330
3B
100
AcDbScale
 70
     0
300
2:1
140
2.0
141
1.0
290
     0
  0
SCALE
  5
49
102
{ACAD_REACTORS
330
3B
102
}
330
3B
100
AcDbScale
 70
     0
300
4:1
140
4.0
141
1.0
290
     0
  0
SCALE
  5
4A
102
{ACAD_REACTORS
330
3B
102
}
330
3B
100
AcDbScale
 70
     0
300
8:1
140
8.0
141
1.0
290
     0
  0
SCALE
  5
4B
102
{ACAD_REACTORS
330
3B
102
}
330
3B
100
AcDbScale
 70
     0
300
10:1
140
10.0
141
1.0
290
     0
  0
SCALE
  5
4C
102
{ACAD_REACTORS
330
3B
102
}
330
3B
100
AcDbScale
 70
     0
300
100:1
140
100.0
141
1.0
290
     0
  0
SCALE
  5
4D
102
{ACAD_REACTORS
330
3B
102
}
330
3B
100
AcDbScale
 70
     0
300
1/128" = 1'-0"
140
0.0078125
141
12.0
290
     0
  0
SCALE
  5
4E
102
{ACAD_REACTORS
330
3B
102
}
330
3B
100
AcDbScale
 70
     0
300
1/64" = 1'-0"
140
0.015625
141
12.0
290
     0
  0
SCALE
  5
4F
102
{ACAD_REACTORS
330
3B
102
}
330
3B
100
AcDbScale
 70
     0
300
1/32" = 1'-0"
140
0.03125
141
12.0
290
     0
  0
SCALE
  5
50
102
{ACAD_REACTORS
330
3B
102
}
330
3B
100
AcDbScale
 70
     0
300
1/16" = 1'-0"
140
0.0625
141
12.0
290
     0
  0
SCALE
  5
51
102
{ACAD_REACTORS
330
3B
102
}
330
3B
100
AcDbScale
 70
     0
300
3/32" = 1'-0"
140
0.09375
141
12.0
290
     0
  0
SCALE
  5
52
102
{ACAD_REACTORS
330
3B
102
}
330
3B
100
AcDbScale
 70
     0
300
1/8" = 1'-0"
140
0.125
141
12.0
290
     0
  0
SCALE
  5
53
102
{ACAD_REACTORS
330
3B
102
}
330
3B
100
AcDbScale
 70
     0
300
3/16" = 1'-0"
140
0.1875
141
12.0
290
     0
  0
SCALE
  5
54
102
{ACAD_REACTORS
330
3B
102
}
330
3B
100
AcDbScale
 70
     0
300
1/4" = 1'-0"
140
0.25
141
12.0
290
     0
  0
SCALE
  5
55
102
{ACAD_REACTORS
330
3B
102
}
330
3B
100
AcDbScale
 70
     0
300
3/8" = 1'-0"
140
0.375
141
12.0
290
     0
  0
SCALE
  5
56
102
{ACAD_REACTORS
330
3B
102
}
330
3B
100
AcDbScale
 70
     0
300
1/2" = 1'-0"
140
0.5
141
12.0
290
     0
  0
SCALE
  5
57
102
{ACAD_REACTORS
330
3B
102
}
330
3B
100
AcDbScale
 70
     0
300
3/4" = 1'-0"
140
0.75
141
12.0
290
     0
  0
SCALE
  5
58
102
{ACAD_REACTORS
330
3B
102
}
330
3B
100
AcDbScale
 70
     0
300
1" = 1'-0"
140
1.0
141
12.0
290
     0
  0
SCALE
  5
59
102
{ACAD_REACTORS
330
3B
102
}
330
3B
100
AcDbScale
 70
     0
300
1-1/2" = 1'-0"
140
1.5
141
12.0
290
     0
  0
SCALE
  5
5A
102
{ACAD_REACTORS
330
3B
102
}
330
3B
100
AcDbScale
 70
     0
300
3" = 1'-0"
140
3.0
141
12.0
290
     0
  0
SCALE
  5
5B
102
{ACAD_REACTORS
330
3B
102
}
330
3B
100
AcDbScale
 70
     0
300
6" = 1'-0"
140
6.0
141
12.0
290
     0
  0
SCALE
  5
5C
102
{ACAD_REACTORS
330
3B
102
}
330
3B
100
AcDbScale
 70
     0
300
1'-0" = 1'-0"
140
12.0
141
12.0
290
     0
  0
VISUALSTYLE
  5
2F
102
{ACAD_REACTORS
330
2A
102
}
330
2A
100
AcDbVisualStyle
  2
2dWireframe
 70
     4
 71
     0
 72
     2
 73
     0
 90
        0
 40
-0.6
 41
-30.0
 62
     5
 63
     7
 74
     1
 91
        4
 64
     7
 65
   257
 75
     1
175
     1
 42
1.0
 92
        0
 66
   257
 43
1.0
 76
     1
 77
     6
 78
     2
 67
     7
 79
     5
170
     0
171
     0
290
     0
174
     0
 93
        1
 44
0.0
173
     0
291
     0
 45
0.0
1001
ACAD
1000
AcDbSavedByObjectVersion
1070
     0
  0
VISUALSTYLE
  5
31
102
{ACAD_REACTORS
330
2A
102
}
330
2A
100
AcDbVisualStyle
  2
3D Hidden
 70
     6
 71
     1
 72
     2
 73
     2
 90
        0
 40
-0.6
 41
-30.0
 62
     5
 63
     7
 74
     2
 91
        2
 64
     7
 65
   257
 75
     2
175
     1
 42
40.0
 92
        0
 66
   257
 43
1.0
 76
     1
 77
     6
 78
     2
 67
     7
 79
     3
170
     0
171
     0
290
     0
174
     0
 93
        1
 44
0.0
173
     0
291
     0
 45
0.0
1001
ACAD
1000
AcDbSavedByObjectVersion
1070
     0
  0
VISUALSTYLE
  5
30
102
{ACAD_REACTORS
330
2A
102
}
330
2A
100
AcDbVisualStyle
  2
3dWireframe
 70
     5
 71
     0
 72
     2
 73
     0
 90
        0
 40
-0.6
 41
-30.0
 62
     5
 63
     7
 74
     1
 91
        4
 64
     7
 65
   257
 75
     1
175
     1
 42
1.0
 92
        0
 66
   257
 43
1.0
 76
     1
 77
     6
 78
     2
 67
     7
 79
     5
170
     0
171
     0
290
     0
174
     0
 93
        1
 44
0.0
173
     0
291
     0
 45
0.0
1001
ACAD
1000
AcDbSavedByObjectVersion
1070
     0
  0
VISUALSTYLE
  5
32
102
{ACAD_REACTORS
330
2A
102
}
330
2A
100
AcDbVisualStyle
  2
Basic
 70
     7
 71
     1
 72
     0
 73
     1
 90
        0
 40
-0.6
 41
-30.0
 62
     5
 63
     7
 74
     0
 91
        4
 64
     7
 65
   257
 75
     1
175
     1
 42
1.0
 92
        8
 66
     7
 43
1.0
 76
     1
 77
     6
 78
     2
 67
     7
 79
     5
170
     0
171
     0
290
     0
174
     0
 93
        1
 44
0.0
173
     0
291
     1
 45
0.0
1001
ACAD
1000
AcDbSavedByObjectVersion
1070
     0
  0
VISUALSTYLE
  5
36
102
{ACAD_REACTORS
330
2A
102
}
330
2A
100
AcDbVisualStyle
  2
Brighten
 70
    12
 71
     2
 72
     2
 73
     0
 90
        0
 40
-0.6
 41
-30.0
 62
     5
 63
     7
 74
     1
 91
        4
 64
     7
 65
   257
 75
     1
175
     1
 42
1.0
 92
        8
 66
     7
 43
1.0
 76
     1
 77
     6
 78
     2
 67
     7
 79
     5
170
     0
171
     0
290
     0
174
     0
 93
        1
 44
50.0
173
     0
291
     1
 45
0.0
1001
ACAD
1000
AcDbSavedByObjectVersion
1070
     0
  0
VISUALSTYLE
  5
3A
102
{ACAD_REACTORS
330
2A
102
}
330
2A
100
AcDbVisualStyle
  2
ColorChange
 70
    16
 71
     2
 72
     2
 73
     3
 90
        0
 40
-0.6
 41
-30.0
 62
     5
 63
     8
 74
     1
 91
        4
 64
     7
 65
   257
 75
     1
175
     1
 42
1.0
 92
        8
 66
     8
 43
1.0
 76
     1
 77
     6
 78
     2
 67
     7
 79
     5
170
     0
171
     0
290
     0
174
     0
 93
        1
 44
0.0
173
     0
291
     1
 45
0.0
1001
ACAD
1000
AcDbSavedByObjectVersion
1070
     0
  0
VISUALSTYLE
  5
34
102
{ACAD_REACTORS
330
2A
102
}
330
2A
100
AcDbVisualStyle
  2
Conceptual
 70
     9
 71
     3
 72
     2
 73
     0
 90
        0
 40
-0.6
 41
-30.0
 62
     5
 63
     7
 74
     2
 91
        2
 64
     7
 65
   257
 75
     1
175
     1
 42
40.0
 92
        8
 66
     7
 43
1.0
 76
     1
 77
     6
 78
     2
 67
     7
 79
     3
170
     0
171
     0
290
     0
174
     0
 93
        1
 44
0.0
173
     0
291
     0
 45
0.0
1001
ACAD
1000
AcDbSavedByObjectVersion
1070
     0
  0
VISUALSTYLE
  5
35
102
{ACAD_REACTORS
330
2A
102
}
330
2A
100
AcDbVisualStyle
  2
Dim
 70
    11
 71
     2
 72
     2
 73
     0
 90
        0
 40
-0.6
 41
-30.0
 62
     5
 63
     7
 74
     1
 91
        4
 64
     7
 65
   257
 75
     1
175
     1
 42
1.0
 92
        8
 66
     7
 43
1.0
 76
     1
 77
     6
 78
     2
 67
     7
 79
     5
170
     0
171
     0
290
     0
174
     0
 93
        1
 44
-50.0
173
     0
291
     1
 45
0.0
1001
ACAD
1000
AcDbSavedByObjectVersion
1070
     0
  0
VISUALSTYLE
  5
39
102
{ACAD_REACTORS
330
2A
102
}
330
2A
100
AcDbVisualStyle
  2
Facepattern
 70
    15
 71
     2
 72
     2
 73
     0
 90
        0
 40
-0.6
 41
-30.0
 62
     5
 63
     7
 74
     1
 91
        4
 64
     7
 65
   257
 75
     1
175
     1
 42
1.0
 92
        8
 66
     7
 43
1.0
 76
     1
 77
     6
 78
     2
 67
     7
 79
     5
170
     0
171
     0
290
     0
174
     0
 93
        1
 44
0.0
173
     0
291
     1
 45
0.0
1001
ACAD
1000
AcDbSavedByObjectVersion
1070
     0
  0
VISUALSTYLE
  5
2B
102
{ACAD_REACTORS
330
2A
102
}
330
2A
100
AcDbVisualStyle
  2
Flat
 70
     0
 71
     2
 72
     1
 73
     1
 90
        2
 40
-0.6
 41
30.0
 62
     5
 63
     7
 74
     0
 91
        4
 64
     7
 65
   257
 75
     1
175
     1
 42
1.0
 92
        8
 66
     7
 43
1.0
 76
     1
 77
     6
 78
     2
 67
     7
 79
     5
170
     0
171
     0
290
     0
174
     0
 93
       13
 44
0.0
173
     0
291
     1
 45
0.0
1001
ACAD
1000
AcDbSavedByObjectVersion
1070
     0
  0
VISUALSTYLE
  5
2C
102
{ACAD_REACTORS
330
2A
102
}
330
2A
100
AcDbVisualStyle
  2
FlatWithEdges
 70
     1
 71
     2
 72
     1
 73
     1
 90
        2
 40
-0.6
 41
30.0
 62
     5
 63
     7
 74
     1
 91
        4
 64
     7
 65
   257
 75
     1
175
     1
 42
1.0
 92
        0
 66
   257
 43
1.0
 76
     1
 77
     6
 78
     2
 67
     7
 79
     5
170
     0
171
     0
290
     0
174
     0
 93
       13
 44
0.0
173
     0
291
     1
 45
0.0
1001
ACAD
1000
AcDbSavedByObjectVersion
1070
     0
  0
VISUALSTYLE
  5
2D
102
{ACAD_REACTORS
330
2A
102
}
330
2A
100
AcDbVisualStyle
  2
Gouraud
 70
     2
 71
     2
 72
     2
 73
     1
 90
        2
 40
-0.6
 41
30.0
 62
     5
 63
     7
 74
     0
 91
        4
 64
     7
 65
   257
 75
     1
175
     1
 42
1.0
 92
        0
 66
     7
 43
1.0
 76
     1
 77
     6
 78
     2
 67
     7
 79
     5
170
     0
171
     0
290
     0
174
     0
 93
       13
 44
0.0
173
     0
291
     1
 45
0.0
1001
ACAD
1000
AcDbSavedByObjectVersion
1070
     0
  0
VISUALSTYLE
  5
2E
102
{ACAD_REACTORS
330
2A
102
}
330
2A
100
AcDbVisualStyle
  2
GouraudWithEdges
 70
     3
 71
     2
 72
     2
 73
     1
 90
        2
 40
-0.6
 41
30.0
 62
     5
 63
     7
 74
     1
 91
        4
 64
     7
 65
   257
 75
     1
175
     1
 42
1.0
 92
        0
 66
   257
 43
1.0
 76
     1
 77
     6
 78
     2
 67
     7
 79
     5
170
     0
171
     0
290
     0
174
     0
 93
       13
 44
0.0
173
     0
291
     1
 45
0.0
1001
ACAD
1000
AcDbSavedByObjectVersion
1070
     0
  0
VISUALSTYLE
  5
38
102
{ACAD_REACTORS
330
2A
102
}
330
2A
100
AcDbVisualStyle
  2
Linepattern
 70
    14
 71
     2
 72
     2
 73
     0
 90
        0
 40
-0.6
 41
-30.0
 62
     5
 63
     7
 74
     1
 91
        4
 64
     7
 65
   257
 75
     7
175
     7
 42
1.0
 92
        8
 66
     7
 43
1.0
 76
     1
 77
     6
 78
     2
 67
     7
 79
     5
170
     0
171
     0
290
     0
174
     0
 93
        1
 44
0.0
173
     0
291
     1
 45
0.0
1001
ACAD
1000
AcDbSavedByObjectVersion
1070
     0
  0
VISUALSTYLE
  5
33
102
{ACAD_REACTORS
330
2A
102
}
330
2A
100
AcDbVisualStyle
  2
Realistic
 70
     8
 71
     2
 72
     2
 73
     0
 90
        0
 40
-0.6
 41
-30.0
 62
     5
 63
     7
 74
     1
 91
        0
 64
     7
 65
   257
 75
     1
175
     1
 42
1.0
 92
        8
 66
     8
 43
1.0
 76
     1
 77
     6
 78
     2
 67
     7
 79
     5
170
     0
171
     0
290
     0
174
     0
 93
       13
 44
0.0
173
     0
291
     0
 45
0.0
1001
ACAD
1000
AcDbSavedByObjectVersion
1070
     0
  0
VISUALSTYLE
  5
37
102
{ACAD_REACTORS
330
2A
102
}
330
2A
100
AcDbVisualStyle
  2
Thicken
 70
    13
 71
     2
 72
     2
 73
     0
 90
        0
 40
-0.6
 41
-30.0
 62
     5
 63
     7
 74
     1
 91
        4
 64
     7
 65
   257
 75
     1
175
     1
 42
1.0
 92
       12
 66
     7
 43
1.0
 76
     1
 77
     6
 78
     2
 67
     7
 79
     5
170
     0
171
     0
290
     0
174
     0
 93
        1
 44
0.0
173
     0
291
     1
 45
0.0
1001
ACAD
1000
AcDbSavedByObjectVersion
1070
     0
  0
DICTIONARYVAR
  5
3BD
102
{ACAD_REACTORS
330
3BC
102
}
330
3BC
100
DictionaryVariables
280
     0
  1
1:1
  0
DICTIONARYVAR
  5
3C1
102
{ACAD_REACTORS
330
3BC
102
}
330
3BC
100
DictionaryVariables
280
     0
  1
80.000000
  0
DICTIONARYVAR
  5
3C0
102
{ACAD_REACTORS
330
3BC
102
}
330
3BC
100
DictionaryVariables
280
     0
  1
5.000000
  0
ENDSEC
  0
EOF
