  0
SECTION
  2
HEADER
  9
$ACADVER
  1
AC1009
  9
$DWGCODEPAGE
  3
ansi_1252
  9
$INSBASE
 10
0.0
 20
0.0
 30
0.0
  9
$EXTMIN
 10
1.000000000000000E+20
 20
1.000000000000000E+20
 30
1.000000000000000E+20
  9
$EXTMAX
 10
-1.000000000000000E+20
 20
-1.000000000000000E+20
 30
-1.000000000000000E+20
  9
$LIMMIN
 10
0.0
 20
0.0
  9
$LIMMAX
 10
12.0
 20
9.0
  9
$ORTHOMODE
 70
     0
  9
$REGENMODE
 70
     1
  9
$FILLMODE
 70
     1
  9
$QTEXTMODE
 70
     0
  9
$MIRRTEXT
 70
     1
  9
$DRAGMODE
 70
     2
  9
$LTSCALE
 40
1.0
  9
$OSMODE
 70
    37
  9
$ATTMODE
 70
     1
  9
$TEXTSIZE
 40
0.2
  9
$TRACEWID
 40
0.05
  9
$TEXTSTYLE
  7
STANDARD
  9
$CLAYER
  8
0
  9
$CELTYPE
  6
BYLAYER
  9
$CECOLOR
 62
   256
  9
$DIMSCALE
 40
1.0
  9
$DIMASZ
 40
0.18
  9
$DIMEXO
 40
0.0625
  9
$DIMDLI
 40
0.38
  9
$DIMRND
 40
0.0
  9
$DIMDLE
 40
0.0
  9
$DIMEXE
 40
0.18
  9
$DIMTP
 40
0.0
  9
$DIMTM
 40
0.0
  9
$DIMTXT
 40
0.18
  9
$DIMCEN
 40
0.09
  9
$DIMTSZ
 40
0.0
  9
$DIMTOL
 70
     0
  9
$DIMLIM
 70
     0
  9
$DIMTIH
 70
     1
  9
$DIMTOH
 70
     1
  9
$DIMSE1
 70
     0
  9
$DIMSE2
 70
     0
  9
$DIMTAD
 70
     0
  9
$DIMZIN
 70
     0
  9
$DIMBLK
  1

  9
$DIMASO
 70
     1
  9
$DIMSHO
 70
     1
  9
$DIMPOST
  1

  9
$DIMAPOST
  1

  9
$DIMALT
 70
     0
  9
$DIMALTD
 70
     2
  9
$DIMALTF
 40
25.4
  9
$DIMLFAC
 40
1.0
  9
$DIMTOFL
 70
     0
  9
$DIMTVP
 40
0.0
  9
$DIMTIX
 70
     0
  9
$DIMSOXD
 70
     0
  9
$DIMSAH
 70
     0
  9
$DIMBLK1
  1

  9
$DIMBLK2
  1

  9
$DIMSTYLE
  2
STANDARD
  9
$DIMCLRD
 70
     0
  9
$DIMCLRE
 70
     0
  9
$DIMCLRT
 70
     0
  9
$DIMTFAC
 40
1.0
  9
$DIMGAP
 40
0.09
  9
$LUNITS
 70
     2
  9
$LUPREC
 70
     4
  9
$SKETCHINC
 40
0.1
  9
$FILLETRAD
 40
0.5
  9
$AUNITS
 70
     0
  9
$AUPREC
 70
     0
  9
$MENU
  1
.
  9
$ELEVATION
 40
0.0
  9
$PELEVATION
 40
0.0
  9
$THICKNESS
 40
0.0
  9
$LIMCHECK
 70
     0
  9
$CHAMFERA
 40
0.5
  9
$CHAMFERB
 40
0.5
  9
$SKPOLY
 70
     0
  9
$TDCREATE
 40
2455608.477851933
  9
$TDUPDATE
 40
2455608.477851933
  9
$TDINDWG
 40
0.0000000116
  9
$TDUSRTIMER
 40
0.0000000116
  9
$USRTIMER
 70
     1
  9
$ANGBASE
 50
0.0
  9
$ANGDIR
 70
     0
  9
$PDMODE
 70
     0
  9
$PDSIZE
 40
0.0
  9
$PLINEWID
 40
0.0
  9
$COORDS
 70
     1
  9
$SPLFRAME
 70
     0
  9
$SPLINETYPE
 70
     6
  9
$SPLINESEGS
 70
     8
  9
$ATTDIA
 70
     0
  9
$ATTREQ
 70
     1
  9
$HANDLING
 70
     1
  9
$HANDSEED
  5
764
  9
$SURFTAB1
 70
     6
  9
$SURFTAB2
 70
     6
  9
$SURFTYPE
 70
     6
  9
$SURFU
 70
     6
  9
$SURFV
 70
     6
  9
$UCSNAME
  2

  9
$UCSORG
 10
0.0
 20
0.0
 30
0.0
  9
$UCSXDIR
 10
1.0
 20
0.0
 30
0.0
  9
$UCSYDIR
 10
0.0
 20
1.0
 30
0.0
  9
$PUCSNAME
  2

  9
$PUCSORG
 10
0.0
 20
0.0
 30
0.0
  9
$PUCSXDIR
 10
1.0
 20
0.0
 30
0.0
  9
$PUCSYDIR
 10
0.0
 20
1.0
 30
0.0
  9
$USERI1
 70
     0
  9
$USERI2
 70
     0
  9
$USERI3
 70
     0
  9
$USERI4
 70
     0
  9
$USERI5
 70
     0
  9
$USERR1
 40
0.0
  9
$USERR2
 40
0.0
  9
$USERR3
 40
0.0
  9
$USERR4
 40
0.0
  9
$USERR5
 40
0.0
  9
$WORLDVIEW
 70
     1
  9
$SHADEDGE
 70
     3
  9
$SHADEDIF
 70
    70
  9
$TILEMODE
 70
     1
  9
$MAXACTVP
 70
    64
  9
$PLIMCHECK
 70
     0
  9
$PEXTMIN
 10
1.000000000000000E+20
 20
1.000000000000000E+20
 30
1.000000000000000E+20
  9
$PEXTMAX
 10
-1.000000000000000E+20
 20
-1.000000000000000E+20
 30
-1.000000000000000E+20
  9
$PLIMMIN
 10
0.0
 20
0.0
  9
$PLIMMAX
 10
12.0
 20
9.0
  9
$UNITMODE
 70
     0
  9
$VISRETAIN
 70
     1
  9
$PLINEGEN
 70
     0
  9
$PSLTSCALE
 70
     1
  0
ENDSEC
  0
SECTION
  2
TABLES
  0
TABLE
  2
VPORT
 70
     1
  0
VPORT
  2
*ACTIVE
 70
     0
 10
0.0
 20
0.0
 11
1.0
 21
1.0
 12
0.0
 22
0.0
 13
0.0
 23
0.0
 14
0.5
 24
0.5
 15
0.5
 25
0.5
 16
243.5845031738281
 26
-243.5845031738281
 36
243.5845031738281
 17
95.5
 27
0.0002899169921875
 37
6.798492431640625
 40
316.6929647564157
 41
1.972972972850329
 42
50.0
 43
0.0
 44
0.0
 50
0.0
 51
0.0
 71
     0
 72
   100
 73
     1
 74
     3
 75
     0
 76
     0
 77
     0
 78
     0
  0
ENDTAB
  0
TABLE
  2
LTYPE
 70
     1
  0
LTYPE
  2
CONTINUOUS
 70
     0
  3
Solid line
 72
    65
 73
     0
 40
0.0
  0
ENDTAB
  0
TABLE
  2
LAYER
 70
     2
  0
LAYER
  2
0
 70
     0
 62
     7
  6
CONTINUOUS
  0
LAYER
  2
LAYER_1
 70
     0
 62
     7
  6
CONTINUOUS
  0
ENDTAB
  0
TABLE
  2
STYLE
 70
     1
  0
STYLE
  2
STANDARD
 70
     0
 40
0.0
 41
1.0
 50
0.0
 71
     0
 42
0.2
  3
txt
  4

  0
ENDTAB
  0
TABLE
  2
VIEW
 70
     0
  0
ENDTAB
  0
TABLE
  2
UCS
 70
     0
  0
ENDTAB
  0
TABLE
  2
APPID
 70
     1
  0
APPID
  2
ACAD
 70
     0
  0
ENDTAB
  0
TABLE
  2
DIMSTYLE
 70
     1
  0
DIMSTYLE
  2
STANDARD
 70
     0
  3

  4

  5

  6

  7

 40
1.0
 41
0.18
 42
0.0625
 43
0.38
 44
0.18
 45
0.0
 46
0.0
 47
0.0
 48
0.0
140
0.18
141
0.09
142
0.0
143
25.4
144
1.0
145
0.0
146
1.0
147
0.09
 71
     0
 72
     0
 73
     1
 74
     1
 75
     0
 76
     0
 77
     0
 78
     0
170
     0
171
     2
172
     0
173
     0
174
     0
175
     0
176
     0
177
     0
178
     0
  0
ENDTAB
  0
ENDSEC
  0
SECTION
  2
BLOCKS
  0
BLOCK
  8
0
  2
$MODEL_SPACE
 70
     0
 10
0.0
 20
0.0
 30
0.0
  3
$MODEL_SPACE
  1

  0
ENDBLK
  5
21
  8
0
  0
BLOCK
 67
     1
  8
0
  2
$PAPER_SPACE
 70
     0
 10
0.0
 20
0.0
 30
0.0
  3
$PAPER_SPACE
  1

  0
ENDBLK
  5
1D
 67
     1
  8
0
  0
BLOCK
  8
0
  2
1
 70
     0
 10
0.0
 20
0.0
 30
0.0
  3
1
  1

  0
POLYLINE
  5
3C
  8
0
 62
     9
 66
     1
 10
0.0
 20
0.0
 30
0.0
 70
    64
 71
   109
 72
   214
  0
VERTEX
  5
3D
  8
0
 10
162.0380554199219
 20
-0.0000000000000434
 30
27.70723724365234
 70
   192
  0
VERTEX
  5
3E
  8
0
 10
162.1464538574219
 20
-0.0000000000000422
 30
27.54502487182617
 70
   192
  0
VERTEX
  5
3F
  8
0
 10
162.0380554199219
 20
-7.5
 30
27.70723724365234
 70
   192
  0
VERTEX
  5
40
  8
0
 10
162.0
 20
-7.5
 30
27.89857864379883
 70
   192
  0
VERTEX
  5
41
  8
0
 10
162.0
 20
0.0
 30
27.89857864379883
 70
   192
  0
VERTEX
  5
42
  8
0
 10
162.1464538574219
 20
-7.5
 30
27.54502487182617
 70
   192
  0
VERTEX
  5
43
  8
0
 10
162.1464538574219
 20
7.5
 30
27.54502487182617
 70
   192
  0
VERTEX
  5
44
  8
0
 10
162.0380554199219
 20
7.5
 30
27.70723724365234
 70
   192
  0
VERTEX
  5
45
  8
0
 10
162.0
 20
7.5
 30
27.89857864379883
 70
   192
  0
VERTEX
  5
46
  8
0
 10
162.0380554199219
 20
0.0000000000000132
 30
47.28992080688477
 70
   192
  0
VERTEX
  5
47
  8
0
 10
162.1464538574219
 20
0.0000000000000129
 30
47.45213317871094
 70
   192
  0
VERTEX
  5
48
  8
0
 10
162.0380554199219
 20
7.5
 30
47.28992080688477
 70
   192
  0
VERTEX
  5
49
  8
0
 10
162.0
 20
7.5
 30
47.09857940673828
 70
   192
  0
VERTEX
  5
4A
  8
0
 10
162.0
 20
-0.0000000000000004
 30
47.09857940673828
 70
   192
  0
VERTEX
  5
4B
  8
0
 10
162.1464538574219
 20
7.5
 30
47.45213317871094
 70
   192
  0
VERTEX
  5
4C
  8
0
 10
162.1464538574219
 20
-7.5
 30
47.45213317871094
 70
   192
  0
VERTEX
  5
4D
  8
0
 10
162.0380554199219
 20
-7.5
 30
47.28992080688477
 70
   192
  0
VERTEX
  5
4E
  8
0
 10
162.0
 20
-7.5
 30
47.09857940673828
 70
   192
  0
VERTEX
  5
4F
  8
0
 10
162.0380554199219
 20
-7.691341876983643
 30
37.49857711791992
 70
   192
  0
VERTEX
  5
50
  8
0
 10
162.1464538574219
 20
-7.853553295135498
 30
37.49857711791992
 70
   192
  0
VERTEX
  5
51
  8
0
 10
162.0376129150391
 20
-7.690918445587158
 30
47.09857940673828
 70
   192
  0
VERTEX
  5
52
  8
0
 10
162.0
 20
-7.5
 30
37.49857711791992
 70
   192
  0
VERTEX
  5
53
  8
0
 10
162.1482086181641
 20
-7.851804256439209
 30
47.09857940673828
 70
   192
  0
VERTEX
  5
54
  8
0
 10
162.1464538574219
 20
-7.853553295135498
 30
27.89857864379883
 70
   192
  0
VERTEX
  5
55
  8
0
 10
162.0380554199219
 20
-7.691341876983643
 30
27.89857864379883
 70
   192
  0
VERTEX
  5
56
  8
0
 10
177.5
 20
-8.0
 30
47.09857940673828
 70
   192
  0
VERTEX
  5
57
  8
0
 10
162.5
 20
-8.0
 30
47.09857940673828
 70
   192
  0
VERTEX
  5
58
  8
0
 10
162.5
 20
-8.0
 30
37.49857711791992
 70
   192
  0
VERTEX
  5
59
  8
0
 10
177.5
 20
-8.0
 30
27.89857864379883
 70
   192
  0
VERTEX
  5
5A
  8
0
 10
162.5
 20
-8.0
 30
27.89857864379883
 70
   192
  0
VERTEX
  5
5B
  8
0
 10
177.5
 20
7.5
 30
47.59857940673828
 70
   192
  0
VERTEX
  5
5C
  8
0
 10
162.5
 20
7.5
 30
47.59857940673828
 70
   192
  0
VERTEX
  5
5D
  8
0
 10
162.5
 20
0.0000000000000155
 30
47.59857940673828
 70
   192
  0
VERTEX
  5
5E
  8
0
 10
162.5
 20
-7.5
 30
47.59857940673828
 70
   192
  0
VERTEX
  5
5F
  8
0
 10
177.5
 20
-7.5
 30
47.59857940673828
 70
   192
  0
VERTEX
  5
60
  8
0
 10
177.5
 20
8.0
 30
27.89857864379883
 70
   192
  0
VERTEX
  5
61
  8
0
 10
162.5
 20
8.0
 30
47.09857940673828
 70
   192
  0
VERTEX
  5
62
  8
0
 10
177.5
 20
8.0
 30
47.09857940673828
 70
   192
  0
VERTEX
  5
63
  8
0
 10
162.5
 20
8.0
 30
27.89857864379883
 70
   192
  0
VERTEX
  5
64
  8
0
 10
162.5
 20
-0.0000000000000449
 30
27.39857864379883
 70
   192
  0
VERTEX
  5
65
  8
0
 10
177.5
 20
-7.5
 30
27.39857864379883
 70
   192
  0
VERTEX
  5
66
  8
0
 10
162.5
 20
-7.5
 30
27.39857864379883
 70
   192
  0
VERTEX
  5
67
  8
0
 10
177.5
 20
7.5
 30
27.39857864379883
 70
   192
  0
VERTEX
  5
68
  8
0
 10
162.5
 20
7.5
 30
27.39857864379883
 70
   192
  0
VERTEX
  5
69
  8
0
 10
178.0
 20
-7.5
 30
27.89857864379883
 70
   192
  0
VERTEX
  5
6A
  8
0
 10
178.0
 20
7.5
 30
47.09857940673828
 70
   192
  0
VERTEX
  5
6B
  8
0
 10
178.0
 20
-7.5
 30
47.09857940673828
 70
   192
  0
VERTEX
  5
6C
  8
0
 10
178.0
 20
7.5
 30
27.89857864379883
 70
   192
  0
VERTEX
  5
6D
  8
0
 10
162.3086547851562
 20
-7.961939811706543
 30
37.49857711791992
 70
   192
  0
VERTEX
  5
6E
  8
0
 10
162.3086547851562
 20
-7.961939811706543
 30
27.89857864379883
 70
   192
  0
VERTEX
  5
6F
  8
0
 10
162.3107757568359
 20
-7.962985515594482
 30
47.09857940673828
 70
   192
  0
VERTEX
  5
70
  8
0
 10
162.3086547851562
 20
0.0000000000000142
 30
47.56051635742188
 70
   192
  0
VERTEX
  5
71
  8
0
 10
162.3086547851562
 20
-7.5
 30
47.56051635742188
 70
   192
  0
VERTEX
  5
72
  8
0
 10
162.3086547851562
 20
7.5
 30
47.56051635742188
 70
   192
  0
VERTEX
  5
73
  8
0
 10
162.0663757324219
 20
7.748649120330811
 30
27.89857864379883
 70
   192
  0
VERTEX
  5
74
  8
0
 10
162.0657501220703
 20
7.747012138366699
 30
47.09857940673828
 70
   192
  0
VERTEX
  5
75
  8
0
 10
162.2578277587891
 20
7.936251163482666
 30
47.09857940673828
 70
   192
  0
VERTEX
  5
76
  8
0
 10
162.2486114501953
 20
7.93179178237915
 30
27.89857864379883
 70
   192
  0
VERTEX
  5
77
  8
0
 10
162.3086547851562
 20
-0.0000000000000441
 30
27.43663787841797
 70
   192
  0
VERTEX
  5
78
  8
0
 10
162.3086547851562
 20
7.5
 30
27.43663787841797
 70
   192
  0
VERTEX
  5
79
  8
0
 10
162.3086547851562
 20
-7.5
 30
27.43663787841797
 70
   192
  0
VERTEX
  5
7A
  8
0
 10
177.9336242675781
 20
-7.748649120330811
 30
27.89857864379883
 70
   192
  0
VERTEX
  5
7B
  8
0
 10
177.9317932128906
 20
-7.751392841339111
 30
47.09857940673828
 70
   192
  0
VERTEX
  5
7C
  8
0
 10
177.7486419677734
 20
-7.933625221252441
 30
47.09857940673828
 70
   192
  0
VERTEX
  5
7D
  8
0
 10
177.7513885498047
 20
-7.93179178237915
 30
27.89857864379883
 70
   192
  0
VERTEX
  5
7E
  8
0
 10
177.9336242675781
 20
-7.5
 30
47.34722900390625
 70
   192
  0
VERTEX
  5
7F
  8
0
 10
177.9317932128906
 20
7.5
 30
47.34997177124023
 70
   192
  0
VERTEX
  5
80
  8
0
 10
177.7486419677734
 20
7.5
 30
47.53220367431641
 70
   192
  0
VERTEX
  5
81
  8
0
 10
177.7513885498047
 20
-7.5
 30
47.53036880493164
 70
   192
  0
VERTEX
  5
82
  8
0
 10
177.9362487792969
 20
7.742165088653564
 30
47.09857940673828
 70
   192
  0
VERTEX
  5
83
  8
0
 10
177.9342498779297
 20
7.747012138366699
 30
27.89857864379883
 70
   192
  0
VERTEX
  5
84
  8
0
 10
177.7421722412109
 20
7.936251163482666
 30
27.89857864379883
 70
   192
  0
VERTEX
  5
85
  8
0
 10
177.7470092773438
 20
7.934243202209473
 30
47.09857940673828
 70
   192
  0
VERTEX
  5
86
  8
0
 10
177.9336242675781
 20
7.5
 30
27.64992904663086
 70
   192
  0
VERTEX
  5
87
  8
0
 10
177.9317932128906
 20
-7.5
 30
27.64718627929688
 70
   192
  0
VERTEX
  5
88
  8
0
 10
177.7486419677734
 20
-7.5
 30
27.46495246887207
 70
   192
  0
VERTEX
  5
89
  8
0
 10
177.7513885498047
 20
7.5
 30
27.46678733825684
 70
   192
  0
VERTEX
  5
8A
  8
0
 10
162.5
 20
-7.742165088653564
 30
27.46232795715332
 70
   192
  0
VERTEX
  5
8B
  8
0
 10
177.5
 20
-7.747012138366699
 30
27.46433448791504
 70
   192
  0
VERTEX
  5
8C
  8
0
 10
177.5
 20
-7.936251163482666
 30
27.65641403198242
 70
   192
  0
VERTEX
  5
8D
  8
0
 10
162.5
 20
-7.934243202209473
 30
27.65156555175781
 70
   192
  0
VERTEX
  5
8E
  8
0
 10
177.5
 20
-7.742165088653564
 30
47.53482818603516
 70
   192
  0
VERTEX
  5
8F
  8
0
 10
162.5
 20
-7.751392841339111
 30
47.53036880493164
 70
   192
  0
VERTEX
  5
90
  8
0
 10
162.5
 20
-7.933625221252441
 30
47.34722900390625
 70
   192
  0
VERTEX
  5
91
  8
0
 10
177.5
 20
-7.934243202209473
 30
47.34558868408203
 70
   192
  0
VERTEX
  5
92
  8
0
 10
177.5
 20
7.933625221252441
 30
47.34722900390625
 70
   192
  0
VERTEX
  5
93
  8
0
 10
162.5
 20
7.93179178237915
 30
47.34997177124023
 70
   192
  0
VERTEX
  5
94
  8
0
 10
162.5
 20
7.748649120330811
 30
47.53220367431641
 70
   192
  0
VERTEX
  5
95
  8
0
 10
177.5
 20
7.751392841339111
 30
47.53036880493164
 70
   192
  0
VERTEX
  5
96
  8
0
 10
177.5
 20
7.748649120330811
 30
27.46495246887207
 70
   192
  0
VERTEX
  5
97
  8
0
 10
162.5
 20
7.747012138366699
 30
27.46433448791504
 70
   192
  0
VERTEX
  5
98
  8
0
 10
162.5
 20
7.936251163482666
 30
27.65641403198242
 70
   192
  0
VERTEX
  5
99
  8
0
 10
177.5
 20
7.93179178237915
 30
27.64718627929688
 70
   192
  0
VERTEX
  5
9A
  8
0
 10
162.2790374755859
 20
-7.71986722946167
 30
27.5104808807373
 70
   192
  0
VERTEX
  5
9B
  8
0
 10
162.2790374755859
 20
-7.888097286224365
 30
27.6787109375
 70
   192
  0
VERTEX
  5
9C
  8
0
 10
162.1119079589844
 20
-7.71986722946167
 30
47.31953811645508
 70
   192
  0
VERTEX
  5
9D
  8
0
 10
162.2801361083984
 20
-7.888097286224365
 30
47.31953811645508
 70
   192
  0
VERTEX
  5
9E
  8
0
 10
162.2801361083984
 20
7.888097286224365
 30
47.31953811645508
 70
   192
  0
VERTEX
  5
9F
  8
0
 10
162.1119079589844
 20
7.71986722946167
 30
47.31953811645508
 70
   192
  0
VERTEX
  5
A0
  8
0
 10
162.2790374755859
 20
7.888097286224365
 30
27.6787109375
 70
   192
  0
VERTEX
  5
A1
  8
0
 10
162.2790374755859
 20
7.71986722946167
 30
27.5104808807373
 70
   192
  0
VERTEX
  5
A2
  8
0
 10
177.7209625244141
 20
-7.71986722946167
 30
27.5104808807373
 70
   192
  0
VERTEX
  5
A3
  8
0
 10
177.7209625244141
 20
-7.888097286224365
 30
27.6787109375
 70
   192
  0
VERTEX
  5
A4
  8
0
 10
177.7209625244141
 20
-7.71986722946167
 30
47.48667526245117
 70
   192
  0
VERTEX
  5
A5
  8
0
 10
177.7209625244141
 20
-7.888097286224365
 30
47.31844711303711
 70
   192
  0
VERTEX
  5
A6
  8
0
 10
177.7198638916016
 20
7.888097286224365
 30
47.31953811645508
 70
   192
  0
VERTEX
  5
A7
  8
0
 10
177.8880920410156
 20
7.71986722946167
 30
47.31953811645508
 70
   192
  0
VERTEX
  5
A8
  8
0
 10
177.7198638916016
 20
7.888097286224365
 30
27.67761993408203
 70
   192
  0
VERTEX
  5
A9
  8
0
 10
177.8880920410156
 20
7.71986722946167
 30
27.67761993408203
 70
   192
  0
VERTEX
  5
AA
  8
0
 62
     9
 10
0.0
 20
0.0
 30
0.0
 70
   128
 71
     3
 72
     2
 73
     1
  0
VERTEX
  5
AB
  8
0
 62
     9
 10
0.0
 20
0.0
 30
0.0
 70
   128
 71
     5
 72
     4
 73
     1
  0
VERTEX
  5
AC
  8
0
 62
     9
 10
0.0
 20
0.0
 30
0.0
 70
   128
 71
     2
 72
     3
 73
     6
  0
VERTEX
  5
AD
  8
0
 62
     9
 10
0.0
 20
0.0
 30
0.0
 70
   128
 71
     1
 72
     2
 73
     7
  0
VERTEX
  5
AE
  8
0
 62
     9
 10
0.0
 20
0.0
 30
0.0
 70
   128
 71
     7
 72
     8
 73
     1
  0
VERTEX
  5
AF
  8
0
 62
     9
 10
0.0
 20
0.0
 30
0.0
 70
   128
 71
     5
 72
     8
 73
     9
  0
VERTEX
  5
B0
  8
0
 62
     9
 10
0.0
 20
0.0
 30
0.0
 70
   128
 71
     1
 72
     8
 73
     5
  0
VERTEX
  5
B1
  8
0
 62
     9
 10
0.0
 20
0.0
 30
0.0
 70
   128
 71
     3
 72
     1
 73
     4
  0
VERTEX
  5
B2
  8
0
 62
     9
 10
0.0
 20
0.0
 30
0.0
 70
   128
 71
    12
 72
    11
 73
    10
  0
VERTEX
  5
B3
  8
0
 62
     9
 10
0.0
 20
0.0
 30
0.0
 70
   128
 71
    14
 72
    13
 73
    10
  0
VERTEX
  5
B4
  8
0
 62
     9
 10
0.0
 20
0.0
 30
0.0
 70
   128
 71
    11
 72
    12
 73
    15
  0
VERTEX
  5
B5
  8
0
 62
     9
 10
0.0
 20
0.0
 30
0.0
 70
   128
 71
    10
 72
    11
 73
    16
  0
VERTEX
  5
B6
  8
0
 62
     9
 10
0.0
 20
0.0
 30
0.0
 70
   128
 71
    16
 72
    17
 73
    10
  0
VERTEX
  5
B7
  8
0
 62
     9
 10
0.0
 20
0.0
 30
0.0
 70
   128
 71
    14
 72
    17
 73
    18
  0
VERTEX
  5
B8
  8
0
 62
     9
 10
0.0
 20
0.0
 30
0.0
 70
   128
 71
    10
 72
    17
 73
    14
  0
VERTEX
  5
B9
  8
0
 62
     9
 10
0.0
 20
0.0
 30
0.0
 70
   128
 71
    12
 72
    10
 73
    13
  0
VERTEX
  5
BA
  8
0
 62
     9
 10
0.0
 20
0.0
 30
0.0
 70
   128
 71
    21
 72
    20
 73
    19
  0
VERTEX
  5
BB
  8
0
 62
     9
 10
0.0
 20
0.0
 30
0.0
 70
   128
 71
    22
 72
    18
 73
    19
  0
VERTEX
  5
BC
  8
0
 62
     9
 10
0.0
 20
0.0
 30
0.0
 70
   128
 71
    20
 72
    21
 73
    23
  0
VERTEX
  5
BD
  8
0
 62
     9
 10
0.0
 20
0.0
 30
0.0
 70
   128
 71
    19
 72
    20
 73
    24
  0
VERTEX
  5
BE
  8
0
 62
     9
 10
0.0
 20
0.0
 30
0.0
 70
   128
 71
    24
 72
    25
 73
    19
  0
VERTEX
  5
BF
  8
0
 62
     9
 10
0.0
 20
0.0
 30
0.0
 70
   128
 71
    22
 72
    25
 73
     4
  0
VERTEX
  5
C0
  8
0
 62
     9
 10
0.0
 20
0.0
 30
0.0
 70
   128
 71
    19
 72
    25
 73
    22
  0
VERTEX
  5
C1
  8
0
 62
     9
 10
0.0
 20
0.0
 30
0.0
 70
   128
 71
    21
 72
    19
 73
    18
  0
VERTEX
  5
C2
  8
0
 62
     9
 10
0.0
 20
0.0
 30
0.0
 70
   128
 71
    28
 72
    27
 73
    26
  0
VERTEX
  5
C3
  8
0
 62
     9
 10
0.0
 20
0.0
 30
0.0
 70
   128
 71
    29
 72
    28
 73
    26
  0
VERTEX
  5
C4
  8
0
 62
     9
 10
0.0
 20
0.0
 30
0.0
 70
   128
 71
    30
 72
    28
 73
    29
  0
VERTEX
  5
C5
  8
0
 62
     9
 10
0.0
 20
0.0
 30
0.0
 70
   128
 71
    33
 72
    32
 73
    31
  0
VERTEX
  5
C6
  8
0
 62
     9
 10
0.0
 20
0.0
 30
0.0
 70
   128
 71
    33
 72
    35
 73
    34
  0
VERTEX
  5
C7
  8
0
 62
     9
 10
0.0
 20
0.0
 30
0.0
 70
   128
 71
    31
 72
    35
 73
    33
  0
VERTEX
  5
C8
  8
0
 62
     9
 10
0.0
 20
0.0
 30
0.0
 70
   128
 71
    38
 72
    37
 73
    36
  0
VERTEX
  5
C9
  8
0
 62
     9
 10
0.0
 20
0.0
 30
0.0
 70
   128
 71
    39
 72
    36
 73
    37
  0
VERTEX
  5
CA
  8
0
 62
     9
 10
0.0
 20
0.0
 30
0.0
 70
   128
 71
    42
 72
    41
 73
    40
  0
VERTEX
  5
CB
  8
0
 62
     9
 10
0.0
 20
0.0
 30
0.0
 70
   128
 71
    41
 72
    43
 73
    40
  0
VERTEX
  5
CC
  8
0
 62
     9
 10
0.0
 20
0.0
 30
0.0
 70
   128
 71
    40
 72
    43
 73
    44
  0
VERTEX
  5
CD
  8
0
 62
     9
 10
0.0
 20
0.0
 30
0.0
 70
   128
 71
     5
 72
     9
 73
    14
  0
VERTEX
  5
CE
  8
0
 62
     9
 10
0.0
 20
0.0
 30
0.0
 70
   128
 71
    18
 72
    22
 73
    14
  0
VERTEX
  5
CF
  8
0
 62
     9
 10
0.0
 20
0.0
 30
0.0
 70
   128
 71
     5
 72
    22
 73
     4
  0
VERTEX
  5
D0
  8
0
 62
     9
 10
0.0
 20
0.0
 30
0.0
 70
   128
 71
     5
 72
    14
 73
    22
  0
VERTEX
  5
D1
  8
0
 62
     9
 10
0.0
 20
0.0
 30
0.0
 70
   128
 71
     9
 72
    13
 73
    14
  0
VERTEX
  5
D2
  8
0
 62
     9
 10
0.0
 20
0.0
 30
0.0
 70
   128
 71
    47
 72
    46
 73
    45
  0
VERTEX
  5
D3
  8
0
 62
     9
 10
0.0
 20
0.0
 30
0.0
 70
   128
 71
    48
 72
    45
 73
    46
  0
VERTEX
  5
D4
  8
0
 62
     9
 10
0.0
 20
0.0
 30
0.0
 70
   128
 71
    30
 72
    50
 73
    49
  0
VERTEX
  5
D5
  8
0
 62
     9
 10
0.0
 20
0.0
 30
0.0
 70
   128
 71
    49
 72
    28
 73
    30
  0
VERTEX
  5
D6
  8
0
 62
     9
 10
0.0
 20
0.0
 30
0.0
 70
   128
 71
    50
 72
    24
 73
    20
  0
VERTEX
  5
D7
  8
0
 62
     9
 10
0.0
 20
0.0
 30
0.0
 70
   128
 71
    28
 72
    49
 73
    51
  0
VERTEX
  5
D8
  8
0
 62
     9
 10
0.0
 20
0.0
 30
0.0
 70
   128
 71
    49
 72
    20
 73
    23
  0
VERTEX
  5
D9
  8
0
 62
     9
 10
0.0
 20
0.0
 30
0.0
 70
   128
 71
    51
 72
    27
 73
    28
  0
VERTEX
  5
DA
  8
0
 62
     9
 10
0.0
 20
0.0
 30
0.0
 70
   128
 71
    49
 72
    50
 73
    20
  0
VERTEX
  5
DB
  8
0
 62
     9
 10
0.0
 20
0.0
 30
0.0
 70
   128
 71
    51
 72
    49
 73
    23
  0
VERTEX
  5
DC
  8
0
 62
     9
 10
0.0
 20
0.0
 30
0.0
 70
   128
 71
    34
 72
    53
 73
    52
  0
VERTEX
  5
DD
  8
0
 62
     9
 10
0.0
 20
0.0
 30
0.0
 70
   128
 71
    52
 72
    33
 73
    34
  0
VERTEX
  5
DE
  8
0
 62
     9
 10
0.0
 20
0.0
 30
0.0
 70
   128
 71
    53
 72
    16
 73
    11
  0
VERTEX
  5
DF
  8
0
 62
     9
 10
0.0
 20
0.0
 30
0.0
 70
   128
 71
    33
 72
    52
 73
    54
  0
VERTEX
  5
E0
  8
0
 62
     9
 10
0.0
 20
0.0
 30
0.0
 70
   128
 71
    52
 72
    11
 73
    15
  0
VERTEX
  5
E1
  8
0
 62
     9
 10
0.0
 20
0.0
 30
0.0
 70
   128
 71
    54
 72
    32
 73
    33
  0
VERTEX
  5
E2
  8
0
 62
     9
 10
0.0
 20
0.0
 30
0.0
 70
   128
 71
    52
 72
    53
 73
    11
  0
VERTEX
  5
E3
  8
0
 62
     9
 10
0.0
 20
0.0
 30
0.0
 70
   128
 71
    54
 72
    52
 73
    15
  0
VERTEX
  5
E4
  8
0
 62
     9
 10
0.0
 20
0.0
 30
0.0
 70
   128
 71
    57
 72
    56
 73
    55
  0
VERTEX
  5
E5
  8
0
 62
     9
 10
0.0
 20
0.0
 30
0.0
 70
   128
 71
    58
 72
    39
 73
    37
  0
VERTEX
  5
E6
  8
0
 62
     9
 10
0.0
 20
0.0
 30
0.0
 70
   128
 71
    57
 72
    55
 73
    58
  0
VERTEX
  5
E7
  8
0
 62
     9
 10
0.0
 20
0.0
 30
0.0
 70
   128
 71
    56
 72
    13
 73
     9
  0
VERTEX
  5
E8
  8
0
 62
     9
 10
0.0
 20
0.0
 30
0.0
 70
   128
 71
    55
 72
    56
 73
     9
  0
VERTEX
  5
E9
  8
0
 62
     9
 10
0.0
 20
0.0
 30
0.0
 70
   128
 71
    57
 72
    58
 73
    37
  0
VERTEX
  5
EA
  8
0
 62
     9
 10
0.0
 20
0.0
 30
0.0
 70
   128
 71
    44
 72
    60
 73
    59
  0
VERTEX
  5
EB
  8
0
 62
     9
 10
0.0
 20
0.0
 30
0.0
 70
   128
 71
    59
 72
    40
 73
    44
  0
VERTEX
  5
EC
  8
0
 62
     9
 10
0.0
 20
0.0
 30
0.0
 70
   128
 71
    60
 72
     7
 73
     2
  0
VERTEX
  5
ED
  8
0
 62
     9
 10
0.0
 20
0.0
 30
0.0
 70
   128
 71
    40
 72
    59
 73
    61
  0
VERTEX
  5
EE
  8
0
 62
     9
 10
0.0
 20
0.0
 30
0.0
 70
   128
 71
    59
 72
     2
 73
     6
  0
VERTEX
  5
EF
  8
0
 62
     9
 10
0.0
 20
0.0
 30
0.0
 70
   128
 71
    61
 72
    42
 73
    40
  0
VERTEX
  5
F0
  8
0
 62
     9
 10
0.0
 20
0.0
 30
0.0
 70
   128
 71
    59
 72
    60
 73
     2
  0
VERTEX
  5
F1
  8
0
 62
     9
 10
0.0
 20
0.0
 30
0.0
 70
   128
 71
    61
 72
    59
 73
     6
  0
VERTEX
  5
F2
  8
0
 62
     9
 10
0.0
 20
0.0
 30
0.0
 70
   128
 71
    64
 72
    63
 73
    62
  0
VERTEX
  5
F3
  8
0
 62
     9
 10
0.0
 20
0.0
 30
0.0
 70
   128
 71
    65
 72
    29
 73
    26
  0
VERTEX
  5
F4
  8
0
 62
     9
 10
0.0
 20
0.0
 30
0.0
 70
   128
 71
    64
 72
    62
 73
    65
  0
VERTEX
  5
F5
  8
0
 62
     9
 10
0.0
 20
0.0
 30
0.0
 70
   128
 71
    63
 72
    47
 73
    45
  0
VERTEX
  5
F6
  8
0
 62
     9
 10
0.0
 20
0.0
 30
0.0
 70
   128
 71
    62
 72
    63
 73
    45
  0
VERTEX
  5
F7
  8
0
 62
     9
 10
0.0
 20
0.0
 30
0.0
 70
   128
 71
    64
 72
    65
 73
    26
  0
VERTEX
  5
F8
  8
0
 62
     9
 10
0.0
 20
0.0
 30
0.0
 70
   128
 71
    68
 72
    67
 73
    66
  0
VERTEX
  5
F9
  8
0
 62
     9
 10
0.0
 20
0.0
 30
0.0
 70
   128
 71
    69
 72
    35
 73
    31
  0
VERTEX
  5
FA
  8
0
 62
     9
 10
0.0
 20
0.0
 30
0.0
 70
   128
 71
    68
 72
    66
 73
    69
  0
VERTEX
  5
FB
  8
0
 62
     9
 10
0.0
 20
0.0
 30
0.0
 70
   128
 71
    67
 72
    46
 73
    47
  0
VERTEX
  5
FC
  8
0
 62
     9
 10
0.0
 20
0.0
 30
0.0
 70
   128
 71
    66
 72
    67
 73
    47
  0
VERTEX
  5
FD
  8
0
 62
     9
 10
0.0
 20
0.0
 30
0.0
 70
   128
 71
    68
 72
    69
 73
    31
  0
VERTEX
  5
FE
  8
0
 62
     9
 10
0.0
 20
0.0
 30
0.0
 70
   128
 71
    72
 72
    71
 73
    70
  0
VERTEX
  5
FF
  8
0
 62
     9
 10
0.0
 20
0.0
 30
0.0
 70
   128
 71
    73
 72
    38
 73
    36
  0
VERTEX
  5
100
  8
0
 62
     9
 10
0.0
 20
0.0
 30
0.0
 70
   128
 71
    72
 72
    70
 73
    73
  0
VERTEX
  5
101
  8
0
 62
     9
 10
0.0
 20
0.0
 30
0.0
 70
   128
 71
    71
 72
    48
 73
    46
  0
VERTEX
  5
102
  8
0
 62
     9
 10
0.0
 20
0.0
 30
0.0
 70
   128
 71
    70
 72
    71
 73
    46
  0
VERTEX
  5
103
  8
0
 62
     9
 10
0.0
 20
0.0
 30
0.0
 70
   128
 71
    72
 72
    73
 73
    36
  0
VERTEX
  5
104
  8
0
 62
     9
 10
0.0
 20
0.0
 30
0.0
 70
   128
 71
    76
 72
    75
 73
    74
  0
VERTEX
  5
105
  8
0
 62
     9
 10
0.0
 20
0.0
 30
0.0
 70
   128
 71
    77
 72
    43
 73
    41
  0
VERTEX
  5
106
  8
0
 62
     9
 10
0.0
 20
0.0
 30
0.0
 70
   128
 71
    76
 72
    74
 73
    77
  0
VERTEX
  5
107
  8
0
 62
     9
 10
0.0
 20
0.0
 30
0.0
 70
   128
 71
    75
 72
    45
 73
    48
  0
VERTEX
  5
108
  8
0
 62
     9
 10
0.0
 20
0.0
 30
0.0
 70
   128
 71
    74
 72
    75
 73
    48
  0
VERTEX
  5
109
  8
0
 62
     9
 10
0.0
 20
0.0
 30
0.0
 70
   128
 71
    76
 72
    77
 73
    41
  0
VERTEX
  5
10A
  8
0
 62
     9
 10
0.0
 20
0.0
 30
0.0
 70
   128
 71
    80
 72
    79
 73
    78
  0
VERTEX
  5
10B
  8
0
 62
     9
 10
0.0
 20
0.0
 30
0.0
 70
   128
 71
    81
 72
    30
 73
    29
  0
VERTEX
  5
10C
  8
0
 62
     9
 10
0.0
 20
0.0
 30
0.0
 70
   128
 71
    80
 72
    78
 73
    81
  0
VERTEX
  5
10D
  8
0
 62
     9
 10
0.0
 20
0.0
 30
0.0
 70
   128
 71
    79
 72
    41
 73
    42
  0
VERTEX
  5
10E
  8
0
 62
     9
 10
0.0
 20
0.0
 30
0.0
 70
   128
 71
    78
 72
    79
 73
    42
  0
VERTEX
  5
10F
  8
0
 62
     9
 10
0.0
 20
0.0
 30
0.0
 70
   128
 71
    80
 72
    81
 73
    29
  0
VERTEX
  5
110
  8
0
 62
     9
 10
0.0
 20
0.0
 30
0.0
 70
   128
 71
    84
 72
    83
 73
    82
  0
VERTEX
  5
111
  8
0
 62
     9
 10
0.0
 20
0.0
 30
0.0
 70
   128
 71
    85
 72
    26
 73
    27
  0
VERTEX
  5
112
  8
0
 62
     9
 10
0.0
 20
0.0
 30
0.0
 70
   128
 71
    84
 72
    82
 73
    85
  0
VERTEX
  5
113
  8
0
 62
     9
 10
0.0
 20
0.0
 30
0.0
 70
   128
 71
    83
 72
    34
 73
    35
  0
VERTEX
  5
114
  8
0
 62
     9
 10
0.0
 20
0.0
 30
0.0
 70
   128
 71
    82
 72
    83
 73
    35
  0
VERTEX
  5
115
  8
0
 62
     9
 10
0.0
 20
0.0
 30
0.0
 70
   128
 71
    84
 72
    85
 73
    27
  0
VERTEX
  5
116
  8
0
 62
     9
 10
0.0
 20
0.0
 30
0.0
 70
   128
 71
    88
 72
    87
 73
    86
  0
VERTEX
  5
117
  8
0
 62
     9
 10
0.0
 20
0.0
 30
0.0
 70
   128
 71
    89
 72
    31
 73
    32
  0
VERTEX
  5
118
  8
0
 62
     9
 10
0.0
 20
0.0
 30
0.0
 70
   128
 71
    88
 72
    86
 73
    89
  0
VERTEX
  5
119
  8
0
 62
     9
 10
0.0
 20
0.0
 30
0.0
 70
   128
 71
    87
 72
    37
 73
    38
  0
VERTEX
  5
11A
  8
0
 62
     9
 10
0.0
 20
0.0
 30
0.0
 70
   128
 71
    86
 72
    87
 73
    38
  0
VERTEX
  5
11B
  8
0
 62
     9
 10
0.0
 20
0.0
 30
0.0
 70
   128
 71
    88
 72
    89
 73
    32
  0
VERTEX
  5
11C
  8
0
 62
     9
 10
0.0
 20
0.0
 30
0.0
 70
   128
 71
    92
 72
    91
 73
    90
  0
VERTEX
  5
11D
  8
0
 62
     9
 10
0.0
 20
0.0
 30
0.0
 70
   128
 71
    93
 72
    36
 73
    39
  0
VERTEX
  5
11E
  8
0
 62
     9
 10
0.0
 20
0.0
 30
0.0
 70
   128
 71
    92
 72
    90
 73
    93
  0
VERTEX
  5
11F
  8
0
 62
     9
 10
0.0
 20
0.0
 30
0.0
 70
   128
 71
    91
 72
    44
 73
    43
  0
VERTEX
  5
120
  8
0
 62
     9
 10
0.0
 20
0.0
 30
0.0
 70
   128
 71
    90
 72
    91
 73
    43
  0
VERTEX
  5
121
  8
0
 62
     9
 10
0.0
 20
0.0
 30
0.0
 70
   128
 71
    92
 72
    93
 73
    39
  0
VERTEX
  5
122
  8
0
 62
     9
 10
0.0
 20
0.0
 30
0.0
 70
   128
 71
    94
 72
    78
 73
    42
  0
VERTEX
  5
123
  8
0
 62
     9
 10
0.0
 20
0.0
 30
0.0
 70
   128
 71
    42
 72
    61
 73
    94
  0
VERTEX
  5
124
  8
0
 62
     9
 10
0.0
 20
0.0
 30
0.0
 70
   128
 71
    81
 72
    50
 73
    30
  0
VERTEX
  5
125
  8
0
 62
     9
 10
0.0
 20
0.0
 30
0.0
 70
   128
 71
    50
 72
    95
 73
    24
  0
VERTEX
  5
126
  8
0
 62
     9
 10
0.0
 20
0.0
 30
0.0
 70
   128
 71
    95
 72
    81
 73
    78
  0
VERTEX
  5
127
  8
0
 62
     9
 10
0.0
 20
0.0
 30
0.0
 70
   128
 71
     3
 72
     4
 73
    25
  0
VERTEX
  5
128
  8
0
 62
     9
 10
0.0
 20
0.0
 30
0.0
 70
   128
 71
    94
 72
    25
 73
    95
  0
VERTEX
  5
129
  8
0
 62
     9
 10
0.0
 20
0.0
 30
0.0
 70
   128
 71
     6
 72
    94
 73
    61
  0
VERTEX
  5
12A
  8
0
 62
     9
 10
0.0
 20
0.0
 30
0.0
 70
   128
 71
    94
 72
     6
 73
     3
  0
VERTEX
  5
12B
  8
0
 62
     9
 10
0.0
 20
0.0
 30
0.0
 70
   128
 71
    94
 72
    95
 73
    78
  0
VERTEX
  5
12C
  8
0
 62
     9
 10
0.0
 20
0.0
 30
0.0
 70
   128
 71
    81
 72
    95
 73
    50
  0
VERTEX
  5
12D
  8
0
 62
     9
 10
0.0
 20
0.0
 30
0.0
 70
   128
 71
    95
 72
    25
 73
    24
  0
VERTEX
  5
12E
  8
0
 62
     9
 10
0.0
 20
0.0
 30
0.0
 70
   128
 71
    25
 72
    94
 73
     3
  0
VERTEX
  5
12F
  8
0
 62
     9
 10
0.0
 20
0.0
 30
0.0
 70
   128
 71
    53
 72
    97
 73
    96
  0
VERTEX
  5
130
  8
0
 62
     9
 10
0.0
 20
0.0
 30
0.0
 70
   128
 71
    21
 72
    17
 73
    96
  0
VERTEX
  5
131
  8
0
 62
     9
 10
0.0
 20
0.0
 30
0.0
 70
   128
 71
    96
 72
    97
 73
    23
  0
VERTEX
  5
132
  8
0
 62
     9
 10
0.0
 20
0.0
 30
0.0
 70
   128
 71
    84
 72
    97
 73
    83
  0
VERTEX
  5
133
  8
0
 62
     9
 10
0.0
 20
0.0
 30
0.0
 70
   128
 71
    21
 72
    18
 73
    17
  0
VERTEX
  5
134
  8
0
 62
     9
 10
0.0
 20
0.0
 30
0.0
 70
   128
 71
    27
 72
    97
 73
    84
  0
VERTEX
  5
135
  8
0
 62
     9
 10
0.0
 20
0.0
 30
0.0
 70
   128
 71
    97
 72
    27
 73
    51
  0
VERTEX
  5
136
  8
0
 62
     9
 10
0.0
 20
0.0
 30
0.0
 70
   128
 71
    53
 72
    34
 73
    83
  0
VERTEX
  5
137
  8
0
 62
     9
 10
0.0
 20
0.0
 30
0.0
 70
   128
 71
    23
 72
    97
 73
    51
  0
VERTEX
  5
138
  8
0
 62
     9
 10
0.0
 20
0.0
 30
0.0
 70
   128
 71
    53
 72
    83
 73
    97
  0
VERTEX
  5
139
  8
0
 62
     9
 10
0.0
 20
0.0
 30
0.0
 70
   128
 71
    96
 72
    16
 73
    53
  0
VERTEX
  5
13A
  8
0
 62
     9
 10
0.0
 20
0.0
 30
0.0
 70
   128
 71
    16
 72
    96
 73
    17
  0
VERTEX
  5
13B
  8
0
 62
     9
 10
0.0
 20
0.0
 30
0.0
 70
   128
 71
    21
 72
    96
 73
    23
  0
VERTEX
  5
13C
  8
0
 62
     9
 10
0.0
 20
0.0
 30
0.0
 70
   128
 71
    98
 72
    57
 73
    37
  0
VERTEX
  5
13D
  8
0
 62
     9
 10
0.0
 20
0.0
 30
0.0
 70
   128
 71
    54
 72
    98
 73
    88
  0
VERTEX
  5
13E
  8
0
 62
     9
 10
0.0
 20
0.0
 30
0.0
 70
   128
 71
    12
 72
    13
 73
    56
  0
VERTEX
  5
13F
  8
0
 62
     9
 10
0.0
 20
0.0
 30
0.0
 70
   128
 71
    15
 72
    12
 73
    99
  0
VERTEX
  5
140
  8
0
 62
     9
 10
0.0
 20
0.0
 30
0.0
 70
   128
 71
    99
 72
    56
 73
    57
  0
VERTEX
  5
141
  8
0
 62
     9
 10
0.0
 20
0.0
 30
0.0
 70
   128
 71
    32
 72
    54
 73
    88
  0
VERTEX
  5
142
  8
0
 62
     9
 10
0.0
 20
0.0
 30
0.0
 70
   128
 71
    99
 72
    54
 73
    15
  0
VERTEX
  5
143
  8
0
 62
     9
 10
0.0
 20
0.0
 30
0.0
 70
   128
 71
    98
 72
    54
 73
    99
  0
VERTEX
  5
144
  8
0
 62
     9
 10
0.0
 20
0.0
 30
0.0
 70
   128
 71
    56
 72
    99
 73
    12
  0
VERTEX
  5
145
  8
0
 62
     9
 10
0.0
 20
0.0
 30
0.0
 70
   128
 71
    87
 72
    88
 73
    98
  0
VERTEX
  5
146
  8
0
 62
     9
 10
0.0
 20
0.0
 30
0.0
 70
   128
 71
    87
 72
    98
 73
    37
  0
VERTEX
  5
147
  8
0
 62
     9
 10
0.0
 20
0.0
 30
0.0
 70
   128
 71
    98
 72
    99
 73
    57
  0
VERTEX
  5
148
  8
0
 62
     9
 10
0.0
 20
0.0
 30
0.0
 70
   128
 71
    55
 72
     8
 73
   100
  0
VERTEX
  5
149
  8
0
 62
     9
 10
0.0
 20
0.0
 30
0.0
 70
   128
 71
   101
 72
     7
 73
    60
  0
VERTEX
  5
14A
  8
0
 62
     9
 10
0.0
 20
0.0
 30
0.0
 70
   128
 71
    60
 72
    44
 73
    91
  0
VERTEX
  5
14B
  8
0
 62
     9
 10
0.0
 20
0.0
 30
0.0
 70
   128
 71
     8
 72
    55
 73
     9
  0
VERTEX
  5
14C
  8
0
 62
     9
 10
0.0
 20
0.0
 30
0.0
 70
   128
 71
    58
 72
   100
 73
    39
  0
VERTEX
  5
14D
  8
0
 62
     9
 10
0.0
 20
0.0
 30
0.0
 70
   128
 71
    92
 72
    39
 73
   100
  0
VERTEX
  5
14E
  8
0
 62
     9
 10
0.0
 20
0.0
 30
0.0
 70
   128
 71
    91
 72
    92
 73
   101
  0
VERTEX
  5
14F
  8
0
 62
     9
 10
0.0
 20
0.0
 30
0.0
 70
   128
 71
   100
 72
     8
 73
   101
  0
VERTEX
  5
150
  8
0
 62
     9
 10
0.0
 20
0.0
 30
0.0
 70
   128
 71
    58
 72
    55
 73
   100
  0
VERTEX
  5
151
  8
0
 62
     9
 10
0.0
 20
0.0
 30
0.0
 70
   128
 71
   100
 72
   101
 73
    92
  0
VERTEX
  5
152
  8
0
 62
     9
 10
0.0
 20
0.0
 30
0.0
 70
   128
 71
    91
 72
   101
 73
    60
  0
VERTEX
  5
153
  8
0
 62
     9
 10
0.0
 20
0.0
 30
0.0
 70
   128
 71
   101
 72
     8
 73
     7
  0
VERTEX
  5
154
  8
0
 62
     9
 10
0.0
 20
0.0
 30
0.0
 70
   128
 71
   102
 72
    76
 73
    41
  0
VERTEX
  5
155
  8
0
 62
     9
 10
0.0
 20
0.0
 30
0.0
 70
   128
 71
    76
 72
   102
 73
    75
  0
VERTEX
  5
156
  8
0
 62
     9
 10
0.0
 20
0.0
 30
0.0
 70
   128
 71
   102
 72
    79
 73
   103
  0
VERTEX
  5
157
  8
0
 62
     9
 10
0.0
 20
0.0
 30
0.0
 70
   128
 71
    62
 72
    45
 73
    75
  0
VERTEX
  5
158
  8
0
 62
     9
 10
0.0
 20
0.0
 30
0.0
 70
   128
 71
   102
 72
    62
 73
    75
  0
VERTEX
  5
159
  8
0
 62
     9
 10
0.0
 20
0.0
 30
0.0
 70
   128
 71
    80
 72
    29
 73
   103
  0
VERTEX
  5
15A
  8
0
 62
     9
 10
0.0
 20
0.0
 30
0.0
 70
   128
 71
   102
 72
   103
 73
    62
  0
VERTEX
  5
15B
  8
0
 62
     9
 10
0.0
 20
0.0
 30
0.0
 70
   128
 71
    79
 72
   102
 73
    41
  0
VERTEX
  5
15C
  8
0
 62
     9
 10
0.0
 20
0.0
 30
0.0
 70
   128
 71
    65
 72
    62
 73
   103
  0
VERTEX
  5
15D
  8
0
 62
     9
 10
0.0
 20
0.0
 30
0.0
 70
   128
 71
    65
 72
   103
 73
    29
  0
VERTEX
  5
15E
  8
0
 62
     9
 10
0.0
 20
0.0
 30
0.0
 70
   128
 71
    80
 72
   103
 73
    79
  0
VERTEX
  5
15F
  8
0
 62
     9
 10
0.0
 20
0.0
 30
0.0
 70
   128
 71
   104
 72
    82
 73
    35
  0
VERTEX
  5
160
  8
0
 62
     9
 10
0.0
 20
0.0
 30
0.0
 70
   128
 71
   105
 72
    64
 73
    26
  0
VERTEX
  5
161
  8
0
 62
     9
 10
0.0
 20
0.0
 30
0.0
 70
   128
 71
    63
 72
    64
 73
   105
  0
VERTEX
  5
162
  8
0
 62
     9
 10
0.0
 20
0.0
 30
0.0
 70
   128
 71
    85
 72
    82
 73
   105
  0
VERTEX
  5
163
  8
0
 62
     9
 10
0.0
 20
0.0
 30
0.0
 70
   128
 71
    66
 72
    63
 73
   104
  0
VERTEX
  5
164
  8
0
 62
     9
 10
0.0
 20
0.0
 30
0.0
 70
   128
 71
    47
 72
    63
 73
    66
  0
VERTEX
  5
165
  8
0
 62
     9
 10
0.0
 20
0.0
 30
0.0
 70
   128
 71
    63
 72
   105
 73
   104
  0
VERTEX
  5
166
  8
0
 62
     9
 10
0.0
 20
0.0
 30
0.0
 70
   128
 71
    85
 72
   105
 73
    26
  0
VERTEX
  5
167
  8
0
 62
     9
 10
0.0
 20
0.0
 30
0.0
 70
   128
 71
    69
 72
    66
 73
   104
  0
VERTEX
  5
168
  8
0
 62
     9
 10
0.0
 20
0.0
 30
0.0
 70
   128
 71
    69
 72
   104
 73
    35
  0
VERTEX
  5
169
  8
0
 62
     9
 10
0.0
 20
0.0
 30
0.0
 70
   128
 71
   104
 72
   105
 73
    82
  0
VERTEX
  5
16A
  8
0
 62
     9
 10
0.0
 20
0.0
 30
0.0
 70
   128
 71
   106
 72
    86
 73
    38
  0
VERTEX
  5
16B
  8
0
 62
     9
 10
0.0
 20
0.0
 30
0.0
 70
   128
 71
    86
 72
   106
 73
    89
  0
VERTEX
  5
16C
  8
0
 62
     9
 10
0.0
 20
0.0
 30
0.0
 70
   128
 71
   106
 72
    73
 73
   107
  0
VERTEX
  5
16D
  8
0
 62
     9
 10
0.0
 20
0.0
 30
0.0
 70
   128
 71
    68
 72
    31
 73
    89
  0
VERTEX
  5
16E
  8
0
 62
     9
 10
0.0
 20
0.0
 30
0.0
 70
   128
 71
   106
 72
    68
 73
    89
  0
VERTEX
  5
16F
  8
0
 62
     9
 10
0.0
 20
0.0
 30
0.0
 70
   128
 71
    70
 72
    46
 73
   107
  0
VERTEX
  5
170
  8
0
 62
     9
 10
0.0
 20
0.0
 30
0.0
 70
   128
 71
   106
 72
   107
 73
    68
  0
VERTEX
  5
171
  8
0
 62
     9
 10
0.0
 20
0.0
 30
0.0
 70
   128
 71
    73
 72
   106
 73
    38
  0
VERTEX
  5
172
  8
0
 62
     9
 10
0.0
 20
0.0
 30
0.0
 70
   128
 71
    67
 72
    68
 73
   107
  0
VERTEX
  5
173
  8
0
 62
     9
 10
0.0
 20
0.0
 30
0.0
 70
   128
 71
    67
 72
   107
 73
    46
  0
VERTEX
  5
174
  8
0
 62
     9
 10
0.0
 20
0.0
 30
0.0
 70
   128
 71
    70
 72
   107
 73
    73
  0
VERTEX
  5
175
  8
0
 62
     9
 10
0.0
 20
0.0
 30
0.0
 70
   128
 71
    77
 72
    90
 73
    43
  0
VERTEX
  5
176
  8
0
 62
     9
 10
0.0
 20
0.0
 30
0.0
 70
   128
 71
    71
 72
    72
 73
   108
  0
VERTEX
  5
177
  8
0
 62
     9
 10
0.0
 20
0.0
 30
0.0
 70
   128
 71
   108
 72
    36
 73
    93
  0
VERTEX
  5
178
  8
0
 62
     9
 10
0.0
 20
0.0
 30
0.0
 70
   128
 71
   108
 72
    93
 73
    90
  0
VERTEX
  5
179
  8
0
 62
     9
 10
0.0
 20
0.0
 30
0.0
 70
   128
 71
   108
 72
    72
 73
    36
  0
VERTEX
  5
17A
  8
0
 62
     9
 10
0.0
 20
0.0
 30
0.0
 70
   128
 71
    48
 72
   109
 73
    74
  0
VERTEX
  5
17B
  8
0
 62
     9
 10
0.0
 20
0.0
 30
0.0
 70
   128
 71
   109
 72
    77
 73
    74
  0
VERTEX
  5
17C
  8
0
 62
     9
 10
0.0
 20
0.0
 30
0.0
 70
   128
 71
   109
 72
   108
 73
    90
  0
VERTEX
  5
17D
  8
0
 62
     9
 10
0.0
 20
0.0
 30
0.0
 70
   128
 71
    77
 72
   109
 73
    90
  0
VERTEX
  5
17E
  8
0
 62
     9
 10
0.0
 20
0.0
 30
0.0
 70
   128
 71
   109
 72
    71
 73
   108
  0
VERTEX
  5
17F
  8
0
 62
     9
 10
0.0
 20
0.0
 30
0.0
 70
   128
 71
    71
 72
   109
 73
    48
  0
SEQEND
  5
180
  8
0
 62
     9
  0
ENDBLK
  5
184
  8
0
  0
BLOCK
  8
0
  2
39
 70
     0
 10
0.0
 20
0.0
 30
0.0
  3
39
  1

  0
POLYLINE
  5
186
  8
0
 62
     9
 66
     1
 10
0.0
 20
0.0
 30
0.0
 70
    64
 71
    76
 72
   114
  0
VERTEX
  5
187
  8
0
 10
164.0912017822266
 20
1.038330078125
 30
28.99857902526855
 70
   192
  0
VERTEX
  5
188
  8
0
 10
164.0920867919922
 20
-1.04426908493042
 30
12.99857807159424
 70
   192
  0
VERTEX
  5
189
  8
0
 10
164.0909729003906
 20
1.040080785751343
 30
12.99857807159424
 70
   192
  0
VERTEX
  5
18A
  8
0
 10
164.8026580810547
 20
2.997302532196045
 30
12.99857807159424
 70
   192
  0
VERTEX
  5
18B
  8
0
 10
164.8010864257812
 20
2.997349977493286
 30
28.99857902526855
 70
   192
  0
VERTEX
  5
18C
  8
0
 10
166.1399993896484
 20
4.596155166625977
 30
28.99857902526855
 70
   192
  0
VERTEX
  5
18D
  8
0
 10
166.1418914794922
 20
4.595029830932617
 30
12.99857807159424
 70
   192
  0
VERTEX
  5
18E
  8
0
 10
167.9453582763672
 20
5.623499870300293
 30
28.99857902526855
 70
   192
  0
VERTEX
  5
18F
  8
0
 10
167.9468078613281
 20
5.637703895568848
 30
12.99857807159424
 70
   192
  0
VERTEX
  5
190
  8
0
 10
170.0
 20
6.0
 30
28.99857902526855
 70
   192
  0
VERTEX
  5
191
  8
0
 10
170.0
 20
6.0
 30
12.99857807159424
 70
   192
  0
VERTEX
  5
192
  8
0
 10
164.0921783447266
 20
-1.04484498500824
 30
28.99857902526855
 70
   192
  0
VERTEX
  5
193
  8
0
 10
164.8029022216797
 20
-2.998801231384277
 30
12.99857807159424
 70
   192
  0
VERTEX
  5
194
  8
0
 10
164.8088226318359
 20
-3.003565549850464
 30
28.99857902526855
 70
   192
  0
VERTEX
  5
195
  8
0
 10
166.1460418701172
 20
-4.596257209777832
 30
28.99857902526855
 70
   192
  0
VERTEX
  5
196
  8
0
 10
166.1451416015625
 20
-4.597115039825439
 30
12.99857807159424
 70
   192
  0
VERTEX
  5
197
  8
0
 10
167.9557647705078
 20
-5.610833168029785
 30
28.99857902526855
 70
   192
  0
VERTEX
  5
198
  8
0
 10
167.9487762451172
 20
-5.638484954833984
 30
12.99857807159424
 70
   192
  0
VERTEX
  5
199
  8
0
 10
170.0
 20
-5.998800754547119
 30
12.99857807159424
 70
   192
  0
VERTEX
  5
19A
  8
0
 10
170.0
 20
-6.0
 30
28.99857902526855
 70
   192
  0
VERTEX
  5
19B
  8
0
 10
163.0007934570312
 20
0.0035221844445914
 30
12.99857807159424
 70
   192
  0
VERTEX
  5
19C
  8
0
 10
163.0
 20
-0.0000000000000098
 30
8.498578071594238
 70
   192
  0
VERTEX
  5
19D
  8
0
 10
163.3462677001953
 20
2.168588399887085
 30
8.498578071594238
 70
   192
  0
VERTEX
  5
19E
  8
0
 10
164.3415832519531
 20
4.116259574890137
 30
8.498578071594238
 70
   192
  0
VERTEX
  5
19F
  8
0
 10
163.3432464599609
 20
2.164299249649048
 30
12.99857807159424
 70
   192
  0
VERTEX
  5
1A0
  8
0
 10
165.8898010253906
 20
5.666803359985352
 30
8.498578071594238
 70
   192
  0
VERTEX
  5
1A1
  8
0
 10
164.3367919921875
 20
4.11412525177002
 30
12.99857807159424
 70
   192
  0
VERTEX
  5
1A2
  8
0
 10
167.8369445800781
 20
6.657556533813477
 30
12.99857807159424
 70
   192
  0
VERTEX
  5
1A3
  8
0
 10
165.8853912353516
 20
5.6626877784729
 30
12.99857807159424
 70
   192
  0
VERTEX
  5
1A4
  8
0
 10
167.8463745117188
 20
6.618905544281006
 30
8.498578071594238
 70
   192
  0
VERTEX
  5
1A5
  8
0
 10
170.0
 20
6.998644828796387
 30
12.99857807159424
 70
   192
  0
VERTEX
  5
1A6
  8
0
 10
170.0
 20
7.0
 30
8.498578071594238
 70
   192
  0
VERTEX
  5
1A7
  8
0
 10
163.3423309326172
 20
-2.162921667098999
 30
12.99857807159424
 70
   192
  0
VERTEX
  5
1A8
  8
0
 10
164.3343658447266
 20
-4.10973072052002
 30
12.99857807159424
 70
   192
  0
VERTEX
  5
1A9
  8
0
 10
163.3416137695312
 20
-2.158630847930908
 30
8.498578071594238
 70
   192
  0
VERTEX
  5
1AA
  8
0
 10
164.3330688476562
 20
-4.112107276916504
 30
8.498578071594238
 70
   192
  0
VERTEX
  5
1AB
  8
0
 10
165.8827362060547
 20
-5.660980224609375
 30
12.99857807159424
 70
   192
  0
VERTEX
  5
1AC
  8
0
 10
165.8815307617188
 20
-5.663108348846436
 30
8.498578071594238
 70
   192
  0
VERTEX
  5
1AD
  8
0
 10
167.8347473144531
 20
-6.632888793945312
 30
8.498578071594238
 70
   192
  0
VERTEX
  5
1AE
  8
0
 10
167.8343811035156
 20
-6.656423568725586
 30
12.99857807159424
 70
   192
  0
VERTEX
  5
1AF
  8
0
 10
170.0
 20
-7.0
 30
8.498578071594238
 70
   192
  0
VERTEX
  5
1B0
  8
0
 10
170.0
 20
-7.0
 30
12.99857807159424
 70
   192
  0
VERTEX
  5
1B1
  8
0
 10
172.1643371582031
 20
6.656707286834717
 30
12.99857807159424
 70
   192
  0
VERTEX
  5
1B2
  8
0
 10
177.0
 20
-0.0000000000000122
 30
8.498578071594238
 70
   192
  0
VERTEX
  5
1B3
  8
0
 10
176.6575317382812
 20
2.162705183029175
 30
12.99857807159424
 70
   192
  0
VERTEX
  5
1B4
  8
0
 10
176.6583862304688
 20
2.158630847930908
 30
8.498578071594238
 70
   192
  0
VERTEX
  5
1B5
  8
0
 10
174.1138610839844
 20
5.663214206695557
 30
12.99857807159424
 70
   192
  0
VERTEX
  5
1B6
  8
0
 10
174.1184692382812
 20
5.663108348846436
 30
8.498578071594238
 70
   192
  0
VERTEX
  5
1B7
  8
0
 10
175.6669311523438
 20
4.112107276916504
 30
8.498578071594238
 70
   192
  0
VERTEX
  5
1B8
  8
0
 10
175.6584167480469
 20
-4.116259574890137
 30
8.498578071594238
 70
   192
  0
VERTEX
  5
1B9
  8
0
 10
175.6609344482422
 20
-4.117137908935547
 30
12.99857807159424
 70
   192
  0
VERTEX
  5
1BA
  8
0
 10
176.6567993164062
 20
-2.164360046386719
 30
12.99857807159424
 70
   192
  0
VERTEX
  5
1BB
  8
0
 10
176.9994659423828
 20
-0.002898704726249
 30
12.99857807159424
 70
   192
  0
VERTEX
  5
1BC
  8
0
 10
176.6537322998047
 20
-2.168588399887085
 30
8.498578071594238
 70
   192
  0
VERTEX
  5
1BD
  8
0
 10
174.1101989746094
 20
-5.666803359985352
 30
8.498578071594238
 70
   192
  0
VERTEX
  5
1BE
  8
0
 10
172.1610565185547
 20
-6.657938480377197
 30
12.99857807159424
 70
   192
  0
VERTEX
  5
1BF
  8
0
 10
174.1096649169922
 20
-5.665781497955322
 30
12.99857807159424
 70
   192
  0
VERTEX
  5
1C0
  8
0
 10
172.1536254882812
 20
-6.618905544281006
 30
8.498578071594238
 70
   192
  0
VERTEX
  5
1C1
  8
0
 10
175.6627502441406
 20
4.114794254302979
 30
12.99857807159424
 70
   192
  0
VERTEX
  5
1C2
  8
0
 10
172.1652526855469
 20
6.632888793945312
 30
8.498578071594238
 70
   192
  0
VERTEX
  5
1C3
  8
0
 10
175.9088592529297
 20
-1.040389895439148
 30
12.99857807159424
 70
   192
  0
VERTEX
  5
1C4
  8
0
 10
175.9078979492188
 20
1.044705867767334
 30
12.99857807159424
 70
   192
  0
VERTEX
  5
1C5
  8
0
 10
175.196044921875
 20
-2.999653577804565
 30
12.99857807159424
 70
   192
  0
VERTEX
  5
1C6
  8
0
 10
173.8578796386719
 20
-4.59445858001709
 30
12.99857807159424
 70
   192
  0
VERTEX
  5
1C7
  8
0
 10
172.0533294677734
 20
-5.637551784515381
 30
12.99857807159424
 70
   192
  0
VERTEX
  5
1C8
  8
0
 10
175.1944580078125
 20
3.002353191375732
 30
12.99857807159424
 70
   192
  0
VERTEX
  5
1C9
  8
0
 10
172.0505828857422
 20
5.638522624969482
 30
12.99857807159424
 70
   192
  0
VERTEX
  5
1CA
  8
0
 10
173.853759765625
 20
4.598055839538574
 30
12.99857807159424
 70
   192
  0
VERTEX
  5
1CB
  8
0
 10
172.0442352294922
 20
5.610833168029785
 30
28.99857902526855
 70
   192
  0
VERTEX
  5
1CC
  8
0
 10
175.9078216552734
 20
1.04484498500824
 30
28.99857902526855
 70
   192
  0
VERTEX
  5
1CD
  8
0
 10
175.1911773681641
 20
3.003565549850464
 30
28.99857902526855
 70
   192
  0
VERTEX
  5
1CE
  8
0
 10
173.8539581298828
 20
4.596257209777832
 30
28.99857902526855
 70
   192
  0
VERTEX
  5
1CF
  8
0
 10
175.1989135742188
 20
-2.997349977493286
 30
28.99857902526855
 70
   192
  0
VERTEX
  5
1D0
  8
0
 10
175.9087982177734
 20
-1.038330078125
 30
28.99857902526855
 70
   192
  0
VERTEX
  5
1D1
  8
0
 10
172.0546417236328
 20
-5.623499870300293
 30
28.99857902526855
 70
   192
  0
VERTEX
  5
1D2
  8
0
 10
173.8600006103516
 20
-4.596155166625977
 30
28.99857902526855
 70
   192
  0
VERTEX
  5
1D3
  8
0
 62
     9
 10
0.0
 20
0.0
 30
0.0
 70
   128
 71
     3
 72
     2
 73
     1
  0
VERTEX
  5
1D4
  8
0
 62
     9
 10
0.0
 20
0.0
 30
0.0
 70
   128
 71
     1
 72
     5
 73
     4
  0
VERTEX
  5
1D5
  8
0
 62
     9
 10
0.0
 20
0.0
 30
0.0
 70
   128
 71
     4
 72
     3
 73
     1
  0
VERTEX
  5
1D6
  8
0
 62
     9
 10
0.0
 20
0.0
 30
0.0
 70
   128
 71
     7
 72
     5
 73
     6
  0
VERTEX
  5
1D7
  8
0
 62
     9
 10
0.0
 20
0.0
 30
0.0
 70
   128
 71
     5
 72
     7
 73
     4
  0
VERTEX
  5
1D8
  8
0
 62
     9
 10
0.0
 20
0.0
 30
0.0
 70
   128
 71
     9
 72
     7
 73
     8
  0
VERTEX
  5
1D9
  8
0
 62
     9
 10
0.0
 20
0.0
 30
0.0
 70
   128
 71
     6
 72
     8
 73
     7
  0
VERTEX
  5
1DA
  8
0
 62
     9
 10
0.0
 20
0.0
 30
0.0
 70
   128
 71
     9
 72
     8
 73
    10
  0
VERTEX
  5
1DB
  8
0
 62
     9
 10
0.0
 20
0.0
 30
0.0
 70
   128
 71
    11
 72
     9
 73
    10
  0
VERTEX
  5
1DC
  8
0
 62
     9
 10
0.0
 20
0.0
 30
0.0
 70
   128
 71
     2
 72
    12
 73
     1
  0
VERTEX
  5
1DD
  8
0
 62
     9
 10
0.0
 20
0.0
 30
0.0
 70
   128
 71
    14
 72
     2
 73
    13
  0
VERTEX
  5
1DE
  8
0
 62
     9
 10
0.0
 20
0.0
 30
0.0
 70
   128
 71
     2
 72
    14
 73
    12
  0
VERTEX
  5
1DF
  8
0
 62
     9
 10
0.0
 20
0.0
 30
0.0
 70
   128
 71
    16
 72
    15
 73
    13
  0
VERTEX
  5
1E0
  8
0
 62
     9
 10
0.0
 20
0.0
 30
0.0
 70
   128
 71
    14
 72
    13
 73
    15
  0
VERTEX
  5
1E1
  8
0
 62
     9
 10
0.0
 20
0.0
 30
0.0
 70
   128
 71
    18
 72
    17
 73
    15
  0
VERTEX
  5
1E2
  8
0
 62
     9
 10
0.0
 20
0.0
 30
0.0
 70
   128
 71
    15
 72
    16
 73
    18
  0
VERTEX
  5
1E3
  8
0
 62
     9
 10
0.0
 20
0.0
 30
0.0
 70
   128
 71
    19
 72
    17
 73
    18
  0
VERTEX
  5
1E4
  8
0
 62
     9
 10
0.0
 20
0.0
 30
0.0
 70
   128
 71
    19
 72
    20
 73
    17
  0
VERTEX
  5
1E5
  8
0
 62
     9
 10
0.0
 20
0.0
 30
0.0
 70
   128
 71
    23
 72
    22
 73
    21
  0
VERTEX
  5
1E6
  8
0
 62
     9
 10
0.0
 20
0.0
 30
0.0
 70
   128
 71
    25
 72
    24
 73
    23
  0
VERTEX
  5
1E7
  8
0
 62
     9
 10
0.0
 20
0.0
 30
0.0
 70
   128
 71
    23
 72
    21
 73
    25
  0
VERTEX
  5
1E8
  8
0
 62
     9
 10
0.0
 20
0.0
 30
0.0
 70
   128
 71
    24
 72
    27
 73
    26
  0
VERTEX
  5
1E9
  8
0
 62
     9
 10
0.0
 20
0.0
 30
0.0
 70
   128
 71
    27
 72
    24
 73
    25
  0
VERTEX
  5
1EA
  8
0
 62
     9
 10
0.0
 20
0.0
 30
0.0
 70
   128
 71
    26
 72
    29
 73
    28
  0
VERTEX
  5
1EB
  8
0
 62
     9
 10
0.0
 20
0.0
 30
0.0
 70
   128
 71
    27
 72
    29
 73
    26
  0
VERTEX
  5
1EC
  8
0
 62
     9
 10
0.0
 20
0.0
 30
0.0
 70
   128
 71
    31
 72
    30
 73
    28
  0
VERTEX
  5
1ED
  8
0
 62
     9
 10
0.0
 20
0.0
 30
0.0
 70
   128
 71
    26
 72
    28
 73
    30
  0
VERTEX
  5
1EE
  8
0
 62
     9
 10
0.0
 20
0.0
 30
0.0
 70
   128
 71
    32
 72
    30
 73
    31
  0
VERTEX
  5
1EF
  8
0
 62
     9
 10
0.0
 20
0.0
 30
0.0
 70
   128
 71
    33
 72
    21
 73
    22
  0
VERTEX
  5
1F0
  8
0
 62
     9
 10
0.0
 20
0.0
 30
0.0
 70
   128
 71
    33
 72
    35
 73
    34
  0
VERTEX
  5
1F1
  8
0
 62
     9
 10
0.0
 20
0.0
 30
0.0
 70
   128
 71
    35
 72
    33
 73
    22
  0
VERTEX
  5
1F2
  8
0
 62
     9
 10
0.0
 20
0.0
 30
0.0
 70
   128
 71
    37
 72
    34
 73
    36
  0
VERTEX
  5
1F3
  8
0
 62
     9
 10
0.0
 20
0.0
 30
0.0
 70
   128
 71
    35
 72
    36
 73
    34
  0
VERTEX
  5
1F4
  8
0
 62
     9
 10
0.0
 20
0.0
 30
0.0
 70
   128
 71
    39
 72
    37
 73
    38
  0
VERTEX
  5
1F5
  8
0
 62
     9
 10
0.0
 20
0.0
 30
0.0
 70
   128
 71
    37
 72
    36
 73
    38
  0
VERTEX
  5
1F6
  8
0
 62
     9
 10
0.0
 20
0.0
 30
0.0
 70
   128
 71
    39
 72
    41
 73
    40
  0
VERTEX
  5
1F7
  8
0
 62
     9
 10
0.0
 20
0.0
 30
0.0
 70
   128
 71
    40
 72
    37
 73
    39
  0
VERTEX
  5
1F8
  8
0
 62
     9
 10
0.0
 20
0.0
 30
0.0
 70
   128
 71
    41
 72
    42
 73
    40
  0
VERTEX
  5
1F9
  8
0
 62
     9
 10
0.0
 20
0.0
 30
0.0
 70
   128
 71
    32
 72
    31
 73
    43
  0
VERTEX
  5
1FA
  8
0
 62
     9
 10
0.0
 20
0.0
 30
0.0
 70
   128
 71
    46
 72
    45
 73
    44
  0
VERTEX
  5
1FB
  8
0
 62
     9
 10
0.0
 20
0.0
 30
0.0
 70
   128
 71
    49
 72
    48
 73
    47
  0
VERTEX
  5
1FC
  8
0
 62
     9
 10
0.0
 20
0.0
 30
0.0
 70
   128
 71
    52
 72
    51
 73
    50
  0
VERTEX
  5
1FD
  8
0
 62
     9
 10
0.0
 20
0.0
 30
0.0
 70
   128
 71
    52
 72
    54
 73
    53
  0
VERTEX
  5
1FE
  8
0
 62
     9
 10
0.0
 20
0.0
 30
0.0
 70
   128
 71
    57
 72
    56
 73
    55
  0
VERTEX
  5
1FF
  8
0
 62
     9
 10
0.0
 20
0.0
 30
0.0
 70
   128
 71
    57
 72
    55
 73
    51
  0
VERTEX
  5
200
  8
0
 62
     9
 10
0.0
 20
0.0
 30
0.0
 70
   128
 71
    58
 72
    56
 73
    42
  0
VERTEX
  5
201
  8
0
 62
     9
 10
0.0
 20
0.0
 30
0.0
 70
   128
 71
    56
 72
    58
 73
    55
  0
VERTEX
  5
202
  8
0
 62
     9
 10
0.0
 20
0.0
 30
0.0
 70
   128
 71
    58
 72
    42
 73
    41
  0
VERTEX
  5
203
  8
0
 62
     9
 10
0.0
 20
0.0
 30
0.0
 70
   128
 71
    52
 72
    50
 73
    54
  0
VERTEX
  5
204
  8
0
 62
     9
 10
0.0
 20
0.0
 30
0.0
 70
   128
 71
    51
 72
    55
 73
    50
  0
VERTEX
  5
205
  8
0
 62
     9
 10
0.0
 20
0.0
 30
0.0
 70
   128
 71
    45
 72
    53
 73
    44
  0
VERTEX
  5
206
  8
0
 62
     9
 10
0.0
 20
0.0
 30
0.0
 70
   128
 71
    53
 72
    54
 73
    44
  0
VERTEX
  5
207
  8
0
 62
     9
 10
0.0
 20
0.0
 30
0.0
 70
   128
 71
    49
 72
    59
 73
    46
  0
VERTEX
  5
208
  8
0
 62
     9
 10
0.0
 20
0.0
 30
0.0
 70
   128
 71
    59
 72
    45
 73
    46
  0
VERTEX
  5
209
  8
0
 62
     9
 10
0.0
 20
0.0
 30
0.0
 70
   128
 71
    60
 72
    47
 73
    48
  0
VERTEX
  5
20A
  8
0
 62
     9
 10
0.0
 20
0.0
 30
0.0
 70
   128
 71
    49
 72
    47
 73
    59
  0
VERTEX
  5
20B
  8
0
 62
     9
 10
0.0
 20
0.0
 30
0.0
 70
   128
 71
    43
 72
    60
 73
    32
  0
VERTEX
  5
20C
  8
0
 62
     9
 10
0.0
 20
0.0
 30
0.0
 70
   128
 71
    60
 72
    43
 73
    47
  0
VERTEX
  5
20D
  8
0
 62
     9
 10
0.0
 20
0.0
 30
0.0
 70
   128
 71
    61
 72
    52
 73
    53
  0
VERTEX
  5
20E
  8
0
 62
     9
 10
0.0
 20
0.0
 30
0.0
 70
   128
 71
     7
 72
    29
 73
    27
  0
VERTEX
  5
20F
  8
0
 62
     9
 10
0.0
 20
0.0
 30
0.0
 70
   128
 71
    53
 72
    45
 73
    62
  0
VERTEX
  5
210
  8
0
 62
     9
 10
0.0
 20
0.0
 30
0.0
 70
   128
 71
    63
 72
    51
 73
    52
  0
VERTEX
  5
211
  8
0
 62
     9
 10
0.0
 20
0.0
 30
0.0
 70
   128
 71
    57
 72
    51
 73
    64
  0
VERTEX
  5
212
  8
0
 62
     9
 10
0.0
 20
0.0
 30
0.0
 70
   128
 71
    65
 72
    19
 73
    56
  0
VERTEX
  5
213
  8
0
 62
     9
 10
0.0
 20
0.0
 30
0.0
 70
   128
 71
    66
 72
    45
 73
    59
  0
VERTEX
  5
214
  8
0
 62
     9
 10
0.0
 20
0.0
 30
0.0
 70
   128
 71
    13
 72
    33
 73
    34
  0
VERTEX
  5
215
  8
0
 62
     9
 10
0.0
 20
0.0
 30
0.0
 70
   128
 71
    11
 72
    67
 73
    43
  0
VERTEX
  5
216
  8
0
 62
     9
 10
0.0
 20
0.0
 30
0.0
 70
   128
 71
    27
 72
    25
 73
     4
  0
VERTEX
  5
217
  8
0
 62
     9
 10
0.0
 20
0.0
 30
0.0
 70
   128
 71
    29
 72
     7
 73
     9
  0
VERTEX
  5
218
  8
0
 62
     9
 10
0.0
 20
0.0
 30
0.0
 70
   128
 71
    25
 72
    21
 73
     3
  0
VERTEX
  5
219
  8
0
 62
     9
 10
0.0
 20
0.0
 30
0.0
 70
   128
 71
    37
 72
    16
 73
    34
  0
VERTEX
  5
21A
  8
0
 62
     9
 10
0.0
 20
0.0
 30
0.0
 70
   128
 71
     2
 72
    21
 73
    33
  0
VERTEX
  5
21B
  8
0
 62
     9
 10
0.0
 20
0.0
 30
0.0
 70
   128
 71
    42
 72
    19
 73
    40
  0
VERTEX
  5
21C
  8
0
 62
     9
 10
0.0
 20
0.0
 30
0.0
 70
   128
 71
    40
 72
    18
 73
    37
  0
VERTEX
  5
21D
  8
0
 62
     9
 10
0.0
 20
0.0
 30
0.0
 70
   128
 71
    59
 72
    47
 73
    68
  0
VERTEX
  5
21E
  8
0
 62
     9
 10
0.0
 20
0.0
 30
0.0
 70
   128
 71
    65
 72
    57
 73
    64
  0
VERTEX
  5
21F
  8
0
 62
     9
 10
0.0
 20
0.0
 30
0.0
 70
   128
 71
    31
 72
    11
 73
    43
  0
VERTEX
  5
220
  8
0
 62
     9
 10
0.0
 20
0.0
 30
0.0
 70
   128
 71
    28
 72
    11
 73
    31
  0
VERTEX
  5
221
  8
0
 62
     9
 10
0.0
 20
0.0
 30
0.0
 70
   128
 71
    67
 72
    68
 73
    47
  0
VERTEX
  5
222
  8
0
 62
     9
 10
0.0
 20
0.0
 30
0.0
 70
   128
 71
    67
 72
    47
 73
    43
  0
VERTEX
  5
223
  8
0
 62
     9
 10
0.0
 20
0.0
 30
0.0
 70
   128
 71
    68
 72
    66
 73
    59
  0
VERTEX
  5
224
  8
0
 62
     9
 10
0.0
 20
0.0
 30
0.0
 70
   128
 71
    66
 72
    62
 73
    45
  0
VERTEX
  5
225
  8
0
 62
     9
 10
0.0
 20
0.0
 30
0.0
 70
   128
 71
    62
 72
    61
 73
    53
  0
VERTEX
  5
226
  8
0
 62
     9
 10
0.0
 20
0.0
 30
0.0
 70
   128
 71
    61
 72
    63
 73
    52
  0
VERTEX
  5
227
  8
0
 62
     9
 10
0.0
 20
0.0
 30
0.0
 70
   128
 71
    63
 72
    64
 73
    51
  0
VERTEX
  5
228
  8
0
 62
     9
 10
0.0
 20
0.0
 30
0.0
 70
   128
 71
    65
 72
    56
 73
    57
  0
VERTEX
  5
229
  8
0
 62
     9
 10
0.0
 20
0.0
 30
0.0
 70
   128
 71
    19
 72
    42
 73
    56
  0
VERTEX
  5
22A
  8
0
 62
     9
 10
0.0
 20
0.0
 30
0.0
 70
   128
 71
    19
 72
    18
 73
    40
  0
VERTEX
  5
22B
  8
0
 62
     9
 10
0.0
 20
0.0
 30
0.0
 70
   128
 71
    18
 72
    16
 73
    37
  0
VERTEX
  5
22C
  8
0
 62
     9
 10
0.0
 20
0.0
 30
0.0
 70
   128
 71
    16
 72
    13
 73
    34
  0
VERTEX
  5
22D
  8
0
 62
     9
 10
0.0
 20
0.0
 30
0.0
 70
   128
 71
    13
 72
     2
 73
    33
  0
VERTEX
  5
22E
  8
0
 62
     9
 10
0.0
 20
0.0
 30
0.0
 70
   128
 71
     2
 72
     3
 73
    21
  0
VERTEX
  5
22F
  8
0
 62
     9
 10
0.0
 20
0.0
 30
0.0
 70
   128
 71
     3
 72
     4
 73
    25
  0
VERTEX
  5
230
  8
0
 62
     9
 10
0.0
 20
0.0
 30
0.0
 70
   128
 71
     4
 72
     7
 73
    27
  0
VERTEX
  5
231
  8
0
 62
     9
 10
0.0
 20
0.0
 30
0.0
 70
   128
 71
     9
 72
    28
 73
    29
  0
VERTEX
  5
232
  8
0
 62
     9
 10
0.0
 20
0.0
 30
0.0
 70
   128
 71
    28
 72
     9
 73
    11
  0
VERTEX
  5
233
  8
0
 62
     9
 10
0.0
 20
0.0
 30
0.0
 70
   128
 71
    11
 72
    10
 73
    69
  0
VERTEX
  5
234
  8
0
 62
     9
 10
0.0
 20
0.0
 30
0.0
 70
   128
 71
    62
 72
    71
 73
    70
  0
VERTEX
  5
235
  8
0
 62
     9
 10
0.0
 20
0.0
 30
0.0
 70
   128
 71
    66
 72
    68
 73
    72
  0
VERTEX
  5
236
  8
0
 62
     9
 10
0.0
 20
0.0
 30
0.0
 70
   128
 71
    63
 72
    73
 73
    64
  0
VERTEX
  5
237
  8
0
 62
     9
 10
0.0
 20
0.0
 30
0.0
 70
   128
 71
    74
 72
    63
 73
    61
  0
VERTEX
  5
238
  8
0
 62
     9
 10
0.0
 20
0.0
 30
0.0
 70
   128
 71
    64
 72
    75
 73
    65
  0
VERTEX
  5
239
  8
0
 62
     9
 10
0.0
 20
0.0
 30
0.0
 70
   128
 71
    75
 72
    64
 73
    76
  0
VERTEX
  5
23A
  8
0
 62
     9
 10
0.0
 20
0.0
 30
0.0
 70
   128
 71
    19
 72
    65
 73
    20
  0
VERTEX
  5
23B
  8
0
 62
     9
 10
0.0
 20
0.0
 30
0.0
 70
   128
 71
    75
 72
    20
 73
    65
  0
VERTEX
  5
23C
  8
0
 62
     9
 10
0.0
 20
0.0
 30
0.0
 70
   128
 71
    63
 72
    74
 73
    73
  0
VERTEX
  5
23D
  8
0
 62
     9
 10
0.0
 20
0.0
 30
0.0
 70
   128
 71
    73
 72
    76
 73
    64
  0
VERTEX
  5
23E
  8
0
 62
     9
 10
0.0
 20
0.0
 30
0.0
 70
   128
 71
    70
 72
    74
 73
    62
  0
VERTEX
  5
23F
  8
0
 62
     9
 10
0.0
 20
0.0
 30
0.0
 70
   128
 71
    74
 72
    61
 73
    62
  0
VERTEX
  5
240
  8
0
 62
     9
 10
0.0
 20
0.0
 30
0.0
 70
   128
 71
    66
 72
    72
 73
    71
  0
VERTEX
  5
241
  8
0
 62
     9
 10
0.0
 20
0.0
 30
0.0
 70
   128
 71
    66
 72
    71
 73
    62
  0
VERTEX
  5
242
  8
0
 62
     9
 10
0.0
 20
0.0
 30
0.0
 70
   128
 71
    67
 72
    69
 73
    72
  0
VERTEX
  5
243
  8
0
 62
     9
 10
0.0
 20
0.0
 30
0.0
 70
   128
 71
    67
 72
    72
 73
    68
  0
VERTEX
  5
244
  8
0
 62
     9
 10
0.0
 20
0.0
 30
0.0
 70
   128
 71
    69
 72
    67
 73
    11
  0
SEQEND
  5
245
  8
0
 62
     9
  0
ENDBLK
  5
248
  8
0
  0
BLOCK
  8
0
  2
40
 70
     0
 10
0.0
 20
0.0
 30
0.0
  3
40
  1

  0
POLYLINE
  5
24A
  8
0
 62
     9
 66
     1
 10
0.0
 20
0.0
 30
0.0
 70
    64
 71
   178
 72
   330
  0
VERTEX
  5
24B
  8
0
 10
162.0910034179688
 20
13.67143440246582
 30
-19.72403907775879
 70
   192
  0
VERTEX
  5
24C
  8
0
 10
164.5861663818359
 20
14.84174728393555
 30
-19.72403907775879
 70
   192
  0
VERTEX
  5
24D
  8
0
 10
163.5596466064453
 20
14.68577003479004
 30
-19.24216079711914
 70
   192
  0
VERTEX
  5
24E
  8
0
 10
170.0
 20
15.80683517456055
 30
-19.72403907775879
 70
   192
  0
VERTEX
  5
24F
  8
0
 10
168.682861328125
 20
15.97693252563477
 30
-19.24216079711914
 70
   192
  0
VERTEX
  5
250
  8
0
 10
167.2493591308594
 20
15.56283473968506
 30
-19.72403907775879
 70
   192
  0
VERTEX
  5
251
  8
0
 10
166.0696563720703
 20
15.541015625
 30
-19.24216079711914
 70
   192
  0
VERTEX
  5
252
  8
0
 10
161.2268524169922
 20
13.42693996429443
 30
-19.24216079711914
 70
   192
  0
VERTEX
  5
253
  8
0
 10
159.8367614746094
 20
12.08920764923096
 30
-19.72403907775879
 70
   192
  0
VERTEX
  5
254
  8
0
 10
159.13818359375
 20
11.80189990997314
 30
-19.24216079711914
 70
   192
  0
VERTEX
  5
255
  8
0
 10
157.8910522460938
 20
10.1414680480957
 30
-19.72403907775879
 70
   192
  0
VERTEX
  5
256
  8
0
 10
156.3137359619141
 20
7.88624095916748
 30
-19.72403907775879
 70
   192
  0
VERTEX
  5
257
  8
0
 10
157.3447418212891
 20
9.853699684143066
 30
-19.24216079711914
 70
   192
  0
VERTEX
  5
258
  8
0
 10
155.8954925537109
 20
7.6364426612854
 30
-19.24216079711914
 70
   192
  0
VERTEX
  5
259
  8
0
 10
155.1521148681641
 20
5.39224100112915
 30
-19.72403907775879
 70
   192
  0
VERTEX
  5
25A
  8
0
 10
154.8299560546875
 20
5.210581302642822
 30
-19.24216079711914
 70
   192
  0
VERTEX
  5
25B
  8
0
 10
154.4394989013672
 20
2.742140054702759
 30
-19.72403907775879
 70
   192
  0
VERTEX
  5
25C
  8
0
 10
154.1793212890625
 20
2.641396999359131
 30
-19.24216079711914
 70
   192
  0
VERTEX
  5
25D
  8
0
 10
153.9684600830078
 20
-0.000000000000008
 30
-19.24216079711914
 70
   192
  0
VERTEX
  5
25E
  8
0
 10
154.1931610107422
 20
-0.000000000000008
 30
-19.72403907775879
 70
   192
  0
VERTEX
  5
25F
  8
0
 10
171.333740234375
 20
15.97417449951172
 30
-19.24216079711914
 70
   192
  0
VERTEX
  5
260
  8
0
 10
172.7407073974609
 20
15.5656795501709
 30
-19.72403907775879
 70
   192
  0
VERTEX
  5
261
  8
0
 10
175.4014587402344
 20
14.85663318634033
 30
-19.72403907775879
 70
   192
  0
VERTEX
  5
262
  8
0
 10
173.9459533691406
 20
15.53208827972412
 30
-19.24216079711914
 70
   192
  0
VERTEX
  5
263
  8
0
 10
177.9016571044922
 20
13.69695091247559
 30
-19.72403907775879
 70
   192
  0
VERTEX
  5
264
  8
0
 10
176.4457244873047
 20
14.66703319549561
 30
-19.24216079711914
 70
   192
  0
VERTEX
  5
265
  8
0
 10
178.7689208984375
 20
13.40518951416016
 30
-19.24216079711914
 70
   192
  0
VERTEX
  5
266
  8
0
 10
180.1624450683594
 20
12.11737251281738
 30
-19.72403907775879
 70
   192
  0
VERTEX
  5
267
  8
0
 10
182.1130676269531
 20
10.16731071472168
 30
-19.72403907775879
 70
   192
  0
VERTEX
  5
268
  8
0
 10
180.8577728271484
 20
11.7774658203125
 30
-19.24216079711914
 70
   192
  0
VERTEX
  5
269
  8
0
 10
183.6949462890625
 20
7.908486843109131
 30
-19.72403907775879
 70
   192
  0
VERTEX
  5
26A
  8
0
 10
182.6502227783203
 20
9.829081535339355
 30
-19.24216079711914
 70
   192
  0
VERTEX
  5
26B
  8
0
 10
184.09619140625
 20
7.612906455993652
 30
-19.24216079711914
 70
   192
  0
VERTEX
  5
26C
  8
0
 10
184.8611145019531
 20
5.410007953643799
 30
-19.72403907775879
 70
   192
  0
VERTEX
  5
26D
  8
0
 10
185.5748138427734
 20
2.746611595153809
 30
-19.72403907775879
 70
   192
  0
VERTEX
  5
26E
  8
0
 10
185.1573028564453
 20
5.190367221832275
 30
-19.24216079711914
 70
   192
  0
VERTEX
  5
26F
  8
0
 10
185.8068389892578
 20
-0.00000000000001
 30
-19.72403907775879
 70
   192
  0
VERTEX
  5
270
  8
0
 10
185.806640625
 20
2.637073516845703
 30
-19.24216079711914
 70
   192
  0
VERTEX
  5
271
  8
0
 10
186.0315399169922
 20
-0.00000000000001
 30
-19.24216079711914
 70
   192
  0
VERTEX
  5
272
  8
0
 10
165.3911895751953
 20
14.16923999786377
 30
-20.30142211914062
 70
   192
  0
VERTEX
  5
273
  8
0
 10
169.9944763183594
 20
14.89948463439941
 30
-20.30142211914062
 70
   192
  0
VERTEX
  5
274
  8
0
 10
174.6020660400391
 20
14.17202186584473
 30
-20.30142211914062
 70
   192
  0
VERTEX
  5
275
  8
0
 10
178.7507781982422
 20
12.05877780914307
 30
-20.30142211914062
 70
   192
  0
VERTEX
  5
276
  8
0
 10
182.0523986816406
 20
8.760894775390625
 30
-20.30142211914062
 70
   192
  0
VERTEX
  5
277
  8
0
 10
184.1688079833984
 20
4.610610008239746
 30
-20.30142211914062
 70
   192
  0
VERTEX
  5
278
  8
0
 10
184.9005279541016
 20
-0.0000000000000081
 30
-20.30142211914062
 70
   192
  0
VERTEX
  5
279
  8
0
 10
161.2411651611328
 20
12.05431270599365
 30
-20.30142211914062
 70
   192
  0
VERTEX
  5
27A
  8
0
 10
157.9422149658203
 20
8.75177001953125
 30
-20.30142211914062
 70
   192
  0
VERTEX
  5
27B
  8
0
 10
155.8288269042969
 20
4.604448795318604
 30
-20.30142211914062
 70
   192
  0
VERTEX
  5
27C
  8
0
 10
155.1022033691406
 20
0.000001119667786
 30
-20.30142211914062
 70
   192
  0
VERTEX
  5
27D
  8
0
 10
168.3526306152344
 20
9.355792999267578
 30
-20.30142211914062
 70
   192
  0
VERTEX
  5
27E
  8
0
 10
171.6473693847656
 20
9.355792999267578
 30
-22.30142211914062
 70
   192
  0
VERTEX
  5
27F
  8
0
 10
171.6510772705078
 20
9.355420112609863
 30
-20.30142211914062
 70
   192
  0
VERTEX
  5
280
  8
0
 10
174.7459259033203
 20
8.229103088378906
 30
-22.30142211914062
 70
   192
  0
VERTEX
  5
281
  8
0
 10
174.7530517578125
 20
8.225282669067383
 30
-20.30142211914062
 70
   192
  0
VERTEX
  5
282
  8
0
 10
177.2801361083984
 20
6.102670669555664
 30
-20.30142211914062
 70
   192
  0
VERTEX
  5
283
  8
0
 10
177.2744750976562
 20
6.109577655792236
 30
-22.30142211914062
 70
   192
  0
VERTEX
  5
284
  8
0
 10
178.9279174804688
 20
3.245661973953247
 30
-20.30142211914062
 70
   192
  0
VERTEX
  5
285
  8
0
 10
178.9261169433594
 20
3.251539468765259
 30
-22.30142211914062
 70
   192
  0
VERTEX
  5
286
  8
0
 10
179.5
 20
-0.0000000000000088
 30
-20.30142211914062
 70
   192
  0
VERTEX
  5
287
  8
0
 10
179.5
 20
-0.0000000000000088
 30
-22.30142211914062
 70
   192
  0
VERTEX
  5
288
  8
0
 10
168.3489227294922
 20
9.355420112609863
 30
-22.30142211914062
 70
   192
  0
VERTEX
  5
289
  8
0
 10
165.2469482421875
 20
8.225282669067383
 30
-22.30142211914062
 70
   192
  0
VERTEX
  5
28A
  8
0
 10
165.2540740966797
 20
8.229103088378906
 30
-20.30142211914062
 70
   192
  0
VERTEX
  5
28B
  8
0
 10
162.7255249023438
 20
6.109577655792236
 30
-20.30142211914062
 70
   192
  0
VERTEX
  5
28C
  8
0
 10
162.7198638916016
 20
6.102670669555664
 30
-22.30142211914062
 70
   192
  0
VERTEX
  5
28D
  8
0
 10
161.0738830566406
 20
3.251539468765259
 30
-20.30142211914062
 70
   192
  0
VERTEX
  5
28E
  8
0
 10
161.0720825195312
 20
3.245661973953247
 30
-22.30142211914062
 70
   192
  0
VERTEX
  5
28F
  8
0
 10
160.5
 20
-0.00000000000001
 30
-22.30142211914062
 70
   192
  0
VERTEX
  5
290
  8
0
 10
160.5
 20
-0.00000000000001
 30
-20.30142211914062
 70
   192
  0
VERTEX
  5
291
  8
0
 10
171.9810333251953
 20
16.37958717346191
 30
-17.12907028198242
 70
   192
  0
VERTEX
  5
292
  8
0
 10
174.2643127441406
 20
15.93832302093506
 30
-6.301421642303467
 70
   192
  0
VERTEX
  5
293
  8
0
 10
170.0
 20
16.5
 30
-6.301421642303467
 70
   192
  0
VERTEX
  5
294
  8
0
 10
178.2481536865234
 20
14.29759311676025
 30
-6.301421642303467
 70
   192
  0
VERTEX
  5
295
  8
0
 10
175.8475952148438
 20
15.43116283416748
 30
-17.12907028198242
 70
   192
  0
VERTEX
  5
296
  8
0
 10
179.3790130615234
 20
13.58527851104736
 30
-17.12907028198242
 70
   192
  0
VERTEX
  5
297
  8
0
 10
181.6766052246094
 20
11.67012882232666
 30
-6.301421642303467
 70
   192
  0
VERTEX
  5
298
  8
0
 10
182.3560028076172
 20
10.94782161712646
 30
-17.12907028198242
 70
   192
  0
VERTEX
  5
299
  8
0
 10
184.2955017089844
 20
8.255291938781738
 30
-6.301421642303467
 70
   192
  0
VERTEX
  5
29A
  8
0
 10
185.944580078125
 20
4.277408599853516
 30
-6.301421642303467
 70
   192
  0
VERTEX
  5
29B
  8
0
 10
184.615234375
 20
7.674627780914307
 30
-17.12907028198242
 70
   192
  0
VERTEX
  5
29C
  8
0
 10
186.0277862548828
 20
3.954491853713989
 30
-17.12907028198242
 70
   192
  0
VERTEX
  5
29D
  8
0
 10
186.5
 20
-0.000000000000008
 30
-6.301421642303467
 70
   192
  0
VERTEX
  5
29E
  8
0
 10
186.5
 20
-0.000000000000008
 30
-17.12907028198242
 70
   192
  0
VERTEX
  5
29F
  8
0
 10
168.0014038085938
 20
16.37630844116211
 30
-17.12907028198242
 70
   192
  0
VERTEX
  5
2A0
  8
0
 10
165.7180786132812
 20
15.92774868011475
 30
-6.301421642303467
 70
   192
  0
VERTEX
  5
2A1
  8
0
 10
164.1424102783203
 20
15.41544532775879
 30
-17.12907028198242
 70
   192
  0
VERTEX
  5
2A2
  8
0
 10
161.7441864013672
 20
14.27095699310303
 30
-6.301421642303467
 70
   192
  0
VERTEX
  5
2A3
  8
0
 10
160.6257019042969
 20
13.56156158447266
 30
-17.12907028198242
 70
   192
  0
VERTEX
  5
2A4
  8
0
 10
157.6493530273438
 20
10.92177772521973
 30
-17.12907028198242
 70
   192
  0
VERTEX
  5
2A5
  8
0
 10
158.3363647460938
 20
11.65275382995605
 30
-6.301421642303467
 70
   192
  0
VERTEX
  5
2A6
  8
0
 10
155.7135620117188
 20
8.232069969177246
 30
-6.301421642303467
 70
   192
  0
VERTEX
  5
2A7
  8
0
 10
155.3934783935547
 20
7.650662422180176
 30
-17.12907028198242
 70
   192
  0
VERTEX
  5
2A8
  8
0
 10
154.0682373046875
 20
4.25755500793457
 30
-6.301421642303467
 70
   192
  0
VERTEX
  5
2A9
  8
0
 10
153.9856414794922
 20
3.93772554397583
 30
-17.12907028198242
 70
   192
  0
VERTEX
  5
2AA
  8
0
 10
153.5
 20
-0.00000000000001
 30
-6.301421642303467
 70
   192
  0
VERTEX
  5
2AB
  8
0
 10
153.5
 20
-0.00000000000001
 30
-17.12907028198242
 70
   192
  0
VERTEX
  5
2AC
  8
0
 10
182.9043731689453
 20
-10.29491329193115
 30
-17.12907028198242
 70
   192
  0
VERTEX
  5
2AD
  8
0
 10
184.8716278076172
 20
-7.165178298950195
 30
-17.12907028198242
 70
   192
  0
VERTEX
  5
2AE
  8
0
 10
183.6268920898438
 20
-8.423657417297363
 30
-19.24216079711914
 70
   192
  0
VERTEX
  5
2AF
  8
0
 10
180.2899322509766
 20
-12.90907573699951
 30
-17.12907028198242
 70
   192
  0
VERTEX
  5
2B0
  8
0
 10
179.6648254394531
 20
-12.77343559265137
 30
-19.24216079711914
 70
   192
  0
VERTEX
  5
2B1
  8
0
 10
177.1574096679688
 20
-14.87245178222656
 30
-17.12907028198242
 70
   192
  0
VERTEX
  5
2B2
  8
0
 10
185.7522735595703
 20
-2.94180965423584
 30
-19.24216079711914
 70
   192
  0
VERTEX
  5
2B3
  8
0
 10
186.0941925048828
 20
-3.675676345825195
 30
-17.12907028198242
 70
   192
  0
VERTEX
  5
2B4
  8
0
 10
170.0
 20
-16.5
 30
-17.12907028198242
 70
   192
  0
VERTEX
  5
2B5
  8
0
 10
168.5279541015625
 20
-15.96325969696045
 30
-19.24216079711914
 70
   192
  0
VERTEX
  5
2B6
  8
0
 10
166.3198089599609
 20
-16.07907104492188
 30
-17.12907028198242
 70
   192
  0
VERTEX
  5
2B7
  8
0
 10
173.6681976318359
 20
-16.08550262451172
 30
-17.12907028198242
 70
   192
  0
VERTEX
  5
2B8
  8
0
 10
174.3985595703125
 20
-15.40903472900391
 30
-19.24216079711914
 70
   192
  0
VERTEX
  5
2B9
  8
0
 10
171.4891967773438
 20
-15.96034240722656
 30
-19.24216079711914
 70
   192
  0
VERTEX
  5
2BA
  8
0
 10
159.7086486816406
 20
-12.87930011749268
 30
-17.12907028198242
 70
   192
  0
VERTEX
  5
2BB
  8
0
 10
160.3355865478516
 20
-12.80131149291992
 30
-19.24216079711914
 70
   192
  0
VERTEX
  5
2BC
  8
0
 10
158.1463928222656
 20
-10.80583572387695
 30
-19.24216079711914
 70
   192
  0
VERTEX
  5
2BD
  8
0
 10
162.8563079833984
 20
-14.3576717376709
 30
-19.24216079711914
 70
   192
  0
VERTEX
  5
2BE
  8
0
 10
162.8325653076172
 20
-14.84850025177002
 30
-17.12907028198242
 70
   192
  0
VERTEX
  5
2BF
  8
0
 10
165.6194915771484
 20
-15.42062473297119
 30
-19.24216079711914
 70
   192
  0
VERTEX
  5
2C0
  8
0
 10
157.1002197265625
 20
-10.2686824798584
 30
-17.12907028198242
 70
   192
  0
VERTEX
  5
2C1
  8
0
 10
156.3624725341797
 20
-8.442672729492188
 30
-19.24216079711914
 70
   192
  0
VERTEX
  5
2C2
  8
0
 10
155.1386413574219
 20
-7.144209384918213
 30
-17.12907028198242
 70
   192
  0
VERTEX
  5
2C3
  8
0
 10
155.0426788330078
 20
-5.793317794799805
 30
-19.24216079711914
 70
   192
  0
VERTEX
  5
2C4
  8
0
 10
153.9199981689453
 20
-3.662567853927612
 30
-17.12907028198242
 70
   192
  0
VERTEX
  5
2C5
  8
0
 10
154.2327270507812
 20
-2.946578025817871
 30
-19.24216079711914
 70
   192
  0
VERTEX
  5
2C6
  8
0
 10
177.1541442871094
 20
-14.333251953125
 30
-19.24216079711914
 70
   192
  0
VERTEX
  5
2C7
  8
0
 10
181.8472900390625
 20
-10.78171825408936
 30
-19.24216079711914
 70
   192
  0
VERTEX
  5
2C8
  8
0
 10
184.9428253173828
 20
-5.778966426849365
 30
-19.24216079711914
 70
   192
  0
VERTEX
  5
2C9
  8
0
 10
185.9317626953125
 20
-4.25755500793457
 30
-6.301421642303467
 70
   192
  0
VERTEX
  5
2CA
  8
0
 10
174.2819213867188
 20
-15.92774868011475
 30
-6.301421642303467
 70
   192
  0
VERTEX
  5
2CB
  8
0
 10
178.2558135986328
 20
-14.27095699310303
 30
-6.301421642303467
 70
   192
  0
VERTEX
  5
2CC
  8
0
 10
181.6636352539062
 20
-11.65275382995605
 30
-6.301421642303467
 70
   192
  0
VERTEX
  5
2CD
  8
0
 10
184.2864379882812
 20
-8.232069969177246
 30
-6.301421642303467
 70
   192
  0
VERTEX
  5
2CE
  8
0
 10
165.7356872558594
 20
-15.93832302093506
 30
-6.301421642303467
 70
   192
  0
VERTEX
  5
2CF
  8
0
 10
170.0
 20
-16.5
 30
-6.301421642303467
 70
   192
  0
VERTEX
  5
2D0
  8
0
 10
158.3233947753906
 20
-11.67012882232666
 30
-6.301421642303467
 70
   192
  0
VERTEX
  5
2D1
  8
0
 10
155.7044982910156
 20
-8.255291938781738
 30
-6.301421642303467
 70
   192
  0
VERTEX
  5
2D2
  8
0
 10
161.7518463134766
 20
-14.29759311676025
 30
-6.301421642303467
 70
   192
  0
VERTEX
  5
2D3
  8
0
 10
154.055419921875
 20
-4.277408599853516
 30
-6.301421642303467
 70
   192
  0
VERTEX
  5
2D4
  8
0
 10
178.9279174804688
 20
-3.245661973953247
 30
-22.30142211914062
 70
   192
  0
VERTEX
  5
2D5
  8
0
 10
174.7530517578125
 20
-8.225282669067383
 30
-22.30142211914062
 70
   192
  0
VERTEX
  5
2D6
  8
0
 10
177.2801361083984
 20
-6.102670669555664
 30
-22.30142211914062
 70
   192
  0
VERTEX
  5
2D7
  8
0
 10
161.0738830566406
 20
-3.251539468765259
 30
-22.30142211914062
 70
   192
  0
VERTEX
  5
2D8
  8
0
 10
162.7255249023438
 20
-6.109577655792236
 30
-22.30142211914062
 70
   192
  0
VERTEX
  5
2D9
  8
0
 10
171.6510772705078
 20
-9.355420112609863
 30
-22.30142211914062
 70
   192
  0
VERTEX
  5
2DA
  8
0
 10
168.3526306152344
 20
-9.355792999267578
 30
-22.30142211914062
 70
   192
  0
VERTEX
  5
2DB
  8
0
 10
165.2540740966797
 20
-8.229103088378906
 30
-22.30142211914062
 70
   192
  0
VERTEX
  5
2DC
  8
0
 10
178.9261169433594
 20
-3.251539468765259
 30
-20.30142211914062
 70
   192
  0
VERTEX
  5
2DD
  8
0
 10
171.6473693847656
 20
-9.355792999267578
 30
-20.30142211914062
 70
   192
  0
VERTEX
  5
2DE
  8
0
 10
174.7459259033203
 20
-8.229103088378906
 30
-20.30142211914062
 70
   192
  0
VERTEX
  5
2DF
  8
0
 10
177.2744750976562
 20
-6.109577655792236
 30
-20.30142211914062
 70
   192
  0
VERTEX
  5
2E0
  8
0
 10
165.2469482421875
 20
-8.225282669067383
 30
-20.30142211914062
 70
   192
  0
VERTEX
  5
2E1
  8
0
 10
168.3489227294922
 20
-9.355420112609863
 30
-20.30142211914062
 70
   192
  0
VERTEX
  5
2E2
  8
0
 10
161.0720825195312
 20
-3.245661973953247
 30
-20.30142211914062
 70
   192
  0
VERTEX
  5
2E3
  8
0
 10
162.7198638916016
 20
-6.102670669555664
 30
-20.30142211914062
 70
   192
  0
VERTEX
  5
2E4
  8
0
 10
174.6072845458984
 20
-14.17000484466553
 30
-20.30142211914062
 70
   192
  0
VERTEX
  5
2E5
  8
0
 10
155.8288421630859
 20
-4.603777408599854
 30
-20.30142211914062
 70
   192
  0
VERTEX
  5
2E6
  8
0
 10
157.9472503662109
 20
-8.76061725616455
 30
-20.30142211914062
 70
   192
  0
VERTEX
  5
2E7
  8
0
 10
165.3960571289062
 20
-14.17202281951904
 30
-20.30142211914062
 70
   192
  0
VERTEX
  5
2E8
  8
0
 10
170.0067291259766
 20
-14.8989725112915
 30
-20.30142211914062
 70
   192
  0
VERTEX
  5
2E9
  8
0
 10
178.7628479003906
 20
-12.05067348480225
 30
-20.30142211914062
 70
   192
  0
VERTEX
  5
2EA
  8
0
 10
184.1728668212891
 20
-4.600928783416748
 30
-20.30142211914062
 70
   192
  0
VERTEX
  5
2EB
  8
0
 10
182.0564880371094
 20
-8.75534439086914
 30
-20.30142211914062
 70
   192
  0
VERTEX
  5
2EC
  8
0
 10
161.2437286376953
 20
-12.05557823181152
 30
-20.30142211914062
 70
   192
  0
VERTEX
  5
2ED
  8
0
 10
185.5462799072266
 20
-2.905277729034424
 30
-19.72403907775879
 70
   192
  0
VERTEX
  5
2EE
  8
0
 10
184.7476806640625
 20
-5.712116718292236
 30
-19.72403907775879
 70
   192
  0
VERTEX
  5
2EF
  8
0
 10
181.6874542236328
 20
-10.65437793731689
 30
-19.72403907775879
 70
   192
  0
VERTEX
  5
2F0
  8
0
 10
183.4463806152344
 20
-8.324337005615234
 30
-19.72403907775879
 70
   192
  0
VERTEX
  5
2F1
  8
0
 10
174.3191070556641
 20
-15.20448398590088
 30
-19.72403907775879
 70
   192
  0
VERTEX
  5
2F2
  8
0
 10
177.0435638427734
 20
-14.15642929077148
 30
-19.72403907775879
 70
   192
  0
VERTEX
  5
2F3
  8
0
 10
179.5289611816406
 20
-12.62188339233398
 30
-19.72403907775879
 70
   192
  0
VERTEX
  5
2F4
  8
0
 10
168.5316772460938
 20
-15.7366361618042
 30
-19.72403907775879
 70
   192
  0
VERTEX
  5
2F5
  8
0
 10
171.451416015625
 20
-15.7395133972168
 30
-19.72403907775879
 70
   192
  0
VERTEX
  5
2F6
  8
0
 10
162.9461212158203
 20
-14.13235282897949
 30
-19.72403907775879
 70
   192
  0
VERTEX
  5
2F7
  8
0
 10
165.6630859375
 20
-15.19305610656738
 30
-19.72403907775879
 70
   192
  0
VERTEX
  5
2F8
  8
0
 10
158.3187561035156
 20
-10.63059711456299
 30
-19.72403907775879
 70
   192
  0
VERTEX
  5
2F9
  8
0
 10
160.4706420898438
 20
-12.59439849853516
 30
-19.72403907775879
 70
   192
  0
VERTEX
  5
2FA
  8
0
 10
155.2666168212891
 20
-5.697966575622559
 30
-19.72403907775879
 70
   192
  0
VERTEX
  5
2FB
  8
0
 10
156.5641021728516
 20
-8.305587768554688
 30
-19.72403907775879
 70
   192
  0
VERTEX
  5
2FC
  8
0
 10
154.468505859375
 20
-2.900576114654541
 30
-19.72403907775879
 70
   192
  0
VERTEX
  5
2FD
  8
0
 62
     9
 10
0.0
 20
0.0
 30
0.0
 70
   128
 71
     3
 72
     2
 73
     1
  0
VERTEX
  5
2FE
  8
0
 62
     9
 10
0.0
 20
0.0
 30
0.0
 70
   128
 71
     6
 72
     5
 73
     4
  0
VERTEX
  5
2FF
  8
0
 62
     9
 10
0.0
 20
0.0
 30
0.0
 70
   128
 71
     7
 72
     6
 73
     2
  0
VERTEX
  5
300
  8
0
 62
     9
 10
0.0
 20
0.0
 30
0.0
 70
   128
 71
     2
 72
     3
 73
     7
  0
VERTEX
  5
301
  8
0
 62
     9
 10
0.0
 20
0.0
 30
0.0
 70
   128
 71
     9
 72
     8
 73
     1
  0
VERTEX
  5
302
  8
0
 62
     9
 10
0.0
 20
0.0
 30
0.0
 70
   128
 71
     3
 72
     1
 73
     8
  0
VERTEX
  5
303
  8
0
 62
     9
 10
0.0
 20
0.0
 30
0.0
 70
   128
 71
     9
 72
    11
 73
    10
  0
VERTEX
  5
304
  8
0
 62
     9
 10
0.0
 20
0.0
 30
0.0
 70
   128
 71
     9
 72
    10
 73
     8
  0
VERTEX
  5
305
  8
0
 62
     9
 10
0.0
 20
0.0
 30
0.0
 70
   128
 71
    14
 72
    13
 73
    12
  0
VERTEX
  5
306
  8
0
 62
     9
 10
0.0
 20
0.0
 30
0.0
 70
   128
 71
     6
 72
     7
 73
     5
  0
VERTEX
  5
307
  8
0
 62
     9
 10
0.0
 20
0.0
 30
0.0
 70
   128
 71
    17
 72
    16
 73
    15
  0
VERTEX
  5
308
  8
0
 62
     9
 10
0.0
 20
0.0
 30
0.0
 70
   128
 71
    11
 72
    12
 73
    13
  0
VERTEX
  5
309
  8
0
 62
     9
 10
0.0
 20
0.0
 30
0.0
 70
   128
 71
    16
 72
    14
 73
    15
  0
VERTEX
  5
30A
  8
0
 62
     9
 10
0.0
 20
0.0
 30
0.0
 70
   128
 71
    18
 72
    16
 73
    17
  0
VERTEX
  5
30B
  8
0
 62
     9
 10
0.0
 20
0.0
 30
0.0
 70
   128
 71
    15
 72
    14
 73
    12
  0
VERTEX
  5
30C
  8
0
 62
     9
 10
0.0
 20
0.0
 30
0.0
 70
   128
 71
    18
 72
    20
 73
    19
  0
VERTEX
  5
30D
  8
0
 62
     9
 10
0.0
 20
0.0
 30
0.0
 70
   128
 71
    13
 72
    10
 73
    11
  0
VERTEX
  5
30E
  8
0
 62
     9
 10
0.0
 20
0.0
 30
0.0
 70
   128
 71
    17
 72
    20
 73
    18
  0
VERTEX
  5
30F
  8
0
 62
     9
 10
0.0
 20
0.0
 30
0.0
 70
   128
 71
    22
 72
     4
 73
    21
  0
VERTEX
  5
310
  8
0
 62
     9
 10
0.0
 20
0.0
 30
0.0
 70
   128
 71
     5
 72
    21
 73
     4
  0
VERTEX
  5
311
  8
0
 62
     9
 10
0.0
 20
0.0
 30
0.0
 70
   128
 71
    24
 72
    23
 73
    22
  0
VERTEX
  5
312
  8
0
 62
     9
 10
0.0
 20
0.0
 30
0.0
 70
   128
 71
    22
 72
    21
 73
    24
  0
VERTEX
  5
313
  8
0
 62
     9
 10
0.0
 20
0.0
 30
0.0
 70
   128
 71
    23
 72
    26
 73
    25
  0
VERTEX
  5
314
  8
0
 62
     9
 10
0.0
 20
0.0
 30
0.0
 70
   128
 71
    26
 72
    23
 73
    24
  0
VERTEX
  5
315
  8
0
 62
     9
 10
0.0
 20
0.0
 30
0.0
 70
   128
 71
    28
 72
    25
 73
    27
  0
VERTEX
  5
316
  8
0
 62
     9
 10
0.0
 20
0.0
 30
0.0
 70
   128
 71
    26
 72
    27
 73
    25
  0
VERTEX
  5
317
  8
0
 62
     9
 10
0.0
 20
0.0
 30
0.0
 70
   128
 71
    30
 72
    29
 73
    28
  0
VERTEX
  5
318
  8
0
 62
     9
 10
0.0
 20
0.0
 30
0.0
 70
   128
 71
    28
 72
    27
 73
    30
  0
VERTEX
  5
319
  8
0
 62
     9
 10
0.0
 20
0.0
 30
0.0
 70
   128
 71
    29
 72
    32
 73
    31
  0
VERTEX
  5
31A
  8
0
 62
     9
 10
0.0
 20
0.0
 30
0.0
 70
   128
 71
    32
 72
    29
 73
    30
  0
VERTEX
  5
31B
  8
0
 62
     9
 10
0.0
 20
0.0
 30
0.0
 70
   128
 71
    34
 72
    31
 73
    33
  0
VERTEX
  5
31C
  8
0
 62
     9
 10
0.0
 20
0.0
 30
0.0
 70
   128
 71
    32
 72
    33
 73
    31
  0
VERTEX
  5
31D
  8
0
 62
     9
 10
0.0
 20
0.0
 30
0.0
 70
   128
 71
    36
 72
    35
 73
    34
  0
VERTEX
  5
31E
  8
0
 62
     9
 10
0.0
 20
0.0
 30
0.0
 70
   128
 71
    34
 72
    33
 73
    36
  0
VERTEX
  5
31F
  8
0
 62
     9
 10
0.0
 20
0.0
 30
0.0
 70
   128
 71
    35
 72
    38
 73
    37
  0
VERTEX
  5
320
  8
0
 62
     9
 10
0.0
 20
0.0
 30
0.0
 70
   128
 71
    38
 72
    35
 73
    36
  0
VERTEX
  5
321
  8
0
 62
     9
 10
0.0
 20
0.0
 30
0.0
 70
   128
 71
    38
 72
    39
 73
    37
  0
VERTEX
  5
322
  8
0
 62
     9
 10
0.0
 20
0.0
 30
0.0
 70
   128
 71
     6
 72
    41
 73
    40
  0
VERTEX
  5
323
  8
0
 62
     9
 10
0.0
 20
0.0
 30
0.0
 70
   128
 71
     6
 72
    40
 73
     2
  0
VERTEX
  5
324
  8
0
 62
     9
 10
0.0
 20
0.0
 30
0.0
 70
   128
 71
    22
 72
    41
 73
     4
  0
VERTEX
  5
325
  8
0
 62
     9
 10
0.0
 20
0.0
 30
0.0
 70
   128
 71
     6
 72
     4
 73
    41
  0
VERTEX
  5
326
  8
0
 62
     9
 10
0.0
 20
0.0
 30
0.0
 70
   128
 71
    42
 72
    41
 73
    22
  0
VERTEX
  5
327
  8
0
 62
     9
 10
0.0
 20
0.0
 30
0.0
 70
   128
 71
    42
 72
    22
 73
    23
  0
VERTEX
  5
328
  8
0
 62
     9
 10
0.0
 20
0.0
 30
0.0
 70
   128
 71
    23
 72
    25
 73
    42
  0
VERTEX
  5
329
  8
0
 62
     9
 10
0.0
 20
0.0
 30
0.0
 70
   128
 71
    25
 72
    28
 73
    43
  0
VERTEX
  5
32A
  8
0
 62
     9
 10
0.0
 20
0.0
 30
0.0
 70
   128
 71
    42
 72
    25
 73
    43
  0
VERTEX
  5
32B
  8
0
 62
     9
 10
0.0
 20
0.0
 30
0.0
 70
   128
 71
    28
 72
    29
 73
    43
  0
VERTEX
  5
32C
  8
0
 62
     9
 10
0.0
 20
0.0
 30
0.0
 70
   128
 71
    29
 72
    31
 73
    44
  0
VERTEX
  5
32D
  8
0
 62
     9
 10
0.0
 20
0.0
 30
0.0
 70
   128
 71
    29
 72
    44
 73
    43
  0
VERTEX
  5
32E
  8
0
 62
     9
 10
0.0
 20
0.0
 30
0.0
 70
   128
 71
    45
 72
    44
 73
    31
  0
VERTEX
  5
32F
  8
0
 62
     9
 10
0.0
 20
0.0
 30
0.0
 70
   128
 71
     2
 72
    40
 73
     1
  0
VERTEX
  5
330
  8
0
 62
     9
 10
0.0
 20
0.0
 30
0.0
 70
   128
 71
    45
 72
    31
 73
    34
  0
VERTEX
  5
331
  8
0
 62
     9
 10
0.0
 20
0.0
 30
0.0
 70
   128
 71
    35
 72
    46
 73
    45
  0
VERTEX
  5
332
  8
0
 62
     9
 10
0.0
 20
0.0
 30
0.0
 70
   128
 71
    37
 72
    46
 73
    35
  0
VERTEX
  5
333
  8
0
 62
     9
 10
0.0
 20
0.0
 30
0.0
 70
   128
 71
    35
 72
    45
 73
    34
  0
VERTEX
  5
334
  8
0
 62
     9
 10
0.0
 20
0.0
 30
0.0
 70
   128
 71
    47
 72
     1
 73
    40
  0
VERTEX
  5
335
  8
0
 62
     9
 10
0.0
 20
0.0
 30
0.0
 70
   128
 71
    48
 72
     9
 73
    47
  0
VERTEX
  5
336
  8
0
 62
     9
 10
0.0
 20
0.0
 30
0.0
 70
   128
 71
     1
 72
    47
 73
     9
  0
VERTEX
  5
337
  8
0
 62
     9
 10
0.0
 20
0.0
 30
0.0
 70
   128
 71
    11
 72
    48
 73
    12
  0
VERTEX
  5
338
  8
0
 62
     9
 10
0.0
 20
0.0
 30
0.0
 70
   128
 71
    11
 72
     9
 73
    48
  0
VERTEX
  5
339
  8
0
 62
     9
 10
0.0
 20
0.0
 30
0.0
 70
   128
 71
    15
 72
    12
 73
    49
  0
VERTEX
  5
33A
  8
0
 62
     9
 10
0.0
 20
0.0
 30
0.0
 70
   128
 71
    48
 72
    49
 73
    12
  0
VERTEX
  5
33B
  8
0
 62
     9
 10
0.0
 20
0.0
 30
0.0
 70
   128
 71
    49
 72
    50
 73
    17
  0
VERTEX
  5
33C
  8
0
 62
     9
 10
0.0
 20
0.0
 30
0.0
 70
   128
 71
    17
 72
    15
 73
    49
  0
VERTEX
  5
33D
  8
0
 62
     9
 10
0.0
 20
0.0
 30
0.0
 70
   128
 71
    50
 72
    20
 73
    17
  0
VERTEX
  5
33E
  8
0
 62
     9
 10
0.0
 20
0.0
 30
0.0
 70
   128
 71
    53
 72
    52
 73
    51
  0
VERTEX
  5
33F
  8
0
 62
     9
 10
0.0
 20
0.0
 30
0.0
 70
   128
 71
    53
 72
    55
 73
    54
  0
VERTEX
  5
340
  8
0
 62
     9
 10
0.0
 20
0.0
 30
0.0
 70
   128
 71
    54
 72
    52
 73
    53
  0
VERTEX
  5
341
  8
0
 62
     9
 10
0.0
 20
0.0
 30
0.0
 70
   128
 71
    57
 72
    55
 73
    56
  0
VERTEX
  5
342
  8
0
 62
     9
 10
0.0
 20
0.0
 30
0.0
 70
   128
 71
    55
 72
    57
 73
    54
  0
VERTEX
  5
343
  8
0
 62
     9
 10
0.0
 20
0.0
 30
0.0
 70
   128
 71
    59
 72
    57
 73
    58
  0
VERTEX
  5
344
  8
0
 62
     9
 10
0.0
 20
0.0
 30
0.0
 70
   128
 71
    56
 72
    58
 73
    57
  0
VERTEX
  5
345
  8
0
 62
     9
 10
0.0
 20
0.0
 30
0.0
 70
   128
 71
    59
 72
    58
 73
    60
  0
VERTEX
  5
346
  8
0
 62
     9
 10
0.0
 20
0.0
 30
0.0
 70
   128
 71
    61
 72
    59
 73
    60
  0
VERTEX
  5
347
  8
0
 62
     9
 10
0.0
 20
0.0
 30
0.0
 70
   128
 71
    52
 72
    62
 73
    51
  0
VERTEX
  5
348
  8
0
 62
     9
 10
0.0
 20
0.0
 30
0.0
 70
   128
 71
    64
 72
    62
 73
    63
  0
VERTEX
  5
349
  8
0
 62
     9
 10
0.0
 20
0.0
 30
0.0
 70
   128
 71
    62
 72
    64
 73
    51
  0
VERTEX
  5
34A
  8
0
 62
     9
 10
0.0
 20
0.0
 30
0.0
 70
   128
 71
    66
 72
    65
 73
    63
  0
VERTEX
  5
34B
  8
0
 62
     9
 10
0.0
 20
0.0
 30
0.0
 70
   128
 71
    64
 72
    63
 73
    65
  0
VERTEX
  5
34C
  8
0
 62
     9
 10
0.0
 20
0.0
 30
0.0
 70
   128
 71
    68
 72
    67
 73
    65
  0
VERTEX
  5
34D
  8
0
 62
     9
 10
0.0
 20
0.0
 30
0.0
 70
   128
 71
    65
 72
    66
 73
    68
  0
VERTEX
  5
34E
  8
0
 62
     9
 10
0.0
 20
0.0
 30
0.0
 70
   128
 71
    69
 72
    67
 73
    68
  0
VERTEX
  5
34F
  8
0
 62
     9
 10
0.0
 20
0.0
 30
0.0
 70
   128
 71
    69
 72
    70
 73
    67
  0
VERTEX
  5
350
  8
0
 62
     9
 10
0.0
 20
0.0
 30
0.0
 70
   128
 71
    73
 72
    72
 73
    71
  0
VERTEX
  5
351
  8
0
 62
     9
 10
0.0
 20
0.0
 30
0.0
 70
   128
 71
    75
 72
    72
 73
    74
  0
VERTEX
  5
352
  8
0
 62
     9
 10
0.0
 20
0.0
 30
0.0
 70
   128
 71
    72
 72
    75
 73
    71
  0
VERTEX
  5
353
  8
0
 62
     9
 10
0.0
 20
0.0
 30
0.0
 70
   128
 71
    77
 72
    76
 73
    74
  0
VERTEX
  5
354
  8
0
 62
     9
 10
0.0
 20
0.0
 30
0.0
 70
   128
 71
    75
 72
    74
 73
    76
  0
VERTEX
  5
355
  8
0
 62
     9
 10
0.0
 20
0.0
 30
0.0
 70
   128
 71
    77
 72
    79
 73
    78
  0
VERTEX
  5
356
  8
0
 62
     9
 10
0.0
 20
0.0
 30
0.0
 70
   128
 71
    78
 72
    76
 73
    77
  0
VERTEX
  5
357
  8
0
 62
     9
 10
0.0
 20
0.0
 30
0.0
 70
   128
 71
    81
 72
    79
 73
    80
  0
VERTEX
  5
358
  8
0
 62
     9
 10
0.0
 20
0.0
 30
0.0
 70
   128
 71
    79
 72
    81
 73
    78
  0
VERTEX
  5
359
  8
0
 62
     9
 10
0.0
 20
0.0
 30
0.0
 70
   128
 71
    83
 72
    82
 73
    80
  0
VERTEX
  5
35A
  8
0
 62
     9
 10
0.0
 20
0.0
 30
0.0
 70
   128
 71
    81
 72
    80
 73
    82
  0
VERTEX
  5
35B
  8
0
 62
     9
 10
0.0
 20
0.0
 30
0.0
 70
   128
 71
    84
 72
    82
 73
    83
  0
VERTEX
  5
35C
  8
0
 62
     9
 10
0.0
 20
0.0
 30
0.0
 70
   128
 71
    73
 72
    71
 73
    85
  0
VERTEX
  5
35D
  8
0
 62
     9
 10
0.0
 20
0.0
 30
0.0
 70
   128
 71
    87
 72
    86
 73
    85
  0
VERTEX
  5
35E
  8
0
 62
     9
 10
0.0
 20
0.0
 30
0.0
 70
   128
 71
    73
 72
    85
 73
    86
  0
VERTEX
  5
35F
  8
0
 62
     9
 10
0.0
 20
0.0
 30
0.0
 70
   128
 71
    87
 72
    89
 73
    88
  0
VERTEX
  5
360
  8
0
 62
     9
 10
0.0
 20
0.0
 30
0.0
 70
   128
 71
    88
 72
    86
 73
    87
  0
VERTEX
  5
361
  8
0
 62
     9
 10
0.0
 20
0.0
 30
0.0
 70
   128
 71
    91
 72
    89
 73
    90
  0
VERTEX
  5
362
  8
0
 62
     9
 10
0.0
 20
0.0
 30
0.0
 70
   128
 71
    89
 72
    91
 73
    88
  0
VERTEX
  5
363
  8
0
 62
     9
 10
0.0
 20
0.0
 30
0.0
 70
   128
 71
    93
 72
    92
 73
    90
  0
VERTEX
  5
364
  8
0
 62
     9
 10
0.0
 20
0.0
 30
0.0
 70
   128
 71
    91
 72
    90
 73
    92
  0
VERTEX
  5
365
  8
0
 62
     9
 10
0.0
 20
0.0
 30
0.0
 70
   128
 71
    93
 72
    95
 73
    94
  0
VERTEX
  5
366
  8
0
 62
     9
 10
0.0
 20
0.0
 30
0.0
 70
   128
 71
    94
 72
    92
 73
    93
  0
VERTEX
  5
367
  8
0
 62
     9
 10
0.0
 20
0.0
 30
0.0
 70
   128
 71
    95
 72
    96
 73
    94
  0
VERTEX
  5
368
  8
0
 62
     9
 10
0.0
 20
0.0
 30
0.0
 70
   128
 71
    95
 72
    97
 73
    96
  0
VERTEX
  5
369
  8
0
 62
     9
 10
0.0
 20
0.0
 30
0.0
 70
   128
 71
    26
 72
    76
 73
    27
  0
VERTEX
  5
36A
  8
0
 62
     9
 10
0.0
 20
0.0
 30
0.0
 70
   128
 71
    26
 72
    75
 73
    76
  0
VERTEX
  5
36B
  8
0
 62
     9
 10
0.0
 20
0.0
 30
0.0
 70
   128
 71
    33
 72
    81
 73
    36
  0
VERTEX
  5
36C
  8
0
 62
     9
 10
0.0
 20
0.0
 30
0.0
 70
   128
 71
    30
 72
    27
 73
    76
  0
VERTEX
  5
36D
  8
0
 62
     9
 10
0.0
 20
0.0
 30
0.0
 70
   128
 71
    32
 72
    81
 73
    33
  0
VERTEX
  5
36E
  8
0
 62
     9
 10
0.0
 20
0.0
 30
0.0
 70
   128
 71
    30
 72
    78
 73
    32
  0
VERTEX
  5
36F
  8
0
 62
     9
 10
0.0
 20
0.0
 30
0.0
 70
   128
 71
    76
 72
    78
 73
    30
  0
VERTEX
  5
370
  8
0
 62
     9
 10
0.0
 20
0.0
 30
0.0
 70
   128
 71
    32
 72
    78
 73
    81
  0
VERTEX
  5
371
  8
0
 62
     9
 10
0.0
 20
0.0
 30
0.0
 70
   128
 71
    26
 72
    24
 73
    75
  0
VERTEX
  5
372
  8
0
 62
     9
 10
0.0
 20
0.0
 30
0.0
 70
   128
 71
    84
 72
    38
 73
    82
  0
VERTEX
  5
373
  8
0
 62
     9
 10
0.0
 20
0.0
 30
0.0
 70
   128
 71
    82
 72
    38
 73
    36
  0
VERTEX
  5
374
  8
0
 62
     9
 10
0.0
 20
0.0
 30
0.0
 70
   128
 71
    81
 72
    82
 73
    36
  0
VERTEX
  5
375
  8
0
 62
     9
 10
0.0
 20
0.0
 30
0.0
 70
   128
 71
    39
 72
    38
 73
    84
  0
VERTEX
  5
376
  8
0
 62
     9
 10
0.0
 20
0.0
 30
0.0
 70
   128
 71
    24
 72
    71
 73
    75
  0
VERTEX
  5
377
  8
0
 62
     9
 10
0.0
 20
0.0
 30
0.0
 70
   128
 71
    21
 72
     5
 73
    71
  0
VERTEX
  5
378
  8
0
 62
     9
 10
0.0
 20
0.0
 30
0.0
 70
   128
 71
    21
 72
    71
 73
    24
  0
VERTEX
  5
379
  8
0
 62
     9
 10
0.0
 20
0.0
 30
0.0
 70
   128
 71
    85
 72
     5
 73
     7
  0
VERTEX
  5
37A
  8
0
 62
     9
 10
0.0
 20
0.0
 30
0.0
 70
   128
 71
     5
 72
    85
 73
    71
  0
VERTEX
  5
37B
  8
0
 62
     9
 10
0.0
 20
0.0
 30
0.0
 70
   128
 71
     3
 72
    87
 73
     7
  0
VERTEX
  5
37C
  8
0
 62
     9
 10
0.0
 20
0.0
 30
0.0
 70
   128
 71
    85
 72
     7
 73
    87
  0
VERTEX
  5
37D
  8
0
 62
     9
 10
0.0
 20
0.0
 30
0.0
 70
   128
 71
     3
 72
     8
 73
    89
  0
VERTEX
  5
37E
  8
0
 62
     9
 10
0.0
 20
0.0
 30
0.0
 70
   128
 71
    89
 72
    87
 73
     3
  0
VERTEX
  5
37F
  8
0
 62
     9
 10
0.0
 20
0.0
 30
0.0
 70
   128
 71
    89
 72
    10
 73
    90
  0
VERTEX
  5
380
  8
0
 62
     9
 10
0.0
 20
0.0
 30
0.0
 70
   128
 71
    10
 72
    89
 73
     8
  0
VERTEX
  5
381
  8
0
 62
     9
 10
0.0
 20
0.0
 30
0.0
 70
   128
 71
    93
 72
    90
 73
    13
  0
VERTEX
  5
382
  8
0
 62
     9
 10
0.0
 20
0.0
 30
0.0
 70
   128
 71
    10
 72
    13
 73
    90
  0
VERTEX
  5
383
  8
0
 62
     9
 10
0.0
 20
0.0
 30
0.0
 70
   128
 71
    16
 72
    93
 73
    14
  0
VERTEX
  5
384
  8
0
 62
     9
 10
0.0
 20
0.0
 30
0.0
 70
   128
 71
    93
 72
    13
 73
    14
  0
VERTEX
  5
385
  8
0
 62
     9
 10
0.0
 20
0.0
 30
0.0
 70
   128
 71
    16
 72
    18
 73
    95
  0
VERTEX
  5
386
  8
0
 62
     9
 10
0.0
 20
0.0
 30
0.0
 70
   128
 71
    95
 72
    93
 73
    16
  0
VERTEX
  5
387
  8
0
 62
     9
 10
0.0
 20
0.0
 30
0.0
 70
   128
 71
    18
 72
    97
 73
    95
  0
VERTEX
  5
388
  8
0
 62
     9
 10
0.0
 20
0.0
 30
0.0
 70
   128
 71
    18
 72
    19
 73
    97
  0
VERTEX
  5
389
  8
0
 62
     9
 10
0.0
 20
0.0
 30
0.0
 70
   128
 71
   100
 72
    99
 73
    98
  0
VERTEX
  5
38A
  8
0
 62
     9
 10
0.0
 20
0.0
 30
0.0
 70
   128
 71
   103
 72
   102
 73
   101
  0
VERTEX
  5
38B
  8
0
 62
     9
 10
0.0
 20
0.0
 30
0.0
 70
   128
 71
   105
 72
   104
 73
    84
  0
VERTEX
  5
38C
  8
0
 62
     9
 10
0.0
 20
0.0
 30
0.0
 70
   128
 71
   108
 72
   107
 73
   106
  0
VERTEX
  5
38D
  8
0
 62
     9
 10
0.0
 20
0.0
 30
0.0
 70
   128
 71
   111
 72
   110
 73
   109
  0
VERTEX
  5
38E
  8
0
 62
     9
 10
0.0
 20
0.0
 30
0.0
 70
   128
 71
   114
 72
   113
 73
   112
  0
VERTEX
  5
38F
  8
0
 62
     9
 10
0.0
 20
0.0
 30
0.0
 70
   128
 71
   117
 72
   116
 73
   115
  0
VERTEX
  5
390
  8
0
 62
     9
 10
0.0
 20
0.0
 30
0.0
 70
   128
 71
   120
 72
   119
 73
   118
  0
VERTEX
  5
391
  8
0
 62
     9
 10
0.0
 20
0.0
 30
0.0
 70
   128
 71
   114
 72
   118
 73
   119
  0
VERTEX
  5
392
  8
0
 62
     9
 10
0.0
 20
0.0
 30
0.0
 70
   128
 71
   120
 72
   122
 73
   121
  0
VERTEX
  5
393
  8
0
 62
     9
 10
0.0
 20
0.0
 30
0.0
 70
   128
 71
   121
 72
   119
 73
   120
  0
VERTEX
  5
394
  8
0
 62
     9
 10
0.0
 20
0.0
 30
0.0
 70
   128
 71
   123
 72
   122
 73
    97
  0
VERTEX
  5
395
  8
0
 62
     9
 10
0.0
 20
0.0
 30
0.0
 70
   128
 71
   122
 72
   123
 73
   121
  0
VERTEX
  5
396
  8
0
 62
     9
 10
0.0
 20
0.0
 30
0.0
 70
   128
 71
   123
 72
    97
 73
    19
  0
VERTEX
  5
397
  8
0
 62
     9
 10
0.0
 20
0.0
 30
0.0
 70
   128
 71
   112
 72
   118
 73
   114
  0
VERTEX
  5
398
  8
0
 62
     9
 10
0.0
 20
0.0
 30
0.0
 70
   128
 71
   109
 72
   106
 73
   111
  0
VERTEX
  5
399
  8
0
 62
     9
 10
0.0
 20
0.0
 30
0.0
 70
   128
 71
   113
 72
   115
 73
   116
  0
VERTEX
  5
39A
  8
0
 62
     9
 10
0.0
 20
0.0
 30
0.0
 70
   128
 71
   116
 72
   112
 73
   113
  0
VERTEX
  5
39B
  8
0
 62
     9
 10
0.0
 20
0.0
 30
0.0
 70
   128
 71
   103
 72
   124
 73
   102
  0
VERTEX
  5
39C
  8
0
 62
     9
 10
0.0
 20
0.0
 30
0.0
 70
   128
 71
   108
 72
   117
 73
   107
  0
VERTEX
  5
39D
  8
0
 62
     9
 10
0.0
 20
0.0
 30
0.0
 70
   128
 71
   117
 72
   108
 73
   116
  0
VERTEX
  5
39E
  8
0
 62
     9
 10
0.0
 20
0.0
 30
0.0
 70
   128
 71
   111
 72
   106
 73
   107
  0
VERTEX
  5
39F
  8
0
 62
     9
 10
0.0
 20
0.0
 30
0.0
 70
   128
 71
   103
 72
   110
 73
   124
  0
VERTEX
  5
3A0
  8
0
 62
     9
 10
0.0
 20
0.0
 30
0.0
 70
   128
 71
   109
 72
   110
 73
   103
  0
VERTEX
  5
3A1
  8
0
 62
     9
 10
0.0
 20
0.0
 30
0.0
 70
   128
 71
   102
 72
   125
 73
   101
  0
VERTEX
  5
3A2
  8
0
 62
     9
 10
0.0
 20
0.0
 30
0.0
 70
   128
 71
    98
 72
   101
 73
   125
  0
VERTEX
  5
3A3
  8
0
 62
     9
 10
0.0
 20
0.0
 30
0.0
 70
   128
 71
    99
 72
   100
 73
   126
  0
VERTEX
  5
3A4
  8
0
 62
     9
 10
0.0
 20
0.0
 30
0.0
 70
   128
 71
   100
 72
    98
 73
   125
  0
VERTEX
  5
3A5
  8
0
 62
     9
 10
0.0
 20
0.0
 30
0.0
 70
   128
 71
    39
 72
    84
 73
   104
  0
VERTEX
  5
3A6
  8
0
 62
     9
 10
0.0
 20
0.0
 30
0.0
 70
   128
 71
   126
 72
   104
 73
   105
  0
VERTEX
  5
3A7
  8
0
 62
     9
 10
0.0
 20
0.0
 30
0.0
 70
   128
 71
   126
 72
   105
 73
    99
  0
VERTEX
  5
3A8
  8
0
 62
     9
 10
0.0
 20
0.0
 30
0.0
 70
   128
 71
    83
 72
   127
 73
   105
  0
VERTEX
  5
3A9
  8
0
 62
     9
 10
0.0
 20
0.0
 30
0.0
 70
   128
 71
   129
 72
   128
 73
   103
  0
VERTEX
  5
3AA
  8
0
 62
     9
 10
0.0
 20
0.0
 30
0.0
 70
   128
 71
    98
 72
   131
 73
   130
  0
VERTEX
  5
3AB
  8
0
 62
     9
 10
0.0
 20
0.0
 30
0.0
 70
   128
 71
   132
 72
   116
 73
   108
  0
VERTEX
  5
3AC
  8
0
 62
     9
 10
0.0
 20
0.0
 30
0.0
 70
   128
 71
   106
 72
   109
 73
   133
  0
VERTEX
  5
3AD
  8
0
 62
     9
 10
0.0
 20
0.0
 30
0.0
 70
   128
 71
   135
 72
   118
 73
   134
  0
VERTEX
  5
3AE
  8
0
 62
     9
 10
0.0
 20
0.0
 30
0.0
 70
   128
 71
   112
 72
   136
 73
   134
  0
VERTEX
  5
3AF
  8
0
 62
     9
 10
0.0
 20
0.0
 30
0.0
 70
   128
 71
   135
 72
   137
 73
   120
  0
VERTEX
  5
3B0
  8
0
 62
     9
 10
0.0
 20
0.0
 30
0.0
 70
   128
 71
   120
 72
   118
 73
   135
  0
VERTEX
  5
3B1
  8
0
 62
     9
 10
0.0
 20
0.0
 30
0.0
 70
   128
 71
   122
 72
   137
 73
    96
  0
VERTEX
  5
3B2
  8
0
 62
     9
 10
0.0
 20
0.0
 30
0.0
 70
   128
 71
   137
 72
   122
 73
   120
  0
VERTEX
  5
3B3
  8
0
 62
     9
 10
0.0
 20
0.0
 30
0.0
 70
   128
 71
   122
 72
    96
 73
    97
  0
VERTEX
  5
3B4
  8
0
 62
     9
 10
0.0
 20
0.0
 30
0.0
 70
   128
 71
   116
 72
   136
 73
   112
  0
VERTEX
  5
3B5
  8
0
 62
     9
 10
0.0
 20
0.0
 30
0.0
 70
   128
 71
   118
 72
   112
 73
   134
  0
VERTEX
  5
3B6
  8
0
 62
     9
 10
0.0
 20
0.0
 30
0.0
 70
   128
 71
   132
 72
   108
 73
   133
  0
VERTEX
  5
3B7
  8
0
 62
     9
 10
0.0
 20
0.0
 30
0.0
 70
   128
 71
   136
 72
   116
 73
   132
  0
VERTEX
  5
3B8
  8
0
 62
     9
 10
0.0
 20
0.0
 30
0.0
 70
   128
 71
   133
 72
   109
 73
   128
  0
VERTEX
  5
3B9
  8
0
 62
     9
 10
0.0
 20
0.0
 30
0.0
 70
   128
 71
   133
 72
   108
 73
   106
  0
VERTEX
  5
3BA
  8
0
 62
     9
 10
0.0
 20
0.0
 30
0.0
 70
   128
 71
   129
 72
   103
 73
   101
  0
VERTEX
  5
3BB
  8
0
 62
     9
 10
0.0
 20
0.0
 30
0.0
 70
   128
 71
   128
 72
   109
 73
   103
  0
VERTEX
  5
3BC
  8
0
 62
     9
 10
0.0
 20
0.0
 30
0.0
 70
   128
 71
   101
 72
    98
 73
   130
  0
VERTEX
  5
3BD
  8
0
 62
     9
 10
0.0
 20
0.0
 30
0.0
 70
   128
 71
   130
 72
   129
 73
   101
  0
VERTEX
  5
3BE
  8
0
 62
     9
 10
0.0
 20
0.0
 30
0.0
 70
   128
 71
    99
 72
   127
 73
   131
  0
VERTEX
  5
3BF
  8
0
 62
     9
 10
0.0
 20
0.0
 30
0.0
 70
   128
 71
    99
 72
   131
 73
    98
  0
VERTEX
  5
3C0
  8
0
 62
     9
 10
0.0
 20
0.0
 30
0.0
 70
   128
 71
   105
 72
    84
 73
    83
  0
VERTEX
  5
3C1
  8
0
 62
     9
 10
0.0
 20
0.0
 30
0.0
 70
   128
 71
    99
 72
   105
 73
   127
  0
VERTEX
  5
3C2
  8
0
 62
     9
 10
0.0
 20
0.0
 30
0.0
 70
   128
 71
   140
 72
   139
 73
   138
  0
VERTEX
  5
3C3
  8
0
 62
     9
 10
0.0
 20
0.0
 30
0.0
 70
   128
 71
   142
 72
   141
 73
    54
  0
VERTEX
  5
3C4
  8
0
 62
     9
 10
0.0
 20
0.0
 30
0.0
 70
   128
 71
    61
 72
   138
 73
   143
  0
VERTEX
  5
3C5
  8
0
 62
     9
 10
0.0
 20
0.0
 30
0.0
 70
   128
 71
   139
 72
   143
 73
   138
  0
VERTEX
  5
3C6
  8
0
 62
     9
 10
0.0
 20
0.0
 30
0.0
 70
   128
 71
   144
 72
    61
 73
   143
  0
VERTEX
  5
3C7
  8
0
 62
     9
 10
0.0
 20
0.0
 30
0.0
 70
   128
 71
    54
 72
    57
 73
   142
  0
VERTEX
  5
3C8
  8
0
 62
     9
 10
0.0
 20
0.0
 30
0.0
 70
   128
 71
    59
 72
   144
 73
   145
  0
VERTEX
  5
3C9
  8
0
 62
     9
 10
0.0
 20
0.0
 30
0.0
 70
   128
 71
    66
 72
    63
 73
    68
  0
VERTEX
  5
3CA
  8
0
 62
     9
 10
0.0
 20
0.0
 30
0.0
 70
   128
 71
   141
 72
    69
 73
    52
  0
VERTEX
  5
3CB
  8
0
 62
     9
 10
0.0
 20
0.0
 30
0.0
 70
   128
 71
    69
 72
    68
 73
    62
  0
VERTEX
  5
3CC
  8
0
 62
     9
 10
0.0
 20
0.0
 30
0.0
 70
   128
 71
    63
 72
    62
 73
    68
  0
VERTEX
  5
3CD
  8
0
 62
     9
 10
0.0
 20
0.0
 30
0.0
 70
   128
 71
   141
 72
    52
 73
    54
  0
VERTEX
  5
3CE
  8
0
 62
     9
 10
0.0
 20
0.0
 30
0.0
 70
   128
 71
    69
 72
    62
 73
    52
  0
VERTEX
  5
3CF
  8
0
 62
     9
 10
0.0
 20
0.0
 30
0.0
 70
   128
 71
    57
 72
   145
 73
   142
  0
VERTEX
  5
3D0
  8
0
 62
     9
 10
0.0
 20
0.0
 30
0.0
 70
   128
 71
    59
 72
   145
 73
    57
  0
VERTEX
  5
3D1
  8
0
 62
     9
 10
0.0
 20
0.0
 30
0.0
 70
   128
 71
    61
 72
   144
 73
    59
  0
VERTEX
  5
3D2
  8
0
 62
     9
 10
0.0
 20
0.0
 30
0.0
 70
   128
 71
    61
 72
    60
 73
   146
  0
VERTEX
  5
3D3
  8
0
 62
     9
 10
0.0
 20
0.0
 30
0.0
 70
   128
 71
   143
 72
   148
 73
   147
  0
VERTEX
  5
3D4
  8
0
 62
     9
 10
0.0
 20
0.0
 30
0.0
 70
   128
 71
   139
 72
   140
 73
   149
  0
VERTEX
  5
3D5
  8
0
 62
     9
 10
0.0
 20
0.0
 30
0.0
 70
   128
 71
   145
 72
   150
 73
   142
  0
VERTEX
  5
3D6
  8
0
 62
     9
 10
0.0
 20
0.0
 30
0.0
 70
   128
 71
   151
 72
   145
 73
   144
  0
VERTEX
  5
3D7
  8
0
 62
     9
 10
0.0
 20
0.0
 30
0.0
 70
   128
 71
   142
 72
   152
 73
   141
  0
VERTEX
  5
3D8
  8
0
 62
     9
 10
0.0
 20
0.0
 30
0.0
 70
   128
 71
   152
 72
   142
 73
   153
  0
VERTEX
  5
3D9
  8
0
 62
     9
 10
0.0
 20
0.0
 30
0.0
 70
   128
 71
    69
 72
   141
 73
    70
  0
VERTEX
  5
3DA
  8
0
 62
     9
 10
0.0
 20
0.0
 30
0.0
 70
   128
 71
   152
 72
    70
 73
   141
  0
VERTEX
  5
3DB
  8
0
 62
     9
 10
0.0
 20
0.0
 30
0.0
 70
   128
 71
   145
 72
   151
 73
   150
  0
VERTEX
  5
3DC
  8
0
 62
     9
 10
0.0
 20
0.0
 30
0.0
 70
   128
 71
   150
 72
   153
 73
   142
  0
VERTEX
  5
3DD
  8
0
 62
     9
 10
0.0
 20
0.0
 30
0.0
 70
   128
 71
   143
 72
   147
 73
   144
  0
VERTEX
  5
3DE
  8
0
 62
     9
 10
0.0
 20
0.0
 30
0.0
 70
   128
 71
   147
 72
   151
 73
   144
  0
VERTEX
  5
3DF
  8
0
 62
     9
 10
0.0
 20
0.0
 30
0.0
 70
   128
 71
   139
 72
   149
 73
   148
  0
VERTEX
  5
3E0
  8
0
 62
     9
 10
0.0
 20
0.0
 30
0.0
 70
   128
 71
   139
 72
   148
 73
   143
  0
VERTEX
  5
3E1
  8
0
 62
     9
 10
0.0
 20
0.0
 30
0.0
 70
   128
 71
   138
 72
   146
 73
   149
  0
VERTEX
  5
3E2
  8
0
 62
     9
 10
0.0
 20
0.0
 30
0.0
 70
   128
 71
   138
 72
   149
 73
   140
  0
VERTEX
  5
3E3
  8
0
 62
     9
 10
0.0
 20
0.0
 30
0.0
 70
   128
 71
   146
 72
   138
 73
    61
  0
VERTEX
  5
3E4
  8
0
 62
     9
 10
0.0
 20
0.0
 30
0.0
 70
   128
 71
   148
 72
   154
 73
   147
  0
VERTEX
  5
3E5
  8
0
 62
     9
 10
0.0
 20
0.0
 30
0.0
 70
   128
 71
   152
 72
   156
 73
   155
  0
VERTEX
  5
3E6
  8
0
 62
     9
 10
0.0
 20
0.0
 30
0.0
 70
   128
 71
   151
 72
   157
 73
   150
  0
VERTEX
  5
3E7
  8
0
 62
     9
 10
0.0
 20
0.0
 30
0.0
 70
   128
 71
   151
 72
   147
 73
   158
  0
VERTEX
  5
3E8
  8
0
 62
     9
 10
0.0
 20
0.0
 30
0.0
 70
   128
 71
   149
 72
   159
 73
   148
  0
VERTEX
  5
3E9
  8
0
 62
     9
 10
0.0
 20
0.0
 30
0.0
 70
   128
 71
   161
 72
   146
 73
   160
  0
VERTEX
  5
3EA
  8
0
 62
     9
 10
0.0
 20
0.0
 30
0.0
 70
   128
 71
   153
 72
   150
 73
   162
  0
VERTEX
  5
3EB
  8
0
 62
     9
 10
0.0
 20
0.0
 30
0.0
 70
   128
 71
    56
 72
    55
 73
    43
  0
VERTEX
  5
3EC
  8
0
 62
     9
 10
0.0
 20
0.0
 30
0.0
 70
   128
 71
    58
 72
    45
 73
    60
  0
VERTEX
  5
3ED
  8
0
 62
     9
 10
0.0
 20
0.0
 30
0.0
 70
   128
 71
    40
 72
    64
 73
    47
  0
VERTEX
  5
3EE
  8
0
 62
     9
 10
0.0
 20
0.0
 30
0.0
 70
   128
 71
    48
 72
    65
 73
    67
  0
VERTEX
  5
3EF
  8
0
 62
     9
 10
0.0
 20
0.0
 30
0.0
 70
   128
 71
    51
 72
    41
 73
    53
  0
VERTEX
  5
3F0
  8
0
 62
     9
 10
0.0
 20
0.0
 30
0.0
 70
   128
 71
    49
 72
    70
 73
    50
  0
VERTEX
  5
3F1
  8
0
 62
     9
 10
0.0
 20
0.0
 30
0.0
 70
   128
 71
    55
 72
    53
 73
    42
  0
VERTEX
  5
3F2
  8
0
 62
     9
 10
0.0
 20
0.0
 30
0.0
 70
   128
 71
    46
 72
   160
 73
    60
  0
VERTEX
  5
3F3
  8
0
 62
     9
 10
0.0
 20
0.0
 30
0.0
 70
   128
 71
   155
 72
    70
 73
   152
  0
VERTEX
  5
3F4
  8
0
 62
     9
 10
0.0
 20
0.0
 30
0.0
 70
   128
 71
    51
 72
    64
 73
    40
  0
VERTEX
  5
3F5
  8
0
 62
     9
 10
0.0
 20
0.0
 30
0.0
 70
   128
 71
   161
 72
   149
 73
   146
  0
VERTEX
  5
3F6
  8
0
 62
     9
 10
0.0
 20
0.0
 30
0.0
 70
   128
 71
    70
 72
   155
 73
    50
  0
VERTEX
  5
3F7
  8
0
 62
     9
 10
0.0
 20
0.0
 30
0.0
 70
   128
 71
    58
 72
    56
 73
    44
  0
VERTEX
  5
3F8
  8
0
 62
     9
 10
0.0
 20
0.0
 30
0.0
 70
   128
 71
   153
 72
   162
 73
   156
  0
VERTEX
  5
3F9
  8
0
 62
     9
 10
0.0
 20
0.0
 30
0.0
 70
   128
 71
   153
 72
   156
 73
   152
  0
VERTEX
  5
3FA
  8
0
 62
     9
 10
0.0
 20
0.0
 30
0.0
 70
   128
 71
   150
 72
   157
 73
   162
  0
VERTEX
  5
3FB
  8
0
 62
     9
 10
0.0
 20
0.0
 30
0.0
 70
   128
 71
   151
 72
   158
 73
   157
  0
VERTEX
  5
3FC
  8
0
 62
     9
 10
0.0
 20
0.0
 30
0.0
 70
   128
 71
   147
 72
   154
 73
   158
  0
VERTEX
  5
3FD
  8
0
 62
     9
 10
0.0
 20
0.0
 30
0.0
 70
   128
 71
   148
 72
   159
 73
   154
  0
VERTEX
  5
3FE
  8
0
 62
     9
 10
0.0
 20
0.0
 30
0.0
 70
   128
 71
   149
 72
   161
 73
   159
  0
VERTEX
  5
3FF
  8
0
 62
     9
 10
0.0
 20
0.0
 30
0.0
 70
   128
 71
    60
 72
   160
 73
   146
  0
VERTEX
  5
400
  8
0
 62
     9
 10
0.0
 20
0.0
 30
0.0
 70
   128
 71
    60
 72
    45
 73
    46
  0
VERTEX
  5
401
  8
0
 62
     9
 10
0.0
 20
0.0
 30
0.0
 70
   128
 71
    58
 72
    44
 73
    45
  0
VERTEX
  5
402
  8
0
 62
     9
 10
0.0
 20
0.0
 30
0.0
 70
   128
 71
    56
 72
    43
 73
    44
  0
VERTEX
  5
403
  8
0
 62
     9
 10
0.0
 20
0.0
 30
0.0
 70
   128
 71
    55
 72
    42
 73
    43
  0
VERTEX
  5
404
  8
0
 62
     9
 10
0.0
 20
0.0
 30
0.0
 70
   128
 71
    53
 72
    41
 73
    42
  0
VERTEX
  5
405
  8
0
 62
     9
 10
0.0
 20
0.0
 30
0.0
 70
   128
 71
    51
 72
    40
 73
    41
  0
VERTEX
  5
406
  8
0
 62
     9
 10
0.0
 20
0.0
 30
0.0
 70
   128
 71
    65
 72
    47
 73
    64
  0
VERTEX
  5
407
  8
0
 62
     9
 10
0.0
 20
0.0
 30
0.0
 70
   128
 71
    67
 72
    49
 73
    48
  0
VERTEX
  5
408
  8
0
 62
     9
 10
0.0
 20
0.0
 30
0.0
 70
   128
 71
    65
 72
    48
 73
    47
  0
VERTEX
  5
409
  8
0
 62
     9
 10
0.0
 20
0.0
 30
0.0
 70
   128
 71
    49
 72
    67
 73
    70
  0
VERTEX
  5
40A
  8
0
 62
     9
 10
0.0
 20
0.0
 30
0.0
 70
   128
 71
   164
 72
   160
 73
   163
  0
VERTEX
  5
40B
  8
0
 62
     9
 10
0.0
 20
0.0
 30
0.0
 70
   128
 71
   166
 72
   165
 73
   161
  0
VERTEX
  5
40C
  8
0
 62
     9
 10
0.0
 20
0.0
 30
0.0
 70
   128
 71
    37
 72
   163
 73
    46
  0
VERTEX
  5
40D
  8
0
 62
     9
 10
0.0
 20
0.0
 30
0.0
 70
   128
 71
   168
 72
   167
 73
   154
  0
VERTEX
  5
40E
  8
0
 62
     9
 10
0.0
 20
0.0
 30
0.0
 70
   128
 71
   165
 72
   169
 73
   159
  0
VERTEX
  5
40F
  8
0
 62
     9
 10
0.0
 20
0.0
 30
0.0
 70
   128
 71
   170
 72
   157
 73
   158
  0
VERTEX
  5
410
  8
0
 62
     9
 10
0.0
 20
0.0
 30
0.0
 70
   128
 71
   158
 72
   154
 73
   171
  0
VERTEX
  5
411
  8
0
 62
     9
 10
0.0
 20
0.0
 30
0.0
 70
   128
 71
   172
 72
   162
 73
   157
  0
VERTEX
  5
412
  8
0
 62
     9
 10
0.0
 20
0.0
 30
0.0
 70
   128
 71
   157
 72
   173
 73
   172
  0
VERTEX
  5
413
  8
0
 62
     9
 10
0.0
 20
0.0
 30
0.0
 70
   128
 71
   174
 72
   156
 73
   162
  0
VERTEX
  5
414
  8
0
 62
     9
 10
0.0
 20
0.0
 30
0.0
 70
   128
 71
   162
 72
   175
 73
   174
  0
VERTEX
  5
415
  8
0
 62
     9
 10
0.0
 20
0.0
 30
0.0
 70
   128
 71
   177
 72
   176
 73
   156
  0
VERTEX
  5
416
  8
0
 62
     9
 10
0.0
 20
0.0
 30
0.0
 70
   128
 71
   177
 72
   156
 73
   174
  0
VERTEX
  5
417
  8
0
 62
     9
 10
0.0
 20
0.0
 30
0.0
 70
   128
 71
   155
 72
   176
 73
   178
  0
VERTEX
  5
418
  8
0
 62
     9
 10
0.0
 20
0.0
 30
0.0
 70
   128
 71
   176
 72
   155
 73
   156
  0
VERTEX
  5
419
  8
0
 62
     9
 10
0.0
 20
0.0
 30
0.0
 70
   128
 71
    20
 72
    50
 73
   178
  0
VERTEX
  5
41A
  8
0
 62
     9
 10
0.0
 20
0.0
 30
0.0
 70
   128
 71
   155
 72
   178
 73
    50
  0
VERTEX
  5
41B
  8
0
 62
     9
 10
0.0
 20
0.0
 30
0.0
 70
   128
 71
   175
 72
   162
 73
   172
  0
VERTEX
  5
41C
  8
0
 62
     9
 10
0.0
 20
0.0
 30
0.0
 70
   128
 71
   167
 72
   171
 73
   154
  0
VERTEX
  5
41D
  8
0
 62
     9
 10
0.0
 20
0.0
 30
0.0
 70
   128
 71
   158
 72
   171
 73
   170
  0
VERTEX
  5
41E
  8
0
 62
     9
 10
0.0
 20
0.0
 30
0.0
 70
   128
 71
   173
 72
   157
 73
   170
  0
VERTEX
  5
41F
  8
0
 62
     9
 10
0.0
 20
0.0
 30
0.0
 70
   128
 71
   154
 72
   159
 73
   168
  0
VERTEX
  5
420
  8
0
 62
     9
 10
0.0
 20
0.0
 30
0.0
 70
   128
 71
   165
 72
   159
 73
   161
  0
VERTEX
  5
421
  8
0
 62
     9
 10
0.0
 20
0.0
 30
0.0
 70
   128
 71
   169
 72
   168
 73
   159
  0
VERTEX
  5
422
  8
0
 62
     9
 10
0.0
 20
0.0
 30
0.0
 70
   128
 71
    46
 72
   163
 73
   160
  0
VERTEX
  5
423
  8
0
 62
     9
 10
0.0
 20
0.0
 30
0.0
 70
   128
 71
   160
 72
   164
 73
   166
  0
VERTEX
  5
424
  8
0
 62
     9
 10
0.0
 20
0.0
 30
0.0
 70
   128
 71
   160
 72
   166
 73
   161
  0
VERTEX
  5
425
  8
0
 62
     9
 10
0.0
 20
0.0
 30
0.0
 70
   128
 71
    20
 72
   178
 73
   123
  0
VERTEX
  5
426
  8
0
 62
     9
 10
0.0
 20
0.0
 30
0.0
 70
   128
 71
   119
 72
   121
 73
   176
  0
VERTEX
  5
427
  8
0
 62
     9
 10
0.0
 20
0.0
 30
0.0
 70
   128
 71
   172
 72
   115
 73
   175
  0
VERTEX
  5
428
  8
0
 62
     9
 10
0.0
 20
0.0
 30
0.0
 70
   128
 71
   114
 72
   177
 73
   174
  0
VERTEX
  5
429
  8
0
 62
     9
 10
0.0
 20
0.0
 30
0.0
 70
   128
 71
   111
 72
   170
 73
   171
  0
VERTEX
  5
42A
  8
0
 62
     9
 10
0.0
 20
0.0
 30
0.0
 70
   128
 71
   117
 72
   173
 73
   107
  0
VERTEX
  5
42B
  8
0
 62
     9
 10
0.0
 20
0.0
 30
0.0
 70
   128
 71
   124
 72
   168
 73
   102
  0
VERTEX
  5
42C
  8
0
 62
     9
 10
0.0
 20
0.0
 30
0.0
 70
   128
 71
   167
 72
   124
 73
   110
  0
VERTEX
  5
42D
  8
0
 62
     9
 10
0.0
 20
0.0
 30
0.0
 70
   128
 71
   125
 72
   165
 73
   100
  0
VERTEX
  5
42E
  8
0
 62
     9
 10
0.0
 20
0.0
 30
0.0
 70
   128
 71
   165
 72
   125
 73
   169
  0
VERTEX
  5
42F
  8
0
 62
     9
 10
0.0
 20
0.0
 30
0.0
 70
   128
 71
   126
 72
   100
 73
   166
  0
VERTEX
  5
430
  8
0
 62
     9
 10
0.0
 20
0.0
 30
0.0
 70
   128
 71
   165
 72
   166
 73
   100
  0
VERTEX
  5
431
  8
0
 62
     9
 10
0.0
 20
0.0
 30
0.0
 70
   128
 71
   164
 72
   104
 73
   126
  0
VERTEX
  5
432
  8
0
 62
     9
 10
0.0
 20
0.0
 30
0.0
 70
   128
 71
   126
 72
   166
 73
   164
  0
VERTEX
  5
433
  8
0
 62
     9
 10
0.0
 20
0.0
 30
0.0
 70
   128
 71
   104
 72
   163
 73
    39
  0
VERTEX
  5
434
  8
0
 62
     9
 10
0.0
 20
0.0
 30
0.0
 70
   128
 71
   163
 72
   104
 73
   164
  0
VERTEX
  5
435
  8
0
 62
     9
 10
0.0
 20
0.0
 30
0.0
 70
   128
 71
   169
 72
   125
 73
   102
  0
VERTEX
  5
436
  8
0
 62
     9
 10
0.0
 20
0.0
 30
0.0
 70
   128
 71
   163
 72
    37
 73
    39
  0
VERTEX
  5
437
  8
0
 62
     9
 10
0.0
 20
0.0
 30
0.0
 70
   128
 71
   102
 72
   168
 73
   169
  0
VERTEX
  5
438
  8
0
 62
     9
 10
0.0
 20
0.0
 30
0.0
 70
   128
 71
   167
 72
   168
 73
   124
  0
VERTEX
  5
439
  8
0
 62
     9
 10
0.0
 20
0.0
 30
0.0
 70
   128
 71
   171
 72
   110
 73
   111
  0
VERTEX
  5
43A
  8
0
 62
     9
 10
0.0
 20
0.0
 30
0.0
 70
   128
 71
   110
 72
   171
 73
   167
  0
VERTEX
  5
43B
  8
0
 62
     9
 10
0.0
 20
0.0
 30
0.0
 70
   128
 71
   107
 72
   170
 73
   111
  0
VERTEX
  5
43C
  8
0
 62
     9
 10
0.0
 20
0.0
 30
0.0
 70
   128
 71
   117
 72
   172
 73
   173
  0
VERTEX
  5
43D
  8
0
 62
     9
 10
0.0
 20
0.0
 30
0.0
 70
   128
 71
   170
 72
   107
 73
   173
  0
VERTEX
  5
43E
  8
0
 62
     9
 10
0.0
 20
0.0
 30
0.0
 70
   128
 71
   115
 72
   113
 73
   175
  0
VERTEX
  5
43F
  8
0
 62
     9
 10
0.0
 20
0.0
 30
0.0
 70
   128
 71
   172
 72
   117
 73
   115
  0
VERTEX
  5
440
  8
0
 62
     9
 10
0.0
 20
0.0
 30
0.0
 70
   128
 71
   114
 72
   174
 73
   113
  0
VERTEX
  5
441
  8
0
 62
     9
 10
0.0
 20
0.0
 30
0.0
 70
   128
 71
   174
 72
   175
 73
   113
  0
VERTEX
  5
442
  8
0
 62
     9
 10
0.0
 20
0.0
 30
0.0
 70
   128
 71
   177
 72
   119
 73
   176
  0
VERTEX
  5
443
  8
0
 62
     9
 10
0.0
 20
0.0
 30
0.0
 70
   128
 71
   119
 72
   177
 73
   114
  0
VERTEX
  5
444
  8
0
 62
     9
 10
0.0
 20
0.0
 30
0.0
 70
   128
 71
   178
 72
   176
 73
   121
  0
VERTEX
  5
445
  8
0
 62
     9
 10
0.0
 20
0.0
 30
0.0
 70
   128
 71
   123
 72
    19
 73
    20
  0
VERTEX
  5
446
  8
0
 62
     9
 10
0.0
 20
0.0
 30
0.0
 70
   128
 71
   121
 72
   123
 73
   178
  0
SEQEND
  5
447
  8
0
 62
     9
  0
ENDBLK
  5
44A
  8
0
  0
BLOCK
  8
0
  2
41
 70
     0
 10
0.0
 20
0.0
 30
0.0
  3
41
  1

  0
POLYLINE
  5
44C
  8
0
 62
     9
 66
     1
 10
0.0
 20
0.0
 30
0.0
 70
    64
 71
    28
 72
    38
  0
VERTEX
  5
44D
  8
0
 10
13.75
 20
0.7216878533363342
 30
-13.50142192840576
 70
   192
  0
VERTEX
  5
44E
  8
0
 10
12.5
 20
-1.443375706672668
 30
-13.50142192840576
 70
   192
  0
VERTEX
  5
44F
  8
0
 10
13.75
 20
-0.7216878533363342
 30
-13.50142192840576
 70
   192
  0
VERTEX
  5
450
  8
0
 10
11.25
 20
-0.7216878533363342
 30
-13.50142192840576
 70
   192
  0
VERTEX
  5
451
  8
0
 10
11.25
 20
0.7216878533363342
 30
-13.50142192840576
 70
   192
  0
VERTEX
  5
452
  8
0
 10
12.5
 20
1.443375706672668
 30
-13.50142192840576
 70
   192
  0
VERTEX
  5
453
  8
0
 10
11.87380790710449
 20
-1.081843852996826
 30
-15.38977718353271
 70
   192
  0
VERTEX
  5
454
  8
0
 10
12.5
 20
-1.443375706672668
 30
-15.50142192840576
 70
   192
  0
VERTEX
  5
455
  8
0
 10
11.25
 20
-0.7216878533363342
 30
-15.50142192840576
 70
   192
  0
VERTEX
  5
456
  8
0
 10
11.25
 20
0.7216878533363342
 30
-15.50142192840576
 70
   192
  0
VERTEX
  5
457
  8
0
 10
11.87619113922119
 20
1.083219647407532
 30
-15.38977718353271
 70
   192
  0
VERTEX
  5
458
  8
0
 10
12.5
 20
1.443375706672668
 30
-15.50142192840576
 70
   192
  0
VERTEX
  5
459
  8
0
 10
13.75
 20
0.7216878533363342
 30
-15.50142192840576
 70
   192
  0
VERTEX
  5
45A
  8
0
 10
13.75
 20
-0.7216878533363342
 30
-15.50142192840576
 70
   192
  0
VERTEX
  5
45B
  8
0
 10
14.15329742431641
 20
1.142151594161987
 30
-15.50142192840576
 70
   192
  0
VERTEX
  5
45C
  8
0
 10
13.43271160125732
 20
1.779778480529785
 30
-15.50142192840576
 70
   192
  0
VERTEX
  5
45D
  8
0
 10
11.5652437210083
 20
1.778702974319458
 30
-15.50142192840576
 70
   192
  0
VERTEX
  5
45E
  8
0
 10
10.62100887298584
 20
-0.7124330997467041
 30
-15.50142192840576
 70
   192
  0
VERTEX
  5
45F
  8
0
 10
10.50514793395996
 20
0.2414601892232895
 30
-15.50142192840576
 70
   192
  0
VERTEX
  5
460
  8
0
 10
11.16792964935303
 20
-1.504499435424805
 30
-15.50142192840576
 70
   192
  0
VERTEX
  5
461
  8
0
 10
10.8463830947876
 20
1.141788244247437
 30
-15.50142192840576
 70
   192
  0
VERTEX
  5
462
  8
0
 10
12.01938819885254
 20
-1.951186299324036
 30
-15.50142192840576
 70
   192
  0
VERTEX
  5
463
  8
0
 10
12.5
 20
2.009500026702881
 30
-15.50142192840576
 70
   192
  0
VERTEX
  5
464
  8
0
 10
13.83316040039062
 20
-1.503542184829712
 30
-15.50142192840576
 70
   192
  0
VERTEX
  5
465
  8
0
 10
12.98163414001465
 20
-1.950895190238953
 30
-15.50142192840576
 70
   192
  0
VERTEX
  5
466
  8
0
 10
14.37920475006104
 20
-0.7116830945014954
 30
-15.50142192840576
 70
   192
  0
VERTEX
  5
467
  8
0
 10
13.75
 20
0.0001698252890492
 30
-15.3897762298584
 70
   192
  0
VERTEX
  5
468
  8
0
 10
14.49461841583252
 20
0.243384063243866
 30
-15.50142192840576
 70
   192
  0
VERTEX
  5
469
  8
0
 62
     9
 10
0.0
 20
0.0
 30
0.0
 70
   128
 71
     3
 72
     2
 73
     1
  0
VERTEX
  5
46A
  8
0
 62
     9
 10
0.0
 20
0.0
 30
0.0
 70
   128
 71
     4
 72
     1
 73
     2
  0
VERTEX
  5
46B
  8
0
 62
     9
 10
0.0
 20
0.0
 30
0.0
 70
   128
 71
     6
 72
     4
 73
     5
  0
VERTEX
  5
46C
  8
0
 62
     9
 10
0.0
 20
0.0
 30
0.0
 70
   128
 71
     1
 72
     4
 73
     6
  0
VERTEX
  5
46D
  8
0
 62
     9
 10
0.0
 20
0.0
 30
0.0
 70
   128
 71
     2
 72
     8
 73
     7
  0
VERTEX
  5
46E
  8
0
 62
     9
 10
0.0
 20
0.0
 30
0.0
 70
   128
 71
     4
 72
     2
 73
     7
  0
VERTEX
  5
46F
  8
0
 62
     9
 10
0.0
 20
0.0
 30
0.0
 70
   128
 71
     7
 72
     9
 73
     4
  0
VERTEX
  5
470
  8
0
 62
     9
 10
0.0
 20
0.0
 30
0.0
 70
   128
 71
     5
 72
     4
 73
     9
  0
VERTEX
  5
471
  8
0
 62
     9
 10
0.0
 20
0.0
 30
0.0
 70
   128
 71
     9
 72
    10
 73
     5
  0
VERTEX
  5
472
  8
0
 62
     9
 10
0.0
 20
0.0
 30
0.0
 70
   128
 71
     5
 72
    10
 73
    11
  0
VERTEX
  5
473
  8
0
 62
     9
 10
0.0
 20
0.0
 30
0.0
 70
   128
 71
     6
 72
     5
 73
    11
  0
VERTEX
  5
474
  8
0
 62
     9
 10
0.0
 20
0.0
 30
0.0
 70
   128
 71
    11
 72
    12
 73
     6
  0
VERTEX
  5
475
  8
0
 62
     9
 10
0.0
 20
0.0
 30
0.0
 70
   128
 71
     6
 72
    12
 73
    13
  0
VERTEX
  5
476
  8
0
 62
     9
 10
0.0
 20
0.0
 30
0.0
 70
   128
 71
    13
 72
     1
 73
     6
  0
VERTEX
  5
477
  8
0
 62
     9
 10
0.0
 20
0.0
 30
0.0
 70
   128
 71
     3
 72
    14
 73
     8
  0
VERTEX
  5
478
  8
0
 62
     9
 10
0.0
 20
0.0
 30
0.0
 70
   128
 71
     8
 72
     2
 73
     3
  0
VERTEX
  5
479
  8
0
 62
     9
 10
0.0
 20
0.0
 30
0.0
 70
   128
 71
    16
 72
    15
 73
    13
  0
VERTEX
  5
47A
  8
0
 62
     9
 10
0.0
 20
0.0
 30
0.0
 70
   128
 71
    12
 72
    11
 73
    17
  0
VERTEX
  5
47B
  8
0
 62
     9
 10
0.0
 20
0.0
 30
0.0
 70
   128
 71
    19
 72
     9
 73
    18
  0
VERTEX
  5
47C
  8
0
 62
     9
 10
0.0
 20
0.0
 30
0.0
 70
   128
 71
    18
 72
     9
 73
    20
  0
VERTEX
  5
47D
  8
0
 62
     9
 10
0.0
 20
0.0
 30
0.0
 70
   128
 71
    21
 72
    10
 73
    19
  0
VERTEX
  5
47E
  8
0
 62
     9
 10
0.0
 20
0.0
 30
0.0
 70
   128
 71
    20
 72
     7
 73
    22
  0
VERTEX
  5
47F
  8
0
 62
     9
 10
0.0
 20
0.0
 30
0.0
 70
   128
 71
    17
 72
    11
 73
    21
  0
VERTEX
  5
480
  8
0
 62
     9
 10
0.0
 20
0.0
 30
0.0
 70
   128
 71
    17
 72
    23
 73
    12
  0
VERTEX
  5
481
  8
0
 62
     9
 10
0.0
 20
0.0
 30
0.0
 70
   128
 71
    23
 72
    16
 73
    12
  0
VERTEX
  5
482
  8
0
 62
     9
 10
0.0
 20
0.0
 30
0.0
 70
   128
 71
    14
 72
    24
 73
     8
  0
VERTEX
  5
483
  8
0
 62
     9
 10
0.0
 20
0.0
 30
0.0
 70
   128
 71
    16
 72
    13
 73
    12
  0
VERTEX
  5
484
  8
0
 62
     9
 10
0.0
 20
0.0
 30
0.0
 70
   128
 71
    11
 72
    10
 73
    21
  0
VERTEX
  5
485
  8
0
 62
     9
 10
0.0
 20
0.0
 30
0.0
 70
   128
 71
    10
 72
     9
 73
    19
  0
VERTEX
  5
486
  8
0
 62
     9
 10
0.0
 20
0.0
 30
0.0
 70
   128
 71
     9
 72
     7
 73
    20
  0
VERTEX
  5
487
  8
0
 62
     9
 10
0.0
 20
0.0
 30
0.0
 70
   128
 71
     7
 72
     8
 73
    22
  0
VERTEX
  5
488
  8
0
 62
     9
 10
0.0
 20
0.0
 30
0.0
 70
   128
 71
    25
 72
     8
 73
    24
  0
VERTEX
  5
489
  8
0
 62
     9
 10
0.0
 20
0.0
 30
0.0
 70
   128
 71
     8
 72
    25
 73
    22
  0
VERTEX
  5
48A
  8
0
 62
     9
 10
0.0
 20
0.0
 30
0.0
 70
   128
 71
    14
 72
    27
 73
    26
  0
VERTEX
  5
48B
  8
0
 62
     9
 10
0.0
 20
0.0
 30
0.0
 70
   128
 71
    14
 72
    26
 73
    24
  0
VERTEX
  5
48C
  8
0
 62
     9
 10
0.0
 20
0.0
 30
0.0
 70
   128
 71
    27
 72
    13
 73
    28
  0
VERTEX
  5
48D
  8
0
 62
     9
 10
0.0
 20
0.0
 30
0.0
 70
   128
 71
    27
 72
    28
 73
    26
  0
VERTEX
  5
48E
  8
0
 62
     9
 10
0.0
 20
0.0
 30
0.0
 70
   128
 71
    13
 72
    15
 73
    28
  0
SEQEND
  5
48F
  8
0
 62
     9
  0
ENDBLK
  5
492
  8
0
  0
BLOCK
  8
0
  2
1_1_
 70
     0
 10
0.0
 20
0.0
 30
0.0
  3
1_1_
  1

  0
POLYLINE
  5
494
  8
0
 62
     9
 66
     1
 10
0.0
 20
0.0
 30
0.0
 70
    64
 71
    59
 72
   114
  0
VERTEX
  5
495
  8
0
 10
-2.000000238418579
 20
-33.69105529785156
 30
33.96034240722656
 70
   192
  0
VERTEX
  5
496
  8
0
 10
-2.000000238418579
 20
-33.85326766967773
 30
33.85195541381836
 70
   192
  0
VERTEX
  5
497
  8
0
 10
7.5
 20
-33.68877792358398
 30
33.96157073974609
 70
   192
  0
VERTEX
  5
498
  8
0
 10
7.5
 20
-33.85150909423828
 30
33.8502082824707
 70
   192
  0
VERTEX
  5
499
  8
0
 10
7.5
 20
-33.49971389770508
 30
33.9984016418457
 70
   192
  0
VERTEX
  5
49A
  8
0
 10
-2.000000238418579
 20
-33.49971389770508
 30
33.9984016418457
 70
   192
  0
VERTEX
  5
49B
  8
0
 10
7.5
 20
34.00028610229492
 30
33.4984016418457
 70
   192
  0
VERTEX
  5
49C
  8
0
 10
7.5
 20
34.00028610229492
 30
-33.5015983581543
 70
   192
  0
VERTEX
  5
49D
  8
0
 10
-2.000000238418579
 20
34.00028610229492
 30
33.4984016418457
 70
   192
  0
VERTEX
  5
49E
  8
0
 10
-2.000000238418579
 20
34.00028610229492
 30
-33.5015983581543
 70
   192
  0
VERTEX
  5
49F
  8
0
 10
7.5
 20
33.50028610229492
 30
-34.0015983581543
 70
   192
  0
VERTEX
  5
4A0
  8
0
 10
-2.000000238418579
 20
-33.49971389770508
 30
-34.0015983581543
 70
   192
  0
VERTEX
  5
4A1
  8
0
 10
-2.000000238418579
 20
33.50028610229492
 30
-34.0015983581543
 70
   192
  0
VERTEX
  5
4A2
  8
0
 10
7.5
 20
-33.49971389770508
 30
-34.0015983581543
 70
   192
  0
VERTEX
  5
4A3
  8
0
 10
-2.000000238418579
 20
33.50028610229492
 30
33.9984016418457
 70
   192
  0
VERTEX
  5
4A4
  8
0
 10
7.5
 20
33.50028610229492
 30
33.9984016418457
 70
   192
  0
VERTEX
  5
4A5
  8
0
 10
-2.000000238418579
 20
33.85383987426758
 30
33.85195541381836
 70
   192
  0
VERTEX
  5
4A6
  8
0
 10
-2.000000238418579
 20
-33.99971389770508
 30
33.4984016418457
 70
   192
  0
VERTEX
  5
4A7
  8
0
 10
-2.000000238418579
 20
-33.99971389770508
 30
-33.5015983581543
 70
   192
  0
VERTEX
  5
4A8
  8
0
 10
-2.000000238418579
 20
33.85383987426758
 30
-33.85515213012695
 70
   192
  0
VERTEX
  5
4A9
  8
0
 10
-2.000000238418579
 20
-33.85326766967773
 30
-33.85515213012695
 70
   192
  0
VERTEX
  5
4AA
  8
0
 10
-2.000000238418579
 20
-33.96165084838867
 30
33.68974304199219
 70
   192
  0
VERTEX
  5
4AB
  8
0
 10
7.5
 20
-33.99971389770508
 30
33.4984016418457
 70
   192
  0
VERTEX
  5
4AC
  8
0
 10
7.5
 20
-33.99971389770508
 30
-33.5015983581543
 70
   192
  0
VERTEX
  5
4AD
  8
0
 10
8.0
 20
-33.49971389770508
 30
-33.5015983581543
 70
   192
  0
VERTEX
  5
4AE
  8
0
 10
8.0
 20
33.50028610229492
 30
-33.5015983581543
 70
   192
  0
VERTEX
  5
4AF
  8
0
 10
8.0
 20
33.50028610229492
 30
33.4984016418457
 70
   192
  0
VERTEX
  5
4B0
  8
0
 10
8.0
 20
-33.49971389770508
 30
33.4984016418457
 70
   192
  0
VERTEX
  5
4B1
  8
0
 10
7.933624744415283
 20
33.74893569946289
 30
33.4984016418457
 70
   192
  0
VERTEX
  5
4B2
  8
0
 10
7.931791305541992
 20
33.75167846679688
 30
-33.5015983581543
 70
   192
  0
VERTEX
  5
4B3
  8
0
 10
7.748648643493652
 20
33.93391036987305
 30
-33.5015983581543
 70
   192
  0
VERTEX
  5
4B4
  8
0
 10
7.751392841339111
 20
33.93207931518555
 30
33.4984016418457
 70
   192
  0
VERTEX
  5
4B5
  8
0
 10
7.933624744415283
 20
33.50028610229492
 30
-33.75024795532227
 70
   192
  0
VERTEX
  5
4B6
  8
0
 10
7.931791305541992
 20
-33.49971389770508
 30
-33.75299072265625
 70
   192
  0
VERTEX
  5
4B7
  8
0
 10
7.748648643493652
 20
-33.49971389770508
 30
-33.93522262573242
 70
   192
  0
VERTEX
  5
4B8
  8
0
 10
7.751392841339111
 20
33.50028610229492
 30
-33.93338775634766
 70
   192
  0
VERTEX
  5
4B9
  8
0
 10
7.936251163482666
 20
-33.74187850952148
 30
-33.5015983581543
 70
   192
  0
VERTEX
  5
4BA
  8
0
 10
7.931791305541992
 20
-33.75110626220703
 30
33.4984016418457
 70
   192
  0
VERTEX
  5
4BB
  8
0
 10
7.748648643493652
 20
-33.9333381652832
 30
33.4984016418457
 70
   192
  0
VERTEX
  5
4BC
  8
0
 10
7.747012138366699
 20
-33.93395614624023
 30
-33.5015983581543
 70
   192
  0
VERTEX
  5
4BD
  8
0
 10
7.933624744415283
 20
-33.49971389770508
 30
33.74705123901367
 70
   192
  0
VERTEX
  5
4BE
  8
0
 10
7.931791305541992
 20
33.50028610229492
 30
33.74979400634766
 70
   192
  0
VERTEX
  5
4BF
  8
0
 10
7.748648643493652
 20
33.50028610229492
 30
33.93202590942383
 70
   192
  0
VERTEX
  5
4C0
  8
0
 10
7.751392841339111
 20
-33.49971389770508
 30
33.93019485473633
 70
   192
  0
VERTEX
  5
4C1
  8
0
 10
7.5
 20
33.74729919433594
 30
33.93264389038086
 70
   192
  0
VERTEX
  5
4C2
  8
0
 10
7.5
 20
33.93653869628906
 30
33.74056625366211
 70
   192
  0
VERTEX
  5
4C3
  8
0
 10
7.5
 20
33.93453216552734
 30
-33.74861145019531
 70
   192
  0
VERTEX
  5
4C4
  8
0
 10
7.5
 20
33.74245071411133
 30
-33.93784713745117
 70
   192
  0
VERTEX
  5
4C5
  8
0
 10
7.5
 20
-33.75110626220703
 30
-33.93338775634766
 70
   192
  0
VERTEX
  5
4C6
  8
0
 10
7.5
 20
-33.9333381652832
 30
-33.75024795532227
 70
   192
  0
VERTEX
  5
4C7
  8
0
 10
7.5
 20
-33.9619140625
 30
33.68949127197266
 70
   192
  0
VERTEX
  5
4C8
  8
0
 10
7.720958232879639
 20
33.72015380859375
 30
33.88650131225586
 70
   192
  0
VERTEX
  5
4C9
  8
0
 10
7.720958232879639
 20
33.88838577270508
 30
33.71826934814453
 70
   192
  0
VERTEX
  5
4CA
  8
0
 10
7.720958232879639
 20
33.72015380859375
 30
-33.88969421386719
 70
   192
  0
VERTEX
  5
4CB
  8
0
 10
7.720958232879639
 20
33.88838577270508
 30
-33.72146606445312
 70
   192
  0
VERTEX
  5
4CC
  8
0
 10
7.71986722946167
 20
-33.88780975341797
 30
-33.72255706787109
 70
   192
  0
VERTEX
  5
4CD
  8
0
 10
7.888097286224365
 20
-33.71958160400391
 30
-33.72255706787109
 70
   192
  0
VERTEX
  5
4CE
  8
0
 10
7.720958232879639
 20
-33.71958160400391
 30
33.88650131225586
 70
   192
  0
VERTEX
  5
4CF
  8
0
 10
7.720958232879639
 20
-33.88780975341797
 30
33.71826934814453
 70
   192
  0
VERTEX
  5
4D0
  8
0
 62
     9
 10
0.0
 20
0.0
 30
0.0
 70
   128
 71
     3
 72
     2
 73
     1
  0
VERTEX
  5
4D1
  8
0
 62
     9
 10
0.0
 20
0.0
 30
0.0
 70
   128
 71
     3
 72
     4
 73
     2
  0
VERTEX
  5
4D2
  8
0
 62
     9
 10
0.0
 20
0.0
 30
0.0
 70
   128
 71
     3
 72
     1
 73
     5
  0
VERTEX
  5
4D3
  8
0
 62
     9
 10
0.0
 20
0.0
 30
0.0
 70
   128
 71
     6
 72
     5
 73
     1
  0
VERTEX
  5
4D4
  8
0
 62
     9
 10
0.0
 20
0.0
 30
0.0
 70
   128
 71
     9
 72
     8
 73
     7
  0
VERTEX
  5
4D5
  8
0
 62
     9
 10
0.0
 20
0.0
 30
0.0
 70
   128
 71
     8
 72
     9
 73
    10
  0
VERTEX
  5
4D6
  8
0
 62
     9
 10
0.0
 20
0.0
 30
0.0
 70
   128
 71
    13
 72
    12
 73
    11
  0
VERTEX
  5
4D7
  8
0
 62
     9
 10
0.0
 20
0.0
 30
0.0
 70
   128
 71
    14
 72
    11
 73
    12
  0
VERTEX
  5
4D8
  8
0
 62
     9
 10
0.0
 20
0.0
 30
0.0
 70
   128
 71
     5
 72
     6
 73
    15
  0
VERTEX
  5
4D9
  8
0
 62
     9
 10
0.0
 20
0.0
 30
0.0
 70
   128
 71
    16
 72
     5
 73
    15
  0
VERTEX
  5
4DA
  8
0
 62
     9
 10
0.0
 20
0.0
 30
0.0
 70
   128
 71
    10
 72
     6
 73
    13
  0
VERTEX
  5
4DB
  8
0
 62
     9
 10
0.0
 20
0.0
 30
0.0
 70
   128
 71
     6
 72
     1
 73
     2
  0
VERTEX
  5
4DC
  8
0
 62
     9
 10
0.0
 20
0.0
 30
0.0
 70
   128
 71
    15
 72
     9
 73
    17
  0
VERTEX
  5
4DD
  8
0
 62
     9
 10
0.0
 20
0.0
 30
0.0
 70
   128
 71
    10
 72
     9
 73
    15
  0
VERTEX
  5
4DE
  8
0
 62
     9
 10
0.0
 20
0.0
 30
0.0
 70
   128
 71
    15
 72
     6
 73
    10
  0
VERTEX
  5
4DF
  8
0
 62
     9
 10
0.0
 20
0.0
 30
0.0
 70
   128
 71
    19
 72
    12
 73
    18
  0
VERTEX
  5
4E0
  8
0
 62
     9
 10
0.0
 20
0.0
 30
0.0
 70
   128
 71
    10
 72
    13
 73
    20
  0
VERTEX
  5
4E1
  8
0
 62
     9
 10
0.0
 20
0.0
 30
0.0
 70
   128
 71
    13
 72
    18
 73
    12
  0
VERTEX
  5
4E2
  8
0
 62
     9
 10
0.0
 20
0.0
 30
0.0
 70
   128
 71
    19
 72
    21
 73
    12
  0
VERTEX
  5
4E3
  8
0
 62
     9
 10
0.0
 20
0.0
 30
0.0
 70
   128
 71
    18
 72
    13
 73
     6
  0
VERTEX
  5
4E4
  8
0
 62
     9
 10
0.0
 20
0.0
 30
0.0
 70
   128
 71
    18
 72
     2
 73
    22
  0
VERTEX
  5
4E5
  8
0
 62
     9
 10
0.0
 20
0.0
 30
0.0
 70
   128
 71
     2
 72
    18
 73
     6
  0
VERTEX
  5
4E6
  8
0
 62
     9
 10
0.0
 20
0.0
 30
0.0
 70
   128
 71
    18
 72
    23
 73
    19
  0
VERTEX
  5
4E7
  8
0
 62
     9
 10
0.0
 20
0.0
 30
0.0
 70
   128
 71
    23
 72
    24
 73
    19
  0
VERTEX
  5
4E8
  8
0
 62
     9
 10
0.0
 20
0.0
 30
0.0
 70
   128
 71
    27
 72
    26
 73
    25
  0
VERTEX
  5
4E9
  8
0
 62
     9
 10
0.0
 20
0.0
 30
0.0
 70
   128
 71
    28
 72
    27
 73
    25
  0
VERTEX
  5
4EA
  8
0
 62
     9
 10
0.0
 20
0.0
 30
0.0
 70
   128
 71
    31
 72
    30
 73
    29
  0
VERTEX
  5
4EB
  8
0
 62
     9
 10
0.0
 20
0.0
 30
0.0
 70
   128
 71
    32
 72
     7
 73
     8
  0
VERTEX
  5
4EC
  8
0
 62
     9
 10
0.0
 20
0.0
 30
0.0
 70
   128
 71
    31
 72
    29
 73
    32
  0
VERTEX
  5
4ED
  8
0
 62
     9
 10
0.0
 20
0.0
 30
0.0
 70
   128
 71
    30
 72
    26
 73
    27
  0
VERTEX
  5
4EE
  8
0
 62
     9
 10
0.0
 20
0.0
 30
0.0
 70
   128
 71
    29
 72
    30
 73
    27
  0
VERTEX
  5
4EF
  8
0
 62
     9
 10
0.0
 20
0.0
 30
0.0
 70
   128
 71
    31
 72
    32
 73
     8
  0
VERTEX
  5
4F0
  8
0
 62
     9
 10
0.0
 20
0.0
 30
0.0
 70
   128
 71
    35
 72
    34
 73
    33
  0
VERTEX
  5
4F1
  8
0
 62
     9
 10
0.0
 20
0.0
 30
0.0
 70
   128
 71
    36
 72
    11
 73
    14
  0
VERTEX
  5
4F2
  8
0
 62
     9
 10
0.0
 20
0.0
 30
0.0
 70
   128
 71
    35
 72
    33
 73
    36
  0
VERTEX
  5
4F3
  8
0
 62
     9
 10
0.0
 20
0.0
 30
0.0
 70
   128
 71
    34
 72
    25
 73
    26
  0
VERTEX
  5
4F4
  8
0
 62
     9
 10
0.0
 20
0.0
 30
0.0
 70
   128
 71
    33
 72
    34
 73
    26
  0
VERTEX
  5
4F5
  8
0
 62
     9
 10
0.0
 20
0.0
 30
0.0
 70
   128
 71
    35
 72
    36
 73
    14
  0
VERTEX
  5
4F6
  8
0
 62
     9
 10
0.0
 20
0.0
 30
0.0
 70
   128
 71
    39
 72
    38
 73
    37
  0
VERTEX
  5
4F7
  8
0
 62
     9
 10
0.0
 20
0.0
 30
0.0
 70
   128
 71
    40
 72
    24
 73
    23
  0
VERTEX
  5
4F8
  8
0
 62
     9
 10
0.0
 20
0.0
 30
0.0
 70
   128
 71
    39
 72
    37
 73
    40
  0
VERTEX
  5
4F9
  8
0
 62
     9
 10
0.0
 20
0.0
 30
0.0
 70
   128
 71
    38
 72
    28
 73
    25
  0
VERTEX
  5
4FA
  8
0
 62
     9
 10
0.0
 20
0.0
 30
0.0
 70
   128
 71
    37
 72
    38
 73
    25
  0
VERTEX
  5
4FB
  8
0
 62
     9
 10
0.0
 20
0.0
 30
0.0
 70
   128
 71
    39
 72
    40
 73
    23
  0
VERTEX
  5
4FC
  8
0
 62
     9
 10
0.0
 20
0.0
 30
0.0
 70
   128
 71
    43
 72
    42
 73
    41
  0
VERTEX
  5
4FD
  8
0
 62
     9
 10
0.0
 20
0.0
 30
0.0
 70
   128
 71
    44
 72
     5
 73
    16
  0
VERTEX
  5
4FE
  8
0
 62
     9
 10
0.0
 20
0.0
 30
0.0
 70
   128
 71
    43
 72
    41
 73
    44
  0
VERTEX
  5
4FF
  8
0
 62
     9
 10
0.0
 20
0.0
 30
0.0
 70
   128
 71
    42
 72
    27
 73
    28
  0
VERTEX
  5
500
  8
0
 62
     9
 10
0.0
 20
0.0
 30
0.0
 70
   128
 71
    41
 72
    42
 73
    28
  0
VERTEX
  5
501
  8
0
 62
     9
 10
0.0
 20
0.0
 30
0.0
 70
   128
 71
    43
 72
    44
 73
    16
  0
VERTEX
  5
502
  8
0
 62
     9
 10
0.0
 20
0.0
 30
0.0
 70
   128
 71
    45
 72
    16
 73
    15
  0
VERTEX
  5
503
  8
0
 62
     9
 10
0.0
 20
0.0
 30
0.0
 70
   128
 71
    46
 72
    17
 73
     9
  0
VERTEX
  5
504
  8
0
 62
     9
 10
0.0
 20
0.0
 30
0.0
 70
   128
 71
    46
 72
    45
 73
    17
  0
VERTEX
  5
505
  8
0
 62
     9
 10
0.0
 20
0.0
 30
0.0
 70
   128
 71
    17
 72
    45
 73
    15
  0
VERTEX
  5
506
  8
0
 62
     9
 10
0.0
 20
0.0
 30
0.0
 70
   128
 71
     7
 72
    46
 73
     9
  0
VERTEX
  5
507
  8
0
 62
     9
 10
0.0
 20
0.0
 30
0.0
 70
   128
 71
    20
 72
    48
 73
    47
  0
VERTEX
  5
508
  8
0
 62
     9
 10
0.0
 20
0.0
 30
0.0
 70
   128
 71
    47
 72
     8
 73
    10
  0
VERTEX
  5
509
  8
0
 62
     9
 10
0.0
 20
0.0
 30
0.0
 70
   128
 71
    20
 72
    47
 73
    10
  0
VERTEX
  5
50A
  8
0
 62
     9
 10
0.0
 20
0.0
 30
0.0
 70
   128
 71
    13
 72
    11
 73
    48
  0
VERTEX
  5
50B
  8
0
 62
     9
 10
0.0
 20
0.0
 30
0.0
 70
   128
 71
    20
 72
    13
 73
    48
  0
VERTEX
  5
50C
  8
0
 62
     9
 10
0.0
 20
0.0
 30
0.0
 70
   128
 71
    21
 72
    50
 73
    49
  0
VERTEX
  5
50D
  8
0
 62
     9
 10
0.0
 20
0.0
 30
0.0
 70
   128
 71
    49
 72
    14
 73
    12
  0
VERTEX
  5
50E
  8
0
 62
     9
 10
0.0
 20
0.0
 30
0.0
 70
   128
 71
    21
 72
    49
 73
    12
  0
VERTEX
  5
50F
  8
0
 62
     9
 10
0.0
 20
0.0
 30
0.0
 70
   128
 71
    19
 72
    24
 73
    50
  0
VERTEX
  5
510
  8
0
 62
     9
 10
0.0
 20
0.0
 30
0.0
 70
   128
 71
    21
 72
    19
 73
    50
  0
VERTEX
  5
511
  8
0
 62
     9
 10
0.0
 20
0.0
 30
0.0
 70
   128
 71
     2
 72
     4
 73
    22
  0
VERTEX
  5
512
  8
0
 62
     9
 10
0.0
 20
0.0
 30
0.0
 70
   128
 71
    51
 72
    23
 73
    18
  0
VERTEX
  5
513
  8
0
 62
     9
 10
0.0
 20
0.0
 30
0.0
 70
   128
 71
    22
 72
     4
 73
    51
  0
VERTEX
  5
514
  8
0
 62
     9
 10
0.0
 20
0.0
 30
0.0
 70
   128
 71
    22
 72
    51
 73
    18
  0
VERTEX
  5
515
  8
0
 62
     9
 10
0.0
 20
0.0
 30
0.0
 70
   128
 71
    52
 72
    43
 73
    16
  0
VERTEX
  5
516
  8
0
 62
     9
 10
0.0
 20
0.0
 30
0.0
 70
   128
 71
    43
 72
    52
 73
    42
  0
VERTEX
  5
517
  8
0
 62
     9
 10
0.0
 20
0.0
 30
0.0
 70
   128
 71
    52
 72
    45
 73
    53
  0
VERTEX
  5
518
  8
0
 62
     9
 10
0.0
 20
0.0
 30
0.0
 70
   128
 71
    29
 72
    27
 73
    42
  0
VERTEX
  5
519
  8
0
 62
     9
 10
0.0
 20
0.0
 30
0.0
 70
   128
 71
    52
 72
    29
 73
    42
  0
VERTEX
  5
51A
  8
0
 62
     9
 10
0.0
 20
0.0
 30
0.0
 70
   128
 71
    46
 72
     7
 73
    53
  0
VERTEX
  5
51B
  8
0
 62
     9
 10
0.0
 20
0.0
 30
0.0
 70
   128
 71
    52
 72
    53
 73
    29
  0
VERTEX
  5
51C
  8
0
 62
     9
 10
0.0
 20
0.0
 30
0.0
 70
   128
 71
    45
 72
    52
 73
    16
  0
VERTEX
  5
51D
  8
0
 62
     9
 10
0.0
 20
0.0
 30
0.0
 70
   128
 71
    32
 72
    29
 73
    53
  0
VERTEX
  5
51E
  8
0
 62
     9
 10
0.0
 20
0.0
 30
0.0
 70
   128
 71
    32
 72
    53
 73
     7
  0
VERTEX
  5
51F
  8
0
 62
     9
 10
0.0
 20
0.0
 30
0.0
 70
   128
 71
    46
 72
    53
 73
    45
  0
VERTEX
  5
520
  8
0
 62
     9
 10
0.0
 20
0.0
 30
0.0
 70
   128
 71
    54
 72
    48
 73
    11
  0
VERTEX
  5
521
  8
0
 62
     9
 10
0.0
 20
0.0
 30
0.0
 70
   128
 71
    55
 72
    31
 73
     8
  0
VERTEX
  5
522
  8
0
 62
     9
 10
0.0
 20
0.0
 30
0.0
 70
   128
 71
    30
 72
    31
 73
    55
  0
VERTEX
  5
523
  8
0
 62
     9
 10
0.0
 20
0.0
 30
0.0
 70
   128
 71
    47
 72
    48
 73
    55
  0
VERTEX
  5
524
  8
0
 62
     9
 10
0.0
 20
0.0
 30
0.0
 70
   128
 71
    33
 72
    30
 73
    54
  0
VERTEX
  5
525
  8
0
 62
     9
 10
0.0
 20
0.0
 30
0.0
 70
   128
 71
    26
 72
    30
 73
    33
  0
VERTEX
  5
526
  8
0
 62
     9
 10
0.0
 20
0.0
 30
0.0
 70
   128
 71
    30
 72
    55
 73
    54
  0
VERTEX
  5
527
  8
0
 62
     9
 10
0.0
 20
0.0
 30
0.0
 70
   128
 71
    47
 72
    55
 73
     8
  0
VERTEX
  5
528
  8
0
 62
     9
 10
0.0
 20
0.0
 30
0.0
 70
   128
 71
    36
 72
    33
 73
    54
  0
VERTEX
  5
529
  8
0
 62
     9
 10
0.0
 20
0.0
 30
0.0
 70
   128
 71
    36
 72
    54
 73
    11
  0
VERTEX
  5
52A
  8
0
 62
     9
 10
0.0
 20
0.0
 30
0.0
 70
   128
 71
    54
 72
    55
 73
    48
  0
VERTEX
  5
52B
  8
0
 62
     9
 10
0.0
 20
0.0
 30
0.0
 70
   128
 71
    56
 72
    50
 73
    24
  0
VERTEX
  5
52C
  8
0
 62
     9
 10
0.0
 20
0.0
 30
0.0
 70
   128
 71
    50
 72
    56
 73
    49
  0
VERTEX
  5
52D
  8
0
 62
     9
 10
0.0
 20
0.0
 30
0.0
 70
   128
 71
    56
 72
    40
 73
    57
  0
VERTEX
  5
52E
  8
0
 62
     9
 10
0.0
 20
0.0
 30
0.0
 70
   128
 71
    35
 72
    14
 73
    49
  0
VERTEX
  5
52F
  8
0
 62
     9
 10
0.0
 20
0.0
 30
0.0
 70
   128
 71
    56
 72
    35
 73
    49
  0
VERTEX
  5
530
  8
0
 62
     9
 10
0.0
 20
0.0
 30
0.0
 70
   128
 71
    37
 72
    25
 73
    57
  0
VERTEX
  5
531
  8
0
 62
     9
 10
0.0
 20
0.0
 30
0.0
 70
   128
 71
    56
 72
    57
 73
    35
  0
VERTEX
  5
532
  8
0
 62
     9
 10
0.0
 20
0.0
 30
0.0
 70
   128
 71
    40
 72
    56
 73
    24
  0
VERTEX
  5
533
  8
0
 62
     9
 10
0.0
 20
0.0
 30
0.0
 70
   128
 71
    34
 72
    35
 73
    57
  0
VERTEX
  5
534
  8
0
 62
     9
 10
0.0
 20
0.0
 30
0.0
 70
   128
 71
    34
 72
    57
 73
    25
  0
VERTEX
  5
535
  8
0
 62
     9
 10
0.0
 20
0.0
 30
0.0
 70
   128
 71
    37
 72
    57
 73
    40
  0
VERTEX
  5
536
  8
0
 62
     9
 10
0.0
 20
0.0
 30
0.0
 70
   128
 71
    58
 72
     4
 73
     3
  0
VERTEX
  5
537
  8
0
 62
     9
 10
0.0
 20
0.0
 30
0.0
 70
   128
 71
     3
 72
     5
 73
    44
  0
VERTEX
  5
538
  8
0
 62
     9
 10
0.0
 20
0.0
 30
0.0
 70
   128
 71
    59
 72
    23
 73
    51
  0
VERTEX
  5
539
  8
0
 62
     9
 10
0.0
 20
0.0
 30
0.0
 70
   128
 71
    59
 72
    38
 73
    39
  0
VERTEX
  5
53A
  8
0
 62
     9
 10
0.0
 20
0.0
 30
0.0
 70
   128
 71
    23
 72
    59
 73
    39
  0
VERTEX
  5
53B
  8
0
 62
     9
 10
0.0
 20
0.0
 30
0.0
 70
   128
 71
    41
 72
    38
 73
    59
  0
VERTEX
  5
53C
  8
0
 62
     9
 10
0.0
 20
0.0
 30
0.0
 70
   128
 71
    28
 72
    38
 73
    41
  0
VERTEX
  5
53D
  8
0
 62
     9
 10
0.0
 20
0.0
 30
0.0
 70
   128
 71
    59
 72
    58
 73
    41
  0
VERTEX
  5
53E
  8
0
 62
     9
 10
0.0
 20
0.0
 30
0.0
 70
   128
 71
     4
 72
    59
 73
    51
  0
VERTEX
  5
53F
  8
0
 62
     9
 10
0.0
 20
0.0
 30
0.0
 70
   128
 71
    44
 72
    41
 73
    58
  0
VERTEX
  5
540
  8
0
 62
     9
 10
0.0
 20
0.0
 30
0.0
 70
   128
 71
    44
 72
    58
 73
     3
  0
VERTEX
  5
541
  8
0
 62
     9
 10
0.0
 20
0.0
 30
0.0
 70
   128
 71
    58
 72
    59
 73
     4
  0
SEQEND
  5
542
  8
0
 62
     9
  0
ENDBLK
  5
545
  8
0
  0
BLOCK
  8
0
  2
1_2_
 70
     0
 10
0.0
 20
0.0
 30
0.0
  3
1_2_
  1

  0
POLYLINE
  5
547
  8
0
 62
     9
 66
     1
 10
0.0
 20
0.0
 30
0.0
 70
    64
 71
   190
 72
   343
  0
VERTEX
  5
548
  8
0
 10
186.75
 20
-0.0000000000000083
 30
-6.301421642303467
 70
   192
  0
VERTEX
  5
549
  8
0
 10
186.6277618408203
 20
2.011041402816772
 30
-15.50142192840576
 70
   192
  0
VERTEX
  5
54A
  8
0
 10
186.6244354248047
 20
-2.028881072998047
 30
-15.50142192840576
 70
   192
  0
VERTEX
  5
54B
  8
0
 10
186.1759948730469
 20
4.344321250915527
 30
-6.301421642303467
 70
   192
  0
VERTEX
  5
54C
  8
0
 10
185.6649627685547
 20
5.93619966506958
 30
-15.50142192840576
 70
   192
  0
VERTEX
  5
54D
  8
0
 10
181.8329620361328
 20
11.85229015350342
 30
-6.301421642303467
 70
   192
  0
VERTEX
  5
54E
  8
0
 10
178.3692016601562
 20
14.50860786437988
 30
-6.301421642303467
 70
   192
  0
VERTEX
  5
54F
  8
0
 10
181.1136932373047
 20
12.54321384429932
 30
-15.50142192840576
 70
   192
  0
VERTEX
  5
550
  8
0
 10
183.7911224365234
 20
9.521126747131348
 30
-15.50142192840576
 70
   192
  0
VERTEX
  5
551
  8
0
 10
184.5048217773438
 20
8.3777494430542
 30
-6.301421642303467
 70
   192
  0
VERTEX
  5
552
  8
0
 10
177.7909088134766
 20
14.83667087554932
 30
-15.50142192840576
 70
   192
  0
VERTEX
  5
553
  8
0
 10
174.3330841064453
 20
16.18021202087402
 30
-6.301421642303467
 70
   192
  0
VERTEX
  5
554
  8
0
 10
174.014404296875
 20
16.27062606811523
 30
-15.50142192840576
 70
   192
  0
VERTEX
  5
555
  8
0
 10
170.0
 20
16.75
 30
-6.301421642303467
 70
   192
  0
VERTEX
  5
556
  8
0
 10
170.0
 20
16.75
 30
-15.50142192840576
 70
   192
  0
VERTEX
  5
557
  8
0
 10
186.1809539794922
 20
-4.328325748443604
 30
-6.301421642303467
 70
   192
  0
VERTEX
  5
558
  8
0
 10
185.6490173339844
 20
-5.946342945098877
 30
-15.50142192840576
 70
   192
  0
VERTEX
  5
559
  8
0
 10
184.5086059570312
 20
-8.369194984436035
 30
-6.301421642303467
 70
   192
  0
VERTEX
  5
55A
  8
0
 10
183.7670440673828
 20
-9.516338348388672
 30
-15.50142192840576
 70
   192
  0
VERTEX
  5
55B
  8
0
 10
181.852294921875
 20
-11.83296775817871
 30
-6.301421642303467
 70
   192
  0
VERTEX
  5
55C
  8
0
 10
178.3777465820312
 20
-14.50482368469238
 30
-6.301421642303467
 70
   192
  0
VERTEX
  5
55D
  8
0
 10
181.0872650146484
 20
-12.53777599334717
 30
-15.50142192840576
 70
   192
  0
VERTEX
  5
55E
  8
0
 10
177.7665863037109
 20
-14.82783889770508
 30
-15.50142192840576
 70
   192
  0
VERTEX
  5
55F
  8
0
 10
174.3443145751953
 20
-16.17598915100098
 30
-6.301421642303467
 70
   192
  0
VERTEX
  5
560
  8
0
 10
173.9973907470703
 20
-16.25700378417969
 30
-15.50142192840576
 70
   192
  0
VERTEX
  5
561
  8
0
 10
170.0
 20
-16.75
 30
-6.301421642303467
 70
   192
  0
VERTEX
  5
562
  8
0
 10
170.0
 20
-16.75
 30
-15.50142192840576
 70
   192
  0
VERTEX
  5
563
  8
0
 10
154.3350372314453
 20
5.93619966506958
 30
-15.50142192840576
 70
   192
  0
VERTEX
  5
564
  8
0
 10
153.3401489257812
 20
4.470582008361816
 30
-16.00142097473145
 70
   192
  0
VERTEX
  5
565
  8
0
 10
155.0621795654297
 20
8.62716007232666
 30
-16.00142097473145
 70
   192
  0
VERTEX
  5
566
  8
0
 10
156.2088775634766
 20
9.521126747131348
 30
-15.50142192840576
 70
   192
  0
VERTEX
  5
567
  8
0
 10
157.8112182617188
 20
12.20396900177002
 30
-16.00142097473145
 70
   192
  0
VERTEX
  5
568
  8
0
 10
153.3722381591797
 20
2.011041402816772
 30
-15.50142192840576
 70
   192
  0
VERTEX
  5
569
  8
0
 10
161.3801879882812
 20
14.94121170043945
 30
-16.00142097473145
 70
   192
  0
VERTEX
  5
56A
  8
0
 10
158.8863067626953
 20
12.54321384429932
 30
-15.50142192840576
 70
   192
  0
VERTEX
  5
56B
  8
0
 10
152.7515869140625
 20
0.0067543587647378
 30
-16.00142097473145
 70
   192
  0
VERTEX
  5
56C
  8
0
 10
162.2090911865234
 20
14.83667087554932
 30
-15.50142192840576
 70
   192
  0
VERTEX
  5
56D
  8
0
 10
170.0
 20
17.25
 30
-16.00142097473145
 70
   192
  0
VERTEX
  5
56E
  8
0
 10
165.985595703125
 20
16.27062606811523
 30
-15.50142192840576
 70
   192
  0
VERTEX
  5
56F
  8
0
 10
165.5370330810547
 20
16.66313171386719
 30
-16.00142097473145
 70
   192
  0
VERTEX
  5
570
  8
0
 10
153.3755645751953
 20
-2.028881072998047
 30
-15.50142192840576
 70
   192
  0
VERTEX
  5
571
  8
0
 10
154.3509826660156
 20
-5.946342945098877
 30
-15.50142192840576
 70
   192
  0
VERTEX
  5
572
  8
0
 10
153.3375549316406
 20
-4.466207027435303
 30
-16.00142097473145
 70
   192
  0
VERTEX
  5
573
  8
0
 10
155.0600738525391
 20
-8.621747970581055
 30
-16.00142097473145
 70
   192
  0
VERTEX
  5
574
  8
0
 10
156.2329559326172
 20
-9.516338348388672
 30
-15.50142192840576
 70
   192
  0
VERTEX
  5
575
  8
0
 10
158.9127349853516
 20
-12.53777599334717
 30
-15.50142192840576
 70
   192
  0
VERTEX
  5
576
  8
0
 10
157.8028259277344
 20
-12.1971549987793
 30
-16.00142097473145
 70
   192
  0
VERTEX
  5
577
  8
0
 10
162.2334136962891
 20
-14.82783889770508
 30
-15.50142192840576
 70
   192
  0
VERTEX
  5
578
  8
0
 10
161.3733520507812
 20
-14.93766784667969
 30
-16.00142097473145
 70
   192
  0
VERTEX
  5
579
  8
0
 10
165.535400390625
 20
-16.66162300109863
 30
-16.00142097473145
 70
   192
  0
VERTEX
  5
57A
  8
0
 10
166.0026092529297
 20
-16.25700378417969
 30
-15.50142192840576
 70
   192
  0
VERTEX
  5
57B
  8
0
 10
170.0
 20
-17.24686813354492
 30
-16.00142097473145
 70
   192
  0
VERTEX
  5
57C
  8
0
 10
13.96158981323242
 20
-1.461589694023132
 30
-16.00142097473145
 70
   192
  0
VERTEX
  5
57D
  8
0
 10
14.5669994354248
 20
-0.0007946183322929
 30
-11.0
 70
   192
  0
VERTEX
  5
57E
  8
0
 10
14.5669994354248
 20
0.0000000000000036
 30
-16.00142097473145
 70
   192
  0
VERTEX
  5
57F
  8
0
 10
13.96158981323242
 20
1.461589694023132
 30
-16.00142097473145
 70
   192
  0
VERTEX
  5
580
  8
0
 10
13.96147918701172
 20
1.461700201034546
 30
-10.90245056152344
 70
   192
  0
VERTEX
  5
581
  8
0
 10
12.5
 20
2.066999912261963
 30
-10.80405044555664
 70
   192
  0
VERTEX
  5
582
  8
0
 10
12.5
 20
2.066999912261963
 30
-16.00142097473145
 70
   192
  0
VERTEX
  5
583
  8
0
 10
13.96190547943115
 20
-1.461273550987244
 30
-10.90250778198242
 70
   192
  0
VERTEX
  5
584
  8
0
 10
12.5
 20
-2.066999912261963
 30
-16.00142097473145
 70
   192
  0
VERTEX
  5
585
  8
0
 10
12.5
 20
-2.066999912261963
 30
-10.80405044555664
 70
   192
  0
VERTEX
  5
586
  8
0
 10
11.03930759429932
 20
1.462486624717712
 30
-10.90234565734863
 70
   192
  0
VERTEX
  5
587
  8
0
 10
11.03749084472656
 20
-1.460669636726379
 30
-10.90258884429932
 70
   192
  0
VERTEX
  5
588
  8
0
 10
11.03841018676758
 20
-1.461589694023132
 30
-16.00142097473145
 70
   192
  0
VERTEX
  5
589
  8
0
 10
10.43299961090088
 20
0.0000000000000036
 30
-16.00142097473145
 70
   192
  0
VERTEX
  5
58A
  8
0
 10
10.4330005645752
 20
0.0011102582793683
 30
-11.0
 70
   192
  0
VERTEX
  5
58B
  8
0
 10
11.03841018676758
 20
1.461589694023132
 30
-16.00142097473145
 70
   192
  0
VERTEX
  5
58C
  8
0
 10
178.6265563964844
 20
14.93867206573486
 30
-16.00142097473145
 70
   192
  0
VERTEX
  5
58D
  8
0
 10
184.9408721923828
 20
8.620399475097656
 30
-16.00142097473145
 70
   192
  0
VERTEX
  5
58E
  8
0
 10
174.4730834960938
 20
16.65910339355469
 30
-16.00142097473145
 70
   192
  0
VERTEX
  5
58F
  8
0
 10
186.6607055664062
 20
-4.467608451843262
 30
-16.00142097473145
 70
   192
  0
VERTEX
  5
590
  8
0
 10
186.6631317138672
 20
4.460278987884521
 30
-16.00142097473145
 70
   192
  0
VERTEX
  5
591
  8
0
 10
187.2487945556641
 20
-0.0060330759733915
 30
-16.00142097473145
 70
   192
  0
VERTEX
  5
592
  8
0
 10
182.1966247558594
 20
-12.19732189178467
 30
-16.00142097473145
 70
   192
  0
VERTEX
  5
593
  8
0
 10
178.6209106445312
 20
-14.94036197662354
 30
-16.00142097473145
 70
   192
  0
VERTEX
  5
594
  8
0
 10
184.9403686523438
 20
-8.623804092407227
 30
-16.00142097473145
 70
   192
  0
VERTEX
  5
595
  8
0
 10
174.4657135009766
 20
-16.66211318969727
 30
-16.00142097473145
 70
   192
  0
VERTEX
  5
596
  8
0
 10
182.2042694091797
 20
12.18801403045654
 30
-16.00142097473145
 70
   192
  0
VERTEX
  5
597
  8
0
 10
165.6556854248047
 20
16.17598915100098
 30
-6.301421642303467
 70
   192
  0
VERTEX
  5
598
  8
0
 10
163.0377349853516
 20
13.28523445129395
 30
-6.301421642303467
 70
   192
  0
VERTEX
  5
599
  8
0
 10
182.3434906005859
 20
8.522927284240723
 30
-6.301421642303467
 70
   192
  0
VERTEX
  5
59A
  8
0
 10
176.9775238037109
 20
13.27720546722412
 30
-6.301421642303467
 70
   192
  0
VERTEX
  5
59B
  8
0
 10
179.9432983398438
 20
-11.23040199279785
 30
-6.301421642303467
 70
   192
  0
VERTEX
  5
59C
  8
0
 10
184.0258026123047
 20
-5.31798791885376
 30
-6.301421642303467
 70
   192
  0
VERTEX
  5
59D
  8
0
 10
184.8906555175781
 20
1.802390098571777
 30
-6.301421642303467
 70
   192
  0
VERTEX
  5
59E
  8
0
 10
157.6588897705078
 20
8.525640487670898
 30
-6.301421642303467
 70
   192
  0
VERTEX
  5
59F
  8
0
 10
155.111083984375
 20
1.816750884056091
 30
-6.301421642303467
 70
   192
  0
VERTEX
  5
5A0
  8
0
 10
153.8190460205078
 20
4.328325748443604
 30
-6.301421642303467
 70
   192
  0
VERTEX
  5
5A1
  8
0
 10
158.147705078125
 20
11.83296775817871
 30
-6.301421642303467
 70
   192
  0
VERTEX
  5
5A2
  8
0
 10
158.1670379638672
 20
-11.85229015350342
 30
-6.301421642303467
 70
   192
  0
VERTEX
  5
5A3
  8
0
 10
155.4951782226562
 20
-8.3777494430542
 30
-6.301421642303467
 70
   192
  0
VERTEX
  5
5A4
  8
0
 10
160.0485687255859
 20
-11.22325611114502
 30
-6.301421642303467
 70
   192
  0
VERTEX
  5
5A5
  8
0
 10
155.9725952148438
 20
-5.312389373779297
 30
-6.301421642303467
 70
   192
  0
VERTEX
  5
5A6
  8
0
 10
153.8240051269531
 20
-4.344321250915527
 30
-6.301421642303467
 70
   192
  0
VERTEX
  5
5A7
  8
0
 10
153.25
 20
-0.0000000000000244
 30
-6.301421642303467
 70
   192
  0
VERTEX
  5
5A8
  8
0
 10
165.6669158935547
 20
-16.18021202087402
 30
-6.301421642303467
 70
   192
  0
VERTEX
  5
5A9
  8
0
 10
161.6307983398438
 20
-14.50860786437988
 30
-6.301421642303467
 70
   192
  0
VERTEX
  5
5AA
  8
0
 10
166.4048156738281
 20
-14.56254196166992
 30
-6.301421642303467
 70
   192
  0
VERTEX
  5
5AB
  8
0
 10
173.5875396728516
 20
-14.56471538543701
 30
-6.301421642303467
 70
   192
  0
VERTEX
  5
5AC
  8
0
 10
161.6222534179688
 20
14.50482368469238
 30
-6.301421642303467
 70
   192
  0
VERTEX
  5
5AD
  8
0
 10
155.4913940429688
 20
8.369194984436035
 30
-6.301421642303467
 70
   192
  0
VERTEX
  5
5AE
  8
0
 10
69.5
 20
-19.50129508972168
 30
12.99857807159424
 70
   192
  0
VERTEX
  5
5AF
  8
0
 10
69.5
 20
19.49870491027832
 30
12.99857807159424
 70
   192
  0
VERTEX
  5
5B0
  8
0
 10
38.75
 20
19.49870491027832
 30
12.99857807159424
 70
   192
  0
VERTEX
  5
5B1
  8
0
 10
100.25
 20
19.49870491027832
 30
12.99857807159424
 70
   192
  0
VERTEX
  5
5B2
  8
0
 10
100.25
 20
-19.50129508972168
 30
12.99857807159424
 70
   192
  0
VERTEX
  5
5B3
  8
0
 10
131.0
 20
-19.50129508972168
 30
12.99857807159424
 70
   192
  0
VERTEX
  5
5B4
  8
0
 10
8.0
 20
19.99870491027832
 30
12.41857814788818
 70
   192
  0
VERTEX
  5
5B5
  8
0
 10
8.0
 20
-19.50129508972168
 30
12.99857807159424
 70
   192
  0
VERTEX
  5
5B6
  8
0
 10
38.75
 20
-19.50129508972168
 30
12.99857807159424
 70
   192
  0
VERTEX
  5
5B7
  8
0
 10
161.75
 20
-19.50129508972168
 30
12.99857807159424
 70
   192
  0
VERTEX
  5
5B8
  8
0
 10
170.0
 20
-7.150000095367432
 30
11.99857807159424
 70
   192
  0
VERTEX
  5
5B9
  8
0
 10
167.2750396728516
 20
-6.60011625289917
 30
11.99857807159424
 70
   192
  0
VERTEX
  5
5BA
  8
0
 10
163.3903350830078
 20
2.726859092712402
 30
11.99857807159424
 70
   192
  0
VERTEX
  5
5BB
  8
0
 10
161.75
 20
19.49870491027832
 30
12.99857807159424
 70
   192
  0
VERTEX
  5
5BC
  8
0
 10
131.0
 20
19.49870491027832
 30
12.99857807159424
 70
   192
  0
VERTEX
  5
5BD
  8
0
 10
164.9644775390625
 20
-5.027723789215088
 30
11.99857807159424
 70
   192
  0
VERTEX
  5
5BE
  8
0
 10
163.3972473144531
 20
-2.743305683135986
 30
11.99857807159424
 70
   192
  0
VERTEX
  5
5BF
  8
0
 10
162.8500061035156
 20
-0.0000000000000069
 30
11.99857807159424
 70
   192
  0
VERTEX
  5
5C0
  8
0
 10
192.5
 20
-19.50129508972168
 30
12.99857807159424
 70
   192
  0
VERTEX
  5
5C1
  8
0
 10
172.7109680175781
 20
-6.534549713134766
 30
11.99857807159424
 70
   192
  0
VERTEX
  5
5C2
  8
0
 10
177.1499938964844
 20
-0.0000000000000095
 30
11.99857807159424
 70
   192
  0
VERTEX
  5
5C3
  8
0
 10
192.5
 20
19.49870491027832
 30
12.99857807159424
 70
   192
  0
VERTEX
  5
5C4
  8
0
 10
176.6027526855469
 20
2.743305683135986
 30
11.99857807159424
 70
   192
  0
VERTEX
  5
5C5
  8
0
 10
167.2890319824219
 20
6.534549713134766
 30
11.99857807159424
 70
   192
  0
VERTEX
  5
5C6
  8
0
 10
164.9375152587891
 20
5.054371356964111
 30
11.99857807159424
 70
   192
  0
VERTEX
  5
5C7
  8
0
 10
170.0
 20
7.150000095367432
 30
11.99857807159424
 70
   192
  0
VERTEX
  5
5C8
  8
0
 10
172.7249603271484
 20
6.60011625289917
 30
11.99857807159424
 70
   192
  0
VERTEX
  5
5C9
  8
0
 10
175.0355224609375
 20
5.027723789215088
 30
11.99857807159424
 70
   192
  0
VERTEX
  5
5CA
  8
0
 10
176.6096649169922
 20
-2.726859092712402
 30
11.99857807159424
 70
   192
  0
VERTEX
  5
5CB
  8
0
 10
175.0624847412109
 20
-5.054371356964111
 30
11.99857807159424
 70
   192
  0
VERTEX
  5
5CC
  8
0
 10
100.25
 20
-19.50129508972168
 30
-16.00142097473145
 70
   192
  0
VERTEX
  5
5CD
  8
0
 10
131.0
 20
-20.00129508972168
 30
-15.42142200469971
 70
   192
  0
VERTEX
  5
5CE
  8
0
 10
100.25
 20
-20.00129508972168
 30
-15.42142200469971
 70
   192
  0
VERTEX
  5
5CF
  8
0
 10
161.75
 20
-19.50129508972168
 30
-16.00142097473145
 70
   192
  0
VERTEX
  5
5D0
  8
0
 10
161.75
 20
-20.00129508972168
 30
-15.42142200469971
 70
   192
  0
VERTEX
  5
5D1
  8
0
 10
131.0
 20
-19.50129508972168
 30
-16.00142097473145
 70
   192
  0
VERTEX
  5
5D2
  8
0
 10
192.5
 20
-19.75129508972168
 30
-15.71142196655273
 70
   192
  0
VERTEX
  5
5D3
  8
0
 10
192.5
 20
-20.00129508972168
 30
-15.42142200469971
 70
   192
  0
VERTEX
  5
5D4
  8
0
 10
192.5
 20
-19.50129508972168
 30
-16.00142097473145
 70
   192
  0
VERTEX
  5
5D5
  8
0
 10
69.5
 20
-19.50129508972168
 30
-16.00142097473145
 70
   192
  0
VERTEX
  5
5D6
  8
0
 10
69.5
 20
-20.00129508972168
 30
-15.42142200469971
 70
   192
  0
VERTEX
  5
5D7
  8
0
 10
38.75
 20
-19.50129508972168
 30
-16.00142097473145
 70
   192
  0
VERTEX
  5
5D8
  8
0
 10
38.75
 20
-20.00129508972168
 30
-15.42142200469971
 70
   192
  0
VERTEX
  5
5D9
  8
0
 10
8.0
 20
-20.00129508972168
 30
-15.42142200469971
 70
   192
  0
VERTEX
  5
5DA
  8
0
 10
131.0
 20
-20.00129508972168
 30
12.41857814788818
 70
   192
  0
VERTEX
  5
5DB
  8
0
 10
100.25
 20
-20.00129508972168
 30
12.41857814788818
 70
   192
  0
VERTEX
  5
5DC
  8
0
 10
161.75
 20
-20.00129508972168
 30
12.41857814788818
 70
   192
  0
VERTEX
  5
5DD
  8
0
 10
192.5
 20
-19.75129508972168
 30
12.70857810974121
 70
   192
  0
VERTEX
  5
5DE
  8
0
 10
192.5
 20
-20.00129508972168
 30
12.41857814788818
 70
   192
  0
VERTEX
  5
5DF
  8
0
 10
69.5
 20
-20.00129508972168
 30
12.41857814788818
 70
   192
  0
VERTEX
  5
5E0
  8
0
 10
38.75
 20
-20.00129508972168
 30
12.41857814788818
 70
   192
  0
VERTEX
  5
5E1
  8
0
 10
131.0
 20
19.49870491027832
 30
-16.00142097473145
 70
   192
  0
VERTEX
  5
5E2
  8
0
 10
131.0
 20
19.99870491027832
 30
-15.42142200469971
 70
   192
  0
VERTEX
  5
5E3
  8
0
 10
161.75
 20
19.49870491027832
 30
-16.00142097473145
 70
   192
  0
VERTEX
  5
5E4
  8
0
 10
100.25
 20
19.99870491027832
 30
-15.42142200469971
 70
   192
  0
VERTEX
  5
5E5
  8
0
 10
161.75
 20
19.99870491027832
 30
-15.42142200469971
 70
   192
  0
VERTEX
  5
5E6
  8
0
 10
192.5
 20
19.74870491027832
 30
-15.71142196655273
 70
   192
  0
VERTEX
  5
5E7
  8
0
 10
192.5
 20
19.99870491027832
 30
-15.42142200469971
 70
   192
  0
VERTEX
  5
5E8
  8
0
 10
192.5
 20
19.49870491027832
 30
-16.00142097473145
 70
   192
  0
VERTEX
  5
5E9
  8
0
 10
100.25
 20
19.49870491027832
 30
-16.00142097473145
 70
   192
  0
VERTEX
  5
5EA
  8
0
 10
69.5
 20
19.49870491027832
 30
-16.00142097473145
 70
   192
  0
VERTEX
  5
5EB
  8
0
 10
69.5
 20
19.99870491027832
 30
-15.42142200469971
 70
   192
  0
VERTEX
  5
5EC
  8
0
 10
38.75
 20
19.99870491027832
 30
-15.42142200469971
 70
   192
  0
VERTEX
  5
5ED
  8
0
 10
38.75
 20
19.49870491027832
 30
-16.00142097473145
 70
   192
  0
VERTEX
  5
5EE
  8
0
 10
8.0
 20
19.49870491027832
 30
-16.00142097473145
 70
   192
  0
VERTEX
  5
5EF
  8
0
 10
131.0
 20
19.99870491027832
 30
12.41857814788818
 70
   192
  0
VERTEX
  5
5F0
  8
0
 10
100.25
 20
19.99870491027832
 30
12.41857814788818
 70
   192
  0
VERTEX
  5
5F1
  8
0
 10
161.75
 20
19.99870491027832
 30
12.41857814788818
 70
   192
  0
VERTEX
  5
5F2
  8
0
 10
192.5
 20
19.74870491027832
 30
12.70857810974121
 70
   192
  0
VERTEX
  5
5F3
  8
0
 10
192.5
 20
19.99870491027832
 30
12.41857814788818
 70
   192
  0
VERTEX
  5
5F4
  8
0
 10
69.5
 20
19.99870491027832
 30
12.41857814788818
 70
   192
  0
VERTEX
  5
5F5
  8
0
 10
38.75
 20
19.99870491027832
 30
12.41857814788818
 70
   192
  0
VERTEX
  5
5F6
  8
0
 10
192.7488403320312
 20
-19.85647010803223
 30
-15.71008491516113
 70
   192
  0
VERTEX
  5
5F7
  8
0
 10
192.75
 20
-19.75129508972168
 30
-15.42142200469971
 70
   192
  0
VERTEX
  5
5F8
  8
0
 10
192.75
 20
-19.50129508972168
 30
-15.71142196655273
 70
   192
  0
VERTEX
  5
5F9
  8
0
 10
193.0
 20
-19.50129508972168
 30
-15.42142200469971
 70
   192
  0
VERTEX
  5
5FA
  8
0
 10
192.75
 20
-19.50129508972168
 30
12.70857810974121
 70
   192
  0
VERTEX
  5
5FB
  8
0
 10
192.7488403320312
 20
-19.75014305114746
 30
12.83058261871338
 70
   192
  0
VERTEX
  5
5FC
  8
0
 10
192.75
 20
-19.75129508972168
 30
12.41857814788818
 70
   192
  0
VERTEX
  5
5FD
  8
0
 10
193.0
 20
-19.50129508972168
 30
12.41857814788818
 70
   192
  0
VERTEX
  5
5FE
  8
0
 10
192.75
 20
19.49870491027832
 30
-15.71142196655273
 70
   192
  0
VERTEX
  5
5FF
  8
0
 10
192.75
 20
19.74870491027832
 30
-15.42142200469971
 70
   192
  0
VERTEX
  5
600
  8
0
 10
193.0
 20
19.49870491027832
 30
-15.42142200469971
 70
   192
  0
VERTEX
  5
601
  8
0
 10
192.7488403320312
 20
19.7475528717041
 30
-15.83342552185059
 70
   192
  0
VERTEX
  5
602
  8
0
 10
192.75
 20
19.49870491027832
 30
12.70857810974121
 70
   192
  0
VERTEX
  5
603
  8
0
 10
193.0
 20
19.49870491027832
 30
12.41857814788818
 70
   192
  0
VERTEX
  5
604
  8
0
 10
192.75
 20
19.74870491027832
 30
12.41857814788818
 70
   192
  0
VERTEX
  5
605
  8
0
 10
192.7488403320312
 20
19.7475528717041
 30
12.83058261871338
 70
   192
  0
VERTEX
  5
606
  8
0
 62
     9
 10
0.0
 20
0.0
 30
0.0
 70
   128
 71
     3
 72
     2
 73
     1
  0
VERTEX
  5
607
  8
0
 62
     9
 10
0.0
 20
0.0
 30
0.0
 70
   128
 71
     1
 72
     2
 73
     4
  0
VERTEX
  5
608
  8
0
 62
     9
 10
0.0
 20
0.0
 30
0.0
 70
   128
 71
     5
 72
     4
 73
     2
  0
VERTEX
  5
609
  8
0
 62
     9
 10
0.0
 20
0.0
 30
0.0
 70
   128
 71
     8
 72
     7
 73
     6
  0
VERTEX
  5
60A
  8
0
 62
     9
 10
0.0
 20
0.0
 30
0.0
 70
   128
 71
    10
 72
     5
 73
     9
  0
VERTEX
  5
60B
  8
0
 62
     9
 10
0.0
 20
0.0
 30
0.0
 70
   128
 71
     6
 72
    10
 73
     9
  0
VERTEX
  5
60C
  8
0
 62
     9
 10
0.0
 20
0.0
 30
0.0
 70
   128
 71
     9
 72
     8
 73
     6
  0
VERTEX
  5
60D
  8
0
 62
     9
 10
0.0
 20
0.0
 30
0.0
 70
   128
 71
    13
 72
    12
 73
    11
  0
VERTEX
  5
60E
  8
0
 62
     9
 10
0.0
 20
0.0
 30
0.0
 70
   128
 71
     8
 72
    11
 73
     7
  0
VERTEX
  5
60F
  8
0
 62
     9
 10
0.0
 20
0.0
 30
0.0
 70
   128
 71
    12
 72
     7
 73
    11
  0
VERTEX
  5
610
  8
0
 62
     9
 10
0.0
 20
0.0
 30
0.0
 70
   128
 71
     5
 72
    10
 73
     4
  0
VERTEX
  5
611
  8
0
 62
     9
 10
0.0
 20
0.0
 30
0.0
 70
   128
 71
    13
 72
    15
 73
    14
  0
VERTEX
  5
612
  8
0
 62
     9
 10
0.0
 20
0.0
 30
0.0
 70
   128
 71
    14
 72
    12
 73
    13
  0
VERTEX
  5
613
  8
0
 62
     9
 10
0.0
 20
0.0
 30
0.0
 70
   128
 71
     3
 72
     1
 73
    16
  0
VERTEX
  5
614
  8
0
 62
     9
 10
0.0
 20
0.0
 30
0.0
 70
   128
 71
    16
 72
    18
 73
    17
  0
VERTEX
  5
615
  8
0
 62
     9
 10
0.0
 20
0.0
 30
0.0
 70
   128
 71
    17
 72
     3
 73
    16
  0
VERTEX
  5
616
  8
0
 62
     9
 10
0.0
 20
0.0
 30
0.0
 70
   128
 71
    20
 72
    19
 73
    18
  0
VERTEX
  5
617
  8
0
 62
     9
 10
0.0
 20
0.0
 30
0.0
 70
   128
 71
    17
 72
    18
 73
    19
  0
VERTEX
  5
618
  8
0
 62
     9
 10
0.0
 20
0.0
 30
0.0
 70
   128
 71
    22
 72
    20
 73
    21
  0
VERTEX
  5
619
  8
0
 62
     9
 10
0.0
 20
0.0
 30
0.0
 70
   128
 71
    20
 72
    22
 73
    19
  0
VERTEX
  5
61A
  8
0
 62
     9
 10
0.0
 20
0.0
 30
0.0
 70
   128
 71
    21
 72
    24
 73
    23
  0
VERTEX
  5
61B
  8
0
 62
     9
 10
0.0
 20
0.0
 30
0.0
 70
   128
 71
    23
 72
    22
 73
    21
  0
VERTEX
  5
61C
  8
0
 62
     9
 10
0.0
 20
0.0
 30
0.0
 70
   128
 71
    26
 72
    25
 73
    24
  0
VERTEX
  5
61D
  8
0
 62
     9
 10
0.0
 20
0.0
 30
0.0
 70
   128
 71
    23
 72
    24
 73
    25
  0
VERTEX
  5
61E
  8
0
 62
     9
 10
0.0
 20
0.0
 30
0.0
 70
   128
 71
    26
 72
    27
 73
    25
  0
VERTEX
  5
61F
  8
0
 62
     9
 10
0.0
 20
0.0
 30
0.0
 70
   128
 71
    30
 72
    29
 73
    28
  0
VERTEX
  5
620
  8
0
 62
     9
 10
0.0
 20
0.0
 30
0.0
 70
   128
 71
    30
 72
    28
 73
    31
  0
VERTEX
  5
621
  8
0
 62
     9
 10
0.0
 20
0.0
 30
0.0
 70
   128
 71
    31
 72
    32
 73
    30
  0
VERTEX
  5
622
  8
0
 62
     9
 10
0.0
 20
0.0
 30
0.0
 70
   128
 71
    28
 72
    29
 73
    33
  0
VERTEX
  5
623
  8
0
 62
     9
 10
0.0
 20
0.0
 30
0.0
 70
   128
 71
    32
 72
    35
 73
    34
  0
VERTEX
  5
624
  8
0
 62
     9
 10
0.0
 20
0.0
 30
0.0
 70
   128
 71
    31
 72
    35
 73
    32
  0
VERTEX
  5
625
  8
0
 62
     9
 10
0.0
 20
0.0
 30
0.0
 70
   128
 71
    36
 72
    33
 73
    29
  0
VERTEX
  5
626
  8
0
 62
     9
 10
0.0
 20
0.0
 30
0.0
 70
   128
 71
    37
 72
    34
 73
    35
  0
VERTEX
  5
627
  8
0
 62
     9
 10
0.0
 20
0.0
 30
0.0
 70
   128
 71
    40
 72
    39
 73
    38
  0
VERTEX
  5
628
  8
0
 62
     9
 10
0.0
 20
0.0
 30
0.0
 70
   128
 71
    40
 72
    37
 73
    39
  0
VERTEX
  5
629
  8
0
 62
     9
 10
0.0
 20
0.0
 30
0.0
 70
   128
 71
    38
 72
    39
 73
    15
  0
VERTEX
  5
62A
  8
0
 62
     9
 10
0.0
 20
0.0
 30
0.0
 70
   128
 71
    37
 72
    40
 73
    34
  0
VERTEX
  5
62B
  8
0
 62
     9
 10
0.0
 20
0.0
 30
0.0
 70
   128
 71
    36
 72
    41
 73
    33
  0
VERTEX
  5
62C
  8
0
 62
     9
 10
0.0
 20
0.0
 30
0.0
 70
   128
 71
    43
 72
    42
 73
    41
  0
VERTEX
  5
62D
  8
0
 62
     9
 10
0.0
 20
0.0
 30
0.0
 70
   128
 71
    41
 72
    36
 73
    43
  0
VERTEX
  5
62E
  8
0
 62
     9
 10
0.0
 20
0.0
 30
0.0
 70
   128
 71
    45
 72
    42
 73
    44
  0
VERTEX
  5
62F
  8
0
 62
     9
 10
0.0
 20
0.0
 30
0.0
 70
   128
 71
    43
 72
    44
 73
    42
  0
VERTEX
  5
630
  8
0
 62
     9
 10
0.0
 20
0.0
 30
0.0
 70
   128
 71
    45
 72
    47
 73
    46
  0
VERTEX
  5
631
  8
0
 62
     9
 10
0.0
 20
0.0
 30
0.0
 70
   128
 71
    47
 72
    45
 73
    44
  0
VERTEX
  5
632
  8
0
 62
     9
 10
0.0
 20
0.0
 30
0.0
 70
   128
 71
    49
 72
    48
 73
    46
  0
VERTEX
  5
633
  8
0
 62
     9
 10
0.0
 20
0.0
 30
0.0
 70
   128
 71
    46
 72
    47
 73
    49
  0
VERTEX
  5
634
  8
0
 62
     9
 10
0.0
 20
0.0
 30
0.0
 70
   128
 71
    51
 72
    48
 73
    50
  0
VERTEX
  5
635
  8
0
 62
     9
 10
0.0
 20
0.0
 30
0.0
 70
   128
 71
    49
 72
    50
 73
    48
  0
VERTEX
  5
636
  8
0
 62
     9
 10
0.0
 20
0.0
 30
0.0
 70
   128
 71
    52
 72
    51
 73
    50
  0
VERTEX
  5
637
  8
0
 62
     9
 10
0.0
 20
0.0
 30
0.0
 70
   128
 71
    27
 72
    51
 73
    52
  0
VERTEX
  5
638
  8
0
 62
     9
 10
0.0
 20
0.0
 30
0.0
 70
   128
 71
    55
 72
    54
 73
    53
  0
VERTEX
  5
639
  8
0
 62
     9
 10
0.0
 20
0.0
 30
0.0
 70
   128
 71
    56
 72
    54
 73
    55
  0
VERTEX
  5
63A
  8
0
 62
     9
 10
0.0
 20
0.0
 30
0.0
 70
   128
 71
    54
 72
    56
 73
    57
  0
VERTEX
  5
63B
  8
0
 62
     9
 10
0.0
 20
0.0
 30
0.0
 70
   128
 71
    59
 72
    58
 73
    57
  0
VERTEX
  5
63C
  8
0
 62
     9
 10
0.0
 20
0.0
 30
0.0
 70
   128
 71
    57
 72
    56
 73
    59
  0
VERTEX
  5
63D
  8
0
 62
     9
 10
0.0
 20
0.0
 30
0.0
 70
   128
 71
    60
 72
    53
 73
    54
  0
VERTEX
  5
63E
  8
0
 62
     9
 10
0.0
 20
0.0
 30
0.0
 70
   128
 71
    62
 72
    61
 73
    60
  0
VERTEX
  5
63F
  8
0
 62
     9
 10
0.0
 20
0.0
 30
0.0
 70
   128
 71
    53
 72
    60
 73
    61
  0
VERTEX
  5
640
  8
0
 62
     9
 10
0.0
 20
0.0
 30
0.0
 70
   128
 71
    63
 72
    58
 73
    59
  0
VERTEX
  5
641
  8
0
 62
     9
 10
0.0
 20
0.0
 30
0.0
 70
   128
 71
    65
 72
    61
 73
    64
  0
VERTEX
  5
642
  8
0
 62
     9
 10
0.0
 20
0.0
 30
0.0
 70
   128
 71
    67
 72
    66
 73
    65
  0
VERTEX
  5
643
  8
0
 62
     9
 10
0.0
 20
0.0
 30
0.0
 70
   128
 71
    64
 72
    61
 73
    62
  0
VERTEX
  5
644
  8
0
 62
     9
 10
0.0
 20
0.0
 30
0.0
 70
   128
 71
    65
 72
    64
 73
    67
  0
VERTEX
  5
645
  8
0
 62
     9
 10
0.0
 20
0.0
 30
0.0
 70
   128
 71
    66
 72
    67
 73
    68
  0
VERTEX
  5
646
  8
0
 62
     9
 10
0.0
 20
0.0
 30
0.0
 70
   128
 71
    68
 72
    63
 73
    59
  0
VERTEX
  5
647
  8
0
 62
     9
 10
0.0
 20
0.0
 30
0.0
 70
   128
 71
    63
 72
    68
 73
    67
  0
VERTEX
  5
648
  8
0
 62
     9
 10
0.0
 20
0.0
 30
0.0
 70
   128
 71
    11
 72
     8
 73
    69
  0
VERTEX
  5
649
  8
0
 62
     9
 10
0.0
 20
0.0
 30
0.0
 70
   128
 71
     5
 72
    70
 73
     9
  0
VERTEX
  5
64A
  8
0
 62
     9
 10
0.0
 20
0.0
 30
0.0
 70
   128
 71
    13
 72
    71
 73
    38
  0
VERTEX
  5
64B
  8
0
 62
     9
 10
0.0
 20
0.0
 30
0.0
 70
   128
 71
    17
 72
    72
 73
     3
  0
VERTEX
  5
64C
  8
0
 62
     9
 10
0.0
 20
0.0
 30
0.0
 70
   128
 71
     2
 72
    74
 73
    73
  0
VERTEX
  5
64D
  8
0
 62
     9
 10
0.0
 20
0.0
 30
0.0
 70
   128
 71
    22
 72
    76
 73
    75
  0
VERTEX
  5
64E
  8
0
 62
     9
 10
0.0
 20
0.0
 30
0.0
 70
   128
 71
    77
 72
    19
 73
    75
  0
VERTEX
  5
64F
  8
0
 62
     9
 10
0.0
 20
0.0
 30
0.0
 70
   128
 71
    78
 72
    76
 73
    23
  0
VERTEX
  5
650
  8
0
 62
     9
 10
0.0
 20
0.0
 30
0.0
 70
   128
 71
    22
 72
    23
 73
    76
  0
VERTEX
  5
651
  8
0
 62
     9
 10
0.0
 20
0.0
 30
0.0
 70
   128
 71
    78
 72
    25
 73
    52
  0
VERTEX
  5
652
  8
0
 62
     9
 10
0.0
 20
0.0
 30
0.0
 70
   128
 71
    25
 72
    78
 73
    23
  0
VERTEX
  5
653
  8
0
 62
     9
 10
0.0
 20
0.0
 30
0.0
 70
   128
 71
    52
 72
    25
 73
    27
  0
VERTEX
  5
654
  8
0
 62
     9
 10
0.0
 20
0.0
 30
0.0
 70
   128
 71
    75
 72
    19
 73
    22
  0
VERTEX
  5
655
  8
0
 62
     9
 10
0.0
 20
0.0
 30
0.0
 70
   128
 71
    74
 72
     3
 73
    72
  0
VERTEX
  5
656
  8
0
 62
     9
 10
0.0
 20
0.0
 30
0.0
 70
   128
 71
    69
 72
     8
 73
    79
  0
VERTEX
  5
657
  8
0
 62
     9
 10
0.0
 20
0.0
 30
0.0
 70
   128
 71
    17
 72
    77
 73
    72
  0
VERTEX
  5
658
  8
0
 62
     9
 10
0.0
 20
0.0
 30
0.0
 70
   128
 71
    17
 72
    19
 73
    77
  0
VERTEX
  5
659
  8
0
 62
     9
 10
0.0
 20
0.0
 30
0.0
 70
   128
 71
     2
 72
     3
 73
    74
  0
VERTEX
  5
65A
  8
0
 62
     9
 10
0.0
 20
0.0
 30
0.0
 70
   128
 71
    70
 72
     5
 73
    73
  0
VERTEX
  5
65B
  8
0
 62
     9
 10
0.0
 20
0.0
 30
0.0
 70
   128
 71
     2
 72
    73
 73
     5
  0
VERTEX
  5
65C
  8
0
 62
     9
 10
0.0
 20
0.0
 30
0.0
 70
   128
 71
    79
 72
     8
 73
     9
  0
VERTEX
  5
65D
  8
0
 62
     9
 10
0.0
 20
0.0
 30
0.0
 70
   128
 71
     9
 72
    70
 73
    79
  0
VERTEX
  5
65E
  8
0
 62
     9
 10
0.0
 20
0.0
 30
0.0
 70
   128
 71
    69
 72
    71
 73
    11
  0
VERTEX
  5
65F
  8
0
 62
     9
 10
0.0
 20
0.0
 30
0.0
 70
   128
 71
    15
 72
    13
 73
    38
  0
VERTEX
  5
660
  8
0
 62
     9
 10
0.0
 20
0.0
 30
0.0
 70
   128
 71
    13
 72
    11
 73
    71
  0
VERTEX
  5
661
  8
0
 62
     9
 10
0.0
 20
0.0
 30
0.0
 70
   128
 71
    81
 72
    14
 73
    80
  0
VERTEX
  5
662
  8
0
 62
     9
 10
0.0
 20
0.0
 30
0.0
 70
   128
 71
     6
 72
    83
 73
    82
  0
VERTEX
  5
663
  8
0
 62
     9
 10
0.0
 20
0.0
 30
0.0
 70
   128
 71
    12
 72
    83
 73
     7
  0
VERTEX
  5
664
  8
0
 62
     9
 10
0.0
 20
0.0
 30
0.0
 70
   128
 71
    82
 72
     4
 73
    10
  0
VERTEX
  5
665
  8
0
 62
     9
 10
0.0
 20
0.0
 30
0.0
 70
   128
 71
    18
 72
    85
 73
    84
  0
VERTEX
  5
666
  8
0
 62
     9
 10
0.0
 20
0.0
 30
0.0
 70
   128
 71
    86
 72
    85
 73
     1
  0
VERTEX
  5
667
  8
0
 62
     9
 10
0.0
 20
0.0
 30
0.0
 70
   128
 71
    89
 72
    88
 73
    87
  0
VERTEX
  5
668
  8
0
 62
     9
 10
0.0
 20
0.0
 30
0.0
 70
   128
 71
    90
 72
    87
 73
    81
  0
VERTEX
  5
669
  8
0
 62
     9
 10
0.0
 20
0.0
 30
0.0
 70
   128
 71
    93
 72
    92
 73
    91
  0
VERTEX
  5
66A
  8
0
 62
     9
 10
0.0
 20
0.0
 30
0.0
 70
   128
 71
    96
 72
    95
 73
    94
  0
VERTEX
  5
66B
  8
0
 62
     9
 10
0.0
 20
0.0
 30
0.0
 70
   128
 71
    99
 72
    98
 73
    97
  0
VERTEX
  5
66C
  8
0
 62
     9
 10
0.0
 20
0.0
 30
0.0
 70
   128
 71
    21
 72
    84
 73
   100
  0
VERTEX
  5
66D
  8
0
 62
     9
 10
0.0
 20
0.0
 30
0.0
 70
   128
 71
    81
 72
   101
 73
    90
  0
VERTEX
  5
66E
  8
0
 62
     9
 10
0.0
 20
0.0
 30
0.0
 70
   128
 71
   101
 72
    81
 73
    80
  0
VERTEX
  5
66F
  8
0
 62
     9
 10
0.0
 20
0.0
 30
0.0
 70
   128
 71
    87
 72
   102
 73
    89
  0
VERTEX
  5
670
  8
0
 62
     9
 10
0.0
 20
0.0
 30
0.0
 70
   128
 71
   102
 72
    87
 73
    90
  0
VERTEX
  5
671
  8
0
 62
     9
 10
0.0
 20
0.0
 30
0.0
 70
   128
 71
    94
 72
    88
 73
    96
  0
VERTEX
  5
672
  8
0
 62
     9
 10
0.0
 20
0.0
 30
0.0
 70
   128
 71
    96
 72
    88
 73
    89
  0
VERTEX
  5
673
  8
0
 62
     9
 10
0.0
 20
0.0
 30
0.0
 70
   128
 71
    93
 72
    94
 73
    92
  0
VERTEX
  5
674
  8
0
 62
     9
 10
0.0
 20
0.0
 30
0.0
 70
   128
 71
    92
 72
    94
 73
    95
  0
VERTEX
  5
675
  8
0
 62
     9
 10
0.0
 20
0.0
 30
0.0
 70
   128
 71
    99
 72
    93
 73
    98
  0
VERTEX
  5
676
  8
0
 62
     9
 10
0.0
 20
0.0
 30
0.0
 70
   128
 71
    98
 72
    93
 73
    91
  0
VERTEX
  5
677
  8
0
 62
     9
 10
0.0
 20
0.0
 30
0.0
 70
   128
 71
   100
 72
    99
 73
    26
  0
VERTEX
  5
678
  8
0
 62
     9
 10
0.0
 20
0.0
 30
0.0
 70
   128
 71
    26
 72
    99
 73
    97
  0
VERTEX
  5
679
  8
0
 62
     9
 10
0.0
 20
0.0
 30
0.0
 70
   128
 71
   100
 72
    24
 73
    21
  0
VERTEX
  5
67A
  8
0
 62
     9
 10
0.0
 20
0.0
 30
0.0
 70
   128
 71
    24
 72
   100
 73
    26
  0
VERTEX
  5
67B
  8
0
 62
     9
 10
0.0
 20
0.0
 30
0.0
 70
   128
 71
    84
 72
    20
 73
    18
  0
VERTEX
  5
67C
  8
0
 62
     9
 10
0.0
 20
0.0
 30
0.0
 70
   128
 71
    20
 72
    84
 73
    21
  0
VERTEX
  5
67D
  8
0
 62
     9
 10
0.0
 20
0.0
 30
0.0
 70
   128
 71
    85
 72
    16
 73
     1
  0
VERTEX
  5
67E
  8
0
 62
     9
 10
0.0
 20
0.0
 30
0.0
 70
   128
 71
    16
 72
    85
 73
    18
  0
VERTEX
  5
67F
  8
0
 62
     9
 10
0.0
 20
0.0
 30
0.0
 70
   128
 71
    82
 72
    86
 73
     4
  0
VERTEX
  5
680
  8
0
 62
     9
 10
0.0
 20
0.0
 30
0.0
 70
   128
 71
     4
 72
    86
 73
     1
  0
VERTEX
  5
681
  8
0
 62
     9
 10
0.0
 20
0.0
 30
0.0
 70
   128
 71
     6
 72
    82
 73
    10
  0
VERTEX
  5
682
  8
0
 62
     9
 10
0.0
 20
0.0
 30
0.0
 70
   128
 71
    14
 72
    83
 73
    12
  0
VERTEX
  5
683
  8
0
 62
     9
 10
0.0
 20
0.0
 30
0.0
 70
   128
 71
     7
 72
    83
 73
     6
  0
VERTEX
  5
684
  8
0
 62
     9
 10
0.0
 20
0.0
 30
0.0
 70
   128
 71
    39
 72
    80
 73
    14
  0
VERTEX
  5
685
  8
0
 62
     9
 10
0.0
 20
0.0
 30
0.0
 70
   128
 71
   102
 72
    31
 73
    28
  0
VERTEX
  5
686
  8
0
 62
     9
 10
0.0
 20
0.0
 30
0.0
 70
   128
 71
   101
 72
    37
 73
    35
  0
VERTEX
  5
687
  8
0
 62
     9
 10
0.0
 20
0.0
 30
0.0
 70
   128
 71
    42
 72
    95
 73
    41
  0
VERTEX
  5
688
  8
0
 62
     9
 10
0.0
 20
0.0
 30
0.0
 70
   128
 71
    33
 72
    41
 73
    96
  0
VERTEX
  5
689
  8
0
 62
     9
 10
0.0
 20
0.0
 30
0.0
 70
   128
 71
    46
 72
    98
 73
    91
  0
VERTEX
  5
68A
  8
0
 62
     9
 10
0.0
 20
0.0
 30
0.0
 70
   128
 71
    92
 72
    45
 73
    91
  0
VERTEX
  5
68B
  8
0
 62
     9
 10
0.0
 20
0.0
 30
0.0
 70
   128
 71
    97
 72
    98
 73
    48
  0
VERTEX
  5
68C
  8
0
 62
     9
 10
0.0
 20
0.0
 30
0.0
 70
   128
 71
    46
 72
    48
 73
    98
  0
VERTEX
  5
68D
  8
0
 62
     9
 10
0.0
 20
0.0
 30
0.0
 70
   128
 71
    97
 72
    51
 73
    26
  0
VERTEX
  5
68E
  8
0
 62
     9
 10
0.0
 20
0.0
 30
0.0
 70
   128
 71
    51
 72
    97
 73
    48
  0
VERTEX
  5
68F
  8
0
 62
     9
 10
0.0
 20
0.0
 30
0.0
 70
   128
 71
    26
 72
    51
 73
    27
  0
VERTEX
  5
690
  8
0
 62
     9
 10
0.0
 20
0.0
 30
0.0
 70
   128
 71
    45
 72
    46
 73
    91
  0
VERTEX
  5
691
  8
0
 62
     9
 10
0.0
 20
0.0
 30
0.0
 70
   128
 71
    33
 72
    96
 73
    89
  0
VERTEX
  5
692
  8
0
 62
     9
 10
0.0
 20
0.0
 30
0.0
 70
   128
 71
    92
 72
    42
 73
    45
  0
VERTEX
  5
693
  8
0
 62
     9
 10
0.0
 20
0.0
 30
0.0
 70
   128
 71
    96
 72
    41
 73
    95
  0
VERTEX
  5
694
  8
0
 62
     9
 10
0.0
 20
0.0
 30
0.0
 70
   128
 71
    42
 72
    92
 73
    95
  0
VERTEX
  5
695
  8
0
 62
     9
 10
0.0
 20
0.0
 30
0.0
 70
   128
 71
    33
 72
    89
 73
    28
  0
VERTEX
  5
696
  8
0
 62
     9
 10
0.0
 20
0.0
 30
0.0
 70
   128
 71
    89
 72
   102
 73
    28
  0
VERTEX
  5
697
  8
0
 62
     9
 10
0.0
 20
0.0
 30
0.0
 70
   128
 71
    90
 72
    35
 73
    31
  0
VERTEX
  5
698
  8
0
 62
     9
 10
0.0
 20
0.0
 30
0.0
 70
   128
 71
   102
 72
    90
 73
    31
  0
VERTEX
  5
699
  8
0
 62
     9
 10
0.0
 20
0.0
 30
0.0
 70
   128
 71
   101
 72
    80
 73
    37
  0
VERTEX
  5
69A
  8
0
 62
     9
 10
0.0
 20
0.0
 30
0.0
 70
   128
 71
   101
 72
    35
 73
    90
  0
VERTEX
  5
69B
  8
0
 62
     9
 10
0.0
 20
0.0
 30
0.0
 70
   128
 71
    15
 72
    39
 73
    14
  0
VERTEX
  5
69C
  8
0
 62
     9
 10
0.0
 20
0.0
 30
0.0
 70
   128
 71
    39
 72
    37
 73
    80
  0
VERTEX
  5
69D
  8
0
 62
     9
 10
0.0
 20
0.0
 30
0.0
 70
   128
 71
   105
 72
   104
 73
   103
  0
VERTEX
  5
69E
  8
0
 62
     9
 10
0.0
 20
0.0
 30
0.0
 70
   128
 71
   108
 72
   107
 73
   106
  0
VERTEX
  5
69F
  8
0
 62
     9
 10
0.0
 20
0.0
 30
0.0
 70
   128
 71
   111
 72
   110
 73
   109
  0
VERTEX
  5
6A0
  8
0
 62
     9
 10
0.0
 20
0.0
 30
0.0
 70
   128
 71
   114
 72
   113
 73
   112
  0
VERTEX
  5
6A1
  8
0
 62
     9
 10
0.0
 20
0.0
 30
0.0
 70
   128
 71
   117
 72
   116
 73
   115
  0
VERTEX
  5
6A2
  8
0
 62
     9
 10
0.0
 20
0.0
 30
0.0
 70
   128
 71
   108
 72
   106
 73
   117
  0
VERTEX
  5
6A3
  8
0
 62
     9
 10
0.0
 20
0.0
 30
0.0
 70
   128
 71
   118
 72
   114
 73
   112
  0
VERTEX
  5
6A4
  8
0
 62
     9
 10
0.0
 20
0.0
 30
0.0
 70
   128
 71
   103
 72
   104
 73
   107
  0
VERTEX
  5
6A5
  8
0
 62
     9
 10
0.0
 20
0.0
 30
0.0
 70
   128
 71
   107
 72
   104
 73
   106
  0
VERTEX
  5
6A6
  8
0
 62
     9
 10
0.0
 20
0.0
 30
0.0
 70
   128
 71
   109
 72
   105
 73
   111
  0
VERTEX
  5
6A7
  8
0
 62
     9
 10
0.0
 20
0.0
 30
0.0
 70
   128
 71
   111
 72
   105
 73
   103
  0
VERTEX
  5
6A8
  8
0
 62
     9
 10
0.0
 20
0.0
 30
0.0
 70
   128
 71
   120
 72
   119
 73
   108
  0
VERTEX
  5
6A9
  8
0
 62
     9
 10
0.0
 20
0.0
 30
0.0
 70
   128
 71
   112
 72
   122
 73
   121
  0
VERTEX
  5
6AA
  8
0
 62
     9
 10
0.0
 20
0.0
 30
0.0
 70
   128
 71
   125
 72
   124
 73
   123
  0
VERTEX
  5
6AB
  8
0
 62
     9
 10
0.0
 20
0.0
 30
0.0
 70
   128
 71
   112
 72
   119
 73
   118
  0
VERTEX
  5
6AC
  8
0
 62
     9
 10
0.0
 20
0.0
 30
0.0
 70
   128
 71
   108
 72
   119
 73
   112
  0
VERTEX
  5
6AD
  8
0
 62
     9
 10
0.0
 20
0.0
 30
0.0
 70
   128
 71
   115
 72
   120
 73
   117
  0
VERTEX
  5
6AE
  8
0
 62
     9
 10
0.0
 20
0.0
 30
0.0
 70
   128
 71
   117
 72
   120
 73
   108
  0
VERTEX
  5
6AF
  8
0
 62
     9
 10
0.0
 20
0.0
 30
0.0
 70
   128
 71
   127
 72
   116
 73
   126
  0
VERTEX
  5
6B0
  8
0
 62
     9
 10
0.0
 20
0.0
 30
0.0
 70
   128
 71
   127
 72
   115
 73
   116
  0
VERTEX
  5
6B1
  8
0
 62
     9
 10
0.0
 20
0.0
 30
0.0
 70
   128
 71
   128
 72
   126
 73
   116
  0
VERTEX
  5
6B2
  8
0
 62
     9
 10
0.0
 20
0.0
 30
0.0
 70
   128
 71
   116
 72
   129
 73
   128
  0
VERTEX
  5
6B3
  8
0
 62
     9
 10
0.0
 20
0.0
 30
0.0
 70
   128
 71
   129
 72
   124
 73
   130
  0
VERTEX
  5
6B4
  8
0
 62
     9
 10
0.0
 20
0.0
 30
0.0
 70
   128
 71
   124
 72
   129
 73
   116
  0
VERTEX
  5
6B5
  8
0
 62
     9
 10
0.0
 20
0.0
 30
0.0
 70
   128
 71
   125
 72
   130
 73
   124
  0
VERTEX
  5
6B6
  8
0
 62
     9
 10
0.0
 20
0.0
 30
0.0
 70
   128
 71
   123
 72
   121
 73
   131
  0
VERTEX
  5
6B7
  8
0
 62
     9
 10
0.0
 20
0.0
 30
0.0
 70
   128
 71
   121
 72
   123
 73
   124
  0
VERTEX
  5
6B8
  8
0
 62
     9
 10
0.0
 20
0.0
 30
0.0
 70
   128
 71
   132
 72
   121
 73
   122
  0
VERTEX
  5
6B9
  8
0
 62
     9
 10
0.0
 20
0.0
 30
0.0
 70
   128
 71
   132
 72
   131
 73
   121
  0
VERTEX
  5
6BA
  8
0
 62
     9
 10
0.0
 20
0.0
 30
0.0
 70
   128
 71
   113
 72
   122
 73
   112
  0
VERTEX
  5
6BB
  8
0
 62
     9
 10
0.0
 20
0.0
 30
0.0
 70
   128
 71
   135
 72
   134
 73
   133
  0
VERTEX
  5
6BC
  8
0
 62
     9
 10
0.0
 20
0.0
 30
0.0
 70
   128
 71
   138
 72
   137
 73
   136
  0
VERTEX
  5
6BD
  8
0
 62
     9
 10
0.0
 20
0.0
 30
0.0
 70
   128
 71
   134
 72
   138
 73
   133
  0
VERTEX
  5
6BE
  8
0
 62
     9
 10
0.0
 20
0.0
 30
0.0
 70
   128
 71
   137
 72
   140
 73
   139
  0
VERTEX
  5
6BF
  8
0
 62
     9
 10
0.0
 20
0.0
 30
0.0
 70
   128
 71
   137
 72
   139
 73
   136
  0
VERTEX
  5
6C0
  8
0
 62
     9
 10
0.0
 20
0.0
 30
0.0
 70
   128
 71
   136
 72
   139
 73
   141
  0
VERTEX
  5
6C1
  8
0
 62
     9
 10
0.0
 20
0.0
 30
0.0
 70
   128
 71
   134
 72
   137
 73
   138
  0
VERTEX
  5
6C2
  8
0
 62
     9
 10
0.0
 20
0.0
 30
0.0
 70
   128
 71
   142
 72
   135
 73
   133
  0
VERTEX
  5
6C3
  8
0
 62
     9
 10
0.0
 20
0.0
 30
0.0
 70
   128
 71
   142
 72
   144
 73
   143
  0
VERTEX
  5
6C4
  8
0
 62
     9
 10
0.0
 20
0.0
 30
0.0
 70
   128
 71
   143
 72
   135
 73
   142
  0
VERTEX
  5
6C5
  8
0
 62
     9
 10
0.0
 20
0.0
 30
0.0
 70
   128
 71
   146
 72
   145
 73
   144
  0
VERTEX
  5
6C6
  8
0
 62
     9
 10
0.0
 20
0.0
 30
0.0
 70
   128
 71
   143
 72
   144
 73
   145
  0
VERTEX
  5
6C7
  8
0
 62
     9
 10
0.0
 20
0.0
 30
0.0
 70
   128
 71
   112
 72
   147
 73
   108
  0
VERTEX
  5
6C8
  8
0
 62
     9
 10
0.0
 20
0.0
 30
0.0
 70
   128
 71
   108
 72
   147
 73
   148
  0
VERTEX
  5
6C9
  8
0
 62
     9
 10
0.0
 20
0.0
 30
0.0
 70
   128
 71
   147
 72
   112
 73
   149
  0
VERTEX
  5
6CA
  8
0
 62
     9
 10
0.0
 20
0.0
 30
0.0
 70
   128
 71
   112
 72
   150
 73
   149
  0
VERTEX
  5
6CB
  8
0
 62
     9
 10
0.0
 20
0.0
 30
0.0
 70
   128
 71
   149
 72
   150
 73
   151
  0
VERTEX
  5
6CC
  8
0
 62
     9
 10
0.0
 20
0.0
 30
0.0
 70
   128
 71
   112
 72
   121
 73
   150
  0
VERTEX
  5
6CD
  8
0
 62
     9
 10
0.0
 20
0.0
 30
0.0
 70
   128
 71
   148
 72
   107
 73
   108
  0
VERTEX
  5
6CE
  8
0
 62
     9
 10
0.0
 20
0.0
 30
0.0
 70
   128
 71
   152
 72
   103
 73
   107
  0
VERTEX
  5
6CF
  8
0
 62
     9
 10
0.0
 20
0.0
 30
0.0
 70
   128
 71
   107
 72
   148
 73
   152
  0
VERTEX
  5
6D0
  8
0
 62
     9
 10
0.0
 20
0.0
 30
0.0
 70
   128
 71
   111
 72
   103
 73
   153
  0
VERTEX
  5
6D1
  8
0
 62
     9
 10
0.0
 20
0.0
 30
0.0
 70
   128
 71
   152
 72
   153
 73
   103
  0
VERTEX
  5
6D2
  8
0
 62
     9
 10
0.0
 20
0.0
 30
0.0
 70
   128
 71
   110
 72
   111
 73
   153
  0
VERTEX
  5
6D3
  8
0
 62
     9
 10
0.0
 20
0.0
 30
0.0
 70
   128
 71
   156
 72
   155
 73
   154
  0
VERTEX
  5
6D4
  8
0
 62
     9
 10
0.0
 20
0.0
 30
0.0
 70
   128
 71
   154
 72
   155
 73
   157
  0
VERTEX
  5
6D5
  8
0
 62
     9
 10
0.0
 20
0.0
 30
0.0
 70
   128
 71
   155
 72
   156
 73
   158
  0
VERTEX
  5
6D6
  8
0
 62
     9
 10
0.0
 20
0.0
 30
0.0
 70
   128
 71
   156
 72
   159
 73
   158
  0
VERTEX
  5
6D7
  8
0
 62
     9
 10
0.0
 20
0.0
 30
0.0
 70
   128
 71
   158
 72
   159
 73
   160
  0
VERTEX
  5
6D8
  8
0
 62
     9
 10
0.0
 20
0.0
 30
0.0
 70
   128
 71
   156
 72
   161
 73
   159
  0
VERTEX
  5
6D9
  8
0
 62
     9
 10
0.0
 20
0.0
 30
0.0
 70
   128
 71
   157
 72
   162
 73
   154
  0
VERTEX
  5
6DA
  8
0
 62
     9
 10
0.0
 20
0.0
 30
0.0
 70
   128
 71
   164
 72
   163
 73
   162
  0
VERTEX
  5
6DB
  8
0
 62
     9
 10
0.0
 20
0.0
 30
0.0
 70
   128
 71
   162
 72
   157
 73
   164
  0
VERTEX
  5
6DC
  8
0
 62
     9
 10
0.0
 20
0.0
 30
0.0
 70
   128
 71
   166
 72
   163
 73
   165
  0
VERTEX
  5
6DD
  8
0
 62
     9
 10
0.0
 20
0.0
 30
0.0
 70
   128
 71
   164
 72
   165
 73
   163
  0
VERTEX
  5
6DE
  8
0
 62
     9
 10
0.0
 20
0.0
 30
0.0
 70
   128
 71
   167
 72
   166
 73
   165
  0
VERTEX
  5
6DF
  8
0
 62
     9
 10
0.0
 20
0.0
 30
0.0
 70
   128
 71
   169
 72
   168
 73
   106
  0
VERTEX
  5
6E0
  8
0
 62
     9
 10
0.0
 20
0.0
 30
0.0
 70
   128
 71
   117
 72
   170
 73
   116
  0
VERTEX
  5
6E1
  8
0
 62
     9
 10
0.0
 20
0.0
 30
0.0
 70
   128
 71
   168
 72
   117
 73
   106
  0
VERTEX
  5
6E2
  8
0
 62
     9
 10
0.0
 20
0.0
 30
0.0
 70
   128
 71
   170
 72
   172
 73
   171
  0
VERTEX
  5
6E3
  8
0
 62
     9
 10
0.0
 20
0.0
 30
0.0
 70
   128
 71
   170
 72
   171
 73
   116
  0
VERTEX
  5
6E4
  8
0
 62
     9
 10
0.0
 20
0.0
 30
0.0
 70
   128
 71
   116
 72
   171
 73
   124
  0
VERTEX
  5
6E5
  8
0
 62
     9
 10
0.0
 20
0.0
 30
0.0
 70
   128
 71
   168
 72
   170
 73
   117
  0
VERTEX
  5
6E6
  8
0
 62
     9
 10
0.0
 20
0.0
 30
0.0
 70
   128
 71
   104
 72
   169
 73
   106
  0
VERTEX
  5
6E7
  8
0
 62
     9
 10
0.0
 20
0.0
 30
0.0
 70
   128
 71
   104
 72
   105
 73
   173
  0
VERTEX
  5
6E8
  8
0
 62
     9
 10
0.0
 20
0.0
 30
0.0
 70
   128
 71
   173
 72
   169
 73
   104
  0
VERTEX
  5
6E9
  8
0
 62
     9
 10
0.0
 20
0.0
 30
0.0
 70
   128
 71
   109
 72
   174
 73
   105
  0
VERTEX
  5
6EA
  8
0
 62
     9
 10
0.0
 20
0.0
 30
0.0
 70
   128
 71
   173
 72
   105
 73
   174
  0
VERTEX
  5
6EB
  8
0
 62
     9
 10
0.0
 20
0.0
 30
0.0
 70
   128
 71
   145
 72
   146
 73
   153
  0
VERTEX
  5
6EC
  8
0
 62
     9
 10
0.0
 20
0.0
 30
0.0
 70
   128
 71
   152
 72
   148
 73
   143
  0
VERTEX
  5
6ED
  8
0
 62
     9
 10
0.0
 20
0.0
 30
0.0
 70
   128
 71
   137
 72
   134
 73
   149
  0
VERTEX
  5
6EE
  8
0
 62
     9
 10
0.0
 20
0.0
 30
0.0
 70
   128
 71
   135
 72
   147
 73
   134
  0
VERTEX
  5
6EF
  8
0
 62
     9
 10
0.0
 20
0.0
 30
0.0
 70
   128
 71
   137
 72
   151
 73
   140
  0
VERTEX
  5
6F0
  8
0
 62
     9
 10
0.0
 20
0.0
 30
0.0
 70
   128
 71
   151
 72
   137
 73
   149
  0
VERTEX
  5
6F1
  8
0
 62
     9
 10
0.0
 20
0.0
 30
0.0
 70
   128
 71
   147
 72
   149
 73
   134
  0
VERTEX
  5
6F2
  8
0
 62
     9
 10
0.0
 20
0.0
 30
0.0
 70
   128
 71
   148
 72
   147
 73
   135
  0
VERTEX
  5
6F3
  8
0
 62
     9
 10
0.0
 20
0.0
 30
0.0
 70
   128
 71
   145
 72
   153
 73
   152
  0
VERTEX
  5
6F4
  8
0
 62
     9
 10
0.0
 20
0.0
 30
0.0
 70
   128
 71
   143
 72
   145
 73
   152
  0
VERTEX
  5
6F5
  8
0
 62
     9
 10
0.0
 20
0.0
 30
0.0
 70
   128
 71
   143
 72
   148
 73
   135
  0
VERTEX
  5
6F6
  8
0
 62
     9
 10
0.0
 20
0.0
 30
0.0
 70
   128
 71
   146
 72
   110
 73
   153
  0
VERTEX
  5
6F7
  8
0
 62
     9
 10
0.0
 20
0.0
 30
0.0
 70
   128
 71
   174
 72
   109
 73
   165
  0
VERTEX
  5
6F8
  8
0
 62
     9
 10
0.0
 20
0.0
 30
0.0
 70
   128
 71
   164
 72
   157
 73
   173
  0
VERTEX
  5
6F9
  8
0
 62
     9
 10
0.0
 20
0.0
 30
0.0
 70
   128
 71
   170
 72
   168
 73
   158
  0
VERTEX
  5
6FA
  8
0
 62
     9
 10
0.0
 20
0.0
 30
0.0
 70
   128
 71
   169
 72
   155
 73
   168
  0
VERTEX
  5
6FB
  8
0
 62
     9
 10
0.0
 20
0.0
 30
0.0
 70
   128
 71
   170
 72
   160
 73
   172
  0
VERTEX
  5
6FC
  8
0
 62
     9
 10
0.0
 20
0.0
 30
0.0
 70
   128
 71
   160
 72
   170
 73
   158
  0
VERTEX
  5
6FD
  8
0
 62
     9
 10
0.0
 20
0.0
 30
0.0
 70
   128
 71
   155
 72
   158
 73
   168
  0
VERTEX
  5
6FE
  8
0
 62
     9
 10
0.0
 20
0.0
 30
0.0
 70
   128
 71
   157
 72
   155
 73
   169
  0
VERTEX
  5
6FF
  8
0
 62
     9
 10
0.0
 20
0.0
 30
0.0
 70
   128
 71
   174
 72
   165
 73
   164
  0
VERTEX
  5
700
  8
0
 62
     9
 10
0.0
 20
0.0
 30
0.0
 70
   128
 71
   173
 72
   174
 73
   164
  0
VERTEX
  5
701
  8
0
 62
     9
 10
0.0
 20
0.0
 30
0.0
 70
   128
 71
   173
 72
   157
 73
   169
  0
VERTEX
  5
702
  8
0
 62
     9
 10
0.0
 20
0.0
 30
0.0
 70
   128
 71
   109
 72
   167
 73
   165
  0
VERTEX
  5
703
  8
0
 62
     9
 10
0.0
 20
0.0
 30
0.0
 70
   128
 71
   176
 72
   175
 73
   140
  0
VERTEX
  5
704
  8
0
 62
     9
 10
0.0
 20
0.0
 30
0.0
 70
   128
 71
   176
 72
   178
 73
   177
  0
VERTEX
  5
705
  8
0
 62
     9
 10
0.0
 20
0.0
 30
0.0
 70
   128
 71
   177
 72
   141
 73
   139
  0
VERTEX
  5
706
  8
0
 62
     9
 10
0.0
 20
0.0
 30
0.0
 70
   128
 71
   176
 72
   177
 73
   175
  0
VERTEX
  5
707
  8
0
 62
     9
 10
0.0
 20
0.0
 30
0.0
 70
   128
 71
   175
 72
   139
 73
   140
  0
VERTEX
  5
708
  8
0
 62
     9
 10
0.0
 20
0.0
 30
0.0
 70
   128
 71
   139
 72
   175
 73
   177
  0
VERTEX
  5
709
  8
0
 62
     9
 10
0.0
 20
0.0
 30
0.0
 70
   128
 71
   181
 72
   180
 73
   179
  0
VERTEX
  5
70A
  8
0
 62
     9
 10
0.0
 20
0.0
 30
0.0
 70
   128
 71
   181
 72
   179
 73
   182
  0
VERTEX
  5
70B
  8
0
 62
     9
 10
0.0
 20
0.0
 30
0.0
 70
   128
 71
   180
 72
   150
 73
   121
  0
VERTEX
  5
70C
  8
0
 62
     9
 10
0.0
 20
0.0
 30
0.0
 70
   128
 71
   151
 72
   150
 73
   181
  0
VERTEX
  5
70D
  8
0
 62
     9
 10
0.0
 20
0.0
 30
0.0
 70
   128
 71
   150
 72
   180
 73
   181
  0
VERTEX
  5
70E
  8
0
 62
     9
 10
0.0
 20
0.0
 30
0.0
 70
   128
 71
   180
 72
   121
 73
   179
  0
VERTEX
  5
70F
  8
0
 62
     9
 10
0.0
 20
0.0
 30
0.0
 70
   128
 71
   185
 72
   184
 73
   183
  0
VERTEX
  5
710
  8
0
 62
     9
 10
0.0
 20
0.0
 30
0.0
 70
   128
 71
   183
 72
   184
 73
   186
  0
VERTEX
  5
711
  8
0
 62
     9
 10
0.0
 20
0.0
 30
0.0
 70
   128
 71
   184
 72
   159
 73
   186
  0
VERTEX
  5
712
  8
0
 62
     9
 10
0.0
 20
0.0
 30
0.0
 70
   128
 71
   184
 72
   160
 73
   159
  0
VERTEX
  5
713
  8
0
 62
     9
 10
0.0
 20
0.0
 30
0.0
 70
   128
 71
   186
 72
   161
 73
   183
  0
VERTEX
  5
714
  8
0
 62
     9
 10
0.0
 20
0.0
 30
0.0
 70
   128
 71
   186
 72
   159
 73
   161
  0
VERTEX
  5
715
  8
0
 62
     9
 10
0.0
 20
0.0
 30
0.0
 70
   128
 71
   189
 72
   188
 73
   187
  0
VERTEX
  5
716
  8
0
 62
     9
 10
0.0
 20
0.0
 30
0.0
 70
   128
 71
   171
 72
   172
 73
   189
  0
VERTEX
  5
717
  8
0
 62
     9
 10
0.0
 20
0.0
 30
0.0
 70
   128
 71
   190
 72
   171
 73
   189
  0
VERTEX
  5
718
  8
0
 62
     9
 10
0.0
 20
0.0
 30
0.0
 70
   128
 71
   190
 72
   189
 73
   187
  0
VERTEX
  5
719
  8
0
 62
     9
 10
0.0
 20
0.0
 30
0.0
 70
   128
 71
   190
 72
   124
 73
   171
  0
VERTEX
  5
71A
  8
0
 62
     9
 10
0.0
 20
0.0
 30
0.0
 70
   128
 71
   190
 72
   187
 73
   124
  0
VERTEX
  5
71B
  8
0
 62
     9
 10
0.0
 20
0.0
 30
0.0
 70
   128
 71
   183
 72
   161
 73
   141
  0
VERTEX
  5
71C
  8
0
 62
     9
 10
0.0
 20
0.0
 30
0.0
 70
   128
 71
   177
 72
   178
 73
   185
  0
VERTEX
  5
71D
  8
0
 62
     9
 10
0.0
 20
0.0
 30
0.0
 70
   128
 71
   177
 72
   185
 73
   183
  0
VERTEX
  5
71E
  8
0
 62
     9
 10
0.0
 20
0.0
 30
0.0
 70
   128
 71
   177
 72
   183
 73
   141
  0
VERTEX
  5
71F
  8
0
 62
     9
 10
0.0
 20
0.0
 30
0.0
 70
   128
 71
   187
 72
   188
 73
   182
  0
VERTEX
  5
720
  8
0
 62
     9
 10
0.0
 20
0.0
 30
0.0
 70
   128
 71
   179
 72
   121
 73
   124
  0
VERTEX
  5
721
  8
0
 62
     9
 10
0.0
 20
0.0
 30
0.0
 70
   128
 71
   179
 72
   124
 73
   187
  0
VERTEX
  5
722
  8
0
 62
     9
 10
0.0
 20
0.0
 30
0.0
 70
   128
 71
   179
 72
   187
 73
   182
  0
VERTEX
  5
723
  8
0
 62
     9
 10
0.0
 20
0.0
 30
0.0
 70
   128
 71
   181
 72
   182
 73
   178
  0
VERTEX
  5
724
  8
0
 62
     9
 10
0.0
 20
0.0
 30
0.0
 70
   128
 71
   151
 72
   176
 73
   140
  0
VERTEX
  5
725
  8
0
 62
     9
 10
0.0
 20
0.0
 30
0.0
 70
   128
 71
   178
 72
   176
 73
   181
  0
VERTEX
  5
726
  8
0
 62
     9
 10
0.0
 20
0.0
 30
0.0
 70
   128
 71
   181
 72
   176
 73
   151
  0
VERTEX
  5
727
  8
0
 62
     9
 10
0.0
 20
0.0
 30
0.0
 70
   128
 71
   184
 72
   185
 73
   188
  0
VERTEX
  5
728
  8
0
 62
     9
 10
0.0
 20
0.0
 30
0.0
 70
   128
 71
   160
 72
   189
 73
   172
  0
VERTEX
  5
729
  8
0
 62
     9
 10
0.0
 20
0.0
 30
0.0
 70
   128
 71
   188
 72
   189
 73
   184
  0
VERTEX
  5
72A
  8
0
 62
     9
 10
0.0
 20
0.0
 30
0.0
 70
   128
 71
   184
 72
   189
 73
   160
  0
VERTEX
  5
72B
  8
0
 62
     9
 10
0.0
 20
0.0
 30
0.0
 70
   128
 71
   178
 72
   182
 73
   188
  0
VERTEX
  5
72C
  8
0
 62
     9
 10
0.0
 20
0.0
 30
0.0
 70
   128
 71
   185
 72
   178
 73
   188
  0
VERTEX
  5
72D
  8
0
 62
     9
 10
0.0
 20
0.0
 30
0.0
 70
   128
 71
   162
 72
   133
 73
   154
  0
VERTEX
  5
72E
  8
0
 62
     9
 10
0.0
 20
0.0
 30
0.0
 70
   128
 71
   156
 72
    34
 73
    40
  0
VERTEX
  5
72F
  8
0
 62
     9
 10
0.0
 20
0.0
 30
0.0
 70
   128
 71
   163
 72
   144
 73
   142
  0
VERTEX
  5
730
  8
0
 62
     9
 10
0.0
 20
0.0
 30
0.0
 70
   128
 71
   138
 72
   154
 73
   133
  0
VERTEX
  5
731
  8
0
 62
     9
 10
0.0
 20
0.0
 30
0.0
 70
   128
 71
    32
 72
    34
 73
   156
  0
VERTEX
  5
732
  8
0
 62
     9
 10
0.0
 20
0.0
 30
0.0
 70
   128
 71
   163
 72
   142
 73
   162
  0
VERTEX
  5
733
  8
0
 62
     9
 10
0.0
 20
0.0
 30
0.0
 70
   128
 71
   162
 72
   142
 73
   133
  0
VERTEX
  5
734
  8
0
 62
     9
 10
0.0
 20
0.0
 30
0.0
 70
   128
 71
   166
 72
   144
 73
   163
  0
VERTEX
  5
735
  8
0
 62
     9
 10
0.0
 20
0.0
 30
0.0
 70
   128
 71
    38
 72
   156
 73
    40
  0
VERTEX
  5
736
  8
0
 62
     9
 10
0.0
 20
0.0
 30
0.0
 70
   128
 71
    38
 72
   161
 73
   156
  0
VERTEX
  5
737
  8
0
 62
     9
 10
0.0
 20
0.0
 30
0.0
 70
   128
 71
   136
 72
    47
 73
   138
  0
VERTEX
  5
738
  8
0
 62
     9
 10
0.0
 20
0.0
 30
0.0
 70
   128
 71
   154
 72
    29
 73
    30
  0
VERTEX
  5
739
  8
0
 62
     9
 10
0.0
 20
0.0
 30
0.0
 70
   128
 71
   154
 72
    32
 73
   156
  0
VERTEX
  5
73A
  8
0
 62
     9
 10
0.0
 20
0.0
 30
0.0
 70
   128
 71
    30
 72
    32
 73
   154
  0
VERTEX
  5
73B
  8
0
 62
     9
 10
0.0
 20
0.0
 30
0.0
 70
   128
 71
    36
 72
   154
 73
   138
  0
VERTEX
  5
73C
  8
0
 62
     9
 10
0.0
 20
0.0
 30
0.0
 70
   128
 71
   154
 72
    36
 73
    29
  0
VERTEX
  5
73D
  8
0
 62
     9
 10
0.0
 20
0.0
 30
0.0
 70
   128
 71
    43
 72
   138
 73
    44
  0
VERTEX
  5
73E
  8
0
 62
     9
 10
0.0
 20
0.0
 30
0.0
 70
   128
 71
    43
 72
    36
 73
   138
  0
VERTEX
  5
73F
  8
0
 62
     9
 10
0.0
 20
0.0
 30
0.0
 70
   128
 71
    47
 72
    44
 73
   138
  0
VERTEX
  5
740
  8
0
 62
     9
 10
0.0
 20
0.0
 30
0.0
 70
   128
 71
   161
 72
    74
 73
   141
  0
VERTEX
  5
741
  8
0
 62
     9
 10
0.0
 20
0.0
 30
0.0
 70
   128
 71
    49
 72
   136
 73
    50
  0
VERTEX
  5
742
  8
0
 62
     9
 10
0.0
 20
0.0
 30
0.0
 70
   128
 71
    49
 72
    47
 73
   136
  0
VERTEX
  5
743
  8
0
 62
     9
 10
0.0
 20
0.0
 30
0.0
 70
   128
 71
    52
 72
   136
 73
   141
  0
VERTEX
  5
744
  8
0
 62
     9
 10
0.0
 20
0.0
 30
0.0
 70
   128
 71
    52
 72
    50
 73
   136
  0
VERTEX
  5
745
  8
0
 62
     9
 10
0.0
 20
0.0
 30
0.0
 70
   128
 71
    78
 72
   141
 73
    76
  0
VERTEX
  5
746
  8
0
 62
     9
 10
0.0
 20
0.0
 30
0.0
 70
   128
 71
    78
 72
    52
 73
   141
  0
VERTEX
  5
747
  8
0
 62
     9
 10
0.0
 20
0.0
 30
0.0
 70
   128
 71
    75
 72
   141
 73
    77
  0
VERTEX
  5
748
  8
0
 62
     9
 10
0.0
 20
0.0
 30
0.0
 70
   128
 71
    75
 72
    76
 73
   141
  0
VERTEX
  5
749
  8
0
 62
     9
 10
0.0
 20
0.0
 30
0.0
 70
   128
 71
    74
 72
    72
 73
   141
  0
VERTEX
  5
74A
  8
0
 62
     9
 10
0.0
 20
0.0
 30
0.0
 70
   128
 71
    72
 72
    77
 73
   141
  0
VERTEX
  5
74B
  8
0
 62
     9
 10
0.0
 20
0.0
 30
0.0
 70
   128
 71
    73
 72
   161
 73
    70
  0
VERTEX
  5
74C
  8
0
 62
     9
 10
0.0
 20
0.0
 30
0.0
 70
   128
 71
    73
 72
    74
 73
   161
  0
VERTEX
  5
74D
  8
0
 62
     9
 10
0.0
 20
0.0
 30
0.0
 70
   128
 71
    79
 72
   161
 73
    69
  0
VERTEX
  5
74E
  8
0
 62
     9
 10
0.0
 20
0.0
 30
0.0
 70
   128
 71
    79
 72
    70
 73
   161
  0
VERTEX
  5
74F
  8
0
 62
     9
 10
0.0
 20
0.0
 30
0.0
 70
   128
 71
    71
 72
   161
 73
    38
  0
VERTEX
  5
750
  8
0
 62
     9
 10
0.0
 20
0.0
 30
0.0
 70
   128
 71
    71
 72
    69
 73
   161
  0
VERTEX
  5
751
  8
0
 62
     9
 10
0.0
 20
0.0
 30
0.0
 70
   128
 71
    59
 72
   167
 73
    68
  0
VERTEX
  5
752
  8
0
 62
     9
 10
0.0
 20
0.0
 30
0.0
 70
   128
 71
   167
 72
    56
 73
   166
  0
VERTEX
  5
753
  8
0
 62
     9
 10
0.0
 20
0.0
 30
0.0
 70
   128
 71
    53
 72
    61
 73
   146
  0
VERTEX
  5
754
  8
0
 62
     9
 10
0.0
 20
0.0
 30
0.0
 70
   128
 71
    66
 72
   167
 73
   146
  0
VERTEX
  5
755
  8
0
 62
     9
 10
0.0
 20
0.0
 30
0.0
 70
   128
 71
    66
 72
    68
 73
   167
  0
VERTEX
  5
756
  8
0
 62
     9
 10
0.0
 20
0.0
 30
0.0
 70
   128
 71
    61
 72
    65
 73
   146
  0
VERTEX
  5
757
  8
0
 62
     9
 10
0.0
 20
0.0
 30
0.0
 70
   128
 71
    65
 72
    66
 73
   146
  0
VERTEX
  5
758
  8
0
 62
     9
 10
0.0
 20
0.0
 30
0.0
 70
   128
 71
   144
 72
   166
 73
    55
  0
VERTEX
  5
759
  8
0
 62
     9
 10
0.0
 20
0.0
 30
0.0
 70
   128
 71
    55
 72
    53
 73
   144
  0
VERTEX
  5
75A
  8
0
 62
     9
 10
0.0
 20
0.0
 30
0.0
 70
   128
 71
   144
 72
    53
 73
   146
  0
VERTEX
  5
75B
  8
0
 62
     9
 10
0.0
 20
0.0
 30
0.0
 70
   128
 71
    59
 72
    56
 73
   167
  0
VERTEX
  5
75C
  8
0
 62
     9
 10
0.0
 20
0.0
 30
0.0
 70
   128
 71
    56
 72
    55
 73
   166
  0
SEQEND
  5
75D
  8
0
 62
     9
  0
ENDBLK
  5
760
  8
0
  0
ENDSEC
  0
SECTION
  2
ENTITIES
  0
INSERT
  5
181
  8
LAYER_1
  2
1
 10
0.0
 20
0.0
 30
0.0
  0
INSERT
  5
246
  8
LAYER_1
  2
39
 10
0.0
 20
0.0
 30
0.0
  0
INSERT
  5
448
  8
LAYER_1
  2
40
 10
0.0
 20
0.0
 30
0.0
  0
INSERT
  5
490
  8
LAYER_1
  2
41
 10
0.0
 20
0.0
 30
0.0
  0
INSERT
  5
543
  8
LAYER_1
  2
1_1_
 10
0.0
 20
0.0
 30
0.0
  0
INSERT
  5
75E
  8
LAYER_1
  2
1_2_
 10
0.0
 20
0.0
 30
0.0
  0
ENDSEC
  0
EOF
