  0
SECTION
  2
HEADER
  9
$ACADVER
  1
AC1009
  9
$DWGCODEPAGE
  3
ansi_1252
  9
$INSBASE
 10
0.0
 20
0.0
 30
0.0
  9
$EXTMIN
 10
1.000000000000000E+20
 20
1.000000000000000E+20
 30
1.000000000000000E+20
  9
$EXTMAX
 10
-1.000000000000000E+20
 20
-1.000000000000000E+20
 30
-1.000000000000000E+20
  9
$LIMMIN
 10
0.0
 20
0.0
  9
$LIMMAX
 10
12.0
 20
9.0
  9
$ORTHOMODE
 70
     0
  9
$REGENMODE
 70
     1
  9
$FILLMODE
 70
     1
  9
$QTEXTMODE
 70
     0
  9
$MIRRTEXT
 70
     1
  9
$DRAGMODE
 70
     2
  9
$LTSCALE
 40
1.0
  9
$OSMODE
 70
    37
  9
$ATTMODE
 70
     1
  9
$TEXTSIZE
 40
0.2
  9
$TRACEWID
 40
0.05
  9
$TEXTSTYLE
  7
STANDARD
  9
$CLAYER
  8
0
  9
$CELTYPE
  6
BYLAYER
  9
$CECOLOR
 62
   256
  9
$DIMSCALE
 40
1.0
  9
$DIMASZ
 40
0.18
  9
$DIMEXO
 40
0.0625
  9
$DIMDLI
 40
0.38
  9
$DIMRND
 40
0.0
  9
$DIMDLE
 40
0.0
  9
$DIMEXE
 40
0.18
  9
$DIMTP
 40
0.0
  9
$DIMTM
 40
0.0
  9
$DIMTXT
 40
0.18
  9
$DIMCEN
 40
0.09
  9
$DIMTSZ
 40
0.0
  9
$DIMTOL
 70
     0
  9
$DIMLIM
 70
     0
  9
$DIMTIH
 70
     1
  9
$DIMTOH
 70
     1
  9
$DIMSE1
 70
     0
  9
$DIMSE2
 70
     0
  9
$DIMTAD
 70
     0
  9
$DIMZIN
 70
     0
  9
$DIMBLK
  1

  9
$DIMASO
 70
     1
  9
$DIMSHO
 70
     1
  9
$DIMPOST
  1

  9
$DIMAPOST
  1

  9
$DIMALT
 70
     0
  9
$DIMALTD
 70
     2
  9
$DIMALTF
 40
25.4
  9
$DIMLFAC
 40
1.0
  9
$DIMTOFL
 70
     0
  9
$DIMTVP
 40
0.0
  9
$DIMTIX
 70
     0
  9
$DIMSOXD
 70
     0
  9
$DIMSAH
 70
     0
  9
$DIMBLK1
  1

  9
$DIMBLK2
  1

  9
$DIMSTYLE
  2
STANDARD
  9
$DIMCLRD
 70
     0
  9
$DIMCLRE
 70
     0
  9
$DIMCLRT
 70
     0
  9
$DIMTFAC
 40
1.0
  9
$DIMGAP
 40
0.09
  9
$LUNITS
 70
     2
  9
$LUPREC
 70
     4
  9
$SKETCHINC
 40
0.1
  9
$FILLETRAD
 40
0.5
  9
$AUNITS
 70
     0
  9
$AUPREC
 70
     0
  9
$MENU
  1
.
  9
$ELEVATION
 40
0.0
  9
$PELEVATION
 40
0.0
  9
$THICKNESS
 40
0.0
  9
$LIMCHECK
 70
     0
  9
$CHAMFERA
 40
0.5
  9
$CHAMFERB
 40
0.5
  9
$SKPOLY
 70
     0
  9
$TDCREATE
 40
2455607.487515718
  9
$TDUPDATE
 40
2455607.487515718
  9
$TDINDWG
 40
0.0000000116
  9
$TDUSRTIMER
 40
0.0000000116
  9
$USRTIMER
 70
     1
  9
$ANGBASE
 50
0.0
  9
$ANGDIR
 70
     0
  9
$PDMODE
 70
     0
  9
$PDSIZE
 40
0.0
  9
$PLINEWID
 40
0.0
  9
$COORDS
 70
     1
  9
$SPLFRAME
 70
     0
  9
$SPLINETYPE
 70
     6
  9
$SPLINESEGS
 70
     8
  9
$ATTDIA
 70
     0
  9
$ATTREQ
 70
     1
  9
$HANDLING
 70
     1
  9
$HANDSEED
  5
7BE
  9
$SURFTAB1
 70
     6
  9
$SURFTAB2
 70
     6
  9
$SURFTYPE
 70
     6
  9
$SURFU
 70
     6
  9
$SURFV
 70
     6
  9
$UCSNAME
  2

  9
$UCSORG
 10
0.0
 20
0.0
 30
0.0
  9
$UCSXDIR
 10
1.0
 20
0.0
 30
0.0
  9
$UCSYDIR
 10
0.0
 20
1.0
 30
0.0
  9
$PUCSNAME
  2

  9
$PUCSORG
 10
0.0
 20
0.0
 30
0.0
  9
$PUCSXDIR
 10
1.0
 20
0.0
 30
0.0
  9
$PUCSYDIR
 10
0.0
 20
1.0
 30
0.0
  9
$USERI1
 70
     0
  9
$USERI2
 70
     0
  9
$USERI3
 70
     0
  9
$USERI4
 70
     0
  9
$USERI5
 70
     0
  9
$USERR1
 40
0.0
  9
$USERR2
 40
0.0
  9
$USERR3
 40
0.0
  9
$USERR4
 40
0.0
  9
$USERR5
 40
0.0
  9
$WORLDVIEW
 70
     1
  9
$SHADEDGE
 70
     3
  9
$SHADEDIF
 70
    70
  9
$TILEMODE
 70
     1
  9
$MAXACTVP
 70
    64
  9
$PLIMCHECK
 70
     0
  9
$PEXTMIN
 10
1.000000000000000E+20
 20
1.000000000000000E+20
 30
1.000000000000000E+20
  9
$PEXTMAX
 10
-1.000000000000000E+20
 20
-1.000000000000000E+20
 30
-1.000000000000000E+20
  9
$PLIMMIN
 10
0.0
 20
0.0
  9
$PLIMMAX
 10
12.0
 20
9.0
  9
$UNITMODE
 70
     0
  9
$VISRETAIN
 70
     1
  9
$PLINEGEN
 70
     0
  9
$PSLTSCALE
 70
     1
  0
ENDSEC
  0
SECTION
  2
TABLES
  0
TABLE
  2
VPORT
 70
     1
  0
VPORT
  2
*ACTIVE
 70
     0
 10
0.0
 20
0.0
 11
1.0
 21
1.0
 12
0.0
 22
0.0
 13
0.0
 23
0.0
 14
0.5
 24
0.5
 15
0.5
 25
0.5
 16
420.4527587890625
 26
-420.4527893066406
 36
420.4527893066406
 17
57.69244384765625
 27
28.73062133789062
 37
150.3354187011719
 40
546.6458339247126
 41
1.972972972850329
 42
50.0
 43
0.0
 44
0.0
 50
0.0
 51
0.0
 71
     0
 72
   100
 73
     1
 74
     3
 75
     0
 76
     0
 77
     0
 78
     0
  0
ENDTAB
  0
TABLE
  2
LTYPE
 70
     1
  0
LTYPE
  2
CONTINUOUS
 70
     0
  3
Solid line
 72
    65
 73
     0
 40
0.0
  0
ENDTAB
  0
TABLE
  2
LAYER
 70
     2
  0
LAYER
  2
0
 70
     0
 62
     7
  6
CONTINUOUS
  0
LAYER
  2
LAYER_1
 70
     0
 62
     7
  6
CONTINUOUS
  0
ENDTAB
  0
TABLE
  2
STYLE
 70
     1
  0
STYLE
  2
STANDARD
 70
     0
 40
0.0
 41
1.0
 50
0.0
 71
     0
 42
0.2
  3
txt
  4

  0
ENDTAB
  0
TABLE
  2
VIEW
 70
     0
  0
ENDTAB
  0
TABLE
  2
UCS
 70
     0
  0
ENDTAB
  0
TABLE
  2
APPID
 70
     1
  0
APPID
  2
ACAD
 70
     0
  0
ENDTAB
  0
TABLE
  2
DIMSTYLE
 70
     1
  0
DIMSTYLE
  2
STANDARD
 70
     0
  3

  4

  5

  6

  7

 40
1.0
 41
0.18
 42
0.0625
 43
0.38
 44
0.18
 45
0.0
 46
0.0
 47
0.0
 48
0.0
140
0.18
141
0.09
142
0.0
143
25.4
144
1.0
145
0.0
146
1.0
147
0.09
 71
     0
 72
     0
 73
     1
 74
     1
 75
     0
 76
     0
 77
     0
 78
     0
170
     0
171
     2
172
     0
173
     0
174
     0
175
     0
176
     0
177
     0
178
     0
  0
ENDTAB
  0
ENDSEC
  0
SECTION
  2
BLOCKS
  0
BLOCK
  8
0
  2
$MODEL_SPACE
 70
     0
 10
0.0
 20
0.0
 30
0.0
  3
$MODEL_SPACE
  1

  0
ENDBLK
  5
21
  8
0
  0
BLOCK
 67
     1
  8
0
  2
$PAPER_SPACE
 70
     0
 10
0.0
 20
0.0
 30
0.0
  3
$PAPER_SPACE
  1

  0
ENDBLK
  5
1D
 67
     1
  8
0
  0
BLOCK
  8
0
  2
38
 70
     0
 10
0.0
 20
0.0
 30
0.0
  3
38
  1

  0
POLYLINE
  5
3C
  8
0
 62
     9
 66
     1
 10
0.0
 20
0.0
 30
0.0
 70
    64
 71
    40
 72
    76
  0
VERTEX
  5
3D
  8
0
 10
146.3304290771484
 20
-11.00600528717041
 30
221.2387847900391
 70
   192
  0
VERTEX
  5
3E
  8
0
 10
152.8215484619141
 20
-11.57359981536865
 30
205.1210784912109
 70
   192
  0
VERTEX
  5
3F
  8
0
 10
149.8485870361328
 20
-11.57359981536865
 30
221.8591156005859
 70
   192
  0
VERTEX
  5
40
  8
0
 10
149.2922058105469
 20
-11.01001358032227
 30
204.4987640380859
 70
   192
  0
VERTEX
  5
41
  8
0
 10
146.1146697998047
 20
-9.366808891296387
 30
203.9384765625
 70
   192
  0
VERTEX
  5
42
  8
0
 10
143.5932922363281
 20
-6.808908939361572
 30
203.493896484375
 70
   192
  0
VERTEX
  5
43
  8
0
 10
143.1556854248047
 20
-9.361937522888184
 30
220.6789855957031
 70
   192
  0
VERTEX
  5
44
  8
0
 10
139.0167083740234
 20
-3.57374382019043
 30
219.9491729736328
 70
   192
  0
VERTEX
  5
45
  8
0
 10
140.6324005126953
 20
-6.795401573181152
 30
220.2340545654297
 70
   192
  0
VERTEX
  5
46
  8
0
 10
138.4599151611328
 20
-0.000000646063711
 30
219.8509979248047
 70
   192
  0
VERTEX
  5
47
  8
0
 10
141.9716186523438
 20
-3.581550121307373
 30
203.2079467773438
 70
   192
  0
VERTEX
  5
48
  8
0
 10
141.4119262695312
 20
-0.000000646063711
 30
203.1092529296875
 70
   192
  0
VERTEX
  5
49
  8
0
 10
156.3397064208984
 20
-11.00600528717041
 30
205.7414245605469
 70
   192
  0
VERTEX
  5
4A
  8
0
 10
156.5554656982422
 20
-9.366808891296387
 30
223.0417327880859
 70
   192
  0
VERTEX
  5
4B
  8
0
 10
153.3779296875
 20
-11.01001358032227
 30
222.4814453125
 70
   192
  0
VERTEX
  5
4C
  8
0
 10
159.5144500732422
 20
-9.361937522888184
 30
206.3012237548828
 70
   192
  0
VERTEX
  5
4D
  8
0
 10
159.0768432617188
 20
-6.808908939361572
 30
223.4863128662109
 70
   192
  0
VERTEX
  5
4E
  8
0
 10
162.0377349853516
 20
-6.795401573181152
 30
206.7461395263672
 70
   192
  0
VERTEX
  5
4F
  8
0
 10
163.6534271240234
 20
-3.57374382019043
 30
207.0310363769531
 70
   192
  0
VERTEX
  5
50
  8
0
 10
160.6985168457031
 20
-3.581550121307373
 30
223.7722625732422
 70
   192
  0
VERTEX
  5
51
  8
0
 10
164.2102203369141
 20
-0.000000646063711
 30
207.1292114257812
 70
   192
  0
VERTEX
  5
52
  8
0
 10
161.2582092285156
 20
-0.000000646063711
 30
223.8709411621094
 70
   192
  0
VERTEX
  5
53
  8
0
 10
139.0195922851562
 20
3.581548929214478
 30
219.9496765136719
 70
   192
  0
VERTEX
  5
54
  8
0
 10
149.2824554443359
 20
11.00600337982178
 30
204.4970397949219
 70
   192
  0
VERTEX
  5
55
  8
0
 10
146.3401794433594
 20
11.01001167297363
 30
221.2404937744141
 70
   192
  0
VERTEX
  5
56
  8
0
 10
149.8695220947266
 20
11.57359886169434
 30
221.8628082275391
 70
   192
  0
VERTEX
  5
57
  8
0
 10
140.6412658691406
 20
6.808907508850098
 30
220.2356262207031
 70
   192
  0
VERTEX
  5
58
  8
0
 10
146.1077117919922
 20
9.36193561553955
 30
203.937255859375
 70
   192
  0
VERTEX
  5
59
  8
0
 10
143.5844116210938
 20
6.795400142669678
 30
203.4923248291016
 70
   192
  0
VERTEX
  5
5A
  8
0
 10
159.5074768066406
 20
9.366806983947754
 30
206.2999877929688
 70
   192
  0
VERTEX
  5
5B
  8
0
 10
153.3876800537109
 20
11.00600337982178
 30
222.483154296875
 70
   192
  0
VERTEX
  5
5C
  8
0
 10
156.5624237060547
 20
9.36193561553955
 30
223.0429534912109
 70
   192
  0
VERTEX
  5
5D
  8
0
 10
156.3299560546875
 20
11.01001167297363
 30
205.7397155761719
 70
   192
  0
VERTEX
  5
5E
  8
0
 10
152.8006134033203
 20
11.57359886169434
 30
205.1173858642578
 70
   192
  0
VERTEX
  5
5F
  8
0
 10
162.0288696289062
 20
6.808907508850098
 30
206.7445831298828
 70
   192
  0
VERTEX
  5
60
  8
0
 10
159.0857238769531
 20
6.795400142669678
 30
223.4878845214844
 70
   192
  0
VERTEX
  5
61
  8
0
 10
160.701416015625
 20
3.573742389678955
 30
223.7727661132812
 70
   192
  0
VERTEX
  5
62
  8
0
 10
163.6505432128906
 20
3.581548929214478
 30
207.0305328369141
 70
   192
  0
VERTEX
  5
63
  8
0
 10
143.1626586914062
 20
9.366806983947754
 30
220.6802062988281
 70
   192
  0
VERTEX
  5
64
  8
0
 10
141.9687194824219
 20
3.573742389678955
 30
203.2074432373047
 70
   192
  0
VERTEX
  5
65
  8
0
 62
     9
 10
0.0
 20
0.0
 30
0.0
 70
   128
 71
     3
 72
     2
 73
     1
  0
VERTEX
  5
66
  8
0
 62
     9
 10
0.0
 20
0.0
 30
0.0
 70
   128
 71
     5
 72
     1
 73
     4
  0
VERTEX
  5
67
  8
0
 62
     9
 10
0.0
 20
0.0
 30
0.0
 70
   128
 71
     1
 72
     2
 73
     4
  0
VERTEX
  5
68
  8
0
 62
     9
 10
0.0
 20
0.0
 30
0.0
 70
   128
 71
     7
 72
     5
 73
     6
  0
VERTEX
  5
69
  8
0
 62
     9
 10
0.0
 20
0.0
 30
0.0
 70
   128
 71
     5
 72
     7
 73
     1
  0
VERTEX
  5
6A
  8
0
 62
     9
 10
0.0
 20
0.0
 30
0.0
 70
   128
 71
     9
 72
     6
 73
     8
  0
VERTEX
  5
6B
  8
0
 62
     9
 10
0.0
 20
0.0
 30
0.0
 70
   128
 71
     9
 72
     7
 73
     6
  0
VERTEX
  5
6C
  8
0
 62
     9
 10
0.0
 20
0.0
 30
0.0
 70
   128
 71
    11
 72
    10
 73
     8
  0
VERTEX
  5
6D
  8
0
 62
     9
 10
0.0
 20
0.0
 30
0.0
 70
   128
 71
     8
 72
     6
 73
    11
  0
VERTEX
  5
6E
  8
0
 62
     9
 10
0.0
 20
0.0
 30
0.0
 70
   128
 71
    11
 72
    12
 73
    10
  0
VERTEX
  5
6F
  8
0
 62
     9
 10
0.0
 20
0.0
 30
0.0
 70
   128
 71
     2
 72
     3
 73
    13
  0
VERTEX
  5
70
  8
0
 62
     9
 10
0.0
 20
0.0
 30
0.0
 70
   128
 71
    13
 72
    15
 73
    14
  0
VERTEX
  5
71
  8
0
 62
     9
 10
0.0
 20
0.0
 30
0.0
 70
   128
 71
     3
 72
    15
 73
    13
  0
VERTEX
  5
72
  8
0
 62
     9
 10
0.0
 20
0.0
 30
0.0
 70
   128
 71
    14
 72
    17
 73
    16
  0
VERTEX
  5
73
  8
0
 62
     9
 10
0.0
 20
0.0
 30
0.0
 70
   128
 71
    16
 72
    13
 73
    14
  0
VERTEX
  5
74
  8
0
 62
     9
 10
0.0
 20
0.0
 30
0.0
 70
   128
 71
    17
 72
    19
 73
    18
  0
VERTEX
  5
75
  8
0
 62
     9
 10
0.0
 20
0.0
 30
0.0
 70
   128
 71
    16
 72
    17
 73
    18
  0
VERTEX
  5
76
  8
0
 62
     9
 10
0.0
 20
0.0
 30
0.0
 70
   128
 71
    21
 72
    19
 73
    20
  0
VERTEX
  5
77
  8
0
 62
     9
 10
0.0
 20
0.0
 30
0.0
 70
   128
 71
    17
 72
    20
 73
    19
  0
VERTEX
  5
78
  8
0
 62
     9
 10
0.0
 20
0.0
 30
0.0
 70
   128
 71
    22
 72
    21
 73
    20
  0
VERTEX
  5
79
  8
0
 62
     9
 10
0.0
 20
0.0
 30
0.0
 70
   128
 71
    10
 72
    12
 73
    23
  0
VERTEX
  5
7A
  8
0
 62
     9
 10
0.0
 20
0.0
 30
0.0
 70
   128
 71
    26
 72
    25
 73
    24
  0
VERTEX
  5
7B
  8
0
 62
     9
 10
0.0
 20
0.0
 30
0.0
 70
   128
 71
    29
 72
    28
 73
    27
  0
VERTEX
  5
7C
  8
0
 62
     9
 10
0.0
 20
0.0
 30
0.0
 70
   128
 71
    32
 72
    31
 73
    30
  0
VERTEX
  5
7D
  8
0
 62
     9
 10
0.0
 20
0.0
 30
0.0
 70
   128
 71
    34
 72
    33
 73
    31
  0
VERTEX
  5
7E
  8
0
 62
     9
 10
0.0
 20
0.0
 30
0.0
 70
   128
 71
    37
 72
    36
 73
    35
  0
VERTEX
  5
7F
  8
0
 62
     9
 10
0.0
 20
0.0
 30
0.0
 70
   128
 71
    35
 72
    36
 73
    32
  0
VERTEX
  5
80
  8
0
 62
     9
 10
0.0
 20
0.0
 30
0.0
 70
   128
 71
    37
 72
    38
 73
    22
  0
VERTEX
  5
81
  8
0
 62
     9
 10
0.0
 20
0.0
 30
0.0
 70
   128
 71
    38
 72
    37
 73
    35
  0
VERTEX
  5
82
  8
0
 62
     9
 10
0.0
 20
0.0
 30
0.0
 70
   128
 71
    22
 72
    38
 73
    21
  0
VERTEX
  5
83
  8
0
 62
     9
 10
0.0
 20
0.0
 30
0.0
 70
   128
 71
    30
 72
    31
 73
    33
  0
VERTEX
  5
84
  8
0
 62
     9
 10
0.0
 20
0.0
 30
0.0
 70
   128
 71
    35
 72
    32
 73
    30
  0
VERTEX
  5
85
  8
0
 62
     9
 10
0.0
 20
0.0
 30
0.0
 70
   128
 71
    34
 72
    26
 73
    24
  0
VERTEX
  5
86
  8
0
 62
     9
 10
0.0
 20
0.0
 30
0.0
 70
   128
 71
    34
 72
    31
 73
    26
  0
VERTEX
  5
87
  8
0
 62
     9
 10
0.0
 20
0.0
 30
0.0
 70
   128
 71
    39
 72
    28
 73
    24
  0
VERTEX
  5
88
  8
0
 62
     9
 10
0.0
 20
0.0
 30
0.0
 70
   128
 71
    25
 72
    39
 73
    24
  0
VERTEX
  5
89
  8
0
 62
     9
 10
0.0
 20
0.0
 30
0.0
 70
   128
 71
    27
 72
    40
 73
    29
  0
VERTEX
  5
8A
  8
0
 62
     9
 10
0.0
 20
0.0
 30
0.0
 70
   128
 71
    27
 72
    28
 73
    39
  0
VERTEX
  5
8B
  8
0
 62
     9
 10
0.0
 20
0.0
 30
0.0
 70
   128
 71
    40
 72
    23
 73
    12
  0
VERTEX
  5
8C
  8
0
 62
     9
 10
0.0
 20
0.0
 30
0.0
 70
   128
 71
    23
 72
    40
 73
    27
  0
VERTEX
  5
8D
  8
0
 62
     9
 10
0.0
 20
0.0
 30
0.0
 70
   128
 71
    26
 72
    31
 73
     8
  0
VERTEX
  5
8E
  8
0
 62
     9
 10
0.0
 20
0.0
 30
0.0
 70
   128
 71
    26
 72
    10
 73
    23
  0
VERTEX
  5
8F
  8
0
 62
     9
 10
0.0
 20
0.0
 30
0.0
 70
   128
 71
    23
 72
    39
 73
    25
  0
VERTEX
  5
90
  8
0
 62
     9
 10
0.0
 20
0.0
 30
0.0
 70
   128
 71
    39
 72
    23
 73
    27
  0
VERTEX
  5
91
  8
0
 62
     9
 10
0.0
 20
0.0
 30
0.0
 70
   128
 71
    23
 72
    25
 73
    26
  0
VERTEX
  5
92
  8
0
 62
     9
 10
0.0
 20
0.0
 30
0.0
 70
   128
 71
     8
 72
    31
 73
     9
  0
VERTEX
  5
93
  8
0
 62
     9
 10
0.0
 20
0.0
 30
0.0
 70
   128
 71
    10
 72
    26
 73
     8
  0
VERTEX
  5
94
  8
0
 62
     9
 10
0.0
 20
0.0
 30
0.0
 70
   128
 71
     9
 72
    32
 73
    36
  0
VERTEX
  5
95
  8
0
 62
     9
 10
0.0
 20
0.0
 30
0.0
 70
   128
 71
    31
 72
    32
 73
     9
  0
VERTEX
  5
96
  8
0
 62
     9
 10
0.0
 20
0.0
 30
0.0
 70
   128
 71
     7
 72
     9
 73
    36
  0
VERTEX
  5
97
  8
0
 62
     9
 10
0.0
 20
0.0
 30
0.0
 70
   128
 71
     1
 72
     7
 73
    36
  0
VERTEX
  5
98
  8
0
 62
     9
 10
0.0
 20
0.0
 30
0.0
 70
   128
 71
     3
 72
     1
 73
    37
  0
VERTEX
  5
99
  8
0
 62
     9
 10
0.0
 20
0.0
 30
0.0
 70
   128
 71
    36
 72
    37
 73
     1
  0
VERTEX
  5
9A
  8
0
 62
     9
 10
0.0
 20
0.0
 30
0.0
 70
   128
 71
    15
 72
     3
 73
    20
  0
VERTEX
  5
9B
  8
0
 62
     9
 10
0.0
 20
0.0
 30
0.0
 70
   128
 71
    22
 72
     3
 73
    37
  0
VERTEX
  5
9C
  8
0
 62
     9
 10
0.0
 20
0.0
 30
0.0
 70
   128
 71
    15
 72
    20
 73
    14
  0
VERTEX
  5
9D
  8
0
 62
     9
 10
0.0
 20
0.0
 30
0.0
 70
   128
 71
    20
 72
    17
 73
    14
  0
VERTEX
  5
9E
  8
0
 62
     9
 10
0.0
 20
0.0
 30
0.0
 70
   128
 71
     3
 72
    22
 73
    20
  0
VERTEX
  5
9F
  8
0
 62
     9
 10
0.0
 20
0.0
 30
0.0
 70
   128
 71
    11
 72
     6
 73
    30
  0
VERTEX
  5
A0
  8
0
 62
     9
 10
0.0
 20
0.0
 30
0.0
 70
   128
 71
    29
 72
    40
 73
    24
  0
VERTEX
  5
A1
  8
0
 62
     9
 10
0.0
 20
0.0
 30
0.0
 70
   128
 71
    24
 72
    28
 73
    29
  0
VERTEX
  5
A2
  8
0
 62
     9
 10
0.0
 20
0.0
 30
0.0
 70
   128
 71
    12
 72
    34
 73
    40
  0
VERTEX
  5
A3
  8
0
 62
     9
 10
0.0
 20
0.0
 30
0.0
 70
   128
 71
    24
 72
    40
 73
    34
  0
VERTEX
  5
A4
  8
0
 62
     9
 10
0.0
 20
0.0
 30
0.0
 70
   128
 71
     5
 72
    38
 73
    35
  0
VERTEX
  5
A5
  8
0
 62
     9
 10
0.0
 20
0.0
 30
0.0
 70
   128
 71
    34
 72
    11
 73
    33
  0
VERTEX
  5
A6
  8
0
 62
     9
 10
0.0
 20
0.0
 30
0.0
 70
   128
 71
    21
 72
    38
 73
     2
  0
VERTEX
  5
A7
  8
0
 62
     9
 10
0.0
 20
0.0
 30
0.0
 70
   128
 71
    18
 72
    13
 73
    16
  0
VERTEX
  5
A8
  8
0
 62
     9
 10
0.0
 20
0.0
 30
0.0
 70
   128
 71
     2
 72
    13
 73
    19
  0
VERTEX
  5
A9
  8
0
 62
     9
 10
0.0
 20
0.0
 30
0.0
 70
   128
 71
    18
 72
    19
 73
    13
  0
VERTEX
  5
AA
  8
0
 62
     9
 10
0.0
 20
0.0
 30
0.0
 70
   128
 71
    21
 72
     2
 73
    19
  0
VERTEX
  5
AB
  8
0
 62
     9
 10
0.0
 20
0.0
 30
0.0
 70
   128
 71
    38
 72
     5
 73
     4
  0
VERTEX
  5
AC
  8
0
 62
     9
 10
0.0
 20
0.0
 30
0.0
 70
   128
 71
     4
 72
     2
 73
    38
  0
VERTEX
  5
AD
  8
0
 62
     9
 10
0.0
 20
0.0
 30
0.0
 70
   128
 71
    30
 72
     6
 73
    35
  0
VERTEX
  5
AE
  8
0
 62
     9
 10
0.0
 20
0.0
 30
0.0
 70
   128
 71
     6
 72
     5
 73
    35
  0
VERTEX
  5
AF
  8
0
 62
     9
 10
0.0
 20
0.0
 30
0.0
 70
   128
 71
    12
 72
    11
 73
    34
  0
VERTEX
  5
B0
  8
0
 62
     9
 10
0.0
 20
0.0
 30
0.0
 70
   128
 71
    11
 72
    30
 73
    33
  0
SEQEND
  5
B1
  8
0
 62
     9
  0
ENDBLK
  5
B5
  8
0
  0
BLOCK
  8
0
  2
39
 70
     0
 10
0.0
 20
0.0
 30
0.0
  3
39
  1

  0
POLYLINE
  5
B7
  8
0
 62
     9
 66
     1
 10
0.0
 20
0.0
 30
0.0
 70
    64
 71
   248
 72
   492
  0
VERTEX
  5
B8
  8
0
 10
-23.49420738220215
 20
48.47832870483398
 30
42.36723327636719
 70
   192
  0
VERTEX
  5
B9
  8
0
 10
-19.45814323425293
 20
48.47832870483398
 30
34.80337905883789
 70
   192
  0
VERTEX
  5
BA
  8
0
 10
5.107235431671143
 20
48.47832489013672
 30
74.10950469970703
 70
   192
  0
VERTEX
  5
BB
  8
0
 10
22.87225151062012
 20
48.47832870483398
 30
40.74431610107422
 70
   192
  0
VERTEX
  5
BC
  8
0
 10
11.59590816497803
 20
48.47832870483398
 30
28.21420288085938
 70
   192
  0
VERTEX
  5
BD
  8
0
 10
18.34410095214844
 20
48.47832870483398
 30
33.48526763916016
 70
   192
  0
VERTEX
  5
BE
  8
0
 10
-5.117980480194092
 20
48.47832870483398
 30
25.84893608093262
 70
   192
  0
VERTEX
  5
BF
  8
0
 10
3.463567018508911
 20
48.47832870483398
 30
25.53718566894531
 70
   192
  0
VERTEX
  5
C0
  8
0
 10
24.64401817321777
 20
48.47832489013672
 30
49.14946746826172
 70
   192
  0
VERTEX
  5
C1
  8
0
 10
23.45741653442383
 20
48.47832489013672
 30
57.62557983398438
 70
   192
  0
VERTEX
  5
C2
  8
0
 10
19.41994094848633
 20
48.47832489013672
 30
65.1748046875
 70
   192
  0
VERTEX
  5
C3
  8
0
 10
-13.09792995452881
 20
48.47832870483398
 30
29.0389289855957
 70
   192
  0
VERTEX
  5
C4
  8
0
 10
-3.45991325378418
 20
48.47832489013672
 30
74.42635345458984
 70
   192
  0
VERTEX
  5
C5
  8
0
 10
-11.58720397949219
 20
48.47832489013672
 30
71.76394653320312
 70
   192
  0
VERTEX
  5
C6
  8
0
 10
13.07486438751221
 20
48.47832489013672
 30
70.92415618896484
 70
   192
  0
VERTEX
  5
C7
  8
0
 10
-24.66835594177246
 20
48.47832870483398
 30
50.84765243530273
 70
   192
  0
VERTEX
  5
C8
  8
0
 10
-22.88861846923828
 20
48.47832870483398
 30
59.2368049621582
 70
   192
  0
VERTEX
  5
C9
  8
0
 10
-18.35121536254883
 20
48.47832870483398
 30
66.49551391601562
 70
   192
  0
VERTEX
  5
CA
  8
0
 10
23.79297256469727
 20
77.32170104980469
 30
63.843017578125
 70
   192
  0
VERTEX
  5
CB
  8
0
 10
26.80848693847656
 20
78.07134246826172
 30
68.12731170654297
 70
   192
  0
VERTEX
  5
CC
  8
0
 10
26.70566368103027
 20
77.32014465332031
 30
68.51687622070312
 70
   192
  0
VERTEX
  5
CD
  8
0
 10
47.13896179199219
 20
77.31897735595703
 30
101.2007217407227
 70
   192
  0
VERTEX
  5
CE
  8
0
 10
43.62508392333984
 20
76.96463012695312
 30
96.97705841064453
 70
   192
  0
VERTEX
  5
CF
  8
0
 10
44.20423889160156
 20
77.31891632080078
 30
96.54354858398438
 70
   192
  0
VERTEX
  5
D0
  8
0
 10
40.69578552246094
 20
76.96389770507812
 30
92.30659484863281
 70
   192
  0
VERTEX
  5
D1
  8
0
 10
50.08041763305664
 20
77.3109359741211
 30
105.8597183227539
 70
   192
  0
VERTEX
  5
D2
  8
0
 10
46.56962966918945
 20
76.96279907226562
 30
101.6463317871094
 70
   192
  0
VERTEX
  5
D3
  8
0
 10
52.21581649780273
 20
76.92769622802734
 30
111.1139755249023
 70
   192
  0
VERTEX
  5
D4
  8
0
 10
49.53289413452148
 20
76.94756317138672
 30
106.2952880859375
 70
   192
  0
VERTEX
  5
D5
  8
0
 10
52.81449127197266
 20
77.29940795898438
 30
110.7820358276367
 70
   192
  0
VERTEX
  5
D6
  8
0
 10
51.11326599121094
 20
76.8971939086914
 30
121.7316055297852
 70
   192
  0
VERTEX
  5
D7
  8
0
 10
52.90668487548828
 20
76.9291763305664
 30
116.5381851196289
 70
   192
  0
VERTEX
  5
D8
  8
0
 10
51.71685791015625
 20
77.28738403320312
 30
122.0344314575195
 70
   192
  0
VERTEX
  5
D9
  8
0
 10
47.26570892333984
 20
76.89105224609375
 30
125.6409454345703
 70
   192
  0
VERTEX
  5
DA
  8
0
 10
47.63287353515625
 20
77.29157257080078
 30
126.2285308837891
 70
   192
  0
VERTEX
  5
DB
  8
0
 10
53.62327194213867
 20
77.31290435791016
 30
116.5386581420898
 70
   192
  0
VERTEX
  5
DC
  8
0
 10
51.5322151184082
 20
78.04251098632812
 30
122.8694915771484
 70
   192
  0
VERTEX
  5
DD
  8
0
 10
47.77180480957031
 20
78.04771423339844
 30
126.4508743286133
 70
   192
  0
VERTEX
  5
DE
  8
0
 10
41.27922821044922
 20
77.31825256347656
 30
91.8793716430664
 70
   192
  0
VERTEX
  5
DF
  8
0
 10
37.77093124389648
 20
76.96378326416016
 30
87.63005065917969
 70
   192
  0
VERTEX
  5
E0
  8
0
 10
38.35941696166992
 20
77.318115234375
 30
87.21049499511719
 70
   192
  0
VERTEX
  5
E1
  8
0
 10
34.8502311706543
 20
76.96408081054688
 30
82.94962310791016
 70
   192
  0
VERTEX
  5
E2
  8
0
 10
31.93123435974121
 20
76.96448516845703
 30
78.26944732666016
 70
   192
  0
VERTEX
  5
E3
  8
0
 10
35.44330596923828
 20
77.31836700439453
 30
82.5387191772461
 70
   192
  0
VERTEX
  5
E4
  8
0
 10
29.01430130004883
 20
76.9650650024414
 30
73.5879898071289
 70
   192
  0
VERTEX
  5
E5
  8
0
 10
32.52981567382812
 20
77.3188705444336
 30
77.8652114868164
 70
   192
  0
VERTEX
  5
E6
  8
0
 10
29.61775398254395
 20
77.31951141357422
 30
73.19100189208984
 70
   192
  0
VERTEX
  5
E7
  8
0
 10
26.09732246398926
 20
76.96564483642578
 30
68.90655517578125
 70
   192
  0
VERTEX
  5
E8
  8
0
 10
23.18621826171875
 20
76.9668197631836
 30
64.22150421142578
 70
   192
  0
VERTEX
  5
E9
  8
0
 10
24.04061508178711
 20
78.07170867919922
 30
63.6886100769043
 70
   192
  0
VERTEX
  5
EA
  8
0
 10
29.57721900939941
 20
78.07097625732422
 30
72.56884765625
 70
   192
  0
VERTEX
  5
EB
  8
0
 10
32.34348297119141
 20
78.07062530517578
 30
77.00724792480469
 70
   192
  0
VERTEX
  5
EC
  8
0
 10
35.10921859741211
 20
78.07028198242188
 30
81.4439926147461
 70
   192
  0
VERTEX
  5
ED
  8
0
 10
37.87973022460938
 20
78.06995391845703
 30
85.88568878173828
 70
   192
  0
VERTEX
  5
EE
  8
0
 10
40.6512565612793
 20
78.07003021240234
 30
90.31980895996094
 70
   192
  0
VERTEX
  5
EF
  8
0
 10
43.42361450195312
 20
78.06793212890625
 30
94.76152801513672
 70
   192
  0
VERTEX
  5
F0
  8
0
 10
46.18357849121094
 20
78.06212615966797
 30
99.20613098144531
 70
   192
  0
VERTEX
  5
F1
  8
0
 10
48.94164276123047
 20
78.05569458007812
 30
103.6519241333008
 70
   192
  0
VERTEX
  5
F2
  8
0
 10
51.74425506591797
 20
78.05148315429688
 30
108.0921096801758
 70
   192
  0
VERTEX
  5
F3
  8
0
 10
53.74816513061523
 20
78.06532287597656
 30
112.910888671875
 70
   192
  0
VERTEX
  5
F4
  8
0
 10
53.59668350219727
 20
78.0581283569336
 30
118.0888977050781
 70
   192
  0
VERTEX
  5
F5
  8
0
 10
38.66883850097656
 20
76.57166290283203
 30
99.39266204833984
 70
   192
  0
VERTEX
  5
F6
  8
0
 10
28.9653377532959
 20
76.37821197509766
 30
96.35423278808594
 70
   192
  0
VERTEX
  5
F7
  8
0
 10
30.33399772644043
 20
76.5721664428711
 30
86.05414581298828
 70
   192
  0
VERTEX
  5
F8
  8
0
 10
25.29886817932129
 20
76.3783187866211
 30
90.48664855957031
 70
   192
  0
VERTEX
  5
F9
  8
0
 10
43.65323257446289
 20
76.50645446777344
 30
107.3638916015625
 70
   192
  0
VERTEX
  5
FA
  8
0
 10
46.16130065917969
 20
76.33343505859375
 30
111.499382019043
 70
   192
  0
VERTEX
  5
FB
  8
0
 10
39.9635009765625
 20
76.11318969726562
 30
113.9547729492188
 70
   192
  0
VERTEX
  5
FC
  8
0
 10
48.12676620483398
 20
76.3081283569336
 30
115.7849655151367
 70
   192
  0
VERTEX
  5
FD
  8
0
 10
43.62648391723633
 20
76.06523132324219
 30
119.8170166015625
 70
   192
  0
VERTEX
  5
FE
  8
0
 10
17.96658134460449
 20
76.37834930419922
 30
78.7525405883789
 70
   192
  0
VERTEX
  5
FF
  8
0
 10
21.63231468200684
 20
76.37834930419922
 30
84.61894226074219
 70
   192
  0
VERTEX
  5
100
  8
0
 10
19.1545295715332
 20
76.5501937866211
 30
68.93900299072266
 70
   192
  0
VERTEX
  5
101
  8
0
 10
14.29840850830078
 20
76.37834930419922
 30
72.88223266601562
 70
   192
  0
VERTEX
  5
102
  8
0
 10
22.99456596374512
 20
76.96708679199219
 30
63.90890884399414
 70
   192
  0
VERTEX
  5
103
  8
0
 10
36.29906845092773
 20
76.34782409667969
 30
108.0906524658203
 70
   192
  0
VERTEX
  5
104
  8
0
 10
32.63254547119141
 20
76.3770980834961
 30
102.2229919433594
 70
   192
  0
VERTEX
  5
105
  8
0
 10
-17.83247947692871
 20
81.46121978759766
 30
66.76023864746094
 70
   192
  0
VERTEX
  5
106
  8
0
 10
11.77505493164062
 20
81.46121978759766
 30
28.53799057006836
 70
   192
  0
VERTEX
  5
107
  8
0
 10
-22.54116630554199
 20
81.46121978759766
 30
59.55605697631836
 70
   192
  0
VERTEX
  5
108
  8
0
 10
-10.90926170349121
 20
81.46121978759766
 30
71.89152526855469
 70
   192
  0
VERTEX
  5
109
  8
0
 10
24.46009254455566
 20
81.46121978759766
 30
49.80459976196289
 70
   192
  0
VERTEX
  5
10A
  8
0
 10
22.88615226745605
 20
81.46121978759766
 30
41.34078216552734
 70
   192
  0
VERTEX
  5
10B
  8
0
 10
27.77603530883789
 20
81.46121978759766
 30
118.2830276489258
 70
   192
  0
VERTEX
  5
10C
  8
0
 10
31.1479549407959
 20
81.46121978759766
 30
123.4517288208008
 70
   192
  0
VERTEX
  5
10D
  8
0
 10
49.10358047485352
 20
81.46121978759766
 30
104.9389724731445
 70
   192
  0
VERTEX
  5
10E
  8
0
 10
-19.35297203063965
 20
81.46121978759766
 30
34.99596405029297
 70
   192
  0
VERTEX
  5
10F
  8
0
 10
-23.36737442016602
 20
81.46121978759766
 30
42.6180419921875
 70
   192
  0
VERTEX
  5
110
  8
0
 10
-24.4542064666748
 20
81.46121978759766
 30
51.16049575805664
 70
   192
  0
VERTEX
  5
111
  8
0
 10
-4.978413581848145
 20
81.46121978759766
 30
26.02473640441895
 70
   192
  0
VERTEX
  5
112
  8
0
 10
45.94414138793945
 20
81.46121978759766
 30
99.7994155883789
 70
   192
  0
VERTEX
  5
113
  8
0
 10
3.626315832138062
 20
81.46121978759766
 30
25.76114463806152
 70
   192
  0
VERTEX
  5
114
  8
0
 10
-12.98916912078857
 20
81.46121978759766
 30
29.21298408508301
 70
   192
  0
VERTEX
  5
115
  8
0
 10
18.48659133911133
 20
81.46121978759766
 30
33.94507598876953
 70
   192
  0
VERTEX
  5
116
  8
0
 10
-2.644854068756104
 20
81.46121978759766
 30
74.32742309570312
 70
   192
  0
VERTEX
  5
117
  8
0
 10
23.0247745513916
 20
81.46121978759766
 30
58.28726196289062
 70
   192
  0
VERTEX
  5
118
  8
0
 10
0.1162539571523666
 20
81.46121978759766
 30
75.33905792236328
 70
   192
  0
VERTEX
  5
119
  8
0
 10
23.61654853820801
 20
81.46121978759766
 30
63.9536018371582
 70
   192
  0
VERTEX
  5
11A
  8
0
 10
22.66654586791992
 20
81.46121978759766
 30
61.18641662597656
 70
   192
  0
VERTEX
  5
11B
  8
0
 10
2.188599824905396
 20
81.46121978759766
 30
77.34326934814453
 70
   192
  0
VERTEX
  5
11C
  8
0
 10
26.81034278869629
 20
81.46121978759766
 30
69.07186889648438
 70
   192
  0
VERTEX
  5
11D
  8
0
 10
5.388800621032715
 20
81.46121978759766
 30
82.45753479003906
 70
   192
  0
VERTEX
  5
11E
  8
0
 10
8.589001655578613
 20
81.46121978759766
 30
87.57179260253906
 70
   192
  0
VERTEX
  5
11F
  8
0
 10
36.3917236328125
 20
81.46121978759766
 30
84.42666625976562
 70
   192
  0
VERTEX
  5
120
  8
0
 10
33.19792938232422
 20
81.46121978759766
 30
79.30840301513672
 70
   192
  0
VERTEX
  5
121
  8
0
 10
14.98940372467041
 20
81.46121978759766
 30
97.80032348632812
 70
   192
  0
VERTEX
  5
122
  8
0
 10
30.00413513183594
 20
81.46121978759766
 30
74.19013214111328
 70
   192
  0
VERTEX
  5
123
  8
0
 10
11.78920269012451
 20
81.46121978759766
 30
92.6860580444336
 70
   192
  0
VERTEX
  5
124
  8
0
 10
42.77931213378906
 20
81.46121978759766
 30
94.66320037841797
 70
   192
  0
VERTEX
  5
125
  8
0
 10
24.62144088745117
 20
81.46121978759766
 30
113.1233062744141
 70
   192
  0
VERTEX
  5
126
  8
0
 10
18.18698501586914
 20
81.46121978759766
 30
102.9162368774414
 70
   192
  0
VERTEX
  5
127
  8
0
 10
21.38980674743652
 20
81.46121978759766
 30
108.0288467407227
 70
   192
  0
VERTEX
  5
128
  8
0
 10
39.58551788330078
 20
81.46121978759766
 30
89.54493713378906
 70
   192
  0
VERTEX
  5
129
  8
0
 10
51.63491821289062
 20
81.46121978759766
 30
121.5963287353516
 70
   192
  0
VERTEX
  5
12A
  8
0
 10
41.71613311767578
 20
81.46121978759766
 30
127.7951736450195
 70
   192
  0
VERTEX
  5
12B
  8
0
 10
47.47174835205078
 20
81.46121978759766
 30
125.9706802368164
 70
   192
  0
VERTEX
  5
12C
  8
0
 10
51.95360946655273
 20
81.46121978759766
 30
110.2133483886719
 70
   192
  0
VERTEX
  5
12D
  8
0
 10
53.40261077880859
 20
81.46121978759766
 30
115.8175582885742
 70
   192
  0
VERTEX
  5
12E
  8
0
 10
35.99676895141602
 20
81.46121978759766
 30
126.8998794555664
 70
   192
  0
VERTEX
  5
12F
  8
0
 10
49.91531753540039
 20
80.96174621582031
 30
105.071403503418
 70
   192
  0
VERTEX
  5
130
  8
0
 10
52.99258804321289
 20
80.9642105102539
 30
110.4807739257812
 70
   192
  0
VERTEX
  5
131
  8
0
 10
24.04078483581543
 20
80.96122741699219
 30
63.68898010253906
 70
   192
  0
VERTEX
  5
132
  8
0
 10
46.60449600219727
 20
80.96167755126953
 30
99.92634582519531
 70
   192
  0
VERTEX
  5
133
  8
0
 10
43.40911102294922
 20
80.96122741699219
 30
94.73223114013672
 70
   192
  0
VERTEX
  5
134
  8
0
 10
53.81177139282227
 20
80.96810150146484
 30
116.4317932128906
 70
   192
  0
VERTEX
  5
135
  8
0
 10
51.97546768188477
 20
80.9713134765625
 30
122.0034713745117
 70
   192
  0
VERTEX
  5
136
  8
0
 10
47.73663711547852
 20
80.97256469726562
 30
126.3945922851562
 70
   192
  0
VERTEX
  5
137
  8
0
 10
40.1849365234375
 20
80.96117401123047
 30
89.55594635009766
 70
   192
  0
VERTEX
  5
138
  8
0
 10
36.95447540283203
 20
80.9612045288086
 30
84.3835678100586
 70
   192
  0
VERTEX
  5
139
  8
0
 10
33.72589492797852
 20
80.96121215820312
 30
79.21001434326172
 70
   192
  0
VERTEX
  5
13A
  8
0
 10
30.49752616882324
 20
80.96121978759766
 30
74.03633880615234
 70
   192
  0
VERTEX
  5
13B
  8
0
 10
27.26915550231934
 20
80.96122741699219
 30
68.86266326904297
 70
   192
  0
VERTEX
  5
13C
  8
0
 10
22.92101860046387
 20
77.21598815917969
 30
62.44680786132812
 70
   192
  0
VERTEX
  5
13D
  8
0
 10
23.17209434509277
 20
78.13114929199219
 30
61.21037292480469
 70
   192
  0
VERTEX
  5
13E
  8
0
 10
23.08718681335449
 20
77.66294860839844
 30
60.63107681274414
 70
   192
  0
VERTEX
  5
13F
  8
0
 10
23.4940128326416
 20
78.30903625488281
 30
58.45913314819336
 70
   192
  0
VERTEX
  5
140
  8
0
 10
13.2338399887085
 20
48.77822113037109
 30
71.17857360839844
 70
   192
  0
VERTEX
  5
141
  8
0
 10
19.66731452941895
 20
48.77825164794922
 30
65.34357452392578
 70
   192
  0
VERTEX
  5
142
  8
0
 10
17.80979537963867
 20
74.55351257324219
 30
67.48863220214844
 70
   192
  0
VERTEX
  5
143
  8
0
 10
24.95987892150879
 20
80.96121215820312
 30
49.78099822998047
 70
   192
  0
VERTEX
  5
144
  8
0
 10
23.49453163146973
 20
80.96116638183594
 30
58.45851516723633
 70
   192
  0
VERTEX
  5
145
  8
0
 10
23.75615882873535
 20
48.77829742431641
 30
57.69113922119141
 70
   192
  0
VERTEX
  5
146
  8
0
 10
12.0074520111084
 20
80.96121978759766
 30
28.09510803222656
 70
   192
  0
VERTEX
  5
147
  8
0
 10
18.85231590270996
 20
80.96121978759766
 30
33.60295104980469
 70
   192
  0
VERTEX
  5
148
  8
0
 10
18.55783843994141
 20
48.77832794189453
 30
33.27541732788086
 70
   192
  0
VERTEX
  5
149
  8
0
 10
23.34661483764648
 20
80.96121978759766
 30
41.14289855957031
 70
   192
  0
VERTEX
  5
14A
  8
0
 10
24.94057464599609
 20
48.77832412719727
 30
49.11488342285156
 70
   192
  0
VERTEX
  5
14B
  8
0
 10
23.14932632446289
 20
48.77832794189453
 30
40.62596130371094
 70
   192
  0
VERTEX
  5
14C
  8
0
 10
-5.088873863220215
 20
80.96121978759766
 30
25.5372486114502
 70
   192
  0
VERTEX
  5
14D
  8
0
 10
3.697938203811646
 20
80.96121978759766
 30
25.26785087585449
 70
   192
  0
VERTEX
  5
14E
  8
0
 10
3.479924917221069
 20
48.77832794189453
 30
25.24049186706543
 70
   192
  0
VERTEX
  5
14F
  8
0
 10
11.71775531768799
 20
48.77832794189453
 30
27.93547630310059
 70
   192
  0
VERTEX
  5
150
  8
0
 10
-5.190472602844238
 20
48.77832794189453
 30
25.55571556091309
 70
   192
  0
VERTEX
  5
151
  8
0
 10
-13.25690650939941
 20
80.96121978759766
 30
28.78451538085938
 70
   192
  0
VERTEX
  5
152
  8
0
 10
-13.25690650939941
 20
48.77832794189453
 30
28.78451538085938
 70
   192
  0
VERTEX
  5
153
  8
0
 10
21.4257698059082
 20
74.97494506835938
 30
62.78896713256836
 70
   192
  0
VERTEX
  5
154
  8
0
 10
22.68155479431152
 20
76.15936279296875
 30
60.41597366333008
 70
   192
  0
VERTEX
  5
155
  8
0
 10
13.23856830596924
 20
74.37904357910156
 30
71.1861343383789
 70
   192
  0
VERTEX
  5
156
  8
0
 10
23.16386032104492
 20
80.96119689941406
 30
61.1346549987793
 70
   192
  0
VERTEX
  5
157
  8
0
 10
21.84983825683594
 20
76.35672760009766
 30
63.16757202148438
 70
   192
  0
VERTEX
  5
158
  8
0
 10
18.17446136474609
 20
75.9568099975586
 30
67.94161987304688
 70
   192
  0
VERTEX
  5
159
  8
0
 10
13.54911708831787
 20
75.79280853271484
 30
71.68312072753906
 70
   192
  0
VERTEX
  5
15A
  8
0
 10
22.64610862731934
 20
76.85517120361328
 30
60.96899032592773
 70
   192
  0
VERTEX
  5
15B
  8
0
 10
16.62892913818359
 20
77.3180923461914
 30
100.7892150878906
 70
   192
  0
VERTEX
  5
15C
  8
0
 10
19.54532623291016
 20
77.31822967529297
 30
105.4602203369141
 70
   192
  0
VERTEX
  5
15D
  8
0
 10
18.42009735107422
 20
78.06967163085938
 30
104.2113265991211
 70
   192
  0
VERTEX
  5
15E
  8
0
 10
42.85999298095703
 20
78.04293823242188
 30
128.2323913574219
 70
   192
  0
VERTEX
  5
15F
  8
0
 10
15.64883327484131
 20
78.06995391845703
 30
99.77799987792969
 70
   192
  0
VERTEX
  5
160
  8
0
 10
13.70829963684082
 20
77.31834411621094
 30
96.12025451660156
 70
   192
  0
VERTEX
  5
161
  8
0
 10
17.27314758300781
 20
76.96373748779297
 30
100.4598541259766
 70
   192
  0
VERTEX
  5
162
  8
0
 10
12.87083148956299
 20
78.07028198242188
 30
95.34027862548828
 70
   192
  0
VERTEX
  5
163
  8
0
 10
10.78497409820557
 20
77.31884765625
 30
91.45289611816406
 70
   192
  0
VERTEX
  5
164
  8
0
 10
14.34433269500732
 20
76.96394348144531
 30
95.77717590332031
 70
   192
  0
VERTEX
  5
165
  8
0
 10
7.860386848449707
 20
77.31948852539062
 30
86.78651428222656
 70
   192
  0
VERTEX
  5
166
  8
0
 10
10.09617137908936
 20
78.07062530517578
 30
90.91081237792969
 70
   192
  0
VERTEX
  5
167
  8
0
 10
11.40299224853516
 20
76.96443939208984
 30
91.08084869384766
 70
   192
  0
VERTEX
  5
168
  8
0
 10
7.317537784576416
 20
78.07097625732422
 30
86.4754409790039
 70
   192
  0
VERTEX
  5
169
  8
0
 10
4.935884475708008
 20
77.32012176513672
 30
82.1201400756836
 70
   192
  0
VERTEX
  5
16A
  8
0
 10
8.475851058959961
 20
76.96501159667969
 30
86.40892791748047
 70
   192
  0
VERTEX
  5
16B
  8
0
 10
5.616730213165283
 20
76.96559143066406
 30
81.84602355957031
 70
   192
  0
VERTEX
  5
16C
  8
0
 10
2.618191003799438
 20
76.96680450439453
 30
77.07383728027344
 70
   192
  0
VERTEX
  5
16D
  8
0
 10
2.011870861053467
 20
77.32170104980469
 30
77.45336151123047
 70
   192
  0
VERTEX
  5
16E
  8
0
 10
1.764529466629028
 20
78.07170867919922
 30
77.6082534790039
 70
   192
  0
VERTEX
  5
16F
  8
0
 10
4.541194438934326
 20
78.07134246826172
 30
82.04267120361328
 70
   192
  0
VERTEX
  5
170
  8
0
 10
22.45522308349609
 20
77.31889343261719
 30
110.1338500976562
 70
   192
  0
VERTEX
  5
171
  8
0
 10
20.20744132995605
 20
76.96392059326172
 30
105.159782409668
 70
   192
  0
VERTEX
  5
172
  8
0
 10
25.35456085205078
 20
77.31895446777344
 30
114.8131256103516
 70
   192
  0
VERTEX
  5
173
  8
0
 10
26.76742553710938
 20
78.05569458007812
 30
117.5079116821289
 70
   192
  0
VERTEX
  5
174
  8
0
 10
23.97952461242676
 20
78.06229400634766
 30
113.0794830322266
 70
   192
  0
VERTEX
  5
175
  8
0
 10
21.20005989074707
 20
78.06815338134766
 30
108.6587982177734
 70
   192
  0
VERTEX
  5
176
  8
0
 10
28.25258636474609
 20
77.3109130859375
 30
119.4992599487305
 70
   192
  0
VERTEX
  5
177
  8
0
 10
29.57647895812988
 20
78.05046844482422
 30
121.9192504882812
 70
   192
  0
VERTEX
  5
178
  8
0
 10
32.94770050048828
 20
78.06249237060547
 30
125.8387451171875
 70
   192
  0
VERTEX
  5
179
  8
0
 10
31.47820281982422
 20
77.29938507080078
 30
124.1144256591797
 70
   192
  0
VERTEX
  5
17A
  8
0
 10
36.29766082763672
 20
77.31288146972656
 30
127.3648834228516
 70
   192
  0
VERTEX
  5
17B
  8
0
 10
37.64174270629883
 20
78.0618896484375
 30
128.0440368652344
 70
   192
  0
VERTEX
  5
17C
  8
0
 10
42.07293701171875
 20
77.28736114501953
 30
128.0605926513672
 70
   192
  0
VERTEX
  5
17D
  8
0
 10
42.04673004150391
 20
76.89720153808594
 30
127.3781280517578
 70
   192
  0
VERTEX
  5
17E
  8
0
 10
23.12484550476074
 20
76.96436309814453
 30
109.8440704345703
 70
   192
  0
VERTEX
  5
17F
  8
0
 10
26.00276184082031
 20
76.9627914428711
 30
114.4879455566406
 70
   192
  0
VERTEX
  5
180
  8
0
 10
28.88340950012207
 20
76.94867706298828
 30
119.1952285766602
 70
   192
  0
VERTEX
  5
181
  8
0
 10
32.04437637329102
 20
76.92727661132812
 30
123.7242050170898
 70
   192
  0
VERTEX
  5
182
  8
0
 10
36.6005859375
 20
76.92945861816406
 30
126.7095184326172
 70
   192
  0
VERTEX
  5
183
  8
0
 10
38.03794479370117
 20
76.30725860595703
 30
122.0896835327148
 70
   192
  0
VERTEX
  5
184
  8
0
 10
8.625465393066406
 20
76.5501937866211
 30
75.5182876586914
 70
   192
  0
VERTEX
  5
185
  8
0
 10
19.11644744873047
 20
76.57160186767578
 30
93.06362915039062
 70
   192
  0
VERTEX
  5
186
  8
0
 10
32.43075942993164
 20
76.50580596923828
 30
114.37646484375
 70
   192
  0
VERTEX
  5
187
  8
0
 10
2.42174220085144
 20
76.96704864501953
 30
76.76466369628906
 70
   192
  0
VERTEX
  5
188
  8
0
 10
27.45127105712891
 20
76.57109832763672
 30
106.4021530151367
 70
   192
  0
VERTEX
  5
189
  8
0
 10
35.04824066162109
 20
76.33256530761719
 30
118.443733215332
 70
   192
  0
VERTEX
  5
18A
  8
0
 10
27.71110916137695
 20
80.96212768554688
 30
118.9230575561523
 70
   192
  0
VERTEX
  5
18B
  8
0
 10
17.939208984375
 20
80.9612045288086
 30
103.4566116333008
 70
   192
  0
VERTEX
  5
18C
  8
0
 10
21.17576026916504
 20
80.96122741699219
 30
108.6251678466797
 70
   192
  0
VERTEX
  5
18D
  8
0
 10
14.70417785644531
 20
80.96121215820312
 30
98.28709411621094
 70
   192
  0
VERTEX
  5
18E
  8
0
 10
11.46933078765869
 20
80.96121215820312
 30
93.11746215820312
 70
   192
  0
VERTEX
  5
18F
  8
0
 10
4.999636173248291
 20
80.96122741699219
 30
82.7781982421875
 70
   192
  0
VERTEX
  5
190
  8
0
 10
8.23448371887207
 20
80.96121978759766
 30
87.94783020019531
 70
   192
  0
VERTEX
  5
191
  8
0
 10
1.764788627624512
 20
80.96122741699219
 30
77.60856628417969
 70
   192
  0
VERTEX
  5
192
  8
0
 10
24.44083023071289
 20
80.96163940429688
 30
113.7757568359375
 70
   192
  0
VERTEX
  5
193
  8
0
 10
31.29746055603027
 20
80.9638442993164
 30
123.7943725585938
 70
   192
  0
VERTEX
  5
194
  8
0
 10
35.870361328125
 20
80.96768188476562
 30
127.4506301879883
 70
   192
  0
VERTEX
  5
195
  8
0
 10
41.93106079101562
 20
80.97132110595703
 30
128.2793121337891
 70
   192
  0
VERTEX
  5
196
  8
0
 10
-0.0821597799658775
 20
78.13114929199219
 30
75.74124908447266
 70
   192
  0
VERTEX
  5
197
  8
0
 10
-0.5656064748764038
 20
77.66294860839844
 30
75.4109878540039
 70
   192
  0
VERTEX
  5
198
  8
0
 10
1.139203786849976
 20
77.21598815917969
 30
76.0575942993164
 70
   192
  0
VERTEX
  5
199
  8
0
 10
-2.693342208862305
 20
78.30796813964844
 30
74.8248062133789
 70
   192
  0
VERTEX
  5
19A
  8
0
 10
2.102209329605103
 20
74.97493743896484
 30
74.8636703491211
 70
   192
  0
VERTEX
  5
19B
  8
0
 10
-3.469883441925049
 20
48.77829742431641
 30
74.72332763671875
 70
   192
  0
VERTEX
  5
19C
  8
0
 10
5.187793731689453
 20
48.77825164794922
 30
74.40032958984375
 70
   192
  0
VERTEX
  5
19D
  8
0
 10
-18.20525741577148
 20
80.96121978759766
 30
67.09439849853516
 70
   192
  0
VERTEX
  5
19E
  8
0
 10
-18.56743621826172
 20
48.77832794189453
 30
66.70182037353516
 70
   192
  0
VERTEX
  5
19F
  8
0
 10
-11.70928382873535
 20
48.77832412719727
 30
72.04159545898438
 70
   192
  0
VERTEX
  5
1A0
  8
0
 10
7.911377429962158
 20
74.55351257324219
 30
73.6738510131836
 70
   192
  0
VERTEX
  5
1A1
  8
0
 10
-0.5410407185554504
 20
76.24137878417969
 30
74.93575286865234
 70
   192
  0
VERTEX
  5
1A2
  8
0
 10
-23.00230598449707
 20
80.96121978759766
 30
59.75274276733398
 70
   192
  0
VERTEX
  5
1A3
  8
0
 10
-23.1633358001709
 20
48.77832794189453
 30
59.35954666137695
 70
   192
  0
VERTEX
  5
1A4
  8
0
 10
-11.14805507659912
 20
80.96121215820312
 30
72.33131408691406
 70
   192
  0
VERTEX
  5
1A5
  8
0
 10
-24.95272254943848
 20
80.96121978759766
 30
51.18093490600586
 70
   192
  0
VERTEX
  5
1A6
  8
0
 10
-23.8419246673584
 20
80.96121978759766
 30
42.46438217163086
 70
   192
  0
VERTEX
  5
1A7
  8
0
 10
-24.96400451660156
 20
48.77832794189453
 30
50.88381576538086
 70
   192
  0
VERTEX
  5
1A8
  8
0
 10
-2.696861028671265
 20
80.96116638183594
 30
74.82471466064453
 70
   192
  0
VERTEX
  5
1A9
  8
0
 10
-19.70001983642578
 20
48.77832794189453
 30
34.62861633300781
 70
   192
  0
VERTEX
  5
1AA
  8
0
 10
-23.7906322479248
 20
48.77832794189453
 30
42.29645538330078
 70
   192
  0
VERTEX
  5
1AB
  8
0
 10
-19.74881172180176
 20
80.96121978759766
 30
34.69193649291992
 70
   192
  0
VERTEX
  5
1AC
  8
0
 10
-0.1466048061847687
 20
80.96119689941406
 30
75.70065307617188
 70
   192
  0
VERTEX
  5
1AD
  8
0
 10
8.158662796020508
 20
75.9568099975586
 30
74.20018768310547
 70
   192
  0
VERTEX
  5
1AE
  8
0
 10
2.256595373153687
 20
76.35672760009766
 30
75.4107894897461
 70
   192
  0
VERTEX
  5
1AF
  8
0
 10
-0.0685393065214157
 20
76.85517120361328
 30
75.16267395019531
 70
   192
  0
VERTEX
  5
1B0
  8
0
 62
     9
 10
0.0
 20
0.0
 30
0.0
 70
   128
 71
     3
 72
     2
 73
     1
  0
VERTEX
  5
1B1
  8
0
 62
     9
 10
0.0
 20
0.0
 30
0.0
 70
   128
 71
     6
 72
     5
 73
     4
  0
VERTEX
  5
1B2
  8
0
 62
     9
 10
0.0
 20
0.0
 30
0.0
 70
   128
 71
     5
 72
     8
 73
     7
  0
VERTEX
  5
1B3
  8
0
 62
     9
 10
0.0
 20
0.0
 30
0.0
 70
   128
 71
     9
 72
     4
 73
     5
  0
VERTEX
  5
1B4
  8
0
 62
     9
 10
0.0
 20
0.0
 30
0.0
 70
   128
 71
     7
 72
    10
 73
     9
  0
VERTEX
  5
1B5
  8
0
 62
     9
 10
0.0
 20
0.0
 30
0.0
 70
   128
 71
     9
 72
     5
 73
     7
  0
VERTEX
  5
1B6
  8
0
 62
     9
 10
0.0
 20
0.0
 30
0.0
 70
   128
 71
    12
 72
    11
 73
     7
  0
VERTEX
  5
1B7
  8
0
 62
     9
 10
0.0
 20
0.0
 30
0.0
 70
   128
 71
    10
 72
     7
 73
    11
  0
VERTEX
  5
1B8
  8
0
 62
     9
 10
0.0
 20
0.0
 30
0.0
 70
   128
 71
     3
 72
    14
 73
    13
  0
VERTEX
  5
1B9
  8
0
 62
     9
 10
0.0
 20
0.0
 30
0.0
 70
   128
 71
     2
 72
     3
 73
    15
  0
VERTEX
  5
1BA
  8
0
 62
     9
 10
0.0
 20
0.0
 30
0.0
 70
   128
 71
    17
 72
    14
 73
    16
  0
VERTEX
  5
1BB
  8
0
 62
     9
 10
0.0
 20
0.0
 30
0.0
 70
   128
 71
    18
 72
    14
 73
    17
  0
VERTEX
  5
1BC
  8
0
 62
     9
 10
0.0
 20
0.0
 30
0.0
 70
   128
 71
    14
 72
     3
 73
    16
  0
VERTEX
  5
1BD
  8
0
 62
     9
 10
0.0
 20
0.0
 30
0.0
 70
   128
 71
     2
 72
    15
 73
    11
  0
VERTEX
  5
1BE
  8
0
 62
     9
 10
0.0
 20
0.0
 30
0.0
 70
   128
 71
     3
 72
     1
 73
    16
  0
VERTEX
  5
1BF
  8
0
 62
     9
 10
0.0
 20
0.0
 30
0.0
 70
   128
 71
    12
 72
     2
 73
    11
  0
VERTEX
  5
1C0
  8
0
 62
     9
 10
0.0
 20
0.0
 30
0.0
 70
   128
 71
    21
 72
    20
 73
    19
  0
VERTEX
  5
1C1
  8
0
 62
     9
 10
0.0
 20
0.0
 30
0.0
 70
   128
 71
    24
 72
    23
 73
    22
  0
VERTEX
  5
1C2
  8
0
 62
     9
 10
0.0
 20
0.0
 30
0.0
 70
   128
 71
    23
 72
    24
 73
    25
  0
VERTEX
  5
1C3
  8
0
 62
     9
 10
0.0
 20
0.0
 30
0.0
 70
   128
 71
    27
 72
    26
 73
    22
  0
VERTEX
  5
1C4
  8
0
 62
     9
 10
0.0
 20
0.0
 30
0.0
 70
   128
 71
    22
 72
    23
 73
    27
  0
VERTEX
  5
1C5
  8
0
 62
     9
 10
0.0
 20
0.0
 30
0.0
 70
   128
 71
    30
 72
    29
 73
    28
  0
VERTEX
  5
1C6
  8
0
 62
     9
 10
0.0
 20
0.0
 30
0.0
 70
   128
 71
    27
 72
    29
 73
    26
  0
VERTEX
  5
1C7
  8
0
 62
     9
 10
0.0
 20
0.0
 30
0.0
 70
   128
 71
    33
 72
    32
 73
    31
  0
VERTEX
  5
1C8
  8
0
 62
     9
 10
0.0
 20
0.0
 30
0.0
 70
   128
 71
    35
 72
    31
 73
    34
  0
VERTEX
  5
1C9
  8
0
 62
     9
 10
0.0
 20
0.0
 30
0.0
 70
   128
 71
    36
 72
    28
 73
    32
  0
VERTEX
  5
1CA
  8
0
 62
     9
 10
0.0
 20
0.0
 30
0.0
 70
   128
 71
    36
 72
    30
 73
    28
  0
VERTEX
  5
1CB
  8
0
 62
     9
 10
0.0
 20
0.0
 30
0.0
 70
   128
 71
    32
 72
    33
 73
    36
  0
VERTEX
  5
1CC
  8
0
 62
     9
 10
0.0
 20
0.0
 30
0.0
 70
   128
 71
    31
 72
    35
 73
    33
  0
VERTEX
  5
1CD
  8
0
 62
     9
 10
0.0
 20
0.0
 30
0.0
 70
   128
 71
    35
 72
    38
 73
    37
  0
VERTEX
  5
1CE
  8
0
 62
     9
 10
0.0
 20
0.0
 30
0.0
 70
   128
 71
    24
 72
    39
 73
    25
  0
VERTEX
  5
1CF
  8
0
 62
     9
 10
0.0
 20
0.0
 30
0.0
 70
   128
 71
    30
 72
    26
 73
    29
  0
VERTEX
  5
1D0
  8
0
 62
     9
 10
0.0
 20
0.0
 30
0.0
 70
   128
 71
    25
 72
    39
 73
    40
  0
VERTEX
  5
1D1
  8
0
 62
     9
 10
0.0
 20
0.0
 30
0.0
 70
   128
 71
    42
 72
    40
 73
    41
  0
VERTEX
  5
1D2
  8
0
 62
     9
 10
0.0
 20
0.0
 30
0.0
 70
   128
 71
    39
 72
    41
 73
    40
  0
VERTEX
  5
1D3
  8
0
 62
     9
 10
0.0
 20
0.0
 30
0.0
 70
   128
 71
    42
 72
    44
 73
    43
  0
VERTEX
  5
1D4
  8
0
 62
     9
 10
0.0
 20
0.0
 30
0.0
 70
   128
 71
    44
 72
    42
 73
    41
  0
VERTEX
  5
1D5
  8
0
 62
     9
 10
0.0
 20
0.0
 30
0.0
 70
   128
 71
    46
 72
    45
 73
    43
  0
VERTEX
  5
1D6
  8
0
 62
     9
 10
0.0
 20
0.0
 30
0.0
 70
   128
 71
    43
 72
    44
 73
    46
  0
VERTEX
  5
1D7
  8
0
 62
     9
 10
0.0
 20
0.0
 30
0.0
 70
   128
 71
    48
 72
    45
 73
    47
  0
VERTEX
  5
1D8
  8
0
 62
     9
 10
0.0
 20
0.0
 30
0.0
 70
   128
 71
    46
 72
    47
 73
    45
  0
VERTEX
  5
1D9
  8
0
 62
     9
 10
0.0
 20
0.0
 30
0.0
 70
   128
 71
    48
 72
    21
 73
    49
  0
VERTEX
  5
1DA
  8
0
 62
     9
 10
0.0
 20
0.0
 30
0.0
 70
   128
 71
    21
 72
    48
 73
    47
  0
VERTEX
  5
1DB
  8
0
 62
     9
 10
0.0
 20
0.0
 30
0.0
 70
   128
 71
    49
 72
    21
 73
    19
  0
VERTEX
  5
1DC
  8
0
 62
     9
 10
0.0
 20
0.0
 30
0.0
 70
   128
 71
    19
 72
    20
 73
    50
  0
VERTEX
  5
1DD
  8
0
 62
     9
 10
0.0
 20
0.0
 30
0.0
 70
   128
 71
    21
 72
    51
 73
    20
  0
VERTEX
  5
1DE
  8
0
 62
     9
 10
0.0
 20
0.0
 30
0.0
 70
   128
 71
    47
 72
    51
 73
    21
  0
VERTEX
  5
1DF
  8
0
 62
     9
 10
0.0
 20
0.0
 30
0.0
 70
   128
 71
    47
 72
    52
 73
    51
  0
VERTEX
  5
1E0
  8
0
 62
     9
 10
0.0
 20
0.0
 30
0.0
 70
   128
 71
    46
 72
    52
 73
    47
  0
VERTEX
  5
1E1
  8
0
 62
     9
 10
0.0
 20
0.0
 30
0.0
 70
   128
 71
    46
 72
    53
 73
    52
  0
VERTEX
  5
1E2
  8
0
 62
     9
 10
0.0
 20
0.0
 30
0.0
 70
   128
 71
    44
 72
    53
 73
    46
  0
VERTEX
  5
1E3
  8
0
 62
     9
 10
0.0
 20
0.0
 30
0.0
 70
   128
 71
    44
 72
    54
 73
    53
  0
VERTEX
  5
1E4
  8
0
 62
     9
 10
0.0
 20
0.0
 30
0.0
 70
   128
 71
    41
 72
    54
 73
    44
  0
VERTEX
  5
1E5
  8
0
 62
     9
 10
0.0
 20
0.0
 30
0.0
 70
   128
 71
    41
 72
    55
 73
    54
  0
VERTEX
  5
1E6
  8
0
 62
     9
 10
0.0
 20
0.0
 30
0.0
 70
   128
 71
    39
 72
    55
 73
    41
  0
VERTEX
  5
1E7
  8
0
 62
     9
 10
0.0
 20
0.0
 30
0.0
 70
   128
 71
    39
 72
    56
 73
    55
  0
VERTEX
  5
1E8
  8
0
 62
     9
 10
0.0
 20
0.0
 30
0.0
 70
   128
 71
    24
 72
    56
 73
    39
  0
VERTEX
  5
1E9
  8
0
 62
     9
 10
0.0
 20
0.0
 30
0.0
 70
   128
 71
    24
 72
    57
 73
    56
  0
VERTEX
  5
1EA
  8
0
 62
     9
 10
0.0
 20
0.0
 30
0.0
 70
   128
 71
    22
 72
    58
 73
    57
  0
VERTEX
  5
1EB
  8
0
 62
     9
 10
0.0
 20
0.0
 30
0.0
 70
   128
 71
    24
 72
    22
 73
    57
  0
VERTEX
  5
1EC
  8
0
 62
     9
 10
0.0
 20
0.0
 30
0.0
 70
   128
 71
    26
 72
    59
 73
    58
  0
VERTEX
  5
1ED
  8
0
 62
     9
 10
0.0
 20
0.0
 30
0.0
 70
   128
 71
    22
 72
    26
 73
    58
  0
VERTEX
  5
1EE
  8
0
 62
     9
 10
0.0
 20
0.0
 30
0.0
 70
   128
 71
    30
 72
    60
 73
    59
  0
VERTEX
  5
1EF
  8
0
 62
     9
 10
0.0
 20
0.0
 30
0.0
 70
   128
 71
    26
 72
    30
 73
    59
  0
VERTEX
  5
1F0
  8
0
 62
     9
 10
0.0
 20
0.0
 30
0.0
 70
   128
 71
    36
 72
    61
 73
    60
  0
VERTEX
  5
1F1
  8
0
 62
     9
 10
0.0
 20
0.0
 30
0.0
 70
   128
 71
    30
 72
    36
 73
    60
  0
VERTEX
  5
1F2
  8
0
 62
     9
 10
0.0
 20
0.0
 30
0.0
 70
   128
 71
    33
 72
    37
 73
    61
  0
VERTEX
  5
1F3
  8
0
 62
     9
 10
0.0
 20
0.0
 30
0.0
 70
   128
 71
    36
 72
    33
 73
    61
  0
VERTEX
  5
1F4
  8
0
 62
     9
 10
0.0
 20
0.0
 30
0.0
 70
   128
 71
    37
 72
    33
 73
    35
  0
VERTEX
  5
1F5
  8
0
 62
     9
 10
0.0
 20
0.0
 30
0.0
 70
   128
 71
    64
 72
    63
 73
    62
  0
VERTEX
  5
1F6
  8
0
 62
     9
 10
0.0
 20
0.0
 30
0.0
 70
   128
 71
    23
 72
    25
 73
    62
  0
VERTEX
  5
1F7
  8
0
 62
     9
 10
0.0
 20
0.0
 30
0.0
 70
   128
 71
    64
 72
    65
 73
    63
  0
VERTEX
  5
1F8
  8
0
 62
     9
 10
0.0
 20
0.0
 30
0.0
 70
   128
 71
    27
 72
    62
 73
    66
  0
VERTEX
  5
1F9
  8
0
 62
     9
 10
0.0
 20
0.0
 30
0.0
 70
   128
 71
    27
 72
    23
 73
    62
  0
VERTEX
  5
1FA
  8
0
 62
     9
 10
0.0
 20
0.0
 30
0.0
 70
   128
 71
    68
 72
    67
 73
    66
  0
VERTEX
  5
1FB
  8
0
 62
     9
 10
0.0
 20
0.0
 30
0.0
 70
   128
 71
    67
 72
    29
 73
    66
  0
VERTEX
  5
1FC
  8
0
 62
     9
 10
0.0
 20
0.0
 30
0.0
 70
   128
 71
    68
 72
    70
 73
    69
  0
VERTEX
  5
1FD
  8
0
 62
     9
 10
0.0
 20
0.0
 30
0.0
 70
   128
 71
    68
 72
    69
 73
    67
  0
VERTEX
  5
1FE
  8
0
 62
     9
 10
0.0
 20
0.0
 30
0.0
 70
   128
 71
    69
 72
    31
 73
    32
  0
VERTEX
  5
1FF
  8
0
 62
     9
 10
0.0
 20
0.0
 30
0.0
 70
   128
 71
    34
 72
    31
 73
    70
  0
VERTEX
  5
200
  8
0
 62
     9
 10
0.0
 20
0.0
 30
0.0
 70
   128
 71
    28
 72
    67
 73
    69
  0
VERTEX
  5
201
  8
0
 62
     9
 10
0.0
 20
0.0
 30
0.0
 70
   128
 71
    64
 72
    62
 73
    25
  0
VERTEX
  5
202
  8
0
 62
     9
 10
0.0
 20
0.0
 30
0.0
 70
   128
 71
    72
 72
    64
 73
    71
  0
VERTEX
  5
203
  8
0
 62
     9
 10
0.0
 20
0.0
 30
0.0
 70
   128
 71
    64
 72
    40
 73
    42
  0
VERTEX
  5
204
  8
0
 62
     9
 10
0.0
 20
0.0
 30
0.0
 70
   128
 71
    64
 72
    25
 73
    40
  0
VERTEX
  5
205
  8
0
 62
     9
 10
0.0
 20
0.0
 30
0.0
 70
   128
 71
    64
 72
    42
 73
    43
  0
VERTEX
  5
206
  8
0
 62
     9
 10
0.0
 20
0.0
 30
0.0
 70
   128
 71
    71
 72
    64
 73
    73
  0
VERTEX
  5
207
  8
0
 62
     9
 10
0.0
 20
0.0
 30
0.0
 70
   128
 71
    45
 72
    73
 73
    43
  0
VERTEX
  5
208
  8
0
 62
     9
 10
0.0
 20
0.0
 30
0.0
 70
   128
 71
    73
 72
    74
 73
    71
  0
VERTEX
  5
209
  8
0
 62
     9
 10
0.0
 20
0.0
 30
0.0
 70
   128
 71
    45
 72
    48
 73
    73
  0
VERTEX
  5
20A
  8
0
 62
     9
 10
0.0
 20
0.0
 30
0.0
 70
   128
 71
    49
 72
    75
 73
    73
  0
VERTEX
  5
20B
  8
0
 62
     9
 10
0.0
 20
0.0
 30
0.0
 70
   128
 71
    73
 72
    48
 73
    49
  0
VERTEX
  5
20C
  8
0
 62
     9
 10
0.0
 20
0.0
 30
0.0
 70
   128
 71
    28
 72
    69
 73
    32
  0
VERTEX
  5
20D
  8
0
 62
     9
 10
0.0
 20
0.0
 30
0.0
 70
   128
 71
    69
 72
    70
 73
    31
  0
VERTEX
  5
20E
  8
0
 62
     9
 10
0.0
 20
0.0
 30
0.0
 70
   128
 71
    76
 72
    68
 73
    66
  0
VERTEX
  5
20F
  8
0
 62
     9
 10
0.0
 20
0.0
 30
0.0
 70
   128
 71
    29
 72
    67
 73
    28
  0
VERTEX
  5
210
  8
0
 62
     9
 10
0.0
 20
0.0
 30
0.0
 70
   128
 71
    77
 72
    76
 73
    62
  0
VERTEX
  5
211
  8
0
 62
     9
 10
0.0
 20
0.0
 30
0.0
 70
   128
 71
    66
 72
    29
 73
    27
  0
VERTEX
  5
212
  8
0
 62
     9
 10
0.0
 20
0.0
 30
0.0
 70
   128
 71
    66
 72
    62
 73
    76
  0
VERTEX
  5
213
  8
0
 62
     9
 10
0.0
 20
0.0
 30
0.0
 70
   128
 71
    77
 72
    62
 73
    63
  0
VERTEX
  5
214
  8
0
 62
     9
 10
0.0
 20
0.0
 30
0.0
 70
   128
 71
    65
 72
    64
 73
    72
  0
VERTEX
  5
215
  8
0
 62
     9
 10
0.0
 20
0.0
 30
0.0
 70
   128
 71
    43
 72
    73
 73
    64
  0
VERTEX
  5
216
  8
0
 62
     9
 10
0.0
 20
0.0
 30
0.0
 70
   128
 71
    80
 72
    79
 73
    78
  0
VERTEX
  5
217
  8
0
 62
     9
 10
0.0
 20
0.0
 30
0.0
 70
   128
 71
    83
 72
    82
 73
    81
  0
VERTEX
  5
218
  8
0
 62
     9
 10
0.0
 20
0.0
 30
0.0
 70
   128
 71
    86
 72
    85
 73
    84
  0
VERTEX
  5
219
  8
0
 62
     9
 10
0.0
 20
0.0
 30
0.0
 70
   128
 71
    89
 72
    88
 73
    87
  0
VERTEX
  5
21A
  8
0
 62
     9
 10
0.0
 20
0.0
 30
0.0
 70
   128
 71
    90
 72
    89
 73
    87
  0
VERTEX
  5
21B
  8
0
 62
     9
 10
0.0
 20
0.0
 30
0.0
 70
   128
 71
    86
 72
    84
 73
    91
  0
VERTEX
  5
21C
  8
0
 62
     9
 10
0.0
 20
0.0
 30
0.0
 70
   128
 71
    79
 72
    90
 73
    92
  0
VERTEX
  5
21D
  8
0
 62
     9
 10
0.0
 20
0.0
 30
0.0
 70
   128
 71
    89
 72
    90
 73
    79
  0
VERTEX
  5
21E
  8
0
 62
     9
 10
0.0
 20
0.0
 30
0.0
 70
   128
 71
    93
 72
    90
 73
    87
  0
VERTEX
  5
21F
  8
0
 62
     9
 10
0.0
 20
0.0
 30
0.0
 70
   128
 71
    79
 72
    80
 73
    89
  0
VERTEX
  5
220
  8
0
 62
     9
 10
0.0
 20
0.0
 30
0.0
 70
   128
 71
    79
 72
    94
 73
    78
  0
VERTEX
  5
221
  8
0
 62
     9
 10
0.0
 20
0.0
 30
0.0
 70
   128
 71
    94
 72
    83
 73
    81
  0
VERTEX
  5
222
  8
0
 62
     9
 10
0.0
 20
0.0
 30
0.0
 70
   128
 71
    81
 72
    78
 73
    94
  0
VERTEX
  5
223
  8
0
 62
     9
 10
0.0
 20
0.0
 30
0.0
 70
   128
 71
    81
 72
    82
 73
    95
  0
VERTEX
  5
224
  8
0
 62
     9
 10
0.0
 20
0.0
 30
0.0
 70
   128
 71
    82
 72
    96
 73
    95
  0
VERTEX
  5
225
  8
0
 62
     9
 10
0.0
 20
0.0
 30
0.0
 70
   128
 71
    96
 72
    97
 73
    95
  0
VERTEX
  5
226
  8
0
 62
     9
 10
0.0
 20
0.0
 30
0.0
 70
   128
 71
   100
 72
    99
 73
    98
  0
VERTEX
  5
227
  8
0
 62
     9
 10
0.0
 20
0.0
 30
0.0
 70
   128
 71
   103
 72
   102
 73
   101
  0
VERTEX
  5
228
  8
0
 62
     9
 10
0.0
 20
0.0
 30
0.0
 70
   128
 71
   106
 72
   105
 73
   104
  0
VERTEX
  5
229
  8
0
 62
     9
 10
0.0
 20
0.0
 30
0.0
 70
   128
 71
   105
 72
   108
 73
   107
  0
VERTEX
  5
22A
  8
0
 62
     9
 10
0.0
 20
0.0
 30
0.0
 70
   128
 71
    91
 72
   110
 73
   109
  0
VERTEX
  5
22B
  8
0
 62
     9
 10
0.0
 20
0.0
 30
0.0
 70
   128
 71
   113
 72
   112
 73
   111
  0
VERTEX
  5
22C
  8
0
 62
     9
 10
0.0
 20
0.0
 30
0.0
 70
   128
 71
   116
 72
   115
 73
   114
  0
VERTEX
  5
22D
  8
0
 62
     9
 10
0.0
 20
0.0
 30
0.0
 70
   128
 71
   118
 72
    85
 73
   117
  0
VERTEX
  5
22E
  8
0
 62
     9
 10
0.0
 20
0.0
 30
0.0
 70
   128
 71
   114
 72
   115
 73
    85
  0
VERTEX
  5
22F
  8
0
 62
     9
 10
0.0
 20
0.0
 30
0.0
 70
   128
 71
   119
 72
    85
 73
   115
  0
VERTEX
  5
230
  8
0
 62
     9
 10
0.0
 20
0.0
 30
0.0
 70
   128
 71
    86
 72
   117
 73
    85
  0
VERTEX
  5
231
  8
0
 62
     9
 10
0.0
 20
0.0
 30
0.0
 70
   128
 71
   114
 72
    85
 73
   118
  0
VERTEX
  5
232
  8
0
 62
     9
 10
0.0
 20
0.0
 30
0.0
 70
   128
 71
    91
 72
    84
 73
   110
  0
VERTEX
  5
233
  8
0
 62
     9
 10
0.0
 20
0.0
 30
0.0
 70
   128
 71
   112
 72
   113
 73
   109
  0
VERTEX
  5
234
  8
0
 62
     9
 10
0.0
 20
0.0
 30
0.0
 70
   128
 71
   109
 72
   110
 73
   112
  0
VERTEX
  5
235
  8
0
 62
     9
 10
0.0
 20
0.0
 30
0.0
 70
   128
 71
   113
 72
   111
 73
   104
  0
VERTEX
  5
236
  8
0
 62
     9
 10
0.0
 20
0.0
 30
0.0
 70
   128
 71
   106
 72
   108
 73
   105
  0
VERTEX
  5
237
  8
0
 62
     9
 10
0.0
 20
0.0
 30
0.0
 70
   128
 71
   111
 72
   106
 73
   104
  0
VERTEX
  5
238
  8
0
 62
     9
 10
0.0
 20
0.0
 30
0.0
 70
   128
 71
   108
 72
   103
 73
   107
  0
VERTEX
  5
239
  8
0
 62
     9
 10
0.0
 20
0.0
 30
0.0
 70
   128
 71
   102
 72
    98
 73
   101
  0
VERTEX
  5
23A
  8
0
 62
     9
 10
0.0
 20
0.0
 30
0.0
 70
   128
 71
   103
 72
   101
 73
   107
  0
VERTEX
  5
23B
  8
0
 62
     9
 10
0.0
 20
0.0
 30
0.0
 70
   128
 71
    98
 72
   102
 73
   100
  0
VERTEX
  5
23C
  8
0
 62
     9
 10
0.0
 20
0.0
 30
0.0
 70
   128
 71
    97
 72
    99
 73
   100
  0
VERTEX
  5
23D
  8
0
 62
     9
 10
0.0
 20
0.0
 30
0.0
 70
   128
 71
    99
 72
    97
 73
    96
  0
VERTEX
  5
23E
  8
0
 62
     9
 10
0.0
 20
0.0
 30
0.0
 70
   128
 71
    59
 72
   121
 73
   120
  0
VERTEX
  5
23F
  8
0
 62
     9
 10
0.0
 20
0.0
 30
0.0
 70
   128
 71
    20
 72
   122
 73
    50
  0
VERTEX
  5
240
  8
0
 62
     9
 10
0.0
 20
0.0
 30
0.0
 70
   128
 71
   120
 72
   123
 73
    58
  0
VERTEX
  5
241
  8
0
 62
     9
 10
0.0
 20
0.0
 30
0.0
 70
   128
 71
    58
 72
    59
 73
   120
  0
VERTEX
  5
242
  8
0
 62
     9
 10
0.0
 20
0.0
 30
0.0
 70
   128
 71
   124
 72
    57
 73
   123
  0
VERTEX
  5
243
  8
0
 62
     9
 10
0.0
 20
0.0
 30
0.0
 70
   128
 71
    58
 72
   123
 73
    57
  0
VERTEX
  5
244
  8
0
 62
     9
 10
0.0
 20
0.0
 30
0.0
 70
   128
 71
   125
 72
   121
 73
    60
  0
VERTEX
  5
245
  8
0
 62
     9
 10
0.0
 20
0.0
 30
0.0
 70
   128
 71
    59
 72
    60
 73
   121
  0
VERTEX
  5
246
  8
0
 62
     9
 10
0.0
 20
0.0
 30
0.0
 70
   128
 71
   125
 72
    61
 73
   126
  0
VERTEX
  5
247
  8
0
 62
     9
 10
0.0
 20
0.0
 30
0.0
 70
   128
 71
    61
 72
   125
 73
    60
  0
VERTEX
  5
248
  8
0
 62
     9
 10
0.0
 20
0.0
 30
0.0
 70
   128
 71
    37
 72
   127
 73
   126
  0
VERTEX
  5
249
  8
0
 62
     9
 10
0.0
 20
0.0
 30
0.0
 70
   128
 71
   126
 72
    61
 73
    37
  0
VERTEX
  5
24A
  8
0
 62
     9
 10
0.0
 20
0.0
 30
0.0
 70
   128
 71
    37
 72
    38
 73
   127
  0
VERTEX
  5
24B
  8
0
 62
     9
 10
0.0
 20
0.0
 30
0.0
 70
   128
 71
   124
 72
    56
 73
    57
  0
VERTEX
  5
24C
  8
0
 62
     9
 10
0.0
 20
0.0
 30
0.0
 70
   128
 71
   124
 72
   128
 73
    55
  0
VERTEX
  5
24D
  8
0
 62
     9
 10
0.0
 20
0.0
 30
0.0
 70
   128
 71
    55
 72
    56
 73
   124
  0
VERTEX
  5
24E
  8
0
 62
     9
 10
0.0
 20
0.0
 30
0.0
 70
   128
 71
   129
 72
    54
 73
   128
  0
VERTEX
  5
24F
  8
0
 62
     9
 10
0.0
 20
0.0
 30
0.0
 70
   128
 71
    55
 72
   128
 73
    54
  0
VERTEX
  5
250
  8
0
 62
     9
 10
0.0
 20
0.0
 30
0.0
 70
   128
 71
    53
 72
   129
 73
   130
  0
VERTEX
  5
251
  8
0
 62
     9
 10
0.0
 20
0.0
 30
0.0
 70
   128
 71
   129
 72
    53
 73
    54
  0
VERTEX
  5
252
  8
0
 62
     9
 10
0.0
 20
0.0
 30
0.0
 70
   128
 71
   130
 72
   131
 73
    52
  0
VERTEX
  5
253
  8
0
 62
     9
 10
0.0
 20
0.0
 30
0.0
 70
   128
 71
    52
 72
    53
 73
   130
  0
VERTEX
  5
254
  8
0
 62
     9
 10
0.0
 20
0.0
 30
0.0
 70
   128
 71
   132
 72
    51
 73
   131
  0
VERTEX
  5
255
  8
0
 62
     9
 10
0.0
 20
0.0
 30
0.0
 70
   128
 71
    52
 72
   131
 73
    51
  0
VERTEX
  5
256
  8
0
 62
     9
 10
0.0
 20
0.0
 30
0.0
 70
   128
 71
    20
 72
   132
 73
   122
  0
VERTEX
  5
257
  8
0
 62
     9
 10
0.0
 20
0.0
 30
0.0
 70
   128
 71
   132
 72
    20
 73
    51
  0
VERTEX
  5
258
  8
0
 62
     9
 10
0.0
 20
0.0
 30
0.0
 70
   128
 71
    91
 72
   109
 73
   124
  0
VERTEX
  5
259
  8
0
 62
     9
 10
0.0
 20
0.0
 30
0.0
 70
   128
 71
   132
 72
    98
 73
   122
  0
VERTEX
  5
25A
  8
0
 62
     9
 10
0.0
 20
0.0
 30
0.0
 70
   128
 71
    91
 72
   123
 73
    86
  0
VERTEX
  5
25B
  8
0
 62
     9
 10
0.0
 20
0.0
 30
0.0
 70
   128
 71
   123
 72
    91
 73
   124
  0
VERTEX
  5
25C
  8
0
 62
     9
 10
0.0
 20
0.0
 30
0.0
 70
   128
 71
   120
 72
   117
 73
    86
  0
VERTEX
  5
25D
  8
0
 62
     9
 10
0.0
 20
0.0
 30
0.0
 70
   128
 71
    86
 72
   123
 73
   120
  0
VERTEX
  5
25E
  8
0
 62
     9
 10
0.0
 20
0.0
 30
0.0
 70
   128
 71
   118
 72
   117
 73
   121
  0
VERTEX
  5
25F
  8
0
 62
     9
 10
0.0
 20
0.0
 30
0.0
 70
   128
 71
   120
 72
   121
 73
   117
  0
VERTEX
  5
260
  8
0
 62
     9
 10
0.0
 20
0.0
 30
0.0
 70
   128
 71
   118
 72
   125
 73
   114
  0
VERTEX
  5
261
  8
0
 62
     9
 10
0.0
 20
0.0
 30
0.0
 70
   128
 71
   125
 72
   118
 73
   121
  0
VERTEX
  5
262
  8
0
 62
     9
 10
0.0
 20
0.0
 30
0.0
 70
   128
 71
   126
 72
   116
 73
   114
  0
VERTEX
  5
263
  8
0
 62
     9
 10
0.0
 20
0.0
 30
0.0
 70
   128
 71
   114
 72
   125
 73
   126
  0
VERTEX
  5
264
  8
0
 62
     9
 10
0.0
 20
0.0
 30
0.0
 70
   128
 71
   127
 72
   116
 73
   126
  0
VERTEX
  5
265
  8
0
 62
     9
 10
0.0
 20
0.0
 30
0.0
 70
   128
 71
   109
 72
   128
 73
   124
  0
VERTEX
  5
266
  8
0
 62
     9
 10
0.0
 20
0.0
 30
0.0
 70
   128
 71
   113
 72
   129
 73
   128
  0
VERTEX
  5
267
  8
0
 62
     9
 10
0.0
 20
0.0
 30
0.0
 70
   128
 71
   128
 72
   109
 73
   113
  0
VERTEX
  5
268
  8
0
 62
     9
 10
0.0
 20
0.0
 30
0.0
 70
   128
 71
   130
 72
   129
 73
   104
  0
VERTEX
  5
269
  8
0
 62
     9
 10
0.0
 20
0.0
 30
0.0
 70
   128
 71
   113
 72
   104
 73
   129
  0
VERTEX
  5
26A
  8
0
 62
     9
 10
0.0
 20
0.0
 30
0.0
 70
   128
 71
   130
 72
   105
 73
   131
  0
VERTEX
  5
26B
  8
0
 62
     9
 10
0.0
 20
0.0
 30
0.0
 70
   128
 71
   105
 72
   130
 73
   104
  0
VERTEX
  5
26C
  8
0
 62
     9
 10
0.0
 20
0.0
 30
0.0
 70
   128
 71
   107
 72
   132
 73
   131
  0
VERTEX
  5
26D
  8
0
 62
     9
 10
0.0
 20
0.0
 30
0.0
 70
   128
 71
   131
 72
   105
 73
   107
  0
VERTEX
  5
26E
  8
0
 62
     9
 10
0.0
 20
0.0
 30
0.0
 70
   128
 71
   132
 72
   101
 73
    98
  0
VERTEX
  5
26F
  8
0
 62
     9
 10
0.0
 20
0.0
 30
0.0
 70
   128
 71
   107
 72
   101
 73
   132
  0
VERTEX
  5
270
  8
0
 62
     9
 10
0.0
 20
0.0
 30
0.0
 70
   128
 71
    50
 72
   134
 73
   133
  0
VERTEX
  5
271
  8
0
 62
     9
 10
0.0
 20
0.0
 30
0.0
 70
   128
 71
    19
 72
   133
 73
    75
  0
VERTEX
  5
272
  8
0
 62
     9
 10
0.0
 20
0.0
 30
0.0
 70
   128
 71
   135
 72
   133
 73
   134
  0
VERTEX
  5
273
  8
0
 62
     9
 10
0.0
 20
0.0
 30
0.0
 70
   128
 71
    19
 72
    50
 73
   133
  0
VERTEX
  5
274
  8
0
 62
     9
 10
0.0
 20
0.0
 30
0.0
 70
   128
 71
   134
 72
   136
 73
   135
  0
VERTEX
  5
275
  8
0
 62
     9
 10
0.0
 20
0.0
 30
0.0
 70
   128
 71
    49
 72
    19
 73
    75
  0
VERTEX
  5
276
  8
0
 62
     9
 10
0.0
 20
0.0
 30
0.0
 70
   128
 71
   139
 72
   138
 73
   137
  0
VERTEX
  5
277
  8
0
 62
     9
 10
0.0
 20
0.0
 30
0.0
 70
   128
 71
   142
 72
   141
 73
   140
  0
VERTEX
  5
278
  8
0
 62
     9
 10
0.0
 20
0.0
 30
0.0
 70
   128
 71
   145
 72
   144
 73
   143
  0
VERTEX
  5
279
  8
0
 62
     9
 10
0.0
 20
0.0
 30
0.0
 70
   128
 71
   148
 72
   147
 73
   146
  0
VERTEX
  5
27A
  8
0
 62
     9
 10
0.0
 20
0.0
 30
0.0
 70
   128
 71
   151
 72
   150
 73
   149
  0
VERTEX
  5
27B
  8
0
 62
     9
 10
0.0
 20
0.0
 30
0.0
 70
   128
 71
   150
 72
   151
 73
   152
  0
VERTEX
  5
27C
  8
0
 62
     9
 10
0.0
 20
0.0
 30
0.0
 70
   128
 71
   149
 72
   154
 73
   153
  0
VERTEX
  5
27D
  8
0
 62
     9
 10
0.0
 20
0.0
 30
0.0
 70
   128
 71
   153
 72
   151
 73
   149
  0
VERTEX
  5
27E
  8
0
 62
     9
 10
0.0
 20
0.0
 30
0.0
 70
   128
 71
   153
 72
   154
 73
   155
  0
VERTEX
  5
27F
  8
0
 62
     9
 10
0.0
 20
0.0
 30
0.0
 70
   128
 71
   152
 72
   143
 73
   150
  0
VERTEX
  5
280
  8
0
 62
     9
 10
0.0
 20
0.0
 30
0.0
 70
   128
 71
   144
 72
   145
 73
   148
  0
VERTEX
  5
281
  8
0
 62
     9
 10
0.0
 20
0.0
 30
0.0
 70
   128
 71
   143
 72
   152
 73
   145
  0
VERTEX
  5
282
  8
0
 62
     9
 10
0.0
 20
0.0
 30
0.0
 70
   128
 71
   146
 72
   147
 73
   140
  0
VERTEX
  5
283
  8
0
 62
     9
 10
0.0
 20
0.0
 30
0.0
 70
   128
 71
   144
 72
   148
 73
   146
  0
VERTEX
  5
284
  8
0
 62
     9
 10
0.0
 20
0.0
 30
0.0
 70
   128
 71
   142
 72
   136
 73
   141
  0
VERTEX
  5
285
  8
0
 62
     9
 10
0.0
 20
0.0
 30
0.0
 70
   128
 71
   147
 72
   142
 73
   140
  0
VERTEX
  5
286
  8
0
 62
     9
 10
0.0
 20
0.0
 30
0.0
 70
   128
 71
   157
 72
   142
 73
   156
  0
VERTEX
  5
287
  8
0
 62
     9
 10
0.0
 20
0.0
 30
0.0
 70
   128
 71
   157
 72
   136
 73
   142
  0
VERTEX
  5
288
  8
0
 62
     9
 10
0.0
 20
0.0
 30
0.0
 70
   128
 71
   156
 72
   138
 73
   139
  0
VERTEX
  5
289
  8
0
 62
     9
 10
0.0
 20
0.0
 30
0.0
 70
   128
 71
   138
 72
   156
 73
   142
  0
VERTEX
  5
28A
  8
0
 62
     9
 10
0.0
 20
0.0
 30
0.0
 70
   128
 71
   158
 72
   139
 73
   137
  0
VERTEX
  5
28B
  8
0
 62
     9
 10
0.0
 20
0.0
 30
0.0
 70
   128
 71
   159
 72
   141
 73
   136
  0
VERTEX
  5
28C
  8
0
 62
     9
 10
0.0
 20
0.0
 30
0.0
 70
   128
 71
   122
 72
   134
 73
    50
  0
VERTEX
  5
28D
  8
0
 62
     9
 10
0.0
 20
0.0
 30
0.0
 70
   128
 71
   122
 72
   159
 73
   134
  0
VERTEX
  5
28E
  8
0
 62
     9
 10
0.0
 20
0.0
 30
0.0
 70
   128
 71
   136
 72
   134
 73
   159
  0
VERTEX
  5
28F
  8
0
 62
     9
 10
0.0
 20
0.0
 30
0.0
 70
   128
 71
   149
 72
    90
 73
    93
  0
VERTEX
  5
290
  8
0
 62
     9
 10
0.0
 20
0.0
 30
0.0
 70
   128
 71
    92
 72
   150
 73
   143
  0
VERTEX
  5
291
  8
0
 62
     9
 10
0.0
 20
0.0
 30
0.0
 70
   128
 71
    83
 72
   146
 73
   140
  0
VERTEX
  5
292
  8
0
 62
     9
 10
0.0
 20
0.0
 30
0.0
 70
   128
 71
    94
 72
    79
 73
   144
  0
VERTEX
  5
293
  8
0
 62
     9
 10
0.0
 20
0.0
 30
0.0
 70
   128
 71
   140
 72
   141
 73
    82
  0
VERTEX
  5
294
  8
0
 62
     9
 10
0.0
 20
0.0
 30
0.0
 70
   128
 71
    82
 72
    83
 73
   140
  0
VERTEX
  5
295
  8
0
 62
     9
 10
0.0
 20
0.0
 30
0.0
 70
   128
 71
    82
 72
   141
 73
    96
  0
VERTEX
  5
296
  8
0
 62
     9
 10
0.0
 20
0.0
 30
0.0
 70
   128
 71
    83
 72
    94
 73
   146
  0
VERTEX
  5
297
  8
0
 62
     9
 10
0.0
 20
0.0
 30
0.0
 70
   128
 71
    79
 72
   143
 73
   144
  0
VERTEX
  5
298
  8
0
 62
     9
 10
0.0
 20
0.0
 30
0.0
 70
   128
 71
    94
 72
   144
 73
   146
  0
VERTEX
  5
299
  8
0
 62
     9
 10
0.0
 20
0.0
 30
0.0
 70
   128
 71
    90
 72
   150
 73
    92
  0
VERTEX
  5
29A
  8
0
 62
     9
 10
0.0
 20
0.0
 30
0.0
 70
   128
 71
    92
 72
   143
 73
    79
  0
VERTEX
  5
29B
  8
0
 62
     9
 10
0.0
 20
0.0
 30
0.0
 70
   128
 71
   154
 72
   149
 73
    93
  0
VERTEX
  5
29C
  8
0
 62
     9
 10
0.0
 20
0.0
 30
0.0
 70
   128
 71
   149
 72
   150
 73
    90
  0
VERTEX
  5
29D
  8
0
 62
     9
 10
0.0
 20
0.0
 30
0.0
 70
   128
 71
    99
 72
    96
 73
   141
  0
VERTEX
  5
29E
  8
0
 62
     9
 10
0.0
 20
0.0
 30
0.0
 70
   128
 71
   159
 72
   122
 73
    98
  0
VERTEX
  5
29F
  8
0
 62
     9
 10
0.0
 20
0.0
 30
0.0
 70
   128
 71
    98
 72
    99
 73
   159
  0
VERTEX
  5
2A0
  8
0
 62
     9
 10
0.0
 20
0.0
 30
0.0
 70
   128
 71
   159
 72
    99
 73
   141
  0
VERTEX
  5
2A1
  8
0
 62
     9
 10
0.0
 20
0.0
 30
0.0
 70
   128
 71
   156
 72
   139
 73
   160
  0
VERTEX
  5
2A2
  8
0
 62
     9
 10
0.0
 20
0.0
 30
0.0
 70
   128
 71
    75
 72
   161
 73
    73
  0
VERTEX
  5
2A3
  8
0
 62
     9
 10
0.0
 20
0.0
 30
0.0
 70
   128
 71
   161
 72
   160
 73
   139
  0
VERTEX
  5
2A4
  8
0
 62
     9
 10
0.0
 20
0.0
 30
0.0
 70
   128
 71
   161
 72
   139
 73
   158
  0
VERTEX
  5
2A5
  8
0
 62
     9
 10
0.0
 20
0.0
 30
0.0
 70
   128
 71
   161
 72
    75
 73
   160
  0
VERTEX
  5
2A6
  8
0
 62
     9
 10
0.0
 20
0.0
 30
0.0
 70
   128
 71
    73
 72
   162
 73
    74
  0
VERTEX
  5
2A7
  8
0
 62
     9
 10
0.0
 20
0.0
 30
0.0
 70
   128
 71
   161
 72
   162
 73
    73
  0
VERTEX
  5
2A8
  8
0
 62
     9
 10
0.0
 20
0.0
 30
0.0
 70
   128
 71
   158
 72
   162
 73
   161
  0
VERTEX
  5
2A9
  8
0
 62
     9
 10
0.0
 20
0.0
 30
0.0
 70
   128
 71
   135
 72
   136
 73
   163
  0
VERTEX
  5
2AA
  8
0
 62
     9
 10
0.0
 20
0.0
 30
0.0
 70
   128
 71
   133
 72
   163
 73
   160
  0
VERTEX
  5
2AB
  8
0
 62
     9
 10
0.0
 20
0.0
 30
0.0
 70
   128
 71
   163
 72
   157
 73
   156
  0
VERTEX
  5
2AC
  8
0
 62
     9
 10
0.0
 20
0.0
 30
0.0
 70
   128
 71
   157
 72
   163
 73
   136
  0
VERTEX
  5
2AD
  8
0
 62
     9
 10
0.0
 20
0.0
 30
0.0
 70
   128
 71
   133
 72
   160
 73
    75
  0
VERTEX
  5
2AE
  8
0
 62
     9
 10
0.0
 20
0.0
 30
0.0
 70
   128
 71
   135
 72
   163
 73
   133
  0
VERTEX
  5
2AF
  8
0
 62
     9
 10
0.0
 20
0.0
 30
0.0
 70
   128
 71
   160
 72
   163
 73
   156
  0
VERTEX
  5
2B0
  8
0
 62
     9
 10
0.0
 20
0.0
 30
0.0
 70
   128
 71
     8
 72
     5
 73
   151
  0
VERTEX
  5
2B1
  8
0
 62
     9
 10
0.0
 20
0.0
 30
0.0
 70
   128
 71
     7
 72
   153
 73
   155
  0
VERTEX
  5
2B2
  8
0
 62
     9
 10
0.0
 20
0.0
 30
0.0
 70
   128
 71
     9
 72
   148
 73
     4
  0
VERTEX
  5
2B3
  8
0
 62
     9
 10
0.0
 20
0.0
 30
0.0
 70
   128
 71
   152
 72
     6
 73
   145
  0
VERTEX
  5
2B4
  8
0
 62
     9
 10
0.0
 20
0.0
 30
0.0
 70
   128
 71
    11
 72
   142
 73
    10
  0
VERTEX
  5
2B5
  8
0
 62
     9
 10
0.0
 20
0.0
 30
0.0
 70
   128
 71
   147
 72
    10
 73
   142
  0
VERTEX
  5
2B6
  8
0
 62
     9
 10
0.0
 20
0.0
 30
0.0
 70
   128
 71
   138
 72
    11
 73
    15
  0
VERTEX
  5
2B7
  8
0
 62
     9
 10
0.0
 20
0.0
 30
0.0
 70
   128
 71
    11
 72
   138
 73
   142
  0
VERTEX
  5
2B8
  8
0
 62
     9
 10
0.0
 20
0.0
 30
0.0
 70
   128
 71
   147
 72
     9
 73
    10
  0
VERTEX
  5
2B9
  8
0
 62
     9
 10
0.0
 20
0.0
 30
0.0
 70
   128
 71
   137
 72
   138
 73
    15
  0
VERTEX
  5
2BA
  8
0
 62
     9
 10
0.0
 20
0.0
 30
0.0
 70
   128
 71
   148
 72
   145
 73
     4
  0
VERTEX
  5
2BB
  8
0
 62
     9
 10
0.0
 20
0.0
 30
0.0
 70
   128
 71
   147
 72
   148
 73
     9
  0
VERTEX
  5
2BC
  8
0
 62
     9
 10
0.0
 20
0.0
 30
0.0
 70
   128
 71
   152
 72
     5
 73
     6
  0
VERTEX
  5
2BD
  8
0
 62
     9
 10
0.0
 20
0.0
 30
0.0
 70
   128
 71
   145
 72
     6
 73
     4
  0
VERTEX
  5
2BE
  8
0
 62
     9
 10
0.0
 20
0.0
 30
0.0
 70
   128
 71
   153
 72
     8
 73
   151
  0
VERTEX
  5
2BF
  8
0
 62
     9
 10
0.0
 20
0.0
 30
0.0
 70
   128
 71
   151
 72
     5
 73
   152
  0
VERTEX
  5
2C0
  8
0
 62
     9
 10
0.0
 20
0.0
 30
0.0
 70
   128
 71
    12
 72
     7
 73
   155
  0
VERTEX
  5
2C1
  8
0
 62
     9
 10
0.0
 20
0.0
 30
0.0
 70
   128
 71
     7
 72
     8
 73
   153
  0
VERTEX
  5
2C2
  8
0
 62
     9
 10
0.0
 20
0.0
 30
0.0
 70
   128
 71
   166
 72
   165
 73
   164
  0
VERTEX
  5
2C3
  8
0
 62
     9
 10
0.0
 20
0.0
 30
0.0
 70
   128
 71
    38
 72
    35
 73
   167
  0
VERTEX
  5
2C4
  8
0
 62
     9
 10
0.0
 20
0.0
 30
0.0
 70
   128
 71
   164
 72
   169
 73
   168
  0
VERTEX
  5
2C5
  8
0
 62
     9
 10
0.0
 20
0.0
 30
0.0
 70
   128
 71
   165
 72
   170
 73
   164
  0
VERTEX
  5
2C6
  8
0
 62
     9
 10
0.0
 20
0.0
 30
0.0
 70
   128
 71
   172
 72
   171
 73
   169
  0
VERTEX
  5
2C7
  8
0
 62
     9
 10
0.0
 20
0.0
 30
0.0
 70
   128
 71
   173
 72
   169
 73
   164
  0
VERTEX
  5
2C8
  8
0
 62
     9
 10
0.0
 20
0.0
 30
0.0
 70
   128
 71
   175
 72
   172
 73
   174
  0
VERTEX
  5
2C9
  8
0
 62
     9
 10
0.0
 20
0.0
 30
0.0
 70
   128
 71
   172
 72
   169
 73
   176
  0
VERTEX
  5
2CA
  8
0
 62
     9
 10
0.0
 20
0.0
 30
0.0
 70
   128
 71
   174
 72
   178
 73
   177
  0
VERTEX
  5
2CB
  8
0
 62
     9
 10
0.0
 20
0.0
 30
0.0
 70
   128
 71
   172
 72
   179
 73
   174
  0
VERTEX
  5
2CC
  8
0
 62
     9
 10
0.0
 20
0.0
 30
0.0
 70
   128
 71
   174
 72
   179
 73
   180
  0
VERTEX
  5
2CD
  8
0
 62
     9
 10
0.0
 20
0.0
 30
0.0
 70
   128
 71
   180
 72
   178
 73
   174
  0
VERTEX
  5
2CE
  8
0
 62
     9
 10
0.0
 20
0.0
 30
0.0
 70
   128
 71
   182
 72
   178
 73
   181
  0
VERTEX
  5
2CF
  8
0
 62
     9
 10
0.0
 20
0.0
 30
0.0
 70
   128
 71
   181
 72
   178
 73
   180
  0
VERTEX
  5
2D0
  8
0
 62
     9
 10
0.0
 20
0.0
 30
0.0
 70
   128
 71
   184
 72
   182
 73
   183
  0
VERTEX
  5
2D1
  8
0
 62
     9
 10
0.0
 20
0.0
 30
0.0
 70
   128
 71
   186
 72
   165
 73
   185
  0
VERTEX
  5
2D2
  8
0
 62
     9
 10
0.0
 20
0.0
 30
0.0
 70
   128
 71
   189
 72
   188
 73
   187
  0
VERTEX
  5
2D3
  8
0
 62
     9
 10
0.0
 20
0.0
 30
0.0
 70
   128
 71
   190
 72
   185
 73
   165
  0
VERTEX
  5
2D4
  8
0
 62
     9
 10
0.0
 20
0.0
 30
0.0
 70
   128
 71
   192
 72
   191
 73
   188
  0
VERTEX
  5
2D5
  8
0
 62
     9
 10
0.0
 20
0.0
 30
0.0
 70
   128
 71
   189
 72
   187
 73
   185
  0
VERTEX
  5
2D6
  8
0
 62
     9
 10
0.0
 20
0.0
 30
0.0
 70
   128
 71
   194
 72
   192
 73
   193
  0
VERTEX
  5
2D7
  8
0
 62
     9
 10
0.0
 20
0.0
 30
0.0
 70
   128
 71
   191
 72
   187
 73
   188
  0
VERTEX
  5
2D8
  8
0
 62
     9
 10
0.0
 20
0.0
 30
0.0
 70
   128
 71
   193
 72
   196
 73
   195
  0
VERTEX
  5
2D9
  8
0
 62
     9
 10
0.0
 20
0.0
 30
0.0
 70
   128
 71
   191
 72
   192
 73
   194
  0
VERTEX
  5
2DA
  8
0
 62
     9
 10
0.0
 20
0.0
 30
0.0
 70
   128
 71
   167
 72
   197
 73
   196
  0
VERTEX
  5
2DB
  8
0
 62
     9
 10
0.0
 20
0.0
 30
0.0
 70
   128
 71
   193
 72
   195
 73
   194
  0
VERTEX
  5
2DC
  8
0
 62
     9
 10
0.0
 20
0.0
 30
0.0
 70
   128
 71
   167
 72
    35
 73
   197
  0
VERTEX
  5
2DD
  8
0
 62
     9
 10
0.0
 20
0.0
 30
0.0
 70
   128
 71
   197
 72
   195
 73
   196
  0
VERTEX
  5
2DE
  8
0
 62
     9
 10
0.0
 20
0.0
 30
0.0
 70
   128
 71
    35
 72
    34
 73
   198
  0
VERTEX
  5
2DF
  8
0
 62
     9
 10
0.0
 20
0.0
 30
0.0
 70
   128
 71
   178
 72
   184
 73
   177
  0
VERTEX
  5
2E0
  8
0
 62
     9
 10
0.0
 20
0.0
 30
0.0
 70
   128
 71
   184
 72
   178
 73
   182
  0
VERTEX
  5
2E1
  8
0
 62
     9
 10
0.0
 20
0.0
 30
0.0
 70
   128
 71
   176
 72
   179
 73
   172
  0
VERTEX
  5
2E2
  8
0
 62
     9
 10
0.0
 20
0.0
 30
0.0
 70
   128
 71
   174
 72
   177
 73
   175
  0
VERTEX
  5
2E3
  8
0
 62
     9
 10
0.0
 20
0.0
 30
0.0
 70
   128
 71
   173
 72
   176
 73
   169
  0
VERTEX
  5
2E4
  8
0
 62
     9
 10
0.0
 20
0.0
 30
0.0
 70
   128
 71
   172
 72
   175
 73
   171
  0
VERTEX
  5
2E5
  8
0
 62
     9
 10
0.0
 20
0.0
 30
0.0
 70
   128
 71
   170
 72
   173
 73
   164
  0
VERTEX
  5
2E6
  8
0
 62
     9
 10
0.0
 20
0.0
 30
0.0
 70
   128
 71
   169
 72
   171
 73
   168
  0
VERTEX
  5
2E7
  8
0
 62
     9
 10
0.0
 20
0.0
 30
0.0
 70
   128
 71
   186
 72
   170
 73
   165
  0
VERTEX
  5
2E8
  8
0
 62
     9
 10
0.0
 20
0.0
 30
0.0
 70
   128
 71
   164
 72
   168
 73
   166
  0
VERTEX
  5
2E9
  8
0
 62
     9
 10
0.0
 20
0.0
 30
0.0
 70
   128
 71
   199
 72
   186
 73
   185
  0
VERTEX
  5
2EA
  8
0
 62
     9
 10
0.0
 20
0.0
 30
0.0
 70
   128
 71
   165
 72
   166
 73
   190
  0
VERTEX
  5
2EB
  8
0
 62
     9
 10
0.0
 20
0.0
 30
0.0
 70
   128
 71
   200
 72
   199
 73
   187
  0
VERTEX
  5
2EC
  8
0
 62
     9
 10
0.0
 20
0.0
 30
0.0
 70
   128
 71
   185
 72
   190
 73
   189
  0
VERTEX
  5
2ED
  8
0
 62
     9
 10
0.0
 20
0.0
 30
0.0
 70
   128
 71
   185
 72
   187
 73
   199
  0
VERTEX
  5
2EE
  8
0
 62
     9
 10
0.0
 20
0.0
 30
0.0
 70
   128
 71
   201
 72
   200
 73
   191
  0
VERTEX
  5
2EF
  8
0
 62
     9
 10
0.0
 20
0.0
 30
0.0
 70
   128
 71
   187
 72
   191
 73
   200
  0
VERTEX
  5
2F0
  8
0
 62
     9
 10
0.0
 20
0.0
 30
0.0
 70
   128
 71
   202
 72
   201
 73
   194
  0
VERTEX
  5
2F1
  8
0
 62
     9
 10
0.0
 20
0.0
 30
0.0
 70
   128
 71
   191
 72
   194
 73
   201
  0
VERTEX
  5
2F2
  8
0
 62
     9
 10
0.0
 20
0.0
 30
0.0
 70
   128
 71
   203
 72
   202
 73
   195
  0
VERTEX
  5
2F3
  8
0
 62
     9
 10
0.0
 20
0.0
 30
0.0
 70
   128
 71
   194
 72
   195
 73
   202
  0
VERTEX
  5
2F4
  8
0
 62
     9
 10
0.0
 20
0.0
 30
0.0
 70
   128
 71
   198
 72
   203
 73
   197
  0
VERTEX
  5
2F5
  8
0
 62
     9
 10
0.0
 20
0.0
 30
0.0
 70
   128
 71
   195
 72
   197
 73
   203
  0
VERTEX
  5
2F6
  8
0
 62
     9
 10
0.0
 20
0.0
 30
0.0
 70
   128
 71
   198
 72
   197
 73
    35
  0
VERTEX
  5
2F7
  8
0
 62
     9
 10
0.0
 20
0.0
 30
0.0
 70
   128
 71
   202
 72
   203
 73
   204
  0
VERTEX
  5
2F8
  8
0
 62
     9
 10
0.0
 20
0.0
 30
0.0
 70
   128
 71
   206
 72
    71
 73
   205
  0
VERTEX
  5
2F9
  8
0
 62
     9
 10
0.0
 20
0.0
 30
0.0
 70
   128
 71
    76
 72
   207
 73
    68
  0
VERTEX
  5
2FA
  8
0
 62
     9
 10
0.0
 20
0.0
 30
0.0
 70
   128
 71
    70
 72
    68
 73
   204
  0
VERTEX
  5
2FB
  8
0
 62
     9
 10
0.0
 20
0.0
 30
0.0
 70
   128
 71
   206
 72
    72
 73
    71
  0
VERTEX
  5
2FC
  8
0
 62
     9
 10
0.0
 20
0.0
 30
0.0
 70
   128
 71
   206
 72
    65
 73
    72
  0
VERTEX
  5
2FD
  8
0
 62
     9
 10
0.0
 20
0.0
 30
0.0
 70
   128
 71
   176
 72
   173
 73
   206
  0
VERTEX
  5
2FE
  8
0
 62
     9
 10
0.0
 20
0.0
 30
0.0
 70
   128
 71
    74
 72
   205
 73
    71
  0
VERTEX
  5
2FF
  8
0
 62
     9
 10
0.0
 20
0.0
 30
0.0
 70
   128
 71
   176
 72
   205
 73
   179
  0
VERTEX
  5
300
  8
0
 62
     9
 10
0.0
 20
0.0
 30
0.0
 70
   128
 71
   205
 72
   176
 73
   206
  0
VERTEX
  5
301
  8
0
 62
     9
 10
0.0
 20
0.0
 30
0.0
 70
   128
 71
   180
 72
   205
 73
   181
  0
VERTEX
  5
302
  8
0
 62
     9
 10
0.0
 20
0.0
 30
0.0
 70
   128
 71
   180
 72
   179
 73
   205
  0
VERTEX
  5
303
  8
0
 62
     9
 10
0.0
 20
0.0
 30
0.0
 70
   128
 71
   206
 72
    63
 73
    65
  0
VERTEX
  5
304
  8
0
 62
     9
 10
0.0
 20
0.0
 30
0.0
 70
   128
 71
   208
 72
   181
 73
   205
  0
VERTEX
  5
305
  8
0
 62
     9
 10
0.0
 20
0.0
 30
0.0
 70
   128
 71
    70
 72
   198
 73
    34
  0
VERTEX
  5
306
  8
0
 62
     9
 10
0.0
 20
0.0
 30
0.0
 70
   128
 71
   170
 72
   186
 73
   206
  0
VERTEX
  5
307
  8
0
 62
     9
 10
0.0
 20
0.0
 30
0.0
 70
   128
 71
   206
 72
   209
 73
    63
  0
VERTEX
  5
308
  8
0
 62
     9
 10
0.0
 20
0.0
 30
0.0
 70
   128
 71
    77
 72
   209
 73
    76
  0
VERTEX
  5
309
  8
0
 62
     9
 10
0.0
 20
0.0
 30
0.0
 70
   128
 71
    77
 72
    63
 73
   209
  0
VERTEX
  5
30A
  8
0
 62
     9
 10
0.0
 20
0.0
 30
0.0
 70
   128
 71
    68
 72
   207
 73
   210
  0
VERTEX
  5
30B
  8
0
 62
     9
 10
0.0
 20
0.0
 30
0.0
 70
   128
 71
    76
 72
   209
 73
   207
  0
VERTEX
  5
30C
  8
0
 62
     9
 10
0.0
 20
0.0
 30
0.0
 70
   128
 71
   202
 72
   210
 73
   201
  0
VERTEX
  5
30D
  8
0
 62
     9
 10
0.0
 20
0.0
 30
0.0
 70
   128
 71
   210
 72
   202
 73
   204
  0
VERTEX
  5
30E
  8
0
 62
     9
 10
0.0
 20
0.0
 30
0.0
 70
   128
 71
   204
 72
   198
 73
    70
  0
VERTEX
  5
30F
  8
0
 62
     9
 10
0.0
 20
0.0
 30
0.0
 70
   128
 71
   198
 72
   204
 73
   203
  0
VERTEX
  5
310
  8
0
 62
     9
 10
0.0
 20
0.0
 30
0.0
 70
   128
 71
   207
 72
   201
 73
   210
  0
VERTEX
  5
311
  8
0
 62
     9
 10
0.0
 20
0.0
 30
0.0
 70
   128
 71
   210
 72
   204
 73
    68
  0
VERTEX
  5
312
  8
0
 62
     9
 10
0.0
 20
0.0
 30
0.0
 70
   128
 71
   207
 72
   200
 73
   201
  0
VERTEX
  5
313
  8
0
 62
     9
 10
0.0
 20
0.0
 30
0.0
 70
   128
 71
   209
 72
   199
 73
   200
  0
VERTEX
  5
314
  8
0
 62
     9
 10
0.0
 20
0.0
 30
0.0
 70
   128
 71
   207
 72
   209
 73
   200
  0
VERTEX
  5
315
  8
0
 62
     9
 10
0.0
 20
0.0
 30
0.0
 70
   128
 71
   186
 72
   199
 73
   209
  0
VERTEX
  5
316
  8
0
 62
     9
 10
0.0
 20
0.0
 30
0.0
 70
   128
 71
   209
 72
   206
 73
   186
  0
VERTEX
  5
317
  8
0
 62
     9
 10
0.0
 20
0.0
 30
0.0
 70
   128
 71
   170
 72
   206
 73
   173
  0
VERTEX
  5
318
  8
0
 62
     9
 10
0.0
 20
0.0
 30
0.0
 70
   128
 71
   211
 72
   192
 73
   188
  0
VERTEX
  5
319
  8
0
 62
     9
 10
0.0
 20
0.0
 30
0.0
 70
   128
 71
   212
 72
   166
 73
   168
  0
VERTEX
  5
31A
  8
0
 62
     9
 10
0.0
 20
0.0
 30
0.0
 70
   128
 71
   166
 72
   212
 73
   213
  0
VERTEX
  5
31B
  8
0
 62
     9
 10
0.0
 20
0.0
 30
0.0
 70
   128
 71
   171
 72
   215
 73
   214
  0
VERTEX
  5
31C
  8
0
 62
     9
 10
0.0
 20
0.0
 30
0.0
 70
   128
 71
   214
 72
   212
 73
   168
  0
VERTEX
  5
31D
  8
0
 62
     9
 10
0.0
 20
0.0
 30
0.0
 70
   128
 71
   168
 72
   171
 73
   214
  0
VERTEX
  5
31E
  8
0
 62
     9
 10
0.0
 20
0.0
 30
0.0
 70
   128
 71
   215
 72
   171
 73
   175
  0
VERTEX
  5
31F
  8
0
 62
     9
 10
0.0
 20
0.0
 30
0.0
 70
   128
 71
   217
 72
   177
 73
   216
  0
VERTEX
  5
320
  8
0
 62
     9
 10
0.0
 20
0.0
 30
0.0
 70
   128
 71
   175
 72
   217
 73
   215
  0
VERTEX
  5
321
  8
0
 62
     9
 10
0.0
 20
0.0
 30
0.0
 70
   128
 71
   216
 72
   184
 73
   218
  0
VERTEX
  5
322
  8
0
 62
     9
 10
0.0
 20
0.0
 30
0.0
 70
   128
 71
   184
 72
   216
 73
   177
  0
VERTEX
  5
323
  8
0
 62
     9
 10
0.0
 20
0.0
 30
0.0
 70
   128
 71
   218
 72
   184
 73
   183
  0
VERTEX
  5
324
  8
0
 62
     9
 10
0.0
 20
0.0
 30
0.0
 70
   128
 71
   175
 72
   177
 73
   217
  0
VERTEX
  5
325
  8
0
 62
     9
 10
0.0
 20
0.0
 30
0.0
 70
   128
 71
   213
 72
   190
 73
   166
  0
VERTEX
  5
326
  8
0
 62
     9
 10
0.0
 20
0.0
 30
0.0
 70
   128
 71
   213
 72
   219
 73
   189
  0
VERTEX
  5
327
  8
0
 62
     9
 10
0.0
 20
0.0
 30
0.0
 70
   128
 71
   189
 72
   190
 73
   213
  0
VERTEX
  5
328
  8
0
 62
     9
 10
0.0
 20
0.0
 30
0.0
 70
   128
 71
   211
 72
   188
 73
   219
  0
VERTEX
  5
329
  8
0
 62
     9
 10
0.0
 20
0.0
 30
0.0
 70
   128
 71
   189
 72
   219
 73
   188
  0
VERTEX
  5
32A
  8
0
 62
     9
 10
0.0
 20
0.0
 30
0.0
 70
   128
 71
   211
 72
   220
 73
   192
  0
VERTEX
  5
32B
  8
0
 62
     9
 10
0.0
 20
0.0
 30
0.0
 70
   128
 71
   193
 72
   220
 73
   221
  0
VERTEX
  5
32C
  8
0
 62
     9
 10
0.0
 20
0.0
 30
0.0
 70
   128
 71
   220
 72
   193
 73
   192
  0
VERTEX
  5
32D
  8
0
 62
     9
 10
0.0
 20
0.0
 30
0.0
 70
   128
 71
   221
 72
   222
 73
   196
  0
VERTEX
  5
32E
  8
0
 62
     9
 10
0.0
 20
0.0
 30
0.0
 70
   128
 71
   196
 72
   193
 73
   221
  0
VERTEX
  5
32F
  8
0
 62
     9
 10
0.0
 20
0.0
 30
0.0
 70
   128
 71
   127
 72
   167
 73
   222
  0
VERTEX
  5
330
  8
0
 62
     9
 10
0.0
 20
0.0
 30
0.0
 70
   128
 71
   196
 72
   222
 73
   167
  0
VERTEX
  5
331
  8
0
 62
     9
 10
0.0
 20
0.0
 30
0.0
 70
   128
 71
   127
 72
    38
 73
   167
  0
VERTEX
  5
332
  8
0
 62
     9
 10
0.0
 20
0.0
 30
0.0
 70
   128
 71
   212
 72
   112
 73
   213
  0
VERTEX
  5
333
  8
0
 62
     9
 10
0.0
 20
0.0
 30
0.0
 70
   128
 71
   111
 72
   212
 73
   214
  0
VERTEX
  5
334
  8
0
 62
     9
 10
0.0
 20
0.0
 30
0.0
 70
   128
 71
   212
 72
   111
 73
   112
  0
VERTEX
  5
335
  8
0
 62
     9
 10
0.0
 20
0.0
 30
0.0
 70
   128
 71
   214
 72
   215
 73
   106
  0
VERTEX
  5
336
  8
0
 62
     9
 10
0.0
 20
0.0
 30
0.0
 70
   128
 71
   106
 72
   111
 73
   214
  0
VERTEX
  5
337
  8
0
 62
     9
 10
0.0
 20
0.0
 30
0.0
 70
   128
 71
   217
 72
   108
 73
   215
  0
VERTEX
  5
338
  8
0
 62
     9
 10
0.0
 20
0.0
 30
0.0
 70
   128
 71
   106
 72
   215
 73
   108
  0
VERTEX
  5
339
  8
0
 62
     9
 10
0.0
 20
0.0
 30
0.0
 70
   128
 71
   103
 72
   217
 73
   216
  0
VERTEX
  5
33A
  8
0
 62
     9
 10
0.0
 20
0.0
 30
0.0
 70
   128
 71
   217
 72
   103
 73
   108
  0
VERTEX
  5
33B
  8
0
 62
     9
 10
0.0
 20
0.0
 30
0.0
 70
   128
 71
   102
 72
   216
 73
   100
  0
VERTEX
  5
33C
  8
0
 62
     9
 10
0.0
 20
0.0
 30
0.0
 70
   128
 71
   102
 72
   103
 73
   216
  0
VERTEX
  5
33D
  8
0
 62
     9
 10
0.0
 20
0.0
 30
0.0
 70
   128
 71
   100
 72
   216
 73
   218
  0
VERTEX
  5
33E
  8
0
 62
     9
 10
0.0
 20
0.0
 30
0.0
 70
   128
 71
   112
 72
   110
 73
   213
  0
VERTEX
  5
33F
  8
0
 62
     9
 10
0.0
 20
0.0
 30
0.0
 70
   128
 71
    84
 72
   219
 73
   110
  0
VERTEX
  5
340
  8
0
 62
     9
 10
0.0
 20
0.0
 30
0.0
 70
   128
 71
   213
 72
   110
 73
   219
  0
VERTEX
  5
341
  8
0
 62
     9
 10
0.0
 20
0.0
 30
0.0
 70
   128
 71
   211
 72
    84
 73
    85
  0
VERTEX
  5
342
  8
0
 62
     9
 10
0.0
 20
0.0
 30
0.0
 70
   128
 71
    84
 72
   211
 73
   219
  0
VERTEX
  5
343
  8
0
 62
     9
 10
0.0
 20
0.0
 30
0.0
 70
   128
 71
    85
 72
   119
 73
   220
  0
VERTEX
  5
344
  8
0
 62
     9
 10
0.0
 20
0.0
 30
0.0
 70
   128
 71
   220
 72
   211
 73
    85
  0
VERTEX
  5
345
  8
0
 62
     9
 10
0.0
 20
0.0
 30
0.0
 70
   128
 71
   115
 72
   221
 73
   119
  0
VERTEX
  5
346
  8
0
 62
     9
 10
0.0
 20
0.0
 30
0.0
 70
   128
 71
   220
 72
   119
 73
   221
  0
VERTEX
  5
347
  8
0
 62
     9
 10
0.0
 20
0.0
 30
0.0
 70
   128
 71
   222
 72
   115
 73
   116
  0
VERTEX
  5
348
  8
0
 62
     9
 10
0.0
 20
0.0
 30
0.0
 70
   128
 71
   115
 72
   222
 73
   221
  0
VERTEX
  5
349
  8
0
 62
     9
 10
0.0
 20
0.0
 30
0.0
 70
   128
 71
   127
 72
   222
 73
   116
  0
VERTEX
  5
34A
  8
0
 62
     9
 10
0.0
 20
0.0
 30
0.0
 70
   128
 71
   182
 72
   181
 73
   208
  0
VERTEX
  5
34B
  8
0
 62
     9
 10
0.0
 20
0.0
 30
0.0
 70
   128
 71
   225
 72
   224
 73
   223
  0
VERTEX
  5
34C
  8
0
 62
     9
 10
0.0
 20
0.0
 30
0.0
 70
   128
 71
   225
 72
   223
 73
   183
  0
VERTEX
  5
34D
  8
0
 62
     9
 10
0.0
 20
0.0
 30
0.0
 70
   128
 71
   182
 72
   225
 73
   183
  0
VERTEX
  5
34E
  8
0
 62
     9
 10
0.0
 20
0.0
 30
0.0
 70
   128
 71
   224
 72
   226
 73
   223
  0
VERTEX
  5
34F
  8
0
 62
     9
 10
0.0
 20
0.0
 30
0.0
 70
   128
 71
   225
 72
   182
 73
   208
  0
VERTEX
  5
350
  8
0
 62
     9
 10
0.0
 20
0.0
 30
0.0
 70
   128
 71
   229
 72
   228
 73
   227
  0
VERTEX
  5
351
  8
0
 62
     9
 10
0.0
 20
0.0
 30
0.0
 70
   128
 71
   232
 72
   231
 73
   230
  0
VERTEX
  5
352
  8
0
 62
     9
 10
0.0
 20
0.0
 30
0.0
 70
   128
 71
   233
 72
   158
 73
   137
  0
VERTEX
  5
353
  8
0
 62
     9
 10
0.0
 20
0.0
 30
0.0
 70
   128
 71
   226
 72
   234
 73
   228
  0
VERTEX
  5
354
  8
0
 62
     9
 10
0.0
 20
0.0
 30
0.0
 70
   128
 71
   236
 72
   235
 73
   231
  0
VERTEX
  5
355
  8
0
 62
     9
 10
0.0
 20
0.0
 30
0.0
 70
   128
 71
   232
 72
   230
 73
   237
  0
VERTEX
  5
356
  8
0
 62
     9
 10
0.0
 20
0.0
 30
0.0
 70
   128
 71
   240
 72
   239
 73
   238
  0
VERTEX
  5
357
  8
0
 62
     9
 10
0.0
 20
0.0
 30
0.0
 70
   128
 71
   228
 72
   237
 73
   241
  0
VERTEX
  5
358
  8
0
 62
     9
 10
0.0
 20
0.0
 30
0.0
 70
   128
 71
   244
 72
   243
 73
   242
  0
VERTEX
  5
359
  8
0
 62
     9
 10
0.0
 20
0.0
 30
0.0
 70
   128
 71
   243
 72
   244
 73
   239
  0
VERTEX
  5
35A
  8
0
 62
     9
 10
0.0
 20
0.0
 30
0.0
 70
   128
 71
   242
 72
   155
 73
   154
  0
VERTEX
  5
35B
  8
0
 62
     9
 10
0.0
 20
0.0
 30
0.0
 70
   128
 71
   154
 72
   244
 73
   242
  0
VERTEX
  5
35C
  8
0
 62
     9
 10
0.0
 20
0.0
 30
0.0
 70
   128
 71
   240
 72
   243
 73
   239
  0
VERTEX
  5
35D
  8
0
 62
     9
 10
0.0
 20
0.0
 30
0.0
 70
   128
 71
   238
 72
   235
 73
   236
  0
VERTEX
  5
35E
  8
0
 62
     9
 10
0.0
 20
0.0
 30
0.0
 70
   128
 71
   236
 72
   240
 73
   238
  0
VERTEX
  5
35F
  8
0
 62
     9
 10
0.0
 20
0.0
 30
0.0
 70
   128
 71
   228
 72
   232
 73
   237
  0
VERTEX
  5
360
  8
0
 62
     9
 10
0.0
 20
0.0
 30
0.0
 70
   128
 71
   235
 72
   230
 73
   231
  0
VERTEX
  5
361
  8
0
 62
     9
 10
0.0
 20
0.0
 30
0.0
 70
   128
 71
   234
 72
   227
 73
   228
  0
VERTEX
  5
362
  8
0
 62
     9
 10
0.0
 20
0.0
 30
0.0
 70
   128
 71
   228
 72
   241
 73
   226
  0
VERTEX
  5
363
  8
0
 62
     9
 10
0.0
 20
0.0
 30
0.0
 70
   128
 71
   229
 72
   233
 73
   137
  0
VERTEX
  5
364
  8
0
 62
     9
 10
0.0
 20
0.0
 30
0.0
 70
   128
 71
   233
 72
   229
 73
   227
  0
VERTEX
  5
365
  8
0
 62
     9
 10
0.0
 20
0.0
 30
0.0
 70
   128
 71
   218
 72
   183
 73
   223
  0
VERTEX
  5
366
  8
0
 62
     9
 10
0.0
 20
0.0
 30
0.0
 70
   128
 71
   245
 72
   223
 73
   226
  0
VERTEX
  5
367
  8
0
 62
     9
 10
0.0
 20
0.0
 30
0.0
 70
   128
 71
   223
 72
   245
 73
   218
  0
VERTEX
  5
368
  8
0
 62
     9
 10
0.0
 20
0.0
 30
0.0
 70
   128
 71
   226
 72
   241
 73
   245
  0
VERTEX
  5
369
  8
0
 62
     9
 10
0.0
 20
0.0
 30
0.0
 70
   128
 71
   154
 72
    93
 73
   244
  0
VERTEX
  5
36A
  8
0
 62
     9
 10
0.0
 20
0.0
 30
0.0
 70
   128
 71
   238
 72
    89
 73
   235
  0
VERTEX
  5
36B
  8
0
 62
     9
 10
0.0
 20
0.0
 30
0.0
 70
   128
 71
    87
 72
    88
 73
   239
  0
VERTEX
  5
36C
  8
0
 62
     9
 10
0.0
 20
0.0
 30
0.0
 70
   128
 71
   237
 72
    78
 73
    81
  0
VERTEX
  5
36D
  8
0
 62
     9
 10
0.0
 20
0.0
 30
0.0
 70
   128
 71
    78
 72
   230
 73
    80
  0
VERTEX
  5
36E
  8
0
 62
     9
 10
0.0
 20
0.0
 30
0.0
 70
   128
 71
    81
 72
    95
 73
   241
  0
VERTEX
  5
36F
  8
0
 62
     9
 10
0.0
 20
0.0
 30
0.0
 70
   128
 71
   241
 72
   237
 73
    81
  0
VERTEX
  5
370
  8
0
 62
     9
 10
0.0
 20
0.0
 30
0.0
 70
   128
 71
    80
 72
   230
 73
   235
  0
VERTEX
  5
371
  8
0
 62
     9
 10
0.0
 20
0.0
 30
0.0
 70
   128
 71
   237
 72
   230
 73
    78
  0
VERTEX
  5
372
  8
0
 62
     9
 10
0.0
 20
0.0
 30
0.0
 70
   128
 71
   238
 72
    88
 73
    89
  0
VERTEX
  5
373
  8
0
 62
     9
 10
0.0
 20
0.0
 30
0.0
 70
   128
 71
   235
 72
    89
 73
    80
  0
VERTEX
  5
374
  8
0
 62
     9
 10
0.0
 20
0.0
 30
0.0
 70
   128
 71
   244
 72
    87
 73
   239
  0
VERTEX
  5
375
  8
0
 62
     9
 10
0.0
 20
0.0
 30
0.0
 70
   128
 71
   239
 72
    88
 73
   238
  0
VERTEX
  5
376
  8
0
 62
     9
 10
0.0
 20
0.0
 30
0.0
 70
   128
 71
    87
 72
   244
 73
    93
  0
VERTEX
  5
377
  8
0
 62
     9
 10
0.0
 20
0.0
 30
0.0
 70
   128
 71
   241
 72
    95
 73
    97
  0
VERTEX
  5
378
  8
0
 62
     9
 10
0.0
 20
0.0
 30
0.0
 70
   128
 71
   245
 72
    97
 73
   100
  0
VERTEX
  5
379
  8
0
 62
     9
 10
0.0
 20
0.0
 30
0.0
 70
   128
 71
   245
 72
   241
 73
    97
  0
VERTEX
  5
37A
  8
0
 62
     9
 10
0.0
 20
0.0
 30
0.0
 70
   128
 71
   218
 72
   245
 73
   100
  0
VERTEX
  5
37B
  8
0
 62
     9
 10
0.0
 20
0.0
 30
0.0
 70
   128
 71
   247
 72
   208
 73
   246
  0
VERTEX
  5
37C
  8
0
 62
     9
 10
0.0
 20
0.0
 30
0.0
 70
   128
 71
   233
 72
   246
 73
   158
  0
VERTEX
  5
37D
  8
0
 62
     9
 10
0.0
 20
0.0
 30
0.0
 70
   128
 71
   205
 72
    74
 73
   162
  0
VERTEX
  5
37E
  8
0
 62
     9
 10
0.0
 20
0.0
 30
0.0
 70
   128
 71
   246
 72
   162
 73
   158
  0
VERTEX
  5
37F
  8
0
 62
     9
 10
0.0
 20
0.0
 30
0.0
 70
   128
 71
   247
 72
   246
 73
   233
  0
VERTEX
  5
380
  8
0
 62
     9
 10
0.0
 20
0.0
 30
0.0
 70
   128
 71
   233
 72
   227
 73
   247
  0
VERTEX
  5
381
  8
0
 62
     9
 10
0.0
 20
0.0
 30
0.0
 70
   128
 71
   246
 72
   205
 73
   162
  0
VERTEX
  5
382
  8
0
 62
     9
 10
0.0
 20
0.0
 30
0.0
 70
   128
 71
   205
 72
   246
 73
   208
  0
VERTEX
  5
383
  8
0
 62
     9
 10
0.0
 20
0.0
 30
0.0
 70
   128
 71
   248
 72
   226
 73
   224
  0
VERTEX
  5
384
  8
0
 62
     9
 10
0.0
 20
0.0
 30
0.0
 70
   128
 71
   225
 72
   247
 73
   248
  0
VERTEX
  5
385
  8
0
 62
     9
 10
0.0
 20
0.0
 30
0.0
 70
   128
 71
   234
 72
   226
 73
   248
  0
VERTEX
  5
386
  8
0
 62
     9
 10
0.0
 20
0.0
 30
0.0
 70
   128
 71
   225
 72
   208
 73
   247
  0
VERTEX
  5
387
  8
0
 62
     9
 10
0.0
 20
0.0
 30
0.0
 70
   128
 71
   227
 72
   234
 73
   247
  0
VERTEX
  5
388
  8
0
 62
     9
 10
0.0
 20
0.0
 30
0.0
 70
   128
 71
   234
 72
   248
 73
   247
  0
VERTEX
  5
389
  8
0
 62
     9
 10
0.0
 20
0.0
 30
0.0
 70
   128
 71
   248
 72
   224
 73
   225
  0
VERTEX
  5
38A
  8
0
 62
     9
 10
0.0
 20
0.0
 30
0.0
 70
   128
 71
   242
 72
   243
 73
     1
  0
VERTEX
  5
38B
  8
0
 62
     9
 10
0.0
 20
0.0
 30
0.0
 70
   128
 71
     2
 72
    12
 73
   155
  0
VERTEX
  5
38C
  8
0
 62
     9
 10
0.0
 20
0.0
 30
0.0
 70
   128
 71
   231
 72
    18
 73
   236
  0
VERTEX
  5
38D
  8
0
 62
     9
 10
0.0
 20
0.0
 30
0.0
 70
   128
 71
    16
 72
   240
 73
    17
  0
VERTEX
  5
38E
  8
0
 62
     9
 10
0.0
 20
0.0
 30
0.0
 70
   128
 71
   228
 72
     3
 73
    13
  0
VERTEX
  5
38F
  8
0
 62
     9
 10
0.0
 20
0.0
 30
0.0
 70
   128
 71
    14
 72
   232
 73
    13
  0
VERTEX
  5
390
  8
0
 62
     9
 10
0.0
 20
0.0
 30
0.0
 70
   128
 71
    15
 72
     3
 73
   229
  0
VERTEX
  5
391
  8
0
 62
     9
 10
0.0
 20
0.0
 30
0.0
 70
   128
 71
   228
 72
   229
 73
     3
  0
VERTEX
  5
392
  8
0
 62
     9
 10
0.0
 20
0.0
 30
0.0
 70
   128
 71
    14
 72
   231
 73
   232
  0
VERTEX
  5
393
  8
0
 62
     9
 10
0.0
 20
0.0
 30
0.0
 70
   128
 71
   137
 72
    15
 73
   229
  0
VERTEX
  5
394
  8
0
 62
     9
 10
0.0
 20
0.0
 30
0.0
 70
   128
 71
   228
 72
    13
 73
   232
  0
VERTEX
  5
395
  8
0
 62
     9
 10
0.0
 20
0.0
 30
0.0
 70
   128
 71
    18
 72
    17
 73
   236
  0
VERTEX
  5
396
  8
0
 62
     9
 10
0.0
 20
0.0
 30
0.0
 70
   128
 71
    14
 72
    18
 73
   231
  0
VERTEX
  5
397
  8
0
 62
     9
 10
0.0
 20
0.0
 30
0.0
 70
   128
 71
    16
 72
   243
 73
   240
  0
VERTEX
  5
398
  8
0
 62
     9
 10
0.0
 20
0.0
 30
0.0
 70
   128
 71
    17
 72
   240
 73
   236
  0
VERTEX
  5
399
  8
0
 62
     9
 10
0.0
 20
0.0
 30
0.0
 70
   128
 71
     2
 72
   242
 73
     1
  0
VERTEX
  5
39A
  8
0
 62
     9
 10
0.0
 20
0.0
 30
0.0
 70
   128
 71
     1
 72
   243
 73
    16
  0
VERTEX
  5
39B
  8
0
 62
     9
 10
0.0
 20
0.0
 30
0.0
 70
   128
 71
   242
 72
     2
 73
   155
  0
SEQEND
  5
39C
  8
0
 62
     9
  0
ENDBLK
  5
39F
  8
0
  0
BLOCK
  8
0
  2
40
 70
     0
 10
0.0
 20
0.0
 30
0.0
  3
40
  1

  0
POLYLINE
  5
3A1
  8
0
 62
     9
 66
     1
 10
0.0
 20
0.0
 30
0.0
 70
    64
 71
   105
 72
   198
  0
VERTEX
  5
3A2
  8
0
 10
-46.82535934448242
 20
1.736972808837891
 30
64.46687316894531
 70
   192
  0
VERTEX
  5
3A3
  8
0
 10
-35.45498657226562
 20
1.009989023208618
 30
65.21295928955078
 70
   192
  0
VERTEX
  5
3A4
  8
0
 10
-46.82535934448242
 20
0.9686596393585205
 30
65.22382354736328
 70
   192
  0
VERTEX
  5
3A5
  8
0
 10
-35.45498657226562
 20
1.999999403953552
 30
63.47882080078125
 70
   192
  0
VERTEX
  5
3A6
  8
0
 10
-46.82535934448242
 20
1.745003819465637
 30
62.51016235351562
 70
   192
  0
VERTEX
  5
3A7
  8
0
 10
-35.45498657226562
 20
1.718163847923279
 30
62.47317886352539
 70
   192
  0
VERTEX
  5
3A8
  8
0
 10
-35.45498657226562
 20
-0.000000646063711
 30
65.47882080078125
 70
   192
  0
VERTEX
  5
3A9
  8
0
 10
-46.82535934448242
 20
-0.000000646063711
 30
65.47882080078125
 70
   192
  0
VERTEX
  5
3AA
  8
0
 10
-35.45498657226562
 20
1.732784152030945
 30
64.47343444824219
 70
   192
  0
VERTEX
  5
3AB
  8
0
 10
-46.82535934448242
 20
1.999999403953552
 30
63.47882080078125
 70
   192
  0
VERTEX
  5
3AC
  8
0
 10
-35.45498657226562
 20
0.9862236976623535
 30
61.74963760375977
 70
   192
  0
VERTEX
  5
3AD
  8
0
 10
-46.82535934448242
 20
0.9880480766296387
 30
61.74184799194336
 70
   192
  0
VERTEX
  5
3AE
  8
0
 10
-35.45498657226562
 20
-0.000000646063711
 30
61.47882080078125
 70
   192
  0
VERTEX
  5
3AF
  8
0
 10
-46.82535934448242
 20
-0.000000646063711
 30
61.47882080078125
 70
   192
  0
VERTEX
  5
3B0
  8
0
 10
-32.44544219970703
 20
1.855999350547791
 30
62.66538238525391
 70
   192
  0
VERTEX
  5
3B1
  8
0
 10
-33.6641960144043
 20
1.811691641807556
 30
61.7799072265625
 70
   192
  0
VERTEX
  5
3B2
  8
0
 10
-32.6018180847168
 20
1.999999403953552
 30
61.4058723449707
 70
   192
  0
VERTEX
  5
3B3
  8
0
 10
-34.24636840820312
 20
0.9862236976623535
 30
60.87152481079102
 70
   192
  0
VERTEX
  5
3B4
  8
0
 10
-34.44881820678711
 20
0.9304608702659607
 30
61.20984649658203
 70
   192
  0
VERTEX
  5
3B5
  8
0
 10
-34.68556594848633
 20
-0.000000646063711
 30
61.03783798217773
 70
   192
  0
VERTEX
  5
3B6
  8
0
 10
-31.65588569641113
 20
1.732784152030945
 30
61.71322631835938
 70
   192
  0
VERTEX
  5
3B7
  8
0
 10
-30.95255661010742
 20
1.009989023208618
 30
61.94174957275391
 70
   192
  0
VERTEX
  5
3B8
  8
0
 10
-31.60306930541992
 20
0.9698455333709717
 30
63.27740478515625
 70
   192
  0
VERTEX
  5
3B9
  8
0
 10
-30.69970321655273
 20
-0.000000646063711
 30
62.02390670776367
 70
   192
  0
VERTEX
  5
3BA
  8
0
 10
-31.4099006652832
 20
-0.000000646063711
 30
63.41774749755859
 70
   192
  0
VERTEX
  5
3BB
  8
0
 10
-32.63496780395508
 20
0.8577590584754944
 30
64.36024475097656
 70
   192
  0
VERTEX
  5
3BC
  8
0
 10
-32.51605987548828
 20
-0.000000646063711
 30
64.52391052246094
 70
   192
  0
VERTEX
  5
3BD
  8
0
 10
-33.55824279785156
 20
1.718163847923279
 30
61.09511184692383
 70
   192
  0
VERTEX
  5
3BE
  8
0
 10
-33.94860458374023
 20
1.949758410453796
 30
62.55217742919922
 70
   192
  0
VERTEX
  5
3BF
  8
0
 10
-34.42203521728516
 20
1.567878723144531
 30
61.90055847167969
 70
   192
  0
VERTEX
  5
3C0
  8
0
 10
-34.86720275878906
 20
-0.000000646063711
 30
61.28783798217773
 70
   192
  0
VERTEX
  5
3C1
  8
0
 10
-34.75365447998047
 20
0.8750734925270081
 30
61.44412231445312
 70
   192
  0
VERTEX
  5
3C2
  8
0
 10
-34.50392913818359
 20
-0.000000646063711
 30
60.78783798217773
 70
   192
  0
VERTEX
  5
3C3
  8
0
 10
-33.42488861083984
 20
1.94343900680542
 30
63.27301406860352
 70
   192
  0
VERTEX
  5
3C4
  8
0
 10
-32.95756530761719
 20
1.549447059631348
 30
63.91622543334961
 70
   192
  0
VERTEX
  5
3C5
  8
0
 10
-34.30544281005859
 20
1.855999350547791
 30
64.01675415039062
 70
   192
  0
VERTEX
  5
3C6
  8
0
 10
-34.77096557617188
 20
1.811691641807556
 30
62.58402252197266
 70
   192
  0
VERTEX
  5
3C7
  8
0
 10
-35.07066345214844
 20
0.9304608702659607
 30
61.66164398193359
 70
   192
  0
VERTEX
  5
3C8
  8
0
 10
-35.16109466552734
 20
-0.000000646063711
 30
61.38333129882812
 70
   192
  0
VERTEX
  5
3C9
  8
0
 10
-33.98368453979492
 20
0.9698455333709717
 30
65.00701904296875
 70
   192
  0
VERTEX
  5
3CA
  8
0
 10
-33.9099006652832
 20
-0.000000646063711
 30
65.2341079711914
 70
   192
  0
VERTEX
  5
3CB
  8
0
 10
-32.95756530761719
 20
-1.549448370933533
 30
63.91622543334961
 70
   192
  0
VERTEX
  5
3CC
  8
0
 10
-33.98520660400391
 20
-0.9304621815681458
 30
65.0023422241211
 70
   192
  0
VERTEX
  5
3CD
  8
0
 10
-32.63496780395508
 20
-0.8577603697776794
 30
64.36024475097656
 70
   192
  0
VERTEX
  5
3CE
  8
0
 10
-34.28490447998047
 20
-1.811692953109741
 30
64.07996368408203
 70
   192
  0
VERTEX
  5
3CF
  8
0
 10
-34.75042724609375
 20
-1.856000661849976
 30
62.64723205566406
 70
   192
  0
VERTEX
  5
3D0
  8
0
 10
-35.45498657226562
 20
-2.000000715255737
 30
63.47882080078125
 70
   192
  0
VERTEX
  5
3D1
  8
0
 10
-35.45498657226562
 20
-1.009990334510803
 30
65.21295928955078
 70
   192
  0
VERTEX
  5
3D2
  8
0
 10
-35.07218551635742
 20
-0.969846785068512
 30
61.65696334838867
 70
   192
  0
VERTEX
  5
3D3
  8
0
 10
-34.75365447998047
 20
-0.8750748038291931
 30
61.44412231445312
 70
   192
  0
VERTEX
  5
3D4
  8
0
 10
-34.42203521728516
 20
-1.567879915237427
 30
61.90055847167969
 70
   192
  0
VERTEX
  5
3D5
  8
0
 10
-33.42488861083984
 20
-1.943440318107605
 30
63.27301406860352
 70
   192
  0
VERTEX
  5
3D6
  8
0
 10
-33.94860458374023
 20
-1.949759721755981
 30
62.55217742919922
 70
   192
  0
VERTEX
  5
3D7
  8
0
 10
-35.45498657226562
 20
-0.9862249493598938
 30
61.74963760375977
 70
   192
  0
VERTEX
  5
3D8
  8
0
 10
-35.45498657226562
 20
-1.718165159225464
 30
62.47317886352539
 70
   192
  0
VERTEX
  5
3D9
  8
0
 10
-35.45498657226562
 20
-1.73278546333313
 30
64.47343444824219
 70
   192
  0
VERTEX
  5
3DA
  8
0
 10
-15.08066368103027
 20
1.900710940361023
 30
9.492897033691406
 70
   192
  0
VERTEX
  5
3DB
  8
0
 10
-16.37807273864746
 20
1.902565121650696
 30
9.492897033691406
 70
   192
  0
VERTEX
  5
3DC
  8
0
 10
-14.02943992614746
 20
1.168656706809998
 30
9.492897033691406
 70
   192
  0
VERTEX
  5
3DD
  8
0
 10
-13.63134384155273
 20
-0.000000646063711
 30
9.492897033691406
 70
   192
  0
VERTEX
  5
3DE
  8
0
 10
-17.4307689666748
 20
1.180510401725769
 30
9.492897033691406
 70
   192
  0
VERTEX
  5
3DF
  8
0
 10
-17.83719253540039
 20
-0.000000646063711
 30
9.492897033691406
 70
   192
  0
VERTEX
  5
3E0
  8
0
 10
-48.52688217163086
 20
-0.5130805969238281
 30
62.58807373046875
 70
   192
  0
VERTEX
  5
3E1
  8
0
 10
-48.52688217163086
 20
-0.8907471895217896
 30
62.96574401855469
 70
   192
  0
VERTEX
  5
3E2
  8
0
 10
-47.86021423339844
 20
-1.464576482772827
 30
62.63521194458008
 70
   192
  0
VERTEX
  5
3E3
  8
0
 10
-46.82535934448242
 20
-1.010266661643982
 30
61.74472045898438
 70
   192
  0
VERTEX
  5
3E4
  8
0
 10
-47.86021423339844
 20
-0.8436126708984375
 30
62.01424789428711
 70
   192
  0
VERTEX
  5
3E5
  8
0
 10
-46.82535934448242
 20
-1.730575323104858
 30
62.48394393920898
 70
   192
  0
VERTEX
  5
3E6
  8
0
 10
-48.82535934448242
 20
-0.000000646063711
 30
63.47882080078125
 70
   192
  0
VERTEX
  5
3E7
  8
0
 10
-48.56233215332031
 20
-0.000000646081844
 30
62.49077224731445
 70
   192
  0
VERTEX
  5
3E8
  8
0
 10
-46.82535934448242
 20
-2.000000715255737
 30
63.47882080078125
 70
   192
  0
VERTEX
  5
3E9
  8
0
 10
-47.81340789794922
 20
-1.736974120140076
 30
63.47882080078125
 70
   192
  0
VERTEX
  5
3EA
  8
0
 10
-47.79401779174805
 20
-0.0000006460795134
 30
61.73381805419922
 70
   192
  0
VERTEX
  5
3EB
  8
0
 10
-48.57036209106445
 20
-0.9686609506607056
 30
63.47882080078125
 70
   192
  0
VERTEX
  5
3EC
  8
0
 10
-48.52688217163086
 20
0.8907458782196045
 30
62.96574401855469
 70
   192
  0
VERTEX
  5
3ED
  8
0
 10
-48.52688217163086
 20
0.5130792856216431
 30
62.58807373046875
 70
   192
  0
VERTEX
  5
3EE
  8
0
 10
-47.86021423339844
 20
0.8436113595962524
 30
62.01424789428711
 70
   192
  0
VERTEX
  5
3EF
  8
0
 10
-47.86021423339844
 20
1.464575171470642
 30
62.63521194458008
 70
   192
  0
VERTEX
  5
3F0
  8
0
 10
-48.56233215332031
 20
0.9880480766296387
 30
63.47882080078125
 70
   192
  0
VERTEX
  5
3F1
  8
0
 10
-47.79401779174805
 20
1.745003819465637
 30
63.47882080078125
 70
   192
  0
VERTEX
  5
3F2
  8
0
 10
-48.52688217163086
 20
0.5130792856216431
 30
64.36956787109375
 70
   192
  0
VERTEX
  5
3F3
  8
0
 10
-48.52688217163086
 20
0.8907458782196045
 30
63.99190139770508
 70
   192
  0
VERTEX
  5
3F4
  8
0
 10
-47.86021423339844
 20
1.464575171470642
 30
64.32243347167969
 70
   192
  0
VERTEX
  5
3F5
  8
0
 10
-47.86021423339844
 20
0.8436113595962524
 30
64.94339752197266
 70
   192
  0
VERTEX
  5
3F6
  8
0
 10
-48.56233215332031
 20
-0.0000006460738859
 30
64.46687316894531
 70
   192
  0
VERTEX
  5
3F7
  8
0
 10
-47.79401779174805
 20
-0.0000006460728059
 30
65.22382354736328
 70
   192
  0
VERTEX
  5
3F8
  8
0
 10
-47.86021423339844
 20
-0.8436126708984375
 30
64.94339752197266
 70
   192
  0
VERTEX
  5
3F9
  8
0
 10
-48.52688217163086
 20
-0.8907471895217896
 30
63.99190139770508
 70
   192
  0
VERTEX
  5
3FA
  8
0
 10
-48.52688217163086
 20
-0.5130805969238281
 30
64.36956787109375
 70
   192
  0
VERTEX
  5
3FB
  8
0
 10
-47.86021423339844
 20
-1.464576482772827
 30
64.32243347167969
 70
   192
  0
VERTEX
  5
3FC
  8
0
 10
-46.82535934448242
 20
-0.9862249493598938
 30
65.2080078125
 70
   192
  0
VERTEX
  5
3FD
  8
0
 10
-46.82535934448242
 20
-1.718165159225464
 30
64.48446655273438
 70
   192
  0
VERTEX
  5
3FE
  8
0
 10
-30.95255661010742
 20
-1.009990334510803
 30
61.94174957275391
 70
   192
  0
VERTEX
  5
3FF
  8
0
 10
-33.55824279785156
 20
-1.718165159225464
 30
61.09511184692383
 70
   192
  0
VERTEX
  5
400
  8
0
 10
-32.6018180847168
 20
-2.000000715255737
 30
61.4058723449707
 70
   192
  0
VERTEX
  5
401
  8
0
 10
-16.38787269592285
 20
-1.900712251663208
 30
9.492897033691406
 70
   192
  0
VERTEX
  5
402
  8
0
 10
-31.65588569641113
 20
-1.73278546333313
 30
61.71322631835938
 70
   192
  0
VERTEX
  5
403
  8
0
 10
-14.03776836395264
 20
-1.180511713027954
 30
9.492897033691406
 70
   192
  0
VERTEX
  5
404
  8
0
 10
-15.0904655456543
 20
-1.902566432952881
 30
9.492897033691406
 70
   192
  0
VERTEX
  5
405
  8
0
 10
-34.24636840820312
 20
-0.9862249493598938
 30
60.87152481079102
 70
   192
  0
VERTEX
  5
406
  8
0
 10
-17.43909645080566
 20
-1.168657898902893
 30
9.492897033691406
 70
   192
  0
VERTEX
  5
407
  8
0
 10
-32.39167404174805
 20
-1.811692953109741
 30
62.70444869995117
 70
   192
  0
VERTEX
  5
408
  8
0
 10
-31.60705375671387
 20
-0.9304621815681458
 30
63.27450942993164
 70
   192
  0
VERTEX
  5
409
  8
0
 10
-33.61042785644531
 20
-1.856000661849976
 30
61.81897354125977
 70
   192
  0
VERTEX
  5
40A
  8
0
 10
-34.45280075073242
 20
-0.969846785068512
 30
61.20695114135742
 70
   192
  0
VERTEX
  5
40B
  8
0
 62
     9
 10
0.0
 20
0.0
 30
0.0
 70
   128
 71
     3
 72
     2
 73
     1
  0
VERTEX
  5
40C
  8
0
 62
     9
 10
0.0
 20
0.0
 30
0.0
 70
   128
 71
     6
 72
     5
 73
     4
  0
VERTEX
  5
40D
  8
0
 62
     9
 10
0.0
 20
0.0
 30
0.0
 70
   128
 71
     7
 72
     2
 73
     3
  0
VERTEX
  5
40E
  8
0
 62
     9
 10
0.0
 20
0.0
 30
0.0
 70
   128
 71
     8
 72
     7
 73
     3
  0
VERTEX
  5
40F
  8
0
 62
     9
 10
0.0
 20
0.0
 30
0.0
 70
   128
 71
     2
 72
     9
 73
     1
  0
VERTEX
  5
410
  8
0
 62
     9
 10
0.0
 20
0.0
 30
0.0
 70
   128
 71
    10
 72
     9
 73
     4
  0
VERTEX
  5
411
  8
0
 62
     9
 10
0.0
 20
0.0
 30
0.0
 70
   128
 71
     9
 72
    10
 73
     1
  0
VERTEX
  5
412
  8
0
 62
     9
 10
0.0
 20
0.0
 30
0.0
 70
   128
 71
    12
 72
     6
 73
    11
  0
VERTEX
  5
413
  8
0
 62
     9
 10
0.0
 20
0.0
 30
0.0
 70
   128
 71
    14
 72
    11
 73
    13
  0
VERTEX
  5
414
  8
0
 62
     9
 10
0.0
 20
0.0
 30
0.0
 70
   128
 71
     5
 72
     6
 73
    12
  0
VERTEX
  5
415
  8
0
 62
     9
 10
0.0
 20
0.0
 30
0.0
 70
   128
 71
    14
 72
    12
 73
    11
  0
VERTEX
  5
416
  8
0
 62
     9
 10
0.0
 20
0.0
 30
0.0
 70
   128
 71
     5
 72
    10
 73
     4
  0
VERTEX
  5
417
  8
0
 62
     9
 10
0.0
 20
0.0
 30
0.0
 70
   128
 71
    17
 72
    16
 73
    15
  0
VERTEX
  5
418
  8
0
 62
     9
 10
0.0
 20
0.0
 30
0.0
 70
   128
 71
    20
 72
    19
 73
    18
  0
VERTEX
  5
419
  8
0
 62
     9
 10
0.0
 20
0.0
 30
0.0
 70
   128
 71
    15
 72
    22
 73
    21
  0
VERTEX
  5
41A
  8
0
 62
     9
 10
0.0
 20
0.0
 30
0.0
 70
   128
 71
    17
 72
    15
 73
    21
  0
VERTEX
  5
41B
  8
0
 62
     9
 10
0.0
 20
0.0
 30
0.0
 70
   128
 71
    24
 72
    22
 73
    23
  0
VERTEX
  5
41C
  8
0
 62
     9
 10
0.0
 20
0.0
 30
0.0
 70
   128
 71
    23
 72
    26
 73
    25
  0
VERTEX
  5
41D
  8
0
 62
     9
 10
0.0
 20
0.0
 30
0.0
 70
   128
 71
    23
 72
    25
 73
    24
  0
VERTEX
  5
41E
  8
0
 62
     9
 10
0.0
 20
0.0
 30
0.0
 70
   128
 71
    27
 72
    25
 73
    26
  0
VERTEX
  5
41F
  8
0
 62
     9
 10
0.0
 20
0.0
 30
0.0
 70
   128
 71
    17
 72
    28
 73
    16
  0
VERTEX
  5
420
  8
0
 62
     9
 10
0.0
 20
0.0
 30
0.0
 70
   128
 71
    16
 72
    29
 73
    15
  0
VERTEX
  5
421
  8
0
 62
     9
 10
0.0
 20
0.0
 30
0.0
 70
   128
 71
    29
 72
    16
 73
    30
  0
VERTEX
  5
422
  8
0
 62
     9
 10
0.0
 20
0.0
 30
0.0
 70
   128
 71
    28
 72
    19
 73
    16
  0
VERTEX
  5
423
  8
0
 62
     9
 10
0.0
 20
0.0
 30
0.0
 70
   128
 71
    20
 72
    31
 73
    19
  0
VERTEX
  5
424
  8
0
 62
     9
 10
0.0
 20
0.0
 30
0.0
 70
   128
 71
    32
 72
    19
 73
    31
  0
VERTEX
  5
425
  8
0
 62
     9
 10
0.0
 20
0.0
 30
0.0
 70
   128
 71
    33
 72
    20
 73
    18
  0
VERTEX
  5
426
  8
0
 62
     9
 10
0.0
 20
0.0
 30
0.0
 70
   128
 71
    19
 72
    32
 73
    30
  0
VERTEX
  5
427
  8
0
 62
     9
 10
0.0
 20
0.0
 30
0.0
 70
   128
 71
    18
 72
    19
 73
    28
  0
VERTEX
  5
428
  8
0
 62
     9
 10
0.0
 20
0.0
 30
0.0
 70
   128
 71
    16
 72
    19
 73
    30
  0
VERTEX
  5
429
  8
0
 62
     9
 10
0.0
 20
0.0
 30
0.0
 70
   128
 71
    34
 72
    15
 73
    29
  0
VERTEX
  5
42A
  8
0
 62
     9
 10
0.0
 20
0.0
 30
0.0
 70
   128
 71
    35
 72
    15
 73
    34
  0
VERTEX
  5
42B
  8
0
 62
     9
 10
0.0
 20
0.0
 30
0.0
 70
   128
 71
    26
 72
    23
 73
    35
  0
VERTEX
  5
42C
  8
0
 62
     9
 10
0.0
 20
0.0
 30
0.0
 70
   128
 71
    23
 72
    15
 73
    35
  0
VERTEX
  5
42D
  8
0
 62
     9
 10
0.0
 20
0.0
 30
0.0
 70
   128
 71
    15
 72
    23
 73
    22
  0
VERTEX
  5
42E
  8
0
 62
     9
 10
0.0
 20
0.0
 30
0.0
 70
   128
 71
    34
 72
    37
 73
    36
  0
VERTEX
  5
42F
  8
0
 62
     9
 10
0.0
 20
0.0
 30
0.0
 70
   128
 71
    39
 72
    38
 73
    32
  0
VERTEX
  5
430
  8
0
 62
     9
 10
0.0
 20
0.0
 30
0.0
 70
   128
 71
    26
 72
    35
 73
    40
  0
VERTEX
  5
431
  8
0
 62
     9
 10
0.0
 20
0.0
 30
0.0
 70
   128
 71
    35
 72
    36
 73
    40
  0
VERTEX
  5
432
  8
0
 62
     9
 10
0.0
 20
0.0
 30
0.0
 70
   128
 71
    27
 72
    40
 73
    41
  0
VERTEX
  5
433
  8
0
 62
     9
 10
0.0
 20
0.0
 30
0.0
 70
   128
 71
    26
 72
    40
 73
    27
  0
VERTEX
  5
434
  8
0
 62
     9
 10
0.0
 20
0.0
 30
0.0
 70
   128
 71
     7
 72
    41
 73
     2
  0
VERTEX
  5
435
  8
0
 62
     9
 10
0.0
 20
0.0
 30
0.0
 70
   128
 71
    34
 72
    29
 73
    37
  0
VERTEX
  5
436
  8
0
 62
     9
 10
0.0
 20
0.0
 30
0.0
 70
   128
 71
    35
 72
    34
 73
    36
  0
VERTEX
  5
437
  8
0
 62
     9
 10
0.0
 20
0.0
 30
0.0
 70
   128
 71
    37
 72
    30
 73
    38
  0
VERTEX
  5
438
  8
0
 62
     9
 10
0.0
 20
0.0
 30
0.0
 70
   128
 71
     9
 72
    36
 73
     4
  0
VERTEX
  5
439
  8
0
 62
     9
 10
0.0
 20
0.0
 30
0.0
 70
   128
 71
    39
 72
    13
 73
    38
  0
VERTEX
  5
43A
  8
0
 62
     9
 10
0.0
 20
0.0
 30
0.0
 70
   128
 71
    30
 72
    37
 73
    29
  0
VERTEX
  5
43B
  8
0
 62
     9
 10
0.0
 20
0.0
 30
0.0
 70
   128
 71
    11
 72
    38
 73
    13
  0
VERTEX
  5
43C
  8
0
 62
     9
 10
0.0
 20
0.0
 30
0.0
 70
   128
 71
    31
 72
    39
 73
    32
  0
VERTEX
  5
43D
  8
0
 62
     9
 10
0.0
 20
0.0
 30
0.0
 70
   128
 71
    11
 72
     6
 73
    37
  0
VERTEX
  5
43E
  8
0
 62
     9
 10
0.0
 20
0.0
 30
0.0
 70
   128
 71
    32
 72
    38
 73
    30
  0
VERTEX
  5
43F
  8
0
 62
     9
 10
0.0
 20
0.0
 30
0.0
 70
   128
 71
    37
 72
    38
 73
    11
  0
VERTEX
  5
440
  8
0
 62
     9
 10
0.0
 20
0.0
 30
0.0
 70
   128
 71
    37
 72
     6
 73
     4
  0
VERTEX
  5
441
  8
0
 62
     9
 10
0.0
 20
0.0
 30
0.0
 70
   128
 71
    36
 72
    37
 73
     4
  0
VERTEX
  5
442
  8
0
 62
     9
 10
0.0
 20
0.0
 30
0.0
 70
   128
 71
     2
 72
    40
 73
     9
  0
VERTEX
  5
443
  8
0
 62
     9
 10
0.0
 20
0.0
 30
0.0
 70
   128
 71
    40
 72
    36
 73
     9
  0
VERTEX
  5
444
  8
0
 62
     9
 10
0.0
 20
0.0
 30
0.0
 70
   128
 71
    40
 72
     2
 73
    41
  0
VERTEX
  5
445
  8
0
 62
     9
 10
0.0
 20
0.0
 30
0.0
 70
   128
 71
    44
 72
    43
 73
    42
  0
VERTEX
  5
446
  8
0
 62
     9
 10
0.0
 20
0.0
 30
0.0
 70
   128
 71
    43
 72
    45
 73
    42
  0
VERTEX
  5
447
  8
0
 62
     9
 10
0.0
 20
0.0
 30
0.0
 70
   128
 71
    47
 72
    46
 73
    45
  0
VERTEX
  5
448
  8
0
 62
     9
 10
0.0
 20
0.0
 30
0.0
 70
   128
 71
     7
 72
    48
 73
    41
  0
VERTEX
  5
449
  8
0
 62
     9
 10
0.0
 20
0.0
 30
0.0
 70
   128
 71
    50
 72
    49
 73
    39
  0
VERTEX
  5
44A
  8
0
 62
     9
 10
0.0
 20
0.0
 30
0.0
 70
   128
 71
    46
 72
    49
 73
    51
  0
VERTEX
  5
44B
  8
0
 62
     9
 10
0.0
 20
0.0
 30
0.0
 70
   128
 71
    49
 72
    13
 73
    39
  0
VERTEX
  5
44C
  8
0
 62
     9
 10
0.0
 20
0.0
 30
0.0
 70
   128
 71
    53
 72
    52
 73
    46
  0
VERTEX
  5
44D
  8
0
 62
     9
 10
0.0
 20
0.0
 30
0.0
 70
   128
 71
    31
 72
    50
 73
    39
  0
VERTEX
  5
44E
  8
0
 62
     9
 10
0.0
 20
0.0
 30
0.0
 70
   128
 71
    54
 72
    13
 73
    49
  0
VERTEX
  5
44F
  8
0
 62
     9
 10
0.0
 20
0.0
 30
0.0
 70
   128
 71
    46
 72
    47
 73
    55
  0
VERTEX
  5
450
  8
0
 62
     9
 10
0.0
 20
0.0
 30
0.0
 70
   128
 71
    46
 72
    52
 73
    45
  0
VERTEX
  5
451
  8
0
 62
     9
 10
0.0
 20
0.0
 30
0.0
 70
   128
 71
    41
 72
    48
 73
    43
  0
VERTEX
  5
452
  8
0
 62
     9
 10
0.0
 20
0.0
 30
0.0
 70
   128
 71
    45
 72
    43
 73
    56
  0
VERTEX
  5
453
  8
0
 62
     9
 10
0.0
 20
0.0
 30
0.0
 70
   128
 71
    43
 72
    27
 73
    41
  0
VERTEX
  5
454
  8
0
 62
     9
 10
0.0
 20
0.0
 30
0.0
 70
   128
 71
    44
 72
    27
 73
    43
  0
VERTEX
  5
455
  8
0
 62
     9
 10
0.0
 20
0.0
 30
0.0
 70
   128
 71
    56
 72
    43
 73
    48
  0
VERTEX
  5
456
  8
0
 62
     9
 10
0.0
 20
0.0
 30
0.0
 70
   128
 71
    45
 72
    56
 73
    47
  0
VERTEX
  5
457
  8
0
 62
     9
 10
0.0
 20
0.0
 30
0.0
 70
   128
 71
    45
 72
    52
 73
    42
  0
VERTEX
  5
458
  8
0
 62
     9
 10
0.0
 20
0.0
 30
0.0
 70
   128
 71
    46
 72
    55
 73
    54
  0
VERTEX
  5
459
  8
0
 62
     9
 10
0.0
 20
0.0
 30
0.0
 70
   128
 71
    53
 72
    46
 73
    51
  0
VERTEX
  5
45A
  8
0
 62
     9
 10
0.0
 20
0.0
 30
0.0
 70
   128
 71
    54
 72
    49
 73
    46
  0
VERTEX
  5
45B
  8
0
 62
     9
 10
0.0
 20
0.0
 30
0.0
 70
   128
 71
    49
 72
    50
 73
    51
  0
VERTEX
  5
45C
  8
0
 62
     9
 10
0.0
 20
0.0
 30
0.0
 70
   128
 71
    58
 72
    17
 73
    57
  0
VERTEX
  5
45D
  8
0
 62
     9
 10
0.0
 20
0.0
 30
0.0
 70
   128
 71
    59
 72
    57
 73
    21
  0
VERTEX
  5
45E
  8
0
 62
     9
 10
0.0
 20
0.0
 30
0.0
 70
   128
 71
    17
 72
    21
 73
    57
  0
VERTEX
  5
45F
  8
0
 62
     9
 10
0.0
 20
0.0
 30
0.0
 70
   128
 71
    22
 72
    60
 73
    59
  0
VERTEX
  5
460
  8
0
 62
     9
 10
0.0
 20
0.0
 30
0.0
 70
   128
 71
    59
 72
    21
 73
    22
  0
VERTEX
  5
461
  8
0
 62
     9
 10
0.0
 20
0.0
 30
0.0
 70
   128
 71
    24
 72
    60
 73
    22
  0
VERTEX
  5
462
  8
0
 62
     9
 10
0.0
 20
0.0
 30
0.0
 70
   128
 71
    28
 72
    17
 73
    58
  0
VERTEX
  5
463
  8
0
 62
     9
 10
0.0
 20
0.0
 30
0.0
 70
   128
 71
    61
 72
    18
 73
    28
  0
VERTEX
  5
464
  8
0
 62
     9
 10
0.0
 20
0.0
 30
0.0
 70
   128
 71
    28
 72
    58
 73
    61
  0
VERTEX
  5
465
  8
0
 62
     9
 10
0.0
 20
0.0
 30
0.0
 70
   128
 71
    62
 72
    18
 73
    61
  0
VERTEX
  5
466
  8
0
 62
     9
 10
0.0
 20
0.0
 30
0.0
 70
   128
 71
    62
 72
    33
 73
    18
  0
VERTEX
  5
467
  8
0
 62
     9
 10
0.0
 20
0.0
 30
0.0
 70
   128
 71
    65
 72
    64
 73
    63
  0
VERTEX
  5
468
  8
0
 62
     9
 10
0.0
 20
0.0
 30
0.0
 70
   128
 71
    68
 72
    67
 73
    66
  0
VERTEX
  5
469
  8
0
 62
     9
 10
0.0
 20
0.0
 30
0.0
 70
   128
 71
    70
 72
    63
 73
    69
  0
VERTEX
  5
46A
  8
0
 62
     9
 10
0.0
 20
0.0
 30
0.0
 70
   128
 71
    72
 72
    65
 73
    71
  0
VERTEX
  5
46B
  8
0
 62
     9
 10
0.0
 20
0.0
 30
0.0
 70
   128
 71
    64
 72
    69
 73
    63
  0
VERTEX
  5
46C
  8
0
 62
     9
 10
0.0
 20
0.0
 30
0.0
 70
   128
 71
    66
 72
    73
 73
    14
  0
VERTEX
  5
46D
  8
0
 62
     9
 10
0.0
 20
0.0
 30
0.0
 70
   128
 71
    67
 72
    68
 73
    65
  0
VERTEX
  5
46E
  8
0
 62
     9
 10
0.0
 20
0.0
 30
0.0
 70
   128
 71
    70
 72
    73
 73
    67
  0
VERTEX
  5
46F
  8
0
 62
     9
 10
0.0
 20
0.0
 30
0.0
 70
   128
 71
    65
 72
    63
 73
    67
  0
VERTEX
  5
470
  8
0
 62
     9
 10
0.0
 20
0.0
 30
0.0
 70
   128
 71
    74
 72
    64
 73
    72
  0
VERTEX
  5
471
  8
0
 62
     9
 10
0.0
 20
0.0
 30
0.0
 70
   128
 71
    64
 72
    74
 73
    69
  0
VERTEX
  5
472
  8
0
 62
     9
 10
0.0
 20
0.0
 30
0.0
 70
   128
 71
    67
 72
    63
 73
    70
  0
VERTEX
  5
473
  8
0
 62
     9
 10
0.0
 20
0.0
 30
0.0
 70
   128
 71
    66
 72
    67
 73
    73
  0
VERTEX
  5
474
  8
0
 62
     9
 10
0.0
 20
0.0
 30
0.0
 70
   128
 71
    65
 72
    68
 73
    71
  0
VERTEX
  5
475
  8
0
 62
     9
 10
0.0
 20
0.0
 30
0.0
 70
   128
 71
    65
 72
    72
 73
    64
  0
VERTEX
  5
476
  8
0
 62
     9
 10
0.0
 20
0.0
 30
0.0
 70
   128
 71
    77
 72
    76
 73
    75
  0
VERTEX
  5
477
  8
0
 62
     9
 10
0.0
 20
0.0
 30
0.0
 70
   128
 71
    12
 72
    78
 73
     5
  0
VERTEX
  5
478
  8
0
 62
     9
 10
0.0
 20
0.0
 30
0.0
 70
   128
 71
    79
 72
    75
 73
    69
  0
VERTEX
  5
479
  8
0
 62
     9
 10
0.0
 20
0.0
 30
0.0
 70
   128
 71
    73
 72
    77
 73
    14
  0
VERTEX
  5
47A
  8
0
 62
     9
 10
0.0
 20
0.0
 30
0.0
 70
   128
 71
    76
 72
    69
 73
    75
  0
VERTEX
  5
47B
  8
0
 62
     9
 10
0.0
 20
0.0
 30
0.0
 70
   128
 71
     5
 72
    80
 73
    10
  0
VERTEX
  5
47C
  8
0
 62
     9
 10
0.0
 20
0.0
 30
0.0
 70
   128
 71
    78
 72
    12
 73
    77
  0
VERTEX
  5
47D
  8
0
 62
     9
 10
0.0
 20
0.0
 30
0.0
 70
   128
 71
    79
 72
    80
 73
    78
  0
VERTEX
  5
47E
  8
0
 62
     9
 10
0.0
 20
0.0
 30
0.0
 70
   128
 71
    77
 72
    75
 73
    78
  0
VERTEX
  5
47F
  8
0
 62
     9
 10
0.0
 20
0.0
 30
0.0
 70
   128
 71
    70
 72
    76
 73
    73
  0
VERTEX
  5
480
  8
0
 62
     9
 10
0.0
 20
0.0
 30
0.0
 70
   128
 71
    76
 72
    70
 73
    69
  0
VERTEX
  5
481
  8
0
 62
     9
 10
0.0
 20
0.0
 30
0.0
 70
   128
 71
    78
 72
    75
 73
    79
  0
VERTEX
  5
482
  8
0
 62
     9
 10
0.0
 20
0.0
 30
0.0
 70
   128
 71
     5
 72
    78
 73
    80
  0
VERTEX
  5
483
  8
0
 62
     9
 10
0.0
 20
0.0
 30
0.0
 70
   128
 71
    77
 72
    12
 73
    14
  0
VERTEX
  5
484
  8
0
 62
     9
 10
0.0
 20
0.0
 30
0.0
 70
   128
 71
    77
 72
    73
 73
    76
  0
VERTEX
  5
485
  8
0
 62
     9
 10
0.0
 20
0.0
 30
0.0
 70
   128
 71
    83
 72
    82
 73
    81
  0
VERTEX
  5
486
  8
0
 62
     9
 10
0.0
 20
0.0
 30
0.0
 70
   128
 71
     1
 72
    84
 73
     3
  0
VERTEX
  5
487
  8
0
 62
     9
 10
0.0
 20
0.0
 30
0.0
 70
   128
 71
    85
 72
    81
 73
    69
  0
VERTEX
  5
488
  8
0
 62
     9
 10
0.0
 20
0.0
 30
0.0
 70
   128
 71
    80
 72
    83
 73
    10
  0
VERTEX
  5
489
  8
0
 62
     9
 10
0.0
 20
0.0
 30
0.0
 70
   128
 71
    82
 72
    69
 73
    81
  0
VERTEX
  5
48A
  8
0
 62
     9
 10
0.0
 20
0.0
 30
0.0
 70
   128
 71
     3
 72
    86
 73
     8
  0
VERTEX
  5
48B
  8
0
 62
     9
 10
0.0
 20
0.0
 30
0.0
 70
   128
 71
    84
 72
     1
 73
    83
  0
VERTEX
  5
48C
  8
0
 62
     9
 10
0.0
 20
0.0
 30
0.0
 70
   128
 71
    85
 72
    86
 73
    84
  0
VERTEX
  5
48D
  8
0
 62
     9
 10
0.0
 20
0.0
 30
0.0
 70
   128
 71
    83
 72
    81
 73
    84
  0
VERTEX
  5
48E
  8
0
 62
     9
 10
0.0
 20
0.0
 30
0.0
 70
   128
 71
    79
 72
    82
 73
    80
  0
VERTEX
  5
48F
  8
0
 62
     9
 10
0.0
 20
0.0
 30
0.0
 70
   128
 71
    82
 72
    79
 73
    69
  0
VERTEX
  5
490
  8
0
 62
     9
 10
0.0
 20
0.0
 30
0.0
 70
   128
 71
    84
 72
    81
 73
    85
  0
VERTEX
  5
491
  8
0
 62
     9
 10
0.0
 20
0.0
 30
0.0
 70
   128
 71
     3
 72
    84
 73
    86
  0
VERTEX
  5
492
  8
0
 62
     9
 10
0.0
 20
0.0
 30
0.0
 70
   128
 71
    83
 72
     1
 73
    10
  0
VERTEX
  5
493
  8
0
 62
     9
 10
0.0
 20
0.0
 30
0.0
 70
   128
 71
    83
 72
    80
 73
    82
  0
VERTEX
  5
494
  8
0
 62
     9
 10
0.0
 20
0.0
 30
0.0
 70
   128
 71
    89
 72
    88
 73
    87
  0
VERTEX
  5
495
  8
0
 62
     9
 10
0.0
 20
0.0
 30
0.0
 70
   128
 71
    91
 72
    87
 73
    90
  0
VERTEX
  5
496
  8
0
 62
     9
 10
0.0
 20
0.0
 30
0.0
 70
   128
 71
     8
 72
    86
 73
    87
  0
VERTEX
  5
497
  8
0
 62
     9
 10
0.0
 20
0.0
 30
0.0
 70
   128
 71
    71
 72
    92
 73
    72
  0
VERTEX
  5
498
  8
0
 62
     9
 10
0.0
 20
0.0
 30
0.0
 70
   128
 71
    74
 72
    88
 73
    69
  0
VERTEX
  5
499
  8
0
 62
     9
 10
0.0
 20
0.0
 30
0.0
 70
   128
 71
    92
 72
    91
 73
    90
  0
VERTEX
  5
49A
  8
0
 62
     9
 10
0.0
 20
0.0
 30
0.0
 70
   128
 71
    88
 72
    89
 73
    69
  0
VERTEX
  5
49B
  8
0
 62
     9
 10
0.0
 20
0.0
 30
0.0
 70
   128
 71
    74
 72
    72
 73
    90
  0
VERTEX
  5
49C
  8
0
 62
     9
 10
0.0
 20
0.0
 30
0.0
 70
   128
 71
    87
 72
    88
 73
    90
  0
VERTEX
  5
49D
  8
0
 62
     9
 10
0.0
 20
0.0
 30
0.0
 70
   128
 71
    85
 72
    89
 73
    86
  0
VERTEX
  5
49E
  8
0
 62
     9
 10
0.0
 20
0.0
 30
0.0
 70
   128
 71
    89
 72
    85
 73
    69
  0
VERTEX
  5
49F
  8
0
 62
     9
 10
0.0
 20
0.0
 30
0.0
 70
   128
 71
    90
 72
    88
 73
    74
  0
VERTEX
  5
4A0
  8
0
 62
     9
 10
0.0
 20
0.0
 30
0.0
 70
   128
 71
    92
 72
    90
 73
    72
  0
VERTEX
  5
4A1
  8
0
 62
     9
 10
0.0
 20
0.0
 30
0.0
 70
   128
 71
    87
 72
    91
 73
     8
  0
VERTEX
  5
4A2
  8
0
 62
     9
 10
0.0
 20
0.0
 30
0.0
 70
   128
 71
    87
 72
    86
 73
    89
  0
VERTEX
  5
4A3
  8
0
 62
     9
 10
0.0
 20
0.0
 30
0.0
 70
   128
 71
    60
 72
    24
 73
    93
  0
VERTEX
  5
4A4
  8
0
 62
     9
 10
0.0
 20
0.0
 30
0.0
 70
   128
 71
    96
 72
    95
 73
    94
  0
VERTEX
  5
4A5
  8
0
 62
     9
 10
0.0
 20
0.0
 30
0.0
 70
   128
 71
    99
 72
    98
 73
    97
  0
VERTEX
  5
4A6
  8
0
 62
     9
 10
0.0
 20
0.0
 30
0.0
 70
   128
 71
    62
 72
   101
 73
   100
  0
VERTEX
  5
4A7
  8
0
 62
     9
 10
0.0
 20
0.0
 30
0.0
 70
   128
 71
    94
 72
   100
 73
   101
  0
VERTEX
  5
4A8
  8
0
 62
     9
 10
0.0
 20
0.0
 30
0.0
 70
   128
 71
    62
 72
   100
 73
    33
  0
VERTEX
  5
4A9
  8
0
 62
     9
 10
0.0
 20
0.0
 30
0.0
 70
   128
 71
    96
 72
    94
 73
   101
  0
VERTEX
  5
4AA
  8
0
 62
     9
 10
0.0
 20
0.0
 30
0.0
 70
   128
 71
    98
 72
    93
 73
    97
  0
VERTEX
  5
4AB
  8
0
 62
     9
 10
0.0
 20
0.0
 30
0.0
 70
   128
 71
    99
 72
    97
 73
    95
  0
VERTEX
  5
4AC
  8
0
 62
     9
 10
0.0
 20
0.0
 30
0.0
 70
   128
 71
    95
 72
    96
 73
    99
  0
VERTEX
  5
4AD
  8
0
 62
     9
 10
0.0
 20
0.0
 30
0.0
 70
   128
 71
    98
 72
    60
 73
    93
  0
VERTEX
  5
4AE
  8
0
 62
     9
 10
0.0
 20
0.0
 30
0.0
 70
   128
 71
    42
 72
    52
 73
   102
  0
VERTEX
  5
4AF
  8
0
 62
     9
 10
0.0
 20
0.0
 30
0.0
 70
   128
 71
   103
 72
   102
 73
    93
  0
VERTEX
  5
4B0
  8
0
 62
     9
 10
0.0
 20
0.0
 30
0.0
 70
   128
 71
    51
 72
   104
 73
    53
  0
VERTEX
  5
4B1
  8
0
 62
     9
 10
0.0
 20
0.0
 30
0.0
 70
   128
 71
    27
 72
    44
 73
    25
  0
VERTEX
  5
4B2
  8
0
 62
     9
 10
0.0
 20
0.0
 30
0.0
 70
   128
 71
    33
 72
   100
 73
    20
  0
VERTEX
  5
4B3
  8
0
 62
     9
 10
0.0
 20
0.0
 30
0.0
 70
   128
 71
    94
 72
    95
 73
   104
  0
VERTEX
  5
4B4
  8
0
 62
     9
 10
0.0
 20
0.0
 30
0.0
 70
   128
 71
    20
 72
   105
 73
    31
  0
VERTEX
  5
4B5
  8
0
 62
     9
 10
0.0
 20
0.0
 30
0.0
 70
   128
 71
   105
 72
    20
 73
   100
  0
VERTEX
  5
4B6
  8
0
 62
     9
 10
0.0
 20
0.0
 30
0.0
 70
   128
 71
    95
 72
   102
 73
   104
  0
VERTEX
  5
4B7
  8
0
 62
     9
 10
0.0
 20
0.0
 30
0.0
 70
   128
 71
   105
 72
    94
 73
   104
  0
VERTEX
  5
4B8
  8
0
 62
     9
 10
0.0
 20
0.0
 30
0.0
 70
   128
 71
    94
 72
   105
 73
   100
  0
VERTEX
  5
4B9
  8
0
 62
     9
 10
0.0
 20
0.0
 30
0.0
 70
   128
 71
    42
 72
   102
 73
   103
  0
VERTEX
  5
4BA
  8
0
 62
     9
 10
0.0
 20
0.0
 30
0.0
 70
   128
 71
   102
 72
    95
 73
    97
  0
VERTEX
  5
4BB
  8
0
 62
     9
 10
0.0
 20
0.0
 30
0.0
 70
   128
 71
    24
 72
    25
 73
   103
  0
VERTEX
  5
4BC
  8
0
 62
     9
 10
0.0
 20
0.0
 30
0.0
 70
   128
 71
    25
 72
    44
 73
   103
  0
VERTEX
  5
4BD
  8
0
 62
     9
 10
0.0
 20
0.0
 30
0.0
 70
   128
 71
    93
 72
    24
 73
   103
  0
VERTEX
  5
4BE
  8
0
 62
     9
 10
0.0
 20
0.0
 30
0.0
 70
   128
 71
    42
 72
   103
 73
    44
  0
VERTEX
  5
4BF
  8
0
 62
     9
 10
0.0
 20
0.0
 30
0.0
 70
   128
 71
    52
 72
    53
 73
   102
  0
VERTEX
  5
4C0
  8
0
 62
     9
 10
0.0
 20
0.0
 30
0.0
 70
   128
 71
   102
 72
    97
 73
    93
  0
VERTEX
  5
4C1
  8
0
 62
     9
 10
0.0
 20
0.0
 30
0.0
 70
   128
 71
   104
 72
   102
 73
    53
  0
VERTEX
  5
4C2
  8
0
 62
     9
 10
0.0
 20
0.0
 30
0.0
 70
   128
 71
    51
 72
    50
 73
   105
  0
VERTEX
  5
4C3
  8
0
 62
     9
 10
0.0
 20
0.0
 30
0.0
 70
   128
 71
   105
 72
   104
 73
    51
  0
VERTEX
  5
4C4
  8
0
 62
     9
 10
0.0
 20
0.0
 30
0.0
 70
   128
 71
    50
 72
    31
 73
   105
  0
VERTEX
  5
4C5
  8
0
 62
     9
 10
0.0
 20
0.0
 30
0.0
 70
   128
 71
     8
 72
    91
 73
    48
  0
VERTEX
  5
4C6
  8
0
 62
     9
 10
0.0
 20
0.0
 30
0.0
 70
   128
 71
    55
 72
    71
 73
    68
  0
VERTEX
  5
4C7
  8
0
 62
     9
 10
0.0
 20
0.0
 30
0.0
 70
   128
 71
    47
 72
    56
 73
    92
  0
VERTEX
  5
4C8
  8
0
 62
     9
 10
0.0
 20
0.0
 30
0.0
 70
   128
 71
    13
 72
    54
 73
    66
  0
VERTEX
  5
4C9
  8
0
 62
     9
 10
0.0
 20
0.0
 30
0.0
 70
   128
 71
    68
 72
    66
 73
    54
  0
VERTEX
  5
4CA
  8
0
 62
     9
 10
0.0
 20
0.0
 30
0.0
 70
   128
 71
    13
 72
    66
 73
    14
  0
VERTEX
  5
4CB
  8
0
 62
     9
 10
0.0
 20
0.0
 30
0.0
 70
   128
 71
    71
 72
    55
 73
    47
  0
VERTEX
  5
4CC
  8
0
 62
     9
 10
0.0
 20
0.0
 30
0.0
 70
   128
 71
    55
 72
    68
 73
    54
  0
VERTEX
  5
4CD
  8
0
 62
     9
 10
0.0
 20
0.0
 30
0.0
 70
   128
 71
    56
 72
    91
 73
    92
  0
VERTEX
  5
4CE
  8
0
 62
     9
 10
0.0
 20
0.0
 30
0.0
 70
   128
 71
    47
 72
    92
 73
    71
  0
VERTEX
  5
4CF
  8
0
 62
     9
 10
0.0
 20
0.0
 30
0.0
 70
   128
 71
    48
 72
     7
 73
     8
  0
VERTEX
  5
4D0
  8
0
 62
     9
 10
0.0
 20
0.0
 30
0.0
 70
   128
 71
    56
 72
    48
 73
    91
  0
SEQEND
  5
4D1
  8
0
 62
     9
  0
ENDBLK
  5
4D4
  8
0
  0
BLOCK
  8
0
  2
41
 70
     0
 10
0.0
 20
0.0
 30
0.0
  3
41
  1

  0
POLYLINE
  5
4D6
  8
0
 62
     9
 66
     1
 10
0.0
 20
0.0
 30
0.0
 70
    64
 71
    48
 72
    70
  0
VERTEX
  5
4D7
  8
0
 10
14.47977161407471
 20
-3.892650604248047
 30
100.5
 70
   192
  0
VERTEX
  5
4D8
  8
0
 10
14.99821662902832
 20
-0.0126499934121966
 30
117.5
 70
   192
  0
VERTEX
  5
4D9
  8
0
 10
15.0
 20
-0.000000646063711
 30
100.5
 70
   192
  0
VERTEX
  5
4DA
  8
0
 10
14.4867992401123
 20
-3.887927532196045
 30
117.5
 70
   192
  0
VERTEX
  5
4DB
  8
0
 10
12.97359752655029
 20
-7.505289554595947
 30
100.5
 70
   192
  0
VERTEX
  5
4DC
  8
0
 10
10.59341335296631
 20
-10.60331153869629
 30
100.5
 70
   192
  0
VERTEX
  5
4DD
  8
0
 10
12.98962497711182
 20
-7.502426147460938
 30
117.5
 70
   192
  0
VERTEX
  5
4DE
  8
0
 10
7.483700275421143
 20
-12.98766613006592
 30
100.5
 70
   192
  0
VERTEX
  5
4DF
  8
0
 10
10.59864234924316
 20
-10.61241817474365
 30
117.5
 70
   192
  0
VERTEX
  5
4E0
  8
0
 10
7.493683338165283
 20
-12.99336624145508
 30
117.5
 70
   192
  0
VERTEX
  5
4E1
  8
0
 10
3.870504856109619
 20
-14.48342800140381
 30
100.5
 70
   192
  0
VERTEX
  5
4E2
  8
0
 10
0.0000000000000018
 20
-15.00000095367432
 30
100.5
 70
   192
  0
VERTEX
  5
4E3
  8
0
 10
3.88027024269104
 20
-14.4896411895752
 30
117.5
 70
   192
  0
VERTEX
  5
4E4
  8
0
 10
0.0000000000000028
 20
-15.00000095367432
 30
117.5
 70
   192
  0
VERTEX
  5
4E5
  8
0
 10
14.48995018005371
 20
3.879951238632202
 30
117.5
 70
   192
  0
VERTEX
  5
4E6
  8
0
 10
12.99323177337646
 20
7.493717670440674
 30
117.5
 70
   192
  0
VERTEX
  5
4E7
  8
0
 10
14.48938465118408
 20
3.876648664474487
 30
100.5
 70
   192
  0
VERTEX
  5
4E8
  8
0
 10
10.6120138168335
 20
10.59970092773438
 30
117.5
 70
   192
  0
VERTEX
  5
4E9
  8
0
 10
12.99781227111816
 20
7.498326301574707
 30
100.5
 70
   192
  0
VERTEX
  5
4EA
  8
0
 10
10.60920810699463
 20
10.61509799957275
 30
100.5
 70
   192
  0
VERTEX
  5
4EB
  8
0
 10
7.504647254943848
 20
12.987548828125
 30
117.5
 70
   192
  0
VERTEX
  5
4EC
  8
0
 10
3.890890598297119
 20
14.48584461212158
 30
117.5
 70
   192
  0
VERTEX
  5
4ED
  8
0
 10
7.504810333251953
 20
12.99590682983398
 30
100.5
 70
   192
  0
VERTEX
  5
4EE
  8
0
 10
0.0000000000000009
 20
14.99999904632568
 30
117.5
 70
   192
  0
VERTEX
  5
4EF
  8
0
 10
3.888553380966187
 20
14.49507141113281
 30
100.5
 70
   192
  0
VERTEX
  5
4F0
  8
0
 10
0.0
 20
14.99999904632568
 30
100.5
 70
   192
  0
VERTEX
  5
4F1
  8
0
 10
-3.888553380966187
 20
-14.49507331848145
 30
100.5
 70
   192
  0
VERTEX
  5
4F2
  8
0
 10
-3.890890598297119
 20
-14.48584651947021
 30
117.5
 70
   192
  0
VERTEX
  5
4F3
  8
0
 10
-14.48938465118408
 20
-3.876649856567383
 30
100.5
 70
   192
  0
VERTEX
  5
4F4
  8
0
 10
-12.99323177337646
 20
-7.49371862411499
 30
117.5
 70
   192
  0
VERTEX
  5
4F5
  8
0
 10
-12.99781227111816
 20
-7.498327732086182
 30
100.5
 70
   192
  0
VERTEX
  5
4F6
  8
0
 10
-7.504647254943848
 20
-12.98755073547363
 30
117.5
 70
   192
  0
VERTEX
  5
4F7
  8
0
 10
-7.504810333251953
 20
-12.99590873718262
 30
100.5
 70
   192
  0
VERTEX
  5
4F8
  8
0
 10
-10.60920810699463
 20
-10.61509895324707
 30
100.5
 70
   192
  0
VERTEX
  5
4F9
  8
0
 10
-14.47977161407471
 20
3.892649173736572
 30
100.5
 70
   192
  0
VERTEX
  5
4FA
  8
0
 10
-12.97359752655029
 20
7.505288600921631
 30
100.5
 70
   192
  0
VERTEX
  5
4FB
  8
0
 10
-14.4867992401123
 20
3.887926340103149
 30
117.5
 70
   192
  0
VERTEX
  5
4FC
  8
0
 10
-14.48995018005371
 20
-3.879952669143677
 30
117.5
 70
   192
  0
VERTEX
  5
4FD
  8
0
 10
-15.0
 20
-0.000000646063711
 30
100.5
 70
   192
  0
VERTEX
  5
4FE
  8
0
 10
-14.99821662902832
 20
0.0126487016677856
 30
117.5
 70
   192
  0
VERTEX
  5
4FF
  8
0
 10
-10.59341335296631
 20
10.60330963134766
 30
100.5
 70
   192
  0
VERTEX
  5
500
  8
0
 10
-7.483700275421143
 20
12.9876651763916
 30
100.5
 70
   192
  0
VERTEX
  5
501
  8
0
 10
-10.59864234924316
 20
10.61241626739502
 30
117.5
 70
   192
  0
VERTEX
  5
502
  8
0
 10
-12.98962497711182
 20
7.502424716949463
 30
117.5
 70
   192
  0
VERTEX
  5
503
  8
0
 10
-3.870504856109619
 20
14.48342609405518
 30
100.5
 70
   192
  0
VERTEX
  5
504
  8
0
 10
-7.493683338165283
 20
12.99336528778076
 30
117.5
 70
   192
  0
VERTEX
  5
505
  8
0
 10
-3.88027024269104
 20
14.48964023590088
 30
117.5
 70
   192
  0
VERTEX
  5
506
  8
0
 10
-10.6120138168335
 20
-10.59970283508301
 30
117.5
 70
   192
  0
VERTEX
  5
507
  8
0
 62
     9
 10
0.0
 20
0.0
 30
0.0
 70
   128
 71
     3
 72
     2
 73
     1
  0
VERTEX
  5
508
  8
0
 62
     9
 10
0.0
 20
0.0
 30
0.0
 70
   128
 71
     5
 72
     1
 73
     4
  0
VERTEX
  5
509
  8
0
 62
     9
 10
0.0
 20
0.0
 30
0.0
 70
   128
 71
     2
 72
     4
 73
     1
  0
VERTEX
  5
50A
  8
0
 62
     9
 10
0.0
 20
0.0
 30
0.0
 70
   128
 71
     7
 72
     6
 73
     5
  0
VERTEX
  5
50B
  8
0
 62
     9
 10
0.0
 20
0.0
 30
0.0
 70
   128
 71
     5
 72
     4
 73
     7
  0
VERTEX
  5
50C
  8
0
 62
     9
 10
0.0
 20
0.0
 30
0.0
 70
   128
 71
     6
 72
     9
 73
     8
  0
VERTEX
  5
50D
  8
0
 62
     9
 10
0.0
 20
0.0
 30
0.0
 70
   128
 71
     9
 72
     6
 73
     7
  0
VERTEX
  5
50E
  8
0
 62
     9
 10
0.0
 20
0.0
 30
0.0
 70
   128
 71
    11
 72
     8
 73
    10
  0
VERTEX
  5
50F
  8
0
 62
     9
 10
0.0
 20
0.0
 30
0.0
 70
   128
 71
     9
 72
    10
 73
     8
  0
VERTEX
  5
510
  8
0
 62
     9
 10
0.0
 20
0.0
 30
0.0
 70
   128
 71
    13
 72
    12
 73
    11
  0
VERTEX
  5
511
  8
0
 62
     9
 10
0.0
 20
0.0
 30
0.0
 70
   128
 71
    11
 72
    10
 73
    13
  0
VERTEX
  5
512
  8
0
 62
     9
 10
0.0
 20
0.0
 30
0.0
 70
   128
 71
    14
 72
    12
 73
    13
  0
VERTEX
  5
513
  8
0
 62
     9
 10
0.0
 20
0.0
 30
0.0
 70
   128
 71
    15
 72
     2
 73
     3
  0
VERTEX
  5
514
  8
0
 62
     9
 10
0.0
 20
0.0
 30
0.0
 70
   128
 71
    17
 72
    16
 73
    15
  0
VERTEX
  5
515
  8
0
 62
     9
 10
0.0
 20
0.0
 30
0.0
 70
   128
 71
    15
 72
     3
 73
    17
  0
VERTEX
  5
516
  8
0
 62
     9
 10
0.0
 20
0.0
 30
0.0
 70
   128
 71
    16
 72
    19
 73
    18
  0
VERTEX
  5
517
  8
0
 62
     9
 10
0.0
 20
0.0
 30
0.0
 70
   128
 71
    19
 72
    16
 73
    17
  0
VERTEX
  5
518
  8
0
 62
     9
 10
0.0
 20
0.0
 30
0.0
 70
   128
 71
    21
 72
    18
 73
    20
  0
VERTEX
  5
519
  8
0
 62
     9
 10
0.0
 20
0.0
 30
0.0
 70
   128
 71
    19
 72
    20
 73
    18
  0
VERTEX
  5
51A
  8
0
 62
     9
 10
0.0
 20
0.0
 30
0.0
 70
   128
 71
    23
 72
    22
 73
    21
  0
VERTEX
  5
51B
  8
0
 62
     9
 10
0.0
 20
0.0
 30
0.0
 70
   128
 71
    21
 72
    20
 73
    23
  0
VERTEX
  5
51C
  8
0
 62
     9
 10
0.0
 20
0.0
 30
0.0
 70
   128
 71
    22
 72
    25
 73
    24
  0
VERTEX
  5
51D
  8
0
 62
     9
 10
0.0
 20
0.0
 30
0.0
 70
   128
 71
    25
 72
    22
 73
    23
  0
VERTEX
  5
51E
  8
0
 62
     9
 10
0.0
 20
0.0
 30
0.0
 70
   128
 71
    25
 72
    26
 73
    24
  0
VERTEX
  5
51F
  8
0
 62
     9
 10
0.0
 20
0.0
 30
0.0
 70
   128
 71
    14
 72
    28
 73
    27
  0
VERTEX
  5
520
  8
0
 62
     9
 10
0.0
 20
0.0
 30
0.0
 70
   128
 71
    31
 72
    30
 73
    29
  0
VERTEX
  5
521
  8
0
 62
     9
 10
0.0
 20
0.0
 30
0.0
 70
   128
 71
    34
 72
    33
 73
    32
  0
VERTEX
  5
522
  8
0
 62
     9
 10
0.0
 20
0.0
 30
0.0
 70
   128
 71
    37
 72
    36
 73
    35
  0
VERTEX
  5
523
  8
0
 62
     9
 10
0.0
 20
0.0
 30
0.0
 70
   128
 71
    40
 72
    39
 73
    38
  0
VERTEX
  5
524
  8
0
 62
     9
 10
0.0
 20
0.0
 30
0.0
 70
   128
 71
    43
 72
    42
 73
    41
  0
VERTEX
  5
525
  8
0
 62
     9
 10
0.0
 20
0.0
 30
0.0
 70
   128
 71
    41
 72
    36
 73
    44
  0
VERTEX
  5
526
  8
0
 62
     9
 10
0.0
 20
0.0
 30
0.0
 70
   128
 71
    42
 72
    46
 73
    45
  0
VERTEX
  5
527
  8
0
 62
     9
 10
0.0
 20
0.0
 30
0.0
 70
   128
 71
    46
 72
    42
 73
    43
  0
VERTEX
  5
528
  8
0
 62
     9
 10
0.0
 20
0.0
 30
0.0
 70
   128
 71
    26
 72
    45
 73
    47
  0
VERTEX
  5
529
  8
0
 62
     9
 10
0.0
 20
0.0
 30
0.0
 70
   128
 71
    46
 72
    47
 73
    45
  0
VERTEX
  5
52A
  8
0
 62
     9
 10
0.0
 20
0.0
 30
0.0
 70
   128
 71
    26
 72
    47
 73
    24
  0
VERTEX
  5
52B
  8
0
 62
     9
 10
0.0
 20
0.0
 30
0.0
 70
   128
 71
    36
 72
    37
 73
    44
  0
VERTEX
  5
52C
  8
0
 62
     9
 10
0.0
 20
0.0
 30
0.0
 70
   128
 71
    43
 72
    41
 73
    44
  0
VERTEX
  5
52D
  8
0
 62
     9
 10
0.0
 20
0.0
 30
0.0
 70
   128
 71
    40
 72
    35
 73
    39
  0
VERTEX
  5
52E
  8
0
 62
     9
 10
0.0
 20
0.0
 30
0.0
 70
   128
 71
    37
 72
    35
 73
    40
  0
VERTEX
  5
52F
  8
0
 62
     9
 10
0.0
 20
0.0
 30
0.0
 70
   128
 71
    30
 72
    38
 73
    29
  0
VERTEX
  5
530
  8
0
 62
     9
 10
0.0
 20
0.0
 30
0.0
 70
   128
 71
    38
 72
    39
 73
    29
  0
VERTEX
  5
531
  8
0
 62
     9
 10
0.0
 20
0.0
 30
0.0
 70
   128
 71
    34
 72
    48
 73
    31
  0
VERTEX
  5
532
  8
0
 62
     9
 10
0.0
 20
0.0
 30
0.0
 70
   128
 71
    48
 72
    30
 73
    31
  0
VERTEX
  5
533
  8
0
 62
     9
 10
0.0
 20
0.0
 30
0.0
 70
   128
 71
    33
 72
    28
 73
    32
  0
VERTEX
  5
534
  8
0
 62
     9
 10
0.0
 20
0.0
 30
0.0
 70
   128
 71
    34
 72
    32
 73
    48
  0
VERTEX
  5
535
  8
0
 62
     9
 10
0.0
 20
0.0
 30
0.0
 70
   128
 71
    27
 72
    12
 73
    14
  0
VERTEX
  5
536
  8
0
 62
     9
 10
0.0
 20
0.0
 30
0.0
 70
   128
 71
    33
 72
    27
 73
    28
  0
VERTEX
  5
537
  8
0
 62
     9
 10
0.0
 20
0.0
 30
0.0
 70
   128
 71
    21
 72
    22
 73
    30
  0
VERTEX
  5
538
  8
0
 62
     9
 10
0.0
 20
0.0
 30
0.0
 70
   128
 71
    37
 72
    43
 73
    44
  0
VERTEX
  5
539
  8
0
 62
     9
 10
0.0
 20
0.0
 30
0.0
 70
   128
 71
    43
 72
    37
 73
    46
  0
VERTEX
  5
53A
  8
0
 62
     9
 10
0.0
 20
0.0
 30
0.0
 70
   128
 71
    40
 72
    47
 73
    37
  0
VERTEX
  5
53B
  8
0
 62
     9
 10
0.0
 20
0.0
 30
0.0
 70
   128
 71
    37
 72
    47
 73
    46
  0
VERTEX
  5
53C
  8
0
 62
     9
 10
0.0
 20
0.0
 30
0.0
 70
   128
 71
    38
 72
    22
 73
    40
  0
VERTEX
  5
53D
  8
0
 62
     9
 10
0.0
 20
0.0
 30
0.0
 70
   128
 71
    24
 72
    47
 73
    40
  0
VERTEX
  5
53E
  8
0
 62
     9
 10
0.0
 20
0.0
 30
0.0
 70
   128
 71
    28
 72
     2
 73
    15
  0
VERTEX
  5
53F
  8
0
 62
     9
 10
0.0
 20
0.0
 30
0.0
 70
   128
 71
    16
 72
    18
 73
    48
  0
VERTEX
  5
540
  8
0
 62
     9
 10
0.0
 20
0.0
 30
0.0
 70
   128
 71
    13
 72
     2
 73
    14
  0
VERTEX
  5
541
  8
0
 62
     9
 10
0.0
 20
0.0
 30
0.0
 70
   128
 71
     4
 72
    10
 73
     9
  0
VERTEX
  5
542
  8
0
 62
     9
 10
0.0
 20
0.0
 30
0.0
 70
   128
 71
    13
 72
    10
 73
     4
  0
VERTEX
  5
543
  8
0
 62
     9
 10
0.0
 20
0.0
 30
0.0
 70
   128
 71
     4
 72
     9
 73
     7
  0
VERTEX
  5
544
  8
0
 62
     9
 10
0.0
 20
0.0
 30
0.0
 70
   128
 71
     2
 72
    13
 73
     4
  0
VERTEX
  5
545
  8
0
 62
     9
 10
0.0
 20
0.0
 30
0.0
 70
   128
 71
    15
 72
    16
 73
    28
  0
VERTEX
  5
546
  8
0
 62
     9
 10
0.0
 20
0.0
 30
0.0
 70
   128
 71
     2
 72
    28
 73
    14
  0
VERTEX
  5
547
  8
0
 62
     9
 10
0.0
 20
0.0
 30
0.0
 70
   128
 71
    16
 72
    48
 73
    32
  0
VERTEX
  5
548
  8
0
 62
     9
 10
0.0
 20
0.0
 30
0.0
 70
   128
 71
    28
 72
    16
 73
    32
  0
VERTEX
  5
549
  8
0
 62
     9
 10
0.0
 20
0.0
 30
0.0
 70
   128
 71
    18
 72
    21
 73
    30
  0
VERTEX
  5
54A
  8
0
 62
     9
 10
0.0
 20
0.0
 30
0.0
 70
   128
 71
    48
 72
    18
 73
    30
  0
VERTEX
  5
54B
  8
0
 62
     9
 10
0.0
 20
0.0
 30
0.0
 70
   128
 71
    22
 72
    24
 73
    40
  0
VERTEX
  5
54C
  8
0
 62
     9
 10
0.0
 20
0.0
 30
0.0
 70
   128
 71
    30
 72
    22
 73
    38
  0
SEQEND
  5
54D
  8
0
 62
     9
  0
ENDBLK
  5
550
  8
0
  0
BLOCK
  8
0
  2
42
 70
     0
 10
0.0
 20
0.0
 30
0.0
  3
42
  1

  0
POLYLINE
  5
552
  8
0
 62
     9
 66
     1
 10
0.0
 20
0.0
 30
0.0
 70
    64
 71
   138
 72
   256
  0
VERTEX
  5
553
  8
0
 10
9.942813873291016
 20
5.670789241790771
 30
214.5
 70
   192
  0
VERTEX
  5
554
  8
0
 10
10.93048000335693
 20
3.517734527587891
 30
118.5
 70
   192
  0
VERTEX
  5
555
  8
0
 10
11.5
 20
-0.000000646063711
 30
214.5
 70
   192
  0
VERTEX
  5
556
  8
0
 10
6.815220832824707
 20
9.310553550720215
 30
118.5
 70
   192
  0
VERTEX
  5
557
  8
0
 10
5.78245210647583
 20
9.87944507598877
 30
214.5
 70
   192
  0
VERTEX
  5
558
  8
0
 10
-0.0000000000000234
 20
11.49999904632568
 30
118.5
 70
   192
  0
VERTEX
  5
559
  8
0
 10
-0.0000000000000021
 20
11.49999904632568
 30
214.5
 70
   192
  0
VERTEX
  5
55A
  8
0
 10
10.89792919158936
 20
-3.587955474853516
 30
118.5
 70
   192
  0
VERTEX
  5
55B
  8
0
 10
9.971083641052246
 20
-5.809030055999756
 30
214.5
 70
   192
  0
VERTEX
  5
55C
  8
0
 10
6.664922714233398
 20
-9.2952299118042
 30
118.5
 70
   192
  0
VERTEX
  5
55D
  8
0
 10
5.7205491065979
 20
-9.9508056640625
 30
214.5
 70
   192
  0
VERTEX
  5
55E
  8
0
 10
-0.000000000000016
 20
-11.50000095367432
 30
118.5
 70
   192
  0
VERTEX
  5
55F
  8
0
 10
0.0000000000000053
 20
-11.50000095367432
 30
214.5
 70
   192
  0
VERTEX
  5
560
  8
0
 10
125.9474639892578
 20
10.41722965240479
 30
263.1850280761719
 70
   192
  0
VERTEX
  5
561
  8
0
 10
132.2092132568359
 20
10.67199897766113
 30
269.1687316894531
 70
   192
  0
VERTEX
  5
562
  8
0
 10
108.6461944580078
 20
10.41722965240479
 30
276.3941955566406
 70
   192
  0
VERTEX
  5
563
  8
0
 10
145.9612884521484
 20
10.67199897766113
 30
249.5697479248047
 70
   192
  0
VERTEX
  5
564
  8
0
 10
138.1943359375
 20
10.41722965240479
 30
245.7312316894531
 70
   192
  0
VERTEX
  5
565
  8
0
 10
148.8605804443359
 20
11.49999904632568
 30
227.5236206054688
 70
   192
  0
VERTEX
  5
566
  8
0
 10
88.6799545288086
 20
10.41722965240479
 30
283.6112365722656
 70
   192
  0
VERTEX
  5
567
  8
0
 10
112.7815170288086
 20
10.67199897766113
 30
284.0013732910156
 70
   192
  0
VERTEX
  5
568
  8
0
 10
90.3613052368164
 20
10.67199897766113
 30
292.1054382324219
 70
   192
  0
VERTEX
  5
569
  8
0
 10
115.6397552490234
 20
5.576614856719971
 30
289.25927734375
 70
   192
  0
VERTEX
  5
56A
  8
0
 10
91.5234146118164
 20
5.576614856719971
 30
297.9764099121094
 70
   192
  0
VERTEX
  5
56B
  8
0
 10
116.4519882202148
 20
-0.0000006460637678
 30
290.4169311523438
 70
   192
  0
VERTEX
  5
56C
  8
0
 10
91.89783477783203
 20
-0.0000006460637678
 30
299.3502197265625
 70
   192
  0
VERTEX
  5
56D
  8
0
 10
136.5371856689453
 20
5.576614856719971
 30
273.3045043945312
 70
   192
  0
VERTEX
  5
56E
  8
0
 10
67.56240844726562
 20
4.932117462158203
 30
299.5120544433594
 70
   192
  0
VERTEX
  5
56F
  8
0
 10
67.46102905273438
 20
-0.0000006460637678
 30
300.6708374023438
 70
   192
  0
VERTEX
  5
570
  8
0
 10
160.1858673095703
 20
-0.0000006460637678
 30
229.5205688476562
 70
   192
  0
VERTEX
  5
571
  8
0
 10
151.3296356201172
 20
5.576614856719971
 30
252.2228240966797
 70
   192
  0
VERTEX
  5
572
  8
0
 10
158.6803741455078
 20
5.807440280914307
 30
229.2551116943359
 70
   192
  0
VERTEX
  5
573
  8
0
 10
105.9839172363281
 20
5.350152969360352
 30
271.4967651367188
 70
   192
  0
VERTEX
  5
574
  8
0
 10
121.9162063598633
 20
5.350152969360352
 30
259.3327941894531
 70
   192
  0
VERTEX
  5
575
  8
0
 10
87.33436584472656
 20
-0.0000006460637678
 30
276.7679443359375
 70
   192
  0
VERTEX
  5
576
  8
0
 10
105.3813171386719
 20
-0.0000006460637678
 30
270.2552185058594
 70
   192
  0
VERTEX
  5
577
  8
0
 10
133.1940307617188
 20
5.350152969360352
 30
243.2600402832031
 70
   192
  0
VERTEX
  5
578
  8
0
 10
120.9560470581055
 20
-0.0000006460637678
 30
258.3174133300781
 70
   192
  0
VERTEX
  5
579
  8
0
 10
87.59751892089844
 20
5.350152969360352
 30
278.1427612304688
 70
   192
  0
VERTEX
  5
57A
  8
0
 10
131.9558563232422
 20
-0.0000006460637678
 30
242.6036376953125
 70
   192
  0
VERTEX
  5
57B
  8
0
 10
137.5352935791016
 20
-0.0000006460637678
 30
225.5266571044922
 70
   192
  0
VERTEX
  5
57C
  8
0
 10
139.0688171386719
 20
5.670789241790771
 30
225.7970581054688
 70
   192
  0
VERTEX
  5
57D
  8
0
 10
69.0860595703125
 20
9.015305519104004
 30
282.0966186523438
 70
   192
  0
VERTEX
  5
57E
  8
0
 10
69.36880493164062
 20
5.031675815582275
 30
278.8648986816406
 70
   192
  0
VERTEX
  5
57F
  8
0
 10
69.46560668945312
 20
-0.0000006460637678
 30
277.7583618164062
 70
   192
  0
VERTEX
  5
580
  8
0
 10
68.68241882324219
 20
11.21111392974854
 30
286.7102966308594
 70
   192
  0
VERTEX
  5
581
  8
0
 10
68.23589324951172
 20
11.17477703094482
 30
291.8140869140625
 70
   192
  0
VERTEX
  5
582
  8
0
 10
143.1659851074219
 20
9.87944507598877
 30
226.5195007324219
 70
   192
  0
VERTEX
  5
583
  8
0
 10
67.83745574951172
 20
8.909323692321777
 30
296.3682556152344
 70
   192
  0
VERTEX
  5
584
  8
0
 10
154.4927062988281
 20
9.963512420654297
 30
228.5167083740234
 70
   192
  0
VERTEX
  5
585
  8
0
 10
137.6507110595703
 20
-0.0000006460637678
 30
274.1327209472656
 70
   192
  0
VERTEX
  5
586
  8
0
 10
152.5827941894531
 20
-0.0000006460637678
 30
252.6828918457031
 70
   192
  0
VERTEX
  5
587
  8
0
 10
30.94058990478516
 20
10.41722965240479
 30
269.4967651367188
 70
   192
  0
VERTEX
  5
588
  8
0
 10
20.92054748535156
 20
5.350152969360352
 30
250.3336029052734
 70
   192
  0
VERTEX
  5
589
  8
0
 10
34.42682647705078
 20
5.350152969360352
 30
265.1451110839844
 70
   192
  0
VERTEX
  5
58A
  8
0
 10
44.07328414916992
 20
5.576614856719971
 30
293.8269348144531
 70
   192
  0
VERTEX
  5
58B
  8
0
 10
-0.9713000655174255
 20
10.67199897766113
 30
236.5666046142578
 70
   192
  0
VERTEX
  5
58C
  8
0
 10
7.344028472900391
 20
10.41722965240479
 30
234.1513366699219
 70
   192
  0
VERTEX
  5
58D
  8
0
 10
9.05598258972168
 20
10.67199897766113
 30
258.1951904296875
 70
   192
  0
VERTEX
  5
58E
  8
0
 10
-6.718659400939941
 20
5.576614856719971
 30
238.2359924316406
 70
   192
  0
VERTEX
  5
58F
  8
0
 10
2.984747409820557
 20
-0.0000006460637678
 30
262.4108276367188
 70
   192
  0
VERTEX
  5
590
  8
0
 10
-8.054587364196777
 20
-0.000000646063711
 30
238.7287139892578
 70
   192
  0
VERTEX
  5
591
  8
0
 10
25.52542114257812
 20
10.67199897766113
 30
276.2561950683594
 70
   192
  0
VERTEX
  5
592
  8
0
 10
21.78258514404297
 20
5.576614856719971
 30
280.9281616210938
 70
   192
  0
VERTEX
  5
593
  8
0
 10
-9.950804710388184
 20
5.720548629760742
 30
214.5
 70
   192
  0
VERTEX
  5
594
  8
0
 10
46.24839401245117
 20
10.67199897766113
 30
288.247802734375
 70
   192
  0
VERTEX
  5
595
  8
0
 10
-11.5
 20
-0.000000646063711
 30
214.5
 70
   192
  0
VERTEX
  5
596
  8
0
 10
49.39535903930664
 20
10.41722965240479
 30
280.1758422851562
 70
   192
  0
VERTEX
  5
597
  8
0
 10
16.27379035949707
 20
10.41722965240479
 30
253.41259765625
 70
   192
  0
VERTEX
  5
598
  8
0
 10
22.1048526763916
 20
-0.000000646063711
 30
249.6250915527344
 70
   192
  0
VERTEX
  5
599
  8
0
 10
51.42134475708008
 20
5.350152969360352
 30
274.9791870117188
 70
   192
  0
VERTEX
  5
59A
  8
0
 10
35.35466003417969
 20
-0.0000006460637678
 30
264.10009765625
 70
   192
  0
VERTEX
  5
59B
  8
0
 10
14.04401779174805
 20
-0.000000646063711
 30
232.2144317626953
 70
   192
  0
VERTEX
  5
59C
  8
0
 10
51.96733856201172
 20
-0.0000006460637678
 30
273.6885070800781
 70
   192
  0
VERTEX
  5
59D
  8
0
 10
12.69736099243164
 20
5.350152969360352
 30
232.5964202880859
 70
   192
  0
VERTEX
  5
59E
  8
0
 10
4.06720495223999
 20
5.576614856719971
 30
261.5007934570312
 70
   192
  0
VERTEX
  5
59F
  8
0
 10
-5.809029579162598
 20
9.97108268737793
 30
214.5
 70
   192
  0
VERTEX
  5
5A0
  8
0
 10
43.72419738769531
 20
-0.0000006460637678
 30
295.1154174804688
 70
   192
  0
VERTEX
  5
5A1
  8
0
 10
21.05457878112793
 20
-0.0000006460637678
 30
282.1096496582031
 70
   192
  0
VERTEX
  5
5A2
  8
0
 10
-1.338152766227722
 20
-10.41723155975342
 30
236.6731719970703
 70
   192
  0
VERTEX
  5
5A3
  8
0
 10
6.977175712585449
 20
-10.67200088500977
 30
234.2579040527344
 70
   192
  0
VERTEX
  5
5A4
  8
0
 10
-9.879446029663086
 20
-5.782452583312988
 30
214.5
 70
   192
  0
VERTEX
  5
5A5
  8
0
 10
-6.691484928131104
 20
-5.350154399871826
 30
238.2280883789062
 70
   192
  0
VERTEX
  5
5A6
  8
0
 10
4.090792179107666
 20
-5.350154399871826
 30
261.4851684570312
 70
   192
  0
VERTEX
  5
5A7
  8
0
 10
-5.67078971862793
 20
-9.942814826965332
 30
214.5
 70
   192
  0
VERTEX
  5
5A8
  8
0
 10
20.94413566589355
 20
-5.576615810394287
 30
250.3179779052734
 70
   192
  0
VERTEX
  5
5A9
  8
0
 10
12.72453498840332
 20
-5.576615810394287
 30
232.5885162353516
 70
   192
  0
VERTEX
  5
5AA
  8
0
 10
15.95535659790039
 20
-10.67200088500977
 30
253.6235961914062
 70
   192
  0
VERTEX
  5
5AB
  8
0
 10
49.25652313232422
 20
-10.67200088500977
 30
280.5319519042969
 70
   192
  0
VERTEX
  5
5AC
  8
0
 10
68.23589324951172
 20
-11.17477893829346
 30
291.8140869140625
 70
   192
  0
VERTEX
  5
5AD
  8
0
 10
68.68241882324219
 20
-11.21111488342285
 30
286.7102966308594
 70
   192
  0
VERTEX
  5
5AE
  8
0
 10
51.4316291809082
 20
-5.576615810394287
 30
274.9528198242188
 70
   192
  0
VERTEX
  5
5AF
  8
0
 10
69.0860595703125
 20
-9.01530647277832
 30
282.0966186523438
 70
   192
  0
VERTEX
  5
5B0
  8
0
 10
69.36880493164062
 20
-5.03167724609375
 30
278.8648986816406
 70
   192
  0
VERTEX
  5
5B1
  8
0
 10
30.70168495178223
 20
-10.67200088500977
 30
269.7949829101562
 70
   192
  0
VERTEX
  5
5B2
  8
0
 10
46.10955810546875
 20
-10.41723155975342
 30
288.6039123535156
 70
   192
  0
VERTEX
  5
5B3
  8
0
 10
25.28651809692383
 20
-10.41723155975342
 30
276.5544128417969
 70
   192
  0
VERTEX
  5
5B4
  8
0
 10
21.8002815246582
 20
-5.350154399871826
 30
280.9060974121094
 70
   192
  0
VERTEX
  5
5B5
  8
0
 10
44.08356857299805
 20
-5.350154399871826
 30
293.8005676269531
 70
   192
  0
VERTEX
  5
5B6
  8
0
 10
67.83745574951172
 20
-8.909324645996094
 30
296.3682556152344
 70
   192
  0
VERTEX
  5
5B7
  8
0
 10
8.737549781799316
 20
-10.41723155975342
 30
258.4061889648438
 70
   192
  0
VERTEX
  5
5B8
  8
0
 10
67.56240844726562
 20
-4.932118892669678
 30
299.5120544433594
 70
   192
  0
VERTEX
  5
5B9
  8
0
 10
34.44452285766602
 20
-5.576615810394287
 30
265.1230163574219
 70
   192
  0
VERTEX
  5
5BA
  8
0
 10
146.9767913818359
 20
-10.89793014526367
 30
217.5448913574219
 70
   192
  0
VERTEX
  5
5BB
  8
0
 10
148.8605804443359
 20
-11.50000095367432
 30
227.5236206054688
 70
   192
  0
VERTEX
  5
5BC
  8
0
 10
153.9745330810547
 20
-10.93048095703125
 30
218.7787933349609
 70
   192
  0
VERTEX
  5
5BD
  8
0
 10
143.1659851074219
 20
-9.879446983337402
 30
226.5195007324219
 70
   192
  0
VERTEX
  5
5BE
  8
0
 10
141.3562316894531
 20
-6.664923191070557
 30
216.5538330078125
 70
   192
  0
VERTEX
  5
5BF
  8
0
 10
139.1849517822266
 20
-0.0000006460637678
 30
216.1709899902344
 70
   192
  0
VERTEX
  5
5C0
  8
0
 10
139.0688171386719
 20
-5.670790672302246
 30
225.7970581054688
 70
   192
  0
VERTEX
  5
5C1
  8
0
 10
154.4927062988281
 20
-9.963513374328613
 30
228.5167083740234
 70
   192
  0
VERTEX
  5
5C2
  8
0
 10
158.6803741455078
 20
-5.807441711425781
 30
229.2551116943359
 70
   192
  0
VERTEX
  5
5C3
  8
0
 10
159.6793518066406
 20
-6.815221309661865
 30
219.7846984863281
 70
   192
  0
VERTEX
  5
5C4
  8
0
 10
161.8355255126953
 20
-0.000000646063711
 30
220.1648864746094
 70
   192
  0
VERTEX
  5
5C5
  8
0
 10
154.0436859130859
 20
10.89792919158936
 30
218.7909851074219
 70
   192
  0
VERTEX
  5
5C6
  8
0
 10
147.0459442138672
 20
10.93048000335693
 30
217.5570983886719
 70
   192
  0
VERTEX
  5
5C7
  8
0
 10
159.6642456054688
 20
6.66492223739624
 30
219.7820434570312
 70
   192
  0
VERTEX
  5
5C8
  8
0
 10
141.3411254882812
 20
6.815220355987549
 30
216.5511779785156
 70
   192
  0
VERTEX
  5
5C9
  8
0
 10
87.59202575683594
 20
-5.576615810394287
 30
278.1150207519531
 70
   192
  0
VERTEX
  5
5CA
  8
0
 10
108.8286361694336
 20
-10.67200088500977
 30
276.7297973632812
 70
   192
  0
VERTEX
  5
5CB
  8
0
 10
105.9703979492188
 20
-5.576615810394287
 30
271.471923828125
 70
   192
  0
VERTEX
  5
5CC
  8
0
 10
91.5179214477539
 20
-5.350154399871826
 30
297.9486694335938
 70
   192
  0
VERTEX
  5
5CD
  8
0
 10
115.6262435913086
 20
-5.350154399871826
 30
289.2344055175781
 70
   192
  0
VERTEX
  5
5CE
  8
0
 10
90.43547821044922
 20
-10.41723155975342
 30
292.4801940917969
 70
   192
  0
VERTEX
  5
5CF
  8
0
 10
88.75413513183594
 20
-10.67200088500977
 30
283.9859924316406
 70
   192
  0
VERTEX
  5
5D0
  8
0
 10
121.8957443237305
 20
-5.576615810394287
 30
259.313232421875
 70
   192
  0
VERTEX
  5
5D1
  8
0
 10
126.2237167358398
 20
-10.67200088500977
 30
263.4490356445312
 70
   192
  0
VERTEX
  5
5D2
  8
0
 10
138.5369873046875
 20
-10.67200088500977
 30
245.9005737304688
 70
   192
  0
VERTEX
  5
5D3
  8
0
 10
133.1686401367188
 20
-5.576615810394287
 30
243.2474975585938
 70
   192
  0
VERTEX
  5
5D4
  8
0
 10
146.303955078125
 20
-10.41723155975342
 30
249.7390899658203
 70
   192
  0
VERTEX
  5
5D5
  8
0
 10
132.4854736328125
 20
-10.41723155975342
 30
269.4327087402344
 70
   192
  0
VERTEX
  5
5D6
  8
0
 10
136.5167236328125
 20
-5.350154399871826
 30
273.2849426269531
 70
   192
  0
VERTEX
  5
5D7
  8
0
 10
151.3042602539062
 20
-5.350154399871826
 30
252.2102813720703
 70
   192
  0
VERTEX
  5
5D8
  8
0
 10
112.9639587402344
 20
-10.41723155975342
 30
284.3369750976562
 70
   192
  0
VERTEX
  5
5D9
  8
0
 10
-6.664922714233398
 20
9.295228004455566
 30
118.5
 70
   192
  0
VERTEX
  5
5DA
  8
0
 10
-6.815220832824707
 20
-9.310554504394531
 30
118.5
 70
   192
  0
VERTEX
  5
5DB
  8
0
 10
-10.93048000335693
 20
-3.517735958099365
 30
118.5
 70
   192
  0
VERTEX
  5
5DC
  8
0
 10
-10.89792919158936
 20
3.58795428276062
 30
118.5
 70
   192
  0
VERTEX
  5
5DD
  8
0
 62
     9
 10
0.0
 20
0.0
 30
0.0
 70
   128
 71
     3
 72
     2
 73
     1
  0
VERTEX
  5
5DE
  8
0
 62
     9
 10
0.0
 20
0.0
 30
0.0
 70
   128
 71
     5
 72
     1
 73
     4
  0
VERTEX
  5
5DF
  8
0
 62
     9
 10
0.0
 20
0.0
 30
0.0
 70
   128
 71
     2
 72
     4
 73
     1
  0
VERTEX
  5
5E0
  8
0
 62
     9
 10
0.0
 20
0.0
 30
0.0
 70
   128
 71
     5
 72
     4
 73
     6
  0
VERTEX
  5
5E1
  8
0
 62
     9
 10
0.0
 20
0.0
 30
0.0
 70
   128
 71
     7
 72
     5
 73
     6
  0
VERTEX
  5
5E2
  8
0
 62
     9
 10
0.0
 20
0.0
 30
0.0
 70
   128
 71
     3
 72
     8
 73
     2
  0
VERTEX
  5
5E3
  8
0
 62
     9
 10
0.0
 20
0.0
 30
0.0
 70
   128
 71
     8
 72
     3
 73
     9
  0
VERTEX
  5
5E4
  8
0
 62
     9
 10
0.0
 20
0.0
 30
0.0
 70
   128
 71
     9
 72
    11
 73
    10
  0
VERTEX
  5
5E5
  8
0
 62
     9
 10
0.0
 20
0.0
 30
0.0
 70
   128
 71
    10
 72
     8
 73
     9
  0
VERTEX
  5
5E6
  8
0
 62
     9
 10
0.0
 20
0.0
 30
0.0
 70
   128
 71
    11
 72
    12
 73
    10
  0
VERTEX
  5
5E7
  8
0
 62
     9
 10
0.0
 20
0.0
 30
0.0
 70
   128
 71
    11
 72
    13
 73
    12
  0
VERTEX
  5
5E8
  8
0
 62
     9
 10
0.0
 20
0.0
 30
0.0
 70
   128
 71
    16
 72
    15
 73
    14
  0
VERTEX
  5
5E9
  8
0
 62
     9
 10
0.0
 20
0.0
 30
0.0
 70
   128
 71
    19
 72
    18
 73
    17
  0
VERTEX
  5
5EA
  8
0
 62
     9
 10
0.0
 20
0.0
 30
0.0
 70
   128
 71
    22
 72
    21
 73
    20
  0
VERTEX
  5
5EB
  8
0
 62
     9
 10
0.0
 20
0.0
 30
0.0
 70
   128
 71
    24
 72
    23
 73
    22
  0
VERTEX
  5
5EC
  8
0
 62
     9
 10
0.0
 20
0.0
 30
0.0
 70
   128
 71
    26
 72
    25
 73
    24
  0
VERTEX
  5
5ED
  8
0
 62
     9
 10
0.0
 20
0.0
 30
0.0
 70
   128
 71
    21
 72
    27
 73
    15
  0
VERTEX
  5
5EE
  8
0
 62
     9
 10
0.0
 20
0.0
 30
0.0
 70
   128
 71
    26
 72
    24
 73
    28
  0
VERTEX
  5
5EF
  8
0
 62
     9
 10
0.0
 20
0.0
 30
0.0
 70
   128
 71
    18
 72
    14
 73
    17
  0
VERTEX
  5
5F0
  8
0
 62
     9
 10
0.0
 20
0.0
 30
0.0
 70
   128
 71
    29
 72
    26
 73
    28
  0
VERTEX
  5
5F1
  8
0
 62
     9
 10
0.0
 20
0.0
 30
0.0
 70
   128
 71
    32
 72
    31
 73
    30
  0
VERTEX
  5
5F2
  8
0
 62
     9
 10
0.0
 20
0.0
 30
0.0
 70
   128
 71
    14
 72
    34
 73
    33
  0
VERTEX
  5
5F3
  8
0
 62
     9
 10
0.0
 20
0.0
 30
0.0
 70
   128
 71
    36
 72
    35
 73
    33
  0
VERTEX
  5
5F4
  8
0
 62
     9
 10
0.0
 20
0.0
 30
0.0
 70
   128
 71
    38
 72
    34
 73
    37
  0
VERTEX
  5
5F5
  8
0
 62
     9
 10
0.0
 20
0.0
 30
0.0
 70
   128
 71
    16
 72
    33
 73
    39
  0
VERTEX
  5
5F6
  8
0
 62
     9
 10
0.0
 20
0.0
 30
0.0
 70
   128
 71
    36
 72
    33
 73
    34
  0
VERTEX
  5
5F7
  8
0
 62
     9
 10
0.0
 20
0.0
 30
0.0
 70
   128
 71
    40
 72
    38
 73
    37
  0
VERTEX
  5
5F8
  8
0
 62
     9
 10
0.0
 20
0.0
 30
0.0
 70
   128
 71
    40
 72
    42
 73
    41
  0
VERTEX
  5
5F9
  8
0
 62
     9
 10
0.0
 20
0.0
 30
0.0
 70
   128
 71
    39
 72
    44
 73
    43
  0
VERTEX
  5
5FA
  8
0
 62
     9
 10
0.0
 20
0.0
 30
0.0
 70
   128
 71
    35
 72
    45
 73
    39
  0
VERTEX
  5
5FB
  8
0
 62
     9
 10
0.0
 20
0.0
 30
0.0
 70
   128
 71
    33
 72
    35
 73
    39
  0
VERTEX
  5
5FC
  8
0
 62
     9
 10
0.0
 20
0.0
 30
0.0
 70
   128
 71
    39
 72
    45
 73
    44
  0
VERTEX
  5
5FD
  8
0
 62
     9
 10
0.0
 20
0.0
 30
0.0
 70
   128
 71
    20
 72
    43
 73
    46
  0
VERTEX
  5
5FE
  8
0
 62
     9
 10
0.0
 20
0.0
 30
0.0
 70
   128
 71
    47
 72
    22
 73
    46
  0
VERTEX
  5
5FF
  8
0
 62
     9
 10
0.0
 20
0.0
 30
0.0
 70
   128
 71
    20
 72
    39
 73
    43
  0
VERTEX
  5
600
  8
0
 62
     9
 10
0.0
 20
0.0
 30
0.0
 70
   128
 71
    18
 72
    37
 73
    34
  0
VERTEX
  5
601
  8
0
 62
     9
 10
0.0
 20
0.0
 30
0.0
 70
   128
 71
    42
 72
    37
 73
    48
  0
VERTEX
  5
602
  8
0
 62
     9
 10
0.0
 20
0.0
 30
0.0
 70
   128
 71
    34
 72
    38
 73
    36
  0
VERTEX
  5
603
  8
0
 62
     9
 10
0.0
 20
0.0
 30
0.0
 70
   128
 71
    18
 72
    34
 73
    14
  0
VERTEX
  5
604
  8
0
 62
     9
 10
0.0
 20
0.0
 30
0.0
 70
   128
 71
    40
 72
    37
 73
    42
  0
VERTEX
  5
605
  8
0
 62
     9
 10
0.0
 20
0.0
 30
0.0
 70
   128
 71
    39
 72
    20
 73
    16
  0
VERTEX
  5
606
  8
0
 62
     9
 10
0.0
 20
0.0
 30
0.0
 70
   128
 71
    47
 72
    49
 73
    22
  0
VERTEX
  5
607
  8
0
 62
     9
 10
0.0
 20
0.0
 30
0.0
 70
   128
 71
    32
 72
    17
 73
    31
  0
VERTEX
  5
608
  8
0
 62
     9
 10
0.0
 20
0.0
 30
0.0
 70
   128
 71
    14
 72
    33
 73
    16
  0
VERTEX
  5
609
  8
0
 62
     9
 10
0.0
 20
0.0
 30
0.0
 70
   128
 71
    15
 72
    16
 73
    21
  0
VERTEX
  5
60A
  8
0
 62
     9
 10
0.0
 20
0.0
 30
0.0
 70
   128
 71
    48
 72
    37
 73
    18
  0
VERTEX
  5
60B
  8
0
 62
     9
 10
0.0
 20
0.0
 30
0.0
 70
   128
 71
    15
 72
    17
 73
    14
  0
VERTEX
  5
60C
  8
0
 62
     9
 10
0.0
 20
0.0
 30
0.0
 70
   128
 71
    48
 72
    18
 73
    19
  0
VERTEX
  5
60D
  8
0
 62
     9
 10
0.0
 20
0.0
 30
0.0
 70
   128
 71
    20
 72
    46
 73
    22
  0
VERTEX
  5
60E
  8
0
 62
     9
 10
0.0
 20
0.0
 30
0.0
 70
   128
 71
    28
 72
    24
 73
    49
  0
VERTEX
  5
60F
  8
0
 62
     9
 10
0.0
 20
0.0
 30
0.0
 70
   128
 71
    15
 72
    31
 73
    17
  0
VERTEX
  5
610
  8
0
 62
     9
 10
0.0
 20
0.0
 30
0.0
 70
   128
 71
    21
 72
    16
 73
    20
  0
VERTEX
  5
611
  8
0
 62
     9
 10
0.0
 20
0.0
 30
0.0
 70
   128
 71
    27
 72
    21
 73
    23
  0
VERTEX
  5
612
  8
0
 62
     9
 10
0.0
 20
0.0
 30
0.0
 70
   128
 71
    32
 72
    50
 73
    17
  0
VERTEX
  5
613
  8
0
 62
     9
 10
0.0
 20
0.0
 30
0.0
 70
   128
 71
    31
 72
    15
 73
    27
  0
VERTEX
  5
614
  8
0
 62
     9
 10
0.0
 20
0.0
 30
0.0
 70
   128
 71
    17
 72
    50
 73
    19
  0
VERTEX
  5
615
  8
0
 62
     9
 10
0.0
 20
0.0
 30
0.0
 70
   128
 71
    24
 72
    22
 73
    49
  0
VERTEX
  5
616
  8
0
 62
     9
 10
0.0
 20
0.0
 30
0.0
 70
   128
 71
    23
 72
    21
 73
    22
  0
VERTEX
  5
617
  8
0
 62
     9
 10
0.0
 20
0.0
 30
0.0
 70
   128
 71
    51
 72
    23
 73
    25
  0
VERTEX
  5
618
  8
0
 62
     9
 10
0.0
 20
0.0
 30
0.0
 70
   128
 71
    25
 72
    23
 73
    24
  0
VERTEX
  5
619
  8
0
 62
     9
 10
0.0
 20
0.0
 30
0.0
 70
   128
 71
    52
 72
    27
 73
    51
  0
VERTEX
  5
61A
  8
0
 62
     9
 10
0.0
 20
0.0
 30
0.0
 70
   128
 71
    51
 72
    27
 73
    23
  0
VERTEX
  5
61B
  8
0
 62
     9
 10
0.0
 20
0.0
 30
0.0
 70
   128
 71
    31
 72
    52
 73
    30
  0
VERTEX
  5
61C
  8
0
 62
     9
 10
0.0
 20
0.0
 30
0.0
 70
   128
 71
    52
 72
    31
 73
    27
  0
VERTEX
  5
61D
  8
0
 62
     9
 10
0.0
 20
0.0
 30
0.0
 70
   128
 71
    55
 72
    54
 73
    53
  0
VERTEX
  5
61E
  8
0
 62
     9
 10
0.0
 20
0.0
 30
0.0
 70
   128
 71
    28
 72
    56
 73
    29
  0
VERTEX
  5
61F
  8
0
 62
     9
 10
0.0
 20
0.0
 30
0.0
 70
   128
 71
    59
 72
    58
 73
    57
  0
VERTEX
  5
620
  8
0
 62
     9
 10
0.0
 20
0.0
 30
0.0
 70
   128
 71
    62
 72
    61
 73
    60
  0
VERTEX
  5
621
  8
0
 62
     9
 10
0.0
 20
0.0
 30
0.0
 70
   128
 71
    59
 72
    64
 73
    63
  0
VERTEX
  5
622
  8
0
 62
     9
 10
0.0
 20
0.0
 30
0.0
 70
   128
 71
    62
 72
    60
 73
    65
  0
VERTEX
  5
623
  8
0
 62
     9
 10
0.0
 20
0.0
 30
0.0
 70
   128
 71
    56
 72
    49
 73
    66
  0
VERTEX
  5
624
  8
0
 62
     9
 10
0.0
 20
0.0
 30
0.0
 70
   128
 71
    67
 72
    62
 73
    65
  0
VERTEX
  5
625
  8
0
 62
     9
 10
0.0
 20
0.0
 30
0.0
 70
   128
 71
    66
 72
    47
 73
    68
  0
VERTEX
  5
626
  8
0
 62
     9
 10
0.0
 20
0.0
 30
0.0
 70
   128
 71
    63
 72
    53
 73
    69
  0
VERTEX
  5
627
  8
0
 62
     9
 10
0.0
 20
0.0
 30
0.0
 70
   128
 71
    55
 72
    70
 73
    54
  0
VERTEX
  5
628
  8
0
 62
     9
 10
0.0
 20
0.0
 30
0.0
 70
   128
 71
    72
 72
    55
 73
    71
  0
VERTEX
  5
629
  8
0
 62
     9
 10
0.0
 20
0.0
 30
0.0
 70
   128
 71
    54
 72
    70
 73
    73
  0
VERTEX
  5
62A
  8
0
 62
     9
 10
0.0
 20
0.0
 30
0.0
 70
   128
 71
    74
 72
    72
 73
    71
  0
VERTEX
  5
62B
  8
0
 62
     9
 10
0.0
 20
0.0
 30
0.0
 70
   128
 71
    69
 72
    54
 73
    75
  0
VERTEX
  5
62C
  8
0
 62
     9
 10
0.0
 20
0.0
 30
0.0
 70
   128
 71
    45
 72
    74
 73
    44
  0
VERTEX
  5
62D
  8
0
 62
     9
 10
0.0
 20
0.0
 30
0.0
 70
   128
 71
    55
 72
    68
 73
    71
  0
VERTEX
  5
62E
  8
0
 62
     9
 10
0.0
 20
0.0
 30
0.0
 70
   128
 71
     1
 72
     5
 73
    58
  0
VERTEX
  5
62F
  8
0
 62
     9
 10
0.0
 20
0.0
 30
0.0
 70
   128
 71
    73
 72
     3
 73
    75
  0
VERTEX
  5
630
  8
0
 62
     9
 10
0.0
 20
0.0
 30
0.0
 70
   128
 71
    54
 72
    73
 73
    75
  0
VERTEX
  5
631
  8
0
 62
     9
 10
0.0
 20
0.0
 30
0.0
 70
   128
 71
    75
 72
     3
 73
     1
  0
VERTEX
  5
632
  8
0
 62
     9
 10
0.0
 20
0.0
 30
0.0
 70
   128
 71
    58
 72
     5
 73
     7
  0
VERTEX
  5
633
  8
0
 62
     9
 10
0.0
 20
0.0
 30
0.0
 70
   128
 71
    60
 72
    76
 73
    57
  0
VERTEX
  5
634
  8
0
 62
     9
 10
0.0
 20
0.0
 30
0.0
 70
   128
 71
    58
 72
    75
 73
     1
  0
VERTEX
  5
635
  8
0
 62
     9
 10
0.0
 20
0.0
 30
0.0
 70
   128
 71
    71
 72
    68
 73
    43
  0
VERTEX
  5
636
  8
0
 62
     9
 10
0.0
 20
0.0
 30
0.0
 70
   128
 71
    44
 72
    74
 73
    71
  0
VERTEX
  5
637
  8
0
 62
     9
 10
0.0
 20
0.0
 30
0.0
 70
   128
 71
    55
 72
    72
 73
    70
  0
VERTEX
  5
638
  8
0
 62
     9
 10
0.0
 20
0.0
 30
0.0
 70
   128
 71
    53
 72
    68
 73
    55
  0
VERTEX
  5
639
  8
0
 62
     9
 10
0.0
 20
0.0
 30
0.0
 70
   128
 71
    44
 72
    71
 73
    43
  0
VERTEX
  5
63A
  8
0
 62
     9
 10
0.0
 20
0.0
 30
0.0
 70
   128
 71
    69
 72
    75
 73
    58
  0
VERTEX
  5
63B
  8
0
 62
     9
 10
0.0
 20
0.0
 30
0.0
 70
   128
 71
     7
 72
    77
 73
    57
  0
VERTEX
  5
63C
  8
0
 62
     9
 10
0.0
 20
0.0
 30
0.0
 70
   128
 71
    56
 72
    66
 73
    63
  0
VERTEX
  5
63D
  8
0
 62
     9
 10
0.0
 20
0.0
 30
0.0
 70
   128
 71
    53
 72
    54
 73
    69
  0
VERTEX
  5
63E
  8
0
 62
     9
 10
0.0
 20
0.0
 30
0.0
 70
   128
 71
    63
 72
    69
 73
    59
  0
VERTEX
  5
63F
  8
0
 62
     9
 10
0.0
 20
0.0
 30
0.0
 70
   128
 71
    47
 72
    46
 73
    68
  0
VERTEX
  5
640
  8
0
 62
     9
 10
0.0
 20
0.0
 30
0.0
 70
   128
 71
    66
 72
    53
 73
    63
  0
VERTEX
  5
641
  8
0
 62
     9
 10
0.0
 20
0.0
 30
0.0
 70
   128
 71
    68
 72
    46
 73
    43
  0
VERTEX
  5
642
  8
0
 62
     9
 10
0.0
 20
0.0
 30
0.0
 70
   128
 71
    57
 72
    58
 73
     7
  0
VERTEX
  5
643
  8
0
 62
     9
 10
0.0
 20
0.0
 30
0.0
 70
   128
 71
    65
 72
    60
 73
    77
  0
VERTEX
  5
644
  8
0
 62
     9
 10
0.0
 20
0.0
 30
0.0
 70
   128
 71
    29
 72
    56
 73
    78
  0
VERTEX
  5
645
  8
0
 62
     9
 10
0.0
 20
0.0
 30
0.0
 70
   128
 71
    59
 72
    69
 73
    58
  0
VERTEX
  5
646
  8
0
 62
     9
 10
0.0
 20
0.0
 30
0.0
 70
   128
 71
    64
 72
    59
 73
    76
  0
VERTEX
  5
647
  8
0
 62
     9
 10
0.0
 20
0.0
 30
0.0
 70
   128
 71
    66
 72
    68
 73
    53
  0
VERTEX
  5
648
  8
0
 62
     9
 10
0.0
 20
0.0
 30
0.0
 70
   128
 71
    56
 72
    63
 73
    64
  0
VERTEX
  5
649
  8
0
 62
     9
 10
0.0
 20
0.0
 30
0.0
 70
   128
 71
    66
 72
    49
 73
    47
  0
VERTEX
  5
64A
  8
0
 62
     9
 10
0.0
 20
0.0
 30
0.0
 70
   128
 71
    60
 72
    57
 73
    77
  0
VERTEX
  5
64B
  8
0
 62
     9
 10
0.0
 20
0.0
 30
0.0
 70
   128
 71
    76
 72
    59
 73
    57
  0
VERTEX
  5
64C
  8
0
 62
     9
 10
0.0
 20
0.0
 30
0.0
 70
   128
 71
    79
 72
    76
 73
    61
  0
VERTEX
  5
64D
  8
0
 62
     9
 10
0.0
 20
0.0
 30
0.0
 70
   128
 71
    61
 72
    76
 73
    60
  0
VERTEX
  5
64E
  8
0
 62
     9
 10
0.0
 20
0.0
 30
0.0
 70
   128
 71
    78
 72
    64
 73
    79
  0
VERTEX
  5
64F
  8
0
 62
     9
 10
0.0
 20
0.0
 30
0.0
 70
   128
 71
    79
 72
    64
 73
    76
  0
VERTEX
  5
650
  8
0
 62
     9
 10
0.0
 20
0.0
 30
0.0
 70
   128
 71
    56
 72
    64
 73
    78
  0
VERTEX
  5
651
  8
0
 62
     9
 10
0.0
 20
0.0
 30
0.0
 70
   128
 71
    56
 72
    28
 73
    49
  0
VERTEX
  5
652
  8
0
 62
     9
 10
0.0
 20
0.0
 30
0.0
 70
   128
 71
    81
 72
    80
 73
    13
  0
VERTEX
  5
653
  8
0
 62
     9
 10
0.0
 20
0.0
 30
0.0
 70
   128
 71
    83
 72
    62
 73
    82
  0
VERTEX
  5
654
  8
0
 62
     9
 10
0.0
 20
0.0
 30
0.0
 70
   128
 71
    83
 72
    84
 73
    61
  0
VERTEX
  5
655
  8
0
 62
     9
 10
0.0
 20
0.0
 30
0.0
 70
   128
 71
    81
 72
    11
 73
     9
  0
VERTEX
  5
656
  8
0
 62
     9
 10
0.0
 20
0.0
 30
0.0
 70
   128
 71
    85
 72
    83
 73
    82
  0
VERTEX
  5
657
  8
0
 62
     9
 10
0.0
 20
0.0
 30
0.0
 70
   128
 71
    73
 72
    70
 73
    86
  0
VERTEX
  5
658
  8
0
 62
     9
 10
0.0
 20
0.0
 30
0.0
 70
   128
 71
    67
 72
    82
 73
    62
  0
VERTEX
  5
659
  8
0
 62
     9
 10
0.0
 20
0.0
 30
0.0
 70
   128
 71
    87
 72
     3
 73
    73
  0
VERTEX
  5
65A
  8
0
 62
     9
 10
0.0
 20
0.0
 30
0.0
 70
   128
 71
    87
 72
    86
 73
    88
  0
VERTEX
  5
65B
  8
0
 62
     9
 10
0.0
 20
0.0
 30
0.0
 70
   128
 71
    91
 72
    90
 73
    89
  0
VERTEX
  5
65C
  8
0
 62
     9
 10
0.0
 20
0.0
 30
0.0
 70
   128
 71
    94
 72
    93
 73
    92
  0
VERTEX
  5
65D
  8
0
 62
     9
 10
0.0
 20
0.0
 30
0.0
 70
   128
 71
    89
 72
    96
 73
    95
  0
VERTEX
  5
65E
  8
0
 62
     9
 10
0.0
 20
0.0
 30
0.0
 70
   128
 71
    89
 72
    90
 73
    96
  0
VERTEX
  5
65F
  8
0
 62
     9
 10
0.0
 20
0.0
 30
0.0
 70
   128
 71
    93
 72
    89
 73
    92
  0
VERTEX
  5
660
  8
0
 62
     9
 10
0.0
 20
0.0
 30
0.0
 70
   128
 71
    99
 72
    98
 73
    97
  0
VERTEX
  5
661
  8
0
 62
     9
 10
0.0
 20
0.0
 30
0.0
 70
   128
 71
    45
 72
    94
 73
    74
  0
VERTEX
  5
662
  8
0
 62
     9
 10
0.0
 20
0.0
 30
0.0
 70
   128
 71
    79
 72
    98
 73
    78
  0
VERTEX
  5
663
  8
0
 62
     9
 10
0.0
 20
0.0
 30
0.0
 70
   128
 71
    83
 72
    85
 73
    80
  0
VERTEX
  5
664
  8
0
 62
     9
 10
0.0
 20
0.0
 30
0.0
 70
   128
 71
    99
 72
    78
 73
    98
  0
VERTEX
  5
665
  8
0
 62
     9
 10
0.0
 20
0.0
 30
0.0
 70
   128
 71
    79
 72
    84
 73
    98
  0
VERTEX
  5
666
  8
0
 62
     9
 10
0.0
 20
0.0
 30
0.0
 70
   128
 71
    99
 72
    29
 73
    78
  0
VERTEX
  5
667
  8
0
 62
     9
 10
0.0
 20
0.0
 30
0.0
 70
   128
 71
    83
 72
    61
 73
    62
  0
VERTEX
  5
668
  8
0
 62
     9
 10
0.0
 20
0.0
 30
0.0
 70
   128
 71
    80
 72
    85
 73
    13
  0
VERTEX
  5
669
  8
0
 62
     9
 10
0.0
 20
0.0
 30
0.0
 70
   128
 71
    99
 72
    96
 73
   100
  0
VERTEX
  5
66A
  8
0
 62
     9
 10
0.0
 20
0.0
 30
0.0
 70
   128
 71
    84
 72
    79
 73
    61
  0
VERTEX
  5
66B
  8
0
 62
     9
 10
0.0
 20
0.0
 30
0.0
 70
   128
 71
    80
 72
   101
 73
    84
  0
VERTEX
  5
66C
  8
0
 62
     9
 10
0.0
 20
0.0
 30
0.0
 70
   128
 71
   102
 72
    29
 73
    99
  0
VERTEX
  5
66D
  8
0
 62
     9
 10
0.0
 20
0.0
 30
0.0
 70
   128
 71
   101
 72
    97
 73
    98
  0
VERTEX
  5
66E
  8
0
 62
     9
 10
0.0
 20
0.0
 30
0.0
 70
   128
 71
   102
 72
    99
 73
   100
  0
VERTEX
  5
66F
  8
0
 62
     9
 10
0.0
 20
0.0
 30
0.0
 70
   128
 71
    80
 72
    84
 73
    83
  0
VERTEX
  5
670
  8
0
 62
     9
 10
0.0
 20
0.0
 30
0.0
 70
   128
 71
    81
 72
    13
 73
    11
  0
VERTEX
  5
671
  8
0
 62
     9
 10
0.0
 20
0.0
 30
0.0
 70
   128
 71
    97
 72
    95
 73
    96
  0
VERTEX
  5
672
  8
0
 62
     9
 10
0.0
 20
0.0
 30
0.0
 70
   128
 71
   101
 72
    98
 73
    84
  0
VERTEX
  5
673
  8
0
 62
     9
 10
0.0
 20
0.0
 30
0.0
 70
   128
 71
   101
 72
    81
 73
    88
  0
VERTEX
  5
674
  8
0
 62
     9
 10
0.0
 20
0.0
 30
0.0
 70
   128
 71
    88
 72
    95
 73
    97
  0
VERTEX
  5
675
  8
0
 62
     9
 10
0.0
 20
0.0
 30
0.0
 70
   128
 71
    96
 72
    90
 73
   100
  0
VERTEX
  5
676
  8
0
 62
     9
 10
0.0
 20
0.0
 30
0.0
 70
   128
 71
    97
 72
    96
 73
    99
  0
VERTEX
  5
677
  8
0
 62
     9
 10
0.0
 20
0.0
 30
0.0
 70
   128
 71
   101
 72
    80
 73
    81
  0
VERTEX
  5
678
  8
0
 62
     9
 10
0.0
 20
0.0
 30
0.0
 70
   128
 71
    87
 72
     9
 73
     3
  0
VERTEX
  5
679
  8
0
 62
     9
 10
0.0
 20
0.0
 30
0.0
 70
   128
 71
   103
 72
    95
 73
    86
  0
VERTEX
  5
67A
  8
0
 62
     9
 10
0.0
 20
0.0
 30
0.0
 70
   128
 71
    88
 72
    97
 73
   101
  0
VERTEX
  5
67B
  8
0
 62
     9
 10
0.0
 20
0.0
 30
0.0
 70
   128
 71
    95
 72
    88
 73
    86
  0
VERTEX
  5
67C
  8
0
 62
     9
 10
0.0
 20
0.0
 30
0.0
 70
   128
 71
    89
 72
   103
 73
    92
  0
VERTEX
  5
67D
  8
0
 62
     9
 10
0.0
 20
0.0
 30
0.0
 70
   128
 71
    95
 72
   103
 73
    89
  0
VERTEX
  5
67E
  8
0
 62
     9
 10
0.0
 20
0.0
 30
0.0
 70
   128
 71
    91
 72
    89
 73
    93
  0
VERTEX
  5
67F
  8
0
 62
     9
 10
0.0
 20
0.0
 30
0.0
 70
   128
 71
     9
 72
    87
 73
    81
  0
VERTEX
  5
680
  8
0
 62
     9
 10
0.0
 20
0.0
 30
0.0
 70
   128
 71
    81
 72
    87
 73
    88
  0
VERTEX
  5
681
  8
0
 62
     9
 10
0.0
 20
0.0
 30
0.0
 70
   128
 71
    70
 72
    72
 73
   103
  0
VERTEX
  5
682
  8
0
 62
     9
 10
0.0
 20
0.0
 30
0.0
 70
   128
 71
    86
 72
    87
 73
    73
  0
VERTEX
  5
683
  8
0
 62
     9
 10
0.0
 20
0.0
 30
0.0
 70
   128
 71
    72
 72
    74
 73
    92
  0
VERTEX
  5
684
  8
0
 62
     9
 10
0.0
 20
0.0
 30
0.0
 70
   128
 71
   103
 72
    86
 73
    70
  0
VERTEX
  5
685
  8
0
 62
     9
 10
0.0
 20
0.0
 30
0.0
 70
   128
 71
    94
 72
    92
 73
    74
  0
VERTEX
  5
686
  8
0
 62
     9
 10
0.0
 20
0.0
 30
0.0
 70
   128
 71
    92
 72
   103
 73
    72
  0
VERTEX
  5
687
  8
0
 62
     9
 10
0.0
 20
0.0
 30
0.0
 70
   128
 71
   106
 72
   105
 73
   104
  0
VERTEX
  5
688
  8
0
 62
     9
 10
0.0
 20
0.0
 30
0.0
 70
   128
 71
   108
 72
   104
 73
   107
  0
VERTEX
  5
689
  8
0
 62
     9
 10
0.0
 20
0.0
 30
0.0
 70
   128
 71
   105
 72
   107
 73
   104
  0
VERTEX
  5
68A
  8
0
 62
     9
 10
0.0
 20
0.0
 30
0.0
 70
   128
 71
   110
 72
   109
 73
   108
  0
VERTEX
  5
68B
  8
0
 62
     9
 10
0.0
 20
0.0
 30
0.0
 70
   128
 71
   108
 72
   107
 73
   110
  0
VERTEX
  5
68C
  8
0
 62
     9
 10
0.0
 20
0.0
 30
0.0
 70
   128
 71
    41
 72
   109
 73
   110
  0
VERTEX
  5
68D
  8
0
 62
     9
 10
0.0
 20
0.0
 30
0.0
 70
   128
 71
   111
 72
   105
 73
   106
  0
VERTEX
  5
68E
  8
0
 62
     9
 10
0.0
 20
0.0
 30
0.0
 70
   128
 71
   113
 72
   112
 73
   111
  0
VERTEX
  5
68F
  8
0
 62
     9
 10
0.0
 20
0.0
 30
0.0
 70
   128
 71
   111
 72
   106
 73
   113
  0
VERTEX
  5
690
  8
0
 62
     9
 10
0.0
 20
0.0
 30
0.0
 70
   128
 71
   114
 72
   112
 73
   113
  0
VERTEX
  5
691
  8
0
 62
     9
 10
0.0
 20
0.0
 30
0.0
 70
   128
 71
   114
 72
    30
 73
   112
  0
VERTEX
  5
692
  8
0
 62
     9
 10
0.0
 20
0.0
 30
0.0
 70
   128
 71
   109
 72
    41
 73
    42
  0
VERTEX
  5
693
  8
0
 62
     9
 10
0.0
 20
0.0
 30
0.0
 70
   128
 71
   115
 72
    19
 73
    50
  0
VERTEX
  5
694
  8
0
 62
     9
 10
0.0
 20
0.0
 30
0.0
 70
   128
 71
   116
 72
    48
 73
    19
  0
VERTEX
  5
695
  8
0
 62
     9
 10
0.0
 20
0.0
 30
0.0
 70
   128
 71
   114
 72
   117
 73
    32
  0
VERTEX
  5
696
  8
0
 62
     9
 10
0.0
 20
0.0
 30
0.0
 70
   128
 71
    50
 72
    32
 73
   117
  0
VERTEX
  5
697
  8
0
 62
     9
 10
0.0
 20
0.0
 30
0.0
 70
   128
 71
   114
 72
    32
 73
    30
  0
VERTEX
  5
698
  8
0
 62
     9
 10
0.0
 20
0.0
 30
0.0
 70
   128
 71
    19
 72
   115
 73
   116
  0
VERTEX
  5
699
  8
0
 62
     9
 10
0.0
 20
0.0
 30
0.0
 70
   128
 71
   115
 72
    50
 73
   117
  0
VERTEX
  5
69A
  8
0
 62
     9
 10
0.0
 20
0.0
 30
0.0
 70
   128
 71
   118
 72
    42
 73
    48
  0
VERTEX
  5
69B
  8
0
 62
     9
 10
0.0
 20
0.0
 30
0.0
 70
   128
 71
   118
 72
    48
 73
   116
  0
VERTEX
  5
69C
  8
0
 62
     9
 10
0.0
 20
0.0
 30
0.0
 70
   128
 71
    42
 72
   118
 73
   109
  0
VERTEX
  5
69D
  8
0
 62
     9
 10
0.0
 20
0.0
 30
0.0
 70
   128
 71
   121
 72
   120
 73
   119
  0
VERTEX
  5
69E
  8
0
 62
     9
 10
0.0
 20
0.0
 30
0.0
 70
   128
 71
   122
 72
    26
 73
   102
  0
VERTEX
  5
69F
  8
0
 62
     9
 10
0.0
 20
0.0
 30
0.0
 70
   128
 71
   122
 72
   123
 73
    25
  0
VERTEX
  5
6A0
  8
0
 62
     9
 10
0.0
 20
0.0
 30
0.0
 70
   128
 71
    90
 72
    91
 73
   124
  0
VERTEX
  5
6A1
  8
0
 62
     9
 10
0.0
 20
0.0
 30
0.0
 70
   128
 71
   100
 72
   122
 73
   102
  0
VERTEX
  5
6A2
  8
0
 62
     9
 10
0.0
 20
0.0
 30
0.0
 70
   128
 71
    35
 72
    36
 73
   121
  0
VERTEX
  5
6A3
  8
0
 62
     9
 10
0.0
 20
0.0
 30
0.0
 70
   128
 71
    29
 72
   102
 73
    26
  0
VERTEX
  5
6A4
  8
0
 62
     9
 10
0.0
 20
0.0
 30
0.0
 70
   128
 71
    94
 72
    45
 73
   119
  0
VERTEX
  5
6A5
  8
0
 62
     9
 10
0.0
 20
0.0
 30
0.0
 70
   128
 71
   124
 72
    91
 73
   125
  0
VERTEX
  5
6A6
  8
0
 62
     9
 10
0.0
 20
0.0
 30
0.0
 70
   128
 71
    35
 72
   119
 73
    45
  0
VERTEX
  5
6A7
  8
0
 62
     9
 10
0.0
 20
0.0
 30
0.0
 70
   128
 71
   128
 72
   127
 73
   126
  0
VERTEX
  5
6A8
  8
0
 62
     9
 10
0.0
 20
0.0
 30
0.0
 70
   128
 71
   128
 72
   126
 73
   129
  0
VERTEX
  5
6A9
  8
0
 62
     9
 10
0.0
 20
0.0
 30
0.0
 70
   128
 71
   130
 72
   128
 73
   105
  0
VERTEX
  5
6AA
  8
0
 62
     9
 10
0.0
 20
0.0
 30
0.0
 70
   128
 71
   133
 72
   132
 73
   131
  0
VERTEX
  5
6AB
  8
0
 62
     9
 10
0.0
 20
0.0
 30
0.0
 70
   128
 71
   128
 72
   129
 73
   107
  0
VERTEX
  5
6AC
  8
0
 62
     9
 10
0.0
 20
0.0
 30
0.0
 70
   128
 71
   130
 72
   133
 73
   131
  0
VERTEX
  5
6AD
  8
0
 62
     9
 10
0.0
 20
0.0
 30
0.0
 70
   128
 71
    41
 72
   110
 73
    40
  0
VERTEX
  5
6AE
  8
0
 62
     9
 10
0.0
 20
0.0
 30
0.0
 70
   128
 71
   132
 72
    51
 73
   123
  0
VERTEX
  5
6AF
  8
0
 62
     9
 10
0.0
 20
0.0
 30
0.0
 70
   128
 71
   124
 72
   122
 73
   100
  0
VERTEX
  5
6B0
  8
0
 62
     9
 10
0.0
 20
0.0
 30
0.0
 70
   128
 71
   133
 72
    30
 73
    52
  0
VERTEX
  5
6B1
  8
0
 62
     9
 10
0.0
 20
0.0
 30
0.0
 70
   128
 71
    52
 72
    51
 73
   132
  0
VERTEX
  5
6B2
  8
0
 62
     9
 10
0.0
 20
0.0
 30
0.0
 70
   128
 71
   122
 72
    25
 73
    26
  0
VERTEX
  5
6B3
  8
0
 62
     9
 10
0.0
 20
0.0
 30
0.0
 70
   128
 71
   124
 72
   100
 73
    90
  0
VERTEX
  5
6B4
  8
0
 62
     9
 10
0.0
 20
0.0
 30
0.0
 70
   128
 71
   130
 72
   112
 73
   133
  0
VERTEX
  5
6B5
  8
0
 62
     9
 10
0.0
 20
0.0
 30
0.0
 70
   128
 71
   123
 72
    51
 73
    25
  0
VERTEX
  5
6B6
  8
0
 62
     9
 10
0.0
 20
0.0
 30
0.0
 70
   128
 71
   124
 72
   134
 73
   123
  0
VERTEX
  5
6B7
  8
0
 62
     9
 10
0.0
 20
0.0
 30
0.0
 70
   128
 71
   132
 72
   134
 73
   131
  0
VERTEX
  5
6B8
  8
0
 62
     9
 10
0.0
 20
0.0
 30
0.0
 70
   128
 71
   133
 72
   112
 73
    30
  0
VERTEX
  5
6B9
  8
0
 62
     9
 10
0.0
 20
0.0
 30
0.0
 70
   128
 71
   132
 72
   133
 73
    52
  0
VERTEX
  5
6BA
  8
0
 62
     9
 10
0.0
 20
0.0
 30
0.0
 70
   128
 71
   123
 72
   122
 73
   124
  0
VERTEX
  5
6BB
  8
0
 62
     9
 10
0.0
 20
0.0
 30
0.0
 70
   128
 71
   125
 72
    91
 73
    93
  0
VERTEX
  5
6BC
  8
0
 62
     9
 10
0.0
 20
0.0
 30
0.0
 70
   128
 71
   131
 72
   127
 73
   130
  0
VERTEX
  5
6BD
  8
0
 62
     9
 10
0.0
 20
0.0
 30
0.0
 70
   128
 71
   134
 72
   132
 73
   123
  0
VERTEX
  5
6BE
  8
0
 62
     9
 10
0.0
 20
0.0
 30
0.0
 70
   128
 71
   134
 72
   125
 73
   120
  0
VERTEX
  5
6BF
  8
0
 62
     9
 10
0.0
 20
0.0
 30
0.0
 70
   128
 71
   111
 72
   112
 73
   130
  0
VERTEX
  5
6C0
  8
0
 62
     9
 10
0.0
 20
0.0
 30
0.0
 70
   128
 71
   127
 72
   131
 73
   120
  0
VERTEX
  5
6C1
  8
0
 62
     9
 10
0.0
 20
0.0
 30
0.0
 70
   128
 71
   111
 72
   130
 73
   105
  0
VERTEX
  5
6C2
  8
0
 62
     9
 10
0.0
 20
0.0
 30
0.0
 70
   128
 71
   125
 72
   134
 73
   124
  0
VERTEX
  5
6C3
  8
0
 62
     9
 10
0.0
 20
0.0
 30
0.0
 70
   128
 71
    93
 72
    94
 73
   119
  0
VERTEX
  5
6C4
  8
0
 62
     9
 10
0.0
 20
0.0
 30
0.0
 70
   128
 71
   126
 72
   127
 73
   121
  0
VERTEX
  5
6C5
  8
0
 62
     9
 10
0.0
 20
0.0
 30
0.0
 70
   128
 71
   120
 72
   131
 73
   134
  0
VERTEX
  5
6C6
  8
0
 62
     9
 10
0.0
 20
0.0
 30
0.0
 70
   128
 71
   127
 72
   120
 73
   121
  0
VERTEX
  5
6C7
  8
0
 62
     9
 10
0.0
 20
0.0
 30
0.0
 70
   128
 71
   110
 72
   107
 73
   129
  0
VERTEX
  5
6C8
  8
0
 62
     9
 10
0.0
 20
0.0
 30
0.0
 70
   128
 71
   128
 72
   107
 73
   105
  0
VERTEX
  5
6C9
  8
0
 62
     9
 10
0.0
 20
0.0
 30
0.0
 70
   128
 71
   127
 72
   128
 73
   130
  0
VERTEX
  5
6CA
  8
0
 62
     9
 10
0.0
 20
0.0
 30
0.0
 70
   128
 71
   119
 72
   125
 73
    93
  0
VERTEX
  5
6CB
  8
0
 62
     9
 10
0.0
 20
0.0
 30
0.0
 70
   128
 71
   125
 72
   119
 73
   120
  0
VERTEX
  5
6CC
  8
0
 62
     9
 10
0.0
 20
0.0
 30
0.0
 70
   128
 71
    36
 72
    38
 73
   126
  0
VERTEX
  5
6CD
  8
0
 62
     9
 10
0.0
 20
0.0
 30
0.0
 70
   128
 71
   121
 72
   119
 73
    35
  0
VERTEX
  5
6CE
  8
0
 62
     9
 10
0.0
 20
0.0
 30
0.0
 70
   128
 71
    38
 72
    40
 73
   129
  0
VERTEX
  5
6CF
  8
0
 62
     9
 10
0.0
 20
0.0
 30
0.0
 70
   128
 71
   126
 72
   121
 73
    36
  0
VERTEX
  5
6D0
  8
0
 62
     9
 10
0.0
 20
0.0
 30
0.0
 70
   128
 71
   129
 72
   126
 73
    38
  0
VERTEX
  5
6D1
  8
0
 62
     9
 10
0.0
 20
0.0
 30
0.0
 70
   128
 71
   110
 72
   129
 73
    40
  0
VERTEX
  5
6D2
  8
0
 62
     9
 10
0.0
 20
0.0
 30
0.0
 70
   128
 71
     6
 72
   135
 73
    77
  0
VERTEX
  5
6D3
  8
0
 62
     9
 10
0.0
 20
0.0
 30
0.0
 70
   128
 71
    82
 72
   136
 73
    85
  0
VERTEX
  5
6D4
  8
0
 62
     9
 10
0.0
 20
0.0
 30
0.0
 70
   128
 71
    67
 72
   138
 73
   137
  0
VERTEX
  5
6D5
  8
0
 62
     9
 10
0.0
 20
0.0
 30
0.0
 70
   128
 71
    13
 72
    85
 73
    12
  0
VERTEX
  5
6D6
  8
0
 62
     9
 10
0.0
 20
0.0
 30
0.0
 70
   128
 71
   136
 72
    12
 73
    85
  0
VERTEX
  5
6D7
  8
0
 62
     9
 10
0.0
 20
0.0
 30
0.0
 70
   128
 71
    67
 72
   137
 73
    82
  0
VERTEX
  5
6D8
  8
0
 62
     9
 10
0.0
 20
0.0
 30
0.0
 70
   128
 71
   137
 72
   136
 73
    82
  0
VERTEX
  5
6D9
  8
0
 62
     9
 10
0.0
 20
0.0
 30
0.0
 70
   128
 71
    65
 72
   138
 73
    67
  0
VERTEX
  5
6DA
  8
0
 62
     9
 10
0.0
 20
0.0
 30
0.0
 70
   128
 71
   135
 72
    65
 73
    77
  0
VERTEX
  5
6DB
  8
0
 62
     9
 10
0.0
 20
0.0
 30
0.0
 70
   128
 71
    65
 72
   135
 73
   138
  0
VERTEX
  5
6DC
  8
0
 62
     9
 10
0.0
 20
0.0
 30
0.0
 70
   128
 71
    77
 72
     7
 73
     6
  0
SEQEND
  5
6DD
  8
0
 62
     9
  0
ENDBLK
  5
6E0
  8
0
  0
BLOCK
  8
0
  2
43
 70
     0
 10
0.0
 20
0.0
 30
0.0
  3
43
  1

  0
POLYLINE
  5
6E2
  8
0
 62
     9
 66
     1
 10
0.0
 20
0.0
 30
0.0
 70
    64
 71
    78
 72
   134
  0
VERTEX
  5
6E3
  8
0
 10
-23.63912391662598
 20
4.081947326660156
 30
0.0000000000000007
 70
   192
  0
VERTEX
  5
6E4
  8
0
 10
-23.63912391662598
 20
-4.081948280334473
 30
100.0
 70
   192
  0
VERTEX
  5
6E5
  8
0
 10
-23.60476303100586
 20
-4.254566192626953
 30
-0.0000000000000007
 70
   192
  0
VERTEX
  5
6E6
  8
0
 10
-20.81395721435547
 20
-11.93513202667236
 30
100.0
 70
   192
  0
VERTEX
  5
6E7
  8
0
 10
-20.72597122192383
 20
-12.06685256958008
 30
-0.000000000000002
 70
   192
  0
VERTEX
  5
6E8
  8
0
 10
-15.36113262176514
 20
-18.41838836669922
 30
-0.0000000000000031
 70
   192
  0
VERTEX
  5
6E9
  8
0
 10
-15.46358203887939
 20
-18.34995460510254
 30
100.0
 70
   192
  0
VERTEX
  5
6EA
  8
0
 10
-8.232942581176758
 20
-22.54274940490723
 30
100.0
 70
   192
  0
VERTEX
  5
6EB
  8
0
 10
-8.232942581176758
 20
-22.54274940490723
 30
-0.0000000000000038
 70
   192
  0
VERTEX
  5
6EC
  8
0
 10
0.0000000000000009
 20
-24.0
 30
100.0
 70
   192
  0
VERTEX
  5
6ED
  8
0
 10
0.0000000000000009
 20
-24.0
 30
-0.0000000000000041
 70
   192
  0
VERTEX
  5
6EE
  8
0
 10
-23.60476303100586
 20
4.254564762115479
 30
100.0
 70
   192
  0
VERTEX
  5
6EF
  8
0
 10
-21.63229942321777
 20
9.974401473999023
 30
59.42257690429688
 70
   192
  0
VERTEX
  5
6F0
  8
0
 10
-18.39706420898438
 20
14.99195766448975
 30
64.56403350830078
 70
   192
  0
VERTEX
  5
6F1
  8
0
 10
-20.72597122192383
 20
12.06685066223145
 30
100.0
 70
   192
  0
VERTEX
  5
6F2
  8
0
 10
-15.36113262176514
 20
18.41838836669922
 30
100.0
 70
   192
  0
VERTEX
  5
6F3
  8
0
 10
-13.94152736663818
 20
19.45079231262207
 30
69.14490509033203
 70
   192
  0
VERTEX
  5
6F4
  8
0
 10
-8.232942581176758
 20
22.54274749755859
 30
100.0
 70
   192
  0
VERTEX
  5
6F5
  8
0
 10
-7.653110504150391
 20
22.72177124023438
 30
72.45896911621094
 70
   192
  0
VERTEX
  5
6F6
  8
0
 10
0.0000000000000038
 20
24.0
 30
100.0
 70
   192
  0
VERTEX
  5
6F7
  8
0
 10
0.0000000000000038
 20
24.0
 30
73.75
 70
   192
  0
VERTEX
  5
6F8
  8
0
 10
-8.232942581176758
 20
22.54274749755859
 30
0.0000000000000038
 70
   192
  0
VERTEX
  5
6F9
  8
0
 10
-7.617723941802979
 20
22.77439880371094
 30
27.48965454101562
 70
   192
  0
VERTEX
  5
6FA
  8
0
 10
-13.98719596862793
 20
19.5368480682373
 30
30.7727222442627
 70
   192
  0
VERTEX
  5
6FB
  8
0
 10
-15.46358203887939
 20
18.34995460510254
 30
0.0000000000000031
 70
   192
  0
VERTEX
  5
6FC
  8
0
 10
-18.46234512329102
 20
15.0318775177002
 30
35.39406967163086
 70
   192
  0
VERTEX
  5
6FD
  8
0
 10
-21.63728904724121
 20
10.03490543365479
 30
40.60812377929688
 70
   192
  0
VERTEX
  5
6FE
  8
0
 10
-20.81395721435547
 20
11.93513107299805
 30
0.000000000000002
 70
   192
  0
VERTEX
  5
6FF
  8
0
 10
-23.4460277557373
 20
5.219446659088135
 30
46.47119522094727
 70
   192
  0
VERTEX
  5
700
  8
0
 10
-23.50398063659668
 20
4.617461681365967
 30
53.43976593017578
 70
   192
  0
VERTEX
  5
701
  8
0
 10
0.0000000000000038
 20
24.0
 30
0.0000000000000041
 70
   192
  0
VERTEX
  5
702
  8
0
 10
0.0000000000000038
 20
24.0
 30
26.25
 70
   192
  0
VERTEX
  5
703
  8
0
 10
-21.65277290344238
 20
49.0
 30
42.98385620117188
 70
   192
  0
VERTEX
  5
704
  8
0
 10
-22.76000022888184
 20
49.0
 30
50.0
 70
   192
  0
VERTEX
  5
705
  8
0
 10
-18.43867301940918
 20
49.0
 30
36.64763259887695
 70
   192
  0
VERTEX
  5
706
  8
0
 10
-13.34241008758545
 20
49.0
 30
31.74810409545898
 70
   192
  0
VERTEX
  5
707
  8
0
 10
-7.00795841217041
 20
49.0
 30
28.45727348327637
 70
   192
  0
VERTEX
  5
708
  8
0
 10
-0.0000000000000019
 20
49.0
 30
27.23999977111816
 70
   192
  0
VERTEX
  5
709
  8
0
 10
-21.63789749145508
 20
49.0
 30
57.05025482177734
 70
   192
  0
VERTEX
  5
70A
  8
0
 10
-18.35610771179199
 20
49.0
 30
63.34639739990234
 70
   192
  0
VERTEX
  5
70B
  8
0
 10
-13.30729866027832
 20
49.0
 30
68.3103256225586
 70
   192
  0
VERTEX
  5
70C
  8
0
 10
-7.02008056640625
 20
49.0
 30
71.65474700927734
 70
   192
  0
VERTEX
  5
70D
  8
0
 10
0.0000000000000009
 20
49.0
 30
72.76000213623047
 70
   192
  0
VERTEX
  5
70E
  8
0
 10
7.02008056640625
 20
49.0
 30
28.34525299072266
 70
   192
  0
VERTEX
  5
70F
  8
0
 10
23.44602012634277
 20
5.219555377960205
 30
46.47045516967773
 70
   192
  0
VERTEX
  5
710
  8
0
 10
22.76000022888184
 20
49.0
 30
50.0
 70
   192
  0
VERTEX
  5
711
  8
0
 10
21.63789749145508
 20
49.0
 30
42.94974517822266
 70
   192
  0
VERTEX
  5
712
  8
0
 10
18.35610771179199
 20
49.0
 30
36.65360260009766
 70
   192
  0
VERTEX
  5
713
  8
0
 10
13.30729866027832
 20
49.0
 30
31.68967056274414
 70
   192
  0
VERTEX
  5
714
  8
0
 10
18.46000289916992
 20
15.03132057189941
 30
35.39477920532227
 70
   192
  0
VERTEX
  5
715
  8
0
 10
21.63189506530762
 20
9.974394798278809
 30
59.42278289794922
 70
   192
  0
VERTEX
  5
716
  8
0
 10
18.39715766906738
 20
14.99212265014648
 30
64.56422424316406
 70
   192
  0
VERTEX
  5
717
  8
0
 10
18.43867301940918
 20
49.0
 30
63.35236740112305
 70
   192
  0
VERTEX
  5
718
  8
0
 10
21.65277290344238
 20
49.0
 30
57.01614379882812
 70
   192
  0
VERTEX
  5
719
  8
0
 10
23.50400543212891
 20
4.617693901062012
 30
53.43901824951172
 70
   192
  0
VERTEX
  5
71A
  8
0
 10
7.653580188751221
 20
22.72216415405273
 30
72.45938110351562
 70
   192
  0
VERTEX
  5
71B
  8
0
 10
13.34241008758545
 20
49.0
 30
68.25189971923828
 70
   192
  0
VERTEX
  5
71C
  8
0
 10
13.94069957733154
 20
19.45057106018066
 30
69.14466094970703
 70
   192
  0
VERTEX
  5
71D
  8
0
 10
7.00795841217041
 20
49.0
 30
71.542724609375
 70
   192
  0
VERTEX
  5
71E
  8
0
 10
21.63936996459961
 20
10.03535270690918
 30
40.60722351074219
 70
   192
  0
VERTEX
  5
71F
  8
0
 10
13.98739337921143
 20
19.53739547729492
 30
30.77216339111328
 70
   192
  0
VERTEX
  5
720
  8
0
 10
7.617004871368408
 20
22.77409934997559
 30
27.48996353149414
 70
   192
  0
VERTEX
  5
721
  8
0
 10
8.155163764953613
 20
22.37743949890137
 30
0.0000000000000038
 70
   192
  0
VERTEX
  5
722
  8
0
 10
15.42822551727295
 20
18.29778861999512
 30
0.0000000000000031
 70
   192
  0
VERTEX
  5
723
  8
0
 10
20.79446792602539
 20
11.99324035644531
 30
0.000000000000002
 70
   192
  0
VERTEX
  5
724
  8
0
 10
23.6381893157959
 20
4.138305187225342
 30
0.0000000000000007
 70
   192
  0
VERTEX
  5
725
  8
0
 10
8.182984352111816
 20
-22.5513858795166
 30
-0.0000000000000038
 70
   192
  0
VERTEX
  5
726
  8
0
 10
20.77848243713379
 20
-11.98682975769043
 30
-0.000000000000002
 70
   192
  0
VERTEX
  5
727
  8
0
 10
23.62795639038086
 20
-4.1856689453125
 30
-0.0000000000000007
 70
   192
  0
VERTEX
  5
728
  8
0
 10
15.34346008300781
 20
-18.28369140625
 30
-0.0000000000000031
 70
   192
  0
VERTEX
  5
729
  8
0
 10
15.42822551727295
 20
-18.29778861999512
 30
100.0
 70
   192
  0
VERTEX
  5
72A
  8
0
 10
8.155163764953613
 20
-22.37744140625
 30
100.0
 70
   192
  0
VERTEX
  5
72B
  8
0
 10
15.34346008300781
 20
18.28368949890137
 30
100.0
 70
   192
  0
VERTEX
  5
72C
  8
0
 10
23.6381893157959
 20
-4.138306617736816
 30
100.0
 70
   192
  0
VERTEX
  5
72D
  8
0
 10
20.79446792602539
 20
-11.99324131011963
 30
100.0
 70
   192
  0
VERTEX
  5
72E
  8
0
 10
23.62795639038086
 20
4.185667514801025
 30
100.0
 70
   192
  0
VERTEX
  5
72F
  8
0
 10
8.182984352111816
 20
22.55138397216797
 30
100.0
 70
   192
  0
VERTEX
  5
730
  8
0
 10
20.77848243713379
 20
11.98682880401611
 30
100.0
 70
   192
  0
VERTEX
  5
731
  8
0
 62
     9
 10
0.0
 20
0.0
 30
0.0
 70
   128
 71
     3
 72
     2
 73
     1
  0
VERTEX
  5
732
  8
0
 62
     9
 10
0.0
 20
0.0
 30
0.0
 70
   128
 71
     5
 72
     4
 73
     2
  0
VERTEX
  5
733
  8
0
 62
     9
 10
0.0
 20
0.0
 30
0.0
 70
   128
 71
     2
 72
     3
 73
     5
  0
VERTEX
  5
734
  8
0
 62
     9
 10
0.0
 20
0.0
 30
0.0
 70
   128
 71
     7
 72
     5
 73
     6
  0
VERTEX
  5
735
  8
0
 62
     9
 10
0.0
 20
0.0
 30
0.0
 70
   128
 71
     5
 72
     7
 73
     4
  0
VERTEX
  5
736
  8
0
 62
     9
 10
0.0
 20
0.0
 30
0.0
 70
   128
 71
     9
 72
     8
 73
     6
  0
VERTEX
  5
737
  8
0
 62
     9
 10
0.0
 20
0.0
 30
0.0
 70
   128
 71
     7
 72
     6
 73
     8
  0
VERTEX
  5
738
  8
0
 62
     9
 10
0.0
 20
0.0
 30
0.0
 70
   128
 71
    10
 72
     8
 73
     9
  0
VERTEX
  5
739
  8
0
 62
     9
 10
0.0
 20
0.0
 30
0.0
 70
   128
 71
    11
 72
    10
 73
     9
  0
VERTEX
  5
73A
  8
0
 62
     9
 10
0.0
 20
0.0
 30
0.0
 70
   128
 71
     2
 72
    12
 73
     1
  0
VERTEX
  5
73B
  8
0
 62
     9
 10
0.0
 20
0.0
 30
0.0
 70
   128
 71
    15
 72
    14
 73
    13
  0
VERTEX
  5
73C
  8
0
 62
     9
 10
0.0
 20
0.0
 30
0.0
 70
   128
 71
    13
 72
    12
 73
    15
  0
VERTEX
  5
73D
  8
0
 62
     9
 10
0.0
 20
0.0
 30
0.0
 70
   128
 71
    17
 72
    14
 73
    16
  0
VERTEX
  5
73E
  8
0
 62
     9
 10
0.0
 20
0.0
 30
0.0
 70
   128
 71
    19
 72
    17
 73
    18
  0
VERTEX
  5
73F
  8
0
 62
     9
 10
0.0
 20
0.0
 30
0.0
 70
   128
 71
    17
 72
    16
 73
    18
  0
VERTEX
  5
740
  8
0
 62
     9
 10
0.0
 20
0.0
 30
0.0
 70
   128
 71
    19
 72
    18
 73
    20
  0
VERTEX
  5
741
  8
0
 62
     9
 10
0.0
 20
0.0
 30
0.0
 70
   128
 71
    21
 72
    19
 73
    20
  0
VERTEX
  5
742
  8
0
 62
     9
 10
0.0
 20
0.0
 30
0.0
 70
   128
 71
    24
 72
    23
 73
    22
  0
VERTEX
  5
743
  8
0
 62
     9
 10
0.0
 20
0.0
 30
0.0
 70
   128
 71
    26
 72
    24
 73
    25
  0
VERTEX
  5
744
  8
0
 62
     9
 10
0.0
 20
0.0
 30
0.0
 70
   128
 71
    26
 72
    28
 73
    27
  0
VERTEX
  5
745
  8
0
 62
     9
 10
0.0
 20
0.0
 30
0.0
 70
   128
 71
    16
 72
    14
 73
    15
  0
VERTEX
  5
746
  8
0
 62
     9
 10
0.0
 20
0.0
 30
0.0
 70
   128
 71
    27
 72
     1
 73
    29
  0
VERTEX
  5
747
  8
0
 62
     9
 10
0.0
 20
0.0
 30
0.0
 70
   128
 71
    13
 72
    30
 73
    12
  0
VERTEX
  5
748
  8
0
 62
     9
 10
0.0
 20
0.0
 30
0.0
 70
   128
 71
    12
 72
    29
 73
     1
  0
VERTEX
  5
749
  8
0
 62
     9
 10
0.0
 20
0.0
 30
0.0
 70
   128
 71
    30
 72
    29
 73
    12
  0
VERTEX
  5
74A
  8
0
 62
     9
 10
0.0
 20
0.0
 30
0.0
 70
   128
 71
     1
 72
    27
 73
    28
  0
VERTEX
  5
74B
  8
0
 62
     9
 10
0.0
 20
0.0
 30
0.0
 70
   128
 71
    28
 72
    26
 73
    25
  0
VERTEX
  5
74C
  8
0
 62
     9
 10
0.0
 20
0.0
 30
0.0
 70
   128
 71
    25
 72
    24
 73
    22
  0
VERTEX
  5
74D
  8
0
 62
     9
 10
0.0
 20
0.0
 30
0.0
 70
   128
 71
    22
 72
    23
 73
    31
  0
VERTEX
  5
74E
  8
0
 62
     9
 10
0.0
 20
0.0
 30
0.0
 70
   128
 71
    23
 72
    32
 73
    31
  0
VERTEX
  5
74F
  8
0
 62
     9
 10
0.0
 20
0.0
 30
0.0
 70
   128
 71
    29
 72
    34
 73
    33
  0
VERTEX
  5
750
  8
0
 62
     9
 10
0.0
 20
0.0
 30
0.0
 70
   128
 71
    35
 72
    27
 73
    33
  0
VERTEX
  5
751
  8
0
 62
     9
 10
0.0
 20
0.0
 30
0.0
 70
   128
 71
    29
 72
    33
 73
    27
  0
VERTEX
  5
752
  8
0
 62
     9
 10
0.0
 20
0.0
 30
0.0
 70
   128
 71
    35
 72
    36
 73
    26
  0
VERTEX
  5
753
  8
0
 62
     9
 10
0.0
 20
0.0
 30
0.0
 70
   128
 71
    26
 72
    27
 73
    35
  0
VERTEX
  5
754
  8
0
 62
     9
 10
0.0
 20
0.0
 30
0.0
 70
   128
 71
    23
 72
    24
 73
    36
  0
VERTEX
  5
755
  8
0
 62
     9
 10
0.0
 20
0.0
 30
0.0
 70
   128
 71
    36
 72
    24
 73
    26
  0
VERTEX
  5
756
  8
0
 62
     9
 10
0.0
 20
0.0
 30
0.0
 70
   128
 71
    37
 72
    32
 73
    23
  0
VERTEX
  5
757
  8
0
 62
     9
 10
0.0
 20
0.0
 30
0.0
 70
   128
 71
    23
 72
    36
 73
    37
  0
VERTEX
  5
758
  8
0
 62
     9
 10
0.0
 20
0.0
 30
0.0
 70
   128
 71
    38
 72
    32
 73
    37
  0
VERTEX
  5
759
  8
0
 62
     9
 10
0.0
 20
0.0
 30
0.0
 70
   128
 71
    34
 72
    29
 73
    30
  0
VERTEX
  5
75A
  8
0
 62
     9
 10
0.0
 20
0.0
 30
0.0
 70
   128
 71
    30
 72
    13
 73
    39
  0
VERTEX
  5
75B
  8
0
 62
     9
 10
0.0
 20
0.0
 30
0.0
 70
   128
 71
    39
 72
    34
 73
    30
  0
VERTEX
  5
75C
  8
0
 62
     9
 10
0.0
 20
0.0
 30
0.0
 70
   128
 71
    40
 72
    13
 73
    14
  0
VERTEX
  5
75D
  8
0
 62
     9
 10
0.0
 20
0.0
 30
0.0
 70
   128
 71
    13
 72
    40
 73
    39
  0
VERTEX
  5
75E
  8
0
 62
     9
 10
0.0
 20
0.0
 30
0.0
 70
   128
 71
    17
 72
    41
 73
    14
  0
VERTEX
  5
75F
  8
0
 62
     9
 10
0.0
 20
0.0
 30
0.0
 70
   128
 71
    40
 72
    14
 73
    41
  0
VERTEX
  5
760
  8
0
 62
     9
 10
0.0
 20
0.0
 30
0.0
 70
   128
 71
    19
 72
    42
 73
    41
  0
VERTEX
  5
761
  8
0
 62
     9
 10
0.0
 20
0.0
 30
0.0
 70
   128
 71
    41
 72
    17
 73
    19
  0
VERTEX
  5
762
  8
0
 62
     9
 10
0.0
 20
0.0
 30
0.0
 70
   128
 71
    21
 72
    42
 73
    19
  0
VERTEX
  5
763
  8
0
 62
     9
 10
0.0
 20
0.0
 30
0.0
 70
   128
 71
    21
 72
    43
 73
    42
  0
VERTEX
  5
764
  8
0
 62
     9
 10
0.0
 20
0.0
 30
0.0
 70
   128
 71
    32
 72
    38
 73
    44
  0
VERTEX
  5
765
  8
0
 62
     9
 10
0.0
 20
0.0
 30
0.0
 70
   128
 71
    47
 72
    46
 73
    45
  0
VERTEX
  5
766
  8
0
 62
     9
 10
0.0
 20
0.0
 30
0.0
 70
   128
 71
    50
 72
    49
 73
    48
  0
VERTEX
  5
767
  8
0
 62
     9
 10
0.0
 20
0.0
 30
0.0
 70
   128
 71
    53
 72
    52
 73
    51
  0
VERTEX
  5
768
  8
0
 62
     9
 10
0.0
 20
0.0
 30
0.0
 70
   128
 71
    51
 72
    55
 73
    54
  0
VERTEX
  5
769
  8
0
 62
     9
 10
0.0
 20
0.0
 30
0.0
 70
   128
 71
    58
 72
    57
 73
    56
  0
VERTEX
  5
76A
  8
0
 62
     9
 10
0.0
 20
0.0
 30
0.0
 70
   128
 71
    58
 72
    52
 73
    57
  0
VERTEX
  5
76B
  8
0
 62
     9
 10
0.0
 20
0.0
 30
0.0
 70
   128
 71
    21
 72
    56
 73
    59
  0
VERTEX
  5
76C
  8
0
 62
     9
 10
0.0
 20
0.0
 30
0.0
 70
   128
 71
    57
 72
    59
 73
    56
  0
VERTEX
  5
76D
  8
0
 62
     9
 10
0.0
 20
0.0
 30
0.0
 70
   128
 71
    21
 72
    59
 73
    43
  0
VERTEX
  5
76E
  8
0
 62
     9
 10
0.0
 20
0.0
 30
0.0
 70
   128
 71
    57
 72
    52
 73
    53
  0
VERTEX
  5
76F
  8
0
 62
     9
 10
0.0
 20
0.0
 30
0.0
 70
   128
 71
    54
 72
    53
 73
    51
  0
VERTEX
  5
770
  8
0
 62
     9
 10
0.0
 20
0.0
 30
0.0
 70
   128
 71
    46
 72
    55
 73
    45
  0
VERTEX
  5
771
  8
0
 62
     9
 10
0.0
 20
0.0
 30
0.0
 70
   128
 71
    46
 72
    54
 73
    55
  0
VERTEX
  5
772
  8
0
 62
     9
 10
0.0
 20
0.0
 30
0.0
 70
   128
 71
    48
 72
    47
 73
    60
  0
VERTEX
  5
773
  8
0
 62
     9
 10
0.0
 20
0.0
 30
0.0
 70
   128
 71
    60
 72
    47
 73
    45
  0
VERTEX
  5
774
  8
0
 62
     9
 10
0.0
 20
0.0
 30
0.0
 70
   128
 71
    50
 72
    48
 73
    60
  0
VERTEX
  5
775
  8
0
 62
     9
 10
0.0
 20
0.0
 30
0.0
 70
   128
 71
    61
 72
    49
 73
    50
  0
VERTEX
  5
776
  8
0
 62
     9
 10
0.0
 20
0.0
 30
0.0
 70
   128
 71
    49
 72
    62
 73
    44
  0
VERTEX
  5
777
  8
0
 62
     9
 10
0.0
 20
0.0
 30
0.0
 70
   128
 71
    62
 72
    49
 73
    61
  0
VERTEX
  5
778
  8
0
 62
     9
 10
0.0
 20
0.0
 30
0.0
 70
   128
 71
    44
 72
    62
 73
    32
  0
VERTEX
  5
779
  8
0
 62
     9
 10
0.0
 20
0.0
 30
0.0
 70
   128
 71
    63
 72
     5
 73
     3
  0
VERTEX
  5
77A
  8
0
 62
     9
 10
0.0
 20
0.0
 30
0.0
 70
   128
 71
    31
 72
     1
 73
    22
  0
VERTEX
  5
77B
  8
0
 62
     9
 10
0.0
 20
0.0
 30
0.0
 70
   128
 71
     1
 72
    28
 73
    22
  0
VERTEX
  5
77C
  8
0
 62
     9
 10
0.0
 20
0.0
 30
0.0
 70
   128
 71
    22
 72
    28
 73
    25
  0
VERTEX
  5
77D
  8
0
 62
     9
 10
0.0
 20
0.0
 30
0.0
 70
   128
 71
    31
 72
     3
 73
     1
  0
VERTEX
  5
77E
  8
0
 62
     9
 10
0.0
 20
0.0
 30
0.0
 70
   128
 71
    64
 72
     5
 73
    63
  0
VERTEX
  5
77F
  8
0
 62
     9
 10
0.0
 20
0.0
 30
0.0
 70
   128
 71
    63
 72
     3
 73
    31
  0
VERTEX
  5
780
  8
0
 62
     9
 10
0.0
 20
0.0
 30
0.0
 70
   128
 71
    64
 72
     6
 73
     5
  0
VERTEX
  5
781
  8
0
 62
     9
 10
0.0
 20
0.0
 30
0.0
 70
   128
 71
    64
 72
    65
 73
     6
  0
VERTEX
  5
782
  8
0
 62
     9
 10
0.0
 20
0.0
 30
0.0
 70
   128
 71
     6
 72
    65
 73
     9
  0
VERTEX
  5
783
  8
0
 62
     9
 10
0.0
 20
0.0
 30
0.0
 70
   128
 71
     9
 72
    66
 73
    11
  0
VERTEX
  5
784
  8
0
 62
     9
 10
0.0
 20
0.0
 30
0.0
 70
   128
 71
    66
 72
     9
 73
    65
  0
VERTEX
  5
785
  8
0
 62
     9
 10
0.0
 20
0.0
 30
0.0
 70
   128
 71
    69
 72
    68
 73
    67
  0
VERTEX
  5
786
  8
0
 62
     9
 10
0.0
 20
0.0
 30
0.0
 70
   128
 71
    66
 72
    69
 73
    11
  0
VERTEX
  5
787
  8
0
 62
     9
 10
0.0
 20
0.0
 30
0.0
 70
   128
 71
    67
 72
    11
 73
    69
  0
VERTEX
  5
788
  8
0
 62
     9
 10
0.0
 20
0.0
 30
0.0
 70
   128
 71
    70
 72
    67
 73
    68
  0
VERTEX
  5
789
  8
0
 62
     9
 10
0.0
 20
0.0
 30
0.0
 70
   128
 71
    72
 72
    71
 73
    10
  0
VERTEX
  5
78A
  8
0
 62
     9
 10
0.0
 20
0.0
 30
0.0
 70
   128
 71
     4
 72
     7
 73
    73
  0
VERTEX
  5
78B
  8
0
 62
     9
 10
0.0
 20
0.0
 30
0.0
 70
   128
 71
    10
 72
    71
 73
    74
  0
VERTEX
  5
78C
  8
0
 62
     9
 10
0.0
 20
0.0
 30
0.0
 70
   128
 71
    71
 72
    75
 73
    74
  0
VERTEX
  5
78D
  8
0
 62
     9
 10
0.0
 20
0.0
 30
0.0
 70
   128
 71
    76
 72
    10
 73
    74
  0
VERTEX
  5
78E
  8
0
 62
     9
 10
0.0
 20
0.0
 30
0.0
 70
   128
 71
     4
 72
    73
 73
    77
  0
VERTEX
  5
78F
  8
0
 62
     9
 10
0.0
 20
0.0
 30
0.0
 70
   128
 71
     8
 72
    78
 73
     7
  0
VERTEX
  5
790
  8
0
 62
     9
 10
0.0
 20
0.0
 30
0.0
 70
   128
 71
    18
 72
    16
 73
    20
  0
VERTEX
  5
791
  8
0
 62
     9
 10
0.0
 20
0.0
 30
0.0
 70
   128
 71
    20
 72
    12
 73
     2
  0
VERTEX
  5
792
  8
0
 62
     9
 10
0.0
 20
0.0
 30
0.0
 70
   128
 71
    20
 72
    16
 73
    12
  0
VERTEX
  5
793
  8
0
 62
     9
 10
0.0
 20
0.0
 30
0.0
 70
   128
 71
    16
 72
    15
 73
    12
  0
VERTEX
  5
794
  8
0
 62
     9
 10
0.0
 20
0.0
 30
0.0
 70
   128
 71
     4
 72
    77
 73
     2
  0
VERTEX
  5
795
  8
0
 62
     9
 10
0.0
 20
0.0
 30
0.0
 70
   128
 71
     2
 72
    77
 73
    20
  0
VERTEX
  5
796
  8
0
 62
     9
 10
0.0
 20
0.0
 30
0.0
 70
   128
 71
    73
 72
     7
 73
    78
  0
VERTEX
  5
797
  8
0
 62
     9
 10
0.0
 20
0.0
 30
0.0
 70
   128
 71
    78
 72
     8
 73
    76
  0
VERTEX
  5
798
  8
0
 62
     9
 10
0.0
 20
0.0
 30
0.0
 70
   128
 71
     8
 72
    10
 73
    76
  0
VERTEX
  5
799
  8
0
 62
     9
 10
0.0
 20
0.0
 30
0.0
 70
   128
 71
    11
 72
    67
 73
    72
  0
VERTEX
  5
79A
  8
0
 62
     9
 10
0.0
 20
0.0
 30
0.0
 70
   128
 71
    74
 72
    69
 73
    76
  0
VERTEX
  5
79B
  8
0
 62
     9
 10
0.0
 20
0.0
 30
0.0
 70
   128
 71
    75
 72
    71
 73
    70
  0
VERTEX
  5
79C
  8
0
 62
     9
 10
0.0
 20
0.0
 30
0.0
 70
   128
 71
    60
 72
    65
 73
    50
  0
VERTEX
  5
79D
  8
0
 62
     9
 10
0.0
 20
0.0
 30
0.0
 70
   128
 71
    66
 72
    45
 73
    55
  0
VERTEX
  5
79E
  8
0
 62
     9
 10
0.0
 20
0.0
 30
0.0
 70
   128
 71
    61
 72
    63
 73
    62
  0
VERTEX
  5
79F
  8
0
 62
     9
 10
0.0
 20
0.0
 30
0.0
 70
   128
 71
    64
 72
    61
 73
    50
  0
VERTEX
  5
7A0
  8
0
 62
     9
 10
0.0
 20
0.0
 30
0.0
 70
   128
 71
    32
 72
    62
 73
    31
  0
VERTEX
  5
7A1
  8
0
 62
     9
 10
0.0
 20
0.0
 30
0.0
 70
   128
 71
    63
 72
    31
 73
    62
  0
VERTEX
  5
7A2
  8
0
 62
     9
 10
0.0
 20
0.0
 30
0.0
 70
   128
 71
    64
 72
    63
 73
    61
  0
VERTEX
  5
7A3
  8
0
 62
     9
 10
0.0
 20
0.0
 30
0.0
 70
   128
 71
    51
 72
    52
 73
    78
  0
VERTEX
  5
7A4
  8
0
 62
     9
 10
0.0
 20
0.0
 30
0.0
 70
   128
 71
    69
 72
    66
 73
    76
  0
VERTEX
  5
7A5
  8
0
 62
     9
 10
0.0
 20
0.0
 30
0.0
 70
   128
 71
    65
 72
    64
 73
    50
  0
VERTEX
  5
7A6
  8
0
 62
     9
 10
0.0
 20
0.0
 30
0.0
 70
   128
 71
    66
 72
    65
 73
    60
  0
VERTEX
  5
7A7
  8
0
 62
     9
 10
0.0
 20
0.0
 30
0.0
 70
   128
 71
    55
 72
    76
 73
    66
  0
VERTEX
  5
7A8
  8
0
 62
     9
 10
0.0
 20
0.0
 30
0.0
 70
   128
 71
    45
 72
    66
 73
    60
  0
VERTEX
  5
7A9
  8
0
 62
     9
 10
0.0
 20
0.0
 30
0.0
 70
   128
 71
    75
 72
    69
 73
    74
  0
VERTEX
  5
7AA
  8
0
 62
     9
 10
0.0
 20
0.0
 30
0.0
 70
   128
 71
    77
 72
    58
 73
    56
  0
VERTEX
  5
7AB
  8
0
 62
     9
 10
0.0
 20
0.0
 30
0.0
 70
   128
 71
    73
 72
    52
 73
    58
  0
VERTEX
  5
7AC
  8
0
 62
     9
 10
0.0
 20
0.0
 30
0.0
 70
   128
 71
    21
 72
    20
 73
    56
  0
VERTEX
  5
7AD
  8
0
 62
     9
 10
0.0
 20
0.0
 30
0.0
 70
   128
 71
    77
 72
    56
 73
    20
  0
VERTEX
  5
7AE
  8
0
 62
     9
 10
0.0
 20
0.0
 30
0.0
 70
   128
 71
    73
 72
    78
 73
    52
  0
VERTEX
  5
7AF
  8
0
 62
     9
 10
0.0
 20
0.0
 30
0.0
 70
   128
 71
    73
 72
    58
 73
    77
  0
VERTEX
  5
7B0
  8
0
 62
     9
 10
0.0
 20
0.0
 30
0.0
 70
   128
 71
    76
 72
    55
 73
    51
  0
VERTEX
  5
7B1
  8
0
 62
     9
 10
0.0
 20
0.0
 30
0.0
 70
   128
 71
    76
 72
    51
 73
    78
  0
VERTEX
  5
7B2
  8
0
 62
     9
 10
0.0
 20
0.0
 30
0.0
 70
   128
 71
    75
 72
    70
 73
    68
  0
VERTEX
  5
7B3
  8
0
 62
     9
 10
0.0
 20
0.0
 30
0.0
 70
   128
 71
    68
 72
    69
 73
    75
  0
VERTEX
  5
7B4
  8
0
 62
     9
 10
0.0
 20
0.0
 30
0.0
 70
   128
 71
    71
 72
    72
 73
    67
  0
VERTEX
  5
7B5
  8
0
 62
     9
 10
0.0
 20
0.0
 30
0.0
 70
   128
 71
    71
 72
    67
 73
    70
  0
VERTEX
  5
7B6
  8
0
 62
     9
 10
0.0
 20
0.0
 30
0.0
 70
   128
 71
    72
 72
    10
 73
    11
  0
SEQEND
  5
7B7
  8
0
 62
     9
  0
ENDBLK
  5
7BA
  8
0
  0
ENDSEC
  0
SECTION
  2
ENTITIES
  0
INSERT
  5
B2
  8
LAYER_1
  2
38
 10
0.0
 20
0.0
 30
0.0
  0
INSERT
  5
39D
  8
LAYER_1
  2
39
 10
0.0
 20
0.0
 30
0.0
  0
INSERT
  5
4D2
  8
LAYER_1
  2
40
 10
0.0
 20
0.0
 30
0.0
  0
INSERT
  5
54E
  8
LAYER_1
  2
41
 10
0.0
 20
0.0
 30
0.0
  0
INSERT
  5
6DE
  8
LAYER_1
  2
42
 10
0.0
 20
0.0
 30
0.0
  0
INSERT
  5
7B8
  8
LAYER_1
  2
43
 10
0.0
 20
0.0
 30
0.0
  0
ENDSEC
  0
EOF
