  0
SECTION
  2
HEADER
  9
$ACADVER
  1
AC1015
  9
$ACADMAINTVER
 70
     6
  9
$DWGCODEPAGE
  3
ANSI_1252
  9
$INSBASE
 10
0.0
 20
0.0
 30
0.0
  9
$EXTMIN
 10
0.0
 20
0.0
 30
0.0
  9
$EXTMAX
 10
1682.0
 20
2378.0
 30
0.0
  9
$LIMMIN
 10
0.0
 20
0.0
  9
$LIMMAX
 10
1682.0
 20
2378.0
  9
$ORTHOMODE
 70
     0
  9
$REGENMODE
 70
     1
  9
$FILLMODE
 70
     1
  9
$QTEXTMODE
 70
     0
  9
$MIRRTEXT
 70
     1
  9
$LTSCALE
 40
1.0
  9
$ATTMODE
 70
     1
  9
$TEXTSIZE
 40
2.5
  9
$TRACEWID
 40
1.0
  9
$TEXTSTYLE
  7
Standard
  9
$CLAYER
  8
0
  9
$CELTYPE
  6
ByLayer
  9
$CECOLOR
 62
   256
  9
$CELTSCALE
 40
1.0
  9
$DISPSILH
 70
     0
  9
$DIMSCALE
 40
1.0
  9
$DIMASZ
 40
2.5
  9
$DIMEXO
 40
0.625
  9
$DIMDLI
 40
3.75
  9
$DIMRND
 40
0.0
  9
$DIMDLE
 40
0.0
  9
$DIMEXE
 40
1.25
  9
$DIMTP
 40
0.0
  9
$DIMTM
 40
0.0
  9
$DIMTXT
 40
2.5
  9
$DIMCEN
 40
2.5
  9
$DIMTSZ
 40
0.0
  9
$DIMTOL
 70
     0
  9
$DIMLIM
 70
     0
  9
$DIMTIH
 70
     0
  9
$DIMTOH
 70
     0
  9
$DIMSE1
 70
     0
  9
$DIMSE2
 70
     0
  9
$DIMTAD
 70
     1
  9
$DIMZIN
 70
     8
  9
$DIMBLK
  1

  9
$DIMASO
 70
     1
  9
$DIMSHO
 70
     1
  9
$DIMPOST
  1

  9
$DIMAPOST
  1

  9
$DIMALT
 70
     0
  9
$DIMALTD
 70
     3
  9
$DIMALTF
 40
0.0393700787
  9
$DIMLFAC
 40
1.0
  9
$DIMTOFL
 70
     1
  9
$DIMTVP
 40
0.0
  9
$DIMTIX
 70
     0
  9
$DIMSOXD
 70
     0
  9
$DIMSAH
 70
     0
  9
$DIMBLK1
  1

  9
$DIMBLK2
  1

  9
$DIMSTYLE
  2
ISO-25
  9
$DIMCLRD
 70
     0
  9
$DIMCLRE
 70
     0
  9
$DIMCLRT
 70
     0
  9
$DIMTFAC
 40
1.0
  9
$DIMGAP
 40
0.625
  9
$DIMJUST
 70
     0
  9
$DIMSD1
 70
     0
  9
$DIMSD2
 70
     0
  9
$DIMTOLJ
 70
     0
  9
$DIMTZIN
 70
     8
  9
$DIMALTZ
 70
     0
  9
$DIMALTTZ
 70
     0
  9
$DIMUPT
 70
     0
  9
$DIMDEC
 70
     2
  9
$DIMTDEC
 70
     2
  9
$DIMALTU
 70
     2
  9
$DIMALTTD
 70
     3
  9
$DIMTXSTY
  7
Standard
  9
$DIMAUNIT
 70
     0
  9
$DIMADEC
 70
     0
  9
$DIMALTRND
 40
0.0
  9
$DIMAZIN
 70
     0
  9
$DIMDSEP
 70
    44
  9
$DIMATFIT
 70
     3
  9
$DIMFRAC
 70
     0
  9
$DIMLDRBLK
  1

  9
$DIMLUNIT
 70
     2
  9
$DIMLWD
 70
    -2
  9
$DIMLWE
 70
    -2
  9
$DIMTMOVE
 70
     0
  9
$LUNITS
 70
     2
  9
$LUPREC
 70
     4
  9
$SKETCHINC
 40
1.0
  9
$FILLETRAD
 40
10.0
  9
$AUNITS
 70
     0
  9
$AUPREC
 70
     0
  9
$MENU
  1
.
  9
$ELEVATION
 40
0.0
  9
$PELEVATION
 40
0.0
  9
$THICKNESS
 40
0.0
  9
$LIMCHECK
 70
     0
  9
$CHAMFERA
 40
10.0
  9
$CHAMFERB
 40
10.0
  9
$CHAMFERC
 40
20.0
  9
$CHAMFERD
 40
0.0
  9
$SKPOLY
 70
     0
  9
$TDCREATE
 40
2455604.413539907
  9
$TDUCREATE
 40
2455604.371873241
  9
$TDUPDATE
 40
2455604.413539919
  9
$TDUUPDATE
 40
2455604.371873252
  9
$TDINDWG
 40
0.0000000116
  9
$TDUSRTIMER
 40
0.0000000116
  9
$USRTIMER
 70
     1
  9
$ANGBASE
 50
0.0
  9
$ANGDIR
 70
     0
  9
$PDMODE
 70
     0
  9
$PDSIZE
 40
0.0
  9
$PLINEWID
 40
0.0
  9
$SPLFRAME
 70
     0
  9
$SPLINETYPE
 70
     6
  9
$SPLINESEGS
 70
     8
  9
$HANDSEED
  5
2EA
  9
$SURFTAB1
 70
     6
  9
$SURFTAB2
 70
     6
  9
$SURFTYPE
 70
     6
  9
$SURFU
 70
     6
  9
$SURFV
 70
     6
  9
$UCSBASE
  2

  9
$UCSNAME
  2

  9
$UCSORG
 10
0.0
 20
0.0
 30
0.0
  9
$UCSXDIR
 10
1.0
 20
0.0
 30
0.0
  9
$UCSYDIR
 10
0.0
 20
1.0
 30
0.0
  9
$UCSORTHOREF
  2

  9
$UCSORTHOVIEW
 70
     0
  9
$UCSORGTOP
 10
0.0
 20
0.0
 30
0.0
  9
$UCSORGBOTTOM
 10
0.0
 20
0.0
 30
0.0
  9
$UCSORGLEFT
 10
0.0
 20
0.0
 30
0.0
  9
$UCSORGRIGHT
 10
0.0
 20
0.0
 30
0.0
  9
$UCSORGFRONT
 10
0.0
 20
0.0
 30
0.0
  9
$UCSORGBACK
 10
0.0
 20
0.0
 30
0.0
  9
$PUCSBASE
  2

  9
$PUCSNAME
  2

  9
$PUCSORG
 10
0.0
 20
0.0
 30
0.0
  9
$PUCSXDIR
 10
1.0
 20
0.0
 30
0.0
  9
$PUCSYDIR
 10
0.0
 20
1.0
 30
0.0
  9
$PUCSORTHOREF
  2

  9
$PUCSORTHOVIEW
 70
     0
  9
$PUCSORGTOP
 10
0.0
 20
0.0
 30
0.0
  9
$PUCSORGBOTTOM
 10
0.0
 20
0.0
 30
0.0
  9
$PUCSORGLEFT
 10
0.0
 20
0.0
 30
0.0
  9
$PUCSORGRIGHT
 10
0.0
 20
0.0
 30
0.0
  9
$PUCSORGFRONT
 10
0.0
 20
0.0
 30
0.0
  9
$PUCSORGBACK
 10
0.0
 20
0.0
 30
0.0
  9
$USERI1
 70
     0
  9
$USERI2
 70
     0
  9
$USERI3
 70
     0
  9
$USERI4
 70
     0
  9
$USERI5
 70
     0
  9
$USERR1
 40
0.0
  9
$USERR2
 40
0.0
  9
$USERR3
 40
0.0
  9
$USERR4
 40
0.0
  9
$USERR5
 40
0.0
  9
$WORLDVIEW
 70
     1
  9
$SHADEDGE
 70
     3
  9
$SHADEDIF
 70
    70
  9
$TILEMODE
 70
     1
  9
$MAXACTVP
 70
    64
  9
$PINSBASE
 10
0.0
 20
0.0
 30
0.0
  9
$PLIMCHECK
 70
     0
  9
$PEXTMIN
 10
0.0
 20
0.0
 30
0.0
  9
$PEXTMAX
 10
1682.0
 20
2378.0
 30
0.0
  9
$PLIMMIN
 10
0.0
 20
0.0
  9
$PLIMMAX
 10
1682.0
 20
2378.0
  9
$UNITMODE
 70
     0
  9
$VISRETAIN
 70
     1
  9
$PLINEGEN
 70
     0
  9
$PSLTSCALE
 70
     1
  9
$TREEDEPTH
 70
  3020
  9
$CMLSTYLE
  2
Standard
  9
$CMLJUST
 70
     0
  9
$CMLSCALE
 40
20.0
  9
$PROXYGRAPHICS
 70
     1
  9
$MEASUREMENT
 70
     1
  9
$CELWEIGHT
370
    -1
  9
$ENDCAPS
280
     0
  9
$JOINSTYLE
280
     0
  9
$LWDISPLAY
290
     0
  9
$INSUNITS
 70
     4
  9
$HYPERLINKBASE
  1

  9
$STYLESHEET
  1

  9
$XEDIT
290
     1
  9
$CEPSNTYPE
380
     0
  9
$PSTYLEMODE
290
     1
  9
$FINGERPRINTGUID
  2
{C6AF97AD-A8FE-46D7-B339-3ACE7F724A26}
  9
$VERSIONGUID
  2
{FAEB1C32-E019-11D5-929B-00C0DF256EC4}
  9
$EXTNAMES
290
     1
  9
$PSVPSCALE
 40
0.0
  9
$OLESTARTUP
290
     0
  0
ENDSEC
  0
SECTION
  2
CLASSES
  0
CLASS
  1
ACDBDICTIONARYWDFLT
  2
AcDbDictionaryWithDefault
  3
ObjectDBX Classes
 90
        0
280
     0
281
     0
  0
CLASS
  1
VISUALSTYLE
  2
AcDbVisualStyle
  3
ObjectDBX Classes
 90
     4095
280
     0
281
     0
  0
CLASS
  1
SCALE
  2
AcDbScale
  3
ObjectDBX Classes
 90
     1153
280
     0
281
     0
  0
CLASS
  1
DICTIONARYVAR
  2
AcDbDictionaryVar
  3
ObjectDBX Classes
 90
        0
280
     0
281
     0
  0
CLASS
  1
ACDBPLACEHOLDER
  2
AcDbPlaceHolder
  3
ObjectDBX Classes
 90
        0
280
     0
281
     0
  0
CLASS
  1
LAYOUT
  2
AcDbLayout
  3
ObjectDBX Classes
 90
        0
280
     0
281
     0
  0
ENDSEC
  0
SECTION
  2
TABLES
  0
TABLE
  2
VPORT
  5
8
330
0
100
AcDbSymbolTable
 70
     1
  0
VPORT
  5
29
330
8
100
AcDbSymbolTableRecord
100
AcDbViewportTableRecord
  2
*Active
 70
     0
 10
0.0
 20
0.0
 11
1.0
 21
1.0
 12
344.1869158879
 22
148.5
 13
0.0
 23
0.0
 14
10.0
 24
10.0
 15
10.0
 25
10.0
 16
0.0
 26
0.0
 36
1.0
 17
0.0
 27
0.0
 37
0.0
 40
297.0
 41
1.9729729729
 42
50.0
 43
0.0
 44
0.0
 50
0.0
 51
0.0
 71
     0
 72
   100
 73
     1
 74
     3
 75
     0
 76
     0
 77
     0
 78
     0
281
     0
 65
     1
110
0.0
120
0.0
130
0.0
111
1.0
121
0.0
131
0.0
112
0.0
122
1.0
132
0.0
 79
     0
146
0.0
  0
ENDTAB
  0
TABLE
  2
LTYPE
  5
5
330
0
100
AcDbSymbolTable
 70
     2
  0
LTYPE
  5
14
330
5
100
AcDbSymbolTableRecord
100
AcDbLinetypeTableRecord
  2
ByBlock
 70
     0
  3

 72
    65
 73
     0
 40
0.0
  0
LTYPE
  5
15
330
5
100
AcDbSymbolTableRecord
100
AcDbLinetypeTableRecord
  2
ByLayer
 70
     0
  3

 72
    65
 73
     0
 40
0.0
  0
LTYPE
  5
16
330
5
100
AcDbSymbolTableRecord
100
AcDbLinetypeTableRecord
  2
Continuous
 70
     0
  3
Solid line
 72
    65
 73
     0
 40
0.0
  0
LTYPE
  5
60
330
5
100
AcDbSymbolTableRecord
100
AcDbLinetypeTableRecord
  2
CENTER2
 70
     0
  3
Center (.5x) ___ _ ___ _ ___ _ ___ _ ___ _ ___
 72
    65
 73
     4
 40
28.575
 49
19.05
 74
     4
 75
     0
340
0
 46
0.0
 50
0.0
 44
0.0
 45
0.0
 49
-3.175
 74
     4
 75
     0
340
0
 46
0.0
 50
0.0
 44
0.0
 45
0.0
 49
3.175
 74
     4
 75
     0
340
0
 46
0.0
 50
0.0
 44
0.0
 45
0.0
 49
-3.175
 74
     4
 75
     0
340
0
 46
0.0
 50
0.0
 44
0.0
 45
0.0
  0
ENDTAB
  0
TABLE
  2
LAYER
  5
2
330
0
100
AcDbSymbolTable
 70
     9
  0
LAYER
  5
10
330
2
100
AcDbSymbolTableRecord
100
AcDbLayerTableRecord
  2
0
 70
     0
 62
     7
  6
Continuous
370
    -3
390
F
  0
LAYER
  5
5D
330
2
100
AcDbSymbolTableRecord
100
AcDbLayerTableRecord
  2
Default
 70
     0
 62
     7
  6
Continuous
370
    -3
390
F
  0
LAYER
  5
77
330
2
100
AcDbSymbolTableRecord
100
AcDbLayerTableRecord
  2
$DDT_AUDIT_GENERATED_(77)
 70
     0
 62
     7
  6
Continuous
370
    -3
390
F
  0
LAYER
  5
98
330
2
100
AcDbSymbolTableRecord
100
AcDbLayerTableRecord
  2
$DDT_AUDIT_GENERATED_(98)
 70
     0
 62
     7
  6
Continuous
370
    -3
390
F
  0
LAYER
  5
9B
330
2
100
AcDbSymbolTableRecord
100
AcDbLayerTableRecord
  2
02636038_GEH_USE
 70
     0
 62
     7
  6
Continuous
370
    -3
390
F
  0
LAYER
  5
A4
330
2
100
AcDbSymbolTableRecord
100
AcDbLayerTableRecord
  2
64647040_EINSATZ
 70
     0
 62
     7
  6
Continuous
370
    -3
390
F
  0
LAYER
  5
210
330
2
100
AcDbSymbolTableRecord
100
AcDbLayerTableRecord
  2
$DDT_AUDIT_GENERATED_(210)
 70
     0
 62
     7
  6
Continuous
370
    -3
390
F
  0
LAYER
  5
237
330
2
100
AcDbSymbolTableRecord
100
AcDbLayerTableRecord
  2
$DDT_AUDIT_GENERATED_(237)
 70
     0
 62
     7
  6
Continuous
370
    -3
390
F
  0
LAYER
  5
2A2
330
2
100
AcDbSymbolTableRecord
100
AcDbLayerTableRecord
  2
$DDT_AUDIT_GENERATED_(2A2)
 70
     0
 62
     7
  6
Continuous
370
    -3
390
F
  0
ENDTAB
  0
TABLE
  2
STYLE
  5
3
330
0
100
AcDbSymbolTable
 70
     2
  0
STYLE
  5
11
330
3
100
AcDbSymbolTableRecord
100
AcDbTextStyleTableRecord
  2
Standard
 70
     0
 40
0.0
 41
1.0
 50
0.0
 71
     0
 42
2.5
  3
txt
  4

  0
STYLE
  5
2D9
330
3
100
AcDbSymbolTableRecord
100
AcDbTextStyleTableRecord
  2
SEACAD_seiso_ttf
 70
     0
 40
0.0
 41
1.0
 50
0.0
 71
     0
 42
0.2
  3
seiso.ttf
  4

  0
ENDTAB
  0
TABLE
  2
VIEW
  5
6
330
0
100
AcDbSymbolTable
 70
     0
  0
ENDTAB
  0
TABLE
  2
UCS
  5
7
330
0
100
AcDbSymbolTable
 70
     0
  0
ENDTAB
  0
TABLE
  2
APPID
  5
9
330
0
100
AcDbSymbolTable
 70
     1
  0
APPID
  5
12
330
9
100
AcDbSymbolTableRecord
100
AcDbRegAppTableRecord
  2
ACAD
 70
     0
  0
ENDTAB
  0
TABLE
  2
DIMSTYLE
  5
A
330
0
100
AcDbSymbolTable
 70
     1
100
AcDbDimStyleTable
  0
DIMSTYLE
105
27
330
A
100
AcDbSymbolTableRecord
100
AcDbDimStyleTableRecord
  2
ISO-25
 70
     0
 41
2.5
 42
0.625
 43
3.75
 44
1.25
 73
     0
 74
     0
 77
     1
 78
     8
140
2.5
141
2.5
143
0.0393700787
147
0.625
171
     3
172
     1
271
     2
272
     2
274
     3
278
    44
283
     0
284
     8
340
11
  0
ENDTAB
  0
TABLE
  2
BLOCK_RECORD
  5
1
330
0
100
AcDbSymbolTable
 70
     7
  0
BLOCK_RECORD
  5
1F
330
1
100
AcDbSymbolTableRecord
100
AcDbBlockTableRecord
  2
*Model_Space
340
22
  0
BLOCK_RECORD
  5
1B
330
1
100
AcDbSymbolTableRecord
100
AcDbBlockTableRecord
  2
*Paper_Space
340
1E
  0
BLOCK_RECORD
  5
5E
330
1
100
AcDbSymbolTableRecord
100
AcDbBlockTableRecord
  2
SEANNOT_GROUP
340
0
102
{BLKREFS
331
5F
102
}
  0
BLOCK_RECORD
  5
65
330
1
100
AcDbSymbolTableRecord
100
AcDbBlockTableRecord
  2
SEANNOT_GROUP1
340
0
102
{BLKREFS
331
66
102
}
  0
BLOCK_RECORD
  5
6B
330
1
100
AcDbSymbolTableRecord
100
AcDbBlockTableRecord
  2
SEANNOT_GROUP2
340
0
102
{BLKREFS
331
6C
102
}
  0
BLOCK_RECORD
  5
75
330
1
100
AcDbSymbolTableRecord
100
AcDbBlockTableRecord
  2
SE
340
0
102
{BLKREFS
331
76
102
}
  0
BLOCK_RECORD
  5
23D
330
1
100
AcDbSymbolTableRecord
100
AcDbBlockTableRecord
  2
SE1
340
0
102
{BLKREFS
331
23E
102
}
  0
BLOCK_RECORD
  5
2B1
330
1
100
AcDbSymbolTableRecord
100
AcDbBlockTableRecord
  2
SE2
340
0
102
{BLKREFS
331
2B2
102
}
  0
ENDTAB
  0
ENDSEC
  0
SECTION
  2
BLOCKS
  0
BLOCK
  5
20
330
1F
100
AcDbEntity
  8
0
100
AcDbBlockBegin
  2
*Model_Space
 70
     0
 10
0.0
 20
0.0
 30
0.0
  3
*Model_Space
  1

  0
ENDBLK
  5
21
330
1F
100
AcDbEntity
  8
0
100
AcDbBlockEnd
  0
BLOCK
  5
1C
330
1B
100
AcDbEntity
 67
     1
  8
0
100
AcDbBlockBegin
  2
*Paper_Space
 70
     0
 10
0.0
 20
0.0
 30
0.0
  3
*Paper_Space
  1

  0
ENDBLK
  5
1D
330
1B
100
AcDbEntity
 67
     1
  8
0
100
AcDbBlockEnd
  0
BLOCK
  5
63
330
5E
100
AcDbEntity
  8
0
100
AcDbBlockBegin
  2
SEANNOT_GROUP
 70
     0
 10
0.0
 20
0.0
 30
0.0
  3
SEANNOT_GROUP
  1

  0
LINE
  5
61
330
5E
100
AcDbEntity
  8
Default
  6
CENTER2
 62
     7
100
AcDbLine
 10
63.9423276155
 20
309.2521794835
 30
0.0
 11
23.9423285096
 21
309.2521794835
 31
0.0
  0
LINE
  5
62
330
5E
100
AcDbEntity
  8
Default
  6
CENTER2
 62
     7
100
AcDbLine
 10
43.9423280626
 20
329.2521790364
 30
0.0
 11
43.9423280626
 21
289.2521799305
 31
0.0
  0
ENDBLK
  5
64
330
5E
100
AcDbEntity
  8
0
100
AcDbBlockEnd
  0
BLOCK
  5
69
330
65
100
AcDbEntity
  8
0
100
AcDbBlockBegin
  2
SEANNOT_GROUP1
 70
     0
 10
0.0
 20
0.0
 30
0.0
  3
SEANNOT_GROUP1
  1

  0
LINE
  5
67
330
65
100
AcDbEntity
  8
Default
  6
CENTER2
 62
     7
100
AcDbLine
 10
196.1700642563
 20
309.2521794835
 30
0.0
 11
156.1700651504
 21
309.2521794835
 31
0.0
  0
LINE
  5
68
330
65
100
AcDbEntity
  8
Default
  6
CENTER2
 62
     7
100
AcDbLine
 10
176.1700647034
 20
329.2521790364
 30
0.0
 11
176.1700647034
 21
289.2521799305
 31
0.0
  0
ENDBLK
  5
6A
330
65
100
AcDbEntity
  8
0
100
AcDbBlockEnd
  0
BLOCK
  5
73
330
6B
100
AcDbEntity
  8
0
100
AcDbBlockBegin
  2
SEANNOT_GROUP2
 70
     0
 10
0.0
 20
0.0
 30
0.0
  3
SEANNOT_GROUP2
  1

  0
LINE
  5
6D
330
6B
100
AcDbEntity
  8
Default
  6
CENTER2
 62
     7
100
AcDbLine
 10
63.9423276155
 20
223.3060493461
 30
0.0
 11
23.9423285096
 21
223.3060493461
 31
0.0
  0
LINE
  5
6E
330
6B
100
AcDbEntity
  8
Default
  6
CENTER2
 62
     7
100
AcDbLine
 10
43.9423280625
 20
243.3060488991
 30
0.0
 11
43.9423280625
 21
203.3060497932
 31
0.0
  0
LINE
  5
6F
330
6B
100
AcDbEntity
  8
Default
  6
CENTER2
 62
     7
100
AcDbLine
 10
68.9423275037
 20
223.3060493461
 30
0.0
 11
72.4432466444
 21
223.3060493461
 31
0.0
  0
LINE
  5
70
330
6B
100
AcDbEntity
  8
Default
  6
CENTER2
 62
     7
100
AcDbLine
 10
43.9423280625
 20
248.3060487874
 30
0.0
 11
43.9423280625
 21
251.8069679281
 31
0.0
  0
LINE
  5
71
330
6B
100
AcDbEntity
  8
Default
  6
CENTER2
 62
     7
100
AcDbLine
 10
18.9423286213
 20
223.3060493461
 30
0.0
 11
15.4414094806
 21
223.3060493461
 31
0.0
  0
LINE
  5
72
330
6B
100
AcDbEntity
  8
Default
  6
CENTER2
 62
     7
100
AcDbLine
 10
43.9423280625
 20
198.3060499049
 30
0.0
 11
43.9423280625
 21
194.8051307642
 31
0.0
  0
ENDBLK
  5
74
330
6B
100
AcDbEntity
  8
0
100
AcDbBlockEnd
  0
BLOCK
  5
23B
330
75
100
AcDbEntity
  8
0
100
AcDbBlockBegin
  2
SE
 70
     0
 10
0.0
 20
0.0
 30
0.0
  3
SE
  1

  0
LINE
  5
78
330
75
100
AcDbEntity
  8
$DDT_AUDIT_GENERATED_(77)
  6
Continuous
 62
     7
100
AcDbLine
 10
43.9423280626
 20
309.2521794835
 30
0.0
 11
18.9423280626
 21
309.2521794826
 31
0.0
  0
LINE
  5
79
330
75
100
AcDbEntity
  8
$DDT_AUDIT_GENERATED_(77)
  6
Continuous
 62
     7
100
AcDbLine
 10
68.9423280626
 20
309.2521786721
 30
0.0
 11
43.9423280626
 21
309.2521794835
 31
0.0
  0
SPLINE
  5
7A
330
75
100
AcDbEntity
  8
$DDT_AUDIT_GENERATED_(77)
  6
Continuous
 62
     7
100
AcDbSpline
210
0.0
220
0.0
230
1.0
 70
     8
 71
     3
 72
    19
 73
    15
 74
     0
 42
0.0000000001242844
 43
0.0000000001
 40
0.0
 40
0.0
 40
0.0
 40
0.0
 40
0.0115866844587369
 40
0.0228664154380244
 40
0.0340263353227238
 40
0.0517297637462827
 40
0.0678589427218355
 40
0.1016882696251547
 40
0.1355394296928353
 40
0.1518271117032411
 40
0.1693319946767756
 40
0.1851922173916891
 40
0.2031487734314397
 40
0.2133102149611827
 40
0.2133102149611827
 40
0.2133102149611827
 40
0.2133102149611827
 10
43.94232806255775
 20
405.0568060884456
 30
0.0
 10
43.53809502063169
 20
405.0577529301145
 30
0.0
 10
42.74033919768872
 20
405.0596215215599
 30
0.0
 10
41.558523732932
 20
405.0780828325635
 30
0.0
 10
40.17701325620407
 20
405.120237359449
 30
0.0
 10
38.65442324397489
 20
405.1999030504398
 30
0.0
 10
36.43635206775291
 20
405.3586649012884
 30
0.0
 10
33.84961304603833
 20
405.5744208237348
 30
0.0
 10
31.58374757107611
 20
405.8451949460807
 30
0.0
 10
30.00805012931062
 20
406.1006292487463
 30
0.0
 10
28.97900226811486
 20
406.2996668637603
 30
0.0
 10
28.06072238979235
 20
406.4859555391922
 30
0.0
 10
27.392234035585
 20
406.6311651048437
 30
0.0
 10
27.03163305689537
 20
406.7410180963955
 30
0.0
 10
26.91080084955149
 20
406.7845350330272
 30
0.0
  0
SPLINE
  5
7B
330
75
100
AcDbEntity
  8
$DDT_AUDIT_GENERATED_(77)
  6
Continuous
 62
     7
100
AcDbSpline
210
0.0
220
0.0
230
1.0
 70
     8
 71
     3
 72
    11
 73
     7
 74
     0
 42
0.0000000003996073
 43
0.0000000001
 40
0.2133102149611827
 40
0.2133102149611827
 40
0.2133102149611827
 40
0.2133102149611827
 40
0.2219749194251051
 40
0.2374128564176843
 40
0.2507038333569974
 40
0.2586613131476033
 40
0.2586613131476033
 40
0.2586613131476033
 40
0.2586613131476033
 10
26.91080084955149
 20
406.7845350330272
 30
0.0
 10
26.80776671179715
 20
406.8216421102057
 30
0.0
 10
26.54033813409043
 20
406.9325845251825
 30
0.0
 10
26.21387268979066
 20
407.1499059868804
 30
0.0
 10
26.07208423314188
 20
407.2996263359776
 30
0.0
 10
26.02995821143812
 20
407.3909251914084
 30
0.0
 10
26.01769559127922
 20
407.4257435409829
 30
0.0
  0
SPLINE
  5
7C
330
75
100
AcDbEntity
  8
$DDT_AUDIT_GENERATED_(77)
  6
Continuous
 62
     7
100
AcDbSpline
210
0.0
220
0.0
230
1.0
 70
     8
 71
     3
 72
    12
 73
     8
 74
     0
 42
0.0000000009957503
 43
0.0000000001
 40
0.3689496220048951
 40
0.3689496220048951
 40
0.3689496220048951
 40
0.3689496220048951
 40
0.3969209005629887
 40
0.4610838968968655
 40
0.5252074754995153
 40
0.6554064442912163
 40
0.6585539529528222
 40
0.6585539529528222
 40
0.6585539529528222
 40
0.6585539529528222
 10
62.16286673864531
 20
409.4870902674604
 30
0.0
 10
62.17131832485062
 20
409.6157617406784
 30
0.0
 10
62.19789287354251
 20
410.0355616159463
 30
0.0
 10
62.23448817798578
 20
410.6779314524949
 30
0.0
 10
62.28858339759558
 20
411.5759303188986
 30
0.0
 10
62.32302999714263
 20
412.0931165822867
 30
0.0
 10
62.34388385669125
 20
412.382984606607
 30
0.0
 10
62.34437475105047
 20
412.3897935984349
 30
0.0
  0
SPLINE
  5
7D
330
75
100
AcDbEntity
  8
$DDT_AUDIT_GENERATED_(77)
  6
Continuous
 62
     7
100
AcDbSpline
210
0.0
220
0.0
230
1.0
 70
     8
 71
     3
 72
    12
 73
     8
 74
     0
 42
0.0000000010055258
 43
0.0000000001
 40
0.3428901085370537
 40
0.3428901085370537
 40
0.3428901085370537
 40
0.3428901085370537
 40
0.3449872901505214
 40
0.4753502952417657
 40
0.539578313091922
 40
0.6038170280628055
 40
0.6227534841583026
 40
0.6227534841583026
 40
0.6227534841583026
 40
0.6227534841583026
 10
25.54094420791281
 20
412.3805491041055
 30
0.0
 10
25.5412729023639
 20
412.3759802338168
 30
0.0
 10
25.56207071094617
 20
412.0864968957804
 30
0.0
 10
25.59643039304531
 20
411.5715174319365
 30
0.0
 10
25.65043011530539
 20
410.6712603983136
 30
0.0
 10
25.68554086795158
 20
410.0629750838843
 30
0.0
 10
25.70851401632102
 20
409.6888491220984
 30
0.0
 10
25.71395295424353
 20
409.6027046711998
 30
0.0
  0
SPLINE
  5
7E
330
75
100
AcDbEntity
  8
$DDT_AUDIT_GENERATED_(77)
  6
Continuous
 62
     7
100
AcDbSpline
210
0.0
220
0.0
230
1.0
 70
     8
 71
     3
 72
    11
 73
     7
 74
     0
 42
0.0000000003880823
 43
0.0000000001
 40
0.7416140766480611
 40
0.7416140766480611
 40
0.7416140766480611
 40
0.7416140766480611
 40
0.7484079123223877
 40
0.7617331309793736
 40
0.7769865917070525
 40
0.7889270981014374
 40
0.7889270981014374
 40
0.7889270981014374
 40
0.7889270981014374
 10
61.86673885987336
 20
407.4239456371128
 30
0.0
 10
61.85603853736399
 20
407.3942662869026
 30
0.0
 10
61.81660125321181
 20
407.3077550473375
 30
0.0
 10
61.68840012387825
 20
407.1652809054838
 30
0.0
 10
61.34517874913555
 20
406.9289361631976
 30
0.0
 10
61.03995566281337
 20
406.8057918072511
 30
0.0
 10
60.89302226237898
 20
406.7564160368358
 30
0.0
  0
SPLINE
  5
7F
330
75
100
AcDbEntity
  8
$DDT_AUDIT_GENERATED_(77)
  6
Continuous
 62
     7
100
AcDbSpline
210
0.0
220
0.0
230
1.0
 70
     8
 71
     3
 72
    18
 73
    14
 74
     0
 42
0.0000000001235968
 43
0.0000000001
 40
0.7889270981014374
 40
0.7889270981014374
 40
0.7889270981014374
 40
0.7889270981014374
 40
0.7961778901913842
 40
0.8141956055201214
 40
0.8300340532754564
 40
0.8475912422316533
 40
0.8639334374485342
 40
0.8979996486762372
 40
0.9318391030329651
 40
0.9480977530614155
 40
0.9659636526680497
 40
0.982739598441757
 40
1.0
 40
1.0
 40
1.0
 40
1.0
 10
60.89302226237898
 20
406.7564160368358
 30
0.0
 10
60.80379794454608
 20
406.7264329327916
 30
0.0
 10
60.47626222405027
 20
406.6279775394094
 30
0.0
 10
59.85607314720175
 20
406.4925298809067
 30
0.0
 10
58.94150600178509
 20
406.3070455847908
 30
0.0
 10
57.91562914436121
 20
406.107503640607
 30
0.0
 10
56.33827553864219
 20
405.8505274067911
 30
0.0
 10
54.06874979851383
 20
405.5759668007897
 30
0.0
 10
51.47423974305006
 20
405.3609668275567
 30
0.0
 10
49.24726574777846
 20
405.200784043489
 30
0.0
 10
47.525190754607
 20
405.1106682897728
 30
0.0
 10
45.73246055414525
 20
405.0627637156795
 30
0.0
 10
44.54467479305467
 20
405.0588107219313
 30
0.0
 10
43.94232806255775
 20
405.0568060884456
 30
0.0
  0
ARC
  5
80
330
75
100
AcDbEntity
  8
$DDT_AUDIT_GENERATED_(77)
  6
Continuous
 62
     7
100
AcDbCircle
 10
63.7800561585
 20
401.8498403664
 30
0.0
 40
18.27886364061992
100
AcDbArc
 50
88.9313585239
 51
95.291229078
  0
ARC
  5
81
330
75
100
AcDbEntity
  8
$DDT_AUDIT_GENERATED_(77)
  6
Continuous
 62
     7
100
AcDbCircle
 10
56.4727153953
 20
901.8072918054
 30
0.0
 40
481.7657913928734
100
AcDbArc
 50
270.909678159
 51
271.4231819797
  0
ARC
  5
82
330
75
100
AcDbEntity
  8
$DDT_AUDIT_GENERATED_(77)
  6
Continuous
 62
     7
100
AcDbCircle
 10
31.4117307771
 20
903.2721365119
 30
0.0
 40
483.2301474902898
100
AcDbArc
 50
268.5809924686
 51
269.0931043105
  0
SPLINE
  5
83
330
75
100
AcDbEntity
  8
$DDT_AUDIT_GENERATED_(77)
  6
Continuous
 62
     7
100
AcDbSpline
210
0.0
220
0.0
230
1.0
 70
     8
 71
     3
 72
    14
 73
    10
 74
     0
 42
0.0000000038016112
 43
0.0000000001
 40
0.0
 40
0.0
 40
0.0
 40
0.0
 40
0.4999999999999998
 40
0.4999999999999998
 40
0.6249999999999998
 40
0.6249999999999998
 40
0.7499999999999999
 40
0.7499999999999999
 40
0.7834234842509016
 40
0.7834234842509016
 40
0.7834234842509016
 40
0.7834234842509016
 10
23.76369493867611
 20
420.1255247517806
 30
0.0
 10
24.4680397712067
 20
420.1163892550673
 30
0.0
 10
25.00262457045433
 20
420.1051963865459
 30
0.0
 10
25.46259503328039
 20
420.0870569583981
 30
0.0
 10
25.54412837399851
 20
420.0832038711869
 30
0.0
 10
25.6834306968025
 20
420.0751335690603
 30
0.0
 10
25.74148970061009
 20
420.0709090025027
 30
0.0
 10
25.80057144133201
 20
420.065295861788
 30
0.0
 10
25.81222164342279
 20
420.064097016826
 30
0.0
 10
25.82305458222105
 20
420.0628832710853
 30
0.0
  0
SPLINE
  5
84
330
75
100
AcDbEntity
  8
$DDT_AUDIT_GENERATED_(77)
  6
Continuous
 62
     7
100
AcDbSpline
210
0.0
220
0.0
230
1.0
 70
     8
 71
     3
 72
    32
 73
    28
 74
     0
 42
0.0000000004059628
 43
0.0000000001
 40
0.0
 40
0.0
 40
0.0
 40
0.0
 40
0.0312500000000002
 40
0.0312500000000002
 40
0.0625000000000005
 40
0.0625000000000005
 40
0.0937500000000007
 40
0.0937500000000007
 40
0.125000000000001
 40
0.125000000000001
 40
0.1875000000000015
 40
0.1875000000000015
 40
0.2187500000000016
 40
0.2187500000000016
 40
0.2500000000000016
 40
0.2500000000000016
 40
0.2812500000000017
 40
0.2812500000000017
 40
0.3125000000000017
 40
0.3125000000000017
 40
0.3750000000000018
 40
0.3750000000000018
 40
0.5000000000000017
 40
0.5000000000000017
 40
0.7500000000000009
 40
0.7500000000000009
 40
1.0
 40
1.0
 40
1.0
 40
1.0
 10
43.94232806255776
 20
410.7633167692717
 30
0.0
 10
42.82546351844398
 20
410.763316530159
 30
0.0
 10
41.72481467917986
 20
410.7817285575552
 30
0.0
 10
39.55471651318208
 20
410.8535745412315
 30
0.0
 10
38.47509772457725
 20
410.9078380027343
 30
0.0
 10
36.4142351045015
 20
411.0474058174087
 30
0.0
 10
35.43028023431216
 20
411.1323777317596
 30
0.0
 10
33.55384317813925
 20
411.330507378192
 30
0.0
 10
32.65761806305993
 20
411.4446049668545
 30
0.0
 10
30.2116697103669
 20
411.8134299557826
 30
0.0
 10
28.84997088593606
 20
412.1037275945518
 30
0.0
 10
27.33526594623336
 20
412.5591169409578
 30
0.0
 10
26.91058699424541
 20
412.7142808035448
 30
0.0
 10
26.23347353897067
 20
413.0286547093402
 30
0.0
 10
26.00857543580639
 20
413.1833662221557
 30
0.0
 10
25.86974371089917
 20
413.5011739198088
 30
0.0
 10
25.85309229911048
 20
413.661289482105
 30
0.0
 10
25.81060146323908
 20
413.9715779798195
 30
0.0
 10
25.7954664198215
 20
414.1232380532518
 30
0.0
 10
25.75486912417779
 20
414.5674674599194
 30
0.0
 10
25.73507615841337
 20
414.8492862681836
 30
0.0
 10
25.68059334201842
 20
415.6533879416512
 30
0.0
 10
25.65233508560759
 20
416.1344424628068
 30
0.0
 10
25.57457685273494
 20
417.4265495601198
 30
0.0
 10
25.53383491924341
 20
418.0867099196735
 30
0.0
 10
25.46803749787827
 20
419.0621296664876
 30
0.0
 10
25.44381917283133
 20
419.3861478192394
 30
0.0
 10
25.42997154612604
 20
419.5374019365963
 30
0.0
  0
SPLINE
  5
85
330
75
100
AcDbEntity
  8
$DDT_AUDIT_GENERATED_(77)
  6
Continuous
 62
     7
100
AcDbSpline
210
0.0
220
0.0
230
1.0
 70
     8
 71
     3
 72
    26
 73
    22
 74
     0
 42
0.0000000004059251
 43
0.0000000001
 40
0.0
 40
0.0
 40
0.0
 40
0.0
 40
0.4999999999999996
 40
0.4999999999999996
 40
0.6249999999999992
 40
0.6249999999999992
 40
0.6874999999999991
 40
0.6874999999999991
 40
0.7187499999999991
 40
0.7187499999999991
 40
0.7499999999999992
 40
0.7499999999999992
 40
0.7812499999999993
 40
0.7812499999999993
 40
0.8124999999999993
 40
0.8124999999999993
 40
0.8749999999999996
 40
0.8749999999999996
 40
0.9374999999999997
 40
0.9374999999999997
 40
1.0
 40
1.0
 40
1.0
 40
1.0
 10
62.45468457898946
 20
419.5374019365963
 30
0.0
 10
62.42698685869593
 20
419.2348667567451
 30
0.0
 10
62.36187156083469
 20
418.2871683158762
 30
0.0
 10
62.23224429803806
 20
416.1331704391896
 30
0.0
 10
62.2039677173909
 20
415.6517921104549
 30
0.0
 10
62.1494406574508
 20
414.8473271123292
 30
0.0
 10
62.12963137367058
 20
414.5653814470658
 30
0.0
 10
62.08897043543234
 20
414.1210323777958
 30
0.0
 10
62.07381003585817
 20
413.9693283236008
 30
0.0
 10
62.03117732378144
 20
413.6589372478827
 30
0.0
 10
62.01465365802901
 20
413.4986748702438
 30
0.0
 10
61.87431179470028
 20
413.1812514791309
 30
0.0
 10
61.64695632169711
 20
413.0264387763788
 30
0.0
 10
60.9724641235538
 20
412.7137915675114
 30
0.0
 10
60.5476081620624
 20
412.5583118844461
 30
0.0
 10
59.0168248704292
 20
412.0989022528942
 30
0.0
 10
57.67491636558232
 20
411.8132422447626
 30
0.0
 10
54.38149433853402
 20
411.3175881392661
 30
0.0
 10
52.49517372842271
 20
411.1164993038286
 30
0.0
 10
48.35920812640081
 20
410.8370128711375
 30
0.0
 10
46.17511393912486
 20
410.7633162912481
 30
0.0
 10
43.94232806255776
 20
410.7633167692717
 30
0.0
  0
ARC
  5
86
330
75
100
AcDbEntity
  8
$DDT_AUDIT_GENERATED_(77)
  6
Continuous
 62
     7
100
AcDbCircle
 10
43.9414209457
 20
1039.6822154522
 30
0.0
 40
619.9314521037271
100
AcDbArc
 50
267.8426816348
 51
272.1187299052
  0
SPLINE
  5
87
330
75
100
AcDbEntity
  8
$DDT_AUDIT_GENERATED_(77)
  6
Continuous
 62
     7
100
AcDbSpline
210
0.0
220
0.0
230
1.0
 70
     8
 71
     3
 72
     8
 73
     4
 74
     0
 42
0.0000000010968832
 43
0.0000000001
 40
0.6193614539205453
 40
0.6193614539205453
 40
0.6193614539205453
 40
0.6193614539205453
 40
0.6215772381795996
 40
0.6215772381795996
 40
0.6215772381795996
 40
0.6215772381795996
 10
31.06234775532776
 20
399.4101895459505
 30
0.0
 10
31.0580510331398
 20
399.415443616928
 30
0.0
 10
31.05380987825895
 20
399.4206736425934
 30
0.0
 10
31.04962444001823
 20
399.425879735506
 30
0.0
  0
SPLINE
  5
88
330
75
100
AcDbEntity
  8
$DDT_AUDIT_GENERATED_(77)
  6
Continuous
 62
     7
100
AcDbSpline
210
0.0
220
0.0
230
1.0
 70
     8
 71
     3
 72
     8
 73
     4
 74
     0
 42
0.0000000005808356
 43
0.0000000001
 40
0.6623607448270562
 40
0.6623607448270562
 40
0.6623607448270562
 40
0.6623607448270562
 40
0.6664653036011969
 40
0.6664653036011969
 40
0.6664653036011969
 40
0.6664653036011969
 10
56.82375262011016
 20
399.413188022954
 30
0.0
 10
56.80925649230728
 20
399.3953497965066
 30
0.0
 10
56.79414856516675
 20
399.3772826945487
 30
0.0
 10
56.77843113096303
 20
399.3589745255441
 30
0.0
  0
LINE
  5
89
330
75
100
AcDbEntity
  8
$DDT_AUDIT_GENERATED_(77)
  6
Continuous
 62
     7
100
AcDbLine
 10
18.9423280626
 20
419.6902227064
 30
0.0
 11
18.9423280626
 21
309.2521794826
 31
0.0
  0
ARC
  5
8A
330
75
100
AcDbEntity
  8
$DDT_AUDIT_GENERATED_(77)
  6
Continuous
 62
     7
100
AcDbCircle
 10
78.3309332703
 20
434.7373411291
 30
0.0
 40
59.01075682160381
100
AcDbArc
 50
207.5763074425
 51
216.7586732346
  0
ARC
  5
8B
330
75
100
AcDbEntity
  8
$DDT_AUDIT_GENERATED_(77)
  6
Continuous
 62
     7
100
AcDbCircle
 10
9.7131121784
 20
434.6443879963
 30
0.0
 40
58.82719385111061
100
AcDbArc
 50
323.2058087519
 51
332.428906213
  0
LINE
  5
8C
330
75
100
AcDbEntity
  8
$DDT_AUDIT_GENERATED_(77)
  6
Continuous
 62
     7
100
AcDbLine
 10
68.9423280626
 20
309.2521794826
 30
0.0
 11
68.9423280626
 21
419.6901043921
 31
0.0
  0
SPLINE
  5
8D
330
75
100
AcDbEntity
  8
$DDT_AUDIT_GENERATED_(77)
  6
Continuous
 62
     7
100
AcDbSpline
210
0.0
220
0.0
230
1.0
 70
     8
 71
     3
 72
    30
 73
    26
 74
     0
 42
0.0000000090886979
 43
0.0000000001
 40
0.0
 40
0.0
 40
0.0
 40
0.0
 40
0.0447230010007686
 40
0.0946242689789355
 40
0.1406987684896262
 40
0.1834858910811986
 40
0.2233915516180267
 40
0.27836816518858
 40
0.3281740961480819
 40
0.3735818441948349
 40
0.4152052469046923
 40
0.4533339892577861
 40
0.4882232610089621
 40
0.5201286183741749
 40
0.5493055832263629
 40
0.590927172127423
 40
0.6269968575579491
 40
0.6582007220103214
 40
0.6852236681981596
 40
0.7087505163730231
 40
0.7342858493306891
 40
0.7567656941913836
 40
0.7773544364302445
 40
0.7963752882501538
 40
0.8292548900964629
 40
0.8292548900964629
 40
0.8292548900964629
 40
0.8292548900964629
 10
62.34208095480573
 20
412.3266108461843
 30
0.0
 10
62.34445090545994
 20
412.3592952935219
 30
0.0
 10
62.34867286970792
 20
412.4174372133376
 30
0.0
 10
62.35529767257734
 20
412.5058080023248
 30
0.0
 10
62.36147417939425
 20
412.5862692195182
 30
0.0
 10
62.36706717070305
 20
412.6573073863271
 30
0.0
 10
62.37286216013239
 20
412.7291222638125
 30
0.0
 10
62.37874295482897
 20
412.7998326970292
 30
0.0
 10
62.38459937238516
 20
412.8677777288641
 30
0.0
 10
62.3897276175113
 20
412.9252251222771
 30
0.0
 10
62.39424195124256
 20
412.9740846826369
 30
0.0
 10
62.39820801577604
 20
413.0156693025804
 30
0.0
 10
62.40169020874747
 20
413.0510361879965
 30
0.0
 10
62.40474327791225
 20
413.081087828723
 30
0.0
 10
62.40787195472082
 20
413.1109461943141
 30
0.0
 10
62.41094827174512
 20
413.1391749501107
 30
0.0
 10
62.41385174434325
 20
413.1645840975012
 30
0.0
 10
62.41615956084156
 20
413.1838770765975
 30
0.0
 10
62.41797295651427
 20
413.198386193392
 30
0.0
 10
62.41947662456535
 20
413.2099251676683
 30
0.0
 10
62.4206910295885
 20
413.2188343531474
 30
0.0
 10
62.421639522227
 20
413.2254732741042
 30
0.0
 10
62.42233663424272
 20
413.2301274892011
 30
0.0
 10
62.42295406091485
 20
413.2340316467278
 30
0.0
 10
62.42317869883947
 20
413.2352578299405
 30
0.0
 10
62.42319559026858
 20
413.2352579253359
 30
0.0
  0
SPLINE
  5
8E
330
75
100
AcDbEntity
  8
$DDT_AUDIT_GENERATED_(77)
  6
Continuous
 62
     7
100
AcDbSpline
210
0.0
220
0.0
230
1.0
 70
     8
 71
     3
 72
    91
 73
    87
 74
     0
 42
0.0000000012184602
 43
0.0000000001
 40
0.1571837673916308
 40
0.1571837673916308
 40
0.1571837673916308
 40
0.1571837673916308
 40
0.1572646999309068
 40
0.1573016868759985
 40
0.1573155926591163
 40
0.1573278492489284
 40
0.1573401876832472
 40
0.1573543205776159
 40
0.15739211193949
 40
0.1575176961342418
 40
0.1579931482687332
 40
0.1598896304578064
 40
0.1676638836268362
 40
0.1736444434604146
 40
0.1810900582983437
 40
0.196189005246459
 40
0.2153510117264971
 40
0.238660815383575
 40
0.2663064391030581
 40
0.2985250906234829
 40
0.3245356696633033
 40
0.3533353826475525
 40
0.3853116043749955
 40
0.4201114748928418
 40
0.4564718378176381
 40
0.4946030470456852
 40
0.5352056946636768
 40
0.5720758955506695
 40
0.6089478365090943
 40
0.6446022567005815
 40
0.6778078469374186
 40
0.6979724493445985
 40
0.7161313401737343
 40
0.7319183464203682
 40
0.7419816821254236
 40
0.7503501997853927
 40
0.7568693396999068
 40
0.7613846166082224
 40
0.7637419893383512
 40
0.7639766392607834
 40
0.7640395368551269
 40
0.7640575691747491
 40
0.7640634216128859
 40
0.7640656474482289
 40
0.7640674899790662
 40
0.7640690758709621
 40
0.7640705979782112
 40
0.7640722719740236
 40
0.7640742653329247
 40
0.7640868620974302
 40
0.764138664689196
 40
0.764354944762326
 40
0.7652513223242147
 40
0.7677943346600795
 40
0.771834291701806
 40
0.7796627855375768
 40
0.7904242494161391
 40
0.8042738606802283
 40
0.8213669008631836
 40
0.8346409351323912
 40
0.8492542106612786
 40
0.8629257568648622
 40
0.8704765971395979
 40
0.8728635265576098
 40
0.8736296391646737
 40
0.8740803225364135
 40
0.8741802923896256
 40
0.8741917853461165
 40
0.8741978614069912
 40
0.8741985769295385
 40
0.8741990390187478
 40
0.8741994357664371
 40
0.8741996980704164
 40
0.8742000260351228
 40
0.8742055275284885
 40
0.8742332451637361
 40
0.8744551679428197
 40
0.8761297093965092
 40
0.8795247948413001
 40
0.8848239909850366
 40
0.8951688905631303
 40
0.9096596828796742
 40
0.9287302933257302
 40
0.948606427052496
 40
0.9722774129844938
 40
1.0
 40
1.0
 40
1.0
 40
1.0
 10
58.12608958635154
 20
406.304490259464
 30
0.0
 10
58.12558430176389
 20
406.3047045032678
 30
0.0
 10
58.12489104240128
 20
406.3051058637482
 30
0.0
 10
58.12428672580407
 20
406.3058848820455
 30
0.0
 10
58.12417641276664
 20
406.3064662684
 30
0.0
 10
58.12422162731757
 20
406.3069016677597
 30
0.0
 10
58.1243917201881
 20
406.3073588104803
 30
0.0
 10
58.12480576999165
 20
406.3080352775948
 30
0.0
 10
58.12619866142024
 20
406.3094586242809
 30
0.0
 10
58.1313693872459
 20
406.312687444934
 30
0.0
 10
58.1511700429085
 20
406.320886059653
 30
0.0
 10
58.22986423837822
 20
406.3444167444113
 30
0.0
 10
58.34828286475773
 20
406.3732219721863
 30
0.0
 10
58.50541232081966
 20
406.4103927832386
 30
0.0
 10
58.71254468831082
 20
406.4580587168488
 30
0.0
 10
59.00541282797566
 20
406.5251890956915
 30
0.0
 10
59.38924232229461
 20
406.6127910416158
 30
0.0
 10
59.8259263624807
 20
406.7114405188765
 30
0.0
 10
60.29940623589825
 20
406.8238056337707
 30
0.0
 10
60.73419599935463
 20
406.9380288999433
 30
0.0
 10
61.12157970387837
 20
407.0664974446339
 30
0.0
 10
61.45339410351107
 20
407.216874959355
 30
0.0
 10
61.74740743628671
 20
407.4212767873749
 30
0.0
 10
61.92019688393852
 20
407.5952388158165
 30
0.0
 10
61.9799140494407
 20
407.743245925224
 30
0.0
 10
62.02089681874643
 20
407.960832630672
 30
0.0
 10
62.05159412769583
 20
408.1584787029442
 30
0.0
 10
62.0749718173518
 20
408.3498823106534
 30
0.0
 10
62.09270305635539
 20
408.5287466979692
 30
0.0
 10
62.10723203759267
 20
408.7009293229877
 30
0.0
 10
62.11906702035547
 20
408.8475358668169
 30
0.0
 10
62.12843648044992
 20
408.9669858448833
 30
0.0
 10
62.13526522023563
 20
409.0580096241346
 30
0.0
 10
62.14071742241095
 20
409.1327088812155
 30
0.0
 10
62.14491835444863
 20
409.191341650506
 30
0.0
 10
62.14800665762804
 20
409.2347620152834
 30
0.0
 10
62.15041801591798
 20
409.2688705561574
 30
0.0
 10
62.15223523065872
 20
409.29399802559
 30
0.0
 10
62.15318856680972
 20
409.307266511476
 30
0.0
 10
62.15375260511942
 20
409.3142235650438
 30
0.0
 10
62.15385102253375
 20
409.3153509158776
 30
0.0
 10
62.15389259378645
 20
409.3157991114598
 30
0.0
 10
62.15391124579445
 20
409.3159919152337
 30
0.0
 10
62.15392046841558
 20
409.3160849623976
 30
0.0
 10
62.15392668145442
 20
409.3161466982266
 30
0.0
 10
62.15393294096516
 20
409.3162078519498
 30
0.0
 10
62.15393908958779
 20
409.3162667812314
 30
0.0
 10
62.15394483698168
 20
409.3163207426308
 30
0.0
 10
62.15395906967996
 20
409.3164513643524
 30
0.0
 10
62.15398546532436
 20
409.3166687751526
 30
0.0
 10
62.15402198932711
 20
409.3168619867718
 30
0.0
 10
62.15403137690692
 20
409.3162797226157
 30
0.0
 10
62.1538451372218
 20
409.3123848593969
 30
0.0
 10
62.15329045919819
 20
409.302753201045
 30
0.0
 10
62.15205993235516
 20
409.282720329127
 30
0.0
 10
62.14995121259162
 20
409.2497840082576
 30
0.0
 10
62.14674832260862
 20
409.2013794786717
 30
0.0
 10
62.14242366436114
 20
409.138171246991
 30
0.0
 10
62.13761577974024
 20
409.0705206559425
 30
0.0
 10
62.13251945473375
 20
409.001443779262
 30
0.0
 10
62.12763644132442
 20
408.9374871440536
 30
0.0
 10
62.12328867315267
 20
408.8826929542197
 30
0.0
 10
62.12047129204419
 20
408.8470506876583
 30
0.0
 10
62.11922502220701
 20
408.8314713233912
 30
0.0
 10
62.1188149729619
 20
408.8263842889393
 30
0.0
 10
62.11868061809008
 20
408.8247632873135
 30
0.0
 10
62.11862509609986
 20
408.8241013924115
 30
0.0
 10
62.1186228706921
 20
408.8241062656561
 30
0.0
 10
62.11862295896979
 20
408.8241138892446
 30
0.0
 10
62.11862493102678
 20
408.8241463014461
 30
0.0
 10
62.1186258391233
 20
408.824160628434
 30
0.0
 10
62.11862685413882
 20
408.8241760965686
 30
0.0
 10
62.11862749507467
 20
408.8241857010357
 30
0.0
 10
62.11863089230918
 20
408.8242361722976
 30
0.0
 10
62.11863920576705
 20
408.8243522223736
 30
0.0
 10
62.11869071899711
 20
408.8250587840695
 30
0.0
 10
62.11895836017418
 20
408.8285139304126
 30
0.0
 10
62.11967863319057
 20
408.8378038035954
 30
0.0
 10
62.12101023788334
 20
408.8547970576372
 30
0.0
 10
62.12344407956998
 20
408.8859649378442
 30
0.0
 10
62.1272851098414
 20
408.9347530351154
 30
0.0
 10
62.13274974621739
 20
409.0057723013102
 30
0.0
 10
62.13914277870218
 20
409.0922397656595
 30
0.0
 10
62.14629654863019
 20
409.1929874538363
 30
0.0
 10
62.15427821695638
 20
409.3102096161688
 30
0.0
 10
62.15922072672865
 20
409.3865467375679
 30
0.0
 10
62.16237937456845
 20
409.4355290331495
 30
0.0
  0
SPLINE
  5
8F
330
75
100
AcDbEntity
  8
$DDT_AUDIT_GENERATED_(77)
  6
Continuous
 62
     7
100
AcDbSpline
210
0.0
220
0.0
230
1.0
 70
     8
 71
     3
 72
    91
 73
    87
 74
     0
 42
0.0000000012809147
 43
0.0000000001
 40
0.0
 40
0.0
 40
0.0
 40
0.0
 40
0.0269145512549339
 40
0.0510996432485228
 40
0.0721745572529619
 40
0.0903120993224598
 40
0.1102250050549781
 40
0.1256329819517457
 40
0.1369457783955044
 40
0.1429892299889423
 40
0.1471327692974778
 40
0.1495496967511701
 40
0.1501648541057753
 40
0.1503336143253329
 40
0.1503844985460528
 40
0.1504135496857755
 40
0.1504200710460425
 40
0.150420911984288
 40
0.1504212267721371
 40
0.1504214812001383
 40
0.1504218774477474
 40
0.1504223408892663
 40
0.1504230428047752
 40
0.1504269579128885
 40
0.1504366702567426
 40
0.1505270355762861
 40
0.1509473774785651
 40
0.1526715260946862
 40
0.1590481464556352
 40
0.1681748673139539
 40
0.1786658158202795
 40
0.1891513947786108
 40
0.1988559932145458
 40
0.2208221331700352
 40
0.2373675003482421
 40
0.2488332512997753
 40
0.2543041457022842
 40
0.2572535724039156
 40
0.2576140802857542
 40
0.2578287318059137
 40
0.2578825592181841
 40
0.257896728682951
 40
0.2579010479690024
 40
0.2579027269031415
 40
0.2579042634451092
 40
0.2579058504879324
 40
0.2579076643871037
 40
0.2579123947711729
 40
0.2579275243692351
 40
0.2579829340557248
 40
0.2585476681229481
 40
0.2596522272351067
 40
0.2634113330987614
 40
0.2691183420701886
 40
0.2816458516014246
 40
0.2980582488442347
 40
0.3178032630505963
 40
0.340328950882364
 40
0.3650832643144966
 40
0.399945463256369
 40
0.4364404620395396
 40
0.4733405522375987
 40
0.5134088570735079
 40
0.5511470029576806
 40
0.5867846662068843
 40
0.6211336375695405
 40
0.6530548657159454
 40
0.6817517196444991
 40
0.7076808616865478
 40
0.739862999988487
 40
0.7675794846050348
 40
0.790962166282905
 40
0.8101630345675619
 40
0.8253694422728518
 40
0.8390802820652339
 40
0.8472827320045317
 40
0.8494381537438909
 40
0.8500519330323864
 40
0.8503693956165361
 40
0.8504070625167702
 40
0.8504213158192367
 40
0.8504338061012883
 40
0.8504461176486979
 40
0.8504598852110965
 40
0.850495957003801
 40
0.8506238819443543
 40
0.8506238819443543
 40
0.8506238819443543
 40
0.8506238819443543
 10
25.71548248925232
 20
409.5434222766855
 30
0.0
 10
25.71840929210643
 20
409.4966107998617
 30
0.0
 10
25.72310098921409
 20
409.421831698542
 30
0.0
 10
25.73077198220026
 20
409.3045577622643
 30
0.0
 10
25.7376258053192
 20
409.2036789907881
 30
0.0
 10
25.74430685561456
 20
409.1089156536921
 30
0.0
 10
25.75058565499177
 20
409.0233321159362
 30
0.0
 10
25.75627609964851
 20
408.9486282641658
 30
0.0
 10
25.76042882019065
 20
408.896023025252
 30
0.0
 10
25.76315162665301
 20
408.8613587620013
 30
0.0
 10
25.76476391969608
 20
408.8408036686017
 30
0.0
 10
25.76569750429408
 20
408.8288819459536
 30
0.0
 10
25.76613572414417
 20
408.8232375827978
 30
0.0
 10
25.76625991799804
 20
408.8216143525792
 30
0.0
 10
25.76630154785044
 20
408.8210601466807
 30
0.0
 10
25.76631838932327
 20
408.8208310852788
 30
0.0
 10
25.76632765107189
 20
408.8207015527675
 30
0.0
 10
25.76633111820655
 20
408.8206509031797
 30
0.0
 10
25.76633193999364
 20
408.8206387233471
 30
0.0
 10
25.76633258487261
 20
408.820629092913
 30
0.0
 10
25.76633358535003
 20
408.8206139113882
 30
0.0
 10
25.76633448776936
 20
408.8205997753833
 30
0.0
 10
25.76633595973192
 20
408.8205758698666
 30
0.0
 10
25.76633681247333
 20
408.8205581842205
 30
0.0
 10
25.76633592919862
 20
408.8205381486096
 30
0.0
 10
25.76628697004221
 20
408.8211146933328
 30
0.0
 10
25.76606143613793
 20
408.8238299364336
 30
0.0
 10
25.76507336724823
 20
408.8361450645484
 30
0.0
 10
25.76305826633287
 20
408.8614435764294
 30
0.0
 10
25.75993772897332
 20
408.9006373601532
 30
0.0
 10
25.75634592368058
 20
408.9462878674651
 30
0.0
 10
25.75278783362885
 20
408.9929456560577
 30
0.0
 10
25.74802474985407
 20
409.0569372908735
 30
0.0
 10
25.74280148116175
 20
409.1299376462581
 30
0.0
 10
25.73773378703878
 20
409.2043745159626
 30
0.0
 10
25.73451482682033
 20
409.2534521561467
 30
0.0
 10
25.73284959050122
 20
409.2805272696178
 30
0.0
 10
25.73215080234958
 20
409.2921965165685
 30
0.0
 10
25.73206085643347
 20
409.2950627070873
 30
0.0
 10
25.73206828713223
 20
409.2953495607883
 30
0.0
 10
25.73210547820238
 20
409.2951526584888
 30
0.0
 10
25.73213164402902
 20
409.2949413357342
 30
0.0
 10
25.7321471812852
 20
409.2948016252518
 30
0.0
 10
25.73215554656015
 20
409.2947235113153
 30
0.0
 10
25.73216167541402
 20
409.2946651555357
 30
0.0
 10
25.73216792893423
 20
409.2946045394634
 30
0.0
 10
25.73217703354077
 20
409.2945148464084
 30
0.0
 10
25.7321956765497
 20
409.2943264918311
 30
0.0
 10
25.73223642491032
 20
409.2938961070751
 30
0.0
 10
25.73244745541492
 20
409.2915203215449
 30
0.0
 10
25.73272915380342
 20
409.2878400645736
 30
0.0
 10
25.73362196223302
 20
409.2762154129135
 30
0.0
 10
25.73500140555637
 20
409.2570384247094
 30
0.0
 10
25.73784115670295
 20
409.2176031533176
 30
0.0
 10
25.74209324051013
 20
409.1581277155582
 30
0.0
 10
25.74810435837171
 20
409.0755736551262
 30
0.0
 10
25.75545429019115
 20
408.9773562521532
 30
0.0
 10
25.76414657923733
 20
408.8661510311226
 30
0.0
 10
25.77512333527318
 20
408.7314025012877
 30
0.0
 10
25.78788294406691
 20
408.5758816793844
 30
0.0
 10
25.80430037735847
 20
408.400795535972
 30
0.0
 10
25.82555879910039
 20
408.2139621411941
 30
0.0
 10
25.85373308324322
 20
408.0213359702292
 30
0.0
 10
25.88982779139726
 20
407.8138270136493
 30
0.0
 10
25.93726250540101
 20
407.6405895918036
 30
0.0
 10
26.04552536807862
 20
407.5044812253946
 30
0.0
 10
26.2837938031504
 20
407.3061537245534
 30
0.0
 10
26.58149039378754
 20
407.1390514933659
 30
0.0
 10
26.93379370721055
 20
407.0000103313045
 30
0.0
 10
27.33648501847527
 20
406.8823996772631
 30
0.0
 10
27.77849996791078
 20
406.7709755377558
 30
0.0
 10
28.188510500174
 20
406.6745060321201
 30
0.0
 10
28.55073173101002
 20
406.591139909657
 30
0.0
 10
28.86936340282682
 20
406.516481685444
 30
0.0
 10
29.12667278614708
 20
406.4547473878287
 30
0.0
 10
29.29917333901551
 20
406.4101897432866
 30
0.0
 10
29.38014217548974
 20
406.3865338597036
 30
0.0
 10
29.40321035197408
 20
406.3767927740822
 30
0.0
 10
29.41077180974702
 20
406.3733878202208
 30
0.0
 10
29.41356346136804
 20
406.3704472516742
 30
0.0
 10
29.41396740195092
 20
406.3697739121744
 30
0.0
 10
29.41414137268943
 20
406.369318934606
 30
0.0
 10
29.41420185390216
 20
406.3688833371496
 30
0.0
 10
29.41412826695253
 20
406.368298845802
 30
0.0
 10
29.41339962561952
 20
406.3672238371743
 30
0.0
 10
29.41251774590298
 20
406.3666433710529
 30
0.0
 10
29.41175596922869
 20
406.3663389299617
 30
0.0
  0
SPLINE
  5
90
330
75
100
AcDbEntity
  8
$DDT_AUDIT_GENERATED_(77)
  6
Continuous
 62
     7
100
AcDbSpline
210
0.0
220
0.0
230
1.0
 70
     8
 71
     3
 72
    30
 73
    26
 74
     0
 42
0.0000000090029191
 43
0.0000000001
 40
0.1698861928208487
 40
0.1698861928208487
 40
0.1698861928208487
 40
0.1698861928208487
 40
0.2028771901168435
 40
0.2218508878121643
 40
0.2423915697312861
 40
0.2648166472287083
 40
0.290284999807039
 40
0.3137485019539871
 40
0.3406985009893829
 40
0.3718188168668819
 40
0.407793166504234
 40
0.4493061828286293
 40
0.4820768027542942
 40
0.518296585225872
 40
0.5583208842759084
 40
0.602504927889986
 40
0.6403701832057519
 40
0.6812813558806744
 40
0.7257227333891294
 40
0.774214147604205
 40
0.818921610174302
 40
0.8672664819499053
 40
0.9198616396738345
 40
0.977460210340095
 40
1.0
 40
1.0
 40
1.0
 40
1.0
 10
25.46145638925422
 20
413.2352746092438
 30
0.0
 10
25.46147347312668
 20
413.2352751683985
 30
0.0
 10
25.46170113054048
 20
413.2340324425447
 30
0.0
 10
25.46232495513632
 20
413.2300860076255
 30
0.0
 10
25.46302650855253
 20
413.2253997799835
 30
0.0
 10
25.46397982382437
 20
413.2187233904244
 30
0.0
 10
25.46519910526733
 20
413.2097732780867
 30
0.0
 10
25.46670801217838
 20
413.1981873295098
 30
0.0
 10
25.46852720563808
 20
413.1836231408294
 30
0.0
 10
25.47084204067021
 20
413.1642596798188
 30
0.0
 10
25.47375409242925
 20
413.1387594550572
 30
0.0
 10
25.4769455563099
 20
413.1094551670686
 30
0.0
 10
25.48033999050501
 20
413.076977720551
 30
0.0
 10
25.48385461324497
 20
413.0421631542016
 30
0.0
 10
25.48792438449994
 20
413.0004015297507
 30
0.0
 10
25.49224663473504
 20
412.9544416600763
 30
0.0
 10
25.4967786787041
 20
412.9046600800945
 30
0.0
 10
25.50147499237383
 20
412.8514591137255
 30
0.0
 10
25.50675988815981
 20
412.7897130309295
 30
0.0
 10
25.5123973528088
 20
412.7217388033325
 30
0.0
 10
25.51839760284969
 20
412.6472122687956
 30
0.0
 10
25.52479325299296
 20
412.5655798563652
 30
0.0
 10
25.53195167806221
 20
412.4714592596413
 30
0.0
 10
25.53833602269366
 20
412.3856353074329
 30
0.0
 10
25.5420303744003
 20
412.3340600422952
 30
0.0
 10
25.54325113178473
 20
412.3170052698595
 30
0.0
  0
ARC
  5
91
330
75
100
AcDbEntity
  8
$DDT_AUDIT_GENERATED_(77)
  6
Continuous
 62
     7
100
AcDbCircle
 10
27.1272579457
 20
413.4663444363
 30
0.0
 40
1.695132591965275
100
AcDbArc
 50
183.1959612329
 51
183.8055027541
  0
ARC
  5
92
330
75
100
AcDbEntity
  8
$DDT_AUDIT_GENERATED_(77)
  6
Continuous
 62
     7
100
AcDbCircle
 10
68.4436556186
 20
419.6993052614
 30
0.0
 40
0.4912994388189063
100
AcDbArc
 50
358.8626726011
 51
87.1709694536
  0
ARC
  5
93
330
75
100
AcDbEntity
  8
$DDT_AUDIT_GENERATED_(77)
  6
Continuous
 62
     7
100
AcDbCircle
 10
19.4405644585
 20
419.699935316
 30
0.0
 40
0.4907678851018422
100
AcDbArc
 50
92.5808356423
 51
181.1492147542
  0
ARC
  5
94
330
75
100
AcDbEntity
  8
$DDT_AUDIT_GENERATED_(77)
  6
Continuous
 62
     7
100
AcDbCircle
 10
43.1764947764
 20
345.761038762
 30
0.0
 40
56.07330197071775
100
AcDbArc
 50
76.5822429137
 51
99.6312676795
  0
ARC
  5
95
330
75
100
AcDbEntity
  8
$DDT_AUDIT_GENERATED_(77)
  6
Continuous
 62
     7
100
AcDbCircle
 10
43.4230786646
 20
412.185527612
 30
0.0
 40
18.50978588272641
100
AcDbArc
 50
311.7529920108
 51
316.0969240985
  0
SPLINE
  5
96
330
75
100
AcDbEntity
  8
$DDT_AUDIT_GENERATED_(77)
  6
Continuous
 62
     7
100
AcDbSpline
210
0.0
220
0.0
230
1.0
 70
     8
 71
     3
 72
    18
 73
    14
 74
     0
 42
0.0000000038980952
 43
0.0000000001
 40
0.1236723875419825
 40
0.1236723875419825
 40
0.1236723875419825
 40
0.1236723875419825
 40
0.2030682102473346
 40
0.2810423509366861
 40
0.3635008333526337
 40
0.4452991106382521
 40
0.5304305381210954
 40
0.6198251852206067
 40
0.7118377452782182
 40
0.8059945326215656
 40
0.9017848088993978
 40
0.9987587040768217
 40
1.0
 40
1.0
 40
1.0
 40
1.0
 10
31.69881766757799
 20
400.2996909317552
 30
0.0
 10
31.69893155763496
 20
400.2993506723954
 30
0.0
 10
31.7022202681151
 20
400.3086241589742
 30
0.0
 10
31.73989982078057
 20
400.3506285665385
 30
0.0
 10
31.82155943469959
 20
400.4152415873509
 30
0.0
 10
31.95282997257616
 20
400.4949421371373
 30
0.0
 10
32.13015525773998
 20
400.5814244682129
 30
0.0
 10
32.35930308186909
 20
400.6732394253841
 30
0.0
 10
32.64049125706068
 20
400.7671168649005
 30
0.0
 10
32.97229054590554
 20
400.8610802865256
 30
0.0
 10
33.35191693793295
 20
400.9514883789952
 30
0.0
 10
33.63886255275991
 20
401.0137721036695
 30
0.0
 10
33.78869920308648
 20
401.0406231535069
 30
0.0
 10
33.79089333798157
 20
401.0410162967221
 30
0.0
  0
ARC
  5
97
330
75
100
AcDbEntity
  8
$DDT_AUDIT_GENERATED_(77)
  6
Continuous
 62
     7
100
AcDbCircle
 10
44.409826733
 20
412.077397001
 30
0.0
 40
18.38578384301902
100
AcDbArc
 50
223.5293084229
 51
228.1387194376
  0
ELLIPSE
  5
99
330
75
100
AcDbEntity
  8
$DDT_AUDIT_GENERATED_(98)
  6
Continuous
 62
     7
100
AcDbEllipse
 10
43.9423280626
 20
435.658276244
 30
0.0
 11
0.0
 21
3.596307325254563
 31
0.0
210
0.0
220
0.0
230
1.0
 40
1.0
 41
4.011400314965003
 42
4.71238898038469
  0
ELLIPSE
  5
9A
330
75
100
AcDbEntity
  8
$DDT_AUDIT_GENERATED_(98)
  6
Continuous
 62
     7
100
AcDbEllipse
 10
43.9423280626
 20
435.658276244
 30
0.0
 11
0.0
 21
3.45000000000001
 31
0.0
210
0.0
220
0.0
230
1.0
 40
1.0
 41
1.570796326794897
 42
1.96005805352021
  0
ELLIPSE
  5
9C
330
75
100
AcDbEntity
  8
02636038_GEH_USE
  6
Continuous
 62
     7
100
AcDbEllipse
 10
43.9423280626
 20
393.578072663
 30
0.0
 11
10.75000000000001
 21
-1.387778780781446E-14
 31
0.0
210
0.0
220
0.0
230
1.0
 40
0.3420201433
 41
5.573224749451752
 42
6.283185307179586
  0
ELLIPSE
  5
9D
330
75
100
AcDbEntity
  8
02636038_GEH_USE
  6
Continuous
 62
     7
100
AcDbEllipse
 10
43.9423280626
 20
393.578072663
 30
0.0
 11
10.75000000000001
 21
-1.387778780781446E-14
 31
0.0
210
0.0
220
0.0
230
1.0
 40
0.3420201433
 41
0.0000000000000038
 42
3.85155321131763
  0
ELLIPSE
  5
9E
330
75
100
AcDbEntity
  8
02636038_GEH_USE
  6
Continuous
 62
     7
100
AcDbEllipse
 10
43.9423280626
 20
394.14773104
 30
0.0
 11
11.80000000000001
 21
0.0
 31
0.0
210
0.0
220
0.0
230
1.0
 40
0.3420201433
 41
5.601097675350778
 42
6.283185307179586
  0
ELLIPSE
  5
9F
330
75
100
AcDbEntity
  8
02636038_GEH_USE
  6
Continuous
 62
     7
100
AcDbEllipse
 10
43.9423280626
 20
394.14773104
 30
0.0
 11
11.80000000000001
 21
0.0
 31
0.0
210
0.0
220
0.0
230
1.0
 40
0.3420201433
 41
0.0
 42
3.823680285418603
  0
LINE
  5
A0
330
75
100
AcDbEntity
  8
02636038_GEH_USE
  6
Continuous
 62
     7
100
AcDbLine
 10
34.7824796864
 20
391.6034786713
 30
0.0
 11
35.5975509402
 21
391.2602156323
 31
0.0
  0
LINE
  5
A1
330
75
100
AcDbEntity
  8
02636038_GEH_USE
  6
Continuous
 62
     7
100
AcDbLine
 10
52.2871051849
 20
391.2602156323
 30
0.0
 11
53.1021764387
 21
391.6034786713
 31
0.0
  0
LINE
  5
A2
330
75
100
AcDbEntity
  8
02636038_GEH_USE
  6
Continuous
 62
     7
100
AcDbLine
 10
32.1423280626
 20
400.5835364458
 30
0.0
 11
32.1423280626
 21
394.14773104
 31
0.0
  0
LINE
  5
A3
330
75
100
AcDbEntity
  8
02636038_GEH_USE
  6
Continuous
 62
     7
100
AcDbLine
 10
55.7423280626
 20
394.14773104
 30
0.0
 11
55.7423280626
 21
400.5840301763
 31
0.0
  0
ELLIPSE
  5
A5
330
75
100
AcDbEntity
  8
64647040_EINSATZ
  6
Continuous
 62
     7
100
AcDbEllipse
 10
43.9423280626
 20
391.9397799618
 30
0.0
 11
7.875000000000005
 21
0.0
 31
0.0
210
0.0
220
0.0
230
1.0
 40
0.3420201433
 41
3.160183300135913
 42
6.264594660633609
  0
ELLIPSE
  5
A6
330
75
100
AcDbEntity
  8
64647040_EINSATZ
  6
Continuous
 62
     7
100
AcDbEllipse
 10
43.9423280626
 20
392.2625029939
 30
0.0
 11
-8.000000000000002
 21
0.0
 31
0.0
210
0.0
220
0.0
230
1.0
 40
0.3420201433
 41
0.1915828922042169
 42
2.950009761385572
  0
ELLIPSE
  5
A7
330
75
100
AcDbEntity
  8
64647040_EINSATZ
  6
Continuous
 62
     7
100
AcDbEllipse
 10
43.9423280626
 20
391.8396413146
 30
0.0
 11
7.875000000000005
 21
0.0
 31
0.0
210
0.0
220
0.0
230
1.0
 40
0.3420201433
 41
0.0
 42
6.283185307179586
  0
SPLINE
  5
A8
330
75
100
AcDbEntity
  8
64647040_EINSATZ
  6
Continuous
 62
     7
100
AcDbSpline
210
0.0
220
0.0
230
1.0
 70
     8
 71
     3
 72
    11
 73
     7
 74
     0
 42
0.0000001364428799
 43
0.0000000001
 40
0.0
 40
0.0
 40
0.0
 40
0.0
 40
0.1662420688397998
 40
0.1662420688397998
 40
0.1662420688397998
 40
0.2234852446544588
 40
0.2234852446544588
 40
0.2234852446544588
 40
0.2234852446544588
 10
44.48233217988631
 20
392.3786722784066
 30
0.0
 10
44.48450741591282
 20
392.3756650705419
 30
0.0
 10
44.48791457713138
 20
392.3739259209381
 30
0.0
 10
44.49209923704315
 20
392.3735185703348
 30
0.0
 10
44.49354552646123
 20
392.3733777830595
 30
0.0
 10
44.4950942408205
 20
392.3733904190681
 30
0.0
 10
44.49672314522793
 20
392.3735452349095
 30
0.0
  0
SPLINE
  5
A9
330
75
100
AcDbEntity
  8
64647040_EINSATZ
  6
Continuous
 62
     7
100
AcDbSpline
210
0.0
220
0.0
230
1.0
 70
    12
 71
     2
 72
     6
 73
     3
 74
     0
 42
0.0000011105898116
 43
0.0000000001
 40
0.0
 40
0.0
 40
0.0
 40
1.0
 40
1.0
 40
1.0
 10
44.47678307561969
 20
392.385755357924
 30
0.0
 41
1.0
 10
44.4797572095686
 20
392.3822321086454
 30
0.0
 41
1.0
 10
44.48233217988629
 20
392.3786722784066
 30
0.0
 41
1.0
  0
SPLINE
  5
AA
330
75
100
AcDbEntity
  8
64647040_EINSATZ
  6
Continuous
 62
     7
100
AcDbSpline
210
0.0
220
0.0
230
1.0
 70
     8
 71
     3
 72
    10
 73
     6
 74
     0
 42
0.0000000733819831
 43
0.0000000001
 40
0.0
 40
0.0
 40
0.0
 40
0.0
 40
0.5
 40
0.5
 40
1.0
 40
1.0
 40
1.0
 40
1.0
 10
44.51839301016196
 20
392.5081099838869
 30
0.0
 10
44.50400852155357
 20
392.4846369434702
 30
0.0
 10
44.4910392742987
 20
392.4601748337054
 30
0.0
 10
44.47340645666443
 20
392.4158045373395
 30
0.0
 10
44.46907681917958
 20
392.3948844230239
 30
0.0
 10
44.47678307561971
 20
392.3857553579239
 30
0.0
  0
LINE
  5
AB
330
75
100
AcDbEntity
  8
64647040_EINSATZ
  6
Continuous
 62
     7
100
AcDbLine
 10
44.5862572744
 20
392.6879704378
 30
0.0
 11
44.5183930102
 21
392.5081099839
 31
0.0
  0
SPLINE
  5
AC
330
75
100
AcDbEntity
  8
64647040_EINSATZ
  6
Continuous
 62
     7
100
AcDbSpline
210
0.0
220
0.0
230
1.0
 70
     8
 71
     3
 72
    14
 73
    10
 74
     0
 42
0.0000000642882157
 43
0.0000000001
 40
0.0
 40
0.0
 40
0.0
 40
0.0
 40
0.1662420688398022
 40
0.1662420688398022
 40
0.1662420688398022
 40
0.331065087576697
 40
0.331065087576697
 40
0.331065087576697
 40
0.4009291771581243
 40
0.4009291771581243
 40
0.4009291771581243
 40
0.4009291771581243
 10
44.22970238106746
 20
392.4958864700673
 30
0.0
 10
44.2374577328089
 20
392.4942861224342
 30
0.0
 10
44.24596377258326
 20
392.4942347086525
 30
0.0
 10
44.25435201338193
 20
392.4956085531224
 30
0.0
 10
44.26269958344902
 20
392.4969757364507
 30
0.0
 10
44.27114648894331
 20
392.49974927167
 30
0.0
 10
44.27913078675284
 20
392.5035059531464
 30
0.0
 10
44.28250142532799
 20
392.5050918678756
 30
0.0
 10
44.28581954840919
 20
392.5068639882745
 30
0.0
 10
44.28906703248869
 20
392.508797081477
 30
0.0
  0
SPLINE
  5
AD
330
75
100
AcDbEntity
  8
64647040_EINSATZ
  6
Continuous
 62
     7
100
AcDbSpline
210
0.0
220
0.0
230
1.0
 70
    12
 71
     2
 72
     6
 73
     3
 74
     0
 42
0.0000005283490689
 43
0.0000000001
 40
0.0
 40
0.0
 40
0.0
 40
1.0
 40
1.0
 40
1.0
 10
44.21113471630686
 20
392.4995529418215
 30
0.0
 41
1.0
 10
44.22052185983703
 20
392.4977809070838
 30
0.0
 41
1.0
 10
44.22970238106746
 20
392.4958864700673
 30
0.0
 41
1.0
  0
SPLINE
  5
AE
330
75
100
AcDbEntity
  8
64647040_EINSATZ
  6
Continuous
 62
     7
100
AcDbSpline
210
0.0
220
0.0
230
1.0
 70
     8
 71
     3
 72
    10
 73
     6
 74
     0
 42
0.0000000664841213
 43
0.0000000001
 40
0.0
 40
0.0
 40
0.0
 40
0.0
 40
0.5
 40
0.5
 40
1.0
 40
1.0
 40
1.0
 40
1.0
 10
44.15993665043949
 20
392.6205492231452
 30
0.0
 10
44.15437144213714
 20
392.5942499214967
 30
0.0
 10
44.15496508776504
 20
392.568034567898
 30
0.0
 10
44.1703478963399
 20
392.5233455141391
 30
0.0
 10
44.18681175825858
 20
392.5041444478998
 30
0.0
 10
44.21113471630686
 20
392.4995529418214
 30
0.0
  0
LINE
  5
AF
330
75
100
AcDbEntity
  8
64647040_EINSATZ
  6
Continuous
 62
     7
100
AcDbLine
 10
44.180325143
 20
392.8129123905
 30
0.0
 11
44.1599366504
 21
392.6205492231
 31
0.0
  0
LINE
  5
B0
330
75
100
AcDbEntity
  8
64647040_EINSATZ
  6
Continuous
 62
     7
100
AcDbLine
 10
43.8866674656
 20
392.632853935
 30
0.0
 11
43.8865368086
 21
392.8261410347
 31
0.0
  0
SPLINE
  5
B1
330
75
100
AcDbEntity
  8
64647040_EINSATZ
  6
Continuous
 62
     7
100
AcDbSpline
210
0.0
220
0.0
230
1.0
 70
     8
 71
     3
 72
    20
 73
    16
 74
     0
 42
0.0000000647344898
 43
0.0000000001
 40
0.0
 40
0.0
 40
0.0
 40
0.0
 40
0.166242068839801
 40
0.166242068839801
 40
0.166242068839801
 40
0.3310650875766957
 40
0.3310650875766957
 40
0.3310650875766957
 40
0.5632461486775338
 40
0.5632461486775338
 40
0.5632461486775338
 40
0.8533054901458648
 40
0.8533054901458648
 40
0.8533054901458648
 40
1.0
 40
1.0
 40
1.0
 40
1.0
 10
43.80873260394343
 20
392.5176722261088
 30
0.0
 10
43.81752509153062
 20
392.5184162006463
 30
0.0
 10
43.82614728712305
 20
392.5207913333832
 30
0.0
 10
43.8338253911132
 20
392.5244412869899
 30
0.0
 10
43.84146626749939
 20
392.5280735436459
 30
0.0
 10
43.84839845662918
 20
392.5330258256958
 30
0.0
 10
43.85435803450862
 20
392.5387579274233
 30
0.0
 10
43.86271914083628
 20
392.5467998916352
 30
0.0
 10
43.86943961002158
 20
392.5565838048275
 30
0.0
 10
43.87448044609914
 20
392.5670837444717
 30
0.0
 10
43.88076354703966
 20
392.580171291783
 30
0.0
 10
43.88465956798436
 20
392.594791053125
 30
0.0
 10
43.8861779405045
 20
392.6096949210957
 30
0.0
 10
43.88695368091365
 20
392.6173093454114
 30
0.0
 10
43.88712034931257
 20
392.6250804776613
 30
0.0
 10
43.88666746563684
 20
392.6328539350097
 30
0.0
  0
SPLINE
  5
B2
330
75
100
AcDbEntity
  8
64647040_EINSATZ
  6
Continuous
 62
     7
100
AcDbSpline
210
0.0
220
0.0
230
1.0
 70
    12
 71
     2
 72
     6
 73
     3
 74
     0
 42
0.0000004808424308
 43
0.0000000001
 40
0.0
 40
0.0
 40
0.0
 40
1.0
 40
1.0
 40
1.0
 10
43.78802306488397
 20
392.5157743206722
 30
0.0
 41
1.0
 10
43.79832435662738
 20
392.5167915343916
 30
0.0
 41
1.0
 10
43.80873260394341
 20
392.5176722261088
 30
0.0
 41
1.0
  0
SPLINE
  5
B3
330
75
100
AcDbEntity
  8
64647040_EINSATZ
  6
Continuous
 62
     7
100
AcDbSpline
210
0.0
220
0.0
230
1.0
 70
     8
 71
     3
 72
    10
 73
     6
 74
     0
 42
0.0000000598065915
 43
0.0000000001
 40
0.3698566820033972
 40
0.3698566820033972
 40
0.3698566820033972
 40
0.3698566820033972
 40
0.5
 40
0.5
 40
1.0
 40
1.0
 40
1.0
 40
1.0
 10
43.69986764701051
 20
392.5600736916875
 30
0.0
 10
43.70417139790067
 20
392.5545594230799
 30
0.0
 10
43.7088987066401
 20
392.5493664047863
 30
0.0
 10
43.7337184098759
 20
392.5260953424995
 30
0.0
 10
43.76133146417519
 20
392.51313862574
 30
0.0
 10
43.78802306488397
 20
392.5157743206722
 30
0.0
  0
LINE
  5
B4
330
75
100
AcDbEntity
  8
64647040_EINSATZ
  6
Continuous
 62
     7
100
AcDbLine
 10
43.4553383605
 20
392.5559770025
 30
0.0
 11
43.3998883728
 21
392.7413900266
 31
0.0
  0
SPLINE
  5
B5
330
75
100
AcDbEntity
  8
64647040_EINSATZ
  6
Continuous
 62
     7
100
AcDbSpline
210
0.0
220
0.0
230
1.0
 70
     8
 71
     3
 72
    20
 73
    16
 74
     0
 42
0.000000074239226
 43
0.0000000001
 40
0.0
 40
0.0
 40
0.0
 40
0.0
 40
0.1662420688398013
 40
0.1662420688398013
 40
0.1662420688398013
 40
0.3310650875766956
 40
0.3310650875766956
 40
0.3310650875766956
 40
0.5632461486775328
 40
0.5632461486775328
 40
0.5632461486775328
 40
0.8533054901458635
 40
0.8533054901458635
 40
0.8533054901458635
 40
1.0
 40
1.0
 40
1.0
 40
1.0
 10
43.46602123460426
 20
392.4312677461084
 30
0.0
 10
43.47070033805565
 20
392.4339202326226
 30
0.0
 10
43.47438792422552
 20
392.4380392845338
 30
0.0
 10
43.47685816222304
 20
392.4431269474779
 30
0.0
 10
43.47931642316972
 20
392.4481899426784
 30
0.0
 10
43.4806731135597
 20
392.4543165051671
 30
0.0
 10
43.48111693161331
 20
392.4609557720389
 30
0.0
 10
43.48173959483064
 20
392.47027046133
 30
0.0
 10
43.48062205347662
 20
392.4808481378454
 30
0.0
 10
43.47837437176364
 20
392.4917437819422
 30
0.0
 10
43.4755727708253
 20
392.5053245512071
 30
0.0
 10
43.47093962654004
 20
392.5198398847411
 30
0.0
 10
43.46515229143805
 20
392.5341389714212
 30
0.0
 10
43.46219552711283
 20
392.5414444114265
 30
0.0
 10
43.45890343504536
 20
392.5487727668369
 30
0.0
 10
43.45533836046025
 20
392.5559770025217
 30
0.0
  0
SPLINE
  5
B6
330
75
100
AcDbEntity
  8
64647040_EINSATZ
  6
Continuous
 62
     7
100
AcDbSpline
210
0.0
220
0.0
230
1.0
 70
    12
 71
     2
 72
     6
 73
     3
 74
     0
 42
0.0000008024234772
 43
0.0000000001
 40
0.0
 40
0.0
 40
0.0
 40
1.0
 40
1.0
 40
1.0
 10
43.45530118835651
 20
392.4249172307458
 30
0.0
 41
1.0
 10
43.46048227131983
 20
392.4281278229213
 30
0.0
 41
1.0
 10
43.46602123460427
 20
392.4312677461084
 30
0.0
 41
1.0
  0
SPLINE
  5
B7
330
75
100
AcDbEntity
  8
64647040_EINSATZ
  6
Continuous
 62
     7
100
AcDbSpline
210
0.0
220
0.0
230
1.0
 70
     8
 71
     3
 72
     8
 73
     4
 74
     0
 42
0.0000000928785158
 43
0.0000000001
 40
0.7528654537733588
 40
0.7528654537733588
 40
0.7528654537733588
 40
0.7528654537733588
 40
1.0
 40
1.0
 40
1.0
 40
1.0
 10
43.43007938049875
 20
392.4220944349451
 30
0.0
 10
43.43979204360849
 20
392.4201538983964
 30
0.0
 10
43.44866579103657
 20
392.420805435032
 30
0.0
 10
43.45530118835651
 20
392.4249172307458
 30
0.0
  0
ELLIPSE
  5
B8
330
75
100
AcDbEntity
  8
64647040_EINSATZ
  6
Continuous
 62
     7
100
AcDbEllipse
 10
43.9423280626
 20
391.904721561
 30
0.0
 11
8.422375322854235
 21
0.0
 31
0.0
210
0.0
220
0.0
230
1.0
 40
0.3420201433
 41
5.710265001928506
 42
6.283185307179586
  0
ELLIPSE
  5
B9
330
75
100
AcDbEntity
  8
64647040_EINSATZ
  6
Continuous
 62
     7
100
AcDbEllipse
 10
43.9423280626
 20
391.904721561
 30
0.0
 11
8.422375322854235
 21
0.0
 31
0.0
210
0.0
220
0.0
230
1.0
 40
0.3420201433
 41
3.043276368761834
 42
3.664238285294485
  0
ELLIPSE
  5
BA
330
75
100
AcDbEntity
  8
64647040_EINSATZ
  6
Continuous
 62
     7
100
AcDbEllipse
 10
43.9423280626
 20
391.8396413146
 30
0.0
 11
-8.327218268566533
 21
1.387778780781446E-14
 31
0.0
210
0.0
220
0.0
230
1.0
 40
0.3420201433
 41
0.6030661291544275
 42
2.565208065877703
  0
ELLIPSE
  5
BB
330
75
100
AcDbEntity
  8
64647040_EINSATZ
  6
Continuous
 62
     7
100
AcDbEllipse
 10
43.9423280626
 20
391.8396413146
 30
0.0
 11
-8.327218268566533
 21
1.387778780781446E-14
 31
0.0
210
0.0
220
0.0
230
1.0
 40
0.3420201433
 41
3.536345847164501
 42
5.863997084040751
  0
ELLIPSE
  5
BC
330
75
100
AcDbEntity
  8
64647040_EINSATZ
  6
Continuous
 62
     7
100
AcDbEllipse
 10
43.9423280626
 20
391.916550694
 30
0.0
 11
6.390109892686962
 21
0.0
 31
0.0
210
0.0
220
0.0
230
1.0
 40
0.3420201433
 41
5.928667980079037
 42
6.283185307179586
  0
ELLIPSE
  5
BD
330
75
100
AcDbEntity
  8
64647040_EINSATZ
  6
Continuous
 62
     7
100
AcDbEllipse
 10
43.9423280626
 20
391.916550694
 30
0.0
 11
6.390109892686962
 21
0.0
 31
0.0
210
0.0
220
0.0
230
1.0
 40
0.3420201433
 41
3.003367451954134
 42
3.488934182908336
  0
ELLIPSE
  5
BE
330
75
100
AcDbEntity
  8
64647040_EINSATZ
  6
Continuous
 62
     7
100
AcDbEllipse
 10
43.9423280626
 20
391.8396413146
 30
0.0
 11
-6.29177167464824
 21
1.387778780781446E-14
 31
0.0
210
0.0
220
0.0
230
1.0
 40
0.3420201433
 41
0.6048431908329412
 42
2.485457388367215
  0
ELLIPSE
  5
BF
330
75
100
AcDbEntity
  8
64647040_EINSATZ
  6
Continuous
 62
     7
100
AcDbEllipse
 10
43.9423280626
 20
391.8396413146
 30
0.0
 11
-6.29177167464824
 21
1.387778780781446E-14
 31
0.0
210
0.0
220
0.0
230
1.0
 40
0.3420201433
 41
3.562957582542189
 42
5.893288646952835
  0
ELLIPSE
  5
C0
330
75
100
AcDbEntity
  8
64647040_EINSATZ
  6
Continuous
 62
     7
100
AcDbEllipse
 10
43.9423280626
 20
391.8396413146
 30
0.0
 11
6.275000000000002
 21
0.0
 31
0.0
210
0.0
220
0.0
230
1.0
 40
0.3420201433
 41
3.65544806511779
 42
5.7200987553092
  0
ELLIPSE
  5
C1
330
75
100
AcDbEntity
  8
64647040_EINSATZ
  6
Continuous
 62
     7
100
AcDbEllipse
 10
43.9423280626
 20
391.8396413146
 30
0.0
 11
6.275000000000002
 21
0.0
 31
0.0
210
0.0
220
0.0
230
1.0
 40
0.3420201433
 41
0.4047365844296815
 42
2.67748377426345
  0
ELLIPSE
  5
C2
330
75
100
AcDbEntity
  8
64647040_EINSATZ
  6
Continuous
 62
     7
100
AcDbEllipse
 10
43.9423280626
 20
391.9336105767
 30
0.0
 11
6.175000000000004
 21
0.0
 31
0.0
210
0.0
220
0.0
230
1.0
 40
0.3420201433
 41
2.951936065582894
 42
3.330832257806013
  0
ELLIPSE
  5
C3
330
75
100
AcDbEntity
  8
64647040_EINSATZ
  6
Continuous
 62
     7
100
AcDbEllipse
 10
43.9423280626
 20
391.9193218753
 30
0.0
 11
4.650545274088402
 21
0.0
 31
0.0
210
0.0
220
0.0
230
1.0
 40
0.3420201433
 41
6.155262127610469
 42
6.283185307179586
  0
ELLIPSE
  5
C4
330
75
100
AcDbEntity
  8
64647040_EINSATZ
  6
Continuous
 62
     7
100
AcDbEllipse
 10
43.9423280626
 20
391.9193218753
 30
0.0
 11
4.650545274088402
 21
0.0
 31
0.0
210
0.0
220
0.0
230
1.0
 40
0.3420201433
 41
2.981564126573434
 42
3.197617377764881
  0
ELLIPSE
  5
C5
330
75
100
AcDbEntity
  8
64647040_EINSATZ
  6
Continuous
 62
     7
100
AcDbEllipse
 10
43.9423280626
 20
391.8396413146
 30
0.0
 11
-4.551708104323339
 21
0.0
 31
0.0
210
0.0
220
0.0
230
1.0
 40
0.3420201433
 41
0.596726714118786
 42
2.590350835920087
  0
ELLIPSE
  5
C6
330
75
100
AcDbEntity
  8
64647040_EINSATZ
  6
Continuous
 62
     7
100
AcDbEllipse
 10
43.9423280626
 20
391.8396413146
 30
0.0
 11
-4.551708104323339
 21
0.0
 31
0.0
210
0.0
220
0.0
230
1.0
 40
0.3420201433
 41
3.617788232365939
 42
5.910812348248907
  0
ELLIPSE
  5
C7
330
75
100
AcDbEntity
  8
64647040_EINSATZ
  6
Continuous
 62
     7
100
AcDbEllipse
 10
43.9423280626
 20
391.8396413146
 30
0.0
 11
-4.537500000000001
 21
0.0
 31
0.0
210
0.0
220
0.0
230
1.0
 40
0.3420201433
 41
3.546852350123143
 42
5.836222098170337
  0
ELLIPSE
  5
C8
330
75
100
AcDbEntity
  8
64647040_EINSATZ
  6
Continuous
 62
     7
100
AcDbEllipse
 10
43.9423280626
 20
391.8396413146
 30
0.0
 11
-4.537500000000001
 21
0.0
 31
0.0
210
0.0
220
0.0
230
1.0
 40
0.3420201433
 41
0.4925143644371562
 42
2.494756443803975
  0
ELLIPSE
  5
C9
330
75
100
AcDbEntity
  8
64647040_EINSATZ
  6
Continuous
 62
     7
100
AcDbEllipse
 10
43.9423280626
 20
391.916550694
 30
0.0
 11
2.877609892686964
 21
0.0
 31
0.0
210
0.0
220
0.0
230
1.0
 40
0.3420201433
 41
6.103117409362389
 42
6.283185307179586
  0
ELLIPSE
  5
CA
330
75
100
AcDbEntity
  8
64647040_EINSATZ
  6
Continuous
 62
     7
100
AcDbEllipse
 10
43.9423280626
 20
391.8396413146
 30
0.0
 11
2.779271674648245
 21
0.0
 31
0.0
210
0.0
220
0.0
230
1.0
 40
0.3420201433
 41
0.3972784245592567
 42
2.74641197724426
  0
ELLIPSE
  5
CB
330
75
100
AcDbEntity
  8
64647040_EINSATZ
  6
Continuous
 62
     7
100
AcDbEllipse
 10
43.9423280626
 20
391.8396413146
 30
0.0
 11
2.779271674648245
 21
0.0
 31
0.0
210
0.0
220
0.0
230
1.0
 40
0.3420201433
 41
3.910375067159503
 42
5.658883897600178
  0
ELLIPSE
  5
CC
330
75
100
AcDbEntity
  8
64647040_EINSATZ
  6
Continuous
 62
     7
100
AcDbEllipse
 10
43.9423280626
 20
391.8396413146
 30
0.0
 11
2.762500000000001
 21
0.0
 31
0.0
210
0.0
220
0.0
230
1.0
 40
0.3420201433
 41
3.736031537969732
 42
5.717151136244063
  0
ELLIPSE
  5
CD
330
75
100
AcDbEntity
  8
64647040_EINSATZ
  6
Continuous
 62
     7
100
AcDbEllipse
 10
43.9423280626
 20
391.8396413146
 30
0.0
 11
2.762500000000001
 21
0.0
 31
0.0
210
0.0
220
0.0
230
1.0
 40
0.3420201433
 41
0.4235156683529458
 42
2.760744290937212
  0
ELLIPSE
  5
CE
330
75
100
AcDbEntity
  8
64647040_EINSATZ
  6
Continuous
 62
     7
100
AcDbEllipse
 10
43.9423280626
 20
391.9336105767
 30
0.0
 11
-2.6625
 21
0.0
 31
0.0
210
0.0
220
0.0
230
1.0
 40
0.3420201433
 41
0.0
 42
0.0186658998961483
  0
ELLIPSE
  5
CF
330
75
100
AcDbEntity
  8
64647040_EINSATZ
  6
Continuous
 62
     7
100
AcDbEllipse
 10
43.9423280626
 20
393.3666418234
 30
0.0
 11
8.925000000000001
 21
0.0
 31
0.0
210
0.0
220
0.0
230
1.0
 40
0.3420201433
 41
0.0
 42
0.1740467160533439
  0
ELLIPSE
  5
D0
330
75
100
AcDbEntity
  8
64647040_EINSATZ
  6
Continuous
 62
     7
100
AcDbEllipse
 10
43.9423280626
 20
393.3666418234
 30
0.0
 11
8.925000000000001
 21
0.0
 31
0.0
210
0.0
220
0.0
230
1.0
 40
0.3420201433
 41
2.973257870064991
 42
3.259455734026115
  0
ELLIPSE
  5
D1
330
75
100
AcDbEntity
  8
64647040_EINSATZ
  6
Continuous
 62
     7
100
AcDbEllipse
 10
43.9423280626
 20
393.3666418234
 30
0.0
 11
8.925000000000001
 21
0.0
 31
0.0
210
0.0
220
0.0
230
1.0
 40
0.3420201433
 41
6.165322226743271
 42
6.283185307179586
  0
SPLINE
  5
D2
330
75
100
AcDbEntity
  8
64647040_EINSATZ
  6
Continuous
 62
     7
100
AcDbSpline
210
0.0
220
0.0
230
1.0
 70
    12
 71
     2
 72
     6
 73
     3
 74
     0
 42
0.0000000101364901
 43
0.0000000001
 40
0.0711424925738438
 40
0.0711424925738438
 40
0.0711424925738438
 40
1.0
 40
1.0
 40
1.0
 10
47.8891376874157
 20
392.6053075289502
 30
0.0
 41
1.0
 10
47.86471288170628
 20
392.1477069782786
 30
0.0
 41
1.0
 10
47.83917344346403
 20
391.6903211586774
 30
0.0
 41
1.0
  0
SPLINE
  5
D3
330
75
100
AcDbEntity
  8
64647040_EINSATZ
  6
Continuous
 62
     7
100
AcDbSpline
210
0.0
220
0.0
230
1.0
 70
     8
 71
     3
 72
    20
 73
    16
 74
     0
 42
0.0000000786865167
 43
0.0000000001
 40
0.0
 40
0.0
 40
0.0
 40
0.0
 40
0.2315617253407084
 40
0.2315617253407084
 40
0.2315617253407084
 40
0.4631201962701202
 40
0.4631201962701202
 40
0.4631201962701202
 40
0.6947246953612264
 40
0.6947246953612264
 40
0.6947246953612264
 40
0.9263410357669383
 40
0.9263410357669383
 40
0.9263410357669383
 40
1.0
 40
1.0
 40
1.0
 40
1.0
 10
47.83917344303789
 20
391.690321158516
 30
0.0
 10
47.83856879680077
 20
391.6794924135668
 30
0.0
 10
47.83703761448636
 20
391.6681426495136
 30
0.0
 10
47.83469721870883
 20
391.6572137224697
 30
0.0
 10
47.83235684235675
 20
391.6462848861367
 30
0.0
 10
47.82914207693693
 20
391.6354755933959
 30
0.0
 10
47.82530207303247
 20
391.6256836959714
 30
0.0
 10
47.82146132463977
 20
391.6158899001236
 30
0.0
 10
47.8168882876249
 20
391.6068439251317
 30
0.0
 10
47.811944573399
 20
391.5992980448844
 30
0.0
 10
47.80700063609508
 20
391.5917518241401
 30
0.0
 10
47.80154890015186
 20
391.5854978245858
 30
0.0
 10
47.79603150563369
 20
391.581056214512
 30
0.0
 10
47.79425418508872
 20
391.5796254368486
 30
0.0
 10
47.79245999922657
 20
391.5783697654099
 30
0.0
 10
47.79066460108699
 20
391.5773002195364
 30
0.0
  0
LINE
  5
D4
330
75
100
AcDbEntity
  8
64647040_EINSATZ
  6
Continuous
 62
     7
100
AcDbLine
 10
47.7906646011
 20
391.5773002195
 30
0.0
 11
47.7799445548
 21
391.5709497042
 31
0.0
  0
SPLINE
  5
D5
330
75
100
AcDbEntity
  8
64647040_EINSATZ
  6
Continuous
 62
     7
100
AcDbSpline
210
0.0
220
0.0
230
1.0
 70
     8
 71
     3
 72
    11
 73
     7
 74
     0
 42
0.0000001316770367
 43
0.0000000001
 40
0.0
 40
0.0
 40
0.0
 40
0.0
 40
0.2315601448090092
 40
0.2315601448090092
 40
0.2315601448090092
 40
0.2726026239292609
 40
0.2726026239292609
 40
0.2726026239292609
 40
0.2726026239292609
 10
47.77994455483919
 20
391.5709497041736
 30
0.0
 10
47.77432553743515
 20
391.5676395127091
 30
0.0
 10
47.7685904108768
 20
391.5661068276677
 30
0.0
 10
47.76322006924617
 20
391.566477192922
 30
0.0
 10
47.76226820734208
 20
391.5665428380152
 30
0.0
 10
47.76132316912075
 20
391.5666685836437
 30
0.0
 10
47.76038741386555
 20
391.5668533595833
 30
0.0
  0
SPLINE
  5
D6
330
75
100
AcDbEntity
  8
64647040_EINSATZ
  6
Continuous
 62
     7
100
AcDbSpline
210
0.0
220
0.0
230
1.0
 70
    12
 71
     2
 72
     6
 73
     3
 74
     0
 42
0.0000000103333501
 43
0.0000000001
 40
0.9672303136644335
 40
0.9672303136644335
 40
0.9672303136644335
 40
1.0
 40
1.0
 40
1.0
 10
45.20042678410476
 20
390.9920413265163
 30
0.0
 41
1.0
 10
45.19862050073247
 20
390.9762880332
 30
0.0
 41
1.0
 10
45.19681380211652
 20
390.9605352625169
 30
0.0
 41
1.0
  0
ARC
  5
D7
330
75
100
AcDbEntity
  8
64647040_EINSATZ
  6
Continuous
 62
     7
100
AcDbCircle
 10
45.0904508515
 20
390.9746965205
 30
0.0
 40
0.1073015307331209
100
AcDbArc
 50
275.7434577554
 51
352.4161904553
  0
LINE
  5
D8
330
75
100
AcDbEntity
  8
64647040_EINSATZ
  6
Continuous
 62
     7
100
AcDbLine
 10
45.1011889934
 20
390.8679336487
 30
0.0
 11
45.0804794543
 21
390.8660357432
 31
0.0
  0
ARC
  5
D9
330
75
100
AcDbEntity
  8
64647040_EINSATZ
  6
Continuous
 62
     7
100
AcDbCircle
 10
45.0699817804
 20
390.9519083886
 30
0.0
 40
0.0865119204635879
100
AcDbArc
 50
217.8264932473
 51
276.9696558832
  0
ARC
  5
DA
330
75
100
AcDbEntity
  8
64647040_EINSATZ
  6
Continuous
 62
     7
100
AcDbCircle
 10
41.7477002214
 20
391.0872138542
 30
0.0
 40
0.0719870377993404
100
AcDbArc
 50
258.1099040839
 51
300.2908036384
  0
LINE
  5
DB
330
75
100
AcDbEntity
  8
64647040_EINSATZ
  6
Continuous
 62
     7
100
AcDbLine
 10
41.7143007045
 20
391.0204377978
 30
0.0
 11
41.7328683693
 21
391.016771326
 31
0.0
  0
ARC
  5
DC
330
75
100
AcDbEntity
  8
64647040_EINSATZ
  6
Continuous
 62
     7
100
AcDbCircle
 10
41.7429397174
 20
391.1312514234
 30
0.0
 40
0.1144545878525148
100
AcDbArc
 50
185.0435837013
 51
255.509372834
  0
SPLINE
  5
DD
330
75
100
AcDbEntity
  8
64647040_EINSATZ
  6
Continuous
 62
     7
100
AcDbSpline
210
0.0
220
0.0
230
1.0
 70
    12
 71
     2
 72
     6
 73
     3
 74
     0
 42
0.0000000102478149
 43
0.0000000001
 40
0.8090042626350278
 40
0.8090042626350278
 40
0.8090042626350278
 40
1.0
 40
1.0
 40
1.0
 10
41.61021915421006
 20
391.3066249347087
 30
0.0
 41
1.0
 10
41.6195601073907
 20
391.213899180666
 30
0.0
 41
1.0
 10
41.62892828518237
 20
391.1211893197392
 30
0.0
 41
1.0
  0
SPLINE
  5
DE
330
75
100
AcDbEntity
  8
64647040_EINSATZ
  6
Continuous
 62
     7
100
AcDbSpline
210
0.0
220
0.0
230
1.0
 70
     8
 71
     3
 72
    11
 73
     7
 74
     0
 42
0.0000002138485732
 43
0.0000000001
 40
0.7527556192494407
 40
0.7527556192494407
 40
0.7527556192494407
 40
0.7527556192494407
 40
0.9263410358271561
 40
0.9263410358271561
 40
0.9263410358271561
 40
1.0
 40
1.0
 40
1.0
 40
1.0
 10
39.66818521820975
 20
391.931040441702
 30
0.0
 10
39.66606386220145
 20
391.9308460407595
 30
0.0
 10
39.66385052965213
 20
391.9317107330349
 30
0.0
 10
39.66165287868348
 20
391.9336109091176
 30
0.0
 10
39.66070828203584
 20
391.9344276447973
 30
0.0
 10
39.65976095377351
 20
391.9354356680778
 30
0.0
 10
39.65881926800049
 20
391.9366261588547
 30
0.0
  0
SPLINE
  5
DF
330
75
100
AcDbEntity
  8
64647040_EINSATZ
  6
Continuous
 62
     7
100
AcDbSpline
210
0.0
220
0.0
230
1.0
 70
    12
 71
     2
 72
     6
 73
     3
 74
     0
 42
0.000001111355668
 43
0.0000000001
 40
0.0
 40
0.0
 40
0.0
 40
1.0
 40
1.0
 40
1.0
 10
39.65881926800048
 20
391.9366261588547
 30
0.0
 41
1.0
 10
39.65601970089654
 20
391.940165406141
 30
0.0
 41
1.0
 10
39.65327016373386
 20
391.9437092383721
 30
0.0
 41
1.0
  0
ARC
  5
E0
330
75
100
AcDbEntity
  8
64647040_EINSATZ
  6
Continuous
 62
     7
100
AcDbCircle
 10
39.8746857867
 20
392.0508934687
 30
0.0
 40
0.2459945879841371
100
AcDbArc
 50
177.8753121113
 51
205.8309799058
  0
SPLINE
  5
E1
330
75
100
AcDbEntity
  8
64647040_EINSATZ
  6
Continuous
 62
     7
100
AcDbSpline
210
0.0
220
0.0
230
1.0
 70
    12
 71
     2
 72
     6
 73
     3
 74
     0
 42
0.0000000101121285
 43
0.0000000001
 40
0.0
 40
0.0
 40
0.0
 40
0.188962205434105
 40
0.188962205434105
 40
0.188962205434105
 10
39.62886031706496
 20
392.0600135460928
 30
0.0
 41
1.0
 10
39.62631029882528
 20
392.1534106379115
 30
0.0
 41
1.0
 10
39.62381172424483
 20
392.2468122230266
 30
0.0
 41
1.0
  0
ELLIPSE
  5
E2
330
75
100
AcDbEntity
  8
64647040_EINSATZ
  6
Continuous
 62
     7
100
AcDbEllipse
 10
-133.509601964
 20
426.5524026443
 30
0.0
 11
73.53247555987556
 21
-194.1055749902434
 31
0.0
210
0.0
220
0.0
230
0.9999999999999999
 40
0.8472105985
 41
1.089890356223561
 42
1.091519823812001
  0
SPLINE
  5
E3
330
75
100
AcDbEntity
  8
64647040_EINSATZ
  6
Continuous
 62
     7
100
AcDbSpline
210
0.0
220
0.0
230
1.0
 70
     8
 71
     3
 72
    20
 73
    16
 74
     0
 42
0.0000000787952341
 43
0.0000000001
 40
0.0
 40
0.0
 40
0.0
 40
0.0
 40
0.2315031754664697
 40
0.2315031754664697
 40
0.2315031754664697
 40
0.4629973077209971
 40
0.4629973077209971
 40
0.4629973077209971
 40
0.6946193130915668
 40
0.6946193130915668
 40
0.6946193130915668
 40
0.9262742376843552
 40
0.9262742376843552
 40
0.9262742376843552
 40
1.0
 40
1.0
 40
1.0
 40
1.0
 10
46.30118938931984
 20
391.9940198287013
 30
0.0
 10
46.30060297379261
 20
391.9831894091287
 30
0.0
 10
46.29911837327165
 20
391.971832850941
 30
0.0
 10
46.29684285289271
 20
391.9608939852392
 30
0.0
 10
46.29456738499898
 20
391.9499553718441
 30
0.0
 10
46.29143724864891
 20
391.9391329840115
 30
0.0
 10
46.28768312336738
 20
391.9293268834938
 30
0.0
 10
46.28392697545819
 20
391.9195154996975
 30
0.0
 10
46.27944109770065
 20
391.9104511320169
 30
0.0
 10
46.27456831273123
 20
391.9028895051702
 30
0.0
 10
46.26969491651936
 20
391.8953269297924
 30
0.0
 10
46.26429882639391
 20
391.8890590870815
 30
0.0
 10
46.25881148517447
 20
391.8846092617036
 30
0.0
 10
46.25704251950179
 20
391.8831747621841
 30
0.0
 10
46.25525416868434
 20
391.8819161682882
 30
0.0
 10
46.25346203339569
 20
391.8808445729842
 30
0.0
  0
SPLINE
  5
E4
330
75
100
AcDbEntity
  8
64647040_EINSATZ
  6
Continuous
 62
     7
100
AcDbSpline
210
0.0
220
0.0
230
1.0
 70
    12
 71
     2
 72
     6
 73
     3
 74
     0
 42
0.0000008025697224
 43
0.0000000001
 40
0.0
 40
0.0
 40
0.0
 40
1.0
 40
1.0
 40
1.0
 10
46.25346203339568
 20
391.8808445729842
 30
0.0
 41
1.0
 10
46.24813939014754
 20
391.8776619340699
 30
0.0
 41
1.0
 10
46.24274198714788
 20
391.8744940576215
 30
0.0
 41
1.0
  0
SPLINE
  5
E5
330
75
100
AcDbEntity
  8
64647040_EINSATZ
  6
Continuous
 62
     7
100
AcDbSpline
210
0.0
220
0.0
230
1.0
 70
     8
 71
     3
 72
    11
 73
     7
 74
     0
 42
0.0000001307552417
 43
0.0000000001
 40
0.0
 40
0.0
 40
0.0
 40
0.0
 40
0.231498784958019
 40
0.231498784958019
 40
0.231498784958019
 40
0.2725926609964965
 40
0.2725926609964965
 40
0.2725926609964965
 40
0.2725926609964965
 10
46.24274198714789
 20
391.8744940576215
 30
0.0
 10
46.23710840878655
 20
391.8711875636999
 30
0.0
 10
46.23133286494284
 20
391.8696631354396
 30
0.0
 10
46.22590359195859
 20
391.8700444881364
 30
0.0
 10
46.22493981544846
 20
391.8701121838984
 30
0.0
 10
46.22398226040811
 20
391.8702402531003
 30
0.0
 10
46.22303348753648
 20
391.8704276020096
 30
0.0
  0
ELLIPSE
  5
E6
330
75
100
AcDbEntity
  8
64647040_EINSATZ
  6
Continuous
 62
     7
100
AcDbEllipse
 10
-9.0901663555
 20
459.2050091193
 30
0.0
 11
-3.923615208086976
 21
-207.5298278215223
 31
0.0
210
0.0
220
0.0
230
0.9999999999999999
 40
0.2802723027
 41
1.244015158205654
 42
1.247087339021929
  0
ARC
  5
E7
330
75
100
AcDbEntity
  8
64647040_EINSATZ
  6
Continuous
 62
     7
100
AcDbCircle
 10
44.6307199227
 20
391.5611207112
 30
0.0
 40
0.1073559458569824
100
AcDbArc
 50
275.9148308986
 51
352.5689468767
  0
LINE
  5
E8
330
75
100
AcDbEntity
  8
64647040_EINSATZ
  6
Continuous
 62
     7
100
AcDbLine
 10
44.641782954
 20
391.4543363095
 30
0.0
 11
44.621073415
 21
391.4524384041
 31
0.0
  0
ARC
  5
E9
330
75
100
AcDbEntity
  8
64647040_EINSATZ
  6
Continuous
 62
     7
100
AcDbCircle
 10
44.610754597
 20
391.5387645025
 30
0.0
 40
0.0869406307804813
100
AcDbArc
 50
217.8158137546
 51
276.8163949363
  0
ARC
  5
EA
330
75
100
AcDbEntity
  8
64647040_EINSATZ
  6
Continuous
 62
     7
100
AcDbCircle
 10
42.6351191332
 20
391.6135504497
 30
0.0
 40
0.0725395854615031
100
AcDbArc
 50
258.2706849956
 51
300.2801482575
  0
LINE
  5
EB
330
75
100
AcDbEntity
  8
64647040_EINSATZ
  6
Continuous
 62
     7
100
AcDbLine
 10
42.6203726855
 20
391.5425255686
 30
0.0
 11
42.6018050208
 21
391.5461920403
 31
0.0
  0
ARC
  5
EC
330
75
100
AcDbEntity
  8
64647040_EINSATZ
  6
Continuous
 62
     7
100
AcDbCircle
 10
42.630773542
 20
391.6567481821
 30
0.0
 40
0.1142883883526706
100
AcDbArc
 50
184.7868844892
 51
255.3171367877
  0
ELLIPSE
  5
ED
330
75
100
AcDbEntity
  8
64647040_EINSATZ
  6
Continuous
 62
     7
100
AcDbEllipse
 10
146.3937249
 20
452.2038005194
 30
0.0
 11
-15.35142044539502
 21
-206.9982531175163
 31
0.0
210
0.0
220
0.0
230
1.0
 40
0.5054585206
 41
-1.239378825777544
 42
-1.236654093405393
  0
SPLINE
  5
EE
330
75
100
AcDbEntity
  8
64647040_EINSATZ
  6
Continuous
 62
     7
100
AcDbSpline
210
0.0
220
0.0
230
1.0
 70
     8
 71
     3
 72
    11
 73
     7
 74
     0
 42
0.0000002115584228
 43
0.0000000001
 40
0.7527645376577334
 40
0.7527645376577334
 40
0.7527645376577334
 40
0.7527645376577334
 40
0.9262742376864965
 40
0.9262742376864965
 40
0.9262742376864965
 40
1.0
 40
1.0
 40
1.0
 40
1.0
 10
41.38285775407699
 20
392.0881799496583
 30
0.0
 10
41.38068476603178
 20
392.0879807953147
 30
0.0
 10
41.37843050077829
 20
392.0888407456414
 30
0.0
 10
41.37620764405357
 20
392.0907369428537
 30
0.0
 10
41.37525092001185
 20
392.091553071685
 30
0.0
 10
41.37429417806437
 20
392.0925611274263
 30
0.0
 10
41.37334594802903
 20
392.093752278266
 30
0.0
  0
SPLINE
  5
EF
330
75
100
AcDbEntity
  8
64647040_EINSATZ
  6
Continuous
 62
     7
100
AcDbSpline
210
0.0
220
0.0
230
1.0
 70
    12
 71
     2
 72
     6
 73
     3
 74
     0
 42
0.000001111333928
 43
0.0000000001
 40
0.0
 40
0.0
 40
0.0
 40
1.0
 40
1.0
 40
1.0
 10
41.37334594802902
 20
392.093752278266
 30
0.0
 41
1.0
 10
41.37052970406173
 20
392.0972899972173
 30
0.0
 41
1.0
 10
41.36779684376241
 20
392.1008353577834
 30
0.0
 41
1.0
  0
SPLINE
  5
F0
330
75
100
AcDbEntity
  8
64647040_EINSATZ
  6
Continuous
 62
     7
100
AcDbSpline
210
0.0
220
0.0
230
1.0
 70
     8
 71
     3
 72
    11
 73
     7
 74
     0
 42
0.000000202351254
 43
0.0000000001
 40
0.7541602266177068
 40
0.7541602266177068
 40
0.7541602266177068
 40
0.7541602266177068
 40
0.9322077561190306
 40
0.9322077561190306
 40
0.9322077561190306
 40
1.0
 40
1.0
 40
1.0
 40
1.0
 10
46.81364108801169
 20
392.5858781186955
 30
0.0
 10
46.81111115961707
 20
392.5856459812697
 30
0.0
 10
46.80862244045437
 20
392.5865541211874
 30
0.0
 10
46.80629625741407
 20
392.5885770322957
 30
0.0
 10
46.80539874169721
 20
392.5893575360144
 30
0.0
 10
46.80452011019374
 20
392.5903038576842
 30
0.0
 10
46.80366704128069
 20
392.5914087396549
 30
0.0
  0
SPLINE
  5
F1
330
75
100
AcDbEntity
  8
64647040_EINSATZ
  6
Continuous
 62
     7
100
AcDbSpline
210
0.0
220
0.0
230
1.0
 70
    12
 71
     2
 72
     6
 73
     3
 74
     0
 42
0.0000011113404023
 43
0.0000000001
 40
0.0
 40
0.0
 40
0.0
 40
1.0
 40
1.0
 40
1.0
 10
46.8036670412807
 20
392.5914087396549
 30
0.0
 41
1.0
 10
46.80092999792313
 20
392.5949537168686
 30
0.0
 41
1.0
 10
46.79811793701408
 20
392.5984918191722
 30
0.0
 41
1.0
  0
SPLINE
  5
F2
330
75
100
AcDbEntity
  8
64647040_EINSATZ
  6
Continuous
 62
     7
100
AcDbSpline
210
0.0
220
0.0
230
1.0
 70
     8
 71
     3
 72
    20
 73
    16
 74
     0
 42
0.000000083113704
 43
0.0000000001
 40
0.0
 40
0.0
 40
0.0
 40
0.0
 40
0.2280395246138482
 40
0.2280395246138482
 40
0.2280395246138482
 40
0.4560243241927631
 40
0.4560243241927631
 40
0.4560243241927631
 40
0.6848913991840037
 40
0.6848913991840037
 40
0.6848913991840037
 40
0.9162090720228627
 40
0.9162090720228627
 40
0.9162090720228627
 40
1.0
 40
1.0
 40
1.0
 40
1.0
 10
46.79811793701407
 20
392.5984918191722
 30
0.0
 10
46.79520904259299
 20
392.6021517562735
 30
0.0
 10
46.7925347180902
 20
392.6076713869945
 30
0.0
 10
46.79032562482848
 20
392.6145881477437
 30
0.0
 10
46.78811682250543
 20
392.6215039975521
 30
0.0
 10
46.78631324430149
 20
392.6300054064719
 30
0.0
 10
46.78508304744317
 20
392.6393828634153
 30
0.0
 10
46.78384797456756
 20
392.6487974889158
 30
0.0
 10
46.7831581325204
 20
392.659349872898
 30
0.0
 10
46.78309004862878
 20
392.6701740326833
 30
0.0
 10
46.78302123827986
 20
392.6811136866013
 30
0.0
 10
46.78358623723235
 20
392.6926262782147
 30
0.0
 10
46.78475137545527
 20
392.7037814912753
 30
0.0
 10
46.78517852732103
 20
392.7078711091232
 30
0.0
 10
46.78568717959646
 20
392.7119410980571
 30
0.0
 10
46.78627196967719
 20
392.7159475313343
 30
0.0
  0
SPLINE
  5
F3
330
75
100
AcDbEntity
  8
64647040_EINSATZ
  6
Continuous
 62
     7
100
AcDbSpline
210
0.0
220
0.0
230
1.0
 70
    12
 71
     2
 72
     6
 73
     3
 74
     0
 42
0.0000000098549229
 43
0.0000000001
 40
0.0
 40
0.0
 40
0.0
 40
0.3186618573181213
 40
0.3186618573181213
 40
0.3186618573181213
 10
46.78627196967731
 20
392.7159475313342
 30
0.0
 41
1.0
 10
46.80961706522687
 20
392.875934780619
 30
0.0
 41
1.0
 10
46.83278970150658
 20
393.0359369276125
 30
0.0
 41
1.0
  0
SPLINE
  5
F4
330
75
100
AcDbEntity
  8
64647040_EINSATZ
  6
Continuous
 62
     7
100
AcDbSpline
210
0.0
220
0.0
230
1.0
 70
     8
 71
     3
 72
    14
 73
    10
 74
     0
 42
0.0000000787290569
 43
0.0000000001
 40
0.5705427395519134
 40
0.5705427395519134
 40
0.5705427395519134
 40
0.5705427395519134
 40
0.702546017013065
 40
0.702546017013065
 40
0.702546017013065
 40
0.9322077561171234
 40
0.9322077561171234
 40
0.9322077561171234
 40
1.0
 40
1.0
 40
1.0
 40
1.0
 10
45.48368312901475
 20
393.2164915364277
 30
0.0
 10
45.47888655933299
 20
393.2136488234057
 30
0.0
 10
45.47380966279155
 20
393.2113528360185
 30
0.0
 10
45.46858399037713
 20
393.2096817272769
 30
0.0
 10
45.45949021759053
 20
393.2067736454086
 30
0.0
 10
45.44969184149632
 20
393.2056766803418
 30
0.0
 10
45.44000320522276
 20
393.2064883482971
 30
0.0
 10
45.43710514015307
 20
393.2067311344316
 30
0.0
 10
45.43420121556002
 20
393.2071415837169
 30
0.0
 10
45.43131372544608
 20
393.2077165430019
 30
0.0
  0
LINE
  5
F5
330
75
100
AcDbEntity
  8
64647040_EINSATZ
  6
Continuous
 62
     7
100
AcDbLine
 10
45.4313137254
 20
393.207716543
 30
0.0
 11
45.4127460607
 21
393.2113830148
 31
0.0
  0
ARC
  5
F6
330
75
100
AcDbEntity
  8
64647040_EINSATZ
  6
Continuous
 62
     7
100
AcDbCircle
 10
45.439179979
 20
393.3133481617
 30
0.0
 40
0.1053358591723287
100
AcDbArc
 50
178.5643805293
 51
255.4663295049
  0
ARC
  5
F7
330
75
100
AcDbEntity
  8
64647040_EINSATZ
  6
Continuous
 62
     7
100
AcDbCircle
 10
43.1756619347
 20
393.414525642
 30
0.0
 40
0.1035039118357299
100
AcDbArc
 50
276.1401521001
 51
331.4371770578
  0
LINE
  5
F8
330
75
100
AcDbEntity
  8
64647040_EINSATZ
  6
Continuous
 62
     7
100
AcDbLine
 10
43.1867328025
 20
393.3116155081
 30
0.0
 11
43.1660232634
 21
393.3097176027
 31
0.0
  0
ARC
  5
F9
330
75
100
AcDbEntity
  8
64647040_EINSATZ
  6
Continuous
 62
     7
100
AcDbCircle
 10
43.1575025514
 20
393.4013178914
 30
0.0
 40
0.0919957359357657
100
AcDbArc
 50
218.4740849877
 51
275.3143936676
  0
SPLINE
  5
FA
330
75
100
AcDbEntity
  8
64647040_EINSATZ
  6
Continuous
 62
     7
100
AcDbSpline
210
0.0
220
0.0
230
1.0
 70
    12
 71
     2
 72
     6
 73
     3
 74
     0
 42
0.0000000098020846
 43
0.0000000001
 40
0.8337064353254776
 40
0.8337064353254776
 40
0.8337064353254776
 40
1.0
 40
1.0
 40
1.0
 10
41.40532983031415
 20
393.1263171729859
 30
0.0
 41
1.0
 10
41.41365058703374
 20
393.0419027252136
 30
0.0
 41
1.0
 10
41.42201371150576
 20
392.9574883120179
 30
0.0
 41
1.0
  0
SPLINE
  5
FB
330
75
100
AcDbEntity
  8
64647040_EINSATZ
  6
Continuous
 62
     7
100
AcDbSpline
210
0.0
220
0.0
230
1.0
 70
     8
 71
     3
 72
    20
 73
    16
 74
     0
 42
0.0000000788838294
 43
0.0000000001
 40
0.0
 40
0.0
 40
0.0
 40
0.0
 40
0.2348909762855377
 40
0.2348909762855377
 40
0.2348909762855377
 40
0.4699467598198088
 40
0.4699467598198088
 40
0.4699467598198088
 40
0.7025460169960478
 40
0.7025460169960478
 40
0.7025460169960478
 40
0.9322077561132641
 40
0.9322077561132641
 40
0.9322077561132641
 40
1.0
 40
1.0
 40
1.0
 40
1.0
 10
41.42201371154629
 20
392.9574883120331
 30
0.0
 10
41.42312576351676
 20
392.946268073389
 30
0.0
 10
41.42318855289432
 20
392.934524917092
 30
0.0
 10
41.42219744471107
 20
392.92322396273
 30
0.0
 10
41.42120592777037
 20
392.9119183475757
 30
0.0
 10
41.41913118097375
 20
392.9007414008105
 30
0.0
 10
41.41616052626257
 20
392.8906464725566
 30
0.0
 10
41.4132207328043
 20
392.8806564175255
 30
0.0
 10
41.40932178980596
 20
392.8714467686137
 30
0.0
 10
41.40481209800532
 20
392.8638104245739
 30
0.0
 10
41.40035835481859
 20
392.8562688193507
 30
0.0
 10
41.39518580149706
 20
392.8500514948593
 30
0.0
 10
41.38974054185191
 20
392.8456870655634
 30
0.0
 10
41.38811175568146
 20
392.844381577388
 30
0.0
 10
41.38645040367692
 20
392.8432306101171
 30
0.0
 10
41.38476933518947
 20
392.8422430303345
 30
0.0
  0
SPLINE
  5
FC
330
75
100
AcDbEntity
  8
64647040_EINSATZ
  6
Continuous
 62
     7
100
AcDbSpline
210
0.0
220
0.0
230
1.0
 70
    12
 71
     2
 72
     6
 73
     3
 74
     0
 42
0.0000008025709941
 43
0.0000000001
 40
0.0
 40
0.0
 40
0.0
 40
1.0
 40
1.0
 40
1.0
 10
41.38476933518948
 20
392.8422430303345
 30
0.0
 41
1.0
 10
41.37937568261727
 20
392.8390744133063
 30
0.0
 41
1.0
 10
41.37404928894168
 20
392.8358925149719
 30
0.0
 41
1.0
  0
SPLINE
  5
FD
330
75
100
AcDbEntity
  8
64647040_EINSATZ
  6
Continuous
 62
     7
100
AcDbSpline
210
0.0
220
0.0
230
1.0
 70
     8
 71
     3
 72
    11
 73
     7
 74
     0
 42
0.0000001267741786
 43
0.0000000001
 40
0.0
 40
0.0
 40
0.0
 40
0.0
 40
0.2280395246138006
 40
0.2280395246138006
 40
0.2280395246138006
 40
0.2711116900634057
 40
0.2711116900634057
 40
0.2711116900634057
 40
0.2711116900634057
 10
41.37404928894167
 20
392.8358925149719
 30
0.0
 10
41.36853948053124
 20
392.832601047748
 30
0.0
 10
41.36270666278129
 20
392.8310962488585
 30
0.0
 10
41.35702672567788
 20
392.8314989609592
 30
0.0
 10
41.35595378146862
 20
392.8315750335649
 30
0.0
 10
41.35488070474779
 20
392.831719532679
 30
0.0
 10
41.35381048523372
 20
392.8319310787956
 30
0.0
  0
SPLINE
  5
FE
330
75
100
AcDbEntity
  8
64647040_EINSATZ
  6
Continuous
 62
     7
100
AcDbSpline
210
0.0
220
0.0
230
1.0
 70
    12
 71
     2
 72
     6
 73
     3
 74
     0
 42
0.0000000101125618
 43
0.0000000001
 40
0.5780349646759132
 40
0.5780349646759132
 40
0.5780349646759132
 40
1.0
 40
1.0
 40
1.0
 10
49.94599467393429
 20
392.3232824983395
 30
0.0
 41
1.0
 10
49.94032098501756
 20
392.1147199559509
 30
0.0
 41
1.0
 10
49.9344631534818
 20
391.9061737203148
 30
0.0
 41
1.0
  0
SPLINE
  5
FF
330
75
100
AcDbEntity
  8
64647040_EINSATZ
  6
Continuous
 62
     7
100
AcDbSpline
210
0.0
220
0.0
230
1.0
 70
     8
 71
     3
 72
    20
 73
    16
 74
     0
 42
0.0000000831987249
 43
0.0000000001
 40
0.0
 40
0.0
 40
0.0
 40
0.0
 40
0.2315776515059114
 40
0.2315776515059114
 40
0.2315776515059114
 40
0.4631536227800611
 40
0.4631536227800611
 40
0.4631536227800611
 40
0.6947533630408886
 40
0.6947533630408886
 40
0.6947533630408886
 40
0.926359217038678
 40
0.926359217038678
 40
0.926359217038678
 40
1.0
 40
1.0
 40
1.0
 40
1.0
 10
49.93446315368098
 20
391.9061737204869
 30
0.0
 10
49.93415785626939
 20
391.89530464826
 30
0.0
 10
49.93338482258472
 20
391.8838534618438
 30
0.0
 10
49.93220040723784
 20
391.8727691900962
 30
0.0
 10
49.93101599696718
 20
391.8616849658541
 30
0.0
 10
49.92938700827921
 20
391.8506619931117
 30
0.0
 10
49.92743470833985
 20
391.8406140114483
 30
0.0
 10
49.92548221295499
 20
391.8305650238777
 30
0.0
 10
49.92315179405282
 20
391.8212141146669
 30
0.0
 10
49.92062283054321
 20
391.8133367868513
 30
0.0
 10
49.91809380811433
 20
391.8054592755113
 30
0.0
 10
49.91529592475317
 20
391.798838186241
 30
0.0
 10
49.91245333673209
 20
391.7940227223334
 30
0.0
 10
49.91153783978253
 20
391.7924718319177
 30
0.0
 10
49.91061257976946
 20
391.7910946063779
 30
0.0
 10
49.90968560387296
 20
391.7899031103568
 30
0.0
  0
LINE
  5
100
330
75
100
AcDbEntity
  8
64647040_EINSATZ
  6
Continuous
 62
     7
100
AcDbLine
 10
49.9096856039
 20
391.7899031104
 30
0.0
 11
49.9041364996
 21
391.7828200308
 31
0.0
  0
SPLINE
  5
101
330
75
100
AcDbEntity
  8
64647040_EINSATZ
  6
Continuous
 62
     7
100
AcDbSpline
210
0.0
220
0.0
230
1.0
 70
     8
 71
     3
 72
    11
 73
     7
 74
     0
 42
0.0000002124342954
 43
0.0000000001
 40
0.0
 40
0.0
 40
0.0
 40
0.0
 40
0.231576835486446
 40
0.231576835486446
 40
0.231576835486446
 40
0.2470724431829942
 40
0.2470724431829942
 40
0.2470724431829942
 40
0.2470724431829942
 10
49.90413649960634
 20
391.7828200308394
 30
0.0
 10
49.90122108795502
 20
391.7791243680969
 30
0.0
 10
49.89823448162924
 20
391.7771962591231
 30
0.0
 10
49.89542877290386
 20
391.7771948297942
 30
0.0
 10
49.89524103271648
 20
391.7771947341526
 30
0.0
 10
49.89505375794173
 20
391.7772032645706
 30
0.0
 10
49.89486701924326
 20
391.7772203729311
 30
0.0
  0
SPLINE
  5
102
330
75
100
AcDbEntity
  8
64647040_EINSATZ
  6
Continuous
 62
     7
100
AcDbSpline
210
0.0
220
0.0
230
1.0
 70
    12
 71
     2
 72
     6
 73
     3
 74
     0
 42
0.0000000101386518
 43
0.0000000001
 40
0.5609827955551202
 40
0.5609827955551202
 40
0.5609827955551202
 40
1.0
 40
1.0
 40
1.0
 10
49.36849364766585
 20
391.8254582028672
 30
0.0
 41
1.0
 10
49.3564488945523
 20
391.6092744827305
 30
0.0
 41
1.0
 10
49.34422541129433
 20
391.3931254369928
 30
0.0
 41
1.0
  0
SPLINE
  5
103
330
75
100
AcDbEntity
  8
64647040_EINSATZ
  6
Continuous
 62
     7
100
AcDbSpline
210
0.0
220
0.0
230
1.0
 70
     8
 71
     3
 72
    20
 73
    16
 74
     0
 42
0.0000000786397878
 43
0.0000000001
 40
0.0
 40
0.0
 40
0.0
 40
0.0
 40
0.2315776513680541
 40
0.2315776513680541
 40
0.2315776513680541
 40
0.4631536226836963
 40
0.4631536226836963
 40
0.4631536226836963
 40
0.6947533629860224
 40
0.6947533629860224
 40
0.6947533629860224
 40
0.9263592170253135
 40
0.9263592170253135
 40
0.9263592170253135
 40
1.0
 40
1.0
 40
1.0
 40
1.0
 10
49.34422541083249
 20
391.3931254368178
 30
0.0
 10
49.34361309169697
 20
391.3822976832098
 30
0.0
 10
49.34206232524046
 20
391.3709511324158
 30
0.0
 10
49.3396946990654
 20
391.360026801305
 30
0.0
 10
49.33732708303764
 20
391.3491025170143
 30
0.0
 10
49.33407684608061
 20
391.3382992450981
 30
0.0
 10
49.33020089495773
 20
391.3285136967935
 30
0.0
 10
49.32632455581189
 20
391.3187271688539
 30
0.0
 10
49.32171483625627
 20
391.3096887588517
 30
0.0
 10
49.31674122573612
 20
391.3021492554848
 30
0.0
 10
49.31176749934182
 20
391.2946095764641
 30
0.0
 10
49.30629217160959
 20
391.2883610117385
 30
0.0
 10
49.30076193484778
 20
391.2839225577619
 30
0.0
 10
49.29898084140468
 20
391.2824930888954
 30
0.0
 10
49.29718393369799
 20
391.2812384365958
 30
0.0
 10
49.29538689549294
 20
391.2801695969535
 30
0.0
  0
LINE
  5
104
330
75
100
AcDbEntity
  8
64647040_EINSATZ
  6
Continuous
 62
     7
100
AcDbLine
 10
49.2953868955
 20
391.280169597
 30
0.0
 11
49.2846668492
 21
391.2738190816
 31
0.0
  0
SPLINE
  5
105
330
75
100
AcDbEntity
  8
64647040_EINSATZ
  6
Continuous
 62
     7
100
AcDbSpline
210
0.0
220
0.0
230
1.0
 70
     8
 71
     3
 72
    11
 73
     7
 74
     0
 42
0.0000001320691008
 43
0.0000000001
 40
0.0
 40
0.0
 40
0.0
 40
0.0
 40
0.2315768356817537
 40
0.2315768356817537
 40
0.2315768356817537
 40
0.2726053317497615
 40
0.2726053317497615
 40
0.2726053317497615
 40
0.2726053317497615
 10
49.28466684924514
 20
391.2738190815908
 30
0.0
 10
49.2790541358241
 20
391.2705074216104
 30
0.0
 10
49.27333625184533
 20
391.2689712567382
 30
0.0
 10
49.26799098107814
 20
391.2693368481334
 30
0.0
 10
49.26704395626436
 20
391.2694016201792
 30
0.0
 10
49.26610401207611
 20
391.2695264001657
 30
0.0
 10
49.26517356631812
 20
391.2697101270031
 30
0.0
  0
SPLINE
  5
106
330
75
100
AcDbEntity
  8
64647040_EINSATZ
  6
Continuous
 62
     7
100
AcDbSpline
210
0.0
220
0.0
230
1.0
 70
    12
 71
     2
 72
     6
 73
     3
 74
     0
 42
0.0000000101839288
 43
0.0000000001
 40
0.503690420660143
 40
0.503690420660143
 40
0.503690420660143
 40
1.0
 40
1.0
 40
1.0
 10
48.42528217611944
 20
391.4355560266532
 30
0.0
 41
1.0
 10
48.4056630009644
 20
391.192650252572
 30
0.0
 41
1.0
 10
48.38585729184783
 20
390.9498074781245
 30
0.0
 41
1.0
  0
SPLINE
  5
107
330
75
100
AcDbEntity
  8
64647040_EINSATZ
  6
Continuous
 62
     7
100
AcDbSpline
210
0.0
220
0.0
230
1.0
 70
     8
 71
     3
 72
    20
 73
    16
 74
     0
 42
0.0000000740482867
 43
0.0000000001
 40
0.0
 40
0.0
 40
0.0
 40
0.0
 40
0.2315776521544717
 40
0.2315776521544717
 40
0.2315776521544717
 40
0.463153623233151
 40
0.463153623233151
 40
0.463153623233151
 40
0.694753363298488
 40
0.694753363298488
 40
0.694753363298488
 40
0.9263592171007835
 40
0.9263592171007835
 40
0.9263592171007835
 40
1.0
 40
1.0
 40
1.0
 40
1.0
 10
48.38585729181568
 20
390.9498074781184
 30
0.0
 10
48.38497967843425
 20
390.9390468127562
 30
0.0
 10
48.38275686137715
 20
390.9278701781489
 30
0.0
 10
48.37936737418508
 20
390.9172050772225
 30
0.0
 10
48.37597790151982
 20
390.9065400220051
 30
0.0
 10
48.37132791457106
 20
390.896092479839
 30
0.0
 10
48.36579245192836
 20
390.8867307068485
 30
0.0
 10
48.3602564351284
 20
390.8773679966474
 30
0.0
 10
48.35368155968912
 20
390.8688332044199
 30
0.0
 10
48.3466022454961
 20
390.8618364178098
 30
0.0
 10
48.33952276637068
 20
390.8548394681901
 30
0.0
 10
48.33174312880392
 20
390.8491877454717
 30
0.0
 10
48.32390211979755
 20
390.8453513693567
 30
0.0
 10
48.32137680843569
 20
390.8441158084508
 30
0.0
 10
48.31883070932606
 20
390.84305671222
 30
0.0
 10
48.31628607399639
 20
390.8421833686118
 30
0.0
  0
LINE
  5
108
330
75
100
AcDbEntity
  8
64647040_EINSATZ
  6
Continuous
 62
     7
100
AcDbLine
 10
48.316286074
 20
390.8421833686
 30
0.0
 11
48.3011256392
 21
390.8369981945
 31
0.0
  0
SPLINE
  5
109
330
75
100
AcDbEntity
  8
64647040_EINSATZ
  6
Continuous
 62
     7
100
AcDbSpline
210
0.0
220
0.0
230
1.0
 70
     8
 71
     3
 72
    11
 73
     7
 74
     0
 42
0.0000000978135478
 43
0.0000000001
 40
0.0
 40
0.0
 40
0.0
 40
0.0
 40
0.2315768356270573
 40
0.2315768356270573
 40
0.2315768356270573
 40
0.3260826866330725
 40
0.3260826866330725
 40
0.3260826866330725
 40
0.3260826866330725
 10
48.30112563920348
 20
390.836998194531
 30
0.0
 10
48.29319812115691
 20
390.8342962214676
 30
0.0
 10
48.28513862386906
 20
390.8333804218475
 30
0.0
 10
48.27761806242935
 20
390.8343253334405
 30
0.0
 10
48.27454893435392
 20
390.8347109502222
 30
0.0
 10
48.27153507039409
 20
390.8354107736822
 30
0.0
 10
48.26861752406885
 20
390.8364086567956
 30
0.0
  0
SPLINE
  5
10A
330
75
100
AcDbEntity
  8
64647040_EINSATZ
  6
Continuous
 62
     7
100
AcDbSpline
210
0.0
220
0.0
230
1.0
 70
    12
 71
     2
 72
     6
 73
     3
 74
     0
 42
0.0000000102502764
 43
0.0000000001
 40
0.8718379100215878
 40
0.8718379100215878
 40
0.8718379100215878
 40
1.0
 40
1.0
 40
1.0
 10
47.1372850531649
 20
390.730826024783
 30
0.0
 41
1.0
 10
47.13098192476021
 20
390.6686260487789
 30
0.0
 41
1.0
 10
47.1246699987046
 20
390.6064312299892
 30
0.0
 41
1.0
  0
ARC
  5
10B
330
75
100
AcDbEntity
  8
64647040_EINSATZ
  6
Continuous
 62
     7
100
AcDbCircle
 10
47.01009407
 20
390.6171513447
 30
0.0
 40
0.1150763429823042
100
AcDbArc
 50
284.6030626018
 51
354.6547728942
  0
LINE
  5
10C
330
75
100
AcDbEntity
  8
64647040_EINSATZ
  6
Continuous
 62
     7
100
AcDbLine
 10
47.0391072423
 20
390.505792463
 30
0.0
 11
47.0205395776
 21
390.5021259912
 31
0.0
  0
ARC
  5
10D
330
75
100
AcDbEntity
  8
64647040_EINSATZ
  6
Continuous
 62
     7
100
AcDbCircle
 10
47.0055287027
 20
390.5721373943
 30
0.0
 40
0.0716025343150645
100
AcDbArc
 50
239.6892087463
 51
282.1013540328
  0
ARC
  5
10E
330
75
100
AcDbEntity
  8
64647040_EINSATZ
  6
Continuous
 62
     7
100
AcDbCircle
 10
45.5402867964
 20
390.4006752348
 30
0.0
 40
0.1072789585169102
100
AcDbArc
 50
275.671184161
 51
352.3516706333
  0
LINE
  5
10F
330
75
100
AcDbEntity
  8
64647040_EINSATZ
  6
Continuous
 62
     7
100
AcDbLine
 10
45.5508880272
 20
390.2939213644
 30
0.0
 11
45.5301784882
 21
390.2920234589
 31
0.0
  0
ARC
  5
110
330
75
100
AcDbEntity
  8
64647040_EINSATZ
  6
Continuous
 62
     7
100
AcDbCircle
 10
45.5196056794
 20
390.3777050465
 30
0.0
 40
0.0863314469131948
100
AcDbArc
 50
217.8310519245
 51
277.0345387052
  0
ARC
  5
111
330
75
100
AcDbEntity
  8
64647040_EINSATZ
  6
Continuous
 62
     7
100
AcDbCircle
 10
43.9553758121
 20
390.3190725386
 30
0.0
 40
0.0980914225606062
100
AcDbArc
 50
268.6402471273
 51
351.5748141906
  0
LINE
  5
112
330
75
100
AcDbEntity
  8
64647040_EINSATZ
  6
Continuous
 62
     7
100
AcDbLine
 10
43.9316080163
 20
390.221008738
 30
0.0
 11
43.9530481088
 21
390.221008738
 31
0.0
  0
ARC
  5
113
330
75
100
AcDbEntity
  8
64647040_EINSATZ
  6
Continuous
 62
     7
100
AcDbCircle
 10
43.9295402009
 20
390.3193810831
 30
0.0
 40
0.0983940756891283
100
AcDbArc
 50
188.5807420385
 51
271.2041966597
  0
ARC
  5
114
330
75
100
AcDbEntity
  8
64647040_EINSATZ
  6
Continuous
 62
     7
100
AcDbCircle
 10
42.365212603
 20
390.3774966737
 30
0.0
 40
0.0861447034493727
100
AcDbArc
 50
262.8414475375
 51
322.1587398453
  0
LINE
  5
115
330
75
100
AcDbEntity
  8
64647040_EINSATZ
  6
Continuous
 62
     7
100
AcDbLine
 10
42.3544776369
 20
390.2920234589
 30
0.0
 11
42.3337680979
 21
390.2939213644
 31
0.0
  0
ARC
  5
116
330
75
100
AcDbEntity
  8
64647040_EINSATZ
  6
Continuous
 62
     7
100
AcDbCircle
 10
42.344443383
 20
390.4007518903
 30
0.0
 40
0.1073625771840556
100
AcDbArc
 50
187.6836140043
 51
264.2935315316
  0
ARC
  5
117
330
75
100
AcDbEntity
  8
64647040_EINSATZ
  6
Continuous
 62
     7
100
AcDbCircle
 10
40.8789840373
 20
390.5723235435
 30
0.0
 40
0.0717547112995738
100
AcDbArc
 50
258.0417551685
 51
300.295311533
  0
LINE
  5
118
330
75
100
AcDbEntity
  8
64647040_EINSATZ
  6
Continuous
 62
     7
100
AcDbLine
 10
40.8455488828
 20
390.505792463
 30
0.0
 11
40.8641165475
 21
390.5021259912
 31
0.0
  0
ARC
  5
119
330
75
100
AcDbEntity
  8
64647040_EINSATZ
  6
Continuous
 62
     7
100
AcDbCircle
 10
40.8740489167
 20
390.6167150739
 30
0.0
 40
0.1145254449209629
100
AcDbArc
 50
185.1518295538
 51
255.5903337496
  0
SPLINE
  5
11A
330
75
100
AcDbEntity
  8
64647040_EINSATZ
  6
Continuous
 62
     7
100
AcDbSpline
210
0.0
220
0.0
230
1.0
 70
    12
 71
     2
 72
     6
 73
     3
 74
     0
 42
0.0000000102502764
 43
0.0000000001
 40
0.8718379100696361
 40
0.8718379100696361
 40
0.8718379100696361
 40
1.0
 40
1.0
 40
1.0
 10
40.74737107195554
 20
390.730826024736
 30
0.0
 41
1.0
 10
40.75367420035787
 20
390.6686260487554
 30
0.0
 41
1.0
 10
40.75998612641108
 20
390.6064312299892
 30
0.0
 41
1.0
  0
SPLINE
  5
11B
330
75
100
AcDbEntity
  8
64647040_EINSATZ
  6
Continuous
 62
     7
100
AcDbSpline
210
0.0
220
0.0
230
1.0
 70
     8
 71
     3
 72
    14
 73
    10
 74
     0
 42
0.0000000976048145
 43
0.0000000001
 40
0.6746736764587249
 40
0.6746736764587249
 40
0.6746736764587249
 40
0.6746736764587249
 40
0.6947533630130645
 40
0.6947533630130645
 40
0.6947533630130645
 40
0.9263592170319837
 40
0.9263592170319837
 40
0.9263592170319837
 40
1.0
 40
1.0
 40
1.0
 40
1.0
 10
39.61602777288817
 20
390.8363960973771
 30
0.0
 10
39.61541073825178
 20
390.8361850662996
 30
0.0
 10
39.61478975144036
 20
390.8359879011743
 30
0.0
 10
39.61416518190014
 20
390.8358048192952
 30
0.0
 10
39.60696120922155
 20
390.8336930979086
 30
0.0
 10
39.59908224841377
 20
390.8333969312506
 30
0.0
 10
39.59118639847431
 20
390.8349428778877
 30
0.0
 10
39.58864342478974
 20
390.8354407725598
 30
0.0
 10
39.58608397179692
 20
390.8361278779909
 30
0.0
 10
39.58353048591217
 20
390.8369981945311
 30
0.0
  0
LINE
  5
11C
330
75
100
AcDbEntity
  8
64647040_EINSATZ
  6
Continuous
 62
     7
100
AcDbLine
 10
39.5835304859
 20
390.8369981945
 30
0.0
 11
39.5683700511
 21
390.8421833686
 31
0.0
  0
ARC
  5
11D
330
75
100
AcDbEntity
  8
64647040_EINSATZ
  6
Continuous
 62
     7
100
AcDbCircle
 10
39.6228435058
 20
390.9536949649
 30
0.0
 40
0.124105573540582
100
AcDbArc
 50
181.7950283814
 51
243.9644743354
  0
SPLINE
  5
11E
330
75
100
AcDbEntity
  8
64647040_EINSATZ
  6
Continuous
 62
     7
100
AcDbSpline
210
0.0
220
0.0
230
1.0
 70
    12
 71
     2
 72
     6
 73
     3
 74
     0
 42
0.0000000101839288
 43
0.0000000001
 40
0.0
 40
0.0
 40
0.0
 40
0.496309579299279
 40
0.496309579299279
 40
0.496309579299279
 10
39.49879883309108
 20
390.9498074781582
 30
0.0
 41
1.0
 10
39.47899312397679
 20
391.192650252578
 30
0.0
 41
1.0
 10
39.45937394882335
 20
391.4355560266393
 30
0.0
 41
1.0
  0
SPLINE
  5
11F
330
75
100
AcDbEntity
  8
64647040_EINSATZ
  6
Continuous
 62
     7
100
AcDbSpline
210
0.0
220
0.0
230
1.0
 70
     8
 71
     3
 72
    11
 73
     7
 74
     0
 42
0.0000001321543037
 43
0.0000000001
 40
0.7270398728179356
 40
0.7270398728179356
 40
0.7270398728179356
 40
0.7270398728179356
 40
0.926359217104709
 40
0.926359217104709
 40
0.926359217104709
 40
1.0
 40
1.0
 40
1.0
 40
1.0
 10
38.61956372574787
 20
391.2697250263954
 30
0.0
 10
38.61504704200695
 20
391.2688330851543
 30
0.0
 10
38.61023025099034
 20
391.2693214995207
 30
0.0
 10
38.6054131418364
 20
391.2711748112162
 30
0.0
 10
38.60361041655417
 20
391.2718683831787
 30
0.0
 10
38.60179715374751
 20
391.272752382409
 30
0.0
 10
38.59998927587053
 20
391.2738190815909
 30
0.0
  0
LINE
  5
120
330
75
100
AcDbEntity
  8
64647040_EINSATZ
  6
Continuous
 62
     7
100
AcDbLine
 10
38.5999892759
 20
391.2738190816
 30
0.0
 11
38.5892692296
 21
391.280169597
 31
0.0
  0
SPLINE
  5
121
330
75
100
AcDbEntity
  8
64647040_EINSATZ
  6
Continuous
 62
     7
100
AcDbSpline
210
0.0
220
0.0
230
1.0
 70
     8
 71
     3
 72
    20
 73
    16
 74
     0
 42
0.0000000786178915
 43
0.0000000001
 40
0.0
 40
0.0
 40
0.0
 40
0.0
 40
0.2315768354864464
 40
0.2315768354864464
 40
0.2315768354864464
 40
0.4631521973025191
 40
0.4631521973025191
 40
0.4631521973025191
 40
0.6947491985089959
 40
0.6947491985089959
 40
0.6947491985089959
 40
0.9263566104963636
 40
0.9263566104963636
 40
0.9263566104963636
 40
1.0
 40
1.0
 40
1.0
 40
1.0
 10
38.58926922962273
 20
391.2801695969536
 30
0.0
 10
38.58369016890185
 20
391.2834879021786
 30
0.0
 10
38.57806199889752
 20
391.2886730973135
 30
0.0
 10
38.5728465319506
 20
391.295294830291
 30
0.0
 10
38.56763108418505
 20
391.3019165389151
 30
0.0
 10
38.56268410210965
 20
391.31015729244
 30
0.0
 10
38.55840416002643
 20
391.3193326341336
 30
0.0
 10
38.55412382611204
 20
391.3285088158349
 30
0.0
 10
38.55039198948082
 20
391.3388727313201
 30
0.0
 10
38.54750481538998
 20
391.349563814241
 30
0.0
 10
38.54461752196448
 20
391.3602553390531
 30
0.0
 10
38.54249477034617
 20
391.3715688916081
 30
0.0
 10
38.54130335821684
 20
391.3825656528125
 30
0.0
 10
38.54091963556515
 20
391.3861074216642
 30
0.0
 10
38.54062795072672
 20
391.3896376625406
 30
0.0
 10
38.54043071370987
 20
391.3931254370348
 30
0.0
  0
SPLINE
  5
122
330
75
100
AcDbEntity
  8
64647040_EINSATZ
  6
Continuous
 62
     7
100
AcDbSpline
210
0.0
220
0.0
230
1.0
 70
    12
 71
     2
 72
     6
 73
     3
 74
     0
 42
0.0000000101386518
 43
0.0000000001
 40
0.0
 40
0.0
 40
0.0
 40
0.4390172043842338
 40
0.4390172043842338
 40
0.4390172043842338
 10
38.54043071370981
 20
391.3931254370348
 30
0.0
 41
1.0
 10
38.52820723045292
 20
391.6092744827532
 30
0.0
 41
1.0
 10
38.51616247734092
 20
391.8254582028613
 30
0.0
 41
1.0
  0
SPLINE
  5
123
330
75
100
AcDbEntity
  8
64647040_EINSATZ
  6
Continuous
 62
     7
100
AcDbSpline
210
0.0
220
0.0
230
1.0
 70
     8
 71
     3
 72
    11
 73
     7
 74
     0
 42
0.000000214827026
 43
0.0000000001
 40
0.7527531956527862
 40
0.7527531956527862
 40
0.7527531956527862
 40
0.7527531956527862
 40
0.9263592170636006
 40
0.9263592170636006
 40
0.9263592170636006
 40
1.0
 40
1.0
 40
1.0
 40
1.0
 10
37.98982403332707
 20
391.7772286677889
 30
0.0
 10
37.98772461542148
 20
391.7770362832131
 30
0.0
 10
37.98552870483437
 20
391.7779028417925
 30
0.0
 10
37.98334181737675
 20
391.7798044585717
 30
0.0
 10
37.98240219324569
 20
391.7806215125118
 30
0.0
 10
37.98145869148892
 20
391.7816296428022
 30
0.0
 10
37.98051962550936
 20
391.7828200308395
 30
0.0
  0
LINE
  5
124
330
75
100
AcDbEntity
  8
64647040_EINSATZ
  6
Continuous
 62
     7
100
AcDbLine
 10
37.9805196255
 20
391.7828200308
 30
0.0
 11
37.9749705212
 21
391.7899031104
 31
0.0
  0
ARC
  5
125
330
75
100
AcDbEntity
  8
64647040_EINSATZ
  6
Continuous
 62
     7
100
AcDbCircle
 10
38.1955995089
 20
391.8976950666
 30
0.0
 40
0.2455529597389797
100
AcDbArc
 50
178.0212511085
 51
206.0385901762
  0
SPLINE
  5
126
330
75
100
AcDbEntity
  8
64647040_EINSATZ
  6
Continuous
 62
     7
100
AcDbSpline
210
0.0
220
0.0
230
1.0
 70
    12
 71
     2
 72
     6
 73
     3
 74
     0
 42
0.0000000101125618
 43
0.0000000001
 40
0.0
 40
0.0
 40
0.0
 40
0.4219650354543992
 40
0.4219650354543992
 40
0.4219650354543992
 10
37.95019297177141
 20
391.906173720196
 30
0.0
 41
1.0
 10
37.94433514023401
 20
392.114719955891
 30
0.0
 41
1.0
 10
37.93866145131562
 20
392.323282498343
 30
0.0
 41
1.0
  0
LINE
  5
127
330
75
100
AcDbEntity
  8
64647040_EINSATZ
  6
Continuous
 62
     7
100
AcDbLine
 10
50.4142422612
 20
392.3293134687
 30
0.0
 11
50.4142422612
 21
392.3366464123
 31
0.0
  0
ARC
  5
128
330
75
100
AcDbEntity
  8
64647040_EINSATZ
  6
Continuous
 62
     7
100
AcDbCircle
 10
51.2841920415
 20
392.2817772173
 30
0.0
 40
0.8716784091146383
100
AcDbArc
 50
168.6054928113
 51
176.3910393386
  0
ARC
  5
129
330
75
100
AcDbEntity
  8
64647040_EINSATZ
  6
Continuous
 62
     7
100
AcDbCircle
 10
-497.279310083
 20
494.7144132043
 30
0.0
 40
557.1735347850857
100
AcDbArc
 50
349.4243123005
 51
349.4736129751
  0
SPLINE
  5
12A
330
75
100
AcDbEntity
  8
64647040_EINSATZ
  6
Continuous
 62
     7
100
AcDbSpline
210
0.0
220
0.0
230
1.0
 70
     8
 71
     3
 72
    11
 73
     7
 74
     0
 42
0.0000001996213388
 43
0.0000000001
 40
0.7542903269165756
 40
0.7542903269165756
 40
0.7542903269165756
 40
0.7542903269165756
 40
0.9340165526357721
 40
0.9340165526357721
 40
0.9340165526357721
 40
1.0
 40
1.0
 40
1.0
 40
1.0
 10
50.20664427003286
 20
392.8968264045361
 30
0.0
 10
50.20402315815637
 20
392.8965858161685
 30
0.0
 10
50.20145694392266
 20
392.8975096566543
 30
0.0
 10
50.19907831021386
 20
392.8995724295612
 30
0.0
 10
50.19819325041647
 20
392.9003399615121
 30
0.0
 10
50.19732893551824
 20
392.9012650108131
 30
0.0
 10
50.1964916846591
 20
392.9023408331981
 30
0.0
  0
LINE
  5
12B
330
75
100
AcDbEntity
  8
64647040_EINSATZ
  6
Continuous
 62
     7
100
AcDbLine
 10
50.1964916847
 20
392.9023408332
 30
0.0
 11
50.1909425804
 21
392.9094239127
 31
0.0
  0
SPLINE
  5
12C
330
75
100
AcDbEntity
  8
64647040_EINSATZ
  6
Continuous
 62
     7
100
AcDbSpline
210
0.0
220
0.0
230
1.0
 70
     8
 71
     3
 72
    20
 73
    16
 74
     0
 42
0.0000000831369305
 43
0.0000000001
 40
0.0
 40
0.0
 40
0.0
 40
0.0
 40
0.2274863333635815
 40
0.2274863333635815
 40
0.2274863333635815
 40
0.4548919042039777
 40
0.4548919042039777
 40
0.4548919042039777
 40
0.6835816436548183
 40
0.6835816436548183
 40
0.6835816436548183
 40
0.9153618865420613
 40
0.9153618865420613
 40
0.9153618865420613
 40
1.0
 40
1.0
 40
1.0
 40
1.0
 10
50.19094258039249
 20
392.9094239127155
 30
0.0
 10
50.18805953275448
 20
392.9130797075857
 30
0.0
 10
50.18544506919093
 20
392.9185923826915
 30
0.0
 10
50.18331928903687
 20
392.9254971597247
 30
0.0
 10
50.1811939271674
 20
392.9324005781218
 30
0.0
 10
50.17949889137085
 20
392.9408831107889
 30
0.0
 10
50.17837819448893
 20
392.9502365196539
 30
0.0
 10
50.1772510622229
 20
392.9596436386519
 30
0.0
 10
50.1766742837762
 20
392.9701851833167
 30
0.0
 10
50.17669880224116
 20
392.9810002911747
 30
0.0
 10
50.17672364952936
 20
392.9919604431471
 30
0.0
 10
50.17736667323988
 20
393.0034973593029
 30
0.0
 10
50.17857807448916
 20
393.0146807228936
 30
0.0
 10
50.17902576203399
 20
393.018813666121
 30
0.0
 10
50.17955224386693
 20
393.0229272618074
 30
0.0
 10
50.18015171745289
 20
393.0269763186261
 30
0.0
  0
SPLINE
  5
12D
330
75
100
AcDbEntity
  8
64647040_EINSATZ
  6
Continuous
 62
     7
100
AcDbSpline
210
0.0
220
0.0
230
1.0
 70
    12
 71
     2
 72
     6
 73
     3
 74
     0
 42
0.0000000098484301
 43
0.0000000001
 40
0.0
 40
0.0
 40
0.0
 40
0.4263100488938165
 40
0.4263100488938165
 40
0.4263100488938165
 10
50.18015171745275
 20
393.0269763186261
 30
0.0
 41
1.0
 10
50.21184844544896
 20
393.241082902374
 30
0.0
 41
1.0
 10
50.24338711159238
 20
393.4552036229761
 30
0.0
 41
1.0
  0
SPLINE
  5
12E
330
75
100
AcDbEntity
  8
64647040_EINSATZ
  6
Continuous
 62
     7
100
AcDbSpline
210
0.0
220
0.0
230
1.0
 70
     8
 71
     3
 72
    11
 73
     7
 74
     0
 42
0.0000001256317258
 43
0.0000000001
 40
0.7288132717576543
 40
0.7288132717576543
 40
0.7288132717576543
 40
0.7288132717576543
 40
0.9340165526915168
 40
0.9340165526915168
 40
0.9340165526915168
 40
1.0
 40
1.0
 40
1.0
 40
1.0
 10
49.5730353938579
 20
393.4326561227416
 30
0.0
 10
49.56787020951442
 20
393.4316359278033
 30
0.0
 10
49.56256082774905
 20
393.4321340240325
 30
0.0
 10
49.55746265623383
 20
393.4341373581672
 30
0.0
 10
49.55580120866571
 20
393.4347902264782
 30
0.0
 10
49.55415302883355
 20
393.4356021436537
 30
0.0
 10
49.55253019279449
 20
393.4365671937229
 30
0.0
  0
LINE
  5
12F
330
75
100
AcDbEntity
  8
64647040_EINSATZ
  6
Continuous
 62
     7
100
AcDbLine
 10
49.5525301928
 20
393.4365671937
 30
0.0
 11
49.5418101465
 21
393.4429177091
 31
0.0
  0
SPLINE
  5
130
330
75
100
AcDbEntity
  8
64647040_EINSATZ
  6
Continuous
 62
     7
100
AcDbSpline
210
0.0
220
0.0
230
1.0
 70
     8
 71
     3
 72
    20
 73
    16
 74
     0
 42
0.0000000789481898
 43
0.0000000001
 40
0.0
 40
0.0
 40
0.0
 40
0.0
 40
0.2274863332652766
 40
0.2274863332652766
 40
0.2274863332652766
 40
0.4548919040074019
 40
0.4548919040074019
 40
0.4548919040074019
 40
0.6835816433594271
 40
0.6835816433594271
 40
0.6835816433594271
 40
0.9153618861465055
 40
0.9153618861465055
 40
0.9153618861465055
 40
1.0
 40
1.0
 40
1.0
 40
1.0
 10
49.54181014654668
 20
393.4429177090856
 30
0.0
 10
49.5362588638266
 20
393.4461937245639
 30
0.0
 10
49.53090735372566
 20
393.4513477093523
 30
0.0
 10
49.52620260017888
 20
393.4579449224385
 30
0.0
 10
49.52149877237501
 20
393.4645408374071
 30
0.0
 10
49.51731257173603
 20
393.4727585509005
 30
0.0
 10
49.51398868840565
 20
393.4819118300694
 30
0.0
 10
49.510645718321
 20
393.4911176701656
 30
0.0
 10
49.50808401152421
 20
393.5015178957254
 30
0.0
 10
49.50650875291844
 20
393.5122631771571
 30
0.0
 10
49.50491236812581
 20
393.5231525662434
 30
0.0
 10
49.50428548025377
 20
393.5346902089606
 30
0.0
 10
49.50467443862803
 20
393.5459456332342
 30
0.0
 10
49.50481818275882
 20
393.5501052073325
 30
0.0
 10
49.50509838452842
 20
393.554255126212
 30
0.0
 10
49.50551174914137
 20
393.5583497897968
 30
0.0
  0
SPLINE
  5
131
330
75
100
AcDbEntity
  8
64647040_EINSATZ
  6
Continuous
 62
     7
100
AcDbSpline
210
0.0
220
0.0
230
1.0
 70
    12
 71
     2
 72
     6
 73
     3
 74
     0
 42
0.0000000097950349
 43
0.0000000001
 40
0.0
 40
0.0
 40
0.0
 40
0.1785456493241999
 40
0.1785456493241999
 40
0.1785456493241999
 10
49.50551174914123
 20
393.5583497897968
 30
0.0
 41
1.0
 10
49.5146653846846
 20
393.6490310603371
 30
0.0
 41
1.0
 10
49.52379400650522
 20
393.7397124358653
 30
0.0
 41
1.0
  0
SPLINE
  5
132
330
75
100
AcDbEntity
  8
64647040_EINSATZ
  6
Continuous
 62
     7
100
AcDbSpline
210
0.0
220
0.0
230
1.0
 70
     8
 71
     3
 72
    14
 73
    10
 74
     0
 42
0.0000000938433713
 43
0.0000000001
 40
0.6766992546721341
 40
0.6766992546721341
 40
0.6766992546721341
 40
0.6766992546721341
 40
0.7042698230198452
 40
0.7042698230198452
 40
0.7042698230198452
 40
0.9340165525562255
 40
0.9340165525562255
 40
0.9340165525562255
 40
1.0
 40
1.0
 40
1.0
 40
1.0
 10
48.55983445190252
 20
393.8953590418312
 30
0.0
 10
48.55891814883564
 20
393.8950455280756
 30
0.0
 10
48.5579969902477
 20
393.8947592084049
 30
0.0
 10
48.55707201230238
 20
393.8945007076839
 30
0.0
 10
48.54936230867393
 20
393.8923461006933
 30
0.0
 10
48.54117111134764
 20
393.8920644349782
 30
0.0
 10
48.53318485914345
 20
393.8936907594852
 30
0.0
 10
48.5308602487107
 20
393.8941641443495
 30
0.0
 10
48.52854052467642
 20
393.8947973955191
 30
0.0
 10
48.52624269705162
 20
393.895585906705
 30
0.0
  0
LINE
  5
133
330
75
100
AcDbEntity
  8
64647040_EINSATZ
  6
Continuous
 62
     7
100
AcDbLine
 10
48.5262426971
 20
393.8955859067
 30
0.0
 11
48.5110822623
 21
393.9007710808
 31
0.0
  0
SPLINE
  5
134
330
75
100
AcDbEntity
  8
64647040_EINSATZ
  6
Continuous
 62
     7
100
AcDbSpline
210
0.0
220
0.0
230
1.0
 70
     8
 71
     3
 72
    20
 73
    16
 74
     0
 42
0.0000000742420719
 43
0.0000000001
 40
0.0
 40
0.0
 40
0.0
 40
0.0
 40
0.227486333265265
 40
0.227486333265265
 40
0.227486333265265
 40
0.454891904007379
 40
0.454891904007379
 40
0.454891904007379
 40
0.683581643359405
 40
0.683581643359405
 40
0.683581643359405
 40
0.9153618861464811
 40
0.9153618861464811
 40
0.9153618861464811
 40
1.0
 40
1.0
 40
1.0
 40
1.0
 10
48.51108226225871
 20
393.9007710807857
 30
0.0
 10
48.50324105519998
 20
393.9034440618312
 30
0.0
 10
48.49551719513126
 20
393.9080092913869
 30
0.0
 10
48.48855408937099
 20
393.9140811263667
 30
0.0
 10
48.48159235372411
 20
393.9201517666064
 30
0.0
 10
48.47520027089823
 20
393.927893163203
 30
0.0
 10
48.46989971827535
 20
393.9366581029422
 30
0.0
 10
48.46456872825884
 20
393.9454733736449
 30
0.0
 10
48.46019666919675
 20
393.9555613869401
 30
0.0
 10
48.45712898479098
 20
393.9660976068341
 30
0.0
 10
48.454020158903
 20
393.9767751306064
 30
0.0
 10
48.45216608082089
 20
393.9882010608696
 30
0.0
 10
48.45170608944971
 20
393.9994532866831
 30
0.0
 10
48.45153609424149
 20
394.0036116787531
 30
0.0
 10
48.45155092066016
 20
394.0077748821046
 30
0.0
 10
48.45175000938616
 20
394.0118971226192
 30
0.0
  0
SPLINE
  5
135
330
75
100
AcDbEntity
  8
64647040_EINSATZ
  6
Continuous
 62
     7
100
AcDbSpline
210
0.0
220
0.0
230
1.0
 70
    12
 71
     2
 72
     6
 73
     3
 74
     0
 42
0.0000000097674784
 43
0.0000000001
 40
0.0
 40
0.0
 40
0.0
 40
0.0346553045419459
 40
0.0346553045419459
 40
0.0346553045419459
 10
48.4517500093861
 20
394.0118971226192
 30
0.0
 41
1.0
 10
48.4526056612119
 20
394.0296166800527
 30
0.0
 41
1.0
 10
48.45346053704464
 20
394.0473361640676
 30
0.0
 41
1.0
  0
SPLINE
  5
136
330
75
100
AcDbEntity
  8
64647040_EINSATZ
  6
Continuous
 62
     7
100
AcDbSpline
210
0.0
220
0.0
230
1.0
 70
     8
 71
     3
 72
    14
 73
    10
 74
     0
 42
0.000000078357031
 43
0.0000000001
 40
0.5706661405658634
 40
0.5706661405658634
 40
0.5706661405658634
 40
0.5706661405658634
 40
0.7042698228896171
 40
0.7042698228896171
 40
0.7042698228896171
 40
0.9340165525271574
 40
0.9340165525271574
 40
0.9340165525271574
 40
1.0
 40
1.0
 40
1.0
 40
1.0
 10
47.24015906131505
 20
394.2570213280024
 30
0.0
 10
47.23527193710793
 20
394.2541247498129
 30
0.0
 10
47.2300977121097
 20
394.2517880509242
 30
0.0
 10
47.22477489944117
 20
394.2500938831117
 30
0.0
 10
47.21561955309026
 20
394.2471798799208
 30
0.0
 10
47.20576807158879
 20
394.2460857919621
 30
0.0
 10
47.19604775811532
 20
394.2469148286631
 30
0.0
 10
47.19321840317733
 20
394.2471561417741
 30
0.0
 10
47.19038522030034
 20
394.2475573688505
 30
0.0
 10
47.18756899424511
 20
394.2481156054189
 30
0.0
  0
LINE
  5
137
330
75
100
AcDbEntity
  8
64647040_EINSATZ
  6
Continuous
 62
     7
100
AcDbLine
 10
47.1875689942
 20
394.2481156054
 30
0.0
 11
47.1690013295
 21
394.2517820772
 31
0.0
  0
ARC
  5
138
330
75
100
AcDbEntity
  8
64647040_EINSATZ
  6
Continuous
 62
     7
100
AcDbCircle
 10
47.1958531075
 20
394.3535210788
 30
0.0
 40
0.1052228227906161
100
AcDbArc
 50
214.2460644357
 51
255.2151754179
  0
LINE
  5
139
330
75
100
AcDbEntity
  8
64647040_EINSATZ
  6
Continuous
 62
     7
100
AcDbLine
 10
45.627737485
 20
394.4701319735
 30
0.0
 11
45.6070279459
 21
394.4720298789
 31
0.0
  0
LINE
  5
13A
330
75
100
AcDbEntity
  8
64647040_EINSATZ
  6
Continuous
 62
     7
100
AcDbLine
 10
42.2776281792
 20
394.4720298789
 30
0.0
 11
42.2569186402
 21
394.4701319735
 31
0.0
  0
ARC
  5
13B
330
75
100
AcDbEntity
  8
64647040_EINSATZ
  6
Continuous
 62
     7
100
AcDbCircle
 10
40.688108056
 20
394.3540398275
 30
0.0
 40
0.1059031178420061
100
AcDbArc
 50
285.0767459339
 51
331.8598449545
  0
LINE
  5
13C
330
75
100
AcDbEntity
  8
64647040_EINSATZ
  6
Continuous
 62
     7
100
AcDbLine
 10
40.7156547956
 20
394.2517820772
 30
0.0
 11
40.6970871309
 21
394.2481156054
 31
0.0
  0
SPLINE
  5
13D
330
75
100
AcDbEntity
  8
64647040_EINSATZ
  6
Continuous
 62
     7
100
AcDbSpline
210
0.0
220
0.0
230
1.0
 70
     8
 71
     3
 72
    11
 73
     7
 74
     0
 42
0.0000000783592029
 43
0.0000000001
 40
0.0
 40
0.0
 40
0.0
 40
0.0
 40
0.2274863332652295
 40
0.2274863332652295
 40
0.2274863332652295
 40
0.4301038136944864
 40
0.4301038136944864
 40
0.4301038136944864
 40
0.4301038136944864
 10
40.69708713087069
 20
394.2481156054189
 30
0.0
 10
40.68750870240001
 20
394.2462169549074
 30
0.0
 10
40.67763810631781
 20
394.2461646727572
 30
0.0
 10
40.66829311085141
 20
394.2479565886723
 30
0.0
 10
40.65996839453755
 20
394.2495528646367
 30
0.0
 10
40.65185735626638
 20
394.2526502732148
 30
0.0
 10
40.644476337911
 20
394.2570234035112
 30
0.0
  0
SPLINE
  5
13E
330
75
100
AcDbEntity
  8
64647040_EINSATZ
  6
Continuous
 62
     7
100
AcDbSpline
210
0.0
220
0.0
230
1.0
 70
    12
 71
     2
 72
     6
 73
     3
 74
     0
 42
0.0000000097674784
 43
0.0000000001
 40
0.9653446954386701
 40
0.9653446954386701
 40
0.9653446954386701
 40
1.0
 40
1.0
 40
1.0
 10
39.43119558797451
 20
394.0473361640675
 30
0.0
 41
1.0
 10
39.43205046380768
 20
394.0296166800435
 30
0.0
 41
1.0
 10
39.43290611563392
 20
394.0118971226012
 30
0.0
 41
1.0
  0
SPLINE
  5
13F
330
75
100
AcDbEntity
  8
64647040_EINSATZ
  6
Continuous
 62
     7
100
AcDbSpline
210
0.0
220
0.0
230
1.0
 70
     8
 71
     3
 72
    20
 73
    16
 74
     0
 42
0.0000000742463989
 43
0.0000000001
 40
0.0
 40
0.0
 40
0.0
 40
0.0
 40
0.2354503935954051
 40
0.2354503935954051
 40
0.2354503935954051
 40
0.471057081217388
 40
0.471057081217388
 40
0.471057081217388
 40
0.7042698238249282
 40
0.7042698238249282
 40
0.7042698238249282
 40
0.9340165527358489
 40
0.9340165527358489
 40
0.9340165527358489
 40
1.0
 40
1.0
 40
1.0
 40
1.0
 10
39.43290611563401
 20
394.0118971226012
 30
0.0
 10
39.43345338875633
 20
394.0005655399963
 30
0.0
 10
39.43257918663025
 20
393.9888187311014
 30
0.0
 10
39.43034600435248
 20
393.9776234440038
 30
0.0
 10
39.42811196463676
 20
393.9664238584375
 30
0.0
 10
39.42445372047444
 20
393.9554648694137
 30
0.0
 10
39.41967136188139
 20
393.9456825650738
 30
0.0
 10
39.41493755486482
 20
393.9359995728805
 30
0.0
 10
39.4089684003965
 20
393.9271983898602
 30
0.0
 10
39.402269870856
 20
393.920044741354
 30
0.0
 10
39.39566933455286
 20
393.912995744051
 30
0.0
 10
39.38817609751145
 20
393.9073496858456
 30
0.0
 10
39.38042478920498
 20
393.903593447651
 30
0.0
 10
39.37816856542242
 20
393.9025000949404
 30
0.0
 10
39.37587931533196
 20
393.9015569841193
 30
0.0
 10
39.37357386285707
 20
393.9007710807858
 30
0.0
  0
LINE
  5
140
330
75
100
AcDbEntity
  8
64647040_EINSATZ
  6
Continuous
 62
     7
100
AcDbLine
 10
39.3735738629
 20
393.9007710808
 30
0.0
 11
39.3584134281
 21
393.8955859067
 31
0.0
  0
SPLINE
  5
141
330
75
100
AcDbEntity
  8
64647040_EINSATZ
  6
Continuous
 62
     7
100
AcDbSpline
210
0.0
220
0.0
230
1.0
 70
     8
 71
     3
 72
    11
 73
     7
 74
     0
 42
0.000000094023946
 43
0.0000000001
 40
0.0
 40
0.0
 40
0.0
 40
0.0
 40
0.2274863332652452
 40
0.2274863332652452
 40
0.2274863332652452
 40
0.3242863808247573
 40
0.3242863808247573
 40
0.3242863808247573
 40
0.3242863808247573
 10
39.35841342806417
 20
393.895585906705
 30
0.0
 10
39.35059815432179
 20
393.8929040559429
 30
0.0
 10
39.3424489633793
 20
393.8920403823168
 30
0.0
 10
39.33464007073217
 20
393.8930598962841
 30
0.0
 10
39.33131670253002
 20
393.8934937888286
 30
0.0
 10
39.32801616784701
 20
393.8942735284404
 30
0.0
 10
39.32478597047738
 20
393.8953792099445
 30
0.0
  0
SPLINE
  5
142
330
75
100
AcDbEntity
  8
64647040_EINSATZ
  6
Continuous
 62
     7
100
AcDbSpline
210
0.0
220
0.0
230
1.0
 70
    12
 71
     2
 72
     6
 73
     3
 74
     0
 42
0.0000000097950349
 43
0.0000000001
 40
0.8214543502584705
 40
0.8214543502584705
 40
0.8214543502584705
 40
1.0
 40
1.0
 40
1.0
 10
38.36086211700169
 20
393.7397124356841
 30
0.0
 41
1.0
 10
38.36999073884314
 20
393.6490310599483
 30
0.0
 41
1.0
 10
38.37914437440718
 20
393.5583497892029
 30
0.0
 41
1.0
  0
SPLINE
  5
143
330
75
100
AcDbEntity
  8
64647040_EINSATZ
  6
Continuous
 62
     7
100
AcDbSpline
210
0.0
220
0.0
230
1.0
 70
     8
 71
     3
 72
    20
 73
    16
 74
     0
 42
0.0000000789658923
 43
0.0000000001
 40
0.0
 40
0.0
 40
0.0
 40
0.0
 40
0.2354503935964843
 40
0.2354503935964843
 40
0.2354503935964843
 40
0.4710570812181556
 40
0.4710570812181556
 40
0.4710570812181556
 40
0.7042698238253906
 40
0.7042698238253906
 40
0.7042698238253906
 40
0.9340165527360117
 40
0.9340165527360117
 40
0.9340165527360117
 40
1.0
 40
1.0
 40
1.0
 40
1.0
 10
38.37914437440712
 20
393.5583497892029
 30
0.0
 10
38.38028067225811
 20
393.547094014106
 30
0.0
 10
38.38039590282582
 20
393.5353130303869
 30
0.0
 10
38.37947618522806
 20
393.523975775125
 30
0.0
 10
38.37855611450158
 20
393.5126341668853
 30
0.0
 10
38.37657337466984
 20
393.5014211767281
 30
0.0
 10
38.37369289928488
 20
393.4912938317857
 30
0.0
 10
38.37084166713172
 20
393.4812693019194
 30
0.0
 10
38.36703021993839
 20
393.4720277198641
 30
0.0
 10
38.36258497987227
 20
393.4643722918609
 30
0.0
 10
38.35820476952086
 20
393.4568288556267
 30
0.0
 10
38.35308689621029
 20
393.4506149467898
 30
0.0
 10
38.34766670149898
 20
393.4462656247113
 30
0.0
 10
38.34608901012995
 20
393.4449996392127
 30
0.0
 10
38.3444781531042
 20
393.4438809151246
 30
0.0
 10
38.34284597856909
 20
393.4429177090856
 30
0.0
  0
LINE
  5
144
330
75
100
AcDbEntity
  8
64647040_EINSATZ
  6
Continuous
 62
     7
100
AcDbLine
 10
38.3428459786
 20
393.4429177091
 30
0.0
 11
38.3321259323
 21
393.4365671937
 31
0.0
  0
SPLINE
  5
145
330
75
100
AcDbEntity
  8
64647040_EINSATZ
  6
Continuous
 62
     7
100
AcDbSpline
210
0.0
220
0.0
230
1.0
 70
     8
 71
     3
 72
    11
 73
     7
 74
     0
 42
0.0000001256660196
 43
0.0000000001
 40
0.0
 40
0.0
 40
0.0
 40
0.0
 40
0.2274863332651585
 40
0.2274863332651585
 40
0.2274863332651585
 40
0.2709676485316337
 40
0.2709676485316337
 40
0.2709676485316337
 40
0.2709676485316337
 10
38.33212593232128
 20
393.4365671937229
 30
0.0
 10
38.32660641129738
 20
393.4332849064078
 30
0.0
 10
38.32073397939018
 20
393.4317898698668
 30
0.0
 10
38.31499335269141
 20
393.4321992787044
 30
0.0
 10
38.31389592625919
 20
393.4322775447376
 30
0.0
 10
38.31279755967893
 20
393.432425757064
 30
0.0
 10
38.31170146739846
 20
393.4326424502394
 30
0.0
  0
SPLINE
  5
146
330
75
100
AcDbEntity
  8
64647040_EINSATZ
  6
Continuous
 62
     7
100
AcDbSpline
210
0.0
220
0.0
230
1.0
 70
    12
 71
     2
 72
     6
 73
     3
 74
     0
 42
0.0000000098484301
 43
0.0000000001
 40
0.5736899512829908
 40
0.5736899512829908
 40
0.5736899512829908
 40
1.0
 40
1.0
 40
1.0
 10
37.64126901382051
 20
393.4552036230176
 30
0.0
 41
1.0
 10
37.67280767995062
 20
393.241082902506
 30
0.0
 41
1.0
 10
37.70450440793197
 20
393.0269763188584
 30
0.0
 41
1.0
  0
SPLINE
  5
147
330
75
100
AcDbEntity
  8
64647040_EINSATZ
  6
Continuous
 62
     7
100
AcDbSpline
210
0.0
220
0.0
230
1.0
 70
     8
 71
     3
 72
    20
 73
    16
 74
     0
 42
0.0000000831578734
 43
0.0000000001
 40
0.0
 40
0.0
 40
0.0
 40
0.0
 40
0.2354503935705606
 40
0.2354503935705606
 40
0.2354503935705606
 40
0.4710570812001934
 40
0.4710570812001934
 40
0.4710570812001934
 40
0.7042698238153136
 40
0.7042698238153136
 40
0.7042698238153136
 40
0.9340165527336918
 40
0.9340165527336918
 40
0.9340165527336918
 40
1.0
 40
1.0
 40
1.0
 40
1.0
 10
37.70450440793989
 20
393.0269763188653
 30
0.0
 10
37.70615229369093
 20
393.0158459094411
 30
0.0
 10
37.70724910417967
 20
393.0041195012716
 30
0.0
 10
37.7077055284963
 20
392.9927613849297
 30
0.0
 10
37.7081621280586
 20
392.9813989076002
 30
0.0
 10
37.70799001300032
 20
392.9700888890549
 30
0.0
 10
37.70720772046071
 20
392.9597966177087
 30
0.0
 10
37.70643336993032
 20
392.9496088358083
 30
0.0
 10
37.70503937383948
 20
392.9401328640622
 30
0.0
 10
37.70315035901215
 20
392.9321922184579
 30
0.0
 10
37.70128897870926
 20
392.92436773709
 30
0.0
 10
37.69889524373797
 20
392.9178155970118
 30
0.0
 10
37.6961755399341
 20
392.9130997531615
 30
0.0
 10
37.69538389803815
 20
392.911727081784
 30
0.0
 10
37.69456121132134
 20
392.9104987805601
 30
0.0
 10
37.69371354472327
 20
392.9094239127155
 30
0.0
  0
LINE
  5
148
330
75
100
AcDbEntity
  8
64647040_EINSATZ
  6
Continuous
 62
     7
100
AcDbLine
 10
37.6937135447
 20
392.9094239127
 30
0.0
 11
37.6881644405
 21
392.9023408332
 31
0.0
  0
SPLINE
  5
149
330
75
100
AcDbEntity
  8
64647040_EINSATZ
  6
Continuous
 62
     7
100
AcDbSpline
210
0.0
220
0.0
230
1.0
 70
     8
 71
     3
 72
    11
 73
     7
 74
     0
 42
0.0000001976447553
 43
0.0000000001
 40
0.0
 40
0.0
 40
0.0
 40
0.0
 40
0.2274863333433286
 40
0.2274863333433286
 40
0.2274863333433286
 40
0.2454909622617847
 40
0.2454909622617847
 40
0.2454909622617847
 40
0.2454909622617847
 10
37.68816444045664
 20
392.9023408331981
 30
0.0
 10
37.68531681838758
 20
392.8986817917862
 30
0.0
 10
37.68212134204546
 20
392.896778447231
 30
0.0
 10
37.67884019551774
 20
392.896781625413
 30
0.0
 10
37.67858046484695
 20
392.8967818769931
 30
0.0
 10
37.67831963283317
 20
392.8967940647204
 30
0.0
 10
37.67805783468982
 20
392.8968181009161
 30
0.0
  0
ARC
  5
14A
330
75
100
AcDbEntity
  8
64647040_EINSATZ
  6
Continuous
 62
     7
100
AcDbCircle
 10
585.1639662121
 20
494.7144132051
 30
0.0
 40
557.1735347972178
100
AcDbArc
 50
190.5263870249
 51
190.5756876995
  0
ARC
  5
14B
330
75
100
AcDbEntity
  8
64647040_EINSATZ
  6
Continuous
 62
     7
100
AcDbCircle
 10
36.5669936545
 20
392.2773697213
 30
0.0
 40
0.9053628007358001
100
AcDbArc
 50
3.7540038037
 51
11.249464048
  0
LINE
  5
14C
330
75
100
AcDbEntity
  8
64647040_EINSATZ
  6
Continuous
 62
     7
100
AcDbLine
 10
37.4704138639
 20
392.3366464123
 30
0.0
 11
37.4704138639
 21
392.3293134687
 31
0.0
  0
ARC
  5
14D
330
75
100
AcDbEntity
  8
64647040_EINSATZ
  6
Continuous
 62
     7
100
AcDbCircle
 10
48.108653887
 20
392.3329799405
 30
0.0
 40
0.5519434061589826
100
AcDbArc
 50
359.6193905029
 51
0.3806094971
  0
ARC
  5
14E
330
75
100
AcDbEntity
  8
64647040_EINSATZ
  6
Continuous
 62
     7
100
AcDbCircle
 10
49.6732371338
 20
392.2891402882
 30
0.0
 40
1.013765723737731
100
AcDbArc
 50
170.641565828
 51
177.3140760951
  0
SPLINE
  5
14F
330
75
100
AcDbEntity
  8
64647040_EINSATZ
  6
Continuous
 62
     7
100
AcDbSpline
210
0.0
220
0.0
230
1.0
 70
    12
 71
     2
 72
     6
 73
     3
 74
     0
 42
0.0000000099882947
 43
0.0000000001
 40
0.0
 40
0.0
 40
0.0
 40
0.3098696692976884
 40
0.3098696692976884
 40
0.3098696692976884
 10
48.67296423796561
 20
392.4539889354351
 30
0.0
 41
1.0
 10
48.69665477350498
 20
392.6072861093223
 30
0.0
 41
1.0
 10
48.72022774308547
 20
392.7606003186825
 30
0.0
 41
1.0
  0
SPLINE
  5
150
330
75
100
AcDbEntity
  8
64647040_EINSATZ
  6
Continuous
 62
     7
100
AcDbSpline
210
0.0
220
0.0
230
1.0
 70
     8
 71
     3
 72
    11
 73
     7
 74
     0
 42
0.0000002038848072
 43
0.0000000001
 40
0.7537709428765136
 40
0.7537709428765136
 40
0.7537709428765136
 40
0.7537709428765136
 40
0.9310036385212338
 40
0.9310036385212338
 40
0.9310036385212338
 40
1.0
 40
1.0
 40
1.0
 40
1.0
 10
48.51249266011218
 20
392.7415678554113
 30
0.0
 10
48.510023244129
 20
392.7413413146761
 30
0.0
 10
48.50757430452443
 20
392.7422390961216
 30
0.0
 10
48.50526531939542
 20
392.7442361929741
 30
0.0
 10
48.5043545177814
 20
392.7450239672278
 30
0.0
 10
48.50346005930977
 20
392.7459826771516
 30
0.0
 10
48.50258895689083
 20
392.7471047757049
 30
0.0
  0
LINE
  5
151
330
75
100
AcDbEntity
  8
64647040_EINSATZ
  6
Continuous
 62
     7
100
AcDbLine
 10
48.5025889569
 20
392.7471047757
 30
0.0
 11
48.4970398526
 21
392.7541878552
 31
0.0
  0
SPLINE
  5
152
330
75
100
AcDbEntity
  8
64647040_EINSATZ
  6
Continuous
 62
     7
100
AcDbSpline
210
0.0
220
0.0
230
1.0
 70
     8
 71
     3
 72
    20
 73
    16
 74
     0
 42
0.0000000832119301
 43
0.0000000001
 40
0.0
 40
0.0
 40
0.0
 40
0.0
 40
0.2289377704749248
 40
0.2289377704749248
 40
0.2289377704749248
 40
0.4578289888433252
 40
0.4578289888433252
 40
0.4578289888433252
 40
0.6874672639041093
 40
0.6874672639041093
 40
0.6874672639041093
 40
0.9190278165324414
 40
0.9190278165324414
 40
0.9190278165324414
 40
1.0
 40
1.0
 40
1.0
 40
1.0
 10
48.49703985262421
 20
392.7541878552223
 30
0.0
 10
48.49413880855003
 20
392.7578574835034
 30
0.0
 10
48.49144090837724
 20
392.7633917706119
 30
0.0
 10
48.48917535803142
 20
392.7703278070501
 30
0.0
 10
48.48691006174523
 20
392.7772630656785
 30
0.0
 10
48.48501521053176
 20
392.785789397527
 30
0.0
 10
48.48365890305323
 20
392.7951969704132
 30
0.0
 10
48.48229807859538
 20
392.8046358738147
 30
0.0
 10
48.48144276499612
 20
392.815218444833
 30
0.0
 10
48.48117533181294
 20
392.8260754704585
 30
0.0
 10
48.48090567248302
 20
392.8370228713022
 30
0.0
 10
48.48122675107637
 20
392.8485467365265
 30
0.0
 10
48.48212007219656
 20
392.8597098530261
 30
0.0
 10
48.48243629781453
 20
392.863661470573
 30
0.0
 10
48.48282448856554
 20
392.8675943290366
 30
0.0
 10
48.48328077070281
 20
392.8714682418666
 30
0.0
  0
SPLINE
  5
153
330
75
100
AcDbEntity
  8
64647040_EINSATZ
  6
Continuous
 62
     7
100
AcDbSpline
210
0.0
220
0.0
230
1.0
 70
    12
 71
     2
 72
     6
 73
     3
 74
     0
 42
0.0000000099154853
 43
0.0000000001
 40
0.0
 40
0.0
 40
0.0
 40
0.3536212941473959
 40
0.3536212941473959
 40
0.3536212941473959
 10
48.48328077070278
 20
392.8714682418666
 30
0.0
 41
1.0
 10
48.50413705135128
 20
393.0485664621842
 30
0.0
 41
1.0
 10
48.52484477340967
 20
393.2256732847713
 30
0.0
 41
1.0
  0
SPLINE
  5
154
330
75
100
AcDbEntity
  8
64647040_EINSATZ
  6
Continuous
 62
     7
100
AcDbSpline
210
0.0
220
0.0
230
1.0
 70
     8
 71
     3
 72
    11
 73
     7
 74
     0
 42
0.0000001274771044
 43
0.0000000001
 40
0.7282092223372499
 40
0.7282092223372499
 40
0.7282092223372499
 40
0.7282092223372499
 40
0.9310036384966712
 40
0.9310036384966712
 40
0.9310036384966712
 40
1.0
 40
1.0
 40
1.0
 40
1.0
 10
48.05405809518977
 20
393.1327109327721
 30
0.0
 10
48.04908477672323
 20
393.1317286904474
 30
0.0
 10
48.04393645859672
 20
393.1322155061978
 30
0.0
 10
48.03894318790466
 20
393.1341568385002
 30
0.0
 10
48.03722181240847
 20
393.1348260915933
 30
0.0
 10
48.03550910782861
 20
393.1356674066847
 30
0.0
 10
48.03381855483889
 20
393.1366741595151
 30
0.0
  0
LINE
  5
155
330
75
100
AcDbEntity
  8
64647040_EINSATZ
  6
Continuous
 62
     7
100
AcDbLine
 10
48.0338185548
 20
393.1366741595
 30
0.0
 11
48.0230985086
 21
393.1430246749
 31
0.0
  0
SPLINE
  5
156
330
75
100
AcDbEntity
  8
64647040_EINSATZ
  6
Continuous
 62
     7
100
AcDbSpline
210
0.0
220
0.0
230
1.0
 70
     8
 71
     3
 72
    20
 73
    16
 74
     0
 42
0.0000000789018891
 43
0.0000000001
 40
0.0
 40
0.0
 40
0.0
 40
0.0
 40
0.228937770474167
 40
0.228937770474167
 40
0.228937770474167
 40
0.4578289888418133
 40
0.4578289888418133
 40
0.4578289888418133
 40
0.6874672639018289
 40
0.6874672639018289
 40
0.6874672639018289
 40
0.9190278165293866
 40
0.9190278165293866
 40
0.9190278165293866
 40
1.0
 40
1.0
 40
1.0
 40
1.0
 10
48.02309850859109
 20
393.1430246748777
 30
0.0
 10
48.01751937440496
 20
393.1463124593364
 30
0.0
 10
48.01208115724278
 20
393.1514803949313
 30
0.0
 10
48.00723973182354
 20
393.1580964198428
 30
0.0
 10
48.00239884932351
 20
393.1647117028308
 30
0.0
 10
47.99802200090158
 20
393.1729556338042
 30
0.0
 10
47.99447853946504
 20
393.1821425808458
 30
0.0
 10
47.99092327705984
 20
393.1913601236413
 30
0.0
 10
47.98811023105693
 20
393.2017775164747
 30
0.0
 10
47.98627636228552
 20
393.2125399250833
 30
0.0
 10
47.98442722816466
 20
393.2233919213063
 30
0.0
 10
47.98352337048657
 20
393.234889545267
 30
0.0
 10
47.98364067999846
 20
393.2460981682468
 30
0.0
 10
47.9836822062448
 20
393.2500658945755
 30
0.0
 10
47.98384886177699
 20
393.25402373655
 30
0.0
 10
47.98413888065924
 20
393.2579312536777
 30
0.0
  0
SPLINE
  5
157
330
75
100
AcDbEntity
  8
64647040_EINSATZ
  6
Continuous
 62
     7
100
AcDbSpline
210
0.0
220
0.0
230
1.0
 70
    12
 71
     2
 72
     6
 73
     3
 74
     0
 42
0.0000000098710125
 43
0.0000000001
 40
0.0
 40
0.0
 40
0.0
 40
0.2164785457942403
 40
0.2164785457942403
 40
0.2164785457942403
 10
47.98413888065931
 20
393.2579312536777
 30
0.0
 41
1.0
 10
47.9922537366884
 20
393.3672868686158
 30
0.0
 41
1.0
 10
48.00031841826838
 20
393.4766409412235
 30
0.0
 41
1.0
  0
SPLINE
  5
158
330
75
100
AcDbEntity
  8
64647040_EINSATZ
  6
Continuous
 62
     7
100
AcDbSpline
210
0.0
220
0.0
230
1.0
 70
     8
 71
     3
 72
    14
 73
    10
 74
     0
 42
0.0000000948814018
 43
0.0000000001
 40
0.6760242231375257
 40
0.6760242231375257
 40
0.6760242231375257
 40
0.6760242231375257
 40
0.7007223724438351
 40
0.7007223724438351
 40
0.7007223724438351
 40
0.9310036384903887
 40
0.9310036384903887
 40
0.9310036384903887
 40
1.0
 40
1.0
 40
1.0
 40
1.0
 10
47.31951045086943
 20
393.4711428799948
 30
0.0
 10
47.31870524692135
 20
393.4708674235259
 30
0.0
 10
47.31789575600152
 20
393.4706136197539
 30
0.0
 10
47.31708269908439
 20
393.4703819014352
 30
0.0
 10
47.30950069005731
 20
393.4682210559309
 30
0.0
 10
47.30139712100693
 20
393.4679207892414
 30
0.0
 10
47.29344350559811
 20
393.469511806374
 30
0.0
 10
47.29102886511509
 20
393.4699948237416
 30
0.0
 10
47.28861463241375
 20
393.4706503119014
 30
0.0
 10
47.28621983724573
 20
393.4714731104671
 30
0.0
  0
LINE
  5
159
330
75
100
AcDbEntity
  8
64647040_EINSATZ
  6
Continuous
 62
     7
100
AcDbLine
 10
47.2862198372
 20
393.4714731105
 30
0.0
 11
47.2710594025
 21
393.4766582845
 31
0.0
  0
SPLINE
  5
15A
330
75
100
AcDbEntity
  8
64647040_EINSATZ
  6
Continuous
 62
     7
100
AcDbSpline
210
0.0
220
0.0
230
1.0
 70
     8
 71
     3
 72
    20
 73
    16
 74
     0
 42
0.0000000741959867
 43
0.0000000001
 40
0.0
 40
0.0
 40
0.0
 40
0.0
 40
0.2289377704749261
 40
0.2289377704749261
 40
0.2289377704749261
 40
0.4578289888433265
 40
0.4578289888433265
 40
0.4578289888433265
 40
0.6874672639041141
 40
0.6874672639041141
 40
0.6874672639041141
 40
0.9190278165324425
 40
0.9190278165324425
 40
0.9190278165324425
 40
1.0
 40
1.0
 40
1.0
 40
1.0
 10
47.27105940245283
 20
393.4766582845478
 30
0.0
 10
47.26318238692956
 20
393.4793401681066
 30
0.0
 10
47.25537445829053
 20
393.4839116588169
 30
0.0
 10
47.24828709293936
 20
393.4899905564506
 30
0.0
 10
47.2412005223679
 20
393.4960687723945
 30
0.0
 10
47.2346399517244
 20
393.503820215383
 30
0.0
 10
47.22915081737091
 20
393.5126004444529
 30
0.0
 10
47.22364340227594
 20
393.5214099147633
 30
0.0
 10
47.21906432830568
 20
393.5314944566519
 30
0.0
 10
47.2157889990722
 20
393.5420268092835
 30
0.0
 10
47.2124864055949
 20
393.5526468345151
 30
0.0
 10
47.21041920805244
 20
393.5640106783774
 30
0.0
 10
47.20975251150666
 20
393.5751945636643
 30
0.0
 10
47.20951650843629
 20
393.5791535331281
 30
0.0
 10
47.20945027145054
 20
393.5831158967293
 30
0.0
 10
47.20955426277015
 20
393.5870411552719
 30
0.0
  0
SPLINE
  5
15B
330
75
100
AcDbEntity
  8
64647040_EINSATZ
  6
Continuous
 62
     7
100
AcDbSpline
210
0.0
220
0.0
230
1.0
 70
    12
 71
     2
 72
     6
 73
     3
 74
     0
 42
0.0000000098498548
 43
0.0000000001
 40
0.0
 40
0.0
 40
0.0
 40
0.0832070840357185
 40
0.0832070840357185
 40
0.0832070840357185
 10
47.20955426277016
 20
393.5870411552719
 30
0.0
 41
1.0
 10
47.21067237664244
 20
393.6292645731477
 30
0.0
 41
1.0
 10
47.21178439548157
 20
393.671487154942
 30
0.0
 41
1.0
  0
SPLINE
  5
15C
330
75
100
AcDbEntity
  8
64647040_EINSATZ
  6
Continuous
 62
     7
100
AcDbSpline
210
0.0
220
0.0
230
1.0
 70
     8
 71
     3
 72
    14
 73
    10
 74
     0
 42
0.0000000790819162
 43
0.0000000001
 40
0.5699820465095736
 40
0.5699820465095736
 40
0.5699820465095736
 40
0.5699820465095736
 40
0.7007223724405026
 40
0.7007223724405026
 40
0.7007223724405026
 40
0.9310036384896277
 40
0.9310036384896277
 40
0.9310036384896277
 40
1.0
 40
1.0
 40
1.0
 40
1.0
 10
46.36295815879739
 20
393.7373706666095
 30
0.0
 10
46.35824613909562
 20
393.7345783644508
 30
0.0
 10
46.35325486160436
 20
393.7323188473958
 30
0.0
 10
46.34811156052577
 20
393.7306668516744
 30
0.0
 10
46.33905089404693
 20
393.7277566230044
 30
0.0
 10
46.32926598796658
 20
393.7266508775255
 30
0.0
 10
46.31957084382847
 20
393.7274472097354
 30
0.0
 10
46.31662749211718
 20
393.7276889684694
 30
0.0
 10
46.31367625726324
 20
393.7281028613965
 30
0.0
 10
46.31074042125002
 20
393.728685633335
 30
0.0
  0
LINE
  5
15D
330
75
100
AcDbEntity
  8
64647040_EINSATZ
  6
Continuous
 62
     7
100
AcDbLine
 10
46.3107404213
 20
393.7286856333
 30
0.0
 11
46.2921727565
 21
393.7323521051
 31
0.0
  0
ARC
  5
15E
330
75
100
AcDbEntity
  8
64647040_EINSATZ
  6
Continuous
 62
     7
100
AcDbCircle
 10
46.3189802408
 20
393.835598078
 30
0.0
 40
0.1066694526492524
100
AcDbArc
 50
179.5855584889
 51
255.4447420408
  0
ARC
  5
15F
330
75
100
AcDbEntity
  8
64647040_EINSATZ
  6
Continuous
 62
     7
100
AcDbCircle
 10
45.1826171418
 20
393.9815947316
 30
0.0
 40
0.0912330977231133
100
AcDbArc
 50
264.490397371
 51
321.576635753
  0
LINE
  5
160
330
75
100
AcDbEntity
  8
64647040_EINSATZ
  6
Continuous
 62
     7
100
AcDbLine
 10
45.173857617
 20
393.8907831197
 30
0.0
 11
45.1531480779
 21
393.8926810252
 31
0.0
  0
ARC
  5
161
330
75
100
AcDbEntity
  8
64647040_EINSATZ
  6
Continuous
 62
     7
100
AcDbCircle
 10
43.9537688935
 20
394.046052228
 30
0.0
 40
0.09933594918782
100
AcDbArc
 50
269.5842564048
 51
317.9506453604
  0
LINE
  5
162
330
75
100
AcDbEntity
  8
64647040_EINSATZ
  6
Continuous
 62
     7
100
AcDbLine
 10
43.9530481088
 20
393.9467188939
 30
0.0
 11
43.9316080163
 21
393.9467188939
 31
0.0
  0
ARC
  5
163
330
75
100
AcDbEntity
  8
64647040_EINSATZ
  6
Continuous
 62
     7
100
AcDbCircle
 10
42.7204456854
 20
393.9961777707
 30
0.0
 40
0.1040862727265388
100
AcDbArc
 50
276.1009580778
 51
330.7949867575
  0
LINE
  5
164
330
75
100
AcDbEntity
  8
64647040_EINSATZ
  6
Continuous
 62
     7
100
AcDbLine
 10
42.7315080472
 20
393.8926810252
 30
0.0
 11
42.7107985081
 21
393.8907831197
 31
0.0
  0
ARC
  5
165
330
75
100
AcDbEntity
  8
64647040_EINSATZ
  6
Continuous
 62
     7
100
AcDbCircle
 10
42.7019790926
 20
393.9815192113
 30
0.0
 40
0.0911637010581433
100
AcDbArc
 50
218.678086239
 51
275.5516267655
  0
ARC
  5
166
330
75
100
AcDbEntity
  8
64647040_EINSATZ
  6
Continuous
 62
     7
100
AcDbCircle
 10
41.5650475646
 20
393.836080468
 30
0.0
 40
0.107295370932881
100
AcDbArc
 50
284.8152760052
 51
0.1544238604
  0
LINE
  5
167
330
75
100
AcDbEntity
  8
64647040_EINSATZ
  6
Continuous
 62
     7
100
AcDbLine
 10
41.5924833686
 20
393.7323521051
 30
0.0
 11
41.5739157039
 21
393.7286856333
 31
0.0
  0
SPLINE
  5
168
330
75
100
AcDbEntity
  8
64647040_EINSATZ
  6
Continuous
 62
     7
100
AcDbSpline
210
0.0
220
0.0
230
1.0
 70
     8
 71
     3
 72
    11
 73
     7
 74
     0
 42
0.0000000790739564
 43
0.0000000001
 40
0.0
 40
0.0
 40
0.0
 40
0.0
 40
0.2289377704741473
 40
0.2289377704741473
 40
0.2289377704741473
 40
0.4364884734923629
 40
0.4364884734923629
 40
0.4364884734923629
 40
0.4364884734923629
 10
41.57391570386576
 20
393.728685633335
 30
0.0
 10
41.56430286519868
 20
393.726777457061
 30
0.0
 10
41.55443104826144
 20
393.7267090525989
 30
0.0
 10
41.54511601697493
 20
393.7284832841589
 30
0.0
 10
41.53667041342428
 20
393.7300919160466
 30
0.0
 10
41.52847189551054
 20
393.7332546640327
 30
0.0
 10
41.52106395028977
 20
393.7377404130895
 30
0.0
  0
SPLINE
  5
169
330
75
100
AcDbEntity
  8
64647040_EINSATZ
  6
Continuous
 62
     7
100
AcDbSpline
210
0.0
220
0.0
230
1.0
 70
    12
 71
     2
 72
     6
 73
     3
 74
     0
 42
0.0000000098498548
 43
0.0000000001
 40
0.916792915947673
 40
0.916792915947673
 40
0.916792915947673
 40
1.0
 40
1.0
 40
1.0
 10
40.67287172963385
 20
393.6714871549574
 30
0.0
 41
1.0
 10
40.6739837484732
 20
393.6292645731554
 30
0.0
 41
1.0
 10
40.67510186234566
 20
393.587041155272
 30
0.0
 41
1.0
  0
SPLINE
  5
16A
330
75
100
AcDbEntity
  8
64647040_EINSATZ
  6
Continuous
 62
     7
100
AcDbSpline
210
0.0
220
0.0
230
1.0
 70
     8
 71
     3
 72
    20
 73
    16
 74
     0
 42
0.0000000742038513
 43
0.0000000001
 40
0.0
 40
0.0
 40
0.0
 40
0.0
 40
0.2340589631368724
 40
0.2340589631368724
 40
0.2340589631368724
 40
0.4682296684690632
 40
0.4682296684690632
 40
0.4682296684690632
 40
0.7007223725198718
 40
0.7007223725198718
 40
0.7007223725198718
 40
0.931003638507925
 40
0.931003638507925
 40
0.931003638507925
 40
1.0
 40
1.0
 40
1.0
 40
1.0
 10
40.67510186250846
 20
393.587041155303
 30
0.0
 10
40.67539880804914
 20
393.5758326364855
 30
0.0
 10
40.67427573257097
 20
393.5642151467773
 30
0.0
 10
40.67182111529082
 20
393.5531456762486
 30
0.0
 10
40.66936581345878
 20
393.5420731186289
 30
0.0
 10
40.66550896956043
 20
393.5312420244184
 30
0.0
 10
40.66057542394402
 20
393.5215674500499
 30
0.0
 10
40.65567710501324
 20
393.5119619544366
 30
0.0
 10
40.64958060369823
 20
393.5032289433005
 30
0.0
 10
40.64280594855121
 20
393.4961129395702
 30
0.0
 10
40.63609466444251
 20
393.489063499899
 30
0.0
 10
40.62853162189793
 20
393.4834049364664
 30
0.0
 10
40.62075575825712
 20
393.47961615492
 30
0.0
 10
40.61839508148658
 20
393.4784659175961
 30
0.0
 10
40.61600242472981
 20
393.4774773527345
 30
0.0
 10
40.61359672266295
 20
393.4766582845479
 30
0.0
  0
LINE
  5
16B
330
75
100
AcDbEntity
  8
64647040_EINSATZ
  6
Continuous
 62
     7
100
AcDbLine
 10
40.6135967227
 20
393.4766582845
 30
0.0
 11
40.5984362879
 21
393.4714731105
 31
0.0
  0
SPLINE
  5
16C
330
75
100
AcDbEntity
  8
64647040_EINSATZ
  6
Continuous
 62
     7
100
AcDbSpline
210
0.0
220
0.0
230
1.0
 70
     8
 71
     3
 72
    11
 73
     7
 74
     0
 42
0.0000000950748327
 43
0.0000000001
 40
0.0
 40
0.0
 40
0.0
 40
0.0
 40
0.2289377704741491
 40
0.2289377704741491
 40
0.2289377704741491
 40
0.3277898309665726
 40
0.3277898309665726
 40
0.3277898309665726
 40
0.3277898309665726
 10
40.59843628787005
 20
393.4714731104671
 30
0.0
 10
40.59059498492011
 20
393.4687790124889
 30
0.0
 10
40.582467056161
 20
393.4679001189678
 30
0.0
 10
40.57472247997262
 20
393.4689061938303
 30
0.0
 10
40.57137817752047
 20
393.4693406422169
 30
0.0
 10
40.56806561399566
 20
393.4701315819696
 30
0.0
 10
40.56483380665969
 20
393.4712588945197
 30
0.0
  0
SPLINE
  5
16D
330
75
100
AcDbEntity
  8
64647040_EINSATZ
  6
Continuous
 62
     7
100
AcDbSpline
210
0.0
220
0.0
230
1.0
 70
    12
 71
     2
 72
     6
 73
     3
 74
     0
 42
0.0000000098710125
 43
0.0000000001
 40
0.7835214542160582
 40
0.7835214542160582
 40
0.7835214542160582
 40
1.0
 40
1.0
 40
1.0
 10
39.88433770684821
 20
393.476640941214
 30
0.0
 41
1.0
 10
39.89240238842785
 20
393.3672868686111
 30
0.0
 41
1.0
 10
39.90051724445662
 20
393.2579312536774
 30
0.0
 41
1.0
  0
SPLINE
  5
16E
330
75
100
AcDbEntity
  8
64647040_EINSATZ
  6
Continuous
 62
     7
100
AcDbSpline
210
0.0
220
0.0
230
1.0
 70
     8
 71
     3
 72
    20
 73
    16
 74
     0
 42
0.0000000789217239
 43
0.0000000001
 40
0.0
 40
0.0
 40
0.0
 40
0.0
 40
0.2340589625455152
 40
0.2340589625455152
 40
0.2340589625455152
 40
0.4682296680585221
 40
0.4682296680585221
 40
0.4682296680585221
 40
0.7007223722888488
 40
0.7007223722888488
 40
0.7007223722888488
 40
0.9310036384547195
 40
0.9310036384547195
 40
0.9310036384547195
 40
1.0
 40
1.0
 40
1.0
 40
1.0
 10
39.90051724400728
 20
393.257931253507
 30
0.0
 10
39.9013453891646
 20
393.2467733952438
 30
0.0
 10
39.90114958500594
 20
393.235096519279
 30
0.0
 10
39.89994648965673
 20
393.2238623499753
 30
0.0
 10
39.89874305878427
 20
393.2126250476488
 30
0.0
 10
39.89649777832089
 20
393.2015191881658
 30
0.0
 10
39.89340596908545
 20
393.1914832496752
 30
0.0
 10
39.89033623610115
 20
393.1815189701653
 30
0.0
 10
39.88634658219375
 20
393.1723318015876
 30
0.0
 10
39.88178366574584
 20
393.1647052918819
 30
0.0
 10
39.87726343143402
 20
393.1571501215772
 30
0.0
 10
39.87205545131843
 20
393.1509165070126
 30
0.0
 10
39.86660309095129
 20
393.1465320875606
 30
0.0
 10
39.86494780723519
 20
393.1452010203466
 30
0.0
 10
39.86326152768279
 20
393.1440287899318
 30
0.0
 10
39.86155761652466
 20
393.1430246748778
 30
0.0
  0
LINE
  5
16F
330
75
100
AcDbEntity
  8
64647040_EINSATZ
  6
Continuous
 62
     7
100
AcDbLine
 10
39.8615576165
 20
393.1430246749
 30
0.0
 11
39.8508375703
 21
393.1366741595
 31
0.0
  0
SPLINE
  5
170
330
75
100
AcDbEntity
  8
64647040_EINSATZ
  6
Continuous
 62
     7
100
AcDbSpline
210
0.0
220
0.0
230
1.0
 70
     8
 71
     3
 72
    11
 73
     7
 74
     0
 42
0.0000001274634262
 43
0.0000000001
 40
0.0
 40
0.0
 40
0.0
 40
0.0
 40
0.2289377704741384
 40
0.2289377704741384
 40
0.2289377704741384
 40
0.2717888948559556
 40
0.2717888948559556
 40
0.2717888948559556
 40
0.2717888948559556
 10
39.85083757027686
 20
393.1366741595151
 30
0.0
 10
39.84530217488175
 20
393.1333777381576
 30
0.0
 10
39.83947203921369
 20
393.1318703436181
 30
0.0
 10
39.83382569819214
 20
393.1322734548571
 30
0.0
 10
39.83276875537648
 20
393.1323489135526
 30
0.0
 10
39.83171280201832
 20
393.1324916741223
 30
0.0
 10
39.83066076860072
 20
393.1327004095047
 30
0.0
  0
SPLINE
  5
171
330
75
100
AcDbEntity
  8
64647040_EINSATZ
  6
Continuous
 62
     7
100
AcDbSpline
210
0.0
220
0.0
230
1.0
 70
    12
 71
     2
 72
     6
 73
     3
 74
     0
 42
0.0000000099154853
 43
0.0000000001
 40
0.6463787058628861
 40
0.6463787058628861
 40
0.6463787058628861
 40
1.0
 40
1.0
 40
1.0
 10
39.35981135170604
 20
393.2256732847714
 30
0.0
 41
1.0
 10
39.38051907376409
 20
393.0485664621871
 30
0.0
 41
1.0
 10
39.40137535441294
 20
392.8714682418667
 30
0.0
 41
1.0
  0
SPLINE
  5
172
330
75
100
AcDbEntity
  8
64647040_EINSATZ
  6
Continuous
 62
     7
100
AcDbSpline
210
0.0
220
0.0
230
1.0
 70
     8
 71
     3
 72
    20
 73
    16
 74
     0
 42
0.0000000832327261
 43
0.0000000001
 40
0.0
 40
0.0
 40
0.0
 40
0.0
 40
0.2340589631874801
 40
0.2340589631874801
 40
0.2340589631874801
 40
0.4682296685041973
 40
0.4682296685041973
 40
0.4682296685041973
 40
0.7007223725396423
 40
0.7007223725396423
 40
0.7007223725396423
 40
0.9310036385124791
 40
0.9310036385124791
 40
0.9310036385124791
 40
1.0
 40
1.0
 40
1.0
 40
1.0
 10
39.40137535436811
 20
392.8714682418279
 30
0.0
 10
39.40267826143221
 20
392.8604063400171
 30
0.0
 10
39.40342307232288
 20
392.848754184621
 30
0.0
 10
39.40355348786446
 20
392.8374717148989
 30
0.0
 10
39.40368393977676
 20
392.8261860986839
 30
0.0
 10
39.40320323490143
 20
392.8149574940616
 30
0.0
 10
39.40216386373691
 20
392.804735537581
 30
0.0
 10
39.40113191392899
 20
392.7945865682937
 30
0.0
 10
39.39952099574978
 20
392.785147218242
 30
0.0
 10
39.39748077321632
 20
392.7772233836748
 30
0.0
 10
39.3954596351997
 20
392.7693736697252
 30
0.0
 10
39.39296163275138
 20
392.7627930716719
 30
0.0
 10
39.39020434500649
 20
392.7580389897767
 30
0.0
 10
39.38936725919458
 20
392.7565956966308
 30
0.0
 10
39.38850227401135
 20
392.7553085883622
 30
0.0
 10
39.38761627249152
 20
392.7541878552223
 30
0.0
  0
LINE
  5
173
330
75
100
AcDbEntity
  8
64647040_EINSATZ
  6
Continuous
 62
     7
100
AcDbLine
 10
39.3876162725
 20
392.7541878552
 30
0.0
 11
39.3820671682
 21
392.7471047757
 31
0.0
  0
SPLINE
  5
174
330
75
100
AcDbEntity
  8
64647040_EINSATZ
  6
Continuous
 62
     7
100
AcDbSpline
210
0.0
220
0.0
230
1.0
 70
     8
 71
     3
 72
    11
 73
     7
 74
     0
 42
0.0000002015020961
 43
0.0000000001
 40
0.0
 40
0.0
 40
0.0
 40
0.0
 40
0.2289377704741448
 40
0.2289377704741448
 40
0.2289377704741448
 40
0.2444943731447518
 40
0.2444943731447518
 40
0.2444943731447518
 40
0.2444943731447518
 10
39.3820671682249
 20
392.7471047757049
 30
0.0
 10
39.37921490843312
 20
392.7434306766361
 30
0.0
 10
39.37607987996711
 20
392.7415196004243
 30
0.0
 10
39.37291656292201
 20
392.7415260320882
 30
0.0
 10
39.37270159203644
 20
392.7415264691675
 30
0.0
 10
39.37248608702836
 20
392.7415357582443
 30
0.0
 10
39.3722701277286
 20
392.7415538457306
 30
0.0
  0
SPLINE
  5
175
330
75
100
AcDbEntity
  8
64647040_EINSATZ
  6
Continuous
 62
     7
100
AcDbSpline
210
0.0
220
0.0
230
1.0
 70
    12
 71
     2
 72
     6
 73
     3
 74
     0
 42
0.0000000099882947
 43
0.0000000001
 40
0.6901303306988721
 40
0.6901303306988721
 40
0.6901303306988721
 40
1.0
 40
1.0
 40
1.0
 10
39.16442838203027
 20
392.7606003186824
 30
0.0
 41
1.0
 10
39.18800135161089
 20
392.6072861093213
 30
0.0
 41
1.0
 10
39.21169188715016
 20
392.4539889354346
 30
0.0
 41
1.0
  0
ARC
  5
176
330
75
100
AcDbEntity
  8
64647040_EINSATZ
  6
Continuous
 62
     7
100
AcDbCircle
 10
38.1771670818
 20
392.2855268616
 30
0.0
 40
1.048151250122008
100
AcDbArc
 50
2.7954905244
 51
9.2488675538
  0
ARC
  5
177
330
75
100
AcDbEntity
  8
64647040_EINSATZ
  6
Continuous
 62
     7
100
AcDbCircle
 10
39.7760022381
 20
392.3329799405
 30
0.0
 40
0.5519434061589825
100
AcDbArc
 50
179.6193905029
 51
180.3806094971
  0
SPLINE
  5
178
330
75
100
AcDbEntity
  8
64647040_EINSATZ
  6
Continuous
 62
     7
100
AcDbSpline
210
0.0
220
0.0
230
1.0
 70
    12
 71
     2
 72
     6
 73
     3
 74
     0
 42
0.0000000101128699
 43
0.0000000001
 40
0.4606819043106519
 40
0.4606819043106519
 40
0.4606819043106519
 40
1.0
 40
1.0
 40
1.0
 10
51.71247933227423
 20
392.2776906061357
 30
0.0
 41
1.0
 10
51.70510272094795
 20
392.0111361859848
 30
0.0
 41
1.0
 10
51.69749403478811
 20
391.7446024808535
 30
0.0
 41
1.0
  0
SPLINE
  5
179
330
75
100
AcDbEntity
  8
64647040_EINSATZ
  6
Continuous
 62
     7
100
AcDbSpline
210
0.0
220
0.0
230
1.0
 70
     8
 71
     3
 72
    20
 73
    16
 74
     0
 42
0.0000000831783518
 43
0.0000000001
 40
0.0
 40
0.0
 40
0.0
 40
0.0
 40
0.231584526762369
 40
0.231584526762369
 40
0.231584526762369
 40
0.4631680519306563
 40
0.4631680519306563
 40
0.4631680519306563
 40
0.6947657382258224
 40
0.6947657382258224
 40
0.6947657382258224
 40
0.9263670666828647
 40
0.9263670666828647
 40
0.9263670666828647
 40
1.0
 40
1.0
 40
1.0
 40
1.0
 10
51.697494034788
 20
391.7446024808535
 30
0.0
 10
51.69718376541387
 20
391.7337336394224
 30
0.0
 10
51.6963980593326
 20
391.7222833363958
 30
0.0
 10
51.69519606335068
 20
391.7112003480364
 30
0.0
 10
51.69399407043787
 20
391.7001173879756
 30
0.0
 10
51.6923422243918
 20
391.6890961014401
 30
0.0
 10
51.69036679818952
 20
391.6790499351369
 30
0.0
 10
51.68839125416905
 20
391.6690031696612
 30
0.0
 10
51.68603706721941
 20
391.6596545828099
 30
0.0
 10
51.68348869562266
 20
391.6517792392202
 30
0.0
 10
51.68094028865616
 20
391.6439037863259
 30
0.0
 10
51.67812697881507
 20
391.6372844374851
 30
0.0
 10
51.67527591412446
 20
391.6324700069464
 30
0.0
 10
51.67435776816689
 20
391.630919586168
 30
0.0
 10
51.67343053455718
 20
391.6295427323553
 30
0.0
 10
51.67250228727506
 20
391.6283515008526
 30
0.0
  0
LINE
  5
17A
330
75
100
AcDbEntity
  8
64647040_EINSATZ
  6
Continuous
 62
     7
100
AcDbLine
 10
51.6725022873
 20
391.6283515009
 30
0.0
 11
51.666953183
 21
391.6212684213
 31
0.0
  0
SPLINE
  5
17B
330
75
100
AcDbEntity
  8
64647040_EINSATZ
  6
Continuous
 62
     7
100
AcDbSpline
210
0.0
220
0.0
230
1.0
 70
     8
 71
     3
 72
    11
 73
     7
 74
     0
 42
0.0000002130074134
 43
0.0000000001
 40
0.0
 40
0.0
 40
0.0
 40
0.0
 40
0.231584040150168
 40
0.231584040150168
 40
0.231584040150168
 40
0.247073797521019
 40
0.247073797521019
 40
0.247073797521019
 40
0.247073797521019
 10
51.66695318300845
 20
391.6212684213353
 30
0.0
 10
51.6640419890682
 20
391.617572285487
 30
0.0
 10
51.66106672418413
 20
391.6156431158975
 30
0.0
 10
51.6582774525055
 20
391.6156402683082
 30
0.0
 10
51.65809088865309
 20
391.6156400778437
 30
0.0
 10
51.6579048142134
 20
391.6156485047056
 30
0.0
 10
51.65771929839778
 20
391.6156655009644
 30
0.0
  0
SPLINE
  5
17C
330
75
100
AcDbEntity
  8
64647040_EINSATZ
  6
Continuous
 62
     7
100
AcDbSpline
210
0.0
220
0.0
230
1.0
 70
    12
 71
     2
 72
     6
 73
     3
 74
     0
 42
0.0000000101392083
 43
0.0000000001
 40
0.3919695679638862
 40
0.3919695679638862
 40
0.3919695679638862
 40
1.0
 40
1.0
 40
1.0
 10
50.95875580799197
 20
391.6797205031526
 30
0.0
 41
1.0
 10
50.94196797773289
 20
391.3803313764384
 30
0.0
 41
1.0
 10
50.92491565614824
 20
391.0809937710302
 30
0.0
 41
1.0
  0
SPLINE
  5
17D
330
75
100
AcDbEntity
  8
64647040_EINSATZ
  6
Continuous
 62
     7
100
AcDbSpline
210
0.0
220
0.0
230
1.0
 70
     8
 71
     3
 72
    20
 73
    16
 74
     0
 42
0.0000000786123328
 43
0.0000000001
 40
0.0
 40
0.0
 40
0.0
 40
0.0
 40
0.2315845260763442
 40
0.2315845260763442
 40
0.2315845260763442
 40
0.4631680514514231
 40
0.4631680514514231
 40
0.4631680514514231
 40
0.6947657379533895
 40
0.6947657379533895
 40
0.6947657379533895
 40
0.9263670666172419
 40
0.9263670666172419
 40
0.9263670666172419
 40
1.0
 40
1.0
 40
1.0
 40
1.0
 10
50.92491565653166
 20
391.0809937711754
 30
0.0
 10
50.92429887163998
 20
391.0701666728016
 30
0.0
 10
50.92273671514285
 20
391.058822088876
 30
0.0
 10
50.92035326495908
 20
391.0479005452912
 30
0.0
 10
50.91796982086109
 20
391.0369790295929
 30
0.0
 10
50.91469898543313
 20
391.0261794006042
 30
0.0
 10
50.91080217288668
 20
391.0163976483288
 30
0.0
 10
50.90690512792689
 20
391.006615312651
 30
0.0
 10
50.90227406309715
 20
390.9975812563624
 30
0.0
 10
50.89728304354854
 20
390.9900453950153
 30
0.0
 10
50.89229195472781
 20
390.9825094290753
 30
0.0
 10
50.88680285077883
 20
390.9762639197127
 30
0.0
 10
50.88126508720352
 20
390.9718272197066
 30
0.0
 10
50.87948172702321
 20
390.9703984418226
 30
0.0
 10
50.87768316185848
 20
390.9691443247486
 30
0.0
 10
50.8758850957599
 20
390.9680758531562
 30
0.0
  0
LINE
  5
17E
330
75
100
AcDbEntity
  8
64647040_EINSATZ
  6
Continuous
 62
     7
100
AcDbLine
 10
50.8758850958
 20
390.9680758532
 30
0.0
 11
50.8651650495
 21
390.9617253378
 31
0.0
  0
SPLINE
  5
17F
330
75
100
AcDbEntity
  8
64647040_EINSATZ
  6
Continuous
 62
     7
100
AcDbSpline
210
0.0
220
0.0
230
1.0
 70
     8
 71
     3
 72
    11
 73
     7
 74
     0
 42
0.0000001322983622
 43
0.0000000001
 40
0.0
 40
0.0
 40
0.0
 40
0.0
 40
0.2315840401501863
 40
0.2315840401501863
 40
0.2315840401501863
 40
0.2726064999487411
 40
0.2726064999487411
 40
0.2726064999487411
 40
0.2726064999487411
 10
50.8651650495121
 20
390.9617253377936
 30
0.0
 10
50.85955605207082
 20
390.9584128474707
 30
0.0
 10
50.85384826345573
 20
390.9568746567305
 30
0.0
 10
50.84851765247342
 20
390.9572374296431
 30
0.0
 10
50.84757339429164
 20
390.9573016908117
 30
0.0
 10
50.84663636730769
 20
390.9574259121241
 30
0.0
 10
50.84570896550043
 20
390.957609037602
 30
0.0
  0
SPLINE
  5
180
330
75
100
AcDbEntity
  8
64647040_EINSATZ
  6
Continuous
 62
     7
100
AcDbSpline
210
0.0
220
0.0
230
1.0
 70
    12
 71
     2
 72
     6
 73
     3
 74
     0
 42
0.0000000101851188
 43
0.0000000001
 40
0.5430524923686829
 40
0.5430524923686829
 40
0.5430524923686829
 40
1.0
 40
1.0
 40
1.0
 10
49.7129843125788
 20
390.9555417908823
 30
0.0
 41
1.0
 10
49.69479588357559
 20
390.7319435582437
 30
0.0
 41
1.0
 10
49.67648547227697
 20
390.508386642874
 30
0.0
 41
1.0
  0
SPLINE
  5
181
330
75
100
AcDbEntity
  8
64647040_EINSATZ
  6
Continuous
 62
     7
100
AcDbSpline
210
0.0
220
0.0
230
1.0
 70
     8
 71
     3
 72
    20
 73
    16
 74
     0
 42
0.0000000740261088
 43
0.0000000001
 40
0.0
 40
0.0
 40
0.0
 40
0.0
 40
0.2315845258588129
 40
0.2315845258588129
 40
0.2315845258588129
 40
0.4631680512995246
 40
0.4631680512995246
 40
0.4631680512995246
 40
0.6947657378671311
 40
0.6947657378671311
 40
0.6947657378671311
 40
0.9263670665966158
 40
0.9263670665966158
 40
0.9263670665966158
 40
1.0
 40
1.0
 40
1.0
 40
1.0
 10
49.67648547299088
 20
390.5083866430103
 30
0.0
 10
49.67560420547944
 20
390.4976269986091
 30
0.0
 10
49.67337205695014
 20
390.4864532639145
 30
0.0
 10
49.66996958075571
 20
390.4757922479008
 30
0.0
 10
49.66656711324898
 20
390.4651312591083
 30
0.0
 10
49.66190019046824
 20
390.4546890499571
 30
0.0
 10
49.65634755291288
 20
390.4453327856885
 30
0.0
 10
49.65079458418762
 20
390.4359759633945
 30
0.0
 10
49.64420224089272
 20
390.4274472725506
 30
0.0
 10
49.63710870312643
 20
390.420455552307
 30
0.0
 10
49.63001506690643
 20
390.4134637350228
 30
0.0
 10
49.62222424221252
 20
390.4078161917122
 30
0.0
 10
49.61437716918856
 20
390.403982181533
 30
0.0
 10
49.61185012783467
 20
390.4027474915736
 30
0.0
 10
49.60930280035863
 20
390.4016890605108
 30
0.0
 10
49.60675745067677
 20
390.4008161634019
 30
0.0
  0
LINE
  5
182
330
75
100
AcDbEntity
  8
64647040_EINSATZ
  6
Continuous
 62
     7
100
AcDbLine
 10
49.6067574507
 20
390.4008161634
 30
0.0
 11
49.5915970159
 21
390.3956309893
 31
0.0
  0
SPLINE
  5
183
330
75
100
AcDbEntity
  8
64647040_EINSATZ
  6
Continuous
 62
     7
100
AcDbSpline
210
0.0
220
0.0
230
1.0
 70
     8
 71
     3
 72
    11
 73
     7
 74
     0
 42
0.0000000979328066
 43
0.0000000001
 40
0.0
 40
0.0
 40
0.0
 40
0.0
 40
0.2315840404747507
 40
0.2315840404747507
 40
0.2315840404747507
 40
0.3260835779644486
 40
0.3260835779644486
 40
0.3260835779644486
 40
0.3260835779644486
 10
49.59159701588387
 20
390.3956309893211
 30
0.0
 10
49.58367245884788
 20
390.392927885265
 30
0.0
 10
49.57562112286332
 20
390.3920092377193
 30
0.0
 10
49.56811244490652
 20
390.3929501356447
 30
0.0
 10
49.5650484698235
 20
390.3933340764416
 30
0.0
 10
49.56204041008254
 20
390.3940319558573
 30
0.0
 10
49.55912908510577
 20
390.395027709563
 30
0.0
  0
SPLINE
  5
184
330
75
100
AcDbEntity
  8
64647040_EINSATZ
  6
Continuous
 62
     7
100
AcDbSpline
210
0.0
220
0.0
230
1.0
 70
    12
 71
     2
 72
     6
 73
     3
 74
     0
 42
0.0000000102515243
 43
0.0000000001
 40
0.8512085095446549
 40
0.8512085095446549
 40
0.8512085095446549
 40
1.0
 40
1.0
 40
1.0
 10
48.05196337127379
 20
390.21019972596
 30
0.0
 41
1.0
 10
48.04462722779673
 20
390.1379988383897
 30
0.0
 41
1.0
 10
48.03728193707627
 20
390.0658033258908
 30
0.0
 41
1.0
  0
ARC
  5
185
330
75
100
AcDbEntity
  8
64647040_EINSATZ
  6
Continuous
 62
     7
100
AcDbCircle
 10
47.9226883884
 20
390.0766430796
 30
0.0
 40
0.1151050905952008
100
AcDbArc
 50
284.5513703028
 51
354.5962962233
  0
LINE
  5
186
330
75
100
AcDbEntity
  8
64647040_EINSATZ
  6
Continuous
 62
     7
100
AcDbLine
 10
47.9516083037
 20
389.965230242
 30
0.0
 11
47.9330406389
 21
389.9615637703
 31
0.0
  0
ARC
  5
187
330
75
100
AcDbEntity
  8
64647040_EINSATZ
  6
Continuous
 62
     7
100
AcDbCircle
 10
47.9180086006
 20
390.0314320515
 30
0.0
 40
0.0714670477056907
100
AcDbArc
 50
239.6866961793
 51
282.1419986623
  0
SPLINE
  5
188
330
75
100
AcDbEntity
  8
64647040_EINSATZ
  6
Continuous
 62
     7
100
AcDbSpline
210
0.0
220
0.0
230
1.0
 70
    12
 71
     2
 72
     6
 73
     3
 74
     0
 42
0.0000000103374966
 43
0.0000000001
 40
0.9607169198057536
 40
0.9607169198057536
 40
0.9607169198057536
 40
1.0
 40
1.0
 40
1.0
 10
46.12335822807005
 20
389.8211565898715
 30
0.0
 41
1.0
 10
46.12118631042422
 20
389.8022806566803
 30
0.0
 41
1.0
 10
46.11901406255859
 20
389.7834051417294
 30
0.0
 41
1.0
  0
ARC
  5
189
330
75
100
AcDbEntity
  8
64647040_EINSATZ
  6
Continuous
 62
     7
100
AcDbCircle
 10
46.0127118107
 20
389.7977512101
 30
0.0
 40
0.1072659263133729
100
AcDbArc
 50
275.6290920022
 51
352.3140591814
  0
LINE
  5
18A
330
75
100
AcDbEntity
  8
64647040_EINSATZ
  6
Continuous
 62
     7
100
AcDbLine
 10
46.0232333339
 20
389.6910025497
 30
0.0
 11
46.0025237949
 21
389.6891046442
 31
0.0
  0
ARC
  5
18B
330
75
100
AcDbEntity
  8
64647040_EINSATZ
  6
Continuous
 62
     7
100
AcDbCircle
 10
45.9919073057
 20
389.7746750019
 30
0.0
 40
0.08622642259055
100
AcDbArc
 50
217.8337223542
 51
277.0723966583
  0
ARC
  5
18C
330
75
100
AcDbEntity
  8
64647040_EINSATZ
  6
Continuous
 62
     7
100
AcDbCircle
 10
43.9554405246
 20
389.6948212239
 30
0.0
 40
0.0980291714644474
100
AcDbArc
 50
268.6015495651
 51
351.5623244302
  0
LINE
  5
18D
330
75
100
AcDbEntity
  8
64647040_EINSATZ
  6
Continuous
 62
     7
100
AcDbLine
 10
43.9530481088
 20
389.5968212504
 30
0.0
 11
43.9316080163
 21
389.5968212504
 31
0.0
  0
ARC
  5
18E
330
75
100
AcDbEntity
  8
64647040_EINSATZ
  6
Continuous
 62
     7
100
AcDbCircle
 10
43.9294790601
 20
389.6951342925
 30
0.0
 40
0.0983360904637043
100
AcDbArc
 50
188.5955871886
 51
271.2405388365
  0
ARC
  5
18F
330
75
100
AcDbEntity
  8
64647040_EINSATZ
  6
Continuous
 62
     7
100
AcDbCircle
 10
41.8929121651
 20
389.77446502
 30
0.0
 40
0.0860383553850645
100
AcDbArc
 50
262.8024367978
 51
322.1564824542
  0
LINE
  5
190
330
75
100
AcDbEntity
  8
64647040_EINSATZ
  6
Continuous
 62
     7
100
AcDbLine
 10
41.8821323302
 20
389.6891046442
 30
0.0
 11
41.8614227912
 21
389.6910025497
 31
0.0
  0
ARC
  5
191
330
75
100
AcDbEntity
  8
64647040_EINSATZ
  6
Continuous
 62
     7
100
AcDbCircle
 10
41.8720254254
 20
389.7978352845
 30
0.0
 40
0.1073575757920892
100
AcDbArc
 50
187.7246180848
 51
264.3322297384
  0
SPLINE
  5
192
330
75
100
AcDbEntity
  8
64647040_EINSATZ
  6
Continuous
 62
     7
100
AcDbSpline
210
0.0
220
0.0
230
1.0
 70
    12
 71
     2
 72
     6
 73
     3
 74
     0
 42
0.0000000103374966
 43
0.0000000001
 40
0.0
 40
0.0
 40
0.0
 40
0.0392830800375388
 40
0.0392830800375388
 40
0.0392830800375388
 10
41.76564206174541
 20
389.7834051417142
 30
0.0
 41
1.0
 10
41.76346981388832
 20
389.8022806565909
 30
0.0
 41
1.0
 10
41.76129789625105
 20
389.8211565897078
 30
0.0
 41
1.0
  0
ARC
  5
193
330
75
100
AcDbEntity
  8
64647040_EINSATZ
  6
Continuous
 62
     7
100
AcDbCircle
 10
39.966503631
 20
390.0316188008
 30
0.0
 40
0.0716195794919753
100
AcDbArc
 50
258.0019653597
 51
300.2979436874
  0
LINE
  5
194
330
75
100
AcDbEntity
  8
64647040_EINSATZ
  6
Continuous
 62
     7
100
AcDbLine
 10
39.9330478214
 20
389.965230242
 30
0.0
 11
39.9516154862
 21
389.9615637703
 31
0.0
  0
ARC
  5
195
330
75
100
AcDbEntity
  8
64647040_EINSATZ
  6
Continuous
 62
     7
100
AcDbCircle
 10
39.9614669153
 20
390.0762164524
 30
0.0
 40
0.1145669402779458
100
AcDbArc
 50
185.2148791347
 51
255.6374542015
  0
SPLINE
  5
196
330
75
100
AcDbEntity
  8
64647040_EINSATZ
  6
Continuous
 62
     7
100
AcDbSpline
210
0.0
220
0.0
230
1.0
 70
    12
 71
     2
 72
     6
 73
     3
 74
     0
 42
0.0000000102515243
 43
0.0000000001
 40
0.8512085095563321
 40
0.8512085095563321
 40
0.8512085095563321
 40
1.0
 40
1.0
 40
1.0
 10
39.83269275384296
 20
390.210199725948
 30
0.0
 41
1.0
 10
39.8400288973194
 20
390.1379988383836
 30
0.0
 41
1.0
 10
39.84737418803922
 20
390.0658033258909
 30
0.0
 41
1.0
  0
SPLINE
  5
197
330
75
100
AcDbEntity
  8
64647040_EINSATZ
  6
Continuous
 62
     7
100
AcDbSpline
210
0.0
220
0.0
230
1.0
 70
     8
 71
     3
 72
    14
 73
    10
 74
     0
 42
0.0000000977230317
 43
0.0000000001
 40
0.6746727814505338
 40
0.6746727814505338
 40
0.6746727814505338
 40
0.6746727814505338
 40
0.6947657373185953
 40
0.6947657373185953
 40
0.6947657373185953
 40
0.9263670664640468
 40
0.9263670664640468
 40
0.9263670664640468
 40
1.0
 40
1.0
 40
1.0
 40
1.0
 10
38.32551627614919
 20
390.395015171769
 30
0.0
 10
38.32490010812348
 20
390.3948044370924
 30
0.0
 10
38.32427996142196
 20
390.3946075794814
 30
0.0
 10
38.32365620385278
 20
390.3944248158257
 30
0.0
 10
38.31646647944232
 20
390.3923181955915
 30
0.0
 10
38.3085989949218
 20
390.3920261094427
 30
0.0
 10
38.3007095951348
 20
390.3935742899498
 30
0.0
 10
38.29816892303219
 20
390.394072860073
 30
0.0
 10
38.29561128963955
 20
390.3947604284581
 30
0.0
 10
38.29305910923176
 20
390.3956309893211
 30
0.0
  0
LINE
  5
198
330
75
100
AcDbEntity
  8
64647040_EINSATZ
  6
Continuous
 62
     7
100
AcDbLine
 10
38.2930591092
 20
390.3956309893
 30
0.0
 11
38.2778986744
 21
390.4008161634
 31
0.0
  0
ARC
  5
199
330
75
100
AcDbEntity
  8
64647040_EINSATZ
  6
Continuous
 62
     7
100
AcDbCircle
 10
38.3322769308
 20
390.5124489323
 30
0.0
 40
0.1241727419741128
100
AcDbArc
 50
181.8747560638
 51
244.0284843198
  0
SPLINE
  5
19A
330
75
100
AcDbEntity
  8
64647040_EINSATZ
  6
Continuous
 62
     7
100
AcDbSpline
210
0.0
220
0.0
230
1.0
 70
    12
 71
     2
 72
     6
 73
     3
 74
     0
 42
0.0000000101851267
 43
0.0000000001
 40
0.0
 40
0.0
 40
0.0
 40
0.4518772099450743
 40
0.4518772099450743
 40
0.4518772099450743
 10
38.2081706551394
 20
390.5083866424346
 30
0.0
 41
1.0
 10
38.19006341649028
 20
390.7294629662946
 30
0.0
 41
1.0
 10
38.17207546812023
 20
390.9505796955904
 30
0.0
 41
1.0
  0
SPLINE
  5
19B
330
75
100
AcDbEntity
  8
64647040_EINSATZ
  6
Continuous
 62
     7
100
AcDbSpline
210
0.0
220
0.0
230
1.0
 70
     8
 71
     3
 72
    11
 73
     7
 74
     0
 42
0.0000001323825267
 43
0.0000000001
 40
0.7270388836867242
 40
0.7270388836867242
 40
0.7270388836867242
 40
0.7270388836867242
 40
0.9263670665973863
 40
0.9263670665973863
 40
0.9263670665973863
 40
1.0
 40
1.0
 40
1.0
 40
1.0
 10
37.03902806839447
 20
390.9576238841445
 30
0.0
 10
37.03452526064717
 20
390.956734684648
 30
0.0
 10
37.02971945317791
 20
390.9572254074266
 30
0.0
 10
37.02490874925179
 20
390.9590802078679
 30
0.0
 10
37.02310869488189
 20
390.9597742313811
 30
0.0
 10
37.02129750759868
 20
390.9606585181764
 30
0.0
 10
37.01949107560355
 20
390.9617253377936
 30
0.0
  0
LINE
  5
19C
330
75
100
AcDbEntity
  8
64647040_EINSATZ
  6
Continuous
 62
     7
100
AcDbLine
 10
37.0194910756
 20
390.9617253378
 30
0.0
 11
37.0087710294
 21
390.9680758532
 31
0.0
  0
SPLINE
  5
19D
330
75
100
AcDbEntity
  8
64647040_EINSATZ
  6
Continuous
 62
     7
100
AcDbSpline
210
0.0
220
0.0
230
1.0
 70
     8
 71
     3
 72
    20
 73
    16
 74
     0
 42
0.0000000785906975
 43
0.0000000001
 40
0.0
 40
0.0
 40
0.0
 40
0.0
 40
0.2315840404726008
 40
0.2315840404726008
 40
0.2315840404726008
 40
0.4631672028362716
 40
0.4631672028362716
 40
0.4631672028362716
 40
0.6947632589842127
 40
0.6947632589842127
 40
0.6947632589842127
 40
0.9263655154548205
 40
0.9263655154548205
 40
0.9263655154548205
 40
1.0
 40
1.0
 40
1.0
 40
1.0
 10
37.00877102935576
 20
390.9680758531563
 30
0.0
 10
37.00318800814409
 20
390.9713934728863
 30
0.0
 10
36.99754946998267
 20
390.9765768037551
 30
0.0
 10
36.9923190548825
 20
390.9831958890783
 30
0.0
 10
36.98708865124426
 20
390.9898149598965
 30
0.0
 10
36.98212180973725
 20
390.9980522576664
 30
0.0
 10
36.97782130299525
 20
391.007224054273
 30
0.0
 10
36.97352056166883
 20
391.0163963511835
 30
0.0
 10
36.96976713911818
 20
391.0267561420169
 30
0.0
 10
36.96686193294337
 20
391.0374436964287
 30
0.0
 10
36.9639566552538
 20
391.048131513926
 30
0.0
 10
36.96181907539888
 20
391.0594418438407
 30
0.0
 10
36.96061925494678
 20
391.070436602264
 30
0.0
 10
36.96023286276847
 20
391.0739773725932
 30
0.0
 10
36.95993911415633
 20
391.0775067331035
 30
0.0
 10
36.95974047084561
 20
391.0809937703183
 30
0.0
  0
SPLINE
  5
19E
330
75
100
AcDbEntity
  8
64647040_EINSATZ
  6
Continuous
 62
     7
100
AcDbSpline
210
0.0
220
0.0
230
1.0
 70
    12
 71
     2
 72
     6
 73
     3
 74
     0
 42
0.0000000101392083
 43
0.0000000001
 40
0.0
 40
0.0
 40
0.0
 40
0.6080304328759798
 40
0.6080304328759798
 40
0.6080304328759798
 10
36.95974047084564
 20
391.0809937703183
 30
0.0
 41
1.0
 10
36.94268814923831
 20
391.3803313761243
 30
0.0
 41
1.0
 10
36.92590031895625
 20
391.6797205032554
 30
0.0
 41
1.0
  0
SPLINE
  5
19F
330
75
100
AcDbEntity
  8
64647040_EINSATZ
  6
Continuous
 62
     7
100
AcDbSpline
210
0.0
220
0.0
230
1.0
 70
     8
 71
     3
 72
    11
 73
     7
 74
     0
 42
0.0000002154003916
 43
0.0000000001
 40
0.7527521498848991
 40
0.7527521498848991
 40
0.7527521498848991
 40
0.7527521498848991
 40
0.9263670666532098
 40
0.9263670666532098
 40
0.9263670666532098
 40
1.0
 40
1.0
 40
1.0
 40
1.0
 10
36.22697149832734
 20
391.6156737701517
 30
0.0
 10
36.22488490083983
 20
391.6154825630227
 30
0.0
 10
36.22269917993808
 20
391.6163501718641
 30
0.0
 10
36.22051859799466
 20
391.6182525626438
 30
0.0
 10
36.21958183208806
 20
391.6190698191697
 30
0.0
 10
36.2186405203345
 20
391.620078044958
 30
0.0
 10
36.21770294210724
 20
391.6212684213354
 30
0.0
  0
LINE
  5
1A0
330
75
100
AcDbEntity
  8
64647040_EINSATZ
  6
Continuous
 62
     7
100
AcDbLine
 10
36.2177029421
 20
391.6212684213
 30
0.0
 11
36.2121538378
 21
391.6283515009
 31
0.0
  0
ARC
  5
1A1
330
75
100
AcDbEntity
  8
64647040_EINSATZ
  6
Continuous
 62
     7
100
AcDbCircle
 10
36.4323224773
 20
391.7364954339
 30
0.0
 40
0.2452943946506494
100
AcDbArc
 50
178.1060136742
 51
206.1596622302
  0
SPLINE
  5
1A2
330
75
100
AcDbEntity
  8
64647040_EINSATZ
  6
Continuous
 62
     7
100
AcDbSpline
210
0.0
220
0.0
230
1.0
 70
    12
 71
     2
 72
     6
 73
     3
 74
     0
 42
0.0000000101128699
 43
0.0000000001
 40
0.0
 40
0.0
 40
0.0
 40
0.5393180947071273
 40
0.5393180947071273
 40
0.5393180947071273
 10
36.18716208931409
 20
391.7446024817292
 30
0.0
 41
1.0
 10
36.17955340316774
 20
392.0111361863869
 30
0.0
 41
1.0
 10
36.17217679185445
 20
392.2776906060515
 30
0.0
 41
1.0
  0
ELLIPSE
  5
1A3
330
75
100
AcDbEntity
  8
64647040_EINSATZ
  6
Continuous
 62
     7
100
AcDbEllipse
 10
43.9423280626
 20
393.2491802458
 30
0.0
 11
9.050000000000001
 21
0.0
 31
0.0
210
0.0
220
0.0
230
1.0
 40
0.3420201433
 41
0.5548288893222506
 42
2.605209350181662
  0
LINE
  5
1A4
330
75
100
AcDbEntity
  8
64647040_EINSATZ
  6
Continuous
 62
     7
100
AcDbLine
 10
34.7771766726
 20
392.8216550666
 30
0.0
 11
34.9033499677
 21
392.8216550666
 31
0.0
  0
ARC
  5
1A5
330
75
100
AcDbEntity
  8
64647040_EINSATZ
  6
Continuous
 62
     7
100
AcDbCircle
 10
34.7739374282
 20
392.9193488565
 30
0.0
 40
0.0977474771856154
100
AcDbArc
 50
182.1837023847
 51
271.8990671551
  0
LINE
  5
1A6
330
75
100
AcDbEntity
  8
64647040_EINSATZ
  6
Continuous
 62
     7
100
AcDbLine
 10
42.6923280626
 20
396.3838466377
 30
0.0
 11
42.6923280626
 21
396.3406928293
 31
0.0
  0
LINE
  5
1A7
330
75
100
AcDbEntity
  8
64647040_EINSATZ
  6
Continuous
 62
     7
100
AcDbLine
 10
42.6923280626
 20
396.3838466377
 30
0.0
 11
42.6923280626
 21
396.5123311147
 31
0.0
  0
LINE
  5
1A8
330
75
100
AcDbEntity
  8
64647040_EINSATZ
  6
Continuous
 62
     7
100
AcDbLine
 10
45.1923280626
 20
396.5123311147
 30
0.0
 11
45.1923280626
 21
396.3838466377
 31
0.0
  0
LINE
  5
1A9
330
75
100
AcDbEntity
  8
64647040_EINSATZ
  6
Continuous
 62
     7
100
AcDbLine
 10
45.1923280626
 20
396.3406928293
 30
0.0
 11
45.1923280626
 21
396.3838466377
 31
0.0
  0
ARC
  5
1AA
330
75
100
AcDbEntity
  8
64647040_EINSATZ
  6
Continuous
 62
     7
100
AcDbCircle
 10
53.1109386126
 20
392.9191126841
 30
0.0
 40
0.0975189878558452
100
AcDbArc
 50
267.9671972884
 51
357.9500331719
  0
LINE
  5
1AB
330
75
100
AcDbEntity
  8
64647040_EINSATZ
  6
Continuous
 62
     7
100
AcDbLine
 10
52.9813061575
 20
392.8216550666
 30
0.0
 11
53.1074794525
 21
392.8216550666
 31
0.0
  0
ELLIPSE
  5
1AC
330
75
100
AcDbEntity
  8
64647040_EINSATZ
  6
Continuous
 62
     7
100
AcDbEllipse
 10
43.9423280626
 20
393.2491802458
 30
0.0
 11
9.249999999997565
 21
1.387778780781446E-13
 31
0.0
210
0.0
220
0.0
230
1.0
 40
0.3420201433
 41
1.435246479414906
 42
1.706346174174825
  0
ELLIPSE
  5
1AD
330
75
100
AcDbEntity
  8
64647040_EINSATZ
  6
Continuous
 62
     7
100
AcDbEllipse
 10
43.9423280626
 20
393.3431495078
 30
0.0
 11
9.350000000005808
 21
1.387778780781446E-14
 31
0.0
210
0.0
220
0.0
230
1.0
 40
0.3420201433
 41
3.141592653589793
 42
3.275683969783708
  0
ELLIPSE
  5
1AE
330
75
100
AcDbEntity
  8
64647040_EINSATZ
  6
Continuous
 62
     7
100
AcDbEllipse
 10
43.9423280626
 20
393.3431495078
 30
0.0
 11
-9.349999999983769
 21
-1.387778780781446E-14
 31
0.0
210
0.0
220
0.0
230
1.0
 40
0.3420201433
 41
3.007501337395713
 42
3.141592653589789
  0
SPLINE
  5
1AF
330
75
100
AcDbEntity
  8
64647040_EINSATZ
  6
Continuous
 62
     7
100
AcDbSpline
210
0.0
220
0.0
230
1.0
 70
     8
 71
     3
 72
    11
 73
     7
 74
     0
 42
0.0000003683914279
 43
0.0000000001
 40
0.0
 40
0.0
 40
0.0
 40
0.0
 40
0.2289377704749271
 40
0.2289377704749271
 40
0.2289377704749271
 40
0.2362616721746797
 40
0.2362616721746797
 40
0.2362616721746797
 40
0.2362616721746797
 10
39.22407100993428
 20
392.3293134687495
 30
0.0
 10
39.22409626253706
 20
392.3255120757491
 30
0.0
 10
39.22386998828218
 20
392.3234496474503
 30
0.0
 10
39.22340527004252
 20
392.3232927166448
 30
0.0
 10
39.22339040197963
 20
392.3232876958453
 30
0.0
 10
39.22337527631066
 20
392.3232846201058
 30
0.0
 10
39.22335989449705
 20
392.3232834842751
 30
0.0
  0
SPLINE
  5
1B0
330
75
100
AcDbEntity
  8
64647040_EINSATZ
  6
Continuous
 62
     7
100
AcDbSpline
210
0.0
220
0.0
230
1.0
 70
     8
 71
     3
 72
    11
 73
     7
 74
     0
 42
0.0000003717636871
 43
0.0000000001
 40
0.761512146182609
 40
0.761512146182609
 40
0.761512146182609
 40
0.761512146182609
 40
0.9310036385224203
 40
0.9310036385224203
 40
0.9310036385224203
 40
1.0
 40
1.0
 40
1.0
 40
1.0
 10
48.66131605305445
 20
392.3232890063608
 30
0.0
 10
48.66095480071294
 20
392.3232887569397
 30
0.0
 10
48.66072332734627
 20
392.3243088572417
 30
0.0
 10
48.66063081744305
 20
392.3263223174143
 30
0.0
 10
48.66059265933603
 20
392.3271528212421
 30
0.0
 10
48.66057740283931
 20
392.3281524936351
 30
0.0
 10
48.66058511518143
 20
392.3293134687495
 30
0.0
  0
SPLINE
  5
1B1
330
75
100
AcDbEntity
  8
64647040_EINSATZ
  6
Continuous
 62
     7
100
AcDbSpline
210
0.0
220
0.0
230
1.0
 70
     8
 71
     3
 72
    11
 73
     7
 74
     0
 42
0.0000003617126088
 43
0.0000000001
 40
0.0
 40
0.0
 40
0.0
 40
0.0
 40
0.2274863332644969
 40
0.2274863332644969
 40
0.2274863332644969
 40
0.2378840060439273
 40
0.2378840060439273
 40
0.2378840060439273
 40
0.2378840060439273
 10
37.47041386394413
 20
392.3293134687495
 30
0.0
 10
37.47043220156798
 20
392.3255270308663
 30
0.0
 10
37.4701314472229
 20
392.3234662587136
 30
0.0
 10
37.46953338557975
 20
392.3232947646623
 30
0.0
 10
37.4695060457672
 20
392.3232869249767
 30
0.0
 10
37.46947805013686
 20
392.3232830200015
 30
0.0
 10
37.46944940504335
 20
392.3232830343086
 30
0.0
  0
SPLINE
  5
1B2
330
75
100
AcDbEntity
  8
64647040_EINSATZ
  6
Continuous
 62
     7
100
AcDbSpline
210
0.0
220
0.0
230
1.0
 70
     8
 71
     3
 72
    11
 73
     7
 74
     0
 42
0.0000003633118672
 43
0.0000000001
 40
0.762008179256307
 40
0.762008179256307
 40
0.762008179256307
 40
0.762008179256307
 40
0.9340165527280078
 40
0.9340165527280078
 40
0.9340165527280078
 40
1.0
 40
1.0
 40
1.0
 40
1.0
 10
50.4152150974257
 20
392.3232887226318
 30
0.0
 10
50.41473905329115
 20
392.3232883088505
 30
0.0
 10
50.4144311542616
 20
392.3243433915
 30
0.0
 10
50.41430677458479
 20
392.3264256901413
 30
0.0
 10
50.4142584179207
 20
392.3272352517876
 30
0.0
 10
50.41423686958837
 20
392.3282001895664
 30
0.0
 10
50.41424226117158
 20
392.3293134687495
 30
0.0
  0
LINE
  5
1B3
330
75
100
AcDbEntity
  8
64647040_EINSATZ
  6
Continuous
 62
     7
100
AcDbLine
 10
43.309281218
 20
392.3973021172
 30
0.0
 11
43.2841437389
 21
392.4507531847
 31
0.0
  0
SPLINE
  5
1B4
330
75
100
AcDbEntity
  8
64647040_EINSATZ
  6
Continuous
 62
     7
100
AcDbSpline
210
0.0
220
0.0
230
1.0
 70
    12
 71
     2
 72
     6
 73
     3
 74
     0
 42
0.0000011105898116
 43
0.0000000001
 40
0.0
 40
0.0
 40
0.0
 40
1.0
 40
1.0
 40
1.0
 10
43.40787304949411
 20
392.2802045230832
 30
0.0
 41
1.0
 10
43.4048989155452
 20
392.2837277723618
 30
0.0
 41
1.0
 10
43.40232394522749
 20
392.2872876026005
 30
0.0
 41
1.0
  0
ARC
  5
1B5
330
75
100
AcDbEntity
  8
64647040_EINSATZ
  6
Continuous
 62
     7
100
AcDbCircle
 10
44.3388061532
 20
393.1736518267
 30
0.0
 40
1.289434164123828
100
AcDbArc
 50
217.0194123975
 51
223.4250863582
  0
SPLINE
  5
1B6
330
75
100
AcDbEntity
  8
64647040_EINSATZ
  6
Continuous
 62
     7
100
AcDbSpline
210
0.0
220
0.0
230
1.0
 70
     8
 71
     3
 72
     8
 73
     4
 74
     0
 42
0.0000002741158625
 43
0.0000000001
 40
0.7772426216633472
 40
0.7772426216633472
 40
0.7772426216633472
 40
0.7772426216633472
 40
1.0
 40
1.0
 40
1.0
 40
1.0
 10
43.41167357539602
 20
392.2742527614284
 30
0.0
 10
43.41235062629182
 20
392.2742854778247
 30
0.0
 10
43.41130630045775
 20
392.2761373898666
 30
0.0
 10
43.40787304949412
 20
392.2802045230832
 30
0.0
  0
SPLINE
  5
1B7
330
75
100
AcDbEntity
  8
64647040_EINSATZ
  6
Continuous
 62
     7
100
AcDbSpline
210
0.0
220
0.0
230
1.0
 70
     8
 71
     3
 72
    15
 73
    11
 74
     0
 42
0.0000000093956665
 43
0.0000000001
 40
0.0
 40
0.0
 40
0.0
 40
0.0
 40
0.0091976050446554
 40
0.1285709953893777
 40
0.2648622947113921
 40
0.4290729139960729
 40
0.5922438138038536
 40
0.7747597299330382
 40
0.9066596989118959
 40
1.0
 40
1.0
 40
1.0
 40
1.0
 10
44.40764377665108
 20
392.2269412502373
 30
0.0
 10
44.40482469268755
 20
392.2247659162736
 30
0.0
 10
44.3708562210041
 20
392.1985975064681
 30
0.0
 10
44.28220328263586
 20
392.1618518925276
 30
0.0
 10
44.14405737887794
 20
392.121584383113
 30
0.0
 10
43.97634233428892
 20
392.1042313544916
 30
0.0
 10
43.78927339962141
 20
392.1130093918172
 30
0.0
 10
43.62731414119561
 20
392.1500344032361
 30
0.0
 10
43.49450096962752
 20
392.2088235186167
 30
0.0
 10
43.43692936630889
 20
392.256139419048
 30
0.0
 10
43.40916124760899
 20
392.2794149416625
 30
0.0
  0
LINE
  5
1B8
330
75
100
AcDbEntity
  8
64647040_EINSATZ
  6
Continuous
 62
     7
100
AcDbLine
 10
44.4228171667
 20
392.2384835336
 30
0.0
 11
44.4076437767
 21
392.2269412502
 31
0.0
  0
LINE
  5
1B9
330
75
100
AcDbEntity
  8
64647040_EINSATZ
  6
Continuous
 62
     7
100
AcDbLine
 10
44.4267330815
 20
392.2414623406
 30
0.0
 11
44.4228171667
 21
392.2384835336
 31
0.0
  0
ARC
  5
1BA
330
75
100
AcDbEntity
  8
64647040_EINSATZ
  6
Continuous
 62
     7
100
AcDbCircle
 10
44.262372881
 20
392.5286594142
 30
0.0
 40
0.330902454884107
100
AcDbArc
 50
299.7821026314
 51
323.9359840628
  0
ARC
  5
1BB
330
75
100
AcDbEntity
  8
64647040_EINSATZ
  6
Continuous
 62
     7
100
AcDbCircle
 10
44.2619381072
 20
392.6170305007
 30
0.0
 40
0.3898304608089032
100
AcDbArc
 50
313.4152468298
 51
322.337716792
  0
LINE
  5
1BC
330
75
100
AcDbEntity
  8
64647040_EINSATZ
  6
Continuous
 62
     7
100
AcDbLine
 10
50.9724424481
 20
390.2978264902
 30
0.0
 11
50.9813741615
 21
390.3025477178
 31
0.0
  0
ARC
  5
1BD
330
75
100
AcDbEntity
  8
64647040_EINSATZ
  6
Continuous
 62
     7
100
AcDbCircle
 10
39.2520784125
 20
394.7383551303
 30
0.0
 40
5.021882612193457
100
AcDbArc
 50
239.1753645723
 51
243.6609059265
  0
ARC
  5
1BE
330
75
100
AcDbEntity
  8
64647040_EINSATZ
  6
Continuous
 62
     7
100
AcDbCircle
 10
47.7304102617
 20
393.5616979452
 30
0.0
 40
3.2742772408192
100
AcDbArc
 50
292.5188283925
 51
311.6072132214
  0
ARC
  5
1BF
330
75
100
AcDbEntity
  8
64647040_EINSATZ
  6
Continuous
 62
     7
100
AcDbCircle
 10
39.9831285537
 20
393.3624844948
 30
0.0
 40
3.015484797401816
100
AcDbArc
 50
227.8252999004
 51
244.9273983406
  0
ARC
  5
1C0
330
75
100
AcDbEntity
  8
64647040_EINSATZ
  6
Continuous
 62
     7
100
AcDbCircle
 10
49.0938535635
 20
391.8311879354
 30
0.0
 40
1.02858662627765
100
AcDbArc
 50
5.7147607677
 51
57.7279126154
  0
ARC
  5
1C1
330
75
100
AcDbEntity
  8
64647040_EINSATZ
  6
Continuous
 62
     7
100
AcDbCircle
 10
39.1584856273
 20
391.5286254045
 30
0.0
 40
1.493747671431294
100
AcDbArc
 50
120.9200245889
 51
149.3738175966
  0
SPLINE
  5
1C2
330
75
100
AcDbEntity
  8
64647040_EINSATZ
  6
Continuous
 62
     7
100
AcDbSpline
210
0.0
220
0.0
230
1.0
 70
     8
 71
     3
 72
    12
 73
     8
 74
     0
 42
0.0000000104921317
 43
0.0000000001
 40
0.0
 40
0.0
 40
0.0
 40
0.0
 40
0.0790486220892468
 40
0.3334608523044716
 40
0.5887148420786289
 40
0.8430121954492051
 40
1.0
 40
1.0
 40
1.0
 40
1.0
 10
47.88731206698071
 20
391.0451724791636
 30
0.0
 10
47.91804009303853
 20
391.0614217875986
 30
0.0
 10
48.02835474894088
 20
391.1201172008402
 30
0.0
 10
48.19940636587653
 20
391.2445897416262
 30
0.0
 10
48.37448437618524
 20
391.4071906341942
 30
0.0
 10
48.49405526729743
 20
391.5641205792966
 30
0.0
 10
48.52910218100545
 20
391.658310809788
 30
0.0
 10
48.54432195267896
 20
391.7007663551194
 30
0.0
  0
ARC
  5
1C3
330
75
100
AcDbEntity
  8
64647040_EINSATZ
  6
Continuous
 62
     7
100
AcDbCircle
 10
40.8962055381
 20
392.6843153683
 30
0.0
 40
1.873673474360136
100
AcDbArc
 50
227.1239483983
 51
245.9102447691
  0
ARC
  5
1C4
330
75
100
AcDbEntity
  8
64647040_EINSATZ
  6
Continuous
 62
     7
100
AcDbCircle
 10
47.6697899583
 20
391.858906384
 30
0.0
 40
0.7139571597425928
100
AcDbArc
 50
6.0060800846
 51
58.2961628873
  0
SPLINE
  5
1C5
330
75
100
AcDbEntity
  8
64647040_EINSATZ
  6
Continuous
 62
     7
100
AcDbSpline
210
0.0
220
0.0
230
1.0
 70
     8
 71
     3
 72
    12
 73
     8
 74
     0
 42
0.0000000134575388
 43
0.0000000001
 40
0.0
 40
0.0
 40
0.0
 40
0.0
 40
0.1569129013790012
 40
0.3905690305900097
 40
0.6385192370806033
 40
0.8771028419530429
 40
1.0
 40
1.0
 40
1.0
 40
1.0
 10
39.51027244236049
 20
391.9383857812936
 30
0.0
 10
39.50980995685003
 20
391.9704254929482
 30
0.0
 10
39.51008485736484
 20
392.0382056606379
 30
0.0
 10
39.5587131769371
 20
392.1631967734809
 30
0.0
 10
39.65560846282779
 20
392.3038727582405
 30
0.0
 10
39.77999225687743
 20
392.4293645701916
 30
0.0
 10
39.87465104502008
 20
392.495118268186
 30
0.0
 10
39.91285575609191
 20
392.5214037282497
 30
0.0
  0
ARC
  5
1C6
330
75
100
AcDbEntity
  8
64647040_EINSATZ
  6
Continuous
 62
     7
100
AcDbCircle
 10
45.8849570938
 20
392.2586836358
 30
0.0
 40
1.030508149983014
100
AcDbArc
 50
290.0908628361
 51
328.2988201191
  0
SPLINE
  5
1C7
330
75
100
AcDbEntity
  8
64647040_EINSATZ
  6
Continuous
 62
     7
100
AcDbSpline
210
0.0
220
0.0
230
1.0
 70
     8
 71
     3
 72
    13
 73
     9
 74
     0
 42
0.0000000090393714
 43
0.0000000001
 40
0.0
 40
0.0
 40
0.0
 40
0.0
 40
0.1597976392846386
 40
0.3378259315877334
 40
0.5267616534588926
 40
0.7227056675290885
 40
0.919570313544976
 40
1.0
 40
1.0
 40
1.0
 40
1.0
 10
41.07673265090162
 20
391.8330741521484
 30
0.0
 10
41.09137084975494
 20
391.7853258537629
 30
0.0
 10
41.11912135329054
 20
391.7002163544794
 30
0.0
 10
41.220446896861
 20
391.568764563597
 30
0.0
 10
41.36501979682753
 20
391.4434617589454
 30
0.0
 10
41.55775252847384
 20
391.3264146549641
 30
0.0
 10
41.74839744533266
 20
391.236155794229
 30
0.0
 10
41.8707537178841
 20
391.1950558231667
 30
0.0
 10
41.91252719105789
 20
391.1811543435331
 30
0.0
  0
SPLINE
  5
1C8
330
75
100
AcDbEntity
  8
64647040_EINSATZ
  6
Continuous
 62
     7
100
AcDbSpline
210
0.0
220
0.0
230
1.0
 70
     8
 71
     3
 72
    11
 73
     7
 74
     0
 42
0.0000000257775687
 43
0.0000000001
 40
0.0
 40
0.0
 40
0.0
 40
0.0
 40
0.2173903213402626
 40
0.5299275903947025
 40
0.8455304386856733
 40
1.0
 40
1.0
 40
1.0
 40
1.0
 10
46.39691282647444
 20
392.2410105116479
 30
0.0
 10
46.43143653155425
 20
392.2147052915026
 30
0.0
 10
46.50174840212033
 20
392.1604164694912
 30
0.0
 10
46.57130769900591
 20
392.0674607835461
 30
0.0
 10
46.60145370731412
 20
391.989785909457
 30
0.0
 10
46.60414793729781
 20
391.9491785282336
 30
0.0
 10
46.60482806255786
 20
391.9336105766697
 30
0.0
  0
SPLINE
  5
1C9
330
75
100
AcDbEntity
  8
64647040_EINSATZ
  6
Continuous
 62
     7
100
AcDbSpline
210
0.0
220
0.0
230
1.0
 70
     8
 71
     3
 72
    11
 73
     7
 74
     0
 42
0.0000000285895452
 43
0.0000000001
 40
0.0
 40
0.0
 40
0.0
 40
0.0
 40
0.0286772208109739
 40
0.4047468848532625
 40
0.726035186026616
 40
1.0
 40
1.0
 40
1.0
 40
1.0
 10
41.2815936405165
 20
391.9212177631836
 30
0.0
 10
41.2809220420114
 20
391.9240391341398
 30
0.0
 10
41.27286340536772
 20
391.9583914795989
 30
0.0
 10
41.29321212523216
 20
392.0222676426088
 30
0.0
 10
41.34674118745499
 20
392.1196500203881
 30
0.0
 10
41.41093104057767
 20
392.1771626705578
 30
0.0
 10
41.44624400852503
 20
392.2085461629896
 30
0.0
  0
LINE
  5
1CA
330
75
100
AcDbEntity
  8
64647040_EINSATZ
  6
Continuous
 62
     7
100
AcDbLine
 10
35.0792480684
 20
393.0076936764
 30
0.0
 11
35.5783856281
 21
391.5659881139
 31
0.0
  0
LINE
  5
1CB
330
75
100
AcDbEntity
  8
64647040_EINSATZ
  6
Continuous
 62
     7
100
AcDbLine
 10
52.306270497
 20
391.5659881139
 30
0.0
 11
52.8054080568
 21
393.0076936764
 31
0.0
  0
LINE
  5
1CC
330
75
100
AcDbEntity
  8
64647040_EINSATZ
  6
Continuous
 62
     7
100
AcDbLine
 10
40.8587031159
 20
392.9296938404
 30
0.0
 11
41.0712218697
 21
391.8504178256
 31
0.0
  0
LINE
  5
1CD
330
75
100
AcDbEntity
  8
64647040_EINSATZ
  6
Continuous
 62
     7
100
AcDbLine
 10
46.8134342554
 20
391.8504178256
 30
0.0
 11
46.9609092503
 21
392.5993692568
 31
0.0
  0
LINE
  5
1CE
330
75
100
AcDbEntity
  8
64647040_EINSATZ
  6
Continuous
 62
     7
100
AcDbLine
 10
37.4576540917
 20
392.3232827308
 30
0.0
 11
37.5666604877
 21
391.7696939926
 31
0.0
  0
LINE
  5
1CF
330
75
100
AcDbEntity
  8
64647040_EINSATZ
  6
Continuous
 62
     7
100
AcDbLine
 10
50.3179956374
 20
391.7696939926
 30
0.0
 11
50.4270020335
 21
392.3232827308
 31
0.0
  0
LINE
  5
1D0
330
75
100
AcDbEntity
  8
64647040_EINSATZ
  6
Continuous
 62
     7
100
AcDbLine
 10
39.2182344737
 20
392.3232827308
 30
0.0
 11
39.299079375
 21
391.8302566701
 31
0.0
  0
LINE
  5
1D1
330
75
100
AcDbEntity
  8
64647040_EINSATZ
  6
Continuous
 62
     7
100
AcDbLine
 10
48.5855767501
 20
391.8302566701
 30
0.0
 11
48.6664216514
 21
392.3232827308
 31
0.0
  0
ARC
  5
1D2
330
75
100
AcDbEntity
  8
64647040_EINSATZ
  6
Continuous
 62
     7
100
AcDbCircle
 10
50.4409393662
 20
392.4424648236
 30
0.0
 40
2.692237413565682
100
AcDbArc
 50
31.4179737608
 51
65.2063675905
  0
ARC
  5
1D3
330
75
100
AcDbEntity
  8
64647040_EINSATZ
  6
Continuous
 62
     7
100
AcDbCircle
 10
37.3734592561
 20
392.5039066297
 30
0.0
 40
2.600281843160344
100
AcDbArc
 50
116.088832002
 51
149.3386330824
  0
SPLINE
  5
1D4
330
75
100
AcDbEntity
  8
64647040_EINSATZ
  6
Continuous
 62
     7
100
AcDbSpline
210
0.0
220
0.0
230
1.0
 70
     8
 71
     3
 72
    11
 73
     7
 74
     0
 42
0.0000000047916694
 43
0.0000000001
 40
0.5343010177117211
 40
0.5343010177117211
 40
0.5343010177117211
 40
0.5343010177117211
 40
0.6429542721961155
 40
0.7867736188916082
 40
0.9298680761581547
 40
0.9589742715169522
 40
0.9589742715169522
 40
0.9589742715169522
 40
0.9589742715169522
 10
52.50655858469034
 20
392.1313253609088
 30
0.0
 10
52.57076605862876
 20
392.1874992249522
 30
0.0
 10
52.70960851649988
 20
392.3197738297618
 30
0.0
 10
52.88805988200448
 20
392.531843789304
 30
0.0
 10
52.99878227720502
 20
392.7124353743328
 30
0.0
 10
53.04205580435114
 20
392.8054257243332
 30
0.0
 10
53.04925690204532
 20
392.8215264511166
 30
0.0
  0
SPLINE
  5
1D5
330
75
100
AcDbEntity
  8
64647040_EINSATZ
  6
Continuous
 62
     7
100
AcDbSpline
210
0.0
220
0.0
230
1.0
 70
     8
 71
     3
 72
    11
 73
     7
 74
     0
 42
0.0000000047937146
 43
0.0000000001
 40
0.0408955944908444
 40
0.0408955944908444
 40
0.0408955944908444
 40
0.0408955944908444
 40
0.0755436905160673
 40
0.2156695419250481
 40
0.3571087503323244
 40
0.4658311580310354
 40
0.4658311580310354
 40
0.4658311580310354
 40
0.4658311580310354
 10
34.83551795160262
 20
392.8215047102977
 30
0.0
 10
34.84413877262338
 20
392.8022484244258
 30
0.0
 10
34.88825290318766
 20
392.708019697531
 30
0.0
 10
35.00003601759756
 20
392.527616067705
 30
0.0
 10
35.17646926300089
 20
392.3183968259225
 30
0.0
 10
35.31405938870135
 20
392.1873370218907
 30
0.0
 10
35.37831791365141
 20
392.1311308482721
 30
0.0
  0
LINE
  5
1D6
330
75
100
AcDbEntity
  8
64647040_EINSATZ
  6
Continuous
 62
     7
100
AcDbLine
 10
42.6717911998
 20
391.5507253086
 30
0.0
 11
43.6764163939
 21
392.1458615218
 31
0.0
  0
LINE
  5
1D7
330
75
100
AcDbEntity
  8
64647040_EINSATZ
  6
Continuous
 62
     7
100
AcDbLine
 10
41.7841065408
 20
391.0248642317
 30
0.0
 11
42.0075473486
 21
391.1572297318
 31
0.0
  0
LINE
  5
1D8
330
75
100
AcDbEntity
  8
64647040_EINSATZ
  6
Continuous
 62
     7
100
AcDbLine
 10
40.9152786189
 20
390.5101738155
 30
0.0
 11
41.1047376281
 21
390.622408625
 31
0.0
  0
LINE
  5
1D9
330
75
100
AcDbEntity
  8
64647040_EINSATZ
  6
Continuous
 62
     7
100
AcDbLine
 10
40.002733223
 20
389.9695853309
 30
0.0
 11
40.2276360057
 21
390.1028168995
 31
0.0
  0
LINE
  5
1DA
330
75
100
AcDbEntity
  8
64647040_EINSATZ
  6
Continuous
 62
     7
100
AcDbLine
 10
41.3828656431
 20
392.0881749102
 30
0.0
 11
43.411520629
 21
392.2740890107
 31
0.0
  0
LINE
  5
1DB
330
75
100
AcDbEntity
  8
64647040_EINSATZ
  6
Continuous
 62
     7
100
AcDbLine
 10
39.6681815073
 20
391.9310343609
 30
0.0
 11
41.0307593824
 21
392.0559064766
 31
0.0
  0
LINE
  5
1DC
330
75
100
AcDbEntity
  8
64647040_EINSATZ
  6
Continuous
 62
     7
100
AcDbLine
 10
37.9898154292
 20
391.7772221444
 30
0.0
 11
39.2882633801
 21
391.896217136
 31
0.0
  0
LINE
  5
1DD
330
75
100
AcDbEntity
  8
64647040_EINSATZ
  6
Continuous
 62
     7
100
AcDbLine
 10
36.2269600428
 20
391.615666988
 30
0.0
 11
37.5733267704
 21
391.739053449
 31
0.0
  0
LINE
  5
1DE
330
75
100
AcDbEntity
  8
64647040_EINSATZ
  6
Continuous
 62
     7
100
AcDbLine
 10
42.4042999601
 20
392.6244919076
 30
0.0
 11
43.4297450613
 21
392.4220019581
 31
0.0
  0
LINE
  5
1DF
330
75
100
AcDbEntity
  8
64647040_EINSATZ
  6
Continuous
 62
     7
100
AcDbLine
 10
40.7661771443
 20
392.9479645204
 30
0.0
 11
41.3536620557
 21
392.8319565646
 31
0.0
  0
LINE
  5
1E0
330
75
100
AcDbEntity
  8
64647040_EINSATZ
  6
Continuous
 62
     7
100
AcDbLine
 10
39.2205732516
 20
393.253167845
 30
0.0
 11
39.8306379984
 21
393.1327011525
 31
0.0
  0
LINE
  5
1E1
330
75
100
AcDbEntity
  8
64647040_EINSATZ
  6
Continuous
 62
     7
100
AcDbLine
 10
37.8136334707
 20
393.5309898023
 30
0.0
 11
38.3115460393
 21
393.432669287
 31
0.0
  0
LINE
  5
1E2
330
75
100
AcDbEntity
  8
64647040_EINSATZ
  6
Continuous
 62
     7
100
AcDbLine
 10
43.5323003687
 20
392.7740065154
 30
0.0
 11
43.7000297763
 21
392.5599105686
 31
0.0
  0
LINE
  5
1E3
330
75
100
AcDbEntity
  8
64647040_EINSATZ
  6
Continuous
 62
     7
100
AcDbLine
 10
43.0711128088
 20
393.3626831742
 30
0.0
 11
43.0856376485
 21
393.3441431378
 31
0.0
  0
LINE
  5
1E4
330
75
100
AcDbEntity
  8
64647040_EINSATZ
  6
Continuous
 62
     7
100
AcDbLine
 10
42.6206488362
 20
393.9376718542
 30
0.0
 11
42.6306348658
 21
393.9249253209
 31
0.0
  0
LINE
  5
1E5
330
75
100
AcDbEntity
  8
64647040_EINSATZ
  6
Continuous
 62
     7
100
AcDbLine
 10
44.2892023318
 20
392.508873623
 30
0.0
 11
44.6942157869
 21
392.7488020812
 31
0.0
  0
LINE
  5
1E6
330
75
100
AcDbEntity
  8
64647040_EINSATZ
  6
Continuous
 62
     7
100
AcDbLine
 10
45.4837513007
 20
393.216519971
 30
0.0
 11
45.598489768
 21
393.2844906105
 31
0.0
  0
LINE
  5
1E7
330
75
100
AcDbEntity
  8
64647040_EINSATZ
  6
Continuous
 62
     7
100
AcDbLine
 10
46.3630163235
 20
393.7373932869
 30
0.0
 11
46.4743407534
 21
393.8033414634
 31
0.0
  0
LINE
  5
1E8
330
75
100
AcDbEntity
  8
64647040_EINSATZ
  6
Continuous
 62
     7
100
AcDbLine
 10
47.2402266813
 20
394.2570494268
 30
0.0
 11
47.2780877826
 21
394.2794782019
 31
0.0
  0
LINE
  5
1E9
330
75
100
AcDbEntity
  8
64647040_EINSATZ
  6
Continuous
 62
     7
100
AcDbLine
 10
44.4972213236
 20
392.3735869882
 30
0.0
 11
45.9094402193
 21
392.5030084066
 31
0.0
  0
LINE
  5
1EA
330
75
100
AcDbEntity
  8
64647040_EINSATZ
  6
Continuous
 62
     7
100
AcDbLine
 10
46.8137568707
 20
392.585883621
 30
0.0
 11
47.7692797248
 21
392.6734515777
 31
0.0
  0
LINE
  5
1EB
330
75
100
AcDbEntity
  8
64647040_EINSATZ
  6
Continuous
 62
     7
100
AcDbLine
 10
48.5125930838
 20
392.7415718029
 30
0.0
 11
49.5053939479
 21
392.8325560663
 31
0.0
  0
LINE
  5
1EC
330
75
100
AcDbEntity
  8
64647040_EINSATZ
  6
Continuous
 62
     7
100
AcDbLine
 10
50.2067693321
 20
392.8968329269
 30
0.0
 11
51.0808481543
 21
392.976937025
 31
0.0
  0
LINE
  5
1ED
330
75
100
AcDbEntity
  8
64647040_EINSATZ
  6
Continuous
 62
     7
100
AcDbLine
 10
44.4096888734
 20
392.2284969399
 30
0.0
 11
46.2229761394
 21
391.8704354051
 31
0.0
  0
LINE
  5
1EE
330
75
100
AcDbEntity
  8
64647040_EINSATZ
  6
Continuous
 62
     7
100
AcDbLine
 10
46.7832108002
 20
391.7598084314
 30
0.0
 11
47.7603360865
 21
391.5668599746
 31
0.0
  0
LINE
  5
1EF
330
75
100
AcDbEntity
  8
64647040_EINSATZ
  6
Continuous
 62
     7
100
AcDbLine
 10
48.3916492212
 20
391.4421974602
 30
0.0
 11
49.2651247923
 21
391.2697162381
 31
0.0
  0
LINE
  5
1F0
330
75
100
AcDbEntity
  8
64647040_EINSATZ
  6
Continuous
 62
     7
100
AcDbLine
 10
49.9098571498
 20
391.1424038911
 30
0.0
 11
50.845661683
 21
390.9576148543
 31
0.0
  0
LINE
  5
1F1
330
75
100
AcDbEntity
  8
64647040_EINSATZ
  6
Continuous
 62
     7
100
AcDbLine
 10
44.0473818097
 20
392.1165377367
 30
0.0
 11
44.5419484598
 21
391.4852547871
 31
0.0
  0
LINE
  5
1F2
330
75
100
AcDbEntity
  8
64647040_EINSATZ
  6
Continuous
 62
     7
100
AcDbLine
 10
44.95755264
 20
390.9547624202
 30
0.0
 11
45.0015169053
 21
390.8986448251
 31
0.0
  0
LINE
  5
1F3
330
75
100
AcDbEntity
  8
64647040_EINSATZ
  6
Continuous
 62
     7
100
AcDbLine
 10
45.4180577355
 20
390.3669568839
 30
0.0
 11
45.4512844582
 21
390.3245450805
 31
0.0
  0
LINE
  5
1F4
330
75
100
AcDbEntity
  8
64647040_EINSATZ
  6
Continuous
 62
     7
100
AcDbLine
 10
45.8691818947
 20
389.7911255176
 30
0.0
 11
45.9236696807
 21
389.7215753159
 31
0.0
  0
LINE
  5
1F5
330
75
100
AcDbEntity
  8
64647040_EINSATZ
  6
Continuous
 62
     7
100
AcDbLine
 10
42.4333700751
 20
390.3245430487
 30
0.0
 11
42.4665983896
 21
390.3669568839
 31
0.0
  0
LINE
  5
1F6
330
75
100
AcDbEntity
  8
64647040_EINSATZ
  6
Continuous
 62
     7
100
AcDbLine
 10
41.960985216
 20
389.7215737479
 30
0.0
 11
42.0154742304
 21
389.7911255176
 31
0.0
  0
LINE
  5
1F7
330
75
100
AcDbEntity
  8
64647040_EINSATZ
  6
Continuous
 62
     7
100
AcDbLine
 10
39.6160699031
 20
390.8364094233
 30
0.0
 11
40.0860541487
 21
390.9971535024
 31
0.0
  0
LINE
  5
1F8
330
75
100
AcDbEntity
  8
64647040_EINSATZ
  6
Continuous
 62
     7
100
AcDbLine
 10
38.3255579518
 20
390.3950283407
 30
0.0
 11
38.8517298382
 21
390.5749897247
 31
0.0
  0
LINE
  5
1F9
330
75
100
AcDbEntity
  8
64647040_EINSATZ
  6
Continuous
 62
     7
100
AcDbLine
 10
38.6195327978
 20
391.2697165274
 30
0.0
 11
39.8801029699
 21
391.5186355481
 31
0.0
  0
LINE
  5
1FA
330
75
100
AcDbEntity
  8
64647040_EINSATZ
  6
Continuous
 62
     7
100
AcDbLine
 10
37.0389955715
 20
390.9576150773
 30
0.0
 11
37.9584184487
 21
391.1391693035
 31
0.0
  0
LINE
  5
1FB
330
75
100
AcDbEntity
  8
64647040_EINSATZ
  6
Continuous
 62
     7
100
AcDbLine
 10
37.8907807751
 20
392.3232827308
 30
0.0
 11
39.2233448066
 21
392.3232827308
 31
0.0
  0
LINE
  5
1FC
330
75
100
AcDbEntity
  8
64647040_EINSATZ
  6
Continuous
 62
     7
100
AcDbLine
 10
36.1953271699
 20
392.3232827308
 30
0.0
 11
37.4694098793
 21
392.3232827308
 31
0.0
  0
LINE
  5
1FD
330
75
100
AcDbEntity
  8
64647040_EINSATZ
  6
Continuous
 62
     7
100
AcDbLine
 10
38.3939481084
 20
392.8312101885
 30
0.0
 11
39.3721910646
 21
392.7415600703
 31
0.0
  0
LINE
  5
1FE
330
75
100
AcDbEntity
  8
64647040_EINSATZ
  6
Continuous
 62
     7
100
AcDbLine
 10
36.8038079708
 20
392.976937025
 30
0.0
 11
37.6779815077
 21
392.8968242469
 31
0.0
  0
LINE
  5
1FF
330
75
100
AcDbEntity
  8
64647040_EINSATZ
  6
Continuous
 62
     7
100
AcDbLine
 10
40.2567420066
 20
393.5766215302
 30
0.0
 11
40.5650982143
 21
393.4711574958
 31
0.0
  0
LINE
  5
200
330
75
100
AcDbEntity
  8
64647040_EINSATZ
  6
Continuous
 62
     7
100
AcDbLine
 10
39.1140951965
 20
393.9674297559
 30
0.0
 11
39.3246251869
 21
393.8954242584
 31
0.0
  0
LINE
  5
201
330
75
100
AcDbEntity
  8
64647040_EINSATZ
  6
Continuous
 62
     7
100
AcDbLine
 10
41.4103153717
 20
393.8033414634
 30
0.0
 11
41.5217248675
 21
393.7373428942
 31
0.0
  0
LINE
  5
202
330
75
100
AcDbEntity
  8
64647040_EINSATZ
  6
Continuous
 62
     7
100
AcDbLine
 10
40.6065683425
 20
394.2794782019
 30
0.0
 11
40.6444917823
 21
394.2570124978
 31
0.0
  0
LINE
  5
203
330
75
100
AcDbEntity
  8
64647040_EINSATZ
  6
Continuous
 62
     7
100
AcDbLine
 10
45.2540579844
 20
393.9249721982
 30
0.0
 11
45.264007289
 21
393.9376718542
 31
0.0
  0
LINE
  5
204
330
75
100
AcDbEntity
  8
64647040_EINSATZ
  6
Continuous
 62
     7
100
AcDbLine
 10
47.3196036269
 20
393.4711731316
 30
0.0
 11
47.6279141186
 21
393.5766215302
 31
0.0
  0
LINE
  5
205
330
75
100
AcDbEntity
  8
64647040_EINSATZ
  6
Continuous
 62
     7
100
AcDbLine
 10
48.5599469198
 20
393.8953955224
 30
0.0
 11
48.7705609286
 21
393.9674297559
 31
0.0
  0
LINE
  5
206
330
75
100
AcDbEntity
  8
64647040_EINSATZ
  6
Continuous
 62
     7
100
AcDbLine
 10
48.0540863971
 20
393.1327146335
 30
0.0
 11
48.6640828735
 21
393.253167845
 31
0.0
  0
LINE
  5
207
330
75
100
AcDbEntity
  8
64647040_EINSATZ
  6
Continuous
 62
     7
100
AcDbLine
 10
49.5730740875
 20
393.4326621785
 30
0.0
 11
50.0710226544
 21
393.5309898023
 31
0.0
  0
LINE
  5
208
330
75
100
AcDbEntity
  8
64647040_EINSATZ
  6
Continuous
 62
     7
100
AcDbLine
 10
48.661456349
 20
392.3232827308
 30
0.0
 11
49.9918731281
 21
392.3232827308
 31
0.0
  0
LINE
  5
209
330
75
100
AcDbEntity
  8
64647040_EINSATZ
  6
Continuous
 62
     7
100
AcDbLine
 10
50.4153859202
 20
392.3232827308
 30
0.0
 11
51.6893289552
 21
392.3232827308
 31
0.0
  0
LINE
  5
20A
330
75
100
AcDbEntity
  8
64647040_EINSATZ
  6
Continuous
 62
     7
100
AcDbLine
 10
48.596392745
 20
391.896217136
 30
0.0
 11
49.8948509632
 21
391.7772212035
 31
0.0
  0
LINE
  5
20B
330
75
100
AcDbEntity
  8
64647040_EINSATZ
  6
Continuous
 62
     7
100
AcDbLine
 10
50.3113293547
 20
391.739053449
 30
0.0
 11
51.6577040063
 21
391.6156662619
 31
0.0
  0
LINE
  5
20C
330
75
100
AcDbEntity
  8
64647040_EINSATZ
  6
Continuous
 62
     7
100
AcDbLine
 10
47.7811077607
 20
391.0031368765
 30
0.0
 11
48.2685803148
 21
390.8364114437
 31
0.0
  0
LINE
  5
20D
330
75
100
AcDbEntity
  8
64647040_EINSATZ
  6
Continuous
 62
     7
100
AcDbLine
 10
49.0499680109
 20
390.5691611119
 30
0.0
 11
49.5590936148
 21
390.3950298998
 31
0.0
  0
LINE
  5
20E
330
75
100
AcDbEntity
  8
64647040_EINSATZ
  6
Continuous
 62
     7
100
AcDbLine
 10
46.779918497
 20
390.622408625
 30
0.0
 11
46.9693782719
 21
390.5101733619
 31
0.0
  0
LINE
  5
20F
330
75
100
AcDbEntity
  8
64647040_EINSATZ
  6
Continuous
 62
     7
100
AcDbLine
 10
47.6570201194
 20
390.1028168995
 30
0.0
 11
47.8819234925
 21
389.9695849812
 31
0.0
  0
SPLINE
  5
211
330
75
100
AcDbEntity
  8
$DDT_AUDIT_GENERATED_(210)
  6
Continuous
 62
     7
100
AcDbSpline
210
0.0
220
0.0
230
1.0
 70
     8
 71
     3
 72
    10
 73
     6
 74
     0
 42
0.0000000006820096
 43
0.0000000001
 40
0.0
 40
0.0
 40
0.0
 40
0.0
 40
0.2500000000000004
 40
0.2500000000000004
 40
0.2707807871028296
 40
0.2707807871028296
 40
0.2707807871028296
 40
0.2707807871028296
 10
28.67438108804027
 20
458.9628635780484
 30
0.0
 10
28.6860415265486
 20
460.5952461118361
 30
0.0
 10
28.72558945532329
 20
461.9028322341929
 30
0.0
 10
28.69670227592098
 20
462.8037876330022
 30
0.0
 10
28.69364301050099
 20
462.869810894897
 30
0.0
 10
28.68987423207789
 20
462.9319126889735
 30
0.0
  0
SPLINE
  5
212
330
75
100
AcDbEntity
  8
$DDT_AUDIT_GENERATED_(210)
  6
Continuous
 62
     7
100
AcDbSpline
210
0.0
220
0.0
230
1.0
 70
     8
 71
     3
 72
     8
 73
     4
 74
     0
 42
0.0000000024517249
 43
0.0000000001
 40
0.3321873246071901
 40
0.3321873246071901
 40
0.3321873246071901
 40
0.3321873246071901
 40
0.3367258452974297
 40
0.3367258452974297
 40
0.3367258452974297
 40
0.3367258452974297
 10
28.64446456134695
 20
463.3555527200848
 30
0.0
 10
28.64398251559906
 20
463.3620497912961
 30
0.0
 10
28.64378016517648
 20
463.3682121859004
 30
0.0
 10
28.64394149013978
 20
463.374040850023
 30
0.0
  0
SPLINE
  5
213
330
75
100
AcDbEntity
  8
$DDT_AUDIT_GENERATED_(210)
  6
Continuous
 62
     7
100
AcDbSpline
210
0.0
220
0.0
230
1.0
 70
     8
 71
     3
 72
    32
 73
    28
 74
     0
 42
0.000000000106217
 43
0.0000000001
 40
0.3367258452974297
 40
0.3367258452974297
 40
0.3367258452974297
 40
0.3367258452974297
 40
0.3437500000000008
 40
0.3437500000000008
 40
0.375000000000001
 40
0.375000000000001
 40
0.3906250000000009
 40
0.3906250000000009
 40
0.4062500000000009
 40
0.4062500000000009
 40
0.4375000000000009
 40
0.4375000000000009
 40
0.4687500000000009
 40
0.4687500000000009
 40
0.5000000000000009
 40
0.5000000000000009
 40
0.5312500000000008
 40
0.5312500000000008
 40
0.5625000000000008
 40
0.5625000000000008
 40
0.5937500000000007
 40
0.5937500000000007
 40
0.6250000000000007
 40
0.6250000000000007
 40
0.6562500000000006
 40
0.6562500000000006
 40
0.6636655773700028
 40
0.6636655773700028
 40
0.6636655773700028
 40
0.6636655773700028
 10
28.64394149013978
 20
463.374040850023
 30
0.0
 10
28.64419116874148
 20
463.383061727375
 30
0.0
 10
28.64531195815726
 20
463.3912832208726
 30
0.0
 10
28.65786208579402
 20
463.4317449174452
 30
0.0
 10
28.66710237293576
 20
463.4715856324645
 30
0.0
 10
29.07637599016268
 20
463.5609718575402
 30
0.0
 10
29.29151417421297
 20
463.5901663520838
 30
0.0
 10
29.88886820709373
 20
463.6309110851456
 30
0.0
 10
30.26851147893214
 20
463.6432123099372
 30
0.0
 10
31.63306295975836
 20
463.668083856084
 30
0.0
 10
32.80878947207524
 20
463.6678261354755
 30
0.0
 10
35.54679594426803
 20
463.660506148741
 30
0.0
 10
37.06743185382864
 20
463.6548240447325
 30
0.0
 10
40.38998443162968
 20
463.6562257330665
 30
0.0
 10
42.12097264043037
 20
463.6626714631437
 30
0.0
 10
45.66933271071122
 20
463.6628537238007
 30
0.0
 10
47.41408078299567
 20
463.6563833666277
 30
0.0
 10
50.75045194657469
 20
463.6547185248574
 30
0.0
 10
52.28095213162945
 20
463.6602887002798
 30
0.0
 10
55.0272802073431
 20
463.6677997412353
 30
0.0
 10
56.19713375972617
 20
463.6683606786646
 30
0.0
 10
58.04380132367508
 20
463.636103144562
 30
0.0
 10
58.64549018950446
 20
463.5942073496707
 30
0.0
 10
59.21549585148469
 20
463.4741931924392
 30
0.0
 10
59.22556055072782
 20
463.4329757463306
 30
0.0
 10
59.23923642810833
 20
463.3922969514186
 30
0.0
 10
59.24049246373827
 20
463.3836331070196
 30
0.0
 10
59.24076062237976
 20
463.3740925094203
 30
0.0
  0
SPLINE
  5
214
330
75
100
AcDbEntity
  8
$DDT_AUDIT_GENERATED_(210)
  6
Continuous
 62
     7
100
AcDbSpline
210
0.0
220
0.0
230
1.0
 70
     8
 71
     3
 72
     8
 73
     4
 74
     0
 42
0.0000000025519812
 43
0.0000000001
 40
0.6636655773700028
 40
0.6636655773700028
 40
0.6636655773700028
 40
0.6636655773700028
 40
0.6648820579496278
 40
0.6648820579496278
 40
0.6648820579496278
 40
0.6648820579496278
 10
59.24076062237976
 20
463.3740925094203
 30
0.0
 10
59.24080461218169
 20
463.3725274321352
 30
0.0
 10
59.24082201780242
 20
463.3709387610564
 30
0.0
 10
59.24081451211664
 20
463.3693264317486
 30
0.0
  0
SPLINE
  5
215
330
75
100
AcDbEntity
  8
$DDT_AUDIT_GENERATED_(210)
  6
Continuous
 62
     7
100
AcDbSpline
210
0.0
220
0.0
230
1.0
 70
     8
 71
     3
 72
    10
 73
     6
 74
     0
 42
0.0000000006784875
 43
0.0000000001
 40
0.7323131241126304
 40
0.7323131241126304
 40
0.7323131241126304
 40
0.7323131241126304
 40
0.7500000000000004
 40
0.7500000000000004
 40
1.0
 40
1.0
 40
1.0
 40
1.0
 10
59.1933251082102
 20
462.9069352259401
 30
0.0
 10
59.19026952003986
 20
462.8531316506604
 30
0.0
 10
59.18774454189648
 20
462.79656143337
 30
0.0
 10
59.1589157796003
 20
461.9061187889459
 30
0.0
 10
59.19859945818381
 20
460.5972550367201
 30
0.0
 10
59.21027499551531
 20
458.9628406316306
 30
0.0
  0
ARC
  5
216
330
75
100
AcDbEntity
  8
$DDT_AUDIT_GENERATED_(210)
  6
Continuous
 62
     7
100
AcDbCircle
 10
43.9478931438
 20
7295.6967595059
 30
0.0
 40
6837.755639143984
100
AcDbArc
 50
269.8797201489
 51
270.120186609
  0
SPLINE
  5
217
330
75
100
AcDbEntity
  8
$DDT_AUDIT_GENERATED_(210)
  6
Continuous
 62
     7
100
AcDbSpline
210
0.0
220
0.0
230
1.0
 70
     8
 71
     3
 72
    26
 73
    22
 74
     0
 42
0.0000000000879998
 43
0.0000000001
 40
0.3726880241262515
 40
0.3726880241262515
 40
0.3726880241262515
 40
0.3726880241262515
 40
0.3749999999999993
 40
0.3749999999999993
 40
0.3906249999999993
 40
0.3906249999999993
 40
0.4062499999999993
 40
0.4062499999999993
 40
0.4374999999999993
 40
0.4374999999999993
 40
0.4999999999999994
 40
0.4999999999999994
 40
0.5312499999999994
 40
0.5312499999999994
 40
0.5624999999999994
 40
0.5624999999999994
 40
0.5937499999999996
 40
0.5937499999999996
 40
0.6249999999999996
 40
0.6249999999999996
 40
0.6302552664669155
 40
0.6302552664669155
 40
0.6302552664669155
 40
0.6302552664669155
 10
29.33506628941022
 20
466.3597253602302
 30
0.0
 10
29.34966869182978
 20
466.3607544752498
 30
0.0
 10
29.36543369606759
 20
466.3617255613544
 30
0.0
 10
29.49750379518343
 20
466.3688082247604
 30
0.0
 10
29.68420187417004
 20
466.3723293453311
 30
0.0
 10
30.23565512614869
 20
466.3742450130386
 30
0.0
 10
30.59367414468572
 20
466.3727283237235
 30
0.0
 10
31.89182390410912
 20
466.3625017253824
 30
0.0
 10
33.04267500123669
 20
466.3480645407555
 30
0.0
 10
37.04924093601979
 20
466.2996695714783
 30
0.0
 10
40.45209539310063
 20
466.2636827955059
 30
0.0
 10
45.69437129427778
 20
466.2637241444389
 30
0.0
 10
47.42179908556857
 20
466.2719794338319
 30
0.0
 10
50.69817473380802
 20
466.2985659788638
 30
0.0
 10
52.19938941942678
 20
466.3161360427164
 30
0.0
 10
54.870592242809
 20
466.3484192142905
 30
0.0
 10
56.00168876435873
 20
466.362626437972
 30
0.0
 10
57.74171982975343
 20
466.3762232791346
 30
0.0
 10
58.27344692976968
 20
466.3750483996852
 30
0.0
 10
58.54302005768581
 20
466.3604256639902
 30
0.0
 10
58.57524318283863
 20
466.3580208039144
 30
0.0
 10
58.60202706343478
 20
466.3553179826528
 30
0.0
  0
SPLINE
  5
218
330
75
100
AcDbEntity
  8
$DDT_AUDIT_GENERATED_(210)
  6
Continuous
 62
     7
100
AcDbSpline
210
0.0
220
0.0
230
1.0
 70
     8
 71
     3
 72
     8
 73
     4
 74
     0
 42
0.0000000005557045
 43
0.0000000001
 40
0.1708802473592043
 40
0.1708802473592043
 40
0.1708802473592043
 40
0.1708802473592043
 40
0.1711979730678599
 40
0.1711979730678599
 40
0.1711979730678599
 40
0.1711979730678599
 10
18.94253234313855
 20
458.2768024332764
 30
0.0
 10
18.94253273049884
 20
458.2748968413691
 30
0.0
 10
18.94254292931393
 20
458.2729910423765
 30
0.0
 10
18.94256293753129
 20
458.2710850361556
 30
0.0
  0
SPLINE
  5
219
330
75
100
AcDbEntity
  8
$DDT_AUDIT_GENERATED_(210)
  6
Continuous
 62
     7
100
AcDbSpline
210
0.0
220
0.0
230
1.0
 70
     8
 71
     3
 72
     8
 73
     4
 74
     0
 42
0.000000000527955
 43
0.0000000001
 40
0.0
 40
0.0
 40
0.0
 40
0.0
 40
0.0776630635182619
 40
0.0776630635182619
 40
0.0776630635182619
 40
0.0776630635182619
 10
59.21002118059852
 20
461.4587133693325
 30
0.0
 10
59.20643178829655
 20
461.9905200269768
 30
0.0
 10
59.20038082967993
 20
462.4823166482477
 30
0.0
 10
59.19443587940306
 20
462.9296412704072
 30
0.0
  0
SPLINE
  5
21A
330
75
100
AcDbEntity
  8
$DDT_AUDIT_GENERATED_(210)
  6
Continuous
 62
     7
100
AcDbSpline
210
0.0
220
0.0
230
1.0
 70
     8
 71
     3
 72
     8
 73
     4
 74
     0
 42
0.0000000022484713
 43
0.0000000001
 40
0.3431912543250624
 40
0.3431912543250624
 40
0.3431912543250624
 40
0.3431912543250624
 40
0.3434161014507831
 40
0.3434161014507831
 40
0.3434161014507831
 40
0.3434161014507831
 10
59.2400835614002
 20
465.7778399430257
 30
0.0
 10
59.24008256439691
 20
465.7781008740772
 30
0.0
 10
59.24008093681999
 20
465.778361312323
 30
0.0
 10
59.24007867286009
 20
465.7786212577829
 30
0.0
  0
SPLINE
  5
21B
330
75
100
AcDbEntity
  8
$DDT_AUDIT_GENERATED_(210)
  6
Continuous
 62
     7
100
AcDbSpline
210
0.0
220
0.0
230
1.0
 70
     8
 71
     3
 72
     8
 73
     4
 74
     0
 42
0.0000000028638015
 43
0.0000000001
 40
0.6597291876733529
 40
0.6597291876733529
 40
0.6597291876733529
 40
0.6597291876733529
 40
0.6690357751630592
 40
0.6690357751630592
 40
0.6690357751630592
 40
0.6690357751630592
 10
28.65025119993765
 20
465.8086642043305
 30
0.0
 10
28.64508014028895
 20
465.7992112056019
 30
0.0
 10
28.64301197924963
 20
465.7888964533215
 30
0.0
 10
28.64284369526207
 20
465.7776953715619
 30
0.0
  0
SPLINE
  5
21C
330
75
100
AcDbEntity
  8
$DDT_AUDIT_GENERATED_(210)
  6
Continuous
 62
     7
100
AcDbSpline
210
0.0
220
0.0
230
1.0
 70
     8
 71
     3
 72
     8
 73
     4
 74
     0
 42
0.0000000005101957
 43
0.0000000001
 40
0.9238213890083679
 40
0.9238213890083679
 40
0.9238213890083679
 40
0.9238213890083679
 40
1.0
 40
1.0
 40
1.0
 40
1.0
 10
28.69088790878876
 20
462.9517428436683
 30
0.0
 10
28.68465576687382
 20
462.498419257279
 30
0.0
 10
28.67828234528102
 20
461.9991509978701
 30
0.0
 10
28.67463488760246
 20
461.4587133950589
 30
0.0
  0
ELLIPSE
  5
21D
330
75
100
AcDbEntity
  8
$DDT_AUDIT_GENERATED_(210)
  6
Continuous
 62
     7
100
AcDbEllipse
 10
60.7546008871
 20
460.8498261334
 30
0.0
 11
-0.06176886116016078
 21
-0.4961699384192497
 31
0.0
210
0.0
220
0.0
230
1.0
 40
0.6826645142
 41
3.127673594376241
 42
3.155865431650435
  0
ELLIPSE
  5
21E
330
75
100
AcDbEntity
  8
$DDT_AUDIT_GENERATED_(210)
  6
Continuous
 62
     7
100
AcDbEllipse
 10
27.1300551957
 20
460.8498261282
 30
0.0
 11
0.06176886148798189
 21
-0.4961699383784491
 31
0.0
210
0.0
220
0.0
230
0.9999999999999999
 40
0.6826645159
 41
3.125835098525271
 42
3.148739894678337
  0
SPLINE
  5
21F
330
75
100
AcDbEntity
  8
$DDT_AUDIT_GENERATED_(210)
  6
Continuous
 62
     7
100
AcDbSpline
210
0.0
220
0.0
230
1.0
 70
     8
 71
     3
 72
     8
 73
     4
 74
     0
 42
0.0000000002061565
 43
0.0000000001
 40
0.0199019139355993
 40
0.0199019139355993
 40
0.0199019139355993
 40
0.0199019139355993
 40
0.0373804238227745
 40
0.0373804238227745
 40
0.0373804238227745
 40
0.0373804238227745
 10
68.90161907180428
 20
424.2661874303018
 30
0.0
 10
68.92816341016263
 20
424.5481851282634
 30
0.0
 10
68.94149740095803
 20
424.830408404294
 30
0.0
 10
68.9415868739647
 20
425.112453478297
 30
0.0
  0
SPLINE
  5
220
330
75
100
AcDbEntity
  8
$DDT_AUDIT_GENERATED_(210)
  6
Continuous
 62
     7
100
AcDbSpline
210
0.0
220
0.0
230
1.0
 70
     8
 71
     3
 72
     8
 73
     4
 74
     0
 42
0.0000000002056432
 43
0.0000000001
 40
0.9627177825251457
 40
0.9627177825251457
 40
0.9627177825251457
 40
0.9627177825251457
 40
0.980131675117302
 40
0.980131675117302
 40
0.980131675117302
 40
0.980131675117302
 10
18.94307733494576
 20
425.1125964179273
 30
0.0
 10
18.94316150748181
 20
424.8309432025043
 30
0.0
 10
18.95645225256474
 20
424.5490603167778
 30
0.0
 10
18.98293147343321
 20
424.2673498541993
 30
0.0
  0
ELLIPSE
  5
221
330
75
100
AcDbEntity
  8
$DDT_AUDIT_GENERATED_(210)
  6
Continuous
 62
     7
100
AcDbEllipse
 10
68.2633700902
 20
423.3043704924
 30
0.0
 11
-0.4905427592082623
 21
0.09678740304579216
 31
0.0
210
0.0
220
0.0
230
0.9999999999999999
 40
0.8434502891
 41
3.140022975851817
 42
3.371388568431932
  0
LINE
  5
222
330
75
100
AcDbEntity
  8
$DDT_AUDIT_GENERATED_(210)
  6
Continuous
 62
     7
100
AcDbLine
 10
67.0957192219
 20
422.4244907328
 30
0.0
 11
20.7889369034
 21
422.4244907328
 31
0.0
  0
SPLINE
  5
223
330
75
100
AcDbEntity
  8
$DDT_AUDIT_GENERATED_(210)
  6
Continuous
 62
     7
100
AcDbSpline
210
0.0
220
0.0
230
1.0
 70
     8
 71
     3
 72
     8
 73
     4
 74
     0
 42
0.0000000102529456
 43
0.0000000001
 40
0.0
 40
0.0
 40
0.0
 40
0.0
 40
1.0
 40
1.0
 40
1.0
 40
1.0
 10
67.09571922187376
 20
422.424490732768
 30
0.0
 10
67.51853934710763
 20
422.424490732768
 30
0.0
 10
67.84384262213608
 20
422.4245468703489
 30
0.0
 10
68.07104868765094
 20
422.424561673042
 30
0.0
  0
SPLINE
  5
224
330
75
100
AcDbEntity
  8
$DDT_AUDIT_GENERATED_(210)
  6
Continuous
 62
     7
100
AcDbSpline
210
0.0
220
0.0
230
1.0
 70
     8
 71
     3
 72
     8
 73
     4
 74
     0
 42
0.0000000102529456
 43
0.0000000001
 40
0.0
 40
0.0
 40
0.0
 40
0.0
 40
1.0
 40
1.0
 40
1.0
 40
1.0
 10
19.81360743746465
 20
422.424561673042
 30
0.0
 10
20.04081625225517
 20
422.4245468701697
 30
0.0
 10
20.36611298315235
 20
422.424490732768
 30
0.0
 10
20.78893690336791
 20
422.424490732768
 30
0.0
  0
SPLINE
  5
225
330
75
100
AcDbEntity
  8
$DDT_AUDIT_GENERATED_(210)
  6
Continuous
 62
     7
100
AcDbSpline
210
0.0
220
0.0
230
1.0
 70
    11
 71
     3
 72
    22
 73
    18
 74
     0
 42
0.0000000004266663
 43
0.0000000001
 40
0.0
 40
0.0
 40
0.0
 40
0.0
 40
0.1249999999999999
 40
0.1249999999999999
 40
0.2499999999999998
 40
0.2499999999999998
 40
0.3749999999999999
 40
0.3749999999999999
 40
0.5
 40
0.5
 40
0.6250000000000001
 40
0.6250000000000001
 40
0.7500000000000002
 40
0.7500000000000002
 40
0.8750000000000002
 40
0.8750000000000002
 40
1.0
 40
1.0
 40
1.0
 40
1.0
 10
43.94232806255779
 20
439.4169144565251
 30
0.0
 10
44.90460165761989
 20
439.4169144565251
 30
0.0
 10
45.84006936915001
 20
438.9896681453998
 30
0.0
 10
47.10825502458172
 20
437.5837736095385
 30
0.0
 10
47.43814852694346
 20
436.6193229257568
 30
0.0
 10
47.40255825347997
 20
434.7078109608299
 30
0.0
 10
47.06019216605805
 20
433.7718818681982
 30
0.0
 10
45.81651365599938
 20
432.3172546842019
 30
0.0
 10
44.90787459662332
 20
431.8388535432236
 30
0.0
 10
42.99857046231517
 20
431.8319426513912
 30
0.0
 10
42.07878188456919
 20
432.3094708238135
 30
0.0
 10
40.82957992455616
 20
433.7612964738218
 30
0.0
 10
40.48316006685633
 20
434.7041738182191
 30
0.0
 10
40.44561021187094
 20
436.6143486300261
 30
0.0
 10
40.77090316413977
 20
437.575253282639
 30
0.0
 10
42.04211962009119
 20
438.9893433585711
 30
0.0
 10
42.98005446749571
 20
439.4169144565251
 30
0.0
 10
43.94232806255779
 20
439.4169144565251
 30
0.0
  0
LINE
  5
226
330
75
100
AcDbEntity
  8
$DDT_AUDIT_GENERATED_(210)
  6
Continuous
 62
     7
100
AcDbLine
 10
57.7425460187
 20
466.3735688669
 30
0.0
 11
30.1398835878
 21
466.3735688669
 31
0.0
  0
LINE
  5
227
330
75
100
AcDbEntity
  8
$DDT_AUDIT_GENERATED_(210)
  6
Continuous
 62
     7
100
AcDbLine
 10
28.644584226
 20
465.7757597464
 30
0.0
 11
28.6445842259
 21
463.3716879986
 31
0.0
  0
LINE
  5
228
330
75
100
AcDbEntity
  8
$DDT_AUDIT_GENERATED_(210)
  6
Continuous
 62
     7
100
AcDbLine
 10
59.2400797993
 20
463.3742855898
 30
0.0
 11
59.2400797993
 21
465.7765092886
 31
0.0
  0
SPLINE
  5
229
330
75
100
AcDbEntity
  8
$DDT_AUDIT_GENERATED_(210)
  6
Continuous
 62
     7
100
AcDbSpline
210
0.0
220
0.0
230
1.0
 70
     8
 71
     3
 72
    17
 73
    13
 74
     0
 42
0.0000000170964005
 43
0.0000000001
 40
0.0
 40
0.0
 40
0.0
 40
0.0
 40
0.0530108077523826
 40
0.1310857516498988
 40
0.2177588124184262
 40
0.3169357977937832
 40
0.4320866545710259
 40
0.566034817766126
 40
0.6613987929850753
 40
0.7071975388349008
 40
0.751023127783512
 40
1.0
 40
1.0
 40
1.0
 40
1.0
 10
28.63382139899536
 20
463.3541072804995
 30
0.0
 10
28.63405788652161
 20
463.3151972817595
 30
0.0
 10
28.63447832357661
 20
463.2345712481961
 30
0.0
 10
28.65047995167509
 20
463.1356924862931
 30
0.0
 10
28.66695419076187
 20
463.0550073399217
 30
0.0
 10
28.68076936251995
 20
463.000353644018
 30
0.0
 10
28.68681372152806
 20
462.9769186866141
 30
0.0
 10
28.68618031171936
 20
462.9717294722215
 30
0.0
 10
28.68068276961096
 20
463.0188180663164
 30
0.0
 10
28.68315022163805
 20
462.9937906975308
 30
0.0
 10
28.68662286037111
 20
462.9539605107838
 30
0.0
 10
28.68909774298877
 20
462.9120136972582
 30
0.0
 10
28.69152035465004
 20
462.8695777214602
 30
0.0
  0
SPLINE
  5
22A
330
75
100
AcDbEntity
  8
$DDT_AUDIT_GENERATED_(210)
  6
Continuous
 62
     7
100
AcDbSpline
210
0.0
220
0.0
230
1.0
 70
     8
 71
     3
 72
    15
 73
    11
 74
     0
 42
0.0000000191053136
 43
0.0000000001
 40
0.0
 40
0.0
 40
0.0
 40
0.0
 40
0.3089182622098312
 40
0.4978482492020286
 40
0.6628074046006601
 40
0.7684978474452065
 40
0.8558695613963514
 40
0.9288752012073038
 40
0.9913514274004354
 40
1.0
 40
1.0
 40
1.0
 40
1.0
 10
59.19200099431174
 20
462.8479740500902
 30
0.0
 10
59.19557694678426
 20
462.9059224291921
 30
0.0
 10
59.20059367647395
 20
462.9842226709435
 30
0.0
 10
59.20873162274496
 20
463.0642599965389
 30
0.0
 10
59.21610484356619
 20
463.1195897900247
 30
0.0
 10
59.21605928781142
 20
463.1199987350256
 30
0.0
 10
59.22464371728507
 20
463.1663034822546
 30
0.0
 10
59.2335638914439
 20
463.2405123978443
 30
0.0
 10
59.24245889262404
 20
463.3099610270659
 30
0.0
 10
59.24034969201848
 20
463.3610274226179
 30
0.0
 10
59.24005444117507
 20
463.3682734887571
 30
0.0
  0
SPLINE
  5
22B
330
75
100
AcDbEntity
  8
$DDT_AUDIT_GENERATED_(210)
  6
Continuous
 62
     7
100
AcDbSpline
210
0.0
220
0.0
230
1.0
 70
     8
 71
     3
 72
    16
 73
    12
 74
     0
 42
0.0000000109881696
 43
0.0000000001
 40
0.0
 40
0.0
 40
0.0
 40
0.0
 40
0.0446156001900943
 40
0.3014934304616145
 40
0.4673599720952912
 40
0.5778364768227608
 40
0.6789855635872234
 40
0.7785733556209317
 40
0.8842488169730177
 40
0.9743975178514492
 40
1.0
 40
1.0
 40
1.0
 40
1.0
 10
29.29630030568613
 20
466.3582528393476
 30
0.0
 10
29.28572755268836
 20
466.357701668341
 30
0.0
 10
29.22419516073804
 20
466.3543708103275
 30
0.0
 10
29.14947786178447
 20
466.3452417362884
 30
0.0
 10
29.04904125342966
 20
466.3247101318078
 30
0.0
 10
28.95364715140242
 20
466.2900594267088
 30
0.0
 10
28.85213678163577
 20
466.2322154952337
 30
0.0
 10
28.74309442846709
 20
466.1266220825874
 30
0.0
 10
28.67098281790865
 20
465.9912517001393
 30
0.0
 10
28.64990735825116
 20
465.8896137212483
 30
0.0
 10
28.64849760817577
 20
465.8635938380769
 30
0.0
 10
28.64825457033162
 20
465.8568790300287
 30
0.0
  0
SPLINE
  5
22C
330
75
100
AcDbEntity
  8
$DDT_AUDIT_GENERATED_(210)
  6
Continuous
 62
     7
100
AcDbSpline
210
0.0
220
0.0
230
1.0
 70
     8
 71
     3
 72
    15
 73
    11
 74
     0
 42
0.0000000108139226
 43
0.0000000001
 40
0.0
 40
0.0
 40
0.0
 40
0.0
 40
0.036679851465369
 40
0.1628961500378143
 40
0.2968409179370785
 40
0.4309853907998757
 40
0.5648745349975287
 40
0.7071619742458742
 40
0.8962541253446672
 40
1.0
 40
1.0
 40
1.0
 40
1.0
 10
59.24594306695444
 20
465.7772326450432
 30
0.0
 10
59.24668353656197
 20
465.7871619243847
 30
0.0
 10
59.24894497727189
 20
465.8248883419819
 30
0.0
 10
59.23222756125195
 20
465.9387135014796
 30
0.0
 10
59.16386843463766
 20
466.0885370401698
 30
0.0
 10
59.05397339786689
 20
466.2075009150365
 30
0.0
 10
58.94438375165483
 20
466.2766963987101
 30
0.0
 10
58.83851740440228
 20
466.3200430420243
 30
0.0
 10
58.73609047701901
 20
466.3436757182118
 30
0.0
 10
58.67552534510118
 20
466.3491730118469
 30
0.0
 10
58.65024179645066
 20
466.3512001889689
 30
0.0
  0
SPLINE
  5
22D
330
75
100
AcDbEntity
  8
$DDT_AUDIT_GENERATED_(210)
  6
Continuous
 62
     7
100
AcDbSpline
210
0.0
220
0.0
230
1.0
 70
     8
 71
     3
 72
    14
 73
    10
 74
     0
 42
0.0000000037269787
 43
0.0000000001
 40
0.0
 40
0.0
 40
0.0
 40
0.0
 40
0.0210527910966878
 40
0.1271616245225379
 40
0.2327767779206457
 40
0.3372360562946565
 40
0.4396707854450783
 40
0.5388545472265845
 40
0.6153461181877223
 40
0.6153461181877223
 40
0.6153461181877223
 40
0.6153461181877223
 10
60.82122555784193
 20
461.3466055556731
 30
0.0
 10
60.79109748935073
 20
461.3501250952704
 30
0.0
 10
60.63529730525326
 20
461.3683706013146
 30
0.0
 10
60.35686344790572
 20
461.4088449124879
 30
0.0
 10
60.02242316208044
 20
461.4638404588159
 30
0.0
 10
59.73195356344677
 20
461.5214268375929
 30
0.0
 10
59.49207017798902
 20
461.578730678415
 30
0.0
 10
59.31843667083557
 20
461.6300100716969
 30
0.0
 10
59.23624647015214
 20
461.6600864056696
 30
0.0
 10
59.20633993940035
 20
461.6721430242976
 30
0.0
  0
SPLINE
  5
22E
330
75
100
AcDbEntity
  8
$DDT_AUDIT_GENERATED_(210)
  6
Continuous
 62
     7
100
AcDbSpline
210
0.0
220
0.0
230
1.0
 70
     8
 71
     3
 72
    15
 73
    11
 74
     0
 42
0.0000000037470254
 43
0.0000000001
 40
0.3811258962194786
 40
0.3811258962194786
 40
0.3811258962194786
 40
0.3811258962194786
 40
0.4100106262478401
 40
0.4970666834334316
 40
0.5902571644243138
 40
0.687485309111705
 40
0.788307503676114
 40
0.8919015102508042
 40
0.997282968389003
 40
1.0
 40
1.0
 40
1.0
 40
1.0
 10
28.68091376844174
 20
461.6731646645815
 30
0.0
 10
28.66973693171391
 20
461.668634143142
 30
0.0
 10
28.62149902979776
 20
461.6498121070503
 30
0.0
 10
28.51146508777968
 20
461.6127273334398
 30
0.0
 10
28.32325437584666
 20
461.5611983827822
 30
0.0
 10
28.08364737897959
 20
461.5069795845794
 30
0.0
 10
27.79474273441419
 20
461.451932036298
 30
0.0
 10
27.46004001519641
 20
461.3989014397124
 30
0.0
 10
27.2037730900725
 20
461.3622011710139
 30
0.0
 10
27.06956910903761
 20
461.3467907235118
 30
0.0
 10
27.06565841036031
 20
461.3463417920231
 30
0.0
  0
SPLINE
  5
22F
330
75
100
AcDbEntity
  8
$DDT_AUDIT_GENERATED_(210)
  6
Continuous
 62
     7
100
AcDbSpline
210
0.0
220
0.0
230
1.0
 70
     8
 71
     3
 72
    27
 73
    23
 74
     0
 42
0.0000000010956063
 43
0.0000000001
 40
0.0
 40
0.0
 40
0.0
 40
0.0
 40
0.0180387738806307
 40
0.0581272723385816
 40
0.0987686711323934
 40
0.1419228328179208
 40
0.1893773902316033
 40
0.242208367351927
 40
0.2996586224410031
 40
0.3592212831505053
 40
0.4186521290250933
 40
0.4773784861816509
 40
0.5354184416074218
 40
0.592852805961968
 40
0.6497391124629696
 40
0.7061053548390178
 40
0.7619589798309981
 40
0.8172963460364334
 40
0.8721100447865804
 40
0.9263980083389939
 40
0.9798718118994947
 40
1.0
 40
1.0
 40
1.0
 40
1.0
 10
68.93544483072047
 20
458.2771038228141
 30
0.0
 10
68.93709091271938
 20
458.3151816656687
 30
0.0
 10
68.94097424713601
 20
458.419267301099
 30
0.0
 10
68.89500229539924
 20
458.608643898772
 30
0.0
 10
68.80494812371715
 20
458.8189035406912
 30
0.0
 10
68.6705607331796
 20
459.0197993456483
 30
0.0
 10
68.491576260409
 20
459.2143923923317
 30
0.0
 10
68.25955034328382
 20
459.4071435687036
 30
0.0
 10
67.96976625943975
 20
459.5975436403326
 30
0.0
 10
67.62378376322906
 20
459.7826114014914
 30
0.0
 10
67.22819356663437
 20
459.9594919612613
 30
0.0
 10
66.78885668343752
 20
460.1273288471721
 30
0.0
 10
66.30807743732377
 20
460.2868294668419
 30
0.0
 10
65.78687301189143
 20
460.4387776106008
 30
0.0
 10
65.22622174183968
 20
460.5836533644707
 30
0.0
 10
64.62736944771514
 20
460.721677439909
 30
0.0
 10
63.99162682546211
 20
460.8529540586111
 30
0.0
 10
63.32113438615907
 20
460.9773399323246
 30
0.0
 10
62.61580816824837
 20
461.0952226146663
 30
0.0
 10
61.88555234864302
 20
461.2046634634231
 30
0.0
 10
61.26576433342795
 20
461.2900277517793
 30
0.0
 10
60.92186222870445
 20
461.3318340643374
 30
0.0
 10
60.81141330250463
 20
461.3452187476449
 30
0.0
  0
SPLINE
  5
230
330
75
100
AcDbEntity
  8
$DDT_AUDIT_GENERATED_(210)
  6
Continuous
 62
     7
100
AcDbSpline
210
0.0
220
0.0
230
1.0
 70
     8
 71
     3
 72
    27
 73
    23
 74
     0
 42
0.0000000010944385
 43
0.0000000001
 40
0.0
 40
0.0
 40
0.0
 40
0.0
 40
0.0262951564766996
 40
0.0800607822824559
 40
0.1335079262349093
 40
0.1869188536942801
 40
0.241260946644146
 40
0.2961371080362017
 40
0.3515352710772103
 40
0.4074411741309437
 40
0.4638460199190462
 40
0.5207538207451243
 40
0.5781908234523142
 40
0.6362146941497953
 40
0.6949110177395196
 40
0.7543244310174684
 40
0.8139985429358594
 40
0.8627614933793971
 40
0.9064227127236008
 40
0.9465471894592576
 40
0.9848221772375272
 40
1.0
 40
1.0
 40
1.0
 40
1.0
 10
27.0737275626519
 20
461.3451381346809
 30
0.0
 10
26.92968911646482
 20
461.3275452145277
 30
0.0
 10
26.557424592403
 20
461.2818910522755
 30
0.0
 10
25.91323035794871
 20
461.1923787529699
 30
0.0
 10
25.19476952132829
 20
461.0833224264058
 30
0.0
 10
24.50593569845424
 20
460.9670776264844
 30
0.0
 10
23.85096976262394
 20
460.8446183587158
 30
0.0
 10
23.2277472148515
 20
460.715138341532
 30
0.0
 10
22.6400468814992
 20
460.5790723310907
 30
0.0
 10
22.08937246024221
 20
460.4363700224505
 30
0.0
 10
21.57722381493613
 20
460.2869135679862
 30
0.0
 10
21.10480941025818
 20
460.1303823131374
 30
0.0
 10
20.67303590149566
 20
459.9661219195514
 30
0.0
 10
20.28247082447382
 20
459.7929072766706
 30
0.0
 10
19.93346113780289
 20
459.6085762457195
 30
0.0
 10
19.62712914290448
 20
459.4098633346054
 30
0.0
 10
19.38061605772348
 20
459.2042472496167
 30
0.0
 10
19.19429846029682
 20
458.9949874996178
 30
0.0
 10
19.06310039522254
 20
458.7881839910211
 30
0.0
 10
18.98049597709148
 20
458.5774134839706
 30
0.0
 10
18.94126072389311
 20
458.3961214879581
 30
0.0
 10
18.9467743379803
 20
458.300241527184
 30
0.0
 10
18.9487802311578
 20
458.2682087863303
 30
0.0
  0
LINE
  5
231
330
75
100
AcDbEntity
  8
$DDT_AUDIT_GENERATED_(210)
  6
Continuous
 62
     7
100
AcDbLine
 10
68.9423280626
 20
425.1125144696
 30
0.0
 11
68.9423280626
 21
458.2765500933
 31
0.0
  0
LINE
  5
232
330
75
100
AcDbEntity
  8
$DDT_AUDIT_GENERATED_(210)
  6
Continuous
 62
     7
100
AcDbLine
 10
18.9423280626
 20
458.276227462
 30
0.0
 11
18.9423280626
 21
425.1126352071
 31
0.0
  0
ARC
  5
233
330
75
100
AcDbEntity
  8
$DDT_AUDIT_GENERATED_(210)
  6
Continuous
 62
     7
100
AcDbCircle
 10
25.7629987518
 20
424.713438244
 30
0.0
 40
6.794896478210059
100
AcDbArc
 50
184.1576058372
 51
192.8010805349
  0
ARC
  5
234
330
75
100
AcDbEntity
  8
$DDT_AUDIT_GENERATED_(210)
  6
Continuous
 62
     7
100
AcDbCircle
 10
62.7662034833
 20
424.5899017653
 30
0.0
 40
6.140860304642911
100
AcDbArc
 50
346.992728941
 51
356.5449746631
  0
SPLINE
  5
235
330
75
100
AcDbEntity
  8
$DDT_AUDIT_GENERATED_(210)
  6
Continuous
 62
     7
100
AcDbSpline
210
0.0
220
0.0
230
1.0
 70
     8
 71
     3
 72
    15
 73
    11
 74
     0
 42
0.0000000087565884
 43
0.0000000001
 40
0.0
 40
0.0
 40
0.0
 40
0.0
 40
0.0288816107474769
 40
0.1512166204534003
 40
0.2650538024933648
 40
0.3786798958197881
 40
0.500974146340849
 40
0.6443912164579916
 40
0.8313629192845392
 40
1.0
 40
1.0
 40
1.0
 40
1.0
 10
68.07251410577841
 20
422.4287139264252
 30
0.0
 10
68.08713538994753
 20
422.4275533436513
 30
0.0
 10
68.15265653755982
 20
422.4226295312963
 30
0.0
 10
68.27876049160508
 20
422.4598142334896
 30
0.0
 10
68.41326726267702
 20
422.5343078911779
 30
0.0
 10
68.51794282750932
 20
422.6323788579583
 30
0.0
 10
68.59843633885993
 20
422.7443025533062
 30
0.0
 10
68.66483009511393
 20
422.8794446980519
 30
0.0
 10
68.71649356816928
 20
423.0319400683997
 30
0.0
 10
68.73959897345306
 20
423.1472989861128
 30
0.0
 10
68.75187768419023
 20
423.212006692055
 30
0.0
  0
SPLINE
  5
236
330
75
100
AcDbEntity
  8
$DDT_AUDIT_GENERATED_(210)
  6
Continuous
 62
     7
100
AcDbSpline
210
0.0
220
0.0
230
1.0
 70
     8
 71
     3
 72
    14
 73
    10
 74
     0
 42
0.0000000088174576
 43
0.0000000001
 40
0.0
 40
0.0
 40
0.0
 40
0.0
 40
0.2174878887600253
 40
0.4148328017938749
 40
0.5511791784990153
 40
0.6765737840350413
 40
0.7948285432612672
 40
0.9106366627436611
 40
0.964436798981174
 40
0.964436798981174
 40
0.964436798981174
 40
0.964436798981174
 10
19.13168594556581
 20
423.2091829137235
 30
0.0
 10
19.14846831606303
 20
423.1278322985688
 30
0.0
 10
19.17770992749234
 20
422.99673207398
 30
0.0
 10
19.23987000653432
 20
422.8309753345328
 30
0.0
 10
19.31868598711292
 20
422.6927621912114
 30
0.0
 10
19.41546321328333
 20
422.5800960761173
 30
0.0
 10
19.54071941814601
 20
422.4897676876452
 30
0.0
 10
19.6685636929093
 20
422.4383464425773
 30
0.0
 10
19.74274959362086
 20
422.4320026187336
 30
0.0
 10
19.76778348765475
 20
422.4310397086808
 30
0.0
  0
LINE
  5
238
330
75
100
AcDbEntity
  8
$DDT_AUDIT_GENERATED_(237)
  6
Continuous
 62
     7
100
AcDbLine
 10
67.591640949
 20
420.2045117872
 30
0.0
 11
20.2930151761
 21
420.2045117872
 31
0.0
  0
ARC
  5
239
330
75
100
AcDbEntity
  8
$DDT_AUDIT_GENERATED_(237)
  6
Continuous
 62
     7
100
AcDbCircle
 10
43.9423280626
 20
413.8045117872
 30
0.0
 40
24.5
100
AcDbArc
 50
159.3809514368
 51
164.8572685595
  0
ARC
  5
23A
330
75
100
AcDbEntity
  8
$DDT_AUDIT_GENERATED_(237)
  6
Continuous
 62
     7
100
AcDbCircle
 10
43.9423280626
 20
413.8045117872
 30
0.0
 40
24.5
100
AcDbArc
 50
15.1427314405
 51
20.6150432326
  0
ENDBLK
  5
23C
330
75
100
AcDbEntity
  8
0
100
AcDbBlockEnd
  0
BLOCK
  5
2AF
330
23D
100
AcDbEntity
  8
0
100
AcDbBlockBegin
  2
SE1
 70
     0
 10
0.0
 20
0.0
 30
0.0
  3
SE1
  1

  0
LINE
  5
23F
330
23D
100
AcDbEntity
  8
$DDT_AUDIT_GENERATED_(77)
  6
Continuous
 62
     7
100
AcDbLine
 10
201.1700646233
 20
309.2521794826
 30
0.0
 11
201.1700646233
 21
384.6654437722
 31
0.0
  0
LINE
  5
240
330
23D
100
AcDbEntity
  8
$DDT_AUDIT_GENERATED_(77)
  6
Continuous
 62
     7
100
AcDbLine
 10
201.1700646233
 20
309.2521794835
 30
0.0
 11
151.1700647834
 21
309.2521794835
 31
0.0
  0
LINE
  5
241
330
23D
100
AcDbEntity
  8
$DDT_AUDIT_GENERATED_(77)
  6
Continuous
 62
     7
100
AcDbLine
 10
293.1360962557
 20
405.5203331849
 30
0.0
 11
293.1360969228
 21
410.7633167693
 31
0.0
  0
ARC
  5
242
330
23D
100
AcDbEntity
  8
$DDT_AUDIT_GENERATED_(77)
  6
Continuous
 62
     7
100
AcDbCircle
 10
196.6929532334
 20
-175.2792386934
 30
0.0
 40
588.2644649103077
100
AcDbArc
 50
80.5825432903
 51
89.7781426629
  0
SPLINE
  5
243
330
23D
100
AcDbEntity
  8
$DDT_AUDIT_GENERATED_(77)
  6
Continuous
 62
     7
100
AcDbSpline
210
0.0
220
0.0
230
1.0
 70
    12
 71
     2
 72
     6
 73
     3
 74
     0
 42
0.0000000185410844
 43
0.0000000001
 40
0.0
 40
0.0
 40
0.0
 40
1.0
 40
1.0
 40
1.0
 10
293.1360962557372
 20
405.5203331848779
 30
0.0
 41
1.0
 10
293.1360962214264
 20
405.2506617985584
 30
0.0
 41
0.9270542322225428
 10
292.9486325625721
 20
405.0568060884456
 30
0.0
 41
1.0
  0
ARC
  5
244
330
23D
100
AcDbEntity
  8
$DDT_AUDIT_GENERATED_(77)
  6
Continuous
 62
     7
100
AcDbCircle
 10
747.49170818
 20
625.8699397467
 30
0.0
 40
597.1992524248292
100
AcDbArc
 50
201.4367873375
 51
203.8217647456
  0
SPLINE
  5
245
330
23D
100
AcDbEntity
  8
$DDT_AUDIT_GENERATED_(77)
  6
Continuous
 62
     7
100
AcDbSpline
210
0.0
220
0.0
230
1.0
 70
     8
 71
     3
 72
    11
 73
     7
 74
     0
 42
0.0000000001927501
 43
0.0000000001
 40
0.0
 40
0.0
 40
0.0
 40
0.0
 40
0.413218401067773
 40
0.562461438736196
 40
0.8609475140730422
 40
1.0
 40
1.0
 40
1.0
 40
1.0
 10
212.9452485740477
 20
396.6633376600769
 30
0.0
 10
221.438245872834
 20
396.8224790991226
 30
0.0
 10
232.3729208947745
 20
396.714090805329
 30
0.0
 10
247.4932756941948
 20
395.9925678497689
 30
0.0
 10
257.5822386416008
 20
395.5663827232502
 30
0.0
 10
262.9632924626894
 20
394.1757402647081
 30
0.0
 10
264.5509690243809
 20
393.6994608114509
 30
0.0
  0
SPLINE
  5
246
330
23D
100
AcDbEntity
  8
$DDT_AUDIT_GENERATED_(77)
  6
Continuous
 62
     7
100
AcDbSpline
210
0.0
220
0.0
230
1.0
 70
     8
 71
     3
 72
    14
 73
    10
 74
     0
 42
0.000000000533588
 43
0.0000000001
 40
0.0
 40
0.0
 40
0.0
 40
0.0
 40
0.25
 40
0.25
 40
0.5
 40
0.5
 40
0.75
 40
0.75
 40
1.0
 40
1.0
 40
1.0
 40
1.0
 10
212.9452485740477
 20
396.6633376600769
 30
0.0
 10
211.3934604152695
 20
396.6342603164732
 30
0.0
 10
209.8479652477975
 20
396.3004146669549
 30
0.0
 10
206.9971059601591
 20
395.0723392423062
 30
0.0
 10
205.6928111514628
 20
394.178570098517
 30
0.0
 10
203.5185240575211
 20
391.9631596264693
 30
0.0
 10
202.6493473123967
 20
390.6423492630496
 30
0.0
 10
201.4748973366258
 20
387.7689827391004
 30
0.0
 10
201.1700646232771
 20
386.2175043321432
 30
0.0
 10
201.1700646232771
 20
384.665443772231
 30
0.0
  0
ARC
  5
247
330
23D
100
AcDbEntity
  8
$DDT_AUDIT_GENERATED_(77)
  6
Continuous
 62
     7
100
AcDbCircle
 10
161.1940373142
 20
-4276.1204961688
 30
0.0
 40
4696.334634512767
100
AcDbArc
 50
89.6480273103
 51
90.1161934813
  0
ARC
  5
248
330
23D
100
AcDbEntity
  8
$DDT_AUDIT_GENERATED_(77)
  6
Continuous
 62
     7
100
AcDbCircle
 10
191.8807405418
 20
-161.8265969
 30
0.0
 40
581.8869939393705
100
AcDbArc
 50
80.0198961922
 51
89.4898587949
  0
ARC
  5
249
330
23D
100
AcDbEntity
  8
$DDT_AUDIT_GENERATED_(77)
  6
Continuous
 62
     7
100
AcDbCircle
 10
182.8502483184
 20
-431.5516950533
 30
0.0
 40
851.7075990596924
100
AcDbArc
 50
89.0439353951
 51
89.5160703666
  0
LINE
  5
24A
330
23D
100
AcDbEntity
  8
$DDT_AUDIT_GENERATED_(77)
  6
Continuous
 62
     7
100
AcDbLine
 10
151.1700646233
 20
419.7044812346
 30
0.0
 11
151.1700646233
 21
362.487058466
 31
0.0
  0
ARC
  5
24B
330
23D
100
AcDbEntity
  8
$DDT_AUDIT_GENERATED_(77)
  6
Continuous
 62
     7
100
AcDbCircle
 10
292.6360969228
 20
410.7633168329
 30
0.0
 40
0.5000000000007677
100
AcDbArc
 50
0.0
 51
74.2608779743
  0
SPLINE
  5
24C
330
23D
100
AcDbEntity
  8
$DDT_AUDIT_GENERATED_(77)
  6
Continuous
 62
     7
100
AcDbSpline
210
0.0
220
0.0
230
1.0
 70
     8
 71
     3
 72
    10
 73
     6
 74
     0
 42
0.0000000124188139
 43
0.0000000001
 40
0.0
 40
0.0
 40
0.0
 40
0.0
 40
0.5
 40
0.5
 40
1.0
 40
1.0
 40
1.0
 40
1.0
 10
151.6700706060789
 20
420.2044812345678
 30
0.0
 10
151.5391699150551
 20
420.2044828008736
 30
0.0
 10
151.4090746679927
 20
420.1505969529476
 30
0.0
 10
151.2239520278674
 20
419.9654765279132
 30
0.0
 10
151.1700646232771
 20
419.8353819256369
 30
0.0
 10
151.1700646232771
 20
419.7044812346036
 30
0.0
  0
SPLINE
  5
24D
330
23D
100
AcDbEntity
  8
$DDT_AUDIT_GENERATED_(77)
  6
Continuous
 62
     7
100
AcDbSpline
210
0.0
220
0.0
230
1.0
 70
     8
 71
     3
 72
     9
 73
     5
 74
     0
 42
0.0000000020762021
 43
0.0000000001
 40
0.0
 40
0.0
 40
0.0
 40
0.0
 40
0.3192339599942904
 40
1.0
 40
1.0
 40
1.0
 40
1.0
 10
289.2582947896409
 20
401.9782426094217
 30
0.0
 10
289.6492957111493
 20
402.2562877183088
 30
0.0
 10
290.8882918419012
 20
403.169904422643
 30
0.0
 10
292.1652115061399
 20
404.2466722948706
 30
0.0
 10
292.9486325625721
 20
405.0568060884456
 30
0.0
  0
LINE
  5
24E
330
23D
100
AcDbEntity
  8
$DDT_AUDIT_GENERATED_(77)
  6
Continuous
 62
     7
100
AcDbLine
 10
151.1700646233
 20
341.807713451
 30
0.0
 11
151.1700646233
 21
309.2521794826
 31
0.0
  0
ARC
  5
24F
330
23D
100
AcDbEntity
  8
$DDT_AUDIT_GENERATED_(77)
  6
Continuous
 62
     7
100
AcDbCircle
 10
-156.9075399359
 20
352.1473859585
 30
0.0
 40
308.2510652998118
100
AcDbArc
 50
358.0777657852
 51
1.9222342148
  0
ARC
  5
250
330
23D
100
AcDbEntity
  8
$DDT_AUDIT_GENERATED_(77)
  6
Continuous
 62
     7
100
AcDbCircle
 10
278.927739855
 20
453.3382604441
 30
0.0
 40
52.38866096052901
100
AcDbArc
 50
275.4296703467
 51
281.3727246879
  0
SPLINE
  5
251
330
23D
100
AcDbEntity
  8
$DDT_AUDIT_GENERATED_(77)
  6
Continuous
 62
     7
100
AcDbSpline
210
0.0
220
0.0
230
1.0
 70
     8
 71
     3
 72
    14
 73
    10
 74
     0
 42
0.0000000004260687
 43
0.0000000001
 40
0.0
 40
0.0
 40
0.0
 40
0.0
 40
0.0625000000000004
 40
0.0625000000000004
 40
0.1250000000000008
 40
0.1250000000000008
 40
0.1875000000000012
 40
0.1875000000000012
 40
0.2268915866152993
 40
0.2268915866152993
 40
0.2268915866152993
 40
0.2268915866152993
 10
283.8849565310312
 20
401.1846622934199
 30
0.0
 10
284.7722769452667
 20
401.301324591744
 30
0.0
 10
285.5937721745041
 20
401.3875038594553
 30
0.0
 10
286.991748653469
 20
401.5478018175356
 30
0.0
 10
287.5797574310091
 20
401.6220826353857
 30
0.0
 10
288.4957040566857
 20
401.7603408788793
 30
0.0
 10
288.8109122791496
 20
401.8223202307243
 30
0.0
 10
289.1012647117988
 20
401.8897399421779
 30
0.0
 10
289.1572808913691
 20
401.904641206798
 30
0.0
 10
289.1577490489873
 20
401.9053480081973
 30
0.0
  0
ARC
  5
252
330
23D
100
AcDbEntity
  8
$DDT_AUDIT_GENERATED_(77)
  6
Continuous
 62
     7
100
AcDbCircle
 10
264.6946364596
 20
394.1783759063
 30
0.0
 40
0.5000000000000118
100
AcDbArc
 50
253.3015343142
 51
326.0588968041
  0
ARC
  5
253
330
23D
100
AcDbEntity
  8
$DDT_AUDIT_GENERATED_(77)
  6
Continuous
 62
     7
100
AcDbCircle
 10
292.6057797204
 20
410.7870748072
 30
0.0
 40
0.4853973079225555
100
AcDbArc
 50
356.9283900279
 51
11.9244935418
  0
ARC
  5
254
330
23D
100
AcDbEntity
  8
$DDT_AUDIT_GENERATED_(77)
  6
Continuous
 62
     7
100
AcDbCircle
 10
292.6057797204
 20
410.7870748072
 30
0.0
 40
0.4853973079225555
100
AcDbArc
 50
70.14984517
 51
76.318393134
  0
ARC
  5
255
330
23D
100
AcDbEntity
  8
$DDT_AUDIT_GENERATED_(77)
  6
Continuous
 62
     7
100
AcDbCircle
 10
292.6059841285
 20
410.7873713754
 30
0.0
 40
0.4850608238925446
100
AcDbArc
 50
357.0362462133
 51
76.3335671567
  0
SPLINE
  5
256
330
23D
100
AcDbEntity
  8
$DDT_AUDIT_GENERATED_(77)
  6
Continuous
 62
     7
100
AcDbSpline
210
0.0
220
0.0
230
1.0
 70
     8
 71
     3
 72
    25
 73
    21
 74
     0
 42
0.0000000018033443
 43
0.0000000001
 40
0.0
 40
0.0
 40
0.0
 40
0.0
 40
0.0359277202771256
 40
0.1393825873526466
 40
0.2430206538863263
 40
0.3463683996932534
 40
0.4492316411259766
 40
0.5517130539138853
 40
0.6394641313267382
 40
0.7308798920067189
 40
0.8306407701852601
 40
0.9314467716727816
 40
0.9570585803901974
 40
0.9722004463318396
 40
0.9784653737695358
 40
0.9808267940153449
 40
0.9827834129745504
 40
0.9856121104740195
 40
0.9984256969374102
 40
1.0
 40
1.0
 40
1.0
 40
1.0
 10
283.7164151119813
 20
401.0386635592271
 30
0.0
 10
283.8469517935025
 20
401.05682487615
 30
0.0
 10
284.2784696991789
 20
401.1168592629127
 30
0.0
 10
285.0315931769692
 20
401.2164643428628
 30
0.0
 10
285.8927555044629
 20
401.3295859155557
 30
0.0
 10
286.6679384779462
 20
401.4318765779747
 30
0.0
 10
287.3395994110263
 20
401.5239205598568
 30
0.0
 10
287.8822943566552
 20
401.6058047182033
 30
0.0
 10
288.2953177086726
 20
401.6746976759625
 30
0.0
 10
288.6113492757245
 20
401.7261849392415
 30
0.0
 10
288.8372199716192
 20
401.7635511230754
 30
0.0
 10
288.9260277998867
 20
401.7783686673782
 30
0.0
 10
288.9505257545932
 20
401.7825150003501
 30
0.0
 10
288.9576090098
 20
401.7838086220766
 30
0.0
 10
288.965986030025
 20
401.7853014490306
 30
0.0
 10
288.9799479827353
 20
401.7882404389657
 30
0.0
 10
288.9996253994997
 20
401.7928896876023
 30
0.0
 10
289.0652335327518
 20
401.8126514803656
 30
0.0
 10
289.1370816931068
 20
401.8409423187081
 30
0.0
 10
289.1744526428942
 20
401.8815241961287
 30
0.0
 10
289.179200501025
 20
401.8866842463335
 30
0.0
  0
SPLINE
  5
257
330
23D
100
AcDbEntity
  8
$DDT_AUDIT_GENERATED_(77)
  6
Continuous
 62
     7
100
AcDbSpline
210
0.0
220
0.0
230
1.0
 70
     8
 71
     3
 72
    12
 73
     8
 74
     0
 42
0.0000000012741293
 43
0.0000000001
 40
0.8693898184734246
 40
0.8693898184734246
 40
0.8693898184734246
 40
0.8693898184734246
 40
0.8920823012561137
 40
0.921528072679603
 40
0.9513220529927696
 40
0.9663319384079994
 40
0.9771806560374324
 40
0.9771806560374324
 40
0.9771806560374324
 40
0.9771806560374324
 10
288.1098404737232
 20
401.6443097336973
 30
0.0
 10
288.2215247306031
 20
401.6626602688057
 30
0.0
 10
288.4498232972794
 20
401.7008778497739
 30
0.0
 10
288.7209072624921
 20
401.7453002998915
 30
0.0
 10
288.8722070179697
 20
401.7701014702882
 30
0.0
 10
288.9295577677309
 20
401.7793643144668
 30
0.0
 10
288.9438790066349
 20
401.7816373099611
 30
0.0
 10
288.9431628171688
 20
401.7815189134309
 30
0.0
  0
SPLINE
  5
258
330
23D
100
AcDbEntity
  8
$DDT_AUDIT_GENERATED_(77)
  6
Continuous
 62
     7
100
AcDbSpline
210
0.0
220
0.0
230
1.0
 70
     8
 71
     3
 72
     9
 73
     5
 74
     0
 42
0.000000000244163
 43
0.0000000001
 40
0.9882703162732238
 40
0.9882703162732238
 40
0.9882703162732238
 40
0.9882703162732238
 40
0.9888329892470634
 40
0.9902983277841326
 40
0.9902983277841326
 40
0.9902983277841326
 40
0.9902983277841326
 10
288.7074576007501
 20
401.8035055330872
 30
0.0
 10
288.7001842249761
 20
401.8060093755265
 30
0.0
 10
288.6741897707874
 20
401.8156365944249
 30
0.0
 10
288.6491609478894
 20
401.8274100069704
 30
0.0
 10
288.6316164126794
 20
401.8369862808332
 30
0.0
  0
SPLINE
  5
259
330
23D
100
AcDbEntity
  8
$DDT_AUDIT_GENERATED_(77)
  6
Continuous
 62
     7
100
AcDbSpline
210
0.0
220
0.0
230
1.0
 70
     8
 71
     3
 72
    32
 73
    28
 74
     0
 42
0.0000000004772925
 43
0.0000000001
 40
0.0205598643338607
 40
0.0205598643338607
 40
0.0205598643338607
 40
0.0205598643338607
 40
0.0242568488447168
 40
0.0433236144036642
 40
0.0767312918657011
 40
0.1170308269976279
 40
0.1587206001566357
 40
0.2004225934158142
 40
0.2420952656181415
 40
0.2865295741885695
 40
0.3313932625959337
 40
0.3761576155097733
 40
0.4200243694089291
 40
0.4624469159838579
 40
0.5031897806484656
 40
0.5423429907659661
 40
0.5804003968633998
 40
0.6194707990695498
 40
0.6599738743188824
 40
0.7018253257453609
 40
0.7447874881068716
 40
0.7884771507084175
 40
0.8324081167084352
 40
0.8755822098294285
 40
0.9194798030855694
 40
0.9635788226206631
 40
1.0
 40
1.0
 40
1.0
 40
1.0
 10
265.0801431027043
 20
393.8714754819883
 30
0.0
 10
265.0801788492632
 20
393.871518540965
 30
0.0
 10
265.0825394785584
 20
393.8742175219215
 30
0.0
 10
265.1048447002939
 20
393.8982132359496
 30
0.0
 10
265.1845876530238
 20
393.9818551927826
 30
0.0
 10
265.3513613306952
 20
394.1538685988219
 30
0.0
 10
265.6088361591447
 20
394.4159831645836
 30
0.0
 10
265.9506304809878
 20
394.7613707561725
 30
0.0
 10
266.3725537641578
 20
395.1796451658554
 30
0.0
 10
266.8844194264476
 20
395.66031356249
 30
0.0
 10
267.4953809366846
 20
396.1904996922045
 30
0.0
 10
268.1938697659917
 20
396.7384398851443
 30
0.0
 10
268.9703916651731
 20
397.2776666772875
 30
0.0
 10
269.8115714054309
 20
397.7833304622283
 30
0.0
 10
270.7037761442365
 20
398.2367497090466
 30
0.0
 10
271.6397090673794
 20
398.6248282877456
 30
0.0
 10
272.6216010133587
 20
398.962162833809
 30
0.0
 10
273.6582197205352
 20
399.2622203413766
 30
0.0
 10
274.7600214376442
 20
399.5337619414009
 30
0.0
 10
275.9170306212991
 20
399.7800692157156
 30
0.0
 10
277.1111814020069
 20
400.0044074482956
 30
0.0
 10
278.3200915768921
 20
400.210639330061
 30
0.0
 10
279.5124261924744
 20
400.404138929379
 30
0.0
 10
280.6785970562293
 20
400.5886337639184
 30
0.0
 10
281.7980930551886
 20
400.7584187902971
 30
0.0
 10
282.8441411162495
 20
400.9118894015388
 30
0.0
 10
283.4174207731587
 20
400.9928934682468
 30
0.0
 10
283.7227739258552
 20
401.0359202890411
 30
0.0
  0
LINE
  5
25A
330
23D
100
AcDbEntity
  8
02636038_GEH_USE
  6
Continuous
 62
     7
100
AcDbLine
 10
268.3796998969
 20
389.9013561223
 30
0.0
 11
288.5830912438
 21
397.2547892038
 31
0.0
  0
LINE
  5
25B
330
23D
100
AcDbEntity
  8
02636038_GEH_USE
  6
Continuous
 62
     7
100
AcDbLine
 10
267.1856839522
 20
390.1118933487
 30
0.0
 11
289.3624298028
 21
398.1835687312
 31
0.0
  0
LINE
  5
25C
330
23D
100
AcDbEntity
  8
02636038_GEH_USE
  6
Continuous
 62
     7
100
AcDbLine
 10
267.1856839522
 20
390.1118933487
 30
0.0
 11
268.3796998969
 21
389.9013561223
 31
0.0
  0
LINE
  5
25D
330
23D
100
AcDbEntity
  8
02636038_GEH_USE
  6
Continuous
 62
     7
100
AcDbLine
 10
288.5830912438
 20
397.2547892038
 30
0.0
 11
289.3624298028
 21
398.1835687312
 31
0.0
  0
LINE
  5
25E
330
23D
100
AcDbEntity
  8
02636038_GEH_USE
  6
Continuous
 62
     7
100
AcDbLine
 10
265.6164556319
 20
394.4233127247
 30
0.0
 11
267.1856839522
 21
390.1118933487
 31
0.0
  0
LINE
  5
25F
330
23D
100
AcDbEntity
  8
02636038_GEH_USE
  6
Continuous
 62
     7
100
AcDbLine
 10
289.3624298028
 20
398.1835687312
 30
0.0
 11
288.103267304
 21
401.6430892639
 31
0.0
  0
LINE
  5
260
330
23D
100
AcDbEntity
  8
64647040_EINSATZ
  6
Continuous
 62
     7
100
AcDbLine
 10
286.9391583942
 20
394.6877177003
 30
0.0
 11
271.2891072769
 21
388.9915649289
 31
0.0
  0
SPLINE
  5
261
330
23D
100
AcDbEntity
  8
64647040_EINSATZ
  6
Continuous
 62
     7
100
AcDbSpline
210
0.0
220
0.0
230
1.0
 70
     8
 71
     3
 72
    20
 73
    16
 74
     0
 42
0.0000000631015441
 43
0.0000000001
 40
0.0
 40
0.0
 40
0.0
 40
0.0
 40
0.2125265405902705
 40
0.2125265405902705
 40
0.2125265405902705
 40
0.4250001490954964
 40
0.4250001490954964
 40
0.4250001490954964
 40
0.638312117778163
 40
0.638312117778163
 40
0.638312117778163
 40
0.8534671345903798
 40
0.8534671345903798
 40
0.8534671345903798
 40
1.0
 40
1.0
 40
1.0
 40
1.0
 10
269.8596457033731
 20
390.1739679010451
 30
0.0
 10
269.8634481040148
 20
390.1635208911423
 30
0.0
 10
269.8691116797276
 20
390.153588212222
 30
0.0
 10
269.8761616078264
 20
390.1449918885688
 30
0.0
 10
269.8832105581844
 20
390.1363967571228
 30
0.0
 10
269.891837897604
 20
390.1289009871974
 30
0.0
 10
269.9013262014653
 20
390.1231099531308
 30
0.0
 10
269.9108524332332
 20
390.1172957703748
 30
0.0
 10
269.9215055082926
 20
390.113040137422
 30
0.0
 10
269.9324122790418
 20
390.1106745160151
 30
0.0
 10
269.9434123285014
 20
390.108288662945
 30
0.0
 10
269.954970257508
 20
390.1077593019545
 30
0.0
 10
269.9661438146448
 20
390.1091176111592
 30
0.0
 10
269.9738109702198
 20
390.1100496659976
 30
0.0
 10
269.9814196809023
 20
390.1118722269256
 30
0.0
 10
269.9886774910638
 20
390.1145138537906
 30
0.0
  0
LINE
  5
262
330
23D
100
AcDbEntity
  8
64647040_EINSATZ
  6
Continuous
 62
     7
100
AcDbLine
 10
269.8596457034
 20
390.173967901
 30
0.0
 11
269.7741406675
 21
390.4088910562
 31
0.0
  0
LINE
  5
263
330
23D
100
AcDbEntity
  8
64647040_EINSATZ
  6
Continuous
 62
     7
100
AcDbLine
 10
270.1072416053
 20
390.1576676622
 30
0.0
 11
269.9886774911
 21
390.1145138538
 31
0.0
  0
SPLINE
  5
264
330
23D
100
AcDbEntity
  8
64647040_EINSATZ
  6
Continuous
 62
     7
100
AcDbSpline
210
0.0
220
0.0
230
1.0
 70
     8
 71
     3
 72
    20
 73
    16
 74
     0
 42
0.000000063088464
 43
0.0000000001
 40
0.0
 40
0.0
 40
0.0
 40
0.0
 40
0.2174785466303456
 40
0.2174785466303456
 40
0.2174785466303456
 40
0.4350168090148732
 40
0.4350168090148732
 40
0.4350168090148732
 40
0.6515958899074934
 40
0.6515958899074934
 40
0.6515958899074934
 40
0.8662118866631088
 40
0.8662118866631088
 40
0.8662118866631088
 40
1.0
 40
1.0
 40
1.0
 40
1.0
 10
270.1072416053307
 20
390.1576676622363
 30
0.0
 10
270.096549745295
 20
390.1537761434344
 30
0.0
 10
270.0850404676341
 20
390.1516713129527
 30
0.0
 10
270.0736632678269
 20
390.1515330589919
 30
0.0
 10
270.0622843245476
 20
390.1513947838448
 30
0.0
 10
270.0507217778609
 20
390.1532212645428
 30
0.0
 10
270.0399443987024
 20
390.1568746969897
 30
0.0
 10
270.0292150589801
 20
390.1605118445094
 30
0.0
 10
270.0189648919428
 20
390.16606279991
 30
0.0
 10
270.0100664733466
 20
390.1730746270216
 30
0.0
 10
270.0012478001822
 20
390.1800236158687
 30
0.0
 10
269.9935113485634
 20
390.1886019789536
 30
0.0
 10
269.9875170987677
 20
390.1980954720811
 30
0.0
 10
269.9837472344512
 20
390.2040660575922
 30
0.0
 10
269.9806009295023
 20
390.2104776895081
 30
0.0
 10
269.9781858756874
 20
390.2171129953322
 30
0.0
  0
LINE
  5
265
330
23D
100
AcDbEntity
  8
64647040_EINSATZ
  6
Continuous
 62
     7
100
AcDbLine
 10
269.8926808399
 20
390.4520361505
 30
0.0
 11
269.9781858757
 21
390.2171129953
 31
0.0
  0
SPLINE
  5
266
330
23D
100
AcDbEntity
  8
64647040_EINSATZ
  6
Continuous
 62
     7
100
AcDbSpline
210
0.0
220
0.0
230
1.0
 70
     8
 71
     3
 72
    20
 73
    16
 74
     0
 42
0.0000000734542227
 43
0.0000000001
 40
0.0
 40
0.0
 40
0.0
 40
0.0
 40
0.2174093870011151
 40
0.2174093870011151
 40
0.2174093870011151
 40
0.4348768202247125
 40
0.4348768202247125
 40
0.4348768202247125
 40
0.6514121854904935
 40
0.6514121854904935
 40
0.6514121854904935
 40
0.8660380396115136
 40
0.8660380396115136
 40
0.8660380396115136
 40
1.0
 40
1.0
 40
1.0
 40
1.0
 10
271.6806196285428
 20
390.7303304299341
 30
0.0
 10
271.6730627101917
 20
390.7275799365916
 30
0.0
 10
271.6647318887142
 20
390.7266312114289
 30
0.0
 10
271.6563139406746
 20
390.7275683888801
 30
0.0
 10
271.6478947383446
 20
390.7285057059725
 30
0.0
 10
271.6391546929989
 20
390.7313568170237
 30
0.0
 10
271.6308244598906
 20
390.7358972144859
 30
0.0
 10
271.6225303214338
 20
390.7404179385413
 30
0.0
 10
271.6144112121267
 20
390.7467409301203
 30
0.0
 10
271.6071559845134
 20
390.7543467386506
 30
0.0
 10
271.59996401558
 20
390.761886231769
 30
0.0
 10
271.5934207289883
 20
390.7708971491872
 30
0.0
 10
271.5880822695757
 20
390.7806278960455
 30
0.0
 10
271.5847206932055
 20
390.78675525343
 30
0.0
 10
271.5817806821289
 20
390.7932507785352
 30
0.0
 10
271.5793628384104
 20
390.7998937495561
 30
0.0
  0
LINE
  5
267
330
23D
100
AcDbEntity
  8
64647040_EINSATZ
  6
Continuous
 62
     7
100
AcDbLine
 10
271.4938578026
 20
391.0348169048
 30
0.0
 11
271.5793628384
 21
390.7998937496
 31
0.0
  0
LINE
  5
268
330
23D
100
AcDbEntity
  8
64647040_EINSATZ
  6
Continuous
 62
     7
100
AcDbLine
 10
273.2405203994
 20
391.4045056562
 30
0.0
 11
273.1550153636
 21
391.6394288114
 31
0.0
  0
SPLINE
  5
269
330
23D
100
AcDbEntity
  8
64647040_EINSATZ
  6
Continuous
 62
     7
100
AcDbSpline
210
0.0
220
0.0
230
1.0
 70
     8
 71
     3
 72
    20
 73
    16
 74
     0
 42
0.0000000734876714
 43
0.0000000001
 40
0.0
 40
0.0
 40
0.0
 40
0.0
 40
0.2125265405902869
 40
0.2125265405902869
 40
0.2125265405902869
 40
0.4250001490955228
 40
0.4250001490955228
 40
0.4250001490955228
 40
0.6383121177781937
 40
0.6383121177781937
 40
0.6383121177781937
 40
0.8534671345904412
 40
0.8534671345904412
 40
0.8534671345904412
 40
1.0
 40
1.0
 40
1.0
 40
1.0
 10
273.2405203993821
 20
391.4045056561761
 30
0.0
 10
273.2443228000238
 20
391.3940586462733
 30
0.0
 10
273.2494566016892
 20
391.3839331453689
 30
0.0
 10
273.2554924051757
 20
391.374967710543
 30
0.0
 10
273.2615273715686
 20
391.3660035191157
 30
0.0
 10
273.2686290189631
 20
391.3579524427064
 30
0.0
 10
273.2762084847969
 20
391.3514666484158
 30
0.0
 10
273.2838182482769
 20
391.344954928248
 30
0.0
 10
273.2921167055621
 20
391.3398422845125
 30
0.0
 10
273.3004253304396
 20
391.336531015344
 30
0.0
 10
273.3088050137295
 20
391.3331914269851
 30
0.0
 10
273.3174235323501
 20
391.3315922081078
 30
0.0
 10
273.3255793955961
 20
391.3318521665602
 30
0.0
 10
273.3311758472533
 20
391.3320305468085
 30
0.0
 10
273.3366451427329
 20
391.3330744242839
 30
0.0
 10
273.3417771895146
 20
391.334942336554
 30
0.0
  0
LINE
  5
26A
330
23D
100
AcDbEntity
  8
64647040_EINSATZ
  6
Continuous
 62
     7
100
AcDbLine
 10
273.4256146787
 20
391.3654566871
 30
0.0
 11
273.3417771895
 21
391.3349423366
 31
0.0
  0
SPLINE
  5
26B
330
23D
100
AcDbEntity
  8
64647040_EINSATZ
  6
Continuous
 62
     7
100
AcDbSpline
210
0.0
220
0.0
230
1.0
 70
     8
 71
     3
 72
    20
 73
    16
 74
     0
 42
0.0000000734471153
 43
0.0000000001
 40
0.0
 40
0.0
 40
0.0
 40
0.0
 40
0.2174785466303357
 40
0.2174785466303357
 40
0.2174785466303357
 40
0.4350168090148483
 40
0.4350168090148483
 40
0.4350168090148483
 40
0.6515958899074671
 40
0.6515958899074671
 40
0.6515958899074671
 40
0.8662118866630723
 40
0.8662118866630723
 40
0.8662118866630723
 40
1.0
 40
1.0
 40
1.0
 40
1.0
 10
273.4256146787181
 20
391.3654566871397
 30
0.0
 10
273.4180543919833
 20
391.3627049678058
 30
0.0
 10
273.4097199091054
 20
391.3617556681251
 30
0.0
 10
273.4012982227807
 20
391.3626931330988
 30
0.0
 10
273.3928752458944
 20
391.3636307417322
 30
0.0
 10
273.3841312007178
 20
391.3664830730851
 30
0.0
 10
273.3757972758365
 20
391.3710258501577
 30
0.0
 10
273.3675004988598
 20
391.3755483781098
 30
0.0
 10
273.3593788110342
 20
391.3818740365878
 30
0.0
 10
273.3521217495061
 20
391.389483268816
 30
0.0
 10
273.3449297239729
 20
391.3970243089824
 30
0.0
 10
273.3383866440837
 20
391.4060370238553
 30
0.0
 10
273.3330490333215
 20
391.4157695140457
 30
0.0
 10
273.3296921381247
 20
391.421890408024
 30
0.0
 10
273.3267560128836
 20
391.4283785390973
 30
0.0
 10
273.3243409590685
 20
391.4350138449215
 30
0.0
  0
LINE
  5
26C
330
23D
100
AcDbEntity
  8
64647040_EINSATZ
  6
Continuous
 62
     7
100
AcDbLine
 10
273.2388359232
 20
391.6699370001
 30
0.0
 11
273.3243409591
 21
391.4350138449
 31
0.0
  0
LINE
  5
26D
330
23D
100
AcDbEntity
  8
64647040_EINSATZ
  6
Continuous
 62
     7
100
AcDbLine
 10
277.4264868446
 20
392.8216550666
 30
0.0
 11
277.3922848302
 21
392.9156243287
 31
0.0
  0
LINE
  5
26E
330
23D
100
AcDbEntity
  8
64647040_EINSATZ
  6
Continuous
 62
     7
100
AcDbLine
 10
277.3067797944
 20
393.1505474839
 30
0.0
 11
277.3922848302
 21
392.9156243287
 31
0.0
  0
LINE
  5
26F
330
23D
100
AcDbEntity
  8
64647040_EINSATZ
  6
Continuous
 62
     7
100
AcDbLine
 10
279.7415163822
 20
393.770674687
 30
0.0
 11
279.6560113464
 21
394.0055978422
 31
0.0
  0
LINE
  5
270
330
23D
100
AcDbEntity
  8
64647040_EINSATZ
  6
Continuous
 62
     7
100
AcDbLine
 10
279.7415163822
 20
393.770674687
 30
0.0
 11
279.7757183965
 21
393.6767054249
 31
0.0
  0
LINE
  5
271
330
23D
100
AcDbEntity
  8
64647040_EINSATZ
  6
Continuous
 62
     7
100
AcDbLine
 10
283.7239552175
 20
395.486208326
 30
0.0
 11
283.8094602534
 21
395.2512851708
 31
0.0
  0
SPLINE
  5
272
330
23D
100
AcDbEntity
  8
64647040_EINSATZ
  6
Continuous
 62
     7
100
AcDbSpline
210
0.0
220
0.0
230
1.0
 70
     8
 71
     3
 72
    20
 73
    16
 74
     0
 42
0.0000000734807071
 43
0.0000000001
 40
0.0
 40
0.0
 40
0.0
 40
0.0
 40
0.2124602044789375
 40
0.2124602044789375
 40
0.2124602044789375
 40
0.424866054904191
 40
0.424866054904191
 40
0.424866054904191
 40
0.6381326839798532
 40
0.6381326839798532
 40
0.6381326839798532
 40
0.8532925071046277
 40
0.8532925071046277
 40
0.8532925071046277
 40
1.0
 40
1.0
 40
1.0
 40
1.0
 10
283.8094602533654
 20
395.2512851707756
 30
0.0
 10
283.8132619516021
 20
395.2408400907145
 30
0.0
 10
283.815837202572
 20
395.2297855709388
 30
0.0
 10
283.8169760658902
 20
395.219039906675
 30
0.0
 10
283.8181147669654
 20
395.2082957732428
 30
0.0
 10
283.8178496889747
 20
395.1975655581695
 30
0.0
 10
283.8162129922543
 20
395.1877269035557
 30
0.0
 10
283.8145695759652
 20
395.1778478556811
 30
0.0
 10
283.8114995954893
 20
395.168597775743
 30
0.0
 10
283.8072643738852
 20
395.1607203551739
 30
0.0
 10
283.802991937263
 20
395.1527737154763
 30
0.0
 10
283.7974178154743
 20
395.1460066502846
 30
0.0
 10
283.7910029948161
 20
395.1409607454544
 30
0.0
 10
283.7865961574517
 20
395.1374943224432
 30
0.0
 10
283.7817292979477
 20
395.1347741511874
 30
0.0
 10
283.776590562381
 20
395.1329038044001
 30
0.0
  0
LINE
  5
273
330
23D
100
AcDbEntity
  8
64647040_EINSATZ
  6
Continuous
 62
     7
100
AcDbLine
 10
283.8604280516
 20
395.163418155
 30
0.0
 11
283.7765905624
 21
395.1329038044
 31
0.0
  0
SPLINE
  5
274
330
23D
100
AcDbEntity
  8
64647040_EINSATZ
  6
Continuous
 62
     7
100
AcDbSpline
210
0.0
220
0.0
230
1.0
 70
     8
 71
     3
 72
    20
 73
    16
 74
     0
 42
0.0000000734542227
 43
0.0000000001
 40
0.0
 40
0.0
 40
0.0
 40
0.0
 40
0.2174093870011363
 40
0.2174093870011363
 40
0.2174093870011363
 40
0.4348768202247474
 40
0.4348768202247474
 40
0.4348768202247474
 40
0.6514121854905198
 40
0.6514121854905198
 40
0.6514121854905198
 40
0.8660380396115526
 40
0.8660380396115526
 40
0.8660380396115526
 40
1.0
 40
1.0
 40
1.0
 40
1.0
 10
283.8604280515845
 20
395.1634181549858
 30
0.0
 10
283.8679849699356
 20
395.1661686483284
 30
0.0
 10
283.8749765782146
 20
395.1707968315138
 30
0.0
 10
283.8808226944791
 20
395.1769257037914
 30
0.0
 10
283.8866696818262
 20
395.1830554892825
 30
0.0
 10
283.8915322861383
 20
395.1908575599164
 30
0.0
 10
283.8949951036891
 20
395.1996902767896
 30
0.0
 10
283.8984429169548
 20
395.2084847217643
 30
0.0
 10
283.9005981748794
 20
395.2185472771915
 30
0.0
 10
283.9012670821912
 20
395.2290372349668
 30
0.0
 10
283.9019301572678
 20
395.2394357302937
 30
0.0
 10
283.9011504995329
 20
395.2505444370572
 30
0.0
 10
283.8989851931872
 20
395.2614301171806
 30
0.0
 10
283.8976217206788
 20
395.2682847248958
 30
0.0
 10
283.8956986567707
 20
395.2751503885002
 30
0.0
 10
283.8932808130519
 20
395.281793359521
 30
0.0
  0
LINE
  5
275
330
23D
100
AcDbEntity
  8
64647040_EINSATZ
  6
Continuous
 62
     7
100
AcDbLine
 10
283.8077757772
 20
395.5167165147
 30
0.0
 11
283.8932808131
 21
395.2817933595
 31
0.0
  0
LINE
  5
276
330
23D
100
AcDbEntity
  8
64647040_EINSATZ
  6
Continuous
 62
     7
100
AcDbLine
 10
285.554438374
 20
395.8864052661
 30
0.0
 11
285.4689333382
 21
396.1213284213
 31
0.0
  0
SPLINE
  5
277
330
23D
100
AcDbEntity
  8
64647040_EINSATZ
  6
Continuous
 62
     7
100
AcDbSpline
210
0.0
220
0.0
230
1.0
 70
     8
 71
     3
 72
    20
 73
    16
 74
     0
 42
0.0000000734876714
 43
0.0000000001
 40
0.0
 40
0.0
 40
0.0
 40
0.0
 40
0.2125265405902722
 40
0.2125265405902722
 40
0.2125265405902722
 40
0.4250001490954936
 40
0.4250001490954936
 40
0.4250001490954936
 40
0.6383121177781517
 40
0.6383121177781517
 40
0.6383121177781517
 40
0.8534671345903888
 40
0.8534671345903888
 40
0.8534671345903888
 40
1.0
 40
1.0
 40
1.0
 40
1.0
 10
285.5544383740236
 20
395.8864052661409
 30
0.0
 10
285.5582407746653
 20
395.8759582562381
 30
0.0
 10
285.5608166009505
 20
395.8649017284354
 30
0.0
 10
285.5619557776515
 20
395.8541540672112
 30
0.0
 10
285.5630947963622
 20
395.843407896559
 30
0.0
 10
285.5628297509991
 20
395.8326755632611
 30
0.0
 10
285.5611925315243
 20
395.8228351698594
 30
0.0
 10
285.5595487675387
 20
395.8129554411323
 30
0.0
 10
285.5564781244948
 20
395.8037047832865
 30
0.0
 10
285.5522417913712
 20
395.7958275228155
 30
0.0
 10
285.5479692275705
 20
395.7878828931191
 30
0.0
 10
285.5423950173527
 20
395.7811179434017
 30
0.0
 10
285.5359801655621
 20
395.7760745952887
 30
0.0
 10
285.5315783742555
 20
395.7726139127032
 30
0.0
 10
285.5267176593383
 20
395.7698979738745
 30
0.0
 10
285.5215856125562
 20
395.7680300616057
 30
0.0
  0
LINE
  5
278
330
23D
100
AcDbEntity
  8
64647040_EINSATZ
  6
Continuous
 62
     7
100
AcDbLine
 10
287.0701103009
 20
396.7041091756
 30
0.0
 11
287.1556153367
 21
396.4691860204
 31
0.0
  0
SPLINE
  5
279
330
23D
100
AcDbEntity
  8
64647040_EINSATZ
  6
Continuous
 62
     7
100
AcDbSpline
210
0.0
220
0.0
230
1.0
 70
     8
 71
     3
 72
    20
 73
    16
 74
     0
 42
0.0000000630935676
 43
0.0000000001
 40
0.0
 40
0.0
 40
0.0
 40
0.0
 40
0.2124602044789328
 40
0.2124602044789328
 40
0.2124602044789328
 40
0.4248660549041722
 40
0.4248660549041722
 40
0.4248660549041722
 40
0.6381326839798376
 40
0.6381326839798376
 40
0.6381326839798376
 40
0.8532925071045689
 40
0.8532925071045689
 40
0.8532925071045689
 40
1.0
 40
1.0
 40
1.0
 40
1.0
 10
287.1556153367465
 20
396.4691860203648
 30
0.0
 10
287.1594170349832
 20
396.4587409403038
 30
0.0
 10
287.1614625687985
 20
396.4474936192511
 30
0.0
 10
287.1615874587283
 20
396.4363788988557
 30
0.0
 10
287.1617123308663
 20
396.4252657618676
 30
0.0
 10
287.1599218309068
 20
396.413980338603
 30
0.0
 10
287.1563767188388
 20
396.403447077608
 30
0.0
 10
287.1528170520738
 20
396.3928705715989
 30
0.0
 10
287.1473927730989
 20
396.3827635970845
 30
0.0
 10
287.140559790859
 20
396.3739406689682
 30
0.0
 10
287.1336667670012
 20
396.3650402135206
 30
0.0
 10
287.1251529855463
 20
396.3572031997116
 30
0.0
 10
287.1157201420197
 20
396.3510588243909
 30
0.0
 10
287.1092399908945
 20
396.3468377768845
 30
0.0
 10
287.1022309053001
 20
396.3433378990967
 30
0.0
 10
287.0949636357683
 20
396.3406928293035
 30
0.0
  0
LINE
  5
27A
330
23D
100
AcDbEntity
  8
64647040_EINSATZ
  6
Continuous
 62
     7
100
AcDbLine
 10
287.21352775
 20
396.3838466377
 30
0.0
 11
287.0949636358
 21
396.3406928293
 31
0.0
  0
SPLINE
  5
27B
330
23D
100
AcDbEntity
  8
64647040_EINSATZ
  6
Continuous
 62
     7
100
AcDbSpline
210
0.0
220
0.0
230
1.0
 70
     8
 71
     3
 72
    20
 73
    16
 74
     0
 42
0.0000000630965777
 43
0.0000000001
 40
0.0
 40
0.0
 40
0.0
 40
0.0
 40
0.2174093870011214
 40
0.2174093870011214
 40
0.2174093870011214
 40
0.4348768202247293
 40
0.4348768202247293
 40
0.4348768202247293
 40
0.6514121854905003
 40
0.6514121854905003
 40
0.6514121854905003
 40
0.8660380396115237
 40
0.8660380396115237
 40
0.8660380396115237
 40
1.0
 40
1.0
 40
1.0
 40
1.0
 10
287.2135277500353
 20
396.3838466377488
 30
0.0
 10
287.2242148464571
 20
396.3877364227371
 30
0.0
 10
287.234379833843
 20
396.3935196214594
 30
0.0
 10
287.2431801345522
 20
396.4007237289414
 30
0.0
 10
287.251981746523
 20
396.4079289098491
 30
0.0
 10
287.2596615518214
 20
396.4167563577859
 30
0.0
 10
287.2655667901345
 20
396.4264780431161
 30
0.0
 10
287.2714464412263
 20
396.436157604674
 30
0.0
 10
287.275729590277
 20
396.446994649133
 30
0.0
 10
287.2780396396669
 20
396.4580819337748
 30
0.0
 10
287.2803295476245
 20
396.4690725478466
 30
0.0
 10
287.28074357651
 20
396.4806157210089
 30
0.0
 10
287.2792354516822
 20
396.4917405956434
 30
0.0
 10
287.2782858000332
 20
396.4987458218336
 30
0.0
 10
287.2765733527798
 20
396.5056881436312
 30
0.0
 10
287.2741555090608
 20
396.5123311146519
 30
0.0
  0
LINE
  5
27C
330
23D
100
AcDbEntity
  8
64647040_EINSATZ
  6
Continuous
 62
     7
100
AcDbLine
 10
287.1886504732
 20
396.7472542698
 30
0.0
 11
287.2741555091
 21
396.5123311147
 31
0.0
  0
LINE
  5
27D
330
23D
100
AcDbEntity
  8
64647040_EINSATZ
  6
Continuous
 62
     7
100
AcDbLine
 10
273.3417771895
 20
391.3349423366
 30
0.0
 11
271.6806196285
 21
390.7303304299
 31
0.0
  0
LINE
  5
27E
330
23D
100
AcDbEntity
  8
64647040_EINSATZ
  6
Continuous
 62
     7
100
AcDbLine
 10
271.6649995332
 20
390.7246451802
 30
0.0
 11
270.1072416053
 21
390.1576676622
 31
0.0
  0
LINE
  5
27F
330
23D
100
AcDbEntity
  8
64647040_EINSATZ
  6
Continuous
 62
     7
100
AcDbLine
 10
287.0949636358
 20
396.3406928293
 30
0.0
 11
285.5222912737
 21
395.7682869013
 31
0.0
  0
LINE
  5
280
330
23D
100
AcDbEntity
  8
64647040_EINSATZ
  6
Continuous
 62
     7
100
AcDbLine
 10
285.5215856126
 20
395.7680300616
 30
0.0
 11
283.8604280516
 21
395.163418155
 31
0.0
  0
LINE
  5
281
330
23D
100
AcDbEntity
  8
64647040_EINSATZ
  6
Continuous
 62
     7
100
AcDbLine
 10
283.7765905624
 20
395.1329038044
 30
0.0
 11
279.7757183965
 21
393.6767054249
 31
0.0
  0
LINE
  5
282
330
23D
100
AcDbEntity
  8
64647040_EINSATZ
  6
Continuous
 62
     7
100
AcDbLine
 10
279.7757183965
 20
393.6767054249
 30
0.0
 11
277.4264868446
 21
392.8216550666
 31
0.0
  0
LINE
  5
283
330
23D
100
AcDbEntity
  8
64647040_EINSATZ
  6
Continuous
 62
     7
100
AcDbLine
 10
277.4264868446
 20
392.8216550666
 30
0.0
 11
273.4256146787
 21
391.3654566871
 31
0.0
  0
ARC
  5
284
330
23D
100
AcDbEntity
  8
64647040_EINSATZ
  6
Continuous
 62
     7
100
AcDbCircle
 10
286.9049563799
 20
394.7816869624
 30
0.0
 40
0.0999999999999926
100
AcDbArc
 50
290.0
 51
2.0955524938
  0
ARC
  5
285
330
23D
100
AcDbEntity
  8
64647040_EINSATZ
  6
Continuous
 62
     7
100
AcDbCircle
 10
271.2549052626
 20
389.085534191
 30
0.0
 40
0.100000000000002
100
AcDbArc
 50
217.9044475062
 51
290.0
  0
LINE
  5
286
330
23D
100
AcDbEntity
  8
64647040_EINSATZ
  6
Continuous
 62
     7
100
AcDbLine
 10
270.2522951051
 20
390.2104628185
 30
0.0
 11
271.1760016226
 21
389.024099546
 31
0.0
  0
LINE
  5
287
330
23D
100
AcDbEntity
  8
64647040_EINSATZ
  6
Continuous
 62
     7
100
AcDbLine
 10
287.0048895034
 20
394.7853435761
 30
0.0
 11
286.949910136
 21
396.287897673
 31
0.0
  0
ARC
  5
288
330
23D
100
AcDbEntity
  8
64647040_EINSATZ
  6
Continuous
 62
     7
100
AcDbCircle
 10
269.8747438639
 20
390.1794631821
 30
0.0
 40
0.1000000000000056
100
AcDbArc
 50
200.0
 51
290.0
  0
LINE
  5
289
330
23D
100
AcDbEntity
  8
64647040_EINSATZ
  6
Continuous
 62
     7
100
AcDbLine
 10
269.695269566
 20
390.380184323
 30
0.0
 11
269.7807746019
 21
390.1452611678
 31
0.0
  0
LINE
  5
28A
330
23D
100
AcDbEntity
  8
64647040_EINSATZ
  6
Continuous
 62
     7
100
AcDbLine
 10
287.3530266106
 20
396.5410378479
 30
0.0
 11
287.2675215747
 21
396.7759610031
 31
0.0
  0
ARC
  5
28B
330
23D
100
AcDbEntity
  8
64647040_EINSATZ
  6
Continuous
 62
     7
100
AcDbCircle
 10
287.2590573485
 20
396.5068358336
 30
0.0
 40
0.1000000000000008
100
AcDbArc
 50
289.9999999999
 51
20.0
  0
ARC
  5
28C
330
23D
100
AcDbEntity
  8
$DDT_AUDIT_GENERATED_(210)
  6
Continuous
 62
     7
100
AcDbCircle
 10
270.8226680027
 20
-104.2194055699
 30
0.0
 40
566.7809805239647
100
AcDbArc
 50
89.7123125337
 51
97.2959369104
  0
ARC
  5
28D
330
23D
100
AcDbEntity
  8
$DDT_AUDIT_GENERATED_(210)
  6
Continuous
 62
     7
100
AcDbCircle
 10
274.3250744188
 20
-146.6316162898
 30
0.0
 40
610.2944041169051
100
AcDbArc
 50
89.9838147646
 51
89.9838395049
  0
ARC
  5
28E
330
23D
100
AcDbEntity
  8
$DDT_AUDIT_GENERATED_(210)
  6
Continuous
 62
     7
100
AcDbCircle
 10
264.7961860187
 20
-34.0231332095
 30
0.0
 40
500.3669161054681
100
AcDbArc
 50
88.9749597567
 51
97.5944106051
  0
ARC
  5
28F
330
23D
100
AcDbEntity
  8
$DDT_AUDIT_GENERATED_(210)
  6
Continuous
 62
     7
100
AcDbCircle
 10
285.563879894
 20
-231.4383357725
 30
0.0
 40
698.8168128377978
100
AcDbArc
 50
97.143068712
 51
97.534151279
  0
ARC
  5
290
330
23D
100
AcDbEntity
  8
$DDT_AUDIT_GENERATED_(210)
  6
Continuous
 62
     7
100
AcDbCircle
 10
319.4548841711
 20
-469.9642730074
 30
0.0
 40
939.7300917882633
100
AcDbArc
 50
97.6758214719
 51
100.2900000817
  0
LINE
  5
291
330
23D
100
AcDbEntity
  8
$DDT_AUDIT_GENERATED_(210)
  6
Continuous
 62
     7
100
AcDbLine
 10
151.4128390256
 20
439.9978890873
 30
0.0
 11
178.8066335694
 21
422.8803464443
 31
0.0
  0
LINE
  5
292
330
23D
100
AcDbEntity
  8
$DDT_AUDIT_GENERATED_(210)
  6
Continuous
 62
     7
100
AcDbLine
 10
184.1045665519
 20
422.4244907328
 30
0.0
 11
200.6799838932
 21
422.4244907328
 31
0.0
  0
SPLINE
  5
293
330
23D
100
AcDbEntity
  8
$DDT_AUDIT_GENERATED_(210)
  6
Continuous
 62
     7
100
AcDbSpline
210
0.0
220
0.0
230
1.0
 70
     8
 71
     3
 72
     8
 73
     4
 74
     0
 42
0.0000000026978277
 43
0.0000000001
 40
0.0
 40
0.0
 40
0.0
 40
0.0
 40
1.0
 40
1.0
 40
1.0
 40
1.0
 10
180.3978806007112
 20
422.424561673042
 30
0.0
 10
181.6576310886502
 20
422.4245468701697
 30
0.0
 10
182.8963188475495
 20
422.424490732768
 30
0.0
 10
184.1045665522865
 20
422.424490732768
 30
0.0
  0
ARC
  5
294
330
23D
100
AcDbEntity
  8
$DDT_AUDIT_GENERATED_(210)
  6
Continuous
 62
     7
100
AcDbCircle
 10
180.3997172682
 20
425.4334592094
 30
0.0
 40
3.009368781478367
100
AcDbArc
 50
238.036784378
 51
261.2692185896
  0
LINE
  5
295
330
23D
100
AcDbEntity
  8
$DDT_AUDIT_GENERATED_(210)
  6
Continuous
 62
     7
100
AcDbLine
 10
179.942919602
 20
422.4589615451
 30
0.0
 11
180.3978806007
 21
422.424561673
 31
0.0
  0
ARC
  5
296
330
23D
100
AcDbEntity
  8
$DDT_AUDIT_GENERATED_(210)
  6
Continuous
 62
     7
100
AcDbCircle
 10
229.2881102044
 20
435.6163507049
 30
0.0
 40
28.35820530819495
100
AcDbArc
 50
172.2980508954
 51
187.6620053076
  0
LINE
  5
297
330
23D
100
AcDbEntity
  8
$DDT_AUDIT_GENERATED_(210)
  6
Continuous
 62
     7
100
AcDbLine
 10
274.4973026828
 20
463.6641560609
 30
0.0
 11
274.2309382029
 21
465.8335201405
 31
0.0
  0
SPLINE
  5
298
330
23D
100
AcDbEntity
  8
$DDT_AUDIT_GENERATED_(210)
  6
Continuous
 62
     7
100
AcDbSpline
210
0.0
220
0.0
230
1.0
 70
     8
 71
     3
 72
    34
 73
    30
 74
     0
 42
0.0000000001411288
 43
0.0000000001
 40
0.0
 40
0.0
 40
0.0
 40
0.0
 40
0.0055303295370125
 40
0.0836340505997883
 40
0.1571817149495921
 40
0.2253300314245269
 40
0.2882826202293277
 40
0.3463667502291038
 40
0.3999090864856925
 40
0.4492356108380336
 40
0.5090030330984213
 40
0.5623454439721967
 40
0.6093727800370317
 40
0.6501651271468233
 40
0.6848034087246672
 40
0.713478035305041
 40
0.7397940578556685
 40
0.7618836871223504
 40
0.7817104444443741
 40
0.8011867899550912
 40
0.8215783707739552
 40
0.8436809644186593
 40
0.8599272742512092
 40
0.8775496824604132
 40
0.8968612859827726
 40
0.9186555282566407
 40
0.9439306591554082
 40
0.9736926456714775
 40
1.0
 40
1.0
 40
1.0
 40
1.0
 10
202.973927943028
 20
457.9544063461042
 30
0.0
 10
203.1167000093106
 20
457.9705302684796
 30
0.0
 10
204.9757006510503
 20
458.1804174122545
 30
0.0
 10
208.7971983633406
 20
458.5759129885853
 30
0.0
 10
213.9160595749182
 20
459.0857734536789
 30
0.0
 10
218.7402263555514
 20
459.5329062419194
 30
0.0
 10
223.1892670084483
 20
459.9170632240489
 30
0.0
 10
227.300156578081
 20
460.2450974397478
 30
0.0
 10
231.0913103067068
 20
460.5231528380316
 30
0.0
 10
234.923986040896
 20
460.7800961930873
 30
0.0
 10
238.7535358102324
 20
461.0112592464656
 30
0.0
 10
242.5304469675488
 20
461.2118295899058
 30
0.0
 10
245.8612279950468
 20
461.3601190374349
 30
0.0
 10
248.7518539923256
 20
461.4592478648461
 30
0.0
 10
251.2101624475873
 20
461.5129393980023
 30
0.0
 10
253.3271538929855
 20
461.5233114889737
 30
0.0
 10
255.1475943726386
 20
461.4957236406302
 30
0.0
 10
256.7582967225414
 20
461.442459958174
 30
0.0
 10
258.2071654216321
 20
461.3852009926405
 30
0.0
 10
259.6166778077858
 20
461.3486809880129
 30
0.0
 10
261.0804704663676
 20
461.345042740105
 30
0.0
 10
262.4676341983262
 20
461.376494674146
 30
0.0
 10
263.7883881548382
 20
461.4335003334342
 30
0.0
 10
265.0423926199462
 20
461.5074542647582
 30
0.0
 10
266.425396112888
 20
461.6084423246115
 30
0.0
 10
267.9885072483709
 20
461.7551059867727
 30
0.0
 10
269.7814279232809
 20
461.966439594592
 30
0.0
 10
271.7246975556315
 20
462.2384874556456
 30
0.0
 10
272.9376680520506
 20
462.4376215324411
 30
0.0
 10
273.6119320624181
 20
462.5494408646849
 30
0.0
  0
SPLINE
  5
299
330
23D
100
AcDbEntity
  8
$DDT_AUDIT_GENERATED_(210)
  6
Continuous
 62
     7
100
AcDbSpline
210
0.0
220
0.0
230
1.0
 70
     8
 71
     3
 72
    13
 73
     9
 74
     0
 42
0.0000000068375122
 43
0.0000000001
 40
0.0
 40
0.0
 40
0.0
 40
0.0
 40
0.0741937315142897
 40
0.3053349525691566
 40
0.5090703185126302
 40
0.721376373675388
 40
0.9487406937382863
 40
1.0
 40
1.0
 40
1.0
 40
1.0
 10
273.7422655353329
 20
462.5761171641444
 30
0.0
 10
273.7803757831761
 20
462.5849204511733
 30
0.0
 10
273.9143802042424
 20
462.6172371579079
 30
0.0
 10
274.1347913077207
 20
462.7506870999925
 30
0.0
 10
274.3452898621435
 20
462.9826646761607
 30
0.0
 10
274.4713431203269
 20
463.2645185190376
 30
0.0
 10
274.5162654412323
 20
463.5128347598828
 30
0.0
 10
274.4859826826772
 20
463.635660335021
 30
0.0
 10
274.4793682191643
 20
463.6618827820711
 30
0.0
  0
ARC
  5
29A
330
23D
100
AcDbEntity
  8
$DDT_AUDIT_GENERATED_(210)
  6
Continuous
 62
     7
100
AcDbCircle
 10
203.1915030574
 20
455.9676163554
 30
0.0
 40
2.000000000000777
100
AcDbArc
 50
96.2192249063
 51
180.0048982369
  0
SPLINE
  5
29B
330
23D
100
AcDbEntity
  8
$DDT_AUDIT_GENERATED_(210)
  6
Continuous
 62
     7
100
AcDbSpline
210
0.0
220
0.0
230
1.0
 70
     8
 71
     3
 72
    13
 73
     9
 74
     0
 42
0.0000000169999582
 43
0.0000000001
 40
0.0
 40
0.0
 40
0.0
 40
0.0
 40
0.08925285097638
 40
0.3606838177020028
 40
0.5830783279510885
 40
0.771174105777831
 40
0.9271204513002657
 40
1.0
 40
1.0
 40
1.0
 40
1.0
 10
274.2149208750467
 20
465.8281951302148
 30
0.0
 10
274.2147338929869
 20
465.847254647518
 30
0.0
 10
274.2136012882095
 20
465.913518399217
 30
0.0
 10
274.160746026017
 20
466.0222110704254
 30
0.0
 10
274.0787568614716
 20
466.1258498252143
 30
0.0
 10
273.9908530121829
 20
466.1923038052219
 30
0.0
 10
273.9158734328639
 20
466.229630098039
 30
0.0
 10
273.8766305427618
 20
466.2405950611262
 30
0.0
 10
273.8619671066386
 20
466.2445706218112
 30
0.0
  0
ARC
  5
29C
330
23D
100
AcDbEntity
  8
$DDT_AUDIT_GENERATED_(210)
  6
Continuous
 62
     7
100
AcDbCircle
 10
151.6777933226
 20
454.159105889
 30
0.0
 40
0.4999999999974781
100
AcDbArc
 50
100.1871401966
 51
179.8800542621
  0
LINE
  5
29D
330
23D
100
AcDbEntity
  8
$DDT_AUDIT_GENERATED_(210)
  6
Continuous
 62
     7
100
AcDbLine
 10
201.1857344423
 20
439.4169144565
 30
0.0
 11
201.1915031789
 21
455.9683133176
 31
0.0
  0
LINE
  5
29E
330
23D
100
AcDbEntity
  8
$DDT_AUDIT_GENERATED_(210)
  6
Continuous
 62
     7
100
AcDbLine
 10
201.1799861975
 20
422.9243095699
 30
0.0
 11
201.1831028468
 21
431.8664592852
 31
0.0
  0
LINE
  5
29F
330
23D
100
AcDbEntity
  8
$DDT_AUDIT_GENERATED_(210)
  6
Continuous
 62
     7
100
AcDbLine
 10
151.1777933225
 20
454.1600255235
 30
0.0
 11
151.1777933225
 21
440.4198284481
 31
0.0
  0
ARC
  5
2A0
330
23D
100
AcDbEntity
  8
$DDT_AUDIT_GENERATED_(210)
  6
Continuous
 62
     7
100
AcDbCircle
 10
151.6777935402
 20
440.4219163248
 30
0.0
 40
0.4999999929009346
100
AcDbArc
 50
180.249722699
 51
238.0008525829
  0
ARC
  5
2A1
330
23D
100
AcDbEntity
  8
$DDT_AUDIT_GENERATED_(210)
  6
Continuous
 62
     7
100
AcDbCircle
 10
200.6799862303
 20
422.9244907328
 30
0.0
 40
0.4999999999999163
100
AcDbArc
 50
270.0000000805
 51
0.3922396827
  0
LINE
  5
2A3
330
23D
100
AcDbEntity
  8
$DDT_AUDIT_GENERATED_(2A2)
  6
Continuous
 62
     7
100
AcDbLine
 10
143.8330974311
 20
369.9283899266
 30
0.0
 11
132.4627250152
 21
369.9283899266
 31
0.0
  0
LINE
  5
2A4
330
23D
100
AcDbEntity
  8
$DDT_AUDIT_GENERATED_(2A2)
  6
Continuous
 62
     7
100
AcDbLine
 10
132.4627250152
 20
365.9283899266
 30
0.0
 11
143.8330974311
 21
365.9283899266
 31
0.0
  0
ARC
  5
2A5
330
23D
100
AcDbEntity
  8
$DDT_AUDIT_GENERATED_(2A2)
  6
Continuous
 62
     7
100
AcDbCircle
 10
143.8330974311
 20
364.9283899266
 30
0.0
 40
1.000000000000001
100
AcDbArc
 50
18.0
 51
90.0
  0
ARC
  5
2A6
330
23D
100
AcDbEntity
  8
$DDT_AUDIT_GENERATED_(2A2)
  6
Continuous
 62
     7
100
AcDbCircle
 10
143.8330974311
 20
364.9283899266
 30
0.0
 40
5.000000000000004
100
AcDbArc
 50
18.0
 51
90.0
  0
LINE
  5
2A7
330
23D
100
AcDbEntity
  8
$DDT_AUDIT_GENERATED_(2A2)
  6
Continuous
 62
     7
100
AcDbLine
 10
151.2753545108
 20
358.2038177208
 30
0.0
 11
148.5883800126
 21
366.4734748985
 31
0.0
  0
LINE
  5
2A8
330
23D
100
AcDbEntity
  8
$DDT_AUDIT_GENERATED_(2A2)
  6
Continuous
 62
     7
100
AcDbLine
 10
144.7841539474
 20
365.237406921
 30
0.0
 11
151.2741496757
 21
345.2632539119
 31
0.0
  0
ARC
  5
2A9
330
23D
100
AcDbEntity
  8
$DDT_AUDIT_GENERATED_(2A2)
  6
Continuous
 62
     7
100
AcDbCircle
 10
132.4627250152
 20
367.9283899266
 30
0.0
 40
2.000000000000002
100
AcDbArc
 50
90.0
 51
270.0
  0
LINE
  5
2AA
330
23D
100
AcDbEntity
  8
$DDT_AUDIT_GENERATED_(237)
  6
Continuous
 62
     7
100
AcDbLine
 10
199.8193800846
 20
420.2045117872
 30
0.0
 11
152.5207543118
 21
420.2045117872
 31
0.0
  0
LINE
  5
2AB
330
23D
100
AcDbEntity
  8
$DDT_AUDIT_GENERATED_(237)
  6
Continuous
 62
     7
100
AcDbLine
 10
162.2711000633
 20
433.1758824151
 30
0.0
 11
161.1700671982
 21
433.1758824151
 31
0.0
  0
LINE
  5
2AC
330
23D
100
AcDbEntity
  8
$DDT_AUDIT_GENERATED_(237)
  6
Continuous
 62
     7
100
AcDbLine
 10
199.0700671982
 20
419.9809777872
 30
0.0
 11
199.0700671982
 21
420.2045117872
 31
0.0
  0
ARC
  5
2AD
330
23D
100
AcDbEntity
  8
$DDT_AUDIT_GENERATED_(237)
  6
Continuous
 62
     7
100
AcDbCircle
 10
176.1700671982
 20
413.8045117872
 30
0.0
 40
24.5
100
AcDbArc
 50
127.7520013062
 51
164.8572685595
  0
ARC
  5
2AE
330
23D
100
AcDbEntity
  8
$DDT_AUDIT_GENERATED_(237)
  6
Continuous
 62
     7
100
AcDbCircle
 10
176.1700671982
 20
413.8045117872
 30
0.0
 40
24.5
100
AcDbArc
 50
15.1427314405
 51
20.6580985185
  0
ENDBLK
  5
2B0
330
23D
100
AcDbEntity
  8
0
100
AcDbBlockEnd
  0
BLOCK
  5
2D7
330
2B1
100
AcDbEntity
  8
0
100
AcDbBlockBegin
  2
SE2
 70
     0
 10
0.0
 20
0.0
 30
0.0
  3
SE2
  1

  0
SPLINE
  5
2B3
330
2B1
100
AcDbEntity
  8
$DDT_AUDIT_GENERATED_(77)
  6
Continuous
 62
     7
100
AcDbSpline
210
0.0
220
0.0
230
1.0
 70
     8
 71
     3
 72
    15
 73
    11
 74
     0
 42
0.0000000000940327
 43
0.0000000001
 40
0.1085630792078813
 40
0.1085630792078813
 40
0.1085630792078813
 40
0.1085630792078813
 40
0.1342805422302321
 40
0.1514345142070704
 40
0.1677643703770246
 40
0.20119112318427
 40
0.2145250949264329
 40
0.2280947477262487
 40
0.2350241699461213
 40
0.2391009269859239
 40
0.2391009269859239
 40
0.2391009269859239
 40
0.2391009269859239
 10
54.74575000032623
 20
109.9398719845359
 30
0.0
 10
55.47805838800257
 20
110.4853704611038
 30
0.0
 10
56.62899704728792
 20
111.4859961649056
 30
0.0
 10
58.0277365642845
 20
113.0508416605447
 30
0.0
 10
59.42628196962828
 20
114.9622543121312
 30
0.0
 10
60.48314398969135
 20
116.9513337043404
 30
0.0
 10
61.2445735699774
 20
118.9459972889638
 30
0.0
 10
61.5865518262475
 20
120.0902310615546
 30
0.0
 10
61.76963679662877
 20
120.9332053199422
 30
0.0
 10
61.83027653977543
 20
121.3167486895022
 30
0.0
 10
61.84999055942069
 20
121.4593833263919
 30
0.0
  0
SPLINE
  5
2B4
330
2B1
100
AcDbEntity
  8
$DDT_AUDIT_GENERATED_(77)
  6
Continuous
 62
     7
100
AcDbSpline
210
0.0
220
0.0
230
1.0
 70
     8
 71
     3
 72
    14
 73
    10
 74
     0
 42
0.0000000000939553
 43
0.0000000001
 40
0.7609599856946877
 40
0.7609599856946877
 40
0.7609599856946877
 40
0.7609599856946877
 40
0.7708451321101746
 40
0.781308252185556
 40
0.8090416832531294
 40
0.8267808883109697
 40
0.8472140195882374
 40
0.8853856312640955
 40
0.8914502711714183
 40
0.8914502711714183
 40
0.8914502711714183
 40
0.8914502711714183
 10
26.03431766128713
 20
121.4585371074823
 30
0.0
 10
26.08187884783482
 20
121.1129392287375
 30
0.0
 10
26.21817193581913
 20
120.4091253258386
 30
0.0
 10
26.67414790955776
 20
118.7795363090049
 30
0.0
 10
27.41581335022501
 20
116.9320591662316
 30
0.0
 10
28.54080683307894
 20
114.8837438362817
 30
0.0
 10
30.09370547040126
 20
112.6672289080236
 30
0.0
 10
31.7234545290629
 20
111.0292159834195
 30
0.0
 10
32.96602621667508
 20
110.0686070850901
 30
0.0
 10
33.13867501372285
 20
109.9399818845238
 30
0.0
  0
ARC
  5
2B5
330
2B1
100
AcDbEntity
  8
$DDT_AUDIT_GENERATED_(77)
  6
Continuous
 62
     7
100
AcDbCircle
 10
13.4299829444
 20
202.4135866066
 30
0.0
 40
12.00000305802548
100
AcDbArc
 50
0.0889355572
 51
34.2391045978
  0
SPLINE
  5
2B6
330
2B1
100
AcDbEntity
  8
$DDT_AUDIT_GENERATED_(77)
  6
Continuous
 62
     7
100
AcDbSpline
210
0.0
220
0.0
230
1.0
 70
     8
 71
     3
 72
    32
 73
    28
 74
     0
 42
0.0000000000939081
 43
0.0000000001
 40
0.0
 40
0.0
 40
0.0
 40
0.0
 40
0.0312500000000002
 40
0.0312500000000002
 40
0.0625000000000005
 40
0.0625000000000005
 40
0.0937500000000007
 40
0.0937500000000007
 40
0.125000000000001
 40
0.125000000000001
 40
0.1875000000000015
 40
0.1875000000000015
 40
0.2187500000000016
 40
0.2187500000000016
 40
0.2500000000000016
 40
0.2500000000000016
 40
0.2812500000000017
 40
0.2812500000000017
 40
0.3125000000000017
 40
0.3125000000000017
 40
0.3750000000000018
 40
0.3750000000000018
 40
0.5000000000000017
 40
0.5000000000000017
 40
0.7500000000000009
 40
0.7500000000000009
 40
1.0
 40
1.0
 40
1.0
 40
1.0
 10
43.94232806255776
 20
106.3500025256132
 30
0.0
 10
42.82546351844398
 20
106.3500012622731
 30
0.0
 10
41.72481467917986
 20
106.4531605382074
 30
0.0
 10
39.55471651318208
 20
106.8580346920552
 30
0.0
 10
38.47509772457725
 20
107.1644744867357
 30
0.0
 10
36.4142351045015
 20
107.9602633832085
 30
0.0
 10
35.43028023431216
 20
108.447698845435
 30
0.0
 10
33.55384317813925
 20
109.5990957130451
 30
0.0
 10
32.65761806305993
 20
110.268796871466
 30
0.0
 10
30.2116697103669
 20
112.4688918873075
 30
0.0
 10
28.84997088593606
 20
114.2469207681923
 30
0.0
 10
27.33526594623336
 20
117.1532754210647
 30
0.0
 10
26.91058699424541
 20
118.1599245964699
 30
0.0
 10
26.23347353897067
 20
120.2550144696941
 30
0.0
 10
26.00857543580639
 20
121.346714038682
 30
0.0
 10
25.86974371089917
 20
123.5500564957465
 30
0.0
 10
25.85309229911048
 20
124.6546500554886
 30
0.0
 10
25.81060146323908
 20
126.8632380323244
 30
0.0
 10
25.7954664198215
 20
127.9681528943596
 30
0.0
 10
25.75486912417779
 20
131.2845065854021
 30
0.0
 10
25.73507615841337
 20
133.4970655648775
 30
0.0
 10
25.68059334201842
 20
140.1392772565377
 30
0.0
 10
25.65233508560759
 20
144.5735196867892
 30
0.0
 10
25.57457685273494
 20
157.8928899318236
 30
0.0
 10
25.53383491924341
 20
166.7912401427383
 30
0.0
 10
25.46803749787827
 20
184.5988620660847
 30
0.0
 10
25.44381917283133
 20
193.5110925030717
 30
0.0
 10
25.42997154612604
 20
202.4322132234469
 30
0.0
  0
SPLINE
  5
2B7
330
2B1
100
AcDbEntity
  8
$DDT_AUDIT_GENERATED_(77)
  6
Continuous
 62
     7
100
AcDbSpline
210
0.0
220
0.0
230
1.0
 70
     8
 71
     3
 72
    26
 73
    22
 74
     0
 42
0.0000000000938581
 43
0.0000000001
 40
0.0
 40
0.0
 40
0.0
 40
0.0
 40
0.4999999999999996
 40
0.4999999999999996
 40
0.6249999999999992
 40
0.6249999999999992
 40
0.6874999999999991
 40
0.6874999999999991
 40
0.7187499999999991
 40
0.7187499999999991
 40
0.7499999999999992
 40
0.7499999999999992
 40
0.7812499999999993
 40
0.7812499999999993
 40
0.8124999999999993
 40
0.8124999999999993
 40
0.8749999999999996
 40
0.8749999999999996
 40
0.9374999999999997
 40
0.9374999999999997
 40
1.0
 40
1.0
 40
1.0
 40
1.0
 10
62.45468457898946
 20
202.4322132234469
 30
0.0
 10
62.42698685869593
 20
184.5883825312678
 30
0.0
 10
62.36187156083469
 20
166.7605488366221
 30
0.0
 10
62.23224429803806
 20
144.5613637750888
 30
0.0
 10
62.2039677173909
 20
140.1250428615783
 30
0.0
 10
62.1494406574508
 20
133.4814109236839
 30
0.0
 10
62.12963137367058
 20
131.2684070485653
 30
0.0
 10
62.08897043543234
 20
127.9519528260473
 30
0.0
 10
62.07381003585817
 20
126.8469787884283
 30
0.0
 10
62.03117732378144
 20
124.638157401788
 30
0.0
 10
62.01465365802901
 20
123.5329994898865
 30
0.0
 10
61.87431179470028
 20
121.3317799699111
 30
0.0
 10
61.64695632169711
 20
120.2400767126671
 30
0.0
 10
60.9724641235538
 20
118.1568357067519
 30
0.0
 10
60.5476081620624
 20
117.1479689740883
 30
0.0
 10
59.0168248704292
 20
114.2164653098782
 30
0.0
 10
57.67491636558232
 20
112.4675232308512
 30
0.0
 10
54.38149433853402
 20
109.5113739962057
 30
0.0
 10
52.49517372842271
 20
108.354170273378
 30
0.0
 10
48.35920812640081
 20
106.7606944044862
 30
0.0
 10
46.17511393912486
 20
106.3499999999999
 30
0.0
 10
43.94232806255776
 20
106.3500025256132
 30
0.0
  0
ARC
  5
2B8
330
2B1
100
AcDbEntity
  8
$DDT_AUDIT_GENERATED_(77)
  6
Continuous
 62
     7
100
AcDbCircle
 10
43.9279952491
 20
223.3178029879
 30
0.0
 40
24.99823594608674
100
AcDbArc
 50
352.7581890397
 51
356.9907464706
  0
ARC
  5
2B9
330
2B1
100
AcDbEntity
  8
$DDT_AUDIT_GENERATED_(77)
  6
Continuous
 62
     7
100
AcDbCircle
 10
74.4546733453
 20
202.4135865558
 30
0.0
 40
12.00000322270662
100
AcDbArc
 50
145.7608956437
 51
179.9110642013
  0
ARC
  5
2BA
330
2B1
100
AcDbEntity
  8
$DDT_AUDIT_GENERATED_(77)
  6
Continuous
 62
     7
100
AcDbCircle
 10
43.950286972
 20
224.1986918781
 30
0.0
 40
24.11734426026882
100
AcDbArc
 50
96.8622503342
 51
96.8636366425
  0
ARC
  5
2BB
330
2B1
100
AcDbEntity
  8
$DDT_AUDIT_GENERATED_(77)
  6
Continuous
 62
     7
100
AcDbCircle
 10
43.9343586924
 20
224.1986486408
 30
0.0
 40
24.11738750110046
100
AcDbArc
 50
83.1363358548
 51
83.1380785704
  0
LINE
  5
2BC
330
2B1
100
AcDbEntity
  8
$DDT_AUDIT_GENERATED_(77)
  6
Continuous
 62
     7
100
AcDbLine
 10
25.7578788184
 20
131.2226746753
 30
0.0
 11
25.7597480968
 21
131.0405814286
 31
0.0
  0
ARC
  5
2BD
330
2B1
100
AcDbEntity
  8
$DDT_AUDIT_GENERATED_(210)
  6
Continuous
 62
     7
100
AcDbCircle
 10
65.2105051887
 20
200.7510984449
 30
0.0
 40
6.000232267162281
100
AcDbArc
 50
152.3597254136
 51
179.9523616075
  0
ARC
  5
2BE
330
2B1
100
AcDbEntity
  8
$DDT_AUDIT_GENERATED_(210)
  6
Continuous
 62
     7
100
AcDbCircle
 10
22.6741626887
 20
200.751103584
 30
0.0
 40
6.000220468855074
100
AcDbArc
 50
0.0475873158
 51
27.6471715019
  0
SPLINE
  5
2BF
330
2B1
100
AcDbEntity
  8
$DDT_AUDIT_GENERATED_(210)
  6
Continuous
 62
     7
100
AcDbSpline
210
0.0
220
0.0
230
1.0
 70
     8
 71
     3
 72
     8
 73
     4
 74
     0
 42
0.0000000000594145
 43
0.0000000001
 40
0.0
 40
0.0
 40
0.0
 40
0.0
 40
0.2017846044635193
 40
0.2017846044635193
 40
0.2017846044635193
 40
0.2017846044635193
 10
28.67438108804027
 20
200.7560870986199
 30
0.0
 10
28.68379267592937
 20
189.4587433959524
 30
0.0
 10
28.71137219474552
 20
178.1374762472413
 30
0.0
 10
28.7076362020355
 20
166.7939398653559
 30
0.0
  0
SPLINE
  5
2C0
330
2B1
100
AcDbEntity
  8
$DDT_AUDIT_GENERATED_(210)
  6
Continuous
 62
     7
100
AcDbSpline
210
0.0
220
0.0
230
1.0
 70
     8
 71
     3
 72
    22
 73
    18
 74
     0
 42
0.0000000000587272
 43
0.0000000001
 40
0.4001559568165619
 40
0.4001559568165619
 40
0.4001559568165619
 40
0.4001559568165619
 40
0.4062500000000009
 40
0.4062500000000009
 40
0.4375000000000009
 40
0.4375000000000009
 40
0.4687500000000009
 40
0.4687500000000009
 40
0.5000000000000009
 40
0.5000000000000009
 40
0.5312500000000008
 40
0.5312500000000008
 40
0.5625000000000008
 40
0.5625000000000008
 40
0.5937500000000007
 40
0.5937500000000007
 40
0.6023671642346076
 40
0.6023671642346076
 40
0.6023671642346076
 40
0.6023671642346076
 10
30.22582331786383
 20
133.5109086468355
 30
0.0
 10
30.38000163730255
 20
133.2048835607295
 30
0.0
 10
30.54596174533702
 20
132.9039453530847
 30
0.0
 10
31.63306295975836
 20
131.0901036832458
 30
0.0
 10
32.80878947207524
 20
129.7502036306987
 30
0.0
 10
35.54679594426803
 20
127.4846405900754
 30
0.0
 10
37.06743185382864
 20
126.5887479362514
 30
0.0
 10
40.38998443162968
 20
125.3276443720721
 30
0.0
 10
42.12097264043037
 20
124.9945673322055
 30
0.0
 10
45.66933271071122
 20
124.9828402253437
 30
0.0
 10
47.41408078299567
 20
125.3069910231188
 30
0.0
 10
50.75045194657469
 20
126.5538962656806
 30
0.0
 10
52.28095213162945
 20
127.447337623382
 30
0.0
 10
55.0272802073431
 20
129.700591107775
 30
0.0
 10
56.19713375972617
 20
131.01857808964
 30
0.0
 10
57.37507614466494
 20
132.9598557509899
 30
0.0
 10
57.60522762345585
 20
133.3889259606376
 30
0.0
 10
57.81102595255384
 20
133.827193773424
 30
0.0
  0
SPLINE
  5
2C1
330
2B1
100
AcDbEntity
  8
$DDT_AUDIT_GENERATED_(210)
  6
Continuous
 62
     7
100
AcDbSpline
210
0.0
220
0.0
230
1.0
 70
     8
 71
     3
 72
     8
 73
     4
 74
     0
 42
0.000000000059238
 43
0.0000000001
 40
0.7985074223345979
 40
0.7985074223345979
 40
0.7985074223345979
 40
0.7985074223345979
 40
0.8260446037603005
 40
0.8260446037603005
 40
0.8260446037603005
 40
0.8260446037603005
 10
59.17699929042305
 20
166.8008226005736
 30
0.0
 10
59.17648838866231
 20
168.3507546851731
 30
0.0
 10
59.17656288402087
 20
169.9002797063664
 30
0.0
 10
59.17709633139935
 20
171.4493914818475
 30
0.0
  0
SPLINE
  5
2C2
330
2B1
100
AcDbEntity
  8
$DDT_AUDIT_GENERATED_(210)
  6
Continuous
 62
     7
100
AcDbSpline
210
0.0
220
0.0
230
1.0
 70
     8
 71
     3
 72
     8
 73
     4
 74
     0
 42
0.0000000000593669
 43
0.0000000001
 40
0.8429611982938532
 40
0.8429611982938532
 40
0.8429611982938532
 40
0.8429611982938532
 40
1.0
 40
1.0
 40
1.0
 40
1.0
 10
59.17856974391599
 20
174.3038653341887
 30
0.0
 10
59.18455547302591
 20
183.13521788464
 30
0.0
 10
59.20294094594805
 20
191.9530074135646
 30
0.0
 10
59.21027499551531
 20
200.7560873182748
 30
0.0
  0
ARC
  5
2C3
330
2B1
100
AcDbEntity
  8
$DDT_AUDIT_GENERATED_(210)
  6
Continuous
 62
     7
100
AcDbCircle
 10
43.9423280625
 20
223.3060493461
 30
0.0
 40
25.00091858191453
100
AcDbArc
 50
313.3280743304
 51
226.671925534
  0
ARC
  5
2C4
330
2B1
100
AcDbEntity
  8
$DDT_AUDIT_GENERATED_(210)
  6
Continuous
 62
     7
100
AcDbCircle
 10
65.2103428073
 20
200.7505969272
 30
0.0
 40
6.000323775204215
100
AcDbArc
 50
133.2721970621
 51
179.9515141509
  0
ARC
  5
2C5
330
2B1
100
AcDbEntity
  8
$DDT_AUDIT_GENERATED_(210)
  6
Continuous
 62
     7
100
AcDbCircle
 10
22.6743120874
 20
200.7505964736
 30
0.0
 40
6.000324948843862
100
AcDbArc
 50
0.0484882172
 51
46.7277979187
  0
SPLINE
  5
2C6
330
2B1
100
AcDbEntity
  8
$DDT_AUDIT_GENERATED_(210)
  6
Continuous
 62
     7
100
AcDbSpline
210
0.0
220
0.0
230
1.0
 70
     8
 71
     3
 72
    40
 73
    36
 74
     0
 42
0.0000000000593307
 43
0.0000000001
 40
0.0
 40
0.0
 40
0.0
 40
0.0
 40
0.2500000000000024
 40
0.2500000000000024
 40
0.3125000000000028
 40
0.3125000000000028
 40
0.3437500000000029
 40
0.3437500000000029
 40
0.3750000000000029
 40
0.3750000000000029
 40
0.390625000000003
 40
0.390625000000003
 40
0.4062500000000031
 40
0.4062500000000031
 40
0.4375000000000029
 40
0.4375000000000029
 40
0.4687500000000028
 40
0.4687500000000028
 40
0.5000000000000026
 40
0.5000000000000026
 40
0.5312500000000026
 40
0.5312500000000026
 40
0.5625000000000023
 40
0.5625000000000023
 40
0.5937500000000022
 40
0.5937500000000022
 40
0.6250000000000021
 40
0.6250000000000021
 40
0.6562500000000019
 40
0.6562500000000019
 40
0.6875000000000018
 40
0.6875000000000018
 40
0.7500000000000014
 40
0.7500000000000014
 40
1.0
 40
1.0
 40
1.0
 40
1.0
 10
59.21002118059852
 20
200.75567462687
 30
0.0
 10
59.19846680668073
 20
187.0924748024853
 30
0.0
 10
59.16140524836385
 20
173.401286385843
 30
0.0
 10
59.19024996324762
 20
156.2383986355002
 30
0.0
 10
59.20253379079279
 20
152.8033321087848
 30
0.0
 10
59.22876335157673
 20
147.6467497999876
 30
0.0
 10
59.24064347785474
 20
145.9272002150701
 30
0.0
 10
59.23948523766489
 20
142.4870878385065
 30
0.0
 10
59.24785553156826
 20
140.7662590010837
 30
0.0
 10
59.01272093264159
 20
138.1872069564609
 30
0.0
 10
58.88429525515463
 20
137.3280057560794
 30
0.0
 10
58.444895384397
 20
135.6114133814482
 30
0.0
 10
58.13217502212385
 20
134.7607081648926
 30
0.0
 10
56.97315443198054
 20
132.3719484273148
 30
0.0
 10
55.88161102325145
 20
130.9162282199115
 30
0.0
 10
53.32248727694053
 20
128.4589605272217
 30
0.0
 10
51.82561158883835
 20
127.4282828675994
 30
0.0
 10
48.62171593290491
 20
125.92953446302
 30
0.0
 10
46.86326331910859
 20
125.4454658688652
 30
0.0
 10
43.34344967195546
 20
125.1575957933142
 30
0.0
 10
41.52917034028089
 20
125.3527146843008
 30
0.0
 10
38.12866572277118
 20
126.3576720540395
 30
0.0
 10
36.50220283867836
 20
127.1696394608474
 30
0.0
 10
33.62131877477694
 20
129.2430526041967
 30
0.0
 10
32.33573790861667
 20
130.5239636422082
 30
0.0
 10
30.29966838997188
 20
133.4162386842513
 30
0.0
 10
29.5363693982148
 20
135.0749980587374
 30
0.0
 10
28.74391049329536
 20
138.5218616793695
 30
0.0
 10
28.68313273893895
 20
140.3324508932679
 30
0.0
 10
28.63169622477765
 20
143.8982532077506
 30
0.0
 10
28.6460341961574
 20
145.681139992893
 30
0.0
 10
28.67257821686788
 20
151.0287506170238
 30
0.0
 10
28.68961611758344
 20
154.5927562639263
 30
0.0
 10
28.72793356750944
 20
172.405049121418
 30
0.0
 10
28.68660497222031
 20
186.6001592915416
 30
0.0
 10
28.67463488760246
 20
200.7556744222484
 30
0.0
  0
ARC
  5
2C7
330
2B1
100
AcDbEntity
  8
$DDT_AUDIT_GENERATED_(210)
  6
Continuous
 62
     7
100
AcDbCircle
 10
43.9423280626
 20
223.3026336903
 30
0.0
 40
24.99191958765207
100
AcDbArc
 50
353.2227015655
 51
186.7772984345
  0
ARC
  5
2C8
330
2B1
100
AcDbEntity
  8
$DDT_AUDIT_GENERATED_(210)
  6
Continuous
 62
     7
100
AcDbCircle
 10
43.7650992125
 20
223.3929577056
 30
0.0
 40
24.82683472599642
100
AcDbArc
 50
187.0325616321
 51
190.1887598434
  0
ARC
  5
2C9
330
2B1
100
AcDbEntity
  8
$DDT_AUDIT_GENERATED_(210)
  6
Continuous
 62
     7
100
AcDbCircle
 10
44.1191283351
 20
223.3930226034
 30
0.0
 40
24.82726802486924
100
AcDbArc
 50
349.8112677054
 51
352.9674108191
  0
ARC
  5
2CA
330
2B1
100
AcDbEntity
  8
$DDT_AUDIT_GENERATED_(210)
  6
Continuous
 62
     7
100
AcDbCircle
 10
43.9423280626
 20
223.3028409053
 30
0.0
 40
24.9856162134158
100
AcDbArc
 50
189.9134752486
 51
226.6753205825
  0
ARC
  5
2CB
330
2B1
100
AcDbEntity
  8
$DDT_AUDIT_GENERATED_(210)
  6
Continuous
 62
     7
100
AcDbCircle
 10
43.9423280626
 20
223.3028409053
 30
0.0
 40
24.9856162134158
100
AcDbArc
 50
313.3248956765
 51
350.0865247514
  0
LINE
  5
2CC
330
2B1
100
AcDbEntity
  8
$DDT_AUDIT_GENERATED_(210)
  6
Continuous
 62
     7
100
AcDbLine
 10
59.2400797993
 20
144.0044193493
 30
0.0
 11
59.2400797993
 21
144.2993754037
 31
0.0
  0
ARC
  5
2CD
330
2B1
100
AcDbEntity
  8
$DDT_AUDIT_GENERATED_(210)
  6
Continuous
 62
     7
100
AcDbCircle
 10
43.9344211349
 20
140.3040693697
 30
0.0
 40
15.29728039212061
100
AcDbArc
 50
206.3626996839
 51
207.8356638866
  0
ARC
  5
2CE
330
2B1
100
AcDbEntity
  8
$DDT_AUDIT_GENERATED_(210)
  6
Continuous
 62
     7
100
AcDbCircle
 10
43.9344211349
 20
140.3040693697
 30
0.0
 40
15.29728039212061
100
AcDbArc
 50
322.1599162002
 51
334.9752332186
  0
ARC
  5
2CF
330
2B1
100
AcDbEntity
  8
$DDT_AUDIT_GENERATED_(210)
  6
Continuous
 62
     7
100
AcDbCircle
 10
1025.6925888819
 20
145.4124324075
 30
0.0
 40
997.0472392228588
100
AcDbArc
 50
179.5502941496
 51
180.2135817409
  0
LINE
  5
2D0
330
2B1
100
AcDbEntity
  8
$DDT_AUDIT_GENERATED_(2A2)
  6
Continuous
 62
     7
100
AcDbLine
 10
45.9423280626
 20
255.6530020173
 30
0.0
 11
45.9423280626
 21
267.0233744333
 31
0.0
  0
LINE
  5
2D1
330
2B1
100
AcDbEntity
  8
$DDT_AUDIT_GENERATED_(2A2)
  6
Continuous
 62
     7
100
AcDbLine
 10
41.9423280626
 20
267.0233744333
 30
0.0
 11
41.9423280626
 21
255.6530020173
 31
0.0
  0
LINE
  5
2D2
330
2B1
100
AcDbEntity
  8
$DDT_AUDIT_GENERATED_(2A2)
  6
Continuous
 62
     7
100
AcDbLine
 10
41.9423280626
 20
255.6530020173
 30
0.0
 11
41.9423280626
 21
252.7998324684
 31
0.0
  0
LINE
  5
2D3
330
2B1
100
AcDbEntity
  8
$DDT_AUDIT_GENERATED_(2A2)
  6
Continuous
 62
     7
100
AcDbLine
 10
45.9423280626
 20
252.7998324684
 30
0.0
 11
45.9423280626
 21
255.6530020173
 31
0.0
  0
LINE
  5
2D4
330
2B1
100
AcDbEntity
  8
$DDT_AUDIT_GENERATED_(2A2)
  6
Continuous
 62
     7
100
AcDbLine
 10
45.9423280626
 20
248.2265092972
 30
0.0
 11
45.9423280626
 21
252.7998324684
 31
0.0
  0
LINE
  5
2D5
330
2B1
100
AcDbEntity
  8
$DDT_AUDIT_GENERATED_(2A2)
  6
Continuous
 62
     7
100
AcDbLine
 10
41.9423280626
 20
252.7998324684
 30
0.0
 11
41.9423280626
 21
248.224877129
 31
0.0
  0
ARC
  5
2D6
330
2B1
100
AcDbEntity
  8
$DDT_AUDIT_GENERATED_(2A2)
  6
Continuous
 62
     7
100
AcDbCircle
 10
43.9423280626
 20
267.0233744333
 30
0.0
 40
2.000000000000002
100
AcDbArc
 50
0.0
 51
180.0
  0
ENDBLK
  5
2D8
330
2B1
100
AcDbEntity
  8
0
100
AcDbBlockEnd
  0
ENDSEC
  0
SECTION
  2
ENTITIES
  0
INSERT
  5
5F
330
1F
100
AcDbEntity
  8
Default
100
AcDbBlockReference
  2
SEANNOT_GROUP
 10
0.0
 20
0.0
 30
0.0
  0
INSERT
  5
66
330
1F
100
AcDbEntity
  8
Default
100
AcDbBlockReference
  2
SEANNOT_GROUP1
 10
0.0
 20
0.0
 30
0.0
  0
INSERT
  5
6C
330
1F
100
AcDbEntity
  8
Default
100
AcDbBlockReference
  2
SEANNOT_GROUP2
 10
0.0
 20
0.0
 30
0.0
  0
INSERT
  5
76
330
1F
100
AcDbEntity
  8
Default
100
AcDbBlockReference
  2
SE
 10
0.0
 20
0.0
 30
0.0
  0
INSERT
  5
23E
330
1F
100
AcDbEntity
  8
Default
100
AcDbBlockReference
  2
SE1
 10
0.0
 20
0.0
 30
0.0
  0
INSERT
  5
2B2
330
1F
100
AcDbEntity
  8
Default
100
AcDbBlockReference
  2
SE2
 10
0.0
 20
0.0
 30
0.0
  0
TEXT
  5
2DA
330
1F
100
AcDbEntity
  8
Default
  6
Continuous
 62
     7
100
AcDbText
 10
5.9362635081
 20
53.4225120485
 30
0.0
 40
10.0
  1
Grohe AG^J
  7
SEACAD_seiso_ttf
 11
5.9362635081
 21
63.4225120485
 31
0.0
100
AcDbText
 73
     3
  0
TEXT
  5
2DB
330
1F
100
AcDbEntity
  8
Default
  6
Continuous
 62
     7
100
AcDbText
 10
5.9362635081
 20
37.0588756849
 30
0.0
 40
10.0
  1
 
  7
SEACAD_seiso_ttf
 11
5.9362635081
 21
47.0588756849
 31
0.0
100
AcDbText
 73
     3
  0
TEXT
  5
2DC
330
1F
100
AcDbEntity
  8
Default
  6
Continuous
 62
     7
100
AcDbText
 10
5.9362635081
 20
20.6952393213
 30
0.0
 40
10.0
  1
ecn: 
  7
SEACAD_seiso_ttf
 11
5.9362635081
 21
30.6952393213
 31
0.0
100
AcDbText
 73
     3
  0
TEXT
  5
2DD
330
1F
100
AcDbEntity
  8
Default
  6
Continuous
 62
     7
100
AcDbText
 10
5.9362635081
 20
4.3316029576
 30
0.0
 40
10.0
  1
unit: mm
  7
SEACAD_seiso_ttf
 11
5.9362635081
 21
14.3316029576
 31
0.0
100
AcDbText
 73
     3
  0
LINE
  5
2DE
330
1F
100
AcDbEntity
  8
Default
  6
Continuous
 62
     7
100
AcDbLine
 10
0.0
 20
0.0
 30
0.0
 11
100.0
 21
0.0
 31
0.0
  0
LINE
  5
2DF
330
1F
100
AcDbEntity
  8
Default
  6
Continuous
 62
     7
100
AcDbLine
 10
0.0
 20
0.0
 30
0.0
 11
0.0
 21
100.0
 31
0.0
  0
TEXT
  5
2E0
330
1F
100
AcDbEntity
  8
Default
  6
Continuous
 62
     7
100
AcDbText
 10
24.3923665681
 20
-18.2375342018
 30
0.0
 40
10.0
  1
100 mm
  7
SEACAD_seiso_ttf
 11
24.3923665681
 21
-8.2375342018
 31
0.0
100
AcDbText
 73
     3
  0
TEXT
  5
2E1
330
1F
100
AcDbEntity
  8
Default
  6
Continuous
 62
     7
100
AcDbText
 10
-7.6150308803
 20
24.6231930421
 30
0.0
 40
10.0
  1
100 mm
 50
90.0
  7
SEACAD_seiso_ttf
 11
-17.6150308803
 21
24.6231930421
 31
0.0
100
AcDbText
 73
     3
  0
TEXT
  5
2E2
330
1F
100
AcDbEntity
  8
Default
  6
Continuous
 62
     7
100
AcDbText
 10
28.4878128572
 20
20.0907663715
 30
0.0
 40
10.0
  1
218774
  7
SEACAD_seiso_ttf
 11
28.4878128572
 21
30.0907663715
 31
0.0
100
AcDbText
 73
     3
  0
TEXT
  5
2E3
330
1F
100
AcDbEntity
  8
Default
  6
Continuous
 62
     7
100
AcDbText
 10
5.9012241913
 20
36.7242780188
 30
0.0
 40
10.0
  1
3355220E
  7
SEACAD_seiso_ttf
 11
5.9012241913
 21
46.7242780188
 31
0.0
100
AcDbText
 73
     3
  0
ENDSEC
  0
SECTION
  2
OBJECTS
  0
DICTIONARY
  5
C
330
0
100
AcDbDictionary
281
     1
  3
ACAD_GROUP
350
D
  3
ACAD_LAYOUT
350
1A
  3
ACAD_MLEADERSTYLE
350
2E7
  3
ACAD_MLINESTYLE
350
17
  3
ACAD_PLOTSETTINGS
350
19
  3
ACAD_PLOTSTYLENAME
350
E
  3
ACAD_SCALELIST
350
3B
  3
ACAD_TABLESTYLE
350
2E6
  3
ACAD_VISUALSTYLE
350
2A
  3
AcDbVariableDictionary
350
2E4
  0
DICTIONARY
  5
D
102
{ACAD_REACTORS
330
C
102
}
330
C
100
AcDbDictionary
281
     1
  0
DICTIONARY
  5
1A
102
{ACAD_REACTORS
330
C
102
}
330
C
100
AcDbDictionary
281
     1
  3
Layout1
350
1E
  3
Model
350
22
  0
DICTIONARY
  5
2E7
102
{ACAD_REACTORS
330
C
102
}
330
C
100
AcDbDictionary
281
     1
  0
DICTIONARY
  5
17
102
{ACAD_REACTORS
330
C
102
}
330
C
100
AcDbDictionary
281
     1
  3
Standard
350
18
  0
DICTIONARY
  5
19
102
{ACAD_REACTORS
330
C
102
}
330
C
100
AcDbDictionary
281
     1
  0
ACDBDICTIONARYWDFLT
  5
E
102
{ACAD_REACTORS
330
C
102
}
330
C
100
AcDbDictionary
281
     1
  3
Normal
350
F
100
AcDbDictionaryWithDefault
340
F
  0
DICTIONARY
  5
3B
102
{ACAD_REACTORS
330
C
102
}
330
C
100
AcDbDictionary
281
     1
  3
A0
350
3C
  3
A1
350
3D
  3
A2
350
3E
  3
A3
350
3F
  3
A4
350
40
  3
A5
350
41
  3
A6
350
42
  3
A7
350
43
  3
A8
350
44
  3
A9
350
45
  3
B0
350
46
  3
B1
350
47
  3
B2
350
48
  3
B3
350
49
  3
B4
350
4A
  3
B5
350
4B
  3
B6
350
4C
  3
B7
350
4D
  3
B8
350
4E
  3
B9
350
4F
  3
C0
350
50
  3
C1
350
51
  3
C2
350
52
  3
C3
350
53
  3
C4
350
54
  3
C5
350
55
  3
C6
350
56
  3
C7
350
57
  3
C8
350
58
  3
C9
350
59
  3
D0
350
5A
  3
D1
350
5B
  3
D2
350
5C
  0
DICTIONARY
  5
2E6
102
{ACAD_REACTORS
330
C
102
}
330
C
100
AcDbDictionary
281
     1
  0
DICTIONARY
  5
2A
102
{ACAD_REACTORS
330
C
102
}
330
C
100
AcDbDictionary
281
     1
  3
2dWireframe
350
2F
  3
3D Hidden
350
31
  3
3dWireframe
350
30
  3
Basic
350
32
  3
Brighten
350
36
  3
ColorChange
350
3A
  3
Conceptual
350
34
  3
Dim
350
35
  3
Facepattern
350
39
  3
Flat
350
2B
  3
FlatWithEdges
350
2C
  3
Gouraud
350
2D
  3
GouraudWithEdges
350
2E
  3
Linepattern
350
38
  3
Realistic
350
33
  3
Thicken
350
37
  0
DICTIONARY
  5
2E4
102
{ACAD_REACTORS
330
C
102
}
330
C
100
AcDbDictionary
281
     1
  3
CANNOSCALE
350
2E5
  3
PSOLHEIGHT
350
2E9
  3
PSOLWIDTH
350
2E8
  0
LAYOUT
  5
1E
102
{ACAD_REACTORS
330
1A
102
}
330
1A
100
AcDbPlotSettings
  1

  2
none_device
  4

  6

 40
0.0
 41
0.0
 42
0.0
 43
0.0
 44
0.0
 45
0.0
 46
0.0
 47
0.0
 48
0.0
 49
0.0
140
0.0
141
0.0
142
1.0
143
1.0
 70
   688
 72
     0
 73
     0
 74
     5
  7

 75
    16
147
1.0
148
0.0
149
0.0
100
AcDbLayout
  1
Layout1
 70
     1
 71
     1
 10
0.0
 20
0.0
 11
1682.0
 21
2378.0
 12
0.0
 22
0.0
 32
0.0
 14
0.0
 24
0.0
 34
0.0
 15
1682.0
 25
2378.0
 35
0.0
146
0.0
 13
0.0
 23
0.0
 33
0.0
 16
1.0
 26
0.0
 36
0.0
 17
0.0
 27
1.0
 37
0.0
 76
     0
330
1B
  0
LAYOUT
  5
22
102
{ACAD_REACTORS
330
1A
102
}
330
1A
100
AcDbPlotSettings
  1

  2
none_device
  4

  6

 40
0.0
 41
0.0
 42
0.0
 43
0.0
 44
0.0
 45
0.0
 46
0.0
 47
0.0
 48
0.0
 49
0.0
140
0.0
141
0.0
142
1.0
143
1.0
 70
  1712
 72
     0
 73
     0
 74
     0
  7

 75
     0
147
1.0
148
0.0
149
0.0
100
AcDbLayout
  1
Model
 70
     1
 71
     0
 10
0.0
 20
0.0
 11
1682.0
 21
2378.0
 12
0.0
 22
0.0
 32
0.0
 14
0.0
 24
0.0
 34
0.0
 15
1682.0
 25
2378.0
 35
0.0
146
0.0
 13
0.0
 23
0.0
 33
0.0
 16
1.0
 26
0.0
 36
0.0
 17
0.0
 27
1.0
 37
0.0
 76
     0
330
1F
331
29
  0
MLINESTYLE
  5
18
102
{ACAD_REACTORS
330
17
102
}
330
17
100
AcDbMlineStyle
  2
Standard
 70
     0
  3

 62
   256
 51
90.0
 52
90.0
 71
     2
 49
0.5
 62
   256
  6
BYLAYER
 49
-0.5
 62
   256
  6
BYLAYER
  0
ACDBPLACEHOLDER
  5
F
102
{ACAD_REACTORS
330
E
102
}
330
E
  0
SCALE
  5
3C
102
{ACAD_REACTORS
330
3B
102
}
330
3B
100
AcDbScale
 70
     0
300
1:1
140
1.0
141
1.0
290
     1
  0
SCALE
  5
3D
102
{ACAD_REACTORS
330
3B
102
}
330
3B
100
AcDbScale
 70
     0
300
1:2
140
1.0
141
2.0
290
     0
  0
SCALE
  5
3E
102
{ACAD_REACTORS
330
3B
102
}
330
3B
100
AcDbScale
 70
     0
300
1:4
140
1.0
141
4.0
290
     0
  0
SCALE
  5
3F
102
{ACAD_REACTORS
330
3B
102
}
330
3B
100
AcDbScale
 70
     0
300
1:5
140
1.0
141
5.0
290
     0
  0
SCALE
  5
40
102
{ACAD_REACTORS
330
3B
102
}
330
3B
100
AcDbScale
 70
     0
300
1:8
140
1.0
141
8.0
290
     0
  0
SCALE
  5
41
102
{ACAD_REACTORS
330
3B
102
}
330
3B
100
AcDbScale
 70
     0
300
1:10
140
1.0
141
10.0
290
     0
  0
SCALE
  5
42
102
{ACAD_REACTORS
330
3B
102
}
330
3B
100
AcDbScale
 70
     0
300
1:16
140
1.0
141
16.0
290
     0
  0
SCALE
  5
43
102
{ACAD_REACTORS
330
3B
102
}
330
3B
100
AcDbScale
 70
     0
300
1:20
140
1.0
141
20.0
290
     0
  0
SCALE
  5
44
102
{ACAD_REACTORS
330
3B
102
}
330
3B
100
AcDbScale
 70
     0
300
1:30
140
1.0
141
30.0
290
     0
  0
SCALE
  5
45
102
{ACAD_REACTORS
330
3B
102
}
330
3B
100
AcDbScale
 70
     0
300
1:40
140
1.0
141
40.0
290
     0
  0
SCALE
  5
46
102
{ACAD_REACTORS
330
3B
102
}
330
3B
100
AcDbScale
 70
     0
300
1:50
140
1.0
141
50.0
290
     0
  0
SCALE
  5
47
102
{ACAD_REACTORS
330
3B
102
}
330
3B
100
AcDbScale
 70
     0
300
1:100
140
1.0
141
100.0
290
     0
  0
SCALE
  5
48
102
{ACAD_REACTORS
330
3B
102
}
330
3B
100
AcDbScale
 70
     0
300
2:1
140
2.0
141
1.0
290
     0
  0
SCALE
  5
49
102
{ACAD_REACTORS
330
3B
102
}
330
3B
100
AcDbScale
 70
     0
300
4:1
140
4.0
141
1.0
290
     0
  0
SCALE
  5
4A
102
{ACAD_REACTORS
330
3B
102
}
330
3B
100
AcDbScale
 70
     0
300
8:1
140
8.0
141
1.0
290
     0
  0
SCALE
  5
4B
102
{ACAD_REACTORS
330
3B
102
}
330
3B
100
AcDbScale
 70
     0
300
10:1
140
10.0
141
1.0
290
     0
  0
SCALE
  5
4C
102
{ACAD_REACTORS
330
3B
102
}
330
3B
100
AcDbScale
 70
     0
300
100:1
140
100.0
141
1.0
290
     0
  0
SCALE
  5
4D
102
{ACAD_REACTORS
330
3B
102
}
330
3B
100
AcDbScale
 70
     0
300
1/128" = 1'-0"
140
0.0078125
141
12.0
290
     0
  0
SCALE
  5
4E
102
{ACAD_REACTORS
330
3B
102
}
330
3B
100
AcDbScale
 70
     0
300
1/64" = 1'-0"
140
0.015625
141
12.0
290
     0
  0
SCALE
  5
4F
102
{ACAD_REACTORS
330
3B
102
}
330
3B
100
AcDbScale
 70
     0
300
1/32" = 1'-0"
140
0.03125
141
12.0
290
     0
  0
SCALE
  5
50
102
{ACAD_REACTORS
330
3B
102
}
330
3B
100
AcDbScale
 70
     0
300
1/16" = 1'-0"
140
0.0625
141
12.0
290
     0
  0
SCALE
  5
51
102
{ACAD_REACTORS
330
3B
102
}
330
3B
100
AcDbScale
 70
     0
300
3/32" = 1'-0"
140
0.09375
141
12.0
290
     0
  0
SCALE
  5
52
102
{ACAD_REACTORS
330
3B
102
}
330
3B
100
AcDbScale
 70
     0
300
1/8" = 1'-0"
140
0.125
141
12.0
290
     0
  0
SCALE
  5
53
102
{ACAD_REACTORS
330
3B
102
}
330
3B
100
AcDbScale
 70
     0
300
3/16" = 1'-0"
140
0.1875
141
12.0
290
     0
  0
SCALE
  5
54
102
{ACAD_REACTORS
330
3B
102
}
330
3B
100
AcDbScale
 70
     0
300
1/4" = 1'-0"
140
0.25
141
12.0
290
     0
  0
SCALE
  5
55
102
{ACAD_REACTORS
330
3B
102
}
330
3B
100
AcDbScale
 70
     0
300
3/8" = 1'-0"
140
0.375
141
12.0
290
     0
  0
SCALE
  5
56
102
{ACAD_REACTORS
330
3B
102
}
330
3B
100
AcDbScale
 70
     0
300
1/2" = 1'-0"
140
0.5
141
12.0
290
     0
  0
SCALE
  5
57
102
{ACAD_REACTORS
330
3B
102
}
330
3B
100
AcDbScale
 70
     0
300
3/4" = 1'-0"
140
0.75
141
12.0
290
     0
  0
SCALE
  5
58
102
{ACAD_REACTORS
330
3B
102
}
330
3B
100
AcDbScale
 70
     0
300
1" = 1'-0"
140
1.0
141
12.0
290
     0
  0
SCALE
  5
59
102
{ACAD_REACTORS
330
3B
102
}
330
3B
100
AcDbScale
 70
     0
300
1-1/2" = 1'-0"
140
1.5
141
12.0
290
     0
  0
SCALE
  5
5A
102
{ACAD_REACTORS
330
3B
102
}
330
3B
100
AcDbScale
 70
     0
300
3" = 1'-0"
140
3.0
141
12.0
290
     0
  0
SCALE
  5
5B
102
{ACAD_REACTORS
330
3B
102
}
330
3B
100
AcDbScale
 70
     0
300
6" = 1'-0"
140
6.0
141
12.0
290
     0
  0
SCALE
  5
5C
102
{ACAD_REACTORS
330
3B
102
}
330
3B
100
AcDbScale
 70
     0
300
1'-0" = 1'-0"
140
12.0
141
12.0
290
     0
  0
VISUALSTYLE
  5
2F
102
{ACAD_REACTORS
330
2A
102
}
330
2A
100
AcDbVisualStyle
  2
2dWireframe
 70
     4
 71
     0
 72
     2
 73
     0
 90
        0
 40
-0.6
 41
-30.0
 62
     5
 63
     7
 74
     1
 91
        4
 64
     7
 65
   257
 75
     1
175
     1
 42
1.0
 92
        0
 66
   257
 43
1.0
 76
     1
 77
     6
 78
     2
 67
     7
 79
     5
170
     0
171
     0
290
     0
174
     0
 93
        1
 44
0.0
173
     0
291
     0
 45
0.0
1001
ACAD
1000
AcDbSavedByObjectVersion
1070
     0
  0
VISUALSTYLE
  5
31
102
{ACAD_REACTORS
330
2A
102
}
330
2A
100
AcDbVisualStyle
  2
3D Hidden
 70
     6
 71
     1
 72
     2
 73
     2
 90
        0
 40
-0.6
 41
-30.0
 62
     5
 63
     7
 74
     2
 91
        2
 64
     7
 65
   257
 75
     2
175
     1
 42
40.0
 92
        0
 66
   257
 43
1.0
 76
     1
 77
     6
 78
     2
 67
     7
 79
     3
170
     0
171
     0
290
     0
174
     0
 93
        1
 44
0.0
173
     0
291
     0
 45
0.0
1001
ACAD
1000
AcDbSavedByObjectVersion
1070
     0
  0
VISUALSTYLE
  5
30
102
{ACAD_REACTORS
330
2A
102
}
330
2A
100
AcDbVisualStyle
  2
3dWireframe
 70
     5
 71
     0
 72
     2
 73
     0
 90
        0
 40
-0.6
 41
-30.0
 62
     5
 63
     7
 74
     1
 91
        4
 64
     7
 65
   257
 75
     1
175
     1
 42
1.0
 92
        0
 66
   257
 43
1.0
 76
     1
 77
     6
 78
     2
 67
     7
 79
     5
170
     0
171
     0
290
     0
174
     0
 93
        1
 44
0.0
173
     0
291
     0
 45
0.0
1001
ACAD
1000
AcDbSavedByObjectVersion
1070
     0
  0
VISUALSTYLE
  5
32
102
{ACAD_REACTORS
330
2A
102
}
330
2A
100
AcDbVisualStyle
  2
Basic
 70
     7
 71
     1
 72
     0
 73
     1
 90
        0
 40
-0.6
 41
-30.0
 62
     5
 63
     7
 74
     0
 91
        4
 64
     7
 65
   257
 75
     1
175
     1
 42
1.0
 92
        8
 66
     7
 43
1.0
 76
     1
 77
     6
 78
     2
 67
     7
 79
     5
170
     0
171
     0
290
     0
174
     0
 93
        1
 44
0.0
173
     0
291
     1
 45
0.0
1001
ACAD
1000
AcDbSavedByObjectVersion
1070
     0
  0
VISUALSTYLE
  5
36
102
{ACAD_REACTORS
330
2A
102
}
330
2A
100
AcDbVisualStyle
  2
Brighten
 70
    12
 71
     2
 72
     2
 73
     0
 90
        0
 40
-0.6
 41
-30.0
 62
     5
 63
     7
 74
     1
 91
        4
 64
     7
 65
   257
 75
     1
175
     1
 42
1.0
 92
        8
 66
     7
 43
1.0
 76
     1
 77
     6
 78
     2
 67
     7
 79
     5
170
     0
171
     0
290
     0
174
     0
 93
        1
 44
50.0
173
     0
291
     1
 45
0.0
1001
ACAD
1000
AcDbSavedByObjectVersion
1070
     0
  0
VISUALSTYLE
  5
3A
102
{ACAD_REACTORS
330
2A
102
}
330
2A
100
AcDbVisualStyle
  2
ColorChange
 70
    16
 71
     2
 72
     2
 73
     3
 90
        0
 40
-0.6
 41
-30.0
 62
     5
 63
     8
 74
     1
 91
        4
 64
     7
 65
   257
 75
     1
175
     1
 42
1.0
 92
        8
 66
     8
 43
1.0
 76
     1
 77
     6
 78
     2
 67
     7
 79
     5
170
     0
171
     0
290
     0
174
     0
 93
        1
 44
0.0
173
     0
291
     1
 45
0.0
1001
ACAD
1000
AcDbSavedByObjectVersion
1070
     0
  0
VISUALSTYLE
  5
34
102
{ACAD_REACTORS
330
2A
102
}
330
2A
100
AcDbVisualStyle
  2
Conceptual
 70
     9
 71
     3
 72
     2
 73
     0
 90
        0
 40
-0.6
 41
-30.0
 62
     5
 63
     7
 74
     2
 91
        2
 64
     7
 65
   257
 75
     1
175
     1
 42
40.0
 92
        8
 66
     7
 43
1.0
 76
     1
 77
     6
 78
     2
 67
     7
 79
     3
170
     0
171
     0
290
     0
174
     0
 93
        1
 44
0.0
173
     0
291
     0
 45
0.0
1001
ACAD
1000
AcDbSavedByObjectVersion
1070
     0
  0
VISUALSTYLE
  5
35
102
{ACAD_REACTORS
330
2A
102
}
330
2A
100
AcDbVisualStyle
  2
Dim
 70
    11
 71
     2
 72
     2
 73
     0
 90
        0
 40
-0.6
 41
-30.0
 62
     5
 63
     7
 74
     1
 91
        4
 64
     7
 65
   257
 75
     1
175
     1
 42
1.0
 92
        8
 66
     7
 43
1.0
 76
     1
 77
     6
 78
     2
 67
     7
 79
     5
170
     0
171
     0
290
     0
174
     0
 93
        1
 44
-50.0
173
     0
291
     1
 45
0.0
1001
ACAD
1000
AcDbSavedByObjectVersion
1070
     0
  0
VISUALSTYLE
  5
39
102
{ACAD_REACTORS
330
2A
102
}
330
2A
100
AcDbVisualStyle
  2
Facepattern
 70
    15
 71
     2
 72
     2
 73
     0
 90
        0
 40
-0.6
 41
-30.0
 62
     5
 63
     7
 74
     1
 91
        4
 64
     7
 65
   257
 75
     1
175
     1
 42
1.0
 92
        8
 66
     7
 43
1.0
 76
     1
 77
     6
 78
     2
 67
     7
 79
     5
170
     0
171
     0
290
     0
174
     0
 93
        1
 44
0.0
173
     0
291
     1
 45
0.0
1001
ACAD
1000
AcDbSavedByObjectVersion
1070
     0
  0
VISUALSTYLE
  5
2B
102
{ACAD_REACTORS
330
2A
102
}
330
2A
100
AcDbVisualStyle
  2
Flat
 70
     0
 71
     2
 72
     1
 73
     1
 90
        2
 40
-0.6
 41
30.0
 62
     5
 63
     7
 74
     0
 91
        4
 64
     7
 65
   257
 75
     1
175
     1
 42
1.0
 92
        8
 66
     7
 43
1.0
 76
     1
 77
     6
 78
     2
 67
     7
 79
     5
170
     0
171
     0
290
     0
174
     0
 93
       13
 44
0.0
173
     0
291
     1
 45
0.0
1001
ACAD
1000
AcDbSavedByObjectVersion
1070
     0
  0
VISUALSTYLE
  5
2C
102
{ACAD_REACTORS
330
2A
102
}
330
2A
100
AcDbVisualStyle
  2
FlatWithEdges
 70
     1
 71
     2
 72
     1
 73
     1
 90
        2
 40
-0.6
 41
30.0
 62
     5
 63
     7
 74
     1
 91
        4
 64
     7
 65
   257
 75
     1
175
     1
 42
1.0
 92
        0
 66
   257
 43
1.0
 76
     1
 77
     6
 78
     2
 67
     7
 79
     5
170
     0
171
     0
290
     0
174
     0
 93
       13
 44
0.0
173
     0
291
     1
 45
0.0
1001
ACAD
1000
AcDbSavedByObjectVersion
1070
     0
  0
VISUALSTYLE
  5
2D
102
{ACAD_REACTORS
330
2A
102
}
330
2A
100
AcDbVisualStyle
  2
Gouraud
 70
     2
 71
     2
 72
     2
 73
     1
 90
        2
 40
-0.6
 41
30.0
 62
     5
 63
     7
 74
     0
 91
        4
 64
     7
 65
   257
 75
     1
175
     1
 42
1.0
 92
        0
 66
     7
 43
1.0
 76
     1
 77
     6
 78
     2
 67
     7
 79
     5
170
     0
171
     0
290
     0
174
     0
 93
       13
 44
0.0
173
     0
291
     1
 45
0.0
1001
ACAD
1000
AcDbSavedByObjectVersion
1070
     0
  0
VISUALSTYLE
  5
2E
102
{ACAD_REACTORS
330
2A
102
}
330
2A
100
AcDbVisualStyle
  2
GouraudWithEdges
 70
     3
 71
     2
 72
     2
 73
     1
 90
        2
 40
-0.6
 41
30.0
 62
     5
 63
     7
 74
     1
 91
        4
 64
     7
 65
   257
 75
     1
175
     1
 42
1.0
 92
        0
 66
   257
 43
1.0
 76
     1
 77
     6
 78
     2
 67
     7
 79
     5
170
     0
171
     0
290
     0
174
     0
 93
       13
 44
0.0
173
     0
291
     1
 45
0.0
1001
ACAD
1000
AcDbSavedByObjectVersion
1070
     0
  0
VISUALSTYLE
  5
38
102
{ACAD_REACTORS
330
2A
102
}
330
2A
100
AcDbVisualStyle
  2
Linepattern
 70
    14
 71
     2
 72
     2
 73
     0
 90
        0
 40
-0.6
 41
-30.0
 62
     5
 63
     7
 74
     1
 91
        4
 64
     7
 65
   257
 75
     7
175
     7
 42
1.0
 92
        8
 66
     7
 43
1.0
 76
     1
 77
     6
 78
     2
 67
     7
 79
     5
170
     0
171
     0
290
     0
174
     0
 93
        1
 44
0.0
173
     0
291
     1
 45
0.0
1001
ACAD
1000
AcDbSavedByObjectVersion
1070
     0
  0
VISUALSTYLE
  5
33
102
{ACAD_REACTORS
330
2A
102
}
330
2A
100
AcDbVisualStyle
  2
Realistic
 70
     8
 71
     2
 72
     2
 73
     0
 90
        0
 40
-0.6
 41
-30.0
 62
     5
 63
     7
 74
     1
 91
        0
 64
     7
 65
   257
 75
     1
175
     1
 42
1.0
 92
        8
 66
     8
 43
1.0
 76
     1
 77
     6
 78
     2
 67
     7
 79
     5
170
     0
171
     0
290
     0
174
     0
 93
       13
 44
0.0
173
     0
291
     0
 45
0.0
1001
ACAD
1000
AcDbSavedByObjectVersion
1070
     0
  0
VISUALSTYLE
  5
37
102
{ACAD_REACTORS
330
2A
102
}
330
2A
100
AcDbVisualStyle
  2
Thicken
 70
    13
 71
     2
 72
     2
 73
     0
 90
        0
 40
-0.6
 41
-30.0
 62
     5
 63
     7
 74
     1
 91
        4
 64
     7
 65
   257
 75
     1
175
     1
 42
1.0
 92
       12
 66
     7
 43
1.0
 76
     1
 77
     6
 78
     2
 67
     7
 79
     5
170
     0
171
     0
290
     0
174
     0
 93
        1
 44
0.0
173
     0
291
     1
 45
0.0
1001
ACAD
1000
AcDbSavedByObjectVersion
1070
     0
  0
DICTIONARYVAR
  5
2E5
102
{ACAD_REACTORS
330
2E4
102
}
330
2E4
100
DictionaryVariables
280
     0
  1
1:1
  0
DICTIONARYVAR
  5
2E9
102
{ACAD_REACTORS
330
2E4
102
}
330
2E4
100
DictionaryVariables
280
     0
  1
80.000000
  0
DICTIONARYVAR
  5
2E8
102
{ACAD_REACTORS
330
2E4
102
}
330
2E4
100
DictionaryVariables
280
     0
  1
5.000000
  0
ENDSEC
  0
EOF
