  0
SECTION
  2
HEADER
  9
$ACADVER
  1
AC1009
  9
$DWGCODEPAGE
  3
ansi_1252
  9
$INSBASE
 10
0.0
 20
0.0
 30
0.0
  9
$EXTMIN
 10
1.000000000000000E+20
 20
1.000000000000000E+20
 30
1.000000000000000E+20
  9
$EXTMAX
 10
-1.000000000000000E+20
 20
-1.000000000000000E+20
 30
-1.000000000000000E+20
  9
$LIMMIN
 10
0.0
 20
0.0
  9
$LIMMAX
 10
12.0
 20
9.0
  9
$ORTHOMODE
 70
     0
  9
$REGENMODE
 70
     1
  9
$FILLMODE
 70
     1
  9
$QTEXTMODE
 70
     0
  9
$MIRRTEXT
 70
     1
  9
$DRAGMODE
 70
     2
  9
$LTSCALE
 40
1.0
  9
$OSMODE
 70
    37
  9
$ATTMODE
 70
     1
  9
$TEXTSIZE
 40
0.2
  9
$TRACEWID
 40
0.05
  9
$TEXTSTYLE
  7
STANDARD
  9
$CLAYER
  8
0
  9
$CELTYPE
  6
BYLAYER
  9
$CECOLOR
 62
   256
  9
$DIMSCALE
 40
1.0
  9
$DIMASZ
 40
0.18
  9
$DIMEXO
 40
0.0625
  9
$DIMDLI
 40
0.38
  9
$DIMRND
 40
0.0
  9
$DIMDLE
 40
0.0
  9
$DIMEXE
 40
0.18
  9
$DIMTP
 40
0.0
  9
$DIMTM
 40
0.0
  9
$DIMTXT
 40
0.18
  9
$DIMCEN
 40
0.09
  9
$DIMTSZ
 40
0.0
  9
$DIMTOL
 70
     0
  9
$DIMLIM
 70
     0
  9
$DIMTIH
 70
     1
  9
$DIMTOH
 70
     1
  9
$DIMSE1
 70
     0
  9
$DIMSE2
 70
     0
  9
$DIMTAD
 70
     0
  9
$DIMZIN
 70
     0
  9
$DIMBLK
  1

  9
$DIMASO
 70
     1
  9
$DIMSHO
 70
     1
  9
$DIMPOST
  1

  9
$DIMAPOST
  1

  9
$DIMALT
 70
     0
  9
$DIMALTD
 70
     2
  9
$DIMALTF
 40
25.4
  9
$DIMLFAC
 40
1.0
  9
$DIMTOFL
 70
     0
  9
$DIMTVP
 40
0.0
  9
$DIMTIX
 70
     0
  9
$DIMSOXD
 70
     0
  9
$DIMSAH
 70
     0
  9
$DIMBLK1
  1

  9
$DIMBLK2
  1

  9
$DIMSTYLE
  2
STANDARD
  9
$DIMCLRD
 70
     0
  9
$DIMCLRE
 70
     0
  9
$DIMCLRT
 70
     0
  9
$DIMTFAC
 40
1.0
  9
$DIMGAP
 40
0.09
  9
$LUNITS
 70
     2
  9
$LUPREC
 70
     4
  9
$SKETCHINC
 40
0.1
  9
$FILLETRAD
 40
0.5
  9
$AUNITS
 70
     0
  9
$AUPREC
 70
     0
  9
$MENU
  1
.
  9
$ELEVATION
 40
0.0
  9
$PELEVATION
 40
0.0
  9
$THICKNESS
 40
0.0
  9
$LIMCHECK
 70
     0
  9
$CHAMFERA
 40
0.5
  9
$CHAMFERB
 40
0.5
  9
$SKPOLY
 70
     0
  9
$TDCREATE
 40
2455601.330018495
  9
$TDUPDATE
 40
2455601.330018495
  9
$TDINDWG
 40
0.0000000116
  9
$TDUSRTIMER
 40
0.0000000116
  9
$USRTIMER
 70
     1
  9
$ANGBASE
 50
0.0
  9
$ANGDIR
 70
     0
  9
$PDMODE
 70
     0
  9
$PDSIZE
 40
0.0
  9
$PLINEWID
 40
0.0
  9
$COORDS
 70
     1
  9
$SPLFRAME
 70
     0
  9
$SPLINETYPE
 70
     6
  9
$SPLINESEGS
 70
     8
  9
$ATTDIA
 70
     0
  9
$ATTREQ
 70
     1
  9
$HANDLING
 70
     1
  9
$HANDSEED
  5
852
  9
$SURFTAB1
 70
     6
  9
$SURFTAB2
 70
     6
  9
$SURFTYPE
 70
     6
  9
$SURFU
 70
     6
  9
$SURFV
 70
     6
  9
$UCSNAME
  2

  9
$UCSORG
 10
0.0
 20
0.0
 30
0.0
  9
$UCSXDIR
 10
1.0
 20
0.0
 30
0.0
  9
$UCSYDIR
 10
0.0
 20
1.0
 30
0.0
  9
$PUCSNAME
  2

  9
$PUCSORG
 10
0.0
 20
0.0
 30
0.0
  9
$PUCSXDIR
 10
1.0
 20
0.0
 30
0.0
  9
$PUCSYDIR
 10
0.0
 20
1.0
 30
0.0
  9
$USERI1
 70
     0
  9
$USERI2
 70
     0
  9
$USERI3
 70
     0
  9
$USERI4
 70
     0
  9
$USERI5
 70
     0
  9
$USERR1
 40
0.0
  9
$USERR2
 40
0.0
  9
$USERR3
 40
0.0
  9
$USERR4
 40
0.0
  9
$USERR5
 40
0.0
  9
$WORLDVIEW
 70
     1
  9
$SHADEDGE
 70
     3
  9
$SHADEDIF
 70
    70
  9
$TILEMODE
 70
     1
  9
$MAXACTVP
 70
    64
  9
$PLIMCHECK
 70
     0
  9
$PEXTMIN
 10
1.000000000000000E+20
 20
1.000000000000000E+20
 30
1.000000000000000E+20
  9
$PEXTMAX
 10
-1.000000000000000E+20
 20
-1.000000000000000E+20
 30
-1.000000000000000E+20
  9
$PLIMMIN
 10
0.0
 20
0.0
  9
$PLIMMAX
 10
12.0
 20
9.0
  9
$UNITMODE
 70
     0
  9
$VISRETAIN
 70
     1
  9
$PLINEGEN
 70
     0
  9
$PSLTSCALE
 70
     1
  0
ENDSEC
  0
SECTION
  2
TABLES
  0
TABLE
  2
VPORT
 70
     1
  0
VPORT
  2
*ACTIVE
 70
     0
 10
0.0
 20
0.0
 11
1.0
 21
1.0
 12
0.0
 22
0.0
 13
0.0
 23
0.0
 14
0.5
 24
0.5
 15
0.5
 25
0.5
 16
479.9315795898438
 26
-479.9316101074219
 36
479.9316101074219
 17
105.0993041992188
 27
31.190185546875
 37
164.6000061035156
 40
529.9882361336515
 41
1.972972972850329
 42
50.0
 43
0.0
 44
0.0
 50
0.0
 51
0.0
 71
     0
 72
   100
 73
     1
 74
     3
 75
     0
 76
     0
 77
     0
 78
     0
  0
ENDTAB
  0
TABLE
  2
LTYPE
 70
     1
  0
LTYPE
  2
CONTINUOUS
 70
     0
  3
Solid line
 72
    65
 73
     0
 40
0.0
  0
ENDTAB
  0
TABLE
  2
LAYER
 70
     2
  0
LAYER
  2
0
 70
     0
 62
     7
  6
CONTINUOUS
  0
LAYER
  2
LAYER_1
 70
     0
 62
     7
  6
CONTINUOUS
  0
ENDTAB
  0
TABLE
  2
STYLE
 70
     1
  0
STYLE
  2
STANDARD
 70
     0
 40
0.0
 41
1.0
 50
0.0
 71
     0
 42
0.2
  3
txt
  4

  0
ENDTAB
  0
TABLE
  2
VIEW
 70
     0
  0
ENDTAB
  0
TABLE
  2
UCS
 70
     0
  0
ENDTAB
  0
TABLE
  2
APPID
 70
     1
  0
APPID
  2
ACAD
 70
     0
  0
ENDTAB
  0
TABLE
  2
DIMSTYLE
 70
     1
  0
DIMSTYLE
  2
STANDARD
 70
     0
  3

  4

  5

  6

  7

 40
1.0
 41
0.18
 42
0.0625
 43
0.38
 44
0.18
 45
0.0
 46
0.0
 47
0.0
 48
0.0
140
0.18
141
0.09
142
0.0
143
25.4
144
1.0
145
0.0
146
1.0
147
0.09
 71
     0
 72
     0
 73
     1
 74
     1
 75
     0
 76
     0
 77
     0
 78
     0
170
     0
171
     2
172
     0
173
     0
174
     0
175
     0
176
     0
177
     0
178
     0
  0
ENDTAB
  0
ENDSEC
  0
SECTION
  2
BLOCKS
  0
BLOCK
  8
0
  2
$MODEL_SPACE
 70
     0
 10
0.0
 20
0.0
 30
0.0
  3
$MODEL_SPACE
  1

  0
ENDBLK
  5
21
  8
0
  0
BLOCK
 67
     1
  8
0
  2
$PAPER_SPACE
 70
     0
 10
0.0
 20
0.0
 30
0.0
  3
$PAPER_SPACE
  1

  0
ENDBLK
  5
1D
 67
     1
  8
0
  0
BLOCK
  8
0
  2
38
 70
     0
 10
0.0
 20
0.0
 30
0.0
  3
38
  1

  0
POLYLINE
  5
3C
  8
0
 62
     9
 66
     1
 10
0.0
 20
0.0
 30
0.0
 70
    64
 71
    71
 72
   114
  0
VERTEX
  5
3D
  8
0
 10
216.2926025390625
 20
9.715513229370117
 30
211.7762145996094
 70
   192
  0
VERTEX
  5
3E
  8
0
 10
217.6231231689453
 20
9.308341026306152
 30
211.1699981689453
 70
   192
  0
VERTEX
  5
3F
  8
0
 10
218.818115234375
 20
11.03560066223145
 30
211.7762145996094
 70
   192
  0
VERTEX
  5
40
  8
0
 10
221.1337432861328
 20
10.58661460876465
 30
211.1699981689453
 70
   192
  0
VERTEX
  5
41
  8
0
 10
214.7633972167969
 20
6.906666278839111
 30
211.1699981689453
 70
   192
  0
VERTEX
  5
42
  8
0
 10
214.1636199951172
 20
7.829332828521729
 30
211.7762145996094
 70
   192
  0
VERTEX
  5
43
  8
0
 10
212.5479278564453
 20
5.488502979278564
 30
211.7762145996094
 70
   192
  0
VERTEX
  5
44
  8
0
 10
212.8987121582031
 20
3.677582025527954
 30
211.1699981689453
 70
   192
  0
VERTEX
  5
45
  8
0
 10
211.5377349853516
 20
2.828041791915894
 30
211.7762145996094
 70
   192
  0
VERTEX
  5
46
  8
0
 10
212.2519836425781
 20
-0.0000182820840564
 30
211.1699981689453
 70
   192
  0
VERTEX
  5
47
  8
0
 10
211.2000274658203
 20
-0.0000188786452782
 30
211.7762145996094
 70
   192
  0
VERTEX
  5
48
  8
0
 10
224.8626861572266
 20
10.587082862854
 30
211.1699981689453
 70
   192
  0
VERTEX
  5
49
  8
0
 10
221.5832977294922
 20
11.71386814117432
 30
211.7762145996094
 70
   192
  0
VERTEX
  5
4A
  8
0
 10
227.1890869140625
 20
11.02435970306396
 30
211.7762145996094
 70
   192
  0
VERTEX
  5
4B
  8
0
 10
224.4293212890625
 20
11.71152305603027
 30
211.7762145996094
 70
   192
  0
VERTEX
  5
4C
  8
0
 10
229.7040710449219
 20
9.698553085327148
 30
211.7762145996094
 70
   192
  0
VERTEX
  5
4D
  8
0
 10
228.3722381591797
 20
9.310877799987793
 30
211.1699981689453
 70
   192
  0
VERTEX
  5
4E
  8
0
 10
231.2331085205078
 20
6.912124633789062
 30
211.1699981689453
 70
   192
  0
VERTEX
  5
4F
  8
0
 10
231.8326110839844
 20
7.810707092285156
 30
211.7762145996094
 70
   192
  0
VERTEX
  5
50
  8
0
 10
233.0995330810547
 20
3.681957960128784
 30
211.1699981689453
 70
   192
  0
VERTEX
  5
51
  8
0
 10
233.4459075927734
 20
5.47136402130127
 30
211.7762145996094
 70
   192
  0
VERTEX
  5
52
  8
0
 10
233.7500305175781
 20
-0.0000188786452782
 30
211.1699981689453
 70
   192
  0
VERTEX
  5
53
  8
0
 10
234.4527282714844
 20
2.816051483154297
 30
211.7762145996094
 70
   192
  0
VERTEX
  5
54
  8
0
 10
234.8000335693359
 20
-0.0000188786452782
 30
211.7762145996094
 70
   192
  0
VERTEX
  5
55
  8
0
 10
221.5707244873047
 20
11.71152305603027
 30
219.6699981689453
 70
   192
  0
VERTEX
  5
56
  8
0
 10
218.8109588623047
 20
11.02435970306396
 30
219.6699981689453
 70
   192
  0
VERTEX
  5
57
  8
0
 10
216.2959747314453
 20
9.698553085327148
 30
219.6699981689453
 70
   192
  0
VERTEX
  5
58
  8
0
 10
214.1674499511719
 20
7.810707092285156
 30
219.6699981689453
 70
   192
  0
VERTEX
  5
59
  8
0
 10
212.5541534423828
 20
5.47136402130127
 30
219.6699981689453
 70
   192
  0
VERTEX
  5
5A
  8
0
 10
211.5473327636719
 20
2.816051483154297
 30
219.6699981689453
 70
   192
  0
VERTEX
  5
5B
  8
0
 10
211.2000274658203
 20
-0.0000188786452782
 30
219.6699981689453
 70
   192
  0
VERTEX
  5
5C
  8
0
 10
224.4167633056641
 20
11.71386814117432
 30
219.6699981689453
 70
   192
  0
VERTEX
  5
5D
  8
0
 10
227.1819458007812
 20
11.03560066223145
 30
219.6699981689453
 70
   192
  0
VERTEX
  5
5E
  8
0
 10
229.7074432373047
 20
9.715513229370117
 30
219.6699981689453
 70
   192
  0
VERTEX
  5
5F
  8
0
 10
231.8364410400391
 20
7.829332828521729
 30
219.6699981689453
 70
   192
  0
VERTEX
  5
60
  8
0
 10
233.4521331787109
 20
5.488502979278564
 30
219.6699981689453
 70
   192
  0
VERTEX
  5
61
  8
0
 10
234.4623260498047
 20
2.828041791915894
 30
219.6699981689453
 70
   192
  0
VERTEX
  5
62
  8
0
 10
234.8000335693359
 20
-0.0000188786452782
 30
219.6699981689453
 70
   192
  0
VERTEX
  5
63
  8
0
 10
211.4902496337891
 20
-2.628684282302856
 30
211.7762145996094
 70
   192
  0
VERTEX
  5
64
  8
0
 10
216.2926025390625
 20
-9.715551376342773
 30
219.6699981689453
 70
   192
  0
VERTEX
  5
65
  8
0
 10
215.6411590576172
 20
-9.231964111328125
 30
211.7762145996094
 70
   192
  0
VERTEX
  5
66
  8
0
 10
214.1636199951172
 20
-7.829370498657227
 30
219.6699981689453
 70
   192
  0
VERTEX
  5
67
  8
0
 10
213.7714385986328
 20
-7.362442016601562
 30
211.7762145996094
 70
   192
  0
VERTEX
  5
68
  8
0
 10
212.3645629882812
 20
-5.124207019805908
 30
211.7762145996094
 70
   192
  0
VERTEX
  5
69
  8
0
 10
212.5479278564453
 20
-5.488540649414062
 30
219.6699981689453
 70
   192
  0
VERTEX
  5
6A
  8
0
 10
221.5832977294922
 20
-11.71390533447266
 30
219.6699981689453
 70
   192
  0
VERTEX
  5
6B
  8
0
 10
224.4293212890625
 20
-11.71156024932861
 30
219.6699981689453
 70
   192
  0
VERTEX
  5
6C
  8
0
 10
223.0000305175781
 20
-11.80001926422119
 30
211.7762145996094
 70
   192
  0
VERTEX
  5
6D
  8
0
 10
217.8813934326172
 20
-10.63607597351074
 30
211.7762145996094
 70
   192
  0
VERTEX
  5
6E
  8
0
 10
218.818115234375
 20
-11.0356388092041
 30
219.6699981689453
 70
   192
  0
VERTEX
  5
6F
  8
0
 10
220.376708984375
 20
-11.50359058380127
 30
211.7762145996094
 70
   192
  0
VERTEX
  5
70
  8
0
 10
228.1258239746094
 20
-10.61894607543945
 30
211.7762145996094
 70
   192
  0
VERTEX
  5
71
  8
0
 10
229.7040710449219
 20
-9.698590278625488
 30
219.6699981689453
 70
   192
  0
VERTEX
  5
72
  8
0
 10
230.3598937988281
 20
-9.21066951751709
 30
211.7762145996094
 70
   192
  0
VERTEX
  5
73
  8
0
 10
225.6319122314453
 20
-11.49899101257324
 30
211.7762145996094
 70
   192
  0
VERTEX
  5
74
  8
0
 10
227.1890869140625
 20
-11.02439785003662
 30
219.6699981689453
 70
   192
  0
VERTEX
  5
75
  8
0
 10
231.8326110839844
 20
-7.810744762420654
 30
219.6699981689453
 70
   192
  0
VERTEX
  5
76
  8
0
 10
233.4459075927734
 20
-5.471401691436768
 30
219.6699981689453
 70
   192
  0
VERTEX
  5
77
  8
0
 10
232.2253265380859
 20
-7.343682765960693
 30
211.7762145996094
 70
   192
  0
VERTEX
  5
78
  8
0
 10
234.4527282714844
 20
-2.816089391708374
 30
219.6699981689453
 70
   192
  0
VERTEX
  5
79
  8
0
 10
233.6281433105469
 20
-5.109210968017578
 30
211.7762145996094
 70
   192
  0
VERTEX
  5
7A
  8
0
 10
234.4996643066406
 20
-2.619309902191162
 30
211.7762145996094
 70
   192
  0
VERTEX
  5
7B
  8
0
 10
211.5377349853516
 20
-2.828079700469971
 30
219.6699981689453
 70
   192
  0
VERTEX
  5
7C
  8
0
 10
212.8979034423828
 20
-3.675287485122681
 30
211.1699981689453
 70
   192
  0
VERTEX
  5
7D
  8
0
 10
217.6280822753906
 20
-9.310993194580078
 30
211.1699981689453
 70
   192
  0
VERTEX
  5
7E
  8
0
 10
214.7672424316406
 20
-6.911613464355469
 30
211.1699981689453
 70
   192
  0
VERTEX
  5
7F
  8
0
 10
228.3753356933594
 20
-9.310035705566406
 30
211.1699981689453
 70
   192
  0
VERTEX
  5
80
  8
0
 10
224.8729553222656
 20
-10.58466529846191
 30
211.1699981689453
 70
   192
  0
VERTEX
  5
81
  8
0
 10
221.1331176757812
 20
-10.58645057678223
 30
211.1699981689453
 70
   192
  0
VERTEX
  5
82
  8
0
 10
231.2378082275391
 20
-6.905469417572021
 30
211.1699981689453
 70
   192
  0
VERTEX
  5
83
  8
0
 10
233.1035003662109
 20
-3.672132253646851
 30
211.1699981689453
 70
   192
  0
VERTEX
  5
84
  8
0
 62
     9
 10
0.0
 20
0.0
 30
0.0
 70
   128
 71
     3
 72
     2
 73
     1
  0
VERTEX
  5
85
  8
0
 62
     9
 10
0.0
 20
0.0
 30
0.0
 70
   128
 71
     4
 72
     2
 73
     3
  0
VERTEX
  5
86
  8
0
 62
     9
 10
0.0
 20
0.0
 30
0.0
 70
   128
 71
     5
 72
     1
 73
     2
  0
VERTEX
  5
87
  8
0
 62
     9
 10
0.0
 20
0.0
 30
0.0
 70
   128
 71
     1
 72
     5
 73
     6
  0
VERTEX
  5
88
  8
0
 62
     9
 10
0.0
 20
0.0
 30
0.0
 70
   128
 71
     8
 72
     7
 73
     5
  0
VERTEX
  5
89
  8
0
 62
     9
 10
0.0
 20
0.0
 30
0.0
 70
   128
 71
     7
 72
     8
 73
     9
  0
VERTEX
  5
8A
  8
0
 62
     9
 10
0.0
 20
0.0
 30
0.0
 70
   128
 71
    10
 72
     9
 73
     8
  0
VERTEX
  5
8B
  8
0
 62
     9
 10
0.0
 20
0.0
 30
0.0
 70
   128
 71
    11
 72
     9
 73
    10
  0
VERTEX
  5
8C
  8
0
 62
     9
 10
0.0
 20
0.0
 30
0.0
 70
   128
 71
     7
 72
     6
 73
     5
  0
VERTEX
  5
8D
  8
0
 62
     9
 10
0.0
 20
0.0
 30
0.0
 70
   128
 71
    13
 72
    12
 73
     4
  0
VERTEX
  5
8E
  8
0
 62
     9
 10
0.0
 20
0.0
 30
0.0
 70
   128
 71
     4
 72
     3
 73
    13
  0
VERTEX
  5
8F
  8
0
 62
     9
 10
0.0
 20
0.0
 30
0.0
 70
   128
 71
    15
 72
    14
 73
    12
  0
VERTEX
  5
90
  8
0
 62
     9
 10
0.0
 20
0.0
 30
0.0
 70
   128
 71
    15
 72
    12
 73
    13
  0
VERTEX
  5
91
  8
0
 62
     9
 10
0.0
 20
0.0
 30
0.0
 70
   128
 71
    17
 72
    14
 73
    16
  0
VERTEX
  5
92
  8
0
 62
     9
 10
0.0
 20
0.0
 30
0.0
 70
   128
 71
    14
 72
    17
 73
    12
  0
VERTEX
  5
93
  8
0
 62
     9
 10
0.0
 20
0.0
 30
0.0
 70
   128
 71
    19
 72
    18
 73
    16
  0
VERTEX
  5
94
  8
0
 62
     9
 10
0.0
 20
0.0
 30
0.0
 70
   128
 71
    17
 72
    16
 73
    18
  0
VERTEX
  5
95
  8
0
 62
     9
 10
0.0
 20
0.0
 30
0.0
 70
   128
 71
    21
 72
    20
 73
    18
  0
VERTEX
  5
96
  8
0
 62
     9
 10
0.0
 20
0.0
 30
0.0
 70
   128
 71
    18
 72
    19
 73
    21
  0
VERTEX
  5
97
  8
0
 62
     9
 10
0.0
 20
0.0
 30
0.0
 70
   128
 71
    20
 72
    23
 73
    22
  0
VERTEX
  5
98
  8
0
 62
     9
 10
0.0
 20
0.0
 30
0.0
 70
   128
 71
    23
 72
    20
 73
    21
  0
VERTEX
  5
99
  8
0
 62
     9
 10
0.0
 20
0.0
 30
0.0
 70
   128
 71
    23
 72
    24
 73
    22
  0
VERTEX
  5
9A
  8
0
 62
     9
 10
0.0
 20
0.0
 30
0.0
 70
   128
 71
    15
 72
    13
 73
    25
  0
VERTEX
  5
9B
  8
0
 62
     9
 10
0.0
 20
0.0
 30
0.0
 70
   128
 71
    26
 72
    13
 73
     3
  0
VERTEX
  5
9C
  8
0
 62
     9
 10
0.0
 20
0.0
 30
0.0
 70
   128
 71
    13
 72
    26
 73
    25
  0
VERTEX
  5
9D
  8
0
 62
     9
 10
0.0
 20
0.0
 30
0.0
 70
   128
 71
     1
 72
    27
 73
     3
  0
VERTEX
  5
9E
  8
0
 62
     9
 10
0.0
 20
0.0
 30
0.0
 70
   128
 71
    26
 72
     3
 73
    27
  0
VERTEX
  5
9F
  8
0
 62
     9
 10
0.0
 20
0.0
 30
0.0
 70
   128
 71
     1
 72
     6
 73
    28
  0
VERTEX
  5
A0
  8
0
 62
     9
 10
0.0
 20
0.0
 30
0.0
 70
   128
 71
    28
 72
    27
 73
     1
  0
VERTEX
  5
A1
  8
0
 62
     9
 10
0.0
 20
0.0
 30
0.0
 70
   128
 71
    29
 72
     6
 73
     7
  0
VERTEX
  5
A2
  8
0
 62
     9
 10
0.0
 20
0.0
 30
0.0
 70
   128
 71
     6
 72
    29
 73
    28
  0
VERTEX
  5
A3
  8
0
 62
     9
 10
0.0
 20
0.0
 30
0.0
 70
   128
 71
     9
 72
    30
 73
     7
  0
VERTEX
  5
A4
  8
0
 62
     9
 10
0.0
 20
0.0
 30
0.0
 70
   128
 71
    29
 72
     7
 73
    30
  0
VERTEX
  5
A5
  8
0
 62
     9
 10
0.0
 20
0.0
 30
0.0
 70
   128
 71
    31
 72
    30
 73
     9
  0
VERTEX
  5
A6
  8
0
 62
     9
 10
0.0
 20
0.0
 30
0.0
 70
   128
 71
    11
 72
    31
 73
     9
  0
VERTEX
  5
A7
  8
0
 62
     9
 10
0.0
 20
0.0
 30
0.0
 70
   128
 71
    25
 72
    32
 73
    15
  0
VERTEX
  5
A8
  8
0
 62
     9
 10
0.0
 20
0.0
 30
0.0
 70
   128
 71
    33
 72
    14
 73
    32
  0
VERTEX
  5
A9
  8
0
 62
     9
 10
0.0
 20
0.0
 30
0.0
 70
   128
 71
    15
 72
    32
 73
    14
  0
VERTEX
  5
AA
  8
0
 62
     9
 10
0.0
 20
0.0
 30
0.0
 70
   128
 71
    33
 72
    34
 73
    16
  0
VERTEX
  5
AB
  8
0
 62
     9
 10
0.0
 20
0.0
 30
0.0
 70
   128
 71
    16
 72
    14
 73
    33
  0
VERTEX
  5
AC
  8
0
 62
     9
 10
0.0
 20
0.0
 30
0.0
 70
   128
 71
    19
 72
    34
 73
    35
  0
VERTEX
  5
AD
  8
0
 62
     9
 10
0.0
 20
0.0
 30
0.0
 70
   128
 71
    34
 72
    19
 73
    16
  0
VERTEX
  5
AE
  8
0
 62
     9
 10
0.0
 20
0.0
 30
0.0
 70
   128
 71
    36
 72
    21
 73
    35
  0
VERTEX
  5
AF
  8
0
 62
     9
 10
0.0
 20
0.0
 30
0.0
 70
   128
 71
    19
 72
    35
 73
    21
  0
VERTEX
  5
B0
  8
0
 62
     9
 10
0.0
 20
0.0
 30
0.0
 70
   128
 71
    36
 72
    37
 73
    23
  0
VERTEX
  5
B1
  8
0
 62
     9
 10
0.0
 20
0.0
 30
0.0
 70
   128
 71
    23
 72
    21
 73
    36
  0
VERTEX
  5
B2
  8
0
 62
     9
 10
0.0
 20
0.0
 30
0.0
 70
   128
 71
    37
 72
    24
 73
    23
  0
VERTEX
  5
B3
  8
0
 62
     9
 10
0.0
 20
0.0
 30
0.0
 70
   128
 71
    37
 72
    38
 73
    24
  0
VERTEX
  5
B4
  8
0
 62
     9
 10
0.0
 20
0.0
 30
0.0
 70
   128
 71
    31
 72
    11
 73
    39
  0
VERTEX
  5
B5
  8
0
 62
     9
 10
0.0
 20
0.0
 30
0.0
 70
   128
 71
    42
 72
    41
 73
    40
  0
VERTEX
  5
B6
  8
0
 62
     9
 10
0.0
 20
0.0
 30
0.0
 70
   128
 71
    45
 72
    44
 73
    43
  0
VERTEX
  5
B7
  8
0
 62
     9
 10
0.0
 20
0.0
 30
0.0
 70
   128
 71
    48
 72
    47
 73
    46
  0
VERTEX
  5
B8
  8
0
 62
     9
 10
0.0
 20
0.0
 30
0.0
 70
   128
 71
    51
 72
    50
 73
    49
  0
VERTEX
  5
B9
  8
0
 62
     9
 10
0.0
 20
0.0
 30
0.0
 70
   128
 71
    54
 72
    53
 73
    52
  0
VERTEX
  5
BA
  8
0
 62
     9
 10
0.0
 20
0.0
 30
0.0
 70
   128
 71
    56
 72
    55
 73
    52
  0
VERTEX
  5
BB
  8
0
 62
     9
 10
0.0
 20
0.0
 30
0.0
 70
   128
 71
    59
 72
    58
 73
    57
  0
VERTEX
  5
BC
  8
0
 62
     9
 10
0.0
 20
0.0
 30
0.0
 70
   128
 71
    57
 72
    54
 73
    59
  0
VERTEX
  5
BD
  8
0
 62
     9
 10
0.0
 20
0.0
 30
0.0
 70
   128
 71
    58
 72
    61
 73
    60
  0
VERTEX
  5
BE
  8
0
 62
     9
 10
0.0
 20
0.0
 30
0.0
 70
   128
 71
    61
 72
    58
 73
    59
  0
VERTEX
  5
BF
  8
0
 62
     9
 10
0.0
 20
0.0
 30
0.0
 70
   128
 71
    38
 72
    60
 73
    62
  0
VERTEX
  5
C0
  8
0
 62
     9
 10
0.0
 20
0.0
 30
0.0
 70
   128
 71
    61
 72
    62
 73
    60
  0
VERTEX
  5
C1
  8
0
 62
     9
 10
0.0
 20
0.0
 30
0.0
 70
   128
 71
    38
 72
    62
 73
    24
  0
VERTEX
  5
C2
  8
0
 62
     9
 10
0.0
 20
0.0
 30
0.0
 70
   128
 71
    52
 72
    53
 73
    56
  0
VERTEX
  5
C3
  8
0
 62
     9
 10
0.0
 20
0.0
 30
0.0
 70
   128
 71
    57
 72
    53
 73
    54
  0
VERTEX
  5
C4
  8
0
 62
     9
 10
0.0
 20
0.0
 30
0.0
 70
   128
 71
    55
 72
    47
 73
    48
  0
VERTEX
  5
C5
  8
0
 62
     9
 10
0.0
 20
0.0
 30
0.0
 70
   128
 71
    56
 72
    47
 73
    55
  0
VERTEX
  5
C6
  8
0
 62
     9
 10
0.0
 20
0.0
 30
0.0
 70
   128
 71
    51
 72
    46
 73
    50
  0
VERTEX
  5
C7
  8
0
 62
     9
 10
0.0
 20
0.0
 30
0.0
 70
   128
 71
    48
 72
    46
 73
    51
  0
VERTEX
  5
C8
  8
0
 62
     9
 10
0.0
 20
0.0
 30
0.0
 70
   128
 71
    41
 72
    49
 73
    40
  0
VERTEX
  5
C9
  8
0
 62
     9
 10
0.0
 20
0.0
 30
0.0
 70
   128
 71
    49
 72
    50
 73
    40
  0
VERTEX
  5
CA
  8
0
 62
     9
 10
0.0
 20
0.0
 30
0.0
 70
   128
 71
    45
 72
    43
 73
    42
  0
VERTEX
  5
CB
  8
0
 62
     9
 10
0.0
 20
0.0
 30
0.0
 70
   128
 71
    43
 72
    41
 73
    42
  0
VERTEX
  5
CC
  8
0
 62
     9
 10
0.0
 20
0.0
 30
0.0
 70
   128
 71
    63
 72
    39
 73
    44
  0
VERTEX
  5
CD
  8
0
 62
     9
 10
0.0
 20
0.0
 30
0.0
 70
   128
 71
    63
 72
    44
 73
    45
  0
VERTEX
  5
CE
  8
0
 62
     9
 10
0.0
 20
0.0
 30
0.0
 70
   128
 71
    39
 72
    63
 73
    31
  0
VERTEX
  5
CF
  8
0
 62
     9
 10
0.0
 20
0.0
 30
0.0
 70
   128
 71
    10
 72
    64
 73
    39
  0
VERTEX
  5
D0
  8
0
 62
     9
 10
0.0
 20
0.0
 30
0.0
 70
   128
 71
    41
 72
    66
 73
    65
  0
VERTEX
  5
D1
  8
0
 62
     9
 10
0.0
 20
0.0
 30
0.0
 70
   128
 71
    54
 72
    52
 73
    67
  0
VERTEX
  5
D2
  8
0
 62
     9
 10
0.0
 20
0.0
 30
0.0
 70
   128
 71
    69
 72
    68
 73
    48
  0
VERTEX
  5
D3
  8
0
 62
     9
 10
0.0
 20
0.0
 30
0.0
 70
   128
 71
    71
 72
    61
 73
    70
  0
VERTEX
  5
D4
  8
0
 62
     9
 10
0.0
 20
0.0
 30
0.0
 70
   128
 71
    59
 72
    70
 73
    61
  0
VERTEX
  5
D5
  8
0
 62
     9
 10
0.0
 20
0.0
 30
0.0
 70
   128
 71
    71
 72
    22
 73
    62
  0
VERTEX
  5
D6
  8
0
 62
     9
 10
0.0
 20
0.0
 30
0.0
 70
   128
 71
    62
 72
    61
 73
    71
  0
VERTEX
  5
D7
  8
0
 62
     9
 10
0.0
 20
0.0
 30
0.0
 70
   128
 71
    51
 72
    49
 73
    69
  0
VERTEX
  5
D8
  8
0
 62
     9
 10
0.0
 20
0.0
 30
0.0
 70
   128
 71
    22
 72
    24
 73
    62
  0
VERTEX
  5
D9
  8
0
 62
     9
 10
0.0
 20
0.0
 30
0.0
 70
   128
 71
    67
 72
    70
 73
    54
  0
VERTEX
  5
DA
  8
0
 62
     9
 10
0.0
 20
0.0
 30
0.0
 70
   128
 71
    59
 72
    54
 73
    70
  0
VERTEX
  5
DB
  8
0
 62
     9
 10
0.0
 20
0.0
 30
0.0
 70
   128
 71
    52
 72
    68
 73
    67
  0
VERTEX
  5
DC
  8
0
 62
     9
 10
0.0
 20
0.0
 30
0.0
 70
   128
 71
    48
 72
    68
 73
    55
  0
VERTEX
  5
DD
  8
0
 62
     9
 10
0.0
 20
0.0
 30
0.0
 70
   128
 71
    68
 72
    52
 73
    55
  0
VERTEX
  5
DE
  8
0
 62
     9
 10
0.0
 20
0.0
 30
0.0
 70
   128
 71
    48
 72
    51
 73
    69
  0
VERTEX
  5
DF
  8
0
 62
     9
 10
0.0
 20
0.0
 30
0.0
 70
   128
 71
    65
 72
    69
 73
    49
  0
VERTEX
  5
E0
  8
0
 62
     9
 10
0.0
 20
0.0
 30
0.0
 70
   128
 71
    66
 72
    41
 73
    43
  0
VERTEX
  5
E1
  8
0
 62
     9
 10
0.0
 20
0.0
 30
0.0
 70
   128
 71
    41
 72
    65
 73
    49
  0
VERTEX
  5
E2
  8
0
 62
     9
 10
0.0
 20
0.0
 30
0.0
 70
   128
 71
    66
 72
    44
 73
    64
  0
VERTEX
  5
E3
  8
0
 62
     9
 10
0.0
 20
0.0
 30
0.0
 70
   128
 71
    44
 72
    66
 73
    43
  0
VERTEX
  5
E4
  8
0
 62
     9
 10
0.0
 20
0.0
 30
0.0
 70
   128
 71
    39
 72
    11
 73
    10
  0
VERTEX
  5
E5
  8
0
 62
     9
 10
0.0
 20
0.0
 30
0.0
 70
   128
 71
    44
 72
    39
 73
    64
  0
VERTEX
  5
E6
  8
0
 62
     9
 10
0.0
 20
0.0
 30
0.0
 70
   128
 71
    67
 72
    68
 73
    70
  0
VERTEX
  5
E7
  8
0
 62
     9
 10
0.0
 20
0.0
 30
0.0
 70
   128
 71
    66
 72
    64
 73
    17
  0
VERTEX
  5
E8
  8
0
 62
     9
 10
0.0
 20
0.0
 30
0.0
 70
   128
 71
    22
 72
    71
 73
    68
  0
VERTEX
  5
E9
  8
0
 62
     9
 10
0.0
 20
0.0
 30
0.0
 70
   128
 71
    68
 72
    71
 73
    70
  0
VERTEX
  5
EA
  8
0
 62
     9
 10
0.0
 20
0.0
 30
0.0
 70
   128
 71
    69
 72
    22
 73
    68
  0
VERTEX
  5
EB
  8
0
 62
     9
 10
0.0
 20
0.0
 30
0.0
 70
   128
 71
    17
 72
    18
 73
    66
  0
VERTEX
  5
EC
  8
0
 62
     9
 10
0.0
 20
0.0
 30
0.0
 70
   128
 71
    20
 72
    69
 73
    65
  0
VERTEX
  5
ED
  8
0
 62
     9
 10
0.0
 20
0.0
 30
0.0
 70
   128
 71
     4
 72
     8
 73
     2
  0
VERTEX
  5
EE
  8
0
 62
     9
 10
0.0
 20
0.0
 30
0.0
 70
   128
 71
    10
 72
     4
 73
    12
  0
VERTEX
  5
EF
  8
0
 62
     9
 10
0.0
 20
0.0
 30
0.0
 70
   128
 71
     8
 72
     4
 73
    10
  0
VERTEX
  5
F0
  8
0
 62
     9
 10
0.0
 20
0.0
 30
0.0
 70
   128
 71
     5
 72
     2
 73
     8
  0
VERTEX
  5
F1
  8
0
 62
     9
 10
0.0
 20
0.0
 30
0.0
 70
   128
 71
    17
 72
    64
 73
    12
  0
VERTEX
  5
F2
  8
0
 62
     9
 10
0.0
 20
0.0
 30
0.0
 70
   128
 71
    12
 72
    64
 73
    10
  0
VERTEX
  5
F3
  8
0
 62
     9
 10
0.0
 20
0.0
 30
0.0
 70
   128
 71
    18
 72
    65
 73
    66
  0
VERTEX
  5
F4
  8
0
 62
     9
 10
0.0
 20
0.0
 30
0.0
 70
   128
 71
    20
 72
    65
 73
    18
  0
VERTEX
  5
F5
  8
0
 62
     9
 10
0.0
 20
0.0
 30
0.0
 70
   128
 71
    22
 72
    69
 73
    20
  0
SEQEND
  5
F6
  8
0
 62
     9
  0
ENDBLK
  5
FA
  8
0
  0
BLOCK
  8
0
  2
1
 70
     0
 10
0.0
 20
0.0
 30
0.0
  3
1
  1

  0
POLYLINE
  5
FC
  8
0
 62
     9
 66
     1
 10
0.0
 20
0.0
 30
0.0
 70
    64
 71
    73
 72
   123
  0
VERTEX
  5
FD
  8
0
 10
216.7552947998047
 20
-10.82774257659912
 30
254.5233612060547
 70
   192
  0
VERTEX
  5
FE
  8
0
 10
216.0064697265625
 20
-12.1275520324707
 30
216.7700042724609
 70
   192
  0
VERTEX
  5
FF
  8
0
 10
213.1077728271484
 20
-9.905851364135742
 30
216.7700042724609
 70
   192
  0
VERTEX
  5
100
  8
0
 10
210.8780212402344
 20
-7.004026889801025
 30
216.7700042724609
 70
   192
  0
VERTEX
  5
101
  8
0
 10
214.1611480712891
 20
-8.838844299316406
 30
254.5233612060547
 70
   192
  0
VERTEX
  5
102
  8
0
 10
212.1771850585938
 20
-6.253931999206543
 30
254.5233612060547
 70
   192
  0
VERTEX
  5
103
  8
0
 10
209.5835571289062
 20
-3.999905824661255
 30
228.5766143798828
 70
   192
  0
VERTEX
  5
104
  8
0
 10
209.4796905517578
 20
-3.631293773651123
 30
216.7700042724609
 70
   192
  0
VERTEX
  5
105
  8
0
 10
209.5949859619141
 20
-4.038005828857422
 30
226.6444702148438
 70
   192
  0
VERTEX
  5
106
  8
0
 10
210.9279632568359
 20
-3.240697622299194
 30
254.5233612060547
 70
   192
  0
VERTEX
  5
107
  8
0
 10
209.6341094970703
 20
-3.681758880615234
 30
244.8021697998047
 70
   192
  0
VERTEX
  5
108
  8
0
 10
209.2225341796875
 20
-2.486092567443848
 30
247.15576171875
 70
   192
  0
VERTEX
  5
109
  8
0
 10
209.0
 20
-0.0000001610792708
 30
254.7733612060547
 70
   192
  0
VERTEX
  5
10A
  8
0
 10
209.0
 20
-0.0000001610792566
 30
247.9714813232422
 70
   192
  0
VERTEX
  5
10B
  8
0
 10
219.7693023681641
 20
-12.07507514953613
 30
254.5233612060547
 70
   192
  0
VERTEX
  5
10C
  8
0
 10
219.3831787109375
 20
-13.52452182769775
 30
216.7700042724609
 70
   192
  0
VERTEX
  5
10D
  8
0
 10
209.2327880859375
 20
-2.542521238327026
 30
224.4298706054688
 70
   192
  0
VERTEX
  5
10E
  8
0
 10
222.9999847412109
 20
-12.50004291534424
 30
254.5233612060547
 70
   192
  0
VERTEX
  5
10F
  8
0
 10
209.0
 20
-0.0000168663900695
 30
216.7700042724609
 70
   192
  0
VERTEX
  5
110
  8
0
 10
223.0092926025391
 20
-13.99929714202881
 30
216.7700042724609
 70
   192
  0
VERTEX
  5
111
  8
0
 10
209.0
 20
-0.0000001610792566
 30
223.5718688964844
 70
   192
  0
VERTEX
  5
112
  8
0
 10
226.2406921386719
 20
-12.07204437255859
 30
254.5233612060547
 70
   192
  0
VERTEX
  5
113
  8
0
 10
229.2539367675781
 20
-10.82281398773193
 30
254.5233612060547
 70
   192
  0
VERTEX
  5
114
  8
0
 10
226.6318817138672
 20
-13.52037525177002
 30
216.7700042724609
 70
   192
  0
VERTEX
  5
115
  8
0
 10
231.8388519287109
 20
-8.838860511779785
 30
254.5233612060547
 70
   192
  0
VERTEX
  5
116
  8
0
 10
230.0095977783203
 20
-12.11785888671875
 30
216.7700042724609
 70
   192
  0
VERTEX
  5
117
  8
0
 10
232.9042663574219
 20
-9.894388198852539
 30
216.7700042724609
 70
   192
  0
VERTEX
  5
118
  8
0
 10
233.8277435302734
 20
-6.244711875915527
 30
254.5233612060547
 70
   192
  0
VERTEX
  5
119
  8
0
 10
235.0750732421875
 20
-3.230700016021729
 30
254.5233612060547
 70
   192
  0
VERTEX
  5
11A
  8
0
 10
235.1293029785156
 20
-6.990184307098389
 30
216.7700042724609
 70
   192
  0
VERTEX
  5
11B
  8
0
 10
236.9985961914062
 20
-0.0000140309266499
 30
254.7733612060547
 70
   192
  0
VERTEX
  5
11C
  8
0
 10
236.5250854492188
 20
-3.614545583724976
 30
216.7700042724609
 70
   192
  0
VERTEX
  5
11D
  8
0
 10
236.9981231689453
 20
-0.0000003321597717
 30
216.7700042724609
 70
   192
  0
VERTEX
  5
11E
  8
0
 10
209.3377075195312
 20
2.300660133361816
 30
224.6862335205078
 70
   192
  0
VERTEX
  5
11F
  8
0
 10
209.1490936279297
 20
-0.0000076720243669
 30
223.9051971435547
 70
   192
  0
VERTEX
  5
120
  8
0
 10
209.2328796386719
 20
2.542890787124634
 30
224.4301147460938
 70
   192
  0
VERTEX
  5
121
  8
0
 10
209.6340942382812
 20
3.681771993637085
 30
226.7412261962891
 70
   192
  0
VERTEX
  5
122
  8
0
 10
209.2328643798828
 20
2.54279351234436
 30
247.1132049560547
 70
   192
  0
VERTEX
  5
123
  8
0
 10
209.3376007080078
 20
2.300183534622192
 30
246.8575286865234
 70
   192
  0
VERTEX
  5
124
  8
0
 10
209.5949249267578
 20
4.037840366363525
 30
244.8996734619141
 70
   192
  0
VERTEX
  5
125
  8
0
 10
209.1490936279297
 20
0.0000069976867962
 30
247.6381530761719
 70
   192
  0
VERTEX
  5
126
  8
0
 10
209.3374786376953
 20
-2.299518346786499
 30
246.8580017089844
 70
   192
  0
VERTEX
  5
127
  8
0
 10
209.3380737304688
 20
-2.30314564704895
 30
224.6881103515625
 70
   192
  0
VERTEX
  5
128
  8
0
 10
209.6479949951172
 20
4.210392475128174
 30
235.7716827392578
 70
   192
  0
VERTEX
  5
129
  8
0
 10
209.6683349609375
 20
3.818831205368042
 30
235.7716827392578
 70
   192
  0
VERTEX
  5
12A
  8
0
 10
209.6151123046875
 20
4.103477954864502
 30
228.5794982910156
 70
   192
  0
VERTEX
  5
12B
  8
0
 10
209.6150970458984
 20
4.103429794311523
 30
242.9638519287109
 70
   192
  0
VERTEX
  5
12C
  8
0
 10
210.3754425048828
 20
1.230325937271118
 30
226.7411651611328
 70
   192
  0
VERTEX
  5
12D
  8
0
 10
209.6080169677734
 20
4.080406665802002
 30
227.8419342041016
 70
   192
  0
VERTEX
  5
12E
  8
0
 10
210.3784332275391
 20
-1.231222629547119
 30
226.7411651611328
 70
   192
  0
VERTEX
  5
12F
  8
0
 10
210.4996795654297
 20
-0.101216197013855
 30
228.5766143798828
 70
   192
  0
VERTEX
  5
130
  8
0
 10
210.5
 20
-0.0000217596007133
 30
242.9667510986328
 70
   192
  0
VERTEX
  5
131
  8
0
 10
210.37841796875
 20
1.231332778930664
 30
244.8022003173828
 70
   192
  0
VERTEX
  5
132
  8
0
 10
210.3754577636719
 20
-1.230225324630737
 30
244.8022308349609
 70
   192
  0
VERTEX
  5
133
  8
0
 10
222.9898376464844
 20
13.99901390075684
 30
216.7700042724609
 70
   192
  0
VERTEX
  5
134
  8
0
 10
213.0930023193359
 20
9.88955020904541
 30
216.7700042724609
 70
   192
  0
VERTEX
  5
135
  8
0
 10
235.9312896728516
 20
5.365025997161865
 30
216.7700042724609
 70
   192
  0
VERTEX
  5
136
  8
0
 10
232.8932037353516
 20
9.90471076965332
 30
216.7700042724609
 70
   192
  0
VERTEX
  5
137
  8
0
 10
228.3484649658203
 20
12.93813705444336
 30
216.7700042724609
 70
   192
  0
VERTEX
  5
138
  8
0
 10
217.6394958496094
 20
12.93306255340576
 30
216.7700042724609
 70
   192
  0
VERTEX
  5
139
  8
0
 10
210.0628509521484
 20
5.35019588470459
 30
216.7700042724609
 70
   192
  0
VERTEX
  5
13A
  8
0
 10
225.1676788330078
 20
12.31024742126465
 30
254.5233612060547
 70
   192
  0
VERTEX
  5
13B
  8
0
 10
216.7460784912109
 20
10.8228120803833
 30
254.5233612060547
 70
   192
  0
VERTEX
  5
13C
  8
0
 10
232.5717010498047
 20
8.038907051086426
 30
254.5233612060547
 70
   192
  0
VERTEX
  5
13D
  8
0
 10
229.2447052001953
 20
10.82773399353027
 30
254.5233612060547
 70
   192
  0
VERTEX
  5
13E
  8
0
 10
234.7449493408203
 20
4.278341770172119
 30
254.5233612060547
 70
   192
  0
VERTEX
  5
13F
  8
0
 10
220.8276977539062
 20
12.30978298187256
 30
254.5233612060547
 70
   192
  0
VERTEX
  5
140
  8
0
 10
213.4209442138672
 20
8.029930114746094
 30
254.5233612060547
 70
   192
  0
VERTEX
  5
141
  8
0
 10
211.2527008056641
 20
4.270570278167725
 30
254.5233612060547
 70
   192
  0
VERTEX
  5
142
  8
0
 10
209.9817504882812
 20
-1.247237682342529
 30
225.2609405517578
 70
   192
  0
VERTEX
  5
143
  8
0
 10
209.9817199707031
 20
1.247362613677979
 30
225.2609558105469
 70
   192
  0
VERTEX
  5
144
  8
0
 10
209.9817657470703
 20
1.247365474700928
 30
246.2823028564453
 70
   192
  0
VERTEX
  5
145
  8
0
 10
209.9817962646484
 20
-1.247249364852905
 30
246.2823181152344
 70
   192
  0
VERTEX
  5
146
  8
0
 62
     9
 10
0.0
 20
0.0
 30
0.0
 70
   128
 71
     3
 72
     2
 73
     1
  0
VERTEX
  5
147
  8
0
 62
     9
 10
0.0
 20
0.0
 30
0.0
 70
   128
 71
     5
 72
     4
 73
     3
  0
VERTEX
  5
148
  8
0
 62
     9
 10
0.0
 20
0.0
 30
0.0
 70
   128
 71
     3
 72
     1
 73
     5
  0
VERTEX
  5
149
  8
0
 62
     9
 10
0.0
 20
0.0
 30
0.0
 70
   128
 71
     7
 72
     4
 73
     6
  0
VERTEX
  5
14A
  8
0
 62
     9
 10
0.0
 20
0.0
 30
0.0
 70
   128
 71
     6
 72
     4
 73
     5
  0
VERTEX
  5
14B
  8
0
 62
     9
 10
0.0
 20
0.0
 30
0.0
 70
   128
 71
     7
 72
     8
 73
     4
  0
VERTEX
  5
14C
  8
0
 62
     9
 10
0.0
 20
0.0
 30
0.0
 70
   128
 71
     9
 72
     8
 73
     7
  0
VERTEX
  5
14D
  8
0
 62
     9
 10
0.0
 20
0.0
 30
0.0
 70
   128
 71
    11
 72
     6
 73
    10
  0
VERTEX
  5
14E
  8
0
 62
     9
 10
0.0
 20
0.0
 30
0.0
 70
   128
 71
     6
 72
    11
 73
     7
  0
VERTEX
  5
14F
  8
0
 62
     9
 10
0.0
 20
0.0
 30
0.0
 70
   128
 71
    13
 72
    12
 73
    10
  0
VERTEX
  5
150
  8
0
 62
     9
 10
0.0
 20
0.0
 30
0.0
 70
   128
 71
    11
 72
    10
 73
    12
  0
VERTEX
  5
151
  8
0
 62
     9
 10
0.0
 20
0.0
 30
0.0
 70
   128
 71
    14
 72
    12
 73
    13
  0
VERTEX
  5
152
  8
0
 62
     9
 10
0.0
 20
0.0
 30
0.0
 70
   128
 71
     2
 72
    15
 73
     1
  0
VERTEX
  5
153
  8
0
 62
     9
 10
0.0
 20
0.0
 30
0.0
 70
   128
 71
    16
 72
    15
 73
     2
  0
VERTEX
  5
154
  8
0
 62
     9
 10
0.0
 20
0.0
 30
0.0
 70
   128
 71
     9
 72
    17
 73
     8
  0
VERTEX
  5
155
  8
0
 62
     9
 10
0.0
 20
0.0
 30
0.0
 70
   128
 71
    16
 72
    18
 73
    15
  0
VERTEX
  5
156
  8
0
 62
     9
 10
0.0
 20
0.0
 30
0.0
 70
   128
 71
     8
 72
    17
 73
    19
  0
VERTEX
  5
157
  8
0
 62
     9
 10
0.0
 20
0.0
 30
0.0
 70
   128
 71
    16
 72
    20
 73
    18
  0
VERTEX
  5
158
  8
0
 62
     9
 10
0.0
 20
0.0
 30
0.0
 70
   128
 71
    19
 72
    17
 73
    21
  0
VERTEX
  5
159
  8
0
 62
     9
 10
0.0
 20
0.0
 30
0.0
 70
   128
 71
    20
 72
    22
 73
    18
  0
VERTEX
  5
15A
  8
0
 62
     9
 10
0.0
 20
0.0
 30
0.0
 70
   128
 71
    24
 72
    23
 73
    22
  0
VERTEX
  5
15B
  8
0
 62
     9
 10
0.0
 20
0.0
 30
0.0
 70
   128
 71
    22
 72
    20
 73
    24
  0
VERTEX
  5
15C
  8
0
 62
     9
 10
0.0
 20
0.0
 30
0.0
 70
   128
 71
    23
 72
    26
 73
    25
  0
VERTEX
  5
15D
  8
0
 62
     9
 10
0.0
 20
0.0
 30
0.0
 70
   128
 71
    26
 72
    23
 73
    24
  0
VERTEX
  5
15E
  8
0
 62
     9
 10
0.0
 20
0.0
 30
0.0
 70
   128
 71
    28
 72
    25
 73
    27
  0
VERTEX
  5
15F
  8
0
 62
     9
 10
0.0
 20
0.0
 30
0.0
 70
   128
 71
    26
 72
    27
 73
    25
  0
VERTEX
  5
160
  8
0
 62
     9
 10
0.0
 20
0.0
 30
0.0
 70
   128
 71
    30
 72
    29
 73
    28
  0
VERTEX
  5
161
  8
0
 62
     9
 10
0.0
 20
0.0
 30
0.0
 70
   128
 71
    28
 72
    27
 73
    30
  0
VERTEX
  5
162
  8
0
 62
     9
 10
0.0
 20
0.0
 30
0.0
 70
   128
 71
    29
 72
    32
 73
    31
  0
VERTEX
  5
163
  8
0
 62
     9
 10
0.0
 20
0.0
 30
0.0
 70
   128
 71
    32
 72
    29
 73
    30
  0
VERTEX
  5
164
  8
0
 62
     9
 10
0.0
 20
0.0
 30
0.0
 70
   128
 71
    32
 72
    33
 73
    31
  0
VERTEX
  5
165
  8
0
 62
     9
 10
0.0
 20
0.0
 30
0.0
 70
   128
 71
    35
 72
    34
 73
    21
  0
VERTEX
  5
166
  8
0
 62
     9
 10
0.0
 20
0.0
 30
0.0
 70
   128
 71
    21
 72
    34
 73
    36
  0
VERTEX
  5
167
  8
0
 62
     9
 10
0.0
 20
0.0
 30
0.0
 70
   128
 71
    37
 72
    36
 73
    34
  0
VERTEX
  5
168
  8
0
 62
     9
 10
0.0
 20
0.0
 30
0.0
 70
   128
 71
    40
 72
    39
 73
    38
  0
VERTEX
  5
169
  8
0
 62
     9
 10
0.0
 20
0.0
 30
0.0
 70
   128
 71
    41
 72
    14
 73
    39
  0
VERTEX
  5
16A
  8
0
 62
     9
 10
0.0
 20
0.0
 30
0.0
 70
   128
 71
    14
 72
    38
 73
    39
  0
VERTEX
  5
16B
  8
0
 62
     9
 10
0.0
 20
0.0
 30
0.0
 70
   128
 71
    12
 72
    42
 73
    11
  0
VERTEX
  5
16C
  8
0
 62
     9
 10
0.0
 20
0.0
 30
0.0
 70
   128
 71
    41
 72
    12
 73
    14
  0
VERTEX
  5
16D
  8
0
 62
     9
 10
0.0
 20
0.0
 30
0.0
 70
   128
 71
    41
 72
    42
 73
    12
  0
VERTEX
  5
16E
  8
0
 62
     9
 10
0.0
 20
0.0
 30
0.0
 70
   128
 71
    21
 72
    17
 73
    35
  0
VERTEX
  5
16F
  8
0
 62
     9
 10
0.0
 20
0.0
 30
0.0
 70
   128
 71
    43
 72
    35
 73
    17
  0
VERTEX
  5
170
  8
0
 62
     9
 10
0.0
 20
0.0
 30
0.0
 70
   128
 71
    17
 72
     9
 73
    43
  0
VERTEX
  5
171
  8
0
 62
     9
 10
0.0
 20
0.0
 30
0.0
 70
   128
 71
    46
 72
    45
 73
    44
  0
VERTEX
  5
172
  8
0
 62
     9
 10
0.0
 20
0.0
 30
0.0
 70
   128
 71
    47
 72
    44
 73
    45
  0
VERTEX
  5
173
  8
0
 62
     9
 10
0.0
 20
0.0
 30
0.0
 70
   128
 71
    49
 72
    37
 73
    48
  0
VERTEX
  5
174
  8
0
 62
     9
 10
0.0
 20
0.0
 30
0.0
 70
   128
 71
     7
 72
    51
 73
    50
  0
VERTEX
  5
175
  8
0
 62
     9
 10
0.0
 20
0.0
 30
0.0
 70
   128
 71
    51
 72
    48
 73
    50
  0
VERTEX
  5
176
  8
0
 62
     9
 10
0.0
 20
0.0
 30
0.0
 70
   128
 71
     9
 72
     7
 73
    50
  0
VERTEX
  5
177
  8
0
 62
     9
 10
0.0
 20
0.0
 30
0.0
 70
   128
 71
    46
 72
    48
 73
    51
  0
VERTEX
  5
178
  8
0
 62
     9
 10
0.0
 20
0.0
 30
0.0
 70
   128
 71
    46
 72
    49
 73
    48
  0
VERTEX
  5
179
  8
0
 62
     9
 10
0.0
 20
0.0
 30
0.0
 70
   128
 71
    46
 72
    52
 73
    45
  0
VERTEX
  5
17A
  8
0
 62
     9
 10
0.0
 20
0.0
 30
0.0
 70
   128
 71
     7
 72
    11
 73
    51
  0
VERTEX
  5
17B
  8
0
 62
     9
 10
0.0
 20
0.0
 30
0.0
 70
   128
 71
    52
 72
    51
 73
    11
  0
VERTEX
  5
17C
  8
0
 62
     9
 10
0.0
 20
0.0
 30
0.0
 70
   128
 71
    51
 72
    52
 73
    46
  0
VERTEX
  5
17D
  8
0
 62
     9
 10
0.0
 20
0.0
 30
0.0
 70
   128
 71
    47
 72
    45
 73
    52
  0
VERTEX
  5
17E
  8
0
 62
     9
 10
0.0
 20
0.0
 30
0.0
 70
   128
 71
    47
 72
    52
 73
    53
  0
VERTEX
  5
17F
  8
0
 62
     9
 10
0.0
 20
0.0
 30
0.0
 70
   128
 71
    54
 72
    52
 73
    11
  0
VERTEX
  5
180
  8
0
 62
     9
 10
0.0
 20
0.0
 30
0.0
 70
   128
 71
    53
 72
    40
 73
    47
  0
VERTEX
  5
181
  8
0
 62
     9
 10
0.0
 20
0.0
 30
0.0
 70
   128
 71
    54
 72
    53
 73
    52
  0
VERTEX
  5
182
  8
0
 62
     9
 10
0.0
 20
0.0
 30
0.0
 70
   128
 71
    55
 72
    33
 73
    32
  0
VERTEX
  5
183
  8
0
 62
     9
 10
0.0
 20
0.0
 30
0.0
 70
   128
 71
    56
 72
    27
 73
    26
  0
VERTEX
  5
184
  8
0
 62
     9
 10
0.0
 20
0.0
 30
0.0
 70
   128
 71
    59
 72
    58
 73
    57
  0
VERTEX
  5
185
  8
0
 62
     9
 10
0.0
 20
0.0
 30
0.0
 70
   128
 71
    33
 72
    55
 73
    59
  0
VERTEX
  5
186
  8
0
 62
     9
 10
0.0
 20
0.0
 30
0.0
 70
   128
 71
    59
 72
    57
 73
    33
  0
VERTEX
  5
187
  8
0
 62
     9
 10
0.0
 20
0.0
 30
0.0
 70
   128
 71
    55
 72
    32
 73
    60
  0
VERTEX
  5
188
  8
0
 62
     9
 10
0.0
 20
0.0
 30
0.0
 70
   128
 71
    32
 72
    30
 73
    60
  0
VERTEX
  5
189
  8
0
 62
     9
 10
0.0
 20
0.0
 30
0.0
 70
   128
 71
    27
 72
    56
 73
    30
  0
VERTEX
  5
18A
  8
0
 62
     9
 10
0.0
 20
0.0
 30
0.0
 70
   128
 71
    60
 72
    30
 73
    56
  0
VERTEX
  5
18B
  8
0
 62
     9
 10
0.0
 20
0.0
 30
0.0
 70
   128
 71
    56
 72
    26
 73
    61
  0
VERTEX
  5
18C
  8
0
 62
     9
 10
0.0
 20
0.0
 30
0.0
 70
   128
 71
    24
 72
    19
 73
    61
  0
VERTEX
  5
18D
  8
0
 62
     9
 10
0.0
 20
0.0
 30
0.0
 70
   128
 71
    61
 72
    26
 73
    24
  0
VERTEX
  5
18E
  8
0
 62
     9
 10
0.0
 20
0.0
 30
0.0
 70
   128
 71
    20
 72
    19
 73
    24
  0
VERTEX
  5
18F
  8
0
 62
     9
 10
0.0
 20
0.0
 30
0.0
 70
   128
 71
     2
 72
     3
 73
     4
  0
VERTEX
  5
190
  8
0
 62
     9
 10
0.0
 20
0.0
 30
0.0
 70
   128
 71
    16
 72
     8
 73
    20
  0
VERTEX
  5
191
  8
0
 62
     9
 10
0.0
 20
0.0
 30
0.0
 70
   128
 71
     8
 72
    16
 73
     2
  0
VERTEX
  5
192
  8
0
 62
     9
 10
0.0
 20
0.0
 30
0.0
 70
   128
 71
     2
 72
     4
 73
     8
  0
VERTEX
  5
193
  8
0
 62
     9
 10
0.0
 20
0.0
 30
0.0
 70
   128
 71
    19
 72
    20
 73
     8
  0
VERTEX
  5
194
  8
0
 62
     9
 10
0.0
 20
0.0
 30
0.0
 70
   128
 71
    62
 72
    59
 73
    55
  0
VERTEX
  5
195
  8
0
 62
     9
 10
0.0
 20
0.0
 30
0.0
 70
   128
 71
    56
 72
    63
 73
    60
  0
VERTEX
  5
196
  8
0
 62
     9
 10
0.0
 20
0.0
 30
0.0
 70
   128
 71
    65
 72
    64
 73
    58
  0
VERTEX
  5
197
  8
0
 62
     9
 10
0.0
 20
0.0
 30
0.0
 70
   128
 71
    58
 72
    59
 73
    65
  0
VERTEX
  5
198
  8
0
 62
     9
 10
0.0
 20
0.0
 30
0.0
 70
   128
 71
    57
 72
    64
 73
    66
  0
VERTEX
  5
199
  8
0
 62
     9
 10
0.0
 20
0.0
 30
0.0
 70
   128
 71
    64
 72
    57
 73
    58
  0
VERTEX
  5
19A
  8
0
 62
     9
 10
0.0
 20
0.0
 30
0.0
 70
   128
 71
    31
 72
    33
 73
    66
  0
VERTEX
  5
19B
  8
0
 62
     9
 10
0.0
 20
0.0
 30
0.0
 70
   128
 71
    57
 72
    66
 73
    33
  0
VERTEX
  5
19C
  8
0
 62
     9
 10
0.0
 20
0.0
 30
0.0
 70
   128
 71
    59
 72
    62
 73
    65
  0
VERTEX
  5
19D
  8
0
 62
     9
 10
0.0
 20
0.0
 30
0.0
 70
   128
 71
    67
 72
    62
 73
    55
  0
VERTEX
  5
19E
  8
0
 62
     9
 10
0.0
 20
0.0
 30
0.0
 70
   128
 71
    63
 72
    67
 73
    60
  0
VERTEX
  5
19F
  8
0
 62
     9
 10
0.0
 20
0.0
 30
0.0
 70
   128
 71
    55
 72
    60
 73
    67
  0
VERTEX
  5
1A0
  8
0
 62
     9
 10
0.0
 20
0.0
 30
0.0
 70
   128
 71
    61
 72
    68
 73
    56
  0
VERTEX
  5
1A1
  8
0
 62
     9
 10
0.0
 20
0.0
 30
0.0
 70
   128
 71
    56
 72
    68
 73
    63
  0
VERTEX
  5
1A2
  8
0
 62
     9
 10
0.0
 20
0.0
 30
0.0
 70
   128
 71
    19
 72
    21
 73
    36
  0
VERTEX
  5
1A3
  8
0
 62
     9
 10
0.0
 20
0.0
 30
0.0
 70
   128
 71
    69
 72
    68
 73
    61
  0
VERTEX
  5
1A4
  8
0
 62
     9
 10
0.0
 20
0.0
 30
0.0
 70
   128
 71
    38
 72
    14
 73
    13
  0
VERTEX
  5
1A5
  8
0
 62
     9
 10
0.0
 20
0.0
 30
0.0
 70
   128
 71
    61
 72
    36
 73
    37
  0
VERTEX
  5
1A6
  8
0
 62
     9
 10
0.0
 20
0.0
 30
0.0
 70
   128
 71
    19
 72
    36
 73
    61
  0
VERTEX
  5
1A7
  8
0
 62
     9
 10
0.0
 20
0.0
 30
0.0
 70
   128
 71
    37
 72
    49
 73
    61
  0
VERTEX
  5
1A8
  8
0
 62
     9
 10
0.0
 20
0.0
 30
0.0
 70
   128
 71
    46
 72
    44
 73
    61
  0
VERTEX
  5
1A9
  8
0
 62
     9
 10
0.0
 20
0.0
 30
0.0
 70
   128
 71
    49
 72
    46
 73
    61
  0
VERTEX
  5
1AA
  8
0
 62
     9
 10
0.0
 20
0.0
 30
0.0
 70
   128
 71
    44
 72
    69
 73
    61
  0
VERTEX
  5
1AB
  8
0
 62
     9
 10
0.0
 20
0.0
 30
0.0
 70
   128
 71
    13
 72
    69
 73
    38
  0
VERTEX
  5
1AC
  8
0
 62
     9
 10
0.0
 20
0.0
 30
0.0
 70
   128
 71
    44
 72
    47
 73
    69
  0
VERTEX
  5
1AD
  8
0
 62
     9
 10
0.0
 20
0.0
 30
0.0
 70
   128
 71
    40
 72
    38
 73
    69
  0
VERTEX
  5
1AE
  8
0
 62
     9
 10
0.0
 20
0.0
 30
0.0
 70
   128
 71
    47
 72
    40
 73
    69
  0
VERTEX
  5
1AF
  8
0
 62
     9
 10
0.0
 20
0.0
 30
0.0
 70
   128
 71
    71
 72
    70
 73
    48
  0
VERTEX
  5
1B0
  8
0
 62
     9
 10
0.0
 20
0.0
 30
0.0
 70
   128
 71
    70
 72
    71
 73
    35
  0
VERTEX
  5
1B1
  8
0
 62
     9
 10
0.0
 20
0.0
 30
0.0
 70
   128
 71
    70
 72
     9
 73
    50
  0
VERTEX
  5
1B2
  8
0
 62
     9
 10
0.0
 20
0.0
 30
0.0
 70
   128
 71
    70
 72
    35
 73
    43
  0
VERTEX
  5
1B3
  8
0
 62
     9
 10
0.0
 20
0.0
 30
0.0
 70
   128
 71
    37
 72
    34
 73
    71
  0
VERTEX
  5
1B4
  8
0
 62
     9
 10
0.0
 20
0.0
 30
0.0
 70
   128
 71
    71
 72
    48
 73
    37
  0
VERTEX
  5
1B5
  8
0
 62
     9
 10
0.0
 20
0.0
 30
0.0
 70
   128
 71
    35
 72
    71
 73
    34
  0
VERTEX
  5
1B6
  8
0
 62
     9
 10
0.0
 20
0.0
 30
0.0
 70
   128
 71
    70
 72
    43
 73
     9
  0
VERTEX
  5
1B7
  8
0
 62
     9
 10
0.0
 20
0.0
 30
0.0
 70
   128
 71
    70
 72
    50
 73
    48
  0
VERTEX
  5
1B8
  8
0
 62
     9
 10
0.0
 20
0.0
 30
0.0
 70
   128
 71
    53
 72
    72
 73
    40
  0
VERTEX
  5
1B9
  8
0
 62
     9
 10
0.0
 20
0.0
 30
0.0
 70
   128
 71
    41
 72
    39
 73
    72
  0
VERTEX
  5
1BA
  8
0
 62
     9
 10
0.0
 20
0.0
 30
0.0
 70
   128
 71
    73
 72
    42
 73
    41
  0
VERTEX
  5
1BB
  8
0
 62
     9
 10
0.0
 20
0.0
 30
0.0
 70
   128
 71
    72
 72
    73
 73
    41
  0
VERTEX
  5
1BC
  8
0
 62
     9
 10
0.0
 20
0.0
 30
0.0
 70
   128
 71
    42
 72
    73
 73
    11
  0
VERTEX
  5
1BD
  8
0
 62
     9
 10
0.0
 20
0.0
 30
0.0
 70
   128
 71
    72
 72
    39
 73
    40
  0
VERTEX
  5
1BE
  8
0
 62
     9
 10
0.0
 20
0.0
 30
0.0
 70
   128
 71
    54
 72
    73
 73
    53
  0
VERTEX
  5
1BF
  8
0
 62
     9
 10
0.0
 20
0.0
 30
0.0
 70
   128
 71
    73
 72
    72
 73
    53
  0
VERTEX
  5
1C0
  8
0
 62
     9
 10
0.0
 20
0.0
 30
0.0
 70
   128
 71
    73
 72
    54
 73
    11
  0
SEQEND
  5
1C1
  8
0
 62
     9
  0
ENDBLK
  5
1C4
  8
0
  0
BLOCK
  8
0
  2
40
 70
     0
 10
0.0
 20
0.0
 30
0.0
  3
40
  1

  0
POLYLINE
  5
1C6
  8
0
 62
     9
 66
     1
 10
0.0
 20
0.0
 30
0.0
 70
    64
 71
   346
 72
   688
  0
VERTEX
  5
1C7
  8
0
 10
25.76654434204102
 20
89.18020629882812
 30
124.0586013793945
 70
   192
  0
VERTEX
  5
1C8
  8
0
 10
25.5311222076416
 20
89.18024444580078
 30
121.7089691162109
 70
   192
  0
VERTEX
  5
1C9
  8
0
 10
-2.817022800445557
 20
89.18021392822266
 30
129.0985565185547
 70
   192
  0
VERTEX
  5
1CA
  8
0
 10
5.987194538116455
 20
89.1802749633789
 30
145.1826934814453
 70
   192
  0
VERTEX
  5
1CB
  8
0
 10
8.109341621398926
 20
89.18030548095703
 30
146.2153778076172
 70
   192
  0
VERTEX
  5
1CC
  8
0
 10
22.99592971801758
 20
89.1802749633789
 30
142.1821441650391
 70
   192
  0
VERTEX
  5
1CD
  8
0
 10
19.45540618896484
 20
89.18033599853516
 30
145.2778167724609
 70
   192
  0
VERTEX
  5
1CE
  8
0
 10
10.37259006500244
 20
89.18034362792969
 30
146.8808288574219
 70
   192
  0
VERTEX
  5
1CF
  8
0
 10
12.71861457824707
 20
89.18036651611328
 30
147.1422119140625
 70
   192
  0
VERTEX
  5
1D0
  8
0
 10
1.039631128311157
 20
89.18028259277344
 30
140.2143249511719
 70
   192
  0
VERTEX
  5
1D1
  8
0
 10
25.93856239318848
 20
89.18028259277344
 30
135.8206329345703
 70
   192
  0
VERTEX
  5
1D2
  8
0
 10
26.23689460754395
 20
89.18029022216797
 30
133.4796600341797
 70
   192
  0
VERTEX
  5
1D3
  8
0
 10
4.063851356506348
 20
89.18025970458984
 30
143.8160095214844
 70
   192
  0
VERTEX
  5
1D4
  8
0
 10
25.32647514343262
 20
89.18025970458984
 30
138.0986022949219
 70
   192
  0
VERTEX
  5
1D5
  8
0
 10
-0.0407935753464699
 20
89.18029022216797
 30
138.1156463623047
 70
   192
  0
VERTEX
  5
1D6
  8
0
 10
2.399892807006836
 20
89.18025970458984
 30
142.1434936523438
 70
   192
  0
VERTEX
  5
1D7
  8
0
 10
-1.617064595222473
 20
89.18026733398438
 30
133.6669464111328
 70
   192
  0
VERTEX
  5
1D8
  8
0
 10
26.19557571411133
 20
89.18026733398438
 30
128.7617797851562
 70
   192
  0
VERTEX
  5
1D9
  8
0
 10
25.99927520751953
 20
89.18023681640625
 30
126.4088592529297
 70
   192
  0
VERTEX
  5
1DA
  8
0
 10
26.29659080505371
 20
89.18028259277344
 30
131.1204986572266
 70
   192
  0
VERTEX
  5
1DB
  8
0
 10
-0.8925113081932068
 20
89.18028259277344
 30
135.9135131835938
 70
   192
  0
VERTEX
  5
1DC
  8
0
 10
24.82645416259766
 20
89.18017578125
 30
114.6599655151367
 70
   192
  0
VERTEX
  5
1DD
  8
0
 10
24.59201431274414
 20
89.18014526367188
 30
112.3115539550781
 70
   192
  0
VERTEX
  5
1DE
  8
0
 10
-5.147403717041016
 20
89.18017578125
 30
119.9453353881836
 70
   192
  0
VERTEX
  5
1DF
  8
0
 10
25.29599189758301
 20
89.18024444580078
 30
119.359375
 70
   192
  0
VERTEX
  5
1E0
  8
0
 10
-3.981408834457397
 20
89.18024444580078
 30
124.5217971801758
 70
   192
  0
VERTEX
  5
1E1
  8
0
 10
-3.398720264434814
 20
89.18024444580078
 30
126.8101119995117
 70
   192
  0
VERTEX
  5
1E2
  8
0
 10
-7.480326652526855
 20
89.18002319335938
 30
110.7933197021484
 70
   192
  0
VERTEX
  5
1E3
  8
0
 10
23.88846969604492
 20
89.18002319335938
 30
105.2616806030273
 70
   192
  0
VERTEX
  5
1E4
  8
0
 10
23.65400314331055
 20
89.18000793457031
 30
102.9118957519531
 70
   192
  0
VERTEX
  5
1E5
  8
0
 10
-6.313711166381836
 20
89.18009948730469
 30
115.3697280883789
 70
   192
  0
VERTEX
  5
1E6
  8
0
 10
24.35741996765137
 20
89.18009948730469
 30
109.9609756469727
 70
   192
  0
VERTEX
  5
1E7
  8
0
 10
24.12285232543945
 20
89.1800537109375
 30
107.610481262207
 70
   192
  0
VERTEX
  5
1E8
  8
0
 10
22.71639633178711
 20
89.17999267578125
 30
93.51300811767578
 70
   192
  0
VERTEX
  5
1E9
  8
0
 10
-9.813857078552246
 20
89.18000030517578
 30
101.6402435302734
 70
   192
  0
VERTEX
  5
1EA
  8
0
 10
22.95077323913574
 20
89.18000030517578
 30
95.86289978027344
 70
   192
  0
VERTEX
  5
1EB
  8
0
 10
23.18513870239258
 20
89.18000030517578
 30
98.21236419677734
 70
   192
  0
VERTEX
  5
1EC
  8
0
 10
-8.6471586227417
 20
89.18000030517578
 30
106.2163314819336
 70
   192
  0
VERTEX
  5
1ED
  8
0
 10
23.41955184936523
 20
89.18000030517578
 30
100.5620574951172
 70
   192
  0
VERTEX
  5
1EE
  8
0
 10
21.77915000915527
 20
89.17994689941406
 30
84.11466979980469
 70
   192
  0
VERTEX
  5
1EF
  8
0
 10
-12.73106479644775
 20
89.17994689941406
 30
90.19962310791016
 70
   192
  0
VERTEX
  5
1F0
  8
0
 10
-12.14770126342773
 20
89.17996215820312
 30
92.48735809326172
 70
   192
  0
VERTEX
  5
1F1
  8
0
 10
22.24777030944824
 20
89.17997741699219
 30
88.81403350830078
 70
   192
  0
VERTEX
  5
1F2
  8
0
 10
-11.5641565322876
 20
89.17997741699219
 30
94.77582550048828
 70
   192
  0
VERTEX
  5
1F3
  8
0
 10
-10.98084926605225
 20
89.17998504638672
 30
97.06339263916016
 70
   192
  0
VERTEX
  5
1F4
  8
0
 10
-14.48137760162354
 20
89.17989349365234
 30
83.33528137207031
 70
   192
  0
VERTEX
  5
1F5
  8
0
 10
-13.89807224273682
 20
89.17991638183594
 30
85.62298583984375
 70
   192
  0
VERTEX
  5
1F6
  8
0
 10
21.07616806030273
 20
89.17989349365234
 30
77.0656967163086
 70
   192
  0
VERTEX
  5
1F7
  8
0
 10
-13.31454753875732
 20
89.179931640625
 30
87.91141510009766
 70
   192
  0
VERTEX
  5
1F8
  8
0
 10
21.54480743408203
 20
89.179931640625
 30
81.7646484375
 70
   192
  0
VERTEX
  5
1F9
  8
0
 10
21.31045722961426
 20
89.17991638183594
 30
79.4146957397461
 70
   192
  0
VERTEX
  5
1FA
  8
0
 10
-15.64784812927246
 20
89.1798324584961
 30
78.75891876220703
 70
   192
  0
VERTEX
  5
1FB
  8
0
 10
20.60701370239258
 20
89.1798324584961
 30
72.36603546142578
 70
   192
  0
VERTEX
  5
1FC
  8
0
 10
20.37245559692383
 20
89.17980194091797
 30
70.0167236328125
 70
   192
  0
VERTEX
  5
1FD
  8
0
 10
20.84168434143066
 20
89.17987060546875
 30
74.71543884277344
 70
   192
  0
VERTEX
  5
1FE
  8
0
 10
-15.06485557556152
 20
89.17987060546875
 30
81.04659271240234
 70
   192
  0
VERTEX
  5
1FF
  8
0
 10
-16.8148365020752
 20
89.17979431152344
 30
74.18136596679688
 70
   192
  0
VERTEX
  5
200
  8
0
 10
20.1381664276123
 20
89.17979431152344
 30
67.66658782958984
 70
   192
  0
VERTEX
  5
201
  8
0
 10
19.90405082702637
 20
89.1797866821289
 30
65.31712341308594
 70
   192
  0
VERTEX
  5
202
  8
0
 10
-16.23095321655273
 20
89.17980194091797
 30
76.47091674804688
 70
   192
  0
VERTEX
  5
203
  8
0
 10
-17.9818172454834
 20
89.1797866821289
 30
69.60641479492188
 70
   192
  0
VERTEX
  5
204
  8
0
 10
19.42919540405273
 20
89.17977905273438
 30
60.61847686767578
 70
   192
  0
VERTEX
  5
205
  8
0
 10
-18.5589714050293
 20
89.17977905273438
 30
67.31681060791016
 70
   192
  0
VERTEX
  5
206
  8
0
 10
19.66986465454102
 20
89.1797866821289
 30
62.96665954589844
 70
   192
  0
VERTEX
  5
207
  8
0
 10
-17.39815902709961
 20
89.1797866821289
 30
71.89450073242188
 70
   192
  0
VERTEX
  5
208
  8
0
 10
16.93398094177246
 20
89.17971801757812
 30
52.81674575805664
 70
   192
  0
VERTEX
  5
209
  8
0
 10
14.99876976013184
 20
89.17969512939453
 30
50.05209350585938
 70
   192
  0
VERTEX
  5
20A
  8
0
 10
18.35870742797852
 20
89.17974090576172
 30
55.87166595458984
 70
   192
  0
VERTEX
  5
20B
  8
0
 10
3.535840272903442
 20
89.17963409423828
 30
43.43332672119141
 70
   192
  0
VERTEX
  5
20C
  8
0
 10
6.795052051544189
 20
89.17964935302734
 30
44.30710983276367
 70
   192
  0
VERTEX
  5
20D
  8
0
 10
9.850373268127441
 20
89.17965698242188
 30
45.73173522949219
 70
   192
  0
VERTEX
  5
20E
  8
0
 10
-19.17644691467285
 20
89.17974090576172
 30
62.48978042602539
 70
   192
  0
VERTEX
  5
20F
  8
0
 10
0.1759639531373978
 20
89.17963409423828
 30
43.13921356201172
 70
   192
  0
VERTEX
  5
210
  8
0
 10
-18.8818416595459
 20
89.17971801757812
 30
59.12781143188477
 70
   192
  0
VERTEX
  5
211
  8
0
 10
-18.87973022460938
 20
89.17976379394531
 30
65.84982299804688
 70
   192
  0
VERTEX
  5
212
  8
0
 10
-16.58301162719727
 20
89.17967987060547
 30
52.81348037719727
 70
   192
  0
VERTEX
  5
213
  8
0
 10
-18.00979423522949
 20
89.17969512939453
 30
55.87213134765625
 70
   192
  0
VERTEX
  5
214
  8
0
 10
-6.442882537841797
 20
89.17963409423828
 30
44.30578231811523
 70
   192
  0
VERTEX
  5
215
  8
0
 10
-3.185684204101562
 20
89.17962646484375
 30
43.43308639526367
 70
   192
  0
VERTEX
  5
216
  8
0
 10
-12.26254177093506
 20
89.17964935302734
 30
47.66535186767578
 70
   192
  0
VERTEX
  5
217
  8
0
 10
-9.501701354980469
 20
89.17963409423828
 30
45.73183059692383
 70
   192
  0
VERTEX
  5
218
  8
0
 10
-14.64916229248047
 20
89.17965698242188
 30
50.05143737792969
 70
   192
  0
VERTEX
  5
219
  8
0
 10
12.61357879638672
 20
89.17967987060547
 30
47.66679000854492
 70
   192
  0
VERTEX
  5
21A
  8
0
 10
19.22886848449707
 20
89.17976379394531
 30
59.13024520874023
 70
   192
  0
VERTEX
  5
21B
  8
0
 10
22.01343536376953
 20
89.17996215820312
 30
86.4641342163086
 70
   192
  0
VERTEX
  5
21C
  8
0
 10
-10.39732933044434
 20
89.18000030517578
 30
99.35186767578125
 70
   192
  0
VERTEX
  5
21D
  8
0
 10
22.4820728302002
 20
89.17998504638672
 30
91.1634750366211
 70
   192
  0
VERTEX
  5
21E
  8
0
 10
-9.230504989624023
 20
89.18000030517578
 30
103.9282455444336
 70
   192
  0
VERTEX
  5
21F
  8
0
 10
-8.063882827758789
 20
89.18000793457031
 30
108.5042419433594
 70
   192
  0
VERTEX
  5
220
  8
0
 10
-6.897363662719727
 20
89.1800537109375
 30
113.0801467895508
 70
   192
  0
VERTEX
  5
221
  8
0
 10
-5.730626583099365
 20
89.18013763427734
 30
117.6571655273438
 70
   192
  0
VERTEX
  5
222
  8
0
 10
-4.564295768737793
 20
89.18022155761719
 30
122.2335433959961
 70
   192
  0
VERTEX
  5
223
  8
0
 10
25.0611572265625
 20
89.18021392822266
 30
117.0097503662109
 70
   192
  0
VERTEX
  5
224
  8
0
 10
-2.233017206192017
 20
89.18023681640625
 30
131.3871459960938
 70
   192
  0
VERTEX
  5
225
  8
0
 10
24.33691215515137
 20
89.18025207519531
 30
140.2395477294922
 70
   192
  0
VERTEX
  5
226
  8
0
 10
21.35550117492676
 20
89.18030548095703
 30
143.8771667480469
 70
   192
  0
VERTEX
  5
227
  8
0
 10
17.34237670898438
 20
89.18036651611328
 30
146.3244323730469
 70
   192
  0
VERTEX
  5
228
  8
0
 10
15.06909275054932
 20
89.18037414550781
 30
146.9610595703125
 70
   192
  0
VERTEX
  5
229
  8
0
 10
13.24015426635742
 20
86.26290893554688
 30
150.6671600341797
 70
   192
  0
VERTEX
  5
22A
  8
0
 10
6.17098331451416
 20
86.20498657226562
 30
148.8373107910156
 70
   192
  0
VERTEX
  5
22B
  8
0
 10
8.41487979888916
 20
86.21148681640625
 30
149.8337554931641
 70
   192
  0
VERTEX
  5
22C
  8
0
 10
10.79343891143799
 20
86.23473358154297
 30
150.4514923095703
 70
   192
  0
VERTEX
  5
22D
  8
0
 10
0.8620433211326599
 20
86.22037506103516
 30
143.8347473144531
 70
   192
  0
VERTEX
  5
22E
  8
0
 10
4.119762420654297
 20
86.21341705322266
 30
147.4855804443359
 70
   192
  0
VERTEX
  5
22F
  8
0
 10
2.329949617385864
 20
86.22342681884766
 30
145.8033905029297
 70
   192
  0
VERTEX
  5
230
  8
0
 10
-1.178726553916931
 20
86.18050384521484
 30
139.3703155517578
 70
   192
  0
VERTEX
  5
231
  8
0
 10
-1.879457116127014
 20
86.15547180175781
 30
137.0147705078125
 70
   192
  0
VERTEX
  5
232
  8
0
 10
-0.2857311069965363
 20
86.20430755615234
 30
141.6602630615234
 70
   192
  0
VERTEX
  5
233
  8
0
 10
-3.354313850402832
 20
86.10985565185547
 30
130.9757995605469
 70
   192
  0
VERTEX
  5
234
  8
0
 10
-2.490972995758057
 20
86.13235473632812
 30
134.6339111328125
 70
   192
  0
VERTEX
  5
235
  8
0
 10
-4.236783504486084
 20
86.093505859375
 30
127.3033065795898
 70
   192
  0
VERTEX
  5
236
  8
0
 10
-6.037258148193359
 20
86.06846618652344
 30
119.967643737793
 70
   192
  0
VERTEX
  5
237
  8
0
 10
-5.137105464935303
 20
86.08003997802734
 30
123.6156234741211
 70
   192
  0
VERTEX
  5
238
  8
0
 10
-7.850891590118408
 20
86.04548645019531
 30
112.6491546630859
 70
   192
  0
VERTEX
  5
239
  8
0
 10
-6.940570831298828
 20
86.05709838867188
 30
116.3198623657227
 70
   192
  0
VERTEX
  5
23A
  8
0
 10
-9.67310619354248
 20
86.02303314208984
 30
105.3184509277344
 70
   192
  0
VERTEX
  5
23B
  8
0
 10
-8.75626277923584
 20
86.03406524658203
 30
109.0037460327148
 70
   192
  0
VERTEX
  5
23C
  8
0
 10
-11.49761486053467
 20
85.99834442138672
 30
98.00991821289062
 70
   192
  0
VERTEX
  5
23D
  8
0
 10
-12.41248226165771
 20
85.98371124267578
 30
94.35101318359375
 70
   192
  0
VERTEX
  5
23E
  8
0
 10
-10.58349609375
 20
86.0125503540039
 30
101.6666870117188
 70
   192
  0
VERTEX
  5
23F
  8
0
 10
-13.32734966278076
 20
85.96907806396484
 30
90.69210052490234
 70
   192
  0
VERTEX
  5
240
  8
0
 10
-14.24221706390381
 20
85.9544448852539
 30
87.03319549560547
 70
   192
  0
VERTEX
  5
241
  8
0
 10
-15.15708446502686
 20
85.93981170654297
 30
83.3742904663086
 70
   192
  0
VERTEX
  5
242
  8
0
 10
-16.07195091247559
 20
85.92517852783203
 30
79.71538543701172
 70
   192
  0
VERTEX
  5
243
  8
0
 10
-16.98681831359863
 20
85.9105453491211
 30
76.05648040771484
 70
   192
  0
VERTEX
  5
244
  8
0
 10
-17.90168571472168
 20
85.89591217041016
 30
72.39756774902344
 70
   192
  0
VERTEX
  5
245
  8
0
 10
-18.81686401367188
 20
85.87995147705078
 30
68.73869323730469
 70
   192
  0
VERTEX
  5
246
  8
0
 10
-19.04550933837891
 20
86.558837890625
 30
67.31730651855469
 70
   192
  0
VERTEX
  5
247
  8
0
 10
-19.17321586608887
 20
85.87029266357422
 30
67.31731414794922
 70
   192
  0
VERTEX
  5
248
  8
0
 10
-18.76192092895508
 20
88.1037368774414
 30
67.31781005859375
 70
   192
  0
VERTEX
  5
249
  8
0
 10
15.68588256835938
 20
86.27629852294922
 30
150.4590759277344
 70
   192
  0
VERTEX
  5
24A
  8
0
 10
19.6202449798584
 20
88.1037368774414
 30
60.54999923706055
 70
   192
  0
VERTEX
  5
24B
  8
0
 10
20.54927062988281
 20
85.89591217041016
 30
65.61763000488281
 70
   192
  0
VERTEX
  5
24C
  8
0
 10
20.13343048095703
 20
85.63148498535156
 30
61.87154006958008
 70
   192
  0
VERTEX
  5
24D
  8
0
 10
21.33272171020508
 20
85.92517852783203
 30
73.11993408203125
 70
   192
  0
VERTEX
  5
24E
  8
0
 10
22.50790023803711
 20
85.96907806396484
 30
84.37338256835938
 70
   192
  0
VERTEX
  5
24F
  8
0
 10
22.11617469787598
 20
85.9544448852539
 30
80.62223052978516
 70
   192
  0
VERTEX
  5
250
  8
0
 10
21.72444915771484
 20
85.93981170654297
 30
76.87108612060547
 70
   192
  0
VERTEX
  5
251
  8
0
 10
23.29135131835938
 20
85.99834442138672
 30
91.87568664550781
 70
   192
  0
VERTEX
  5
252
  8
0
 10
23.68282890319824
 20
86.01238250732422
 30
95.62242889404297
 70
   192
  0
VERTEX
  5
253
  8
0
 10
22.89962577819824
 20
85.98371124267578
 30
88.1245346069336
 70
   192
  0
VERTEX
  5
254
  8
0
 10
24.47454452514648
 20
86.03406524658203
 30
103.1356201171875
 70
   192
  0
VERTEX
  5
255
  8
0
 10
24.07620620727539
 20
86.02300262451172
 30
99.36428833007812
 70
   192
  0
VERTEX
  5
256
  8
0
 10
25.27045631408691
 20
86.05707550048828
 30
110.6299819946289
 70
   192
  0
VERTEX
  5
257
  8
0
 10
25.66931915283203
 20
86.06838989257812
 30
114.3693084716797
 70
   192
  0
VERTEX
  5
258
  8
0
 10
24.87162399291992
 20
86.04548645019531
 30
106.8808059692383
 70
   192
  0
VERTEX
  5
259
  8
0
 10
26.48851776123047
 20
86.09346008300781
 30
121.9009475708008
 70
   192
  0
VERTEX
  5
25A
  8
0
 10
26.07590866088867
 20
86.08013153076172
 30
118.1486282348633
 70
   192
  0
VERTEX
  5
25B
  8
0
 10
27.35401725769043
 20
86.13235473632812
 30
129.3714294433594
 70
   192
  0
VERTEX
  5
25C
  8
0
 10
26.91450881958008
 20
86.10961151123047
 30
125.6344146728516
 70
   192
  0
VERTEX
  5
25D
  8
0
 10
27.58133316040039
 20
86.15560150146484
 30
131.8185882568359
 70
   192
  0
VERTEX
  5
25E
  8
0
 10
27.73503494262695
 20
86.18006896972656
 30
134.2704467773438
 70
   192
  0
VERTEX
  5
25F
  8
0
 10
27.68027687072754
 20
86.20401763916016
 30
136.7269134521484
 70
   192
  0
VERTEX
  5
260
  8
0
 10
27.34269905090332
 20
86.22006225585938
 30
139.1590118408203
 70
   192
  0
VERTEX
  5
261
  8
0
 10
26.64377975463867
 20
86.22368621826172
 30
141.5130310058594
 70
   192
  0
VERTEX
  5
262
  8
0
 10
25.5406665802002
 20
86.21475982666016
 30
143.7077026367188
 70
   192
  0
VERTEX
  5
263
  8
0
 10
24.07546615600586
 20
86.20573425292969
 30
145.6784515380859
 70
   192
  0
VERTEX
  5
264
  8
0
 10
22.30567359924316
 20
86.21139526367188
 30
147.3835144042969
 70
   192
  0
VERTEX
  5
265
  8
0
 10
20.28299331665039
 20
86.23370361328125
 30
148.7765197753906
 70
   192
  0
VERTEX
  5
266
  8
0
 10
18.05818176269531
 20
86.26167297363281
 30
149.8157958984375
 70
   192
  0
VERTEX
  5
267
  8
0
 10
20.94099617004395
 20
85.9105453491211
 30
69.36878204345703
 70
   192
  0
VERTEX
  5
268
  8
0
 10
20.00656700134277
 20
85.87029266357422
 30
60.40885925292969
 70
   192
  0
VERTEX
  5
269
  8
0
 10
19.88656044006348
 20
86.558837890625
 30
60.45252990722656
 70
   192
  0
VERTEX
  5
26A
  8
0
 10
-2.498660087585449
 20
85.85340881347656
 30
134.6365203857422
 70
   192
  0
VERTEX
  5
26B
  8
0
 10
-18.79208564758301
 20
85.6314468383789
 30
68.73541259765625
 70
   192
  0
VERTEX
  5
26C
  8
0
 10
-18.13178253173828
 20
85.38945007324219
 30
70.5559310913086
 70
   192
  0
VERTEX
  5
26D
  8
0
 10
-14.05731296539307
 20
85.4210205078125
 30
86.5363540649414
 70
   192
  0
VERTEX
  5
26E
  8
0
 10
-2.34065842628479
 20
85.59333038330078
 30
134.5997009277344
 70
   192
  0
VERTEX
  5
26F
  8
0
 10
-10.51820468902588
 20
85.64790344238281
 30
101.6562042236328
 70
   192
  0
VERTEX
  5
270
  8
0
 10
-5.998709678649902
 20
85.443359375
 30
118.5190505981445
 70
   192
  0
VERTEX
  5
271
  8
0
 10
-10.01224613189697
 20
85.42039489746094
 30
102.5237274169922
 70
   192
  0
VERTEX
  5
272
  8
0
 10
-2.084774494171143
 20
85.47930908203125
 30
134.5391845703125
 70
   192
  0
VERTEX
  5
273
  8
0
 10
4.010971546173096
 20
85.89522552490234
 30
147.5761871337891
 70
   192
  0
VERTEX
  5
274
  8
0
 10
6.079737186431885
 20
85.88741302490234
 30
148.9613342285156
 70
   192
  0
VERTEX
  5
275
  8
0
 10
-1.917187690734863
 20
85.86570739746094
 30
136.9849853515625
 70
   192
  0
VERTEX
  5
276
  8
0
 10
-1.755837321281433
 20
85.5948715209961
 30
136.9417724609375
 70
   192
  0
VERTEX
  5
277
  8
0
 10
-1.076484322547913
 20
85.59549713134766
 30
139.2671661376953
 70
   192
  0
VERTEX
  5
278
  8
0
 10
0.0464815497398376
 20
85.46319580078125
 30
141.4535827636719
 70
   192
  0
VERTEX
  5
279
  8
0
 10
-0.8097995519638062
 20
85.47724151611328
 30
139.1960144042969
 70
   192
  0
VERTEX
  5
27A
  8
0
 10
-1.487329363822937
 20
85.48109436035156
 30
136.8787994384766
 70
   192
  0
VERTEX
  5
27B
  8
0
 10
1.14626932144165
 20
85.43830871582031
 30
143.6039428710938
 70
   192
  0
VERTEX
  5
27C
  8
0
 10
2.561100959777832
 20
85.4045181274414
 30
145.5574493408203
 70
   192
  0
VERTEX
  5
27D
  8
0
 10
0.8841479420661926
 20
85.57337188720703
 30
143.7426147460938
 70
   192
  0
VERTEX
  5
27E
  8
0
 10
-0.369870662689209
 20
85.89787292480469
 30
141.6199951171875
 70
   192
  0
VERTEX
  5
27F
  8
0
 10
-0.2226471751928329
 20
85.58917999267578
 30
141.5531768798828
 70
   192
  0
VERTEX
  5
280
  8
0
 10
10.77862739562988
 20
85.52164459228516
 30
150.4964294433594
 70
   192
  0
VERTEX
  5
281
  8
0
 10
10.75355339050293
 20
85.92030334472656
 30
150.6170196533203
 70
   192
  0
VERTEX
  5
282
  8
0
 10
8.345534324645996
 20
85.89534759521484
 30
149.9818420410156
 70
   192
  0
VERTEX
  5
283
  8
0
 10
2.217107772827148
 20
85.90608978271484
 30
145.8502197265625
 70
   192
  0
VERTEX
  5
284
  8
0
 10
2.324556827545166
 20
85.5479965209961
 30
145.7498931884766
 70
   192
  0
VERTEX
  5
285
  8
0
 10
4.094764709472656
 20
85.51931762695312
 30
147.4640045166016
 70
   192
  0
VERTEX
  5
286
  8
0
 10
13.23058700561523
 20
85.95049285888672
 30
150.8422698974609
 70
   192
  0
VERTEX
  5
287
  8
0
 10
15.69761657714844
 20
85.57275390625
 30
150.5256042480469
 70
   192
  0
VERTEX
  5
288
  8
0
 10
15.71568489074707
 20
85.9707260131836
 30
150.6280822753906
 70
   192
  0
VERTEX
  5
289
  8
0
 10
13.23471069335938
 20
85.5489273071289
 30
150.7242584228516
 70
   192
  0
VERTEX
  5
28A
  8
0
 10
13.2390832901001
 20
85.38166809082031
 30
150.4083404541016
 70
   192
  0
VERTEX
  5
28B
  8
0
 10
15.64183044433594
 20
85.3931655883789
 30
150.209228515625
 70
   192
  0
VERTEX
  5
28C
  8
0
 10
8.503788948059082
 20
85.34214782714844
 30
149.5638732910156
 70
   192
  0
VERTEX
  5
28D
  8
0
 10
10.83670425415039
 20
85.35830688476562
 30
150.1844787597656
 70
   192
  0
VERTEX
  5
28E
  8
0
 10
8.38969898223877
 20
85.5013198852539
 30
149.8608245849609
 70
   192
  0
VERTEX
  5
28F
  8
0
 10
6.142829418182373
 20
85.50043487548828
 30
148.8427886962891
 70
   192
  0
VERTEX
  5
290
  8
0
 10
0.7534596920013428
 20
85.90705108642578
 30
143.8262329101562
 70
   192
  0
VERTEX
  5
291
  8
0
 10
6.305846691131592
 20
85.34563446044922
 30
148.5712127685547
 70
   192
  0
VERTEX
  5
292
  8
0
 10
4.301144123077393
 20
85.36922454833984
 30
147.2283782958984
 70
   192
  0
VERTEX
  5
293
  8
0
 10
-1.233455181121826
 20
85.88261413574219
 30
139.320068359375
 70
   192
  0
VERTEX
  5
294
  8
0
 10
27.2886791229248
 20
85.57356262207031
 30
139.0836486816406
 70
   192
  0
VERTEX
  5
295
  8
0
 10
26.6314754486084
 20
85.5489273071289
 30
141.4568023681641
 70
   192
  0
VERTEX
  5
296
  8
0
 10
26.99639892578125
 20
85.43865203857422
 30
139.0395050048828
 70
   192
  0
VERTEX
  5
297
  8
0
 10
20.31493949890137
 20
85.52078247070312
 30
148.8120880126953
 70
   192
  0
VERTEX
  5
298
  8
0
 10
18.0907096862793
 20
85.54814147949219
 30
149.8652191162109
 70
   192
  0
VERTEX
  5
299
  8
0
 10
20.15092849731445
 20
85.35726165771484
 30
148.5402526855469
 70
   192
  0
VERTEX
  5
29A
  8
0
 10
17.97060203552246
 20
85.38048553466797
 30
149.5719146728516
 70
   192
  0
VERTEX
  5
29B
  8
0
 10
20.37968254089355
 20
85.91947174072266
 30
148.9169006347656
 70
   192
  0
VERTEX
  5
29C
  8
0
 10
22.42292404174805
 20
85.89517211914062
 30
147.4979248046875
 70
   192
  0
VERTEX
  5
29D
  8
0
 10
24.10519790649414
 20
85.50102996826172
 30
145.6729278564453
 70
   192
  0
VERTEX
  5
29E
  8
0
 10
22.34015464782715
 20
85.50103759765625
 30
147.3992004394531
 70
   192
  0
VERTEX
  5
29F
  8
0
 10
23.85788154602051
 20
85.3460464477539
 30
145.4746551513672
 70
   192
  0
VERTEX
  5
2A0
  8
0
 10
27.44013214111328
 20
85.90684509277344
 30
139.1171875
 70
   192
  0
VERTEX
  5
2A1
  8
0
 10
27.74204444885254
 20
85.89764404296875
 30
136.6734466552734
 70
   192
  0
VERTEX
  5
2A2
  8
0
 10
24.20491600036621
 20
85.88822937011719
 30
145.7629241943359
 70
   192
  0
VERTEX
  5
2A3
  8
0
 10
25.67551803588867
 20
85.8968734741211
 30
143.7541961669922
 70
   192
  0
VERTEX
  5
2A4
  8
0
 10
27.36213874816895
 20
85.85340881347656
 30
129.3712615966797
 70
   192
  0
VERTEX
  5
2A5
  8
0
 10
27.45061492919922
 20
85.59480285644531
 30
131.7973785400391
 70
   192
  0
VERTEX
  5
2A6
  8
0
 10
27.60471343994141
 20
85.59530639648438
 30
134.2229309082031
 70
   192
  0
VERTEX
  5
2A7
  8
0
 10
27.16745185852051
 20
85.48038482666016
 30
131.8249359130859
 70
   192
  0
VERTEX
  5
2A8
  8
0
 10
27.61697387695312
 20
85.86566925048828
 30
131.7828369140625
 70
   192
  0
VERTEX
  5
2A9
  8
0
 10
27.20107460021973
 20
85.59333038330078
 30
129.3906860351562
 70
   192
  0
VERTEX
  5
2AA
  8
0
 10
26.93992614746094
 20
85.47931671142578
 30
129.4213562011719
 70
   192
  0
VERTEX
  5
2AB
  8
0
 10
27.29767227172852
 20
85.46322631835938
 30
136.6464538574219
 70
   192
  0
VERTEX
  5
2AC
  8
0
 10
27.58098793029785
 20
85.58905792236328
 30
136.6610565185547
 70
   192
  0
VERTEX
  5
2AD
  8
0
 10
27.77019500732422
 20
85.88246154785156
 30
134.2190093994141
 70
   192
  0
VERTEX
  5
2AE
  8
0
 10
27.32948112487793
 20
85.4771499633789
 30
134.2329406738281
 70
   192
  0
VERTEX
  5
2AF
  8
0
 10
26.76733779907227
 20
85.90654754638672
 30
141.5136871337891
 70
   192
  0
VERTEX
  5
2B0
  8
0
 10
25.5583610534668
 20
85.52066802978516
 30
143.6772766113281
 70
   192
  0
VERTEX
  5
2B1
  8
0
 10
25.28240013122559
 20
85.37004852294922
 30
143.528076171875
 70
   192
  0
VERTEX
  5
2B2
  8
0
 10
26.34186363220215
 20
85.40522766113281
 30
141.3607940673828
 70
   192
  0
VERTEX
  5
2B3
  8
0
 10
22.12983131408691
 20
85.34196472167969
 30
147.1603393554688
 70
   192
  0
VERTEX
  5
2B4
  8
0
 10
18.13500022888184
 20
85.94970703125
 30
149.9747161865234
 70
   192
  0
VERTEX
  5
2B5
  8
0
 10
23.43950843811035
 20
85.42046356201172
 30
96.6251220703125
 70
   192
  0
VERTEX
  5
2B6
  8
0
 10
23.63125801086426
 20
85.65841674804688
 30
95.63278198242188
 70
   192
  0
VERTEX
  5
2B7
  8
0
 10
25.13947105407715
 20
85.4434585571289
 30
113.0286102294922
 70
   192
  0
VERTEX
  5
2B8
  8
0
 10
21.7724723815918
 20
85.42115020751953
 30
80.21878814697266
 70
   192
  0
VERTEX
  5
2B9
  8
0
 10
20.13561248779297
 20
85.38945007324219
 30
63.80835723876953
 70
   192
  0
VERTEX
  5
2BA
  8
0
 10
22.24188804626465
 20
85.11563110351562
 30
97.88468933105469
 70
   192
  0
VERTEX
  5
2BB
  8
0
 10
19.2715892791748
 20
84.77613830566406
 30
85.45175170898438
 70
   192
  0
VERTEX
  5
2BC
  8
0
 10
20.94923400878906
 20
85.119384765625
 30
81.82767486572266
 70
   192
  0
VERTEX
  5
2BD
  8
0
 10
13.72794151306152
 20
84.3102798461914
 30
91.49253845214844
 70
   192
  0
VERTEX
  5
2BE
  8
0
 10
17.92201995849609
 20
84.56158447265625
 30
102.8465423583984
 70
   192
  0
VERTEX
  5
2BF
  8
0
 10
15.01923179626465
 20
84.38451385498047
 30
104.8686294555664
 70
   192
  0
VERTEX
  5
2C0
  8
0
 10
21.36872482299805
 20
84.86783599853516
 30
115.5064849853516
 70
   192
  0
VERTEX
  5
2C1
  8
0
 10
18.95256042480469
 20
84.64044952392578
 30
116.9667053222656
 70
   192
  0
VERTEX
  5
2C2
  8
0
 10
24.55534934997559
 20
85.22313690185547
 30
129.9971160888672
 70
   192
  0
VERTEX
  5
2C3
  8
0
 10
23.48196220397949
 20
85.1492691040039
 30
113.9265823364258
 70
   192
  0
VERTEX
  5
2C4
  8
0
 10
10.04502391815186
 20
84.1915512084961
 30
93.58084106445312
 70
   192
  0
VERTEX
  5
2C5
  8
0
 10
11.71961879730225
 20
84.27677917480469
 30
106.4315338134766
 70
   192
  0
VERTEX
  5
2C6
  8
0
 10
19.67205429077148
 20
85.08834838867188
 30
67.10293579101562
 70
   192
  0
VERTEX
  5
2C7
  8
0
 10
15.13371658325195
 20
84.38680267333984
 30
75.90511322021484
 70
   192
  0
VERTEX
  5
2C8
  8
0
 10
16.83397674560547
 20
84.50579071044922
 30
88.72810363769531
 70
   192
  0
VERTEX
  5
2C9
  8
0
 10
16.27645301818848
 20
84.47199249267578
 30
118.2450180053711
 70
   192
  0
VERTEX
  5
2CA
  8
0
 10
20.35417556762695
 20
84.80596160888672
 30
100.4802398681641
 70
   192
  0
VERTEX
  5
2CB
  8
0
 10
13.38338947296143
 20
84.3673324584961
 30
119.279182434082
 70
   192
  0
VERTEX
  5
2CC
  8
0
 10
8.101320266723633
 20
84.23734283447266
 30
107.4448623657227
 70
   192
  0
VERTEX
  5
2CD
  8
0
 10
5.883999347686768
 20
84.14337158203125
 30
94.86981201171875
 70
   192
  0
VERTEX
  5
2CE
  8
0
 10
10.31864070892334
 20
84.33131408691406
 30
120.0199127197266
 70
   192
  0
VERTEX
  5
2CF
  8
0
 10
14.96184062957764
 20
84.4642562866211
 30
132.1447448730469
 70
   192
  0
VERTEX
  5
2D0
  8
0
 10
12.53595924377441
 20
84.42528533935547
 30
132.594970703125
 70
   192
  0
VERTEX
  5
2D1
  8
0
 10
22.16643142700195
 20
84.98631286621094
 30
130.5614471435547
 70
   192
  0
VERTEX
  5
2D2
  8
0
 10
18.66528129577637
 20
84.81558990478516
 30
70.27651977539062
 70
   192
  0
VERTEX
  5
2D3
  8
0
 10
19.77707672119141
 20
84.74476623535156
 30
131.1279754638672
 70
   192
  0
VERTEX
  5
2D4
  8
0
 10
17.13632583618164
 20
84.58051300048828
 30
73.23787689208984
 70
   192
  0
VERTEX
  5
2D5
  8
0
 10
17.37554740905762
 20
84.57074737548828
 30
131.6557464599609
 70
   192
  0
VERTEX
  5
2D6
  8
0
 10
12.71256637573242
 20
84.23674774169922
 30
78.20252227783203
 70
   192
  0
VERTEX
  5
2D7
  8
0
 10
6.897469043731689
 20
84.0693130493164
 30
81.44258117675781
 70
   192
  0
VERTEX
  5
2D8
  8
0
 10
9.94123363494873
 20
84.131103515625
 30
80.06578826904297
 70
   192
  0
VERTEX
  5
2D9
  8
0
 10
3.666677951812744
 20
84.04940032958984
 30
82.29476165771484
 70
   192
  0
VERTEX
  5
2DA
  8
0
 10
23.74267196655273
 20
85.10733795166016
 30
136.4666900634766
 70
   192
  0
VERTEX
  5
2DB
  8
0
 10
19.94624900817871
 20
84.94185638427734
 30
143.4214630126953
 70
   192
  0
VERTEX
  5
2DC
  8
0
 10
18.67729568481445
 20
84.6789779663086
 30
137.5355987548828
 70
   192
  0
VERTEX
  5
2DD
  8
0
 10
14.60959053039551
 20
84.79884338378906
 30
144.3550872802734
 70
   192
  0
VERTEX
  5
2DE
  8
0
 10
13.57333564758301
 20
84.53839874267578
 30
138.4781951904297
 70
   192
  0
VERTEX
  5
2DF
  8
0
 10
-16.5668773651123
 20
85.08843231201172
 30
73.4922103881836
 70
   192
  0
VERTEX
  5
2E0
  8
0
 10
-5.794640064239502
 20
84.80596160888672
 30
105.0909881591797
 70
   192
  0
VERTEX
  5
2E1
  8
0
 10
-4.134879589080811
 20
85.1492691040039
 30
118.7961730957031
 70
   192
  0
VERTEX
  5
2E2
  8
0
 10
-8.456241607666016
 20
85.11563110351562
 30
103.2975997924805
 70
   192
  0
VERTEX
  5
2E3
  8
0
 10
-14.53528022766113
 20
84.81568908691406
 30
76.13050079345703
 70
   192
  0
VERTEX
  5
2E4
  8
0
 10
-12.08665657043457
 20
84.58055114746094
 30
78.39134979248047
 70
   192
  0
VERTEX
  5
2E5
  8
0
 10
-9.917389869689941
 20
84.77613830566406
 30
90.59855651855469
 70
   192
  0
VERTEX
  5
2E6
  8
0
 10
-12.73336601257324
 20
85.119384765625
 30
87.76683044433594
 70
   192
  0
VERTEX
  5
2E7
  8
0
 10
-6.506203651428223
 20
84.50579071044922
 30
92.84361267089844
 70
   192
  0
VERTEX
  5
2E8
  8
0
 10
-9.292579650878906
 20
84.38685607910156
 30
80.2127685546875
 70
   192
  0
VERTEX
  5
2E9
  8
0
 10
-1.608727335929871
 20
84.86783599853516
 30
119.5580291748047
 70
   192
  0
VERTEX
  5
2EA
  8
0
 10
1.161151051521301
 20
84.64044952392578
 30
120.1038131713867
 70
   192
  0
VERTEX
  5
2EB
  8
0
 10
2.790773630142212
 20
84.98631286621094
 30
133.9778900146484
 70
   192
  0
VERTEX
  5
2EC
  8
0
 10
0.352971076965332
 20
85.22113037109375
 30
134.2658538818359
 70
   192
  0
VERTEX
  5
2ED
  8
0
 10
4.354651927947998
 20
84.27677917480469
 30
107.7301788330078
 70
   192
  0
VERTEX
  5
2EE
  8
0
 10
1.533059477806091
 20
84.1915512084961
 30
95.08173370361328
 70
   192
  0
VERTEX
  5
2EF
  8
0
 10
7.666551113128662
 20
84.5867919921875
 30
133.3581390380859
 70
   192
  0
VERTEX
  5
2F0
  8
0
 10
5.228633880615234
 20
84.77486419677734
 30
133.6753234863281
 70
   192
  0
VERTEX
  5
2F1
  8
0
 10
4.113077163696289
 20
84.47199249267578
 30
120.3897476196289
 70
   192
  0
VERTEX
  5
2F2
  8
0
 10
7.185372352600098
 20
84.3673324584961
 30
120.3720626831055
 70
   192
  0
VERTEX
  5
2F3
  8
0
 10
10.10205268859863
 20
84.47628784179688
 30
132.9944763183594
 70
   192
  0
VERTEX
  5
2F4
  8
0
 10
0.7194839119911194
 20
84.38451385498047
 30
107.3900604248047
 70
   192
  0
VERTEX
  5
2F5
  8
0
 10
-2.641992330551147
 20
84.3102798461914
 30
94.3790054321289
 70
   192
  0
VERTEX
  5
2F6
  8
0
 10
-6.231869220733643
 20
84.2367935180664
 30
81.54354095458984
 70
   192
  0
VERTEX
  5
2F7
  8
0
 10
-2.699839115142822
 20
84.56158447265625
 30
106.4827346801758
 70
   192
  0
VERTEX
  5
2F8
  8
0
 10
0.3399270474910736
 20
84.06934356689453
 30
82.59903717041016
 70
   192
  0
VERTEX
  5
2F9
  8
0
 10
-2.990680694580078
 20
84.13115692138672
 30
82.34636688232422
 70
   192
  0
VERTEX
  5
2FA
  8
0
 10
9.275444984436035
 20
84.94185638427734
 30
145.3030090332031
 70
   192
  0
VERTEX
  5
2FB
  8
0
 10
3.329303026199341
 20
85.10733795166016
 30
140.0661163330078
 70
   192
  0
VERTEX
  5
2FC
  8
0
 10
8.454791069030762
 20
84.6789779663086
 30
139.3381042480469
 70
   192
  0
VERTEX
  5
2FD
  8
0
 10
-23.59156036376953
 20
57.86722564697266
 30
69.75308990478516
 70
   192
  0
VERTEX
  5
2FE
  8
0
 10
-16.15496635437012
 20
57.86722946166992
 30
80.56796264648438
 70
   192
  0
VERTEX
  5
2FF
  8
0
 10
-19.34626388549805
 20
57.86722946166992
 30
77.32207489013672
 70
   192
  0
VERTEX
  5
300
  8
0
 10
-21.84257316589355
 20
57.86722564697266
 30
73.64752197265625
 70
   192
  0
VERTEX
  5
301
  8
0
 10
-8.249960899353027
 20
57.86722946166992
 30
85.08912658691406
 70
   192
  0
VERTEX
  5
302
  8
0
 10
-3.943254470825195
 20
57.86723327636719
 30
86.17631530761719
 70
   192
  0
VERTEX
  5
303
  8
0
 10
-12.39422988891602
 20
57.86722946166992
 30
83.20100402832031
 70
   192
  0
VERTEX
  5
304
  8
0
 10
0.3123517334461212
 20
57.86723327636719
 30
86.48739624023438
 70
   192
  0
VERTEX
  5
305
  8
0
 10
4.339542865753174
 20
57.86723327636719
 30
86.11077117919922
 70
   192
  0
VERTEX
  5
306
  8
0
 10
-24.61408042907715
 20
57.86722564697266
 30
65.83722686767578
 70
   192
  0
VERTEX
  5
307
  8
0
 10
8.25540542602539
 20
57.86723327636719
 30
85.08824920654297
 70
   192
  0
VERTEX
  5
308
  8
0
 10
19.07028388977051
 20
57.86722946166992
 30
77.65165710449219
 70
   192
  0
VERTEX
  5
309
  8
0
 10
15.8243932723999
 20
57.86722946166992
 30
80.84295654296875
 70
   192
  0
VERTEX
  5
30A
  8
0
 10
12.14983654022217
 20
57.86723327636719
 30
83.33926391601562
 70
   192
  0
VERTEX
  5
30B
  8
0
 10
24.67863464355469
 20
57.86722564697266
 30
65.43994903564453
 70
   192
  0
VERTEX
  5
30C
  8
0
 10
24.98971366882324
 20
57.86722564697266
 30
61.1843376159668
 70
   192
  0
VERTEX
  5
30D
  8
0
 10
21.70332336425781
 20
57.86722946166992
 30
73.89092254638672
 70
   192
  0
VERTEX
  5
30E
  8
0
 10
24.61308860778809
 20
57.86722564697266
 30
57.15714645385742
 70
   192
  0
VERTEX
  5
30F
  8
0
 10
23.59144401550293
 20
57.86722946166992
 30
69.74665069580078
 70
   192
  0
VERTEX
  5
310
  8
0
 10
-12.14623641967773
 20
57.86721801757812
 30
39.6548957824707
 70
   192
  0
VERTEX
  5
311
  8
0
 10
-8.253669738769531
 20
57.86721420288086
 30
37.90707397460938
 70
   192
  0
VERTEX
  5
312
  8
0
 10
-21.70332336425781
 20
57.86721801757812
 30
49.10166931152344
 70
   192
  0
VERTEX
  5
313
  8
0
 10
-19.06993865966797
 20
57.86721801757812
 30
45.3411750793457
 70
   192
  0
VERTEX
  5
314
  8
0
 10
-15.82137489318848
 20
57.86721801757812
 30
42.14949798583984
 70
   192
  0
VERTEX
  5
315
  8
0
 10
-4.340534687042236
 20
57.86721420288086
 30
36.88360595703125
 70
   192
  0
VERTEX
  5
316
  8
0
 10
-23.59200286865234
 20
57.86722183227539
 30
53.2432975769043
 70
   192
  0
VERTEX
  5
317
  8
0
 10
-24.68099403381348
 20
57.86722183227539
 30
57.55004119873047
 70
   192
  0
VERTEX
  5
318
  8
0
 10
-0.3111047148704529
 20
57.86721420288086
 30
36.50515365600586
 70
   192
  0
VERTEX
  5
319
  8
0
 10
-24.99253082275391
 20
57.86722183227539
 30
61.80779647827148
 70
   192
  0
VERTEX
  5
31A
  8
0
 10
3.946651935577393
 20
57.86721801757812
 30
36.81669235229492
 70
   192
  0
VERTEX
  5
31B
  8
0
 10
8.253393173217773
 20
57.86721801757812
 30
37.90568161010742
 70
   192
  0
VERTEX
  5
31C
  8
0
 10
12.39502048492432
 20
57.86721801757812
 30
39.79436111450195
 70
   192
  0
VERTEX
  5
31D
  8
0
 10
21.84179878234863
 20
57.86722183227539
 30
49.35144805908203
 70
   192
  0
VERTEX
  5
31E
  8
0
 10
16.15551567077637
 20
57.86721801757812
 30
42.42774200439453
 70
   192
  0
VERTEX
  5
31F
  8
0
 10
23.58961868286133
 20
57.86722183227539
 30
53.24401473999023
 70
   192
  0
VERTEX
  5
320
  8
0
 10
19.34719276428223
 20
57.86722183227539
 30
45.67630767822266
 70
   192
  0
VERTEX
  5
321
  8
0
 62
     9
 10
0.0
 20
0.0
 30
0.0
 70
   128
 71
     3
 72
     2
 73
     1
  0
VERTEX
  5
322
  8
0
 62
     9
 10
0.0
 20
0.0
 30
0.0
 70
   128
 71
     6
 72
     5
 73
     4
  0
VERTEX
  5
323
  8
0
 62
     9
 10
0.0
 20
0.0
 30
0.0
 70
   128
 71
     9
 72
     8
 73
     7
  0
VERTEX
  5
324
  8
0
 62
     9
 10
0.0
 20
0.0
 30
0.0
 70
   128
 71
    12
 72
    11
 73
    10
  0
VERTEX
  5
325
  8
0
 62
     9
 10
0.0
 20
0.0
 30
0.0
 70
   128
 71
    14
 72
    13
 73
    11
  0
VERTEX
  5
326
  8
0
 62
     9
 10
0.0
 20
0.0
 30
0.0
 70
   128
 71
    12
 72
    10
 73
    15
  0
VERTEX
  5
327
  8
0
 62
     9
 10
0.0
 20
0.0
 30
0.0
 70
   128
 71
    10
 72
    11
 73
    16
  0
VERTEX
  5
328
  8
0
 62
     9
 10
0.0
 20
0.0
 30
0.0
 70
   128
 71
    19
 72
    18
 73
    17
  0
VERTEX
  5
329
  8
0
 62
     9
 10
0.0
 20
0.0
 30
0.0
 70
   128
 71
    21
 72
    18
 73
    20
  0
VERTEX
  5
32A
  8
0
 62
     9
 10
0.0
 20
0.0
 30
0.0
 70
   128
 71
    24
 72
    23
 73
    22
  0
VERTEX
  5
32B
  8
0
 62
     9
 10
0.0
 20
0.0
 30
0.0
 70
   128
 71
    27
 72
    26
 73
    25
  0
VERTEX
  5
32C
  8
0
 62
     9
 10
0.0
 20
0.0
 30
0.0
 70
   128
 71
    30
 72
    29
 73
    28
  0
VERTEX
  5
32D
  8
0
 62
     9
 10
0.0
 20
0.0
 30
0.0
 70
   128
 71
    33
 72
    32
 73
    31
  0
VERTEX
  5
32E
  8
0
 62
     9
 10
0.0
 20
0.0
 30
0.0
 70
   128
 71
    36
 72
    35
 73
    34
  0
VERTEX
  5
32F
  8
0
 62
     9
 10
0.0
 20
0.0
 30
0.0
 70
   128
 71
    39
 72
    38
 73
    37
  0
VERTEX
  5
330
  8
0
 62
     9
 10
0.0
 20
0.0
 30
0.0
 70
   128
 71
    42
 72
    41
 73
    40
  0
VERTEX
  5
331
  8
0
 62
     9
 10
0.0
 20
0.0
 30
0.0
 70
   128
 71
    45
 72
    44
 73
    43
  0
VERTEX
  5
332
  8
0
 62
     9
 10
0.0
 20
0.0
 30
0.0
 70
   128
 71
    48
 72
    47
 73
    46
  0
VERTEX
  5
333
  8
0
 62
     9
 10
0.0
 20
0.0
 30
0.0
 70
   128
 71
    51
 72
    50
 73
    49
  0
VERTEX
  5
334
  8
0
 62
     9
 10
0.0
 20
0.0
 30
0.0
 70
   128
 71
    54
 72
    53
 73
    52
  0
VERTEX
  5
335
  8
0
 62
     9
 10
0.0
 20
0.0
 30
0.0
 70
   128
 71
    56
 72
    55
 73
    46
  0
VERTEX
  5
336
  8
0
 62
     9
 10
0.0
 20
0.0
 30
0.0
 70
   128
 71
    59
 72
    58
 73
    57
  0
VERTEX
  5
337
  8
0
 62
     9
 10
0.0
 20
0.0
 30
0.0
 70
   128
 71
    60
 72
    58
 73
    54
  0
VERTEX
  5
338
  8
0
 62
     9
 10
0.0
 20
0.0
 30
0.0
 70
   128
 71
    63
 72
    62
 73
    61
  0
VERTEX
  5
339
  8
0
 62
     9
 10
0.0
 20
0.0
 30
0.0
 70
   128
 71
    65
 72
    61
 73
    64
  0
VERTEX
  5
33A
  8
0
 62
     9
 10
0.0
 20
0.0
 30
0.0
 70
   128
 71
    63
 72
    67
 73
    66
  0
VERTEX
  5
33B
  8
0
 62
     9
 10
0.0
 20
0.0
 30
0.0
 70
   128
 71
    63
 72
    68
 73
    62
  0
VERTEX
  5
33C
  8
0
 62
     9
 10
0.0
 20
0.0
 30
0.0
 70
   128
 71
    70
 72
    63
 73
    69
  0
VERTEX
  5
33D
  8
0
 62
     9
 10
0.0
 20
0.0
 30
0.0
 70
   128
 71
    70
 72
    71
 73
    63
  0
VERTEX
  5
33E
  8
0
 62
     9
 10
0.0
 20
0.0
 30
0.0
 70
   128
 71
    74
 72
    73
 73
    72
  0
VERTEX
  5
33F
  8
0
 62
     9
 10
0.0
 20
0.0
 30
0.0
 70
   128
 71
    63
 72
    75
 73
    73
  0
VERTEX
  5
340
  8
0
 62
     9
 10
0.0
 20
0.0
 30
0.0
 70
   128
 71
    78
 72
    77
 73
    76
  0
VERTEX
  5
341
  8
0
 62
     9
 10
0.0
 20
0.0
 30
0.0
 70
   128
 71
    78
 72
    79
 73
    74
  0
VERTEX
  5
342
  8
0
 62
     9
 10
0.0
 20
0.0
 30
0.0
 70
   128
 71
    81
 72
    76
 73
    80
  0
VERTEX
  5
343
  8
0
 62
     9
 10
0.0
 20
0.0
 30
0.0
 70
   128
 71
    80
 72
    76
 73
    82
  0
VERTEX
  5
344
  8
0
 62
     9
 10
0.0
 20
0.0
 30
0.0
 70
   128
 71
    71
 72
    83
 73
    63
  0
VERTEX
  5
345
  8
0
 62
     9
 10
0.0
 20
0.0
 30
0.0
 70
   128
 71
    78
 72
    74
 73
    77
  0
VERTEX
  5
346
  8
0
 62
     9
 10
0.0
 20
0.0
 30
0.0
 70
   128
 71
    73
 72
    75
 73
    72
  0
VERTEX
  5
347
  8
0
 62
     9
 10
0.0
 20
0.0
 30
0.0
 70
   128
 71
    84
 72
    62
 73
    68
  0
VERTEX
  5
348
  8
0
 62
     9
 10
0.0
 20
0.0
 30
0.0
 70
   128
 71
    78
 72
    76
 73
    81
  0
VERTEX
  5
349
  8
0
 62
     9
 10
0.0
 20
0.0
 30
0.0
 70
   128
 71
    74
 72
    79
 73
    73
  0
VERTEX
  5
34A
  8
0
 62
     9
 10
0.0
 20
0.0
 30
0.0
 70
   128
 71
    83
 72
    67
 73
    63
  0
VERTEX
  5
34B
  8
0
 62
     9
 10
0.0
 20
0.0
 30
0.0
 70
   128
 71
    63
 72
    73
 73
    69
  0
VERTEX
  5
34C
  8
0
 62
     9
 10
0.0
 20
0.0
 30
0.0
 70
   128
 71
    66
 72
    68
 73
    63
  0
VERTEX
  5
34D
  8
0
 62
     9
 10
0.0
 20
0.0
 30
0.0
 70
   128
 71
    59
 72
    65
 73
    64
  0
VERTEX
  5
34E
  8
0
 62
     9
 10
0.0
 20
0.0
 30
0.0
 70
   128
 71
    61
 72
    62
 73
    64
  0
VERTEX
  5
34F
  8
0
 62
     9
 10
0.0
 20
0.0
 30
0.0
 70
   128
 71
    60
 72
    57
 73
    58
  0
VERTEX
  5
350
  8
0
 62
     9
 10
0.0
 20
0.0
 30
0.0
 70
   128
 71
    57
 72
    65
 73
    59
  0
VERTEX
  5
351
  8
0
 62
     9
 10
0.0
 20
0.0
 30
0.0
 70
   128
 71
    56
 72
    52
 73
    53
  0
VERTEX
  5
352
  8
0
 62
     9
 10
0.0
 20
0.0
 30
0.0
 70
   128
 71
    54
 72
    52
 73
    60
  0
VERTEX
  5
353
  8
0
 62
     9
 10
0.0
 20
0.0
 30
0.0
 70
   128
 71
    46
 72
    55
 73
    48
  0
VERTEX
  5
354
  8
0
 62
     9
 10
0.0
 20
0.0
 30
0.0
 70
   128
 71
    56
 72
    53
 73
    55
  0
VERTEX
  5
355
  8
0
 62
     9
 10
0.0
 20
0.0
 30
0.0
 70
   128
 71
    47
 72
    48
 73
    51
  0
VERTEX
  5
356
  8
0
 62
     9
 10
0.0
 20
0.0
 30
0.0
 70
   128
 71
    50
 72
    41
 73
    49
  0
VERTEX
  5
357
  8
0
 62
     9
 10
0.0
 20
0.0
 30
0.0
 70
   128
 71
    51
 72
    49
 73
    47
  0
VERTEX
  5
358
  8
0
 62
     9
 10
0.0
 20
0.0
 30
0.0
 70
   128
 71
    40
 72
    41
 73
    50
  0
VERTEX
  5
359
  8
0
 62
     9
 10
0.0
 20
0.0
 30
0.0
 70
   128
 71
    40
 72
    85
 73
    42
  0
VERTEX
  5
35A
  8
0
 62
     9
 10
0.0
 20
0.0
 30
0.0
 70
   128
 71
    85
 72
    43
 73
    44
  0
VERTEX
  5
35B
  8
0
 62
     9
 10
0.0
 20
0.0
 30
0.0
 70
   128
 71
    44
 72
    42
 73
    85
  0
VERTEX
  5
35C
  8
0
 62
     9
 10
0.0
 20
0.0
 30
0.0
 70
   128
 71
    87
 72
    86
 73
    45
  0
VERTEX
  5
35D
  8
0
 62
     9
 10
0.0
 20
0.0
 30
0.0
 70
   128
 71
    87
 72
    45
 73
    43
  0
VERTEX
  5
35E
  8
0
 62
     9
 10
0.0
 20
0.0
 30
0.0
 70
   128
 71
    35
 72
    86
 73
    34
  0
VERTEX
  5
35F
  8
0
 62
     9
 10
0.0
 20
0.0
 30
0.0
 70
   128
 71
    87
 72
    34
 73
    86
  0
VERTEX
  5
360
  8
0
 62
     9
 10
0.0
 20
0.0
 30
0.0
 70
   128
 71
    88
 72
    36
 73
    37
  0
VERTEX
  5
361
  8
0
 62
     9
 10
0.0
 20
0.0
 30
0.0
 70
   128
 71
    35
 72
    36
 73
    88
  0
VERTEX
  5
362
  8
0
 62
     9
 10
0.0
 20
0.0
 30
0.0
 70
   128
 71
    89
 72
    38
 73
    39
  0
VERTEX
  5
363
  8
0
 62
     9
 10
0.0
 20
0.0
 30
0.0
 70
   128
 71
    38
 72
    88
 73
    37
  0
VERTEX
  5
364
  8
0
 62
     9
 10
0.0
 20
0.0
 30
0.0
 70
   128
 71
    30
 72
    28
 73
    89
  0
VERTEX
  5
365
  8
0
 62
     9
 10
0.0
 20
0.0
 30
0.0
 70
   128
 71
    89
 72
    39
 73
    30
  0
VERTEX
  5
366
  8
0
 62
     9
 10
0.0
 20
0.0
 30
0.0
 70
   128
 71
    33
 72
    90
 73
    29
  0
VERTEX
  5
367
  8
0
 62
     9
 10
0.0
 20
0.0
 30
0.0
 70
   128
 71
    90
 72
    28
 73
    29
  0
VERTEX
  5
368
  8
0
 62
     9
 10
0.0
 20
0.0
 30
0.0
 70
   128
 71
    32
 72
    91
 73
    31
  0
VERTEX
  5
369
  8
0
 62
     9
 10
0.0
 20
0.0
 30
0.0
 70
   128
 71
    33
 72
    31
 73
    90
  0
VERTEX
  5
36A
  8
0
 62
     9
 10
0.0
 20
0.0
 30
0.0
 70
   128
 71
    91
 72
    23
 73
    24
  0
VERTEX
  5
36B
  8
0
 62
     9
 10
0.0
 20
0.0
 30
0.0
 70
   128
 71
    23
 72
    91
 73
    32
  0
VERTEX
  5
36C
  8
0
 62
     9
 10
0.0
 20
0.0
 30
0.0
 70
   128
 71
    22
 72
    93
 73
    92
  0
VERTEX
  5
36D
  8
0
 62
     9
 10
0.0
 20
0.0
 30
0.0
 70
   128
 71
    22
 72
    92
 73
    24
  0
VERTEX
  5
36E
  8
0
 62
     9
 10
0.0
 20
0.0
 30
0.0
 70
   128
 71
    25
 72
    26
 73
    93
  0
VERTEX
  5
36F
  8
0
 62
     9
 10
0.0
 20
0.0
 30
0.0
 70
   128
 71
    92
 72
    93
 73
    26
  0
VERTEX
  5
370
  8
0
 62
     9
 10
0.0
 20
0.0
 30
0.0
 70
   128
 71
     3
 72
    27
 73
     2
  0
VERTEX
  5
371
  8
0
 62
     9
 10
0.0
 20
0.0
 30
0.0
 70
   128
 71
    27
 72
    25
 73
     2
  0
VERTEX
  5
372
  8
0
 62
     9
 10
0.0
 20
0.0
 30
0.0
 70
   128
 71
    94
 72
     1
 73
    19
  0
VERTEX
  5
373
  8
0
 62
     9
 10
0.0
 20
0.0
 30
0.0
 70
   128
 71
     3
 72
     1
 73
    94
  0
VERTEX
  5
374
  8
0
 62
     9
 10
0.0
 20
0.0
 30
0.0
 70
   128
 71
    21
 72
    17
 73
    18
  0
VERTEX
  5
375
  8
0
 62
     9
 10
0.0
 20
0.0
 30
0.0
 70
   128
 71
    17
 72
    94
 73
    19
  0
VERTEX
  5
376
  8
0
 62
     9
 10
0.0
 20
0.0
 30
0.0
 70
   128
 71
    20
 72
    12
 73
    15
  0
VERTEX
  5
377
  8
0
 62
     9
 10
0.0
 20
0.0
 30
0.0
 70
   128
 71
    20
 72
    15
 73
    21
  0
VERTEX
  5
378
  8
0
 62
     9
 10
0.0
 20
0.0
 30
0.0
 70
   128
 71
    14
 72
     4
 73
    13
  0
VERTEX
  5
379
  8
0
 62
     9
 10
0.0
 20
0.0
 30
0.0
 70
   128
 71
    13
 72
    16
 73
    11
  0
VERTEX
  5
37A
  8
0
 62
     9
 10
0.0
 20
0.0
 30
0.0
 70
   128
 71
    95
 72
     6
 73
     4
  0
VERTEX
  5
37B
  8
0
 62
     9
 10
0.0
 20
0.0
 30
0.0
 70
   128
 71
    95
 72
     4
 73
    14
  0
VERTEX
  5
37C
  8
0
 62
     9
 10
0.0
 20
0.0
 30
0.0
 70
   128
 71
    96
 72
     8
 73
     5
  0
VERTEX
  5
37D
  8
0
 62
     9
 10
0.0
 20
0.0
 30
0.0
 70
   128
 71
    96
 72
     5
 73
     6
  0
VERTEX
  5
37E
  8
0
 62
     9
 10
0.0
 20
0.0
 30
0.0
 70
   128
 71
     7
 72
    97
 73
     9
  0
VERTEX
  5
37F
  8
0
 62
     9
 10
0.0
 20
0.0
 30
0.0
 70
   128
 71
    96
 72
     7
 73
     8
  0
VERTEX
  5
380
  8
0
 62
     9
 10
0.0
 20
0.0
 30
0.0
 70
   128
 71
    98
 72
     9
 73
    97
  0
VERTEX
  5
381
  8
0
 62
     9
 10
0.0
 20
0.0
 30
0.0
 70
   128
 71
    99
 72
     9
 73
    98
  0
VERTEX
  5
382
  8
0
 62
     9
 10
0.0
 20
0.0
 30
0.0
 70
   128
 71
     5
 72
   100
 73
     4
  0
VERTEX
  5
383
  8
0
 62
     9
 10
0.0
 20
0.0
 30
0.0
 70
   128
 71
     8
 72
   102
 73
   101
  0
VERTEX
  5
384
  8
0
 62
     9
 10
0.0
 20
0.0
 30
0.0
 70
   128
 71
    10
 72
    16
 73
   103
  0
VERTEX
  5
385
  8
0
 62
     9
 10
0.0
 20
0.0
 30
0.0
 70
   128
 71
   105
 72
    13
 73
   104
  0
VERTEX
  5
386
  8
0
 62
     9
 10
0.0
 20
0.0
 30
0.0
 70
   128
 71
   107
 72
    21
 73
   106
  0
VERTEX
  5
387
  8
0
 62
     9
 10
0.0
 20
0.0
 30
0.0
 70
   128
 71
   108
 72
   106
 73
    15
  0
VERTEX
  5
388
  8
0
 62
     9
 10
0.0
 20
0.0
 30
0.0
 70
   128
 71
   110
 72
   109
 73
     3
  0
VERTEX
  5
389
  8
0
 62
     9
 10
0.0
 20
0.0
 30
0.0
 70
   128
 71
   107
 72
   110
 73
    17
  0
VERTEX
  5
38A
  8
0
 62
     9
 10
0.0
 20
0.0
 30
0.0
 70
   128
 71
    26
 72
   111
 73
    92
  0
VERTEX
  5
38B
  8
0
 62
     9
 10
0.0
 20
0.0
 30
0.0
 70
   128
 71
    27
 72
   109
 73
   111
  0
VERTEX
  5
38C
  8
0
 62
     9
 10
0.0
 20
0.0
 30
0.0
 70
   128
 71
    31
 72
    91
 73
   112
  0
VERTEX
  5
38D
  8
0
 62
     9
 10
0.0
 20
0.0
 30
0.0
 70
   128
 71
   112
 72
    24
 73
   113
  0
VERTEX
  5
38E
  8
0
 62
     9
 10
0.0
 20
0.0
 30
0.0
 70
   128
 71
   114
 72
    89
 73
    28
  0
VERTEX
  5
38F
  8
0
 62
     9
 10
0.0
 20
0.0
 30
0.0
 70
   128
 71
   115
 72
   114
 73
    90
  0
VERTEX
  5
390
  8
0
 62
     9
 10
0.0
 20
0.0
 30
0.0
 70
   128
 71
    88
 72
   116
 73
    35
  0
VERTEX
  5
391
  8
0
 62
     9
 10
0.0
 20
0.0
 30
0.0
 70
   128
 71
    38
 72
   117
 73
   116
  0
VERTEX
  5
392
  8
0
 62
     9
 10
0.0
 20
0.0
 30
0.0
 70
   128
 71
   119
 72
    44
 73
   118
  0
VERTEX
  5
393
  8
0
 62
     9
 10
0.0
 20
0.0
 30
0.0
 70
   128
 71
    86
 72
    35
 73
   120
  0
VERTEX
  5
394
  8
0
 62
     9
 10
0.0
 20
0.0
 30
0.0
 70
   128
 71
    41
 72
    42
 73
   121
  0
VERTEX
  5
395
  8
0
 62
     9
 10
0.0
 20
0.0
 30
0.0
 70
   128
 71
   119
 72
    42
 73
    44
  0
VERTEX
  5
396
  8
0
 62
     9
 10
0.0
 20
0.0
 30
0.0
 70
   128
 71
    49
 72
   121
 73
   122
  0
VERTEX
  5
397
  8
0
 62
     9
 10
0.0
 20
0.0
 30
0.0
 70
   128
 71
   121
 72
    49
 73
    41
  0
VERTEX
  5
398
  8
0
 62
     9
 10
0.0
 20
0.0
 30
0.0
 70
   128
 71
    47
 72
   123
 73
    46
  0
VERTEX
  5
399
  8
0
 62
     9
 10
0.0
 20
0.0
 30
0.0
 70
   128
 71
    47
 72
    49
 73
   122
  0
VERTEX
  5
39A
  8
0
 62
     9
 10
0.0
 20
0.0
 30
0.0
 70
   128
 71
   123
 72
   124
 73
    56
  0
VERTEX
  5
39B
  8
0
 62
     9
 10
0.0
 20
0.0
 30
0.0
 70
   128
 71
    56
 72
    46
 73
   123
  0
VERTEX
  5
39C
  8
0
 62
     9
 10
0.0
 20
0.0
 30
0.0
 70
   128
 71
   125
 72
    52
 73
   124
  0
VERTEX
  5
39D
  8
0
 62
     9
 10
0.0
 20
0.0
 30
0.0
 70
   128
 71
    56
 72
   124
 73
    52
  0
VERTEX
  5
39E
  8
0
 62
     9
 10
0.0
 20
0.0
 30
0.0
 70
   128
 71
    52
 72
   126
 73
    60
  0
VERTEX
  5
39F
  8
0
 62
     9
 10
0.0
 20
0.0
 30
0.0
 70
   128
 71
   126
 72
    52
 73
   125
  0
VERTEX
  5
3A0
  8
0
 62
     9
 10
0.0
 20
0.0
 30
0.0
 70
   128
 71
   126
 72
   127
 73
    57
  0
VERTEX
  5
3A1
  8
0
 62
     9
 10
0.0
 20
0.0
 30
0.0
 70
   128
 71
    57
 72
    60
 73
   126
  0
VERTEX
  5
3A2
  8
0
 62
     9
 10
0.0
 20
0.0
 30
0.0
 70
   128
 71
   127
 72
    61
 73
    65
  0
VERTEX
  5
3A3
  8
0
 62
     9
 10
0.0
 20
0.0
 30
0.0
 70
   128
 71
    57
 72
   127
 73
    65
  0
VERTEX
  5
3A4
  8
0
 62
     9
 10
0.0
 20
0.0
 30
0.0
 70
   128
 71
    61
 72
   129
 73
   128
  0
VERTEX
  5
3A5
  8
0
 62
     9
 10
0.0
 20
0.0
 30
0.0
 70
   128
 71
   127
 72
   129
 73
    61
  0
VERTEX
  5
3A6
  8
0
 62
     9
 10
0.0
 20
0.0
 30
0.0
 70
   128
 71
   130
 72
    63
 73
    61
  0
VERTEX
  5
3A7
  8
0
 62
     9
 10
0.0
 20
0.0
 30
0.0
 70
   128
 71
    61
 72
   128
 73
   130
  0
VERTEX
  5
3A8
  8
0
 62
     9
 10
0.0
 20
0.0
 30
0.0
 70
   128
 71
    47
 72
   122
 73
   123
  0
VERTEX
  5
3A9
  8
0
 62
     9
 10
0.0
 20
0.0
 30
0.0
 70
   128
 71
    42
 72
   119
 73
   121
  0
VERTEX
  5
3AA
  8
0
 62
     9
 10
0.0
 20
0.0
 30
0.0
 70
   128
 71
    17
 72
   110
 73
    94
  0
VERTEX
  5
3AB
  8
0
 62
     9
 10
0.0
 20
0.0
 30
0.0
 70
   128
 71
    86
 72
   118
 73
    45
  0
VERTEX
  5
3AC
  8
0
 62
     9
 10
0.0
 20
0.0
 30
0.0
 70
   128
 71
   118
 72
    44
 73
    45
  0
VERTEX
  5
3AD
  8
0
 62
     9
 10
0.0
 20
0.0
 30
0.0
 70
   128
 71
    35
 72
   116
 73
   120
  0
VERTEX
  5
3AE
  8
0
 62
     9
 10
0.0
 20
0.0
 30
0.0
 70
   128
 71
    86
 72
   120
 73
   118
  0
VERTEX
  5
3AF
  8
0
 62
     9
 10
0.0
 20
0.0
 30
0.0
 70
   128
 71
    38
 72
   116
 73
    88
  0
VERTEX
  5
3B0
  8
0
 62
     9
 10
0.0
 20
0.0
 30
0.0
 70
   128
 71
    89
 72
   117
 73
    38
  0
VERTEX
  5
3B1
  8
0
 62
     9
 10
0.0
 20
0.0
 30
0.0
 70
   128
 71
   114
 72
    28
 73
    90
  0
VERTEX
  5
3B2
  8
0
 62
     9
 10
0.0
 20
0.0
 30
0.0
 70
   128
 71
   114
 72
   117
 73
    89
  0
VERTEX
  5
3B3
  8
0
 62
     9
 10
0.0
 20
0.0
 30
0.0
 70
   128
 71
   115
 72
    90
 73
    31
  0
VERTEX
  5
3B4
  8
0
 62
     9
 10
0.0
 20
0.0
 30
0.0
 70
   128
 71
    92
 72
   113
 73
    24
  0
VERTEX
  5
3B5
  8
0
 62
     9
 10
0.0
 20
0.0
 30
0.0
 70
   128
 71
   112
 72
    91
 73
    24
  0
VERTEX
  5
3B6
  8
0
 62
     9
 10
0.0
 20
0.0
 30
0.0
 70
   128
 71
   115
 72
    31
 73
   112
  0
VERTEX
  5
3B7
  8
0
 62
     9
 10
0.0
 20
0.0
 30
0.0
 70
   128
 71
    26
 72
    27
 73
   111
  0
VERTEX
  5
3B8
  8
0
 62
     9
 10
0.0
 20
0.0
 30
0.0
 70
   128
 71
   113
 72
    92
 73
   111
  0
VERTEX
  5
3B9
  8
0
 62
     9
 10
0.0
 20
0.0
 30
0.0
 70
   128
 71
     3
 72
    94
 73
   110
  0
VERTEX
  5
3BA
  8
0
 62
     9
 10
0.0
 20
0.0
 30
0.0
 70
   128
 71
   109
 72
    27
 73
     3
  0
VERTEX
  5
3BB
  8
0
 62
     9
 10
0.0
 20
0.0
 30
0.0
 70
   128
 71
    15
 72
   106
 73
    21
  0
VERTEX
  5
3BC
  8
0
 62
     9
 10
0.0
 20
0.0
 30
0.0
 70
   128
 71
    17
 72
    21
 73
   107
  0
VERTEX
  5
3BD
  8
0
 62
     9
 10
0.0
 20
0.0
 30
0.0
 70
   128
 71
     5
 72
     8
 73
   101
  0
VERTEX
  5
3BE
  8
0
 62
     9
 10
0.0
 20
0.0
 30
0.0
 70
   128
 71
    10
 72
   108
 73
    15
  0
VERTEX
  5
3BF
  8
0
 62
     9
 10
0.0
 20
0.0
 30
0.0
 70
   128
 71
   103
 72
    16
 73
   105
  0
VERTEX
  5
3C0
  8
0
 62
     9
 10
0.0
 20
0.0
 30
0.0
 70
   128
 71
   108
 72
    10
 73
   103
  0
VERTEX
  5
3C1
  8
0
 62
     9
 10
0.0
 20
0.0
 30
0.0
 70
   128
 71
   104
 72
     4
 73
   100
  0
VERTEX
  5
3C2
  8
0
 62
     9
 10
0.0
 20
0.0
 30
0.0
 70
   128
 71
   104
 72
    13
 73
     4
  0
VERTEX
  5
3C3
  8
0
 62
     9
 10
0.0
 20
0.0
 30
0.0
 70
   128
 71
    16
 72
    13
 73
   105
  0
VERTEX
  5
3C4
  8
0
 62
     9
 10
0.0
 20
0.0
 30
0.0
 70
   128
 71
   101
 72
   100
 73
     5
  0
VERTEX
  5
3C5
  8
0
 62
     9
 10
0.0
 20
0.0
 30
0.0
 70
   128
 71
     8
 72
     9
 73
   102
  0
VERTEX
  5
3C6
  8
0
 62
     9
 10
0.0
 20
0.0
 30
0.0
 70
   128
 71
   131
 72
    99
 73
    98
  0
VERTEX
  5
3C7
  8
0
 62
     9
 10
0.0
 20
0.0
 30
0.0
 70
   128
 71
    99
 72
   102
 73
     9
  0
VERTEX
  5
3C8
  8
0
 62
     9
 10
0.0
 20
0.0
 30
0.0
 70
   128
 71
    62
 72
   132
 73
    64
  0
VERTEX
  5
3C9
  8
0
 62
     9
 10
0.0
 20
0.0
 30
0.0
 70
   128
 71
   134
 72
   133
 73
    58
  0
VERTEX
  5
3CA
  8
0
 62
     9
 10
0.0
 20
0.0
 30
0.0
 70
   128
 71
   134
 72
    59
 73
    64
  0
VERTEX
  5
3CB
  8
0
 62
     9
 10
0.0
 20
0.0
 30
0.0
 70
   128
 71
    53
 72
   135
 73
    55
  0
VERTEX
  5
3CC
  8
0
 62
     9
 10
0.0
 20
0.0
 30
0.0
 70
   128
 71
    53
 72
    54
 73
   133
  0
VERTEX
  5
3CD
  8
0
 62
     9
 10
0.0
 20
0.0
 30
0.0
 70
   128
 71
    40
 72
   136
 73
    85
  0
VERTEX
  5
3CE
  8
0
 62
     9
 10
0.0
 20
0.0
 30
0.0
 70
   128
 71
   138
 72
   137
 73
    51
  0
VERTEX
  5
3CF
  8
0
 62
     9
 10
0.0
 20
0.0
 30
0.0
 70
   128
 71
   140
 72
    34
 73
   139
  0
VERTEX
  5
3D0
  8
0
 62
     9
 10
0.0
 20
0.0
 30
0.0
 70
   128
 71
   139
 72
    43
 73
   141
  0
VERTEX
  5
3D1
  8
0
 62
     9
 10
0.0
 20
0.0
 30
0.0
 70
   128
 71
   143
 72
   142
 73
    39
  0
VERTEX
  5
3D2
  8
0
 62
     9
 10
0.0
 20
0.0
 30
0.0
 70
   128
 71
   140
 72
   143
 73
    36
  0
VERTEX
  5
3D3
  8
0
 62
     9
 10
0.0
 20
0.0
 30
0.0
 70
   128
 71
   145
 72
    32
 73
   144
  0
VERTEX
  5
3D4
  8
0
 62
     9
 10
0.0
 20
0.0
 30
0.0
 70
   128
 71
   146
 72
    33
 73
    29
  0
VERTEX
  5
3D5
  8
0
 62
     9
 10
0.0
 20
0.0
 30
0.0
 70
   128
 71
     2
 72
    25
 73
   147
  0
VERTEX
  5
3D6
  8
0
 62
     9
 10
0.0
 20
0.0
 30
0.0
 70
   128
 71
    93
 72
    22
 73
   148
  0
VERTEX
  5
3D7
  8
0
 62
     9
 10
0.0
 20
0.0
 30
0.0
 70
   128
 71
    19
 72
     1
 73
   149
  0
VERTEX
  5
3D8
  8
0
 62
     9
 10
0.0
 20
0.0
 30
0.0
 70
   128
 71
   150
 72
   149
 73
     1
  0
VERTEX
  5
3D9
  8
0
 62
     9
 10
0.0
 20
0.0
 30
0.0
 70
   128
 71
    18
 72
   149
 73
   151
  0
VERTEX
  5
3DA
  8
0
 62
     9
 10
0.0
 20
0.0
 30
0.0
 70
   128
 71
   149
 72
    18
 73
    19
  0
VERTEX
  5
3DB
  8
0
 62
     9
 10
0.0
 20
0.0
 30
0.0
 70
   128
 71
   151
 72
   152
 73
    20
  0
VERTEX
  5
3DC
  8
0
 62
     9
 10
0.0
 20
0.0
 30
0.0
 70
   128
 71
    20
 72
    18
 73
   151
  0
VERTEX
  5
3DD
  8
0
 62
     9
 10
0.0
 20
0.0
 30
0.0
 70
   128
 71
   153
 72
    12
 73
   152
  0
VERTEX
  5
3DE
  8
0
 62
     9
 10
0.0
 20
0.0
 30
0.0
 70
   128
 71
    20
 72
   152
 73
    12
  0
VERTEX
  5
3DF
  8
0
 62
     9
 10
0.0
 20
0.0
 30
0.0
 70
   128
 71
    11
 72
   153
 73
   154
  0
VERTEX
  5
3E0
  8
0
 62
     9
 10
0.0
 20
0.0
 30
0.0
 70
   128
 71
   153
 72
    11
 73
    12
  0
VERTEX
  5
3E1
  8
0
 62
     9
 10
0.0
 20
0.0
 30
0.0
 70
   128
 71
   154
 72
   155
 73
    14
  0
VERTEX
  5
3E2
  8
0
 62
     9
 10
0.0
 20
0.0
 30
0.0
 70
   128
 71
    14
 72
    11
 73
   154
  0
VERTEX
  5
3E3
  8
0
 62
     9
 10
0.0
 20
0.0
 30
0.0
 70
   128
 71
   156
 72
    95
 73
   155
  0
VERTEX
  5
3E4
  8
0
 62
     9
 10
0.0
 20
0.0
 30
0.0
 70
   128
 71
    14
 72
   155
 73
    95
  0
VERTEX
  5
3E5
  8
0
 62
     9
 10
0.0
 20
0.0
 30
0.0
 70
   128
 71
     6
 72
   156
 73
   157
  0
VERTEX
  5
3E6
  8
0
 62
     9
 10
0.0
 20
0.0
 30
0.0
 70
   128
 71
   156
 72
     6
 73
    95
  0
VERTEX
  5
3E7
  8
0
 62
     9
 10
0.0
 20
0.0
 30
0.0
 70
   128
 71
   157
 72
   158
 73
    96
  0
VERTEX
  5
3E8
  8
0
 62
     9
 10
0.0
 20
0.0
 30
0.0
 70
   128
 71
    96
 72
     6
 73
   157
  0
VERTEX
  5
3E9
  8
0
 62
     9
 10
0.0
 20
0.0
 30
0.0
 70
   128
 71
   159
 72
     7
 73
   158
  0
VERTEX
  5
3EA
  8
0
 62
     9
 10
0.0
 20
0.0
 30
0.0
 70
   128
 71
    96
 72
   158
 73
     7
  0
VERTEX
  5
3EB
  8
0
 62
     9
 10
0.0
 20
0.0
 30
0.0
 70
   128
 71
    97
 72
   159
 73
   160
  0
VERTEX
  5
3EC
  8
0
 62
     9
 10
0.0
 20
0.0
 30
0.0
 70
   128
 71
   159
 72
    97
 73
     7
  0
VERTEX
  5
3ED
  8
0
 62
     9
 10
0.0
 20
0.0
 30
0.0
 70
   128
 71
   160
 72
   131
 73
    98
  0
VERTEX
  5
3EE
  8
0
 62
     9
 10
0.0
 20
0.0
 30
0.0
 70
   128
 71
    98
 72
    97
 73
   160
  0
VERTEX
  5
3EF
  8
0
 62
     9
 10
0.0
 20
0.0
 30
0.0
 70
   128
 71
     2
 72
   150
 73
     1
  0
VERTEX
  5
3F0
  8
0
 62
     9
 10
0.0
 20
0.0
 30
0.0
 70
   128
 71
   147
 72
   150
 73
     2
  0
VERTEX
  5
3F1
  8
0
 62
     9
 10
0.0
 20
0.0
 30
0.0
 70
   128
 71
    93
 72
   148
 73
   147
  0
VERTEX
  5
3F2
  8
0
 62
     9
 10
0.0
 20
0.0
 30
0.0
 70
   128
 71
    93
 72
   147
 73
    25
  0
VERTEX
  5
3F3
  8
0
 62
     9
 10
0.0
 20
0.0
 30
0.0
 70
   128
 71
    23
 72
   145
 73
    22
  0
VERTEX
  5
3F4
  8
0
 62
     9
 10
0.0
 20
0.0
 30
0.0
 70
   128
 71
   145
 72
   148
 73
    22
  0
VERTEX
  5
3F5
  8
0
 62
     9
 10
0.0
 20
0.0
 30
0.0
 70
   128
 71
    33
 72
   144
 73
    32
  0
VERTEX
  5
3F6
  8
0
 62
     9
 10
0.0
 20
0.0
 30
0.0
 70
   128
 71
    32
 72
   145
 73
    23
  0
VERTEX
  5
3F7
  8
0
 62
     9
 10
0.0
 20
0.0
 30
0.0
 70
   128
 71
   146
 72
    29
 73
    30
  0
VERTEX
  5
3F8
  8
0
 62
     9
 10
0.0
 20
0.0
 30
0.0
 70
   128
 71
   146
 72
   144
 73
    33
  0
VERTEX
  5
3F9
  8
0
 62
     9
 10
0.0
 20
0.0
 30
0.0
 70
   128
 71
   146
 72
    30
 73
   142
  0
VERTEX
  5
3FA
  8
0
 62
     9
 10
0.0
 20
0.0
 30
0.0
 70
   128
 71
    39
 72
    37
 73
   143
  0
VERTEX
  5
3FB
  8
0
 62
     9
 10
0.0
 20
0.0
 30
0.0
 70
   128
 71
    30
 72
    39
 73
   142
  0
VERTEX
  5
3FC
  8
0
 62
     9
 10
0.0
 20
0.0
 30
0.0
 70
   128
 71
    34
 72
   140
 73
    36
  0
VERTEX
  5
3FD
  8
0
 62
     9
 10
0.0
 20
0.0
 30
0.0
 70
   128
 71
    36
 72
   143
 73
    37
  0
VERTEX
  5
3FE
  8
0
 62
     9
 10
0.0
 20
0.0
 30
0.0
 70
   128
 71
    87
 72
    43
 73
   139
  0
VERTEX
  5
3FF
  8
0
 62
     9
 10
0.0
 20
0.0
 30
0.0
 70
   128
 71
    34
 72
    87
 73
   139
  0
VERTEX
  5
400
  8
0
 62
     9
 10
0.0
 20
0.0
 30
0.0
 70
   128
 71
    85
 72
   136
 73
   141
  0
VERTEX
  5
401
  8
0
 62
     9
 10
0.0
 20
0.0
 30
0.0
 70
   128
 71
    85
 72
   141
 73
    43
  0
VERTEX
  5
402
  8
0
 62
     9
 10
0.0
 20
0.0
 30
0.0
 70
   128
 71
   137
 72
   136
 73
    50
  0
VERTEX
  5
403
  8
0
 62
     9
 10
0.0
 20
0.0
 30
0.0
 70
   128
 71
   136
 72
    40
 73
    50
  0
VERTEX
  5
404
  8
0
 62
     9
 10
0.0
 20
0.0
 30
0.0
 70
   128
 71
    48
 72
   138
 73
    51
  0
VERTEX
  5
405
  8
0
 62
     9
 10
0.0
 20
0.0
 30
0.0
 70
   128
 71
    51
 72
   137
 73
    50
  0
VERTEX
  5
406
  8
0
 62
     9
 10
0.0
 20
0.0
 30
0.0
 70
   128
 71
    55
 72
   135
 73
   138
  0
VERTEX
  5
407
  8
0
 62
     9
 10
0.0
 20
0.0
 30
0.0
 70
   128
 71
   138
 72
    48
 73
    55
  0
VERTEX
  5
408
  8
0
 62
     9
 10
0.0
 20
0.0
 30
0.0
 70
   128
 71
    53
 72
   133
 73
   161
  0
VERTEX
  5
409
  8
0
 62
     9
 10
0.0
 20
0.0
 30
0.0
 70
   128
 71
   161
 72
   135
 73
    53
  0
VERTEX
  5
40A
  8
0
 62
     9
 10
0.0
 20
0.0
 30
0.0
 70
   128
 71
    58
 72
    59
 73
   134
  0
VERTEX
  5
40B
  8
0
 62
     9
 10
0.0
 20
0.0
 30
0.0
 70
   128
 71
   133
 72
    54
 73
    58
  0
VERTEX
  5
40C
  8
0
 62
     9
 10
0.0
 20
0.0
 30
0.0
 70
   128
 71
   134
 72
    64
 73
   162
  0
VERTEX
  5
40D
  8
0
 62
     9
 10
0.0
 20
0.0
 30
0.0
 70
   128
 71
   163
 72
    64
 73
   132
  0
VERTEX
  5
40E
  8
0
 62
     9
 10
0.0
 20
0.0
 30
0.0
 70
   128
 71
    64
 72
   163
 73
   162
  0
VERTEX
  5
40F
  8
0
 62
     9
 10
0.0
 20
0.0
 30
0.0
 70
   128
 71
   164
 72
   111
 73
   109
  0
VERTEX
  5
410
  8
0
 62
     9
 10
0.0
 20
0.0
 30
0.0
 70
   128
 71
   167
 72
   166
 73
   165
  0
VERTEX
  5
411
  8
0
 62
     9
 10
0.0
 20
0.0
 30
0.0
 70
   128
 71
   170
 72
   169
 73
   168
  0
VERTEX
  5
412
  8
0
 62
     9
 10
0.0
 20
0.0
 30
0.0
 70
   128
 71
   171
 72
   167
 73
   169
  0
VERTEX
  5
413
  8
0
 62
     9
 10
0.0
 20
0.0
 30
0.0
 70
   128
 71
   168
 72
   172
 73
   170
  0
VERTEX
  5
414
  8
0
 62
     9
 10
0.0
 20
0.0
 30
0.0
 70
   128
 71
   169
 72
   164
 73
   168
  0
VERTEX
  5
415
  8
0
 62
     9
 10
0.0
 20
0.0
 30
0.0
 70
   128
 71
   169
 72
   117
 73
   114
  0
VERTEX
  5
416
  8
0
 62
     9
 10
0.0
 20
0.0
 30
0.0
 70
   128
 71
   109
 72
   110
 73
   164
  0
VERTEX
  5
417
  8
0
 62
     9
 10
0.0
 20
0.0
 30
0.0
 70
   128
 71
   164
 72
   112
 73
   113
  0
VERTEX
  5
418
  8
0
 62
     9
 10
0.0
 20
0.0
 30
0.0
 70
   128
 71
   164
 72
   113
 73
   111
  0
VERTEX
  5
419
  8
0
 62
     9
 10
0.0
 20
0.0
 30
0.0
 70
   128
 71
   169
 72
   114
 73
   115
  0
VERTEX
  5
41A
  8
0
 62
     9
 10
0.0
 20
0.0
 30
0.0
 70
   128
 71
   164
 72
   115
 73
   112
  0
VERTEX
  5
41B
  8
0
 62
     9
 10
0.0
 20
0.0
 30
0.0
 70
   128
 71
   164
 72
   169
 73
   115
  0
VERTEX
  5
41C
  8
0
 62
     9
 10
0.0
 20
0.0
 30
0.0
 70
   128
 71
   169
 72
   116
 73
   117
  0
VERTEX
  5
41D
  8
0
 62
     9
 10
0.0
 20
0.0
 30
0.0
 70
   128
 71
   169
 72
   170
 73
   171
  0
VERTEX
  5
41E
  8
0
 62
     9
 10
0.0
 20
0.0
 30
0.0
 70
   128
 71
   116
 72
   169
 73
   120
  0
VERTEX
  5
41F
  8
0
 62
     9
 10
0.0
 20
0.0
 30
0.0
 70
   128
 71
   121
 72
   119
 73
   169
  0
VERTEX
  5
420
  8
0
 62
     9
 10
0.0
 20
0.0
 30
0.0
 70
   128
 71
   169
 72
   119
 73
   118
  0
VERTEX
  5
421
  8
0
 62
     9
 10
0.0
 20
0.0
 30
0.0
 70
   128
 71
   122
 72
   169
 73
   165
  0
VERTEX
  5
422
  8
0
 62
     9
 10
0.0
 20
0.0
 30
0.0
 70
   128
 71
   169
 72
   122
 73
   121
  0
VERTEX
  5
423
  8
0
 62
     9
 10
0.0
 20
0.0
 30
0.0
 70
   128
 71
   123
 72
   165
 73
   124
  0
VERTEX
  5
424
  8
0
 62
     9
 10
0.0
 20
0.0
 30
0.0
 70
   128
 71
   123
 72
   122
 73
   165
  0
VERTEX
  5
425
  8
0
 62
     9
 10
0.0
 20
0.0
 30
0.0
 70
   128
 71
   125
 72
   165
 73
   126
  0
VERTEX
  5
426
  8
0
 62
     9
 10
0.0
 20
0.0
 30
0.0
 70
   128
 71
   125
 72
   124
 73
   165
  0
VERTEX
  5
427
  8
0
 62
     9
 10
0.0
 20
0.0
 30
0.0
 70
   128
 71
   126
 72
   165
 73
   127
  0
VERTEX
  5
428
  8
0
 62
     9
 10
0.0
 20
0.0
 30
0.0
 70
   128
 71
   120
 72
   169
 73
   118
  0
VERTEX
  5
429
  8
0
 62
     9
 10
0.0
 20
0.0
 30
0.0
 70
   128
 71
   165
 72
   169
 73
   167
  0
VERTEX
  5
42A
  8
0
 62
     9
 10
0.0
 20
0.0
 30
0.0
 70
   128
 71
   174
 72
   173
 73
   104
  0
VERTEX
  5
42B
  8
0
 62
     9
 10
0.0
 20
0.0
 30
0.0
 70
   128
 71
   177
 72
   176
 73
   175
  0
VERTEX
  5
42C
  8
0
 62
     9
 10
0.0
 20
0.0
 30
0.0
 70
   128
 71
   179
 72
   177
 73
   178
  0
VERTEX
  5
42D
  8
0
 62
     9
 10
0.0
 20
0.0
 30
0.0
 70
   128
 71
   168
 72
   180
 73
   172
  0
VERTEX
  5
42E
  8
0
 62
     9
 10
0.0
 20
0.0
 30
0.0
 70
   128
 71
   183
 72
   182
 73
   181
  0
VERTEX
  5
42F
  8
0
 62
     9
 10
0.0
 20
0.0
 30
0.0
 70
   128
 71
   183
 72
   185
 73
   184
  0
VERTEX
  5
430
  8
0
 62
     9
 10
0.0
 20
0.0
 30
0.0
 70
   128
 71
   188
 72
   187
 73
   186
  0
VERTEX
  5
431
  8
0
 62
     9
 10
0.0
 20
0.0
 30
0.0
 70
   128
 71
   191
 72
   190
 73
   189
  0
VERTEX
  5
432
  8
0
 62
     9
 10
0.0
 20
0.0
 30
0.0
 70
   128
 71
   194
 72
   193
 73
   192
  0
VERTEX
  5
433
  8
0
 62
     9
 10
0.0
 20
0.0
 30
0.0
 70
   128
 71
   197
 72
   196
 73
   195
  0
VERTEX
  5
434
  8
0
 62
     9
 10
0.0
 20
0.0
 30
0.0
 70
   128
 71
   192
 72
    99
 73
   194
  0
VERTEX
  5
435
  8
0
 62
     9
 10
0.0
 20
0.0
 30
0.0
 70
   128
 71
   102
 72
    99
 73
   192
  0
VERTEX
  5
436
  8
0
 62
     9
 10
0.0
 20
0.0
 30
0.0
 70
   128
 71
    99
 72
   131
 73
   194
  0
VERTEX
  5
437
  8
0
 62
     9
 10
0.0
 20
0.0
 30
0.0
 70
   128
 71
   193
 72
   197
 73
   195
  0
VERTEX
  5
438
  8
0
 62
     9
 10
0.0
 20
0.0
 30
0.0
 70
   128
 71
   200
 72
   199
 73
   198
  0
VERTEX
  5
439
  8
0
 62
     9
 10
0.0
 20
0.0
 30
0.0
 70
   128
 71
   187
 72
   195
 73
   186
  0
VERTEX
  5
43A
  8
0
 62
     9
 10
0.0
 20
0.0
 30
0.0
 70
   128
 71
   101
 72
   187
 73
   188
  0
VERTEX
  5
43B
  8
0
 62
     9
 10
0.0
 20
0.0
 30
0.0
 70
   128
 71
   201
 72
   173
 73
   174
  0
VERTEX
  5
43C
  8
0
 62
     9
 10
0.0
 20
0.0
 30
0.0
 70
   128
 71
   200
 72
   201
 73
   174
  0
VERTEX
  5
43D
  8
0
 62
     9
 10
0.0
 20
0.0
 30
0.0
 70
   128
 71
   189
 72
   202
 73
   103
  0
VERTEX
  5
43E
  8
0
 62
     9
 10
0.0
 20
0.0
 30
0.0
 70
   128
 71
   204
 72
   191
 73
   203
  0
VERTEX
  5
43F
  8
0
 62
     9
 10
0.0
 20
0.0
 30
0.0
 70
   128
 71
   106
 72
   184
 73
   205
  0
VERTEX
  5
440
  8
0
 62
     9
 10
0.0
 20
0.0
 30
0.0
 70
   128
 71
   202
 72
   189
 73
   190
  0
VERTEX
  5
441
  8
0
 62
     9
 10
0.0
 20
0.0
 30
0.0
 70
   128
 71
   175
 72
   176
 73
   164
  0
VERTEX
  5
442
  8
0
 62
     9
 10
0.0
 20
0.0
 30
0.0
 70
   128
 71
   205
 72
   184
 73
   185
  0
VERTEX
  5
443
  8
0
 62
     9
 10
0.0
 20
0.0
 30
0.0
 70
   128
 71
   110
 72
   175
 73
   164
  0
VERTEX
  5
444
  8
0
 62
     9
 10
0.0
 20
0.0
 30
0.0
 70
   128
 71
   187
 72
   101
 73
   102
  0
VERTEX
  5
445
  8
0
 62
     9
 10
0.0
 20
0.0
 30
0.0
 70
   128
 71
   195
 72
   192
 73
   193
  0
VERTEX
  5
446
  8
0
 62
     9
 10
0.0
 20
0.0
 30
0.0
 70
   128
 71
   187
 72
   102
 73
   192
  0
VERTEX
  5
447
  8
0
 62
     9
 10
0.0
 20
0.0
 30
0.0
 70
   128
 71
   186
 72
   195
 73
   196
  0
VERTEX
  5
448
  8
0
 62
     9
 10
0.0
 20
0.0
 30
0.0
 70
   128
 71
   195
 72
   187
 73
   192
  0
VERTEX
  5
449
  8
0
 62
     9
 10
0.0
 20
0.0
 30
0.0
 70
   128
 71
   188
 72
   100
 73
   101
  0
VERTEX
  5
44A
  8
0
 62
     9
 10
0.0
 20
0.0
 30
0.0
 70
   128
 71
   200
 72
   186
 73
   199
  0
VERTEX
  5
44B
  8
0
 62
     9
 10
0.0
 20
0.0
 30
0.0
 70
   128
 71
   196
 72
   199
 73
   186
  0
VERTEX
  5
44C
  8
0
 62
     9
 10
0.0
 20
0.0
 30
0.0
 70
   128
 71
   174
 72
   104
 73
   100
  0
VERTEX
  5
44D
  8
0
 62
     9
 10
0.0
 20
0.0
 30
0.0
 70
   128
 71
   200
 72
   188
 73
   186
  0
VERTEX
  5
44E
  8
0
 62
     9
 10
0.0
 20
0.0
 30
0.0
 70
   128
 71
   174
 72
   100
 73
   188
  0
VERTEX
  5
44F
  8
0
 62
     9
 10
0.0
 20
0.0
 30
0.0
 70
   128
 71
   201
 72
   200
 73
   198
  0
VERTEX
  5
450
  8
0
 62
     9
 10
0.0
 20
0.0
 30
0.0
 70
   128
 71
   200
 72
   174
 73
   188
  0
VERTEX
  5
451
  8
0
 62
     9
 10
0.0
 20
0.0
 30
0.0
 70
   128
 71
   173
 72
   105
 73
   104
  0
VERTEX
  5
452
  8
0
 62
     9
 10
0.0
 20
0.0
 30
0.0
 70
   128
 71
   191
 72
   201
 73
   203
  0
VERTEX
  5
453
  8
0
 62
     9
 10
0.0
 20
0.0
 30
0.0
 70
   128
 71
   198
 72
   203
 73
   201
  0
VERTEX
  5
454
  8
0
 62
     9
 10
0.0
 20
0.0
 30
0.0
 70
   128
 71
   189
 72
   103
 73
   105
  0
VERTEX
  5
455
  8
0
 62
     9
 10
0.0
 20
0.0
 30
0.0
 70
   128
 71
   191
 72
   173
 73
   201
  0
VERTEX
  5
456
  8
0
 62
     9
 10
0.0
 20
0.0
 30
0.0
 70
   128
 71
   189
 72
   105
 73
   173
  0
VERTEX
  5
457
  8
0
 62
     9
 10
0.0
 20
0.0
 30
0.0
 70
   128
 71
   190
 72
   191
 73
   204
  0
VERTEX
  5
458
  8
0
 62
     9
 10
0.0
 20
0.0
 30
0.0
 70
   128
 71
   191
 72
   189
 73
   173
  0
VERTEX
  5
459
  8
0
 62
     9
 10
0.0
 20
0.0
 30
0.0
 70
   128
 71
   202
 72
   108
 73
   103
  0
VERTEX
  5
45A
  8
0
 62
     9
 10
0.0
 20
0.0
 30
0.0
 70
   128
 71
   183
 72
   190
 73
   182
  0
VERTEX
  5
45B
  8
0
 62
     9
 10
0.0
 20
0.0
 30
0.0
 70
   128
 71
   204
 72
   182
 73
   190
  0
VERTEX
  5
45C
  8
0
 62
     9
 10
0.0
 20
0.0
 30
0.0
 70
   128
 71
   184
 72
   106
 73
   108
  0
VERTEX
  5
45D
  8
0
 62
     9
 10
0.0
 20
0.0
 30
0.0
 70
   128
 71
   183
 72
   202
 73
   190
  0
VERTEX
  5
45E
  8
0
 62
     9
 10
0.0
 20
0.0
 30
0.0
 70
   128
 71
   184
 72
   108
 73
   202
  0
VERTEX
  5
45F
  8
0
 62
     9
 10
0.0
 20
0.0
 30
0.0
 70
   128
 71
   185
 72
   183
 73
   181
  0
VERTEX
  5
460
  8
0
 62
     9
 10
0.0
 20
0.0
 30
0.0
 70
   128
 71
   183
 72
   184
 73
   202
  0
VERTEX
  5
461
  8
0
 62
     9
 10
0.0
 20
0.0
 30
0.0
 70
   128
 71
   205
 72
   107
 73
   106
  0
VERTEX
  5
462
  8
0
 62
     9
 10
0.0
 20
0.0
 30
0.0
 70
   128
 71
   177
 72
   185
 73
   178
  0
VERTEX
  5
463
  8
0
 62
     9
 10
0.0
 20
0.0
 30
0.0
 70
   128
 71
   181
 72
   178
 73
   185
  0
VERTEX
  5
464
  8
0
 62
     9
 10
0.0
 20
0.0
 30
0.0
 70
   128
 71
   110
 72
   107
 73
   175
  0
VERTEX
  5
465
  8
0
 62
     9
 10
0.0
 20
0.0
 30
0.0
 70
   128
 71
   177
 72
   205
 73
   185
  0
VERTEX
  5
466
  8
0
 62
     9
 10
0.0
 20
0.0
 30
0.0
 70
   128
 71
   176
 72
   168
 73
   164
  0
VERTEX
  5
467
  8
0
 62
     9
 10
0.0
 20
0.0
 30
0.0
 70
   128
 71
   176
 72
   177
 73
   179
  0
VERTEX
  5
468
  8
0
 62
     9
 10
0.0
 20
0.0
 30
0.0
 70
   128
 71
   175
 72
   107
 73
   205
  0
VERTEX
  5
469
  8
0
 62
     9
 10
0.0
 20
0.0
 30
0.0
 70
   128
 71
   175
 72
   205
 73
   177
  0
VERTEX
  5
46A
  8
0
 62
     9
 10
0.0
 20
0.0
 30
0.0
 70
   128
 71
   176
 72
   180
 73
   168
  0
VERTEX
  5
46B
  8
0
 62
     9
 10
0.0
 20
0.0
 30
0.0
 70
   128
 71
   179
 72
   180
 73
   176
  0
VERTEX
  5
46C
  8
0
 62
     9
 10
0.0
 20
0.0
 30
0.0
 70
   128
 71
   208
 72
   207
 73
   206
  0
VERTEX
  5
46D
  8
0
 62
     9
 10
0.0
 20
0.0
 30
0.0
 70
   128
 71
   211
 72
   210
 73
   209
  0
VERTEX
  5
46E
  8
0
 62
     9
 10
0.0
 20
0.0
 30
0.0
 70
   128
 71
   210
 72
   211
 73
   212
  0
VERTEX
  5
46F
  8
0
 62
     9
 10
0.0
 20
0.0
 30
0.0
 70
   128
 71
   193
 72
   212
 73
   197
  0
VERTEX
  5
470
  8
0
 62
     9
 10
0.0
 20
0.0
 30
0.0
 70
   128
 71
   159
 72
   214
 73
   213
  0
VERTEX
  5
471
  8
0
 62
     9
 10
0.0
 20
0.0
 30
0.0
 70
   128
 71
   217
 72
   216
 73
   215
  0
VERTEX
  5
472
  8
0
 62
     9
 10
0.0
 20
0.0
 30
0.0
 70
   128
 71
   154
 72
   219
 73
   218
  0
VERTEX
  5
473
  8
0
 62
     9
 10
0.0
 20
0.0
 30
0.0
 70
   128
 71
   221
 72
   220
 73
   157
  0
VERTEX
  5
474
  8
0
 62
     9
 10
0.0
 20
0.0
 30
0.0
 70
   128
 71
   149
 72
   222
 73
   151
  0
VERTEX
  5
475
  8
0
 62
     9
 10
0.0
 20
0.0
 30
0.0
 70
   128
 71
   225
 72
   224
 73
   223
  0
VERTEX
  5
476
  8
0
 62
     9
 10
0.0
 20
0.0
 30
0.0
 70
   128
 71
   222
 72
   226
 73
   151
  0
VERTEX
  5
477
  8
0
 62
     9
 10
0.0
 20
0.0
 30
0.0
 70
   128
 71
   226
 72
   152
 73
   151
  0
VERTEX
  5
478
  8
0
 62
     9
 10
0.0
 20
0.0
 30
0.0
 70
   128
 71
   227
 72
   223
 73
   226
  0
VERTEX
  5
479
  8
0
 62
     9
 10
0.0
 20
0.0
 30
0.0
 70
   128
 71
   227
 72
   228
 73
   223
  0
VERTEX
  5
47A
  8
0
 62
     9
 10
0.0
 20
0.0
 30
0.0
 70
   128
 71
   206
 72
   230
 73
   229
  0
VERTEX
  5
47B
  8
0
 62
     9
 10
0.0
 20
0.0
 30
0.0
 70
   128
 71
   219
 72
   153
 73
   231
  0
VERTEX
  5
47C
  8
0
 62
     9
 10
0.0
 20
0.0
 30
0.0
 70
   128
 71
   224
 72
   232
 73
   230
  0
VERTEX
  5
47D
  8
0
 62
     9
 10
0.0
 20
0.0
 30
0.0
 70
   128
 71
   233
 72
   221
 73
   156
  0
VERTEX
  5
47E
  8
0
 62
     9
 10
0.0
 20
0.0
 30
0.0
 70
   128
 71
   218
 72
   233
 73
   155
  0
VERTEX
  5
47F
  8
0
 62
     9
 10
0.0
 20
0.0
 30
0.0
 70
   128
 71
   235
 72
   215
 73
   234
  0
VERTEX
  5
480
  8
0
 62
     9
 10
0.0
 20
0.0
 30
0.0
 70
   128
 71
   236
 72
   234
 73
   207
  0
VERTEX
  5
481
  8
0
 62
     9
 10
0.0
 20
0.0
 30
0.0
 70
   128
 71
   237
 72
   209
 73
   216
  0
VERTEX
  5
482
  8
0
 62
     9
 10
0.0
 20
0.0
 30
0.0
 70
   128
 71
   214
 72
   158
 73
   220
  0
VERTEX
  5
483
  8
0
 62
     9
 10
0.0
 20
0.0
 30
0.0
 70
   128
 71
   210
 72
   193
 73
   194
  0
VERTEX
  5
484
  8
0
 62
     9
 10
0.0
 20
0.0
 30
0.0
 70
   128
 71
   209
 72
   210
 73
   238
  0
VERTEX
  5
485
  8
0
 62
     9
 10
0.0
 20
0.0
 30
0.0
 70
   128
 71
   131
 72
   238
 73
   194
  0
VERTEX
  5
486
  8
0
 62
     9
 10
0.0
 20
0.0
 30
0.0
 70
   128
 71
   231
 72
   226
 73
   223
  0
VERTEX
  5
487
  8
0
 62
     9
 10
0.0
 20
0.0
 30
0.0
 70
   128
 71
   227
 72
   226
 73
   222
  0
VERTEX
  5
488
  8
0
 62
     9
 10
0.0
 20
0.0
 30
0.0
 70
   128
 71
   231
 72
   152
 73
   226
  0
VERTEX
  5
489
  8
0
 62
     9
 10
0.0
 20
0.0
 30
0.0
 70
   128
 71
   225
 72
   223
 73
   228
  0
VERTEX
  5
48A
  8
0
 62
     9
 10
0.0
 20
0.0
 30
0.0
 70
   128
 71
   231
 72
   153
 73
   152
  0
VERTEX
  5
48B
  8
0
 62
     9
 10
0.0
 20
0.0
 30
0.0
 70
   128
 71
   219
 72
   231
 73
   224
  0
VERTEX
  5
48C
  8
0
 62
     9
 10
0.0
 20
0.0
 30
0.0
 70
   128
 71
   232
 72
   224
 73
   225
  0
VERTEX
  5
48D
  8
0
 62
     9
 10
0.0
 20
0.0
 30
0.0
 70
   128
 71
   224
 72
   231
 73
   223
  0
VERTEX
  5
48E
  8
0
 62
     9
 10
0.0
 20
0.0
 30
0.0
 70
   128
 71
   219
 72
   154
 73
   153
  0
VERTEX
  5
48F
  8
0
 62
     9
 10
0.0
 20
0.0
 30
0.0
 70
   128
 71
   218
 72
   219
 73
   230
  0
VERTEX
  5
490
  8
0
 62
     9
 10
0.0
 20
0.0
 30
0.0
 70
   128
 71
   229
 72
   230
 73
   232
  0
VERTEX
  5
491
  8
0
 62
     9
 10
0.0
 20
0.0
 30
0.0
 70
   128
 71
   230
 72
   219
 73
   224
  0
VERTEX
  5
492
  8
0
 62
     9
 10
0.0
 20
0.0
 30
0.0
 70
   128
 71
   218
 72
   155
 73
   154
  0
VERTEX
  5
493
  8
0
 62
     9
 10
0.0
 20
0.0
 30
0.0
 70
   128
 71
   233
 72
   218
 73
   206
  0
VERTEX
  5
494
  8
0
 62
     9
 10
0.0
 20
0.0
 30
0.0
 70
   128
 71
   208
 72
   206
 73
   229
  0
VERTEX
  5
495
  8
0
 62
     9
 10
0.0
 20
0.0
 30
0.0
 70
   128
 71
   206
 72
   218
 73
   230
  0
VERTEX
  5
496
  8
0
 62
     9
 10
0.0
 20
0.0
 30
0.0
 70
   128
 71
   233
 72
   156
 73
   155
  0
VERTEX
  5
497
  8
0
 62
     9
 10
0.0
 20
0.0
 30
0.0
 70
   128
 71
   221
 72
   233
 73
   207
  0
VERTEX
  5
498
  8
0
 62
     9
 10
0.0
 20
0.0
 30
0.0
 70
   128
 71
   236
 72
   207
 73
   208
  0
VERTEX
  5
499
  8
0
 62
     9
 10
0.0
 20
0.0
 30
0.0
 70
   128
 71
   207
 72
   233
 73
   206
  0
VERTEX
  5
49A
  8
0
 62
     9
 10
0.0
 20
0.0
 30
0.0
 70
   128
 71
   221
 72
   157
 73
   156
  0
VERTEX
  5
49B
  8
0
 62
     9
 10
0.0
 20
0.0
 30
0.0
 70
   128
 71
   220
 72
   221
 73
   234
  0
VERTEX
  5
49C
  8
0
 62
     9
 10
0.0
 20
0.0
 30
0.0
 70
   128
 71
   235
 72
   234
 73
   236
  0
VERTEX
  5
49D
  8
0
 62
     9
 10
0.0
 20
0.0
 30
0.0
 70
   128
 71
   234
 72
   221
 73
   207
  0
VERTEX
  5
49E
  8
0
 62
     9
 10
0.0
 20
0.0
 30
0.0
 70
   128
 71
   220
 72
   158
 73
   157
  0
VERTEX
  5
49F
  8
0
 62
     9
 10
0.0
 20
0.0
 30
0.0
 70
   128
 71
   214
 72
   220
 73
   215
  0
VERTEX
  5
4A0
  8
0
 62
     9
 10
0.0
 20
0.0
 30
0.0
 70
   128
 71
   217
 72
   215
 73
   235
  0
VERTEX
  5
4A1
  8
0
 62
     9
 10
0.0
 20
0.0
 30
0.0
 70
   128
 71
   215
 72
   220
 73
   234
  0
VERTEX
  5
4A2
  8
0
 62
     9
 10
0.0
 20
0.0
 30
0.0
 70
   128
 71
   214
 72
   159
 73
   158
  0
VERTEX
  5
4A3
  8
0
 62
     9
 10
0.0
 20
0.0
 30
0.0
 70
   128
 71
   213
 72
   214
 73
   216
  0
VERTEX
  5
4A4
  8
0
 62
     9
 10
0.0
 20
0.0
 30
0.0
 70
   128
 71
   237
 72
   216
 73
   217
  0
VERTEX
  5
4A5
  8
0
 62
     9
 10
0.0
 20
0.0
 30
0.0
 70
   128
 71
   216
 72
   214
 73
   215
  0
VERTEX
  5
4A6
  8
0
 62
     9
 10
0.0
 20
0.0
 30
0.0
 70
   128
 71
   213
 72
   160
 73
   159
  0
VERTEX
  5
4A7
  8
0
 62
     9
 10
0.0
 20
0.0
 30
0.0
 70
   128
 71
   131
 72
   160
 73
   238
  0
VERTEX
  5
4A8
  8
0
 62
     9
 10
0.0
 20
0.0
 30
0.0
 70
   128
 71
   211
 72
   209
 73
   237
  0
VERTEX
  5
4A9
  8
0
 62
     9
 10
0.0
 20
0.0
 30
0.0
 70
   128
 71
   209
 72
   213
 73
   216
  0
VERTEX
  5
4AA
  8
0
 62
     9
 10
0.0
 20
0.0
 30
0.0
 70
   128
 71
   238
 72
   160
 73
   213
  0
VERTEX
  5
4AB
  8
0
 62
     9
 10
0.0
 20
0.0
 30
0.0
 70
   128
 71
   238
 72
   213
 73
   209
  0
VERTEX
  5
4AC
  8
0
 62
     9
 10
0.0
 20
0.0
 30
0.0
 70
   128
 71
   210
 72
   212
 73
   193
  0
VERTEX
  5
4AD
  8
0
 62
     9
 10
0.0
 20
0.0
 30
0.0
 70
   128
 71
   238
 72
   210
 73
   194
  0
VERTEX
  5
4AE
  8
0
 62
     9
 10
0.0
 20
0.0
 30
0.0
 70
   128
 71
   241
 72
   240
 73
   239
  0
VERTEX
  5
4AF
  8
0
 62
     9
 10
0.0
 20
0.0
 30
0.0
 70
   128
 71
   240
 72
   134
 73
   242
  0
VERTEX
  5
4B0
  8
0
 62
     9
 10
0.0
 20
0.0
 30
0.0
 70
   128
 71
   134
 72
   138
 73
   135
  0
VERTEX
  5
4B1
  8
0
 62
     9
 10
0.0
 20
0.0
 30
0.0
 70
   128
 71
   242
 72
   134
 73
   243
  0
VERTEX
  5
4B2
  8
0
 62
     9
 10
0.0
 20
0.0
 30
0.0
 70
   128
 71
   161
 72
   133
 73
   134
  0
VERTEX
  5
4B3
  8
0
 62
     9
 10
0.0
 20
0.0
 30
0.0
 70
   128
 71
   161
 72
   134
 73
   135
  0
VERTEX
  5
4B4
  8
0
 62
     9
 10
0.0
 20
0.0
 30
0.0
 70
   128
 71
   136
 72
   137
 73
   240
  0
VERTEX
  5
4B5
  8
0
 62
     9
 10
0.0
 20
0.0
 30
0.0
 70
   128
 71
   134
 72
   137
 73
   138
  0
VERTEX
  5
4B6
  8
0
 62
     9
 10
0.0
 20
0.0
 30
0.0
 70
   128
 71
   139
 72
   141
 73
   240
  0
VERTEX
  5
4B7
  8
0
 62
     9
 10
0.0
 20
0.0
 30
0.0
 70
   128
 71
   240
 72
   141
 73
   136
  0
VERTEX
  5
4B8
  8
0
 62
     9
 10
0.0
 20
0.0
 30
0.0
 70
   128
 71
   143
 72
   140
 73
   240
  0
VERTEX
  5
4B9
  8
0
 62
     9
 10
0.0
 20
0.0
 30
0.0
 70
   128
 71
   240
 72
   140
 73
   139
  0
VERTEX
  5
4BA
  8
0
 62
     9
 10
0.0
 20
0.0
 30
0.0
 70
   128
 71
   146
 72
   142
 73
   240
  0
VERTEX
  5
4BB
  8
0
 62
     9
 10
0.0
 20
0.0
 30
0.0
 70
   128
 71
   227
 72
   222
 73
   240
  0
VERTEX
  5
4BC
  8
0
 62
     9
 10
0.0
 20
0.0
 30
0.0
 70
   128
 71
   146
 72
   240
 73
   144
  0
VERTEX
  5
4BD
  8
0
 62
     9
 10
0.0
 20
0.0
 30
0.0
 70
   128
 71
   143
 72
   240
 73
   142
  0
VERTEX
  5
4BE
  8
0
 62
     9
 10
0.0
 20
0.0
 30
0.0
 70
   128
 71
   222
 72
   145
 73
   144
  0
VERTEX
  5
4BF
  8
0
 62
     9
 10
0.0
 20
0.0
 30
0.0
 70
   128
 71
   144
 72
   240
 73
   222
  0
VERTEX
  5
4C0
  8
0
 62
     9
 10
0.0
 20
0.0
 30
0.0
 70
   128
 71
   222
 72
   147
 73
   148
  0
VERTEX
  5
4C1
  8
0
 62
     9
 10
0.0
 20
0.0
 30
0.0
 70
   128
 71
   145
 72
   222
 73
   148
  0
VERTEX
  5
4C2
  8
0
 62
     9
 10
0.0
 20
0.0
 30
0.0
 70
   128
 71
   150
 72
   147
 73
   222
  0
VERTEX
  5
4C3
  8
0
 62
     9
 10
0.0
 20
0.0
 30
0.0
 70
   128
 71
   241
 72
   227
 73
   240
  0
VERTEX
  5
4C4
  8
0
 62
     9
 10
0.0
 20
0.0
 30
0.0
 70
   128
 71
   222
 72
   149
 73
   150
  0
VERTEX
  5
4C5
  8
0
 62
     9
 10
0.0
 20
0.0
 30
0.0
 70
   128
 71
   228
 72
   227
 73
   241
  0
VERTEX
  5
4C6
  8
0
 62
     9
 10
0.0
 20
0.0
 30
0.0
 70
   128
 71
   239
 72
   240
 73
   242
  0
VERTEX
  5
4C7
  8
0
 62
     9
 10
0.0
 20
0.0
 30
0.0
 70
   128
 71
   134
 72
   240
 73
   137
  0
VERTEX
  5
4C8
  8
0
 62
     9
 10
0.0
 20
0.0
 30
0.0
 70
   128
 71
   127
 72
   165
 73
   129
  0
VERTEX
  5
4C9
  8
0
 62
     9
 10
0.0
 20
0.0
 30
0.0
 70
   128
 71
   246
 72
   245
 73
   244
  0
VERTEX
  5
4CA
  8
0
 62
     9
 10
0.0
 20
0.0
 30
0.0
 70
   128
 71
   249
 72
   248
 73
   247
  0
VERTEX
  5
4CB
  8
0
 62
     9
 10
0.0
 20
0.0
 30
0.0
 70
   128
 71
   248
 72
   251
 73
   250
  0
VERTEX
  5
4CC
  8
0
 62
     9
 10
0.0
 20
0.0
 30
0.0
 70
   128
 71
   228
 72
   253
 73
   252
  0
VERTEX
  5
4CD
  8
0
 62
     9
 10
0.0
 20
0.0
 30
0.0
 70
   128
 71
   241
 72
   239
 73
   244
  0
VERTEX
  5
4CE
  8
0
 62
     9
 10
0.0
 20
0.0
 30
0.0
 70
   128
 71
   255
 72
   249
 73
   254
  0
VERTEX
  5
4CF
  8
0
 62
     9
 10
0.0
 20
0.0
 30
0.0
 70
   128
 71
   228
 72
   241
 73
   253
  0
VERTEX
  5
4D0
  8
0
 62
     9
 10
0.0
 20
0.0
 30
0.0
 70
   128
 71
   241
 72
   244
 73
   253
  0
VERTEX
  5
4D1
  8
0
 62
     9
 10
0.0
 20
0.0
 30
0.0
 70
   128
 71
   256
 72
   246
 73
   242
  0
VERTEX
  5
4D2
  8
0
 62
     9
 10
0.0
 20
0.0
 30
0.0
 70
   128
 71
   239
 72
   246
 73
   244
  0
VERTEX
  5
4D3
  8
0
 62
     9
 10
0.0
 20
0.0
 30
0.0
 70
   128
 71
   258
 72
   245
 73
   257
  0
VERTEX
  5
4D4
  8
0
 62
     9
 10
0.0
 20
0.0
 30
0.0
 70
   128
 71
   243
 72
   256
 73
   242
  0
VERTEX
  5
4D5
  8
0
 62
     9
 10
0.0
 20
0.0
 30
0.0
 70
   128
 71
   251
 72
   249
 73
   259
  0
VERTEX
  5
4D6
  8
0
 62
     9
 10
0.0
 20
0.0
 30
0.0
 70
   128
 71
   260
 72
   258
 73
   248
  0
VERTEX
  5
4D7
  8
0
 62
     9
 10
0.0
 20
0.0
 30
0.0
 70
   128
 71
   255
 72
   261
 73
   259
  0
VERTEX
  5
4D8
  8
0
 62
     9
 10
0.0
 20
0.0
 30
0.0
 70
   128
 71
   262
 72
   261
 73
   255
  0
VERTEX
  5
4D9
  8
0
 62
     9
 10
0.0
 20
0.0
 30
0.0
 70
   128
 71
   255
 72
   254
 73
   263
  0
VERTEX
  5
4DA
  8
0
 62
     9
 10
0.0
 20
0.0
 30
0.0
 70
   128
 71
   265
 72
   261
 73
   264
  0
VERTEX
  5
4DB
  8
0
 62
     9
 10
0.0
 20
0.0
 30
0.0
 70
   128
 71
   262
 72
   264
 73
   261
  0
VERTEX
  5
4DC
  8
0
 62
     9
 10
0.0
 20
0.0
 30
0.0
 70
   128
 71
   265
 72
   264
 73
   266
  0
VERTEX
  5
4DD
  8
0
 62
     9
 10
0.0
 20
0.0
 30
0.0
 70
   128
 71
   250
 72
   267
 73
   252
  0
VERTEX
  5
4DE
  8
0
 62
     9
 10
0.0
 20
0.0
 30
0.0
 70
   128
 71
   244
 72
   245
 73
   260
  0
VERTEX
  5
4DF
  8
0
 62
     9
 10
0.0
 20
0.0
 30
0.0
 70
   128
 71
   260
 72
   250
 73
   253
  0
VERTEX
  5
4E0
  8
0
 62
     9
 10
0.0
 20
0.0
 30
0.0
 70
   128
 71
   246
 72
   268
 73
   245
  0
VERTEX
  5
4E1
  8
0
 62
     9
 10
0.0
 20
0.0
 30
0.0
 70
   128
 71
   268
 72
   246
 73
   256
  0
VERTEX
  5
4E2
  8
0
 62
     9
 10
0.0
 20
0.0
 30
0.0
 70
   128
 71
   246
 72
   239
 73
   242
  0
VERTEX
  5
4E3
  8
0
 62
     9
 10
0.0
 20
0.0
 30
0.0
 70
   128
 71
   253
 72
   250
 73
   252
  0
VERTEX
  5
4E4
  8
0
 62
     9
 10
0.0
 20
0.0
 30
0.0
 70
   128
 71
   251
 72
   269
 73
   267
  0
VERTEX
  5
4E5
  8
0
 62
     9
 10
0.0
 20
0.0
 30
0.0
 70
   128
 71
   270
 72
   257
 73
   245
  0
VERTEX
  5
4E6
  8
0
 62
     9
 10
0.0
 20
0.0
 30
0.0
 70
   128
 71
   244
 72
   260
 73
   253
  0
VERTEX
  5
4E7
  8
0
 62
     9
 10
0.0
 20
0.0
 30
0.0
 70
   128
 71
   258
 72
   260
 73
   245
  0
VERTEX
  5
4E8
  8
0
 62
     9
 10
0.0
 20
0.0
 30
0.0
 70
   128
 71
   268
 72
   270
 73
   245
  0
VERTEX
  5
4E9
  8
0
 62
     9
 10
0.0
 20
0.0
 30
0.0
 70
   128
 71
   250
 72
   251
 73
   267
  0
VERTEX
  5
4EA
  8
0
 62
     9
 10
0.0
 20
0.0
 30
0.0
 70
   128
 71
   269
 72
   259
 73
   271
  0
VERTEX
  5
4EB
  8
0
 62
     9
 10
0.0
 20
0.0
 30
0.0
 70
   128
 71
   258
 72
   272
 73
   247
  0
VERTEX
  5
4EC
  8
0
 62
     9
 10
0.0
 20
0.0
 30
0.0
 70
   128
 71
   260
 72
   248
 73
   250
  0
VERTEX
  5
4ED
  8
0
 62
     9
 10
0.0
 20
0.0
 30
0.0
 70
   128
 71
   247
 72
   248
 73
   258
  0
VERTEX
  5
4EE
  8
0
 62
     9
 10
0.0
 20
0.0
 30
0.0
 70
   128
 71
   272
 72
   258
 73
   257
  0
VERTEX
  5
4EF
  8
0
 62
     9
 10
0.0
 20
0.0
 30
0.0
 70
   128
 71
   251
 72
   259
 73
   269
  0
VERTEX
  5
4F0
  8
0
 62
     9
 10
0.0
 20
0.0
 30
0.0
 70
   128
 71
   262
 72
   255
 73
   263
  0
VERTEX
  5
4F1
  8
0
 62
     9
 10
0.0
 20
0.0
 30
0.0
 70
   128
 71
   274
 72
   273
 73
   247
  0
VERTEX
  5
4F2
  8
0
 62
     9
 10
0.0
 20
0.0
 30
0.0
 70
   128
 71
   248
 72
   249
 73
   251
  0
VERTEX
  5
4F3
  8
0
 62
     9
 10
0.0
 20
0.0
 30
0.0
 70
   128
 71
   254
 72
   249
 73
   247
  0
VERTEX
  5
4F4
  8
0
 62
     9
 10
0.0
 20
0.0
 30
0.0
 70
   128
 71
   272
 72
   274
 73
   247
  0
VERTEX
  5
4F5
  8
0
 62
     9
 10
0.0
 20
0.0
 30
0.0
 70
   128
 71
   261
 72
   271
 73
   259
  0
VERTEX
  5
4F6
  8
0
 62
     9
 10
0.0
 20
0.0
 30
0.0
 70
   128
 71
   265
 72
   271
 73
   261
  0
VERTEX
  5
4F7
  8
0
 62
     9
 10
0.0
 20
0.0
 30
0.0
 70
   128
 71
   275
 72
   263
 73
   254
  0
VERTEX
  5
4F8
  8
0
 62
     9
 10
0.0
 20
0.0
 30
0.0
 70
   128
 71
   255
 72
   259
 73
   249
  0
VERTEX
  5
4F9
  8
0
 62
     9
 10
0.0
 20
0.0
 30
0.0
 70
   128
 71
   254
 72
   273
 73
   275
  0
VERTEX
  5
4FA
  8
0
 62
     9
 10
0.0
 20
0.0
 30
0.0
 70
   128
 71
   273
 72
   254
 73
   247
  0
VERTEX
  5
4FB
  8
0
 62
     9
 10
0.0
 20
0.0
 30
0.0
 70
   128
 71
   236
 72
   208
 73
   276
  0
VERTEX
  5
4FC
  8
0
 62
     9
 10
0.0
 20
0.0
 30
0.0
 70
   128
 71
   278
 72
   277
 73
   276
  0
VERTEX
  5
4FD
  8
0
 62
     9
 10
0.0
 20
0.0
 30
0.0
 70
   128
 71
   276
 72
   229
 73
   232
  0
VERTEX
  5
4FE
  8
0
 62
     9
 10
0.0
 20
0.0
 30
0.0
 70
   128
 71
   208
 72
   229
 73
   276
  0
VERTEX
  5
4FF
  8
0
 62
     9
 10
0.0
 20
0.0
 30
0.0
 70
   128
 71
   225
 72
   252
 73
   232
  0
VERTEX
  5
500
  8
0
 62
     9
 10
0.0
 20
0.0
 30
0.0
 70
   128
 71
   252
 72
   276
 73
   232
  0
VERTEX
  5
501
  8
0
 62
     9
 10
0.0
 20
0.0
 30
0.0
 70
   128
 71
   225
 72
   228
 73
   252
  0
VERTEX
  5
502
  8
0
 62
     9
 10
0.0
 20
0.0
 30
0.0
 70
   128
 71
   277
 72
   235
 73
   276
  0
VERTEX
  5
503
  8
0
 62
     9
 10
0.0
 20
0.0
 30
0.0
 70
   128
 71
   269
 72
   276
 73
   267
  0
VERTEX
  5
504
  8
0
 62
     9
 10
0.0
 20
0.0
 30
0.0
 70
   128
 71
   277
 72
   237
 73
   217
  0
VERTEX
  5
505
  8
0
 62
     9
 10
0.0
 20
0.0
 30
0.0
 70
   128
 71
   280
 72
   279
 73
   278
  0
VERTEX
  5
506
  8
0
 62
     9
 10
0.0
 20
0.0
 30
0.0
 70
   128
 71
   212
 72
   277
 73
   279
  0
VERTEX
  5
507
  8
0
 62
     9
 10
0.0
 20
0.0
 30
0.0
 70
   128
 71
   277
 72
   212
 73
   211
  0
VERTEX
  5
508
  8
0
 62
     9
 10
0.0
 20
0.0
 30
0.0
 70
   128
 71
   271
 72
   265
 73
   278
  0
VERTEX
  5
509
  8
0
 62
     9
 10
0.0
 20
0.0
 30
0.0
 70
   128
 71
   279
 72
   197
 73
   212
  0
VERTEX
  5
50A
  8
0
 62
     9
 10
0.0
 20
0.0
 30
0.0
 70
   128
 71
   280
 72
   265
 73
   266
  0
VERTEX
  5
50B
  8
0
 62
     9
 10
0.0
 20
0.0
 30
0.0
 70
   128
 71
   280
 72
   278
 73
   265
  0
VERTEX
  5
50C
  8
0
 62
     9
 10
0.0
 20
0.0
 30
0.0
 70
   128
 71
   271
 72
   278
 73
   269
  0
VERTEX
  5
50D
  8
0
 62
     9
 10
0.0
 20
0.0
 30
0.0
 70
   128
 71
   237
 72
   277
 73
   211
  0
VERTEX
  5
50E
  8
0
 62
     9
 10
0.0
 20
0.0
 30
0.0
 70
   128
 71
   277
 72
   278
 73
   279
  0
VERTEX
  5
50F
  8
0
 62
     9
 10
0.0
 20
0.0
 30
0.0
 70
   128
 71
   278
 72
   276
 73
   269
  0
VERTEX
  5
510
  8
0
 62
     9
 10
0.0
 20
0.0
 30
0.0
 70
   128
 71
   252
 72
   267
 73
   276
  0
VERTEX
  5
511
  8
0
 62
     9
 10
0.0
 20
0.0
 30
0.0
 70
   128
 71
   276
 72
   235
 73
   236
  0
VERTEX
  5
512
  8
0
 62
     9
 10
0.0
 20
0.0
 30
0.0
 70
   128
 71
   277
 72
   217
 73
   235
  0
VERTEX
  5
513
  8
0
 62
     9
 10
0.0
 20
0.0
 30
0.0
 70
   128
 71
   166
 72
   167
 73
   281
  0
VERTEX
  5
514
  8
0
 62
     9
 10
0.0
 20
0.0
 30
0.0
 70
   128
 71
   284
 72
   283
 73
   282
  0
VERTEX
  5
515
  8
0
 62
     9
 10
0.0
 20
0.0
 30
0.0
 70
   128
 71
   287
 72
   286
 73
   285
  0
VERTEX
  5
516
  8
0
 62
     9
 10
0.0
 20
0.0
 30
0.0
 70
   128
 71
   288
 72
   285
 73
   281
  0
VERTEX
  5
517
  8
0
 62
     9
 10
0.0
 20
0.0
 30
0.0
 70
   128
 71
   285
 72
   288
 73
   287
  0
VERTEX
  5
518
  8
0
 62
     9
 10
0.0
 20
0.0
 30
0.0
 70
   128
 71
   284
 72
   287
 73
   288
  0
VERTEX
  5
519
  8
0
 62
     9
 10
0.0
 20
0.0
 30
0.0
 70
   128
 71
   290
 72
   287
 73
   289
  0
VERTEX
  5
51A
  8
0
 62
     9
 10
0.0
 20
0.0
 30
0.0
 70
   128
 71
   293
 72
   292
 73
   291
  0
VERTEX
  5
51B
  8
0
 62
     9
 10
0.0
 20
0.0
 30
0.0
 70
   128
 71
   294
 72
   291
 73
   283
  0
VERTEX
  5
51C
  8
0
 62
     9
 10
0.0
 20
0.0
 30
0.0
 70
   128
 71
   263
 72
   296
 73
   295
  0
VERTEX
  5
51D
  8
0
 62
     9
 10
0.0
 20
0.0
 30
0.0
 70
   128
 71
   299
 72
   298
 73
   297
  0
VERTEX
  5
51E
  8
0
 62
     9
 10
0.0
 20
0.0
 30
0.0
 70
   128
 71
   299
 72
   292
 73
   298
  0
VERTEX
  5
51F
  8
0
 62
     9
 10
0.0
 20
0.0
 30
0.0
 70
   128
 71
   300
 72
   262
 73
   295
  0
VERTEX
  5
520
  8
0
 62
     9
 10
0.0
 20
0.0
 30
0.0
 70
   128
 71
   266
 72
   264
 73
   301
  0
VERTEX
  5
521
  8
0
 62
     9
 10
0.0
 20
0.0
 30
0.0
 70
   128
 71
   301
 72
   300
 73
   297
  0
VERTEX
  5
522
  8
0
 62
     9
 10
0.0
 20
0.0
 30
0.0
 70
   128
 71
   301
 72
   264
 73
   300
  0
VERTEX
  5
523
  8
0
 62
     9
 10
0.0
 20
0.0
 30
0.0
 70
   128
 71
   293
 72
   298
 73
   292
  0
VERTEX
  5
524
  8
0
 62
     9
 10
0.0
 20
0.0
 30
0.0
 70
   128
 71
   302
 72
   292
 73
   299
  0
VERTEX
  5
525
  8
0
 62
     9
 10
0.0
 20
0.0
 30
0.0
 70
   128
 71
   172
 72
   283
 73
   170
  0
VERTEX
  5
526
  8
0
 62
     9
 10
0.0
 20
0.0
 30
0.0
 70
   128
 71
   304
 72
   289
 73
   303
  0
VERTEX
  5
527
  8
0
 62
     9
 10
0.0
 20
0.0
 30
0.0
 70
   128
 71
   294
 72
   283
 73
   172
  0
VERTEX
  5
528
  8
0
 62
     9
 10
0.0
 20
0.0
 30
0.0
 70
   128
 71
   284
 72
   171
 73
   170
  0
VERTEX
  5
529
  8
0
 62
     9
 10
0.0
 20
0.0
 30
0.0
 70
   128
 71
   291
 72
   292
 73
   305
  0
VERTEX
  5
52A
  8
0
 62
     9
 10
0.0
 20
0.0
 30
0.0
 70
   128
 71
   293
 72
   291
 73
   294
  0
VERTEX
  5
52B
  8
0
 62
     9
 10
0.0
 20
0.0
 30
0.0
 70
   128
 71
   291
 72
   305
 73
   282
  0
VERTEX
  5
52C
  8
0
 62
     9
 10
0.0
 20
0.0
 30
0.0
 70
   128
 71
   296
 72
   302
 73
   295
  0
VERTEX
  5
52D
  8
0
 62
     9
 10
0.0
 20
0.0
 30
0.0
 70
   128
 71
   292
 72
   302
 73
   305
  0
VERTEX
  5
52E
  8
0
 62
     9
 10
0.0
 20
0.0
 30
0.0
 70
   128
 71
   300
 72
   295
 73
   299
  0
VERTEX
  5
52F
  8
0
 62
     9
 10
0.0
 20
0.0
 30
0.0
 70
   128
 71
   262
 72
   300
 73
   264
  0
VERTEX
  5
530
  8
0
 62
     9
 10
0.0
 20
0.0
 30
0.0
 70
   128
 71
   300
 72
   299
 73
   297
  0
VERTEX
  5
531
  8
0
 62
     9
 10
0.0
 20
0.0
 30
0.0
 70
   128
 71
   283
 72
   284
 73
   170
  0
VERTEX
  5
532
  8
0
 62
     9
 10
0.0
 20
0.0
 30
0.0
 70
   128
 71
   288
 72
   171
 73
   284
  0
VERTEX
  5
533
  8
0
 62
     9
 10
0.0
 20
0.0
 30
0.0
 70
   128
 71
   304
 72
   290
 73
   289
  0
VERTEX
  5
534
  8
0
 62
     9
 10
0.0
 20
0.0
 30
0.0
 70
   128
 71
   291
 72
   282
 73
   283
  0
VERTEX
  5
535
  8
0
 62
     9
 10
0.0
 20
0.0
 30
0.0
 70
   128
 71
   289
 72
   287
 73
   282
  0
VERTEX
  5
536
  8
0
 62
     9
 10
0.0
 20
0.0
 30
0.0
 70
   128
 71
   303
 72
   296
 73
   306
  0
VERTEX
  5
537
  8
0
 62
     9
 10
0.0
 20
0.0
 30
0.0
 70
   128
 71
   289
 72
   305
 73
   303
  0
VERTEX
  5
538
  8
0
 62
     9
 10
0.0
 20
0.0
 30
0.0
 70
   128
 71
   302
 72
   296
 73
   303
  0
VERTEX
  5
539
  8
0
 62
     9
 10
0.0
 20
0.0
 30
0.0
 70
   128
 71
   262
 72
   263
 73
   295
  0
VERTEX
  5
53A
  8
0
 62
     9
 10
0.0
 20
0.0
 30
0.0
 70
   128
 71
   295
 72
   302
 73
   299
  0
VERTEX
  5
53B
  8
0
 62
     9
 10
0.0
 20
0.0
 30
0.0
 70
   128
 71
   288
 72
   167
 73
   171
  0
VERTEX
  5
53C
  8
0
 62
     9
 10
0.0
 20
0.0
 30
0.0
 70
   128
 71
   167
 72
   288
 73
   281
  0
VERTEX
  5
53D
  8
0
 62
     9
 10
0.0
 20
0.0
 30
0.0
 70
   128
 71
   286
 72
   287
 73
   290
  0
VERTEX
  5
53E
  8
0
 62
     9
 10
0.0
 20
0.0
 30
0.0
 70
   128
 71
   287
 72
   284
 73
   282
  0
VERTEX
  5
53F
  8
0
 62
     9
 10
0.0
 20
0.0
 30
0.0
 70
   128
 71
   307
 72
   304
 73
   303
  0
VERTEX
  5
540
  8
0
 62
     9
 10
0.0
 20
0.0
 30
0.0
 70
   128
 71
   289
 72
   282
 73
   305
  0
VERTEX
  5
541
  8
0
 62
     9
 10
0.0
 20
0.0
 30
0.0
 70
   128
 71
   307
 72
   303
 73
   306
  0
VERTEX
  5
542
  8
0
 62
     9
 10
0.0
 20
0.0
 30
0.0
 70
   128
 71
   303
 72
   305
 73
   302
  0
VERTEX
  5
543
  8
0
 62
     9
 10
0.0
 20
0.0
 30
0.0
 70
   128
 71
   296
 72
   275
 73
   306
  0
VERTEX
  5
544
  8
0
 62
     9
 10
0.0
 20
0.0
 30
0.0
 70
   128
 71
   263
 72
   275
 73
   296
  0
VERTEX
  5
545
  8
0
 62
     9
 10
0.0
 20
0.0
 30
0.0
 70
   128
 71
   308
 72
   198
 73
   199
  0
VERTEX
  5
546
  8
0
 62
     9
 10
0.0
 20
0.0
 30
0.0
 70
   128
 71
   308
 72
   310
 73
   309
  0
VERTEX
  5
547
  8
0
 62
     9
 10
0.0
 20
0.0
 30
0.0
 70
   128
 71
   308
 72
   199
 73
   196
  0
VERTEX
  5
548
  8
0
 62
     9
 10
0.0
 20
0.0
 30
0.0
 70
   128
 71
   204
 72
   203
 73
   308
  0
VERTEX
  5
549
  8
0
 62
     9
 10
0.0
 20
0.0
 30
0.0
 70
   128
 71
   196
 72
   197
 73
   279
  0
VERTEX
  5
54A
  8
0
 62
     9
 10
0.0
 20
0.0
 30
0.0
 70
   128
 71
   308
 72
   203
 73
   198
  0
VERTEX
  5
54B
  8
0
 62
     9
 10
0.0
 20
0.0
 30
0.0
 70
   128
 71
   179
 72
   309
 73
   294
  0
VERTEX
  5
54C
  8
0
 62
     9
 10
0.0
 20
0.0
 30
0.0
 70
   128
 71
   298
 72
   309
 73
   310
  0
VERTEX
  5
54D
  8
0
 62
     9
 10
0.0
 20
0.0
 30
0.0
 70
   128
 71
   293
 72
   294
 73
   309
  0
VERTEX
  5
54E
  8
0
 62
     9
 10
0.0
 20
0.0
 30
0.0
 70
   128
 71
   297
 72
   298
 73
   310
  0
VERTEX
  5
54F
  8
0
 62
     9
 10
0.0
 20
0.0
 30
0.0
 70
   128
 71
   179
 72
   294
 73
   180
  0
VERTEX
  5
550
  8
0
 62
     9
 10
0.0
 20
0.0
 30
0.0
 70
   128
 71
   181
 72
   309
 73
   178
  0
VERTEX
  5
551
  8
0
 62
     9
 10
0.0
 20
0.0
 30
0.0
 70
   128
 71
   294
 72
   172
 73
   180
  0
VERTEX
  5
552
  8
0
 62
     9
 10
0.0
 20
0.0
 30
0.0
 70
   128
 71
   309
 72
   181
 73
   182
  0
VERTEX
  5
553
  8
0
 62
     9
 10
0.0
 20
0.0
 30
0.0
 70
   128
 71
   301
 72
   280
 73
   266
  0
VERTEX
  5
554
  8
0
 62
     9
 10
0.0
 20
0.0
 30
0.0
 70
   128
 71
   280
 72
   301
 73
   310
  0
VERTEX
  5
555
  8
0
 62
     9
 10
0.0
 20
0.0
 30
0.0
 70
   128
 71
   297
 72
   310
 73
   301
  0
VERTEX
  5
556
  8
0
 62
     9
 10
0.0
 20
0.0
 30
0.0
 70
   128
 71
   310
 72
   279
 73
   280
  0
VERTEX
  5
557
  8
0
 62
     9
 10
0.0
 20
0.0
 30
0.0
 70
   128
 71
   178
 72
   309
 73
   179
  0
VERTEX
  5
558
  8
0
 62
     9
 10
0.0
 20
0.0
 30
0.0
 70
   128
 71
   293
 72
   309
 73
   298
  0
VERTEX
  5
559
  8
0
 62
     9
 10
0.0
 20
0.0
 30
0.0
 70
   128
 71
   308
 72
   279
 73
   310
  0
VERTEX
  5
55A
  8
0
 62
     9
 10
0.0
 20
0.0
 30
0.0
 70
   128
 71
   196
 72
   279
 73
   308
  0
VERTEX
  5
55B
  8
0
 62
     9
 10
0.0
 20
0.0
 30
0.0
 70
   128
 71
   204
 72
   309
 73
   182
  0
VERTEX
  5
55C
  8
0
 62
     9
 10
0.0
 20
0.0
 30
0.0
 70
   128
 71
   309
 72
   204
 73
   308
  0
VERTEX
  5
55D
  8
0
 62
     9
 10
0.0
 20
0.0
 30
0.0
 70
   128
 71
   165
 72
   311
 73
   129
  0
VERTEX
  5
55E
  8
0
 62
     9
 10
0.0
 20
0.0
 30
0.0
 70
   128
 71
   313
 72
   285
 73
   312
  0
VERTEX
  5
55F
  8
0
 62
     9
 10
0.0
 20
0.0
 30
0.0
 70
   128
 71
   166
 72
   281
 73
   314
  0
VERTEX
  5
560
  8
0
 62
     9
 10
0.0
 20
0.0
 30
0.0
 70
   128
 71
   316
 72
   315
 73
   304
  0
VERTEX
  5
561
  8
0
 62
     9
 10
0.0
 20
0.0
 30
0.0
 70
   128
 71
   290
 72
   317
 73
   286
  0
VERTEX
  5
562
  8
0
 62
     9
 10
0.0
 20
0.0
 30
0.0
 70
   128
 71
   318
 72
   307
 73
   306
  0
VERTEX
  5
563
  8
0
 62
     9
 10
0.0
 20
0.0
 30
0.0
 70
   128
 71
   307
 72
   318
 73
   316
  0
VERTEX
  5
564
  8
0
 62
     9
 10
0.0
 20
0.0
 30
0.0
 70
   128
 71
   275
 72
   319
 73
   318
  0
VERTEX
  5
565
  8
0
 62
     9
 10
0.0
 20
0.0
 30
0.0
 70
   128
 71
   318
 72
   306
 73
   275
  0
VERTEX
  5
566
  8
0
 62
     9
 10
0.0
 20
0.0
 30
0.0
 70
   128
 71
   304
 72
   307
 73
   316
  0
VERTEX
  5
567
  8
0
 62
     9
 10
0.0
 20
0.0
 30
0.0
 70
   128
 71
   304
 72
   315
 73
   290
  0
VERTEX
  5
568
  8
0
 62
     9
 10
0.0
 20
0.0
 30
0.0
 70
   128
 71
   317
 72
   312
 73
   286
  0
VERTEX
  5
569
  8
0
 62
     9
 10
0.0
 20
0.0
 30
0.0
 70
   128
 71
   315
 72
   317
 73
   290
  0
VERTEX
  5
56A
  8
0
 62
     9
 10
0.0
 20
0.0
 30
0.0
 70
   128
 71
   313
 72
   281
 73
   285
  0
VERTEX
  5
56B
  8
0
 62
     9
 10
0.0
 20
0.0
 30
0.0
 70
   128
 71
   312
 72
   285
 73
   286
  0
VERTEX
  5
56C
  8
0
 62
     9
 10
0.0
 20
0.0
 30
0.0
 70
   128
 71
   314
 72
   281
 73
   313
  0
VERTEX
  5
56D
  8
0
 62
     9
 10
0.0
 20
0.0
 30
0.0
 70
   128
 71
   311
 72
   166
 73
   314
  0
VERTEX
  5
56E
  8
0
 62
     9
 10
0.0
 20
0.0
 30
0.0
 70
   128
 71
   165
 72
   166
 73
   311
  0
VERTEX
  5
56F
  8
0
 62
     9
 10
0.0
 20
0.0
 30
0.0
 70
   128
 71
   129
 72
   320
 73
    75
  0
VERTEX
  5
570
  8
0
 62
     9
 10
0.0
 20
0.0
 30
0.0
 70
   128
 71
   320
 72
   129
 73
   311
  0
VERTEX
  5
571
  8
0
 62
     9
 10
0.0
 20
0.0
 30
0.0
 70
   128
 71
   128
 72
   129
 73
    75
  0
VERTEX
  5
572
  8
0
 62
     9
 10
0.0
 20
0.0
 30
0.0
 70
   128
 71
   128
 72
    75
 73
   130
  0
VERTEX
  5
573
  8
0
 62
     9
 10
0.0
 20
0.0
 30
0.0
 70
   128
 71
    75
 72
    63
 73
   130
  0
VERTEX
  5
574
  8
0
 62
     9
 10
0.0
 20
0.0
 30
0.0
 70
   128
 71
   321
 72
   319
 73
   275
  0
VERTEX
  5
575
  8
0
 62
     9
 10
0.0
 20
0.0
 30
0.0
 70
   128
 71
   323
 72
   257
 73
   322
  0
VERTEX
  5
576
  8
0
 62
     9
 10
0.0
 20
0.0
 30
0.0
 70
   128
 71
   324
 72
   274
 73
   272
  0
VERTEX
  5
577
  8
0
 62
     9
 10
0.0
 20
0.0
 30
0.0
 70
   128
 71
   243
 72
   326
 73
   325
  0
VERTEX
  5
578
  8
0
 62
     9
 10
0.0
 20
0.0
 30
0.0
 70
   128
 71
   268
 72
   327
 73
   270
  0
VERTEX
  5
579
  8
0
 62
     9
 10
0.0
 20
0.0
 30
0.0
 70
   128
 71
   326
 72
   134
 73
   162
  0
VERTEX
  5
57A
  8
0
 62
     9
 10
0.0
 20
0.0
 30
0.0
 70
   128
 71
   243
 72
   134
 73
   326
  0
VERTEX
  5
57B
  8
0
 62
     9
 10
0.0
 20
0.0
 30
0.0
 70
   128
 71
   132
 72
    62
 73
    84
  0
VERTEX
  5
57C
  8
0
 62
     9
 10
0.0
 20
0.0
 30
0.0
 70
   128
 71
   132
 72
    84
 73
   163
  0
VERTEX
  5
57D
  8
0
 62
     9
 10
0.0
 20
0.0
 30
0.0
 70
   128
 71
   325
 72
   256
 73
   243
  0
VERTEX
  5
57E
  8
0
 62
     9
 10
0.0
 20
0.0
 30
0.0
 70
   128
 71
   162
 72
   163
 73
    84
  0
VERTEX
  5
57F
  8
0
 62
     9
 10
0.0
 20
0.0
 30
0.0
 70
   128
 71
   162
 72
    84
 73
   328
  0
VERTEX
  5
580
  8
0
 62
     9
 10
0.0
 20
0.0
 30
0.0
 70
   128
 71
   162
 72
   328
 73
   326
  0
VERTEX
  5
581
  8
0
 62
     9
 10
0.0
 20
0.0
 30
0.0
 70
   128
 71
   325
 72
   329
 73
   256
  0
VERTEX
  5
582
  8
0
 62
     9
 10
0.0
 20
0.0
 30
0.0
 70
   128
 71
   327
 72
   268
 73
   329
  0
VERTEX
  5
583
  8
0
 62
     9
 10
0.0
 20
0.0
 30
0.0
 70
   128
 71
   256
 72
   329
 73
   268
  0
VERTEX
  5
584
  8
0
 62
     9
 10
0.0
 20
0.0
 30
0.0
 70
   128
 71
   327
 72
   322
 73
   270
  0
VERTEX
  5
585
  8
0
 62
     9
 10
0.0
 20
0.0
 30
0.0
 70
   128
 71
   323
 72
   272
 73
   257
  0
VERTEX
  5
586
  8
0
 62
     9
 10
0.0
 20
0.0
 30
0.0
 70
   128
 71
   322
 72
   257
 73
   270
  0
VERTEX
  5
587
  8
0
 62
     9
 10
0.0
 20
0.0
 30
0.0
 70
   128
 71
   321
 72
   274
 73
   324
  0
VERTEX
  5
588
  8
0
 62
     9
 10
0.0
 20
0.0
 30
0.0
 70
   128
 71
   324
 72
   272
 73
   323
  0
VERTEX
  5
589
  8
0
 62
     9
 10
0.0
 20
0.0
 30
0.0
 70
   128
 71
   273
 72
   321
 73
   275
  0
VERTEX
  5
58A
  8
0
 62
     9
 10
0.0
 20
0.0
 30
0.0
 70
   128
 71
   273
 72
   274
 73
   321
  0
VERTEX
  5
58B
  8
0
 62
     9
 10
0.0
 20
0.0
 30
0.0
 70
   128
 71
   332
 72
   331
 73
   330
  0
VERTEX
  5
58C
  8
0
 62
     9
 10
0.0
 20
0.0
 30
0.0
 70
   128
 71
   333
 72
   332
 73
   330
  0
VERTEX
  5
58D
  8
0
 62
     9
 10
0.0
 20
0.0
 30
0.0
 70
   128
 71
   330
 72
   334
 73
   333
  0
VERTEX
  5
58E
  8
0
 62
     9
 10
0.0
 20
0.0
 30
0.0
 70
   128
 71
   336
 72
   335
 73
   331
  0
VERTEX
  5
58F
  8
0
 62
     9
 10
0.0
 20
0.0
 30
0.0
 70
   128
 71
   336
 72
   331
 73
   332
  0
VERTEX
  5
590
  8
0
 62
     9
 10
0.0
 20
0.0
 30
0.0
 70
   128
 71
   336
 72
   337
 73
   335
  0
VERTEX
  5
591
  8
0
 62
     9
 10
0.0
 20
0.0
 30
0.0
 70
   128
 71
   337
 72
   339
 73
   338
  0
VERTEX
  5
592
  8
0
 62
     9
 10
0.0
 20
0.0
 30
0.0
 70
   128
 71
   338
 72
   335
 73
   337
  0
VERTEX
  5
593
  8
0
 62
     9
 10
0.0
 20
0.0
 30
0.0
 70
   128
 71
   320
 72
   340
 73
   339
  0
VERTEX
  5
594
  8
0
 62
     9
 10
0.0
 20
0.0
 30
0.0
 70
   128
 71
   338
 72
   339
 73
   340
  0
VERTEX
  5
595
  8
0
 62
     9
 10
0.0
 20
0.0
 30
0.0
 70
   128
 71
   314
 72
   342
 73
   341
  0
VERTEX
  5
596
  8
0
 62
     9
 10
0.0
 20
0.0
 30
0.0
 70
   128
 71
   320
 72
   341
 73
   340
  0
VERTEX
  5
597
  8
0
 62
     9
 10
0.0
 20
0.0
 30
0.0
 70
   128
 71
   343
 72
   317
 73
   315
  0
VERTEX
  5
598
  8
0
 62
     9
 10
0.0
 20
0.0
 30
0.0
 70
   128
 71
   344
 72
   313
 73
   312
  0
VERTEX
  5
599
  8
0
 62
     9
 10
0.0
 20
0.0
 30
0.0
 70
   128
 71
   318
 72
   325
 73
   326
  0
VERTEX
  5
59A
  8
0
 62
     9
 10
0.0
 20
0.0
 30
0.0
 70
   128
 71
   315
 72
   316
 73
   328
  0
VERTEX
  5
59B
  8
0
 62
     9
 10
0.0
 20
0.0
 30
0.0
 70
   128
 71
   325
 72
   319
 73
   329
  0
VERTEX
  5
59C
  8
0
 62
     9
 10
0.0
 20
0.0
 30
0.0
 70
   128
 71
   327
 72
   321
 73
   324
  0
VERTEX
  5
59D
  8
0
 62
     9
 10
0.0
 20
0.0
 30
0.0
 70
   128
 71
   324
 72
   323
 73
   322
  0
VERTEX
  5
59E
  8
0
 62
     9
 10
0.0
 20
0.0
 30
0.0
 70
   128
 71
   327
 72
   329
 73
   321
  0
VERTEX
  5
59F
  8
0
 62
     9
 10
0.0
 20
0.0
 30
0.0
 70
   128
 71
   322
 72
   327
 73
   324
  0
VERTEX
  5
5A0
  8
0
 62
     9
 10
0.0
 20
0.0
 30
0.0
 70
   128
 71
   325
 72
   318
 73
   319
  0
VERTEX
  5
5A1
  8
0
 62
     9
 10
0.0
 20
0.0
 30
0.0
 70
   128
 71
   329
 72
   319
 73
   321
  0
VERTEX
  5
5A2
  8
0
 62
     9
 10
0.0
 20
0.0
 30
0.0
 70
   128
 71
   316
 72
   326
 73
   328
  0
VERTEX
  5
5A3
  8
0
 62
     9
 10
0.0
 20
0.0
 30
0.0
 70
   128
 71
   318
 72
   326
 73
   316
  0
VERTEX
  5
5A4
  8
0
 62
     9
 10
0.0
 20
0.0
 30
0.0
 70
   128
 71
   345
 72
   343
 73
   315
  0
VERTEX
  5
5A5
  8
0
 62
     9
 10
0.0
 20
0.0
 30
0.0
 70
   128
 71
   328
 72
   345
 73
   315
  0
VERTEX
  5
5A6
  8
0
 62
     9
 10
0.0
 20
0.0
 30
0.0
 70
   128
 71
   346
 72
   312
 73
   317
  0
VERTEX
  5
5A7
  8
0
 62
     9
 10
0.0
 20
0.0
 30
0.0
 70
   128
 71
   346
 72
   317
 73
   343
  0
VERTEX
  5
5A8
  8
0
 62
     9
 10
0.0
 20
0.0
 30
0.0
 70
   128
 71
   344
 72
   342
 73
   313
  0
VERTEX
  5
5A9
  8
0
 62
     9
 10
0.0
 20
0.0
 30
0.0
 70
   128
 71
   346
 72
   344
 73
   312
  0
VERTEX
  5
5AA
  8
0
 62
     9
 10
0.0
 20
0.0
 30
0.0
 70
   128
 71
   341
 72
   311
 73
   314
  0
VERTEX
  5
5AB
  8
0
 62
     9
 10
0.0
 20
0.0
 30
0.0
 70
   128
 71
   342
 72
   314
 73
   313
  0
VERTEX
  5
5AC
  8
0
 62
     9
 10
0.0
 20
0.0
 30
0.0
 70
   128
 71
   320
 72
   311
 73
   341
  0
VERTEX
  5
5AD
  8
0
 62
     9
 10
0.0
 20
0.0
 30
0.0
 70
   128
 71
   335
 72
    79
 73
   331
  0
VERTEX
  5
5AE
  8
0
 62
     9
 10
0.0
 20
0.0
 30
0.0
 70
   128
 71
   334
 72
    80
 73
   333
  0
VERTEX
  5
5AF
  8
0
 62
     9
 10
0.0
 20
0.0
 30
0.0
 70
   128
 71
    78
 72
    81
 73
   330
  0
VERTEX
  5
5B0
  8
0
 62
     9
 10
0.0
 20
0.0
 30
0.0
 70
   128
 71
   337
 72
   336
 73
    77
  0
VERTEX
  5
5B1
  8
0
 62
     9
 10
0.0
 20
0.0
 30
0.0
 70
   128
 71
    76
 72
   332
 73
    82
  0
VERTEX
  5
5B2
  8
0
 62
     9
 10
0.0
 20
0.0
 30
0.0
 70
   128
 71
   339
 72
    74
 73
    72
  0
VERTEX
  5
5B3
  8
0
 62
     9
 10
0.0
 20
0.0
 30
0.0
 70
   128
 71
    74
 72
   339
 73
   337
  0
VERTEX
  5
5B4
  8
0
 62
     9
 10
0.0
 20
0.0
 30
0.0
 70
   128
 71
    72
 72
    75
 73
   320
  0
VERTEX
  5
5B5
  8
0
 62
     9
 10
0.0
 20
0.0
 30
0.0
 70
   128
 71
   320
 72
   339
 73
    72
  0
VERTEX
  5
5B6
  8
0
 62
     9
 10
0.0
 20
0.0
 30
0.0
 70
   128
 71
   336
 72
    76
 73
    77
  0
VERTEX
  5
5B7
  8
0
 62
     9
 10
0.0
 20
0.0
 30
0.0
 70
   128
 71
    74
 72
   337
 73
    77
  0
VERTEX
  5
5B8
  8
0
 62
     9
 10
0.0
 20
0.0
 30
0.0
 70
   128
 71
   332
 72
   333
 73
    82
  0
VERTEX
  5
5B9
  8
0
 62
     9
 10
0.0
 20
0.0
 30
0.0
 70
   128
 71
   336
 72
   332
 73
    76
  0
VERTEX
  5
5BA
  8
0
 62
     9
 10
0.0
 20
0.0
 30
0.0
 70
   128
 71
   334
 72
    81
 73
    80
  0
VERTEX
  5
5BB
  8
0
 62
     9
 10
0.0
 20
0.0
 30
0.0
 70
   128
 71
   333
 72
    80
 73
    82
  0
VERTEX
  5
5BC
  8
0
 62
     9
 10
0.0
 20
0.0
 30
0.0
 70
   128
 71
   331
 72
    78
 73
   330
  0
VERTEX
  5
5BD
  8
0
 62
     9
 10
0.0
 20
0.0
 30
0.0
 70
   128
 71
   330
 72
    81
 73
   334
  0
VERTEX
  5
5BE
  8
0
 62
     9
 10
0.0
 20
0.0
 30
0.0
 70
   128
 71
    78
 72
   331
 73
    79
  0
VERTEX
  5
5BF
  8
0
 62
     9
 10
0.0
 20
0.0
 30
0.0
 70
   128
 71
    68
 72
   345
 73
   328
  0
VERTEX
  5
5C0
  8
0
 62
     9
 10
0.0
 20
0.0
 30
0.0
 70
   128
 71
   346
 72
    83
 73
   344
  0
VERTEX
  5
5C1
  8
0
 62
     9
 10
0.0
 20
0.0
 30
0.0
 70
   128
 71
   343
 72
    66
 73
    67
  0
VERTEX
  5
5C2
  8
0
 62
     9
 10
0.0
 20
0.0
 30
0.0
 70
   128
 71
   340
 72
   341
 73
    69
  0
VERTEX
  5
5C3
  8
0
 62
     9
 10
0.0
 20
0.0
 30
0.0
 70
   128
 71
    70
 72
   342
 73
    71
  0
VERTEX
  5
5C4
  8
0
 62
     9
 10
0.0
 20
0.0
 30
0.0
 70
   128
 71
   340
 72
    73
 73
   338
  0
VERTEX
  5
5C5
  8
0
 62
     9
 10
0.0
 20
0.0
 30
0.0
 70
   128
 71
    73
 72
   340
 73
    69
  0
VERTEX
  5
5C6
  8
0
 62
     9
 10
0.0
 20
0.0
 30
0.0
 70
   128
 71
    79
 72
   335
 73
   338
  0
VERTEX
  5
5C7
  8
0
 62
     9
 10
0.0
 20
0.0
 30
0.0
 70
   128
 71
   338
 72
    73
 73
    79
  0
VERTEX
  5
5C8
  8
0
 62
     9
 10
0.0
 20
0.0
 30
0.0
 70
   128
 71
   342
 72
    70
 73
   341
  0
VERTEX
  5
5C9
  8
0
 62
     9
 10
0.0
 20
0.0
 30
0.0
 70
   128
 71
    69
 72
   341
 73
    70
  0
VERTEX
  5
5CA
  8
0
 62
     9
 10
0.0
 20
0.0
 30
0.0
 70
   128
 71
   342
 72
   344
 73
    71
  0
VERTEX
  5
5CB
  8
0
 62
     9
 10
0.0
 20
0.0
 30
0.0
 70
   128
 71
   344
 72
    83
 73
    71
  0
VERTEX
  5
5CC
  8
0
 62
     9
 10
0.0
 20
0.0
 30
0.0
 70
   128
 71
    67
 72
   346
 73
   343
  0
VERTEX
  5
5CD
  8
0
 62
     9
 10
0.0
 20
0.0
 30
0.0
 70
   128
 71
   346
 72
    67
 73
    83
  0
VERTEX
  5
5CE
  8
0
 62
     9
 10
0.0
 20
0.0
 30
0.0
 70
   128
 71
   343
 72
   345
 73
    66
  0
VERTEX
  5
5CF
  8
0
 62
     9
 10
0.0
 20
0.0
 30
0.0
 70
   128
 71
    84
 72
    68
 73
   328
  0
VERTEX
  5
5D0
  8
0
 62
     9
 10
0.0
 20
0.0
 30
0.0
 70
   128
 71
    68
 72
    66
 73
   345
  0
SEQEND
  5
5D1
  8
0
 62
     9
  0
ENDBLK
  5
5D4
  8
0
  0
BLOCK
  8
0
  2
41
 70
     0
 10
0.0
 20
0.0
 30
0.0
  3
41
  1

  0
POLYLINE
  5
5D6
  8
0
 62
     9
 66
     1
 10
0.0
 20
0.0
 30
0.0
 70
    64
 71
   132
 72
   244
  0
VERTEX
  5
5D7
  8
0
 10
-3.793036222457886
 20
11.78590869903564
 30
110.8000030517578
 70
   192
  0
VERTEX
  5
5D8
  8
0
 10
3.868751287460327
 20
11.75081062316895
 30
110.8000030517578
 70
   192
  0
VERTEX
  5
5D9
  8
0
 10
-3.793036222457886
 20
11.78590869903564
 30
268.7999877929688
 70
   192
  0
VERTEX
  5
5DA
  8
0
 10
-10.03920650482178
 20
7.348585605621338
 30
268.7999877929688
 70
   192
  0
VERTEX
  5
5DB
  8
0
 10
-10.03920650482178
 20
7.348585605621338
 30
110.8000030517578
 70
   192
  0
VERTEX
  5
5DC
  8
0
 10
-12.39999961853027
 20
-0.0000001610792282
 30
268.7999877929688
 70
   192
  0
VERTEX
  5
5DD
  8
0
 10
-12.39999961853027
 20
-0.0000001610792282
 30
110.8000030517578
 70
   192
  0
VERTEX
  5
5DE
  8
0
 10
3.868751287460327
 20
11.75081062316895
 30
268.7999877929688
 70
   192
  0
VERTEX
  5
5DF
  8
0
 10
10.02268123626709
 20
7.186525344848633
 30
110.8000030517578
 70
   192
  0
VERTEX
  5
5E0
  8
0
 10
10.02268123626709
 20
7.186525344848633
 30
268.7999877929688
 70
   192
  0
VERTEX
  5
5E1
  8
0
 10
12.39999961853027
 20
-0.0000001610792282
 30
110.8000030517578
 70
   192
  0
VERTEX
  5
5E2
  8
0
 10
12.39999961853027
 20
-0.0000001610792282
 30
268.7999877929688
 70
   192
  0
VERTEX
  5
5E3
  8
0
 10
48.0
 20
-0.0000001610792282
 30
329.2000122070312
 70
   192
  0
VERTEX
  5
5E4
  8
0
 10
32.90232086181641
 20
7.764027118682861
 30
324.4869384765625
 70
   192
  0
VERTEX
  5
5E5
  8
0
 10
48.0
 20
7.348585605621338
 30
326.8392028808594
 70
   192
  0
VERTEX
  5
5E6
  8
0
 10
48.0
 20
11.75081062316895
 30
312.9312438964844
 70
   192
  0
VERTEX
  5
5E7
  8
0
 10
35.55349349975586
 20
12.14751148223877
 30
314.708251953125
 70
   192
  0
VERTEX
  5
5E8
  8
0
 10
38.01752090454102
 20
7.259049415588379
 30
305.6198120117188
 70
   192
  0
VERTEX
  5
5E9
  8
0
 10
19.29904937744141
 20
7.764027118682861
 30
318.852294921875
 70
   192
  0
VERTEX
  5
5EA
  8
0
 10
32.48999404907227
 20
-0.0000001610792282
 30
327.1665954589844
 70
   192
  0
VERTEX
  5
5EB
  8
0
 10
17.75979042053223
 20
-0.0000001610792282
 30
321.0813903808594
 70
   192
  0
VERTEX
  5
5EC
  8
0
 10
6.971768379211426
 20
7.186525344848633
 30
309.8282165527344
 70
   192
  0
VERTEX
  5
5ED
  8
0
 10
24.3389720916748
 20
12.14751148223877
 30
310.0630493164062
 70
   192
  0
VERTEX
  5
5EE
  8
0
 10
5.290750503540039
 20
-0.0000001610792282
 30
311.5092468261719
 70
   192
  0
VERTEX
  5
5EF
  8
0
 10
16.7409553527832
 20
11.78590869903564
 30
300.0590515136719
 70
   192
  0
VERTEX
  5
5F0
  8
0
 10
11.32325458526611
 20
11.75081062316895
 30
305.4767456054688
 70
   192
  0
VERTEX
  5
5F1
  8
0
 10
48.0
 20
11.78590869903564
 30
320.5930480957031
 70
   192
  0
VERTEX
  5
5F2
  8
0
 10
29.02313423156738
 20
7.259049415588379
 30
301.8942260742188
 70
   192
  0
VERTEX
  5
5F3
  8
0
 10
30.29619598388672
 20
-0.0000001610792282
 30
299.6741027832031
 70
   192
  0
VERTEX
  5
5F4
  8
0
 10
38.68719482421875
 20
-0.0000001610792282
 30
303.1497802734375
 70
   192
  0
VERTEX
  5
5F5
  8
0
 10
48.0
 20
-0.0000001610792282
 30
304.3999938964844
 70
   192
  0
VERTEX
  5
5F6
  8
0
 10
48.0
 20
7.186525344848633
 30
306.7773132324219
 70
   192
  0
VERTEX
  5
5F7
  8
0
 10
21.15766525268555
 20
7.348585605621338
 30
295.642333984375
 70
   192
  0
VERTEX
  5
5F8
  8
0
 10
22.82699775695801
 20
-0.0000001610792282
 30
293.9729919433594
 70
   192
  0
VERTEX
  5
5F9
  8
0
 10
-2.052292585372925
 20
7.764027118682861
 30
297.5009460449219
 70
   192
  0
VERTEX
  5
5FA
  8
0
 10
6.736952304840088
 20
12.14751148223877
 30
292.4610290527344
 70
   192
  0
VERTEX
  5
5FB
  8
0
 10
14.90577983856201
 20
7.259049415588379
 30
287.77685546875
 70
   192
  0
VERTEX
  5
5FC
  8
0
 10
-7.686953067779541
 20
7.764027118682861
 30
283.8976745605469
 70
   192
  0
VERTEX
  5
5FD
  8
0
 10
-4.238646030426025
 20
-0.0000001610792282
 30
299.1041870117188
 70
   192
  0
VERTEX
  5
5FE
  8
0
 10
-10.35158443450928
 20
-0.0000001610792282
 30
284.3854675292969
 70
   192
  0
VERTEX
  5
5FF
  8
0
 10
2.091745376586914
 20
12.14751148223877
 30
281.2465209960938
 70
   192
  0
VERTEX
  5
600
  8
0
 10
11.18018245697021
 20
7.259049415588379
 30
278.782470703125
 70
   192
  0
VERTEX
  5
601
  8
0
 10
13.65023422241211
 20
-0.0000001610792282
 30
278.11279296875
 70
   192
  0
VERTEX
  5
602
  8
0
 10
17.12590026855469
 20
-0.0000001610792282
 30
286.5038146972656
 70
   192
  0
VERTEX
  5
603
  8
0
 10
-5.437233924865723
 20
-7.259049892425537
 30
290.9344177246094
 70
   192
  0
VERTEX
  5
604
  8
0
 10
11.32325458526611
 20
-11.75081157684326
 30
305.4767456054688
 70
   192
  0
VERTEX
  5
605
  8
0
 10
3.265000581741333
 20
-12.14751148223877
 30
287.329833984375
 70
   192
  0
VERTEX
  5
606
  8
0
 10
-10.03920650482178
 20
-7.348586082458496
 30
268.7999877929688
 70
   192
  0
VERTEX
  5
607
  8
0
 10
6.971768379211426
 20
-7.186525344848633
 30
309.8282165527344
 70
   192
  0
VERTEX
  5
608
  8
0
 10
21.15766525268555
 20
-7.348586082458496
 30
295.642333984375
 70
   192
  0
VERTEX
  5
609
  8
0
 10
12.62816429138184
 20
-7.764027118682861
 30
283.4515075683594
 70
   192
  0
VERTEX
  5
60A
  8
0
 10
16.7409553527832
 20
-11.78590965270996
 30
300.0590515136719
 70
   192
  0
VERTEX
  5
60B
  8
0
 10
10.02268123626709
 20
-7.186525344848633
 30
268.7999877929688
 70
   192
  0
VERTEX
  5
60C
  8
0
 10
3.868751287460327
 20
-11.75081157684326
 30
268.7999877929688
 70
   192
  0
VERTEX
  5
60D
  8
0
 10
-3.793036222457886
 20
-11.78590965270996
 30
268.7999877929688
 70
   192
  0
VERTEX
  5
60E
  8
0
 10
175.0
 20
11.78590869903564
 30
320.5930480957031
 70
   192
  0
VERTEX
  5
60F
  8
0
 10
175.0
 20
7.348585605621338
 30
326.8392028808594
 70
   192
  0
VERTEX
  5
610
  8
0
 10
175.0
 20
-0.0000001610792282
 30
329.2000122070312
 70
   192
  0
VERTEX
  5
611
  8
0
 10
175.0
 20
11.75081062316895
 30
312.9312438964844
 70
   192
  0
VERTEX
  5
612
  8
0
 10
175.0
 20
7.186525344848633
 30
306.7773132324219
 70
   192
  0
VERTEX
  5
613
  8
0
 10
175.0
 20
-0.0000001610792282
 30
304.3999938964844
 70
   192
  0
VERTEX
  5
614
  8
0
 10
235.3999938964844
 20
-0.0000001610792282
 30
268.7999877929688
 70
   192
  0
VERTEX
  5
615
  8
0
 10
230.6869506835938
 20
7.764027118682861
 30
283.8976745605469
 70
   192
  0
VERTEX
  5
616
  8
0
 10
233.0391998291016
 20
7.348585605621338
 30
268.7999877929688
 70
   192
  0
VERTEX
  5
617
  8
0
 10
219.1312561035156
 20
11.75081062316895
 30
268.7999877929688
 70
   192
  0
VERTEX
  5
618
  8
0
 10
220.9082489013672
 20
12.14751148223877
 30
281.2465209960938
 70
   192
  0
VERTEX
  5
619
  8
0
 10
211.81982421875
 20
7.259049415588379
 30
278.782470703125
 70
   192
  0
VERTEX
  5
61A
  8
0
 10
225.0522918701172
 20
7.764027118682861
 30
297.5009460449219
 70
   192
  0
VERTEX
  5
61B
  8
0
 10
233.3665924072266
 20
-0.0000001610792282
 30
284.3099975585938
 70
   192
  0
VERTEX
  5
61C
  8
0
 10
227.2813873291016
 20
-0.0000001610792282
 30
299.0402221679688
 70
   192
  0
VERTEX
  5
61D
  8
0
 10
216.0282287597656
 20
7.186525344848633
 30
309.8282165527344
 70
   192
  0
VERTEX
  5
61E
  8
0
 10
216.2630462646484
 20
12.14751148223877
 30
292.4610290527344
 70
   192
  0
VERTEX
  5
61F
  8
0
 10
217.7092437744141
 20
-0.0000001610792282
 30
311.5092468261719
 70
   192
  0
VERTEX
  5
620
  8
0
 10
206.2590484619141
 20
11.78590869903564
 30
300.0590515136719
 70
   192
  0
VERTEX
  5
621
  8
0
 10
211.6767425537109
 20
11.75081062316895
 30
305.4767456054688
 70
   192
  0
VERTEX
  5
622
  8
0
 10
226.7930297851562
 20
11.78590869903564
 30
268.7999877929688
 70
   192
  0
VERTEX
  5
623
  8
0
 10
208.0942230224609
 20
7.259049415588379
 30
287.77685546875
 70
   192
  0
VERTEX
  5
624
  8
0
 10
205.8740997314453
 20
-0.0000001610792282
 30
286.5038146972656
 70
   192
  0
VERTEX
  5
625
  8
0
 10
209.3497619628906
 20
-0.0000001610792282
 30
278.11279296875
 70
   192
  0
VERTEX
  5
626
  8
0
 10
210.6000061035156
 20
-0.0000001610792282
 30
268.7999877929688
 70
   192
  0
VERTEX
  5
627
  8
0
 10
212.9773254394531
 20
7.186525344848633
 30
268.7999877929688
 70
   192
  0
VERTEX
  5
628
  8
0
 10
201.8423309326172
 20
7.348585605621338
 30
295.642333984375
 70
   192
  0
VERTEX
  5
629
  8
0
 10
200.1730041503906
 20
-0.0000001610792282
 30
293.9729919433594
 70
   192
  0
VERTEX
  5
62A
  8
0
 10
203.7009582519531
 20
7.764027118682861
 30
318.852294921875
 70
   192
  0
VERTEX
  5
62B
  8
0
 10
198.6610260009766
 20
12.14751148223877
 30
310.0630493164062
 70
   192
  0
VERTEX
  5
62C
  8
0
 10
193.9768676757812
 20
7.259049415588379
 30
301.8942260742188
 70
   192
  0
VERTEX
  5
62D
  8
0
 10
190.0976715087891
 20
7.764027118682861
 30
324.4869384765625
 70
   192
  0
VERTEX
  5
62E
  8
0
 10
205.3041839599609
 20
-0.0000001610792282
 30
321.0386352539062
 70
   192
  0
VERTEX
  5
62F
  8
0
 10
190.5854644775391
 20
-0.0000001610792282
 30
327.1515808105469
 70
   192
  0
VERTEX
  5
630
  8
0
 10
187.4465026855469
 20
12.14751148223877
 30
314.708251953125
 70
   192
  0
VERTEX
  5
631
  8
0
 10
184.9824829101562
 20
7.259049415588379
 30
305.6198120117188
 70
   192
  0
VERTEX
  5
632
  8
0
 10
184.3128051757812
 20
-0.0000001610792282
 30
303.1497802734375
 70
   192
  0
VERTEX
  5
633
  8
0
 10
192.7038116455078
 20
-0.0000001610792282
 30
299.6741027832031
 70
   192
  0
VERTEX
  5
634
  8
0
 10
197.1344299316406
 20
-7.259049892425537
 30
322.2372436523438
 70
   192
  0
VERTEX
  5
635
  8
0
 10
211.6767425537109
 20
-11.75081157684326
 30
305.4767456054688
 70
   192
  0
VERTEX
  5
636
  8
0
 10
193.5298461914062
 20
-12.14751148223877
 30
313.5350036621094
 70
   192
  0
VERTEX
  5
637
  8
0
 10
175.0
 20
-7.348586082458496
 30
326.8392028808594
 70
   192
  0
VERTEX
  5
638
  8
0
 10
216.0282287597656
 20
-7.186525344848633
 30
309.8282165527344
 70
   192
  0
VERTEX
  5
639
  8
0
 10
201.8423309326172
 20
-7.348586082458496
 30
295.642333984375
 70
   192
  0
VERTEX
  5
63A
  8
0
 10
189.6514892578125
 20
-7.764027118682861
 30
304.1718444824219
 70
   192
  0
VERTEX
  5
63B
  8
0
 10
206.2590484619141
 20
-11.78590965270996
 30
300.0590515136719
 70
   192
  0
VERTEX
  5
63C
  8
0
 10
175.0
 20
-7.186525344848633
 30
306.7773132324219
 70
   192
  0
VERTEX
  5
63D
  8
0
 10
175.0
 20
-11.75081157684326
 30
312.9312438964844
 70
   192
  0
VERTEX
  5
63E
  8
0
 10
175.0
 20
-11.78590965270996
 30
320.5930480957031
 70
   192
  0
VERTEX
  5
63F
  8
0
 10
226.8687438964844
 20
11.75081062316895
 30
250.8000030517578
 70
   192
  0
VERTEX
  5
640
  8
0
 10
233.0226745605469
 20
7.186525344848633
 30
250.8000030517578
 70
   192
  0
VERTEX
  5
641
  8
0
 10
235.3999938964844
 20
-0.0000001610792282
 30
250.8000030517578
 70
   192
  0
VERTEX
  5
642
  8
0
 10
219.2069702148438
 20
11.78590869903564
 30
250.8000030517578
 70
   192
  0
VERTEX
  5
643
  8
0
 10
212.9608001708984
 20
7.348585605621338
 30
250.8000030517578
 70
   192
  0
VERTEX
  5
644
  8
0
 10
210.6000061035156
 20
-0.0000001610792282
 30
250.8000030517578
 70
   192
  0
VERTEX
  5
645
  8
0
 10
233.0391998291016
 20
-7.348586082458496
 30
250.8000030517578
 70
   192
  0
VERTEX
  5
646
  8
0
 10
233.0391998291016
 20
-7.348586082458496
 30
268.7999877929688
 70
   192
  0
VERTEX
  5
647
  8
0
 10
212.9773254394531
 20
-7.186525344848633
 30
268.7999877929688
 70
   192
  0
VERTEX
  5
648
  8
0
 10
219.1312561035156
 20
-11.75081157684326
 30
268.7999877929688
 70
   192
  0
VERTEX
  5
649
  8
0
 10
212.9773254394531
 20
-7.186525344848633
 30
250.8000030517578
 70
   192
  0
VERTEX
  5
64A
  8
0
 10
226.7930297851562
 20
-11.78590965270996
 30
268.7999877929688
 70
   192
  0
VERTEX
  5
64B
  8
0
 10
226.7930297851562
 20
-11.78590965270996
 30
250.8000030517578
 70
   192
  0
VERTEX
  5
64C
  8
0
 10
219.1312561035156
 20
-11.75081157684326
 30
250.8000030517578
 70
   192
  0
VERTEX
  5
64D
  8
0
 10
228.4372406005859
 20
-7.259049892425537
 30
290.9344177246094
 70
   192
  0
VERTEX
  5
64E
  8
0
 10
219.7350006103516
 20
-12.14751148223877
 30
287.329833984375
 70
   192
  0
VERTEX
  5
64F
  8
0
 10
210.3718414306641
 20
-7.764027118682861
 30
283.4515075683594
 70
   192
  0
VERTEX
  5
650
  8
0
 10
48.0
 20
-7.348586082458496
 30
326.8392028808594
 70
   192
  0
VERTEX
  5
651
  8
0
 10
48.0
 20
-7.186525344848633
 30
306.7773132324219
 70
   192
  0
VERTEX
  5
652
  8
0
 10
48.0
 20
-11.75081157684326
 30
312.9312438964844
 70
   192
  0
VERTEX
  5
653
  8
0
 10
48.0
 20
-11.78590965270996
 30
320.5930480957031
 70
   192
  0
VERTEX
  5
654
  8
0
 10
25.86557388305664
 20
-7.259049892425537
 30
322.2372436523438
 70
   192
  0
VERTEX
  5
655
  8
0
 10
29.47015571594238
 20
-12.14751148223877
 30
313.5350036621094
 70
   192
  0
VERTEX
  5
656
  8
0
 10
33.34850692749023
 20
-7.764027118682861
 30
304.1718444824219
 70
   192
  0
VERTEX
  5
657
  8
0
 10
-10.02268123626709
 20
-7.186525344848633
 30
110.8000030517578
 70
   192
  0
VERTEX
  5
658
  8
0
 10
10.03920650482178
 20
-7.348586082458496
 30
110.8000030517578
 70
   192
  0
VERTEX
  5
659
  8
0
 10
3.793036222457886
 20
-11.78590965270996
 30
110.8000030517578
 70
   192
  0
VERTEX
  5
65A
  8
0
 10
-3.868751287460327
 20
-11.75081157684326
 30
110.8000030517578
 70
   192
  0
VERTEX
  5
65B
  8
0
 62
     9
 10
0.0
 20
0.0
 30
0.0
 70
   128
 71
     3
 72
     2
 73
     1
  0
VERTEX
  5
65C
  8
0
 62
     9
 10
0.0
 20
0.0
 30
0.0
 70
   128
 71
     5
 72
     4
 73
     1
  0
VERTEX
  5
65D
  8
0
 62
     9
 10
0.0
 20
0.0
 30
0.0
 70
   128
 71
     3
 72
     1
 73
     4
  0
VERTEX
  5
65E
  8
0
 62
     9
 10
0.0
 20
0.0
 30
0.0
 70
   128
 71
     6
 72
     4
 73
     5
  0
VERTEX
  5
65F
  8
0
 62
     9
 10
0.0
 20
0.0
 30
0.0
 70
   128
 71
     7
 72
     6
 73
     5
  0
VERTEX
  5
660
  8
0
 62
     9
 10
0.0
 20
0.0
 30
0.0
 70
   128
 71
     3
 72
     8
 73
     2
  0
VERTEX
  5
661
  8
0
 62
     9
 10
0.0
 20
0.0
 30
0.0
 70
   128
 71
     8
 72
    10
 73
     9
  0
VERTEX
  5
662
  8
0
 62
     9
 10
0.0
 20
0.0
 30
0.0
 70
   128
 71
     9
 72
     2
 73
     8
  0
VERTEX
  5
663
  8
0
 62
     9
 10
0.0
 20
0.0
 30
0.0
 70
   128
 71
    10
 72
    11
 73
     9
  0
VERTEX
  5
664
  8
0
 62
     9
 10
0.0
 20
0.0
 30
0.0
 70
   128
 71
    10
 72
    12
 73
    11
  0
VERTEX
  5
665
  8
0
 62
     9
 10
0.0
 20
0.0
 30
0.0
 70
   128
 71
    15
 72
    14
 73
    13
  0
VERTEX
  5
666
  8
0
 62
     9
 10
0.0
 20
0.0
 30
0.0
 70
   128
 71
    18
 72
    17
 73
    16
  0
VERTEX
  5
667
  8
0
 62
     9
 10
0.0
 20
0.0
 30
0.0
 70
   128
 71
    21
 72
    20
 73
    19
  0
VERTEX
  5
668
  8
0
 62
     9
 10
0.0
 20
0.0
 30
0.0
 70
   128
 71
    14
 72
    19
 73
    20
  0
VERTEX
  5
669
  8
0
 62
     9
 10
0.0
 20
0.0
 30
0.0
 70
   128
 71
    21
 72
    19
 73
    22
  0
VERTEX
  5
66A
  8
0
 62
     9
 10
0.0
 20
0.0
 30
0.0
 70
   128
 71
    14
 72
    23
 73
    19
  0
VERTEX
  5
66B
  8
0
 62
     9
 10
0.0
 20
0.0
 30
0.0
 70
   128
 71
    24
 72
    21
 73
    22
  0
VERTEX
  5
66C
  8
0
 62
     9
 10
0.0
 20
0.0
 30
0.0
 70
   128
 71
    26
 72
    23
 73
    25
  0
VERTEX
  5
66D
  8
0
 62
     9
 10
0.0
 20
0.0
 30
0.0
 70
   128
 71
    27
 72
    17
 73
    14
  0
VERTEX
  5
66E
  8
0
 62
     9
 10
0.0
 20
0.0
 30
0.0
 70
   128
 71
    29
 72
    28
 73
    18
  0
VERTEX
  5
66F
  8
0
 62
     9
 10
0.0
 20
0.0
 30
0.0
 70
   128
 71
    29
 72
    18
 73
    30
  0
VERTEX
  5
670
  8
0
 62
     9
 10
0.0
 20
0.0
 30
0.0
 70
   128
 71
    30
 72
    32
 73
    31
  0
VERTEX
  5
671
  8
0
 62
     9
 10
0.0
 20
0.0
 30
0.0
 70
   128
 71
    17
 72
    28
 73
    23
  0
VERTEX
  5
672
  8
0
 62
     9
 10
0.0
 20
0.0
 30
0.0
 70
   128
 71
    28
 72
    34
 73
    33
  0
VERTEX
  5
673
  8
0
 62
     9
 10
0.0
 20
0.0
 30
0.0
 70
   128
 71
    28
 72
    29
 73
    34
  0
VERTEX
  5
674
  8
0
 62
     9
 10
0.0
 20
0.0
 30
0.0
 70
   128
 71
    28
 72
    33
 73
    25
  0
VERTEX
  5
675
  8
0
 62
     9
 10
0.0
 20
0.0
 30
0.0
 70
   128
 71
    32
 72
    18
 73
    16
  0
VERTEX
  5
676
  8
0
 62
     9
 10
0.0
 20
0.0
 30
0.0
 70
   128
 71
    18
 72
    32
 73
    30
  0
VERTEX
  5
677
  8
0
 62
     9
 10
0.0
 20
0.0
 30
0.0
 70
   128
 71
    23
 72
    28
 73
    25
  0
VERTEX
  5
678
  8
0
 62
     9
 10
0.0
 20
0.0
 30
0.0
 70
   128
 71
    19
 72
    26
 73
    22
  0
VERTEX
  5
679
  8
0
 62
     9
 10
0.0
 20
0.0
 30
0.0
 70
   128
 71
    17
 72
    27
 73
    16
  0
VERTEX
  5
67A
  8
0
 62
     9
 10
0.0
 20
0.0
 30
0.0
 70
   128
 71
    17
 72
    18
 73
    28
  0
VERTEX
  5
67B
  8
0
 62
     9
 10
0.0
 20
0.0
 30
0.0
 70
   128
 71
    19
 72
    23
 73
    26
  0
VERTEX
  5
67C
  8
0
 62
     9
 10
0.0
 20
0.0
 30
0.0
 70
   128
 71
    14
 72
    20
 73
    13
  0
VERTEX
  5
67D
  8
0
 62
     9
 10
0.0
 20
0.0
 30
0.0
 70
   128
 71
    14
 72
    15
 73
    27
  0
VERTEX
  5
67E
  8
0
 62
     9
 10
0.0
 20
0.0
 30
0.0
 70
   128
 71
    14
 72
    17
 73
    23
  0
VERTEX
  5
67F
  8
0
 62
     9
 10
0.0
 20
0.0
 30
0.0
 70
   128
 71
    22
 72
    35
 73
    24
  0
VERTEX
  5
680
  8
0
 62
     9
 10
0.0
 20
0.0
 30
0.0
 70
   128
 71
    37
 72
    36
 73
    25
  0
VERTEX
  5
681
  8
0
 62
     9
 10
0.0
 20
0.0
 30
0.0
 70
   128
 71
    40
 72
    39
 73
    38
  0
VERTEX
  5
682
  8
0
 62
     9
 10
0.0
 20
0.0
 30
0.0
 70
   128
 71
    35
 72
    38
 73
    39
  0
VERTEX
  5
683
  8
0
 62
     9
 10
0.0
 20
0.0
 30
0.0
 70
   128
 71
    40
 72
    38
 73
     4
  0
VERTEX
  5
684
  8
0
 62
     9
 10
0.0
 20
0.0
 30
0.0
 70
   128
 71
    35
 72
    41
 73
    38
  0
VERTEX
  5
685
  8
0
 62
     9
 10
0.0
 20
0.0
 30
0.0
 70
   128
 71
     6
 72
    40
 73
     4
  0
VERTEX
  5
686
  8
0
 62
     9
 10
0.0
 20
0.0
 30
0.0
 70
   128
 71
     3
 72
    41
 73
     8
  0
VERTEX
  5
687
  8
0
 62
     9
 10
0.0
 20
0.0
 30
0.0
 70
   128
 71
    26
 72
    36
 73
    35
  0
VERTEX
  5
688
  8
0
 62
     9
 10
0.0
 20
0.0
 30
0.0
 70
   128
 71
    43
 72
    42
 73
    37
  0
VERTEX
  5
689
  8
0
 62
     9
 10
0.0
 20
0.0
 30
0.0
 70
   128
 71
    43
 72
    37
 73
    44
  0
VERTEX
  5
68A
  8
0
 62
     9
 10
0.0
 20
0.0
 30
0.0
 70
   128
 71
    44
 72
    33
 73
    34
  0
VERTEX
  5
68B
  8
0
 62
     9
 10
0.0
 20
0.0
 30
0.0
 70
   128
 71
    36
 72
    42
 73
    41
  0
VERTEX
  5
68C
  8
0
 62
     9
 10
0.0
 20
0.0
 30
0.0
 70
   128
 71
    42
 72
    12
 73
    10
  0
VERTEX
  5
68D
  8
0
 62
     9
 10
0.0
 20
0.0
 30
0.0
 70
   128
 71
    42
 72
    43
 73
    12
  0
VERTEX
  5
68E
  8
0
 62
     9
 10
0.0
 20
0.0
 30
0.0
 70
   128
 71
    42
 72
    10
 73
     8
  0
VERTEX
  5
68F
  8
0
 62
     9
 10
0.0
 20
0.0
 30
0.0
 70
   128
 71
    33
 72
    37
 73
    25
  0
VERTEX
  5
690
  8
0
 62
     9
 10
0.0
 20
0.0
 30
0.0
 70
   128
 71
    37
 72
    33
 73
    44
  0
VERTEX
  5
691
  8
0
 62
     9
 10
0.0
 20
0.0
 30
0.0
 70
   128
 71
    41
 72
    42
 73
     8
  0
VERTEX
  5
692
  8
0
 62
     9
 10
0.0
 20
0.0
 30
0.0
 70
   128
 71
    38
 72
     3
 73
     4
  0
VERTEX
  5
693
  8
0
 62
     9
 10
0.0
 20
0.0
 30
0.0
 70
   128
 71
    36
 72
    26
 73
    25
  0
VERTEX
  5
694
  8
0
 62
     9
 10
0.0
 20
0.0
 30
0.0
 70
   128
 71
    36
 72
    37
 73
    42
  0
VERTEX
  5
695
  8
0
 62
     9
 10
0.0
 20
0.0
 30
0.0
 70
   128
 71
    38
 72
    41
 73
     3
  0
VERTEX
  5
696
  8
0
 62
     9
 10
0.0
 20
0.0
 30
0.0
 70
   128
 71
    35
 72
    39
 73
    24
  0
VERTEX
  5
697
  8
0
 62
     9
 10
0.0
 20
0.0
 30
0.0
 70
   128
 71
    35
 72
    22
 73
    26
  0
VERTEX
  5
698
  8
0
 62
     9
 10
0.0
 20
0.0
 30
0.0
 70
   128
 71
    35
 72
    36
 73
    41
  0
VERTEX
  5
699
  8
0
 62
     9
 10
0.0
 20
0.0
 30
0.0
 70
   128
 71
    47
 72
    46
 73
    45
  0
VERTEX
  5
69A
  8
0
 62
     9
 10
0.0
 20
0.0
 30
0.0
 70
   128
 71
     6
 72
    48
 73
    40
  0
VERTEX
  5
69B
  8
0
 62
     9
 10
0.0
 20
0.0
 30
0.0
 70
   128
 71
    48
 72
    45
 73
    40
  0
VERTEX
  5
69C
  8
0
 62
     9
 10
0.0
 20
0.0
 30
0.0
 70
   128
 71
    46
 72
    49
 73
    45
  0
VERTEX
  5
69D
  8
0
 62
     9
 10
0.0
 20
0.0
 30
0.0
 70
   128
 71
    52
 72
    51
 73
    50
  0
VERTEX
  5
69E
  8
0
 62
     9
 10
0.0
 20
0.0
 30
0.0
 70
   128
 71
    12
 72
    43
 73
    53
  0
VERTEX
  5
69F
  8
0
 62
     9
 10
0.0
 20
0.0
 30
0.0
 70
   128
 71
    51
 72
    44
 73
    50
  0
VERTEX
  5
6A0
  8
0
 62
     9
 10
0.0
 20
0.0
 30
0.0
 70
   128
 71
    50
 72
    44
 73
    34
  0
VERTEX
  5
6A1
  8
0
 62
     9
 10
0.0
 20
0.0
 30
0.0
 70
   128
 71
    44
 72
    51
 73
    43
  0
VERTEX
  5
6A2
  8
0
 62
     9
 10
0.0
 20
0.0
 30
0.0
 70
   128
 71
    52
 72
    46
 73
    47
  0
VERTEX
  5
6A3
  8
0
 62
     9
 10
0.0
 20
0.0
 30
0.0
 70
   128
 71
    52
 72
    47
 73
    51
  0
VERTEX
  5
6A4
  8
0
 62
     9
 10
0.0
 20
0.0
 30
0.0
 70
   128
 71
    40
 72
    45
 73
    39
  0
VERTEX
  5
6A5
  8
0
 62
     9
 10
0.0
 20
0.0
 30
0.0
 70
   128
 71
    55
 72
    54
 73
    47
  0
VERTEX
  5
6A6
  8
0
 62
     9
 10
0.0
 20
0.0
 30
0.0
 70
   128
 71
    39
 72
    49
 73
    24
  0
VERTEX
  5
6A7
  8
0
 62
     9
 10
0.0
 20
0.0
 30
0.0
 70
   128
 71
    45
 72
    49
 73
    39
  0
VERTEX
  5
6A8
  8
0
 62
     9
 10
0.0
 20
0.0
 30
0.0
 70
   128
 71
    55
 72
    45
 73
    48
  0
VERTEX
  5
6A9
  8
0
 62
     9
 10
0.0
 20
0.0
 30
0.0
 70
   128
 71
    54
 72
    53
 73
    51
  0
VERTEX
  5
6AA
  8
0
 62
     9
 10
0.0
 20
0.0
 30
0.0
 70
   128
 71
    47
 72
    45
 73
    55
  0
VERTEX
  5
6AB
  8
0
 62
     9
 10
0.0
 20
0.0
 30
0.0
 70
   128
 71
    51
 72
    47
 73
    54
  0
VERTEX
  5
6AC
  8
0
 62
     9
 10
0.0
 20
0.0
 30
0.0
 70
   128
 71
    51
 72
    53
 73
    43
  0
VERTEX
  5
6AD
  8
0
 62
     9
 10
0.0
 20
0.0
 30
0.0
 70
   128
 71
    56
 72
    16
 73
    27
  0
VERTEX
  5
6AE
  8
0
 62
     9
 10
0.0
 20
0.0
 30
0.0
 70
   128
 71
    15
 72
    57
 73
    27
  0
VERTEX
  5
6AF
  8
0
 62
     9
 10
0.0
 20
0.0
 30
0.0
 70
   128
 71
    56
 72
    27
 73
    57
  0
VERTEX
  5
6B0
  8
0
 62
     9
 10
0.0
 20
0.0
 30
0.0
 70
   128
 71
    58
 72
    57
 73
    15
  0
VERTEX
  5
6B1
  8
0
 62
     9
 10
0.0
 20
0.0
 30
0.0
 70
   128
 71
    13
 72
    58
 73
    15
  0
VERTEX
  5
6B2
  8
0
 62
     9
 10
0.0
 20
0.0
 30
0.0
 70
   128
 71
    56
 72
    59
 73
    16
  0
VERTEX
  5
6B3
  8
0
 62
     9
 10
0.0
 20
0.0
 30
0.0
 70
   128
 71
    59
 72
    60
 73
    32
  0
VERTEX
  5
6B4
  8
0
 62
     9
 10
0.0
 20
0.0
 30
0.0
 70
   128
 71
    32
 72
    16
 73
    59
  0
VERTEX
  5
6B5
  8
0
 62
     9
 10
0.0
 20
0.0
 30
0.0
 70
   128
 71
    60
 72
    31
 73
    32
  0
VERTEX
  5
6B6
  8
0
 62
     9
 10
0.0
 20
0.0
 30
0.0
 70
   128
 71
    60
 72
    61
 73
    31
  0
VERTEX
  5
6B7
  8
0
 62
     9
 10
0.0
 20
0.0
 30
0.0
 70
   128
 71
    64
 72
    63
 73
    62
  0
VERTEX
  5
6B8
  8
0
 62
     9
 10
0.0
 20
0.0
 30
0.0
 70
   128
 71
    67
 72
    66
 73
    65
  0
VERTEX
  5
6B9
  8
0
 62
     9
 10
0.0
 20
0.0
 30
0.0
 70
   128
 71
    70
 72
    69
 73
    68
  0
VERTEX
  5
6BA
  8
0
 62
     9
 10
0.0
 20
0.0
 30
0.0
 70
   128
 71
    63
 72
    68
 73
    69
  0
VERTEX
  5
6BB
  8
0
 62
     9
 10
0.0
 20
0.0
 30
0.0
 70
   128
 71
    70
 72
    68
 73
    71
  0
VERTEX
  5
6BC
  8
0
 62
     9
 10
0.0
 20
0.0
 30
0.0
 70
   128
 71
    63
 72
    72
 73
    68
  0
VERTEX
  5
6BD
  8
0
 62
     9
 10
0.0
 20
0.0
 30
0.0
 70
   128
 71
    73
 72
    70
 73
    71
  0
VERTEX
  5
6BE
  8
0
 62
     9
 10
0.0
 20
0.0
 30
0.0
 70
   128
 71
    75
 72
    72
 73
    74
  0
VERTEX
  5
6BF
  8
0
 62
     9
 10
0.0
 20
0.0
 30
0.0
 70
   128
 71
    76
 72
    66
 73
    63
  0
VERTEX
  5
6C0
  8
0
 62
     9
 10
0.0
 20
0.0
 30
0.0
 70
   128
 71
    78
 72
    77
 73
    67
  0
VERTEX
  5
6C1
  8
0
 62
     9
 10
0.0
 20
0.0
 30
0.0
 70
   128
 71
    78
 72
    67
 73
    79
  0
VERTEX
  5
6C2
  8
0
 62
     9
 10
0.0
 20
0.0
 30
0.0
 70
   128
 71
    79
 72
    81
 73
    80
  0
VERTEX
  5
6C3
  8
0
 62
     9
 10
0.0
 20
0.0
 30
0.0
 70
   128
 71
    66
 72
    77
 73
    72
  0
VERTEX
  5
6C4
  8
0
 62
     9
 10
0.0
 20
0.0
 30
0.0
 70
   128
 71
    77
 72
    83
 73
    82
  0
VERTEX
  5
6C5
  8
0
 62
     9
 10
0.0
 20
0.0
 30
0.0
 70
   128
 71
    77
 72
    78
 73
    83
  0
VERTEX
  5
6C6
  8
0
 62
     9
 10
0.0
 20
0.0
 30
0.0
 70
   128
 71
    77
 72
    82
 73
    74
  0
VERTEX
  5
6C7
  8
0
 62
     9
 10
0.0
 20
0.0
 30
0.0
 70
   128
 71
    81
 72
    67
 73
    65
  0
VERTEX
  5
6C8
  8
0
 62
     9
 10
0.0
 20
0.0
 30
0.0
 70
   128
 71
    67
 72
    81
 73
    79
  0
VERTEX
  5
6C9
  8
0
 62
     9
 10
0.0
 20
0.0
 30
0.0
 70
   128
 71
    72
 72
    77
 73
    74
  0
VERTEX
  5
6CA
  8
0
 62
     9
 10
0.0
 20
0.0
 30
0.0
 70
   128
 71
    68
 72
    75
 73
    71
  0
VERTEX
  5
6CB
  8
0
 62
     9
 10
0.0
 20
0.0
 30
0.0
 70
   128
 71
    66
 72
    76
 73
    65
  0
VERTEX
  5
6CC
  8
0
 62
     9
 10
0.0
 20
0.0
 30
0.0
 70
   128
 71
    66
 72
    67
 73
    77
  0
VERTEX
  5
6CD
  8
0
 62
     9
 10
0.0
 20
0.0
 30
0.0
 70
   128
 71
    68
 72
    72
 73
    75
  0
VERTEX
  5
6CE
  8
0
 62
     9
 10
0.0
 20
0.0
 30
0.0
 70
   128
 71
    63
 72
    69
 73
    62
  0
VERTEX
  5
6CF
  8
0
 62
     9
 10
0.0
 20
0.0
 30
0.0
 70
   128
 71
    63
 72
    64
 73
    76
  0
VERTEX
  5
6D0
  8
0
 62
     9
 10
0.0
 20
0.0
 30
0.0
 70
   128
 71
    63
 72
    66
 73
    72
  0
VERTEX
  5
6D1
  8
0
 62
     9
 10
0.0
 20
0.0
 30
0.0
 70
   128
 71
    71
 72
    84
 73
    73
  0
VERTEX
  5
6D2
  8
0
 62
     9
 10
0.0
 20
0.0
 30
0.0
 70
   128
 71
    86
 72
    85
 73
    74
  0
VERTEX
  5
6D3
  8
0
 62
     9
 10
0.0
 20
0.0
 30
0.0
 70
   128
 71
    89
 72
    88
 73
    87
  0
VERTEX
  5
6D4
  8
0
 62
     9
 10
0.0
 20
0.0
 30
0.0
 70
   128
 71
    84
 72
    87
 73
    88
  0
VERTEX
  5
6D5
  8
0
 62
     9
 10
0.0
 20
0.0
 30
0.0
 70
   128
 71
    89
 72
    87
 73
    57
  0
VERTEX
  5
6D6
  8
0
 62
     9
 10
0.0
 20
0.0
 30
0.0
 70
   128
 71
    84
 72
    90
 73
    87
  0
VERTEX
  5
6D7
  8
0
 62
     9
 10
0.0
 20
0.0
 30
0.0
 70
   128
 71
    58
 72
    89
 73
    57
  0
VERTEX
  5
6D8
  8
0
 62
     9
 10
0.0
 20
0.0
 30
0.0
 70
   128
 71
    56
 72
    90
 73
    59
  0
VERTEX
  5
6D9
  8
0
 62
     9
 10
0.0
 20
0.0
 30
0.0
 70
   128
 71
    75
 72
    85
 73
    84
  0
VERTEX
  5
6DA
  8
0
 62
     9
 10
0.0
 20
0.0
 30
0.0
 70
   128
 71
    92
 72
    91
 73
    86
  0
VERTEX
  5
6DB
  8
0
 62
     9
 10
0.0
 20
0.0
 30
0.0
 70
   128
 71
    92
 72
    86
 73
    93
  0
VERTEX
  5
6DC
  8
0
 62
     9
 10
0.0
 20
0.0
 30
0.0
 70
   128
 71
    93
 72
    82
 73
    83
  0
VERTEX
  5
6DD
  8
0
 62
     9
 10
0.0
 20
0.0
 30
0.0
 70
   128
 71
    85
 72
    91
 73
    90
  0
VERTEX
  5
6DE
  8
0
 62
     9
 10
0.0
 20
0.0
 30
0.0
 70
   128
 71
    91
 72
    61
 73
    60
  0
VERTEX
  5
6DF
  8
0
 62
     9
 10
0.0
 20
0.0
 30
0.0
 70
   128
 71
    91
 72
    92
 73
    61
  0
VERTEX
  5
6E0
  8
0
 62
     9
 10
0.0
 20
0.0
 30
0.0
 70
   128
 71
    91
 72
    60
 73
    59
  0
VERTEX
  5
6E1
  8
0
 62
     9
 10
0.0
 20
0.0
 30
0.0
 70
   128
 71
    82
 72
    86
 73
    74
  0
VERTEX
  5
6E2
  8
0
 62
     9
 10
0.0
 20
0.0
 30
0.0
 70
   128
 71
    86
 72
    82
 73
    93
  0
VERTEX
  5
6E3
  8
0
 62
     9
 10
0.0
 20
0.0
 30
0.0
 70
   128
 71
    90
 72
    91
 73
    59
  0
VERTEX
  5
6E4
  8
0
 62
     9
 10
0.0
 20
0.0
 30
0.0
 70
   128
 71
    87
 72
    56
 73
    57
  0
VERTEX
  5
6E5
  8
0
 62
     9
 10
0.0
 20
0.0
 30
0.0
 70
   128
 71
    85
 72
    75
 73
    74
  0
VERTEX
  5
6E6
  8
0
 62
     9
 10
0.0
 20
0.0
 30
0.0
 70
   128
 71
    85
 72
    86
 73
    91
  0
VERTEX
  5
6E7
  8
0
 62
     9
 10
0.0
 20
0.0
 30
0.0
 70
   128
 71
    87
 72
    90
 73
    56
  0
VERTEX
  5
6E8
  8
0
 62
     9
 10
0.0
 20
0.0
 30
0.0
 70
   128
 71
    84
 72
    88
 73
    73
  0
VERTEX
  5
6E9
  8
0
 62
     9
 10
0.0
 20
0.0
 30
0.0
 70
   128
 71
    84
 72
    71
 73
    75
  0
VERTEX
  5
6EA
  8
0
 62
     9
 10
0.0
 20
0.0
 30
0.0
 70
   128
 71
    84
 72
    85
 73
    90
  0
VERTEX
  5
6EB
  8
0
 62
     9
 10
0.0
 20
0.0
 30
0.0
 70
   128
 71
    96
 72
    95
 73
    94
  0
VERTEX
  5
6EC
  8
0
 62
     9
 10
0.0
 20
0.0
 30
0.0
 70
   128
 71
    58
 72
    97
 73
    89
  0
VERTEX
  5
6ED
  8
0
 62
     9
 10
0.0
 20
0.0
 30
0.0
 70
   128
 71
    97
 72
    94
 73
    89
  0
VERTEX
  5
6EE
  8
0
 62
     9
 10
0.0
 20
0.0
 30
0.0
 70
   128
 71
    95
 72
    98
 73
    94
  0
VERTEX
  5
6EF
  8
0
 62
     9
 10
0.0
 20
0.0
 30
0.0
 70
   128
 71
   101
 72
   100
 73
    99
  0
VERTEX
  5
6F0
  8
0
 62
     9
 10
0.0
 20
0.0
 30
0.0
 70
   128
 71
    61
 72
    92
 73
   102
  0
VERTEX
  5
6F1
  8
0
 62
     9
 10
0.0
 20
0.0
 30
0.0
 70
   128
 71
   100
 72
    93
 73
    99
  0
VERTEX
  5
6F2
  8
0
 62
     9
 10
0.0
 20
0.0
 30
0.0
 70
   128
 71
    99
 72
    93
 73
    83
  0
VERTEX
  5
6F3
  8
0
 62
     9
 10
0.0
 20
0.0
 30
0.0
 70
   128
 71
    93
 72
   100
 73
    92
  0
VERTEX
  5
6F4
  8
0
 62
     9
 10
0.0
 20
0.0
 30
0.0
 70
   128
 71
   101
 72
    95
 73
    96
  0
VERTEX
  5
6F5
  8
0
 62
     9
 10
0.0
 20
0.0
 30
0.0
 70
   128
 71
   101
 72
    96
 73
   100
  0
VERTEX
  5
6F6
  8
0
 62
     9
 10
0.0
 20
0.0
 30
0.0
 70
   128
 71
    89
 72
    94
 73
    88
  0
VERTEX
  5
6F7
  8
0
 62
     9
 10
0.0
 20
0.0
 30
0.0
 70
   128
 71
   104
 72
   103
 73
    96
  0
VERTEX
  5
6F8
  8
0
 62
     9
 10
0.0
 20
0.0
 30
0.0
 70
   128
 71
    88
 72
    98
 73
    73
  0
VERTEX
  5
6F9
  8
0
 62
     9
 10
0.0
 20
0.0
 30
0.0
 70
   128
 71
    94
 72
    98
 73
    88
  0
VERTEX
  5
6FA
  8
0
 62
     9
 10
0.0
 20
0.0
 30
0.0
 70
   128
 71
   104
 72
    94
 73
    97
  0
VERTEX
  5
6FB
  8
0
 62
     9
 10
0.0
 20
0.0
 30
0.0
 70
   128
 71
   103
 72
   102
 73
   100
  0
VERTEX
  5
6FC
  8
0
 62
     9
 10
0.0
 20
0.0
 30
0.0
 70
   128
 71
    96
 72
    94
 73
   104
  0
VERTEX
  5
6FD
  8
0
 62
     9
 10
0.0
 20
0.0
 30
0.0
 70
   128
 71
   100
 72
    96
 73
   103
  0
VERTEX
  5
6FE
  8
0
 62
     9
 10
0.0
 20
0.0
 30
0.0
 70
   128
 71
   100
 72
   102
 73
    92
  0
VERTEX
  5
6FF
  8
0
 62
     9
 10
0.0
 20
0.0
 30
0.0
 70
   128
 71
   105
 72
    65
 73
    76
  0
VERTEX
  5
700
  8
0
 62
     9
 10
0.0
 20
0.0
 30
0.0
 70
   128
 71
    64
 72
   106
 73
    76
  0
VERTEX
  5
701
  8
0
 62
     9
 10
0.0
 20
0.0
 30
0.0
 70
   128
 71
   105
 72
    76
 73
   106
  0
VERTEX
  5
702
  8
0
 62
     9
 10
0.0
 20
0.0
 30
0.0
 70
   128
 71
   107
 72
   106
 73
    64
  0
VERTEX
  5
703
  8
0
 62
     9
 10
0.0
 20
0.0
 30
0.0
 70
   128
 71
    62
 72
   107
 73
    64
  0
VERTEX
  5
704
  8
0
 62
     9
 10
0.0
 20
0.0
 30
0.0
 70
   128
 71
   105
 72
   108
 73
    65
  0
VERTEX
  5
705
  8
0
 62
     9
 10
0.0
 20
0.0
 30
0.0
 70
   128
 71
   108
 72
   109
 73
    81
  0
VERTEX
  5
706
  8
0
 62
     9
 10
0.0
 20
0.0
 30
0.0
 70
   128
 71
    81
 72
    65
 73
   108
  0
VERTEX
  5
707
  8
0
 62
     9
 10
0.0
 20
0.0
 30
0.0
 70
   128
 71
   109
 72
    80
 73
    81
  0
VERTEX
  5
708
  8
0
 62
     9
 10
0.0
 20
0.0
 30
0.0
 70
   128
 71
   109
 72
   110
 73
    80
  0
VERTEX
  5
709
  8
0
 62
     9
 10
0.0
 20
0.0
 30
0.0
 70
   128
 71
    62
 72
   112
 73
   111
  0
VERTEX
  5
70A
  8
0
 62
     9
 10
0.0
 20
0.0
 30
0.0
 70
   128
 71
   115
 72
   114
 73
   113
  0
VERTEX
  5
70B
  8
0
 62
     9
 10
0.0
 20
0.0
 30
0.0
 70
   128
 71
   118
 72
   117
 73
   116
  0
VERTEX
  5
70C
  8
0
 62
     9
 10
0.0
 20
0.0
 30
0.0
 70
   128
 71
    80
 72
   110
 73
   113
  0
VERTEX
  5
70D
  8
0
 62
     9
 10
0.0
 20
0.0
 30
0.0
 70
   128
 71
   115
 72
   113
 73
   110
  0
VERTEX
  5
70E
  8
0
 62
     9
 10
0.0
 20
0.0
 30
0.0
 70
   128
 71
   118
 72
   116
 73
   114
  0
VERTEX
  5
70F
  8
0
 62
     9
 10
0.0
 20
0.0
 30
0.0
 70
   128
 71
   118
 72
   114
 73
   115
  0
VERTEX
  5
710
  8
0
 62
     9
 10
0.0
 20
0.0
 30
0.0
 70
   128
 71
   117
 72
   111
 73
   112
  0
VERTEX
  5
711
  8
0
 62
     9
 10
0.0
 20
0.0
 30
0.0
 70
   128
 71
   117
 72
   112
 73
   116
  0
VERTEX
  5
712
  8
0
 62
     9
 10
0.0
 20
0.0
 30
0.0
 70
   128
 71
   111
 72
   107
 73
    62
  0
VERTEX
  5
713
  8
0
 62
     9
 10
0.0
 20
0.0
 30
0.0
 70
   128
 71
   120
 72
   116
 73
   119
  0
VERTEX
  5
714
  8
0
 62
     9
 10
0.0
 20
0.0
 30
0.0
 70
   128
 71
    73
 72
    98
 73
    70
  0
VERTEX
  5
715
  8
0
 62
     9
 10
0.0
 20
0.0
 30
0.0
 70
   128
 71
    98
 72
   119
 73
    70
  0
VERTEX
  5
716
  8
0
 62
     9
 10
0.0
 20
0.0
 30
0.0
 70
   128
 71
   116
 72
   112
 73
   119
  0
VERTEX
  5
717
  8
0
 62
     9
 10
0.0
 20
0.0
 30
0.0
 70
   128
 71
   114
 72
   121
 73
   113
  0
VERTEX
  5
718
  8
0
 62
     9
 10
0.0
 20
0.0
 30
0.0
 70
   128
 71
    83
 72
    78
 73
    99
  0
VERTEX
  5
719
  8
0
 62
     9
 10
0.0
 20
0.0
 30
0.0
 70
   128
 71
   121
 72
    79
 73
   113
  0
VERTEX
  5
71A
  8
0
 62
     9
 10
0.0
 20
0.0
 30
0.0
 70
   128
 71
   113
 72
    79
 73
    80
  0
VERTEX
  5
71B
  8
0
 62
     9
 10
0.0
 20
0.0
 30
0.0
 70
   128
 71
    79
 72
   121
 73
    78
  0
VERTEX
  5
71C
  8
0
 62
     9
 10
0.0
 20
0.0
 30
0.0
 70
   128
 71
   114
 72
   116
 73
   120
  0
VERTEX
  5
71D
  8
0
 62
     9
 10
0.0
 20
0.0
 30
0.0
 70
   128
 71
   114
 72
   120
 73
   121
  0
VERTEX
  5
71E
  8
0
 62
     9
 10
0.0
 20
0.0
 30
0.0
 70
   128
 71
    70
 72
   119
 73
    69
  0
VERTEX
  5
71F
  8
0
 62
     9
 10
0.0
 20
0.0
 30
0.0
 70
   128
 71
    95
 72
   101
 73
   120
  0
VERTEX
  5
720
  8
0
 62
     9
 10
0.0
 20
0.0
 30
0.0
 70
   128
 71
    69
 72
   112
 73
    62
  0
VERTEX
  5
721
  8
0
 62
     9
 10
0.0
 20
0.0
 30
0.0
 70
   128
 71
   119
 72
   112
 73
    69
  0
VERTEX
  5
722
  8
0
 62
     9
 10
0.0
 20
0.0
 30
0.0
 70
   128
 71
    95
 72
   119
 73
    98
  0
VERTEX
  5
723
  8
0
 62
     9
 10
0.0
 20
0.0
 30
0.0
 70
   128
 71
   101
 72
    99
 73
   121
  0
VERTEX
  5
724
  8
0
 62
     9
 10
0.0
 20
0.0
 30
0.0
 70
   128
 71
   120
 72
   119
 73
    95
  0
VERTEX
  5
725
  8
0
 62
     9
 10
0.0
 20
0.0
 30
0.0
 70
   128
 71
   121
 72
   120
 73
   101
  0
VERTEX
  5
726
  8
0
 62
     9
 10
0.0
 20
0.0
 30
0.0
 70
   128
 71
   121
 72
    99
 73
    78
  0
VERTEX
  5
727
  8
0
 62
     9
 10
0.0
 20
0.0
 30
0.0
 70
   128
 71
    13
 72
   122
 73
    97
  0
VERTEX
  5
728
  8
0
 62
     9
 10
0.0
 20
0.0
 30
0.0
 70
   128
 71
   102
 72
   124
 73
   123
  0
VERTEX
  5
729
  8
0
 62
     9
 10
0.0
 20
0.0
 30
0.0
 70
   128
 71
   103
 72
   104
 73
   125
  0
VERTEX
  5
72A
  8
0
 62
     9
 10
0.0
 20
0.0
 30
0.0
 70
   128
 71
    31
 72
    61
 73
   123
  0
VERTEX
  5
72B
  8
0
 62
     9
 10
0.0
 20
0.0
 30
0.0
 70
   128
 71
   102
 72
   123
 73
    61
  0
VERTEX
  5
72C
  8
0
 62
     9
 10
0.0
 20
0.0
 30
0.0
 70
   128
 71
   103
 72
   125
 73
   124
  0
VERTEX
  5
72D
  8
0
 62
     9
 10
0.0
 20
0.0
 30
0.0
 70
   128
 71
   103
 72
   124
 73
   102
  0
VERTEX
  5
72E
  8
0
 62
     9
 10
0.0
 20
0.0
 30
0.0
 70
   128
 71
   104
 72
    97
 73
   122
  0
VERTEX
  5
72F
  8
0
 62
     9
 10
0.0
 20
0.0
 30
0.0
 70
   128
 71
   104
 72
   122
 73
   125
  0
VERTEX
  5
730
  8
0
 62
     9
 10
0.0
 20
0.0
 30
0.0
 70
   128
 71
    97
 72
    58
 73
    13
  0
VERTEX
  5
731
  8
0
 62
     9
 10
0.0
 20
0.0
 30
0.0
 70
   128
 71
   127
 72
   125
 73
   126
  0
VERTEX
  5
732
  8
0
 62
     9
 10
0.0
 20
0.0
 30
0.0
 70
   128
 71
    24
 72
    49
 73
    21
  0
VERTEX
  5
733
  8
0
 62
     9
 10
0.0
 20
0.0
 30
0.0
 70
   128
 71
    49
 72
   126
 73
    21
  0
VERTEX
  5
734
  8
0
 62
     9
 10
0.0
 20
0.0
 30
0.0
 70
   128
 71
   125
 72
   122
 73
   126
  0
VERTEX
  5
735
  8
0
 62
     9
 10
0.0
 20
0.0
 30
0.0
 70
   128
 71
   124
 72
   128
 73
   123
  0
VERTEX
  5
736
  8
0
 62
     9
 10
0.0
 20
0.0
 30
0.0
 70
   128
 71
    34
 72
    29
 73
    50
  0
VERTEX
  5
737
  8
0
 62
     9
 10
0.0
 20
0.0
 30
0.0
 70
   128
 71
   128
 72
    30
 73
   123
  0
VERTEX
  5
738
  8
0
 62
     9
 10
0.0
 20
0.0
 30
0.0
 70
   128
 71
   123
 72
    30
 73
    31
  0
VERTEX
  5
739
  8
0
 62
     9
 10
0.0
 20
0.0
 30
0.0
 70
   128
 71
    30
 72
   128
 73
    29
  0
VERTEX
  5
73A
  8
0
 62
     9
 10
0.0
 20
0.0
 30
0.0
 70
   128
 71
   124
 72
   125
 73
   127
  0
VERTEX
  5
73B
  8
0
 62
     9
 10
0.0
 20
0.0
 30
0.0
 70
   128
 71
   124
 72
   127
 73
   128
  0
VERTEX
  5
73C
  8
0
 62
     9
 10
0.0
 20
0.0
 30
0.0
 70
   128
 71
    21
 72
   126
 73
    20
  0
VERTEX
  5
73D
  8
0
 62
     9
 10
0.0
 20
0.0
 30
0.0
 70
   128
 71
    46
 72
    52
 73
   127
  0
VERTEX
  5
73E
  8
0
 62
     9
 10
0.0
 20
0.0
 30
0.0
 70
   128
 71
    20
 72
   122
 73
    13
  0
VERTEX
  5
73F
  8
0
 62
     9
 10
0.0
 20
0.0
 30
0.0
 70
   128
 71
   126
 72
   122
 73
    20
  0
VERTEX
  5
740
  8
0
 62
     9
 10
0.0
 20
0.0
 30
0.0
 70
   128
 71
    46
 72
   126
 73
    49
  0
VERTEX
  5
741
  8
0
 62
     9
 10
0.0
 20
0.0
 30
0.0
 70
   128
 71
    52
 72
    50
 73
   128
  0
VERTEX
  5
742
  8
0
 62
     9
 10
0.0
 20
0.0
 30
0.0
 70
   128
 71
   127
 72
   126
 73
    46
  0
VERTEX
  5
743
  8
0
 62
     9
 10
0.0
 20
0.0
 30
0.0
 70
   128
 71
   128
 72
   127
 73
    52
  0
VERTEX
  5
744
  8
0
 62
     9
 10
0.0
 20
0.0
 30
0.0
 70
   128
 71
   128
 72
    50
 73
    29
  0
VERTEX
  5
745
  8
0
 62
     9
 10
0.0
 20
0.0
 30
0.0
 70
   128
 71
     7
 72
   129
 73
    48
  0
VERTEX
  5
746
  8
0
 62
     9
 10
0.0
 20
0.0
 30
0.0
 70
   128
 71
    53
 72
   131
 73
   130
  0
VERTEX
  5
747
  8
0
 62
     9
 10
0.0
 20
0.0
 30
0.0
 70
   128
 71
    54
 72
    55
 73
   132
  0
VERTEX
  5
748
  8
0
 62
     9
 10
0.0
 20
0.0
 30
0.0
 70
   128
 71
    11
 72
    12
 73
   130
  0
VERTEX
  5
749
  8
0
 62
     9
 10
0.0
 20
0.0
 30
0.0
 70
   128
 71
    53
 72
   130
 73
    12
  0
VERTEX
  5
74A
  8
0
 62
     9
 10
0.0
 20
0.0
 30
0.0
 70
   128
 71
    54
 72
   132
 73
   131
  0
VERTEX
  5
74B
  8
0
 62
     9
 10
0.0
 20
0.0
 30
0.0
 70
   128
 71
    54
 72
   131
 73
    53
  0
VERTEX
  5
74C
  8
0
 62
     9
 10
0.0
 20
0.0
 30
0.0
 70
   128
 71
    55
 72
    48
 73
   129
  0
VERTEX
  5
74D
  8
0
 62
     9
 10
0.0
 20
0.0
 30
0.0
 70
   128
 71
    55
 72
   129
 73
   132
  0
VERTEX
  5
74E
  8
0
 62
     9
 10
0.0
 20
0.0
 30
0.0
 70
   128
 71
    48
 72
     6
 73
     7
  0
SEQEND
  5
74F
  8
0
 62
     9
  0
ENDBLK
  5
752
  8
0
  0
BLOCK
  8
0
  2
071121_BODY_HIGH_SPOUT_KLE
 70
     0
 10
0.0
 20
0.0
 30
0.0
  3
071121_BODY_HIGH_SPOUT_KLE
  1

  0
POLYLINE
  5
754
  8
0
 62
     9
 66
     1
 10
0.0
 20
0.0
 30
0.0
 70
    64
 71
    86
 72
   160
  0
VERTEX
  5
755
  8
0
 10
-24.63968086242676
 20
10.56476783752441
 30
64.17107391357422
 70
   192
  0
VERTEX
  5
756
  8
0
 10
-21.7913703918457
 20
15.35781097412109
 30
74.59710693359375
 70
   192
  0
VERTEX
  5
757
  8
0
 10
-23.14400100708008
 20
13.47465133666992
 30
111.0
 70
   192
  0
VERTEX
  5
758
  8
0
 10
-13.32756423950195
 20
23.24225234985352
 30
111.0
 70
   192
  0
VERTEX
  5
759
  8
0
 10
-15.92178058624268
 20
21.55775833129883
 30
82.79161071777344
 70
   192
  0
VERTEX
  5
75A
  8
0
 10
-8.621191024780273
 20
25.3756160736084
 30
87.19195556640625
 70
   192
  0
VERTEX
  5
75B
  8
0
 10
-0.0000000000000041
 20
26.79999923706055
 30
111.0
 70
   192
  0
VERTEX
  5
75C
  8
0
 10
0.0000004130063473
 20
26.79999923706055
 30
88.78604888916016
 70
   192
  0
VERTEX
  5
75D
  8
0
 10
-26.79999923706055
 20
-0.0000000000000213
 30
111.0
 70
   192
  0
VERTEX
  5
75E
  8
0
 10
-23.58631706237793
 20
12.67187881469727
 30
52.85223770141602
 70
   192
  0
VERTEX
  5
75F
  8
0
 10
-23.24225234985352
 20
13.32756423950195
 30
0.0000000000000022
 70
   192
  0
VERTEX
  5
760
  8
0
 10
-26.79999923706055
 20
-0.0000000000000071
 30
0.0
 70
   192
  0
VERTEX
  5
761
  8
0
 10
-19.1959056854248
 20
18.77948951721191
 30
43.66914749145508
 70
   192
  0
VERTEX
  5
762
  8
0
 10
-13.47465133666992
 20
23.14400100708008
 30
0.0000000000000039
 70
   192
  0
VERTEX
  5
763
  8
0
 10
-11.1545877456665
 20
24.39201354980469
 30
36.93341827392578
 70
   192
  0
VERTEX
  5
764
  8
0
 10
-0.0000000000000041
 20
26.79999923706055
 30
0.0
 70
   192
  0
VERTEX
  5
765
  8
0
 10
-0.0000000000000041
 20
26.79999923706055
 30
34.21396255493164
 70
   192
  0
VERTEX
  5
766
  8
0
 10
-23.14400100708008
 20
-13.47465133666992
 30
-0.0000000000000022
 70
   192
  0
VERTEX
  5
767
  8
0
 10
-23.24225234985352
 20
-13.32756423950195
 30
111.0
 70
   192
  0
VERTEX
  5
768
  8
0
 10
-13.32756423950195
 20
-23.24225234985352
 30
-0.0000000000000039
 70
   192
  0
VERTEX
  5
769
  8
0
 10
-13.47465133666992
 20
-23.14400100708008
 30
111.0
 70
   192
  0
VERTEX
  5
76A
  8
0
 10
0.0000000000000033
 20
-26.79999923706055
 30
0.0
 70
   192
  0
VERTEX
  5
76B
  8
0
 10
0.0000000000000033
 20
-26.79999923706055
 30
111.0
 70
   192
  0
VERTEX
  5
76C
  8
0
 10
-17.59357070922852
 20
23.54816627502441
 30
45.56027984619141
 70
   192
  0
VERTEX
  5
76D
  8
0
 10
-22.68278312683105
 20
58.0
 30
54.50619888305664
 70
   192
  0
VERTEX
  5
76E
  8
0
 10
-22.11776351928711
 20
18.05242729187012
 30
53.32717514038086
 70
   192
  0
VERTEX
  5
76F
  8
0
 10
-13.90471363067627
 20
58.0
 30
42.25919723510742
 70
   192
  0
VERTEX
  5
770
  8
0
 10
-10.06370830535889
 20
28.29516220092773
 30
40.02487564086914
 70
   192
  0
VERTEX
  5
771
  8
0
 10
0.0
 20
58.0
 30
37.75
 70
   192
  0
VERTEX
  5
772
  8
0
 10
-0.0000008309847317
 20
30.33413505554199
 30
37.75
 70
   192
  0
VERTEX
  5
773
  8
0
 10
-23.69331169128418
 20
15.35639572143555
 30
63.13169479370117
 70
   192
  0
VERTEX
  5
774
  8
0
 10
-22.7056713104248
 20
58.0
 30
68.54905700683594
 70
   192
  0
VERTEX
  5
775
  8
0
 10
-21.14410209655762
 20
19.72626304626465
 30
72.3016586303711
 70
   192
  0
VERTEX
  5
776
  8
0
 10
-13.65605640411377
 20
58.0
 30
80.84379577636719
 70
   192
  0
VERTEX
  5
777
  8
0
 10
-15.63149833679199
 20
25.20211219787598
 30
79.38068389892578
 70
   192
  0
VERTEX
  5
778
  8
0
 10
0.0000000421821724
 20
58.0
 30
85.25
 70
   192
  0
VERTEX
  5
779
  8
0
 10
-8.487154006958008
 20
28.93397903442383
 30
83.68195343017578
 70
   192
  0
VERTEX
  5
77A
  8
0
 10
0.0
 20
30.33469772338867
 30
85.25
 70
   192
  0
VERTEX
  5
77B
  8
0
 10
-15.2231559753418
 20
23.00997352600098
 30
80.73795318603516
 70
   192
  0
VERTEX
  5
77C
  8
0
 10
-5.824672698974609
 20
27.16885757446289
 30
85.54544067382812
 70
   192
  0
VERTEX
  5
77D
  8
0
 10
23.95194244384766
 20
12.90258502960205
 30
62.09859085083008
 70
   192
  0
VERTEX
  5
77E
  8
0
 10
22.27946662902832
 20
18.15264892578125
 30
69.68521118164062
 70
   192
  0
VERTEX
  5
77F
  8
0
 10
23.63498115539551
 20
15.47031688690186
 30
59.80834579467773
 70
   192
  0
VERTEX
  5
780
  8
0
 10
4.822296142578125
 20
27.38895416259766
 30
85.7835922241211
 70
   192
  0
VERTEX
  5
781
  8
0
 10
11.2175235748291
 20
24.30161666870117
 30
85.99244689941406
 70
   192
  0
VERTEX
  5
782
  8
0
 10
15.55560684204102
 20
25.25789833068848
 30
43.55325698852539
 70
   192
  0
VERTEX
  5
783
  8
0
 10
15.14640235900879
 20
23.06359100341797
 30
42.19819641113281
 70
   192
  0
VERTEX
  5
784
  8
0
 10
20.99989128112793
 20
19.66177749633789
 30
50.69007110595703
 70
   192
  0
VERTEX
  5
785
  8
0
 10
10.02888011932373
 20
28.37790107727051
 30
83.04472351074219
 70
   192
  0
VERTEX
  5
786
  8
0
 10
14.52207565307617
 20
23.49521446228027
 30
81.30972290039062
 70
   192
  0
VERTEX
  5
787
  8
0
 10
15.84371089935303
 20
21.61520004272461
 30
40.14037704467773
 70
   192
  0
VERTEX
  5
788
  8
0
 10
21.56922149658203
 20
16.70856666564941
 30
50.40882873535156
 70
   192
  0
VERTEX
  5
789
  8
0
 10
21.94694137573242
 20
15.45017433166504
 30
48.21414566040039
 70
   192
  0
VERTEX
  5
78A
  8
0
 10
21.18180847167969
 20
17.30498313903809
 30
73.3186264038086
 70
   192
  0
VERTEX
  5
78B
  8
0
 10
17.64455795288086
 20
23.59603500366211
 30
77.41532897949219
 70
   192
  0
VERTEX
  5
78C
  8
0
 10
19.05990219116211
 20
18.66099739074707
 30
79.21974182128906
 70
   192
  0
VERTEX
  5
78D
  8
0
 10
23.66925621032715
 20
12.53671741485596
 30
70.16411590576172
 70
   192
  0
VERTEX
  5
78E
  8
0
 10
24.58284759521484
 20
10.70983505249023
 30
58.65344619750977
 70
   192
  0
VERTEX
  5
78F
  8
0
 10
9.106599807739258
 20
-24.9881420135498
 30
111.0
 70
   192
  0
VERTEX
  5
790
  8
0
 10
17.22818565368652
 20
-20.43253135681152
 30
111.0
 70
   192
  0
VERTEX
  5
791
  8
0
 10
23.22048950195312
 20
-13.39245223999023
 30
111.0
 70
   192
  0
VERTEX
  5
792
  8
0
 10
26.3959789276123
 20
-4.621108531951904
 30
111.0
 70
   192
  0
VERTEX
  5
793
  8
0
 10
26.38455009460449
 20
4.673996448516846
 30
111.0
 70
   192
  0
VERTEX
  5
794
  8
0
 10
9.137665748596191
 20
25.1823787689209
 30
111.0
 70
   192
  0
VERTEX
  5
795
  8
0
 10
17.13353157043457
 20
20.41678810119629
 30
111.0
 70
   192
  0
VERTEX
  5
796
  8
0
 10
23.20263862609863
 20
13.38529300689697
 30
111.0
 70
   192
  0
VERTEX
  5
797
  8
0
 10
-21.61781692504883
 20
16.58831596374512
 30
72.5338363647461
 70
   192
  0
VERTEX
  5
798
  8
0
 10
-21.15885734558105
 20
17.35746192932129
 30
49.64950561523438
 70
   192
  0
VERTEX
  5
799
  8
0
 10
-14.47041797637939
 20
23.53193664550781
 30
41.65768051147461
 70
   192
  0
VERTEX
  5
79A
  8
0
 10
-23.95791625976562
 20
12.877610206604
 30
60.86533355712891
 70
   192
  0
VERTEX
  5
79B
  8
0
 10
5.760869979858398
 20
27.17904472351074
 30
37.44083404541016
 70
   192
  0
VERTEX
  5
79C
  8
0
 10
8.344671249389648
 20
28.98090171813965
 30
39.26424026489258
 70
   192
  0
VERTEX
  5
79D
  8
0
 10
8.335467338562012
 20
25.47076797485352
 30
35.69374465942383
 70
   192
  0
VERTEX
  5
79E
  8
0
 10
-4.870480060577393
 20
27.38122367858887
 30
37.22459030151367
 70
   192
  0
VERTEX
  5
79F
  8
0
 10
13.69979000091553
 20
58.0
 30
42.18522644042969
 70
   192
  0
VERTEX
  5
7A0
  8
0
 10
13.89048671722412
 20
58.0
 30
80.75196075439453
 70
   192
  0
VERTEX
  5
7A1
  8
0
 10
22.67803192138672
 20
58.0
 30
68.49964904785156
 70
   192
  0
VERTEX
  5
7A2
  8
0
 10
22.71665382385254
 20
58.0
 30
54.48361587524414
 70
   192
  0
VERTEX
  5
7A3
  8
0
 10
26.39702033996582
 20
-4.558175086975098
 30
-0.0000000000000008
 70
   192
  0
VERTEX
  5
7A4
  8
0
 10
23.24225234985352
 20
-13.32756423950195
 30
-0.0000000000000022
 70
   192
  0
VERTEX
  5
7A5
  8
0
 10
23.14400100708008
 20
13.47465133666992
 30
0.0000000000000022
 70
   192
  0
VERTEX
  5
7A6
  8
0
 10
26.35865211486816
 20
4.750931262969971
 30
0.0000000000000008
 70
   192
  0
VERTEX
  5
7A7
  8
0
 10
17.26766586303711
 20
-20.49078178405762
 30
-0.0000000000000034
 70
   192
  0
VERTEX
  5
7A8
  8
0
 10
9.193452835083008
 20
-25.1727352142334
 30
-0.0000000000000042
 70
   192
  0
VERTEX
  5
7A9
  8
0
 10
17.15326499938965
 20
20.56719970703125
 30
0.0000000000000034
 70
   192
  0
VERTEX
  5
7AA
  8
0
 10
9.193452835083008
 20
25.1727352142334
 30
0.0000000000000042
 70
   192
  0
VERTEX
  5
7AB
  8
0
 62
     9
 10
0.0
 20
0.0
 30
0.0
 70
   128
 71
     3
 72
     2
 73
     1
  0
VERTEX
  5
7AC
  8
0
 62
     9
 10
0.0
 20
0.0
 30
0.0
 70
   128
 71
     5
 72
     3
 73
     4
  0
VERTEX
  5
7AD
  8
0
 62
     9
 10
0.0
 20
0.0
 30
0.0
 70
   128
 71
     3
 72
     5
 73
     2
  0
VERTEX
  5
7AE
  8
0
 62
     9
 10
0.0
 20
0.0
 30
0.0
 70
   128
 71
     7
 72
     6
 73
     4
  0
VERTEX
  5
7AF
  8
0
 62
     9
 10
0.0
 20
0.0
 30
0.0
 70
   128
 71
     5
 72
     4
 73
     6
  0
VERTEX
  5
7B0
  8
0
 62
     9
 10
0.0
 20
0.0
 30
0.0
 70
   128
 71
     8
 72
     6
 73
     7
  0
VERTEX
  5
7B1
  8
0
 62
     9
 10
0.0
 20
0.0
 30
0.0
 70
   128
 71
     3
 72
     1
 73
     9
  0
VERTEX
  5
7B2
  8
0
 62
     9
 10
0.0
 20
0.0
 30
0.0
 70
   128
 71
    11
 72
     1
 73
    10
  0
VERTEX
  5
7B3
  8
0
 62
     9
 10
0.0
 20
0.0
 30
0.0
 70
   128
 71
    11
 72
    12
 73
     1
  0
VERTEX
  5
7B4
  8
0
 62
     9
 10
0.0
 20
0.0
 30
0.0
 70
   128
 71
    10
 72
    13
 73
    11
  0
VERTEX
  5
7B5
  8
0
 62
     9
 10
0.0
 20
0.0
 30
0.0
 70
   128
 71
     9
 72
     1
 73
    12
  0
VERTEX
  5
7B6
  8
0
 62
     9
 10
0.0
 20
0.0
 30
0.0
 70
   128
 71
    13
 72
    15
 73
    14
  0
VERTEX
  5
7B7
  8
0
 62
     9
 10
0.0
 20
0.0
 30
0.0
 70
   128
 71
    14
 72
    11
 73
    13
  0
VERTEX
  5
7B8
  8
0
 62
     9
 10
0.0
 20
0.0
 30
0.0
 70
   128
 71
    16
 72
    14
 73
    15
  0
VERTEX
  5
7B9
  8
0
 62
     9
 10
0.0
 20
0.0
 30
0.0
 70
   128
 71
    16
 72
    15
 73
    17
  0
VERTEX
  5
7BA
  8
0
 62
     9
 10
0.0
 20
0.0
 30
0.0
 70
   128
 71
    18
 72
     9
 73
    12
  0
VERTEX
  5
7BB
  8
0
 62
     9
 10
0.0
 20
0.0
 30
0.0
 70
   128
 71
    20
 72
    19
 73
    18
  0
VERTEX
  5
7BC
  8
0
 62
     9
 10
0.0
 20
0.0
 30
0.0
 70
   128
 71
     9
 72
    18
 73
    19
  0
VERTEX
  5
7BD
  8
0
 62
     9
 10
0.0
 20
0.0
 30
0.0
 70
   128
 71
    20
 72
    22
 73
    21
  0
VERTEX
  5
7BE
  8
0
 62
     9
 10
0.0
 20
0.0
 30
0.0
 70
   128
 71
    21
 72
    19
 73
    20
  0
VERTEX
  5
7BF
  8
0
 62
     9
 10
0.0
 20
0.0
 30
0.0
 70
   128
 71
    22
 72
    23
 73
    21
  0
VERTEX
  5
7C0
  8
0
 62
     9
 10
0.0
 20
0.0
 30
0.0
 70
   128
 71
    26
 72
    25
 73
    24
  0
VERTEX
  5
7C1
  8
0
 62
     9
 10
0.0
 20
0.0
 30
0.0
 70
   128
 71
    28
 72
    24
 73
    27
  0
VERTEX
  5
7C2
  8
0
 62
     9
 10
0.0
 20
0.0
 30
0.0
 70
   128
 71
    25
 72
    27
 73
    24
  0
VERTEX
  5
7C3
  8
0
 62
     9
 10
0.0
 20
0.0
 30
0.0
 70
   128
 71
    28
 72
    27
 73
    29
  0
VERTEX
  5
7C4
  8
0
 62
     9
 10
0.0
 20
0.0
 30
0.0
 70
   128
 71
    30
 72
    28
 73
    29
  0
VERTEX
  5
7C5
  8
0
 62
     9
 10
0.0
 20
0.0
 30
0.0
 70
   128
 71
    31
 72
    25
 73
    26
  0
VERTEX
  5
7C6
  8
0
 62
     9
 10
0.0
 20
0.0
 30
0.0
 70
   128
 71
    33
 72
    32
 73
    31
  0
VERTEX
  5
7C7
  8
0
 62
     9
 10
0.0
 20
0.0
 30
0.0
 70
   128
 71
    25
 72
    31
 73
    32
  0
VERTEX
  5
7C8
  8
0
 62
     9
 10
0.0
 20
0.0
 30
0.0
 70
   128
 71
    33
 72
    35
 73
    34
  0
VERTEX
  5
7C9
  8
0
 62
     9
 10
0.0
 20
0.0
 30
0.0
 70
   128
 71
    34
 72
    32
 73
    33
  0
VERTEX
  5
7CA
  8
0
 62
     9
 10
0.0
 20
0.0
 30
0.0
 70
   128
 71
    34
 72
    37
 73
    36
  0
VERTEX
  5
7CB
  8
0
 62
     9
 10
0.0
 20
0.0
 30
0.0
 70
   128
 71
    37
 72
    34
 73
    35
  0
VERTEX
  5
7CC
  8
0
 62
     9
 10
0.0
 20
0.0
 30
0.0
 70
   128
 71
    37
 72
    38
 73
    36
  0
VERTEX
  5
7CD
  8
0
 62
     9
 10
0.0
 20
0.0
 30
0.0
 70
   128
 71
     6
 72
    40
 73
    39
  0
VERTEX
  5
7CE
  8
0
 62
     9
 10
0.0
 20
0.0
 30
0.0
 70
   128
 71
    43
 72
    42
 73
    41
  0
VERTEX
  5
7CF
  8
0
 62
     9
 10
0.0
 20
0.0
 30
0.0
 70
   128
 71
    40
 72
    35
 73
    39
  0
VERTEX
  5
7D0
  8
0
 62
     9
 10
0.0
 20
0.0
 30
0.0
 70
   128
 71
    39
 72
     5
 73
     6
  0
VERTEX
  5
7D1
  8
0
 62
     9
 10
0.0
 20
0.0
 30
0.0
 70
   128
 71
    45
 72
    44
 73
     8
  0
VERTEX
  5
7D2
  8
0
 62
     9
 10
0.0
 20
0.0
 30
0.0
 70
   128
 71
     8
 72
    44
 73
    40
  0
VERTEX
  5
7D3
  8
0
 62
     9
 10
0.0
 20
0.0
 30
0.0
 70
   128
 71
    38
 72
    37
 73
    40
  0
VERTEX
  5
7D4
  8
0
 62
     9
 10
0.0
 20
0.0
 30
0.0
 70
   128
 71
    48
 72
    47
 73
    46
  0
VERTEX
  5
7D5
  8
0
 62
     9
 10
0.0
 20
0.0
 30
0.0
 70
   128
 71
    44
 72
    50
 73
    49
  0
VERTEX
  5
7D6
  8
0
 62
     9
 10
0.0
 20
0.0
 30
0.0
 70
   128
 71
    47
 72
    52
 73
    51
  0
VERTEX
  5
7D7
  8
0
 62
     9
 10
0.0
 20
0.0
 30
0.0
 70
   128
 71
    52
 72
    47
 73
    48
  0
VERTEX
  5
7D8
  8
0
 62
     9
 10
0.0
 20
0.0
 30
0.0
 70
   128
 71
    51
 72
    52
 73
    53
  0
VERTEX
  5
7D9
  8
0
 62
     9
 10
0.0
 20
0.0
 30
0.0
 70
   128
 71
    52
 72
    43
 73
    41
  0
VERTEX
  5
7DA
  8
0
 62
     9
 10
0.0
 20
0.0
 30
0.0
 70
   128
 71
    42
 72
    54
 73
    41
  0
VERTEX
  5
7DB
  8
0
 62
     9
 10
0.0
 20
0.0
 30
0.0
 70
   128
 71
    55
 72
    50
 73
    54
  0
VERTEX
  5
7DC
  8
0
 62
     9
 10
0.0
 20
0.0
 30
0.0
 70
   128
 71
    49
 72
    50
 73
    55
  0
VERTEX
  5
7DD
  8
0
 62
     9
 10
0.0
 20
0.0
 30
0.0
 70
   128
 71
    42
 72
    55
 73
    54
  0
VERTEX
  5
7DE
  8
0
 62
     9
 10
0.0
 20
0.0
 30
0.0
 70
   128
 71
    38
 72
    44
 73
    49
  0
VERTEX
  5
7DF
  8
0
 62
     9
 10
0.0
 20
0.0
 30
0.0
 70
   128
 71
    37
 72
    35
 73
    40
  0
VERTEX
  5
7E0
  8
0
 62
     9
 10
0.0
 20
0.0
 30
0.0
 70
   128
 71
     8
 72
    40
 73
     6
  0
VERTEX
  5
7E1
  8
0
 62
     9
 10
0.0
 20
0.0
 30
0.0
 70
   128
 71
    56
 72
    50
 73
    45
  0
VERTEX
  5
7E2
  8
0
 62
     9
 10
0.0
 20
0.0
 30
0.0
 70
   128
 71
    40
 72
    44
 73
    38
  0
VERTEX
  5
7E3
  8
0
 62
     9
 10
0.0
 20
0.0
 30
0.0
 70
   128
 71
    50
 72
    44
 73
    45
  0
VERTEX
  5
7E4
  8
0
 62
     9
 10
0.0
 20
0.0
 30
0.0
 70
   128
 71
    56
 72
    57
 73
    54
  0
VERTEX
  5
7E5
  8
0
 62
     9
 10
0.0
 20
0.0
 30
0.0
 70
   128
 71
    54
 72
    50
 73
    56
  0
VERTEX
  5
7E6
  8
0
 62
     9
 10
0.0
 20
0.0
 30
0.0
 70
   128
 71
    57
 72
    58
 73
    41
  0
VERTEX
  5
7E7
  8
0
 62
     9
 10
0.0
 20
0.0
 30
0.0
 70
   128
 71
    41
 72
    54
 73
    57
  0
VERTEX
  5
7E8
  8
0
 62
     9
 10
0.0
 20
0.0
 30
0.0
 70
   128
 71
    58
 72
    53
 73
    52
  0
VERTEX
  5
7E9
  8
0
 62
     9
 10
0.0
 20
0.0
 30
0.0
 70
   128
 71
    52
 72
    41
 73
    58
  0
VERTEX
  5
7EA
  8
0
 62
     9
 10
0.0
 20
0.0
 30
0.0
 70
   128
 71
    52
 72
    48
 73
    43
  0
VERTEX
  5
7EB
  8
0
 62
     9
 10
0.0
 20
0.0
 30
0.0
 70
   128
 71
    21
 72
    23
 73
     9
  0
VERTEX
  5
7EC
  8
0
 62
     9
 10
0.0
 20
0.0
 30
0.0
 70
   128
 71
    59
 72
     9
 73
    23
  0
VERTEX
  5
7ED
  8
0
 62
     9
 10
0.0
 20
0.0
 30
0.0
 70
   128
 71
    21
 72
     9
 73
    19
  0
VERTEX
  5
7EE
  8
0
 62
     9
 10
0.0
 20
0.0
 30
0.0
 70
   128
 71
     3
 72
    59
 73
    60
  0
VERTEX
  5
7EF
  8
0
 62
     9
 10
0.0
 20
0.0
 30
0.0
 70
   128
 71
    59
 72
     3
 73
     9
  0
VERTEX
  5
7F0
  8
0
 62
     9
 10
0.0
 20
0.0
 30
0.0
 70
   128
 71
    61
 72
     4
 73
    60
  0
VERTEX
  5
7F1
  8
0
 62
     9
 10
0.0
 20
0.0
 30
0.0
 70
   128
 71
     3
 72
    60
 73
     4
  0
VERTEX
  5
7F2
  8
0
 62
     9
 10
0.0
 20
0.0
 30
0.0
 70
   128
 71
    62
 72
     4
 73
    61
  0
VERTEX
  5
7F3
  8
0
 62
     9
 10
0.0
 20
0.0
 30
0.0
 70
   128
 71
     7
 72
    62
 73
    63
  0
VERTEX
  5
7F4
  8
0
 62
     9
 10
0.0
 20
0.0
 30
0.0
 70
   128
 71
    62
 72
     7
 73
     4
  0
VERTEX
  5
7F5
  8
0
 62
     9
 10
0.0
 20
0.0
 30
0.0
 70
   128
 71
    66
 72
    65
 73
    64
  0
VERTEX
  5
7F6
  8
0
 62
     9
 10
0.0
 20
0.0
 30
0.0
 70
   128
 71
    66
 72
    64
 73
    63
  0
VERTEX
  5
7F7
  8
0
 62
     9
 10
0.0
 20
0.0
 30
0.0
 70
   128
 71
     7
 72
    63
 73
    64
  0
VERTEX
  5
7F8
  8
0
 62
     9
 10
0.0
 20
0.0
 30
0.0
 70
   128
 71
    67
 72
    39
 73
    33
  0
VERTEX
  5
7F9
  8
0
 62
     9
 10
0.0
 20
0.0
 30
0.0
 70
   128
 71
     5
 72
    39
 73
    67
  0
VERTEX
  5
7FA
  8
0
 62
     9
 10
0.0
 20
0.0
 30
0.0
 70
   128
 71
    33
 72
    39
 73
    35
  0
VERTEX
  5
7FB
  8
0
 62
     9
 10
0.0
 20
0.0
 30
0.0
 70
   128
 71
    24
 72
    69
 73
    68
  0
VERTEX
  5
7FC
  8
0
 62
     9
 10
0.0
 20
0.0
 30
0.0
 70
   128
 71
    70
 72
    67
 73
    31
  0
VERTEX
  5
7FD
  8
0
 62
     9
 10
0.0
 20
0.0
 30
0.0
 70
   128
 71
    72
 72
    71
 73
    30
  0
VERTEX
  5
7FE
  8
0
 62
     9
 10
0.0
 20
0.0
 30
0.0
 70
   128
 71
    24
 72
    28
 73
    69
  0
VERTEX
  5
7FF
  8
0
 62
     9
 10
0.0
 20
0.0
 30
0.0
 70
   128
 71
    73
 72
    47
 73
    51
  0
VERTEX
  5
800
  8
0
 62
     9
 10
0.0
 20
0.0
 30
0.0
 70
   128
 71
    71
 72
    73
 73
    17
  0
VERTEX
  5
801
  8
0
 62
     9
 10
0.0
 20
0.0
 30
0.0
 70
   128
 71
    71
 72
    46
 73
    47
  0
VERTEX
  5
802
  8
0
 62
     9
 10
0.0
 20
0.0
 30
0.0
 70
   128
 71
    71
 72
    47
 73
    73
  0
VERTEX
  5
803
  8
0
 62
     9
 10
0.0
 20
0.0
 30
0.0
 70
   128
 71
    74
 72
    30
 73
    71
  0
VERTEX
  5
804
  8
0
 62
     9
 10
0.0
 20
0.0
 30
0.0
 70
   128
 71
    30
 72
    74
 73
    28
  0
VERTEX
  5
805
  8
0
 62
     9
 10
0.0
 20
0.0
 30
0.0
 70
   128
 71
    69
 72
    28
 73
    74
  0
VERTEX
  5
806
  8
0
 62
     9
 10
0.0
 20
0.0
 30
0.0
 70
   128
 71
    68
 72
    26
 73
    24
  0
VERTEX
  5
807
  8
0
 62
     9
 10
0.0
 20
0.0
 30
0.0
 70
   128
 71
    33
 72
    31
 73
    67
  0
VERTEX
  5
808
  8
0
 62
     9
 10
0.0
 20
0.0
 30
0.0
 70
   128
 71
    26
 72
    68
 73
    70
  0
VERTEX
  5
809
  8
0
 62
     9
 10
0.0
 20
0.0
 30
0.0
 70
   128
 71
    70
 72
    31
 73
    26
  0
VERTEX
  5
80A
  8
0
 62
     9
 10
0.0
 20
0.0
 30
0.0
 70
   128
 71
    15
 72
    74
 73
    17
  0
VERTEX
  5
80B
  8
0
 62
     9
 10
0.0
 20
0.0
 30
0.0
 70
   128
 71
    71
 72
    72
 73
    46
  0
VERTEX
  5
80C
  8
0
 62
     9
 10
0.0
 20
0.0
 30
0.0
 70
   128
 71
    74
 72
    71
 73
    17
  0
VERTEX
  5
80D
  8
0
 62
     9
 10
0.0
 20
0.0
 30
0.0
 70
   128
 71
    13
 72
    69
 73
    15
  0
VERTEX
  5
80E
  8
0
 62
     9
 10
0.0
 20
0.0
 30
0.0
 70
   128
 71
    69
 72
    74
 73
    15
  0
VERTEX
  5
80F
  8
0
 62
     9
 10
0.0
 20
0.0
 30
0.0
 70
   128
 71
    13
 72
    10
 73
    68
  0
VERTEX
  5
810
  8
0
 62
     9
 10
0.0
 20
0.0
 30
0.0
 70
   128
 71
    68
 72
    69
 73
    13
  0
VERTEX
  5
811
  8
0
 62
     9
 10
0.0
 20
0.0
 30
0.0
 70
   128
 71
    10
 72
     1
 73
    70
  0
VERTEX
  5
812
  8
0
 62
     9
 10
0.0
 20
0.0
 30
0.0
 70
   128
 71
    70
 72
    68
 73
    10
  0
VERTEX
  5
813
  8
0
 62
     9
 10
0.0
 20
0.0
 30
0.0
 70
   128
 71
     1
 72
     2
 73
    67
  0
VERTEX
  5
814
  8
0
 62
     9
 10
0.0
 20
0.0
 30
0.0
 70
   128
 71
    67
 72
    70
 73
     1
  0
VERTEX
  5
815
  8
0
 62
     9
 10
0.0
 20
0.0
 30
0.0
 70
   128
 71
    67
 72
     2
 73
     5
  0
VERTEX
  5
816
  8
0
 62
     9
 10
0.0
 20
0.0
 30
0.0
 70
   128
 71
    29
 72
    75
 73
    72
  0
VERTEX
  5
817
  8
0
 62
     9
 10
0.0
 20
0.0
 30
0.0
 70
   128
 71
    55
 72
    77
 73
    76
  0
VERTEX
  5
818
  8
0
 62
     9
 10
0.0
 20
0.0
 30
0.0
 70
   128
 71
    43
 72
    78
 73
    77
  0
VERTEX
  5
819
  8
0
 62
     9
 10
0.0
 20
0.0
 30
0.0
 70
   128
 71
    38
 72
    49
 73
    36
  0
VERTEX
  5
81A
  8
0
 62
     9
 10
0.0
 20
0.0
 30
0.0
 70
   128
 71
    76
 72
    36
 73
    49
  0
VERTEX
  5
81B
  8
0
 62
     9
 10
0.0
 20
0.0
 30
0.0
 70
   128
 71
    55
 72
    76
 73
    49
  0
VERTEX
  5
81C
  8
0
 62
     9
 10
0.0
 20
0.0
 30
0.0
 70
   128
 71
    55
 72
    42
 73
    77
  0
VERTEX
  5
81D
  8
0
 62
     9
 10
0.0
 20
0.0
 30
0.0
 70
   128
 71
    78
 72
    43
 73
    48
  0
VERTEX
  5
81E
  8
0
 62
     9
 10
0.0
 20
0.0
 30
0.0
 70
   128
 71
    77
 72
    42
 73
    43
  0
VERTEX
  5
81F
  8
0
 62
     9
 10
0.0
 20
0.0
 30
0.0
 70
   128
 71
    48
 72
    75
 73
    78
  0
VERTEX
  5
820
  8
0
 62
     9
 10
0.0
 20
0.0
 30
0.0
 70
   128
 71
    75
 72
    46
 73
    72
  0
VERTEX
  5
821
  8
0
 62
     9
 10
0.0
 20
0.0
 30
0.0
 70
   128
 71
    48
 72
    46
 73
    75
  0
VERTEX
  5
822
  8
0
 62
     9
 10
0.0
 20
0.0
 30
0.0
 70
   128
 71
    72
 72
    30
 73
    29
  0
VERTEX
  5
823
  8
0
 62
     9
 10
0.0
 20
0.0
 30
0.0
 70
   128
 71
    45
 72
     8
 73
    64
  0
VERTEX
  5
824
  8
0
 62
     9
 10
0.0
 20
0.0
 30
0.0
 70
   128
 71
    80
 72
    79
 73
    61
  0
VERTEX
  5
825
  8
0
 62
     9
 10
0.0
 20
0.0
 30
0.0
 70
   128
 71
    82
 72
    81
 73
    58
  0
VERTEX
  5
826
  8
0
 62
     9
 10
0.0
 20
0.0
 30
0.0
 70
   128
 71
    61
 72
    60
 73
    83
  0
VERTEX
  5
827
  8
0
 62
     9
 10
0.0
 20
0.0
 30
0.0
 70
   128
 71
    83
 72
    80
 73
    61
  0
VERTEX
  5
828
  8
0
 62
     9
 10
0.0
 20
0.0
 30
0.0
 70
   128
 71
    84
 72
    60
 73
    59
  0
VERTEX
  5
829
  8
0
 62
     9
 10
0.0
 20
0.0
 30
0.0
 70
   128
 71
    60
 72
    84
 73
    83
  0
VERTEX
  5
82A
  8
0
 62
     9
 10
0.0
 20
0.0
 30
0.0
 70
   128
 71
    23
 72
    22
 73
    59
  0
VERTEX
  5
82B
  8
0
 62
     9
 10
0.0
 20
0.0
 30
0.0
 70
   128
 71
    84
 72
    59
 73
    22
  0
VERTEX
  5
82C
  8
0
 62
     9
 10
0.0
 20
0.0
 30
0.0
 70
   128
 71
    61
 72
    79
 73
    62
  0
VERTEX
  5
82D
  8
0
 62
     9
 10
0.0
 20
0.0
 30
0.0
 70
   128
 71
    79
 72
    63
 73
    62
  0
VERTEX
  5
82E
  8
0
 62
     9
 10
0.0
 20
0.0
 30
0.0
 70
   128
 71
    53
 72
    58
 73
    81
  0
VERTEX
  5
82F
  8
0
 62
     9
 10
0.0
 20
0.0
 30
0.0
 70
   128
 71
    79
 72
    82
 73
    63
  0
VERTEX
  5
830
  8
0
 62
     9
 10
0.0
 20
0.0
 30
0.0
 70
   128
 71
    53
 72
    85
 73
    51
  0
VERTEX
  5
831
  8
0
 62
     9
 10
0.0
 20
0.0
 30
0.0
 70
   128
 71
    81
 72
    85
 73
    53
  0
VERTEX
  5
832
  8
0
 62
     9
 10
0.0
 20
0.0
 30
0.0
 70
   128
 71
    73
 72
    51
 73
    86
  0
VERTEX
  5
833
  8
0
 62
     9
 10
0.0
 20
0.0
 30
0.0
 70
   128
 71
    66
 72
    56
 73
    65
  0
VERTEX
  5
834
  8
0
 62
     9
 10
0.0
 20
0.0
 30
0.0
 70
   128
 71
    73
 72
    86
 73
    16
  0
VERTEX
  5
835
  8
0
 62
     9
 10
0.0
 20
0.0
 30
0.0
 70
   128
 71
    16
 72
    17
 73
    73
  0
VERTEX
  5
836
  8
0
 62
     9
 10
0.0
 20
0.0
 30
0.0
 70
   128
 71
     8
 72
     7
 73
    64
  0
VERTEX
  5
837
  8
0
 62
     9
 10
0.0
 20
0.0
 30
0.0
 70
   128
 71
    64
 72
    65
 73
    45
  0
VERTEX
  5
838
  8
0
 62
     9
 10
0.0
 20
0.0
 30
0.0
 70
   128
 71
    51
 72
    85
 73
    86
  0
VERTEX
  5
839
  8
0
 62
     9
 10
0.0
 20
0.0
 30
0.0
 70
   128
 71
    45
 72
    65
 73
    56
  0
VERTEX
  5
83A
  8
0
 62
     9
 10
0.0
 20
0.0
 30
0.0
 70
   128
 71
    56
 72
    66
 73
    57
  0
VERTEX
  5
83B
  8
0
 62
     9
 10
0.0
 20
0.0
 30
0.0
 70
   128
 71
    63
 72
    58
 73
    66
  0
VERTEX
  5
83C
  8
0
 62
     9
 10
0.0
 20
0.0
 30
0.0
 70
   128
 71
    58
 72
    63
 73
    82
  0
VERTEX
  5
83D
  8
0
 62
     9
 10
0.0
 20
0.0
 30
0.0
 70
   128
 71
    58
 72
    57
 73
    66
  0
VERTEX
  5
83E
  8
0
 62
     9
 10
0.0
 20
0.0
 30
0.0
 70
   128
 71
    79
 72
    80
 73
    14
  0
VERTEX
  5
83F
  8
0
 62
     9
 10
0.0
 20
0.0
 30
0.0
 70
   128
 71
    18
 72
    12
 73
    22
  0
VERTEX
  5
840
  8
0
 62
     9
 10
0.0
 20
0.0
 30
0.0
 70
   128
 71
    20
 72
    18
 73
    22
  0
VERTEX
  5
841
  8
0
 62
     9
 10
0.0
 20
0.0
 30
0.0
 70
   128
 71
    84
 72
    12
 73
    11
  0
VERTEX
  5
842
  8
0
 62
     9
 10
0.0
 20
0.0
 30
0.0
 70
   128
 71
    85
 72
    16
 73
    86
  0
VERTEX
  5
843
  8
0
 62
     9
 10
0.0
 20
0.0
 30
0.0
 70
   128
 71
    85
 72
    82
 73
    16
  0
VERTEX
  5
844
  8
0
 62
     9
 10
0.0
 20
0.0
 30
0.0
 70
   128
 71
    81
 72
    82
 73
    85
  0
VERTEX
  5
845
  8
0
 62
     9
 10
0.0
 20
0.0
 30
0.0
 70
   128
 71
    82
 72
    79
 73
    16
  0
VERTEX
  5
846
  8
0
 62
     9
 10
0.0
 20
0.0
 30
0.0
 70
   128
 71
    14
 72
    80
 73
    83
  0
VERTEX
  5
847
  8
0
 62
     9
 10
0.0
 20
0.0
 30
0.0
 70
   128
 71
    14
 72
    16
 73
    79
  0
VERTEX
  5
848
  8
0
 62
     9
 10
0.0
 20
0.0
 30
0.0
 70
   128
 71
    83
 72
    84
 73
    11
  0
VERTEX
  5
849
  8
0
 62
     9
 10
0.0
 20
0.0
 30
0.0
 70
   128
 71
    11
 72
    14
 73
    83
  0
VERTEX
  5
84A
  8
0
 62
     9
 10
0.0
 20
0.0
 30
0.0
 70
   128
 71
    22
 72
    12
 73
    84
  0
SEQEND
  5
84B
  8
0
 62
     9
  0
ENDBLK
  5
84E
  8
0
  0
ENDSEC
  0
SECTION
  2
ENTITIES
  0
INSERT
  5
F7
  8
LAYER_1
  2
38
 10
0.0
 20
0.0
 30
0.0
  0
INSERT
  5
1C2
  8
LAYER_1
  2
1
 10
0.0
 20
0.0
 30
0.0
  0
INSERT
  5
5D2
  8
LAYER_1
  2
40
 10
0.0
 20
0.0
 30
0.0
  0
INSERT
  5
750
  8
LAYER_1
  2
41
 10
0.0
 20
0.0
 30
0.0
  0
INSERT
  5
84C
  8
LAYER_1
  2
071121_BODY_HIGH_SPOUT_KLE
 10
0.0
 20
0.0
 30
0.0
  0
ENDSEC
  0
EOF
