  0
SECTION
  2
HEADER
  9
$ACADVER
  1
AC1015
  9
$ACADMAINTVER
 70
     6
  9
$DWGCODEPAGE
  3
ANSI_1252
  9
$INSBASE
 10
0.0
 20
0.0
 30
0.0
  9
$EXTMIN
 10
0.0
 20
0.0
 30
0.0
  9
$EXTMAX
 10
1682.0
 20
2378.0
 30
0.0
  9
$LIMMIN
 10
0.0
 20
0.0
  9
$LIMMAX
 10
1682.0
 20
2378.0
  9
$ORTHOMODE
 70
     0
  9
$REGENMODE
 70
     1
  9
$FILLMODE
 70
     1
  9
$QTEXTMODE
 70
     0
  9
$MIRRTEXT
 70
     1
  9
$LTSCALE
 40
1.0
  9
$ATTMODE
 70
     1
  9
$TEXTSIZE
 40
2.5
  9
$TRACEWID
 40
1.0
  9
$TEXTSTYLE
  7
Standard
  9
$CLAYER
  8
0
  9
$CELTYPE
  6
ByLayer
  9
$CECOLOR
 62
   256
  9
$CELTSCALE
 40
1.0
  9
$DISPSILH
 70
     0
  9
$DIMSCALE
 40
1.0
  9
$DIMASZ
 40
2.5
  9
$DIMEXO
 40
0.625
  9
$DIMDLI
 40
3.75
  9
$DIMRND
 40
0.0
  9
$DIMDLE
 40
0.0
  9
$DIMEXE
 40
1.25
  9
$DIMTP
 40
0.0
  9
$DIMTM
 40
0.0
  9
$DIMTXT
 40
2.5
  9
$DIMCEN
 40
2.5
  9
$DIMTSZ
 40
0.0
  9
$DIMTOL
 70
     0
  9
$DIMLIM
 70
     0
  9
$DIMTIH
 70
     0
  9
$DIMTOH
 70
     0
  9
$DIMSE1
 70
     0
  9
$DIMSE2
 70
     0
  9
$DIMTAD
 70
     1
  9
$DIMZIN
 70
     8
  9
$DIMBLK
  1

  9
$DIMASO
 70
     1
  9
$DIMSHO
 70
     1
  9
$DIMPOST
  1

  9
$DIMAPOST
  1

  9
$DIMALT
 70
     0
  9
$DIMALTD
 70
     3
  9
$DIMALTF
 40
0.0393700787
  9
$DIMLFAC
 40
1.0
  9
$DIMTOFL
 70
     1
  9
$DIMTVP
 40
0.0
  9
$DIMTIX
 70
     0
  9
$DIMSOXD
 70
     0
  9
$DIMSAH
 70
     0
  9
$DIMBLK1
  1

  9
$DIMBLK2
  1

  9
$DIMSTYLE
  2
ISO-25
  9
$DIMCLRD
 70
     0
  9
$DIMCLRE
 70
     0
  9
$DIMCLRT
 70
     0
  9
$DIMTFAC
 40
1.0
  9
$DIMGAP
 40
0.625
  9
$DIMJUST
 70
     0
  9
$DIMSD1
 70
     0
  9
$DIMSD2
 70
     0
  9
$DIMTOLJ
 70
     0
  9
$DIMTZIN
 70
     8
  9
$DIMALTZ
 70
     0
  9
$DIMALTTZ
 70
     0
  9
$DIMUPT
 70
     0
  9
$DIMDEC
 70
     2
  9
$DIMTDEC
 70
     2
  9
$DIMALTU
 70
     2
  9
$DIMALTTD
 70
     3
  9
$DIMTXSTY
  7
Standard
  9
$DIMAUNIT
 70
     0
  9
$DIMADEC
 70
     0
  9
$DIMALTRND
 40
0.0
  9
$DIMAZIN
 70
     0
  9
$DIMDSEP
 70
    44
  9
$DIMATFIT
 70
     3
  9
$DIMFRAC
 70
     0
  9
$DIMLDRBLK
  1

  9
$DIMLUNIT
 70
     2
  9
$DIMLWD
 70
    -2
  9
$DIMLWE
 70
    -2
  9
$DIMTMOVE
 70
     0
  9
$LUNITS
 70
     2
  9
$LUPREC
 70
     4
  9
$SKETCHINC
 40
1.0
  9
$FILLETRAD
 40
10.0
  9
$AUNITS
 70
     0
  9
$AUPREC
 70
     0
  9
$MENU
  1
.
  9
$ELEVATION
 40
0.0
  9
$PELEVATION
 40
0.0
  9
$THICKNESS
 40
0.0
  9
$LIMCHECK
 70
     0
  9
$CHAMFERA
 40
10.0
  9
$CHAMFERB
 40
10.0
  9
$CHAMFERC
 40
20.0
  9
$CHAMFERD
 40
0.0
  9
$SKPOLY
 70
     0
  9
$TDCREATE
 40
2455597.706465926
  9
$TDUCREATE
 40
2455597.664799259
  9
$TDUPDATE
 40
2455597.706465938
  9
$TDUUPDATE
 40
2455597.664799271
  9
$TDINDWG
 40
0.0000000116
  9
$TDUSRTIMER
 40
0.0000000116
  9
$USRTIMER
 70
     1
  9
$ANGBASE
 50
0.0
  9
$ANGDIR
 70
     0
  9
$PDMODE
 70
     0
  9
$PDSIZE
 40
0.0
  9
$PLINEWID
 40
0.0
  9
$SPLFRAME
 70
     0
  9
$SPLINETYPE
 70
     6
  9
$SPLINESEGS
 70
     8
  9
$HANDSEED
  5
256
  9
$SURFTAB1
 70
     6
  9
$SURFTAB2
 70
     6
  9
$SURFTYPE
 70
     6
  9
$SURFU
 70
     6
  9
$SURFV
 70
     6
  9
$UCSBASE
  2

  9
$UCSNAME
  2

  9
$UCSORG
 10
0.0
 20
0.0
 30
0.0
  9
$UCSXDIR
 10
1.0
 20
0.0
 30
0.0
  9
$UCSYDIR
 10
0.0
 20
1.0
 30
0.0
  9
$UCSORTHOREF
  2

  9
$UCSORTHOVIEW
 70
     0
  9
$UCSORGTOP
 10
0.0
 20
0.0
 30
0.0
  9
$UCSORGBOTTOM
 10
0.0
 20
0.0
 30
0.0
  9
$UCSORGLEFT
 10
0.0
 20
0.0
 30
0.0
  9
$UCSORGRIGHT
 10
0.0
 20
0.0
 30
0.0
  9
$UCSORGFRONT
 10
0.0
 20
0.0
 30
0.0
  9
$UCSORGBACK
 10
0.0
 20
0.0
 30
0.0
  9
$PUCSBASE
  2

  9
$PUCSNAME
  2

  9
$PUCSORG
 10
0.0
 20
0.0
 30
0.0
  9
$PUCSXDIR
 10
1.0
 20
0.0
 30
0.0
  9
$PUCSYDIR
 10
0.0
 20
1.0
 30
0.0
  9
$PUCSORTHOREF
  2

  9
$PUCSORTHOVIEW
 70
     0
  9
$PUCSORGTOP
 10
0.0
 20
0.0
 30
0.0
  9
$PUCSORGBOTTOM
 10
0.0
 20
0.0
 30
0.0
  9
$PUCSORGLEFT
 10
0.0
 20
0.0
 30
0.0
  9
$PUCSORGRIGHT
 10
0.0
 20
0.0
 30
0.0
  9
$PUCSORGFRONT
 10
0.0
 20
0.0
 30
0.0
  9
$PUCSORGBACK
 10
0.0
 20
0.0
 30
0.0
  9
$USERI1
 70
     0
  9
$USERI2
 70
     0
  9
$USERI3
 70
     0
  9
$USERI4
 70
     0
  9
$USERI5
 70
     0
  9
$USERR1
 40
0.0
  9
$USERR2
 40
0.0
  9
$USERR3
 40
0.0
  9
$USERR4
 40
0.0
  9
$USERR5
 40
0.0
  9
$WORLDVIEW
 70
     1
  9
$SHADEDGE
 70
     3
  9
$SHADEDIF
 70
    70
  9
$TILEMODE
 70
     1
  9
$MAXACTVP
 70
    64
  9
$PINSBASE
 10
0.0
 20
0.0
 30
0.0
  9
$PLIMCHECK
 70
     0
  9
$PEXTMIN
 10
0.0
 20
0.0
 30
0.0
  9
$PEXTMAX
 10
1682.0
 20
2378.0
 30
0.0
  9
$PLIMMIN
 10
0.0
 20
0.0
  9
$PLIMMAX
 10
1682.0
 20
2378.0
  9
$UNITMODE
 70
     0
  9
$VISRETAIN
 70
     1
  9
$PLINEGEN
 70
     0
  9
$PSLTSCALE
 70
     1
  9
$TREEDEPTH
 70
  3020
  9
$CMLSTYLE
  2
Standard
  9
$CMLJUST
 70
     0
  9
$CMLSCALE
 40
20.0
  9
$PROXYGRAPHICS
 70
     1
  9
$MEASUREMENT
 70
     1
  9
$CELWEIGHT
370
    -1
  9
$ENDCAPS
280
     0
  9
$JOINSTYLE
280
     0
  9
$LWDISPLAY
290
     0
  9
$INSUNITS
 70
     4
  9
$HYPERLINKBASE
  1

  9
$STYLESHEET
  1

  9
$XEDIT
290
     1
  9
$CEPSNTYPE
380
     0
  9
$PSTYLEMODE
290
     1
  9
$FINGERPRINTGUID
  2
{6BBBAFD0-2A7B-4785-8B55-7840232B16F8}
  9
$VERSIONGUID
  2
{FAEB1C32-E019-11D5-929B-00C0DF256EC4}
  9
$EXTNAMES
290
     1
  9
$PSVPSCALE
 40
0.0
  9
$OLESTARTUP
290
     0
  0
ENDSEC
  0
SECTION
  2
CLASSES
  0
CLASS
  1
ACDBDICTIONARYWDFLT
  2
AcDbDictionaryWithDefault
  3
ObjectDBX Classes
 90
        0
280
     0
281
     0
  0
CLASS
  1
VISUALSTYLE
  2
AcDbVisualStyle
  3
ObjectDBX Classes
 90
     4095
280
     0
281
     0
  0
CLASS
  1
SCALE
  2
AcDbScale
  3
ObjectDBX Classes
 90
     1153
280
     0
281
     0
  0
CLASS
  1
DICTIONARYVAR
  2
AcDbDictionaryVar
  3
ObjectDBX Classes
 90
        0
280
     0
281
     0
  0
CLASS
  1
ACDBPLACEHOLDER
  2
AcDbPlaceHolder
  3
ObjectDBX Classes
 90
        0
280
     0
281
     0
  0
CLASS
  1
LAYOUT
  2
AcDbLayout
  3
ObjectDBX Classes
 90
        0
280
     0
281
     0
  0
ENDSEC
  0
SECTION
  2
TABLES
  0
TABLE
  2
VPORT
  5
8
330
0
100
AcDbSymbolTable
 70
     1
  0
VPORT
  5
29
330
8
100
AcDbSymbolTableRecord
100
AcDbViewportTableRecord
  2
*Active
 70
     0
 10
0.0
 20
0.0
 11
1.0
 21
1.0
 12
344.1869158879
 22
148.5
 13
0.0
 23
0.0
 14
10.0
 24
10.0
 15
10.0
 25
10.0
 16
0.0
 26
0.0
 36
1.0
 17
0.0
 27
0.0
 37
0.0
 40
297.0
 41
1.9729729729
 42
50.0
 43
0.0
 44
0.0
 50
0.0
 51
0.0
 71
     0
 72
   100
 73
     1
 74
     3
 75
     0
 76
     0
 77
     0
 78
     0
281
     0
 65
     1
110
0.0
120
0.0
130
0.0
111
1.0
121
0.0
131
0.0
112
0.0
122
1.0
132
0.0
 79
     0
146
0.0
  0
ENDTAB
  0
TABLE
  2
LTYPE
  5
5
330
0
100
AcDbSymbolTable
 70
     2
  0
LTYPE
  5
14
330
5
100
AcDbSymbolTableRecord
100
AcDbLinetypeTableRecord
  2
ByBlock
 70
     0
  3

 72
    65
 73
     0
 40
0.0
  0
LTYPE
  5
15
330
5
100
AcDbSymbolTableRecord
100
AcDbLinetypeTableRecord
  2
ByLayer
 70
     0
  3

 72
    65
 73
     0
 40
0.0
  0
LTYPE
  5
16
330
5
100
AcDbSymbolTableRecord
100
AcDbLinetypeTableRecord
  2
Continuous
 70
     0
  3
Solid line
 72
    65
 73
     0
 40
0.0
  0
LTYPE
  5
60
330
5
100
AcDbSymbolTableRecord
100
AcDbLinetypeTableRecord
  2
CENTER2
 70
     0
  3
Center (.5x) ___ _ ___ _ ___ _ ___ _ ___ _ ___
 72
    65
 73
     4
 40
28.575
 49
19.05
 74
     4
 75
     0
340
0
 46
0.0
 50
0.0
 44
0.0
 45
0.0
 49
-3.175
 74
     4
 75
     0
340
0
 46
0.0
 50
0.0
 44
0.0
 45
0.0
 49
3.175
 74
     4
 75
     0
340
0
 46
0.0
 50
0.0
 44
0.0
 45
0.0
 49
-3.175
 74
     4
 75
     0
340
0
 46
0.0
 50
0.0
 44
0.0
 45
0.0
  0
ENDTAB
  0
TABLE
  2
LAYER
  5
2
330
0
100
AcDbSymbolTable
 70
     9
  0
LAYER
  5
10
330
2
100
AcDbSymbolTableRecord
100
AcDbLayerTableRecord
  2
0
 70
     0
 62
     7
  6
Continuous
370
    -3
390
F
  0
LAYER
  5
5D
330
2
100
AcDbSymbolTableRecord
100
AcDbLayerTableRecord
  2
Default
 70
     0
 62
     7
  6
Continuous
370
    -3
390
F
  0
LAYER
  5
73
330
2
100
AcDbSymbolTableRecord
100
AcDbLayerTableRecord
  2
$DDT_AUDIT_GENERATED_(73)
 70
     0
 62
     7
  6
Continuous
370
    -3
390
F
  0
LAYER
  5
AD
330
2
100
AcDbSymbolTableRecord
100
AcDbLayerTableRecord
  2
$DDT_AUDIT_GENERATED_(AD)
 70
     0
 62
     7
  6
Continuous
370
    -3
390
F
  0
LAYER
  5
D0
330
2
100
AcDbSymbolTableRecord
100
AcDbLayerTableRecord
  2
02636038_GEHÄUSE
 70
     0
 62
     7
  6
Continuous
370
    -3
390
F
  0
LAYER
  5
E8
330
2
100
AcDbSymbolTableRecord
100
AcDbLayerTableRecord
  2
$DDT_AUDIT_GENERATED_(E8)
 70
     0
 62
     7
  6
Continuous
370
    -3
390
F
  0
LAYER
  5
1A9
330
2
100
AcDbSymbolTableRecord
100
AcDbLayerTableRecord
  2
$DDT_AUDIT_GENERATED_(1A9)
 70
     0
 62
     7
  6
Continuous
370
    -3
390
F
  0
LAYER
  5
1CA
330
2
100
AcDbSymbolTableRecord
100
AcDbLayerTableRecord
  2
$DDT_AUDIT_GENERATED_(1CA)
 70
     0
 62
     7
  6
Continuous
370
    -3
390
F
  0
LAYER
  5
1E8
330
2
100
AcDbSymbolTableRecord
100
AcDbLayerTableRecord
  2
$DDT_AUDIT_GENERATED_(1E8)
 70
     0
 62
     7
  6
Continuous
370
    -3
390
F
  0
ENDTAB
  0
TABLE
  2
STYLE
  5
3
330
0
100
AcDbSymbolTable
 70
     2
  0
STYLE
  5
11
330
3
100
AcDbSymbolTableRecord
100
AcDbTextStyleTableRecord
  2
Standard
 70
     0
 40
0.0
 41
1.0
 50
0.0
 71
     0
 42
2.5
  3
txt
  4

  0
STYLE
  5
245
330
3
100
AcDbSymbolTableRecord
100
AcDbTextStyleTableRecord
  2
SEACAD_seiso_ttf
 70
     0
 40
0.0
 41
1.0
 50
0.0
 71
     0
 42
0.2
  3
seiso.ttf
  4

  0
ENDTAB
  0
TABLE
  2
VIEW
  5
6
330
0
100
AcDbSymbolTable
 70
     0
  0
ENDTAB
  0
TABLE
  2
UCS
  5
7
330
0
100
AcDbSymbolTable
 70
     0
  0
ENDTAB
  0
TABLE
  2
APPID
  5
9
330
0
100
AcDbSymbolTable
 70
     1
  0
APPID
  5
12
330
9
100
AcDbSymbolTableRecord
100
AcDbRegAppTableRecord
  2
ACAD
 70
     0
  0
ENDTAB
  0
TABLE
  2
DIMSTYLE
  5
A
330
0
100
AcDbSymbolTable
 70
     1
100
AcDbDimStyleTable
  0
DIMSTYLE
105
27
330
A
100
AcDbSymbolTableRecord
100
AcDbDimStyleTableRecord
  2
ISO-25
 70
     0
 41
2.5
 42
0.625
 43
3.75
 44
1.25
 73
     0
 74
     0
 77
     1
 78
     8
140
2.5
141
2.5
143
0.0393700787
147
0.625
171
     3
172
     1
271
     2
272
     2
274
     3
278
    44
283
     0
284
     8
340
11
  0
ENDTAB
  0
TABLE
  2
BLOCK_RECORD
  5
1
330
0
100
AcDbSymbolTable
 70
     7
  0
BLOCK_RECORD
  5
1F
330
1
100
AcDbSymbolTableRecord
100
AcDbBlockTableRecord
  2
*Model_Space
340
22
  0
BLOCK_RECORD
  5
1B
330
1
100
AcDbSymbolTableRecord
100
AcDbBlockTableRecord
  2
*Paper_Space
340
1E
  0
BLOCK_RECORD
  5
5E
330
1
100
AcDbSymbolTableRecord
100
AcDbBlockTableRecord
  2
SEANNOT_GROUP
340
0
102
{BLKREFS
331
5F
102
}
  0
BLOCK_RECORD
  5
65
330
1
100
AcDbSymbolTableRecord
100
AcDbBlockTableRecord
  2
SEANNOT_GROUP1
340
0
102
{BLKREFS
331
66
102
}
  0
BLOCK_RECORD
  5
6B
330
1
100
AcDbSymbolTableRecord
100
AcDbBlockTableRecord
  2
SEANNOT_GROUP2
340
0
102
{BLKREFS
331
6C
102
}
  0
BLOCK_RECORD
  5
71
330
1
100
AcDbSymbolTableRecord
100
AcDbBlockTableRecord
  2
SE
340
0
102
{BLKREFS
331
72
102
}
  0
BLOCK_RECORD
  5
1AE
330
1
100
AcDbSymbolTableRecord
100
AcDbBlockTableRecord
  2
SE1
340
0
102
{BLKREFS
331
1AF
102
}
  0
BLOCK_RECORD
  5
1FF
330
1
100
AcDbSymbolTableRecord
100
AcDbBlockTableRecord
  2
SE2
340
0
102
{BLKREFS
331
200
102
}
  0
ENDTAB
  0
ENDSEC
  0
SECTION
  2
BLOCKS
  0
BLOCK
  5
20
330
1F
100
AcDbEntity
  8
0
100
AcDbBlockBegin
  2
*Model_Space
 70
     0
 10
0.0
 20
0.0
 30
0.0
  3
*Model_Space
  1

  0
ENDBLK
  5
21
330
1F
100
AcDbEntity
  8
0
100
AcDbBlockEnd
  0
BLOCK
  5
1C
330
1B
100
AcDbEntity
 67
     1
  8
0
100
AcDbBlockBegin
  2
*Paper_Space
 70
     0
 10
0.0
 20
0.0
 30
0.0
  3
*Paper_Space
  1

  0
ENDBLK
  5
1D
330
1B
100
AcDbEntity
 67
     1
  8
0
100
AcDbBlockEnd
  0
BLOCK
  5
63
330
5E
100
AcDbEntity
  8
0
100
AcDbBlockBegin
  2
SEANNOT_GROUP
 70
     0
 10
0.0
 20
0.0
 30
0.0
  3
SEANNOT_GROUP
  1

  0
LINE
  5
61
330
5E
100
AcDbEntity
  8
Default
  6
CENTER2
 62
     7
100
AcDbLine
 10
45.894837527
 20
340.2320271766
 30
0.0
 11
85.8948366329
 21
340.2320271766
 31
0.0
  0
LINE
  5
62
330
5E
100
AcDbEntity
  8
Default
  6
CENTER2
 62
     7
100
AcDbLine
 10
65.8948370799
 20
320.2320276236
 30
0.0
 11
65.89483708
 21
360.2320267296
 31
0.0
  0
ENDBLK
  5
64
330
5E
100
AcDbEntity
  8
0
100
AcDbBlockEnd
  0
BLOCK
  5
69
330
65
100
AcDbEntity
  8
0
100
AcDbBlockBegin
  2
SEANNOT_GROUP1
 70
     0
 10
0.0
 20
0.0
 30
0.0
  3
SEANNOT_GROUP1
  1

  0
LINE
  5
67
330
65
100
AcDbEntity
  8
Default
  6
CENTER2
 62
     7
100
AcDbLine
 10
85.8940571063
 20
388.6589483694
 30
0.0
 11
45.8940580003
 21
388.6589483694
 31
0.0
  0
LINE
  5
68
330
65
100
AcDbEntity
  8
Default
  6
CENTER2
 62
     7
100
AcDbLine
 10
65.8940575533
 20
408.6589479223
 30
0.0
 11
65.8940575533
 21
368.6589488164
 31
0.0
  0
ENDBLK
  5
6A
330
65
100
AcDbEntity
  8
0
100
AcDbBlockEnd
  0
BLOCK
  5
6F
330
6B
100
AcDbEntity
  8
0
100
AcDbBlockBegin
  2
SEANNOT_GROUP2
 70
     0
 10
0.0
 20
0.0
 30
0.0
  3
SEANNOT_GROUP2
  1

  0
LINE
  5
6D
330
6B
100
AcDbEntity
  8
Default
  6
CENTER2
 62
     7
100
AcDbLine
 10
195.4353827102
 20
388.6589483694
 30
0.0
 11
155.4353836042
 21
388.6589483694
 31
0.0
  0
LINE
  5
6E
330
6B
100
AcDbEntity
  8
Default
  6
CENTER2
 62
     7
100
AcDbLine
 10
175.4353831572
 20
408.6589479223
 30
0.0
 11
175.4353831572
 21
368.6589488164
 31
0.0
  0
ENDBLK
  5
70
330
6B
100
AcDbEntity
  8
0
100
AcDbBlockEnd
  0
BLOCK
  5
1AC
330
71
100
AcDbEntity
  8
0
100
AcDbBlockBegin
  2
SE
 70
     0
 10
0.0
 20
0.0
 30
0.0
  3
SE
  1

  0
ARC
  5
74
330
71
100
AcDbEntity
  8
$DDT_AUDIT_GENERATED_(73)
  6
Continuous
 62
     7
100
AcDbCircle
 10
52.983296879
 20
539.0586255397
 30
0.0
 40
12.78940340508247
100
AcDbArc
 50
163.9702723803
 51
165.9006768824
  0
ARC
  5
75
330
71
100
AcDbEntity
  8
$DDT_AUDIT_GENERATED_(73)
  6
Continuous
 62
     7
100
AcDbCircle
 10
64.3368935024
 20
525.0056834551
 30
0.0
 40
51.42526379642456
100
AcDbArc
 50
88.2648106959
 51
105.5290473359
  0
SPLINE
  5
76
330
71
100
AcDbEntity
  8
$DDT_AUDIT_GENERATED_(73)
  6
Continuous
 62
     7
100
AcDbSpline
210
0.0
220
0.0
230
1.0
 70
     8
 71
     3
 72
     9
 73
     5
 74
     0
 42
0.0000000040799559
 43
0.0000000001
 40
0.0604371732592978
 40
0.0604371732592978
 40
0.0604371732592978
 40
0.0604371732592978
 40
0.062676193545662
 40
0.0849371973648565
 40
0.0849371973648565
 40
0.0849371973648565
 40
0.0849371973648565
 10
47.94965459585769
 20
572.4727831152867
 30
0.0
 10
47.95020355561427
 20
572.4745193595045
 30
0.0
 10
47.95624050576371
 20
572.4935165799678
 30
0.0
 10
47.96261867902111
 20
572.5124992963317
 30
0.0
 10
47.96867411914724
 20
572.5297363852115
 30
0.0
  0
ARC
  5
77
330
71
100
AcDbEntity
  8
$DDT_AUDIT_GENERATED_(73)
  6
Continuous
 62
     7
100
AcDbCircle
 10
7887.9235192465
 20
-741.5476445538
 30
0.0
 40
7949.346149543536
100
AcDbArc
 50
170.5879223383
 51
170.8192309861
  0
ARC
  5
78
330
71
100
AcDbEntity
  8
$DDT_AUDIT_GENERATED_(73)
  6
Continuous
 62
     7
100
AcDbCircle
 10
7887.9235192465
 20
-741.5476445538
 30
0.0
 40
7949.346149543536
100
AcDbArc
 50
170.4864136792
 51
170.5879223383
  0
ARC
  5
79
330
71
100
AcDbEntity
  8
$DDT_AUDIT_GENERATED_(73)
  6
Continuous
 62
     7
100
AcDbCircle
 10
40.6525800527
 20
541.4989279166
 30
0.0
 40
0.2299345818243703
100
AcDbArc
 50
185.0091044043
 51
186.2607039966
  0
SPLINE
  5
7A
330
71
100
AcDbEntity
  8
$DDT_AUDIT_GENERATED_(73)
  6
Continuous
 62
     7
100
AcDbSpline
210
0.0
220
0.0
230
1.0
 70
     8
 71
     3
 72
    20
 73
    16
 74
     0
 42
0.0000000000627794
 43
0.0000000001
 40
0.0
 40
0.0
 40
0.0
 40
0.0
 40
0.015625
 40
0.015625
 40
0.0312499999999999
 40
0.0312499999999999
 40
0.0468749999999999
 40
0.0468749999999999
 40
0.0624999999999998
 40
0.0624999999999998
 40
0.0781249999999998
 40
0.0781249999999998
 40
0.0937499999999998
 40
0.0937499999999998
 40
0.1045856265625512
 40
0.1045856265625512
 40
0.1045856265625512
 40
0.1045856265625512
 10
65.89405755039135
 20
581.5283491337033
 30
0.0
 10
67.16855703569681
 20
581.5277993284802
 30
0.0
 10
68.42396375427843
 20
581.5004083873987
 30
0.0
 10
70.88328397130586
 20
581.3890640508542
 30
0.0
 10
72.08733736009505
 20
581.305316459068
 30
0.0
 10
74.31245664911212
 20
581.0915256510642
 30
0.0
 10
75.36959721477146
 20
580.9582163428161
 30
0.0
 10
77.28129214016724
 20
580.6459006104614
 30
0.0
 10
78.11255101619523
 20
580.4705268197167
 30
0.0
 10
79.58084076777646
 20
580.0807645979445
 30
0.0
 10
80.18744273218856
 20
579.8677773690177
 30
0.0
 10
81.09953812043757
 20
579.4122745594261
 30
0.0
 10
81.39242850805095
 20
579.1631257288432
 30
0.0
 10
81.6660610686953
 20
578.761532441315
 30
0.0
 10
81.72628987219454
 20
578.6086877361348
 30
0.0
 10
81.77189495855625
 20
578.459051483141
 30
0.0
  0
ELLIPSE
  5
7B
330
71
100
AcDbEntity
  8
$DDT_AUDIT_GENERATED_(73)
  6
Continuous
 62
     7
100
AcDbEllipse
 10
65.8932323558
 20
581.1030260375
 30
0.0
 11
-0.0002153277900175455
 21
-0.5000010504259966
 31
0.0
210
0.0
220
0.0
230
1.0
 40
0.002442367
 41
-3.695178139866267
 42
-3.143399952496729
  0
ARC
  5
7C
330
71
100
AcDbEntity
  8
$DDT_AUDIT_GENERATED_(73)
  6
Continuous
 62
     7
100
AcDbCircle
 10
78.8591738648
 20
539.0782172919
 30
0.0
 40
12.73232916312947
100
AcDbArc
 50
14.067207856
 51
15.9983711773
  0
LINE
  5
7D
330
71
100
AcDbEntity
  8
$DDT_AUDIT_GENERATED_(73)
  6
Continuous
 62
     7
100
AcDbLine
 10
40.4235520943
 20
541.4788511713
 30
0.0
 11
40.4211475946
 21
541.4626428662
 31
0.0
  0
ELLIPSE
  5
7E
330
71
100
AcDbEntity
  8
$DDT_AUDIT_GENERATED_(73)
  6
Continuous
 62
     7
100
AcDbEllipse
 10
48.3841941274
 20
572.1760851184
 30
0.0
 11
0.4845831843088184
 21
-0.1231314060801403
 31
0.0
210
0.0
220
0.0
230
1.0
 40
0.977747153
 41
3.071678629910318
 42
3.144980725082204
  0
SPLINE
  5
7F
330
71
100
AcDbEntity
  8
$DDT_AUDIT_GENERATED_(73)
  6
Continuous
 62
     7
100
AcDbSpline
210
0.0
220
0.0
230
1.0
 70
     8
 71
     3
 72
    23
 73
    19
 74
     0
 42
0.0000000002847535
 43
0.0000000001
 40
0.0
 40
0.0
 40
0.0
 40
0.0
 40
0.0331918399647607
 40
0.0666314754081095
 40
0.1003155591249321
 40
0.1342383563693514
 40
0.1652182187876648
 40
0.196742935701688
 40
0.2870499111038689
 40
0.4220045187756284
 40
0.5338422824619964
 40
0.6350231906698213
 40
0.7302339696175302
 40
0.8218836376701024
 40
0.9114356031268921
 40
0.9557662857127468
 40
0.9778856890480858
 40
1.0
 40
1.0
 40
1.0
 40
1.0
 10
65.89416426031056
 20
507.6480635303873
 30
0.0
 10
65.40294411591223
 20
507.6545166910965
 30
0.0
 10
64.41683659652807
 20
507.6674711998376
 30
0.0
 10
62.94018622676791
 20
507.771179245016
 30
0.0
 10
61.4686674291985
 20
507.9363853401657
 30
0.0
 10
60.05595852898021
 20
508.16210164552
 30
0.0
 10
58.70234454082561
 20
508.440419898026
 30
0.0
 10
56.6080857112805
 20
508.9646451505112
 30
0.0
 10
53.27385909428306
 20
510.1062390263758
 30
0.0
 10
49.47623069962115
 20
512.1337023204563
 30
0.0
 10
46.30475298336976
 20
514.6394760156163
 30
0.0
 10
44.06366952535868
 20
517.0878014360001
 30
0.0
 10
42.45157669700245
 20
519.5167521209056
 30
0.0
 10
41.33503065575318
 20
521.9368023182026
 30
0.0
 10
40.75748126413491
 20
523.9570179381834
 30
0.0
 10
40.52834601014227
 20
525.3669549552129
 30
0.0
 10
40.44337740855064
 20
526.1687034557709
 30
0.0
 10
40.4207953799786
 20
526.5691688548692
 30
0.0
 10
40.40950635855842
 20
526.7693595073566
 30
0.0
  0
SPLINE
  5
80
330
71
100
AcDbEntity
  8
$DDT_AUDIT_GENERATED_(73)
  6
Continuous
 62
     7
100
AcDbSpline
210
0.0
220
0.0
230
1.0
 70
     8
 71
     3
 72
    21
 73
    17
 74
     0
 42
0.0000000002847235
 43
0.0000000001
 40
0.0
 40
0.0
 40
0.0
 40
0.0
 40
0.0221163711988521
 40
0.0442378367856688
 40
0.0885726507657721
 40
0.1781329572798862
 40
0.2697911624127869
 40
0.3650108065211637
 40
0.4662011280388418
 40
0.5780492773296206
 40
0.7130163548022633
 40
0.8033315615409394
 40
0.834858615315151
 40
0.8658416829056428
 40
0.9334084313585863
 40
1.0
 40
1.0
 40
1.0
 40
1.0
 10
91.37858742840957
 20
526.7694971757089
 30
0.0
 10
91.36731971521131
 20
526.5691690262069
 30
0.0
 10
91.34473769144569
 20
526.1687037803836
 30
0.0
 10
91.25976913057447
 20
525.3669556832521
 30
0.0
 10
91.03063402278683
 20
523.9570192906317
 30
0.0
 10
90.45308514140721
 20
521.9368046012534
 30
0.0
 10
89.33654001407328
 20
519.5167550420099
 30
0.0
 10
87.72444913953007
 20
517.0878074355323
 30
0.0
 10
85.48336666684258
 20
514.6394750505965
 30
0.0
 10
82.31190028864877
 20
512.1337392136413
 30
0.0
 10
78.51425217356473
 20
510.1061303143368
 30
0.0
 10
75.18010095711317
 20
508.9648606131025
 30
0.0
 10
73.08576836099085
 20
508.4401903232823
 30
0.0
 10
71.2602644252086
 20
508.0663749861156
 30
0.0
 10
68.86660107675432
 20
507.726056822673
 30
0.0
 10
66.88016347803868
 20
507.6739350018913
 30
0.0
 10
65.89416426031056
 20
507.6480635303873
 30
0.0
  0
LINE
  5
81
330
71
100
AcDbEntity
  8
$DDT_AUDIT_GENERATED_(73)
  6
Continuous
 62
     7
100
AcDbLine
 10
91.3646190178
 20
541.4788832182
 30
0.0
 11
91.3670264821
 21
541.4626428548
 31
0.0
  0
LINE
  5
82
330
71
100
AcDbEntity
  8
$DDT_AUDIT_GENERATED_(73)
  6
Continuous
 62
     7
100
AcDbLine
 10
91.3940575533
 20
388.6589483694
 30
0.0
 11
91.3940575533
 21
553.3514686503
 31
0.0
  0
LINE
  5
83
330
71
100
AcDbEntity
  8
$DDT_AUDIT_GENERATED_(73)
  6
Continuous
 62
     7
100
AcDbLine
 10
40.3940575533
 20
388.6589483694
 30
0.0
 11
91.3940575533
 21
388.6589483694
 31
0.0
  0
LINE
  5
84
330
71
100
AcDbEntity
  8
$DDT_AUDIT_GENERATED_(73)
  6
Continuous
 62
     7
100
AcDbLine
 10
40.3940575533
 20
553.3514686503
 30
0.0
 11
40.3940575533
 21
388.6589483694
 31
0.0
  0
LINE
  5
85
330
71
100
AcDbEntity
  8
$DDT_AUDIT_GENERATED_(73)
  6
Continuous
 62
     7
100
AcDbLine
 10
40.5148675028
 20
553.3514686503
 30
0.0
 11
40.3940575533
 21
553.3514686503
 31
0.0
  0
ARC
  5
86
330
71
100
AcDbEntity
  8
$DDT_AUDIT_GENERATED_(73)
  6
Continuous
 62
     7
100
AcDbCircle
 10
91.1260270819
 20
541.4997780899
 30
0.0
 40
0.2394767710354063
100
AcDbArc
 50
353.7866485875
 51
354.994650697
  0
ARC
  5
87
330
71
100
AcDbEntity
  8
$DDT_AUDIT_GENERATED_(73)
  6
Continuous
 62
     7
100
AcDbCircle
 10
67.6818460705
 20
526.9120919918
 30
0.0
 40
49.52755156558952
100
AcDbArc
 50
74.1376156446
 51
92.0686464642
  0
ARC
  5
88
330
71
100
AcDbEntity
  8
$DDT_AUDIT_GENERATED_(73)
  6
Continuous
 62
     7
100
AcDbCircle
 10
-1830.6459281089
 20
233.7990800552
 30
0.0
 40
1944.224756460543
100
AcDbArc
 50
8.6667756151
 51
9.7601685898
  0
SPLINE
  5
89
330
71
100
AcDbEntity
  8
$DDT_AUDIT_GENERATED_(73)
  6
Continuous
 62
     7
100
AcDbSpline
210
0.0
220
0.0
230
1.0
 70
     8
 71
     3
 72
     8
 73
     4
 74
     0
 42
0.0000000040780108
 43
0.0000000001
 40
0.9150751886978611
 40
0.9150751886978611
 40
0.9150751886978611
 40
0.9150751886978611
 40
0.9395712813516824
 40
0.9395712813516824
 40
0.9395712813516824
 40
0.9395712813516824
 10
83.81621219098564
 20
572.5298167622487
 30
0.0
 10
83.8226822423018
 20
572.5108179880074
 30
0.0
 10
83.82896115478088
 20
572.4918107477812
 30
0.0
 10
83.83510406395283
 20
572.4727974757376
 30
0.0
  0
ARC
  5
8A
330
71
100
AcDbEntity
  8
$DDT_AUDIT_GENERATED_(73)
  6
Continuous
 62
     7
100
AcDbCircle
 10
63.826961288
 20
580.5661033303
 30
0.0
 40
14.76989986995156
100
AcDbArc
 50
205.6102539463
 51
256.9215509004
  0
SPLINE
  5
8B
330
71
100
AcDbEntity
  8
$DDT_AUDIT_GENERATED_(73)
  6
Continuous
 62
     7
100
AcDbSpline
210
0.0
220
0.0
230
1.0
 70
     8
 71
     3
 72
    19
 73
    15
 74
     0
 42
0.0000000003156793
 43
0.0000000001
 40
0.0
 40
0.0
 40
0.0
 40
0.0
 40
0.0350677204554417
 40
0.1328388127296808
 40
0.1982921178515564
 40
0.2548904005780421
 40
0.384884343493439
 40
0.5122491179255337
 40
0.6370125585064704
 40
0.7595179461047884
 40
0.8195460005712747
 40
0.8794599899834703
 40
0.9395300952847983
 40
1.0
 40
1.0
 40
1.0
 40
1.0
 10
40.40950635855842
 20
526.7693595073566
 30
0.0
 10
40.43176448521947
 20
526.5413746300741
 30
0.0
 10
40.51608019103499
 20
525.6776810866016
 30
0.0
 10
40.87199498286556
 20
524.3895212934999
 30
0.0
 10
41.53047663906433
 20
522.9821176175734
 30
0.0
 10
42.53076845189916
 20
521.3853706602874
 30
0.0
 10
44.25152734718535
 20
519.439176551624
 30
0.0
 10
47.19711777880682
 20
517.211978209273
 30
0.0
 10
50.94004115430764
 20
515.2696245324385
 30
0.0
 10
54.68754864864923
 20
513.9873452948501
 30
0.0
 10
57.96072053547159
 20
513.2363383481292
 30
0.0
 10
60.52033193270952
 20
512.8251442228369
 30
0.0
 10
63.17878863242805
 20
512.559845248182
 30
0.0
 10
64.98696945905651
 20
512.5262886965143
 30
0.0
 10
65.89405921311193
 20
512.5094547799912
 30
0.0
  0
ARC
  5
8C
330
71
100
AcDbEntity
  8
$DDT_AUDIT_GENERATED_(73)
  6
Continuous
 62
     7
100
AcDbCircle
 10
65.8588823587
 20
578.9286994996
 30
0.0
 40
19.23020016272508
100
AcDbArc
 50
201.0696533899
 51
230.6627274479
  0
SPLINE
  5
8D
330
71
100
AcDbEntity
  8
$DDT_AUDIT_GENERATED_(73)
  6
Continuous
 62
     7
100
AcDbSpline
210
0.0
220
0.0
230
1.0
 70
    12
 71
     3
 72
   120
 73
   116
 74
     0
 42
0.0000000003164046
 43
0.0000000001
 40
0.0
 40
0.0
 40
0.0
 40
0.0
 40
0.00048828125
 40
0.00048828125
 40
0.0006103515625
 40
0.0006103515625
 40
0.00067138671875
 40
0.00067138671875
 40
0.000732421875
 40
0.000732421875
 40
0.0009765625
 40
0.0009765625
 40
0.001953125
 40
0.001953125
 40
0.00390625
 40
0.00390625
 40
0.0078125
 40
0.0078125
 40
0.015625
 40
0.015625
 40
0.0312500000000001
 40
0.0312500000000001
 40
0.0625000000000001
 40
0.0625000000000001
 40
0.09375
 40
0.09375
 40
0.1249999999999998
 40
0.1249999999999998
 40
0.1562499999999998
 40
0.1562499999999998
 40
0.1874999999999999
 40
0.1874999999999999
 40
0.2031250000000002
 40
0.2031250000000002
 40
0.2187499999999997
 40
0.2187499999999997
 40
0.2343750000000004
 40
0.2343750000000004
 40
0.2421874999999991
 40
0.2421874999999991
 40
0.2460937499999984
 40
0.2460937499999984
 40
0.25
 40
0.25
 40
0.2812499999999992
 40
0.2812499999999992
 40
0.3125000000000006
 40
0.3125000000000006
 40
0.3437499999999997
 40
0.3437499999999997
 40
0.374999999999999
 40
0.374999999999999
 40
0.4062500000000003
 40
0.4062500000000003
 40
0.4374999999999994
 40
0.4374999999999994
 40
0.4687500000000009
 40
0.4687500000000009
 40
0.5
 40
0.5
 40
0.5156249999999996
 40
0.5156249999999996
 40
0.5234375000000006
 40
0.5234375000000006
 40
0.5273437499999999
 40
0.5273437499999999
 40
0.5312499999999992
 40
0.5312499999999992
 40
0.5625000000000007
 40
0.5625000000000007
 40
0.5937499999999998
 40
0.5937499999999998
 40
0.624999999999999
 40
0.624999999999999
 40
0.6406249999999986
 40
0.6406249999999986
 40
0.6562500000000003
 40
0.6562500000000003
 40
0.6874999999999994
 40
0.6874999999999994
 40
0.7187499999999987
 40
0.7187499999999987
 40
0.7226562500000002
 40
0.7226562500000002
 40
0.7265624999999996
 40
0.7265624999999996
 40
0.7343750000000004
 40
0.7343750000000004
 40
0.7421874999999991
 40
0.7421874999999991
 40
0.75
 40
0.75
 40
0.7812499999999991
 40
0.7812499999999991
 40
0.8125000000000007
 40
0.8125000000000007
 40
0.8281250000000002
 40
0.8281250000000002
 40
0.8437499999999998
 40
0.8437499999999998
 40
0.8749999999999989
 40
0.8749999999999989
 40
0.9062500000000002
 40
0.9062500000000002
 40
0.921875
 40
0.921875
 40
0.9257812499999992
 40
0.9257812499999992
 40
0.9296874999999987
 40
0.9296874999999987
 40
0.9374999999999996
 40
0.9374999999999996
 40
0.9687500000000009
 40
0.9687500000000009
 40
1.0
 40
1.0
 40
1.0
 40
1.0
 10
91.37858742840957
 20
526.7694971757089
 30
0.0
 41
1.0
 10
91.37837367788556
 20
526.7661921688567
 30
0.0
 41
1.0
 10
91.37813672768905
 20
526.7630438135207
 30
0.0
 41
1.0
 10
91.37783861643126
 20
526.7591083422056
 30
0.0
 41
1.0
 10
91.37777888022657
 20
526.7583212465836
 30
0.0
 41
1.0
 10
91.37768910499116
 20
526.7571406011135
 30
0.0
 41
1.0
 10
91.37765915142467
 20
526.7567470522846
 30
0.0
 41
1.0
 10
91.37759918731567
 20
526.7559599539477
 30
0.0
 41
1.0
 10
91.37756933806666
 20
526.7555457584086
 30
0.0
 41
1.0
 10
91.37741985829607
 20
526.7534726823666
 30
0.0
 41
1.0
 10
91.37729950600936
 20
526.7518243335805
 30
0.0
 41
1.0
 10
91.37669480228216
 20
526.7436022931487
 30
0.0
 41
1.0
 10
91.37620189337906
 20
526.7370784997106
 30
0.0
 41
1.0
 10
91.37470043941326
 20
526.7175075415147
 30
0.0
 41
1.0
 10
91.37366837278458
 20
526.7044880358206
 30
0.0
 41
1.0
 10
91.37048128061706
 20
526.6654338132805
 30
0.0
 41
1.0
 10
91.36823497659256
 20
526.6394166613417
 30
0.0
 41
1.0
 10
91.36113317601766
 20
526.5613835291157
 30
0.0
 41
1.0
 10
91.35591461215976
 20
526.5093924394016
 30
0.0
 41
1.0
 10
91.33881248223626
 20
526.3534977442285
 30
0.0
 41
1.0
 10
91.32548258061667
 20
526.2496759778106
 30
0.0
 41
1.0
 10
91.27974112280346
 20
525.9385665096437
 30
0.0
 41
1.0
 10
91.24158083118557
 20
525.7316362374116
 30
0.0
 41
1.0
 10
91.15003158707337
 20
525.3189471122046
 30
0.0
 41
1.0
 10
91.09664260732018
 20
525.1131885276786
 30
0.0
 41
1.0
 10
90.97464113326306
 20
524.7030662699947
 30
0.0
 41
1.0
 10
90.90603325762056
 20
524.4987316876196
 30
0.0
 41
1.0
 10
90.75342616369537
 20
524.0912246845805
 30
0.0
 41
1.0
 10
90.66942691405647
 20
523.8880455536967
 30
0.0
 41
1.0
 10
90.48572377709228
 20
523.4824270624616
 30
0.0
 41
1.0
 10
90.38602007993096
 20
523.2799863976146
 30
0.0
 41
1.0
 10
90.22434591861386
 20
522.9765540050226
 30
0.0
 41
1.0
 10
90.16843863650656
 20
522.8754615203186
 30
0.0
 41
1.0
 10
90.05256184814766
 20
522.6734603086496
 30
0.0
 41
1.0
 10
89.99258820877816
 20
522.5725396247396
 30
0.0
 41
1.0
 10
89.86850308669317
 20
522.3708571283427
 30
0.0
 41
1.0
 10
89.80439162317316
 20
522.2700953133997
 30
0.0
 41
1.0
 10
89.70506360616267
 20
522.1190709530285
 30
0.0
 41
1.0
 10
89.67142738935146
 20
522.0687492262256
 30
0.0
 41
1.0
 10
89.62017487559626
 20
521.9932961263486
 30
0.0
 41
1.0
 10
89.60295469734307
 20
521.9681457088666
 30
0.0
 41
1.0
 10
89.56826015011897
 20
521.9178738707426
 30
0.0
 41
1.0
 10
89.55079380832457
 20
521.8927640087526
 30
0.0
 41
1.0
 10
89.39252475465477
 20
521.6670093091055
 30
0.0
 41
1.0
 10
89.24422278132056
 20
521.4680020707476
 30
0.0
 41
1.0
 10
88.93227773039787
 20
521.0732740316525
 30
0.0
 41
1.0
 10
88.76859084482366
 20
520.8774709591856
 30
0.0
 41
1.0
 10
88.42556513809028
 20
520.4888976021095
 30
0.0
 41
1.0
 10
88.24623728584558
 20
520.2961483873836
 30
0.0
 41
1.0
 10
87.87169073992817
 20
519.9138265751626
 30
0.0
 41
1.0
 10
87.67647232539116
 20
519.7242543456606
 30
0.0
 41
1.0
 10
87.26977179186757
 20
519.3484344968956
 30
0.0
 41
1.0
 10
87.05824169989347
 20
519.1621233211376
 30
0.0
 41
1.0
 10
86.61824310796537
 20
518.7927207524286
 30
0.0
 41
1.0
 10
86.38978757790026
 20
518.6096461401826
 30
0.0
 41
1.0
 10
85.91533281173987
 20
518.2469261735936
 30
0.0
 41
1.0
 10
85.66933431432535
 20
518.0672808347487
 30
0.0
 41
1.0
 10
85.15901349242156
 20
517.7116410479506
 30
0.0
 41
1.0
 10
84.89476712155317
 20
517.5357212349606
 30
0.0
 41
1.0
 10
84.48403510614138
 20
517.2749131945367
 30
0.0
 41
1.0
 10
84.34472670618396
 20
517.1884868697927
 30
0.0
 41
1.0
 10
84.13205519512488
 20
517.0596360201166
 30
0.0
 41
1.0
 10
84.06054642959796
 20
517.0168171930056
 30
0.0
 41
1.0
 10
83.95234081593387
 20
516.9527893097586
 30
0.0
 41
1.0
 10
83.91610291748887
 20
516.9314729472796
 30
0.0
 41
1.0
 10
83.84340212430227
 20
516.8889610229917
 30
0.0
 41
1.0
 10
83.80693320063406
 20
516.8677618024926
 30
0.0
 41
1.0
 10
83.47764368536167
 20
516.6774800687776
 30
0.0
 41
1.0
 10
83.17735854362397
 20
516.5119869749446
 30
0.0
 41
1.0
 10
82.56118882527527
 20
516.1883035114097
 30
0.0
 41
1.0
 10
82.24519638060266
 20
516.0300262014827
 30
0.0
 41
1.0
 10
81.59742428075258
 20
515.7210403005616
 30
0.0
 41
1.0
 10
81.26564503100587
 20
515.5703318393237
 30
0.0
 41
1.0
 10
80.75605639379327
 20
515.3503443212617
 30
0.0
 41
1.0
 10
80.58420580041218
 20
515.2780283767247
 30
0.0
 41
1.0
 10
80.23650209899257
 20
515.1354979152176
 30
0.0
 41
1.0
 10
80.06067011502657
 20
515.0652958715157
 30
0.0
 41
1.0
 10
79.52690635164387
 20
514.8578411995805
 30
0.0
 41
1.0
 10
79.16272877426907
 20
514.7237425912547
 30
0.0
 41
1.0
 10
78.41717524451248
 20
514.4644948415075
 30
0.0
 41
1.0
 10
78.03580039639176
 20
514.3393452248226
 30
0.0
 41
1.0
 10
77.59668330248068
 20
514.2039461932626
 30
0.0
 41
1.0
 10
77.54775251988417
 20
514.1889768477506
 30
0.0
 41
1.0
 10
77.44960935977336
 20
514.1591895162006
 30
0.0
 41
1.0
 10
77.40038317948037
 20
514.1443674131316
 30
0.0
 41
1.0
 10
77.25237335291769
 20
514.1001581748436
 30
0.0
 41
1.0
 10
77.15338647665737
 20
514.0710660626897
 30
0.0
 41
1.0
 10
76.95478810538937
 20
514.0136450904096
 30
0.0
 41
1.0
 10
76.85518338565267
 20
513.9853190891616
 30
0.0
 41
1.0
 10
76.65529120378747
 20
513.9294074158066
 30
0.0
 41
1.0
 10
76.55500992365168
 20
513.9018240276546
 30
0.0
 41
1.0
 10
76.05195402551297
 20
513.7657779092126
 30
0.0
 41
1.0
 10
75.64423555627924
 20
513.6629222540686
 30
0.0
 41
1.0
 10
74.81885229095816
 20
513.4694800318206
 30
0.0
 41
1.0
 10
74.40118719133628
 20
513.3788933960166
 30
0.0
 41
1.0
 10
73.76759535089602
 20
513.2525487577966
 30
0.0
 41
1.0
 10
73.55523409657077
 20
513.2120292365137
 30
0.0
 41
1.0
 10
73.12811178978322
 20
513.1342176662486
 30
0.0
 41
1.0
 10
72.91328496058551
 20
513.0969079158026
 30
0.0
 41
1.0
 10
72.26502252097126
 20
512.9898365694577
 30
0.0
 41
1.0
 10
71.82780774752666
 20
512.9249291721086
 30
0.0
 41
1.0
 10
70.94331526714501
 20
512.8085189813955
 30
0.0
 41
1.0
 10
70.49603799556223
 20
512.7570156452927
 30
0.0
 41
1.0
 10
69.81751711551213
 20
512.6902505008806
 30
0.0
 41
1.0
 10
69.59009636911884
 20
512.6697488246826
 30
0.0
 41
1.0
 10
69.30406496053574
 20
512.6463370916076
 30
0.0
 41
1.0
 10
69.24677299944565
 20
512.6417657258876
 30
0.0
 41
1.0
 10
69.13201845737417
 20
512.6328462350826
 30
0.0
 41
1.0
 10
69.07453722477514
 20
512.6284967840636
 30
0.0
 41
1.0
 10
68.90205323818434
 20
512.6158008084426
 30
0.0
 41
1.0
 10
68.78696945213241
 20
512.6078031449166
 30
0.0
 41
1.0
 10
68.21111121160608
 20
512.5701458231075
 30
0.0
 41
1.0
 10
67.74902065302535
 20
512.5474716196946
 30
0.0
 41
1.0
 10
66.82284414731448
 20
512.5171319072316
 30
0.0
 41
1.0
 10
66.35875713277804
 20
512.5094662127996
 30
0.0
 41
1.0
 10
65.89405921311193
 20
512.5094547799912
 30
0.0
 41
1.0
  0
SPLINE
  5
8E
330
71
100
AcDbEntity
  8
$DDT_AUDIT_GENERATED_(73)
  6
Continuous
 62
     7
100
AcDbSpline
210
0.0
220
0.0
230
1.0
 70
    12
 71
     2
 72
     6
 73
     3
 74
     0
 42
0.00000001
 43
0.0000000001
 40
0.0
 40
0.0
 40
0.0
 40
1.0
 40
1.0
 40
1.0
 10
40.89405755329355
 20
553.8514686503476
 30
0.0
 41
1.0
 10
40.39405755329352
 20
553.8514686503476
 30
0.0
 41
0.7071067811702411
 10
40.39405755330505
 20
553.3514686503476
 30
0.0
 41
1.0
  0
LINE
  5
8F
330
71
100
AcDbEntity
  8
$DDT_AUDIT_GENERATED_(73)
  6
Continuous
 62
     7
100
AcDbLine
 10
90.8941332024
 20
553.8514686503
 30
0.0
 11
88.1672252471
 21
553.8514686503
 31
0.0
  0
LINE
  5
90
330
71
100
AcDbEntity
  8
$DDT_AUDIT_GENERATED_(73)
  6
Continuous
 62
     7
100
AcDbLine
 10
43.620871406
 20
553.8514686503
 30
0.0
 11
40.8940575533
 21
553.8514686503
 31
0.0
  0
ARC
  5
91
330
71
100
AcDbEntity
  8
$DDT_AUDIT_GENERATED_(73)
  6
Continuous
 62
     7
100
AcDbCircle
 10
90.8941332024
 20
553.3515072286
 30
0.0
 40
0.4999629333759005
100
AcDbArc
 50
359.995578934
 51
90.0
  0
ARC
  5
92
330
71
100
AcDbEntity
  8
$DDT_AUDIT_GENERATED_(73)
  6
Continuous
 62
     7
100
AcDbCircle
 10
-3061.133776095
 20
27.1168240949
 30
0.0
 40
3191.86262171239
100
AcDbArc
 50
9.0060948393
 51
9.8293886131
  0
ELLIPSE
  5
93
330
71
100
AcDbEntity
  8
$DDT_AUDIT_GENERATED_(73)
  6
Continuous
 62
     7
100
AcDbEllipse
 10
83.4039308916
 20
572.1761063117
 30
0.0
 11
-0.4846755045762596
 21
-0.1227072933350781
 31
0.0
210
0.0
220
0.0
230
0.9999999999999999
 40
0.9777735212
 41
3.014271521579702
 42
3.139054917760576
  0
ARC
  5
94
330
71
100
AcDbEntity
  8
$DDT_AUDIT_GENERATED_(73)
  6
Continuous
 62
     7
100
AcDbCircle
 10
65.9281040446
 20
578.929514633
 30
0.0
 40
19.2315467936075
100
AcDbArc
 50
309.3383332628
 51
338.9293039137
  0
ARC
  5
95
330
71
100
AcDbEntity
  8
$DDT_AUDIT_GENERATED_(73)
  6
Continuous
 62
     7
100
AcDbCircle
 10
69.2820330893
 20
579.4059789809
 30
0.0
 40
13.08595316295596
100
AcDbArc
 50
293.6933276076
 51
336.4707634416
  0
ARC
  5
96
330
71
100
AcDbEntity
  8
$DDT_AUDIT_GENERATED_(73)
  6
Continuous
 62
     7
100
AcDbCircle
 10
5415.5496344753
 20
539.1300741972
 30
0.0
 40
5324.184975706097
100
AcDbArc
 50
179.9748233619
 51
180.1302815981
  0
ARC
  5
97
330
71
100
AcDbEntity
  8
$DDT_AUDIT_GENERATED_(73)
  6
Continuous
 62
     7
100
AcDbCircle
 10
-5283.0631872327
 20
539.1292531563
 30
0.0
 40
5323.486643931258
100
AcDbArc
 50
359.8697102599
 51
0.0251899632
  0
ARC
  5
98
330
71
100
AcDbEntity
  8
$DDT_AUDIT_GENERATED_(73)
  6
Continuous
 62
     7
100
AcDbCircle
 10
65.8311634818
 20
512.1703323151
 30
0.0
 40
54.27296362720379
100
AcDbArc
 50
89.9336029319
 51
95.6533533396
  0
SPLINE
  5
99
330
71
100
AcDbEntity
  8
$DDT_AUDIT_GENERATED_(73)
  6
Continuous
 62
     7
100
AcDbSpline
210
0.0
220
0.0
230
1.0
 70
     8
 71
     3
 72
    10
 73
     6
 74
     0
 42
0.0000000011125391
 43
0.0000000001
 40
0.0
 40
0.0
 40
0.0
 40
0.0
 40
0.1249999999999985
 40
0.1249999999999985
 40
0.202270629242323
 40
0.202270629242323
 40
0.202270629242323
 40
0.202270629242323
 10
53.66916339193437
 20
564.0555239877002
 30
0.0
 10
53.61549819127127
 20
563.7838853408663
 30
0.0
 10
53.64706627818293
 20
563.464561146285
 30
0.0
 10
53.84124227223612
 20
562.8531906658986
 30
0.0
 10
53.94938212310083
 20
562.5989547190293
 30
0.0
 10
54.08871513884109
 20
562.330358881211
 30
0.0
  0
SPLINE
  5
9A
330
71
100
AcDbEntity
  8
$DDT_AUDIT_GENERATED_(73)
  6
Continuous
 62
     7
100
AcDbSpline
210
0.0
220
0.0
230
1.0
 70
     8
 71
     3
 72
    10
 73
     6
 74
     0
 42
0.0000000011109993
 43
0.0000000001
 40
0.7977525230629331
 40
0.7977525230629331
 40
0.7977525230629331
 40
0.7977525230629331
 40
0.8749999999999994
 40
0.8749999999999994
 40
1.0
 40
1.0
 40
1.0
 40
1.0
 10
77.69820571533269
 20
562.3283744197684
 30
0.0
 10
77.83809908936371
 20
562.5979684521394
 30
0.0
 10
77.94648476134302
 20
562.8526338140535
 30
0.0
 10
78.13943339670013
 20
563.4584090354624
 30
0.0
 10
78.17304888522968
 20
563.7816966959775
 30
0.0
 10
78.11895198211505
 20
564.0555232843351
 30
0.0
  0
SPLINE
  5
9B
330
71
100
AcDbEntity
  8
$DDT_AUDIT_GENERATED_(73)
  6
Continuous
 62
     7
100
AcDbSpline
210
0.0
220
0.0
230
1.0
 70
     8
 71
     3
 72
    10
 73
     6
 74
     0
 42
0.0000000013177858
 43
0.0000000001
 40
0.0
 40
0.0
 40
0.0
 40
0.0
 40
0.5
 40
0.5
 40
1.0
 40
1.0
 40
1.0
 40
1.0
 10
78.11895198211505
 20
564.0555232843351
 30
0.0
 10
77.9796232804368
 20
564.7609031377259
 30
0.0
 10
77.2746694352485
 20
565.1212745009627
 30
0.0
 10
74.92674811963268
 20
565.7279230560989
 30
0.0
 10
73.26480444541181
 20
565.9826144271711
 30
0.0
 10
71.30326351161803
 20
566.179331626788
 30
0.0
  0
ARC
  5
9C
330
71
100
AcDbEntity
  8
$DDT_AUDIT_GENERATED_(73)
  6
Continuous
 62
     7
100
AcDbCircle
 10
65.9360963784
 20
511.7420008815
 30
0.0
 40
54.70127477225943
100
AcDbArc
 50
84.3692063798
 51
90.0440327488
  0
SPLINE
  5
9D
330
71
100
AcDbEntity
  8
$DDT_AUDIT_GENERATED_(73)
  6
Continuous
 62
     7
100
AcDbSpline
210
0.0
220
0.0
230
1.0
 70
     8
 71
     3
 72
    12
 73
     8
 74
     0
 42
0.0000000013380591
 43
0.0000000001
 40
0.0
 40
0.0
 40
0.0
 40
0.0
 40
0.5
 40
0.5
 40
0.75
 40
0.75
 40
1.0
 40
1.0
 40
1.0
 40
1.0
 10
60.48475529685033
 20
566.1793176823414
 30
0.0
 10
58.51829707277933
 20
565.982112856899
 30
0.0
 10
56.85382684675671
 20
565.7270021487798
 30
0.0
 10
55.09074060910709
 20
565.2699146191352
 30
0.0
 10
54.6218967570119
 20
565.0983167739353
 30
0.0
 10
53.94888841793075
 20
564.6681401638878
 30
0.0
 10
53.73916687366899
 20
564.4099399188875
 30
0.0
 10
53.66916339193437
 20
564.0555239877002
 30
0.0
  0
ELLIPSE
  5
9E
330
71
100
AcDbEntity
  8
$DDT_AUDIT_GENERATED_(73)
  6
Continuous
 62
     7
100
AcDbEllipse
 10
65.8940575533
 20
564.6589483694
 30
0.0
 11
12.25
 21
2.775557561562891E-14
 31
0.0
210
0.0
220
0.0
230
1.0
 40
0.4648420457
 41
6.011296250066766
 42
6.182402275654453
  0
ELLIPSE
  5
9F
330
71
100
AcDbEntity
  8
$DDT_AUDIT_GENERATED_(73)
  6
Continuous
 62
     7
100
AcDbEllipse
 10
65.8940575533
 20
564.6589483694
 30
0.0
 11
12.25
 21
2.775557561562891E-14
 31
0.0
210
0.0
220
0.0
230
1.0
 40
0.4648420457
 41
3.236950813365373
 42
3.413481710702606
  0
ELLIPSE
  5
A0
330
71
100
AcDbEntity
  8
$DDT_AUDIT_GENERATED_(73)
  6
Continuous
 62
     7
100
AcDbEllipse
 10
65.8940575533
 20
564.6589483694
 30
0.0
 11
12.00849999999999
 21
2.775557561562891E-14
 31
0.0
210
0.0
220
0.0
230
1.0
 40
0.4648420457
 41
6.096567091250707
 42
6.259828405351272
  0
ELLIPSE
  5
A1
330
71
100
AcDbEntity
  8
$DDT_AUDIT_GENERATED_(73)
  6
Continuous
 62
     7
100
AcDbEllipse
 10
65.8940575533
 20
564.6589483694
 30
0.0
 11
12.00849999999999
 21
2.775557561562891E-14
 31
0.0
210
0.0
220
0.0
230
1.0
 40
0.4648420457
 41
3.162251265809779
 42
3.328210869518667
  0
ARC
  5
A2
330
71
100
AcDbEntity
  8
$DDT_AUDIT_GENERATED_(73)
  6
Continuous
 62
     7
100
AcDbCircle
 10
-9618.6633737898
 20
3070.5934750743
 30
0.0
 40
9984.692371811192
100
AcDbArc
 50
345.3335273189
 51
345.4580716558
  0
SPLINE
  5
A3
330
71
100
AcDbEntity
  8
$DDT_AUDIT_GENERATED_(73)
  6
Continuous
 62
     7
100
AcDbSpline
210
0.0
220
0.0
230
1.0
 70
     8
 71
     3
 72
    39
 73
    35
 74
     0
 42
0.0000000005921341
 43
0.0000000001
 40
0.0
 40
0.0
 40
0.0
 40
0.0
 40
0.0537949519704651
 40
0.1008157068842295
 40
0.1413763668814779
 40
0.1756223445428494
 40
0.203490004363486
 40
0.2247426987167314
 40
0.2394397171194102
 40
0.2476293052734206
 40
0.2529400507098037
 40
0.2645005428725676
 40
0.2804024620237014
 40
0.3083636231109119
 40
0.344160419875848
 40
0.3879961623901303
 40
0.4261272832478226
 40
0.4681068098733386
 40
0.5089103940595151
 40
0.5470627368293212
 40
0.6026982661692623
 40
0.6512369533995457
 40
0.6924166200138487
 40
0.7266197064980148
 40
0.7545398526773319
 40
0.7680845182863297
 40
0.7817253158766009
 40
0.7954577474859112
 40
0.8095929374251501
 40
0.8280420761204591
 40
0.8587020292941305
 40
0.8977787654598215
 40
0.9448414024168945
 40
0.9883000434093856
 40
0.9883000434093856
 40
0.9883000434093856
 40
0.9883000434093856
 10
65.89467352048801
 20
581.6030262640533
 30
0.0
 10
65.3931492087076
 20
581.6011739232761
 30
0.0
 10
64.60186577362741
 20
581.5974145625704
 30
0.0
 10
63.38969679323262
 20
581.5695432678676
 30
0.0
 10
62.38189474751154
 20
581.5336285765569
 30
0.0
 10
61.54019454089902
 20
581.4939507038249
 30
0.0
 10
60.86785198811162
 20
581.4559700330008
 30
0.0
 10
60.35956419685461
 20
581.4235831694306
 30
0.0
 10
60.01215001149517
 20
581.3992966718401
 30
0.0
 10
59.79216314143792
 20
581.3829723574369
 30
0.0
 10
59.59758593030882
 20
581.368035774902
 30
0.0
 10
59.34470030960762
 20
581.3478049063061
 30
0.0
 10
58.92176293560447
 20
581.3117904004152
 30
0.0
 10
58.32383041545297
 20
581.2564902373383
 30
0.0
 10
57.53714588889839
 20
581.1748708089061
 30
0.0
 10
56.71643345436068
 20
581.0743422798196
 30
0.0
 10
55.88767176805781
 20
580.9602956379782
 30
0.0
 10
55.12294852909582
 20
580.8392439274581
 30
0.0
 10
54.40630150151237
 20
580.7092570354497
 30
0.0
 10
53.66626281150198
 20
580.5545151657128
 30
0.0
 10
52.94619413032556
 20
580.381580239079
 30
0.0
 10
52.30292266823599
 20
580.1917599192168
 30
0.0
 10
51.80695010752219
 20
580.0234965750506
 30
0.0
 10
51.44037795107405
 20
579.8750260150232
 30
0.0
 10
51.20336077336375
 20
579.7618887749574
 30
0.0
 10
51.04178082411809
 20
579.6748819894311
 30
0.0
 10
50.92870424139603
 20
579.6079340184823
 30
0.0
 10
50.82120165522874
 20
579.5375124206491
 30
0.0
 10
50.70911267094399
 20
579.4560627451568
 30
0.0
 10
50.57113799923772
 20
579.344223455148
 30
0.0
 10
50.40241777061979
 20
579.1844233468238
 30
0.0
 10
50.23504701086959
 20
578.9645959225555
 30
0.0
 10
50.10831580369761
 20
578.7179595879577
 30
0.0
 10
50.05121864115603
 20
578.5594562979313
 30
0.0
 10
50.02363756175814
 20
578.4752618150305
 30
0.0
  0
ARC
  5
A4
330
71
100
AcDbEntity
  8
$DDT_AUDIT_GENERATED_(73)
  6
Continuous
 62
     7
100
AcDbCircle
 10
-404.3440198308
 20
732.1024396265
 30
0.0
 40
479.6355802619963
100
AcDbArc
 50
340.5678364931
 51
341.317237583
  0
SPLINE
  5
A5
330
71
100
AcDbEntity
  8
$DDT_AUDIT_GENERATED_(73)
  6
Continuous
 62
     7
100
AcDbSpline
210
0.0
220
0.0
230
1.0
 70
     8
 71
     3
 72
    38
 73
    34
 74
     0
 42
0.0000000005788213
 43
0.0000000001
 40
0.0454286473242843
 40
0.0454286473242843
 40
0.0454286473242843
 40
0.0454286473242843
 40
0.0551565063908917
 40
0.1022176873609249
 40
0.1412933123997579
 40
0.1719528438170587
 40
0.1904021379728449
 40
0.2045377700529193
 40
0.2182706164762177
 40
0.2319118719265286
 40
0.2454569362280896
 40
0.2733780476421367
 40
0.3075822292353314
 40
0.3487631797225616
 40
0.3973033763997039
 40
0.4529408158125903
 40
0.504387518858385
 40
0.560221904556217
 40
0.6119911657970806
 40
0.6558283216207343
 40
0.6916262714646032
 40
0.7195883282633293
 40
0.735490735024296
 40
0.747051610887002
 40
0.7523625277298343
 40
0.7605524004728266
 40
0.7752499144792623
 40
0.7965033063021558
 40
0.8243718755617171
 40
0.8586189595559902
 40
0.8991809334167962
 40
0.9462031989333709
 40
1.0
 40
1.0
 40
1.0
 40
1.0
 10
81.69708253467589
 20
578.6619722315436
 30
0.0
 10
81.68996789159638
 20
578.679524242755
 30
0.0
 10
81.64680112988376
 20
578.7821792134969
 30
0.0
 10
81.55305628262558
 20
578.9646182084789
 30
0.0
 10
81.38568294428694
 20
579.1844285909569
 30
0.0
 10
81.21697339442518
 20
579.3442257920124
 30
0.0
 10
81.07900265927049
 20
579.4560631829808
 30
0.0
 10
80.96691015498794
 20
579.5375140496208
 30
0.0
 10
80.85940938047382
 20
579.6079357727748
 30
0.0
 10
80.74632636380828
 20
579.6748835966362
 30
0.0
 10
80.58476021919148
 20
579.7618921373161
 30
0.0
 10
80.34772733330256
 20
579.8750272801074
 30
0.0
 10
79.98115700611298
 20
580.0234970987582
 30
0.0
 10
79.48522174235886
 20
580.1917658965101
 30
0.0
 10
78.8417869804711
 20
580.3815559540095
 30
0.0
 10
78.05516025107308
 20
580.5707682342091
 30
0.0
 10
77.14673453167953
 20
580.7561018402357
 30
0.0
 10
76.1724066110932
 20
580.9215337892981
 30
0.0
 10
75.16666849369227
 20
581.0627336296645
 30
0.0
 10
74.25098716888284
 20
581.1748637947446
 30
0.0
 10
73.46428911993829
 20
581.2564904155533
 30
0.0
 10
72.86636139292534
 20
581.3117897562558
 30
0.0
 10
72.44342347329564
 20
581.3478040684264
 30
0.0
 10
72.19053885893987
 20
581.3680352090249
 30
0.0
 10
71.9959608656772
 20
581.3829715409123
 30
0.0
 10
71.77597456857012
 20
581.399296199221
 30
0.0
 10
71.4285593891691
 20
581.4235823979783
 30
0.0
 10
70.9202721470358
 20
581.4559695568403
 30
0.0
 10
70.24792978781937
 20
581.4939503026721
 30
0.0
 10
69.40622914037273
 20
581.5336276477112
 30
0.0
 10
68.39842858221674
 20
581.5695431608523
 30
0.0
 10
67.18625903176323
 20
581.5974143259787
 30
0.0
 10
66.39497525703511
 20
581.6011738571685
 30
0.0
 10
65.89345013526437
 20
581.6030262654164
 30
0.0
  0
ARC
  5
A6
330
71
100
AcDbEntity
  8
$DDT_AUDIT_GENERATED_(73)
  6
Continuous
 62
     7
100
AcDbCircle
 10
9768.9914090153
 20
3075.3985529625
 30
0.0
 40
10003.84480029223
100
AcDbArc
 50
194.5406973505
 51
194.6662264614
  0
ARC
  5
A7
330
71
100
AcDbEntity
  8
$DDT_AUDIT_GENERATED_(73)
  6
Continuous
 62
     7
100
AcDbCircle
 10
50.5328633742
 20
571.6350300237
 30
0.0
 40
2.715724630903302
100
AcDbArc
 50
160.976064505
 51
165.8874070515
  0
ARC
  5
A8
330
71
100
AcDbEntity
  8
$DDT_AUDIT_GENERATED_(73)
  6
Continuous
 62
     7
100
AcDbCircle
 10
536.2717556886
 20
732.1508063733
 30
0.0
 40
479.7833388233204
100
AcDbArc
 50
198.6830027753
 51
199.432063283
  0
SPLINE
  5
A9
330
71
100
AcDbEntity
  8
$DDT_AUDIT_GENERATED_(73)
  6
Continuous
 62
     7
100
AcDbSpline
210
0.0
220
0.0
230
1.0
 70
     8
 71
     3
 72
    10
 73
     6
 74
     0
 42
0.0000000170138598
 43
0.0000000001
 40
0.0
 40
0.0
 40
0.0
 40
0.0
 40
0.3323236770412099
 40
0.6663924432647859
 40
1.0
 40
1.0
 40
1.0
 40
1.0
 10
40.7101458544324
 20
553.8164164829274
 30
0.0
 10
40.64520427661677
 20
553.7809450029907
 30
0.0
 10
40.54098067296105
 20
553.7216275703179
 30
0.0
 10
40.46241558107135
 20
553.5319119932595
 30
0.0
 10
40.49526547876725
 20
553.4201696759211
 30
0.0
 10
40.51689852758592
 20
553.3514686503476
 30
0.0
  0
ARC
  5
AA
330
71
100
AcDbEntity
  8
$DDT_AUDIT_GENERATED_(73)
  6
Continuous
 62
     7
100
AcDbCircle
 10
208.3222095232
 20
587.957361747
 30
0.0
 40
125.4113854560437
100
AcDbArc
 50
187.2005944234
 51
191.3384516461
  0
ARC
  5
AB
330
71
100
AcDbEntity
  8
$DDT_AUDIT_GENERATED_(73)
  6
Continuous
 62
     7
100
AcDbCircle
 10
81.2552648348
 20
571.6350348334
 30
0.0
 40
2.715710751234775
100
AcDbArc
 50
14.1125619007
 51
19.0238520843
  0
SPLINE
  5
AC
330
71
100
AcDbEntity
  8
$DDT_AUDIT_GENERATED_(73)
  6
Continuous
 62
     7
100
AcDbSpline
210
0.0
220
0.0
230
1.0
 70
     8
 71
     3
 72
    10
 73
     6
 74
     0
 42
0.0000000170163608
 43
0.0000000001
 40
0.0
 40
0.0
 40
0.0
 40
0.0
 40
0.3336081670253914
 40
0.6676766505028916
 40
1.0
 40
1.0
 40
1.0
 40
1.0
 10
91.27125191564915
 20
553.3514686503476
 30
0.0
 10
91.29289041059567
 20
553.4201605433569
 30
0.0
 10
91.32574926261054
 20
553.5318885496685
 30
0.0
 10
91.24723217410616
 20
553.7215865159893
 30
0.0
 10
91.14303714841749
 20
553.7809127914978
 30
0.0
 10
91.07811332604075
 20
553.8163896317704
 30
0.0
  0
LINE
  5
AE
330
71
100
AcDbEntity
  8
$DDT_AUDIT_GENERATED_(AD)
  6
Continuous
 62
     7
100
AcDbLine
 10
42.6428842191
 20
585.9025363273
 30
0.0
 11
42.6429192516
 21
585.9036675009
 31
0.0
  0
ARC
  5
AF
330
71
100
AcDbEntity
  8
$DDT_AUDIT_GENERATED_(AD)
  6
Continuous
 62
     7
100
AcDbCircle
 10
43.1269139175
 20
585.8923675392
 30
0.0
 40
0.484126559693099
100
AcDbArc
 50
151.0091559797
 51
178.6625420516
  0
ARC
  5
B0
330
71
100
AcDbEntity
  8
$DDT_AUDIT_GENERATED_(AD)
  6
Continuous
 62
     7
100
AcDbCircle
 10
43.4920001956
 20
582.9285269027
 30
0.0
 40
0.9758771030504017
100
AcDbArc
 50
176.3543853665
 51
182.1335727198
  0
ARC
  5
B1
330
71
100
AcDbEntity
  8
$DDT_AUDIT_GENERATED_(AD)
  6
Continuous
 62
     7
100
AcDbCircle
 10
-161.9432344414
 20
699.7053470511
 30
0.0
 40
235.5737112035175
100
AcDbArc
 50
330.4029106414
 51
333.4918703958
  0
ARC
  5
B2
330
71
100
AcDbEntity
  8
$DDT_AUDIT_GENERATED_(AD)
  6
Continuous
 62
     7
100
AcDbCircle
 10
48.9593798642
 20
595.0529610533
 30
0.0
 40
0.4990344614228533
100
AcDbArc
 50
159.6681273134
 51
259.0816804794
  0
SPLINE
  5
B3
330
71
100
AcDbEntity
  8
$DDT_AUDIT_GENERATED_(AD)
  6
Continuous
 62
     7
100
AcDbSpline
210
0.0
220
0.0
230
1.0
 70
    12
 71
     3
 72
   102
 73
    98
 74
     0
 42
0.0000000004331164
 43
0.0000000001
 40
0.0
 40
0.0
 40
0.0
 40
0.0
 40
0.000067835791388
 40
0.000067835791388
 40
0.0003134590201299
 40
0.0003134590201299
 40
0.0008047054776139
 40
0.0008047054776139
 40
0.0017871983925816
 40
0.0017871983925816
 40
0.0096471417123253
 40
0.0096471417123253
 40
0.025367028351812
 40
0.025367028351812
 40
0.0568068016307858
 40
0.0568068016307858
 40
0.0646667449505293
 40
0.0646667449505293
 40
0.0725266882702724
 40
0.0725266882702724
 40
0.0882465749097581
 40
0.0882465749097581
 40
0.1196863481887328
 40
0.1196863481887328
 40
0.1825658947466819
 40
0.1825658947466819
 40
0.2454454413046286
 40
0.2454454413046286
 40
0.2768852145836031
 40
0.2768852145836031
 40
0.3083249878625747
 40
0.3083249878625747
 40
0.339764761141548
 40
0.339764761141548
 40
0.347624704461292
 40
0.347624704461292
 40
0.3515546761211625
 40
0.3515546761211625
 40
0.3554846477810361
 40
0.3554846477810361
 40
0.3712045344205242
 40
0.3712045344205242
 40
0.4026443076994973
 40
0.4026443076994973
 40
0.4340840809784706
 40
0.4340840809784706
 40
0.4655238542574437
 40
0.4655238542574437
 40
0.49696362753642
 40
0.49696362753642
 40
0.5284034008153901
 40
0.5284034008153901
 40
0.5441232874548814
 40
0.5441232874548814
 40
0.5598431740943665
 40
0.5598431740943665
 40
0.5912829473733425
 40
0.5912829473733425
 40
0.6070028340128247
 40
0.6070028340128247
 40
0.6109328056726983
 40
0.6109328056726983
 40
0.6148627773325688
 40
0.6148627773325688
 40
0.6227227206523128
 40
0.6227227206523128
 40
0.654162493931286
 40
0.654162493931286
 40
0.6856022672102623
 40
0.6856022672102623
 40
0.7170420404892324
 40
0.7170420404892324
 40
0.7327619271287236
 40
0.7327619271287236
 40
0.7484818137682085
 40
0.7484818137682085
 40
0.7799215870471848
 40
0.7799215870471848
 40
0.8113613603261549
 40
0.8113613603261549
 40
0.8428011336051282
 40
0.8428011336051282
 40
0.8585210202446164
 40
0.8585210202446164
 40
0.8663809635643602
 40
0.8663809635643602
 40
0.8703109352242309
 40
0.8703109352242309
 40
0.8742409068841044
 40
0.8742409068841044
 40
0.9056806801630806
 40
0.9056806801630806
 40
0.9371204534420509
 40
0.9371204534420509
 40
0.9685602267210269
 40
0.9685602267210269
 40
1.0
 40
1.0
 40
1.0
 40
1.0
 10
65.8949597638103
 20
583.7488356761639
 30
0.0
 41
1.0
 10
65.89418956119161
 20
583.7488356780626
 30
0.0
 41
1.0
 10
65.89342167321635
 20
583.7488356809084
 30
0.0
 41
1.0
 10
65.88985709551751
 20
583.7488356936442
 30
0.0
 41
1.0
 10
65.8870639241596
 20
583.7488357029805
 30
0.0
 41
1.0
 10
65.87868439412874
 20
583.7488357290472
 30
0.0
 41
1.0
 10
65.87309801949706
 20
583.7488357438358
 30
0.0
 41
1.0
 10
65.85633883223679
 20
583.7488357803649
 30
0.0
 41
1.0
 10
65.84516595623879
 20
583.7488357942643
 30
0.0
 41
1.0
 10
65.74460932297595
 20
583.7488358235063
 30
0.0
 41
1.0
 10
65.6552203207651
 20
583.7488351664662
 30
0.0
 41
1.0
 10
65.3870392229239
 20
583.7488308741205
 30
0.0
 41
1.0
 10
65.20823303503741
 20
583.7488249000255
 30
0.0
 41
1.0
 10
64.67177323413578
 20
583.7487960977984
 30
0.0
 41
1.0
 10
64.31407828951771
 20
583.7487621040584
 30
0.0
 41
1.0
 10
63.86694193888385
 20
583.7487002284171
 30
0.0
 41
1.0
 10
63.77751379236085
 20
583.7486869064807
 30
0.0
 41
1.0
 10
63.5986570613072
 20
583.7486584370313
 30
0.0
 41
1.0
 10
63.50920051455066
 20
583.7486432837734
 30
0.0
 41
1.0
 10
63.24133601669335
 20
583.7485953378225
 30
0.0
 41
1.0
 10
63.06328562959251
 20
583.7485600202921
 30
0.0
 41
1.0
 10
62.53071202690465
 20
583.7484460881492
 30
0.0
 41
1.0
 10
62.17777525816447
 20
583.7483596343073
 30
0.0
 41
1.0
 10
61.12520904241953
 20
583.748091645387
 30
0.0
 41
1.0
 10
60.43181126403985
 20
583.7478934641043
 30
0.0
 41
1.0
 10
59.06198382822206
 20
583.747525460809
 30
0.0
 41
1.0
 10
58.38558218528951
 20
583.7473601622876
 30
0.0
 41
1.0
 10
57.38411842619755
 20
583.7472379090786
 30
0.0
 41
1.0
 10
57.0524962586554
 20
583.7472161790212
 30
0.0
 41
1.0
 10
56.39380878323308
 20
583.7472261072983
 30
0.0
 41
1.0
 10
56.06674317136615
 20
583.7472577319998
 30
0.0
 41
1.0
 10
55.41737248460819
 20
583.7473993816288
 30
0.0
 41
1.0
 10
55.09508344313858
 20
583.7475090721467
 30
0.0
 41
1.0
 10
54.69528101823288
 20
583.7477211732012
 30
0.0
 41
1.0
 10
54.61547408045418
 20
583.7477671855017
 30
0.0
 41
1.0
 10
54.49599720989119
 20
583.7478417634518
 30
0.0
 41
1.0
 10
54.45621051097589
 20
583.7478675496202
 30
0.0
 41
1.0
 10
54.37671552228039
 20
583.7479210072901
 30
0.0
 41
1.0
 10
54.33699514262738
 20
583.7479486877802
 30
0.0
 41
1.0
 10
54.13878755452419
 20
583.7480917433851
 30
0.0
 41
1.0
 10
53.98144045266419
 20
583.7482210778903
 30
0.0
 41
1.0
 10
53.51305611859239
 20
583.7486564096416
 30
0.0
 41
1.0
 10
53.20567314401178
 20
583.7490095346758
 30
0.0
 41
1.0
 10
52.60071702396379
 20
583.7498608516507
 30
0.0
 41
1.0
 10
52.30314797137049
 20
583.7503583949498
 30
0.0
 41
1.0
 10
51.71795471177769
 20
583.7515267070496
 30
0.0
 41
1.0
 10
51.43030347991918
 20
583.7522016286694
 30
0.0
 41
1.0
 10
50.86511201053968
 20
583.7537471300816
 30
0.0
 41
1.0
 10
50.58757118391409
 20
583.7546178674272
 30
0.0
 41
1.0
 10
50.04292827827788
 20
583.7565660736352
 30
0.0
 41
1.0
 10
49.77582538100028
 20
583.7576438203258
 30
0.0
 41
1.0
 10
49.38334288427348
 20
583.7594166445863
 30
0.0
 41
1.0
 10
49.25388489197339
 20
583.7600323337007
 30
0.0
 41
1.0
 10
48.99771111504159
 20
583.7613249715312
 30
0.0
 41
1.0
 10
48.87100004781639
 20
583.762000545072
 30
0.0
 41
1.0
 10
48.49511690372209
 20
583.7641036201107
 30
0.0
 41
1.0
 10
48.25018756006728
 20
583.765609082658
 30
0.0
 41
1.0
 10
47.89189200377149
 20
583.7679546004564
 30
0.0
 41
1.0
 10
47.77397830790499
 20
583.7687506444605
 30
0.0
 41
1.0
 10
47.62856198062458
 20
583.769752759099
 30
0.0
 41
1.0
 10
47.59957754671439
 20
583.7699535228071
 30
0.0
 41
1.0
 10
47.54180846648219
 20
583.7703554121828
 30
0.0
 41
1.0
 10
47.51301593160478
 20
583.7705565933227
 30
0.0
 41
1.0
 10
47.42700117876229
 20
583.771159744356
 30
0.0
 41
1.0
 10
47.37016627858328
 20
583.771561159509
 30
0.0
 41
1.0
 10
47.08855462023999
 20
583.77355725202
 30
0.0
 41
1.0
 10
46.87150205991579
 20
583.7751119599332
 30
0.0
 41
1.0
 10
46.45411287944219
 20
583.7779994866752
 30
0.0
 41
1.0
 10
46.25379474171598
 20
583.7793264214143
 30
0.0
 41
1.0
 10
45.87059345267409
 20
583.7813628781186
 30
0.0
 41
1.0
 10
45.68771421726778
 20
583.7820740584981
 30
0.0
 41
1.0
 10
45.42705058689948
 20
583.782248700253
 30
0.0
 41
1.0
 10
45.34243889991409
 20
583.7821565537832
 30
0.0
 41
1.0
 10
45.17785850946109
 20
583.7815783371242
 30
0.0
 41
1.0
 10
45.09789768944979
 20
583.7810888067271
 30
0.0
 41
1.0
 10
44.86502256820099
 20
583.7789012662163
 30
0.0
 41
1.0
 10
44.71913915831649
 20
583.7764863652959
 30
0.0
 41
1.0
 10
44.44643977865388
 20
583.768713490878
 30
0.0
 41
1.0
 10
44.31963539701339
 20
583.7633496895057
 30
0.0
 41
1.0
 10
44.08476370676298
 20
583.748536564813
 30
0.0
 41
1.0
 10
43.97670147197358
 20
583.7390784022077
 30
0.0
 41
1.0
 10
43.82768830387868
 20
583.7210594231792
 30
0.0
 41
1.0
 10
43.78018920116859
 20
583.7144163392984
 30
0.0
 41
1.0
 10
43.71200822130989
 20
583.7034266672148
 30
0.0
 41
1.0
 10
43.68979007633608
 20
583.6995943488935
 30
0.0
 41
1.0
 10
43.65718085856388
 20
583.6936006503379
 30
0.0
 41
1.0
 10
43.64643165480399
 20
583.6915611812645
 30
0.0
 41
1.0
 10
43.62516976972629
 20
583.6873980854544
 30
0.0
 41
1.0
 10
43.61465664263218
 20
583.6852743249376
 30
0.0
 41
1.0
 10
43.52117566472329
 20
583.6657980009887
 30
0.0
 41
1.0
 10
43.44599920102259
 20
583.6458553638961
 30
0.0
 41
1.0
 10
43.30841816067159
 20
583.6007174968798
 30
0.0
 41
1.0
 10
43.24599999496348
 20
583.5755271436141
 30
0.0
 41
1.0
 10
43.13099401831438
 20
583.5203159268535
 30
0.0
 41
1.0
 10
43.07839954812528
 20
583.490300773402
 30
0.0
 41
1.0
 10
42.98056869153989
 20
583.426102342182
 30
0.0
 41
1.0
 10
42.93533152149008
 20
583.3919231204209
 30
0.0
 41
1.0
 10
42.89282381619888
 20
583.3560339990879
 30
0.0
 41
1.0
  0
SPLINE
  5
B4
330
71
100
AcDbEntity
  8
$DDT_AUDIT_GENERATED_(AD)
  6
Continuous
 62
     7
100
AcDbSpline
210
0.0
220
0.0
230
1.0
 70
     8
 71
     3
 72
    14
 73
    10
 74
     0
 42
0.0000000005304247
 43
0.0000000001
 40
0.3809931377377894
 40
0.3809931377377894
 40
0.3809931377377894
 40
0.3809931377377894
 40
0.5050187464037476
 40
0.646711531761897
 40
0.7697524672091091
 40
0.829519735780231
 40
0.8870158872621725
 40
0.9416934472044141
 40
1.0
 40
1.0
 40
1.0
 40
1.0
 10
54.60705106856359
 20
580.7427418720684
 30
0.0
 10
53.48299976187809
 20
580.7504616740907
 30
0.0
 10
51.1810156492932
 20
580.7738187171898
 30
0.0
 10
48.23740527256007
 20
580.8497804533414
 30
0.0
 10
46.22110185785778
 20
580.997870435475
 30
0.0
 10
44.98721329638926
 20
581.1993618376074
 30
0.0
 10
44.23169612743238
 20
581.3961748736665
 30
0.0
 10
43.59725810231262
 20
581.644939760096
 30
0.0
 10
43.28443300175658
 20
581.8476029371546
 30
0.0
 10
43.12299655906228
 20
581.9521892453226
 30
0.0
  0
SPLINE
  5
B5
330
71
100
AcDbEntity
  8
$DDT_AUDIT_GENERATED_(AD)
  6
Continuous
 62
     7
100
AcDbSpline
210
0.0
220
0.0
230
1.0
 70
    12
 71
     3
 72
   140
 73
   136
 74
     0
 42
0.0000000005399619
 43
0.0000000001
 40
0.0
 40
0.0
 40
0.0
 40
0.0
 40
0.0157194533715449
 40
0.0157194533715449
 40
0.0314392148330125
 40
0.0314392148330125
 40
0.0628787377559476
 40
0.0628787377559476
 40
0.0943182606788824
 40
0.0943182606788824
 40
0.1257577836018175
 40
0.1257577836018175
 40
0.1571973065247521
 40
0.1571973065247521
 40
0.1886368294476872
 40
0.1886368294476872
 40
0.2200763523706195
 40
0.2200763523706195
 40
0.2515158752935546
 40
0.2515158752935546
 40
0.2593757560242881
 40
0.2593757560242881
 40
0.2672356367550222
 40
0.2672356367550222
 40
0.28295539821649
 40
0.28295539821649
 40
0.2986751596779564
 40
0.2986751596779564
 40
0.3143949211394229
 40
0.3143949211394229
 40
0.3301146826008921
 40
0.3301146826008921
 40
0.3340446229662588
 40
0.3340446229662588
 40
0.3379745633316253
 40
0.3379745633316253
 40
0.3458344440623586
 40
0.3458344440623586
 40
0.3536943247930946
 40
0.3536943247930946
 40
0.3615542055238278
 40
0.3615542055238278
 40
0.3772739669852943
 40
0.3772739669852943
 40
0.3929937284467607
 40
0.3929937284467607
 40
0.4008536091774967
 40
0.4008536091774967
 40
0.4087134899082299
 40
0.4087134899082299
 40
0.4401530128311656
 40
0.4401530128311656
 40
0.4715925357540985
 40
0.4715925357540985
 40
0.487312297215565
 40
0.487312297215565
 40
0.5030320586770342
 40
0.5030320586770342
 40
0.5187518201385034
 40
0.5187518201385034
 40
0.5226817605038672
 40
0.5226817605038672
 40
0.5266117008692338
 40
0.5266117008692338
 40
0.5344715815999671
 40
0.5344715815999671
 40
0.5501913430614334
 40
0.5501913430614334
 40
0.5580512237921667
 40
0.5580512237921667
 40
0.5659111045229027
 40
0.5659111045229027
 40
0.5973506274458356
 40
0.5973506274458356
 40
0.6287901503687713
 40
0.6287901503687713
 40
0.6602296732917069
 40
0.6602296732917069
 40
0.6759494347531734
 40
0.6759494347531734
 40
0.6798793751185399
 40
0.6798793751185399
 40
0.6838093154839066
 40
0.6838093154839066
 40
0.6916691962146426
 40
0.6916691962146426
 40
0.707388957676109
 40
0.707388957676109
 40
0.7231087191375756
 40
0.7231087191375756
 40
0.7388284805990448
 40
0.7388284805990448
 40
0.7545482420605111
 40
0.7545482420605111
 40
0.7859877649834469
 40
0.7859877649834469
 40
0.8174272879063713
 40
0.8174272879063713
 40
0.8331470493678574
 40
0.8331470493678574
 40
0.841006930098585
 40
0.841006930098585
 40
0.8449368704639488
 40
0.8449368704639488
 40
0.8488668108293125
 40
0.8488668108293125
 40
0.8645865722907706
 40
0.8645865722907706
 40
0.8724464530215263
 40
0.8724464530215263
 40
0.8763763933868901
 40
0.8763763933868901
 40
0.8803063337522539
 40
0.8803063337522539
 40
0.896026095213709
 40
0.896026095213709
 40
0.9117458566751949
 40
0.9117458566751949
 40
0.9274656181366502
 40
0.9274656181366502
 40
0.9431853795981053
 40
0.9431853795981053
 40
0.9746249025210466
 40
0.9746249025210466
 40
0.990344663982533
 40
0.990344663982533
 40
0.9982045447132605
 40
0.9982045447132605
 40
0.9991870298045931
 40
0.9991870298045931
 40
0.9996782723502606
 40
0.9996782723502606
 40
0.9999238936231086
 40
0.9999238936231086
 40
1.0
 40
1.0
 40
1.0
 40
1.0
 10
48.8648580458467
 20
594.5629600129768
 30
0.0
 41
1.0
 10
48.88141805103695
 20
594.5944504949806
 30
0.0
 41
1.0
 10
48.89809140245883
 20
594.6260164594049
 30
0.0
 41
1.0
 10
48.93149490429749
 20
594.68913988655
 30
0.0
 41
1.0
 10
48.9482279660286
 20
594.7207153389365
 30
0.0
 41
1.0
 10
48.99849815737981
 20
594.8154761334189
 30
0.0
 41
1.0
 10
49.03211075457531
 20
594.8786980560333
 30
0.0
 41
1.0
 10
49.0992802750537
 20
595.0051589367836
 30
0.0
 41
1.0
 10
49.1328369052575
 20
595.0683974825797
 30
0.0
 41
1.0
 10
49.19961860224301
 20
595.1947269370085
 30
0.0
 41
1.0
 10
49.2328121027407
 20
595.2577990723287
 30
0.0
 41
1.0
 10
49.2987928079431
 20
595.3837298184192
 30
0.0
 41
1.0
 10
49.3316026985018
 20
595.4465919477256
 30
0.0
 41
1.0
 10
49.39701950923821
 20
595.5721010880319
 30
0.0
 41
1.0
 10
49.4296283742316
 20
595.6347479608637
 30
0.0
 41
1.0
 10
49.49479058572661
 20
595.759817627143
 30
0.0
 41
1.0
 10
49.5273125250112
 20
595.8222313917508
 30
0.0
 41
1.0
 10
49.59234341155461
 20
595.9469663709988
 30
0.0
 41
1.0
 10
49.6248592883394
 20
596.0092884384777
 30
0.0
 41
1.0
 10
49.6656205871021
 20
596.0873156335767
 30
0.0
 41
1.0
 10
49.6737787545195
 20
596.102927633754
 30
0.0
 41
1.0
 10
49.690110150664
 20
596.134170621932
 30
0.0
 41
1.0
 10
49.69828186248071
 20
596.1498017827952
 30
0.0
 41
1.0
 10
49.7230439078247
 20
596.1967038390219
 30
0.0
 41
1.0
 10
49.73987998620991
 20
596.2279826336185
 30
0.0
 41
1.0
 10
49.77545942254361
 20
596.2904669246329
 30
0.0
 41
1.0
 10
49.79420661151671
 20
596.3216723054915
 30
0.0
 41
1.0
 10
49.8348759791385
 20
596.3839385095356
 30
0.0
 41
1.0
 10
49.8567951271265
 20
596.4149999260695
 30
0.0
 41
1.0
 10
49.9050803686078
 20
596.4769098330315
 30
0.0
 41
1.0
 10
49.931446556704
 20
596.5077586159276
 30
0.0
 41
1.0
 10
49.9680074291065
 20
596.5461382592728
 30
0.0
 41
1.0
 10
49.9755003685774
 20
596.5538050250648
 30
0.0
 41
1.0
 10
49.99086525642091
 20
596.5691192812837
 30
0.0
 41
1.0
 10
49.998735731281
 20
596.576766953911
 30
0.0
 41
1.0
 10
50.0229118794864
 20
596.599683129325
 30
0.0
 41
1.0
 10
50.03978220154361
 20
596.6149248750304
 30
0.0
 41
1.0
 10
50.07503389174921
 20
596.6453431123327
 30
0.0
 41
1.0
 10
50.0934152694721
 20
596.6605196103839
 30
0.0
 41
1.0
 10
50.1316966371415
 20
596.6908107128652
 30
0.0
 41
1.0
 10
50.15160903477821
 20
596.7059335336116
 30
0.0
 41
1.0
 10
50.2134312921327
 20
596.7510635042906
 30
0.0
 41
1.0
 10
50.2574763343466
 20
596.780876675689
 30
0.0
 41
1.0
 10
50.35114238346591
 20
596.8399339427382
 30
0.0
 41
1.0
 10
50.4007573152698
 20
596.8691707043026
 30
0.0
 41
1.0
 10
50.4793466103086
 20
596.9126017499758
 30
0.0
 41
1.0
 10
50.50623864602831
 20
596.9270080888585
 30
0.0
 41
1.0
 10
50.5614188822409
 20
596.9556807106478
 30
0.0
 41
1.0
 10
50.58970844405181
 20
596.9699467513365
 30
0.0
 41
1.0
 10
50.73464484102301
 20
597.040932147565
 30
0.0
 41
1.0
 10
50.8617141937539
 20
597.0966254727078
 30
0.0
 41
1.0
 10
51.1370988589343
 20
597.2061118671932
 30
0.0
 41
1.0
 10
51.28541668419441
 20
597.259906315765
 30
0.0
 41
1.0
 10
51.5233252484495
 20
597.3393173634728
 30
0.0
 41
1.0
 10
51.60519153239811
 20
597.3655760190078
 30
0.0
 41
1.0
 10
51.7740798719421
 20
597.4176587295501
 30
0.0
 41
1.0
 10
51.8611113182313
 20
597.4434797443084
 30
0.0
 41
1.0
 10
52.040474674781
 20
597.4946590974207
 30
0.0
 41
1.0
 10
52.1328065509264
 20
597.5200175066378
 30
0.0
 41
1.0
 10
52.25162854456791
 20
597.551418273017
 30
0.0
 41
1.0
 10
52.27555358154991
 20
597.5576809433044
 30
0.0
 41
1.0
 10
52.3236606997261
 20
597.5701544686286
 30
0.0
 41
1.0
 10
52.34785207478221
 20
597.576367786835
 30
0.0
 41
1.0
 10
52.42083950666071
 20
597.594937627506
 30
0.0
 41
1.0
 10
52.47004884826051
 20
597.6072240319651
 30
0.0
 41
1.0
 10
52.6193297545074
 20
597.6438047492212
 30
0.0
 41
1.0
 10
52.72105395531511
 20
597.6678206244487
 30
0.0
 41
1.0
 10
52.87695002997191
 20
597.703295617937
 30
0.0
 41
1.0
 10
52.92946801328491
 20
597.715028856429
 30
0.0
 41
1.0
 10
53.03560074069671
 20
597.7383158463922
 30
0.0
 41
1.0
 10
53.08921505652931
 20
597.7498697351018
 30
0.0
 41
1.0
 10
53.3600019696572
 20
597.8072014973293
 30
0.0
 41
1.0
 10
53.58533057733181
 20
597.851678467384
 30
0.0
 41
1.0
 10
54.05297418432291
 20
597.9379632235723
 30
0.0
 41
1.0
 10
54.29527374508861
 20
597.9797542487385
 30
0.0
 41
1.0
 10
54.796842796138
 20
598.06055916699
 30
0.0
 41
1.0
 10
55.05613558762021
 20
598.0995668405674
 30
0.0
 41
1.0
 10
55.45826526568281
 20
598.1558831584347
 30
0.0
 41
1.0
 10
55.5945078080342
 20
598.1742899236045
 30
0.0
 41
1.0
 10
55.7676104409778
 20
598.1968335339435
 30
0.0
 41
1.0
 10
55.80237095213601
 20
598.2013190165217
 30
0.0
 41
1.0
 10
55.872173244984
 20
598.2102433049342
 30
0.0
 41
1.0
 10
55.90722336670979
 20
598.2146831202772
 30
0.0
 41
1.0
 10
56.01260424908958
 20
598.2279082091067
 30
0.0
 41
1.0
 10
56.08322486034535
 20
598.2366068014449
 30
0.0
 41
1.0
 10
56.29617877062208
 20
598.2623509813857
 30
0.0
 41
1.0
 10
56.43960577466031
 20
598.2790441432293
 30
0.0
 41
1.0
 10
56.72932073972446
 20
598.3115109739465
 30
0.0
 41
1.0
 10
56.87560559623034
 20
598.3272866194529
 30
0.0
 41
1.0
 10
57.17096668990109
 20
598.3579418167596
 30
0.0
 41
1.0
 10
57.32004096663854
 20
598.372818836791
 30
0.0
 41
1.0
 10
57.62094266724546
 20
598.4016907251804
 30
0.0
 41
1.0
 10
57.77277923201143
 20
598.4156871660861
 30
0.0
 41
1.0
 10
58.2324709719943
 20
598.4563962620556
 30
0.0
 41
1.0
 10
58.54449516152306
 20
598.4818313043222
 30
0.0
 41
1.0
 10
59.18012268513677
 20
598.5294478135369
 30
0.0
 41
1.0
 10
59.50373465706718
 20
598.5516250345007
 30
0.0
 41
1.0
 10
59.99837922004689
 20
598.582561312691
 30
0.0
 41
1.0
 10
60.16479985608612
 20
598.5924853742739
 30
0.0
 41
1.0
 10
60.41681974430003
 20
598.6068063663603
 30
0.0
 41
1.0
 10
60.5012246382032
 20
598.611485865052
 30
0.0
 41
1.0
 10
60.62844051004083
 20
598.6183662168689
 30
0.0
 41
1.0
 10
60.67095368737785
 20
598.6206368604742
 30
0.0
 41
1.0
 10
60.75615792808536
 20
598.6251308542909
 30
0.0
 41
1.0
 10
60.79879598664024
 20
598.6273514178768
 30
0.0
 41
1.0
 10
61.0121662471679
 20
598.63832424328
 30
0.0
 41
1.0
 10
61.18343847467986
 20
598.6466856259551
 30
0.0
 41
1.0
 10
61.4412128233115
 20
598.6586581089027
 30
0.0
 41
1.0
 10
61.52728198708564
 20
598.6625540303793
 30
0.0
 41
1.0
 10
61.65660311920202
 20
598.6682626893595
 30
0.0
 41
1.0
 10
61.69974789023308
 20
598.6701431731954
 30
0.0
 41
1.0
 10
61.78608703334021
 20
598.6738600196287
 30
0.0
 41
1.0
 10
61.82928402187792
 20
598.6756961041139
 30
0.0
 41
1.0
 10
62.04540480646676
 20
598.6847608098982
 30
0.0
 41
1.0
 10
62.21873559900882
 20
598.691641497471
 30
0.0
 41
1.0
 10
62.56624250631784
 20
598.7045694468527
 30
0.0
 41
1.0
 10
62.7404187292086
 20
598.7106166611075
 30
0.0
 41
1.0
 10
63.08960550098357
 20
598.7218078023071
 30
0.0
 41
1.0
 10
63.26461616133668
 20
598.7269518961676
 30
0.0
 41
1.0
 10
63.61546916809266
 20
598.7362872881147
 30
0.0
 41
1.0
 10
63.79131187223243
 20
598.7404783869982
 30
0.0
 41
1.0
 10
64.32009170281866
 20
598.7515658621714
 30
0.0
 41
1.0
 10
64.6742843402103
 20
598.7569788833249
 30
0.0
 41
1.0
 10
65.20806004966708
 20
598.7619609458376
 30
0.0
 41
1.0
 10
65.38639897757979
 20
598.7630987250009
 30
0.0
 41
1.0
 10
65.65451473101916
 20
598.7639859597224
 30
0.0
 41
1.0
 10
65.74398778507225
 20
598.7641449597278
 30
0.0
 41
1.0
 10
65.84475684957965
 20
598.7641652397097
 30
0.0
 41
1.0
 10
65.8559549656378
 20
598.764165288991
 30
0.0
 41
1.0
 10
65.87275446407159
 20
598.7641620426895
 30
0.0
 41
1.0
 10
65.878354684275
 20
598.764160407212
 30
0.0
 41
1.0
 10
65.88675559494209
 20
598.7641571221282
 30
0.0
 41
1.0
 10
65.88955599522625
 20
598.7641558884534
 30
0.0
 41
1.0
 10
65.89322423328781
 20
598.7641540907184
 30
0.0
 41
1.0
 10
65.89409198310891
 20
598.7641536521279
 30
0.0
 41
1.0
 10
65.89495975882585
 20
598.7641534798712
 30
0.0
 41
1.0
  0
ARC
  5
B6
330
71
100
AcDbEntity
  8
$DDT_AUDIT_GENERATED_(AD)
  6
Continuous
 62
     7
100
AcDbCircle
 10
-1191.3958606188
 20
637.3262382147
 30
0.0
 40
1235.109720177481
100
AcDbArc
 50
357.4785972335
 51
357.6138047185
  0
ARC
  5
B7
330
71
100
AcDbEntity
  8
$DDT_AUDIT_GENERATED_(AD)
  6
Continuous
 62
     7
100
AcDbCircle
 10
65.8925318455
 20
686.4588409815
 30
0.0
 40
93.46012312212962
100
AcDbArc
 50
259.5025443627
 51
270.0014884366
  0
ARC
  5
B8
330
71
100
AcDbEntity
  8
$DDT_AUDIT_GENERATED_(AD)
  6
Continuous
 62
     7
100
AcDbCircle
 10
88.6631075952
 20
585.8924748002
 30
0.0
 40
0.484022110152719
100
AcDbArc
 50
1.3250462419
 51
28.9748656265
  0
LINE
  5
B9
330
71
100
AcDbEntity
  8
$DDT_AUDIT_GENERATED_(AD)
  6
Continuous
 62
     7
100
AcDbLine
 10
89.1470002761
 20
585.9036675009
 30
0.0
 11
89.1470353085
 21
585.9025363273
 31
0.0
  0
ARC
  5
BA
330
71
100
AcDbEntity
  8
$DDT_AUDIT_GENERATED_(AD)
  6
Continuous
 62
     7
100
AcDbCircle
 10
88.2978258619
 20
582.9285256693
 30
0.0
 40
0.9759704624805071
100
AcDbArc
 50
357.8667039276
 51
3.645337986
  0
ARC
  5
BB
330
71
100
AcDbEntity
  8
$DDT_AUDIT_GENERATED_(AD)
  6
Continuous
 62
     7
100
AcDbCircle
 10
82.830534946
 20
595.0529637142
 30
0.0
 40
0.499037967641666
100
AcDbArc
 50
280.9187934777
 51
20.3311858633
  0
ARC
  5
BC
330
71
100
AcDbEntity
  8
$DDT_AUDIT_GENERATED_(AD)
  6
Continuous
 62
     7
100
AcDbCircle
 10
293.7331539707
 20
699.705347052
 30
0.0
 40
235.5737112054064
100
AcDbArc
 50
206.5081296043
 51
209.5970893586
  0
SPLINE
  5
BD
330
71
100
AcDbEntity
  8
$DDT_AUDIT_GENERATED_(AD)
  6
Continuous
 62
     7
100
AcDbSpline
210
0.0
220
0.0
230
1.0
 70
     8
 71
     3
 72
    15
 73
    11
 74
     0
 42
0.0000000005305915
 43
0.0000000001
 40
0.0
 40
0.0
 40
0.0
 40
0.0
 40
0.0392598958466515
 40
0.0769659422924823
 40
0.1130008654588558
 40
0.1704956672748329
 40
0.2302643094125713
 40
0.3533036858732087
 40
0.4949980861903731
 40
0.6188274368959159
 40
0.6188274368959159
 40
0.6188274368959159
 40
0.6188274368959159
 10
88.66692296855818
 20
581.9521892453226
 30
0.0
 10
88.56111025421869
 20
581.8809113607867
 30
0.0
 10
88.3536727384021
 20
581.7411766663967
 30
0.0
 10
87.97561586766047
 20
581.5606028865766
 30
0.0
 10
87.47796797730278
 20
581.3743405931162
 30
0.0
 10
86.80217604271996
 20
581.1995242112725
 30
0.0
 10
85.56915817181145
 20
580.9977752466044
 30
0.0
 10
83.55239550920717
 20
580.8498190796467
 30
0.0
 10
80.61043667520909
 20
580.7738487582845
 30
0.0
 10
78.31032300174668
 20
580.7504930542653
 30
0.0
 10
77.18820514715037
 20
580.7427782433172
 30
0.0
  0
SPLINE
  5
BE
330
71
100
AcDbEntity
  8
$DDT_AUDIT_GENERATED_(AD)
  6
Continuous
 62
     7
100
AcDbSpline
210
0.0
220
0.0
230
1.0
 70
    12
 71
     3
 72
   102
 73
    98
 74
     0
 42
0.0000000004331164
 43
0.0000000001
 40
0.0
 40
0.0
 40
0.0
 40
0.0
 40
0.0314397732789731
 40
0.0314397732789731
 40
0.0628795465579493
 40
0.0628795465579493
 40
0.0943193198369195
 40
0.0943193198369195
 40
0.1257590931158957
 40
0.1257590931158957
 40
0.1296890647757692
 40
0.1296890647757692
 40
0.1336190364356398
 40
0.1336190364356398
 40
0.1414789797553838
 40
0.1414789797553838
 40
0.1571988663948719
 40
0.1571988663948719
 40
0.1886386396738452
 40
0.1886386396738452
 40
0.2200784129528153
 40
0.2200784129528153
 40
0.2515181862317915
 40
0.2515181862317915
 40
0.2672380728712765
 40
0.2672380728712765
 40
0.2829579595107677
 40
0.2829579595107677
 40
0.3143977327897378
 40
0.3143977327897378
 40
0.3458375060687141
 40
0.3458375060687141
 40
0.3772772793476873
 40
0.3772772793476873
 40
0.3851372226674313
 40
0.3851372226674313
 40
0.3890671943273019
 40
0.3890671943273019
 40
0.3929971659871754
 40
0.3929971659871754
 40
0.4087170526266575
 40
0.4087170526266575
 40
0.4401568259056337
 40
0.4401568259056337
 40
0.4558767125451188
 40
0.4558767125451188
 40
0.4715965991846101
 40
0.4715965991846101
 40
0.5030363724635801
 40
0.5030363724635801
 40
0.5344761457425563
 40
0.5344761457425563
 40
0.5659159190215295
 40
0.5659159190215295
 40
0.5973556923005028
 40
0.5973556923005028
 40
0.6287954655794759
 40
0.6287954655794759
 40
0.6445153522189642
 40
0.6445153522189642
 40
0.6484453238788376
 40
0.6484453238788376
 40
0.6523752955387081
 40
0.6523752955387081
 40
0.6602352388584521
 40
0.6602352388584521
 40
0.6916750121374253
 40
0.6916750121374253
 40
0.7231147854163971
 40
0.7231147854163971
 40
0.7545545586953715
 40
0.7545545586953715
 40
0.8174341052533182
 40
0.8174341052533182
 40
0.8803136518112673
 40
0.8803136518112673
 40
0.9117534250902419
 40
0.9117534250902419
 40
0.9274733117297277
 40
0.9274733117297277
 40
0.9353332550494708
 40
0.9353332550494708
 40
0.9431931983692143
 40
0.9431931983692143
 40
0.9746329716481881
 40
0.9746329716481881
 40
0.9903528582876748
 40
0.9903528582876748
 40
0.9982128016074184
 40
0.9982128016074184
 40
0.9991952945223862
 40
0.9991952945223862
 40
0.9996865409798701
 40
0.9996865409798701
 40
0.9999321642086121
 40
0.9999321642086121
 40
1.0
 40
1.0
 40
1.0
 40
1.0
 10
88.89709571142168
 20
583.3560339990879
 30
0.0
 41
1.0
 10
88.85458800613038
 20
583.3919231204209
 30
0.0
 41
1.0
 10
88.80935083608058
 20
583.4261023421819
 30
0.0
 41
1.0
 10
88.71151997949528
 20
583.4903007734019
 30
0.0
 41
1.0
 10
88.65892550930619
 20
583.5203159268534
 30
0.0
 41
1.0
 10
88.54391953265699
 20
583.575527143614
 30
0.0
 41
1.0
 10
88.48150136694888
 20
583.6007174968798
 30
0.0
 41
1.0
 10
88.34392032659788
 20
583.645855363896
 30
0.0
 41
1.0
 10
88.2687438628973
 20
583.6657980009886
 30
0.0
 41
1.0
 10
88.17526288498829
 20
583.6852743249376
 30
0.0
 41
1.0
 10
88.16474975789419
 20
583.6873980854543
 30
0.0
 41
1.0
 10
88.14348787281648
 20
583.6915611812645
 30
0.0
 41
1.0
 10
88.1327386690566
 20
583.6936006503379
 30
0.0
 41
1.0
 10
88.10012945128449
 20
583.6995943488934
 30
0.0
 41
1.0
 10
88.07791130631058
 20
583.7034266672148
 30
0.0
 41
1.0
 10
88.00973032645199
 20
583.7144163392983
 30
0.0
 41
1.0
 10
87.9622312237418
 20
583.7210594231792
 30
0.0
 41
1.0
 10
87.81321805564689
 20
583.7390784022076
 30
0.0
 41
1.0
 10
87.70515582085748
 20
583.748536564813
 30
0.0
 41
1.0
 10
87.47028413060718
 20
583.7633496895056
 30
0.0
 41
1.0
 10
87.34347974896659
 20
583.768713490878
 30
0.0
 41
1.0
 10
87.07078036930409
 20
583.7764863652959
 30
0.0
 41
1.0
 10
86.92489695941958
 20
583.7789012662162
 30
0.0
 41
1.0
 10
86.69202183817067
 20
583.7810888067271
 30
0.0
 41
1.0
 10
86.6120610181595
 20
583.7815783371242
 30
0.0
 41
1.0
 10
86.44748062770638
 20
583.7821565537832
 30
0.0
 41
1.0
 10
86.36286894072099
 20
583.782248700253
 30
0.0
 41
1.0
 10
86.10220531035269
 20
583.782074058498
 30
0.0
 41
1.0
 10
85.91932607494638
 20
583.7813628781184
 30
0.0
 41
1.0
 10
85.53612478590458
 20
583.7793264214143
 30
0.0
 41
1.0
 10
85.33580664817839
 20
583.7779994866752
 30
0.0
 41
1.0
 10
84.91841746770469
 20
583.775111959933
 30
0.0
 41
1.0
 10
84.7013649073806
 20
583.77355725202
 30
0.0
 41
1.0
 10
84.4197532490372
 20
583.7715611595089
 30
0.0
 41
1.0
 10
84.36291834885819
 20
583.771159744356
 30
0.0
 41
1.0
 10
84.27690359601569
 20
583.7705565933227
 30
0.0
 41
1.0
 10
84.24811106113827
 20
583.7703554121827
 30
0.0
 41
1.0
 10
84.1903419809062
 20
583.769953522807
 30
0.0
 41
1.0
 10
84.16135754699589
 20
583.7697527590989
 30
0.0
 41
1.0
 10
84.01594121971547
 20
583.7687506444604
 30
0.0
 41
1.0
 10
83.89802752384898
 20
583.7679546004564
 30
0.0
 41
1.0
 10
83.53973196755328
 20
583.765609082658
 30
0.0
 41
1.0
 10
83.29480262389849
 20
583.7641036201107
 30
0.0
 41
1.0
 10
82.91891947980407
 20
583.762000545072
 30
0.0
 41
1.0
 10
82.79220841257889
 20
583.7613249715312
 30
0.0
 41
1.0
 10
82.53603463564718
 20
583.7600323337007
 30
0.0
 41
1.0
 10
82.40657664334708
 20
583.7594166445863
 30
0.0
 41
1.0
 10
82.01409414662018
 20
583.7576438203258
 30
0.0
 41
1.0
 10
81.7469912493426
 20
583.7565660736351
 30
0.0
 41
1.0
 10
81.20234834370649
 20
583.7546178674271
 30
0.0
 41
1.0
 10
80.92480751708078
 20
583.7537471300816
 30
0.0
 41
1.0
 10
80.3596160477014
 20
583.7522016286694
 30
0.0
 41
1.0
 10
80.07196481584289
 20
583.7515267070496
 30
0.0
 41
1.0
 10
79.48677155624999
 20
583.7503583949497
 30
0.0
 41
1.0
 10
79.18920250365669
 20
583.7498608516507
 30
0.0
 41
1.0
 10
78.58424638360869
 20
583.7490095346758
 30
0.0
 41
1.0
 10
78.2768634090281
 20
583.7486564096416
 30
0.0
 41
1.0
 10
77.8084790749564
 20
583.7482210778902
 30
0.0
 41
1.0
 10
77.65113197309628
 20
583.7480917433851
 30
0.0
 41
1.0
 10
77.45292438499308
 20
583.7479486877801
 30
0.0
 41
1.0
 10
77.41320400534019
 20
583.7479210072901
 30
0.0
 41
1.0
 10
77.33370901664469
 20
583.7478675496202
 30
0.0
 41
1.0
 10
77.29392231772928
 20
583.7478417634517
 30
0.0
 41
1.0
 10
77.17444544716638
 20
583.7477671855017
 30
0.0
 41
1.0
 10
77.09463850938769
 20
583.7477211732012
 30
0.0
 41
1.0
 10
76.69483608448188
 20
583.7475090721467
 30
0.0
 41
1.0
 10
76.37254704301229
 20
583.7473993816288
 30
0.0
 41
1.0
 10
75.72317635625436
 20
583.7472577319996
 30
0.0
 41
1.0
 10
75.39611074438741
 20
583.7472261072983
 30
0.0
 41
1.0
 10
74.73742326896512
 20
583.7472161790212
 30
0.0
 41
1.0
 10
74.40580110142297
 20
583.7472379090785
 30
0.0
 41
1.0
 10
73.40433734233099
 20
583.7473601622876
 30
0.0
 41
1.0
 10
72.72793569939844
 20
583.747525460809
 30
0.0
 41
1.0
 10
71.35810826358066
 20
583.7478934641043
 30
0.0
 41
1.0
 10
70.66471048520098
 20
583.748091645387
 30
0.0
 41
1.0
 10
69.61214426945602
 20
583.7483596343073
 30
0.0
 41
1.0
 10
69.25920750071586
 20
583.7484460881492
 30
0.0
 41
1.0
 10
68.72663389802798
 20
583.7485600202921
 30
0.0
 41
1.0
 10
68.54858351092717
 20
583.7485953378225
 30
0.0
 41
1.0
 10
68.28071901306984
 20
583.7486432837734
 30
0.0
 41
1.0
 10
68.1912624663133
 20
583.7486584370313
 30
0.0
 41
1.0
 10
68.01240573525966
 20
583.7486869064807
 30
0.0
 41
1.0
 10
67.92297758873664
 20
583.7487002284171
 30
0.0
 41
1.0
 10
67.4758412381028
 20
583.7487621040584
 30
0.0
 41
1.0
 10
67.11814629348474
 20
583.7487960977984
 30
0.0
 41
1.0
 10
66.58168649258309
 20
583.7488249000255
 30
0.0
 41
1.0
 10
66.4028803046966
 20
583.7488308741205
 30
0.0
 41
1.0
 10
66.1346992068554
 20
583.7488351664662
 30
0.0
 41
1.0
 10
66.04531020464455
 20
583.7488358235063
 30
0.0
 41
1.0
 10
65.94475357138171
 20
583.7488357942643
 30
0.0
 41
1.0
 10
65.93358069538371
 20
583.7488357803649
 30
0.0
 41
1.0
 10
65.91682150812343
 20
583.7488357438358
 30
0.0
 41
1.0
 10
65.91123513349177
 20
583.7488357290472
 30
0.0
 41
1.0
 10
65.9028556034609
 20
583.7488357029805
 30
0.0
 41
1.0
 10
65.900062432103
 20
583.7488356936442
 30
0.0
 41
1.0
 10
65.89649785440415
 20
583.7488356809084
 30
0.0
 41
1.0
 10
65.89572996642889
 20
583.7488356780626
 30
0.0
 41
1.0
 10
65.8949597638103
 20
583.7488356761639
 30
0.0
 41
1.0
  0
SPLINE
  5
BF
330
71
100
AcDbEntity
  8
$DDT_AUDIT_GENERATED_(AD)
  6
Continuous
 62
     7
100
AcDbSpline
210
0.0
220
0.0
230
1.0
 70
     8
 71
     3
 72
    21
 73
    17
 74
     0
 42
0.0000000005392782
 43
0.0000000001
 40
0.0
 40
0.0
 40
0.0
 40
0.0
 40
0.1403469123061349
 40
0.2021685260533163
 40
0.2638266549220825
 40
0.2929734067465167
 40
0.3212194417742704
 40
0.3800874522049583
 40
0.503559871457825
 40
0.5658046960960342
 40
0.6282232737391801
 40
0.7520783012189192
 40
0.87549275589027
 40
0.9377562263296819
 40
0.9687450293468065
 40
1.0
 40
1.0
 40
1.0
 40
1.0
 10
82.9250614817738
 20
594.5629600129766
 30
0.0
 10
82.77529548189452
 20
594.8451529684505
 30
0.0
 10
82.5595550053472
 20
595.2516695026557
 30
0.0
 10
82.28550108775661
 20
595.7773388831679
 30
0.0
 10
82.12953811294004
 20
596.0794077808665
 30
0.0
 10
82.00353395267412
 20
596.3161900496583
 30
0.0
 10
81.84341812420236
 20
596.5453882638152
 30
0.0
 10
81.35937347226921
 20
596.9499143781761
 30
0.0
 10
80.25375846335015
 20
597.3815284330599
 30
0.0
 10
78.68787945764754
 20
597.7652170904654
 30
0.0
 10
76.82972535125334
 20
598.1090126441289
 30
0.0
 10
74.02922957440478
 20
598.450306853471
 30
0.0
 10
70.77104887173793
 20
598.6531478698968
 30
0.0
 10
68.35665190727195
 20
598.735691700304
 30
0.0
 10
66.95323715447519
 20
598.7609509730199
 30
0.0
 10
66.24872310809087
 20
598.7630829386702
 30
0.0
 10
65.89495975882585
 20
598.7641534798712
 30
0.0
  0
ARC
  5
C0
330
71
100
AcDbEntity
  8
$DDT_AUDIT_GENERATED_(AD)
  6
Continuous
 62
     7
100
AcDbCircle
 10
1323.7421935541
 20
637.3500823187
 30
0.0
 40
1235.666643861484
100
AcDbArc
 50
182.3862257547
 51
182.5213723007
  0
ARC
  5
C1
330
71
100
AcDbEntity
  8
$DDT_AUDIT_GENERATED_(AD)
  6
Continuous
 62
     7
100
AcDbCircle
 10
65.8976052976
 20
686.4564717743
 30
0.0
 40
93.45775392082076
100
AcDbArc
 50
269.998378113
 51
280.4975890877
  0
ARC
  5
C2
330
71
100
AcDbEntity
  8
$DDT_AUDIT_GENERATED_(AD)
  6
Continuous
 62
     7
100
AcDbCircle
 10
88.1696066106
 20
556.749260316
 30
0.0
 40
2.657751005523719
100
AcDbArc
 50
1.3915952085
 51
4.9304068408
  0
ARC
  5
C3
330
71
100
AcDbEntity
  8
$DDT_AUDIT_GENERATED_(AD)
  6
Continuous
 62
     7
100
AcDbCircle
 10
43.628907266
 20
556.7487781283
 30
0.0
 40
2.666354543930816
100
AcDbArc
 50
174.9750143669
 51
178.6025314198
  0
LINE
  5
C4
330
71
100
AcDbEntity
  8
$DDT_AUDIT_GENERATED_(AD)
  6
Continuous
 62
     7
100
AcDbLine
 10
44.1302865801
 20
555.7776580649
 30
0.0
 11
41.372702857
 21
555.7776580649
 31
0.0
  0
LINE
  5
C5
330
71
100
AcDbEntity
  8
$DDT_AUDIT_GENERATED_(AD)
  6
Continuous
 62
     7
100
AcDbLine
 10
90.4172166707
 20
555.7776580649
 30
0.0
 11
87.6674537861
 21
555.7776580649
 31
0.0
  0
ARC
  5
C6
330
71
100
AcDbEntity
  8
$DDT_AUDIT_GENERATED_(AD)
  6
Continuous
 62
     7
100
AcDbCircle
 10
43.824018612
 20
585.4192371904
 30
0.0
 40
1.326658905811759
100
AcDbArc
 50
146.6778540781
 51
176.869462135
  0
SPLINE
  5
C7
330
71
100
AcDbEntity
  8
$DDT_AUDIT_GENERATED_(AD)
  6
Continuous
 62
     7
100
AcDbSpline
210
0.0
220
0.0
230
1.0
 70
     8
 71
     3
 72
    32
 73
    28
 74
     0
 42
0.0000000001478205
 43
0.0000000001
 40
0.0
 40
0.0
 40
0.0
 40
0.0
 40
0.01415582358839
 40
0.0276723926409617
 40
0.040653757325118
 40
0.0531840371432213
 40
0.0651608224654723
 40
0.0765121122963024
 40
0.092505673900832
 40
0.1073999447102486
 40
0.1210403589498841
 40
0.1333722445585033
 40
0.1444849724419157
 40
0.1544266734229331
 40
0.1631894102722023
 40
0.1706697733927868
 40
0.1786799747273292
 40
0.1845375495436175
 40
0.189475315000745
 40
0.1951398241991587
 40
0.2001611352027597
 40
0.2045753522374834
 40
0.2100384314735397
 40
0.2174376707839854
 40
0.2265311439449484
 40
0.2372728188032007
 40
0.2387009245093497
 40
0.2387009245093497
 40
0.2387009245093497
 40
0.2387009245093497
 10
65.89497797224611
 20
601.8008690654717
 30
0.0
 10
65.38581725700992
 20
601.7989480035138
 30
0.0
 10
64.54680178179579
 20
601.7948411862711
 30
0.0
 10
63.20134893805074
 20
601.7629348148646
 30
0.0
 10
61.95943507225498
 20
601.7150350182688
 30
0.0
 10
60.78302435901271
 20
601.6523680769355
 30
0.0
 10
59.68992115339036
 20
601.5771522323015
 30
0.0
 10
58.53001429552047
 20
601.4788820220591
 30
0.0
 10
57.33884765177454
 20
601.3548491283992
 30
0.0
 10
56.1600555750347
 20
601.2033630125765
 30
0.0
 10
55.15587245466946
 20
601.0469678780361
 30
0.0
 10
54.31448581243735
 20
600.8919135380673
 30
0.0
 10
53.61566474952863
 20
600.742630805078
 30
0.0
 10
53.04205595359618
 20
600.6017139727084
 30
0.0
 10
52.5807001818909
 20
600.4722329015037
 30
0.0
 10
52.18820116369148
 20
600.3478474567087
 30
0.0
 10
51.87192630938038
 20
600.2347483025859
 30
0.0
 10
51.61518388440808
 20
600.1316630457851
 30
0.0
 10
51.40485625843391
 20
600.0385465954065
 30
0.0
 10
51.21849936512998
 20
599.9469342973774
 30
0.0
 10
51.05177418456041
 20
599.8549147960284
 30
0.0
 10
50.89474348584268
 20
599.7574003967908
 30
0.0
 10
50.73700094215094
 20
599.6457884829313
 30
0.0
 10
50.5715404561926
 20
599.5059034655355
 30
0.0
 10
50.41650355770152
 20
599.3314428991283
 30
0.0
 10
50.33379000657137
 20
599.1996576167093
 30
0.0
 10
50.29134708530656
 20
599.1261053066206
 30
0.0
 10
50.28642083526051
 20
599.1174968812844
 30
0.0
  0
SPLINE
  5
C8
330
71
100
AcDbEntity
  8
$DDT_AUDIT_GENERATED_(AD)
  6
Continuous
 62
     7
100
AcDbSpline
210
0.0
220
0.0
230
1.0
 70
     8
 71
     3
 72
    37
 73
    33
 74
     0
 42
0.000000000506973
 43
0.0000000001
 40
0.2692783402867748
 40
0.2692783402867748
 40
0.2692783402867748
 40
0.2692783402867748
 40
0.2873758718599718
 40
0.3158873637240929
 40
0.3452387818660095
 40
0.3840481048596558
 40
0.4216365857557876
 40
0.4580046783776436
 40
0.4936626853210628
 40
0.516712787377994
 40
0.5401787982631369
 40
0.5640606348616001
 40
0.5883584683040498
 40
0.6128414695718025
 40
0.6360715067756744
 40
0.6615218998318226
 40
0.6848860766830923
 40
0.706463062440438
 40
0.7287228251871973
 40
0.7419960979981784
 40
0.7556718482483498
 40
0.7697500722607484
 40
0.7843132950710215
 40
0.8007574579921981
 40
0.8195831370915388
 40
0.8407903511484754
 40
0.8623224519783662
 40
0.8858556778918764
 40
0.9113899839640074
 40
0.9389255335954821
 40
0.9684622971427587
 40
1.0
 40
1.0
 40
1.0
 40
1.0
 10
49.96868284953321
 20
598.574442830674
 30
0.0
 10
49.90412420820003
 20
598.467440554644
 30
0.0
 10
49.73847008987116
 20
598.1920600861781
 30
0.0
 10
49.48393624358703
 20
597.7529000202571
 30
0.0
 10
49.16053673975605
 20
597.2034006166037
 30
0.0
 10
48.81027332199145
 20
596.6037956832737
 30
0.0
 10
48.43561592944961
 20
595.9639222888088
 30
0.0
 10
48.07196875927112
 20
595.3419915073802
 30
0.0
 10
47.75653941864579
 20
594.8025266923157
 30
0.0
 10
47.48412162358217
 20
594.3362917544
 30
0.0
 10
47.25079091846299
 20
593.9369452411378
 30
0.0
 10
47.01342935757655
 20
593.530544010957
 30
0.0
 10
46.77278832591818
 20
593.1184259991173
 30
0.0
 10
46.53441441528773
 20
592.7100269583296
 30
0.0
 10
46.29231394247005
 20
592.2951587151628
 30
0.0
 10
46.05403986327607
 20
591.8866479263938
 30
0.0
 10
45.82136535306051
 20
591.4875665048685
 30
0.0
 10
45.5992957670872
 20
591.1066857852273
 30
0.0
 10
45.41067759728962
 20
590.7830508984158
 30
0.0
 10
45.2482434801888
 20
590.5042127426625
 30
0.0
 10
45.1128550016241
 20
590.2717655331112
 30
0.0
 10
44.97325036989776
 20
590.0320433010988
 30
0.0
 10
44.82455733150536
 20
589.7766645047504
 30
0.0
 10
44.66027978618216
 20
589.4944642190621
 30
0.0
 10
44.47418498865537
 20
589.1747058255761
 30
0.0
 10
44.27141792354865
 20
588.8262330412339
 30
0.0
 10
44.0532450904987
 20
588.4511356780201
 30
0.0
 10
43.82106098246567
 20
588.0517756553679
 30
0.0
 10
43.56885669214013
 20
587.6178569341472
 30
0.0
 10
43.29870213208013
 20
587.1529923503167
 30
0.0
 10
43.00219138963446
 20
586.6422387051191
 30
0.0
 10
42.81662399295744
 20
586.3225752098182
 30
0.0
 10
42.70279372943193
 20
586.1264710971348
 30
0.0
  0
ARC
  5
C9
330
71
100
AcDbEntity
  8
$DDT_AUDIT_GENERATED_(AD)
  6
Continuous
 62
     7
100
AcDbCircle
 10
87.9648672136
 20
585.4190945349
 30
0.0
 40
1.327636975331104
100
AcDbArc
 50
10.6791923139
 51
33.3661844
  0
SPLINE
  5
CA
330
71
100
AcDbEntity
  8
$DDT_AUDIT_GENERATED_(AD)
  6
Continuous
 62
     7
100
AcDbSpline
210
0.0
220
0.0
230
1.0
 70
     8
 71
     3
 72
    37
 73
    33
 74
     0
 42
0.0000000005068688
 43
0.0000000001
 40
0.0
 40
0.0
 40
0.0
 40
0.0
 40
0.0342329451891148
 40
0.0660950199479695
 40
0.095585897831449
 40
0.1227056226283118
 40
0.14745434482982
 40
0.1652363663081975
 40
0.1815545757589037
 40
0.1964089970051686
 40
0.2097996471516545
 40
0.2217408120458136
 40
0.246529627572703
 40
0.2700858860404069
 40
0.2924095854704625
 40
0.3139555394238875
 40
0.3346193841331512
 40
0.3569463017284639
 40
0.3809361060101356
 40
0.4065024778709409
 40
0.4321509335116093
 40
0.457338765789901
 40
0.4820661261547232
 40
0.5063329647989548
 40
0.5372030627750143
 40
0.5684772467250401
 40
0.600666532884063
 40
0.6337700866924999
 40
0.66776677963918
 40
0.7013247296243418
 40
0.7336928830148646
 40
0.7340099346097846
 40
0.7340099346097846
 40
0.7340099346097846
 40
0.7340099346097846
 10
89.08717364488527
 20
586.1263846665756
 30
0.0
 10
88.9636060686006
 20
586.3392708544892
 30
0.0
 10
88.76278770857252
 20
586.6852183823577
 30
0.0
 10
88.44287475470728
 20
587.2362122201702
 30
0.0
 10
88.15346623858778
 20
587.7341652227437
 30
0.0
 10
87.88554877367137
 20
588.1950943036073
 30
0.0
 10
87.65641998487989
 20
588.5891392873099
 30
0.0
 10
87.46263276140884
 20
588.9222553261368
 30
0.0
 10
87.3013760148333
 20
589.1993804964218
 30
0.0
 10
87.1545316941648
 20
589.4516986421421
 30
0.0
 10
87.02206411384455
 20
589.6792678032255
 30
0.0
 10
86.85678983624284
 20
589.9631515231835
 30
0.0
 10
86.65790592005646
 20
590.3046727054991
 30
0.0
 10
86.42466393174162
 20
590.7051073187428
 30
0.0
 10
86.20197664977144
 20
591.0872130964796
 30
0.0
 10
85.98871984045192
 20
591.4529806928707
 30
0.0
 10
85.77539647981024
 20
591.818861851817
 30
0.0
 10
85.55390189592232
 20
592.1986660311624
 30
0.0
 10
85.31605301316296
 20
592.6062630178637
 30
0.0
 10
85.06713219954294
 20
593.0327750449278
 30
0.0
 10
84.81411529627982
 20
593.466098457538
 30
0.0
 10
84.56378501390938
 20
593.8947256200718
 30
0.0
 10
84.31791521173126
 20
594.3155370127683
 30
0.0
 10
84.05314994376073
 20
594.7686654109203
 30
0.0
 10
83.76650106564546
 20
595.2589724516749
 30
0.0
 10
83.45349629966196
 20
595.7942104800203
 30
0.0
 10
83.13293064499362
 20
596.3420470666443
 30
0.0
 10
82.80327652936901
 20
596.9056375655758
 30
0.0
 10
82.46931369980574
 20
597.4755125565121
 30
0.0
 10
82.13416617020414
 20
598.0478442253068
 30
0.0
 10
81.90551032734824
 20
598.4374976227302
 30
0.0
 10
81.7877839771838
 20
598.6308136032173
 30
0.0
 10
81.78664160439362
 20
598.6326888871627
 30
0.0
  0
SPLINE
  5
CB
330
71
100
AcDbEntity
  8
$DDT_AUDIT_GENERATED_(AD)
  6
Continuous
 62
     7
100
AcDbSpline
210
0.0
220
0.0
230
1.0
 70
     8
 71
     3
 72
    32
 73
    28
 74
     0
 42
0.0000000001473395
 43
0.0000000001
 40
0.7624188254658749
 40
0.7624188254658749
 40
0.7624188254658749
 40
0.7624188254658749
 40
0.7701297181157859
 40
0.7805116940084273
 40
0.7887967676455362
 40
0.7937806236728584
 40
0.7975490487112192
 40
0.801461279811036
 40
0.805862745666658
 40
0.8107522798776039
 40
0.815834949867587
 40
0.8218510359934013
 40
0.8299845538846958
 40
0.8375345567108667
 40
0.8463404572870147
 40
0.856298050780624
 40
0.8674080415728581
 40
0.8797200044706956
 40
0.8933240806048097
 40
0.9081455167655512
 40
0.9240501775731348
 40
0.9353336199210446
 40
0.9472348346755283
 40
0.9596716232296323
 40
0.9725531979795127
 40
0.9859620801250337
 40
1.0
 40
1.0
 40
1.0
 40
1.0
 10
81.49182766908805
 20
599.137539229821
 30
0.0
 10
81.4647347715358
 20
599.1843074862753
 30
0.0
 10
81.39688030387424
 20
599.2955645054508
 30
0.0
 10
81.2626835759156
 20
599.4634573677075
 30
0.0
 10
81.09234683884951
 20
599.6148032386806
 30
0.0
 10
80.94414295814855
 20
599.7236547346369
 30
0.0
 10
80.81586280393638
 20
599.8075392520064
 30
0.0
 10
80.68693902340698
 20
599.8837902454011
 30
0.0
 10
80.53802399215476
 20
599.9636785211152
 30
0.0
 10
80.36532045464787
 20
600.047514412629
 30
0.0
 10
80.16015472460563
 20
600.1378587529967
 30
0.0
 10
79.89600913958192
 20
600.2430960304209
 30
0.0
 10
79.57215604219046
 20
600.3578223492511
 30
0.0
 10
79.17275942522784
 20
600.4830734505034
 30
0.0
 10
78.70563295644202
 20
600.6127570599168
 30
0.0
 10
78.12702834678848
 20
600.7533890533444
 30
0.0
 10
77.42433440675785
 20
600.9020069232683
 30
0.0
 10
76.58009485633671
 20
601.0560699215647
 30
0.0
 10
75.57485359023573
 20
601.2110849110582
 30
0.0
 10
74.39762675248501
 20
601.3609636970318
 30
0.0
 10
73.21039704705294
 20
601.4835350755649
 30
0.0
 10
72.05548851797433
 20
601.5805255065
 30
0.0
 10
70.96838112479188
 20
601.6546672518073
 30
0.0
 10
69.79962905691542
 20
601.7164032064222
 30
0.0
 10
68.5668672937463
 20
601.7635608545663
 30
0.0
 10
67.23202208768285
 20
601.794941510459
 30
0.0
 10
66.399860756716
 20
601.7989798304556
 30
0.0
 10
65.89494162692367
 20
601.8008678205173
 30
0.0
  0
ARC
  5
CC
330
71
100
AcDbEntity
  8
$DDT_AUDIT_GENERATED_(AD)
  6
Continuous
 62
     7
100
AcDbCircle
 10
1322.3820577014
 20
637.2232797735
 30
0.0
 40
1234.175966499891
100
AcDbArc
 50
182.4023228176
 51
183.7279768206
  0
ARC
  5
CD
330
71
100
AcDbEntity
  8
$DDT_AUDIT_GENERATED_(AD)
  6
Continuous
 62
     7
100
AcDbCircle
 10
-1193.0894040529
 20
637.3623313998
 30
0.0
 40
1236.676893173838
100
AcDbArc
 50
356.273072285
 51
357.5960914148
  0
SPLINE
  5
CE
330
71
100
AcDbEntity
  8
$DDT_AUDIT_GENERATED_(AD)
  6
Continuous
 62
     7
100
AcDbSpline
210
0.0
220
0.0
230
1.0
 70
     8
 71
     3
 72
    15
 73
    11
 74
     0
 42
0.0000000079907315
 43
0.0000000001
 40
0.0
 40
0.0
 40
0.0
 40
0.0
 40
0.1789031635540203
 40
0.3716495535172962
 40
0.5761049799967985
 40
0.696211257028333
 40
0.7886430553941335
 40
0.8744202371431583
 40
0.9580427382685187
 40
1.0
 40
1.0
 40
1.0
 40
1.0
 10
40.96331956713052
 20
556.8096120283079
 30
0.0
 10
40.95944010996499
 20
556.7132811071133
 30
0.0
 10
40.95338320957377
 20
556.5455569087184
 30
0.0
 10
40.95990563610062
 20
556.3167026308198
 30
0.0
 10
40.98168614179133
 20
556.1483682905093
 30
0.0
 10
41.02322592854146
 20
556.0179446091767
 30
0.0
 10
41.08205864909213
 20
555.9158648013259
 30
0.0
 10
41.17298958885215
 20
555.8297376374177
 30
0.0
 10
41.2858806224812
 20
555.7792519545656
 30
0.0
 10
41.34659444420337
 20
555.782519247123
 30
0.0
 10
41.37065893267135
 20
555.7840162776424
 30
0.0
  0
SPLINE
  5
CF
330
71
100
AcDbEntity
  8
$DDT_AUDIT_GENERATED_(AD)
  6
Continuous
 62
     7
100
AcDbSpline
210
0.0
220
0.0
230
1.0
 70
     8
 71
     3
 72
    16
 73
    12
 74
     0
 42
0.0000000080782576
 43
0.0000000001
 40
0.0
 40
0.0
 40
0.0
 40
0.0
 40
0.0441330131475272
 40
0.1335650194691838
 40
0.2182483901328091
 40
0.3090797760687647
 40
0.4209440176301715
 40
0.5848284684165653
 40
0.7780937661547267
 40
0.9627979874444624
 40
1.0
 40
1.0
 40
1.0
 40
1.0
 10
90.43349994416849
 20
555.7841060686603
 30
0.0
 10
90.45900894647086
 20
555.7839567397575
 30
0.0
 10
90.52402083705562
 20
555.7840412427954
 30
0.0
 10
90.63499546544648
 20
555.8425347854627
 30
0.0
 10
90.71808880765414
 20
555.9308000109266
 30
0.0
 10
90.76971245882562
 20
556.0266306854776
 30
0.0
 10
90.8052719841947
 20
556.1419885829542
 30
0.0
 10
90.82734473655277
 20
556.2911390756223
 30
0.0
 10
90.83599541398348
 20
556.4931186390635
 30
0.0
 10
90.83336840090776
 20
556.6807584773662
 30
0.0
 10
90.82742710740305
 20
556.7897365129563
 30
0.0
 10
90.82624568783207
 20
556.8110996836052
 30
0.0
  0
ELLIPSE
  5
D1
330
71
100
AcDbEntity
  8
02636038_GEHÄUSE
  6
Continuous
 62
     7
100
AcDbEllipse
 10
65.8940575533
 20
557.1331025505
 30
0.0
 11
-10.05000000000001
 21
0.0
 31
0.0
210
0.0
220
0.0
230
1.0
 40
0.4648420457
 41
0.0
 42
6.283185307179586
  0
ELLIPSE
  5
D2
330
71
100
AcDbEntity
  8
02636038_GEHÄUSE
  6
Continuous
 62
     7
100
AcDbEllipse
 10
65.8940575533
 20
557.1331025505
 30
0.0
 11
-10.75000000000001
 21
0.0
 31
0.0
210
0.0
220
0.0
230
1.0
 40
0.4648420457
 41
0.0
 42
6.283185307179586
  0
ELLIPSE
  5
D3
330
71
100
AcDbEntity
  8
02636038_GEHÄUSE
  6
Continuous
 62
     7
100
AcDbEllipse
 10
65.8940575533
 20
564.6589483694
 30
0.0
 11
-11.8
 21
0.0
 31
0.0
210
0.0
220
0.0
230
1.0
 40
0.4648420457
 41
6.265602659838486
 42
6.283185307179586
  0
ELLIPSE
  5
D4
330
71
100
AcDbEntity
  8
02636038_GEHÄUSE
  6
Continuous
 62
     7
100
AcDbEllipse
 10
65.8940575533
 20
564.6589483694
 30
0.0
 11
-11.8
 21
0.0
 31
0.0
210
0.0
220
0.0
230
1.0
 40
0.4648420457
 41
3.141592653589793
 42
3.160056441693984
  0
ELLIPSE
  5
D5
330
71
100
AcDbEntity
  8
02636038_GEHÄUSE
  6
Continuous
 62
     7
100
AcDbEllipse
 10
65.8940575533
 20
557.4142527869
 30
0.0
 11
11.3
 21
5.551115123125783E-14
 31
0.0
210
0.0
220
0.0
230
1.0
 40
0.4648420457
 41
4.037868167217525
 42
4.283304455856848
  0
ELLIPSE
  5
D6
330
71
100
AcDbEntity
  8
02636038_GEHÄUSE
  6
Continuous
 62
     7
100
AcDbEllipse
 10
65.8940575533
 20
557.4142527869
 30
0.0
 11
11.3
 21
5.551115123125783E-14
 31
0.0
210
0.0
220
0.0
230
1.0
 40
0.4648420457
 41
1.801737805935046
 42
4.037868167217525
  0
ELLIPSE
  5
D7
330
71
100
AcDbEntity
  8
02636038_GEHÄUSE
  6
Continuous
 62
     7
100
AcDbEllipse
 10
65.8940575533
 20
558.1810261592
 30
0.0
 11
11.80000000000003
 21
-1.110223024625157E-13
 31
0.0
210
0.0
220
0.0
230
1.0
 40
0.4648420457
 41
1.941138958886623
 42
3.141592653589793
  0
ELLIPSE
  5
D8
330
71
100
AcDbEntity
  8
02636038_GEHÄUSE
  6
Continuous
 62
     7
100
AcDbEllipse
 10
65.8940575533
 20
557.4142527869
 30
0.0
 11
-11.29999999999999
 21
0.0
 31
0.0
210
0.0
220
0.0
230
1.0
 40
0.4648420457
 41
2.165120720140131
 42
4.481447501244538
  0
ELLIPSE
  5
D9
330
71
100
AcDbEntity
  8
02636038_GEHÄUSE
  6
Continuous
 62
     7
100
AcDbEllipse
 10
65.8940575533
 20
557.4142527869
 30
0.0
 11
-11.29999999999999
 21
0.0
 31
0.0
210
0.0
220
0.0
230
1.0
 40
0.4648420457
 41
-4.283304455856846
 42
-4.118064587039456
  0
ARC
  5
DA
330
71
100
AcDbEntity
  8
02636038_GEHÄUSE
  6
Continuous
 62
     7
100
AcDbCircle
 10
65.8940575533
 20
584.2630195012
 30
0.0
 40
21.88885888574393
100
AcDbArc
 50
263.2137717492
 51
276.7862282508
  0
ELLIPSE
  5
DB
330
71
100
AcDbEntity
  8
02636038_GEHÄUSE
  6
Continuous
 62
     7
100
AcDbEllipse
 10
65.8940575533
 20
558.1810261592
 30
0.0
 11
-11.8
 21
-2.775557561562891E-14
 31
0.0
210
0.0
220
0.0
230
1.0
 40
0.4648420457
 41
3.141592653589809
 42
4.342046348292969
  0
ELLIPSE
  5
DC
330
71
100
AcDbEntity
  8
02636038_GEHÄUSE
  6
Continuous
 62
     7
100
AcDbEllipse
 10
65.8940575533
 20
559.7892834277
 30
0.0
 11
11.79999999999996
 21
0.0
 31
0.0
210
0.0
220
0.0
230
1.0
 40
0.4648420457
 41
1.200453694703182
 42
1.941138958886613
  0
LINE
  5
DD
330
71
100
AcDbEntity
  8
02636038_GEHÄUSE
  6
Continuous
 62
     7
100
AcDbLine
 10
70.1648888541
 20
564.9025459307
 30
0.0
 11
61.6232262525
 21
564.9025459307
 31
0.0
  0
LINE
  5
DE
330
71
100
AcDbEntity
  8
02636038_GEHÄUSE
  6
Continuous
 62
     7
100
AcDbLine
 10
70.1648888541
 20
564.9025459307
 30
0.0
 11
70.1648888541
 21
563.2942886622
 31
0.0
  0
SPLINE
  5
DF
330
71
100
AcDbEntity
  8
02636038_GEHÄUSE
  6
Continuous
 62
     7
100
AcDbSpline
210
0.0
220
0.0
230
1.0
 70
     8
 71
     3
 72
    14
 73
    10
 74
     0
 42
0.0000000050756773
 43
0.0000000001
 40
0.0
 40
0.0
 40
0.0
 40
0.0
 40
0.1249999999999997
 40
0.1249999999999997
 40
0.2499999999999994
 40
0.2499999999999994
 40
0.4999999999999996
 40
0.4999999999999996
 40
1.0
 40
1.0
 40
1.0
 40
1.0
 10
70.16488885411759
 20
563.2942886621657
 30
0.0
 10
70.16488885411759
 20
563.219539136232
 30
0.0
 10
70.13271378670656
 20
563.1451287767018
 30
0.0
 10
70.03689381172934
 20
563.021900134135
 30
0.0
 10
69.97374749631913
 20
562.9696437372238
 30
0.0
 10
69.77140208743594
 20
562.8358498641638
 30
0.0
 10
69.61541419362004
 20
562.7726414806234
 30
0.0
 10
69.14462102738108
 20
562.6209247198325
 30
0.0
 10
68.81174250230904
 20
562.5662657150119
 30
0.0
 10
68.4805609845806
 20
562.5275152899136
 30
0.0
  0
SPLINE
  5
E0
330
71
100
AcDbEntity
  8
02636038_GEHÄUSE
  6
Continuous
 62
     7
100
AcDbSpline
210
0.0
220
0.0
230
1.0
 70
     8
 71
     3
 72
    14
 73
    10
 74
     0
 42
0.00000000507557
 43
0.0000000001
 40
0.0
 40
0.0
 40
0.0
 40
0.0
 40
0.4999999999999996
 40
0.4999999999999996
 40
0.7499999999999993
 40
0.7499999999999993
 40
0.8749999999999997
 40
0.8749999999999997
 40
1.0
 40
1.0
 40
1.0
 40
1.0
 10
63.30755412202947
 20
562.5275152899136
 30
0.0
 10
62.97495152655054
 20
562.5664319904953
 30
0.0
 10
62.64465417185863
 20
562.6204998955528
 30
0.0
 10
62.17150465653459
 20
562.7730525210908
 30
0.0
 10
62.01690202323532
 20
562.8359281361458
 30
0.0
 10
61.81571141833474
 20
562.9686546554631
 30
0.0
 10
61.75210492458097
 20
563.0209844673768
 30
0.0
 10
61.6555823003292
 20
563.1446777336837
 30
0.0
 10
61.62322625249022
 20
563.2191847110457
 30
0.0
 10
61.62322625249247
 20
563.2942886621657
 30
0.0
  0
LINE
  5
E1
330
71
100
AcDbEntity
  8
02636038_GEHÄUSE
  6
Continuous
 62
     7
100
AcDbLine
 10
61.6232262525
 20
563.2942886622
 30
0.0
 11
61.6232262525
 21
564.9025459307
 31
0.0
  0
LINE
  5
E2
330
71
100
AcDbEntity
  8
02636038_GEHÄUSE
  6
Continuous
 62
     7
100
AcDbLine
 10
61.1928225936
 20
552.6377120342
 30
0.0
 11
61.4216437642
 21
552.5890482945
 31
0.0
  0
LINE
  5
E3
330
71
100
AcDbEntity
  8
02636038_GEHÄUSE
  6
Continuous
 62
     7
100
AcDbLine
 10
70.3664713424
 20
552.5890482945
 30
0.0
 11
70.595292513
 21
552.6377120342
 31
0.0
  0
SPLINE
  5
E4
330
71
100
AcDbEntity
  8
02636038_GEHÄUSE
  6
Continuous
 62
     7
100
AcDbSpline
210
0.0
220
0.0
230
1.0
 70
     8
 71
     3
 72
    22
 73
    18
 74
     0
 42
0.0000000012523437
 43
0.0000000001
 40
0.0
 40
0.0
 40
0.0
 40
0.0
 40
0.0164813401268647
 40
0.0884418801123438
 40
0.1606537119639284
 40
0.2331414807629381
 40
0.3059144552694491
 40
0.3789507483283118
 40
0.4521720126457812
 40
0.5253407272056287
 40
0.5980974289159272
 40
0.6699736096424161
 40
0.740465134369547
 40
0.8091937920409308
 40
0.8760542554081486
 40
0.9412547392866052
 40
1.0
 40
1.0
 40
1.0
 40
1.0
 10
72.23929014363455
 20
553.0698774735382
 30
0.0
 10
72.29780783359031
 20
553.0872474694387
 30
0.0
 10
72.56650057626834
 20
553.167236806523
 30
0.0
 10
73.07094982527458
 20
553.3496212648773
 30
0.0
 10
73.69941143126209
 20
553.6034195703137
 30
0.0
 10
74.2982457057474
 20
553.8850960591925
 30
0.0
 10
74.85850096349712
 20
554.1891420291353
 30
0.0
 10
75.37888004197048
 20
554.5167323115959
 30
0.0
 10
75.85560321008333
 20
554.8670341374435
 30
0.0
 10
76.28503438958855
 20
555.2392462118668
 30
0.0
 10
76.66306976948438
 20
555.6316185914874
 30
0.0
 10
76.985829728622
 20
556.0415841653335
 30
0.0
 10
77.2499396260208
 20
556.4651502248324
 30
0.0
 10
77.45391258779163
 20
556.899087313628
 30
0.0
 10
77.59557429315839
 20
557.3347770934649
 30
0.0
 10
77.67975674008525
 20
557.7710609443033
 30
0.0
 10
77.68834422615619
 20
558.0319907012977
 30
0.0
 10
77.69191908578792
 20
558.1785910992771
 30
0.0
  0
SPLINE
  5
E5
330
71
100
AcDbEntity
  8
02636038_GEHÄUSE
  6
Continuous
 62
     7
100
AcDbSpline
210
0.0
220
0.0
230
1.0
 70
     8
 71
     3
 72
    22
 73
    18
 74
     0
 42
0.0000000013859294
 43
0.0000000001
 40
0.0
 40
0.0
 40
0.0
 40
0.0
 40
0.0056963801531498
 40
0.0744612326472347
 40
0.1431399394661671
 40
0.2123299522482241
 40
0.2826481045818829
 40
0.3545551243863321
 40
0.4282841877876574
 40
0.5037954992111479
 40
0.5807968663510454
 40
0.6588441565520824
 40
0.7374778245638562
 40
0.816322747833958
 40
0.8950774763879376
 40
0.9736329373135897
 40
1.0
 40
1.0
 40
1.0
 40
1.0
 10
54.09619602082217
 20
558.1834612191127
 30
0.0
 10
54.09540774891192
 20
558.1703849212337
 30
0.0
 10
54.08665321988011
 20
558.0232799465963
 30
0.0
 10
54.12070245609497
 20
557.7136206139268
 30
0.0
 10
54.20351792633028
 20
557.2921285574402
 30
0.0
 10
54.34576653127451
 20
556.8733983024396
 30
0.0
 10
54.53970358707316
 20
556.4645957129119
 30
0.0
 10
54.78756778642538
 20
556.0643900504705
 30
0.0
 10
55.0892900406707
 20
555.6742396251316
 30
0.0
 10
55.44505809237369
 20
555.2956888603012
 30
0.0
 10
55.85380728508301
 20
554.9311205263996
 30
0.0
 10
56.31341210422825
 20
554.5830180176807
 30
0.0
 10
56.82025331629305
 20
554.2541478152918
 30
0.0
 10
57.37185961293581
 20
553.945198701962
 30
0.0
 10
57.95907383840535
 20
553.6625042786314
 30
0.0
 10
58.45692280294197
 20
553.4490604982639
 30
0.0
 10
58.7345638989192
 20
553.3500658030295
 30
0.0
 10
58.81640234136444
 20
553.3210050981867
 30
0.0
  0
LINE
  5
E6
330
71
100
AcDbEntity
  8
02636038_GEHÄUSE
  6
Continuous
 62
     7
100
AcDbLine
 10
54.0940575533
 20
564.6589483694
 30
0.0
 11
54.0940575533
 21
558.1810261592
 31
0.0
  0
LINE
  5
E7
330
71
100
AcDbEntity
  8
02636038_GEHÄUSE
  6
Continuous
 62
     7
100
AcDbLine
 10
77.6940575533
 20
558.1810261592
 30
0.0
 11
77.6940575533
 21
564.6589483694
 31
0.0
  0
ELLIPSE
  5
E9
330
71
100
AcDbEntity
  8
$DDT_AUDIT_GENERATED_(E8)
  6
Continuous
 62
     7
100
AcDbEllipse
 10
65.8940575533
 20
556.7789451001
 30
0.0
 11
-9.000000000000007
 21
0.0
 31
0.0
210
0.0
220
0.0
230
1.0
 40
0.4648420457
 41
0.0
 42
6.283185307179586
  0
ELLIPSE
  5
EA
330
71
100
AcDbEntity
  8
$DDT_AUDIT_GENERATED_(E8)
  6
Continuous
 62
     7
100
AcDbEllipse
 10
65.8940575533
 20
559.1695078897
 30
0.0
 11
-9.000000000000007
 21
0.0
 31
0.0
210
0.0
220
0.0
230
1.0
 40
0.4648420457
 41
6.272905366016663
 42
6.283185307179586
  0
ELLIPSE
  5
EB
330
71
100
AcDbEntity
  8
$DDT_AUDIT_GENERATED_(E8)
  6
Continuous
 62
     7
100
AcDbEllipse
 10
65.8940575533
 20
559.1695078897
 30
0.0
 11
-9.000000000000007
 21
0.0
 31
0.0
210
0.0
220
0.0
230
1.0
 40
0.4648420457
 41
3.141592653589793
 42
3.151872594752954
  0
ELLIPSE
  5
EC
330
71
100
AcDbEntity
  8
$DDT_AUDIT_GENERATED_(E8)
  6
Continuous
 62
     7
100
AcDbEllipse
 10
65.8940575533
 20
559.5116895977
 30
0.0
 11
9.386474103797648
 21
-4.440892098500626E-13
 31
0.0
210
0.0
220
0.0
230
1.0
 40
0.4648420457
 41
-0.2879555481428593
 42
-0.1387622149915622
  0
ELLIPSE
  5
ED
330
71
100
AcDbEntity
  8
$DDT_AUDIT_GENERATED_(E8)
  6
Continuous
 62
     7
100
AcDbEllipse
 10
65.8940575533
 20
559.5116895977
 30
0.0
 11
-9.386474103797363
 21
-1.387778780781446E-13
 31
0.0
210
0.0
220
0.0
230
1.0
 40
0.4648420457
 41
0.1387622149915791
 42
0.287955548142879
  0
ELLIPSE
  5
EE
330
71
100
AcDbEntity
  8
$DDT_AUDIT_GENERATED_(E8)
  6
Continuous
 62
     7
100
AcDbEllipse
 10
65.8940575533
 20
556.7789451001
 30
0.0
 11
5.250000000000004
 21
0.0
 31
0.0
210
0.0
220
0.0
230
1.0
 40
0.4648420457
 41
0.0
 42
6.283185307179586
  0
ELLIPSE
  5
EF
330
71
100
AcDbEntity
  8
$DDT_AUDIT_GENERATED_(E8)
  6
Continuous
 62
     7
100
AcDbEllipse
 10
65.8940575533
 20
556.7789451001
 30
0.0
 11
6.249999999999999
 21
0.0
 31
0.0
210
0.0
220
0.0
230
1.0
 40
0.4648420457
 41
0.0
 42
6.283185307179586
  0
ELLIPSE
  5
F0
330
71
100
AcDbEntity
  8
$DDT_AUDIT_GENERATED_(E8)
  6
Continuous
 62
     7
100
AcDbEllipse
 10
65.8940575533
 20
556.7789451001
 30
0.0
 11
-2.750000000000002
 21
0.0
 31
0.0
210
0.0
220
0.0
230
1.0
 40
0.4648420457
 41
0.0
 42
6.283185307179586
  0
ELLIPSE
  5
F1
330
71
100
AcDbEntity
  8
$DDT_AUDIT_GENERATED_(E8)
  6
Continuous
 62
     7
100
AcDbEllipse
 10
65.8940575533
 20
556.7789451001
 30
0.0
 11
2.150000000000002
 21
2.775557561562891E-14
 31
0.0
210
0.0
220
0.0
230
1.0
 40
0.4648420457
 41
0.0
 42
6.283185307179586
  0
ELLIPSE
  5
F2
330
71
100
AcDbEntity
  8
$DDT_AUDIT_GENERATED_(E8)
  6
Continuous
 62
     7
100
AcDbEllipse
 10
65.8940575533
 20
556.9560238253
 30
0.0
 11
-0.5196299438963562
 21
0.0
 31
0.0
210
0.0
220
0.0
230
1.0
 40
0.4648420457
 41
0.0
 42
6.283185307179586
  0
ELLIPSE
  5
F3
330
71
100
AcDbEntity
  8
$DDT_AUDIT_GENERATED_(E8)
  6
Continuous
 62
     7
100
AcDbEllipse
 10
65.8940575533
 20
556.7789451001
 30
0.0
 11
-8.700000000000005
 21
0.0
 31
0.0
210
0.0
220
0.0
230
1.0
 40
0.4648420457
 41
0.0
 42
6.283185307179586
  0
ARC
  5
F4
330
71
100
AcDbEntity
  8
$DDT_AUDIT_GENERATED_(E8)
  6
Continuous
 62
     7
100
AcDbCircle
 10
65.8940575533
 20
546.4172083919
 30
0.0
 40
13.44407823782933
100
AcDbArc
 50
89.5738175065
 51
90.4261824935
  0
LINE
  5
F5
330
71
100
AcDbEntity
  8
$DDT_AUDIT_GENERATED_(E8)
  6
Continuous
 62
     7
100
AcDbLine
 10
65.9940575533
 20
559.8609147136
 30
0.0
 11
65.9940575533
 21
560.8228037385
 31
0.0
  0
LINE
  5
F6
330
71
100
AcDbEntity
  8
$DDT_AUDIT_GENERATED_(E8)
  6
Continuous
 62
     7
100
AcDbLine
 10
65.7940575533
 20
559.8609147136
 30
0.0
 11
65.7940575533
 21
560.8228037385
 31
0.0
  0
ELLIPSE
  5
F7
330
71
100
AcDbEntity
  8
$DDT_AUDIT_GENERATED_(E8)
  6
Continuous
 62
     7
100
AcDbEllipse
 10
65.8940575533
 20
557.1749799276
 30
0.0
 11
-0.5196299438963524
 21
0.0
 31
0.0
210
0.0
220
0.0
230
1.0
 40
0.4648420457
 41
4.210466699360392
 42
5.214311261408957
  0
LINE
  5
F8
330
71
100
AcDbEntity
  8
$DDT_AUDIT_GENERATED_(E8)
  6
Continuous
 62
     7
100
AcDbLine
 10
65.6440575533
 20
557.7715760796
 30
0.0
 11
65.6440575533
 21
557.3867333521
 31
0.0
  0
LINE
  5
F9
330
71
100
AcDbEntity
  8
$DDT_AUDIT_GENERATED_(E8)
  6
Continuous
 62
     7
100
AcDbLine
 10
66.1440575533
 20
557.7715760796
 30
0.0
 11
66.1440575533
 21
557.3867333521
 31
0.0
  0
LINE
  5
FA
330
71
100
AcDbEntity
  8
$DDT_AUDIT_GENERATED_(E8)
  6
Continuous
 62
     7
100
AcDbLine
 10
67.8683817542
 20
556.7793056929
 30
0.0
 11
66.4136874972
 21
557.1697117084
 31
0.0
  0
LINE
  5
FB
330
71
100
AcDbEntity
  8
$DDT_AUDIT_GENERATED_(E8)
  6
Continuous
 62
     7
100
AcDbLine
 10
67.8683817542
 20
557.1746193348
 30
0.0
 11
67.8683817542
 21
556.7793056929
 31
0.0
  0
LINE
  5
FC
330
71
100
AcDbEntity
  8
$DDT_AUDIT_GENERATED_(E8)
  6
Continuous
 62
     7
100
AcDbLine
 10
67.6183817542
 20
556.5780231828
 30
0.0
 11
66.4017467527
 21
556.9045396455
 31
0.0
  0
ELLIPSE
  5
FD
330
71
100
AcDbEntity
  8
$DDT_AUDIT_GENERATED_(E8)
  6
Continuous
 62
     7
100
AcDbEllipse
 10
65.8940575533
 20
557.1749799276
 30
0.0
 11
2.14999999999829
 21
1.387778780781446E-13
 31
0.0
210
0.0
220
0.0
230
1.0
 40
0.4648420457
 41
-0.6401414840479394
 42
-0.407056067149183
  0
LINE
  5
FE
330
71
100
AcDbEntity
  8
$DDT_AUDIT_GENERATED_(E8)
  6
Continuous
 62
     7
100
AcDbLine
 10
64.1697333524
 20
556.5780231828
 30
0.0
 11
65.386368354
 21
556.9045396455
 31
0.0
  0
LINE
  5
FF
330
71
100
AcDbEntity
  8
$DDT_AUDIT_GENERATED_(E8)
  6
Continuous
 62
     7
100
AcDbLine
 10
63.9197333524
 20
556.7793056929
 30
0.0
 11
65.3744276094
 21
557.1697117084
 31
0.0
  0
ELLIPSE
  5
100
330
71
100
AcDbEntity
  8
$DDT_AUDIT_GENERATED_(E8)
  6
Continuous
 62
     7
100
AcDbEllipse
 10
65.8940575533
 20
557.1749799276
 30
0.0
 11
-2.14999999999472
 21
1.221245327087672E-12
 31
0.0
210
0.0
220
0.0
230
1.0
 40
0.4648420457
 41
0.4070560671496396
 42
0.6401414840486332
  0
LINE
  5
101
330
71
100
AcDbEntity
  8
$DDT_AUDIT_GENERATED_(E8)
  6
Continuous
 62
     7
100
AcDbLine
 10
63.9197333524
 20
557.1746193348
 30
0.0
 11
63.9197333524
 21
556.7793056929
 31
0.0
  0
ELLIPSE
  5
102
330
71
100
AcDbEntity
  8
$DDT_AUDIT_GENERATED_(E8)
  6
Continuous
 62
     7
100
AcDbEllipse
 10
65.8940575383
 20
556.9560237993
 30
0.0
 11
6.250000030888168
 21
8.564454700987767E-9
 31
0.0
210
0.0
220
0.0
230
1.0
 40
0.4648420476
 41
1.292996254530078
 42
1.324997619872487
  0
LINE
  5
103
330
71
100
AcDbEntity
  8
$DDT_AUDIT_GENERATED_(E8)
  6
Continuous
 62
     7
100
AcDbLine
 10
67.6080620993
 20
559.7499019595
 30
0.0
 11
68.1471398329
 21
560.68510163
 31
0.0
  0
LINE
  5
104
330
71
100
AcDbEntity
  8
$DDT_AUDIT_GENERATED_(E8)
  6
Continuous
 62
     7
100
AcDbLine
 10
67.4148769341
 20
559.7739639543
 30
0.0
 11
67.9533679613
 21
560.7081457985
 31
0.0
  0
LINE
  5
105
330
71
100
AcDbEntity
  8
$DDT_AUDIT_GENERATED_(E8)
  6
Continuous
 62
     7
100
AcDbLine
 10
67.4148769341
 20
559.7739639543
 30
0.0
 11
67.4148769341
 21
560.7608024789
 31
0.0
  0
ELLIPSE
  5
106
330
71
100
AcDbEntity
  8
$DDT_AUDIT_GENERATED_(E8)
  6
Continuous
 62
     7
100
AcDbEllipse
 10
65.8940575249
 20
556.9560238024
 30
0.0
 11
6.250000035559477
 21
1.458477782989576E-8
 31
0.0
210
0.0
220
0.0
230
1.0
 40
0.4648420468
 41
1.031196865468587
 42
1.063198230813563
  0
LINE
  5
107
330
71
100
AcDbEntity
  8
$DDT_AUDIT_GENERATED_(E8)
  6
Continuous
 62
     7
100
AcDbLine
 10
69.1052600681
 20
559.4484910275
 30
0.0
 11
70.1654713494
 21
560.3020989796
 31
0.0
  0
LINE
  5
108
330
71
100
AcDbEntity
  8
$DDT_AUDIT_GENERATED_(E8)
  6
Continuous
 62
     7
100
AcDbLine
 10
68.9320549873
 20
559.4949752321
 30
0.0
 11
69.9900762664
 21
560.3468199475
 31
0.0
  0
LINE
  5
109
330
71
100
AcDbEntity
  8
$DDT_AUDIT_GENERATED_(E8)
  6
Continuous
 62
     7
100
AcDbLine
 10
68.9320549873
 20
559.4949752321
 30
0.0
 11
68.9320549873
 21
560.5684933397
 31
0.0
  0
ELLIPSE
  5
10A
330
71
100
AcDbEntity
  8
$DDT_AUDIT_GENERATED_(E8)
  6
Continuous
 62
     7
100
AcDbEllipse
 10
65.8940575498
 20
556.9560238237
 30
0.0
 11
6.250000003731819
 21
1.479399935888637E-9
 31
0.0
210
0.0
220
0.0
230
1.0
 40
0.4648420457
 41
0.7693974803496059
 42
0.8013988458274905
  0
LINE
  5
10B
330
71
100
AcDbEntity
  8
$DDT_AUDIT_GENERATED_(E8)
  6
Continuous
 62
     7
100
AcDbLine
 10
70.3836198922
 20
558.9772225748
 30
0.0
 11
71.924959454
 21
559.6937020098
 31
0.0
  0
LINE
  5
10C
330
71
100
AcDbEntity
  8
$DDT_AUDIT_GENERATED_(E8)
  6
Continuous
 62
     7
100
AcDbLine
 10
70.242198536
 20
559.0429611673
 30
0.0
 11
71.7791570424
 21
559.7574041036
 31
0.0
  0
LINE
  5
10D
330
71
100
AcDbEntity
  8
$DDT_AUDIT_GENERATED_(E8)
  6
Continuous
 62
     7
100
AcDbLine
 10
70.242198536
 20
559.0429611673
 30
0.0
 11
70.242198536
 21
560.2817595519
 31
0.0
  0
ELLIPSE
  5
10E
330
71
100
AcDbEntity
  8
$DDT_AUDIT_GENERATED_(E8)
  6
Continuous
 62
     7
100
AcDbEllipse
 10
65.894057962
 20
556.9560239349
 30
0.0
 11
8.499999587109196
 21
-1.210688771458024E-7
 31
0.0
210
0.0
220
0.0
230
1.0
 40
0.4648420522
 41
0.5118338166248504
 42
0.5353637718541652
  0
ELLIPSE
  5
10F
330
71
100
AcDbEntity
  8
$DDT_AUDIT_GENERATED_(E8)
  6
Continuous
 62
     7
100
AcDbEllipse
 10
65.8940575275
 20
556.9560238184
 30
0.0
 11
6.250000026116656
 21
7.625067244276806E-9
 31
0.0
210
0.0
220
0.0
230
1.0
 40
0.4648420452
 41
0.5075980912900485
 42
0.5395994567042663
  0
LINE
  5
110
330
71
100
AcDbEntity
  8
$DDT_AUDIT_GENERATED_(E8)
  6
Continuous
 62
     7
100
AcDbLine
 10
71.3560234623
 20
558.3682127674
 30
0.0
 11
73.3047640411
 21
558.8912092946
 31
0.0
  0
LINE
  5
111
330
71
100
AcDbEntity
  8
$DDT_AUDIT_GENERATED_(E8)
  6
Continuous
 62
     7
100
AcDbLine
 10
71.2560234623
 20
558.4487257715
 30
0.0
 11
73.2043206254
 21
558.9716032962
 31
0.0
  0
LINE
  5
112
330
71
100
AcDbEntity
  8
$DDT_AUDIT_GENERATED_(E8)
  6
Continuous
 62
     7
100
AcDbLine
 10
71.2560234623
 20
558.4487257715
 30
0.0
 11
71.2560234623
 21
559.382752435
 31
0.0
  0
ELLIPSE
  5
113
330
71
100
AcDbEntity
  8
$DDT_AUDIT_GENERATED_(E8)
  6
Continuous
 62
     7
100
AcDbEllipse
 10
65.8940580089
 20
556.956023882
 30
0.0
 11
8.499999544086851
 21
-6.989997469730724E-8
 31
0.0
210
0.0
220
0.0
230
1.0
 40
0.4648420569
 41
0.2500344209447153
 42
0.2735643761737885
  0
ELLIPSE
  5
114
330
71
100
AcDbEntity
  8
$DDT_AUDIT_GENERATED_(E8)
  6
Continuous
 62
     7
100
AcDbEllipse
 10
65.8940575533
 20
556.9560238253
 30
0.0
 11
8.500000000024222
 21
5.634381849972669E-12
 31
0.0
210
0.0
220
0.0
230
1.0
 40
0.4648420457
 41
0.273564365086552
 42
0.5118337983091573
  0
ELLIPSE
  5
115
330
71
100
AcDbEntity
  8
$DDT_AUDIT_GENERATED_(E8)
  6
Continuous
 62
     7
100
AcDbEllipse
 10
65.894057498
 20
556.9560238185
 30
0.0
 11
6.25000005535467
 21
8.423595154738450E-9
 31
0.0
210
0.0
220
0.0
230
1.0
 40
0.4648420439
 41
0.2457987033550475
 42
0.277800068699075
  0
LINE
  5
116
330
71
100
AcDbEntity
  8
$DDT_AUDIT_GENERATED_(E8)
  6
Continuous
 62
     7
100
AcDbLine
 10
71.956203082
 20
557.6629646174
 30
0.0
 11
74.1297407699
 21
557.9336875409
 31
0.0
  0
LINE
  5
117
330
71
100
AcDbEntity
  8
$DDT_AUDIT_GENERATED_(E8)
  6
Continuous
 62
     7
100
AcDbLine
 10
71.904439273
 20
557.7527652049
 30
0.0
 11
74.0779769609
 21
558.0234881284
 31
0.0
  0
LINE
  5
118
330
71
100
AcDbEntity
  8
$DDT_AUDIT_GENERATED_(E8)
  6
Continuous
 62
     7
100
AcDbLine
 10
71.904439273
 20
557.7527652049
 30
0.0
 11
71.904439273
 21
558.5153947821
 31
0.0
  0
ARC
  5
119
330
71
100
AcDbEntity
  8
$DDT_AUDIT_GENERATED_(E8)
  6
Continuous
 62
     7
100
AcDbCircle
 10
72.5569323233
 20
556.9560238253
 30
0.0
 40
1.837125156163847
100
AcDbArc
 50
358.5501080316
 51
1.4498919684
  0
ELLIPSE
  5
11A
330
71
100
AcDbEntity
  8
$DDT_AUDIT_GENERATED_(E8)
  6
Continuous
 62
     7
100
AcDbEllipse
 10
65.8940575533
 20
556.9560238253
 30
0.0
 11
8.500000000007073
 21
1.831867990631508E-12
 31
0.0
210
0.0
220
0.0
230
1.0
 40
0.4648420457
 41
0.0117649772879421
 42
0.2500344105108518
  0
ARC
  5
11B
330
71
100
AcDbEntity
  8
$DDT_AUDIT_GENERATED_(E8)
  6
Continuous
 62
     7
100
AcDbCircle
 10
70.792942079
 20
556.9560238253
 30
0.0
 40
1.351115288659827
100
AcDbArc
 50
0.0
 51
1.971611493
  0
LINE
  5
11C
330
71
100
AcDbEntity
  8
$DDT_AUDIT_GENERATED_(E8)
  6
Continuous
 62
     7
100
AcDbLine
 10
72.1440575533
 20
556.9095396207
 30
0.0
 11
74.3934692977
 21
556.9095396207
 31
0.0
  0
LINE
  5
11D
330
71
100
AcDbEntity
  8
$DDT_AUDIT_GENERATED_(E8)
  6
Continuous
 62
     7
100
AcDbLine
 10
72.1432575021
 20
557.0025080299
 30
0.0
 11
74.3934692977
 21
557.0025080299
 31
0.0
  0
LINE
  5
11E
330
71
100
AcDbEntity
  8
$DDT_AUDIT_GENERATED_(E8)
  6
Continuous
 62
     7
100
AcDbLine
 10
72.1432575021
 20
557.0025080299
 30
0.0
 11
72.1432575021
 21
557.6862630032
 31
0.0
  0
ELLIPSE
  5
11F
330
71
100
AcDbEntity
  8
$DDT_AUDIT_GENERATED_(E8)
  6
Continuous
 62
     7
100
AcDbEllipse
 10
65.8940580084
 20
556.9560237686
 30
0.0
 11
8.499999544586178
 21
6.982375788666673E-8
 31
0.0
210
0.0
220
0.0
230
1.0
 40
0.4648420569
 41
-0.2735643761616275
 42
-0.2500344209332859
  0
ELLIPSE
  5
120
330
71
100
AcDbEntity
  8
$DDT_AUDIT_GENERATED_(E8)
  6
Continuous
 62
     7
100
AcDbEllipse
 10
65.8940575533
 20
556.9560238253
 30
0.0
 11
8.50000000002507
 21
-2.026157019940911E-12
 31
0.0
210
0.0
220
0.0
230
1.0
 40
0.4648420457
 41
6.033150896668995
 42
6.271420329891616
  0
LINE
  5
121
330
71
100
AcDbEntity
  8
$DDT_AUDIT_GENERATED_(E8)
  6
Continuous
 62
     7
100
AcDbLine
 10
74.1297407699
 20
555.9783601097
 30
0.0
 11
74.1297407699
 21
556.9095396207
 31
0.0
  0
LINE
  5
122
330
71
100
AcDbEntity
  8
$DDT_AUDIT_GENERATED_(E8)
  6
Continuous
 62
     7
100
AcDbLine
 10
71.9948968554
 20
556.1480155874
 30
0.0
 11
74.0779769609
 21
555.8885595222
 31
0.0
  0
LINE
  5
123
330
71
100
AcDbEntity
  8
$DDT_AUDIT_GENERATED_(E8)
  6
Continuous
 62
     7
100
AcDbLine
 10
72.035265818
 20
556.2392354491
 30
0.0
 11
74.1297407699
 21
555.9783601096
 31
0.0
  0
ELLIPSE
  5
124
330
71
100
AcDbEntity
  8
$DDT_AUDIT_GENERATED_(E8)
  6
Continuous
 62
     7
100
AcDbEllipse
 10
65.8940580199
 20
556.9560237
 30
0.0
 11
8.499999528579687
 21
1.383512748809324E-7
 31
0.0
210
0.0
220
0.0
230
1.0
 40
0.4648420531
 41
-0.5353637745459405
 42
-0.5118338192239111
  0
ELLIPSE
  5
125
330
71
100
AcDbEntity
  8
$DDT_AUDIT_GENERATED_(E8)
  6
Continuous
 62
     7
100
AcDbEllipse
 10
65.8940575533
 20
556.9560238253
 30
0.0
 11
8.500000000023428
 21
-5.440092820663267E-12
 31
0.0
210
0.0
220
0.0
230
1.0
 40
0.4648420457
 41
-0.5118337983092172
 42
-0.2735643650866004
  0
LINE
  5
126
330
71
100
AcDbEntity
  8
$DDT_AUDIT_GENERATED_(E8)
  6
Continuous
 62
     7
100
AcDbLine
 10
73.3047640411
 20
555.020838356
 30
0.0
 11
73.3047640411
 21
555.9848663235
 31
0.0
  0
LINE
  5
127
330
71
100
AcDbEntity
  8
$DDT_AUDIT_GENERATED_(E8)
  6
Continuous
 62
     7
100
AcDbLine
 10
71.418006561
 20
555.4198493928
 30
0.0
 11
73.2047640411
 21
554.9403253519
 31
0.0
  0
LINE
  5
128
330
71
100
AcDbEntity
  8
$DDT_AUDIT_GENERATED_(E8)
  6
Continuous
 62
     7
100
AcDbLine
 10
71.5088499659
 20
555.5028198135
 30
0.0
 11
73.3047640411
 21
555.020838356
 31
0.0
  0
ELLIPSE
  5
129
330
71
100
AcDbEntity
  8
$DDT_AUDIT_GENERATED_(E8)
  6
Continuous
 62
     7
100
AcDbEllipse
 10
65.8940578873
 20
556.9560236701
 30
0.0
 11
8.499999645756835
 21
1.399948768021630E-7
 31
0.0
210
0.0
220
0.0
230
1.0
 40
0.4648420457
 41
-0.7971631625610778
 42
-0.7736332073311214
  0
ELLIPSE
  5
12A
330
71
100
AcDbEntity
  8
$DDT_AUDIT_GENERATED_(E8)
  6
Continuous
 62
     7
100
AcDbEllipse
 10
65.8940575533
 20
556.9560238253
 30
0.0
 11
8.500000000017591
 21
-5.856426454897701E-12
 31
0.0
210
0.0
220
0.0
230
1.0
 40
0.4648420457
 41
-0.7736331861082695
 42
-0.5353637528856012
  0
LINE
  5
12B
330
71
100
AcDbEntity
  8
$DDT_AUDIT_GENERATED_(E8)
  6
Continuous
 62
     7
100
AcDbLine
 10
71.974759912
 20
554.195196294
 30
0.0
 11
71.974759912
 21
555.2704297768
 31
0.0
  0
LINE
  5
12C
330
71
100
AcDbEntity
  8
$DDT_AUDIT_GENERATED_(E8)
  6
Continuous
 62
     7
100
AcDbLine
 10
70.4316131939
 20
554.7810385862
 30
0.0
 11
71.8333385557
 21
554.1294577015
 31
0.0
  0
LINE
  5
12D
330
71
100
AcDbEntity
  8
$DDT_AUDIT_GENERATED_(E8)
  6
Continuous
 62
     7
100
AcDbLine
 10
70.5669329956
 20
554.8496134378
 30
0.0
 11
71.974759912
 21
554.195196294
 31
0.0
  0
ELLIPSE
  5
12E
330
71
100
AcDbEntity
  8
$DDT_AUDIT_GENERATED_(E8)
  6
Continuous
 62
     7
100
AcDbEllipse
 10
65.8940577556
 20
556.9560236627
 30
0.0
 11
8.499999747287966
 21
1.037971375517088E-7
 31
0.0
210
0.0
220
0.0
230
1.0
 40
0.4648420402
 41
-1.058962544754118
 42
-1.035432589618435
  0
ELLIPSE
  5
12F
330
71
100
AcDbEntity
  8
$DDT_AUDIT_GENERATED_(E8)
  6
Continuous
 62
     7
100
AcDbEllipse
 10
65.8940575533
 20
556.9560238253
 30
0.0
 11
8.500000000005514
 21
-2.942091015256665E-12
 31
0.0
210
0.0
220
0.0
230
1.0
 40
0.4648420457
 41
-1.035432573908058
 42
-0.7971631406852042
  0
LINE
  5
130
330
71
100
AcDbEntity
  8
$DDT_AUDIT_GENERATED_(E8)
  6
Continuous
 62
     7
100
AcDbLine
 10
70.2303659659
 20
553.5577000658
 30
0.0
 11
70.2303659659
 21
554.6866947521
 31
0.0
  0
LINE
  5
131
330
71
100
AcDbEntity
  8
$DDT_AUDIT_GENERATED_(E8)
  6
Continuous
 62
     7
100
AcDbLine
 10
69.0970811209
 20
554.2842049209
 30
0.0
 11
70.0571608851
 21
553.5112158612
 31
0.0
  0
LINE
  5
132
330
71
100
AcDbEntity
  8
$DDT_AUDIT_GENERATED_(E8)
  6
Continuous
 62
     7
100
AcDbLine
 10
69.2672368434
 20
554.3331442553
 30
0.0
 11
70.2303659659
 21
553.5577000658
 31
0.0
  0
ELLIPSE
  5
133
330
71
100
AcDbEntity
  8
$DDT_AUDIT_GENERATED_(E8)
  6
Continuous
 62
     7
100
AcDbEllipse
 10
65.894057676
 20
556.9560236125
 30
0.0
 11
8.499999747107838
 21
7.025688364414862E-8
 31
0.0
210
0.0
220
0.0
230
1.0
 40
0.4648420345
 41
-1.320761927424734
 42
-1.297231972192468
  0
ELLIPSE
  5
134
330
71
100
AcDbEntity
  8
$DDT_AUDIT_GENERATED_(E8)
  6
Continuous
 62
     7
100
AcDbEllipse
 10
65.8940575533
 20
556.9560238253
 30
0.0
 11
8.499999999996556
 21
1.387778780781446E-12
 31
0.0
210
0.0
220
0.0
230
1.0
 40
0.4648420457
 41
-1.297231961707908
 42
-1.058962528484855
  0
LINE
  5
135
330
71
100
AcDbEntity
  8
$DDT_AUDIT_GENERATED_(E8)
  6
Continuous
 62
     7
100
AcDbLine
 10
68.1904597675
 20
553.1517939858
 30
0.0
 11
68.1904597675
 21
554.0768955417
 31
0.0
  0
LINE
  5
136
330
71
100
AcDbEntity
  8
$DDT_AUDIT_GENERATED_(E8)
  6
Continuous
 62
     7
100
AcDbLine
 10
67.5103199278
 20
553.972507842
 30
0.0
 11
67.9972746023
 21
553.1277319909
 31
0.0
  0
LINE
  5
137
330
71
100
AcDbEntity
  8
$DDT_AUDIT_GENERATED_(E8)
  6
Continuous
 62
     7
100
AcDbLine
 10
67.702688298
 20
553.9979868244
 30
0.0
 11
68.1904597675
 21
553.1517939858
 31
0.0
  0
ARC
  5
138
330
71
100
AcDbEntity
  8
$DDT_AUDIT_GENERATED_(E8)
  6
Continuous
 62
     7
100
AcDbCircle
 10
65.8940575533
 20
571.2896557145
 30
0.0
 40
18.28478928529029
100
AcDbArc
 50
269.6866462925
 51
270.3133537075
  0
ELLIPSE
  5
139
330
71
100
AcDbEntity
  8
$DDT_AUDIT_GENERATED_(E8)
  6
Continuous
 62
     7
100
AcDbEllipse
 10
65.8940575533
 20
556.9560238253
 30
0.0
 11
8.499999999991948
 21
1.165734175856414E-12
 31
0.0
210
0.0
220
0.0
230
1.0
 40
0.4648420457
 41
4.724153957672514
 42
4.962423390895708
  0
LINE
  5
13A
330
71
100
AcDbEntity
  8
$DDT_AUDIT_GENERATED_(E8)
  6
Continuous
 62
     7
100
AcDbLine
 10
65.7940575533
 20
553.8740542118
 30
0.0
 11
65.7940575533
 21
553.0051398826
 31
0.0
  0
LINE
  5
13B
330
71
100
AcDbEntity
  8
$DDT_AUDIT_GENERATED_(E8)
  6
Continuous
 62
     7
100
AcDbLine
 10
65.9940575533
 20
553.8740542118
 30
0.0
 11
65.9940575533
 21
553.0051398826
 31
0.0
  0
ELLIPSE
  5
13C
330
71
100
AcDbEntity
  8
$DDT_AUDIT_GENERATED_(E8)
  6
Continuous
 62
     7
100
AcDbEllipse
 10
65.8940574218
 20
556.9560235974
 30
0.0
 11
-8.499999729138546
 21
7.529077361567715E-8
 31
0.0
210
0.0
220
0.0
230
1.0
 40
0.4648420337
 41
1.297231972953345
 42
1.320761928232211
  0
ELLIPSE
  5
13D
330
71
100
AcDbEntity
  8
$DDT_AUDIT_GENERATED_(E8)
  6
Continuous
 62
     7
100
AcDbEllipse
 10
65.8940575533
 20
556.9560238253
 30
0.0
 11
-8.500000000014563
 21
-2.220446049250313E-12
 31
0.0
210
0.0
220
0.0
230
1.0
 40
0.4648420457
 41
1.32076191628369
 42
1.559031349506256
  0
LINE
  5
13E
330
71
100
AcDbEntity
  8
$DDT_AUDIT_GENERATED_(E8)
  6
Continuous
 62
     7
100
AcDbLine
 10
63.5976553391
 20
553.1517939858
 30
0.0
 11
63.5976553391
 21
554.0768955417
 31
0.0
  0
LINE
  5
13F
330
71
100
AcDbEntity
  8
$DDT_AUDIT_GENERATED_(E8)
  6
Continuous
 62
     7
100
AcDbLine
 10
64.0854268086
 20
553.9979868244
 30
0.0
 11
63.5976553391
 21
553.1517939858
 31
0.0
  0
LINE
  5
140
330
71
100
AcDbEntity
  8
$DDT_AUDIT_GENERATED_(E8)
  6
Continuous
 62
     7
100
AcDbLine
 10
64.2777951788
 20
553.972507842
 30
0.0
 11
63.7908405043
 21
553.1277319909
 31
0.0
  0
ELLIPSE
  5
141
330
71
100
AcDbEntity
  8
$DDT_AUDIT_GENERATED_(E8)
  6
Continuous
 62
     7
100
AcDbEllipse
 10
65.8940573187
 20
556.9560236365
 30
0.0
 11
-8.499999706703093
 21
1.204188415648844E-7
 31
0.0
210
0.0
220
0.0
230
1.0
 40
0.4648420393
 41
1.035432592123873
 42
1.05896254734964
  0
ELLIPSE
  5
142
330
71
100
AcDbEntity
  8
$DDT_AUDIT_GENERATED_(E8)
  6
Continuous
 62
     7
100
AcDbEllipse
 10
65.8940575533
 20
556.9560238253
 30
0.0
 11
-8.500000000016229
 21
-5.967448757360216E-12
 31
0.0
210
0.0
220
0.0
230
1.0
 40
0.4648420457
 41
1.058962528483961
 42
1.297231961706532
  0
LINE
  5
143
330
71
100
AcDbEntity
  8
$DDT_AUDIT_GENERATED_(E8)
  6
Continuous
 62
     7
100
AcDbLine
 10
61.5577491408
 20
553.5577000658
 30
0.0
 11
61.5577491408
 21
554.6866947521
 31
0.0
  0
LINE
  5
144
330
71
100
AcDbEntity
  8
$DDT_AUDIT_GENERATED_(E8)
  6
Continuous
 62
     7
100
AcDbLine
 10
62.5208782632
 20
554.3331442553
 30
0.0
 11
61.5577491408
 21
553.5577000658
 31
0.0
  0
LINE
  5
145
330
71
100
AcDbEntity
  8
$DDT_AUDIT_GENERATED_(E8)
  6
Continuous
 62
     7
100
AcDbLine
 10
62.6910339857
 20
554.2842049209
 30
0.0
 11
61.7309542215
 21
553.5112158612
 31
0.0
  0
ELLIPSE
  5
146
330
71
100
AcDbEntity
  8
$DDT_AUDIT_GENERATED_(E8)
  6
Continuous
 62
     7
100
AcDbEllipse
 10
65.8940572195
 20
556.9560236702
 30
0.0
 11
-8.499999645961626
 21
1.399165228122002E-7
 31
0.0
210
0.0
220
0.0
230
1.0
 40
0.4648420457
 41
0.7736332073201632
 42
0.7971631625497102
  0
ELLIPSE
  5
147
330
71
100
AcDbEntity
  8
$DDT_AUDIT_GENERATED_(E8)
  6
Continuous
 62
     7
100
AcDbEllipse
 10
65.8940575533
 20
556.9560238253
 30
0.0
 11
-8.500000000008056
 21
-4.052314039881821E-12
 31
0.0
210
0.0
220
0.0
230
1.0
 40
0.4648420457
 41
0.7971631406850508
 42
1.035432573907857
  0
LINE
  5
148
330
71
100
AcDbEntity
  8
$DDT_AUDIT_GENERATED_(E8)
  6
Continuous
 62
     7
100
AcDbLine
 10
59.8133551947
 20
554.195196294
 30
0.0
 11
59.8133551947
 21
555.2704297768
 31
0.0
  0
LINE
  5
149
330
71
100
AcDbEntity
  8
$DDT_AUDIT_GENERATED_(E8)
  6
Continuous
 62
     7
100
AcDbLine
 10
61.2211821111
 20
554.8496134378
 30
0.0
 11
59.8133551947
 21
554.195196294
 31
0.0
  0
LINE
  5
14A
330
71
100
AcDbEntity
  8
$DDT_AUDIT_GENERATED_(E8)
  6
Continuous
 62
     7
100
AcDbLine
 10
61.3565019127
 20
554.7810385862
 30
0.0
 11
59.9547765509
 21
554.1294577015
 31
0.0
  0
ELLIPSE
  5
14B
330
71
100
AcDbEntity
  8
$DDT_AUDIT_GENERATED_(E8)
  6
Continuous
 62
     7
100
AcDbEllipse
 10
65.8940575761
 20
556.9560238314
 30
0.0
 11
-8.500000023057856
 21
-6.754208303760834E-9
 31
0.0
210
0.0
220
0.0
230
1.0
 40
0.4648420454
 41
0.5118337972899311
 42
0.5353637518295264
  0
ELLIPSE
  5
14C
330
71
100
AcDbEntity
  8
$DDT_AUDIT_GENERATED_(E8)
  6
Continuous
 62
     7
100
AcDbEllipse
 10
65.8940575533
 20
556.9560238253
 30
0.0
 11
-8.500000000020336
 21
-8.854028621385623E-12
 31
0.0
210
0.0
220
0.0
230
1.0
 40
0.4648420457
 41
0.5353637528853634
 42
0.7736331861079888
  0
LINE
  5
14D
330
71
100
AcDbEntity
  8
$DDT_AUDIT_GENERATED_(E8)
  6
Continuous
 62
     7
100
AcDbLine
 10
58.4833510655
 20
555.020838356
 30
0.0
 11
58.4833510655
 21
555.9848663235
 31
0.0
  0
LINE
  5
14E
330
71
100
AcDbEntity
  8
$DDT_AUDIT_GENERATED_(E8)
  6
Continuous
 62
     7
100
AcDbLine
 10
60.2792651407
 20
555.5028198135
 30
0.0
 11
58.4833510655
 21
555.020838356
 31
0.0
  0
LINE
  5
14F
330
71
100
AcDbEntity
  8
$DDT_AUDIT_GENERATED_(E8)
  6
Continuous
 62
     7
100
AcDbLine
 10
60.3701085457
 20
555.4198493928
 30
0.0
 11
58.5833510655
 21
554.9403253519
 31
0.0
  0
ELLIPSE
  5
150
330
71
100
AcDbEntity
  8
$DDT_AUDIT_GENERATED_(E8)
  6
Continuous
 62
     7
100
AcDbEllipse
 10
65.8940570982
 20
556.9560237687
 30
0.0
 11
-8.499999544617534
 21
6.969447241544913E-8
 31
0.0
210
0.0
220
0.0
230
1.0
 40
0.4648420569
 41
0.2500344209255791
 42
0.2735643761538882
  0
ELLIPSE
  5
151
330
71
100
AcDbEntity
  8
$DDT_AUDIT_GENERATED_(E8)
  6
Continuous
 62
     7
100
AcDbEllipse
 10
65.8940575533
 20
556.9560238253
 30
0.0
 11
-8.500000000035129
 21
-6.855627177060342E-12
 31
0.0
210
0.0
220
0.0
230
1.0
 40
0.4648420457
 41
0.273564365086333
 42
0.5118337983087835
  0
LINE
  5
152
330
71
100
AcDbEntity
  8
$DDT_AUDIT_GENERATED_(E8)
  6
Continuous
 62
     7
100
AcDbLine
 10
57.6583743367
 20
555.9783601097
 30
0.0
 11
57.6583743367
 21
556.9095396207
 31
0.0
  0
LINE
  5
153
330
71
100
AcDbEntity
  8
$DDT_AUDIT_GENERATED_(E8)
  6
Continuous
 62
     7
100
AcDbLine
 10
59.7528492886
 20
556.2392354491
 30
0.0
 11
57.6583743367
 21
555.9783601096
 31
0.0
  0
LINE
  5
154
330
71
100
AcDbEntity
  8
$DDT_AUDIT_GENERATED_(E8)
  6
Continuous
 62
     7
100
AcDbLine
 10
59.7932182512
 20
556.1480155874
 30
0.0
 11
57.7101381457
 21
555.8885595222
 31
0.0
  0
ARC
  5
155
330
71
100
AcDbEntity
  8
$DDT_AUDIT_GENERATED_(E8)
  6
Continuous
 62
     7
100
AcDbCircle
 10
59.2311827833
 20
556.9560238253
 30
0.0
 40
1.837125156163847
100
AcDbArc
 50
178.5501080316
 51
181.4498919684
  0
ELLIPSE
  5
156
330
71
100
AcDbEntity
  8
$DDT_AUDIT_GENERATED_(E8)
  6
Continuous
 62
     7
100
AcDbEllipse
 10
65.8940575533
 20
556.9560238253
 30
0.0
 11
-8.500000000005576
 21
-1.693090112553364E-12
 31
0.0
210
0.0
220
0.0
230
1.0
 40
0.4648420457
 41
0.0117649772877439
 42
0.2500344105108931
  0
ARC
  5
157
330
71
100
AcDbEntity
  8
$DDT_AUDIT_GENERATED_(E8)
  6
Continuous
 62
     7
100
AcDbCircle
 10
60.9951730277
 20
556.9560238253
 30
0.0
 40
1.351115288659387
100
AcDbArc
 50
178.028388507
 51
180.0
  0
LINE
  5
158
330
71
100
AcDbEntity
  8
$DDT_AUDIT_GENERATED_(E8)
  6
Continuous
 62
     7
100
AcDbLine
 10
59.6448576045
 20
557.0025080299
 30
0.0
 11
59.6448576045
 21
557.6862630032
 31
0.0
  0
LINE
  5
159
330
71
100
AcDbEntity
  8
$DDT_AUDIT_GENERATED_(E8)
  6
Continuous
 62
     7
100
AcDbLine
 10
59.6448576045
 20
557.0025080299
 30
0.0
 11
57.394645809
 21
557.0025080299
 31
0.0
  0
LINE
  5
15A
330
71
100
AcDbEntity
  8
$DDT_AUDIT_GENERATED_(E8)
  6
Continuous
 62
     7
100
AcDbLine
 10
59.6440575533
 20
556.9095396207
 30
0.0
 11
57.394645809
 21
556.9095396207
 31
0.0
  0
ELLIPSE
  5
15B
330
71
100
AcDbEntity
  8
$DDT_AUDIT_GENERATED_(E8)
  6
Continuous
 62
     7
100
AcDbEllipse
 10
65.8940573156
 20
556.9560238548
 30
0.0
 11
-8.499999762137611
 21
-3.633066070207747E-8
 31
0.0
210
0.0
220
0.0
230
1.0
 40
0.4648420516
 41
-0.2735643708642499
 42
-0.2500344159474723
  0
ELLIPSE
  5
15C
330
71
100
AcDbEntity
  8
$DDT_AUDIT_GENERATED_(E8)
  6
Continuous
 62
     7
100
AcDbEllipse
 10
65.8940575533
 20
556.9560238253
 30
0.0
 11
-8.500000000032935
 21
1.415534356397075E-12
 31
0.0
210
0.0
220
0.0
230
1.0
 40
0.4648420457
 41
6.03315089666909
 42
6.271420329891644
  0
ELLIPSE
  5
15D
330
71
100
AcDbEntity
  8
$DDT_AUDIT_GENERATED_(E8)
  6
Continuous
 62
     7
100
AcDbEllipse
 10
65.8940576094
 20
556.9560238183
 30
0.0
 11
-6.250000056127613
 21
8.675754559206439E-9
 31
0.0
210
0.0
220
0.0
230
1.0
 40
0.4648420439
 41
-0.2778000686632263
 42
-0.2457987033212472
  0
LINE
  5
15E
330
71
100
AcDbEntity
  8
$DDT_AUDIT_GENERATED_(E8)
  6
Continuous
 62
     7
100
AcDbLine
 10
59.8836758336
 20
557.7527652049
 30
0.0
 11
59.8836758336
 21
558.5153947821
 31
0.0
  0
LINE
  5
15F
330
71
100
AcDbEntity
  8
$DDT_AUDIT_GENERATED_(E8)
  6
Continuous
 62
     7
100
AcDbLine
 10
59.8836758336
 20
557.7527652049
 30
0.0
 11
57.7101381457
 21
558.0234881284
 31
0.0
  0
LINE
  5
160
330
71
100
AcDbEntity
  8
$DDT_AUDIT_GENERATED_(E8)
  6
Continuous
 62
     7
100
AcDbLine
 10
59.8319120246
 20
557.6629646174
 30
0.0
 11
57.6583743367
 21
557.9336875409
 31
0.0
  0
ELLIPSE
  5
161
330
71
100
AcDbEntity
  8
$DDT_AUDIT_GENERATED_(E8)
  6
Continuous
 62
     7
100
AcDbEllipse
 10
65.8940575768
 20
556.956023819
 30
0.0
 11
-8.500000023690429
 21
6.946471176050295E-9
 31
0.0
210
0.0
220
0.0
230
1.0
 40
0.4648420454
 41
-0.5353637517959307
 42
-0.5118337972571263
  0
ELLIPSE
  5
162
330
71
100
AcDbEntity
  8
$DDT_AUDIT_GENERATED_(E8)
  6
Continuous
 62
     7
100
AcDbEllipse
 10
65.8940575533
 20
556.9560238253
 30
0.0
 11
-8.500000000004102
 21
-1.942890293094024E-13
 31
0.0
210
0.0
220
0.0
230
1.0
 40
0.4648420457
 41
-0.5118337983100991
 42
-0.2735643650871822
  0
ELLIPSE
  5
163
330
71
100
AcDbEntity
  8
$DDT_AUDIT_GENERATED_(E8)
  6
Continuous
 62
     7
100
AcDbEllipse
 10
65.8940575809
 20
556.9560238179
 30
0.0
 11
-6.250000027866156
 21
8.199330103764169E-9
 31
0.0
210
0.0
220
0.0
230
1.0
 40
0.4648420451
 41
-0.5395994565894302
 42
-0.5075980911803315
  0
LINE
  5
164
330
71
100
AcDbEntity
  8
$DDT_AUDIT_GENERATED_(E8)
  6
Continuous
 62
     7
100
AcDbLine
 10
60.5320916443
 20
558.4487257715
 30
0.0
 11
60.5320916443
 21
559.382752435
 31
0.0
  0
LINE
  5
165
330
71
100
AcDbEntity
  8
$DDT_AUDIT_GENERATED_(E8)
  6
Continuous
 62
     7
100
AcDbLine
 10
60.5320916443
 20
558.4487257715
 30
0.0
 11
58.5837944812
 21
558.9716032962
 31
0.0
  0
LINE
  5
166
330
71
100
AcDbEntity
  8
$DDT_AUDIT_GENERATED_(E8)
  6
Continuous
 62
     7
100
AcDbLine
 10
60.4320916443
 20
558.3682127674
 30
0.0
 11
58.4833510655
 21
558.8912092946
 31
0.0
  0
ELLIPSE
  5
167
330
71
100
AcDbEntity
  8
$DDT_AUDIT_GENERATED_(E8)
  6
Continuous
 62
     7
100
AcDbEllipse
 10
65.8940575371
 20
556.9560238329
 30
0.0
 11
-6.249999982822517
 21
-6.836253785280633E-9
 31
0.0
210
0.0
220
0.0
230
1.0
 40
0.4648420457
 41
-0.8013988475967677
 42
-0.7693974820474772
  0
LINE
  5
168
330
71
100
AcDbEntity
  8
$DDT_AUDIT_GENERATED_(E8)
  6
Continuous
 62
     7
100
AcDbLine
 10
61.5459165706
 20
559.0429611673
 30
0.0
 11
61.5459165706
 21
560.2817595519
 31
0.0
  0
LINE
  5
169
330
71
100
AcDbEntity
  8
$DDT_AUDIT_GENERATED_(E8)
  6
Continuous
 62
     7
100
AcDbLine
 10
61.5459165706
 20
559.0429611673
 30
0.0
 11
60.0089580642
 21
559.7574041036
 31
0.0
  0
LINE
  5
16A
330
71
100
AcDbEntity
  8
$DDT_AUDIT_GENERATED_(E8)
  6
Continuous
 62
     7
100
AcDbLine
 10
61.4044952144
 20
558.9772225748
 30
0.0
 11
59.8631556526
 21
559.6937020098
 31
0.0
  0
ELLIPSE
  5
16B
330
71
100
AcDbEntity
  8
$DDT_AUDIT_GENERATED_(E8)
  6
Continuous
 62
     7
100
AcDbEllipse
 10
65.8940575822
 20
556.9560238021
 30
0.0
 11
-6.250000036048586
 21
1.478489553008444E-8
 31
0.0
210
0.0
220
0.0
230
1.0
 40
0.4648420468
 41
-1.06319823076934
 42
-1.031196865426371
  0
LINE
  5
16C
330
71
100
AcDbEntity
  8
$DDT_AUDIT_GENERATED_(E8)
  6
Continuous
 62
     7
100
AcDbLine
 10
62.8560601193
 20
559.4949752321
 30
0.0
 11
62.8560601193
 21
560.5684933397
 31
0.0
  0
LINE
  5
16D
330
71
100
AcDbEntity
  8
$DDT_AUDIT_GENERATED_(E8)
  6
Continuous
 62
     7
100
AcDbLine
 10
62.8560601193
 20
559.4949752321
 30
0.0
 11
61.7980388403
 21
560.3468199475
 31
0.0
  0
LINE
  5
16E
330
71
100
AcDbEntity
  8
$DDT_AUDIT_GENERATED_(E8)
  6
Continuous
 62
     7
100
AcDbLine
 10
62.6828550385
 20
559.4484910275
 30
0.0
 11
61.6226437573
 21
560.3020989796
 31
0.0
  0
ELLIPSE
  5
16F
330
71
100
AcDbEntity
  8
$DDT_AUDIT_GENERATED_(E8)
  6
Continuous
 62
     7
100
AcDbEllipse
 10
65.8940575374
 20
556.9560238527
 30
0.0
 11
-6.249999967307805
 21
-9.089951014118469E-9
 31
0.0
210
0.0
220
0.0
230
1.0
 40
0.4648420438
 41
-1.324997623728073
 42
-1.292996258080597
  0
LINE
  5
170
330
71
100
AcDbEntity
  8
$DDT_AUDIT_GENERATED_(E8)
  6
Continuous
 62
     7
100
AcDbLine
 10
64.3732381725
 20
559.7739639543
 30
0.0
 11
64.3732381725
 21
560.7608024789
 31
0.0
  0
LINE
  5
171
330
71
100
AcDbEntity
  8
$DDT_AUDIT_GENERATED_(E8)
  6
Continuous
 62
     7
100
AcDbLine
 10
64.3732381725
 20
559.7739639543
 30
0.0
 11
63.8347471453
 21
560.7081457985
 31
0.0
  0
LINE
  5
172
330
71
100
AcDbEntity
  8
$DDT_AUDIT_GENERATED_(E8)
  6
Continuous
 62
     7
100
AcDbLine
 10
64.1800530073
 20
559.7499019595
 30
0.0
 11
63.6409752737
 21
560.68510163
 31
0.0
  0
ARC
  5
173
330
71
100
AcDbEntity
  8
$DDT_AUDIT_GENERATED_(E8)
  6
Continuous
 62
     7
100
AcDbCircle
 10
65.8940575533
 20
552.327751229
 30
0.0
 40
5.906590283671894
100
AcDbArc
 50
88.3021966226
 51
91.6978033774
  0
LINE
  5
174
330
71
100
AcDbEntity
  8
$DDT_AUDIT_GENERATED_(E8)
  6
Continuous
 62
     7
100
AcDbLine
 10
66.0690575533
 20
558.2317485003
 30
0.0
 11
66.0690575533
 21
559.2180096741
 31
0.0
  0
LINE
  5
175
330
71
100
AcDbEntity
  8
$DDT_AUDIT_GENERATED_(E8)
  6
Continuous
 62
     7
100
AcDbLine
 10
65.7190575533
 20
558.2317485003
 30
0.0
 11
65.7190575533
 21
559.2180096741
 31
0.0
  0
ELLIPSE
  5
176
330
71
100
AcDbEntity
  8
$DDT_AUDIT_GENERATED_(E8)
  6
Continuous
 62
     7
100
AcDbEllipse
 10
65.8940575533
 20
556.9560238253
 30
0.0
 11
2.750000000002962
 21
7.216449660063518E-13
 31
0.0
210
0.0
220
0.0
230
1.0
 40
0.4648420457
 41
0.9835181589391291
 42
1.110876943453042
  0
LINE
  5
177
330
71
100
AcDbEntity
  8
$DDT_AUDIT_GENERATED_(E8)
  6
Continuous
 62
     7
100
AcDbLine
 10
67.1147161924
 20
559.1524857792
 30
0.0
 11
67.1147161924
 21
558.1015074811
 31
0.0
  0
LINE
  5
178
330
71
100
AcDbEntity
  8
$DDT_AUDIT_GENERATED_(E8)
  6
Continuous
 62
     7
100
AcDbLine
 10
67.4178250837
 20
558.0201601231
 30
0.0
 11
68.5056470679
 21
558.8959982815
 31
0.0
  0
LINE
  5
179
330
71
100
AcDbEntity
  8
$DDT_AUDIT_GENERATED_(E8)
  6
Continuous
 62
     7
100
AcDbLine
 10
67.1147161924
 20
558.1015074811
 30
0.0
 11
68.1961813877
 21
558.9722275978
 31
0.0
  0
ELLIPSE
  5
17A
330
71
100
AcDbEntity
  8
$DDT_AUDIT_GENERATED_(E8)
  6
Continuous
 62
     7
100
AcDbEllipse
 10
65.8940575533
 20
556.9560238253
 30
0.0
 11
2.749999999995071
 21
-5.134781488891349E-12
 31
0.0
210
0.0
220
0.0
230
1.0
 40
0.4648420457
 41
0.4599193833425332
 42
0.587278167856727
  0
LINE
  5
17B
330
71
100
AcDbEntity
  8
$DDT_AUDIT_GENERATED_(E8)
  6
Continuous
 62
     7
100
AcDbLine
 10
68.1833003349
 20
558.6364672432
 30
0.0
 11
68.1833003349
 21
557.6643350414
 31
0.0
  0
LINE
  5
17C
330
71
100
AcDbEntity
  8
$DDT_AUDIT_GENERATED_(E8)
  6
Continuous
 62
     7
100
AcDbLine
 10
68.3583003349
 20
557.5234372842
 30
0.0
 11
70.3612577872
 21
558.0609843559
 31
0.0
  0
LINE
  5
17D
330
71
100
AcDbEntity
  8
$DDT_AUDIT_GENERATED_(E8)
  6
Continuous
 62
     7
100
AcDbLine
 10
68.1833003349
 20
557.6643350414
 30
0.0
 11
70.1671621795
 21
558.1967572972
 31
0.0
  0
ELLIPSE
  5
17E
330
71
100
AcDbEntity
  8
$DDT_AUDIT_GENERATED_(E8)
  6
Continuous
 62
     7
100
AcDbEllipse
 10
65.8940575532
 20
556.9560238253
 30
0.0
 11
-2.750000000096471
 21
4.357625371653739E-12
 31
0.0
210
0.0
220
0.0
230
1.0
 40
0.4648420457
 41
3.141592653589793
 42
3.205272045846534
  0
LINE
  5
17F
330
71
100
AcDbEntity
  8
$DDT_AUDIT_GENERATED_(E8)
  6
Continuous
 62
     7
100
AcDbLine
 10
68.6384837228
 20
557.5986319717
 30
0.0
 11
68.6384837228
 21
557.0373711833
 31
0.0
  0
LINE
  5
180
330
71
100
AcDbEntity
  8
$DDT_AUDIT_GENERATED_(E8)
  6
Continuous
 62
     7
100
AcDbLine
 10
68.6440575533
 20
556.8746764673
 30
0.0
 11
71.1400166767
 21
556.8746764673
 31
0.0
  0
LINE
  5
181
330
71
100
AcDbEntity
  8
$DDT_AUDIT_GENERATED_(E8)
  6
Continuous
 62
     7
100
AcDbLine
 10
68.6384837228
 20
557.0373711833
 30
0.0
 11
71.1145389889
 21
557.0373711833
 31
0.0
  0
ELLIPSE
  5
182
330
71
100
AcDbEntity
  8
$DDT_AUDIT_GENERATED_(E8)
  6
Continuous
 62
     7
100
AcDbEllipse
 10
65.8940575541
 20
556.9560238251
 30
0.0
 11
5.249999999240968
 21
2.274291865944633E-10
 31
0.0
210
0.0
220
0.0
230
1.0
 40
0.4648420457
 41
-0.5569382849182105
 42
-0.4902592663900958
  0
LINE
  5
183
330
71
100
AcDbEntity
  8
$DDT_AUDIT_GENERATED_(E8)
  6
Continuous
 62
     7
100
AcDbLine
 10
68.3492995222
 20
556.2031622984
 30
0.0
 11
70.3506643137
 21
555.6660426598
 31
0.0
  0
LINE
  5
184
330
71
100
AcDbEntity
  8
$DDT_AUDIT_GENERATED_(E8)
  6
Continuous
 62
     7
100
AcDbLine
 10
68.4875955866
 20
556.353910536
 30
0.0
 11
70.5256643137
 21
555.8069404169
 31
0.0
  0
LINE
  5
185
330
71
100
AcDbEntity
  8
$DDT_AUDIT_GENERATED_(E8)
  6
Continuous
 62
     7
100
AcDbLine
 10
70.5256643137
 20
556.8746764673
 30
0.0
 11
70.5256643137
 21
555.8069404169
 31
0.0
  0
ELLIPSE
  5
186
330
71
100
AcDbEntity
  8
$DDT_AUDIT_GENERATED_(E8)
  6
Continuous
 62
     7
100
AcDbEllipse
 10
65.8940575538
 20
556.9560238249
 30
0.0
 11
5.249999999342443
 21
2.720601521843946E-10
 31
0.0
210
0.0
220
0.0
230
1.0
 40
0.4648420457
 41
-1.080537060528297
 42
-1.013858041998976
  0
LINE
  5
187
330
71
100
AcDbEntity
  8
$DDT_AUDIT_GENERATED_(E8)
  6
Continuous
 62
     7
100
AcDbLine
 10
67.2824348775
 20
555.6755048178
 30
0.0
 11
68.366044369
 21
554.8030582638
 31
0.0
  0
LINE
  5
188
330
71
100
AcDbEntity
  8
$DDT_AUDIT_GENERATED_(E8)
  6
Continuous
 62
     7
100
AcDbLine
 10
67.5733687326
 20
555.7666546632
 30
0.0
 11
68.6691532603
 21
554.8844056218
 31
0.0
  0
LINE
  5
189
330
71
100
AcDbEntity
  8
$DDT_AUDIT_GENERATED_(E8)
  6
Continuous
 62
     7
100
AcDbLine
 10
68.6691532603
 20
556.1173210141
 30
0.0
 11
68.6691532603
 21
554.8844056218
 31
0.0
  0
ARC
  5
18A
330
71
100
AcDbEntity
  8
$DDT_AUDIT_GENERATED_(E8)
  6
Continuous
 62
     7
100
AcDbCircle
 10
65.8940575533
 20
565.80484203
 30
0.0
 40
11.28923924026884
100
AcDbArc
 50
269.1117946205
 51
270.8882053795
  0
LINE
  5
18B
330
71
100
AcDbEntity
  8
$DDT_AUDIT_GENERATED_(E8)
  6
Continuous
 62
     7
100
AcDbLine
 10
65.7190575533
 20
555.5032204252
 30
0.0
 11
65.7190575533
 21
554.5169592514
 31
0.0
  0
LINE
  5
18C
330
71
100
AcDbEntity
  8
$DDT_AUDIT_GENERATED_(E8)
  6
Continuous
 62
     7
100
AcDbLine
 10
66.0690575533
 20
555.5032204252
 30
0.0
 11
66.0690575533
 21
554.5169592514
 31
0.0
  0
ELLIPSE
  5
18D
330
71
100
AcDbEntity
  8
$DDT_AUDIT_GENERATED_(E8)
  6
Continuous
 62
     7
100
AcDbEllipse
 10
65.8940575515
 20
556.9560238239
 30
0.0
 11
-5.24999999778943
 21
9.124367927881849E-10
 31
0.0
210
0.0
220
0.0
230
1.0
 40
0.4648420456
 41
1.013858042151037
 42
1.080537060696093
  0
LINE
  5
18E
330
71
100
AcDbEntity
  8
$DDT_AUDIT_GENERATED_(E8)
  6
Continuous
 62
     7
100
AcDbLine
 10
64.214746374
 20
555.7666546632
 30
0.0
 11
63.1189618463
 21
554.8844056218
 31
0.0
  0
LINE
  5
18F
330
71
100
AcDbEntity
  8
$DDT_AUDIT_GENERATED_(E8)
  6
Continuous
 62
     7
100
AcDbLine
 10
64.5056802291
 20
555.6755048178
 30
0.0
 11
63.4220707376
 21
554.8030582638
 31
0.0
  0
LINE
  5
190
330
71
100
AcDbEntity
  8
$DDT_AUDIT_GENERATED_(E8)
  6
Continuous
 62
     7
100
AcDbLine
 10
63.1189618463
 20
556.1173210141
 30
0.0
 11
63.1189618463
 21
554.8844056218
 31
0.0
  0
ELLIPSE
  5
191
330
71
100
AcDbEntity
  8
$DDT_AUDIT_GENERATED_(E8)
  6
Continuous
 62
     7
100
AcDbEllipse
 10
65.8940575528
 20
556.9560238252
 30
0.0
 11
-5.249999999504803
 21
1.501021529293212E-10
 31
0.0
210
0.0
220
0.0
230
1.0
 40
0.4648420457
 41
0.4902592663718398
 42
0.5569382848980218
  0
LINE
  5
192
330
71
100
AcDbEntity
  8
$DDT_AUDIT_GENERATED_(E8)
  6
Continuous
 62
     7
100
AcDbLine
 10
63.30051952
 20
556.353910536
 30
0.0
 11
61.2624507929
 21
555.8069404169
 31
0.0
  0
LINE
  5
193
330
71
100
AcDbEntity
  8
$DDT_AUDIT_GENERATED_(E8)
  6
Continuous
 62
     7
100
AcDbLine
 10
63.4388155844
 20
556.2031622984
 30
0.0
 11
61.4374507929
 21
555.6660426598
 31
0.0
  0
LINE
  5
194
330
71
100
AcDbEntity
  8
$DDT_AUDIT_GENERATED_(E8)
  6
Continuous
 62
     7
100
AcDbLine
 10
61.2624507929
 20
556.8746764673
 30
0.0
 11
61.2624507929
 21
555.8069404169
 31
0.0
  0
LINE
  5
195
330
71
100
AcDbEntity
  8
$DDT_AUDIT_GENERATED_(E8)
  6
Continuous
 62
     7
100
AcDbLine
 10
63.1496313838
 20
557.5986319717
 30
0.0
 11
63.1496313838
 21
557.0373711833
 31
0.0
  0
ELLIPSE
  5
196
330
71
100
AcDbEntity
  8
$DDT_AUDIT_GENERATED_(E8)
  6
Continuous
 62
     7
100
AcDbEllipse
 10
65.8940575533
 20
556.9560238253
 30
0.0
 11
2.749999999995459
 21
0.0
 31
0.0
210
0.0
220
0.0
230
1.0
 40
0.4648420457
 41
3.077913261332791
 42
3.141592653589793
  0
LINE
  5
197
330
71
100
AcDbEntity
  8
$DDT_AUDIT_GENERATED_(E8)
  6
Continuous
 62
     7
100
AcDbLine
 10
63.1496313838
 20
557.0373711833
 30
0.0
 11
60.6735761177
 21
557.0373711833
 31
0.0
  0
LINE
  5
198
330
71
100
AcDbEntity
  8
$DDT_AUDIT_GENERATED_(E8)
  6
Continuous
 62
     7
100
AcDbLine
 10
63.1440575533
 20
556.8746764673
 30
0.0
 11
60.6480984299
 21
556.8746764673
 31
0.0
  0
LINE
  5
199
330
71
100
AcDbEntity
  8
$DDT_AUDIT_GENERATED_(E8)
  6
Continuous
 62
     7
100
AcDbLine
 10
63.6048147717
 20
558.6364672432
 30
0.0
 11
63.6048147717
 21
557.6643350414
 31
0.0
  0
ELLIPSE
  5
19A
330
71
100
AcDbEntity
  8
$DDT_AUDIT_GENERATED_(E8)
  6
Continuous
 62
     7
100
AcDbEllipse
 10
65.8940575533
 20
556.9560238253
 30
0.0
 11
-2.749999999994871
 21
-1.637578961322106E-12
 31
0.0
210
0.0
220
0.0
230
1.0
 40
0.4648420457
 41
-0.5872781678560965
 42
-0.4599193833419291
  0
LINE
  5
19B
330
71
100
AcDbEntity
  8
$DDT_AUDIT_GENERATED_(E8)
  6
Continuous
 62
     7
100
AcDbLine
 10
63.6048147717
 20
557.6643350414
 30
0.0
 11
61.6209529271
 21
558.1967572972
 31
0.0
  0
LINE
  5
19C
330
71
100
AcDbEntity
  8
$DDT_AUDIT_GENERATED_(E8)
  6
Continuous
 62
     7
100
AcDbLine
 10
63.4298147717
 20
557.5234372842
 30
0.0
 11
61.4268573194
 21
558.0609843559
 31
0.0
  0
LINE
  5
19D
330
71
100
AcDbEntity
  8
$DDT_AUDIT_GENERATED_(E8)
  6
Continuous
 62
     7
100
AcDbLine
 10
64.6733989142
 20
559.1524857792
 30
0.0
 11
64.6733989142
 21
558.1015074811
 31
0.0
  0
ELLIPSE
  5
19E
330
71
100
AcDbEntity
  8
$DDT_AUDIT_GENERATED_(E8)
  6
Continuous
 62
     7
100
AcDbEllipse
 10
65.8940575533
 20
556.9560238253
 30
0.0
 11
-2.750000000041533
 21
1.654232306691483E-11
 31
0.0
210
0.0
220
0.0
230
1.0
 40
0.4648420457
 41
-1.110876943444808
 42
-0.9835181589323199
  0
LINE
  5
19F
330
71
100
AcDbEntity
  8
$DDT_AUDIT_GENERATED_(E8)
  6
Continuous
 62
     7
100
AcDbLine
 10
64.6733989142
 20
558.1015074811
 30
0.0
 11
63.5919337189
 21
558.9722275978
 31
0.0
  0
LINE
  5
1A0
330
71
100
AcDbEntity
  8
$DDT_AUDIT_GENERATED_(E8)
  6
Continuous
 62
     7
100
AcDbLine
 10
64.3702900229
 20
558.0201601231
 30
0.0
 11
63.2824680387
 21
558.8959982815
 31
0.0
  0
LINE
  5
1A1
330
71
100
AcDbEntity
  8
$DDT_AUDIT_GENERATED_(E8)
  6
Continuous
 62
     7
100
AcDbLine
 10
56.8940575533
 20
559.1695078897
 30
0.0
 11
56.8940575533
 21
556.7789451001
 31
0.0
  0
LINE
  5
1A2
330
71
100
AcDbEntity
  8
$DDT_AUDIT_GENERATED_(E8)
  6
Continuous
 62
     7
100
AcDbLine
 10
74.8940575533
 20
556.7789451001
 30
0.0
 11
74.8940575533
 21
559.1695078897
 31
0.0
  0
LINE
  5
1A3
330
71
100
AcDbEntity
  8
$DDT_AUDIT_GENERATED_(E8)
  6
Continuous
 62
     7
100
AcDbLine
 10
59.6440575533
 20
556.9560238253
 30
0.0
 11
59.6440575533
 21
556.7789451001
 31
0.0
  0
LINE
  5
1A4
330
71
100
AcDbEntity
  8
$DDT_AUDIT_GENERATED_(E8)
  6
Continuous
 62
     7
100
AcDbLine
 10
72.1440575533
 20
556.7789451001
 30
0.0
 11
72.1440575533
 21
556.9560238253
 31
0.0
  0
LINE
  5
1A5
330
71
100
AcDbEntity
  8
$DDT_AUDIT_GENERATED_(E8)
  6
Continuous
 62
     7
100
AcDbLine
 10
63.1440575533
 20
556.9560238253
 30
0.0
 11
63.1440575533
 21
556.7789451001
 31
0.0
  0
LINE
  5
1A6
330
71
100
AcDbEntity
  8
$DDT_AUDIT_GENERATED_(E8)
  6
Continuous
 62
     7
100
AcDbLine
 10
68.6440575533
 20
556.7789451001
 30
0.0
 11
68.6440575533
 21
556.9560238253
 31
0.0
  0
LINE
  5
1A7
330
71
100
AcDbEntity
  8
$DDT_AUDIT_GENERATED_(E8)
  6
Continuous
 62
     7
100
AcDbLine
 10
65.3744276094
 20
557.7487269047
 30
0.0
 11
65.3744276094
 21
556.9560238253
 31
0.0
  0
LINE
  5
1A8
330
71
100
AcDbEntity
  8
$DDT_AUDIT_GENERATED_(E8)
  6
Continuous
 62
     7
100
AcDbLine
 10
66.4136874972
 20
556.9560238253
 30
0.0
 11
66.4136874972
 21
557.7487269047
 31
0.0
  0
ARC
  5
1AA
330
71
100
AcDbEntity
  8
$DDT_AUDIT_GENERATED_(1A9)
  6
Continuous
 62
     7
100
AcDbCircle
 10
65.8940575533
 20
547.4514686503
 30
0.0
 40
24.50000000000002
100
AcDbArc
 50
160.1066584087
 51
164.8572685595
  0
ARC
  5
1AB
330
71
100
AcDbEntity
  8
$DDT_AUDIT_GENERATED_(1A9)
  6
Continuous
 62
     7
100
AcDbCircle
 10
65.8940575533
 20
547.4514686503
 30
0.0
 40
24.50000000000001
100
AcDbArc
 50
15.1427314405
 51
19.8774845374
  0
ENDBLK
  5
1AD
330
71
100
AcDbEntity
  8
0
100
AcDbBlockEnd
  0
BLOCK
  5
1FD
330
1AE
100
AcDbEntity
  8
0
100
AcDbBlockBegin
  2
SE1
 70
     0
 10
0.0
 20
0.0
 30
0.0
  3
SE1
  1

  0
LINE
  5
1B0
330
1AE
100
AcDbEntity
  8
$DDT_AUDIT_GENERATED_(73)
  6
Continuous
 62
     7
100
AcDbLine
 10
401.3108094622
 20
581.5954308765
 30
0.0
 11
194.9674590545
 21
545.2115256311
 31
0.0
  0
ARC
  5
1B1
330
1AE
100
AcDbEntity
  8
$DDT_AUDIT_GENERATED_(73)
  6
Continuous
 62
     7
100
AcDbCircle
 10
1037.9777063069
 20
-2358.5689870455
 30
0.0
 40
3001.417955804619
100
AcDbArc
 50
102.0781068685
 51
102.2460715463
  0
ARC
  5
1B2
330
1AE
100
AcDbEntity
  8
$DDT_AUDIT_GENERATED_(73)
  6
Continuous
 62
     7
100
AcDbCircle
 10
729.0758956307
 20
-989.6678652986
 30
0.0
 40
1598.185396440286
100
AcDbArc
 50
101.8332700322
 51
102.2155856682
  0
ARC
  5
1B3
330
1AE
100
AcDbEntity
  8
$DDT_AUDIT_GENERATED_(73)
  6
Continuous
 62
     7
100
AcDbCircle
 10
-43234.3759239425
 20
205511.484168159
 30
0.0
 40
209530.9573186814
100
AcDbArc
 50
281.9571650058
 51
282.0171527783
  0
ARC
  5
1B4
330
1AE
100
AcDbEntity
  8
$DDT_AUDIT_GENERATED_(73)
  6
Continuous
 62
     7
100
AcDbCircle
 10
401.3976335226
 20
581.1030272326
 30
0.0
 40
0.49999976595065
100
AcDbArc
 50
58.2816926933
 51
100.0000014222
  0
ARC
  5
1B5
330
1AE
100
AcDbEntity
  8
$DDT_AUDIT_GENERATED_(73)
  6
Continuous
 62
     7
100
AcDbCircle
 10
409.683346746
 20
575.9820436928
 30
0.0
 40
0.5000003537884136
100
AcDbArc
 50
354.8944040377
 51
58.2818447566
  0
LINE
  5
1B6
330
1AE
100
AcDbEntity
  8
$DDT_AUDIT_GENERATED_(73)
  6
Continuous
 62
     7
100
AcDbLine
 10
175.4353831572
 20
388.6589483694
 30
0.0
 11
200.9353831572
 21
388.6589483694
 31
0.0
  0
LINE
  5
1B7
330
1AE
100
AcDbEntity
  8
$DDT_AUDIT_GENERATED_(73)
  6
Continuous
 62
     7
100
AcDbLine
 10
401.6605054581
 20
581.5283491337
 30
0.0
 11
409.9462175421
 21
576.4073662743
 31
0.0
  0
ARC
  5
1B8
330
1AE
100
AcDbEntity
  8
$DDT_AUDIT_GENERATED_(73)
  6
Continuous
 62
     7
100
AcDbCircle
 10
393.9667370914
 20
578.1108897601
 30
0.0
 40
16.35963073070759
100
AcDbArc
 50
314.5044154847
 51
352.3658097446
  0
SPLINE
  5
1B9
330
1AE
100
AcDbEntity
  8
$DDT_AUDIT_GENERATED_(73)
  6
Continuous
 62
     7
100
AcDbSpline
210
0.0
220
0.0
230
1.0
 70
     8
 71
     3
 72
    52
 73
    48
 74
     0
 42
0.0000000000544112
 43
0.0000000001
 40
0.0
 40
0.0
 40
0.0
 40
0.0
 40
0.0625
 40
0.0625
 40
0.125
 40
0.125
 40
0.1874999999999999
 40
0.1874999999999999
 40
0.2499999999999999
 40
0.2499999999999999
 40
0.2812499999999999
 40
0.2812499999999999
 40
0.3124999999999999
 40
0.3124999999999999
 40
0.3437499999999999
 40
0.3437499999999999
 40
0.3749999999999999
 40
0.3749999999999999
 40
0.4375000000000001
 40
0.4375000000000001
 40
0.5000000000000003
 40
0.5000000000000003
 40
0.5625000000000008
 40
0.5625000000000008
 40
0.5937500000000008
 40
0.5937500000000008
 40
0.6250000000000008
 40
0.6250000000000008
 40
0.6875000000000007
 40
0.6875000000000007
 40
0.7187500000000007
 40
0.7187500000000007
 40
0.7500000000000006
 40
0.7500000000000006
 40
0.7812500000000006
 40
0.7812500000000006
 40
0.8125000000000006
 40
0.8125000000000006
 40
0.8750000000000003
 40
0.8750000000000003
 40
0.9062500000000002
 40
0.9062500000000002
 40
0.9375000000000001
 40
0.9375000000000001
 40
0.96875
 40
0.96875
 40
1.0
 40
1.0
 40
1.0
 40
1.0
 10
204.7662488454701
 20
512.5094547799912
 30
0.0
 10
208.4876017098179
 20
513.4044169421726
 30
0.0
 10
212.2063096733177
 20
514.2987430318227
 30
0.0
 10
219.6511895723368
 20
516.0891902498665
 30
0.0
 10
223.3794696902669
 20
516.9858183829917
 30
0.0
 10
230.8181967914669
 20
518.7747858914855
 30
0.0
 10
234.5366312497754
 20
519.6690462048175
 30
0.0
 10
241.9775468923395
 20
521.4585400438501
 30
0.0
 10
245.6922268461276
 20
522.3518974222575
 30
0.0
 10
251.2838300882042
 20
523.6966431541356
 30
0.0
 10
253.1501463051074
 20
524.145480573087
 30
0.0
 10
256.8757515269966
 20
525.041465410383
 30
0.0
 10
258.7328957969959
 20
525.488097033357
 30
0.0
 10
262.4480673978193
 20
526.3815726498226
 30
0.0
 10
264.308038157149
 20
526.828884025703
 30
0.0
 10
268.0427507965403
 20
527.727059139735
 30
0.0
 10
269.9148762221038
 20
528.1772936369889
 30
0.0
 10
275.5187753034193
 20
529.5249964426796
 30
0.0
 10
279.2334616716244
 20
530.418355364617
 30
0.0
 10
286.6635715463195
 20
532.2052504740551
 30
0.0
 10
290.3793539976785
 20
533.0988730336757
 30
0.0
 10
297.817680295327
 20
534.8877441287068
 30
0.0
 10
301.5361974303943
 20
535.7820241234925
 30
0.0
 10
307.1326723050082
 20
537.1279418422349
 30
0.0
 10
309.0003346351752
 20
537.5771031692829
 30
0.0
 10
312.7296057131858
 20
538.473969265995
 30
0.0
 10
314.5900458510276
 20
538.9213927301656
 30
0.0
 10
320.1649192770457
 20
540.2621144848697
 30
0.0
 10
323.87545997998
 20
541.1544871686713
 30
0.0
 10
329.4630505853711
 20
542.4982555033478
 30
0.0
 10
331.3296422802708
 20
542.9471473829384
 30
0.0
 10
335.0599438591086
 20
543.8442633441966
 30
0.0
 10
336.9223440421686
 20
544.2921847500959
 30
0.0
 10
340.6402978499271
 20
545.1863762411359
 30
0.0
 10
342.4971812051786
 20
545.6329519765055
 30
0.0
 10
346.2156669277633
 20
546.5270599020644
 30
0.0
 10
348.0768244311975
 20
546.9745071376169
 30
0.0
 10
353.6574257555222
 20
548.3168269981895
 30
0.0
 10
357.3674970153643
 20
549.2109789661959
 30
0.0
 10
362.9660367395099
 20
550.553375015288
 30
0.0
 10
364.8356234023922
 20
551.0013446494029
 30
0.0
 10
368.5627396675553
 20
551.901834599523
 30
0.0
 10
370.4178975241443
 20
552.3537595305795
 30
0.0
 10
374.1256998729978
 20
553.2728350883931
 30
0.0
 10
375.9809054710427
 20
553.7405493410615
 30
0.0
 10
379.6979023024621
 20
554.702179836312
 30
0.0
 10
381.5564356174612
 20
555.1954095900898
 30
0.0
 10
383.4018216157353
 20
555.7027817122572
 30
0.0
  0
ARC
  5
1BA
330
1AE
100
AcDbEntity
  8
$DDT_AUDIT_GENERATED_(73)
  6
Continuous
 62
     7
100
AcDbCircle
 10
205.9353830446
 20
507.6480636009
 30
0.0
 40
4.999999897146456
100
AcDbArc
 50
103.5224793751
 51
180.0000008082
  0
LINE
  5
1BB
330
1AE
100
AcDbEntity
  8
$DDT_AUDIT_GENERATED_(73)
  6
Continuous
 62
     7
100
AcDbLine
 10
149.9353831572
 20
388.6589483694
 30
0.0
 11
175.4353831572
 21
388.6589483694
 31
0.0
  0
LINE
  5
1BC
330
1AE
100
AcDbEntity
  8
$DDT_AUDIT_GENERATED_(73)
  6
Continuous
 62
     7
100
AcDbLine
 10
199.895236791
 20
553.8514686503
 30
0.0
 11
175.4353831569
 21
553.8514686503
 31
0.0
  0
LINE
  5
1BD
330
1AE
100
AcDbEntity
  8
$DDT_AUDIT_GENERATED_(73)
  6
Continuous
 62
     7
100
AcDbLine
 10
150.9756326379
 20
553.8514686503
 30
0.0
 11
175.4353831569
 21
553.8514686503
 31
0.0
  0
SPLINE
  5
1BE
330
1AE
100
AcDbEntity
  8
$DDT_AUDIT_GENERATED_(73)
  6
Continuous
 62
     7
100
AcDbSpline
210
0.0
220
0.0
230
1.0
 70
     8
 71
     3
 72
    12
 73
     8
 74
     0
 42
0.0000000076314354
 43
0.0000000001
 40
0.0
 40
0.0
 40
0.0
 40
0.0
 40
0.5000000000000003
 40
0.5000000000000003
 40
0.7500000000000001
 40
0.7500000000000001
 40
1.0
 40
1.0
 40
1.0
 40
1.0
 10
405.4342530280756
 20
566.4432594999755
 30
0.0
 10
405.4341901524948
 20
566.443380721733
 30
0.0
 10
405.3241340840905
 20
566.4199109391006
 30
0.0
 10
405.0034010842034
 20
566.3528284456069
 30
0.0
 10
404.8701872790749
 20
566.3252845473696
 30
0.0
 10
404.5496566564924
 20
566.2596262827011
 30
0.0
 10
404.3620058192548
 20
566.2213389162229
 30
0.0
 10
404.1508523925969
 20
566.1793176823414
 30
0.0
  0
ARC
  5
1BF
330
1AE
100
AcDbEntity
  8
$DDT_AUDIT_GENERATED_(73)
  6
Continuous
 62
     7
100
AcDbCircle
 10
400.8483269495
 20
544.6855523543
 30
0.0
 40
20.63394996329299
100
AcDbArc
 50
110.1585159717
 51
147.7281498897
  0
ARC
  5
1C0
330
1AE
100
AcDbEntity
  8
$DDT_AUDIT_GENERATED_(73)
  6
Continuous
 62
     7
100
AcDbCircle
 10
400.7658921459
 20
544.7875573518
 30
0.0
 40
20.50982857595954
100
AcDbArc
 50
147.5012711784
 51
147.8461302841
  0
ARC
  5
1C1
330
1AE
100
AcDbEntity
  8
$DDT_AUDIT_GENERATED_(73)
  6
Continuous
 62
     7
100
AcDbCircle
 10
413.3290492353
 20
494.5855846017
 30
0.0
 40
72.1796502741835
100
AcDbArc
 50
97.305376184
 51
105.7492483762
  0
ARC
  5
1C2
330
1AE
100
AcDbEntity
  8
$DDT_AUDIT_GENERATED_(73)
  6
Continuous
 62
     7
100
AcDbCircle
 10
124.6058389968
 20
491.6589483701
 30
0.0
 40
25.50658360838048
100
AcDbArc
 50
353.2454254676
 51
6.7545750007
  0
SPLINE
  5
1C3
330
1AE
100
AcDbEntity
  8
$DDT_AUDIT_GENERATED_(73)
  6
Continuous
 62
     7
100
AcDbSpline
210
0.0
220
0.0
230
1.0
 70
     8
 71
     3
 72
    15
 73
    11
 74
     0
 42
0.0000000011394356
 43
0.0000000001
 40
0.0
 40
0.0
 40
0.0
 40
0.0
 40
0.1145127777306679
 40
0.2375633484483302
 40
0.3670452775033639
 40
0.5000000000000162
 40
0.6329547224966557
 40
0.7624366515516869
 40
0.8854872222693428
 40
1.0
 40
1.0
 40
1.0
 40
1.0
 10
206.8036241677163
 20
547.2985611915017
 30
0.0
 10
206.4407769225197
 20
547.2531207965521
 30
0.0
 10
205.8008556399236
 20
547.1827789957264
 30
0.0
 10
204.7139615083221
 20
547.3326866278352
 30
0.0
 10
203.6613329016796
 20
547.7206788499008
 30
0.0
 10
202.6922681741472
 20
548.3576059053838
 30
0.0
 10
201.8967411268927
 20
549.2013471199996
 30
0.0
 10
201.3318563151422
 20
550.1706097765374
 30
0.0
 10
200.9954889056254
 20
551.2149603485625
 30
0.0
 10
200.9536408759274
 20
551.8573745134694
 30
0.0
 10
200.9353831572122
 20
552.2225999350206
 30
0.0
  0
LINE
  5
1C4
330
1AE
100
AcDbEntity
  8
$DDT_AUDIT_GENERATED_(73)
  6
Continuous
 62
     7
100
AcDbLine
 10
200.9353831572
 20
552.222599935
 30
0.0
 11
200.9353831572
 21
553.3564774959
 31
0.0
  0
LINE
  5
1C5
330
1AE
100
AcDbEntity
  8
$DDT_AUDIT_GENERATED_(73)
  6
Continuous
 62
     7
100
AcDbLine
 10
200.9353831572
 20
388.6539473695
 30
0.0
 11
200.9353831572
 21
507.6480679416
 31
0.0
  0
LINE
  5
1C6
330
1AE
100
AcDbEntity
  8
$DDT_AUDIT_GENERATED_(73)
  6
Continuous
 62
     7
100
AcDbLine
 10
149.9353831572
 20
488.6965622447
 30
0.0
 11
149.9353831572
 21
388.6539473695
 31
0.0
  0
LINE
  5
1C7
330
1AE
100
AcDbEntity
  8
$DDT_AUDIT_GENERATED_(73)
  6
Continuous
 62
     7
100
AcDbLine
 10
149.9353831572
 20
553.3564774959
 30
0.0
 11
149.9353831572
 21
494.6589483694
 31
0.0
  0
SPLINE
  5
1C8
330
1AE
100
AcDbEntity
  8
$DDT_AUDIT_GENERATED_(73)
  6
Continuous
 62
     7
100
AcDbSpline
210
0.0
220
0.0
230
1.0
 70
     8
 71
     3
 72
    10
 73
     6
 74
     0
 42
0.0000000073200429
 43
0.0000000001
 40
0.0
 40
0.0
 40
0.0
 40
0.0
 40
0.4657296029662181
 40
0.9268492432616038
 40
1.0
 40
1.0
 40
1.0
 40
1.0
 10
200.9354451950567
 20
553.3514686503476
 30
0.0
 10
200.8681263820479
 20
553.5100650055589
 30
0.0
 10
200.7462282264933
 20
553.7684026655895
 30
0.0
 10
200.2112293871831
 20
553.8532113132511
 30
0.0
 10
199.8956388614352
 20
553.8518844055939
 30
0.0
 10
199.8447466060545
 20
553.8513811233556
 30
0.0
  0
SPLINE
  5
1C9
330
1AE
100
AcDbEntity
  8
$DDT_AUDIT_GENERATED_(73)
  6
Continuous
 62
     7
100
AcDbSpline
210
0.0
220
0.0
230
1.0
 70
     8
 71
     3
 72
    10
 73
     6
 74
     0
 42
0.0000000073193385
 43
0.0000000001
 40
0.0
 40
0.0
 40
0.0
 40
0.0
 40
0.0730485486613987
 40
0.5342196731876536
 40
1.0
 40
1.0
 40
1.0
 40
1.0
 10
151.0261042203501
 20
553.851382849364
 30
0.0
 10
150.9752875437312
 20
553.8518845969375
 30
0.0
 10
150.6597501162126
 20
553.8532076927389
 30
0.0
 10
150.1245464842054
 20
553.7684777137313
 30
0.0
 10
150.0026537733854
 20
553.5100897323506
 30
0.0
 10
149.9353240758813
 20
553.3514686503476
 30
0.0
  0
LINE
  5
1CB
330
1AE
100
AcDbEntity
  8
$DDT_AUDIT_GENERATED_(1CA)
  6
Continuous
 62
     7
100
AcDbLine
 10
149.985364146
 20
494.2589483694
 30
0.0
 11
149.985364146
 21
489.0589483694
 31
0.0
  0
LINE
  5
1CC
330
1AE
100
AcDbEntity
  8
$DDT_AUDIT_GENERATED_(AD)
  6
Continuous
 62
     7
100
AcDbLine
 10
178.8082586777
 20
586.3763168351
 30
0.0
 11
153.7520461115
 21
581.9582309283
 31
0.0
  0
ARC
  5
1CD
330
1AE
100
AcDbEntity
  8
$DDT_AUDIT_GENERATED_(AD)
  6
Continuous
 62
     7
100
AcDbCircle
 10
153.8388701895
 20
581.4658270616
 30
0.0
 40
0.4999999884904517
100
AcDbArc
 50
99.999998972
 51
173.6601229896
  0
ARC
  5
1CE
330
1AE
100
AcDbEntity
  8
$DDT_AUDIT_GENERATED_(AD)
  6
Continuous
 62
     7
100
AcDbCircle
 10
-1061.898243501
 20
7808.7529536083
 30
0.0
 40
7331.796272071801
100
AcDbArc
 50
279.773014422
 51
280.2761381071
  0
ARC
  5
1CF
330
1AE
100
AcDbEntity
  8
$DDT_AUDIT_GENERATED_(AD)
  6
Continuous
 62
     7
100
AcDbCircle
 10
266.3290093083
 20
601.3008718104
 30
0.0
 40
0.5000000160428069
100
AcDbArc
 50
62.4538474918
 51
99.9999973393
  0
LINE
  5
1D0
330
1AE
100
AcDbEntity
  8
$DDT_AUDIT_GENERATED_(AD)
  6
Continuous
 62
     7
100
AcDbLine
 10
266.2421855712
 20
601.7932757695
 30
0.0
 11
178.8082586614
 21
586.3763168322
 31
0.0
  0
ARC
  5
1D1
330
1AE
100
AcDbEntity
  8
$DDT_AUDIT_GENERATED_(AD)
  6
Continuous
 62
     7
100
AcDbCircle
 10
202.7093685308
 20
580.812392306
 30
0.0
 40
3.000000035352106
100
AcDbArc
 50
101.8148241607
 51
181.7699729273
  0
ARC
  5
1D2
330
1AE
100
AcDbEntity
  8
$DDT_AUDIT_GENERATED_(AD)
  6
Continuous
 62
     7
100
AcDbCircle
 10
196.8941569431
 20
664.0404566125
 30
0.0
 40
83.36831960531237
100
AcDbArc
 50
259.9467100078
 51
271.9361367747
  0
ARC
  5
1D3
330
1AE
100
AcDbEntity
  8
$DDT_AUDIT_GENERATED_(AD)
  6
Continuous
 62
     7
100
AcDbCircle
 10
270.287539592
 20
599.2361367977
 30
0.0
 40
0.5000001138631829
100
AcDbArc
 50
289.2712948468
 51
62.4537764096
  0
ARC
  5
1D4
330
1AE
100
AcDbEntity
  8
$DDT_AUDIT_GENERATED_(AD)
  6
Continuous
 62
     7
100
AcDbCircle
 10
396.284128559
 20
-205.4983837283
 30
0.0
 40
814.0465664236194
100
AcDbArc
 50
98.8921712954
 51
100.6358309785
  0
ARC
  5
1D5
330
1AE
100
AcDbEntity
  8
$DDT_AUDIT_GENERATED_(AD)
  6
Continuous
 62
     7
100
AcDbCircle
 10
198.051506021
 20
848.4713614781
 30
0.0
 40
259.9915429375154
100
AcDbArc
 50
280.6980692619
 51
286.1691882339
  0
LINE
  5
1D6
330
1AE
100
AcDbEntity
  8
$DDT_AUDIT_GENERATED_(AD)
  6
Continuous
 62
     7
100
AcDbLine
 10
202.0951206012
 20
583.7488356762
 30
0.0
 11
246.3146470046
 21
592.9987178909
 31
0.0
  0
LINE
  5
1D7
330
1AE
100
AcDbEntity
  8
$DDT_AUDIT_GENERATED_(AD)
  6
Continuous
 62
     7
100
AcDbLine
 10
199.9522874463
 20
572.9050285012
 30
0.0
 11
199.7107998646
 21
580.7197314808
 31
0.0
  0
LINE
  5
1D8
330
1AE
100
AcDbEntity
  8
$DDT_AUDIT_GENERATED_(AD)
  6
Continuous
 62
     7
100
AcDbLine
 10
175.6284146594
 20
556.5402738533
 30
0.0
 11
152.385199045
 21
571.099080115
 31
0.0
  0
SPLINE
  5
1D9
330
1AE
100
AcDbEntity
  8
$DDT_AUDIT_GENERATED_(AD)
  6
Continuous
 62
     7
100
AcDbSpline
210
0.0
220
0.0
230
1.0
 70
     8
 71
     3
 72
     8
 73
     4
 74
     0
 42
0.000000016299871
 43
0.0000000001
 40
0.9765253049656051
 40
0.9765253049656051
 40
0.9765253049656051
 40
0.9765253049656051
 40
1.0
 40
1.0
 40
1.0
 40
1.0
 10
200.4575936271954
 20
556.0869293638123
 30
0.0
 10
200.4671914834975
 20
556.0869258933856
 30
0.0
 10
200.471995221129
 20
556.0869241573533
 30
0.0
 10
200.4719953934817
 20
556.0869241509301
 30
0.0
  0
LINE
  5
1DA
330
1AE
100
AcDbEntity
  8
$DDT_AUDIT_GENERATED_(AD)
  6
Continuous
 62
     7
100
AcDbLine
 10
200.1721385307
 20
555.7776580649
 30
0.0
 11
178.2825764938
 21
555.7776580649
 31
0.0
  0
ARC
  5
1DB
330
1AE
100
AcDbEntity
  8
$DDT_AUDIT_GENERATED_(AD)
  6
Continuous
 62
     7
100
AcDbCircle
 10
178.2825764938
 20
560.7776580649
 30
0.0
 40
4.999999999999431
100
AcDbArc
 50
237.9382882293
 51
270.0
  0
ARC
  5
1DC
330
1AE
100
AcDbEntity
  8
$DDT_AUDIT_GENERATED_(AD)
  6
Continuous
 62
     7
100
AcDbCircle
 10
200.1721385307
 20
556.0776580649
 30
0.0
 40
0.2999999975256583
100
AcDbArc
 50
270.0
 51
1.7699735849
  0
LINE
  5
1DD
330
1AE
100
AcDbEntity
  8
$DDT_AUDIT_GENERATED_(AD)
  6
Continuous
 62
     7
100
AcDbLine
 10
153.3432876159
 20
581.5330703793
 30
0.0
 11
152.2179711797
 21
571.4041830491
 31
0.0
  0
ARC
  5
1DE
330
1AE
100
AcDbEntity
  8
$DDT_AUDIT_GENERATED_(AD)
  6
Continuous
 62
     7
100
AcDbCircle
 10
153.8303372476
 20
581.4814541684
 30
0.0
 40
0.482198068009444
100
AcDbArc
 50
117.5532304973
 51
175.128965066
  0
LINE
  5
1DF
330
1AE
100
AcDbEntity
  8
$DDT_AUDIT_GENERATED_(AD)
  6
Continuous
 62
     7
100
AcDbLine
 10
266.4117666667
 20
601.7619904075
 30
0.0
 11
266.4094516864
 21
601.7750110467
 31
0.0
  0
ARC
  5
1E0
330
1AE
100
AcDbEntity
  8
$DDT_AUDIT_GENERATED_(AD)
  6
Continuous
 62
     7
100
AcDbCircle
 10
264.4079509955
 20
605.6496123819
 30
0.0
 40
4.37373025442814
100
AcDbArc
 50
295.0724138941
 51
297.2701606862
  0
ARC
  5
1E1
330
1AE
100
AcDbEntity
  8
$DDT_AUDIT_GENERATED_(AD)
  6
Continuous
 62
     7
100
AcDbCircle
 10
270.2867578811
 20
599.2351310604
 30
0.0
 40
0.5012541273066886
100
AcDbArc
 50
42.0387390222
 51
62.4283886148
  0
LINE
  5
1E2
330
1AE
100
AcDbEntity
  8
$DDT_AUDIT_GENERATED_(AD)
  6
Continuous
 62
     7
100
AcDbLine
 10
270.5185776375
 20
599.6795579551
 30
0.0
 11
266.531054578
 21
601.7594146457
 31
0.0
  0
ARC
  5
1E3
330
1AE
100
AcDbEntity
  8
$DDT_AUDIT_GENERATED_(AD)
  6
Continuous
 62
     7
100
AcDbCircle
 10
270.2867578746
 20
599.2351310535
 30
0.0
 40
0.5012541363412003
100
AcDbArc
 50
42.0386544221
 51
46.3752625686
  0
ARC
  5
1E4
330
1AE
100
AcDbEntity
  8
$DDT_AUDIT_GENERATED_(AD)
  6
Continuous
 62
     7
100
AcDbCircle
 10
270.2867578746
 20
599.2351310535
 30
0.0
 40
0.5012541363412003
100
AcDbArc
 50
50.0464660319
 51
62.4283883206
  0
LINE
  5
1E5
330
1AE
100
AcDbEntity
  8
$DDT_AUDIT_GENERATED_(AD)
  6
Continuous
 62
     7
100
AcDbLine
 10
199.9484942085
 20
572.5671333863
 30
0.0
 11
199.6965741029
 21
580.7216632358
 31
0.0
  0
LINE
  5
1E6
330
1AE
100
AcDbEntity
  8
$DDT_AUDIT_GENERATED_(AD)
  6
Continuous
 62
     7
100
AcDbLine
 10
200.4571699858
 20
556.0887625808
 30
0.0
 11
200.1606739577
 21
565.6937792024
 31
0.0
  0
ARC
  5
1E7
330
1AE
100
AcDbEntity
  8
$DDT_AUDIT_GENERATED_(AD)
  6
Continuous
 62
     7
100
AcDbCircle
 10
152.5161366732
 20
571.3710569495
 30
0.0
 40
0.3000000000000005
100
AcDbArc
 50
177.1081951818
 51
237.9382882293
  0
LINE
  5
1E9
330
1AE
100
AcDbEntity
  8
$DDT_AUDIT_GENERATED_(1E8)
  6
Continuous
 62
     7
100
AcDbLine
 10
200.0372369823
 20
572.8689695623
 30
0.0
 11
200.439017679
 21
565.2025371709
 31
0.0
  0
LINE
  5
1EA
330
1AE
100
AcDbEntity
  8
$DDT_AUDIT_GENERATED_(1E8)
  6
Continuous
 62
     7
100
AcDbLine
 10
200.172345045
 20
565.3157329881
 30
0.0
 11
200.439017679
 21
565.2025371709
 31
0.0
  0
LINE
  5
1EB
330
1AE
100
AcDbEntity
  8
$DDT_AUDIT_GENERATED_(1E8)
  6
Continuous
 62
     7
100
AcDbLine
 10
200.0372369823
 20
572.8689695623
 30
0.0
 11
199.9378676371
 21
572.9111493469
 31
0.0
  0
LINE
  5
1EC
330
1AE
100
AcDbEntity
  8
02636038_GEHÄUSE
  6
Continuous
 62
     7
100
AcDbLine
 10
406.0045220227
 20
562.130154542
 30
0.0
 11
386.968559069
 21
552.1360505589
 31
0.0
  0
LINE
  5
1ED
330
1AE
100
AcDbEntity
  8
02636038_GEHÄUSE
  6
Continuous
 62
     7
100
AcDbLine
 10
386.1970384681
 20
553.0677636562
 30
0.0
 11
405.6756982347
 21
563.2942886622
 31
0.0
  0
LINE
  5
1EE
330
1AE
100
AcDbEntity
  8
02636038_GEHÄUSE
  6
Continuous
 62
     7
100
AcDbLine
 10
385.3526845254
 20
554.6760209247
 30
0.0
 11
384.6443696248
 21
554.3041472882
 31
0.0
  0
LINE
  5
1EF
330
1AE
100
AcDbEntity
  8
02636038_GEHÄUSE
  6
Continuous
 62
     7
100
AcDbLine
 10
385.3526845254
 20
554.6760209247
 30
0.0
 11
386.1970384681
 21
553.0677636562
 31
0.0
  0
LINE
  5
1F0
330
1AE
100
AcDbEntity
  8
02636038_GEHÄUSE
  6
Continuous
 62
     7
100
AcDbLine
 10
386.1970384681
 20
553.0677636562
 30
0.0
 11
386.5996034884
 21
552.300990284
 31
0.0
  0
LINE
  5
1F1
330
1AE
100
AcDbEntity
  8
02636038_GEHÄUSE
  6
Continuous
 62
     7
100
AcDbLine
 10
404.831344292
 20
564.9025459307
 30
0.0
 11
405.5396591926
 21
565.2744195673
 31
0.0
  0
LINE
  5
1F2
330
1AE
100
AcDbEntity
  8
02636038_GEHÄUSE
  6
Continuous
 62
     7
100
AcDbLine
 10
406.078263255
 20
562.5275152899
 30
0.0
 11
405.6756982347
 21
563.2942886622
 31
0.0
  0
LINE
  5
1F3
330
1AE
100
AcDbEntity
  8
02636038_GEHÄUSE
  6
Continuous
 62
     7
100
AcDbLine
 10
405.6756982347
 20
563.2942886622
 30
0.0
 11
404.831344292
 21
564.9025459307
 31
0.0
  0
LINE
  5
1F4
330
1AE
100
AcDbEntity
  8
02636038_GEHÄUSE
  6
Continuous
 62
     7
100
AcDbLine
 10
386.6801164925
 20
552.1476356095
 30
0.0
 11
386.968559069
 21
552.1360505589
 31
0.0
  0
LINE
  5
1F5
330
1AE
100
AcDbEntity
  8
02636038_GEHÄUSE
  6
Continuous
 62
     7
100
AcDbLine
 10
406.0045220227
 20
562.130154542
 30
0.0
 11
406.1587762591
 21
562.3741606155
 31
0.0
  0
LINE
  5
1F6
330
1AE
100
AcDbEntity
  8
02636038_GEHÄUSE
  6
Continuous
 62
     7
100
AcDbLine
 10
383.701137499
 20
556.1007397426
 30
0.0
 11
384.6443696248
 21
554.3041472882
 31
0.0
  0
LINE
  5
1F7
330
1AE
100
AcDbEntity
  8
02636038_GEHÄUSE
  6
Continuous
 62
     7
100
AcDbLine
 10
405.5396591926
 20
565.2744195673
 30
0.0
 11
404.9761271236
 21
566.3477899871
 31
0.0
  0
LINE
  5
1F8
330
1AE
100
AcDbEntity
  8
$DDT_AUDIT_GENERATED_(E8)
  6
Continuous
 62
     7
100
AcDbLine
 10
404.641019996
 20
560.9625235117
 30
0.0
 11
388.7039347324
 21
552.5953666886
 31
0.0
  0
LINE
  5
1F9
330
1AE
100
AcDbEntity
  8
$DDT_AUDIT_GENERATED_(E8)
  6
Continuous
 62
     7
100
AcDbLine
 10
388.5179979141
 20
552.9495241389
 30
0.0
 11
388.7039347324
 21
552.5953666886
 31
0.0
  0
LINE
  5
1FA
330
1AE
100
AcDbEntity
  8
$DDT_AUDIT_GENERATED_(E8)
  6
Continuous
 62
     7
100
AcDbLine
 10
404.641019996
 20
560.9625235117
 30
0.0
 11
404.4550831777
 21
561.316680962
 31
0.0
  0
ARC
  5
1FB
330
1AE
100
AcDbEntity
  8
$DDT_AUDIT_GENERATED_(1A9)
  6
Continuous
 62
     7
100
AcDbCircle
 10
175.4353831572
 20
547.4514686503
 30
0.0
 40
24.5
100
AcDbArc
 50
15.1427314405
 51
19.9493202102
  0
ARC
  5
1FC
330
1AE
100
AcDbEntity
  8
$DDT_AUDIT_GENERATED_(1A9)
  6
Continuous
 62
     7
100
AcDbCircle
 10
175.4353831572
 20
547.4514686503
 30
0.0
 40
24.50000000000001
100
AcDbArc
 50
129.2757320831
 51
164.8572685595
  0
ENDBLK
  5
1FE
330
1AE
100
AcDbEntity
  8
0
100
AcDbBlockEnd
  0
BLOCK
  5
243
330
1FF
100
AcDbEntity
  8
0
100
AcDbBlockBegin
  2
SE2
 70
     0
 10
0.0
 20
0.0
 30
0.0
  3
SE2
  1

  0
ARC
  5
201
330
1FF
100
AcDbEntity
  8
$DDT_AUDIT_GENERATED_(73)
  6
Continuous
 62
     7
100
AcDbCircle
 10
344.443166515
 20
353.0502628168
 30
0.0
 40
304.3050762154095
100
AcDbArc
 50
182.4839580154
 51
182.5584049927
  0
SPLINE
  5
202
330
1FF
100
AcDbEntity
  8
$DDT_AUDIT_GENERATED_(73)
  6
Continuous
 62
     7
100
AcDbSpline
210
0.0
220
0.0
230
1.0
 70
     8
 71
     3
 72
    24
 73
    20
 74
     0
 42
0.0000000000464208
 43
0.0000000001
 40
0.0
 40
0.0
 40
0.0
 40
0.0
 40
0.015625
 40
0.015625
 40
0.0312499999999999
 40
0.0312499999999999
 40
0.0624999999999998
 40
0.0624999999999998
 40
0.0781249999999998
 40
0.0781249999999998
 40
0.0937499999999997
 40
0.0937499999999997
 40
0.1249999999999996
 40
0.1249999999999996
 40
0.2499999999999996
 40
0.2499999999999996
 40
0.4999999999999996
 40
0.4999999999999996
 40
1.0
 40
1.0
 40
1.0
 40
1.0
 10
65.89323235323806
 20
115.2224333807251
 30
0.0
 10
64.74211064652793
 20
115.2253513278153
 30
0.0
 10
63.61065577123001
 20
115.3494916254622
 30
0.0
 10
61.38915903076823
 20
115.8530345816916
 30
0.0
 10
60.29171280985
 20
116.2269369578563
 30
0.0
 10
57.23009686800463
 20
117.6946889634046
 30
0.0
 10
55.38774477561984
 20
119.1221289079017
 30
0.0
 10
53.26128607542029
 20
121.7535098915377
 30
0.0
 10
52.64131288685196
 20
122.7166003893342
 30
0.0
 10
51.62830839699038
 20
124.7150633307032
 30
0.0
 10
51.25015126620799
 20
125.7715862084393
 30
0.0
 10
50.50137193527527
 20
129.0908588845323
 30
0.0
 10
50.47370290522032
 20
131.3336131701094
 30
0.0
 10
49.97783826133676
 20
142.5247083002733
 30
0.0
 10
49.56270419785989
 20
151.4764146384892
 30
0.0
 10
48.34151778167894
 20
178.3330318247542
 30
0.0
 10
47.52260375843956
 20
196.2372313913324
 30
0.0
 10
45.06595182231114
 20
249.9498341961695
 30
0.0
 10
43.4194341956451
 20
285.7578470422461
 30
0.0
 10
41.77122035753142
 20
321.5657837883738
 30
0.0
  0
SPLINE
  5
203
330
1FF
100
AcDbEntity
  8
$DDT_AUDIT_GENERATED_(73)
  6
Continuous
 62
     7
100
AcDbSpline
210
0.0
220
0.0
230
1.0
 70
     8
 71
     2
 72
    52
 73
    49
 74
     0
 42
0.0000000000464389
 43
0.0000000001
 40
0.0
 40
0.0
 40
0.0
 40
0.0078125
 40
0.0078125
 40
0.015625
 40
0.015625
 40
0.0234375
 40
0.0234375
 40
0.03125
 40
0.03125
 40
0.0390625
 40
0.0390625
 40
0.046875
 40
0.046875
 40
0.0513392857142857
 40
0.0513392857142857
 40
0.0558035714285714
 40
0.0558035714285714
 40
0.0625
 40
0.0625
 40
0.06640625
 40
0.06640625
 40
0.0703125
 40
0.0703125
 40
0.07421875
 40
0.07421875
 40
0.078125
 40
0.078125
 40
0.0859375
 40
0.0859375
 40
0.08984375
 40
0.08984375
 40
0.09375
 40
0.09375
 40
0.1015625
 40
0.1015625
 40
0.109375
 40
0.109375
 40
0.1183035714285714
 40
0.1183035714285714
 40
0.125
 40
0.125
 40
0.1964285714285715
 40
0.1964285714285715
 40
0.25
 40
0.25
 40
0.5
 40
0.5
 40
1.0
 40
1.0
 40
1.0
 10
65.89323235323806
 20
115.2224333807251
 30
0.0
 10
66.78250847055078
 20
115.2246384383312
 30
0.0
 10
67.60359650439443
 20
115.3162228778145
 30
0.0
 10
68.4403353312256
 20
115.4095530120884
 30
0.0
 10
69.28073042822129
 20
115.5995702358062
 30
0.0
 10
70.1002838590201
 20
115.7848750622688
 30
0.0
 10
70.92552203986918
 20
116.0674074616511
 30
0.0
 10
71.75378172188194
 20
116.3509743162893
 30
0.0
 10
72.50775572756368
 20
116.7117886382197
 30
0.0
 10
73.29309981860764
 20
117.0876151170595
 30
0.0
 10
73.99547835144578
 20
117.522006381954
 30
0.0
 10
74.67900475752027
 20
117.9447384078371
 30
0.0
 10
75.38875242954968
 20
118.4978645701641
 30
0.0
 10
75.79097965421613
 20
118.8113314682336
 30
0.0
 10
76.13932629047733
 20
119.1202567952164
 30
0.0
 10
76.48752362907737
 20
119.4290497200917
 30
0.0
 10
76.84049344401363
 20
119.7858266182636
 30
0.0
 10
77.35893707373302
 20
120.3098621087251
 30
0.0
 10
77.80485287521432
 20
120.8601281700875
 30
0.0
 10
78.06321652457119
 20
121.1789523679708
 30
0.0
 10
78.31918637361463
 20
121.5287002178599
 30
0.0
 10
78.58595781517528
 20
121.8932069691289
 30
0.0
 10
78.80141659463627
 20
122.2251714016501
 30
0.0
 10
79.01737631259192
 20
122.5579076465965
 30
0.0
 10
79.24162818524397
 20
122.9514493448667
 30
0.0
 10
79.45413841474843
 20
123.3243855243061
 30
0.0
 10
79.64222570968741
 20
123.6940360511536
 30
0.0
 10
80.02505640689655
 20
124.446418443397
 30
0.0
 10
80.31009791725161
 20
125.2324467740007
 30
0.0
 10
80.45590511274025
 20
125.63452360245
 30
0.0
 10
80.57100071312712
 20
126.0308151568142
 30
0.0
 10
80.68133610749886
 20
126.4107166021347
 30
0.0
 10
80.78109165120865
 20
126.8494732860215
 30
0.0
 10
80.97300041385161
 20
127.693549205762
 30
0.0
 10
81.07888529054435
 20
128.5149363651714
 30
0.0
 10
81.16999995605795
 20
129.2217456718857
 30
0.0
 10
81.23909123475084
 20
130.1888233441798
 30
0.0
 10
81.28642262958195
 20
130.8513257034598
 30
0.0
 10
81.34660059280144
 20
132.1062456520338
 30
0.0
 10
81.37331779455369
 20
132.6633922827159
 30
0.0
 10
81.41240116143464
 20
133.5451774724417
 30
0.0
 10
81.53872335895892
 20
136.3952145035364
 30
0.0
 10
82.10802871245123
 20
148.8941477986929
 30
0.0
 10
82.1086251544889
 20
148.9072425099879
 30
0.0
 10
82.63143132548926
 20
160.4057609777924
 30
0.0
 10
83.41919608607488
 20
177.7317378891714
 30
0.0
 10
85.08369453437587
 20
214.1261928106071
 30
0.0
 10
86.96023839358305
 20
255.157045655033
 30
0.0
 10
90.01689472238941
 20
321.5657837895653
 30
0.0
  0
LINE
  5
204
330
1FF
100
AcDbEntity
  8
$DDT_AUDIT_GENERATED_(73)
  6
Continuous
 62
     7
100
AcDbLine
 10
40.4240164015
 20
339.8617822217
 30
0.0
 11
40.4229422734
 21
339.8850931886
 31
0.0
  0
SPLINE
  5
205
330
1FF
100
AcDbEntity
  8
$DDT_AUDIT_GENERATED_(73)
  6
Continuous
 62
     7
100
AcDbSpline
210
0.0
220
0.0
230
1.0
 70
     8
 71
     3
 72
    12
 73
     8
 74
     0
 42
0.0000000000465705
 43
0.0000000001
 40
0.0
 40
0.0
 40
0.0
 40
0.0
 40
0.1252626594925958
 40
0.2500473341251424
 40
0.5004062976797696
 40
0.7502788653825393
 40
0.7600936196433552
 40
0.7600936196433552
 40
0.7600936196433552
 40
0.7600936196433552
 10
40.40950635855843
 20
340.210373759653
 30
0.0
 10
40.72161475546169
 20
331.2497788924408
 30
0.0
 10
41.34464067305811
 20
313.3627632892874
 30
0.0
 10
42.59248808943908
 20
277.5668595545677
 30
0.0
 10
44.15425577451917
 20
232.8574600484354
 30
0.0
 10
45.43042583986352
 20
196.3741738289746
 30
0.0
 10
46.08530776657712
 20
177.7983373581168
 30
0.0
 10
46.11006404966038
 20
177.0962723971889
 30
0.0
  0
LINE
  5
206
330
1FF
100
AcDbEntity
  8
$DDT_AUDIT_GENERATED_(73)
  6
Continuous
 62
     7
100
AcDbLine
 10
40.4235236287
 20
339.8729318322
 30
0.0
 11
40.4240168048
 21
339.8617822403
 31
0.0
  0
ARC
  5
207
330
1FF
100
AcDbEntity
  8
$DDT_AUDIT_GENERATED_(73)
  6
Continuous
 62
     7
100
AcDbCircle
 10
-212.0807470921
 20
353.0079735675
 30
0.0
 40
303.729479122265
100
AcDbArc
 50
357.4447276785
 51
357.5193118713
  0
SPLINE
  5
208
330
1FF
100
AcDbEntity
  8
$DDT_AUDIT_GENERATED_(73)
  6
Continuous
 62
     7
100
AcDbSpline
210
0.0
220
0.0
230
1.0
 70
     8
 71
     3
 72
     8
 73
     4
 74
     0
 42
0.0000001315245109
 43
0.0000000001
 40
0.8077927873820376
 40
0.8077927873820376
 40
0.8077927873820376
 40
0.8077927873820376
 40
1.0
 40
1.0
 40
1.0
 40
1.0
 10
50.49846303568421
 20
115.0845057711892
 30
0.0
 10
50.50002921730844
 20
115.0801460909323
 30
0.0
 10
50.50328078251257
 20
115.0768289980316
 30
0.0
 10
50.5081275177636
 20
115.0745960985331
 30
0.0
  0
SPLINE
  5
209
330
1FF
100
AcDbEntity
  8
$DDT_AUDIT_GENERATED_(73)
  6
Continuous
 62
     7
100
AcDbSpline
210
0.0
220
0.0
230
1.0
 70
     8
 71
     3
 72
    11
 73
     7
 74
     0
 42
0.0000000000603254
 43
0.0000000001
 40
0.3108430041768896
 40
0.3108430041768896
 40
0.3108430041768896
 40
0.3108430041768896
 40
0.3741509896714817
 40
0.499999319648581
 40
0.7432624801780822
 40
1.0
 40
1.0
 40
1.0
 40
1.0
 10
46.11519319893375
 20
177.0537844515524
 30
0.0
 10
45.99217765893608
 20
180.5498559295465
 30
0.0
 10
45.62442750630321
 20
190.9956350997174
 30
0.0
 10
44.78680081957243
 20
214.8750190433288
 30
0.0
 10
43.57616941259185
 20
249.4356935744907
 30
0.0
 10
42.61213788581853
 20
277.0464045445904
 30
0.0
 10
42.11713246638312
 20
291.2237961649493
 30
0.0
  0
SPLINE
  5
20A
330
1FF
100
AcDbEntity
  8
$DDT_AUDIT_GENERATED_(73)
  6
Continuous
 62
     7
100
AcDbSpline
210
0.0
220
0.0
230
1.0
 70
     8
 71
     3
 72
    18
 73
    14
 74
     0
 42
0.0000000002040136
 43
0.0000000001
 40
0.0
 40
0.0
 40
0.0
 40
0.0
 40
0.1250000000000001
 40
0.1250000000000001
 40
0.2500000000000001
 40
0.2500000000000001
 40
0.5000000000000001
 40
0.5000000000000001
 40
0.6250000000000001
 40
0.6250000000000001
 40
0.7500000000000001
 40
0.7500000000000001
 40
1.0
 40
1.0
 40
1.0
 40
1.0
 10
42.11713246638312
 20
291.2237961649493
 30
0.0
 10
42.0462334118171
 20
293.2556673306279
 30
0.0
 10
41.97537118006531
 20
295.2867290432021
 30
0.0
 10
41.83279626563753
 20
299.3737584700841
 30
0.0
 10
41.76117783090644
 20
301.4270220339637
 30
0.0
 10
41.54669665355845
 20
307.5768308160393
 30
0.0
 10
41.40474553215577
 20
311.6479649156137
 30
0.0
 10
41.19147278069205
 20
317.7661114480982
 30
0.0
 10
41.12035874533139
 20
319.8064086108315
 30
0.0
 10
40.97823712184638
 20
323.8844464440338
 30
0.0
 10
40.90724988817504
 20
325.9216026299442
 30
0.0
 10
40.69420417399619
 20
332.0362352737309
 30
0.0
 10
40.55178794175572
 20
336.1247366876498
 30
0.0
 10
40.40950635855843
 20
340.210373759653
 30
0.0
  0
SPLINE
  5
20B
330
1FF
100
AcDbEntity
  8
$DDT_AUDIT_GENERATED_(73)
  6
Continuous
 62
     7
100
AcDbSpline
210
0.0
220
0.0
230
1.0
 70
    12
 71
     2
 72
     6
 73
     3
 74
     0
 42
0.0000000001260006
 43
0.0000000001
 40
0.0000001180450257
 40
0.0000001180450257
 40
0.0000001180450257
 40
0.1557242611046274
 40
0.1557242611046274
 40
0.1557242611046274
 10
91.39409613431326
 20
341.0978426574538
 30
0.0
 41
0.9999995851024859
 10
91.39408059514238
 20
334.9183466314862
 30
0.0
 41
0.9087786448428894
 10
88.56520103857366
 20
329.4243814628269
 30
0.0
 41
0.8743789826624678
  0
SPLINE
  5
20C
330
1FF
100
AcDbEntity
  8
$DDT_AUDIT_GENERATED_(73)
  6
Continuous
 62
     7
100
AcDbSpline
210
0.0
220
0.0
230
1.0
 70
    12
 71
     2
 72
     6
 73
     3
 74
     0
 42
0.0000000001259961
 43
0.0000000001
 40
0.8442184116358258
 40
0.8442184116358258
 40
0.8442184116358258
 40
1.0
 40
1.0
 40
1.0
 10
43.2250912352125
 20
329.4201901380123
 30
0.0
 41
0.8743537672762125
 10
40.39405755330505
 20
334.9158591941004
 30
0.0
 41
0.9087452798488437
 10
40.39405755330507
 20
341.0978596860417
 30
0.0
 41
1.0
  0
LINE
  5
20D
330
1FF
100
AcDbEntity
  8
$DDT_AUDIT_GENERATED_(73)
  6
Continuous
 62
     7
100
AcDbLine
 10
91.3640971114
 20
339.8617568408
 30
0.0
 11
91.3645906218
 21
339.8729121248
 31
0.0
  0
LINE
  5
20E
330
1FF
100
AcDbEntity
  8
$DDT_AUDIT_GENERATED_(73)
  6
Continuous
 62
     7
100
AcDbLine
 10
91.3669974236
 20
339.9240407855
 30
0.0
 11
91.3651728452
 21
339.8850933305
 31
0.0
  0
ARC
  5
20F
330
1FF
100
AcDbEntity
  8
$DDT_AUDIT_GENERATED_(73)
  6
Continuous
 62
     7
100
AcDbCircle
 10
-57082.6279570979
 20
2230.9376313168
 30
0.0
 40
57205.26091377739
100
AcDbArc
 50
357.890873181
 51
358.1059353901
  0
SPLINE
  5
210
330
1FF
100
AcDbEntity
  8
$DDT_AUDIT_GENERATED_(73)
  6
Continuous
 62
     7
100
AcDbSpline
210
0.0
220
0.0
230
1.0
 70
     8
 71
     3
 72
    10
 73
     6
 74
     0
 42
0.0000000669435418
 43
0.0000000001
 40
0.0
 40
0.0
 40
0.0
 40
0.0
 40
0.5
 40
0.5
 40
1.0
 40
1.0
 40
1.0
 40
1.0
 10
81.27997409128429
 20
115.0745772089557
 30
0.0
 10
81.29257781880447
 20
115.0803775032267
 30
0.0
 10
81.2943892023027
 20
115.0935131911622
 30
0.0
 10
81.27323983323612
 20
115.132997656208
 30
0.0
 10
81.25035247378311
 20
115.1592140079876
 30
0.0
 10
81.21910081424545
 20
115.1882404006686
 30
0.0
  0
ARC
  5
211
330
1FF
100
AcDbEntity
  8
$DDT_AUDIT_GENERATED_(73)
  6
Continuous
 62
     7
100
AcDbCircle
 10
65.894787255
 20
124.2815063881
 30
0.0
 40
17.92962684769706
100
AcDbArc
 50
269.9976681709
 51
329.1025094762
  0
SPLINE
  5
212
330
1FF
100
AcDbEntity
  8
$DDT_AUDIT_GENERATED_(73)
  6
Continuous
 62
     7
100
AcDbSpline
210
0.0
220
0.0
230
1.0
 70
    12
 71
     2
 72
     8
 73
     5
 74
     0
 42
0.0000000000980392
 43
0.0000000001
 40
0.0
 40
0.0
 40
0.0
 40
0.5000000000000016
 40
0.5000000000000016
 40
1.0
 40
1.0
 40
1.0
 10
40.39405755330507
 20
341.0978596860417
 30
0.0
 41
1.0
 10
40.39405755330506
 20
366.5978596856878
 30
0.0
 41
0.707106781186547
 10
65.89405755330506
 20
366.5978596856877
 30
0.0
 41
1.0
 10
91.39405755330507
 20
366.5978596856876
 30
0.0
 41
0.707106781186547
 10
91.39409613433327
 20
341.0978511714423
 30
0.0
 41
1.0
  0
ARC
  5
213
330
1FF
100
AcDbEntity
  8
$DDT_AUDIT_GENERATED_(73)
  6
Continuous
 62
     7
100
AcDbCircle
 10
-55278.467876509
 20
2168.5831371866
 30
0.0
 40
55400.02569154291
100
AcDbArc
 50
357.8983781883
 51
358.107955995
  0
LINE
  5
214
330
1FF
100
AcDbEntity
  8
$DDT_AUDIT_GENERATED_(73)
  6
Continuous
 62
     7
100
AcDbLine
 10
40.4229422682
 20
339.8850931883
 30
0.0
 11
40.4211176854
 21
339.924040733
 31
0.0
  0
LINE
  5
215
330
1FF
100
AcDbEntity
  8
$DDT_AUDIT_GENERATED_(73)
  6
Continuous
 62
     7
100
AcDbLine
 10
91.3651728398
 20
339.8850933308
 30
0.0
 11
91.3640975348
 21
339.8617568213
 31
0.0
  0
SPLINE
  5
216
330
1FF
100
AcDbEntity
  8
$DDT_AUDIT_GENERATED_(73)
  6
Continuous
 62
     7
100
AcDbSpline
210
0.0
220
0.0
230
1.0
 70
     8
 71
     3
 72
     8
 73
     4
 74
     0
 42
0.0000000178807396
 43
0.0000000001
 40
0.0
 40
0.0
 40
0.0
 40
0.0
 40
0.0375442401729123
 40
0.0375442401729123
 40
0.0375442401729123
 40
0.0375442401729123
 10
91.36517278133492
 20
339.885092089881
 30
0.0
 10
91.36474686759641
 20
339.8761468026228
 30
0.0
 10
91.36441985478393
 20
339.8692841772987
 30
0.0
 10
91.36417349648883
 20
339.8641188535511
 30
0.0
  0
SPLINE
  5
217
330
1FF
100
AcDbEntity
  8
$DDT_AUDIT_GENERATED_(73)
  6
Continuous
 62
     7
100
AcDbSpline
210
0.0
220
0.0
230
1.0
 70
     8
 71
     3
 72
    22
 73
    18
 74
     0
 42
0.0000000163317134
 43
0.0000000001
 40
0.5477827674026765
 40
0.5477827674026765
 40
0.5477827674026765
 40
0.5477827674026765
 40
0.7499999999999913
 40
0.7499999999999913
 40
0.8749999999999899
 40
0.8749999999999899
 40
0.937499999999992
 40
0.937499999999992
 40
0.9687499999999931
 40
0.9687499999999931
 40
0.9843749999999966
 40
0.9843749999999966
 40
0.9921874999999982
 40
0.9921874999999982
 40
0.996093749999999
 40
0.996093749999999
 40
1.0
 40
1.0
 40
1.0
 40
1.0
 10
91.36764827982586
 20
339.9382419348115
 30
0.0
 10
91.36860824543172
 20
339.9593095402199
 30
0.0
 10
91.36970990823633
 20
339.9840570196067
 30
0.0
 10
91.37177636524284
 20
340.0326340911728
 30
0.0
 10
91.37262922709238
 20
340.0530971501045
 30
0.0
 10
91.37413106780346
 20
340.0906224478265
 30
0.0
 10
91.37466578604756
 20
340.1041837143646
 30
0.0
 10
91.37561277831588
 20
340.1288769144763
 30
0.0
 10
91.37595040647729
 20
340.1377706442452
 30
0.0
 10
91.37655670618717
 20
340.1540467566958
 30
0.0
 10
91.37677387198426
 20
340.1599163021947
 30
0.0
 10
91.37716988893264
 20
340.1707592506852
 30
0.0
 10
91.37731244820705
 20
340.1746802421726
 30
0.0
 10
91.3775764019647
 20
340.1820051637052
 30
0.0
 10
91.37767185628611
 20
340.1846621414165
 30
0.0
 10
91.3779112267245
 20
340.1913666356811
 30
0.0
 10
91.3777530043264
 20
340.186733910523
 30
0.0
 10
91.3784227432073
 20
340.2056480153071
 30
0.0
  0
SPLINE
  5
218
330
1FF
100
AcDbEntity
  8
$DDT_AUDIT_GENERATED_(73)
  6
Continuous
 62
     7
100
AcDbSpline
210
0.0
220
0.0
230
1.0
 70
     8
 71
     3
 72
    24
 73
    20
 74
     0
 42
0.0000000209170117
 43
0.0000000001
 40
0.0
 40
0.0
 40
0.0
 40
0.0
 40
0.0039062499999967
 40
0.0039062499999967
 40
0.0078124999999934
 40
0.0078124999999934
 40
0.0156249999999924
 40
0.0156249999999924
 40
0.0312499999999963
 40
0.0312499999999963
 40
0.0624999999999983
 40
0.0624999999999983
 40
0.1250000000000022
 40
0.1250000000000022
 40
0.2500000000000044
 40
0.2500000000000044
 40
0.5000000000000029
 40
0.5000000000000029
 40
0.7106438291163755
 40
0.7106438291163755
 40
0.7106438291163755
 40
0.7106438291163755
 10
40.40969280967391
 20
340.205640994307
 30
0.0
 10
40.41036072749422
 20
340.1867737867921
 30
0.0
 10
40.4102004737606
 20
340.1914624035661
 30
0.0
 10
40.41043966656968
 20
340.1847621626672
 30
0.0
 10
40.41053539441844
 20
340.1820972629972
 30
0.0
 10
40.41079980563384
 20
340.1747589454437
 30
0.0
 10
40.41094255122149
 20
340.1708325266035
 30
0.0
 10
40.41133908839731
 20
340.1599745368515
 30
0.0
 10
40.41155652852078
 20
340.1540972683463
 30
0.0
 10
40.41216338470507
 20
340.1378054392455
 30
0.0
 10
40.41250113129453
 20
340.1289083695395
 30
0.0
 10
40.41344840964485
 20
340.1042069825386
 30
0.0
 10
40.41398314806781
 20
340.0906449578556
 30
0.0
 10
40.41548518263175
 20
340.053114055564
 30
0.0
 10
40.41633811831279
 20
340.0326489613819
 30
0.0
 10
40.41870654003807
 20
339.9769728073425
 30
0.0
 10
40.42001737316501
 20
339.9479158070657
 30
0.0
 10
40.42205601379942
 20
339.9036804450483
 30
0.0
 10
40.42284500048492
 20
339.8870794761362
 30
0.0
 10
40.42339763084568
 20
339.8755660160493
 30
0.0
  0
SPLINE
  5
219
330
1FF
100
AcDbEntity
  8
$DDT_AUDIT_GENERATED_(73)
  6
Continuous
 62
     7
100
AcDbSpline
210
0.0
220
0.0
230
1.0
 70
     8
 71
     3
 72
    10
 73
     6
 74
     0
 42
0.0000000357215571
 43
0.0000000001
 40
0.7399820194686912
 40
0.7399820194686912
 40
0.7399820194686912
 40
0.7399820194686912
 40
0.7500000000000014
 40
0.7500000000000014
 40
0.9569965406457321
 40
0.9569965406457321
 40
0.9569965406457321
 40
0.9569965406457321
 10
40.42361453322145
 20
339.8710552948737
 30
0.0
 10
40.42363759857285
 20
339.8705764738701
 30
0.0
 10
40.42366009999046
 20
339.8701096201119
 30
0.0
 10
40.42413510380177
 20
339.8602590434817
 30
0.0
 10
40.42527491316353
 20
339.8361739431306
 30
0.0
 10
40.42404385816822
 20
339.8619754383364
 30
0.0
  0
SPLINE
  5
21A
330
1FF
100
AcDbEntity
  8
$DDT_AUDIT_GENERATED_(73)
  6
Continuous
 62
     7
100
AcDbSpline
210
0.0
220
0.0
230
1.0
 70
     8
 71
     3
 72
     8
 73
     4
 74
     0
 42
0.0000000178762006
 43
0.0000000001
 40
0.962498214995392
 40
0.962498214995392
 40
0.962498214995392
 40
0.962498214995392
 40
1.0
 40
1.0
 40
1.0
 40
1.0
 10
40.42394061718964
 20
339.8641396750044
 30
0.0
 10
40.42369436161271
 20
339.8693028589988
 30
0.0
 10
40.42336761984672
 20
339.8761598037474
 30
0.0
 10
40.42294220967396
 20
339.8850945140734
 30
0.0
  0
LINE
  5
21B
330
1FF
100
AcDbEntity
  8
$DDT_AUDIT_GENERATED_(73)
  6
Continuous
 62
     7
100
AcDbLine
 10
40.4429417911
 20
339.4672132013
 30
0.0
 11
40.4463897549
 21
339.3762523781
 31
0.0
  0
LINE
  5
21C
330
1FF
100
AcDbEntity
  8
$DDT_AUDIT_GENERATED_(73)
  6
Continuous
 62
     7
100
AcDbLine
 10
91.3417206626
 20
339.3761530723
 30
0.0
 11
91.3451725004
 21
339.4672130113
 31
0.0
  0
ARC
  5
21D
330
1FF
100
AcDbEntity
  8
$DDT_AUDIT_GENERATED_(73)
  6
Continuous
 62
     7
100
AcDbCircle
 10
65.893351141
 20
124.2877716532
 30
0.0
 40
17.93617280347865
100
AcDbArc
 50
210.871506785
 51
270.0032156802
  0
ARC
  5
21E
330
1FF
100
AcDbEntity
  8
$DDT_AUDIT_GENERATED_(73)
  6
Continuous
 62
     7
100
AcDbCircle
 10
70.3221051319
 20
125.5937192306
 30
0.0
 40
22.43719749914662
100
AcDbArc
 50
180.0229310314
 51
207.9384442247
  0
ARC
  5
21F
330
1FF
100
AcDbEntity
  8
$DDT_AUDIT_GENERATED_(73)
  6
Continuous
 62
     7
100
AcDbCircle
 10
-2887.3263741172
 20
49.7181595099
 30
0.0
 40
2936.191590228003
100
AcDbArc
 50
1.4805927501
 51
2.4868645758
  0
SPLINE
  5
220
330
1FF
100
AcDbEntity
  8
$DDT_AUDIT_GENERATED_(73)
  6
Continuous
 62
     7
100
AcDbSpline
210
0.0
220
0.0
230
1.0
 70
     8
 71
     3
 72
    22
 73
    18
 74
     0
 42
0.0000000000914479
 43
0.0000000001
 40
0.0
 40
0.0
 40
0.0
 40
0.0
 40
0.0261768161059938
 40
0.0507590237742818
 40
0.0738378140037176
 40
0.0954618547884806
 40
0.1156277820828611
 40
0.1343319005490497
 40
0.1545480430872257
 40
0.1740657918348411
 40
0.1933964088250743
 40
0.212540219265969
 40
0.257381231965018
 40
0.3013535905022676
 40
0.3452298258766286
 40
0.5802758550516913
 40
1.0
 40
1.0
 40
1.0
 40
1.0
 10
83.90319315122574
 20
125.5844906403478
 30
0.0
 10
83.94484584250776
 20
126.6332816834225
 30
0.0
 10
84.01486741578843
 20
128.3452011476645
 30
0.0
 10
84.06437065078806
 20
131.0881240898732
 30
0.0
 10
84.14470325343842
 20
133.599622537059
 30
0.0
 10
84.23161475489
 20
135.9656031055747
 30
0.0
 10
84.31830537758105
 20
138.1682503705573
 30
0.0
 10
84.40085699943705
 20
140.3205874968619
 30
0.0
 10
84.47751368537499
 20
142.4492339334578
 30
0.0
 10
84.55217728067107
 20
144.600893740313
 30
0.0
 10
84.62406954777457
 20
146.7134944543324
 30
0.0
 10
84.72777670572965
 20
149.7486509369229
 30
0.0
 10
84.86615214043755
 20
153.6809482832507
 30
0.0
 10
85.03719585434592
 20
158.5161275295171
 30
0.0
 10
85.44782367356983
 20
170.2645871632724
 30
0.0
 10
86.35446442727924
 20
196.1435600880695
 30
0.0
 10
87.11915595140412
 20
218.0509947238687
 30
0.0
 10
87.70646983435458
 20
234.8696833586224
 30
0.0
  0
ARC
  5
221
330
1FF
100
AcDbEntity
  8
$DDT_AUDIT_GENERATED_(73)
  6
Continuous
 62
     7
100
AcDbCircle
 10
61.6670198635
 20
125.5436779328
 30
0.0
 40
22.23622372590838
100
AcDbArc
 50
331.9326982286
 51
0.1058025365
  0
LINE
  5
222
330
1FF
100
AcDbEntity
  8
$DDT_AUDIT_GENERATED_(AD)
  6
Continuous
 62
     7
100
AcDbLine
 10
42.6428842191
 20
337.5879209518
 30
0.0
 11
42.6429192516
 21
337.588018367
 31
0.0
  0
SPLINE
  5
223
330
1FF
100
AcDbEntity
  8
$DDT_AUDIT_GENERATED_(AD)
  6
Continuous
 62
     7
100
AcDbSpline
210
0.0
220
0.0
230
1.0
 70
     8
 71
     3
 72
    14
 73
    10
 74
     0
 42
0.0000000189846892
 43
0.0000000001
 40
0.0
 40
0.0
 40
0.0
 40
0.0
 40
0.087923372709656
 40
0.1958947355466061
 40
0.3248831368658905
 40
0.4742875620209999
 40
0.6410103364142201
 40
0.819014525494063
 40
1.0
 40
1.0
 40
1.0
 40
1.0
 10
42.6429192515535
 20
337.5880183669613
 30
0.0
 10
42.64430483945414
 20
337.5920871123775
 30
0.0
 10
42.64739061861503
 20
337.6011522031426
 30
0.0
 10
42.66804827395458
 20
337.6174140245294
 30
0.0
 10
42.70883459291246
 20
337.6374719354598
 30
0.0
 10
42.77761364948078
 20
337.6607872573319
 30
0.0
 10
42.87663074411209
 20
337.6852585471603
 30
0.0
 10
43.00124434562982
 20
337.7084537070615
 30
0.0
 10
43.0935019412101
 20
337.719443607518
 30
0.0
 10
43.14001382383975
 20
337.7249841814729
 30
0.0
  0
ELLIPSE
  5
224
330
1FF
100
AcDbEntity
  8
$DDT_AUDIT_GENERATED_(AD)
  6
Continuous
 62
     7
100
AcDbEllipse
 10
65.8950824477
 20
340.2320271766
 30
0.0
 11
22.89702679120963
 21
1.077425908907470E-11
 31
0.0
210
0.0
220
0.0
230
1.0
 40
0.9848077557
 41
1.570829103256577
 42
3.253004161661546
  0
SPLINE
  5
225
330
1FF
100
AcDbEntity
  8
$DDT_AUDIT_GENERATED_(AD)
  6
Continuous
 62
     7
100
AcDbSpline
210
0.0
220
0.0
230
1.0
 70
     8
 71
     3
 72
    10
 73
     6
 74
     0
 42
0.0000002590354901
 43
0.0000000001
 40
0.0
 40
0.0
 40
0.0
 40
0.0
 40
0.4999310748782213
 40
0.4999310748782213
 40
1.0
 40
1.0
 40
1.0
 40
1.0
 10
42.5167996187133
 20
337.6405289870901
 30
0.0
 10
42.51646377053679
 20
337.6476409428068
 30
0.0
 10
42.5161243433235
 20
337.6565942217317
 30
0.0
 10
42.5161870954702
 20
337.6709971963963
 30
0.0
 10
42.51651812285299
 20
337.6771935063923
 30
0.0
 10
42.51809785501939
 20
337.6761077116872
 30
0.0
  0
SPLINE
  5
226
330
1FF
100
AcDbEntity
  8
$DDT_AUDIT_GENERATED_(AD)
  6
Continuous
 62
     7
100
AcDbSpline
210
0.0
220
0.0
230
1.0
 70
     8
 71
     3
 72
     9
 73
     5
 74
     0
 42
0.000000042081129
 43
0.0000000001
 40
0.7766633120246684
 40
0.7766633120246684
 40
0.7766633120246684
 40
0.7766633120246684
 40
0.8429516512393253
 40
1.0
 40
1.0
 40
1.0
 40
1.0
 10
48.45899711869153
 20
270.5439465659417
 30
0.0
 10
48.45841859482067
 20
270.5473294916604
 30
0.0
 10
48.46064740982977
 20
270.5590850277395
 30
0.0
 10
48.47872511522662
 20
270.5718334207446
 30
0.0
 10
48.49143734814382
 20
270.5807979790389
 30
0.0
  0
SPLINE
  5
227
330
1FF
100
AcDbEntity
  8
$DDT_AUDIT_GENERATED_(AD)
  6
Continuous
 62
     7
100
AcDbSpline
210
0.0
220
0.0
230
1.0
 70
    12
 71
     3
 72
   168
 73
   164
 74
     0
 42
0.000000000103539
 43
0.0000000001
 40
0.0
 40
0.0
 40
0.0
 40
0.0
 40
0.00003003759698
 40
0.00003003759698
 40
0.0001535756175526
 40
0.0001535756175526
 40
0.0004006516586968
 40
0.0004006516586968
 40
0.0008948037409849
 40
0.0008948037409849
 40
0.0018831079055624
 40
0.0018831079055624
 40
0.0097895412221781
 40
0.0097895412221781
 40
0.0176959745387938
 40
0.0176959745387938
 40
0.0256024078554106
 40
0.0256024078554106
 40
0.0335088411720262
 40
0.0335088411720262
 40
0.041415274488642
 40
0.041415274488642
 40
0.0493217078052587
 40
0.0493217078052587
 40
0.0512983161344125
 40
0.0512983161344125
 40
0.052286620298989
 40
0.052286620298989
 40
0.0532749244635664
 40
0.0532749244635664
 40
0.0572281411218744
 40
0.0572281411218744
 40
0.0651345744384901
 40
0.0651345744384901
 40
0.0730410077551058
 40
0.0730410077551058
 40
0.0809474410717225
 40
0.0809474410717225
 40
0.0888538743883382
 40
0.0888538743883382
 40
0.0967603077049536
 40
0.0967603077049536
 40
0.1046667410215707
 40
0.1046667410215707
 40
0.1066433493507242
 40
0.1066433493507242
 40
0.1086199576798787
 40
0.1086199576798787
 40
0.1125731743381867
 40
0.1125731743381867
 40
0.1204796076548018
 40
0.1204796076548018
 40
0.1283860409714178
 40
0.1283860409714178
 40
0.1362924742880339
 40
0.1362924742880339
 40
0.14419890760465
 40
0.14419890760465
 40
0.152105340921266
 40
0.152105340921266
 40
0.1560585575795741
 40
0.1560585575795741
 40
0.1580351659087286
 40
0.1580351659087286
 40
0.1590234700733048
 40
0.1590234700733048
 40
0.1600117742378821
 40
0.1600117742378821
 40
0.1679182075544982
 40
0.1679182075544982
 40
0.1758246408711143
 40
0.1758246408711143
 40
0.1837310741877293
 40
0.1837310741877293
 40
0.1916375075043464
 40
0.1916375075043464
 40
0.1955907241626544
 40
0.1955907241626544
 40
0.1995439408209625
 40
0.1995439408209625
 40
0.2074503741375775
 40
0.2074503741375775
 40
0.209426982466731
 40
0.209426982466731
 40
0.2114035907958855
 40
0.2114035907958855
 40
0.2153568074541946
 40
0.2153568074541946
 40
0.2193100241125027
 40
0.2193100241125027
 40
0.2202983282770789
 40
0.2202983282770789
 40
0.2212866324416562
 40
0.2212866324416562
 40
0.2232632407708097
 40
0.2232632407708097
 40
0.2311696740874257
 40
0.2311696740874257
 40
0.2390761074040418
 40
0.2390761074040418
 40
0.2430293240623498
 40
0.2430293240623498
 40
0.244017628226927
 40
0.244017628226927
 40
0.2450059323915043
 40
0.2450059323915043
 40
0.2469825407206578
 40
0.2469825407206578
 40
0.26279540735389
 40
0.26279540735389
 40
0.266748624012198
 40
0.266748624012198
 40
0.2707018406705061
 40
0.2707018406705061
 40
0.2786082739871221
 40
0.2786082739871221
 40
0.2944211406203532
 40
0.2944211406203532
 40
0.3102340072535854
 40
0.3102340072535854
 40
0.3260468738868185
 40
0.3260468738868185
 40
0.3418597405200496
 40
0.3418597405200496
 40
0.3576726071532818
 40
0.3576726071532818
 40
0.3734854737865129
 40
0.3734854737865129
 40
0.4051112070529741
 40
0.4051112070529741
 40
0.4367369403194364
 40
0.4367369403194364
 40
0.4683626735859098
 40
0.4683626735859098
 40
0.499988406852373
 40
0.499988406852373
 40
0.5632398733852986
 40
0.5632398733852986
 40
0.5948656066517608
 40
0.5948656066517608
 40
0.626491339918224
 40
0.626491339918224
 40
0.6581170731846863
 40
0.6581170731846863
 40
0.6897428064511496
 40
0.6897428064511496
 40
0.7213685397176117
 40
0.7213685397176117
 40
0.7529942729840852
 40
0.7529942729840852
 40
0.8162457395170107
 40
0.8162457395170107
 40
0.847871472783473
 40
0.847871472783473
 40
0.8794972060499362
 40
0.8794972060499362
 40
0.9111229393163995
 40
0.9111229393163995
 40
0.9427486725828617
 40
0.9427486725828617
 40
0.974374405849324
 40
0.974374405849324
 40
1.0
 40
1.0
 40
1.0
 40
1.0
 10
65.89495976389894
 20
250.2910576288087
 30
0.0
 41
1.0
 10
65.89397298898349
 20
250.2910574115201
 30
0.0
 41
1.0
 10
65.89298622738478
 20
250.2910572956571
 30
0.0
 41
1.0
 10
65.88794123406628
 20
250.2910571729236
 30
0.0
 41
1.0
 10
65.88388324931647
 20
250.2910586279406
 30
0.0
 41
1.0
 10
65.87171009549606
 20
250.2910676543214
 30
0.0
 41
1.0
 10
65.86359572685423
 20
250.2910798870123
 30
0.0
 41
1.0
 10
65.83925582277426
 20
250.2911352311789
 30
0.0
 41
1.0
 10
65.82303348918175
 20
250.2911969887481
 30
0.0
 41
1.0
 10
65.77437929679571
 20
250.2914568517116
 30
0.0
 41
1.0
 10
65.7419602464196
 20
250.29172954747
 30
0.0
 41
1.0
 10
65.450342515696
 20
250.2950790202968
 30
0.0
 41
1.0
 10
65.19222001104471
 20
250.3044229547158
 30
0.0
 41
1.0
 10
64.67816238493641
 20
250.3358491471243
 30
0.0
 41
1.0
 10
64.42222725998035
 20
250.3579313851841
 30
0.0
 41
1.0
 10
63.91254246537757
 20
250.4148229579657
 30
0.0
 41
1.0
 10
63.65879357607653
 20
250.4496368371938
 30
0.0
 41
1.0
 10
63.15347324809285
 20
250.5319450765901
 30
0.0
 41
1.0
 10
62.90189414849956
 20
250.5793948234189
 30
0.0
 41
1.0
 10
62.40084431908532
 20
250.686572502468
 30
0.0
 41
1.0
 10
62.15137362998031
 20
250.7463006720489
 30
0.0
 41
1.0
 10
61.65455533303601
 20
250.8781208701746
 30
0.0
 41
1.0
 10
61.40720742518137
 20
250.9502111512777
 30
0.0
 41
1.0
 10
61.09940334989496
 20
251.0483652090806
 30
0.0
 41
1.0
 10
61.03791178500855
 20
251.0683993020657
 30
0.0
 41
1.0
 10
60.94577970636148
 20
251.0990634784784
 30
0.0
 41
1.0
 10
60.91508655769918
 20
251.1093870401675
 30
0.0
 41
1.0
 10
60.8537355743347
 20
251.1302398159509
 30
0.0
 41
1.0
 10
60.82307507197461
 20
251.1407700496054
 30
0.0
 41
1.0
 10
60.6700850590586
 20
251.1938600084179
 30
0.0
 41
1.0
 10
60.5485160586527
 20
251.2377961557659
 30
0.0
 41
1.0
 10
60.18626943825554
 20
251.3739817516035
 30
0.0
 41
1.0
 10
59.94805471325335
 20
251.4706128269675
 30
0.0
 41
1.0
 10
59.47808325388009
 20
251.6753641010117
 30
0.0
 41
1.0
 10
59.24632623590857
 20
251.7834837951621
 30
0.0
 41
1.0
 10
58.78908475312086
 20
252.0108824034779
 30
0.0
 41
1.0
 10
58.56359021780703
 20
252.1301434014922
 30
0.0
 41
1.0
 10
58.11870077793879
 20
252.3795169790125
 30
0.0
 41
1.0
 10
57.89930610671538
 20
252.5096299735132
 30
0.0
 41
1.0
 10
57.46664054918894
 20
252.7807505154456
 30
0.0
 41
1.0
 10
57.2533691839101
 20
252.921757210773
 30
0.0
 41
1.0
 10
56.83315268362846
 20
253.2150253158127
 30
0.0
 41
1.0
 10
56.62621909995131
 20
253.3673072759988
 30
0.0
 41
1.0
 10
56.37169509350748
 20
253.5650303052151
 30
0.0
 41
1.0
 10
56.32096515682612
 20
253.6049693356257
 30
0.0
 41
1.0
 10
56.22019344022932
 20
253.6853732671568
 30
0.0
 41
1.0
 10
56.1701283255501
 20
253.7258555978169
 30
0.0
 41
1.0
 10
56.02089085850515
 20
253.8481398787947
 30
0.0
 41
1.0
 10
55.9226765351748
 20
253.9307792509421
 30
0.0
 41
1.0
 10
55.63182510291772
 20
254.182011584871
 30
0.0
 41
1.0
 10
55.44298171448192
 20
254.3539206720854
 30
0.0
 41
1.0
 10
55.07513875600912
 20
254.7063434175389
 30
0.0
 41
1.0
 10
54.89613471969982
 20
254.8868531715771
 30
0.0
 41
1.0
 10
54.54764475264732
 20
255.2561925421057
 30
0.0
 41
1.0
 10
54.37815570742573
 20
255.4450194360907
 30
0.0
 41
1.0
 10
54.04864255241562
 20
255.8309466100022
 30
0.0
 41
1.0
 10
53.88861798991712
 20
256.0280464940946
 30
0.0
 41
1.0
 10
53.57827666720092
 20
256.4307319402939
 30
0.0
 41
1.0
 10
53.42797977781932
 20
256.6363348716401
 30
0.0
 41
1.0
 10
53.21013638669352
 20
256.9513841958255
 30
0.0
 41
1.0
 10
53.13878676396562
 20
257.0575062462024
 30
0.0
 41
1.0
 10
53.03368693545262
 20
257.2183716369255
 30
0.0
 41
1.0
 10
52.99897439685872
 20
257.2722737934536
 30
0.0
 41
1.0
 10
52.94738983346722
 20
257.3535503107574
 30
0.0
 41
1.0
 10
52.93027473596702
 20
257.3807147283047
 30
0.0
 41
1.0
 10
52.89625709251062
 20
257.4351033872134
 30
0.0
 41
1.0
 10
52.87934811380452
 20
257.4623377059121
 30
0.0
 41
1.0
 10
52.72806250541372
 20
257.7078051209743
 30
0.0
 41
1.0
 10
52.59995518692833
 20
257.9285492098142
 30
0.0
 41
1.0
 10
52.35605186726822
 20
258.3749683322253
 30
0.0
 41
1.0
 10
52.24023448086242
 20
258.6006348005383
 30
0.0
 41
1.0
 10
52.02054745659442
 20
259.0567530646748
 30
0.0
 41
1.0
 10
51.91668899241493
 20
259.2872093358854
 30
0.0
 41
1.0
 10
51.72096691646912
 20
259.7529260720204
 30
0.0
 41
1.0
 10
51.62910307385722
 20
259.9881864444744
 30
0.0
 41
1.0
 10
51.50051324422453
 20
260.3447641757719
 30
0.0
 41
1.0
 10
51.45918629841782
 20
260.4642387527068
 30
0.0
 41
1.0
 10
51.37966534173603
 20
260.7044427137232
 30
0.0
 41
1.0
 10
51.34147471989822
 20
260.825173455177
 30
0.0
 41
1.0
 10
51.23161144451452
 20
261.1892515700354
 30
0.0
 41
1.0
 10
51.16464632833372
 20
261.4344844124494
 30
0.0
 41
1.0
 10
51.08877441438253
 20
261.7441633419525
 30
0.0
 41
1.0
 10
51.07399175754962
 20
261.8062560224397
 30
0.0
 41
1.0
 10
51.04520961912192
 20
261.930755061749
 30
0.0
 41
1.0
 10
51.03120213366072
 20
261.9931990664744
 30
0.0
 41
1.0
 10
50.99042866777352
 20
262.180653312268
 30
0.0
 41
1.0
 10
50.96490626292932
 20
262.3057972837469
 30
0.0
 41
1.0
 10
50.91710889163483
 20
262.5564265679526
 30
0.0
 41
1.0
 10
50.89483392359392
 20
262.6819118805757
 30
0.0
 41
1.0
 10
50.86897666081572
 20
262.8389773186552
 30
0.0
 41
1.0
 10
50.86390502350942
 20
262.8704008979541
 30
0.0
 41
1.0
 10
50.85395671708262
 20
262.9332685498255
 30
0.0
 41
1.0
 10
50.84907937743483
 20
262.9647125519361
 30
0.0
 41
1.0
 10
50.83472227469432
 20
263.059073454936
 30
0.0
 41
1.0
 10
50.82551734866402
 20
263.1220192442416
 30
0.0
 41
1.0
 10
50.78112336644202
 20
263.4369195896011
 30
0.0
 41
1.0
 10
50.75080641672063
 20
263.6893862573867
 30
0.0
 41
1.0
 10
50.69576284558302
 20
264.1949071977482
 30
0.0
 41
1.0
 10
50.67104498748331
 20
264.4479623913006
 30
0.0
 41
1.0
 10
50.63483491951532
 20
264.8276362833624
 30
0.0
 41
1.0
 10
50.62291129502972
 20
264.9542096354278
 30
0.0
 41
1.0
 10
50.60785037284442
 20
265.1124098870555
 30
0.0
 41
1.0
 10
50.60483037621502
 20
265.1440491162273
 30
0.0
 41
1.0
 10
50.59876628512972
 20
265.2073250416453
 30
0.0
 41
1.0
 10
50.59572177115832
 20
265.2389616937754
 30
0.0
 41
1.0
 10
50.58654262428422
 20
265.3338668566131
 30
0.0
 41
1.0
 10
50.58036525201492
 20
265.3971308749204
 30
0.0
 41
1.0
 10
50.52429581851322
 20
265.9664573136181
 30
0.0
 41
1.0
 10
50.47106005696722
 20
266.4721682743441
 30
0.0
 41
1.0
 10
50.40405262175202
 20
267.1042583371665
 30
0.0
 41
1.0
 10
50.39062936300262
 20
267.2306740612323
 30
0.0
 41
1.0
 10
50.36383634449832
 20
267.4835111327937
 30
0.0
 41
1.0
 10
50.35046951440602
 20
267.6099327881428
 30
0.0
 41
1.0
 10
50.31057207970991
 20
267.9892190976287
 30
0.0
 41
1.0
 10
50.28421028903482
 20
268.2421014959226
 30
0.0
 41
1.0
 10
50.20557195265972
 20
269.0007956791165
 30
0.0
 41
1.0
 10
50.15374216040622
 20
269.5066544228647
 30
0.0
 41
1.0
 10
50.04995824320763
 20
270.5183588410844
 30
0.0
 41
1.0
 10
49.99798752630322
 20
271.0242027720002
 30
0.0
 41
1.0
 10
49.89385795135232
 20
272.0358708582468
 30
0.0
 41
1.0
 10
49.84168889928792
 20
272.5416939417412
 30
0.0
 41
1.0
 10
49.73719983585152
 20
273.5533242418281
 30
0.0
 41
1.0
 10
49.68489710811892
 20
274.0591332746133
 30
0.0
 41
1.0
 10
49.58038349592901
 20
275.0707609942124
 30
0.0
 41
1.0
 10
49.52819174405852
 20
275.5765816919131
 30
0.0
 41
1.0
 10
49.42386983229452
 20
276.5882295611933
 30
0.0
 41
1.0
 10
49.37173312491812
 20
277.0940560447381
 30
0.0
 41
1.0
 10
49.21526481757422
 20
278.6115293791044
 30
0.0
 41
1.0
 10
49.11090332786512
 20
279.6231730884525
 30
0.0
 41
1.0
 10
48.90221909128221
 20
281.6464645793603
 30
0.0
 41
1.0
 10
48.79792382478902
 20
282.6581151587927
 30
0.0
 41
1.0
 10
48.58938173274971
 20
284.6814210539713
 30
0.0
 41
1.0
 10
48.48507605578261
 20
285.6930705418924
 30
0.0
 41
1.0
 10
48.27652900388311
 20
287.7163759415978
 30
0.0
 41
1.0
 10
48.17231230039022
 20
288.7280343178156
 30
0.0
 41
1.0
 10
47.85968264893022
 20
291.7630114903519
 30
0.0
 41
1.0
 10
47.65126911880291
 20
293.7863302282748
 30
0.0
 41
1.0
 10
47.33881431702972
 20
296.8213248682993
 30
0.0
 41
1.0
 10
47.23466801235671
 20
297.8329902772314
 30
0.0
 41
1.0
 10
47.02642832369342
 20
299.8563263815204
 30
0.0
 41
1.0
 10
46.92233976668111
 20
300.8679975604013
 30
0.0
 41
1.0
 10
46.71416600124211
 20
302.8913402473493
 30
0.0
 41
1.0
 10
46.61010110730221
 20
303.9030137791743
 30
0.0
 41
1.0
 10
46.40206358433662
 20
305.9263700238071
 30
0.0
 41
1.0
 10
46.29805901748652
 20
306.9380495588099
 30
0.0
 41
1.0
 10
46.09004836675061
 20
308.9614084774935
 30
0.0
 41
1.0
 10
45.9860505559317
 20
309.9730886847561
 30
0.0
 41
1.0
 10
45.77813897942881
 20
311.9964574625118
 30
0.0
 41
1.0
 10
45.6742276032215
 20
313.0081462709766
 30
0.0
 41
1.0
 10
45.36251965165081
 20
316.0432153007437
 30
0.0
 41
1.0
 10
45.15479582129581
 20
318.0666027612695
 30
0.0
 41
1.0
 10
44.8433397526487
 20
321.1016968566813
 30
0.0
 41
1.0
 10
44.73953406433291
 20
322.1133961820623
 30
0.0
 41
1.0
 10
44.5319888751011
 20
324.1368014193305
 30
0.0
 41
1.0
 10
44.42825164081041
 20
325.1485075566155
 30
0.0
 41
1.0
 10
44.2208227101581
 20
327.1719243631491
 30
0.0
 41
1.0
 10
44.1171276994877
 20
328.1836347021113
 30
0.0
 41
1.0
 10
43.9097644148758
 20
330.207058040931
 30
0.0
 41
1.0
 10
43.8060959135124
 20
331.2187710181184
 30
0.0
 41
1.0
 10
43.598856462161
 20
333.2422066793861
 30
0.0
 41
1.0
 10
43.495310143438
 20
334.2539318152823
 30
0.0
 41
1.0
 10
43.30783582293191
 20
336.0854315640027
 30
0.0
 41
1.0
 10
43.2239140138818
 20
336.9052067927434
 30
0.0
 41
1.0
 10
43.14001382383975
 20
337.7249841814729
 30
0.0
 41
1.0
  0
ELLIPSE
  5
228
330
1FF
100
AcDbEntity
  8
$DDT_AUDIT_GENERATED_(AD)
  6
Continuous
 62
     7
100
AcDbEllipse
 10
-1192.4751630329
 20
335.76618607
 30
0.0
 11
1236.18902080785
 21
0.2644050524291502
 31
0.0
210
0.0
220
0.0
230
0.9999999999999998
 40
0.0302802361
 41
0.041622266222922
 42
0.0439810529842901
  0
SPLINE
  5
229
330
1FF
100
AcDbEntity
  8
$DDT_AUDIT_GENERATED_(AD)
  6
Continuous
 62
     7
100
AcDbSpline
210
0.0
220
0.0
230
1.0
 70
     8
 71
     3
 72
    21
 73
    17
 74
     0
 42
0.0000000190137969
 43
0.0000000001
 40
0.0
 40
0.0
 40
0.0
 40
0.0
 40
0.0903649262724019
 40
0.1811104233069608
 40
0.2710990820907008
 40
0.3592230313800386
 40
0.444474105684785
 40
0.525998148282929
 40
0.603127050805026
 40
0.6753876061954349
 40
0.7424908214199446
 40
0.804307848105511
 40
0.8608390703462948
 40
0.9121817944279964
 40
0.9585002606263507
 40
1.0
 40
1.0
 40
1.0
 40
1.0
 10
88.64990555585712
 20
337.7249841973499
 30
0.0
 10
88.67311359532894
 20
337.7223883843946
 30
0.0
 10
88.71962741257683
 20
337.7171858071121
 30
0.0
 10
88.78788482312186
 20
337.7073653670901
 30
0.0
 10
88.85289364437565
 20
337.6963986362857
 30
0.0
 10
88.9127589371716
 20
337.684534412995
 30
0.0
 10
88.96604535545819
 20
337.6722505661019
 30
0.0
 10
89.01188085911569
 20
337.6599547952039
 30
0.0
 10
89.04996357656866
 20
337.6480118711114
 30
0.0
 10
89.08048682377107
 20
337.6367036441291
 30
0.0
 10
89.10402076296849
 20
337.6262255097053
 30
0.0
 10
89.12136541610577
 20
337.6166916384374
 30
0.0
 10
89.13346553722852
 20
337.6081448375714
 30
0.0
 10
89.1411895742635
 20
337.6005842735509
 30
0.0
 10
89.14566453085426
 20
337.5939447680432
 30
0.0
 10
89.14657121228251
 20
337.58992026606
 30
0.0
 10
89.14700027606689
 20
337.5880183669598
 30
0.0
  0
LINE
  5
22A
330
1FF
100
AcDbEntity
  8
$DDT_AUDIT_GENERATED_(AD)
  6
Continuous
 62
     7
100
AcDbLine
 10
89.1470002761
 20
337.588018367
 30
0.0
 11
89.1470353085
 21
337.5879209518
 31
0.0
  0
ELLIPSE
  5
22B
330
1FF
100
AcDbEntity
  8
$DDT_AUDIT_GENERATED_(AD)
  6
Continuous
 62
     7
100
AcDbEllipse
 10
65.8948370799
 20
340.2320271766
 30
0.0
 11
-22.89702679120933
 21
1.073284256608576E-11
 31
0.0
210
0.0
220
0.0
230
1.0
 40
0.9848077557
 41
3.030181145499503
 42
4.712356203923015
  0
SPLINE
  5
22C
330
1FF
100
AcDbEntity
  8
$DDT_AUDIT_GENERATED_(AD)
  6
Continuous
 62
     7
100
AcDbSpline
210
0.0
220
0.0
230
1.0
 70
     8
 71
     3
 72
    10
 73
     6
 74
     0
 42
0.0000002590397529
 43
0.0000000001
 40
0.0
 40
0.0
 40
0.0
 40
0.0
 40
0.4999602785231705
 40
0.4999602785231705
 40
1.0
 40
1.0
 40
1.0
 40
1.0
 10
89.27182167260119
 20
337.6761077116872
 30
0.0
 10
89.2734010615472
 20
337.6771932704663
 30
0.0
 10
89.2737322541385
 20
337.6709996463476
 30
0.0
 10
89.27379533495659
 20
337.6565980307823
 30
0.0
 10
89.2734558300697
 20
337.6476424883995
 30
0.0
 10
89.27311990890719
 20
337.6405289870901
 30
0.0
  0
SPLINE
  5
22D
330
1FF
100
AcDbEntity
  8
$DDT_AUDIT_GENERATED_(AD)
  6
Continuous
 62
     7
100
AcDbSpline
210
0.0
220
0.0
230
1.0
 70
     8
 71
     3
 72
    10
 73
     6
 74
     0
 42
0.0000000426885709
 43
0.0000000001
 40
0.0
 40
0.0
 40
0.0
 40
0.0
 40
0.0832082138359025
 40
0.167741570842401
 40
0.2232341145785448
 40
0.2232341145785448
 40
0.2232341145785448
 40
0.2232341145785448
 10
83.29848282826582
 20
270.5807976081805
 30
0.0
 10
83.30606367646476
 20
270.5760316225903
 30
0.0
 10
83.32134576331946
 20
270.5664237598767
 30
0.0
 10
83.33005302762486
 20
270.5541518816341
 30
0.0
 10
83.33088678449782
 20
270.5468241692456
 30
0.0
 10
83.33044754922042
 20
270.5439924330714
 30
0.0
  0
SPLINE
  5
22E
330
1FF
100
AcDbEntity
  8
$DDT_AUDIT_GENERATED_(AD)
  6
Continuous
 62
     7
100
AcDbSpline
210
0.0
220
0.0
230
1.0
 70
    12
 71
     3
 72
   168
 73
   164
 74
     0
 42
0.000000000103539
 43
0.0000000001
 40
0.0
 40
0.0
 40
0.0
 40
0.0
 40
0.025625594150676
 40
0.025625594150676
 40
0.0572513274171383
 40
0.0572513274171383
 40
0.0888770606836005
 40
0.0888770606836005
 40
0.1205027939500638
 40
0.1205027939500638
 40
0.1521285272165271
 40
0.1521285272165271
 40
0.1837542604829892
 40
0.1837542604829892
 40
0.2470057270159149
 40
0.2470057270159149
 40
0.2786314602823883
 40
0.2786314602823883
 40
0.3102571935488505
 40
0.3102571935488505
 40
0.3418829268153137
 40
0.3418829268153137
 40
0.373508660081776
 40
0.373508660081776
 40
0.4051343933482392
 40
0.4051343933482392
 40
0.4367601266147014
 40
0.4367601266147014
 40
0.500011593147627
 40
0.500011593147627
 40
0.5316373264140901
 40
0.5316373264140901
 40
0.5632630596805636
 40
0.5632630596805636
 40
0.5948887929470259
 40
0.5948887929470259
 40
0.6265145262134871
 40
0.6265145262134871
 40
0.6423273928467181
 40
0.6423273928467181
 40
0.6581402594799504
 40
0.6581402594799504
 40
0.6739531261131816
 40
0.6739531261131816
 40
0.6897659927464147
 40
0.6897659927464147
 40
0.7055788593796467
 40
0.7055788593796467
 40
0.7213917260128778
 40
0.7213917260128778
 40
0.729298159329494
 40
0.729298159329494
 40
0.733251375987802
 40
0.733251375987802
 40
0.73720459264611
 40
0.73720459264611
 40
0.7530174592793422
 40
0.7530174592793422
 40
0.7549940676084957
 40
0.7549940676084957
 40
0.7559823717730729
 40
0.7559823717730729
 40
0.7569706759376502
 40
0.7569706759376502
 40
0.7609238925959582
 40
0.7609238925959582
 40
0.7688303259125743
 40
0.7688303259125743
 40
0.7767367592291903
 40
0.7767367592291903
 40
0.7787133675583439
 40
0.7787133675583439
 40
0.779701671722921
 40
0.779701671722921
 40
0.7806899758874973
 40
0.7806899758874973
 40
0.7846431925458053
 40
0.7846431925458053
 40
0.7885964092041144
 40
0.7885964092041144
 40
0.790573017533269
 40
0.790573017533269
 40
0.7925496258624225
 40
0.7925496258624225
 40
0.8004560591790376
 40
0.8004560591790376
 40
0.8044092758373457
 40
0.8044092758373457
 40
0.8083624924956536
 40
0.8083624924956536
 40
0.8162689258122706
 40
0.8162689258122706
 40
0.8241753591288857
 40
0.8241753591288857
 40
0.8320817924455018
 40
0.8320817924455018
 40
0.839988225762118
 40
0.839988225762118
 40
0.8409765299266951
 40
0.8409765299266951
 40
0.8419648340912713
 40
0.8419648340912713
 40
0.8439414424204259
 40
0.8439414424204259
 40
0.847894659078734
 40
0.847894659078734
 40
0.8558010923953501
 40
0.8558010923953501
 40
0.8637075257119661
 40
0.8637075257119661
 40
0.8716139590285821
 40
0.8716139590285821
 40
0.8795203923451982
 40
0.8795203923451982
 40
0.8874268256618133
 40
0.8874268256618133
 40
0.8913800423201212
 40
0.8913800423201212
 40
0.8933566506492758
 40
0.8933566506492758
 40
0.8953332589784294
 40
0.8953332589784294
 40
0.9032396922950464
 40
0.9032396922950464
 40
0.9111461256116618
 40
0.9111461256116618
 40
0.9190525589282775
 40
0.9190525589282775
 40
0.9269589922448943
 40
0.9269589922448943
 40
0.9348654255615099
 40
0.9348654255615099
 40
0.9427718588781256
 40
0.9427718588781256
 40
0.9467250755364336
 40
0.9467250755364336
 40
0.9477133797010111
 40
0.9477133797010111
 40
0.9487016838655874
 40
0.9487016838655874
 40
0.9506782921947412
 40
0.9506782921947412
 40
0.958584725511358
 40
0.958584725511358
 40
0.9664911588279738
 40
0.9664911588279738
 40
0.9743975921445894
 40
0.9743975921445894
 40
0.9823040254612062
 40
0.9823040254612062
 40
0.9902104587778219
 40
0.9902104587778219
 40
0.9981168920944375
 40
0.9981168920944375
 40
0.9991051962590151
 40
0.9991051962590151
 40
0.9995993483413032
 40
0.9995993483413032
 40
0.9998464243824473
 40
0.9998464243824473
 40
0.9999699624030199
 40
0.9999699624030199
 40
1.0
 40
1.0
 40
1.0
 40
1.0
 10
88.64990555585712
 20
337.7249841973499
 30
0.0
 41
1.0
 10
88.5660055137388
 20
336.9052067927434
 30
0.0
 41
1.0
 10
88.4820837046886
 20
336.0854315640027
 30
0.0
 41
1.0
 10
88.29460938418251
 20
334.2539318152823
 30
0.0
 41
1.0
 10
88.1910630654595
 20
333.2422066793861
 30
0.0
 41
1.0
 10
87.9838236141081
 20
331.2187710181184
 30
0.0
 41
1.0
 10
87.8801551127448
 20
330.207058040931
 30
0.0
 41
1.0
 10
87.6727918281328
 20
328.1836347021114
 30
0.0
 41
1.0
 10
87.56909681746241
 20
327.1719243631491
 30
0.0
 41
1.0
 10
87.3616678868101
 20
325.1485075566155
 30
0.0
 41
1.0
 10
87.25793065251949
 20
324.1368014193305
 30
0.0
 41
1.0
 10
87.05038546328761
 20
322.1133961820623
 30
0.0
 41
1.0
 10
86.94657977497181
 20
321.1016968566813
 30
0.0
 41
1.0
 10
86.6351237063247
 20
318.0666027612695
 30
0.0
 41
1.0
 10
86.4273998759697
 20
316.0432153007437
 30
0.0
 41
1.0
 10
86.11569192439902
 20
313.0081462709766
 30
0.0
 41
1.0
 10
86.01178054819171
 20
311.9964574625118
 30
0.0
 41
1.0
 10
85.8038689716889
 20
309.9730886847561
 30
0.0
 41
1.0
 10
85.69987116087
 20
308.9614084774935
 30
0.0
 41
1.0
 10
85.4918605101341
 20
306.9380495588099
 30
0.0
 41
1.0
 10
85.38785594328402
 20
305.9263700238071
 30
0.0
 41
1.0
 10
85.17981842031831
 20
303.9030137791743
 30
0.0
 41
1.0
 10
85.07575352637842
 20
302.8913402473493
 30
0.0
 41
1.0
 10
84.8675797609394
 20
300.8679975604013
 30
0.0
 41
1.0
 10
84.7634912039272
 20
299.8563263815204
 30
0.0
 41
1.0
 10
84.55525151526392
 20
297.8329902772314
 30
0.0
 41
1.0
 10
84.45110521059091
 20
296.8213248682993
 30
0.0
 41
1.0
 10
84.13865040881761
 20
293.7863302282748
 30
0.0
 41
1.0
 10
83.93023687869042
 20
291.7630114903519
 30
0.0
 41
1.0
 10
83.61760722723031
 20
288.7280343178156
 30
0.0
 41
1.0
 10
83.51339052373751
 20
287.7163759415978
 30
0.0
 41
1.0
 10
83.30484347183791
 20
285.6930705418924
 30
0.0
 41
1.0
 10
83.20053779487081
 20
284.6814210539713
 30
0.0
 41
1.0
 10
82.99199570283162
 20
282.6581151587927
 30
0.0
 41
1.0
 10
82.88770043633842
 20
281.6464645793603
 30
0.0
 41
1.0
 10
82.67901619975541
 20
279.6231730884525
 30
0.0
 41
1.0
 10
82.57465471004633
 20
278.6115293791044
 30
0.0
 41
1.0
 10
82.41818640270242
 20
277.0940560447381
 30
0.0
 41
1.0
 10
82.36604969532611
 20
276.5882295611933
 30
0.0
 41
1.0
 10
82.26172778356201
 20
275.5765816919131
 30
0.0
 41
1.0
 10
82.20953603169151
 20
275.0707609942124
 30
0.0
 41
1.0
 10
82.10502241950171
 20
274.0591332746133
 30
0.0
 41
1.0
 10
82.05271969176903
 20
273.5533242418281
 30
0.0
 41
1.0
 10
81.94823062833271
 20
272.5416939417412
 30
0.0
 41
1.0
 10
81.89606157626832
 20
272.0358708582468
 30
0.0
 41
1.0
 10
81.79193200131742
 20
271.0242027720002
 30
0.0
 41
1.0
 10
81.73996128441303
 20
270.5183588410844
 30
0.0
 41
1.0
 10
81.63617736721442
 20
269.5066544228647
 30
0.0
 41
1.0
 10
81.58434757496082
 20
269.0007956791165
 30
0.0
 41
1.0
 10
81.50570923858572
 20
268.2421014959226
 30
0.0
 41
1.0
 10
81.47934744791061
 20
267.9892190976287
 30
0.0
 41
1.0
 10
81.43945001321462
 20
267.6099327881428
 30
0.0
 41
1.0
 10
81.42608318312232
 20
267.4835111327937
 30
0.0
 41
1.0
 10
81.39929016461791
 20
267.2306740612323
 30
0.0
 41
1.0
 10
81.38586690586853
 20
267.1042583371665
 30
0.0
 41
1.0
 10
81.31885947065342
 20
266.4721682743441
 30
0.0
 41
1.0
 10
81.26562370910732
 20
265.9664573136181
 30
0.0
 41
1.0
 10
81.20955427560573
 20
265.3971308749204
 30
0.0
 41
1.0
 10
81.20337690333632
 20
265.3338668566131
 30
0.0
 41
1.0
 10
81.19419775646222
 20
265.2389616937754
 30
0.0
 41
1.0
 10
81.19115324249083
 20
265.2073250416453
 30
0.0
 41
1.0
 10
81.18508915140562
 20
265.1440491162273
 30
0.0
 41
1.0
 10
81.18206915477622
 20
265.1124098870555
 30
0.0
 41
1.0
 10
81.16700823259082
 20
264.9542096354278
 30
0.0
 41
1.0
 10
81.15508460810523
 20
264.8276362833624
 30
0.0
 41
1.0
 10
81.11887454013723
 20
264.4479623913006
 30
0.0
 41
1.0
 10
81.09415668203762
 20
264.1949071977482
 30
0.0
 41
1.0
 10
81.03911311090002
 20
263.6893862573867
 30
0.0
 41
1.0
 10
81.00879616117862
 20
263.4369195896011
 30
0.0
 41
1.0
 10
80.96440217895662
 20
263.1220192442416
 30
0.0
 41
1.0
 10
80.95519725292633
 20
263.059073454936
 30
0.0
 41
1.0
 10
80.94084015018572
 20
262.9647125519361
 30
0.0
 41
1.0
 10
80.93596281053792
 20
262.9332685498255
 30
0.0
 41
1.0
 10
80.92601450411112
 20
262.8704008979541
 30
0.0
 41
1.0
 10
80.92094286680482
 20
262.8389773186552
 30
0.0
 41
1.0
 10
80.89508560402672
 20
262.6819118805757
 30
0.0
 41
1.0
 10
80.87281063598573
 20
262.5564265679526
 30
0.0
 41
1.0
 10
80.82501326469132
 20
262.3057972837469
 30
0.0
 41
1.0
 10
80.79949085984703
 20
262.180653312268
 30
0.0
 41
1.0
 10
80.75871739395981
 20
261.9931990664744
 30
0.0
 41
1.0
 10
80.74470990849862
 20
261.930755061749
 30
0.0
 41
1.0
 10
80.71592777007092
 20
261.8062560224397
 30
0.0
 41
1.0
 10
80.70114511323801
 20
261.7441633419525
 30
0.0
 41
1.0
 10
80.62527319928692
 20
261.4344844124494
 30
0.0
 41
1.0
 10
80.55830808310601
 20
261.1892515700354
 30
0.0
 41
1.0
 10
80.44844480772232
 20
260.825173455177
 30
0.0
 41
1.0
 10
80.41025418588463
 20
260.7044427137232
 30
0.0
 41
1.0
 10
80.33073322920282
 20
260.4642387527068
 30
0.0
 41
1.0
 10
80.28940628339602
 20
260.3447641757719
 30
0.0
 41
1.0
 10
80.16081645376333
 20
259.9881864444744
 30
0.0
 41
1.0
 10
80.06895261115142
 20
259.7529260720204
 30
0.0
 41
1.0
 10
79.87323053520562
 20
259.2872093358854
 30
0.0
 41
1.0
 10
79.76937207102621
 20
259.0567530646748
 30
0.0
 41
1.0
 10
79.54968504675811
 20
258.6006348005383
 30
0.0
 41
1.0
 10
79.43386766035232
 20
258.3749683322253
 30
0.0
 41
1.0
 10
79.18996434069223
 20
257.9285492098142
 30
0.0
 41
1.0
 10
79.06185702220682
 20
257.7078051209743
 30
0.0
 41
1.0
 10
78.91057141381602
 20
257.4623377059121
 30
0.0
 41
1.0
 10
78.89366243510992
 20
257.4351033872134
 30
0.0
 41
1.0
 10
78.85964479165352
 20
257.3807147283047
 30
0.0
 41
1.0
 10
78.84252969415333
 20
257.3535503107574
 30
0.0
 41
1.0
 10
78.79094513076193
 20
257.2722737934536
 30
0.0
 41
1.0
 10
78.75623259216802
 20
257.2183716369255
 30
0.0
 41
1.0
 10
78.65113276365493
 20
257.0575062462024
 30
0.0
 41
1.0
 10
78.57978314092702
 20
256.9513841958255
 30
0.0
 41
1.0
 10
78.36193974980122
 20
256.6363348716401
 30
0.0
 41
1.0
 10
78.21164286041962
 20
256.4307319402939
 30
0.0
 41
1.0
 10
77.90130153770353
 20
256.0280464940946
 30
0.0
 41
1.0
 10
77.74127697520503
 20
255.8309466100022
 30
0.0
 41
1.0
 10
77.41176382019492
 20
255.4450194360907
 30
0.0
 41
1.0
 10
77.24227477497323
 20
255.2561925421057
 30
0.0
 41
1.0
 10
76.89378480792072
 20
254.8868531715771
 30
0.0
 41
1.0
 10
76.71478077161143
 20
254.7063434175389
 30
0.0
 41
1.0
 10
76.34693781313861
 20
254.3539206720854
 30
0.0
 41
1.0
 10
76.15809442470292
 20
254.182011584871
 30
0.0
 41
1.0
 10
75.86724299244578
 20
253.9307792509421
 30
0.0
 41
1.0
 10
75.76902866911541
 20
253.8481398787947
 30
0.0
 41
1.0
 10
75.61979120207047
 20
253.7258555978169
 30
0.0
 41
1.0
 10
75.56972608739126
 20
253.6853732671568
 30
0.0
 41
1.0
 10
75.46895437079446
 20
253.6049693356257
 30
0.0
 41
1.0
 10
75.4182244341131
 20
253.5650303052151
 30
0.0
 41
1.0
 10
75.16370042766927
 20
253.3673072759988
 30
0.0
 41
1.0
 10
74.95676684399211
 20
253.2150253158127
 30
0.0
 41
1.0
 10
74.53655034371049
 20
252.921757210773
 30
0.0
 41
1.0
 10
74.32327897843165
 20
252.7807505154456
 30
0.0
 41
1.0
 10
73.89061342090523
 20
252.5096299735132
 30
0.0
 41
1.0
 10
73.67121874968178
 20
252.3795169790125
 30
0.0
 41
1.0
 10
73.22632930981355
 20
252.1301434014922
 30
0.0
 41
1.0
 10
73.00083477449972
 20
252.0108824034779
 30
0.0
 41
1.0
 10
72.54359329171201
 20
251.7834837951621
 30
0.0
 41
1.0
 10
72.3118362737405
 20
251.6753641010117
 30
0.0
 41
1.0
 10
71.84186481436724
 20
251.4706128269675
 30
0.0
 41
1.0
 10
71.60365008936505
 20
251.3739817516035
 30
0.0
 41
1.0
 10
71.24140346896787
 20
251.2377961557659
 30
0.0
 41
1.0
 10
71.11983446856199
 20
251.1938600084179
 30
0.0
 41
1.0
 10
70.96684445564598
 20
251.1407700496054
 30
0.0
 41
1.0
 10
70.936183953286
 20
251.1302398159509
 30
0.0
 41
1.0
 10
70.8748329699214
 20
251.1093870401675
 30
0.0
 41
1.0
 10
70.8441398212591
 20
251.0990634784784
 30
0.0
 41
1.0
 10
70.75200774261204
 20
251.0683993020657
 30
0.0
 41
1.0
 10
70.69051617772563
 20
251.0483652090806
 30
0.0
 41
1.0
 10
70.38271210243921
 20
250.9502111512777
 30
0.0
 41
1.0
 10
70.13536419458457
 20
250.8781208701746
 30
0.0
 41
1.0
 10
69.63854589764038
 20
250.7463006720489
 30
0.0
 41
1.0
 10
69.38907520853526
 20
250.686572502468
 30
0.0
 41
1.0
 10
68.88802537912103
 20
250.5793948234189
 30
0.0
 41
1.0
 10
68.63644627952773
 20
250.5319450765901
 30
0.0
 41
1.0
 10
68.13112595154406
 20
250.4496368371938
 30
0.0
 41
1.0
 10
67.87737706224301
 20
250.4148229579657
 30
0.0
 41
1.0
 10
67.36769226764024
 20
250.3579313851841
 30
0.0
 41
1.0
 10
67.11175714268418
 20
250.3358491471243
 30
0.0
 41
1.0
 10
66.59769951657587
 20
250.3044229547158
 30
0.0
 41
1.0
 10
66.3395770119246
 20
250.2950790202968
 30
0.0
 41
1.0
 10
66.04795928120099
 20
250.29172954747
 30
0.0
 41
1.0
 10
66.01554023082487
 20
250.2914568517116
 30
0.0
 41
1.0
 10
65.96688603843883
 20
250.2911969887481
 30
0.0
 41
1.0
 10
65.95066370484632
 20
250.2911352311789
 30
0.0
 41
1.0
 10
65.92632380076635
 20
250.2910798870123
 30
0.0
 41
1.0
 10
65.91820943212453
 20
250.2910676543214
 30
0.0
 41
1.0
 10
65.90603627830411
 20
250.2910586279406
 30
0.0
 41
1.0
 10
65.90197829355431
 20
250.2910571729236
 30
0.0
 41
1.0
 10
65.8969333002358
 20
250.2910572956571
 30
0.0
 41
1.0
 10
65.89594653863709
 20
250.2910574115201
 30
0.0
 41
1.0
 10
65.89495976389894
 20
250.2910576288087
 30
0.0
 41
1.0
  0
ARC
  5
22F
330
1FF
100
AcDbEntity
  8
$DDT_AUDIT_GENERATED_(AD)
  6
Continuous
 62
     7
100
AcDbCircle
 10
92.6027253194
 20
332.8304185603
 30
0.0
 40
5.880103949431891
100
AcDbArc
 50
124.5044468684
 51
125.9933955372
  0
ARC
  5
230
330
1FF
100
AcDbEntity
  8
$DDT_AUDIT_GENERATED_(AD)
  6
Continuous
 62
     7
100
AcDbCircle
 10
65.8963643012
 20
341.0396384975
 30
0.0
 40
24.97839105910965
100
AcDbArc
 50
335.9020603581
 51
353.5111397008
  0
ARC
  5
231
330
1FF
100
AcDbEntity
  8
$DDT_AUDIT_GENERATED_(AD)
  6
Continuous
 62
     7
100
AcDbCircle
 10
72.3554662156
 20
340.307965275
 30
0.0
 40
18.47798096266474
100
AcDbArc
 50
353.5019697168
 51
354.3612292429
  0
ARC
  5
232
330
1FF
100
AcDbEntity
  8
$DDT_AUDIT_GENERATED_(AD)
  6
Continuous
 62
     7
100
AcDbCircle
 10
73.0890228975
 20
340.2665455175
 30
0.0
 40
17.74393093652337
100
AcDbArc
 50
354.2615900403
 51
1.5365228544
  0
ARC
  5
233
330
1FF
100
AcDbEntity
  8
$DDT_AUDIT_GENERATED_(AD)
  6
Continuous
 62
     7
100
AcDbCircle
 10
94.8972205763
 20
341.0199903895
 30
0.0
 40
4.080105210316493
100
AcDbArc
 50
180.0757185696
 51
183.9020630911
  0
ARC
  5
234
330
1FF
100
AcDbEntity
  8
$DDT_AUDIT_GENERATED_(AD)
  6
Continuous
 62
     7
100
AcDbCircle
 10
66.8612108717
 20
340.0346408758
 30
0.0
 40
23.97594310019332
100
AcDbArc
 50
2.3424760957
 51
44.3346069289
  0
ARC
  5
235
330
1FF
100
AcDbEntity
  8
$DDT_AUDIT_GENERATED_(AD)
  6
Continuous
 62
     7
100
AcDbCircle
 10
66.0443519165
 20
339.0862226154
 30
0.0
 40
25.22324724543761
100
AcDbArc
 50
44.5788353945
 51
87.5624351414
  0
ELLIPSE
  5
236
330
1FF
100
AcDbEntity
  8
$DDT_AUDIT_GENERATED_(AD)
  6
Continuous
 62
     7
100
AcDbEllipse
 10
65.9053769825
 20
341.3039756758
 30
0.0
 11
24.44509705606666
 21
-0.0639638719198365
 31
0.0
210
0.0
220
0.0
230
0.9999999999999998
 40
0.941342431
 41
1.523669735563868
 42
1.62364521940741
  0
ARC
  5
237
330
1FF
100
AcDbEntity
  8
$DDT_AUDIT_GENERATED_(AD)
  6
Continuous
 62
     7
100
AcDbCircle
 10
65.893555053
 20
341.0396383033
 30
0.0
 40
24.97839086492997
100
AcDbArc
 50
186.4888599014
 51
204.1372749445
  0
ARC
  5
238
330
1FF
100
AcDbEntity
  8
$DDT_AUDIT_GENERATED_(AD)
  6
Continuous
 62
     7
100
AcDbCircle
 10
59.4344424864
 20
340.307964124
 30
0.0
 40
18.47797007633801
100
AcDbArc
 50
185.6387705039
 51
186.4980305362
  0
ARC
  5
239
330
1FF
100
AcDbEntity
  8
$DDT_AUDIT_GENERATED_(AD)
  6
Continuous
 62
     7
100
AcDbCircle
 10
58.7783023855
 20
340.2693851341
 30
0.0
 40
17.82123339513753
100
AcDbArc
 50
178.4792763332
 51
185.7226107722
  0
ARC
  5
23A
330
1FF
100
AcDbEntity
  8
$DDT_AUDIT_GENERATED_(AD)
  6
Continuous
 62
     7
100
AcDbCircle
 10
36.89228748
 20
341.0200046792
 30
0.0
 40
4.080516700255506
100
AcDbArc
 50
356.0981298999
 51
359.9240884237
  0
ARC
  5
23B
330
1FF
100
AcDbEntity
  8
$DDT_AUDIT_GENERATED_(AD)
  6
Continuous
 62
     7
100
AcDbCircle
 10
64.9237692772
 20
340.0367720484
 30
0.0
 40
23.97092081999643
100
AcDbArc
 50
135.6607859056
 51
177.6621310694
  0
ARC
  5
23C
330
1FF
100
AcDbEntity
  8
$DDT_AUDIT_GENERATED_(AD)
  6
Continuous
 62
     7
100
AcDbCircle
 10
65.7649513401
 20
339.0421326694
 30
0.0
 40
25.26800655284318
100
AcDbArc
 50
92.4740796162
 51
135.3808041075
  0
ARC
  5
23D
330
1FF
100
AcDbEntity
  8
$DDT_AUDIT_GENERATED_(AD)
  6
Continuous
 62
     7
100
AcDbCircle
 10
26780.9184994342
 20
2671.9184351672
 30
0.0
 40
26840.0999474466
100
AcDbArc
 50
184.9902279301
 51
185.1330974413
  0
SPLINE
  5
23E
330
1FF
100
AcDbEntity
  8
$DDT_AUDIT_GENERATED_(AD)
  6
Continuous
 62
     7
100
AcDbSpline
210
0.0
220
0.0
230
1.0
 70
     8
 71
     3
 72
    44
 73
    40
 74
     0
 42
0.0000000002912668
 43
0.0000000001
 40
0.0
 40
0.0
 40
0.0
 40
0.0
 40
0.0512843824895531
 40
0.0976079802110026
 40
0.138979638629644
 40
0.1754155699089436
 40
0.2069086792879242
 40
0.2334538602893834
 40
0.2550526586775157
 40
0.2717645179029312
 40
0.2835809004846085
 40
0.2908252539760128
 40
0.2995914938239836
 40
0.3120077943163101
 40
0.3415249742246587
 40
0.3728870867897945
 40
0.4024627730728619
 40
0.4303399552719998
 40
0.4562148545969035
 40
0.4799323419934021
 40
0.5016673290844561
 40
0.5230352468980031
 40
0.54435239185261
 40
0.5651866698346704
 40
0.5850941461351608
 40
0.6041141538936708
 40
0.6222784875623549
 40
0.6415467896695821
 40
0.6595396603129818
 40
0.6816256628971159
 40
0.7076568598773219
 40
0.7374739228096214
 40
0.7711468542698366
 40
0.8022857233586498
 40
0.8364115258953001
 40
0.873463192483188
 40
0.9129199159580416
 40
0.9549765661535333
 40
1.0
 40
1.0
 40
1.0
 40
1.0
 10
48.45943761560262
 20
270.5439556690054
 30
0.0
 10
48.51753121416805
 20
269.905872711686
 30
0.0
 10
48.61046199315518
 20
268.8841533902589
 30
0.0
 10
48.75709330627446
 20
267.282402305816
 30
0.0
 10
48.88360694454111
 20
265.8848349885824
 30
0.0
 10
48.99522491170625
 20
264.6466445464756
 30
0.0
 10
49.09196527074894
 20
263.5779516703625
 30
0.0
 10
49.17377393827052
 20
262.6766462998474
 30
0.0
 10
49.24054208855935
 20
261.9424820550723
 30
0.0
 10
49.29229336179547
 20
261.3752329628137
 30
0.0
 10
49.3321251759787
 20
260.9709458772081
 30
0.0
 10
49.36566329685431
 20
260.6567491550531
 30
0.0
 10
49.40275764756091
 20
260.335608185427
 30
0.0
 10
49.47681553938843
 20
259.7637249580161
 30
0.0
 10
49.61493892730106
 20
258.94101230776
 30
0.0
 10
49.85420030226491
 20
257.9383749454072
 30
0.0
 10
50.15363386350059
 20
256.9708058154731
 30
0.0
 10
50.49194090569492
 20
256.0819007777602
 30
0.0
 10
50.85324051859627
 20
255.274144254472
 30
0.0
 10
51.22337780644566
 20
254.5478223231139
 30
0.0
 10
51.60074769381129
 20
253.8835815050741
 30
0.0
 10
51.9923914684343
 20
253.2593812373877
 30
0.0
 10
52.40538018294461
 20
252.6610578546817
 30
0.0
 10
52.8344688292586
 20
252.0944641275035
 30
0.0
 10
53.27057657353456
 20
251.5664276632257
 30
0.0
 10
53.70720201295537
 20
251.0787366590974
 30
0.0
 10
54.15706678927644
 20
250.6129329102339
 30
0.0
 10
54.61596938803751
 20
250.1724453295796
 30
0.0
 10
55.12509166892146
 20
249.7196709577274
 30
0.0
 10
55.71288071402762
 20
249.2386870976936
 30
0.0
 10
56.43363125310602
 20
248.7062575182053
 30
0.0
 10
57.295769307378
 20
248.1422248078368
 30
0.0
 10
58.24377908990575
 20
247.6041156750278
 30
0.0
 10
59.27037414349678
 20
247.1072802257156
 30
0.0
 10
60.36499512012237
 20
246.6668246948686
 30
0.0
 10
61.58495377382976
 20
246.2828235598156
 30
0.0
 10
62.91503638542607
 20
245.9871477562322
 30
0.0
 10
64.39199578975015
 20
245.7856456531517
 30
0.0
 10
65.32352419363605
 20
245.7585400951562
 30
0.0
 10
65.89504910353617
 20
245.7457032013708
 30
0.0
  0
ARC
  5
23F
330
1FF
100
AcDbEntity
  8
$DDT_AUDIT_GENERATED_(AD)
  6
Continuous
 62
     7
100
AcDbCircle
 10
-24979.1627380137
 20
2524.0099002956
 30
0.0
 40
25163.59818334353
100
AcDbArc
 50
354.862130311
 51
355.0144472689
  0
ARC
  5
240
330
1FF
100
AcDbEntity
  8
$DDT_AUDIT_GENERATED_(AD)
  6
Continuous
 62
     7
100
AcDbCircle
 10
-24979.1627380137
 20
2524.0099002956
 30
0.0
 40
25163.59818334353
100
AcDbArc
 50
355.0144888964
 51
355.0145165764
  0
SPLINE
  5
241
330
1FF
100
AcDbEntity
  8
$DDT_AUDIT_GENERATED_(AD)
  6
Continuous
 62
     7
100
AcDbSpline
210
0.0
220
0.0
230
1.0
 70
     8
 71
     3
 72
    47
 73
    43
 74
     0
 42
0.0000000002912802
 43
0.0000000001
 40
0.0
 40
0.0
 40
0.0
 40
0.0
 40
0.0425011760129874
 40
0.0815840372129193
 40
0.1175458790456892
 40
0.1505670344507047
 40
0.1804446556694402
 40
0.2129479701905064
 40
0.2404175883797686
 40
0.2648183242612279
 40
0.2868708478334236
 40
0.3088144318303996
 40
0.3296491872630102
 40
0.355737183706985
 40
0.3875859904222236
 40
0.4104421354698271
 40
0.4315571209119797
 40
0.4491770623874068
 40
0.4632917134750899
 40
0.4738755248823908
 40
0.48516112014232
 40
0.4999844523508184
 40
0.5182940546380731
 40
0.5400749465481528
 40
0.5646956942233601
 40
0.5949463119106282
 40
0.6241072159608447
 40
0.6522416529590195
 40
0.6788316323984738
 40
0.6932374487914769
 40
0.7041974659447794
 40
0.7118188995823265
 40
0.7185486946240663
 40
0.7284384704318413
 40
0.741449951963188
 40
0.7575641166336763
 40
0.783952287451388
 40
0.8159495595462783
 40
0.8535534849576518
 40
0.8967537469763048
 40
0.9455646996725202
 40
1.0
 40
1.0
 40
1.0
 40
1.0
 10
65.89487040363353
 20
245.7457032013607
 30
0.0
 10
66.43439152941689
 20
245.7571522297736
 30
0.0
 10
67.3068351217626
 20
245.7810411590409
 30
0.0
 10
68.67992731389238
 20
245.9567588487021
 30
0.0
 10
69.8961173319232
 20
246.2072637956422
 30
0.0
 10
70.99425274335728
 20
246.5230419570408
 30
0.0
 10
72.02777660797088
 20
246.9001827523181
 30
0.0
 10
72.9754791229531
 20
247.3192192653297
 30
0.0
 10
73.83864905061768
 20
247.7664349701867
 30
0.0
 10
74.5730693851011
 20
248.1967357618379
 30
0.0
 10
75.23302431022425
 20
248.6255803145071
 30
0.0
 10
75.8394959973496
 20
249.0593057556451
 30
0.0
 10
76.46245565070222
 20
249.54763943537
 30
0.0
 10
77.14698527416807
 20
250.1396789528218
 30
0.0
 10
77.81159690929832
 20
250.7870047885602
 30
0.0
 10
78.39999149655489
 20
251.427276636164
 30
0.0
 10
78.85379795420708
 20
251.9679610112393
 30
0.0
 10
79.22406891787867
 20
252.4467513907668
 30
0.0
 10
79.50752502678057
 20
252.8395240302719
 30
0.0
 10
79.739828164859
 20
253.1794342108374
 30
0.0
 10
79.96883542986932
 20
253.5312637363371
 30
0.0
 10
80.2345574813937
 20
253.9643364872296
 30
0.0
 10
80.5447967927262
 20
254.5102747848174
 30
0.0
 10
80.88420683860511
 20
255.1674568294908
 30
0.0
 10
81.24883537901879
 20
255.9634739715862
 30
0.0
 10
81.59739436214127
 20
256.8572245252337
 30
0.0
 10
81.89845370855694
 20
257.8090471070732
 30
0.0
 10
82.12939161525433
 20
258.736461953562
 30
0.0
 10
82.273288031959
 20
259.5101176674888
 30
0.0
 10
82.35689977700505
 20
260.0951683274329
 30
0.0
 10
82.40281065651287
 20
260.4675424282668
 30
0.0
 10
82.43476083321013
 20
260.753440995403
 30
0.0
 10
82.46337596392755
 20
261.027181030396
 30
0.0
 10
82.49617236357723
 20
261.3621081906957
 30
0.0
 10
82.53678727175564
 20
261.8035183276966
 30
0.0
 10
82.59386573142235
 20
262.431970331453
 30
0.0
 10
82.67050774905395
 20
263.2751698116463
 30
0.0
 10
82.76889329488684
 20
264.3610532927843
 30
0.0
 10
82.88414895221621
 20
265.6388920437441
 30
0.0
 10
83.0160275298316
 20
267.0983041945702
 30
0.0
 10
83.17049280382157
 20
268.7860569592693
 30
0.0
 10
83.2687992773294
 20
269.8666734275857
 30
0.0
 10
83.33048191201793
 20
270.5439556690054
 30
0.0
  0
ARC
  5
242
330
1FF
100
AcDbEntity
  8
$DDT_AUDIT_GENERATED_(1A9)
  6
Continuous
 62
     7
100
AcDbCircle
 10
65.8940575533
 20
341.0978596857
 30
0.0
 40
23.64931288642442
100
AcDbArc
 50
54.1135777821
 51
124.9619004559
  0
ENDBLK
  5
244
330
1FF
100
AcDbEntity
  8
0
100
AcDbBlockEnd
  0
ENDSEC
  0
SECTION
  2
ENTITIES
  0
INSERT
  5
5F
330
1F
100
AcDbEntity
  8
Default
100
AcDbBlockReference
  2
SEANNOT_GROUP
 10
0.0
 20
0.0
 30
0.0
  0
INSERT
  5
66
330
1F
100
AcDbEntity
  8
Default
100
AcDbBlockReference
  2
SEANNOT_GROUP1
 10
0.0
 20
0.0
 30
0.0
  0
INSERT
  5
6C
330
1F
100
AcDbEntity
  8
Default
100
AcDbBlockReference
  2
SEANNOT_GROUP2
 10
0.0
 20
0.0
 30
0.0
  0
INSERT
  5
72
330
1F
100
AcDbEntity
  8
Default
100
AcDbBlockReference
  2
SE
 10
0.0
 20
0.0
 30
0.0
  0
INSERT
  5
1AF
330
1F
100
AcDbEntity
  8
Default
100
AcDbBlockReference
  2
SE1
 10
0.0
 20
0.0
 30
0.0
  0
INSERT
  5
200
330
1F
100
AcDbEntity
  8
Default
100
AcDbBlockReference
  2
SE2
 10
0.0
 20
0.0
 30
0.0
  0
TEXT
  5
246
330
1F
100
AcDbEntity
  8
Default
  6
Continuous
 62
     7
100
AcDbText
 10
5.9362635081
 20
53.4225120485
 30
0.0
 40
10.0
  1
Grohe AG^J
  7
SEACAD_seiso_ttf
 11
5.9362635081
 21
63.4225120485
 31
0.0
100
AcDbText
 73
     3
  0
TEXT
  5
247
330
1F
100
AcDbEntity
  8
Default
  6
Continuous
 62
     7
100
AcDbText
 10
5.9362635081
 20
37.0588756849
 30
0.0
 40
10.0
  1
 
  7
SEACAD_seiso_ttf
 11
5.9362635081
 21
47.0588756849
 31
0.0
100
AcDbText
 73
     3
  0
TEXT
  5
248
330
1F
100
AcDbEntity
  8
Default
  6
Continuous
 62
     7
100
AcDbText
 10
5.9362635081
 20
20.6952393213
 30
0.0
 40
10.0
  1
ecn: 
  7
SEACAD_seiso_ttf
 11
5.9362635081
 21
30.6952393213
 31
0.0
100
AcDbText
 73
     3
  0
TEXT
  5
249
330
1F
100
AcDbEntity
  8
Default
  6
Continuous
 62
     7
100
AcDbText
 10
5.9362635081
 20
4.3316029576
 30
0.0
 40
10.0
  1
unit: mm
  7
SEACAD_seiso_ttf
 11
5.9362635081
 21
14.3316029576
 31
0.0
100
AcDbText
 73
     3
  0
LINE
  5
24A
330
1F
100
AcDbEntity
  8
Default
  6
Continuous
 62
     7
100
AcDbLine
 10
0.0
 20
0.0
 30
0.0
 11
100.0
 21
0.0
 31
0.0
  0
LINE
  5
24B
330
1F
100
AcDbEntity
  8
Default
  6
Continuous
 62
     7
100
AcDbLine
 10
0.0
 20
0.0
 30
0.0
 11
0.0
 21
100.0
 31
0.0
  0
TEXT
  5
24C
330
1F
100
AcDbEntity
  8
Default
  6
Continuous
 62
     7
100
AcDbText
 10
24.3923665681
 20
-18.2375342018
 30
0.0
 40
10.0
  1
100 mm
  7
SEACAD_seiso_ttf
 11
24.3923665681
 21
-8.2375342018
 31
0.0
100
AcDbText
 73
     3
  0
TEXT
  5
24D
330
1F
100
AcDbEntity
  8
Default
  6
Continuous
 62
     7
100
AcDbText
 10
-7.6150308803
 20
24.6231930421
 30
0.0
 40
10.0
  1
100 mm
 50
90.0
  7
SEACAD_seiso_ttf
 11
-17.6150308803
 21
24.6231930421
 31
0.0
100
AcDbText
 73
     3
  0
TEXT
  5
24E
330
1F
100
AcDbEntity
  8
Default
  6
Continuous
 62
     7
100
AcDbText
 10
28.4878128572
 20
20.0907663715
 30
0.0
 40
10.0
  1
220802
  7
SEACAD_seiso_ttf
 11
28.4878128572
 21
30.0907663715
 31
0.0
100
AcDbText
 73
     3
  0
TEXT
  5
24F
330
1F
100
AcDbEntity
  8
Default
  6
Continuous
 62
     7
100
AcDbText
 10
5.9012241913
 20
36.7242780188
 30
0.0
 40
10.0
  1
33312002
  7
SEACAD_seiso_ttf
 11
5.9012241913
 21
46.7242780188
 31
0.0
100
AcDbText
 73
     3
  0
ENDSEC
  0
SECTION
  2
OBJECTS
  0
DICTIONARY
  5
C
330
0
100
AcDbDictionary
281
     1
  3
ACAD_GROUP
350
D
  3
ACAD_LAYOUT
350
1A
  3
ACAD_MLEADERSTYLE
350
253
  3
ACAD_MLINESTYLE
350
17
  3
ACAD_PLOTSETTINGS
350
19
  3
ACAD_PLOTSTYLENAME
350
E
  3
ACAD_SCALELIST
350
3B
  3
ACAD_TABLESTYLE
350
252
  3
ACAD_VISUALSTYLE
350
2A
  3
AcDbVariableDictionary
350
250
  0
DICTIONARY
  5
D
102
{ACAD_REACTORS
330
C
102
}
330
C
100
AcDbDictionary
281
     1
  0
DICTIONARY
  5
1A
102
{ACAD_REACTORS
330
C
102
}
330
C
100
AcDbDictionary
281
     1
  3
Layout1
350
1E
  3
Model
350
22
  0
DICTIONARY
  5
253
102
{ACAD_REACTORS
330
C
102
}
330
C
100
AcDbDictionary
281
     1
  0
DICTIONARY
  5
17
102
{ACAD_REACTORS
330
C
102
}
330
C
100
AcDbDictionary
281
     1
  3
Standard
350
18
  0
DICTIONARY
  5
19
102
{ACAD_REACTORS
330
C
102
}
330
C
100
AcDbDictionary
281
     1
  0
ACDBDICTIONARYWDFLT
  5
E
102
{ACAD_REACTORS
330
C
102
}
330
C
100
AcDbDictionary
281
     1
  3
Normal
350
F
100
AcDbDictionaryWithDefault
340
F
  0
DICTIONARY
  5
3B
102
{ACAD_REACTORS
330
C
102
}
330
C
100
AcDbDictionary
281
     1
  3
A0
350
3C
  3
A1
350
3D
  3
A2
350
3E
  3
A3
350
3F
  3
A4
350
40
  3
A5
350
41
  3
A6
350
42
  3
A7
350
43
  3
A8
350
44
  3
A9
350
45
  3
B0
350
46
  3
B1
350
47
  3
B2
350
48
  3
B3
350
49
  3
B4
350
4A
  3
B5
350
4B
  3
B6
350
4C
  3
B7
350
4D
  3
B8
350
4E
  3
B9
350
4F
  3
C0
350
50
  3
C1
350
51
  3
C2
350
52
  3
C3
350
53
  3
C4
350
54
  3
C5
350
55
  3
C6
350
56
  3
C7
350
57
  3
C8
350
58
  3
C9
350
59
  3
D0
350
5A
  3
D1
350
5B
  3
D2
350
5C
  0
DICTIONARY
  5
252
102
{ACAD_REACTORS
330
C
102
}
330
C
100
AcDbDictionary
281
     1
  0
DICTIONARY
  5
2A
102
{ACAD_REACTORS
330
C
102
}
330
C
100
AcDbDictionary
281
     1
  3
2dWireframe
350
2F
  3
3D Hidden
350
31
  3
3dWireframe
350
30
  3
Basic
350
32
  3
Brighten
350
36
  3
ColorChange
350
3A
  3
Conceptual
350
34
  3
Dim
350
35
  3
Facepattern
350
39
  3
Flat
350
2B
  3
FlatWithEdges
350
2C
  3
Gouraud
350
2D
  3
GouraudWithEdges
350
2E
  3
Linepattern
350
38
  3
Realistic
350
33
  3
Thicken
350
37
  0
DICTIONARY
  5
250
102
{ACAD_REACTORS
330
C
102
}
330
C
100
AcDbDictionary
281
     1
  3
CANNOSCALE
350
251
  3
PSOLHEIGHT
350
255
  3
PSOLWIDTH
350
254
  0
LAYOUT
  5
1E
102
{ACAD_REACTORS
330
1A
102
}
330
1A
100
AcDbPlotSettings
  1

  2
none_device
  4

  6

 40
0.0
 41
0.0
 42
0.0
 43
0.0
 44
0.0
 45
0.0
 46
0.0
 47
0.0
 48
0.0
 49
0.0
140
0.0
141
0.0
142
1.0
143
1.0
 70
   688
 72
     0
 73
     0
 74
     5
  7

 75
    16
147
1.0
148
0.0
149
0.0
100
AcDbLayout
  1
Layout1
 70
     1
 71
     1
 10
0.0
 20
0.0
 11
1682.0
 21
2378.0
 12
0.0
 22
0.0
 32
0.0
 14
0.0
 24
0.0
 34
0.0
 15
1682.0
 25
2378.0
 35
0.0
146
0.0
 13
0.0
 23
0.0
 33
0.0
 16
1.0
 26
0.0
 36
0.0
 17
0.0
 27
1.0
 37
0.0
 76
     0
330
1B
  0
LAYOUT
  5
22
102
{ACAD_REACTORS
330
1A
102
}
330
1A
100
AcDbPlotSettings
  1

  2
none_device
  4

  6

 40
0.0
 41
0.0
 42
0.0
 43
0.0
 44
0.0
 45
0.0
 46
0.0
 47
0.0
 48
0.0
 49
0.0
140
0.0
141
0.0
142
1.0
143
1.0
 70
  1712
 72
     0
 73
     0
 74
     0
  7

 75
     0
147
1.0
148
0.0
149
0.0
100
AcDbLayout
  1
Model
 70
     1
 71
     0
 10
0.0
 20
0.0
 11
1682.0
 21
2378.0
 12
0.0
 22
0.0
 32
0.0
 14
0.0
 24
0.0
 34
0.0
 15
1682.0
 25
2378.0
 35
0.0
146
0.0
 13
0.0
 23
0.0
 33
0.0
 16
1.0
 26
0.0
 36
0.0
 17
0.0
 27
1.0
 37
0.0
 76
     0
330
1F
331
29
  0
MLINESTYLE
  5
18
102
{ACAD_REACTORS
330
17
102
}
330
17
100
AcDbMlineStyle
  2
Standard
 70
     0
  3

 62
   256
 51
90.0
 52
90.0
 71
     2
 49
0.5
 62
   256
  6
BYLAYER
 49
-0.5
 62
   256
  6
BYLAYER
  0
ACDBPLACEHOLDER
  5
F
102
{ACAD_REACTORS
330
E
102
}
330
E
  0
SCALE
  5
3C
102
{ACAD_REACTORS
330
3B
102
}
330
3B
100
AcDbScale
 70
     0
300
1:1
140
1.0
141
1.0
290
     1
  0
SCALE
  5
3D
102
{ACAD_REACTORS
330
3B
102
}
330
3B
100
AcDbScale
 70
     0
300
1:2
140
1.0
141
2.0
290
     0
  0
SCALE
  5
3E
102
{ACAD_REACTORS
330
3B
102
}
330
3B
100
AcDbScale
 70
     0
300
1:4
140
1.0
141
4.0
290
     0
  0
SCALE
  5
3F
102
{ACAD_REACTORS
330
3B
102
}
330
3B
100
AcDbScale
 70
     0
300
1:5
140
1.0
141
5.0
290
     0
  0
SCALE
  5
40
102
{ACAD_REACTORS
330
3B
102
}
330
3B
100
AcDbScale
 70
     0
300
1:8
140
1.0
141
8.0
290
     0
  0
SCALE
  5
41
102
{ACAD_REACTORS
330
3B
102
}
330
3B
100
AcDbScale
 70
     0
300
1:10
140
1.0
141
10.0
290
     0
  0
SCALE
  5
42
102
{ACAD_REACTORS
330
3B
102
}
330
3B
100
AcDbScale
 70
     0
300
1:16
140
1.0
141
16.0
290
     0
  0
SCALE
  5
43
102
{ACAD_REACTORS
330
3B
102
}
330
3B
100
AcDbScale
 70
     0
300
1:20
140
1.0
141
20.0
290
     0
  0
SCALE
  5
44
102
{ACAD_REACTORS
330
3B
102
}
330
3B
100
AcDbScale
 70
     0
300
1:30
140
1.0
141
30.0
290
     0
  0
SCALE
  5
45
102
{ACAD_REACTORS
330
3B
102
}
330
3B
100
AcDbScale
 70
     0
300
1:40
140
1.0
141
40.0
290
     0
  0
SCALE
  5
46
102
{ACAD_REACTORS
330
3B
102
}
330
3B
100
AcDbScale
 70
     0
300
1:50
140
1.0
141
50.0
290
     0
  0
SCALE
  5
47
102
{ACAD_REACTORS
330
3B
102
}
330
3B
100
AcDbScale
 70
     0
300
1:100
140
1.0
141
100.0
290
     0
  0
SCALE
  5
48
102
{ACAD_REACTORS
330
3B
102
}
330
3B
100
AcDbScale
 70
     0
300
2:1
140
2.0
141
1.0
290
     0
  0
SCALE
  5
49
102
{ACAD_REACTORS
330
3B
102
}
330
3B
100
AcDbScale
 70
     0
300
4:1
140
4.0
141
1.0
290
     0
  0
SCALE
  5
4A
102
{ACAD_REACTORS
330
3B
102
}
330
3B
100
AcDbScale
 70
     0
300
8:1
140
8.0
141
1.0
290
     0
  0
SCALE
  5
4B
102
{ACAD_REACTORS
330
3B
102
}
330
3B
100
AcDbScale
 70
     0
300
10:1
140
10.0
141
1.0
290
     0
  0
SCALE
  5
4C
102
{ACAD_REACTORS
330
3B
102
}
330
3B
100
AcDbScale
 70
     0
300
100:1
140
100.0
141
1.0
290
     0
  0
SCALE
  5
4D
102
{ACAD_REACTORS
330
3B
102
}
330
3B
100
AcDbScale
 70
     0
300
1/128" = 1'-0"
140
0.0078125
141
12.0
290
     0
  0
SCALE
  5
4E
102
{ACAD_REACTORS
330
3B
102
}
330
3B
100
AcDbScale
 70
     0
300
1/64" = 1'-0"
140
0.015625
141
12.0
290
     0
  0
SCALE
  5
4F
102
{ACAD_REACTORS
330
3B
102
}
330
3B
100
AcDbScale
 70
     0
300
1/32" = 1'-0"
140
0.03125
141
12.0
290
     0
  0
SCALE
  5
50
102
{ACAD_REACTORS
330
3B
102
}
330
3B
100
AcDbScale
 70
     0
300
1/16" = 1'-0"
140
0.0625
141
12.0
290
     0
  0
SCALE
  5
51
102
{ACAD_REACTORS
330
3B
102
}
330
3B
100
AcDbScale
 70
     0
300
3/32" = 1'-0"
140
0.09375
141
12.0
290
     0
  0
SCALE
  5
52
102
{ACAD_REACTORS
330
3B
102
}
330
3B
100
AcDbScale
 70
     0
300
1/8" = 1'-0"
140
0.125
141
12.0
290
     0
  0
SCALE
  5
53
102
{ACAD_REACTORS
330
3B
102
}
330
3B
100
AcDbScale
 70
     0
300
3/16" = 1'-0"
140
0.1875
141
12.0
290
     0
  0
SCALE
  5
54
102
{ACAD_REACTORS
330
3B
102
}
330
3B
100
AcDbScale
 70
     0
300
1/4" = 1'-0"
140
0.25
141
12.0
290
     0
  0
SCALE
  5
55
102
{ACAD_REACTORS
330
3B
102
}
330
3B
100
AcDbScale
 70
     0
300
3/8" = 1'-0"
140
0.375
141
12.0
290
     0
  0
SCALE
  5
56
102
{ACAD_REACTORS
330
3B
102
}
330
3B
100
AcDbScale
 70
     0
300
1/2" = 1'-0"
140
0.5
141
12.0
290
     0
  0
SCALE
  5
57
102
{ACAD_REACTORS
330
3B
102
}
330
3B
100
AcDbScale
 70
     0
300
3/4" = 1'-0"
140
0.75
141
12.0
290
     0
  0
SCALE
  5
58
102
{ACAD_REACTORS
330
3B
102
}
330
3B
100
AcDbScale
 70
     0
300
1" = 1'-0"
140
1.0
141
12.0
290
     0
  0
SCALE
  5
59
102
{ACAD_REACTORS
330
3B
102
}
330
3B
100
AcDbScale
 70
     0
300
1-1/2" = 1'-0"
140
1.5
141
12.0
290
     0
  0
SCALE
  5
5A
102
{ACAD_REACTORS
330
3B
102
}
330
3B
100
AcDbScale
 70
     0
300
3" = 1'-0"
140
3.0
141
12.0
290
     0
  0
SCALE
  5
5B
102
{ACAD_REACTORS
330
3B
102
}
330
3B
100
AcDbScale
 70
     0
300
6" = 1'-0"
140
6.0
141
12.0
290
     0
  0
SCALE
  5
5C
102
{ACAD_REACTORS
330
3B
102
}
330
3B
100
AcDbScale
 70
     0
300
1'-0" = 1'-0"
140
12.0
141
12.0
290
     0
  0
VISUALSTYLE
  5
2F
102
{ACAD_REACTORS
330
2A
102
}
330
2A
100
AcDbVisualStyle
  2
2dWireframe
 70
     4
 71
     0
 72
     2
 73
     0
 90
        0
 40
-0.6
 41
-30.0
 62
     5
 63
     7
 74
     1
 91
        4
 64
     7
 65
   257
 75
     1
175
     1
 42
1.0
 92
        0
 66
   257
 43
1.0
 76
     1
 77
     6
 78
     2
 67
     7
 79
     5
170
     0
171
     0
290
     0
174
     0
 93
        1
 44
0.0
173
     0
291
     0
 45
0.0
1001
ACAD
1000
AcDbSavedByObjectVersion
1070
     0
  0
VISUALSTYLE
  5
31
102
{ACAD_REACTORS
330
2A
102
}
330
2A
100
AcDbVisualStyle
  2
3D Hidden
 70
     6
 71
     1
 72
     2
 73
     2
 90
        0
 40
-0.6
 41
-30.0
 62
     5
 63
     7
 74
     2
 91
        2
 64
     7
 65
   257
 75
     2
175
     1
 42
40.0
 92
        0
 66
   257
 43
1.0
 76
     1
 77
     6
 78
     2
 67
     7
 79
     3
170
     0
171
     0
290
     0
174
     0
 93
        1
 44
0.0
173
     0
291
     0
 45
0.0
1001
ACAD
1000
AcDbSavedByObjectVersion
1070
     0
  0
VISUALSTYLE
  5
30
102
{ACAD_REACTORS
330
2A
102
}
330
2A
100
AcDbVisualStyle
  2
3dWireframe
 70
     5
 71
     0
 72
     2
 73
     0
 90
        0
 40
-0.6
 41
-30.0
 62
     5
 63
     7
 74
     1
 91
        4
 64
     7
 65
   257
 75
     1
175
     1
 42
1.0
 92
        0
 66
   257
 43
1.0
 76
     1
 77
     6
 78
     2
 67
     7
 79
     5
170
     0
171
     0
290
     0
174
     0
 93
        1
 44
0.0
173
     0
291
     0
 45
0.0
1001
ACAD
1000
AcDbSavedByObjectVersion
1070
     0
  0
VISUALSTYLE
  5
32
102
{ACAD_REACTORS
330
2A
102
}
330
2A
100
AcDbVisualStyle
  2
Basic
 70
     7
 71
     1
 72
     0
 73
     1
 90
        0
 40
-0.6
 41
-30.0
 62
     5
 63
     7
 74
     0
 91
        4
 64
     7
 65
   257
 75
     1
175
     1
 42
1.0
 92
        8
 66
     7
 43
1.0
 76
     1
 77
     6
 78
     2
 67
     7
 79
     5
170
     0
171
     0
290
     0
174
     0
 93
        1
 44
0.0
173
     0
291
     1
 45
0.0
1001
ACAD
1000
AcDbSavedByObjectVersion
1070
     0
  0
VISUALSTYLE
  5
36
102
{ACAD_REACTORS
330
2A
102
}
330
2A
100
AcDbVisualStyle
  2
Brighten
 70
    12
 71
     2
 72
     2
 73
     0
 90
        0
 40
-0.6
 41
-30.0
 62
     5
 63
     7
 74
     1
 91
        4
 64
     7
 65
   257
 75
     1
175
     1
 42
1.0
 92
        8
 66
     7
 43
1.0
 76
     1
 77
     6
 78
     2
 67
     7
 79
     5
170
     0
171
     0
290
     0
174
     0
 93
        1
 44
50.0
173
     0
291
     1
 45
0.0
1001
ACAD
1000
AcDbSavedByObjectVersion
1070
     0
  0
VISUALSTYLE
  5
3A
102
{ACAD_REACTORS
330
2A
102
}
330
2A
100
AcDbVisualStyle
  2
ColorChange
 70
    16
 71
     2
 72
     2
 73
     3
 90
        0
 40
-0.6
 41
-30.0
 62
     5
 63
     8
 74
     1
 91
        4
 64
     7
 65
   257
 75
     1
175
     1
 42
1.0
 92
        8
 66
     8
 43
1.0
 76
     1
 77
     6
 78
     2
 67
     7
 79
     5
170
     0
171
     0
290
     0
174
     0
 93
        1
 44
0.0
173
     0
291
     1
 45
0.0
1001
ACAD
1000
AcDbSavedByObjectVersion
1070
     0
  0
VISUALSTYLE
  5
34
102
{ACAD_REACTORS
330
2A
102
}
330
2A
100
AcDbVisualStyle
  2
Conceptual
 70
     9
 71
     3
 72
     2
 73
     0
 90
        0
 40
-0.6
 41
-30.0
 62
     5
 63
     7
 74
     2
 91
        2
 64
     7
 65
   257
 75
     1
175
     1
 42
40.0
 92
        8
 66
     7
 43
1.0
 76
     1
 77
     6
 78
     2
 67
     7
 79
     3
170
     0
171
     0
290
     0
174
     0
 93
        1
 44
0.0
173
     0
291
     0
 45
0.0
1001
ACAD
1000
AcDbSavedByObjectVersion
1070
     0
  0
VISUALSTYLE
  5
35
102
{ACAD_REACTORS
330
2A
102
}
330
2A
100
AcDbVisualStyle
  2
Dim
 70
    11
 71
     2
 72
     2
 73
     0
 90
        0
 40
-0.6
 41
-30.0
 62
     5
 63
     7
 74
     1
 91
        4
 64
     7
 65
   257
 75
     1
175
     1
 42
1.0
 92
        8
 66
     7
 43
1.0
 76
     1
 77
     6
 78
     2
 67
     7
 79
     5
170
     0
171
     0
290
     0
174
     0
 93
        1
 44
-50.0
173
     0
291
     1
 45
0.0
1001
ACAD
1000
AcDbSavedByObjectVersion
1070
     0
  0
VISUALSTYLE
  5
39
102
{ACAD_REACTORS
330
2A
102
}
330
2A
100
AcDbVisualStyle
  2
Facepattern
 70
    15
 71
     2
 72
     2
 73
     0
 90
        0
 40
-0.6
 41
-30.0
 62
     5
 63
     7
 74
     1
 91
        4
 64
     7
 65
   257
 75
     1
175
     1
 42
1.0
 92
        8
 66
     7
 43
1.0
 76
     1
 77
     6
 78
     2
 67
     7
 79
     5
170
     0
171
     0
290
     0
174
     0
 93
        1
 44
0.0
173
     0
291
     1
 45
0.0
1001
ACAD
1000
AcDbSavedByObjectVersion
1070
     0
  0
VISUALSTYLE
  5
2B
102
{ACAD_REACTORS
330
2A
102
}
330
2A
100
AcDbVisualStyle
  2
Flat
 70
     0
 71
     2
 72
     1
 73
     1
 90
        2
 40
-0.6
 41
30.0
 62
     5
 63
     7
 74
     0
 91
        4
 64
     7
 65
   257
 75
     1
175
     1
 42
1.0
 92
        8
 66
     7
 43
1.0
 76
     1
 77
     6
 78
     2
 67
     7
 79
     5
170
     0
171
     0
290
     0
174
     0
 93
       13
 44
0.0
173
     0
291
     1
 45
0.0
1001
ACAD
1000
AcDbSavedByObjectVersion
1070
     0
  0
VISUALSTYLE
  5
2C
102
{ACAD_REACTORS
330
2A
102
}
330
2A
100
AcDbVisualStyle
  2
FlatWithEdges
 70
     1
 71
     2
 72
     1
 73
     1
 90
        2
 40
-0.6
 41
30.0
 62
     5
 63
     7
 74
     1
 91
        4
 64
     7
 65
   257
 75
     1
175
     1
 42
1.0
 92
        0
 66
   257
 43
1.0
 76
     1
 77
     6
 78
     2
 67
     7
 79
     5
170
     0
171
     0
290
     0
174
     0
 93
       13
 44
0.0
173
     0
291
     1
 45
0.0
1001
ACAD
1000
AcDbSavedByObjectVersion
1070
     0
  0
VISUALSTYLE
  5
2D
102
{ACAD_REACTORS
330
2A
102
}
330
2A
100
AcDbVisualStyle
  2
Gouraud
 70
     2
 71
     2
 72
     2
 73
     1
 90
        2
 40
-0.6
 41
30.0
 62
     5
 63
     7
 74
     0
 91
        4
 64
     7
 65
   257
 75
     1
175
     1
 42
1.0
 92
        0
 66
     7
 43
1.0
 76
     1
 77
     6
 78
     2
 67
     7
 79
     5
170
     0
171
     0
290
     0
174
     0
 93
       13
 44
0.0
173
     0
291
     1
 45
0.0
1001
ACAD
1000
AcDbSavedByObjectVersion
1070
     0
  0
VISUALSTYLE
  5
2E
102
{ACAD_REACTORS
330
2A
102
}
330
2A
100
AcDbVisualStyle
  2
GouraudWithEdges
 70
     3
 71
     2
 72
     2
 73
     1
 90
        2
 40
-0.6
 41
30.0
 62
     5
 63
     7
 74
     1
 91
        4
 64
     7
 65
   257
 75
     1
175
     1
 42
1.0
 92
        0
 66
   257
 43
1.0
 76
     1
 77
     6
 78
     2
 67
     7
 79
     5
170
     0
171
     0
290
     0
174
     0
 93
       13
 44
0.0
173
     0
291
     1
 45
0.0
1001
ACAD
1000
AcDbSavedByObjectVersion
1070
     0
  0
VISUALSTYLE
  5
38
102
{ACAD_REACTORS
330
2A
102
}
330
2A
100
AcDbVisualStyle
  2
Linepattern
 70
    14
 71
     2
 72
     2
 73
     0
 90
        0
 40
-0.6
 41
-30.0
 62
     5
 63
     7
 74
     1
 91
        4
 64
     7
 65
   257
 75
     7
175
     7
 42
1.0
 92
        8
 66
     7
 43
1.0
 76
     1
 77
     6
 78
     2
 67
     7
 79
     5
170
     0
171
     0
290
     0
174
     0
 93
        1
 44
0.0
173
     0
291
     1
 45
0.0
1001
ACAD
1000
AcDbSavedByObjectVersion
1070
     0
  0
VISUALSTYLE
  5
33
102
{ACAD_REACTORS
330
2A
102
}
330
2A
100
AcDbVisualStyle
  2
Realistic
 70
     8
 71
     2
 72
     2
 73
     0
 90
        0
 40
-0.6
 41
-30.0
 62
     5
 63
     7
 74
     1
 91
        0
 64
     7
 65
   257
 75
     1
175
     1
 42
1.0
 92
        8
 66
     8
 43
1.0
 76
     1
 77
     6
 78
     2
 67
     7
 79
     5
170
     0
171
     0
290
     0
174
     0
 93
       13
 44
0.0
173
     0
291
     0
 45
0.0
1001
ACAD
1000
AcDbSavedByObjectVersion
1070
     0
  0
VISUALSTYLE
  5
37
102
{ACAD_REACTORS
330
2A
102
}
330
2A
100
AcDbVisualStyle
  2
Thicken
 70
    13
 71
     2
 72
     2
 73
     0
 90
        0
 40
-0.6
 41
-30.0
 62
     5
 63
     7
 74
     1
 91
        4
 64
     7
 65
   257
 75
     1
175
     1
 42
1.0
 92
       12
 66
     7
 43
1.0
 76
     1
 77
     6
 78
     2
 67
     7
 79
     5
170
     0
171
     0
290
     0
174
     0
 93
        1
 44
0.0
173
     0
291
     1
 45
0.0
1001
ACAD
1000
AcDbSavedByObjectVersion
1070
     0
  0
DICTIONARYVAR
  5
251
102
{ACAD_REACTORS
330
250
102
}
330
250
100
DictionaryVariables
280
     0
  1
1:1
  0
DICTIONARYVAR
  5
255
102
{ACAD_REACTORS
330
250
102
}
330
250
100
DictionaryVariables
280
     0
  1
80.000000
  0
DICTIONARYVAR
  5
254
102
{ACAD_REACTORS
330
250
102
}
330
250
100
DictionaryVariables
280
     0
  1
5.000000
  0
ENDSEC
  0
EOF
