  0
SECTION
  2
HEADER
  9
$ACADVER
  1
AC1015
  9
$ACADMAINTVER
 70
     6
  9
$DWGCODEPAGE
  3
ANSI_1252
  9
$INSBASE
 10
0.0
 20
0.0
 30
0.0
  9
$EXTMIN
 10
0.0
 20
0.0
 30
0.0
  9
$EXTMAX
 10
1682.0
 20
2378.0
 30
0.0
  9
$LIMMIN
 10
0.0
 20
0.0
  9
$LIMMAX
 10
1682.0
 20
2378.0
  9
$ORTHOMODE
 70
     0
  9
$REGENMODE
 70
     1
  9
$FILLMODE
 70
     1
  9
$QTEXTMODE
 70
     0
  9
$MIRRTEXT
 70
     1
  9
$LTSCALE
 40
1.0
  9
$ATTMODE
 70
     1
  9
$TEXTSIZE
 40
2.5
  9
$TRACEWID
 40
1.0
  9
$TEXTSTYLE
  7
Standard
  9
$CLAYER
  8
0
  9
$CELTYPE
  6
ByLayer
  9
$CECOLOR
 62
   256
  9
$CELTSCALE
 40
1.0
  9
$DISPSILH
 70
     0
  9
$DIMSCALE
 40
1.0
  9
$DIMASZ
 40
2.5
  9
$DIMEXO
 40
0.625
  9
$DIMDLI
 40
3.75
  9
$DIMRND
 40
0.0
  9
$DIMDLE
 40
0.0
  9
$DIMEXE
 40
1.25
  9
$DIMTP
 40
0.0
  9
$DIMTM
 40
0.0
  9
$DIMTXT
 40
2.5
  9
$DIMCEN
 40
2.5
  9
$DIMTSZ
 40
0.0
  9
$DIMTOL
 70
     0
  9
$DIMLIM
 70
     0
  9
$DIMTIH
 70
     0
  9
$DIMTOH
 70
     0
  9
$DIMSE1
 70
     0
  9
$DIMSE2
 70
     0
  9
$DIMTAD
 70
     1
  9
$DIMZIN
 70
     8
  9
$DIMBLK
  1

  9
$DIMASO
 70
     1
  9
$DIMSHO
 70
     1
  9
$DIMPOST
  1

  9
$DIMAPOST
  1

  9
$DIMALT
 70
     0
  9
$DIMALTD
 70
     3
  9
$DIMALTF
 40
0.0393700787
  9
$DIMLFAC
 40
1.0
  9
$DIMTOFL
 70
     1
  9
$DIMTVP
 40
0.0
  9
$DIMTIX
 70
     0
  9
$DIMSOXD
 70
     0
  9
$DIMSAH
 70
     0
  9
$DIMBLK1
  1

  9
$DIMBLK2
  1

  9
$DIMSTYLE
  2
ISO-25
  9
$DIMCLRD
 70
     0
  9
$DIMCLRE
 70
     0
  9
$DIMCLRT
 70
     0
  9
$DIMTFAC
 40
1.0
  9
$DIMGAP
 40
0.625
  9
$DIMJUST
 70
     0
  9
$DIMSD1
 70
     0
  9
$DIMSD2
 70
     0
  9
$DIMTOLJ
 70
     0
  9
$DIMTZIN
 70
     8
  9
$DIMALTZ
 70
     0
  9
$DIMALTTZ
 70
     0
  9
$DIMUPT
 70
     0
  9
$DIMDEC
 70
     2
  9
$DIMTDEC
 70
     2
  9
$DIMALTU
 70
     2
  9
$DIMALTTD
 70
     3
  9
$DIMTXSTY
  7
Standard
  9
$DIMAUNIT
 70
     0
  9
$DIMADEC
 70
     0
  9
$DIMALTRND
 40
0.0
  9
$DIMAZIN
 70
     0
  9
$DIMDSEP
 70
    44
  9
$DIMATFIT
 70
     3
  9
$DIMFRAC
 70
     0
  9
$DIMLDRBLK
  1

  9
$DIMLUNIT
 70
     2
  9
$DIMLWD
 70
    -2
  9
$DIMLWE
 70
    -2
  9
$DIMTMOVE
 70
     0
  9
$LUNITS
 70
     2
  9
$LUPREC
 70
     4
  9
$SKETCHINC
 40
1.0
  9
$FILLETRAD
 40
10.0
  9
$AUNITS
 70
     0
  9
$AUPREC
 70
     0
  9
$MENU
  1
.
  9
$ELEVATION
 40
0.0
  9
$PELEVATION
 40
0.0
  9
$THICKNESS
 40
0.0
  9
$LIMCHECK
 70
     0
  9
$CHAMFERA
 40
10.0
  9
$CHAMFERB
 40
10.0
  9
$CHAMFERC
 40
20.0
  9
$CHAMFERD
 40
0.0
  9
$SKPOLY
 70
     0
  9
$TDCREATE
 40
2455569.619312188
  9
$TDUCREATE
 40
2455569.577645521
  9
$TDUPDATE
 40
2455569.619312199
  9
$TDUUPDATE
 40
2455569.577645532
  9
$TDINDWG
 40
0.0000000116
  9
$TDUSRTIMER
 40
0.0000000116
  9
$USRTIMER
 70
     1
  9
$ANGBASE
 50
0.0
  9
$ANGDIR
 70
     0
  9
$PDMODE
 70
     0
  9
$PDSIZE
 40
0.0
  9
$PLINEWID
 40
0.0
  9
$SPLFRAME
 70
     0
  9
$SPLINETYPE
 70
     6
  9
$SPLINESEGS
 70
     8
  9
$HANDSEED
  5
16E
  9
$SURFTAB1
 70
     6
  9
$SURFTAB2
 70
     6
  9
$SURFTYPE
 70
     6
  9
$SURFU
 70
     6
  9
$SURFV
 70
     6
  9
$UCSBASE
  2

  9
$UCSNAME
  2

  9
$UCSORG
 10
0.0
 20
0.0
 30
0.0
  9
$UCSXDIR
 10
1.0
 20
0.0
 30
0.0
  9
$UCSYDIR
 10
0.0
 20
1.0
 30
0.0
  9
$UCSORTHOREF
  2

  9
$UCSORTHOVIEW
 70
     0
  9
$UCSORGTOP
 10
0.0
 20
0.0
 30
0.0
  9
$UCSORGBOTTOM
 10
0.0
 20
0.0
 30
0.0
  9
$UCSORGLEFT
 10
0.0
 20
0.0
 30
0.0
  9
$UCSORGRIGHT
 10
0.0
 20
0.0
 30
0.0
  9
$UCSORGFRONT
 10
0.0
 20
0.0
 30
0.0
  9
$UCSORGBACK
 10
0.0
 20
0.0
 30
0.0
  9
$PUCSBASE
  2

  9
$PUCSNAME
  2

  9
$PUCSORG
 10
0.0
 20
0.0
 30
0.0
  9
$PUCSXDIR
 10
1.0
 20
0.0
 30
0.0
  9
$PUCSYDIR
 10
0.0
 20
1.0
 30
0.0
  9
$PUCSORTHOREF
  2

  9
$PUCSORTHOVIEW
 70
     0
  9
$PUCSORGTOP
 10
0.0
 20
0.0
 30
0.0
  9
$PUCSORGBOTTOM
 10
0.0
 20
0.0
 30
0.0
  9
$PUCSORGLEFT
 10
0.0
 20
0.0
 30
0.0
  9
$PUCSORGRIGHT
 10
0.0
 20
0.0
 30
0.0
  9
$PUCSORGFRONT
 10
0.0
 20
0.0
 30
0.0
  9
$PUCSORGBACK
 10
0.0
 20
0.0
 30
0.0
  9
$USERI1
 70
     0
  9
$USERI2
 70
     0
  9
$USERI3
 70
     0
  9
$USERI4
 70
     0
  9
$USERI5
 70
     0
  9
$USERR1
 40
0.0
  9
$USERR2
 40
0.0
  9
$USERR3
 40
0.0
  9
$USERR4
 40
0.0
  9
$USERR5
 40
0.0
  9
$WORLDVIEW
 70
     1
  9
$SHADEDGE
 70
     3
  9
$SHADEDIF
 70
    70
  9
$TILEMODE
 70
     1
  9
$MAXACTVP
 70
    64
  9
$PINSBASE
 10
0.0
 20
0.0
 30
0.0
  9
$PLIMCHECK
 70
     0
  9
$PEXTMIN
 10
0.0
 20
0.0
 30
0.0
  9
$PEXTMAX
 10
1682.0
 20
2378.0
 30
0.0
  9
$PLIMMIN
 10
0.0
 20
0.0
  9
$PLIMMAX
 10
1682.0
 20
2378.0
  9
$UNITMODE
 70
     0
  9
$VISRETAIN
 70
     1
  9
$PLINEGEN
 70
     0
  9
$PSLTSCALE
 70
     1
  9
$TREEDEPTH
 70
  3020
  9
$CMLSTYLE
  2
Standard
  9
$CMLJUST
 70
     0
  9
$CMLSCALE
 40
20.0
  9
$PROXYGRAPHICS
 70
     1
  9
$MEASUREMENT
 70
     1
  9
$CELWEIGHT
370
    -1
  9
$ENDCAPS
280
     0
  9
$JOINSTYLE
280
     0
  9
$LWDISPLAY
290
     0
  9
$INSUNITS
 70
     4
  9
$HYPERLINKBASE
  1

  9
$STYLESHEET
  1

  9
$XEDIT
290
     1
  9
$CEPSNTYPE
380
     0
  9
$PSTYLEMODE
290
     1
  9
$FINGERPRINTGUID
  2
{79FC2CC9-F1C1-4163-8681-B3AE28416C36}
  9
$VERSIONGUID
  2
{FAEB1C32-E019-11D5-929B-00C0DF256EC4}
  9
$EXTNAMES
290
     1
  9
$PSVPSCALE
 40
0.0
  9
$OLESTARTUP
290
     0
  0
ENDSEC
  0
SECTION
  2
CLASSES
  0
CLASS
  1
ACDBDICTIONARYWDFLT
  2
AcDbDictionaryWithDefault
  3
ObjectDBX Classes
 90
        0
280
     0
281
     0
  0
CLASS
  1
VISUALSTYLE
  2
AcDbVisualStyle
  3
ObjectDBX Classes
 90
     4095
280
     0
281
     0
  0
CLASS
  1
SCALE
  2
AcDbScale
  3
ObjectDBX Classes
 90
     1153
280
     0
281
     0
  0
CLASS
  1
DICTIONARYVAR
  2
AcDbDictionaryVar
  3
ObjectDBX Classes
 90
        0
280
     0
281
     0
  0
CLASS
  1
ACDBPLACEHOLDER
  2
AcDbPlaceHolder
  3
ObjectDBX Classes
 90
        0
280
     0
281
     0
  0
CLASS
  1
LAYOUT
  2
AcDbLayout
  3
ObjectDBX Classes
 90
        0
280
     0
281
     0
  0
ENDSEC
  0
SECTION
  2
TABLES
  0
TABLE
  2
VPORT
  5
8
330
0
100
AcDbSymbolTable
 70
     1
  0
VPORT
  5
29
330
8
100
AcDbSymbolTableRecord
100
AcDbViewportTableRecord
  2
*Active
 70
     0
 10
0.0
 20
0.0
 11
1.0
 21
1.0
 12
344.1869158879
 22
148.5
 13
0.0
 23
0.0
 14
10.0
 24
10.0
 15
10.0
 25
10.0
 16
0.0
 26
0.0
 36
1.0
 17
0.0
 27
0.0
 37
0.0
 40
297.0
 41
1.9729729729
 42
50.0
 43
0.0
 44
0.0
 50
0.0
 51
0.0
 71
     0
 72
   100
 73
     1
 74
     3
 75
     0
 76
     0
 77
     0
 78
     0
281
     0
 65
     1
110
0.0
120
0.0
130
0.0
111
1.0
121
0.0
131
0.0
112
0.0
122
1.0
132
0.0
 79
     0
146
0.0
  0
ENDTAB
  0
TABLE
  2
LTYPE
  5
5
330
0
100
AcDbSymbolTable
 70
     2
  0
LTYPE
  5
14
330
5
100
AcDbSymbolTableRecord
100
AcDbLinetypeTableRecord
  2
ByBlock
 70
     0
  3

 72
    65
 73
     0
 40
0.0
  0
LTYPE
  5
15
330
5
100
AcDbSymbolTableRecord
100
AcDbLinetypeTableRecord
  2
ByLayer
 70
     0
  3

 72
    65
 73
     0
 40
0.0
  0
LTYPE
  5
16
330
5
100
AcDbSymbolTableRecord
100
AcDbLinetypeTableRecord
  2
Continuous
 70
     0
  3
Solid line
 72
    65
 73
     0
 40
0.0
  0
LTYPE
  5
60
330
5
100
AcDbSymbolTableRecord
100
AcDbLinetypeTableRecord
  2
CENTER2
 70
     0
  3
Center (.5x) ___ _ ___ _ ___ _ ___ _ ___ _ ___
 72
    65
 73
     4
 40
28.575
 49
19.05
 74
     4
 75
     0
340
0
 46
0.0
 50
0.0
 44
0.0
 45
0.0
 49
-3.175
 74
     4
 75
     0
340
0
 46
0.0
 50
0.0
 44
0.0
 45
0.0
 49
3.175
 74
     4
 75
     0
340
0
 46
0.0
 50
0.0
 44
0.0
 45
0.0
 49
-3.175
 74
     4
 75
     0
340
0
 46
0.0
 50
0.0
 44
0.0
 45
0.0
  0
ENDTAB
  0
TABLE
  2
LAYER
  5
2
330
0
100
AcDbSymbolTable
 70
    13
  0
LAYER
  5
10
330
2
100
AcDbSymbolTableRecord
100
AcDbLayerTableRecord
  2
0
 70
     0
 62
     7
  6
Continuous
370
    -3
390
F
  0
LAYER
  5
5D
330
2
100
AcDbSymbolTableRecord
100
AcDbLayerTableRecord
  2
Default
 70
     0
 62
     7
  6
Continuous
370
    -3
390
F
  0
LAYER
  5
77
330
2
100
AcDbSymbolTableRecord
100
AcDbLayerTableRecord
  2
$DDT_AUDIT_GENERATED_(77)
 70
     0
 62
     7
  6
Continuous
370
    -3
390
F
  0
LAYER
  5
7D
330
2
100
AcDbSymbolTableRecord
100
AcDbLayerTableRecord
  2
$DDT_AUDIT_GENERATED_(7D)
 70
     0
 62
     7
  6
Continuous
370
    -3
390
F
  0
LAYER
  5
7F
330
2
100
AcDbSymbolTableRecord
100
AcDbLayerTableRecord
  2
02303031_AUSL_RO
 70
     0
 62
     7
  6
Continuous
370
    -3
390
F
  0
LAYER
  5
8F
330
2
100
AcDbSymbolTableRecord
100
AcDbLayerTableRecord
  2
02272031_NIPPEL_
 70
     0
 62
     7
  6
Continuous
370
    -3
390
F
  0
LAYER
  5
92
330
2
100
AcDbSymbolTableRecord
100
AcDbLayerTableRecord
  2
$DDT_AUDIT_GENERATED_(92)
 70
     0
 62
     7
  6
Continuous
370
    -3
390
F
  0
LAYER
  5
B8
330
2
100
AcDbSymbolTableRecord
100
AcDbLayerTableRecord
  2
$DDT_AUDIT_GENERATED_(B8)
 70
     0
 62
     7
  6
Continuous
370
    -3
390
F
  0
LAYER
  5
CC
330
2
100
AcDbSymbolTableRecord
100
AcDbLayerTableRecord
  2
$DDT_AUDIT_GENERATED_(CC)
 70
     0
 62
     7
  6
Continuous
370
    -3
390
F
  0
LAYER
  5
D0
330
2
100
AcDbSymbolTableRecord
100
AcDbLayerTableRecord
  2
$DDT_AUDIT_GENERATED_(D0)
 70
     0
 62
     7
  6
Continuous
370
    -3
390
F
  0
LAYER
  5
E6
330
2
100
AcDbSymbolTableRecord
100
AcDbLayerTableRecord
  2
$DDT_AUDIT_GENERATED_(E6)
 70
     0
 62
     7
  6
Continuous
370
    -3
390
F
  0
LAYER
  5
112
330
2
100
AcDbSymbolTableRecord
100
AcDbLayerTableRecord
  2
$DDT_AUDIT_GENERATED_(112)
 70
     0
 62
     7
  6
Continuous
370
    -3
390
F
  0
LAYER
  5
127
330
2
100
AcDbSymbolTableRecord
100
AcDbLayerTableRecord
  2
$DDT_AUDIT_GENERATED_(127)
 70
     0
 62
     7
  6
Continuous
370
    -3
390
F
  0
ENDTAB
  0
TABLE
  2
STYLE
  5
3
330
0
100
AcDbSymbolTable
 70
     2
  0
STYLE
  5
11
330
3
100
AcDbSymbolTableRecord
100
AcDbTextStyleTableRecord
  2
Standard
 70
     0
 40
0.0
 41
1.0
 50
0.0
 71
     0
 42
2.5
  3
txt
  4

  0
STYLE
  5
15D
330
3
100
AcDbSymbolTableRecord
100
AcDbTextStyleTableRecord
  2
SEACAD_seiso_ttf
 70
     0
 40
0.0
 41
1.0
 50
0.0
 71
     0
 42
0.2
  3
seiso.ttf
  4

  0
ENDTAB
  0
TABLE
  2
VIEW
  5
6
330
0
100
AcDbSymbolTable
 70
     0
  0
ENDTAB
  0
TABLE
  2
UCS
  5
7
330
0
100
AcDbSymbolTable
 70
     0
  0
ENDTAB
  0
TABLE
  2
APPID
  5
9
330
0
100
AcDbSymbolTable
 70
     1
  0
APPID
  5
12
330
9
100
AcDbSymbolTableRecord
100
AcDbRegAppTableRecord
  2
ACAD
 70
     0
  0
ENDTAB
  0
TABLE
  2
DIMSTYLE
  5
A
330
0
100
AcDbSymbolTable
 70
     1
100
AcDbDimStyleTable
  0
DIMSTYLE
105
27
330
A
100
AcDbSymbolTableRecord
100
AcDbDimStyleTableRecord
  2
ISO-25
 70
     0
 41
2.5
 42
0.625
 43
3.75
 44
1.25
 73
     0
 74
     0
 77
     1
 78
     8
140
2.5
141
2.5
143
0.0393700787
147
0.625
171
     3
172
     1
271
     2
272
     2
274
     3
278
    44
283
     0
284
     8
340
11
  0
ENDTAB
  0
TABLE
  2
BLOCK_RECORD
  5
1
330
0
100
AcDbSymbolTable
 70
     7
  0
BLOCK_RECORD
  5
1F
330
1
100
AcDbSymbolTableRecord
100
AcDbBlockTableRecord
  2
*Model_Space
340
22
  0
BLOCK_RECORD
  5
1B
330
1
100
AcDbSymbolTableRecord
100
AcDbBlockTableRecord
  2
*Paper_Space
340
1E
  0
BLOCK_RECORD
  5
5E
330
1
100
AcDbSymbolTableRecord
100
AcDbBlockTableRecord
  2
SEANNOT_GROUP
340
0
102
{BLKREFS
331
5F
102
}
  0
BLOCK_RECORD
  5
65
330
1
100
AcDbSymbolTableRecord
100
AcDbBlockTableRecord
  2
SEANNOT_GROUP1
340
0
102
{BLKREFS
331
66
102
}
  0
BLOCK_RECORD
  5
6B
330
1
100
AcDbSymbolTableRecord
100
AcDbBlockTableRecord
  2
SEANNOT_GROUP2
340
0
102
{BLKREFS
331
6C
102
}
  0
BLOCK_RECORD
  5
75
330
1
100
AcDbSymbolTableRecord
100
AcDbBlockTableRecord
  2
SE
340
0
102
{BLKREFS
331
76
102
}
  0
BLOCK_RECORD
  5
DB
330
1
100
AcDbSymbolTableRecord
100
AcDbBlockTableRecord
  2
SE1
340
0
102
{BLKREFS
331
DC
102
}
  0
BLOCK_RECORD
  5
11B
330
1
100
AcDbSymbolTableRecord
100
AcDbBlockTableRecord
  2
SE2
340
0
102
{BLKREFS
331
11C
102
}
  0
ENDTAB
  0
ENDSEC
  0
SECTION
  2
BLOCKS
  0
BLOCK
  5
20
330
1F
100
AcDbEntity
  8
0
100
AcDbBlockBegin
  2
*Model_Space
 70
     0
 10
0.0
 20
0.0
 30
0.0
  3
*Model_Space
  1

  0
ENDBLK
  5
21
330
1F
100
AcDbEntity
  8
0
100
AcDbBlockEnd
  0
BLOCK
  5
1C
330
1B
100
AcDbEntity
 67
     1
  8
0
100
AcDbBlockBegin
  2
*Paper_Space
 70
     0
 10
0.0
 20
0.0
 30
0.0
  3
*Paper_Space
  1

  0
ENDBLK
  5
1D
330
1B
100
AcDbEntity
 67
     1
  8
0
100
AcDbBlockEnd
  0
BLOCK
  5
63
330
5E
100
AcDbEntity
  8
0
100
AcDbBlockBegin
  2
SEANNOT_GROUP
 70
     0
 10
0.0
 20
0.0
 30
0.0
  3
SEANNOT_GROUP
  1

  0
LINE
  5
61
330
5E
100
AcDbEntity
  8
Default
  6
CENTER2
 62
     7
100
AcDbLine
 10
101.7820916782
 20
518.4977318978
 30
0.0
 11
61.7820925723
 21
518.4977318978
 31
0.0
  0
LINE
  5
62
330
5E
100
AcDbEntity
  8
Default
  6
CENTER2
 62
     7
100
AcDbLine
 10
81.7820921252
 20
538.4977314508
 30
0.0
 11
81.7820921252
 21
498.4977323449
 31
0.0
  0
ENDBLK
  5
64
330
5E
100
AcDbEntity
  8
0
100
AcDbBlockEnd
  0
BLOCK
  5
69
330
65
100
AcDbEntity
  8
0
100
AcDbBlockBegin
  2
SEANNOT_GROUP1
 70
     0
 10
0.0
 20
0.0
 30
0.0
  3
SEANNOT_GROUP1
  1

  0
LINE
  5
67
330
65
100
AcDbEntity
  8
Default
  6
CENTER2
 62
     7
100
AcDbLine
 10
379.2583904878
 20
518.4977318978
 30
0.0
 11
339.2583913818
 21
518.4977318978
 31
0.0
  0
LINE
  5
68
330
65
100
AcDbEntity
  8
Default
  6
CENTER2
 62
     7
100
AcDbLine
 10
359.2583909348
 20
538.4977314508
 30
0.0
 11
359.2583909348
 21
498.4977323449
 31
0.0
  0
ENDBLK
  5
6A
330
65
100
AcDbEntity
  8
0
100
AcDbBlockEnd
  0
BLOCK
  5
73
330
6B
100
AcDbEntity
  8
0
100
AcDbBlockBegin
  2
SEANNOT_GROUP2
 70
     0
 10
0.0
 20
0.0
 30
0.0
  3
SEANNOT_GROUP2
  1

  0
LINE
  5
6D
330
6B
100
AcDbEntity
  8
Default
  6
CENTER2
 62
     7
100
AcDbLine
 10
101.7820916782
 20
340.85
 30
0.0
 11
61.7820925723
 21
340.85
 31
0.0
  0
LINE
  5
6E
330
6B
100
AcDbEntity
  8
Default
  6
CENTER2
 62
     7
100
AcDbLine
 10
81.7820921252
 20
360.849999553
 30
0.0
 11
81.7820921252
 21
320.850000447
 31
0.0
  0
LINE
  5
6F
330
6B
100
AcDbEntity
  8
Default
  6
CENTER2
 62
     7
100
AcDbLine
 10
106.7820915664
 20
340.85
 30
0.0
 11
112.0820921252
 21
340.85
 31
0.0
  0
LINE
  5
70
330
6B
100
AcDbEntity
  8
Default
  6
CENTER2
 62
     7
100
AcDbLine
 10
81.7820921252
 20
365.8499994412
 30
0.0
 11
81.7820921252
 21
371.15
 31
0.0
  0
LINE
  5
71
330
6B
100
AcDbEntity
  8
Default
  6
CENTER2
 62
     7
100
AcDbLine
 10
56.782092684
 20
340.85
 30
0.0
 11
51.4820921252
 21
340.85
 31
0.0
  0
LINE
  5
72
330
6B
100
AcDbEntity
  8
Default
  6
CENTER2
 62
     7
100
AcDbLine
 10
81.7820921252
 20
315.8500005588
 30
0.0
 11
81.7820921252
 21
310.55
 31
0.0
  0
ENDBLK
  5
74
330
6B
100
AcDbEntity
  8
0
100
AcDbBlockEnd
  0
BLOCK
  5
D9
330
75
100
AcDbEntity
  8
0
100
AcDbBlockBegin
  2
SE
 70
     0
 10
0.0
 20
0.0
 30
0.0
  3
SE
  1

  0
LINE
  5
78
330
75
100
AcDbEntity
  8
$DDT_AUDIT_GENERATED_(77)
  6
Continuous
 62
     7
100
AcDbLine
 10
69.2820921252
 20
646.7977318978
 30
0.0
 11
94.2820921252
 21
646.7977318978
 31
0.0
  0
LINE
  5
79
330
75
100
AcDbEntity
  8
$DDT_AUDIT_GENERATED_(77)
  6
Continuous
 62
     7
100
AcDbLine
 10
68.2820921252
 20
645.7977318978
 30
0.0
 11
68.2820921252
 21
628.4977318978
 31
0.0
  0
LINE
  5
7A
330
75
100
AcDbEntity
  8
$DDT_AUDIT_GENERATED_(77)
  6
Continuous
 62
     7
100
AcDbLine
 10
95.2820921252
 20
628.4977318978
 30
0.0
 11
95.2820921252
 21
645.7977318978
 31
0.0
  0
ARC
  5
7B
330
75
100
AcDbEntity
  8
$DDT_AUDIT_GENERATED_(77)
  6
Continuous
 62
     7
100
AcDbCircle
 10
69.2820921252
 20
645.7977318978
 30
0.0
 40
1.000000000000001
100
AcDbArc
 50
90.0
 51
180.0
  0
ARC
  5
7C
330
75
100
AcDbEntity
  8
$DDT_AUDIT_GENERATED_(77)
  6
Continuous
 62
     7
100
AcDbCircle
 10
94.2820921252
 20
645.7977318978
 30
0.0
 40
1.000000000000001
100
AcDbArc
 50
0.0
 51
90.0
  0
ELLIPSE
  5
7E
330
75
100
AcDbEntity
  8
$DDT_AUDIT_GENERATED_(7D)
  6
Continuous
 62
     7
100
AcDbEllipse
 10
153.2570510227
 20
560.3616810651
 30
0.0
 11
-3.320461114762488
 21
-0.4438896094190736
 31
0.0
210
0.0
220
0.0
230
1.0
 40
0.1721626006
 41
1.310707184319069
 42
2.651809651934237
  0
ARC
  5
80
330
75
100
AcDbEntity
  8
02303031_AUSL_RO
  6
Continuous
 62
     7
100
AcDbCircle
 10
81.7820921252
 20
813.9477318978
 30
0.0
 40
11.5
100
AcDbArc
 50
0.0
 51
180.0
  0
LINE
  5
81
330
75
100
AcDbEntity
  8
02303031_AUSL_RO
  6
Continuous
 62
     7
100
AcDbLine
 10
70.2820921252
 20
646.9477318978
 30
0.0
 11
93.2820921252
 21
646.9477318978
 31
0.0
  0
LINE
  5
82
330
75
100
AcDbEntity
  8
02303031_AUSL_RO
  6
Continuous
 62
     7
100
AcDbLine
 10
70.7820921252
 20
752.6248562423
 30
0.0
 11
92.7820921252
 21
752.6248562423
 31
0.0
  0
LINE
  5
83
330
75
100
AcDbEntity
  8
02303031_AUSL_RO
  6
Continuous
 62
     7
100
AcDbLine
 10
70.2820921252
 20
773.9477318978
 30
0.0
 11
70.2820921252
 21
753.9477318978
 31
0.0
  0
LINE
  5
84
330
75
100
AcDbEntity
  8
02303031_AUSL_RO
  6
Continuous
 62
     7
100
AcDbLine
 10
93.2820921252
 20
753.9477318978
 30
0.0
 11
93.2820921252
 21
773.9477318978
 31
0.0
  0
LINE
  5
85
330
75
100
AcDbEntity
  8
02303031_AUSL_RO
  6
Continuous
 62
     7
100
AcDbLine
 10
93.2820921252
 20
773.9477318978
 30
0.0
 11
93.2820921252
 21
813.9477318978
 31
0.0
  0
LINE
  5
86
330
75
100
AcDbEntity
  8
02303031_AUSL_RO
  6
Continuous
 62
     7
100
AcDbLine
 10
70.2820921252
 20
813.9477318978
 30
0.0
 11
70.2820921252
 21
773.9477318978
 31
0.0
  0
LINE
  5
87
330
75
100
AcDbEntity
  8
02303031_AUSL_RO
  6
Continuous
 62
     7
100
AcDbLine
 10
93.2820921252
 20
646.9477318978
 30
0.0
 11
93.2820921252
 21
741.1922945444
 31
0.0
  0
LINE
  5
88
330
75
100
AcDbEntity
  8
02303031_AUSL_RO
  6
Continuous
 62
     7
100
AcDbLine
 10
93.2820921252
 20
752.2977318978
 30
0.0
 11
93.2820921252
 21
753.9477318978
 31
0.0
  0
LINE
  5
89
330
75
100
AcDbEntity
  8
02303031_AUSL_RO
  6
Continuous
 62
     7
100
AcDbLine
 10
70.2820921252
 20
753.9477318978
 30
0.0
 11
70.2820921252
 21
752.2977318978
 31
0.0
  0
LINE
  5
8A
330
75
100
AcDbEntity
  8
02303031_AUSL_RO
  6
Continuous
 62
     7
100
AcDbLine
 10
70.2820921252
 20
741.1922945444
 30
0.0
 11
70.2820921252
 21
646.9477318978
 31
0.0
  0
LINE
  5
8B
330
75
100
AcDbEntity
  8
02303031_AUSL_RO
  6
Continuous
 62
     7
100
AcDbLine
 10
92.7820921252
 20
752.4477318978
 30
0.0
 11
92.7820921252
 21
752.6248562423
 31
0.0
  0
LINE
  5
8C
330
75
100
AcDbEntity
  8
02303031_AUSL_RO
  6
Continuous
 62
     7
100
AcDbLine
 10
70.7820921252
 20
752.6248562423
 30
0.0
 11
70.7820921252
 21
752.4477318978
 31
0.0
  0
ARC
  5
8D
330
75
100
AcDbEntity
  8
02303031_AUSL_RO
  6
Continuous
 62
     7
100
AcDbCircle
 10
91.2820921252
 20
753.9477318978
 30
0.0
 40
1.999999999999994
100
AcDbArc
 50
318.5903778907
 51
0.0
  0
ARC
  5
8E
330
75
100
AcDbEntity
  8
02303031_AUSL_RO
  6
Continuous
 62
     7
100
AcDbCircle
 10
72.2820921252
 20
753.9477318978
 30
0.0
 40
2.000000000000005
100
AcDbArc
 50
180.0
 51
221.4096221093
  0
LINE
  5
90
330
75
100
AcDbEntity
  8
02272031_NIPPEL_
  6
Continuous
 62
     7
100
AcDbLine
 10
90.7820921252
 20
646.7977318978
 30
0.0
 11
90.7820921252
 21
646.9477318978
 31
0.0
  0
LINE
  5
91
330
75
100
AcDbEntity
  8
02272031_NIPPEL_
  6
Continuous
 62
     7
100
AcDbLine
 10
72.7820921252
 20
646.9477318978
 30
0.0
 11
72.7820921252
 21
646.7977318978
 31
0.0
  0
ARC
  5
93
330
75
100
AcDbEntity
  8
$DDT_AUDIT_GENERATED_(92)
  6
Continuous
 62
     7
100
AcDbCircle
 10
160.3040651859
 20
574.9567221082
 30
0.0
 40
4.106032258426501
100
AcDbArc
 50
82.7447816513
 51
104.4752046605
  0
LINE
  5
94
330
75
100
AcDbEntity
  8
$DDT_AUDIT_GENERATED_(92)
  6
Continuous
 62
     7
100
AcDbLine
 10
160.8226131987
 20
579.029879221
 30
0.0
 11
161.4858406917
 21
579.0717666308
 31
0.0
  0
SPLINE
  5
95
330
75
100
AcDbEntity
  8
$DDT_AUDIT_GENERATED_(92)
  6
Continuous
 62
     7
100
AcDbSpline
210
0.0
220
0.0
230
1.0
 70
     8
 71
     3
 72
    18
 73
    14
 74
     0
 42
0.0000000004741745
 43
0.0000000001
 40
0.0
 40
0.0
 40
0.0
 40
0.0
 40
0.2500000000000005
 40
0.2500000000000005
 40
0.3750000000000004
 40
0.3750000000000004
 40
0.5000000000000003
 40
0.5000000000000003
 40
0.6250000000000002
 40
0.6250000000000002
 40
0.7500000000000001
 40
0.7500000000000001
 40
1.0
 40
1.0
 40
1.0
 40
1.0
 10
158.9951794325089
 20
668.9389569822164
 30
0.0
 10
158.9951788231858
 20
668.5446173753345
 30
0.0
 10
158.9525117973524
 20
667.6007901484604
 30
0.0
 10
158.92560666061
 20
665.5607939866572
 30
0.0
 10
158.922420908956
 20
664.7900670584708
 30
0.0
 10
158.9266031500993
 20
663.068349433492
 30
0.0
 10
158.9340471532975
 20
662.1189005046974
 30
0.0
 10
158.9439455850294
 20
660.1192579085072
 30
0.0
 10
158.9442461904037
 20
659.0402745460642
 30
0.0
 10
158.9363607154303
 20
656.8454510479622
 30
0.0
 10
158.9280783178189
 20
655.731988872275
 30
0.0
 10
158.8968660757839
 20
652.3596318838357
 30
0.0
 10
158.8700344412912
 20
650.0958847059019
 30
0.0
 10
158.8512318024908
 20
647.8513064806781
 30
0.0
  0
ARC
  5
96
330
75
100
AcDbEntity
  8
$DDT_AUDIT_GENERATED_(92)
  6
Continuous
 62
     7
100
AcDbCircle
 10
-4034.9086716295
 20
629.6963483803
 30
0.0
 40
4193.799200025848
100
AcDbArc
 50
359.3257630728
 51
0.2480342228
  0
LINE
  5
97
330
75
100
AcDbEntity
  8
$DDT_AUDIT_GENERATED_(92)
  6
Continuous
 62
     7
100
AcDbLine
 10
158.5891736582
 20
578.8887405275
 30
0.0
 11
159.2777172371
 21
578.9324120855
 31
0.0
  0
ARC
  5
98
330
75
100
AcDbEntity
  8
$DDT_AUDIT_GENERATED_(92)
  6
Continuous
 62
     7
100
AcDbCircle
 10
279.692041058
 20
653.1747233653
 30
0.0
 40
122.5658650316284
100
AcDbArc
 50
178.5597455904
 51
180.9816762797
  0
SPLINE
  5
99
330
75
100
AcDbEntity
  8
$DDT_AUDIT_GENERATED_(92)
  6
Continuous
 62
     7
100
AcDbSpline
210
0.0
220
0.0
230
1.0
 70
     8
 71
     3
 72
     8
 73
     4
 74
     0
 42
0.0000000055596766
 43
0.0000000001
 40
0.1059069730229375
 40
0.1059069730229375
 40
0.1059069730229375
 40
0.1059069730229375
 40
0.138695283247415
 40
0.138695283247415
 40
0.138695283247415
 40
0.138695283247415
 10
158.0965657745116
 20
668.8780065891942
 30
0.0
 10
158.0938804698736
 20
668.8675521707373
 30
0.0
 10
158.0910163656183
 20
668.8480549553626
 30
0.0
 10
158.0881201633676
 20
668.8197276543145
 30
0.0
  0
SPLINE
  5
9A
330
75
100
AcDbEntity
  8
$DDT_AUDIT_GENERATED_(92)
  6
Continuous
 62
     7
100
AcDbSpline
210
0.0
220
0.0
230
1.0
 70
     8
 71
     3
 72
    20
 73
    16
 74
     0
 42
0.0000000004810148
 43
0.0000000001
 40
0.0
 40
0.0
 40
0.0
 40
0.0
 40
0.2499999999999988
 40
0.2499999999999988
 40
0.374999999999999
 40
0.374999999999999
 40
0.4999999999999992
 40
0.4999999999999992
 40
0.6249999999999994
 40
0.6249999999999994
 40
0.7499999999999996
 40
0.7499999999999996
 40
0.8749999999999998
 40
0.8749999999999998
 40
1.0
 40
1.0
 40
1.0
 40
1.0
 10
158.1981954071408
 20
647.9012346504358
 30
0.0
 10
158.2036976581093
 20
650.1044728719746
 30
0.0
 10
158.2016818066027
 20
652.3279857523513
 30
0.0
 10
158.1788898325235
 20
655.6433376454958
 30
0.0
 10
158.1677635113048
 20
656.7391150567527
 30
0.0
 10
158.139367006218
 20
658.901610109374
 30
0.0
 10
158.1219367052432
 20
659.9671412815371
 30
0.0
 10
158.0890806634907
 20
661.9410326528356
 30
0.0
 10
158.0743743563481
 20
662.8783874227618
 30
0.0
 10
158.0587153630202
 20
664.5791072754431
 30
0.0
 10
158.0577805577201
 20
665.3408550958812
 30
0.0
 10
158.0686950843066
 20
666.6871222871023
 30
0.0
 10
158.0804346189228
 20
667.2558717791932
 30
0.0
 10
158.1023445254065
 20
668.1563810651735
 30
0.0
 10
158.1120477162321
 20
668.496579252769
 30
0.0
 10
158.1120465904307
 20
668.6891107595372
 30
0.0
  0
ARC
  5
9B
330
75
100
AcDbEntity
  8
$DDT_AUDIT_GENERATED_(92)
  6
Continuous
 62
     7
100
AcDbCircle
 10
227.7435309696
 20
603.6606822329
 30
0.0
 40
74.42218039939688
100
AcDbArc
 50
181.8397350623
 51
192.2054448302
  0
ARC
  5
9C
330
75
100
AcDbEntity
  8
$DDT_AUDIT_GENERATED_(92)
  6
Continuous
 62
     7
100
AcDbCircle
 10
205.0632271817
 20
602.6119215819
 30
0.0
 40
52.16921486432893
100
AcDbArc
 50
196.3494866209
 51
205.5119037634
  0
LINE
  5
9D
330
75
100
AcDbEntity
  8
$DDT_AUDIT_GENERATED_(92)
  6
Continuous
 62
     7
100
AcDbLine
 10
158.5743408628
 20
578.8878370976
 30
0.0
 11
158.5891736582
 21
578.8887405275
 31
0.0
  0
ARC
  5
9E
330
75
100
AcDbEntity
  8
$DDT_AUDIT_GENERATED_(92)
  6
Continuous
 62
     7
100
AcDbCircle
 10
18815.3799307965
 20
598.6009959501
 30
0.0
 40
18657.24687141381
100
AcDbArc
 50
179.8486004439
 51
180.0292006964
  0
SPLINE
  5
9F
330
75
100
AcDbEntity
  8
$DDT_AUDIT_GENERATED_(92)
  6
Continuous
 62
     7
100
AcDbSpline
210
0.0
220
0.0
230
1.0
 70
     8
 71
     3
 72
     8
 73
     4
 74
     0
 42
0.0000000024874161
 43
0.0000000001
 40
0.9850682706099538
 40
0.9850682706099538
 40
0.9850682706099538
 40
0.9850682706099538
 40
1.0
 40
1.0
 40
1.0
 40
1.0
 10
156.7990492711724
 20
604.2289998155294
 30
0.0
 10
156.7988899258976
 20
604.2099449285279
 30
0.0
 10
156.798810613052
 20
604.1899362491378
 30
0.0
 10
156.7988106142755
 20
604.1689715604177
 30
0.0
  0
LINE
  5
A0
330
75
100
AcDbEntity
  8
$DDT_AUDIT_GENERATED_(92)
  6
Continuous
 62
     7
100
AcDbLine
 10
158.5743408628
 20
578.8878370976
 30
0.0
 11
158.4920303317
 21
578.882844793
 31
0.0
  0
LINE
  5
A1
330
75
100
AcDbEntity
  8
$DDT_AUDIT_GENERATED_(92)
  6
Continuous
 62
     7
100
AcDbLine
 10
161.8992533664
 20
665.2652653415
 30
0.0
 11
161.8992547059
 21
665.4437481615
 31
0.0
  0
LINE
  5
A2
330
75
100
AcDbEntity
  8
$DDT_AUDIT_GENERATED_(92)
  6
Continuous
 62
     7
100
AcDbLine
 10
161.8992559964
 20
665.2652653415
 30
0.0
 11
161.8986560513
 21
579.1195235169
 31
0.0
  0
LINE
  5
A3
330
75
100
AcDbEntity
  8
$DDT_AUDIT_GENERATED_(92)
  6
Continuous
 62
     7
100
AcDbLine
 10
161.8986560511
 20
579.1195549002
 30
0.0
 11
161.898645622
 21
577.6692022723
 31
0.0
  0
LINE
  5
A4
330
75
100
AcDbEntity
  8
$DDT_AUDIT_GENERATED_(92)
  6
Continuous
 62
     7
100
AcDbLine
 10
161.898645622
 20
577.6692022723
 30
0.0
 11
161.8985126825
 21
562.0240977925
 31
0.0
  0
SPLINE
  5
A5
330
75
100
AcDbEntity
  8
$DDT_AUDIT_GENERATED_(92)
  6
Continuous
 62
     7
100
AcDbSpline
210
0.0
220
0.0
230
1.0
 70
     8
 71
     3
 72
     8
 73
     4
 74
     0
 42
0.0000000076568481
 43
0.0000000001
 40
0.1104536226610877
 40
0.1104536226610877
 40
0.1104536226610877
 40
0.1104536226610877
 40
0.1659714033833904
 40
0.1659714033833904
 40
0.1659714033833904
 40
0.1659714033833904
 10
161.5021649745025
 20
561.5370043260003
 30
0.0
 10
161.5020900468857
 20
561.5363265963131
 30
0.0
 10
161.5019965661704
 20
561.5600255982897
 30
0.0
 10
161.5018848113467
 20
561.6081517789712
 30
0.0
  0
SPLINE
  5
A6
330
75
100
AcDbEntity
  8
$DDT_AUDIT_GENERATED_(92)
  6
Continuous
 62
     7
100
AcDbSpline
210
0.0
220
0.0
230
1.0
 70
     8
 71
     3
 72
    10
 73
     6
 74
     0
 42
0.0000000234374839
 43
0.0000000001
 40
0.0
 40
0.0
 40
0.0
 40
0.0
 40
0.5
 40
0.5
 40
1.0
 40
1.0
 40
1.0
 40
1.0
 10
161.8986560512559
 20
579.1195235168534
 30
0.0
 10
161.8986561151212
 20
579.1082744096124
 30
0.0
 10
161.8565537603537
 20
579.0970376843545
 30
0.0
 10
161.7072327825915
 20
579.0797463253696
 30
0.0
 10
161.6005895723912
 20
579.0737583244049
 30
0.0
 10
161.4858958526953
 20
579.071721882687
 30
0.0
  0
LINE
  5
A7
330
75
100
AcDbEntity
  8
$DDT_AUDIT_GENERATED_(92)
  6
Continuous
 62
     7
100
AcDbLine
 10
130.5860959012
 20
557.123889124
 30
0.0
 11
130.5860955127
 21
555.72826828
 31
0.0
  0
LINE
  5
A8
330
75
100
AcDbEntity
  8
$DDT_AUDIT_GENERATED_(92)
  6
Continuous
 62
     7
100
AcDbLine
 10
130.5861112769
 20
604.6207657295
 30
0.0
 11
130.586110578
 21
602.8019194072
 31
0.0
  0
LINE
  5
A9
330
75
100
AcDbEntity
  8
$DDT_AUDIT_GENERATED_(92)
  6
Continuous
 62
     7
100
AcDbLine
 10
130.5860956332
 20
555.3539689296
 30
0.0
 11
130.5861034553
 21
575.710549277
 31
0.0
  0
SPLINE
  5
AA
330
75
100
AcDbEntity
  8
$DDT_AUDIT_GENERATED_(92)
  6
Continuous
 62
     7
100
AcDbSpline
210
0.0
220
0.0
230
1.0
 70
     8
 71
     3
 72
     8
 73
     4
 74
     0
 42
0.0000000057618409
 43
0.0000000001
 40
0.8352945832599061
 40
0.8352945832599061
 40
0.8352945832599061
 40
0.8352945832599061
 40
0.8879338568251218
 40
0.8879338568251218
 40
0.8879338568251218
 40
0.8879338568251218
 10
130.9481175447496
 20
555.1544324775305
 30
0.0
 10
130.948181843386
 20
555.095638550697
 30
0.0
 10
130.9482362362473
 20
555.0651168526704
 30
0.0
 10
130.9482804874431
 20
555.0630746106424
 30
0.0
  0
SPLINE
  5
AB
330
75
100
AcDbEntity
  8
$DDT_AUDIT_GENERATED_(92)
  6
Continuous
 62
     7
100
AcDbSpline
210
0.0
220
0.0
230
1.0
 70
     8
 71
     3
 72
     8
 73
     4
 74
     0
 42
0.000000005741626
 43
0.0000000001
 40
0.8352606684118516
 40
0.8352606684118516
 40
0.8352606684118516
 40
0.8352606684118516
 40
0.8876804756960541
 40
0.8876804756960541
 40
0.8876804756960541
 40
0.8876804756960541
 10
130.9303477205457
 20
604.8251625277832
 30
0.0
 10
130.9302817438426
 20
604.8835576010404
 30
0.0
 10
130.930225787687
 20
604.9140951058205
 30
0.0
 10
130.9301801551917
 20
604.9164598429469
 30
0.0
  0
LINE
  5
AC
330
75
100
AcDbEntity
  8
$DDT_AUDIT_GENERATED_(92)
  6
Continuous
 62
     7
100
AcDbLine
 10
130.5860957313
 20
555.6608232838
 30
0.0
 11
130.586111179
 21
604.3124134789
 31
0.0
  0
LINE
  5
AD
330
75
100
AcDbEntity
  8
$DDT_AUDIT_GENERATED_(92)
  6
Continuous
 62
     7
100
AcDbLine
 10
130.9514224332
 20
555.1531118217
 30
0.0
 11
161.5032041885
 21
561.606834106
 31
0.0
  0
LINE
  5
AE
330
75
100
AcDbEntity
  8
$DDT_AUDIT_GENERATED_(92)
  6
Continuous
 62
     7
100
AcDbLine
 10
153.4363957924
 20
601.5004406033
 30
0.0
 11
130.9356695291
 21
604.8265295493
 31
0.0
  0
ARC
  5
AF
330
75
100
AcDbEntity
  8
$DDT_AUDIT_GENERATED_(92)
  6
Continuous
 62
     7
100
AcDbCircle
 10
267.9287295621
 20
654.7580707479
 30
0.0
 40
110.7358426256903
100
AcDbArc
 50
172.7144388339
 51
179.2167745682
  0
ARC
  5
B0
330
75
100
AcDbEntity
  8
$DDT_AUDIT_GENERATED_(92)
  6
Continuous
 62
     7
100
AcDbCircle
 10
-4868.0995425296
 20
664.68840887
 30
0.0
 40
5025.262162187226
100
AcDbArc
 50
359.3105888527
 51
359.844968548
  0
ARC
  5
B1
330
75
100
AcDbEntity
  8
$DDT_AUDIT_GENERATED_(92)
  6
Continuous
 62
     7
100
AcDbCircle
 10
158.5942502975
 20
668.8195669281
 30
0.0
 40
0.5005079484197023
100
AcDbArc
 50
40.1900776544
 51
163.2260907085
  0
SPLINE
  5
B2
330
75
100
AcDbEntity
  8
$DDT_AUDIT_GENERATED_(92)
  6
Continuous
 62
     7
100
AcDbSpline
210
0.0
220
0.0
230
1.0
 70
     8
 71
     3
 72
     8
 73
     4
 74
     0
 42
0.0000000022611312
 43
0.0000000001
 40
0.0
 40
0.0
 40
0.0
 40
0.0
 40
1.0
 40
1.0
 40
1.0
 40
1.0
 10
161.8063155052987
 20
665.73223295369
 30
0.0
 10
160.7912655360411
 20
666.9587676524474
 30
0.0
 10
159.8511950948204
 20
668.0943286623589
 30
0.0
 10
158.9861041816366
 20
669.1389159834242
 30
0.0
  0
ARC
  5
B3
330
75
100
AcDbEntity
  8
$DDT_AUDIT_GENERATED_(92)
  6
Continuous
 62
     7
100
AcDbCircle
 10
153.8507963949
 20
604.5220227196
 30
0.0
 40
2.964286812764399
100
AcDbArc
 50
261.353441405
 51
354.5720053853
  0
ARC
  5
B4
330
75
100
AcDbEntity
  8
$DDT_AUDIT_GENERATED_(92)
  6
Continuous
 62
     7
100
AcDbCircle
 10
161.3992563524
 20
665.4435254056
 30
0.0
 40
0.499998262131377
100
AcDbArc
 50
359.9935195711
 51
38.9537709933
  0
ARC
  5
B5
330
75
100
AcDbEntity
  8
$DDT_AUDIT_GENERATED_(92)
  6
Continuous
 62
     7
100
AcDbCircle
 10
161.398512864
 20
562.0241549289
 30
0.0
 40
0.4999997890213628
100
AcDbArc
 50
282.0807713286
 51
0.0039891537
  0
ARC
  5
B6
330
75
100
AcDbEntity
  8
$DDT_AUDIT_GENERATED_(92)
  6
Continuous
 62
     7
100
AcDbCircle
 10
130.8861117609
 20
604.622396271
 30
0.0
 40
0.3000004880756759
100
AcDbArc
 50
80.7550467639
 51
180.0475511514
  0
ARC
  5
B7
330
75
100
AcDbEntity
  8
$DDT_AUDIT_GENERATED_(92)
  6
Continuous
 62
     7
100
AcDbCircle
 10
130.886096129
 20
555.3541073613
 30
0.0
 40
0.2999988034922087
100
AcDbArc
 50
179.96419857
 51
282.4291057722
  0
SPLINE
  5
B9
330
75
100
AcDbEntity
  8
$DDT_AUDIT_GENERATED_(B8)
  6
Continuous
 62
     7
100
AcDbSpline
210
0.0
220
0.0
230
1.0
 70
     8
 71
     3
 72
    11
 73
     7
 74
     0
 42
0.0000000001420474
 43
0.0000000001
 40
0.0
 40
0.0
 40
0.0
 40
0.0
 40
0.0336833771893758
 40
0.0633871348825708
 40
0.0941009451449831
 40
0.1095199748652417
 40
0.1095199748652417
 40
0.1095199748652417
 40
0.1095199748652417
 10
107.0399902234616
 20
562.0509882514094
 30
0.0
 10
107.9262690998724
 20
561.0003402685497
 30
0.0
 10
109.4724942845116
 20
559.205554398045
 30
0.0
 10
111.22019970703
 20
557.2507298099808
 30
0.0
 10
111.993449929888
 20
556.3812875254072
 30
0.0
 10
112.1149526653292
 20
556.2484708055631
 30
0.0
 10
112.115786084429
 20
556.2483228859196
 30
0.0
  0
SPLINE
  5
BA
330
75
100
AcDbEntity
  8
$DDT_AUDIT_GENERATED_(B8)
  6
Continuous
 62
     7
100
AcDbSpline
210
0.0
220
0.0
230
1.0
 70
     8
 71
     3
 72
    22
 73
    18
 74
     0
 42
0.0000000000784701
 43
0.0000000001
 40
0.6097448292028991
 40
0.6097448292028991
 40
0.6097448292028991
 40
0.6097448292028991
 40
0.6097790920301353
 40
0.6332115156316187
 40
0.6574463255924395
 40
0.706748698434271
 40
0.7573723844801447
 40
0.7827241746160994
 40
0.8077443565163877
 40
0.8317379643867913
 40
0.8542526149357024
 40
0.8762409244463417
 40
0.8994406683227336
 40
0.9239742001251959
 40
0.94906758968565
 40
0.9744969163447575
 40
1.0
 40
1.0
 40
1.0
 40
1.0
 10
112.1167883441493
 20
603.7477310036293
 30
0.0
 10
112.1167891184996
 20
603.747731523949
 30
0.0
 10
112.1171808306385
 20
603.74793567201
 30
0.0
 10
111.9249312605597
 20
603.5364081997758
 30
0.0
 10
110.8055020521876
 20
602.2827914707118
 30
0.0
 10
108.1362009995353
 20
599.2686302570518
 30
0.0
 10
104.5847749020679
 20
595.0403054630483
 30
0.0
 10
101.6201821352948
 20
591.1121159539293
 30
0.0
 10
99.51426464547225
 20
587.9392759780999
 30
0.0
 10
97.77353621703536
 20
584.5647271859922
 30
0.0
 10
96.8359567210405
 20
580.9180914894454
 30
0.0
 10
97.17762392880196
 20
577.1732219998592
 30
0.0
 10
98.59685325110519
 20
573.6840433715026
 30
0.0
 10
100.5500020678264
 20
570.4268267009287
 30
0.0
 10
102.7359935134041
 20
567.3703757284261
 30
0.0
 10
104.95482456383
 20
564.5461093627574
 30
0.0
 10
106.3689516812187
 20
562.8464774699768
 30
0.0
 10
107.0399902234616
 20
562.0509882514094
 30
0.0
  0
LINE
  5
BB
330
75
100
AcDbEntity
  8
$DDT_AUDIT_GENERATED_(B8)
  6
Continuous
 62
     7
100
AcDbLine
 10
126.4318781027
 20
602.9014621651
 30
0.0
 11
126.4318781027
 21
603.7477318978
 31
0.0
  0
ARC
  5
BC
330
75
100
AcDbEntity
  8
$DDT_AUDIT_GENERATED_(B8)
  6
Continuous
 62
     7
100
AcDbCircle
 10
-2371.3650030088
 20
559.609965772
 30
0.0
 40
2498.174120928469
100
AcDbArc
 50
359.9228869693
 51
0.9929437129
  0
LINE
  5
BD
330
75
100
AcDbEntity
  8
$DDT_AUDIT_GENERATED_(B8)
  6
Continuous
 62
     7
100
AcDbLine
 10
108.3820921252
 20
518.4977318978
 30
0.0
 11
55.1820921252
 21
518.4977318978
 31
0.0
  0
LINE
  5
BE
330
75
100
AcDbEntity
  8
$DDT_AUDIT_GENERATED_(B8)
  6
Continuous
 62
     7
100
AcDbLine
 10
55.9820921252
 20
628.4977318978
 30
0.0
 11
107.5820921252
 21
628.4977318978
 31
0.0
  0
ARC
  5
BF
330
75
100
AcDbEntity
  8
$DDT_AUDIT_GENERATED_(B8)
  6
Continuous
 62
     7
100
AcDbCircle
 10
112.1171429235
 20
607.2827521091
 30
0.0
 40
3.535888859053121
100
AcDbArc
 50
180.005756735
 51
269.9942661695
  0
ARC
  5
C0
330
75
100
AcDbEntity
  8
$DDT_AUDIT_GENERATED_(B8)
  6
Continuous
 62
     7
100
AcDbCircle
 10
112.1180520824
 20
552.7116693012
 30
0.0
 40
3.535400904838373
100
AcDbArc
 50
89.9981621465
 51
180.0025228317
  0
LINE
  5
C1
330
75
100
AcDbEntity
  8
$DDT_AUDIT_GENERATED_(B8)
  6
Continuous
 62
     7
100
AcDbLine
 10
112.1038794111
 20
556.2477318978
 30
0.0
 11
126.8067744823
 21
556.2477318978
 31
0.0
  0
LINE
  5
C2
330
75
100
AcDbEntity
  8
$DDT_AUDIT_GENERATED_(B8)
  6
Continuous
 62
     7
100
AcDbLine
 10
126.4318781026
 20
603.7477318978
 30
0.0
 11
112.1096669076
 21
603.7477318978
 31
0.0
  0
ARC
  5
C3
330
75
100
AcDbEntity
  8
$DDT_AUDIT_GENERATED_(B8)
  6
Continuous
 62
     7
100
AcDbCircle
 10
126.4320921252
 20
566.2407070566
 30
0.0
 40
10.0
100
AcDbArc
 50
272.1604358185
 51
295.0538190433
  0
ARC
  5
C4
330
75
100
AcDbEntity
  8
$DDT_AUDIT_GENERATED_(B8)
  6
Continuous
 62
     7
100
AcDbCircle
 10
126.4320921252
 20
593.7476044931
 30
0.0
 40
9.999999999999998
100
AcDbArc
 50
64.9461809567
 51
90.0012262592
  0
LINE
  5
C5
330
75
100
AcDbEntity
  8
$DDT_AUDIT_GENERATED_(B8)
  6
Continuous
 62
     7
100
AcDbLine
 10
108.5820921252
 20
607.2797558734
 30
0.0
 11
108.5820921252
 21
627.4977318978
 31
0.0
  0
LINE
  5
C6
330
75
100
AcDbEntity
  8
$DDT_AUDIT_GENERATED_(B8)
  6
Continuous
 62
     7
100
AcDbLine
 10
108.5820921252
 20
518.6977318978
 30
0.0
 11
108.5820921252
 21
552.7132009015
 31
0.0
  0
LINE
  5
C7
330
75
100
AcDbEntity
  8
$DDT_AUDIT_GENERATED_(B8)
  6
Continuous
 62
     7
100
AcDbLine
 10
54.9820921252
 20
627.4977318978
 30
0.0
 11
54.9820921252
 21
518.6977318978
 31
0.0
  0
ARC
  5
C8
330
75
100
AcDbEntity
  8
$DDT_AUDIT_GENERATED_(B8)
  6
Continuous
 62
     7
100
AcDbCircle
 10
55.1820921252
 20
518.6977318978
 30
0.0
 40
0.1999999999999953
100
AcDbArc
 50
180.0
 51
270.0
  0
ARC
  5
C9
330
75
100
AcDbEntity
  8
$DDT_AUDIT_GENERATED_(B8)
  6
Continuous
 62
     7
100
AcDbCircle
 10
108.3820921252
 20
518.6977318978
 30
0.0
 40
0.2000000000000028
100
AcDbArc
 50
270.0
 51
0.0
  0
ARC
  5
CA
330
75
100
AcDbEntity
  8
$DDT_AUDIT_GENERATED_(B8)
  6
Continuous
 62
     7
100
AcDbCircle
 10
55.9820921252
 20
627.4977318978
 30
0.0
 40
1.000000000000001
100
AcDbArc
 50
90.0
 51
180.0
  0
ARC
  5
CB
330
75
100
AcDbEntity
  8
$DDT_AUDIT_GENERATED_(B8)
  6
Continuous
 62
     7
100
AcDbCircle
 10
107.5820921252
 20
627.4977318978
 30
0.0
 40
0.9999999999999974
100
AcDbArc
 50
0.0
 51
90.0
  0
LINE
  5
CD
330
75
100
AcDbEntity
  8
$DDT_AUDIT_GENERATED_(CC)
  6
Continuous
 62
     7
100
AcDbLine
 10
90.7820921252
 20
734.9977318978
 30
0.0
 11
72.7820921252
 21
734.9977318978
 31
0.0
  0
LINE
  5
CE
330
75
100
AcDbEntity
  8
$DDT_AUDIT_GENERATED_(CC)
  6
Continuous
 62
     7
100
AcDbLine
 10
72.7820921252
 20
735.4477318978
 30
0.0
 11
72.7820921252
 21
734.9977318978
 31
0.0
  0
LINE
  5
CF
330
75
100
AcDbEntity
  8
$DDT_AUDIT_GENERATED_(CC)
  6
Continuous
 62
     7
100
AcDbLine
 10
90.7820921252
 20
734.9977318978
 30
0.0
 11
90.7820921252
 21
735.4477318978
 31
0.0
  0
LINE
  5
D1
330
75
100
AcDbEntity
  8
$DDT_AUDIT_GENERATED_(D0)
  6
Continuous
 62
     7
100
AcDbLine
 10
71.2820921252
 20
735.4477318978
 30
0.0
 11
92.2820921252
 21
735.4477318978
 31
0.0
  0
LINE
  5
D2
330
75
100
AcDbEntity
  8
$DDT_AUDIT_GENERATED_(D0)
  6
Continuous
 62
     7
100
AcDbLine
 10
93.1320921252
 20
752.4477318978
 30
0.0
 11
70.4320921252
 21
752.4477318978
 31
0.0
  0
ARC
  5
D3
330
75
100
AcDbEntity
  8
$DDT_AUDIT_GENERATED_(D0)
  6
Continuous
 62
     7
100
AcDbCircle
 10
87.2820921252
 20
741.1922945444
 30
0.0
 40
16.99999999999981
100
AcDbArc
 50
180.0
 51
199.7499227956
  0
ARC
  5
D4
330
75
100
AcDbEntity
  8
$DDT_AUDIT_GENERATED_(D0)
  6
Continuous
 62
     7
100
AcDbCircle
 10
76.2820921252
 20
741.1922945444
 30
0.0
 40
16.99999999999982
100
AcDbArc
 50
340.2500772044
 51
0.0
  0
LINE
  5
D5
330
75
100
AcDbEntity
  8
$DDT_AUDIT_GENERATED_(D0)
  6
Continuous
 62
     7
100
AcDbLine
 10
93.2820921252
 20
741.1922945444
 30
0.0
 11
93.2820921252
 21
752.2977318978
 31
0.0
  0
LINE
  5
D6
330
75
100
AcDbEntity
  8
$DDT_AUDIT_GENERATED_(D0)
  6
Continuous
 62
     7
100
AcDbLine
 10
70.2820921252
 20
752.2977318978
 30
0.0
 11
70.2820921252
 21
741.1922945444
 31
0.0
  0
ARC
  5
D7
330
75
100
AcDbEntity
  8
$DDT_AUDIT_GENERATED_(D0)
  6
Continuous
 62
     7
100
AcDbCircle
 10
93.1320921252
 20
752.2977318978
 30
0.0
 40
0.1500000000000008
100
AcDbArc
 50
0.0
 51
90.0
  0
ARC
  5
D8
330
75
100
AcDbEntity
  8
$DDT_AUDIT_GENERATED_(D0)
  6
Continuous
 62
     7
100
AcDbCircle
 10
70.4320921252
 20
752.2977318978
 30
0.0
 40
0.1499999999999835
100
AcDbArc
 50
90.0
 51
180.0
  0
ENDBLK
  5
DA
330
75
100
AcDbEntity
  8
0
100
AcDbBlockEnd
  0
BLOCK
  5
119
330
DB
100
AcDbEntity
  8
0
100
AcDbBlockBegin
  2
SE1
 70
     0
 10
0.0
 20
0.0
 30
0.0
  3
SE1
  1

  0
LINE
  5
DD
330
DB
100
AcDbEntity
  8
$DDT_AUDIT_GENERATED_(77)
  6
Continuous
 62
     7
100
AcDbLine
 10
356.3583909348
 20
642.4477318978
 30
0.0
 11
345.7583909348
 21
642.4477318978
 31
0.0
  0
LINE
  5
DE
330
DB
100
AcDbEntity
  8
$DDT_AUDIT_GENERATED_(77)
  6
Continuous
 62
     7
100
AcDbLine
 10
356.3583909348
 20
642.4477318978
 30
0.0
 11
356.3583909348
 21
643.9977318978
 31
0.0
  0
LINE
  5
DF
330
DB
100
AcDbEntity
  8
$DDT_AUDIT_GENERATED_(77)
  6
Continuous
 62
     7
100
AcDbLine
 10
356.3583909348
 20
643.9977318978
 30
0.0
 11
345.7583909348
 21
643.9977318978
 31
0.0
  0
LINE
  5
E0
330
DB
100
AcDbEntity
  8
$DDT_AUDIT_GENERATED_(77)
  6
Continuous
 62
     7
100
AcDbLine
 10
371.7583909348
 20
646.7977318978
 30
0.0
 11
346.7583909348
 21
646.7977318978
 31
0.0
  0
LINE
  5
E1
330
DB
100
AcDbEntity
  8
$DDT_AUDIT_GENERATED_(77)
  6
Continuous
 62
     7
100
AcDbLine
 10
345.7583909348
 20
642.4477318978
 30
0.0
 11
345.7583909348
 21
628.4977318978
 31
0.0
  0
LINE
  5
E2
330
DB
100
AcDbEntity
  8
$DDT_AUDIT_GENERATED_(77)
  6
Continuous
 62
     7
100
AcDbLine
 10
345.7583909348
 20
645.7977318978
 30
0.0
 11
345.7583909348
 21
643.9977318978
 31
0.0
  0
LINE
  5
E3
330
DB
100
AcDbEntity
  8
$DDT_AUDIT_GENERATED_(77)
  6
Continuous
 62
     7
100
AcDbLine
 10
372.7583909348
 20
628.4977318978
 30
0.0
 11
372.7583909348
 21
645.7977318978
 31
0.0
  0
ARC
  5
E4
330
DB
100
AcDbEntity
  8
$DDT_AUDIT_GENERATED_(77)
  6
Continuous
 62
     7
100
AcDbCircle
 10
346.7583909348
 20
645.7977318978
 30
0.0
 40
1.000000000000001
100
AcDbArc
 50
90.0
 51
180.0
  0
ARC
  5
E5
330
DB
100
AcDbEntity
  8
$DDT_AUDIT_GENERATED_(77)
  6
Continuous
 62
     7
100
AcDbCircle
 10
371.7583909348
 20
645.7977318978
 30
0.0
 40
1.000000000000001
100
AcDbArc
 50
0.0
 51
90.0
  0
LINE
  5
E7
330
DB
100
AcDbEntity
  8
$DDT_AUDIT_GENERATED_(E6)
  6
Continuous
 62
     7
100
AcDbLine
 10
350.622853893
 20
643.9977318978
 30
0.0
 11
350.622853893
 21
643.9477318978
 31
0.0
  0
LINE
  5
E8
330
DB
100
AcDbEntity
  8
02303031_AUSL_RO
  6
Continuous
 62
     7
100
AcDbLine
 10
370.7583909348
 20
646.9477318978
 30
0.0
 11
347.7583909348
 21
646.9477318978
 31
0.0
  0
LINE
  5
E9
330
DB
100
AcDbEntity
  8
02303031_AUSL_RO
  6
Continuous
 62
     7
100
AcDbLine
 10
571.2583909348
 20
752.6248562423
 30
0.0
 11
593.2583909348
 21
752.6248562423
 31
0.0
  0
LINE
  5
EA
330
DB
100
AcDbEntity
  8
02303031_AUSL_RO
  6
Continuous
 62
     7
100
AcDbLine
 10
570.7583909348
 20
773.9477318978
 30
0.0
 11
570.7583909348
 21
753.9477318978
 31
0.0
  0
LINE
  5
EB
330
DB
100
AcDbEntity
  8
02303031_AUSL_RO
  6
Continuous
 62
     7
100
AcDbLine
 10
593.7583909348
 20
753.9477318978
 30
0.0
 11
593.7583909348
 21
773.9477318978
 31
0.0
  0
ARC
  5
EC
330
DB
100
AcDbEntity
  8
02303031_AUSL_RO
  6
Continuous
 62
     7
100
AcDbCircle
 10
542.2583909348
 20
773.9477318978
 30
0.0
 40
28.50000000000002
100
AcDbArc
 50
0.0
 51
90.0
  0
ARC
  5
ED
330
DB
100
AcDbEntity
  8
02303031_AUSL_RO
  6
Continuous
 62
     7
100
AcDbCircle
 10
542.2583909348
 20
773.9477318978
 30
0.0
 40
51.49999999999999
100
AcDbArc
 50
0.0
 51
90.0
  0
LINE
  5
EE
330
DB
100
AcDbEntity
  8
02303031_AUSL_RO
  6
Continuous
 62
     7
100
AcDbLine
 10
399.2583909348
 20
802.4477318978
 30
0.0
 11
542.2583909348
 21
802.4477318978
 31
0.0
  0
LINE
  5
EF
330
DB
100
AcDbEntity
  8
02303031_AUSL_RO
  6
Continuous
 62
     7
100
AcDbLine
 10
542.2583909348
 20
825.4477318978
 30
0.0
 11
399.2583909348
 21
825.4477318978
 31
0.0
  0
ARC
  5
F0
330
DB
100
AcDbEntity
  8
02303031_AUSL_RO
  6
Continuous
 62
     7
100
AcDbCircle
 10
399.2583909348
 20
773.9477318978
 30
0.0
 40
28.5
100
AcDbArc
 50
90.0
 51
180.0
  0
ARC
  5
F1
330
DB
100
AcDbEntity
  8
02303031_AUSL_RO
  6
Continuous
 62
     7
100
AcDbCircle
 10
399.2583909348
 20
773.9477318978
 30
0.0
 40
51.49999999999999
100
AcDbArc
 50
90.0
 51
180.0
  0
LINE
  5
F2
330
DB
100
AcDbEntity
  8
02303031_AUSL_RO
  6
Continuous
 62
     7
100
AcDbLine
 10
370.7583909348
 20
646.9477318978
 30
0.0
 11
370.7583909348
 21
773.9477318978
 31
0.0
  0
LINE
  5
F3
330
DB
100
AcDbEntity
  8
02303031_AUSL_RO
  6
Continuous
 62
     7
100
AcDbLine
 10
347.7583909348
 20
773.9477318978
 30
0.0
 11
347.7583909348
 21
646.9477318978
 31
0.0
  0
LINE
  5
F4
330
DB
100
AcDbEntity
  8
02303031_AUSL_RO
  6
Continuous
 62
     7
100
AcDbLine
 10
593.2583909348
 20
752.4477318978
 30
0.0
 11
593.2583909348
 21
752.6248562423
 31
0.0
  0
LINE
  5
F5
330
DB
100
AcDbEntity
  8
02303031_AUSL_RO
  6
Continuous
 62
     7
100
AcDbLine
 10
571.2583909348
 20
752.6248562423
 30
0.0
 11
571.2583909348
 21
752.4477318978
 31
0.0
  0
ARC
  5
F6
330
DB
100
AcDbEntity
  8
02303031_AUSL_RO
  6
Continuous
 62
     7
100
AcDbCircle
 10
591.7583909348
 20
753.9477318978
 30
0.0
 40
1.99999999999999
100
AcDbArc
 50
318.5903778907
 51
0.0
  0
ARC
  5
F7
330
DB
100
AcDbEntity
  8
02303031_AUSL_RO
  6
Continuous
 62
     7
100
AcDbCircle
 10
572.7583909348
 20
753.9477318978
 30
0.0
 40
2.000000000000002
100
AcDbArc
 50
180.0
 51
221.4096221093
  0
LINE
  5
F8
330
DB
100
AcDbEntity
  8
02272031_NIPPEL_
  6
Continuous
 62
     7
100
AcDbLine
 10
368.2583909348
 20
646.7977318978
 30
0.0
 11
368.2583909348
 21
646.9477318978
 31
0.0
  0
LINE
  5
F9
330
DB
100
AcDbEntity
  8
02272031_NIPPEL_
  6
Continuous
 62
     7
100
AcDbLine
 10
350.2583909348
 20
646.9477318978
 30
0.0
 11
350.2583909348
 21
646.7977318978
 31
0.0
  0
ARC
  5
FA
330
DB
100
AcDbEntity
  8
$DDT_AUDIT_GENERATED_(92)
  6
Continuous
 62
     7
100
AcDbCircle
 10
6195.0447585101
 20
-5.491161464
 30
0.0
 40
5844.960509438441
100
AcDbArc
 50
173.5821362424
 51
173.7729780911
  0
ARC
  5
FB
330
DB
100
AcDbEntity
  8
$DDT_AUDIT_GENERATED_(92)
  6
Continuous
 62
     7
100
AcDbCircle
 10
385.2925580328
 20
637.599034771
 30
0.0
 40
10.35132517496131
100
AcDbArc
 50
81.9717340529
 51
84.4157590636
  0
SPLINE
  5
FC
330
DB
100
AcDbEntity
  8
$DDT_AUDIT_GENERATED_(92)
  6
Continuous
 62
     7
100
AcDbSpline
210
0.0
220
0.0
230
1.0
 70
     8
 71
     3
 72
    23
 73
    19
 74
     0
 42
0.0000000003746133
 43
0.0000000001
 40
0.0
 40
0.0
 40
0.0
 40
0.0
 40
0.0298990150516233
 40
0.1409771710484614
 40
0.2198868806329184
 40
0.2900880983903462
 40
0.3535826571658359
 40
0.4114307361150469
 40
0.4733549305342551
 40
0.5336628696770667
 40
0.5950215948139825
 40
0.6569573489922949
 40
0.720288499400566
 40
0.783966666684349
 40
0.847468804962396
 40
0.9110189410038009
 40
0.973511798790296
 40
1.0
 40
1.0
 40
1.0
 40
1.0
 10
386.7993539842183
 20
648.4319512626597
 30
0.0
 10
386.8342063221327
 20
648.7220402678433
 30
0.0
 10
386.9721325240308
 20
649.8916186469717
 30
0.0
 10
387.1360409324477
 20
651.9010140867966
 30
0.0
 10
387.1743259794013
 20
654.1982155771124
 30
0.0
 10
387.0568761241014
 20
656.0887723335725
 30
0.0
 10
386.7975816516883
 20
657.7722264336745
 30
0.0
 10
386.3898649807385
 20
659.3517040486275
 30
0.0
 10
385.8048966983336
 20
660.8449189836009
 30
0.0
 10
385.0366123826421
 20
662.2872883958626
 30
0.0
 10
384.1081534312016
 20
663.6326066676146
 30
0.0
 10
383.0166728602231
 20
664.8848938126761
 30
0.0
 10
381.7796499085611
 20
666.0248629011744
 30
0.0
 10
380.4124562536314
 20
667.027103464824
 30
0.0
 10
378.9347504398863
 20
667.8701641931862
 30
0.0
 10
377.3955634971189
 20
668.5307818177067
 30
0.0
 10
376.0594821110906
 20
668.9324543763117
 30
0.0
 10
375.3323865035019
 20
669.0733769772887
 30
0.0
 10
375.078046307304
 20
669.1214556689583
 30
0.0
  0
LINE
  5
FD
330
DB
100
AcDbEntity
  8
$DDT_AUDIT_GENERATED_(92)
  6
Continuous
 62
     7
100
AcDbLine
 10
386.7317629669
 20
647.8496637012
 30
0.0
 11
386.7993539842
 21
648.4319512627
 31
0.0
  0
SPLINE
  5
FE
330
DB
100
AcDbEntity
  8
$DDT_AUDIT_GENERATED_(92)
  6
Continuous
 62
     7
100
AcDbSpline
210
0.0
220
0.0
230
1.0
 70
     8
 71
     3
 72
    11
 73
     7
 74
     0
 42
0.0000000003806849
 43
0.0000000001
 40
0.0
 40
0.0
 40
0.0
 40
0.0
 40
0.0402750157412598
 40
0.1004172209954174
 40
0.1581363039158039
 40
0.1652315251926648
 40
0.1652315251926648
 40
0.1652315251926648
 40
0.1652315251926648
 10
375.0771400906185
 20
669.1160295704342
 30
0.0
 10
374.6937462109347
 20
669.1718283374603
 30
0.0
 10
373.8830133762705
 20
669.2844994070575
 30
0.0
 10
372.4663015968434
 20
669.3487168373231
 30
0.0
 10
371.3802778284218
 20
669.2791255108748
 30
0.0
 10
370.8186605194178
 20
669.2087093776922
 30
0.0
 10
370.75720914831
 20
669.2005945810986
 30
0.0
  0
LINE
  5
FF
330
DB
100
AcDbEntity
  8
$DDT_AUDIT_GENERATED_(B8)
  6
Continuous
 62
     7
100
AcDbLine
 10
332.6583909348
 20
518.4977318978
 30
0.0
 11
385.8583909348
 21
518.4977318978
 31
0.0
  0
LINE
  5
100
330
DB
100
AcDbEntity
  8
$DDT_AUDIT_GENERATED_(B8)
  6
Continuous
 62
     7
100
AcDbLine
 10
385.0583909348
 20
628.4977318978
 30
0.0
 11
333.4583909348
 21
628.4977318978
 31
0.0
  0
LINE
  5
101
330
DB
100
AcDbEntity
  8
$DDT_AUDIT_GENERATED_(B8)
  6
Continuous
 62
     7
100
AcDbLine
 10
386.0583909348
 20
518.6977318978
 30
0.0
 11
386.0583909348
 21
627.4977318978
 31
0.0
  0
LINE
  5
102
330
DB
100
AcDbEntity
  8
$DDT_AUDIT_GENERATED_(B8)
  6
Continuous
 62
     7
100
AcDbLine
 10
332.4583909348
 20
627.4977318978
 30
0.0
 11
332.4583909348
 21
518.6977318978
 31
0.0
  0
ARC
  5
103
330
DB
100
AcDbEntity
  8
$DDT_AUDIT_GENERATED_(B8)
  6
Continuous
 62
     7
100
AcDbCircle
 10
332.6583909348
 20
518.6977318978
 30
0.0
 40
0.1999999999999953
100
AcDbArc
 50
180.0
 51
270.0
  0
ARC
  5
104
330
DB
100
AcDbEntity
  8
$DDT_AUDIT_GENERATED_(B8)
  6
Continuous
 62
     7
100
AcDbCircle
 10
385.8583909348
 20
518.6977318978
 30
0.0
 40
0.2000000000000028
100
AcDbArc
 50
270.0
 51
0.0
  0
ARC
  5
105
330
DB
100
AcDbEntity
  8
$DDT_AUDIT_GENERATED_(B8)
  6
Continuous
 62
     7
100
AcDbCircle
 10
333.4583909348
 20
627.4977318978
 30
0.0
 40
1.000000000000001
100
AcDbArc
 50
90.0
 51
180.0
  0
ARC
  5
106
330
DB
100
AcDbEntity
  8
$DDT_AUDIT_GENERATED_(B8)
  6
Continuous
 62
     7
100
AcDbCircle
 10
385.0583909348
 20
627.4977318978
 30
0.0
 40
0.9999999999999974
100
AcDbArc
 50
0.0
 51
90.0
  0
LINE
  5
107
330
DB
100
AcDbEntity
  8
$DDT_AUDIT_GENERATED_(CC)
  6
Continuous
 62
     7
100
AcDbLine
 10
591.2583909348
 20
734.9977318978
 30
0.0
 11
573.2583909348
 21
734.9977318978
 31
0.0
  0
LINE
  5
108
330
DB
100
AcDbEntity
  8
$DDT_AUDIT_GENERATED_(CC)
  6
Continuous
 62
     7
100
AcDbLine
 10
573.2583909348
 20
735.4477318978
 30
0.0
 11
573.2583909348
 21
734.9977318978
 31
0.0
  0
LINE
  5
109
330
DB
100
AcDbEntity
  8
$DDT_AUDIT_GENERATED_(CC)
  6
Continuous
 62
     7
100
AcDbLine
 10
591.2583909348
 20
734.9977318978
 30
0.0
 11
591.2583909348
 21
735.4477318978
 31
0.0
  0
LINE
  5
10A
330
DB
100
AcDbEntity
  8
$DDT_AUDIT_GENERATED_(D0)
  6
Continuous
 62
     7
100
AcDbLine
 10
571.7583909348
 20
735.4477318978
 30
0.0
 11
592.7583909348
 21
735.4477318978
 31
0.0
  0
LINE
  5
10B
330
DB
100
AcDbEntity
  8
$DDT_AUDIT_GENERATED_(D0)
  6
Continuous
 62
     7
100
AcDbLine
 10
593.6083909348
 20
752.4477318978
 30
0.0
 11
570.9083909348
 21
752.4477318978
 31
0.0
  0
ARC
  5
10C
330
DB
100
AcDbEntity
  8
$DDT_AUDIT_GENERATED_(D0)
  6
Continuous
 62
     7
100
AcDbCircle
 10
587.7583909348
 20
741.1922945444
 30
0.0
 40
16.99999999999979
100
AcDbArc
 50
180.0
 51
199.7499227956
  0
ARC
  5
10D
330
DB
100
AcDbEntity
  8
$DDT_AUDIT_GENERATED_(D0)
  6
Continuous
 62
     7
100
AcDbCircle
 10
576.7583909348
 20
741.1922945444
 30
0.0
 40
16.99999999999981
100
AcDbArc
 50
340.2500772044
 51
0.0
  0
LINE
  5
10E
330
DB
100
AcDbEntity
  8
$DDT_AUDIT_GENERATED_(D0)
  6
Continuous
 62
     7
100
AcDbLine
 10
593.7583909348
 20
741.1922945444
 30
0.0
 11
593.7583909348
 21
752.2977318978
 31
0.0
  0
LINE
  5
10F
330
DB
100
AcDbEntity
  8
$DDT_AUDIT_GENERATED_(D0)
  6
Continuous
 62
     7
100
AcDbLine
 10
570.7583909348
 20
752.2977318978
 30
0.0
 11
570.7583909348
 21
741.1922945444
 31
0.0
  0
ARC
  5
110
330
DB
100
AcDbEntity
  8
$DDT_AUDIT_GENERATED_(D0)
  6
Continuous
 62
     7
100
AcDbCircle
 10
593.6083909348
 20
752.2977318978
 30
0.0
 40
0.1500000000000112
100
AcDbArc
 50
0.0
 51
90.0
  0
ARC
  5
111
330
DB
100
AcDbEntity
  8
$DDT_AUDIT_GENERATED_(D0)
  6
Continuous
 62
     7
100
AcDbCircle
 10
570.9083909348
 20
752.2977318978
 30
0.0
 40
0.1500000000000112
100
AcDbArc
 50
90.0
 51
180.0
  0
LINE
  5
113
330
DB
100
AcDbEntity
  8
$DDT_AUDIT_GENERATED_(112)
  6
Continuous
 62
     7
100
AcDbLine
 10
345.7583909348
 20
643.9477318978
 30
0.0
 11
355.7607433096
 21
643.9477318978
 31
0.0
  0
LINE
  5
114
330
DB
100
AcDbEntity
  8
$DDT_AUDIT_GENERATED_(112)
  6
Continuous
 62
     7
100
AcDbLine
 10
355.7607433096
 20
643.9477318978
 30
0.0
 11
356.2607433096
 21
643.9477318978
 31
0.0
  0
LINE
  5
115
330
DB
100
AcDbEntity
  8
$DDT_AUDIT_GENERATED_(112)
  6
Continuous
 62
     7
100
AcDbLine
 10
345.7583909348
 20
642.4477318978
 30
0.0
 11
355.7607433096
 21
642.4477318978
 31
0.0
  0
LINE
  5
116
330
DB
100
AcDbEntity
  8
$DDT_AUDIT_GENERATED_(112)
  6
Continuous
 62
     7
100
AcDbLine
 10
356.2607433096
 20
643.9477318978
 30
0.0
 11
356.2607433096
 21
642.4477318978
 31
0.0
  0
LINE
  5
117
330
DB
100
AcDbEntity
  8
$DDT_AUDIT_GENERATED_(112)
  6
Continuous
 62
     7
100
AcDbLine
 10
355.7607433096
 20
643.9477318978
 30
0.0
 11
355.7607433096
 21
642.4477318978
 31
0.0
  0
LINE
  5
118
330
DB
100
AcDbEntity
  8
$DDT_AUDIT_GENERATED_(112)
  6
Continuous
 62
     7
100
AcDbLine
 10
345.7583909348
 20
643.9477318978
 30
0.0
 11
345.7583909348
 21
642.4477318978
 31
0.0
  0
ENDBLK
  5
11A
330
DB
100
AcDbEntity
  8
0
100
AcDbBlockEnd
  0
BLOCK
  5
15B
330
11B
100
AcDbEntity
  8
0
100
AcDbBlockBegin
  2
SE2
 70
     0
 10
0.0
 20
0.0
 30
0.0
  3
SE2
  1

  0
ARC
  5
11D
330
11B
100
AcDbEntity
  8
$DDT_AUDIT_GENERATED_(77)
  6
Continuous
 62
     7
100
AcDbCircle
 10
81.7820921252
 20
340.85
 30
0.0
 40
13.5
100
AcDbArc
 50
328.4136619035
 51
0.0
  0
ARC
  5
11E
330
11B
100
AcDbEntity
  8
$DDT_AUDIT_GENERATED_(77)
  6
Continuous
 62
     7
100
AcDbCircle
 10
81.7820921252
 20
340.85
 30
0.0
 40
13.5
100
AcDbArc
 50
0.0
 51
211.5863380965
  0
ARC
  5
11F
330
11B
100
AcDbEntity
  8
02303031_AUSL_RO
  6
Continuous
 62
     7
100
AcDbCircle
 10
81.7820921252
 20
117.85
 30
0.0
 40
11.5
100
AcDbArc
 50
180.0
 51
0.0
  0
ARC
  5
120
330
11B
100
AcDbEntity
  8
02303031_AUSL_RO
  6
Continuous
 62
     7
100
AcDbCircle
 10
81.7820921252
 20
340.85
 30
0.0
 40
11.5
100
AcDbArc
 50
0.0
 51
180.0
  0
LINE
  5
121
330
11B
100
AcDbEntity
  8
02303031_AUSL_RO
  6
Continuous
 62
     7
100
AcDbLine
 10
93.2820921252
 20
117.85
 30
0.0
 11
93.2820921252
 21
157.85
 31
0.0
  0
LINE
  5
122
330
11B
100
AcDbEntity
  8
02303031_AUSL_RO
  6
Continuous
 62
     7
100
AcDbLine
 10
70.2820921252
 20
157.85
 30
0.0
 11
70.2820921252
 21
117.85
 31
0.0
  0
LINE
  5
123
330
11B
100
AcDbEntity
  8
02303031_AUSL_RO
  6
Continuous
 62
     7
100
AcDbLine
 10
70.2820921252
 20
300.85
 30
0.0
 11
70.2820921252
 21
157.85
 31
0.0
  0
LINE
  5
124
330
11B
100
AcDbEntity
  8
02303031_AUSL_RO
  6
Continuous
 62
     7
100
AcDbLine
 10
93.2820921252
 20
157.85
 30
0.0
 11
93.2820921252
 21
300.85
 31
0.0
  0
LINE
  5
125
330
11B
100
AcDbEntity
  8
02303031_AUSL_RO
  6
Continuous
 62
     7
100
AcDbLine
 10
93.2820921252
 20
300.85
 30
0.0
 11
93.2820921252
 21
340.85
 31
0.0
  0
LINE
  5
126
330
11B
100
AcDbEntity
  8
02303031_AUSL_RO
  6
Continuous
 62
     7
100
AcDbLine
 10
70.2820921252
 20
340.85
 30
0.0
 11
70.2820921252
 21
300.85
 31
0.0
  0
LINE
  5
128
330
11B
100
AcDbEntity
  8
$DDT_AUDIT_GENERATED_(127)
  6
Continuous
 62
     7
100
AcDbLine
 10
93.2820921252
 20
315.7685753054
 30
0.0
 11
93.9006374255
 21
316.7210515417
 31
0.0
  0
ARC
  5
129
330
11B
100
AcDbEntity
  8
$DDT_AUDIT_GENERATED_(92)
  6
Continuous
 62
     7
100
AcDbCircle
 10
163.1040764118
 20
376.2887905172
 30
0.0
 40
16.93279669119713
100
AcDbArc
 50
256.9398843855
 51
262.2566254604
  0
LINE
  5
12A
330
11B
100
AcDbEntity
  8
$DDT_AUDIT_GENERATED_(92)
  6
Continuous
 62
     7
100
AcDbLine
 10
158.5891736619
 20
359.921691876
 30
0.0
 11
159.2777172371
 21
359.7939859033
 31
0.0
  0
ARC
  5
12B
330
11B
100
AcDbEntity
  8
$DDT_AUDIT_GENERATED_(92)
  6
Continuous
 62
     7
100
AcDbCircle
 10
1249.219656716
 20
354.7766724051
 30
0.0
 40
1091.086831729715
100
AcDbArc
 50
179.8735442337
 51
180.6271923922
  0
ARC
  5
12C
330
11B
100
AcDbEntity
  8
$DDT_AUDIT_GENERATED_(92)
  6
Continuous
 62
     7
100
AcDbCircle
 10
-250.9288305096
 20
345.10263576
 30
0.0
 40
409.7842909851581
100
AcDbArc
 50
359.7394897891
 51
2.0225525507
  0
SPLINE
  5
12D
330
11B
100
AcDbEntity
  8
$DDT_AUDIT_GENERATED_(92)
  6
Continuous
 62
     7
100
AcDbSpline
210
0.0
220
0.0
230
1.0
 70
     8
 71
     3
 72
    18
 73
    14
 74
     0
 42
0.0000000005500894
 43
0.0000000001
 40
0.0
 40
0.0
 40
0.0
 40
0.0
 40
0.25
 40
0.25
 40
0.375
 40
0.375
 40
0.5
 40
0.5
 40
0.625
 40
0.625
 40
0.75
 40
0.75
 40
1.0
 40
1.0
 40
1.0
 40
1.0
 10
158.8512247404273
 20
343.2394509817568
 30
0.0
 10
158.870007779294
 20
342.7136755936063
 30
0.0
 10
158.8966041535883
 20
342.1461123589688
 30
0.0
 10
158.9279682814019
 20
340.8430608914107
 30
0.0
 10
158.9363736793869
 20
340.3297143674904
 30
0.0
 10
158.9442367074707
 20
339.1065764488748
 30
0.0
 10
158.9439623180969
 20
338.379224104127
 30
0.0
 10
158.9339911300171
 20
336.7351501895914
 30
0.0
 10
158.9266466904657
 20
335.831794520234
 30
0.0
 10
158.9224096483464
 20
333.8730634998706
 30
0.0
 10
158.9256846743051
 20
332.826341287138
 30
0.0
 10
158.9524043800597
 20
329.6026427156592
 30
0.0
 10
158.9951788289238
 20
327.2779132631176
 30
0.0
 10
158.9951794325089
 20
325.0625904078486
 30
0.0
  0
ARC
  5
12E
330
11B
100
AcDbEntity
  8
$DDT_AUDIT_GENERATED_(92)
  6
Continuous
 62
     7
100
AcDbCircle
 10
543.0735071099
 20
332.0992981225
 30
0.0
 40
385.0249644924919
100
AcDbArc
 50
178.4024676478
 51
181.0406378151
  0
ARC
  5
12F
330
11B
100
AcDbEntity
  8
$DDT_AUDIT_GENERATED_(92)
  6
Continuous
 62
     7
100
AcDbCircle
 10
286.816272567
 20
320.1372821697
 30
0.0
 40
128.800125588258
100
AcDbArc
 50
177.7888670241
 51
182.9929471341
  0
SPLINE
  5
130
330
11B
100
AcDbEntity
  8
$DDT_AUDIT_GENERATED_(92)
  6
Continuous
 62
     7
100
AcDbSpline
210
0.0
220
0.0
230
1.0
 70
     8
 71
     3
 72
    14
 73
    10
 74
     0
 42
0.0000000006276463
 43
0.0000000001
 40
0.0
 40
0.0
 40
0.0
 40
0.0
 40
0.2500000000000001
 40
0.2500000000000001
 40
0.5
 40
0.5
 40
0.75
 40
0.75
 40
1.0
 40
1.0
 40
1.0
 40
1.0
 10
155.003603852386
 20
321.3094903906165
 30
0.0
 10
154.5703709338856
 20
321.864070986919
 30
0.0
 10
154.3190086273198
 20
322.659073594655
 30
0.0
 10
153.9181497914957
 20
324.6775143877791
 30
0.0
 10
153.7749829039219
 20
325.9111120605037
 30
0.0
 10
153.5563399544294
 20
328.6573977778373
 30
0.0
 10
153.4797816826692
 20
330.2131330006795
 30
0.0
 10
153.3820423135436
 20
333.4772665231934
 30
0.0
 10
153.3597124967966
 20
335.1924609741482
 30
0.0
 10
153.3597124946684
 20
336.9941995922742
 30
0.0
  0
ARC
  5
131
330
11B
100
AcDbEntity
  8
$DDT_AUDIT_GENERATED_(92)
  6
Continuous
 62
     7
100
AcDbCircle
 10
222.0673909056
 20
340.8644120786
 30
0.0
 40
68.81659405484737
100
AcDbArc
 50
167.040619443
 51
183.223988404
  0
ARC
  5
132
330
11B
100
AcDbEntity
  8
$DDT_AUDIT_GENERATED_(92)
  6
Continuous
 62
     7
100
AcDbCircle
 10
161.254316043
 20
353.7836182042
 30
0.0
 40
6.737186509935201
100
AcDbArc
 50
119.0723152527
 51
158.0933043294
  0
LINE
  5
133
330
11B
100
AcDbEntity
  8
$DDT_AUDIT_GENERATED_(92)
  6
Continuous
 62
     7
100
AcDbLine
 10
158.5743408666
 20
359.924231103
 30
0.0
 11
158.5891736619
 21
359.921691876
 31
0.0
  0
ARC
  5
134
330
11B
100
AcDbEntity
  8
$DDT_AUDIT_GENERATED_(92)
  6
Continuous
 62
     7
100
AcDbCircle
 10
267.465209365
 20
339.7315796188
 30
0.0
 40
110.7140606290903
100
AcDbArc
 50
170.9299392313
 51
174.6800596338
  0
ARC
  5
135
330
11B
100
AcDbEntity
  8
$DDT_AUDIT_GENERATED_(92)
  6
Continuous
 62
     7
100
AcDbCircle
 10
267.465209365
 20
339.7315796188
 30
0.0
 40
110.7140606290903
100
AcDbArc
 50
174.6800596338
 51
181.6812697493
  0
SPLINE
  5
136
330
11B
100
AcDbEntity
  8
$DDT_AUDIT_GENERATED_(92)
  6
Continuous
 62
     7
100
AcDbSpline
210
0.0
220
0.0
230
1.0
 70
     8
 71
     3
 72
    14
 73
    10
 74
     0
 42
0.0000000004718637
 43
0.0000000001
 40
0.0
 40
0.0
 40
0.0
 40
0.0
 40
0.1249999999999998
 40
0.1249999999999998
 40
0.2499999999999997
 40
0.2499999999999997
 40
0.4999999999999997
 40
0.4999999999999997
 40
0.5276373613735985
 40
0.5276373613735985
 40
0.5276373613735985
 40
0.5276373613735985
 10
156.7988106142755
 20
336.4832864470421
 30
0.0
 10
156.798810604264
 20
335.5103822005796
 30
0.0
 10
156.8043997614808
 20
334.5255957508548
 30
0.0
 10
156.8272710778865
 20
332.6379803882786
 30
0.0
 10
156.8445444294665
 20
331.7171908906265
 30
0.0
 10
156.9158821119432
 20
329.0247083561599
 30
0.0
 10
156.9904911915804
 20
327.308777317256
 30
0.0
 10
157.1067805133429
 20
325.6362240145722
 30
0.0
 10
157.1187550694697
 20
325.4716317093875
 30
0.0
 10
157.1311428677577
 20
325.3091258029808
 30
0.0
  0
LINE
  5
137
330
11B
100
AcDbEntity
  8
$DDT_AUDIT_GENERATED_(92)
  6
Continuous
 62
     7
100
AcDbLine
 10
158.4920303357
 20
359.9382025722
 30
0.0
 11
158.5743408666
 21
359.924231103
 31
0.0
  0
LINE
  5
138
330
11B
100
AcDbEntity
  8
$DDT_AUDIT_GENERATED_(92)
  6
Continuous
 62
     7
100
AcDbLine
 10
161.8986201505
 20
359.2215584732
 30
0.0
 11
161.8986222017
 21
359.5092074466
 31
0.0
  0
LINE
  5
139
330
11B
100
AcDbEntity
  8
$DDT_AUDIT_GENERATED_(92)
  6
Continuous
 62
     7
100
AcDbLine
 10
161.898645622
 20
359.221558473
 30
0.0
 11
161.8986560591
 21
358.9115422202
 31
0.0
  0
SPLINE
  5
13A
330
11B
100
AcDbEntity
  8
$DDT_AUDIT_GENERATED_(92)
  6
Continuous
 62
     7
100
AcDbSpline
210
0.0
220
0.0
230
1.0
 70
     8
 71
     3
 72
    26
 73
    22
 74
     0
 42
0.0000000003011941
 43
0.0000000001
 40
0.0
 40
0.0
 40
0.0
 40
0.0
 40
0.5000000000000011
 40
0.5000000000000011
 40
0.6250000000000013
 40
0.6250000000000013
 40
0.6875000000000014
 40
0.6875000000000014
 40
0.7500000000000014
 40
0.7500000000000014
 40
0.8125000000000014
 40
0.8125000000000014
 40
0.8437500000000012
 40
0.8437500000000012
 40
0.8750000000000009
 40
0.8750000000000009
 40
0.9375000000000006
 40
0.9375000000000006
 40
0.9687500000000002
 40
0.9687500000000002
 40
1.0
 40
1.0
 40
1.0
 40
1.0
 10
161.8986560591011
 20
358.9115422201873
 30
0.0
 10
161.8987646741243
 20
355.1405434656588
 30
0.0
 10
161.8988732959814
 20
351.3820442401019
 30
0.0
 10
161.8990090719849
 20
346.6815269518962
 30
0.0
 10
161.8990362268433
 20
345.7410385771185
 30
0.0
 10
161.8990769614841
 20
344.3337719652213
 30
0.0
 10
161.8990905402468
 20
343.8654157981122
 30
0.0
 10
161.8991176995543
 20
342.931081643201
 30
0.0
 10
161.89913129554
 20
342.485708415048
 30
0.0
 10
161.8991583706465
 20
341.4390136455633
 30
0.0
 10
161.8991719569227
 20
340.8276184132421
 30
0.0
 10
161.8991916626499
 20
339.5192415209665
 30
0.0
 10
161.8991980325685
 20
339.0219605143578
 30
0.0
 10
161.8992102190766
 20
337.8570594479777
 30
0.0
 10
161.8992160117721
 20
337.18305229384
 30
0.0
 10
161.8992316896991
 20
334.9890324928832
 30
0.0
 10
161.8992403772222
 20
333.2530522282948
 30
0.0
 10
161.8992494930066
 20
330.4874074986743
 30
0.0
 10
161.8992519040185
 20
329.5260273608649
 30
0.0
 10
161.8992551332849
 20
327.6211802645359
 30
0.0
 10
161.8992559963905
 20
326.6668591865283
 30
0.0
 10
161.8992559963905
 20
325.7103588551648
 30
0.0
  0
SPLINE
  5
13B
330
11B
100
AcDbEntity
  8
$DDT_AUDIT_GENERATED_(92)
  6
Continuous
 62
     7
100
AcDbSpline
210
0.0
220
0.0
230
1.0
 70
     8
 71
     3
 72
    14
 73
    10
 74
     0
 42
0.0000000002003703
 43
0.0000000001
 40
0.0
 40
0.0
 40
0.0
 40
0.0
 40
0.1250000000000011
 40
0.1250000000000011
 40
0.1562500000000013
 40
0.1562500000000013
 40
0.1875000000000014
 40
0.1875000000000014
 40
0.2194784871944925
 40
0.2194784871944925
 40
0.2194784871944925
 40
0.2194784871944925
 10
161.8992559963905
 20
325.7103588551648
 30
0.0
 10
161.8992559963905
 20
321.8896755828009
 30
0.0
 10
161.8992420954338
 20
318.5624937043553
 30
0.0
 10
161.8992159757042
 20
316.1826892482254
 30
0.0
 10
161.8992102727793
 20
315.7962962155246
 30
0.0
 10
161.8991980236232
 20
315.2215181991626
 30
0.0
 10
161.8991917030676
 20
315.0371149378243
 30
0.0
 10
161.8991786484634
 20
314.8038712587179
 30
0.0
 10
161.8991719015501
 20
314.7575080103846
 30
0.0
 10
161.8991650704372
 20
314.7583034045746
 30
0.0
  0
SPLINE
  5
13C
330
11B
100
AcDbEntity
  8
$DDT_AUDIT_GENERATED_(92)
  6
Continuous
 62
     7
100
AcDbSpline
210
0.0
220
0.0
230
1.0
 70
     8
 71
     3
 72
     8
 73
     4
 74
     0
 42
0.0000000070129891
 43
0.0000000001
 40
0.7758025998062468
 40
0.7758025998062468
 40
0.7758025998062468
 40
0.7758025998062468
 40
0.7774029441625392
 40
0.7774029441625392
 40
0.7774029441625392
 40
0.7774029441625392
 10
161.6147950538363
 20
314.3074285657688
 30
0.0
 10
161.6154767629588
 20
314.3076251529948
 30
0.0
 10
161.6161622832255
 20
314.307941692681
 30
0.0
 10
161.6168514714059
 20
314.3083812142416
 30
0.0
  0
LINE
  5
13D
330
11B
100
AcDbEntity
  8
$DDT_AUDIT_GENERATED_(92)
  6
Continuous
 62
     7
100
AcDbLine
 10
161.4858406917
 20
359.3886319845
 30
0.0
 11
160.8226131968
 21
359.5103957972
 31
0.0
  0
ARC
  5
13E
330
11B
100
AcDbEntity
  8
$DDT_AUDIT_GENERATED_(92)
  6
Continuous
 62
     7
100
AcDbCircle
 10
161.4089123128
 20
358.9052361372
 30
0.0
 40
0.4897843440958312
100
AcDbArc
 50
0.7377163572
 51
80.9568393606
  0
LINE
  5
13F
330
11B
100
AcDbEntity
  8
$DDT_AUDIT_GENERATED_(92)
  6
Continuous
 62
     7
100
AcDbLine
 10
130.5861020776
 20
365.3796366115
 30
0.0
 11
130.5861015245
 21
363.6647100592
 31
0.0
  0
LINE
  5
140
330
11B
100
AcDbEntity
  8
$DDT_AUDIT_GENERATED_(92)
  6
Continuous
 62
     7
100
AcDbLine
 10
130.5861048334
 20
316.1125568768
 30
0.0
 11
130.5861113979
 21
336.4693045366
 31
0.0
  0
LINE
  5
141
330
11B
100
AcDbEntity
  8
$DDT_AUDIT_GENERATED_(92)
  6
Continuous
 62
     7
100
AcDbLine
 10
130.58610302
 20
318.0508099969
 30
0.0
 11
130.5861034553
 21
316.4868491516
 31
0.0
  0
SPLINE
  5
142
330
11B
100
AcDbEntity
  8
$DDT_AUDIT_GENERATED_(92)
  6
Continuous
 62
     7
100
AcDbSpline
210
0.0
220
0.0
230
1.0
 70
     8
 71
     3
 72
     8
 73
     4
 74
     0
 42
0.0000000057570398
 43
0.0000000001
 40
0.8352151174012519
 40
0.8352151174012519
 40
0.8352151174012519
 40
0.8352151174012519
 40
0.8875403321552314
 40
0.8875403321552314
 40
0.8875403321552314
 40
0.8875403321552314
 10
130.9369318936068
 20
315.9119654092901
 30
0.0
 10
130.9371781461383
 20
315.8537005703233
 30
0.0
 10
130.9374272173494
 20
315.8233734649494
 30
0.0
 10
130.9376779119017
 20
315.8210915856877
 30
0.0
  0
LINE
  5
143
330
11B
100
AcDbEntity
  8
$DDT_AUDIT_GENERATED_(92)
  6
Continuous
 62
     7
100
AcDbLine
 10
130.5861048146
 20
316.4234812362
 30
0.0
 11
130.5861020942
 21
365.0738886601
 31
0.0
  0
LINE
  5
144
330
11B
100
AcDbEntity
  8
$DDT_AUDIT_GENERATED_(92)
  6
Continuous
 62
     7
100
AcDbLine
 10
161.4962405347
 20
359.9279052165
 30
0.0
 11
130.9483077048
 21
365.5829505936
 31
0.0
  0
LINE
  5
145
330
11B
100
AcDbEntity
  8
$DDT_AUDIT_GENERATED_(92)
  6
Continuous
 62
     7
100
AcDbLine
 10
130.9396356722
 20
315.9092284061
 30
0.0
 11
156.9501590365
 21
320.4334884638
 31
0.0
  0
ARC
  5
146
330
11B
100
AcDbEntity
  8
$DDT_AUDIT_GENERATED_(92)
  6
Continuous
 62
     7
100
AcDbCircle
 10
265.5424110023
 20
325.5793788481
 30
0.0
 40
108.0436887362503
100
AcDbArc
 50
184.6657843221
 51
186.4230277138
  0
ARC
  5
147
330
11B
100
AcDbEntity
  8
$DDT_AUDIT_GENERATED_(92)
  6
Continuous
 62
     7
100
AcDbCircle
 10
281.3351218212
 20
331.6187797565
 30
0.0
 40
124.3646954446887
100
AcDbArc
 50
182.9051094082
 51
186.8533409994
  0
SPLINE
  5
148
330
11B
100
AcDbEntity
  8
$DDT_AUDIT_GENERATED_(92)
  6
Continuous
 62
     7
100
AcDbSpline
210
0.0
220
0.0
230
1.0
 70
     8
 71
     3
 72
    15
 73
    11
 74
     0
 42
0.0000000110183388
 43
0.0000000001
 40
0.0
 40
0.0
 40
0.0
 40
0.0
 40
0.0126722303996026
 40
0.2205653316349582
 40
0.3552495156657821
 40
0.4808511717238498
 40
0.6267453038488057
 40
0.784354931411513
 40
0.9587129012243832
 40
1.0
 40
1.0
 40
1.0
 40
1.0
 10
158.2010530612731
 20
313.3309808759475
 30
0.0
 10
158.2012122402601
 20
313.3302124268095
 30
0.0
 10
158.2037162637719
 20
313.3185259052792
 30
0.0
 10
158.2156243315114
 20
313.2772900253738
 30
0.0
 10
158.2589682067785
 20
313.1857527511976
 30
0.0
 10
158.3432842651079
 20
313.078310588285
 30
0.0
 10
158.4815094125696
 20
312.9836494615883
 30
0.0
 10
158.665668501012
 20
312.9394782215336
 30
0.0
 10
158.8261809747478
 20
312.95736205507
 30
0.0
 10
158.8929285220914
 20
312.9981266050447
 30
0.0
 10
158.907733578795
 20
313.0073304842583
 30
0.0
  0
LINE
  5
149
330
11B
100
AcDbEntity
  8
$DDT_AUDIT_GENERATED_(92)
  6
Continuous
 62
     7
100
AcDbLine
 10
158.9085597521
 20
313.0035987405
 30
0.0
 11
161.6151695078
 21
314.308147714
 31
0.0
  0
ARC
  5
14A
330
11B
100
AcDbEntity
  8
$DDT_AUDIT_GENERATED_(92)
  6
Continuous
 62
     7
100
AcDbCircle
 10
161.399166964
 20
314.7593932583
 30
0.0
 40
0.4999987659411068
100
AcDbArc
 50
296.008585205
 51
359.6087617195
  0
ARC
  5
14B
330
11B
100
AcDbEntity
  8
$DDT_AUDIT_GENERATED_(92)
  6
Continuous
 62
     7
100
AcDbCircle
 10
161.3986225341
 20
359.5091686403
 30
0.0
 40
0.4999995430252311
100
AcDbArc
 50
359.9962966947
 51
78.6442814232
  0
ARC
  5
14C
330
11B
100
AcDbEntity
  8
$DDT_AUDIT_GENERATED_(92)
  6
Continuous
 62
     7
100
AcDbCircle
 10
130.886102546
 20
365.3812892194
 30
0.0
 40
0.3000004924909834
100
AcDbArc
 50
78.6545580301
 51
180.039224344
  0
ARC
  5
14D
330
11B
100
AcDbEntity
  8
$DDT_AUDIT_GENERATED_(92)
  6
Continuous
 62
     7
100
AcDbCircle
 10
130.8861053645
 20
316.1127171024
 30
0.0
 40
0.2999985459209087
100
AcDbArc
 50
179.9559425259
 51
280.3563191273
  0
LINE
  5
14E
330
11B
100
AcDbEntity
  8
$DDT_AUDIT_GENERATED_(B8)
  6
Continuous
 62
     7
100
AcDbLine
 10
126.4318781027
 20
347.1334417197
 30
0.0
 11
126.4318781027
 21
334.5665582803
 31
0.0
  0
SPLINE
  5
14F
330
11B
100
AcDbEntity
  8
$DDT_AUDIT_GENERATED_(B8)
  6
Continuous
 62
     7
100
AcDbSpline
210
0.0
220
0.0
230
1.0
 70
     8
 71
     3
 72
    36
 73
    32
 74
     0
 42
0.0000000001297116
 43
0.0000000001
 40
0.0
 40
0.0
 40
0.0
 40
0.0
 40
0.000244140625
 40
0.000244140625
 40
0.0004882812500001
 40
0.0004882812500001
 40
0.0009765625000001
 40
0.0009765625000001
 40
0.0019531250000001
 40
0.0019531250000001
 40
0.0039062500000001
 40
0.0039062500000001
 40
0.0078125000000002
 40
0.0078125000000002
 40
0.0156250000000002
 40
0.0156250000000002
 40
0.0312500000000004
 40
0.0312500000000004
 40
0.0625000000000005
 40
0.0625000000000005
 40
0.0937500000000006
 40
0.0937500000000006
 40
0.1250000000000006
 40
0.1250000000000006
 40
0.1562500000000007
 40
0.1562500000000007
 40
0.1875000000000009
 40
0.1875000000000009
 40
0.218750000000001
 40
0.218750000000001
 40
0.2268468246076377
 40
0.2268468246076377
 40
0.2268468246076377
 40
0.2268468246076377
 10
126.4318781026776
 20
334.5665582802619
 30
0.0
 10
126.4418590991773
 20
334.5717302551101
 30
0.0
 10
126.4363231911146
 20
334.5458958333361
 30
0.0
 10
126.4380734798575
 20
334.5243729314849
 30
0.0
 10
126.4387525747797
 20
334.5136029152596
 30
0.0
 10
126.4406063034901
 20
334.4812892132578
 30
0.0
 10
126.441569965484
 20
334.4597392624116
 30
0.0
 10
126.4442043032095
 20
334.3951104351565
 30
0.0
 10
126.4455811557864
 20
334.3520489688167
 30
0.0
 10
126.4493565791153
 20
334.2229595750641
 30
0.0
 10
126.451348189708
 20
334.1370185176921
 30
0.0
 10
126.4568380897336
 20
333.8796583584248
 30
0.0
 10
126.459779023282
 20
333.7087032081626
 30
0.0
 10
126.4679633166077
 20
333.1977138502282
 30
0.0
 10
126.4724700993115
 20
332.8591900400531
 30
0.0
 10
126.4851650715642
 20
331.8542463099639
 30
0.0
 10
126.4923863497033
 20
331.1986925069065
 30
0.0
 10
126.5131138976062
 20
329.2746152136438
 30
0.0
 10
126.5255719625759
 20
328.0388084870618
 30
0.0
 10
126.5494536453939
 20
325.7375444286022
 30
0.0
 10
126.5607483126372
 20
324.6735197003705
 30
0.0
 10
126.5827844133179
 20
322.7160972822815
 30
0.0
 10
126.5936098251712
 20
321.8158152261155
 30
0.0
 10
126.614350418636
 20
320.2513591838821
 30
0.0
 10
126.6243124836574
 20
319.5811296744368
 30
0.0
 10
126.643734442319
 20
318.4638423009573
 30
0.0
 10
126.6532518393619
 20
318.0164181469355
 30
0.0
 10
126.6713107633212
 20
317.3836078025026
 30
0.0
 10
126.6799372450911
 20
317.1918664682589
 30
0.0
 10
126.6904326121475
 20
317.1086196019471
 30
0.0
 10
126.692573093089
 20
317.1001537090643
 30
0.0
 10
126.6946903586531
 20
317.1002815670486
 30
0.0
  0
SPLINE
  5
150
330
11B
100
AcDbEntity
  8
$DDT_AUDIT_GENERATED_(B8)
  6
Continuous
 62
     7
100
AcDbSpline
210
0.0
220
0.0
230
1.0
 70
     8
 71
     3
 72
    32
 73
    28
 74
     0
 42
0.0000000001296342
 43
0.0000000001
 40
0.7732312485731798
 40
0.7732312485731798
 40
0.7732312485731798
 40
0.7732312485731798
 40
0.8125000000000001
 40
0.8125000000000001
 40
0.8750000000000001
 40
0.8750000000000001
 40
0.9062500000000001
 40
0.9062500000000001
 40
0.9375
 40
0.9375
 40
0.96875
 40
0.96875
 40
0.9843750000000001
 40
0.9843750000000001
 40
0.9921875000000002
 40
0.9921875000000002
 40
0.9960937500000001
 40
0.9960937500000001
 40
0.9980468750000001
 40
0.9980468750000001
 40
0.9990234375000001
 40
0.9990234375000001
 40
0.99951171875
 40
0.99951171875
 40
0.9997558593750001
 40
0.9997558593750001
 40
1.0
 40
1.0
 40
1.0
 40
1.0
 10
126.6946864131298
 20
364.5979925145487
 30
0.0
 10
126.6844339886731
 20
364.5970781367798
 30
0.0
 10
126.6735815013826
 20
364.3961145134691
 30
0.0
 10
126.6442575893991
 20
363.368167695658
 30
0.0
 10
126.6246270691216
 20
362.2238456184155
 30
0.0
 10
126.5936508372494
 20
359.8872580523947
 30
0.0
 10
126.582897063927
 20
358.9937817799722
 30
0.0
 10
126.5607060743791
 20
357.0228554208983
 30
0.0
 10
126.549400120431
 20
355.9572770929771
 30
0.0
 10
126.525659677641
 20
353.6696645557183
 30
0.0
 10
126.5132472916807
 20
352.4381366865534
 30
0.0
 10
126.4924334574743
 20
350.5054972198149
 30
0.0
 10
126.4851783937172
 20
349.8468367445987
 30
0.0
 10
126.4724689357222
 20
348.8407036272924
 30
0.0
 10
126.4679665034224
 20
348.5024971603196
 30
0.0
 10
126.4597796902357
 20
347.9913324154581
 30
0.0
 10
126.4568378228427
 20
347.8203250318455
 30
0.0
 10
126.4513474255108
 20
347.5629477072902
 30
0.0
 10
126.4493559122979
 20
347.4770129524938
 30
0.0
 10
126.4455801787005
 20
347.3479199601753
 30
0.0
 10
126.444203162451
 20
347.3048565020493
 30
0.0
 10
126.4415686234583
 20
347.2402303541966
 30
0.0
 10
126.4406049353842
 20
347.2186821149395
 30
0.0
 10
126.438750759559
 20
347.1863678588579
 30
0.0
 10
126.4380714139156
 20
347.1755968869134
 30
0.0
 10
126.4363206698161
 20
347.1540779524745
 30
0.0
 10
126.4417440146645
 20
347.1283293809643
 30
0.0
 10
126.4318781026776
 20
347.133441719738
 30
0.0
  0
ARC
  5
151
330
11B
100
AcDbEntity
  8
$DDT_AUDIT_GENERATED_(B8)
  6
Continuous
 62
     7
100
AcDbCircle
 10
81.7820921252
 20
340.85
 30
0.0
 40
13.60000000000001
100
AcDbArc
 50
0.0
 51
212.264984703
  0
ARC
  5
152
330
11B
100
AcDbEntity
  8
$DDT_AUDIT_GENERATED_(B8)
  6
Continuous
 62
     7
100
AcDbCircle
 10
81.7820921252
 20
340.85
 30
0.0
 40
13.60000000000001
100
AcDbArc
 50
327.735015297
 51
0.0
  0
ARC
  5
153
330
11B
100
AcDbEntity
  8
$DDT_AUDIT_GENERATED_(B8)
  6
Continuous
 62
     7
100
AcDbCircle
 10
81.7820921252
 20
340.85
 30
0.0
 40
26.8
100
AcDbArc
 50
295.3134154656
 51
0.0
  0
ARC
  5
154
330
11B
100
AcDbEntity
  8
$DDT_AUDIT_GENERATED_(B8)
  6
Continuous
 62
     7
100
AcDbCircle
 10
81.7820921252
 20
340.85
 30
0.0
 40
26.8
100
AcDbArc
 50
0.0
 51
244.5892585395
  0
ARC
  5
155
330
11B
100
AcDbEntity
  8
$DDT_AUDIT_GENERATED_(B8)
  6
Continuous
 62
     7
100
AcDbCircle
 10
96.8651937519
 20
376.631821761
 30
0.0
 40
12.03265789232139
100
AcDbArc
 50
247.9628962101
 51
270.6783391757
  0
ARC
  5
156
330
11B
100
AcDbEntity
  8
$DDT_AUDIT_GENERATED_(B8)
  6
Continuous
 62
     7
100
AcDbCircle
 10
96.8556566098
 20
305.1139686151
 30
0.0
 40
11.986994644529
100
AcDbArc
 50
89.2734547638
 51
107.3611692781
  0
LINE
  5
157
330
11B
100
AcDbEntity
  8
$DDT_AUDIT_GENERATED_(B8)
  6
Continuous
 62
     7
100
AcDbLine
 10
97.0117617546
 20
317.1
 30
0.0
 11
126.694646035
 21
317.1
 31
0.0
  0
LINE
  5
158
330
11B
100
AcDbEntity
  8
$DDT_AUDIT_GENERATED_(B8)
  6
Continuous
 62
     7
100
AcDbLine
 10
126.6946509386
 20
364.6
 30
0.0
 11
97.0142411621
 21
364.6
 31
0.0
  0
ARC
  5
159
330
11B
100
AcDbEntity
  8
$DDT_AUDIT_GENERATED_(B8)
  6
Continuous
 62
     7
100
AcDbCircle
 10
126.4320921252
 20
327.0965512818
 30
0.0
 40
9.999999999999998
100
AcDbArc
 50
271.4988403344
 51
295.0538190433
  0
ARC
  5
15A
330
11B
100
AcDbEntity
  8
$DDT_AUDIT_GENERATED_(B8)
  6
Continuous
 62
     7
100
AcDbCircle
 10
126.4320921252
 20
354.6034487182
 30
0.0
 40
9.999999999999998
100
AcDbArc
 50
64.9461809567
 51
88.4934796882
  0
ENDBLK
  5
15C
330
11B
100
AcDbEntity
  8
0
100
AcDbBlockEnd
  0
ENDSEC
  0
SECTION
  2
ENTITIES
  0
INSERT
  5
5F
330
1F
100
AcDbEntity
  8
Default
100
AcDbBlockReference
  2
SEANNOT_GROUP
 10
0.0
 20
0.0
 30
0.0
  0
INSERT
  5
66
330
1F
100
AcDbEntity
  8
Default
100
AcDbBlockReference
  2
SEANNOT_GROUP1
 10
0.0
 20
0.0
 30
0.0
  0
INSERT
  5
6C
330
1F
100
AcDbEntity
  8
Default
100
AcDbBlockReference
  2
SEANNOT_GROUP2
 10
0.0
 20
0.0
 30
0.0
  0
INSERT
  5
76
330
1F
100
AcDbEntity
  8
Default
100
AcDbBlockReference
  2
SE
 10
0.0
 20
0.0
 30
0.0
  0
INSERT
  5
DC
330
1F
100
AcDbEntity
  8
Default
100
AcDbBlockReference
  2
SE1
 10
0.0
 20
0.0
 30
0.0
  0
INSERT
  5
11C
330
1F
100
AcDbEntity
  8
Default
100
AcDbBlockReference
  2
SE2
 10
0.0
 20
0.0
 30
0.0
  0
TEXT
  5
15E
330
1F
100
AcDbEntity
  8
Default
  6
Continuous
 62
     7
100
AcDbText
 10
5.9362635081
 20
53.4225120485
 30
0.0
 40
10.0
  1
Grohe AG^J
  7
SEACAD_seiso_ttf
 11
5.9362635081
 21
63.4225120485
 31
0.0
100
AcDbText
 73
     3
  0
TEXT
  5
15F
330
1F
100
AcDbEntity
  8
Default
  6
Continuous
 62
     7
100
AcDbText
 10
5.9362635081
 20
37.0588756849
 30
0.0
 40
10.0
  1
 
  7
SEACAD_seiso_ttf
 11
5.9362635081
 21
47.0588756849
 31
0.0
100
AcDbText
 73
     3
  0
TEXT
  5
160
330
1F
100
AcDbEntity
  8
Default
  6
Continuous
 62
     7
100
AcDbText
 10
5.9362635081
 20
20.6952393213
 30
0.0
 40
10.0
  1
ecn: 
  7
SEACAD_seiso_ttf
 11
5.9362635081
 21
30.6952393213
 31
0.0
100
AcDbText
 73
     3
  0
TEXT
  5
161
330
1F
100
AcDbEntity
  8
Default
  6
Continuous
 62
     7
100
AcDbText
 10
5.9362635081
 20
4.3316029576
 30
0.0
 40
10.0
  1
unit: mm
  7
SEACAD_seiso_ttf
 11
5.9362635081
 21
14.3316029576
 31
0.0
100
AcDbText
 73
     3
  0
LINE
  5
162
330
1F
100
AcDbEntity
  8
Default
  6
Continuous
 62
     7
100
AcDbLine
 10
0.0
 20
0.0
 30
0.0
 11
100.0
 21
0.0
 31
0.0
  0
LINE
  5
163
330
1F
100
AcDbEntity
  8
Default
  6
Continuous
 62
     7
100
AcDbLine
 10
0.0
 20
0.0
 30
0.0
 11
0.0
 21
100.0
 31
0.0
  0
TEXT
  5
164
330
1F
100
AcDbEntity
  8
Default
  6
Continuous
 62
     7
100
AcDbText
 10
24.3923665681
 20
-18.2375342018
 30
0.0
 40
10.0
  1
100 mm
  7
SEACAD_seiso_ttf
 11
24.3923665681
 21
-8.2375342018
 31
0.0
100
AcDbText
 73
     3
  0
TEXT
  5
165
330
1F
100
AcDbEntity
  8
Default
  6
Continuous
 62
     7
100
AcDbText
 10
-7.6150308803
 20
24.6231930421
 30
0.0
 40
10.0
  1
100 mm
 50
90.0
  7
SEACAD_seiso_ttf
 11
-17.6150308803
 21
24.6231930421
 31
0.0
100
AcDbText
 73
     3
  0
TEXT
  5
166
330
1F
100
AcDbEntity
  8
Default
  6
Continuous
 62
     7
100
AcDbText
 10
28.4878128572
 20
20.0907663715
 30
0.0
 40
10.0
  1
219627
  7
SEACAD_seiso_ttf
 11
28.4878128572
 21
30.0907663715
 31
0.0
100
AcDbText
 73
     3
  0
TEXT
  5
167
330
1F
100
AcDbEntity
  8
Default
  6
Continuous
 62
     7
100
AcDbText
 10
5.9012241913
 20
36.7242780188
 30
0.0
 40
10.0
  1
32259002
  7
SEACAD_seiso_ttf
 11
5.9012241913
 21
46.7242780188
 31
0.0
100
AcDbText
 73
     3
  0
ENDSEC
  0
SECTION
  2
OBJECTS
  0
DICTIONARY
  5
C
330
0
100
AcDbDictionary
281
     1
  3
ACAD_GROUP
350
D
  3
ACAD_LAYOUT
350
1A
  3
ACAD_MLEADERSTYLE
350
16B
  3
ACAD_MLINESTYLE
350
17
  3
ACAD_PLOTSETTINGS
350
19
  3
ACAD_PLOTSTYLENAME
350
E
  3
ACAD_SCALELIST
350
3B
  3
ACAD_TABLESTYLE
350
16A
  3
ACAD_VISUALSTYLE
350
2A
  3
AcDbVariableDictionary
350
168
  0
DICTIONARY
  5
D
102
{ACAD_REACTORS
330
C
102
}
330
C
100
AcDbDictionary
281
     1
  0
DICTIONARY
  5
1A
102
{ACAD_REACTORS
330
C
102
}
330
C
100
AcDbDictionary
281
     1
  3
Layout1
350
1E
  3
Model
350
22
  0
DICTIONARY
  5
16B
102
{ACAD_REACTORS
330
C
102
}
330
C
100
AcDbDictionary
281
     1
  0
DICTIONARY
  5
17
102
{ACAD_REACTORS
330
C
102
}
330
C
100
AcDbDictionary
281
     1
  3
Standard
350
18
  0
DICTIONARY
  5
19
102
{ACAD_REACTORS
330
C
102
}
330
C
100
AcDbDictionary
281
     1
  0
ACDBDICTIONARYWDFLT
  5
E
102
{ACAD_REACTORS
330
C
102
}
330
C
100
AcDbDictionary
281
     1
  3
Normal
350
F
100
AcDbDictionaryWithDefault
340
F
  0
DICTIONARY
  5
3B
102
{ACAD_REACTORS
330
C
102
}
330
C
100
AcDbDictionary
281
     1
  3
A0
350
3C
  3
A1
350
3D
  3
A2
350
3E
  3
A3
350
3F
  3
A4
350
40
  3
A5
350
41
  3
A6
350
42
  3
A7
350
43
  3
A8
350
44
  3
A9
350
45
  3
B0
350
46
  3
B1
350
47
  3
B2
350
48
  3
B3
350
49
  3
B4
350
4A
  3
B5
350
4B
  3
B6
350
4C
  3
B7
350
4D
  3
B8
350
4E
  3
B9
350
4F
  3
C0
350
50
  3
C1
350
51
  3
C2
350
52
  3
C3
350
53
  3
C4
350
54
  3
C5
350
55
  3
C6
350
56
  3
C7
350
57
  3
C8
350
58
  3
C9
350
59
  3
D0
350
5A
  3
D1
350
5B
  3
D2
350
5C
  0
DICTIONARY
  5
16A
102
{ACAD_REACTORS
330
C
102
}
330
C
100
AcDbDictionary
281
     1
  0
DICTIONARY
  5
2A
102
{ACAD_REACTORS
330
C
102
}
330
C
100
AcDbDictionary
281
     1
  3
2dWireframe
350
2F
  3
3D Hidden
350
31
  3
3dWireframe
350
30
  3
Basic
350
32
  3
Brighten
350
36
  3
ColorChange
350
3A
  3
Conceptual
350
34
  3
Dim
350
35
  3
Facepattern
350
39
  3
Flat
350
2B
  3
FlatWithEdges
350
2C
  3
Gouraud
350
2D
  3
GouraudWithEdges
350
2E
  3
Linepattern
350
38
  3
Realistic
350
33
  3
Thicken
350
37
  0
DICTIONARY
  5
168
102
{ACAD_REACTORS
330
C
102
}
330
C
100
AcDbDictionary
281
     1
  3
CANNOSCALE
350
169
  3
PSOLHEIGHT
350
16D
  3
PSOLWIDTH
350
16C
  0
LAYOUT
  5
1E
102
{ACAD_REACTORS
330
1A
102
}
330
1A
100
AcDbPlotSettings
  1

  2
none_device
  4

  6

 40
0.0
 41
0.0
 42
0.0
 43
0.0
 44
0.0
 45
0.0
 46
0.0
 47
0.0
 48
0.0
 49
0.0
140
0.0
141
0.0
142
1.0
143
1.0
 70
   688
 72
     0
 73
     0
 74
     5
  7

 75
    16
147
1.0
148
0.0
149
0.0
100
AcDbLayout
  1
Layout1
 70
     1
 71
     1
 10
0.0
 20
0.0
 11
1682.0
 21
2378.0
 12
0.0
 22
0.0
 32
0.0
 14
0.0
 24
0.0
 34
0.0
 15
1682.0
 25
2378.0
 35
0.0
146
0.0
 13
0.0
 23
0.0
 33
0.0
 16
1.0
 26
0.0
 36
0.0
 17
0.0
 27
1.0
 37
0.0
 76
     0
330
1B
  0
LAYOUT
  5
22
102
{ACAD_REACTORS
330
1A
102
}
330
1A
100
AcDbPlotSettings
  1

  2
none_device
  4

  6

 40
0.0
 41
0.0
 42
0.0
 43
0.0
 44
0.0
 45
0.0
 46
0.0
 47
0.0
 48
0.0
 49
0.0
140
0.0
141
0.0
142
1.0
143
1.0
 70
  1712
 72
     0
 73
     0
 74
     0
  7

 75
     0
147
1.0
148
0.0
149
0.0
100
AcDbLayout
  1
Model
 70
     1
 71
     0
 10
0.0
 20
0.0
 11
1682.0
 21
2378.0
 12
0.0
 22
0.0
 32
0.0
 14
0.0
 24
0.0
 34
0.0
 15
1682.0
 25
2378.0
 35
0.0
146
0.0
 13
0.0
 23
0.0
 33
0.0
 16
1.0
 26
0.0
 36
0.0
 17
0.0
 27
1.0
 37
0.0
 76
     0
330
1F
331
29
  0
MLINESTYLE
  5
18
102
{ACAD_REACTORS
330
17
102
}
330
17
100
AcDbMlineStyle
  2
Standard
 70
     0
  3

 62
   256
 51
90.0
 52
90.0
 71
     2
 49
0.5
 62
   256
  6
BYLAYER
 49
-0.5
 62
   256
  6
BYLAYER
  0
ACDBPLACEHOLDER
  5
F
102
{ACAD_REACTORS
330
E
102
}
330
E
  0
SCALE
  5
3C
102
{ACAD_REACTORS
330
3B
102
}
330
3B
100
AcDbScale
 70
     0
300
1:1
140
1.0
141
1.0
290
     1
  0
SCALE
  5
3D
102
{ACAD_REACTORS
330
3B
102
}
330
3B
100
AcDbScale
 70
     0
300
1:2
140
1.0
141
2.0
290
     0
  0
SCALE
  5
3E
102
{ACAD_REACTORS
330
3B
102
}
330
3B
100
AcDbScale
 70
     0
300
1:4
140
1.0
141
4.0
290
     0
  0
SCALE
  5
3F
102
{ACAD_REACTORS
330
3B
102
}
330
3B
100
AcDbScale
 70
     0
300
1:5
140
1.0
141
5.0
290
     0
  0
SCALE
  5
40
102
{ACAD_REACTORS
330
3B
102
}
330
3B
100
AcDbScale
 70
     0
300
1:8
140
1.0
141
8.0
290
     0
  0
SCALE
  5
41
102
{ACAD_REACTORS
330
3B
102
}
330
3B
100
AcDbScale
 70
     0
300
1:10
140
1.0
141
10.0
290
     0
  0
SCALE
  5
42
102
{ACAD_REACTORS
330
3B
102
}
330
3B
100
AcDbScale
 70
     0
300
1:16
140
1.0
141
16.0
290
     0
  0
SCALE
  5
43
102
{ACAD_REACTORS
330
3B
102
}
330
3B
100
AcDbScale
 70
     0
300
1:20
140
1.0
141
20.0
290
     0
  0
SCALE
  5
44
102
{ACAD_REACTORS
330
3B
102
}
330
3B
100
AcDbScale
 70
     0
300
1:30
140
1.0
141
30.0
290
     0
  0
SCALE
  5
45
102
{ACAD_REACTORS
330
3B
102
}
330
3B
100
AcDbScale
 70
     0
300
1:40
140
1.0
141
40.0
290
     0
  0
SCALE
  5
46
102
{ACAD_REACTORS
330
3B
102
}
330
3B
100
AcDbScale
 70
     0
300
1:50
140
1.0
141
50.0
290
     0
  0
SCALE
  5
47
102
{ACAD_REACTORS
330
3B
102
}
330
3B
100
AcDbScale
 70
     0
300
1:100
140
1.0
141
100.0
290
     0
  0
SCALE
  5
48
102
{ACAD_REACTORS
330
3B
102
}
330
3B
100
AcDbScale
 70
     0
300
2:1
140
2.0
141
1.0
290
     0
  0
SCALE
  5
49
102
{ACAD_REACTORS
330
3B
102
}
330
3B
100
AcDbScale
 70
     0
300
4:1
140
4.0
141
1.0
290
     0
  0
SCALE
  5
4A
102
{ACAD_REACTORS
330
3B
102
}
330
3B
100
AcDbScale
 70
     0
300
8:1
140
8.0
141
1.0
290
     0
  0
SCALE
  5
4B
102
{ACAD_REACTORS
330
3B
102
}
330
3B
100
AcDbScale
 70
     0
300
10:1
140
10.0
141
1.0
290
     0
  0
SCALE
  5
4C
102
{ACAD_REACTORS
330
3B
102
}
330
3B
100
AcDbScale
 70
     0
300
100:1
140
100.0
141
1.0
290
     0
  0
SCALE
  5
4D
102
{ACAD_REACTORS
330
3B
102
}
330
3B
100
AcDbScale
 70
     0
300
1/128" = 1'-0"
140
0.0078125
141
12.0
290
     0
  0
SCALE
  5
4E
102
{ACAD_REACTORS
330
3B
102
}
330
3B
100
AcDbScale
 70
     0
300
1/64" = 1'-0"
140
0.015625
141
12.0
290
     0
  0
SCALE
  5
4F
102
{ACAD_REACTORS
330
3B
102
}
330
3B
100
AcDbScale
 70
     0
300
1/32" = 1'-0"
140
0.03125
141
12.0
290
     0
  0
SCALE
  5
50
102
{ACAD_REACTORS
330
3B
102
}
330
3B
100
AcDbScale
 70
     0
300
1/16" = 1'-0"
140
0.0625
141
12.0
290
     0
  0
SCALE
  5
51
102
{ACAD_REACTORS
330
3B
102
}
330
3B
100
AcDbScale
 70
     0
300
3/32" = 1'-0"
140
0.09375
141
12.0
290
     0
  0
SCALE
  5
52
102
{ACAD_REACTORS
330
3B
102
}
330
3B
100
AcDbScale
 70
     0
300
1/8" = 1'-0"
140
0.125
141
12.0
290
     0
  0
SCALE
  5
53
102
{ACAD_REACTORS
330
3B
102
}
330
3B
100
AcDbScale
 70
     0
300
3/16" = 1'-0"
140
0.1875
141
12.0
290
     0
  0
SCALE
  5
54
102
{ACAD_REACTORS
330
3B
102
}
330
3B
100
AcDbScale
 70
     0
300
1/4" = 1'-0"
140
0.25
141
12.0
290
     0
  0
SCALE
  5
55
102
{ACAD_REACTORS
330
3B
102
}
330
3B
100
AcDbScale
 70
     0
300
3/8" = 1'-0"
140
0.375
141
12.0
290
     0
  0
SCALE
  5
56
102
{ACAD_REACTORS
330
3B
102
}
330
3B
100
AcDbScale
 70
     0
300
1/2" = 1'-0"
140
0.5
141
12.0
290
     0
  0
SCALE
  5
57
102
{ACAD_REACTORS
330
3B
102
}
330
3B
100
AcDbScale
 70
     0
300
3/4" = 1'-0"
140
0.75
141
12.0
290
     0
  0
SCALE
  5
58
102
{ACAD_REACTORS
330
3B
102
}
330
3B
100
AcDbScale
 70
     0
300
1" = 1'-0"
140
1.0
141
12.0
290
     0
  0
SCALE
  5
59
102
{ACAD_REACTORS
330
3B
102
}
330
3B
100
AcDbScale
 70
     0
300
1-1/2" = 1'-0"
140
1.5
141
12.0
290
     0
  0
SCALE
  5
5A
102
{ACAD_REACTORS
330
3B
102
}
330
3B
100
AcDbScale
 70
     0
300
3" = 1'-0"
140
3.0
141
12.0
290
     0
  0
SCALE
  5
5B
102
{ACAD_REACTORS
330
3B
102
}
330
3B
100
AcDbScale
 70
     0
300
6" = 1'-0"
140
6.0
141
12.0
290
     0
  0
SCALE
  5
5C
102
{ACAD_REACTORS
330
3B
102
}
330
3B
100
AcDbScale
 70
     0
300
1'-0" = 1'-0"
140
12.0
141
12.0
290
     0
  0
VISUALSTYLE
  5
2F
102
{ACAD_REACTORS
330
2A
102
}
330
2A
100
AcDbVisualStyle
  2
2dWireframe
 70
     4
 71
     0
 72
     2
 73
     0
 90
        0
 40
-0.6
 41
-30.0
 62
     5
 63
     7
 74
     1
 91
        4
 64
     7
 65
   257
 75
     1
175
     1
 42
1.0
 92
        0
 66
   257
 43
1.0
 76
     1
 77
     6
 78
     2
 67
     7
 79
     5
170
     0
171
     0
290
     0
174
     0
 93
        1
 44
0.0
173
     0
291
     0
 45
0.0
1001
ACAD
1000
AcDbSavedByObjectVersion
1070
     0
  0
VISUALSTYLE
  5
31
102
{ACAD_REACTORS
330
2A
102
}
330
2A
100
AcDbVisualStyle
  2
3D Hidden
 70
     6
 71
     1
 72
     2
 73
     2
 90
        0
 40
-0.6
 41
-30.0
 62
     5
 63
     7
 74
     2
 91
        2
 64
     7
 65
   257
 75
     2
175
     1
 42
40.0
 92
        0
 66
   257
 43
1.0
 76
     1
 77
     6
 78
     2
 67
     7
 79
     3
170
     0
171
     0
290
     0
174
     0
 93
        1
 44
0.0
173
     0
291
     0
 45
0.0
1001
ACAD
1000
AcDbSavedByObjectVersion
1070
     0
  0
VISUALSTYLE
  5
30
102
{ACAD_REACTORS
330
2A
102
}
330
2A
100
AcDbVisualStyle
  2
3dWireframe
 70
     5
 71
     0
 72
     2
 73
     0
 90
        0
 40
-0.6
 41
-30.0
 62
     5
 63
     7
 74
     1
 91
        4
 64
     7
 65
   257
 75
     1
175
     1
 42
1.0
 92
        0
 66
   257
 43
1.0
 76
     1
 77
     6
 78
     2
 67
     7
 79
     5
170
     0
171
     0
290
     0
174
     0
 93
        1
 44
0.0
173
     0
291
     0
 45
0.0
1001
ACAD
1000
AcDbSavedByObjectVersion
1070
     0
  0
VISUALSTYLE
  5
32
102
{ACAD_REACTORS
330
2A
102
}
330
2A
100
AcDbVisualStyle
  2
Basic
 70
     7
 71
     1
 72
     0
 73
     1
 90
        0
 40
-0.6
 41
-30.0
 62
     5
 63
     7
 74
     0
 91
        4
 64
     7
 65
   257
 75
     1
175
     1
 42
1.0
 92
        8
 66
     7
 43
1.0
 76
     1
 77
     6
 78
     2
 67
     7
 79
     5
170
     0
171
     0
290
     0
174
     0
 93
        1
 44
0.0
173
     0
291
     1
 45
0.0
1001
ACAD
1000
AcDbSavedByObjectVersion
1070
     0
  0
VISUALSTYLE
  5
36
102
{ACAD_REACTORS
330
2A
102
}
330
2A
100
AcDbVisualStyle
  2
Brighten
 70
    12
 71
     2
 72
     2
 73
     0
 90
        0
 40
-0.6
 41
-30.0
 62
     5
 63
     7
 74
     1
 91
        4
 64
     7
 65
   257
 75
     1
175
     1
 42
1.0
 92
        8
 66
     7
 43
1.0
 76
     1
 77
     6
 78
     2
 67
     7
 79
     5
170
     0
171
     0
290
     0
174
     0
 93
        1
 44
50.0
173
     0
291
     1
 45
0.0
1001
ACAD
1000
AcDbSavedByObjectVersion
1070
     0
  0
VISUALSTYLE
  5
3A
102
{ACAD_REACTORS
330
2A
102
}
330
2A
100
AcDbVisualStyle
  2
ColorChange
 70
    16
 71
     2
 72
     2
 73
     3
 90
        0
 40
-0.6
 41
-30.0
 62
     5
 63
     8
 74
     1
 91
        4
 64
     7
 65
   257
 75
     1
175
     1
 42
1.0
 92
        8
 66
     8
 43
1.0
 76
     1
 77
     6
 78
     2
 67
     7
 79
     5
170
     0
171
     0
290
     0
174
     0
 93
        1
 44
0.0
173
     0
291
     1
 45
0.0
1001
ACAD
1000
AcDbSavedByObjectVersion
1070
     0
  0
VISUALSTYLE
  5
34
102
{ACAD_REACTORS
330
2A
102
}
330
2A
100
AcDbVisualStyle
  2
Conceptual
 70
     9
 71
     3
 72
     2
 73
     0
 90
        0
 40
-0.6
 41
-30.0
 62
     5
 63
     7
 74
     2
 91
        2
 64
     7
 65
   257
 75
     1
175
     1
 42
40.0
 92
        8
 66
     7
 43
1.0
 76
     1
 77
     6
 78
     2
 67
     7
 79
     3
170
     0
171
     0
290
     0
174
     0
 93
        1
 44
0.0
173
     0
291
     0
 45
0.0
1001
ACAD
1000
AcDbSavedByObjectVersion
1070
     0
  0
VISUALSTYLE
  5
35
102
{ACAD_REACTORS
330
2A
102
}
330
2A
100
AcDbVisualStyle
  2
Dim
 70
    11
 71
     2
 72
     2
 73
     0
 90
        0
 40
-0.6
 41
-30.0
 62
     5
 63
     7
 74
     1
 91
        4
 64
     7
 65
   257
 75
     1
175
     1
 42
1.0
 92
        8
 66
     7
 43
1.0
 76
     1
 77
     6
 78
     2
 67
     7
 79
     5
170
     0
171
     0
290
     0
174
     0
 93
        1
 44
-50.0
173
     0
291
     1
 45
0.0
1001
ACAD
1000
AcDbSavedByObjectVersion
1070
     0
  0
VISUALSTYLE
  5
39
102
{ACAD_REACTORS
330
2A
102
}
330
2A
100
AcDbVisualStyle
  2
Facepattern
 70
    15
 71
     2
 72
     2
 73
     0
 90
        0
 40
-0.6
 41
-30.0
 62
     5
 63
     7
 74
     1
 91
        4
 64
     7
 65
   257
 75
     1
175
     1
 42
1.0
 92
        8
 66
     7
 43
1.0
 76
     1
 77
     6
 78
     2
 67
     7
 79
     5
170
     0
171
     0
290
     0
174
     0
 93
        1
 44
0.0
173
     0
291
     1
 45
0.0
1001
ACAD
1000
AcDbSavedByObjectVersion
1070
     0
  0
VISUALSTYLE
  5
2B
102
{ACAD_REACTORS
330
2A
102
}
330
2A
100
AcDbVisualStyle
  2
Flat
 70
     0
 71
     2
 72
     1
 73
     1
 90
        2
 40
-0.6
 41
30.0
 62
     5
 63
     7
 74
     0
 91
        4
 64
     7
 65
   257
 75
     1
175
     1
 42
1.0
 92
        8
 66
     7
 43
1.0
 76
     1
 77
     6
 78
     2
 67
     7
 79
     5
170
     0
171
     0
290
     0
174
     0
 93
       13
 44
0.0
173
     0
291
     1
 45
0.0
1001
ACAD
1000
AcDbSavedByObjectVersion
1070
     0
  0
VISUALSTYLE
  5
2C
102
{ACAD_REACTORS
330
2A
102
}
330
2A
100
AcDbVisualStyle
  2
FlatWithEdges
 70
     1
 71
     2
 72
     1
 73
     1
 90
        2
 40
-0.6
 41
30.0
 62
     5
 63
     7
 74
     1
 91
        4
 64
     7
 65
   257
 75
     1
175
     1
 42
1.0
 92
        0
 66
   257
 43
1.0
 76
     1
 77
     6
 78
     2
 67
     7
 79
     5
170
     0
171
     0
290
     0
174
     0
 93
       13
 44
0.0
173
     0
291
     1
 45
0.0
1001
ACAD
1000
AcDbSavedByObjectVersion
1070
     0
  0
VISUALSTYLE
  5
2D
102
{ACAD_REACTORS
330
2A
102
}
330
2A
100
AcDbVisualStyle
  2
Gouraud
 70
     2
 71
     2
 72
     2
 73
     1
 90
        2
 40
-0.6
 41
30.0
 62
     5
 63
     7
 74
     0
 91
        4
 64
     7
 65
   257
 75
     1
175
     1
 42
1.0
 92
        0
 66
     7
 43
1.0
 76
     1
 77
     6
 78
     2
 67
     7
 79
     5
170
     0
171
     0
290
     0
174
     0
 93
       13
 44
0.0
173
     0
291
     1
 45
0.0
1001
ACAD
1000
AcDbSavedByObjectVersion
1070
     0
  0
VISUALSTYLE
  5
2E
102
{ACAD_REACTORS
330
2A
102
}
330
2A
100
AcDbVisualStyle
  2
GouraudWithEdges
 70
     3
 71
     2
 72
     2
 73
     1
 90
        2
 40
-0.6
 41
30.0
 62
     5
 63
     7
 74
     1
 91
        4
 64
     7
 65
   257
 75
     1
175
     1
 42
1.0
 92
        0
 66
   257
 43
1.0
 76
     1
 77
     6
 78
     2
 67
     7
 79
     5
170
     0
171
     0
290
     0
174
     0
 93
       13
 44
0.0
173
     0
291
     1
 45
0.0
1001
ACAD
1000
AcDbSavedByObjectVersion
1070
     0
  0
VISUALSTYLE
  5
38
102
{ACAD_REACTORS
330
2A
102
}
330
2A
100
AcDbVisualStyle
  2
Linepattern
 70
    14
 71
     2
 72
     2
 73
     0
 90
        0
 40
-0.6
 41
-30.0
 62
     5
 63
     7
 74
     1
 91
        4
 64
     7
 65
   257
 75
     7
175
     7
 42
1.0
 92
        8
 66
     7
 43
1.0
 76
     1
 77
     6
 78
     2
 67
     7
 79
     5
170
     0
171
     0
290
     0
174
     0
 93
        1
 44
0.0
173
     0
291
     1
 45
0.0
1001
ACAD
1000
AcDbSavedByObjectVersion
1070
     0
  0
VISUALSTYLE
  5
33
102
{ACAD_REACTORS
330
2A
102
}
330
2A
100
AcDbVisualStyle
  2
Realistic
 70
     8
 71
     2
 72
     2
 73
     0
 90
        0
 40
-0.6
 41
-30.0
 62
     5
 63
     7
 74
     1
 91
        0
 64
     7
 65
   257
 75
     1
175
     1
 42
1.0
 92
        8
 66
     8
 43
1.0
 76
     1
 77
     6
 78
     2
 67
     7
 79
     5
170
     0
171
     0
290
     0
174
     0
 93
       13
 44
0.0
173
     0
291
     0
 45
0.0
1001
ACAD
1000
AcDbSavedByObjectVersion
1070
     0
  0
VISUALSTYLE
  5
37
102
{ACAD_REACTORS
330
2A
102
}
330
2A
100
AcDbVisualStyle
  2
Thicken
 70
    13
 71
     2
 72
     2
 73
     0
 90
        0
 40
-0.6
 41
-30.0
 62
     5
 63
     7
 74
     1
 91
        4
 64
     7
 65
   257
 75
     1
175
     1
 42
1.0
 92
       12
 66
     7
 43
1.0
 76
     1
 77
     6
 78
     2
 67
     7
 79
     5
170
     0
171
     0
290
     0
174
     0
 93
        1
 44
0.0
173
     0
291
     1
 45
0.0
1001
ACAD
1000
AcDbSavedByObjectVersion
1070
     0
  0
DICTIONARYVAR
  5
169
102
{ACAD_REACTORS
330
168
102
}
330
168
100
DictionaryVariables
280
     0
  1
1:1
  0
DICTIONARYVAR
  5
16D
102
{ACAD_REACTORS
330
168
102
}
330
168
100
DictionaryVariables
280
     0
  1
80.000000
  0
DICTIONARYVAR
  5
16C
102
{ACAD_REACTORS
330
168
102
}
330
168
100
DictionaryVariables
280
     0
  1
5.000000
  0
ENDSEC
  0
EOF
