  0
SECTION
  2
HEADER
  9
$ACADVER
  1
AC1015
  9
$ACADMAINTVER
 70
     6
  9
$DWGCODEPAGE
  3
ANSI_1252
  9
$INSBASE
 10
0.0
 20
0.0
 30
0.0
  9
$EXTMIN
 10
0.0
 20
0.0
 30
0.0
  9
$EXTMAX
 10
1682.0
 20
2378.0
 30
0.0
  9
$LIMMIN
 10
0.0
 20
0.0
  9
$LIMMAX
 10
1682.0
 20
2378.0
  9
$ORTHOMODE
 70
     0
  9
$REGENMODE
 70
     1
  9
$FILLMODE
 70
     1
  9
$QTEXTMODE
 70
     0
  9
$MIRRTEXT
 70
     1
  9
$LTSCALE
 40
1.0
  9
$ATTMODE
 70
     1
  9
$TEXTSIZE
 40
2.5
  9
$TRACEWID
 40
1.0
  9
$TEXTSTYLE
  7
Standard
  9
$CLAYER
  8
0
  9
$CELTYPE
  6
ByLayer
  9
$CECOLOR
 62
   256
  9
$CELTSCALE
 40
1.0
  9
$DISPSILH
 70
     0
  9
$DIMSCALE
 40
1.0
  9
$DIMASZ
 40
2.5
  9
$DIMEXO
 40
0.625
  9
$DIMDLI
 40
3.75
  9
$DIMRND
 40
0.0
  9
$DIMDLE
 40
0.0
  9
$DIMEXE
 40
1.25
  9
$DIMTP
 40
0.0
  9
$DIMTM
 40
0.0
  9
$DIMTXT
 40
2.5
  9
$DIMCEN
 40
2.5
  9
$DIMTSZ
 40
0.0
  9
$DIMTOL
 70
     0
  9
$DIMLIM
 70
     0
  9
$DIMTIH
 70
     0
  9
$DIMTOH
 70
     0
  9
$DIMSE1
 70
     0
  9
$DIMSE2
 70
     0
  9
$DIMTAD
 70
     1
  9
$DIMZIN
 70
     8
  9
$DIMBLK
  1

  9
$DIMASO
 70
     1
  9
$DIMSHO
 70
     1
  9
$DIMPOST
  1

  9
$DIMAPOST
  1

  9
$DIMALT
 70
     0
  9
$DIMALTD
 70
     3
  9
$DIMALTF
 40
0.0393700787
  9
$DIMLFAC
 40
1.0
  9
$DIMTOFL
 70
     1
  9
$DIMTVP
 40
0.0
  9
$DIMTIX
 70
     0
  9
$DIMSOXD
 70
     0
  9
$DIMSAH
 70
     0
  9
$DIMBLK1
  1

  9
$DIMBLK2
  1

  9
$DIMSTYLE
  2
ISO-25
  9
$DIMCLRD
 70
     0
  9
$DIMCLRE
 70
     0
  9
$DIMCLRT
 70
     0
  9
$DIMTFAC
 40
1.0
  9
$DIMGAP
 40
0.625
  9
$DIMJUST
 70
     0
  9
$DIMSD1
 70
     0
  9
$DIMSD2
 70
     0
  9
$DIMTOLJ
 70
     0
  9
$DIMTZIN
 70
     8
  9
$DIMALTZ
 70
     0
  9
$DIMALTTZ
 70
     0
  9
$DIMUPT
 70
     0
  9
$DIMDEC
 70
     2
  9
$DIMTDEC
 70
     2
  9
$DIMALTU
 70
     2
  9
$DIMALTTD
 70
     3
  9
$DIMTXSTY
  7
Standard
  9
$DIMAUNIT
 70
     0
  9
$DIMADEC
 70
     0
  9
$DIMALTRND
 40
0.0
  9
$DIMAZIN
 70
     0
  9
$DIMDSEP
 70
    44
  9
$DIMATFIT
 70
     3
  9
$DIMFRAC
 70
     0
  9
$DIMLDRBLK
  1

  9
$DIMLUNIT
 70
     2
  9
$DIMLWD
 70
    -2
  9
$DIMLWE
 70
    -2
  9
$DIMTMOVE
 70
     0
  9
$LUNITS
 70
     2
  9
$LUPREC
 70
     4
  9
$SKETCHINC
 40
1.0
  9
$FILLETRAD
 40
10.0
  9
$AUNITS
 70
     0
  9
$AUPREC
 70
     0
  9
$MENU
  1
.
  9
$ELEVATION
 40
0.0
  9
$PELEVATION
 40
0.0
  9
$THICKNESS
 40
0.0
  9
$LIMCHECK
 70
     0
  9
$CHAMFERA
 40
10.0
  9
$CHAMFERB
 40
10.0
  9
$CHAMFERC
 40
20.0
  9
$CHAMFERD
 40
0.0
  9
$SKPOLY
 70
     0
  9
$TDCREATE
 40
2455567.422387477
  9
$TDUCREATE
 40
2455567.38072081
  9
$TDUPDATE
 40
2455567.422387489
  9
$TDUUPDATE
 40
2455567.380720822
  9
$TDINDWG
 40
0.0000000116
  9
$TDUSRTIMER
 40
0.0000000116
  9
$USRTIMER
 70
     1
  9
$ANGBASE
 50
0.0
  9
$ANGDIR
 70
     0
  9
$PDMODE
 70
     0
  9
$PDSIZE
 40
0.0
  9
$PLINEWID
 40
0.0
  9
$SPLFRAME
 70
     0
  9
$SPLINETYPE
 70
     6
  9
$SPLINESEGS
 70
     8
  9
$HANDSEED
  5
19C
  9
$SURFTAB1
 70
     6
  9
$SURFTAB2
 70
     6
  9
$SURFTYPE
 70
     6
  9
$SURFU
 70
     6
  9
$SURFV
 70
     6
  9
$UCSBASE
  2

  9
$UCSNAME
  2

  9
$UCSORG
 10
0.0
 20
0.0
 30
0.0
  9
$UCSXDIR
 10
1.0
 20
0.0
 30
0.0
  9
$UCSYDIR
 10
0.0
 20
1.0
 30
0.0
  9
$UCSORTHOREF
  2

  9
$UCSORTHOVIEW
 70
     0
  9
$UCSORGTOP
 10
0.0
 20
0.0
 30
0.0
  9
$UCSORGBOTTOM
 10
0.0
 20
0.0
 30
0.0
  9
$UCSORGLEFT
 10
0.0
 20
0.0
 30
0.0
  9
$UCSORGRIGHT
 10
0.0
 20
0.0
 30
0.0
  9
$UCSORGFRONT
 10
0.0
 20
0.0
 30
0.0
  9
$UCSORGBACK
 10
0.0
 20
0.0
 30
0.0
  9
$PUCSBASE
  2

  9
$PUCSNAME
  2

  9
$PUCSORG
 10
0.0
 20
0.0
 30
0.0
  9
$PUCSXDIR
 10
1.0
 20
0.0
 30
0.0
  9
$PUCSYDIR
 10
0.0
 20
1.0
 30
0.0
  9
$PUCSORTHOREF
  2

  9
$PUCSORTHOVIEW
 70
     0
  9
$PUCSORGTOP
 10
0.0
 20
0.0
 30
0.0
  9
$PUCSORGBOTTOM
 10
0.0
 20
0.0
 30
0.0
  9
$PUCSORGLEFT
 10
0.0
 20
0.0
 30
0.0
  9
$PUCSORGRIGHT
 10
0.0
 20
0.0
 30
0.0
  9
$PUCSORGFRONT
 10
0.0
 20
0.0
 30
0.0
  9
$PUCSORGBACK
 10
0.0
 20
0.0
 30
0.0
  9
$USERI1
 70
     0
  9
$USERI2
 70
     0
  9
$USERI3
 70
     0
  9
$USERI4
 70
     0
  9
$USERI5
 70
     0
  9
$USERR1
 40
0.0
  9
$USERR2
 40
0.0
  9
$USERR3
 40
0.0
  9
$USERR4
 40
0.0
  9
$USERR5
 40
0.0
  9
$WORLDVIEW
 70
     1
  9
$SHADEDGE
 70
     3
  9
$SHADEDIF
 70
    70
  9
$TILEMODE
 70
     1
  9
$MAXACTVP
 70
    64
  9
$PINSBASE
 10
0.0
 20
0.0
 30
0.0
  9
$PLIMCHECK
 70
     0
  9
$PEXTMIN
 10
0.0
 20
0.0
 30
0.0
  9
$PEXTMAX
 10
1682.0
 20
2378.0
 30
0.0
  9
$PLIMMIN
 10
0.0
 20
0.0
  9
$PLIMMAX
 10
1682.0
 20
2378.0
  9
$UNITMODE
 70
     0
  9
$VISRETAIN
 70
     1
  9
$PLINEGEN
 70
     0
  9
$PSLTSCALE
 70
     1
  9
$TREEDEPTH
 70
  3020
  9
$CMLSTYLE
  2
Standard
  9
$CMLJUST
 70
     0
  9
$CMLSCALE
 40
20.0
  9
$PROXYGRAPHICS
 70
     1
  9
$MEASUREMENT
 70
     1
  9
$CELWEIGHT
370
    -1
  9
$ENDCAPS
280
     0
  9
$JOINSTYLE
280
     0
  9
$LWDISPLAY
290
     0
  9
$INSUNITS
 70
     4
  9
$HYPERLINKBASE
  1

  9
$STYLESHEET
  1

  9
$XEDIT
290
     1
  9
$CEPSNTYPE
380
     0
  9
$PSTYLEMODE
290
     1
  9
$FINGERPRINTGUID
  2
{39AD153F-5089-48EF-A97D-57408AECE468}
  9
$VERSIONGUID
  2
{FAEB1C32-E019-11D5-929B-00C0DF256EC4}
  9
$EXTNAMES
290
     1
  9
$PSVPSCALE
 40
0.0
  9
$OLESTARTUP
290
     0
  0
ENDSEC
  0
SECTION
  2
CLASSES
  0
CLASS
  1
ACDBDICTIONARYWDFLT
  2
AcDbDictionaryWithDefault
  3
ObjectDBX Classes
 90
        0
280
     0
281
     0
  0
CLASS
  1
VISUALSTYLE
  2
AcDbVisualStyle
  3
ObjectDBX Classes
 90
     4095
280
     0
281
     0
  0
CLASS
  1
SCALE
  2
AcDbScale
  3
ObjectDBX Classes
 90
     1153
280
     0
281
     0
  0
CLASS
  1
DICTIONARYVAR
  2
AcDbDictionaryVar
  3
ObjectDBX Classes
 90
        0
280
     0
281
     0
  0
CLASS
  1
ACDBPLACEHOLDER
  2
AcDbPlaceHolder
  3
ObjectDBX Classes
 90
        0
280
     0
281
     0
  0
CLASS
  1
LAYOUT
  2
AcDbLayout
  3
ObjectDBX Classes
 90
        0
280
     0
281
     0
  0
ENDSEC
  0
SECTION
  2
TABLES
  0
TABLE
  2
VPORT
  5
8
330
0
100
AcDbSymbolTable
 70
     1
  0
VPORT
  5
29
330
8
100
AcDbSymbolTableRecord
100
AcDbViewportTableRecord
  2
*Active
 70
     0
 10
0.0
 20
0.0
 11
1.0
 21
1.0
 12
344.1869158879
 22
148.5
 13
0.0
 23
0.0
 14
10.0
 24
10.0
 15
10.0
 25
10.0
 16
0.0
 26
0.0
 36
1.0
 17
0.0
 27
0.0
 37
0.0
 40
297.0
 41
1.9729729729
 42
50.0
 43
0.0
 44
0.0
 50
0.0
 51
0.0
 71
     0
 72
   100
 73
     1
 74
     3
 75
     0
 76
     0
 77
     0
 78
     0
281
     0
 65
     1
110
0.0
120
0.0
130
0.0
111
1.0
121
0.0
131
0.0
112
0.0
122
1.0
132
0.0
 79
     0
146
0.0
  0
ENDTAB
  0
TABLE
  2
LTYPE
  5
5
330
0
100
AcDbSymbolTable
 70
     2
  0
LTYPE
  5
14
330
5
100
AcDbSymbolTableRecord
100
AcDbLinetypeTableRecord
  2
ByBlock
 70
     0
  3

 72
    65
 73
     0
 40
0.0
  0
LTYPE
  5
15
330
5
100
AcDbSymbolTableRecord
100
AcDbLinetypeTableRecord
  2
ByLayer
 70
     0
  3

 72
    65
 73
     0
 40
0.0
  0
LTYPE
  5
16
330
5
100
AcDbSymbolTableRecord
100
AcDbLinetypeTableRecord
  2
Continuous
 70
     0
  3
Solid line
 72
    65
 73
     0
 40
0.0
  0
LTYPE
  5
60
330
5
100
AcDbSymbolTableRecord
100
AcDbLinetypeTableRecord
  2
CENTER2
 70
     0
  3
Center (.5x) ___ _ ___ _ ___ _ ___ _ ___ _ ___
 72
    65
 73
     4
 40
28.575
 49
19.05
 74
     4
 75
     0
340
0
 46
0.0
 50
0.0
 44
0.0
 45
0.0
 49
-3.175
 74
     4
 75
     0
340
0
 46
0.0
 50
0.0
 44
0.0
 45
0.0
 49
3.175
 74
     4
 75
     0
340
0
 46
0.0
 50
0.0
 44
0.0
 45
0.0
 49
-3.175
 74
     4
 75
     0
340
0
 46
0.0
 50
0.0
 44
0.0
 45
0.0
  0
ENDTAB
  0
TABLE
  2
LAYER
  5
2
330
0
100
AcDbSymbolTable
 70
     9
  0
LAYER
  5
10
330
2
100
AcDbSymbolTableRecord
100
AcDbLayerTableRecord
  2
0
 70
     0
 62
     7
  6
Continuous
370
    -3
390
F
  0
LAYER
  5
5D
330
2
100
AcDbSymbolTableRecord
100
AcDbLayerTableRecord
  2
Default
 70
     0
 62
     7
  6
Continuous
370
    -3
390
F
  0
LAYER
  5
8B
330
2
100
AcDbSymbolTableRecord
100
AcDbLayerTableRecord
  2
08041038_ROSETTE
 70
     0
 62
     7
  6
Continuous
370
    -3
390
F
  0
LAYER
  5
94
330
2
100
AcDbSymbolTableRecord
100
AcDbLayerTableRecord
  2
08002040_GEH_2LB
 70
     0
 62
     7
  6
Continuous
370
    -3
390
F
  0
LAYER
  5
9F
330
2
100
AcDbSymbolTableRecord
100
AcDbLayerTableRecord
  2
$DDT_AUDIT_GENERATED_(9F)
 70
     0
 62
     7
  6
Continuous
370
    -3
390
F
  0
LAYER
  5
A5
330
2
100
AcDbSymbolTableRecord
100
AcDbLayerTableRecord
  2
$DDT_AUDIT_GENERATED_(A5)
 70
     0
 62
     7
  6
Continuous
370
    -3
390
F
  0
LAYER
  5
BC
330
2
100
AcDbSymbolTableRecord
100
AcDbLayerTableRecord
  2
$DDT_AUDIT_GENERATED_(BC)
 70
     0
 62
     7
  6
Continuous
370
    -3
390
F
  0
LAYER
  5
BF
330
2
100
AcDbSymbolTableRecord
100
AcDbLayerTableRecord
  2
E08043
 70
     0
 62
     7
  6
Continuous
370
    -3
390
F
  0
LAYER
  5
116
330
2
100
AcDbSymbolTableRecord
100
AcDbLayerTableRecord
  2
05941038_HUELSE_
 70
     0
 62
     7
  6
Continuous
370
    -3
390
F
  0
ENDTAB
  0
TABLE
  2
STYLE
  5
3
330
0
100
AcDbSymbolTable
 70
     2
  0
STYLE
  5
11
330
3
100
AcDbSymbolTableRecord
100
AcDbTextStyleTableRecord
  2
Standard
 70
     0
 40
0.0
 41
1.0
 50
0.0
 71
     0
 42
2.5
  3
txt
  4

  0
STYLE
  5
18B
330
3
100
AcDbSymbolTableRecord
100
AcDbTextStyleTableRecord
  2
SEACAD_seiso_ttf
 70
     0
 40
0.0
 41
1.0
 50
0.0
 71
     0
 42
0.2
  3
seiso.ttf
  4

  0
ENDTAB
  0
TABLE
  2
VIEW
  5
6
330
0
100
AcDbSymbolTable
 70
     0
  0
ENDTAB
  0
TABLE
  2
UCS
  5
7
330
0
100
AcDbSymbolTable
 70
     0
  0
ENDTAB
  0
TABLE
  2
APPID
  5
9
330
0
100
AcDbSymbolTable
 70
     1
  0
APPID
  5
12
330
9
100
AcDbSymbolTableRecord
100
AcDbRegAppTableRecord
  2
ACAD
 70
     0
  0
ENDTAB
  0
TABLE
  2
DIMSTYLE
  5
A
330
0
100
AcDbSymbolTable
 70
     1
100
AcDbDimStyleTable
  0
DIMSTYLE
105
27
330
A
100
AcDbSymbolTableRecord
100
AcDbDimStyleTableRecord
  2
ISO-25
 70
     0
 41
2.5
 42
0.625
 43
3.75
 44
1.25
 73
     0
 74
     0
 77
     1
 78
     8
140
2.5
141
2.5
143
0.0393700787
147
0.625
171
     3
172
     1
271
     2
272
     2
274
     3
278
    44
283
     0
284
     8
340
11
  0
ENDTAB
  0
TABLE
  2
BLOCK_RECORD
  5
1
330
0
100
AcDbSymbolTable
 70
    11
  0
BLOCK_RECORD
  5
1F
330
1
100
AcDbSymbolTableRecord
100
AcDbBlockTableRecord
  2
*Model_Space
340
22
  0
BLOCK_RECORD
  5
1B
330
1
100
AcDbSymbolTableRecord
100
AcDbBlockTableRecord
  2
*Paper_Space
340
1E
  0
BLOCK_RECORD
  5
5E
330
1
100
AcDbSymbolTableRecord
100
AcDbBlockTableRecord
  2
SEANNOT_GROUP
340
0
102
{BLKREFS
331
5F
102
}
  0
BLOCK_RECORD
  5
65
330
1
100
AcDbSymbolTableRecord
100
AcDbBlockTableRecord
  2
SEANNOT_GROUP1
340
0
102
{BLKREFS
331
66
102
}
  0
BLOCK_RECORD
  5
6B
330
1
100
AcDbSymbolTableRecord
100
AcDbBlockTableRecord
  2
SEANNOT_GROUP2
340
0
102
{BLKREFS
331
6C
102
}
  0
BLOCK_RECORD
  5
71
330
1
100
AcDbSymbolTableRecord
100
AcDbBlockTableRecord
  2
SEANNOT_GROUP3
340
0
102
{BLKREFS
331
72
102
}
  0
BLOCK_RECORD
  5
77
330
1
100
AcDbSymbolTableRecord
100
AcDbBlockTableRecord
  2
SEANNOT_GROUP4
340
0
102
{BLKREFS
331
78
102
}
  0
BLOCK_RECORD
  5
7D
330
1
100
AcDbSymbolTableRecord
100
AcDbBlockTableRecord
  2
SEANNOT_GROUP5
340
0
102
{BLKREFS
331
7E
102
}
  0
BLOCK_RECORD
  5
83
330
1
100
AcDbSymbolTableRecord
100
AcDbBlockTableRecord
  2
SEANNOT_GROUP6
340
0
102
{BLKREFS
331
84
102
}
  0
BLOCK_RECORD
  5
89
330
1
100
AcDbSymbolTableRecord
100
AcDbBlockTableRecord
  2
SE
340
0
102
{BLKREFS
331
8A
102
}
  0
BLOCK_RECORD
  5
E4
330
1
100
AcDbSymbolTableRecord
100
AcDbBlockTableRecord
  2
SE1
340
0
102
{BLKREFS
331
E5
102
}
  0
BLOCK_RECORD
  5
11B
330
1
100
AcDbSymbolTableRecord
100
AcDbBlockTableRecord
  2
SE2
340
0
102
{BLKREFS
331
11C
102
}
  0
ENDTAB
  0
ENDSEC
  0
SECTION
  2
BLOCKS
  0
BLOCK
  5
20
330
1F
100
AcDbEntity
  8
0
100
AcDbBlockBegin
  2
*Model_Space
 70
     0
 10
0.0
 20
0.0
 30
0.0
  3
*Model_Space
  1

  0
ENDBLK
  5
21
330
1F
100
AcDbEntity
  8
0
100
AcDbBlockEnd
  0
BLOCK
  5
1C
330
1B
100
AcDbEntity
 67
     1
  8
0
100
AcDbBlockBegin
  2
*Paper_Space
 70
     0
 10
0.0
 20
0.0
 30
0.0
  3
*Paper_Space
  1

  0
ENDBLK
  5
1D
330
1B
100
AcDbEntity
 67
     1
  8
0
100
AcDbBlockEnd
  0
BLOCK
  5
63
330
5E
100
AcDbEntity
  8
0
100
AcDbBlockBegin
  2
SEANNOT_GROUP
 70
     0
 10
0.0
 20
0.0
 30
0.0
  3
SEANNOT_GROUP
  1

  0
LINE
  5
61
330
5E
100
AcDbEntity
  8
Default
  6
CENTER2
 62
     7
100
AcDbLine
 10
95.549999553
 20
324.0124136739
 30
0.0
 11
55.550000447
 21
324.0124136739
 31
0.0
  0
LINE
  5
62
330
5E
100
AcDbEntity
  8
Default
  6
CENTER2
 62
     7
100
AcDbLine
 10
75.55
 20
344.0124132268
 30
0.0
 11
75.55
 21
304.0124141209
 31
0.0
  0
ENDBLK
  5
64
330
5E
100
AcDbEntity
  8
0
100
AcDbBlockEnd
  0
BLOCK
  5
69
330
65
100
AcDbEntity
  8
0
100
AcDbBlockBegin
  2
SEANNOT_GROUP1
 70
     0
 10
0.0
 20
0.0
 30
0.0
  3
SEANNOT_GROUP1
  1

  0
LINE
  5
67
330
65
100
AcDbEntity
  8
Default
  6
CENTER2
 62
     7
100
AcDbLine
 10
245.549999553
 20
324.0124136739
 30
0.0
 11
205.550000447
 21
324.0124136739
 31
0.0
  0
LINE
  5
68
330
65
100
AcDbEntity
  8
Default
  6
CENTER2
 62
     7
100
AcDbLine
 10
225.55
 20
344.0124132268
 30
0.0
 11
225.55
 21
304.0124141209
 31
0.0
  0
ENDBLK
  5
6A
330
65
100
AcDbEntity
  8
0
100
AcDbBlockEnd
  0
BLOCK
  5
6F
330
6B
100
AcDbEntity
  8
0
100
AcDbBlockBegin
  2
SEANNOT_GROUP2
 70
     0
 10
0.0
 20
0.0
 30
0.0
  3
SEANNOT_GROUP2
  1

  0
LINE
  5
6D
330
6B
100
AcDbEntity
  8
Default
  6
CENTER2
 62
     7
100
AcDbLine
 10
170.499974553
 20
303.0124136739
 30
0.0
 11
130.499975447
 21
303.0124136739
 31
0.0
  0
LINE
  5
6E
330
6B
100
AcDbEntity
  8
Default
  6
CENTER2
 62
     7
100
AcDbLine
 10
150.499975
 20
323.0124132268
 30
0.0
 11
150.499975
 21
283.0124141209
 31
0.0
  0
ENDBLK
  5
70
330
6B
100
AcDbEntity
  8
0
100
AcDbBlockEnd
  0
BLOCK
  5
75
330
71
100
AcDbEntity
  8
0
100
AcDbBlockBegin
  2
SEANNOT_GROUP3
 70
     0
 10
0.0
 20
0.0
 30
0.0
  3
SEANNOT_GROUP3
  1

  0
LINE
  5
73
330
71
100
AcDbEntity
  8
Default
  6
CENTER2
 62
     7
100
AcDbLine
 10
370.035258217
 20
324.0124136739
 30
0.0
 11
330.0352591111
 21
324.0124136739
 31
0.0
  0
LINE
  5
74
330
71
100
AcDbEntity
  8
Default
  6
CENTER2
 62
     7
100
AcDbLine
 10
350.0352586641
 20
344.0124132268
 30
0.0
 11
350.0352586641
 21
304.0124141209
 31
0.0
  0
ENDBLK
  5
76
330
71
100
AcDbEntity
  8
0
100
AcDbBlockEnd
  0
BLOCK
  5
7B
330
77
100
AcDbEntity
  8
0
100
AcDbBlockBegin
  2
SEANNOT_GROUP4
 70
     0
 10
0.0
 20
0.0
 30
0.0
  3
SEANNOT_GROUP4
  1

  0
LINE
  5
79
330
77
100
AcDbEntity
  8
Default
  6
CENTER2
 62
     7
100
AcDbLine
 10
457.444633217
 20
303.0124136739
 30
0.0
 11
417.4446341111
 21
303.0124136739
 31
0.0
  0
LINE
  5
7A
330
77
100
AcDbEntity
  8
Default
  6
CENTER2
 62
     7
100
AcDbLine
 10
437.4446336641
 20
323.0124132268
 30
0.0
 11
437.4446336641
 21
283.0124141209
 31
0.0
  0
ENDBLK
  5
7C
330
77
100
AcDbEntity
  8
0
100
AcDbBlockEnd
  0
BLOCK
  5
81
330
7D
100
AcDbEntity
  8
0
100
AcDbBlockBegin
  2
SEANNOT_GROUP5
 70
     0
 10
0.0
 20
0.0
 30
0.0
  3
SEANNOT_GROUP5
  1

  0
LINE
  5
7F
330
7D
100
AcDbEntity
  8
Default
  6
CENTER2
 62
     7
100
AcDbLine
 10
245.549999553
 20
229.04293994
 30
0.0
 11
205.550000447
 21
229.04293994
 31
0.0
  0
LINE
  5
80
330
7D
100
AcDbEntity
  8
Default
  6
CENTER2
 62
     7
100
AcDbLine
 10
225.55
 20
249.042939493
 30
0.0
 11
225.55
 21
209.0429403871
 31
0.0
  0
ENDBLK
  5
82
330
7D
100
AcDbEntity
  8
0
100
AcDbBlockEnd
  0
BLOCK
  5
87
330
83
100
AcDbEntity
  8
0
100
AcDbBlockBegin
  2
SEANNOT_GROUP6
 70
     0
 10
0.0
 20
0.0
 30
0.0
  3
SEANNOT_GROUP6
  1

  0
LINE
  5
85
330
83
100
AcDbEntity
  8
Default
  6
CENTER2
 62
     7
100
AcDbLine
 10
95.549999553
 20
229.04293994
 30
0.0
 11
55.550000447
 21
229.04293994
 31
0.0
  0
LINE
  5
86
330
83
100
AcDbEntity
  8
Default
  6
CENTER2
 62
     7
100
AcDbLine
 10
75.55
 20
249.042939493
 30
0.0
 11
75.55
 21
209.0429403871
 31
0.0
  0
ENDBLK
  5
88
330
83
100
AcDbEntity
  8
0
100
AcDbBlockEnd
  0
BLOCK
  5
E2
330
89
100
AcDbEntity
  8
0
100
AcDbBlockBegin
  2
SE
 70
     0
 10
0.0
 20
0.0
 30
0.0
  3
SE
  1

  0
ARC
  5
8C
330
89
100
AcDbEntity
  8
08041038_ROSETTE
  6
Continuous
 62
     7
100
AcDbCircle
 10
75.55
 20
324.0124136739
 30
0.0
 40
35.0
100
AcDbArc
 50
212.8783495644
 51
327.1216504356
  0
ARC
  5
8D
330
89
100
AcDbEntity
  8
08041038_ROSETTE
  6
Continuous
 62
     7
100
AcDbCircle
 10
75.55
 20
324.0124136739
 30
0.0
 40
35.0
100
AcDbArc
 50
32.8783495644
 51
147.1216504356
  0
ARC
  5
8E
330
89
100
AcDbEntity
  8
08041038_ROSETTE
  6
Continuous
 62
     7
100
AcDbCircle
 10
75.55
 20
324.0124136739
 30
0.0
 40
22.0
100
AcDbArc
 50
239.7273586811
 51
300.2726413189
  0
ARC
  5
8F
330
89
100
AcDbEntity
  8
08041038_ROSETTE
  6
Continuous
 62
     7
100
AcDbCircle
 10
75.55
 20
324.0124136739
 30
0.0
 40
22.0
100
AcDbArc
 50
59.7273586811
 51
120.2726413189
  0
ARC
  5
90
330
89
100
AcDbEntity
  8
08041038_ROSETTE
  6
Continuous
 62
     7
100
AcDbCircle
 10
225.55
 20
324.0124136739
 30
0.0
 40
35.0
100
AcDbArc
 50
212.8783495644
 51
327.1216504356
  0
ARC
  5
91
330
89
100
AcDbEntity
  8
08041038_ROSETTE
  6
Continuous
 62
     7
100
AcDbCircle
 10
225.55
 20
324.0124136739
 30
0.0
 40
35.0
100
AcDbArc
 50
32.8783495644
 51
147.1216504356
  0
ARC
  5
92
330
89
100
AcDbEntity
  8
08041038_ROSETTE
  6
Continuous
 62
     7
100
AcDbCircle
 10
225.55
 20
324.0124136739
 30
0.0
 40
22.0
100
AcDbArc
 50
239.7273586811
 51
300.2726413189
  0
ARC
  5
93
330
89
100
AcDbEntity
  8
08041038_ROSETTE
  6
Continuous
 62
     7
100
AcDbCircle
 10
225.55
 20
324.0124136739
 30
0.0
 40
22.0
100
AcDbArc
 50
59.7273586811
 51
120.2726413189
  0
LINE
  5
95
330
89
100
AcDbEntity
  8
08002040_GEH_2LB
  6
Continuous
 62
     7
100
AcDbLine
 10
33.55
 20
305.0124136739
 30
0.0
 11
33.55
 21
343.0124136739
 31
0.0
  0
LINE
  5
96
330
89
100
AcDbEntity
  8
08002040_GEH_2LB
  6
Continuous
 62
     7
100
AcDbLine
 10
267.55
 20
305.0124136739
 30
0.0
 11
267.55
 21
343.0124136739
 31
0.0
  0
ARC
  5
97
330
89
100
AcDbEntity
  8
08002040_GEH_2LB
  6
Continuous
 62
     7
100
AcDbCircle
 10
150.5499995639
 20
290.2301138172
 30
0.0
 40
19.03986343225592
100
AcDbArc
 50
50.9309401686
 51
129.069047498
  0
LINE
  5
98
330
89
100
AcDbEntity
  8
08002040_GEH_2LB
  6
Continuous
 62
     7
100
AcDbLine
 10
75.55
 20
343.0124136739
 30
0.0
 11
33.55
 21
343.0124136739
 31
0.0
  0
LINE
  5
99
330
89
100
AcDbEntity
  8
08002040_GEH_2LB
  6
Continuous
 62
     7
100
AcDbLine
 10
225.55
 20
343.0124136739
 30
0.0
 11
75.55
 21
343.0124136739
 31
0.0
  0
LINE
  5
9A
330
89
100
AcDbEntity
  8
08002040_GEH_2LB
  6
Continuous
 62
     7
100
AcDbLine
 10
267.55
 20
343.0124136739
 30
0.0
 11
225.55
 21
343.0124136739
 31
0.0
  0
LINE
  5
9B
330
89
100
AcDbEntity
  8
08002040_GEH_2LB
  6
Continuous
 62
     7
100
AcDbLine
 10
225.55
 20
305.0124136739
 30
0.0
 11
267.55
 21
305.0124136739
 31
0.0
  0
LINE
  5
9C
330
89
100
AcDbEntity
  8
08002040_GEH_2LB
  6
Continuous
 62
     7
100
AcDbLine
 10
162.55
 20
305.0124136739
 30
0.0
 11
225.55
 21
305.0124136739
 31
0.0
  0
LINE
  5
9D
330
89
100
AcDbEntity
  8
08002040_GEH_2LB
  6
Continuous
 62
     7
100
AcDbLine
 10
75.55
 20
305.0124136739
 30
0.0
 11
138.5548641567
 21
305.0124136739
 31
0.0
  0
LINE
  5
9E
330
89
100
AcDbEntity
  8
08002040_GEH_2LB
  6
Continuous
 62
     7
100
AcDbLine
 10
33.55
 20
305.0124136739
 30
0.0
 11
75.55
 21
305.0124136739
 31
0.0
  0
LINE
  5
A0
330
89
100
AcDbEntity
  8
$DDT_AUDIT_GENERATED_(9F)
  6
Continuous
 62
     7
100
AcDbLine
 10
29.55
 20
338.3624136739
 30
0.0
 11
29.55
 21
309.6624136739
 31
0.0
  0
LINE
  5
A1
330
89
100
AcDbEntity
  8
$DDT_AUDIT_GENERATED_(9F)
  6
Continuous
 62
     7
100
AcDbLine
 10
33.55
 20
338.8624136739
 30
0.0
 11
30.05
 21
338.8624136739
 31
0.0
  0
LINE
  5
A2
330
89
100
AcDbEntity
  8
$DDT_AUDIT_GENERATED_(9F)
  6
Continuous
 62
     7
100
AcDbLine
 10
30.05
 20
309.1624136739
 30
0.0
 11
33.55
 21
309.1624136739
 31
0.0
  0
ARC
  5
A3
330
89
100
AcDbEntity
  8
$DDT_AUDIT_GENERATED_(9F)
  6
Continuous
 62
     7
100
AcDbCircle
 10
30.05
 20
338.3624136739
 30
0.0
 40
0.5000000000000004
100
AcDbArc
 50
90.0
 51
180.0
  0
ARC
  5
A4
330
89
100
AcDbEntity
  8
$DDT_AUDIT_GENERATED_(9F)
  6
Continuous
 62
     7
100
AcDbCircle
 10
30.05
 20
309.6624136739
 30
0.0
 40
0.5000000000000004
100
AcDbArc
 50
180.0
 51
270.0
  0
LINE
  5
A6
330
89
100
AcDbEntity
  8
$DDT_AUDIT_GENERATED_(A5)
  6
Continuous
 62
     7
100
AcDbLine
 10
29.35
 20
333.7624136739
 30
0.0
 11
29.35
 21
314.2624136739
 31
0.0
  0
SPLINE
  5
A7
330
89
100
AcDbEntity
  8
$DDT_AUDIT_GENERATED_(A5)
  6
Continuous
 62
     7
100
AcDbSpline
210
0.0
220
0.0
230
1.0
 70
     8
 71
     3
 72
    14
 73
    10
 74
     0
 42
0.0000000002598618
 43
0.0000000001
 40
0.0
 40
0.0
 40
0.0
 40
0.0
 40
0.1249999999999999
 40
0.1249999999999999
 40
0.1874999999999999
 40
0.1874999999999999
 40
0.2499999999999999
 40
0.2499999999999999
 40
0.2506472005983315
 40
0.2506472005983315
 40
0.2506472005983315
 40
0.2506472005983315
 10
13.850000000005
 20
325.3659595593402
 30
0.0
 10
12.21813249287965
 20
325.3659595593402
 30
0.0
 10
10.70098070281053
 20
324.5022001097789
 30
0.0
 10
9.080671410798018
 20
322.7172073500961
 30
0.0
 10
8.637803580599318
 20
322.0327188093583
 30
0.0
 10
8.023795774975223
 20
320.6065773132436
 30
0.0
 10
7.853347001410632
 20
319.8609760845142
 30
0.0
 10
7.850015582054837
 20
319.1513105176539
 30
0.0
 10
7.849999482288622
 20
319.1440430455435
 30
0.0
 10
7.850001395011075
 20
319.1367815758329
 30
0.0
  0
SPLINE
  5
A8
330
89
100
AcDbEntity
  8
$DDT_AUDIT_GENERATED_(A5)
  6
Continuous
 62
     7
100
AcDbSpline
210
0.0
220
0.0
230
1.0
 70
     8
 71
     3
 72
    14
 73
    10
 74
     0
 42
0.000000000261539
 43
0.0000000001
 40
0.7505640454311322
 40
0.7505640454311322
 40
0.7505640454311322
 40
0.7505640454311322
 40
0.8125
 40
0.8125
 40
0.8749999999999999
 40
0.8749999999999999
 40
0.9374999999999999
 40
0.9374999999999999
 40
1.0
 40
1.0
 40
1.0
 40
1.0
 10
19.84999919069291
 20
319.1370150402452
 30
0.0
 10
19.85000365638545
 20
319.8350968722444
 30
0.0
 10
19.68450366222127
 20
320.5771992946475
 30
0.0
 10
19.07759025390018
 20
322.0067251849613
 30
0.0
 10
18.63455487307383
 20
322.6970799667224
 30
0.0
 10
17.55106521735503
 20
323.8973164761742
 30
0.0
 10
16.91310948150612
 20
324.4096197125755
 30
0.0
 10
15.46874754602664
 20
325.150083664224
 30
0.0
 10
14.66593375356764
 20
325.3659595593402
 30
0.0
 10
13.850000000005
 20
325.3659595593402
 30
0.0
  0
ARC
  5
A9
330
89
100
AcDbEntity
  8
$DDT_AUDIT_GENERATED_(A5)
  6
Continuous
 62
     7
100
AcDbCircle
 10
13.8500000128
 20
341.3114277487
 30
0.0
 40
9.643008853318454
100
AcDbArc
 50
231.5221273984
 51
308.4778691143
  0
LINE
  5
AA
330
89
100
AcDbEntity
  8
$DDT_AUDIT_GENERATED_(A5)
  6
Continuous
 62
     7
100
AcDbLine
 10
6.35
 20
333.2624136739
 30
0.0
 11
6.35
 21
314.7624136739
 31
0.0
  0
LINE
  5
AB
330
89
100
AcDbEntity
  8
$DDT_AUDIT_GENERATED_(A5)
  6
Continuous
 62
     7
100
AcDbLine
 10
19.35
 20
361.5124136739
 30
0.0
 11
8.35
 21
361.5124136739
 31
0.0
  0
ELLIPSE
  5
AC
330
89
100
AcDbEntity
  8
$DDT_AUDIT_GENERATED_(A5)
  6
Continuous
 62
     7
100
AcDbEllipse
 10
13.85
 20
305.5124136739
 30
0.0
 11
-6.000000000000005
 21
-1.734723475976807E-14
 31
0.0
210
0.0
220
0.0
230
1.0
 40
0.8660254038
 41
6.044243166885617
 42
6.283185307179586
  0
ELLIPSE
  5
AD
330
89
100
AcDbEntity
  8
$DDT_AUDIT_GENERATED_(A5)
  6
Continuous
 62
     7
100
AcDbEllipse
 10
13.85
 20
305.5124136739
 30
0.0
 11
-6.000000000000005
 21
-1.734723475976807E-14
 31
0.0
210
0.0
220
0.0
230
1.0
 40
0.8660254038
 41
2.886760850845465
 42
3.402266491624266
  0
ELLIPSE
  5
AE
330
89
100
AcDbEntity
  8
$DDT_AUDIT_GENERATED_(A5)
  6
Continuous
 62
     7
100
AcDbEllipse
 10
13.85
 20
305.5124136739
 30
0.0
 11
-6.000000000000005
 21
-1.734723475976807E-14
 31
0.0
210
0.0
220
0.0
230
1.0
 40
0.8660254038
 41
0.0
 42
0.2595830651367265
  0
LINE
  5
AF
330
89
100
AcDbEntity
  8
$DDT_AUDIT_GENERATED_(A5)
  6
Continuous
 62
     7
100
AcDbLine
 10
19.85
 20
305.5124136739
 30
0.0
 11
19.85
 21
319.1407304949
 31
0.0
  0
LINE
  5
B0
330
89
100
AcDbEntity
  8
$DDT_AUDIT_GENERATED_(A5)
  6
Continuous
 62
     7
100
AcDbLine
 10
7.85
 20
319.1415399837
 30
0.0
 11
7.85
 21
305.5124136739
 31
0.0
  0
LINE
  5
B1
330
89
100
AcDbEntity
  8
$DDT_AUDIT_GENERATED_(A5)
  6
Continuous
 62
     7
100
AcDbLine
 10
6.85
 20
314.2624136739
 30
0.0
 11
7.85
 21
314.2624136739
 31
0.0
  0
LINE
  5
B2
330
89
100
AcDbEntity
  8
$DDT_AUDIT_GENERATED_(A5)
  6
Continuous
 62
     7
100
AcDbLine
 10
19.85
 20
314.2624136739
 30
0.0
 11
29.35
 21
314.2624136739
 31
0.0
  0
LINE
  5
B3
330
89
100
AcDbEntity
  8
$DDT_AUDIT_GENERATED_(A5)
  6
Continuous
 62
     7
100
AcDbLine
 10
7.8608102121
 20
333.7624136739
 30
0.0
 11
6.85
 21
333.7624136739
 31
0.0
  0
LINE
  5
B4
330
89
100
AcDbEntity
  8
$DDT_AUDIT_GENERATED_(A5)
  6
Continuous
 62
     7
100
AcDbLine
 10
29.35
 20
333.7624136739
 30
0.0
 11
19.8365313218
 21
333.7624136739
 31
0.0
  0
LINE
  5
B5
330
89
100
AcDbEntity
  8
$DDT_AUDIT_GENERATED_(A5)
  6
Continuous
 62
     7
100
AcDbLine
 10
7.85
 20
361.0124136739
 30
0.0
 11
7.85
 21
333.7557800318
 31
0.0
  0
LINE
  5
B6
330
89
100
AcDbEntity
  8
$DDT_AUDIT_GENERATED_(A5)
  6
Continuous
 62
     7
100
AcDbLine
 10
19.85
 20
333.7541610542
 30
0.0
 11
19.85
 21
361.0124136739
 31
0.0
  0
ARC
  5
B7
330
89
100
AcDbEntity
  8
$DDT_AUDIT_GENERATED_(A5)
  6
Continuous
 62
     7
100
AcDbCircle
 10
6.85
 20
333.2624136739
 30
0.0
 40
0.4999999999999987
100
AcDbArc
 50
90.0
 51
180.0
  0
ARC
  5
B8
330
89
100
AcDbEntity
  8
$DDT_AUDIT_GENERATED_(A5)
  6
Continuous
 62
     7
100
AcDbCircle
 10
6.85
 20
314.7624136739
 30
0.0
 40
0.4999999999975024
100
AcDbArc
 50
180.0
 51
270.0
  0
ARC
  5
B9
330
89
100
AcDbEntity
  8
$DDT_AUDIT_GENERATED_(A5)
  6
Continuous
 62
     7
100
AcDbCircle
 10
19.35
 20
361.0124136739
 30
0.0
 40
0.5000000000000004
100
AcDbArc
 50
0.0
 51
90.0
  0
ARC
  5
BA
330
89
100
AcDbEntity
  8
$DDT_AUDIT_GENERATED_(A5)
  6
Continuous
 62
     7
100
AcDbCircle
 10
8.35
 20
361.0124136739
 30
0.0
 40
0.5000000000000004
100
AcDbArc
 50
90.0
 51
180.0
  0
SPLINE
  5
BB
330
89
100
AcDbEntity
  8
$DDT_AUDIT_GENERATED_(A5)
  6
Continuous
 62
     7
100
AcDbSpline
210
0.0
220
0.0
230
1.0
 70
     8
 71
     3
 72
    33
 73
    29
 74
     0
 42
0.0000000006676537
 43
0.0000000001
 40
0.0
 40
0.0
 40
0.0
 40
0.0
 40
0.0064170682661994
 40
0.0462230658690406
 40
0.0860847850023063
 40
0.1260185786145384
 40
0.166032155393657
 40
0.2061253348065245
 40
0.2462919349300475
 40
0.2865221343902073
 40
0.326804710492528
 40
0.3671287658572041
 40
0.4074847971280859
 40
0.4478651430170198
 40
0.4882639436082787
 40
0.5286767624969837
 40
0.5690997464882387
 40
0.6095285185066185
 40
0.6499587047616316
 40
0.6903843719414002
 40
0.7307974360099562
 40
0.7711873139560541
 40
0.8115409852084047
 40
0.851843651575254
 40
0.8920801435180996
 40
0.9322370787258151
 40
0.9723055307486105
 40
1.0
 40
1.0
 40
1.0
 40
1.0
 10
8.060659711683266
 20
304.1439232068334
 30
0.0
 10
8.068796121031923
 20
304.1120076547935
 30
0.0
 10
8.119392940845598
 20
303.914731723526
 30
0.0
 10
8.28359965454259
 20
303.5278747341644
 30
0.0
 10
8.545005023267132
 20
303.0299778356692
 30
0.0
 10
8.87240282776039
 20
302.554850224115
 30
0.0
 10
9.252860546024117
 20
302.1134346775271
 30
0.0
 10
9.684836250569123
 20
301.7090570689257
 30
0.0
 10
10.16295839712114
 20
301.3466454333374
 30
0.0
 10
10.68216666591013
 20
301.030158953846
 30
0.0
 10
11.23667671762171
 20
300.7631932582165
 30
0.0
 10
11.8203538913654
 20
300.5487487372319
 30
0.0
 10
12.42671691295313
 20
300.3892430884819
 30
0.0
 10
13.04904192637049
 20
300.286476112868
 30
0.0
 10
13.68043602048938
 20
300.2416214764966
 30
0.0
 10
14.31391226724824
 20
300.2552212435504
 30
0.0
 10
14.94245676887393
 20
300.3271852834891
 30
0.0
 10
15.55910003804287
 20
300.4567922806253
 30
0.0
 10
16.15698476174457
 20
300.6426948042364
 30
0.0
 10
16.72943181653527
 20
300.8829234020239
 30
0.0
 10
17.27001477620463
 20
301.1749027621706
 30
0.0
 10
17.77259572444204
 20
301.5154233076088
 30
0.0
 10
18.23154223315784
 20
301.9008001020474
 30
0.0
 10
18.641294622988
 20
302.3263686439038
 30
0.0
 10
18.99837589615436
 20
302.7885077288286
 30
0.0
 10
19.29431409774432
 20
303.2773356231456
 30
0.0
 10
19.51700806814619
 20
303.7503705474438
 30
0.0
 10
19.60352975844196
 20
304.0329995238695
 30
0.0
 10
19.64437404570354
 20
304.1694628136819
 30
0.0
  0
LINE
  5
BD
330
89
100
AcDbEntity
  8
$DDT_AUDIT_GENERATED_(BC)
  6
Continuous
 62
     7
100
AcDbLine
 10
29.35
 20
315.1267730279
 30
0.0
 11
29.55
 21
315.1267730279
 31
0.0
  0
LINE
  5
BE
330
89
100
AcDbEntity
  8
$DDT_AUDIT_GENERATED_(BC)
  6
Continuous
 62
     7
100
AcDbLine
 10
29.55
 20
332.8980543199
 30
0.0
 11
29.35
 21
332.8980543199
 31
0.0
  0
LINE
  5
C0
330
89
100
AcDbEntity
  8
E08043
  6
Continuous
 62
     7
100
AcDbLine
 10
140.022475
 20
304.1744136739
 30
0.0
 11
160.977475
 21
304.1744136739
 31
0.0
  0
LINE
  5
C1
330
89
100
AcDbEntity
  8
E08043
  6
Continuous
 62
     7
100
AcDbLine
 10
141.184475
 20
303.0124136739
 30
0.0
 11
159.815475
 21
303.0124136739
 31
0.0
  0
LINE
  5
C2
330
89
100
AcDbEntity
  8
E08043
  6
Continuous
 62
     7
100
AcDbLine
 10
160.977475
 20
304.1744136739
 30
0.0
 11
160.977475
 21
305.9640226137
 31
0.0
  0
LINE
  5
C3
330
89
100
AcDbEntity
  8
E08043
  6
Continuous
 62
     7
100
AcDbLine
 10
140.022475
 20
305.9050850054
 30
0.0
 11
140.022475
 21
304.1744136739
 31
0.0
  0
LINE
  5
C4
330
89
100
AcDbEntity
  8
E08043
  6
Continuous
 62
     7
100
AcDbLine
 10
140.022475
 20
304.1744136739
 30
0.0
 11
141.184475
 21
303.0124136739
 31
0.0
  0
LINE
  5
C5
330
89
100
AcDbEntity
  8
E08043
  6
Continuous
 62
     7
100
AcDbLine
 10
159.815475
 20
303.0124136739
 30
0.0
 11
160.977475
 21
304.1744136739
 31
0.0
  0
LINE
  5
C6
330
89
100
AcDbEntity
  8
$DDT_AUDIT_GENERATED_(9F)
  6
Continuous
 62
     7
100
AcDbLine
 10
271.55
 20
309.6624136739
 30
0.0
 11
271.55
 21
338.3624136739
 31
0.0
  0
LINE
  5
C7
330
89
100
AcDbEntity
  8
$DDT_AUDIT_GENERATED_(9F)
  6
Continuous
 62
     7
100
AcDbLine
 10
267.55
 20
309.1624136739
 30
0.0
 11
271.05
 21
309.1624136739
 31
0.0
  0
LINE
  5
C8
330
89
100
AcDbEntity
  8
$DDT_AUDIT_GENERATED_(9F)
  6
Continuous
 62
     7
100
AcDbLine
 10
271.05
 20
338.8624136739
 30
0.0
 11
267.55
 21
338.8624136739
 31
0.0
  0
ARC
  5
C9
330
89
100
AcDbEntity
  8
$DDT_AUDIT_GENERATED_(9F)
  6
Continuous
 62
     7
100
AcDbCircle
 10
271.05
 20
309.6624136739
 30
0.0
 40
0.4999999999999987
100
AcDbArc
 50
270.0
 51
0.0
  0
ARC
  5
CA
330
89
100
AcDbEntity
  8
$DDT_AUDIT_GENERATED_(9F)
  6
Continuous
 62
     7
100
AcDbCircle
 10
271.05
 20
338.3624136739
 30
0.0
 40
0.5000000000000004
100
AcDbArc
 50
0.0
 51
90.0
  0
LINE
  5
CB
330
89
100
AcDbEntity
  8
$DDT_AUDIT_GENERATED_(A5)
  6
Continuous
 62
     7
100
AcDbLine
 10
271.75
 20
314.2624136739
 30
0.0
 11
271.75
 21
333.7624136739
 31
0.0
  0
ARC
  5
CC
330
89
100
AcDbEntity
  8
$DDT_AUDIT_GENERATED_(A5)
  6
Continuous
 62
     7
100
AcDbCircle
 10
287.2500000128
 20
341.3114277487
 30
0.0
 40
9.64300885331832
100
AcDbArc
 50
231.5221273984
 51
308.4778691143
  0
SPLINE
  5
CD
330
89
100
AcDbEntity
  8
$DDT_AUDIT_GENERATED_(A5)
  6
Continuous
 62
     7
100
AcDbSpline
210
0.0
220
0.0
230
1.0
 70
     8
 71
     3
 72
    22
 73
    18
 74
     0
 42
0.0000000002606264
 43
0.0000000001
 40
0.250647200598331
 40
0.250647200598331
 40
0.250647200598331
 40
0.250647200598331
 40
0.3125
 40
0.3125
 40
0.375
 40
0.375
 40
0.4375
 40
0.4375
 40
0.5
 40
0.5
 40
0.625
 40
0.625
 40
0.6875
 40
0.6875
 40
0.75
 40
0.75
 40
0.7505640454311331
 40
0.7505640454311331
 40
0.7505640454311331
 40
0.7505640454311331
 10
281.2500013950111
 20
319.1380473631342
 30
0.0
 10
281.2501841934177
 20
319.8321828816579
 30
0.0
 10
281.4148854462363
 20
320.5748718742018
 30
0.0
 10
282.0210988874313
 20
322.0045319695415
 30
0.0
 10
282.4634828925101
 20
322.6935429354021
 30
0.0
 10
283.5397627063771
 20
323.8885054425585
 30
0.0
 10
284.1821685987314
 20
324.4048462966056
 30
0.0
 10
285.608986923049
 20
325.1409776750537
 30
0.0
 10
286.4098293204893
 20
325.3616711275742
 30
0.0
 10
288.8561214359597
 20
325.3743441746587
 30
0.0
 10
290.3822460725818
 20
324.5169434471921
 30
0.0
 10
292.0162536565796
 20
322.7224425501569
 30
0.0
 10
292.456103178563
 20
322.0454614026832
 30
0.0
 10
293.0785647161294
 20
320.6024962519884
 30
0.0
 10
293.2469090186926
 20
319.8623994216777
 30
0.0
 10
293.2499853830961
 20
319.1505323944978
 30
0.0
 10
293.2499991500243
 20
319.1441703909397
 30
0.0
 10
293.249999190693
 20
319.1378133619008
 30
0.0
  0
LINE
  5
CE
330
89
100
AcDbEntity
  8
$DDT_AUDIT_GENERATED_(A5)
  6
Continuous
 62
     7
100
AcDbLine
 10
294.75
 20
314.7624136739
 30
0.0
 11
294.75
 21
333.2624136739
 31
0.0
  0
ELLIPSE
  5
CF
330
89
100
AcDbEntity
  8
$DDT_AUDIT_GENERATED_(A5)
  6
Continuous
 62
     7
100
AcDbEllipse
 10
287.25
 20
305.5124136739
 30
0.0
 11
6.000000000000005
 21
-6.938893903907228E-15
 31
0.0
210
0.0
220
0.0
230
1.0
 40
0.8660254038
 41
6.02835350443525
 42
6.283185307179586
  0
ELLIPSE
  5
D0
330
89
100
AcDbEntity
  8
$DDT_AUDIT_GENERATED_(A5)
  6
Continuous
 62
     7
100
AcDbEllipse
 10
287.25
 20
305.5124136739
 30
0.0
 11
6.000000000000005
 21
-6.938893903907228E-15
 31
0.0
210
0.0
220
0.0
230
1.0
 40
0.8660254038
 41
2.902650513295825
 42
3.401175718726563
  0
ELLIPSE
  5
D1
330
89
100
AcDbEntity
  8
$DDT_AUDIT_GENERATED_(A5)
  6
Continuous
 62
     7
100
AcDbEllipse
 10
287.25
 20
305.5124136739
 30
0.0
 11
6.000000000000005
 21
-6.938893903907228E-15
 31
0.0
210
0.0
220
0.0
230
1.0
 40
0.8660254038
 41
0.0
 42
0.2606738380344762
  0
LINE
  5
D2
330
89
100
AcDbEntity
  8
$DDT_AUDIT_GENERATED_(A5)
  6
Continuous
 62
     7
100
AcDbLine
 10
292.75
 20
361.5124136739
 30
0.0
 11
281.75
 21
361.5124136739
 31
0.0
  0
LINE
  5
D3
330
89
100
AcDbEntity
  8
$DDT_AUDIT_GENERATED_(A5)
  6
Continuous
 62
     7
100
AcDbLine
 10
281.25
 20
361.0124136739
 30
0.0
 11
281.25
 21
333.7557800318
 31
0.0
  0
LINE
  5
D4
330
89
100
AcDbEntity
  8
$DDT_AUDIT_GENERATED_(A5)
  6
Continuous
 62
     7
100
AcDbLine
 10
293.25
 20
333.7541610542
 30
0.0
 11
293.25
 21
361.0124136739
 31
0.0
  0
LINE
  5
D5
330
89
100
AcDbEntity
  8
$DDT_AUDIT_GENERATED_(A5)
  6
Continuous
 62
     7
100
AcDbLine
 10
281.2608102121
 20
333.7624136739
 30
0.0
 11
271.75
 21
333.7624136739
 31
0.0
  0
LINE
  5
D6
330
89
100
AcDbEntity
  8
$DDT_AUDIT_GENERATED_(A5)
  6
Continuous
 62
     7
100
AcDbLine
 10
294.25
 20
333.7624136739
 30
0.0
 11
293.2365313218
 21
333.7624136739
 31
0.0
  0
LINE
  5
D7
330
89
100
AcDbEntity
  8
$DDT_AUDIT_GENERATED_(A5)
  6
Continuous
 62
     7
100
AcDbLine
 10
271.75
 20
314.2624136739
 30
0.0
 11
281.25
 21
314.2624136739
 31
0.0
  0
LINE
  5
D8
330
89
100
AcDbEntity
  8
$DDT_AUDIT_GENERATED_(A5)
  6
Continuous
 62
     7
100
AcDbLine
 10
293.25
 20
314.2624136739
 30
0.0
 11
294.25
 21
314.2624136739
 31
0.0
  0
LINE
  5
D9
330
89
100
AcDbEntity
  8
$DDT_AUDIT_GENERATED_(A5)
  6
Continuous
 62
     7
100
AcDbLine
 10
293.25
 20
305.5124136739
 30
0.0
 11
293.25
 21
319.1407304949
 31
0.0
  0
LINE
  5
DA
330
89
100
AcDbEntity
  8
$DDT_AUDIT_GENERATED_(A5)
  6
Continuous
 62
     7
100
AcDbLine
 10
281.25
 20
319.1415399837
 30
0.0
 11
281.25
 21
305.5124136739
 31
0.0
  0
ARC
  5
DB
330
89
100
AcDbEntity
  8
$DDT_AUDIT_GENERATED_(A5)
  6
Continuous
 62
     7
100
AcDbCircle
 10
294.25
 20
314.7624136739
 30
0.0
 40
0.5000000000000004
100
AcDbArc
 50
270.0
 51
0.0
  0
ARC
  5
DC
330
89
100
AcDbEntity
  8
$DDT_AUDIT_GENERATED_(A5)
  6
Continuous
 62
     7
100
AcDbCircle
 10
294.25
 20
333.2624136739
 30
0.0
 40
0.4999999999975024
100
AcDbArc
 50
0.0
 51
90.0
  0
SPLINE
  5
DD
330
89
100
AcDbEntity
  8
$DDT_AUDIT_GENERATED_(A5)
  6
Continuous
 62
     7
100
AcDbSpline
210
0.0
220
0.0
230
1.0
 70
     8
 71
     3
 72
    33
 73
    29
 74
     0
 42
0.0000000006676537
 43
0.0000000001
 40
0.0
 40
0.0
 40
0.0
 40
0.0
 40
0.0064170682661914
 40
0.0462230658690331
 40
0.0860847850022974
 40
0.1260185786145296
 40
0.1660321553936505
 40
0.2061253348065177
 40
0.2462919349300408
 40
0.2865221343902005
 40
0.3268047104925212
 40
0.3671287658571971
 40
0.4074847971280787
 40
0.4478651430170107
 40
0.4882639436082695
 40
0.5286767624969726
 40
0.5690997464882276
 40
0.609528518506607
 40
0.6499587047616199
 40
0.6903843719413881
 40
0.7307974360099438
 40
0.7711873139560433
 40
0.8115409852083929
 40
0.8518436515752427
 40
0.892080143518088
 40
0.9322370787258029
 40
0.9723055307485977
 40
1.0
 40
1.0
 40
1.0
 40
1.0
 10
281.4606597116833
 20
304.1439232068335
 30
0.0
 10
281.4687961210319
 20
304.1120076547936
 30
0.0
 10
281.5193929408457
 20
303.914731723526
 30
0.0
 10
281.6835996545426
 20
303.5278747341646
 30
0.0
 10
281.9450050232671
 20
303.0299778356693
 30
0.0
 10
282.2724028277602
 20
302.5548502241152
 30
0.0
 10
282.6528605460243
 20
302.1134346775273
 30
0.0
 10
283.0848362505693
 20
301.7090570689259
 30
0.0
 10
283.5629583971211
 20
301.3466454333376
 30
0.0
 10
284.08216666591
 20
301.0301589538461
 30
0.0
 10
284.6366767176219
 20
300.7631932582166
 30
0.0
 10
285.2203538913653
 20
300.548748737232
 30
0.0
 10
285.8267169129531
 20
300.3892430884821
 30
0.0
 10
286.4490419263705
 20
300.2864761128681
 30
0.0
 10
287.0804360204895
 20
300.2416214764967
 30
0.0
 10
287.7139122672478
 20
300.2552212435505
 30
0.0
 10
288.3424567688741
 20
300.3271852834893
 30
0.0
 10
288.9591000380428
 20
300.4567922806254
 30
0.0
 10
289.5569847617446
 20
300.6426948042365
 30
0.0
 10
290.1294318165351
 20
300.8829234020241
 30
0.0
 10
290.6700147762047
 20
301.1749027621707
 30
0.0
 10
291.172595724442
 20
301.515423307609
 30
0.0
 10
291.6315422331578
 20
301.9008001020475
 30
0.0
 10
292.041294622988
 20
302.3263686439039
 30
0.0
 10
292.3983758961543
 20
302.7885077288287
 30
0.0
 10
292.6943140977443
 20
303.2773356231457
 30
0.0
 10
292.9170080681462
 20
303.750370547444
 30
0.0
 10
293.003529758442
 20
304.0329995238698
 30
0.0
 10
293.0443740457036
 20
304.1694628136822
 30
0.0
  0
ARC
  5
DE
330
89
100
AcDbEntity
  8
$DDT_AUDIT_GENERATED_(A5)
  6
Continuous
 62
     7
100
AcDbCircle
 10
281.75
 20
361.0124136739
 30
0.0
 40
0.5000000000000004
100
AcDbArc
 50
90.0
 51
180.0
  0
ARC
  5
DF
330
89
100
AcDbEntity
  8
$DDT_AUDIT_GENERATED_(A5)
  6
Continuous
 62
     7
100
AcDbCircle
 10
292.75
 20
361.0124136739
 30
0.0
 40
0.5000000000000004
100
AcDbArc
 50
0.0
 51
90.0
  0
LINE
  5
E0
330
89
100
AcDbEntity
  8
$DDT_AUDIT_GENERATED_(BC)
  6
Continuous
 62
     7
100
AcDbLine
 10
271.75
 20
332.8980543199
 30
0.0
 11
271.55
 21
332.8980543199
 31
0.0
  0
LINE
  5
E1
330
89
100
AcDbEntity
  8
$DDT_AUDIT_GENERATED_(BC)
  6
Continuous
 62
     7
100
AcDbLine
 10
271.55
 20
315.1267730279
 30
0.0
 11
271.75
 21
315.1267730279
 31
0.0
  0
ENDBLK
  5
E3
330
89
100
AcDbEntity
  8
0
100
AcDbBlockEnd
  0
BLOCK
  5
119
330
E4
100
AcDbEntity
  8
0
100
AcDbBlockBegin
  2
SE1
 70
     0
 10
0.0
 20
0.0
 30
0.0
  3
SE1
  1

  0
LINE
  5
E6
330
E4
100
AcDbEntity
  8
08041038_ROSETTE
  6
Continuous
 62
     7
100
AcDbLine
 10
350.0352586641
 20
358.5124136739
 30
0.0
 11
350.0352586641
 21
289.5124136739
 31
0.0
  0
LINE
  5
E7
330
E4
100
AcDbEntity
  8
08041038_ROSETTE
  6
Continuous
 62
     7
100
AcDbLine
 10
365.0352586641
 20
290.0124136739
 30
0.0
 11
365.0352586641
 21
358.0124136739
 31
0.0
  0
LINE
  5
E8
330
E4
100
AcDbEntity
  8
08041038_ROSETTE
  6
Continuous
 62
     7
100
AcDbLine
 10
378.0352586641
 20
303.0124136739
 30
0.0
 11
378.0352586641
 21
345.0124136739
 31
0.0
  0
LINE
  5
E9
330
E4
100
AcDbEntity
  8
08041038_ROSETTE
  6
Continuous
 62
     7
100
AcDbLine
 10
350.5352586641
 20
289.0124136739
 30
0.0
 11
364.0352586641
 21
289.0124136739
 31
0.0
  0
LINE
  5
EA
330
E4
100
AcDbEntity
  8
08041038_ROSETTE
  6
Continuous
 62
     7
100
AcDbLine
 10
364.0352586641
 20
359.0124136739
 30
0.0
 11
350.5352586641
 21
359.0124136739
 31
0.0
  0
LINE
  5
EB
330
E4
100
AcDbEntity
  8
08041038_ROSETTE
  6
Continuous
 62
     7
100
AcDbLine
 10
366.0352586641
 20
302.0124136739
 30
0.0
 11
377.0352586641
 21
302.0124136739
 31
0.0
  0
LINE
  5
EC
330
E4
100
AcDbEntity
  8
08041038_ROSETTE
  6
Continuous
 62
     7
100
AcDbLine
 10
377.0352586641
 20
346.0124136739
 30
0.0
 11
366.0352586641
 21
346.0124136739
 31
0.0
  0
ARC
  5
ED
330
E4
100
AcDbEntity
  8
08041038_ROSETTE
  6
Continuous
 62
     7
100
AcDbCircle
 10
350.5352586641
 20
289.5124136739
 30
0.0
 40
0.5000000000000002
100
AcDbArc
 50
180.0
 51
270.0
  0
ARC
  5
EE
330
E4
100
AcDbEntity
  8
08041038_ROSETTE
  6
Continuous
 62
     7
100
AcDbCircle
 10
350.5352586641
 20
358.5124136739
 30
0.0
 40
0.5000000000000004
100
AcDbArc
 50
90.0
 51
180.0
  0
ARC
  5
EF
330
E4
100
AcDbEntity
  8
08041038_ROSETTE
  6
Continuous
 62
     7
100
AcDbCircle
 10
364.0352586641
 20
290.0124136739
 30
0.0
 40
1.000000000000001
100
AcDbArc
 50
270.0
 51
0.0
  0
ARC
  5
F0
330
E4
100
AcDbEntity
  8
08041038_ROSETTE
  6
Continuous
 62
     7
100
AcDbCircle
 10
364.0352586641
 20
358.0124136739
 30
0.0
 40
1.000000000000001
100
AcDbArc
 50
0.0
 51
90.0
  0
ARC
  5
F1
330
E4
100
AcDbEntity
  8
08041038_ROSETTE
  6
Continuous
 62
     7
100
AcDbCircle
 10
377.0352586641
 20
303.0124136739
 30
0.0
 40
1.000000000000001
100
AcDbArc
 50
270.0
 51
0.0
  0
ARC
  5
F2
330
E4
100
AcDbEntity
  8
08041038_ROSETTE
  6
Continuous
 62
     7
100
AcDbCircle
 10
377.0352586641
 20
345.0124136739
 30
0.0
 40
1.000000000000001
100
AcDbArc
 50
0.0
 51
90.0
  0
ARC
  5
F3
330
E4
100
AcDbEntity
  8
08041038_ROSETTE
  6
Continuous
 62
     7
100
AcDbCircle
 10
366.0352586641
 20
301.0124136739
 30
0.0
 40
1.000000000000001
100
AcDbArc
 50
90.0
 51
180.0
  0
ARC
  5
F4
330
E4
100
AcDbEntity
  8
08041038_ROSETTE
  6
Continuous
 62
     7
100
AcDbCircle
 10
366.0352586641
 20
347.0124136739
 30
0.0
 40
1.000000000000001
100
AcDbArc
 50
180.0
 51
270.0
  0
ARC
  5
F5
330
E4
100
AcDbEntity
  8
08002040_GEH_2LB
  6
Continuous
 62
     7
100
AcDbCircle
 10
437.4352586641
 20
324.0124136739
 30
0.0
 40
19.0
100
AcDbArc
 50
348.4084801706
 51
0.0
  0
ARC
  5
F6
330
E4
100
AcDbEntity
  8
08002040_GEH_2LB
  6
Continuous
 62
     7
100
AcDbCircle
 10
437.4352586641
 20
324.0124136739
 30
0.0
 40
19.0
100
AcDbArc
 50
228.4084801706
 51
311.5915198294
  0
ARC
  5
F7
330
E4
100
AcDbEntity
  8
08002040_GEH_2LB
  6
Continuous
 62
     7
100
AcDbCircle
 10
437.4352586641
 20
324.0124136739
 30
0.0
 40
19.0
100
AcDbArc
 50
108.4084801706
 51
191.5915198294
  0
ARC
  5
F8
330
E4
100
AcDbEntity
  8
08002040_GEH_2LB
  6
Continuous
 62
     7
100
AcDbCircle
 10
437.4352586641
 20
324.0124136739
 30
0.0
 40
19.0
100
AcDbArc
 50
0.0
 51
71.5915198294
  0
LINE
  5
F9
330
E4
100
AcDbEntity
  8
08002040_GEH_2LB
  6
Continuous
 62
     7
100
AcDbLine
 10
413.1352586641
 20
343.0124136739
 30
0.0
 11
413.1352586641
 21
316.9110053628
 31
0.0
  0
LINE
  5
FA
330
E4
100
AcDbEntity
  8
08002040_GEH_2LB
  6
Continuous
 62
     7
100
AcDbLine
 10
431.4352586641
 20
343.0124136739
 30
0.0
 11
413.1352586641
 21
343.0124136739
 31
0.0
  0
LINE
  5
FB
330
E4
100
AcDbEntity
  8
08002040_GEH_2LB
  6
Continuous
 62
     7
100
AcDbLine
 10
416.5262933202
 20
305.0124136739
 30
0.0
 11
437.4352586641
 21
305.0124136739
 31
0.0
  0
ARC
  5
FC
330
E4
100
AcDbEntity
  8
$DDT_AUDIT_GENERATED_(9F)
  6
Continuous
 62
     7
100
AcDbCircle
 10
437.4352586641
 20
324.0124136739
 30
0.0
 40
14.85
100
AcDbArc
 50
353.8310078895
 51
0.0
  0
ARC
  5
FD
330
E4
100
AcDbEntity
  8
$DDT_AUDIT_GENERATED_(9F)
  6
Continuous
 62
     7
100
AcDbCircle
 10
437.4352586641
 20
324.0124136739
 30
0.0
 40
14.85
100
AcDbArc
 50
233.8310078895
 51
306.1689921105
  0
ARC
  5
FE
330
E4
100
AcDbEntity
  8
$DDT_AUDIT_GENERATED_(9F)
  6
Continuous
 62
     7
100
AcDbCircle
 10
437.4352586641
 20
324.0124136739
 30
0.0
 40
14.85
100
AcDbArc
 50
113.8310078895
 51
186.1689921105
  0
ARC
  5
FF
330
E4
100
AcDbEntity
  8
$DDT_AUDIT_GENERATED_(9F)
  6
Continuous
 62
     7
100
AcDbCircle
 10
437.4352586641
 20
324.0124136739
 30
0.0
 40
14.85
100
AcDbArc
 50
0.0
 51
66.1689921105
  0
CIRCLE
  5
100
330
E4
100
AcDbEntity
  8
$DDT_AUDIT_GENERATED_(A5)
  6
Continuous
 62
     7
100
AcDbCircle
 10
437.4352586641
 20
324.0124136739
 30
0.0
 40
9.75
  0
LINE
  5
101
330
E4
100
AcDbEntity
  8
$DDT_AUDIT_GENERATED_(A5)
  6
Continuous
 62
     7
100
AcDbLine
 10
442.9352586641
 20
361.5124136739
 30
0.0
 11
431.9352586641
 21
361.5124136739
 31
0.0
  0
LINE
  5
102
330
E4
100
AcDbEntity
  8
$DDT_AUDIT_GENERATED_(A5)
  6
Continuous
 62
     7
100
AcDbLine
 10
402.2093060221
 20
310.0255533947
 30
0.0
 11
407.7093060221
 21
300.4992739531
 31
0.0
  0
LINE
  5
103
330
E4
100
AcDbEntity
  8
$DDT_AUDIT_GENERATED_(A5)
  6
Continuous
 62
     7
100
AcDbLine
 10
467.161211306
 20
300.4992739531
 30
0.0
 11
472.661211306
 21
310.0255533947
 31
0.0
  0
LINE
  5
104
330
E4
100
AcDbEntity
  8
$DDT_AUDIT_GENERATED_(A5)
  6
Continuous
 62
     7
100
AcDbLine
 10
472.4781986041
 20
310.7085660966
 30
0.0
 11
447.09084842
 21
325.3659595593
 31
0.0
  0
LINE
  5
105
330
E4
100
AcDbEntity
  8
$DDT_AUDIT_GENERATED_(A5)
  6
Continuous
 62
     7
100
AcDbLine
 10
441.0945884471
 20
314.9714954083
 30
0.0
 11
466.4781986041
 21
300.3162612512
 31
0.0
  0
LINE
  5
106
330
E4
100
AcDbEntity
  8
$DDT_AUDIT_GENERATED_(A5)
  6
Continuous
 62
     7
100
AcDbLine
 10
408.392318724
 20
300.3162612512
 30
0.0
 11
433.7796689081
 21
314.9736547139
 31
0.0
  0
LINE
  5
107
330
E4
100
AcDbEntity
  8
$DDT_AUDIT_GENERATED_(A5)
  6
Continuous
 62
     7
100
AcDbLine
 10
427.775928881
 20
325.3638002537
 30
0.0
 11
402.392318724
 21
310.7085660966
 31
0.0
  0
LINE
  5
108
330
E4
100
AcDbEntity
  8
$DDT_AUDIT_GENERATED_(A5)
  6
Continuous
 62
     7
100
AcDbLine
 10
431.4352586641
 20
361.0124136739
 30
0.0
 11
431.4352586641
 21
331.6976267483
 31
0.0
  0
LINE
  5
109
330
E4
100
AcDbEntity
  8
$DDT_AUDIT_GENERATED_(A5)
  6
Continuous
 62
     7
100
AcDbLine
 10
443.4352586641
 20
331.7019453596
 30
0.0
 11
443.4352586641
 21
361.0124136739
 31
0.0
  0
ARC
  5
10A
330
E4
100
AcDbEntity
  8
$DDT_AUDIT_GENERATED_(A5)
  6
Continuous
 62
     7
100
AcDbCircle
 10
442.9352586641
 20
361.0124136739
 30
0.0
 40
0.5000000000000004
100
AcDbArc
 50
0.0
 51
90.0
  0
ARC
  5
10B
330
E4
100
AcDbEntity
  8
$DDT_AUDIT_GENERATED_(A5)
  6
Continuous
 62
     7
100
AcDbCircle
 10
431.9352586641
 20
361.0124136739
 30
0.0
 40
0.5000000000000004
100
AcDbArc
 50
90.0
 51
180.0
  0
ARC
  5
10C
330
E4
100
AcDbEntity
  8
$DDT_AUDIT_GENERATED_(A5)
  6
Continuous
 62
     7
100
AcDbCircle
 10
402.642318724
 20
310.2755533947
 30
0.0
 40
0.500000000000002
100
AcDbArc
 50
120.0
 51
210.0
  0
ARC
  5
10D
330
E4
100
AcDbEntity
  8
$DDT_AUDIT_GENERATED_(A5)
  6
Continuous
 62
     7
100
AcDbCircle
 10
408.142318724
 20
300.7492739531
 30
0.0
 40
0.500000000000002
100
AcDbArc
 50
210.0
 51
300.0
  0
ARC
  5
10E
330
E4
100
AcDbEntity
  8
$DDT_AUDIT_GENERATED_(A5)
  6
Continuous
 62
     7
100
AcDbCircle
 10
472.2281986041
 20
310.2755533947
 30
0.0
 40
0.500000000000002
100
AcDbArc
 50
330.0
 51
60.0
  0
ARC
  5
10F
330
E4
100
AcDbEntity
  8
$DDT_AUDIT_GENERATED_(A5)
  6
Continuous
 62
     7
100
AcDbCircle
 10
466.7281986041
 20
300.7492739531
 30
0.0
 40
0.500000000000002
100
AcDbArc
 50
240.0
 51
330.0
  0
LINE
  5
110
330
E4
100
AcDbEntity
  8
E08043
  6
Continuous
 62
     7
100
AcDbLine
 10
426.9671336641
 20
304.1744136739
 30
0.0
 11
447.9221336641
 21
304.1744136739
 31
0.0
  0
LINE
  5
111
330
E4
100
AcDbEntity
  8
E08043
  6
Continuous
 62
     7
100
AcDbLine
 10
428.1291336641
 20
303.0124136739
 30
0.0
 11
446.7601336641
 21
303.0124136739
 31
0.0
  0
LINE
  5
112
330
E4
100
AcDbEntity
  8
E08043
  6
Continuous
 62
     7
100
AcDbLine
 10
447.9221336641
 20
304.1744136739
 30
0.0
 11
447.9221336641
 21
308.1686308953
 31
0.0
  0
LINE
  5
113
330
E4
100
AcDbEntity
  8
E08043
  6
Continuous
 62
     7
100
AcDbLine
 10
426.9671336641
 20
305.0124136739
 30
0.0
 11
426.9671336641
 21
304.1744136739
 31
0.0
  0
LINE
  5
114
330
E4
100
AcDbEntity
  8
E08043
  6
Continuous
 62
     7
100
AcDbLine
 10
426.9671336641
 20
304.1744136739
 30
0.0
 11
428.1291336641
 21
303.0124136739
 31
0.0
  0
LINE
  5
115
330
E4
100
AcDbEntity
  8
E08043
  6
Continuous
 62
     7
100
AcDbLine
 10
446.7601336641
 20
303.0124136739
 30
0.0
 11
447.9221336641
 21
304.1744136739
 31
0.0
  0
LINE
  5
117
330
E4
100
AcDbEntity
  8
05941038_HUELSE_
  6
Continuous
 62
     7
100
AcDbLine
 10
413.1352586641
 20
339.5124136739
 30
0.0
 11
378.0352586641
 21
339.5124136739
 31
0.0
  0
LINE
  5
118
330
E4
100
AcDbEntity
  8
05941038_HUELSE_
  6
Continuous
 62
     7
100
AcDbLine
 10
378.0352586641
 20
308.5124136739
 30
0.0
 11
403.0829176473
 21
308.5124136739
 31
0.0
  0
ENDBLK
  5
11A
330
E4
100
AcDbEntity
  8
0
100
AcDbBlockEnd
  0
BLOCK
  5
189
330
11B
100
AcDbEntity
  8
0
100
AcDbBlockBegin
  2
SE2
 70
     0
 10
0.0
 20
0.0
 30
0.0
  3
SE2
  1

  0
LINE
  5
11D
330
11B
100
AcDbEntity
  8
08041038_ROSETTE
  6
Continuous
 62
     7
100
AcDbLine
 10
110.05
 20
229.04293994
 30
0.0
 11
41.05
 21
229.04293994
 31
0.0
  0
LINE
  5
11E
330
11B
100
AcDbEntity
  8
08041038_ROSETTE
  6
Continuous
 62
     7
100
AcDbLine
 10
109.55
 20
214.04293994
 30
0.0
 11
41.55
 21
214.04293994
 31
0.0
  0
LINE
  5
11F
330
11B
100
AcDbEntity
  8
08041038_ROSETTE
  6
Continuous
 62
     7
100
AcDbLine
 10
96.55
 20
201.04293994
 30
0.0
 11
54.55
 21
201.04293994
 31
0.0
  0
LINE
  5
120
330
11B
100
AcDbEntity
  8
08041038_ROSETTE
  6
Continuous
 62
     7
100
AcDbLine
 10
40.55
 20
228.54293994
 30
0.0
 11
40.55
 21
215.04293994
 31
0.0
  0
LINE
  5
121
330
11B
100
AcDbEntity
  8
08041038_ROSETTE
  6
Continuous
 62
     7
100
AcDbLine
 10
110.55
 20
215.04293994
 30
0.0
 11
110.55
 21
228.54293994
 31
0.0
  0
LINE
  5
122
330
11B
100
AcDbEntity
  8
08041038_ROSETTE
  6
Continuous
 62
     7
100
AcDbLine
 10
53.55
 20
213.04293994
 30
0.0
 11
53.55
 21
202.04293994
 31
0.0
  0
LINE
  5
123
330
11B
100
AcDbEntity
  8
08041038_ROSETTE
  6
Continuous
 62
     7
100
AcDbLine
 10
97.55
 20
202.04293994
 30
0.0
 11
97.55
 21
213.04293994
 31
0.0
  0
ARC
  5
124
330
11B
100
AcDbEntity
  8
08041038_ROSETTE
  6
Continuous
 62
     7
100
AcDbCircle
 10
41.05
 20
228.54293994
 30
0.0
 40
0.5000000000000002
100
AcDbArc
 50
90.0
 51
180.0
  0
ARC
  5
125
330
11B
100
AcDbEntity
  8
08041038_ROSETTE
  6
Continuous
 62
     7
100
AcDbCircle
 10
110.05
 20
228.54293994
 30
0.0
 40
0.5000000000000004
100
AcDbArc
 50
0.0
 51
90.0
  0
ARC
  5
126
330
11B
100
AcDbEntity
  8
08041038_ROSETTE
  6
Continuous
 62
     7
100
AcDbCircle
 10
41.55
 20
215.04293994
 30
0.0
 40
1.000000000000001
100
AcDbArc
 50
180.0
 51
270.0
  0
ARC
  5
127
330
11B
100
AcDbEntity
  8
08041038_ROSETTE
  6
Continuous
 62
     7
100
AcDbCircle
 10
109.55
 20
215.04293994
 30
0.0
 40
1.000000000000001
100
AcDbArc
 50
270.0
 51
0.0
  0
ARC
  5
128
330
11B
100
AcDbEntity
  8
08041038_ROSETTE
  6
Continuous
 62
     7
100
AcDbCircle
 10
54.55
 20
202.04293994
 30
0.0
 40
1.000000000000001
100
AcDbArc
 50
180.0
 51
270.0
  0
ARC
  5
129
330
11B
100
AcDbEntity
  8
08041038_ROSETTE
  6
Continuous
 62
     7
100
AcDbCircle
 10
96.55
 20
202.04293994
 30
0.0
 40
1.000000000000001
100
AcDbArc
 50
270.0
 51
0.0
  0
ARC
  5
12A
330
11B
100
AcDbEntity
  8
08041038_ROSETTE
  6
Continuous
 62
     7
100
AcDbCircle
 10
52.55
 20
213.04293994
 30
0.0
 40
1.000000000000001
100
AcDbArc
 50
0.0
 51
90.0
  0
ARC
  5
12B
330
11B
100
AcDbEntity
  8
08041038_ROSETTE
  6
Continuous
 62
     7
100
AcDbCircle
 10
98.55
 20
213.04293994
 30
0.0
 40
1.000000000000001
100
AcDbArc
 50
90.0
 51
180.0
  0
LINE
  5
12C
330
11B
100
AcDbEntity
  8
08041038_ROSETTE
  6
Continuous
 62
     7
100
AcDbLine
 10
191.05
 20
229.04293994
 30
0.0
 11
260.05
 21
229.04293994
 31
0.0
  0
LINE
  5
12D
330
11B
100
AcDbEntity
  8
08041038_ROSETTE
  6
Continuous
 62
     7
100
AcDbLine
 10
191.55
 20
214.04293994
 30
0.0
 11
259.55
 21
214.04293994
 31
0.0
  0
LINE
  5
12E
330
11B
100
AcDbEntity
  8
08041038_ROSETTE
  6
Continuous
 62
     7
100
AcDbLine
 10
204.55
 20
201.04293994
 30
0.0
 11
246.55
 21
201.04293994
 31
0.0
  0
LINE
  5
12F
330
11B
100
AcDbEntity
  8
08041038_ROSETTE
  6
Continuous
 62
     7
100
AcDbLine
 10
190.55
 20
228.54293994
 30
0.0
 11
190.55
 21
215.04293994
 31
0.0
  0
LINE
  5
130
330
11B
100
AcDbEntity
  8
08041038_ROSETTE
  6
Continuous
 62
     7
100
AcDbLine
 10
260.55
 20
215.04293994
 30
0.0
 11
260.55
 21
228.54293994
 31
0.0
  0
LINE
  5
131
330
11B
100
AcDbEntity
  8
08041038_ROSETTE
  6
Continuous
 62
     7
100
AcDbLine
 10
203.55
 20
213.04293994
 30
0.0
 11
203.55
 21
202.04293994
 31
0.0
  0
LINE
  5
132
330
11B
100
AcDbEntity
  8
08041038_ROSETTE
  6
Continuous
 62
     7
100
AcDbLine
 10
247.55
 20
202.04293994
 30
0.0
 11
247.55
 21
213.04293994
 31
0.0
  0
ARC
  5
133
330
11B
100
AcDbEntity
  8
08041038_ROSETTE
  6
Continuous
 62
     7
100
AcDbCircle
 10
191.05
 20
228.54293994
 30
0.0
 40
0.5000000000000002
100
AcDbArc
 50
90.0
 51
180.0
  0
ARC
  5
134
330
11B
100
AcDbEntity
  8
08041038_ROSETTE
  6
Continuous
 62
     7
100
AcDbCircle
 10
260.05
 20
228.54293994
 30
0.0
 40
0.5000000000000004
100
AcDbArc
 50
0.0
 51
90.0
  0
ARC
  5
135
330
11B
100
AcDbEntity
  8
08041038_ROSETTE
  6
Continuous
 62
     7
100
AcDbCircle
 10
191.55
 20
215.04293994
 30
0.0
 40
1.000000000000001
100
AcDbArc
 50
180.0
 51
270.0
  0
ARC
  5
136
330
11B
100
AcDbEntity
  8
08041038_ROSETTE
  6
Continuous
 62
     7
100
AcDbCircle
 10
259.55
 20
215.04293994
 30
0.0
 40
1.000000000000001
100
AcDbArc
 50
270.0
 51
0.0
  0
ARC
  5
137
330
11B
100
AcDbEntity
  8
08041038_ROSETTE
  6
Continuous
 62
     7
100
AcDbCircle
 10
204.55
 20
202.04293994
 30
0.0
 40
1.000000000000001
100
AcDbArc
 50
180.0
 51
270.0
  0
ARC
  5
138
330
11B
100
AcDbEntity
  8
08041038_ROSETTE
  6
Continuous
 62
     7
100
AcDbCircle
 10
246.55
 20
202.04293994
 30
0.0
 40
1.000000000000001
100
AcDbArc
 50
270.0
 51
0.0
  0
ARC
  5
139
330
11B
100
AcDbEntity
  8
08041038_ROSETTE
  6
Continuous
 62
     7
100
AcDbCircle
 10
202.55
 20
213.04293994
 30
0.0
 40
1.000000000000001
100
AcDbArc
 50
0.0
 51
90.0
  0
ARC
  5
13A
330
11B
100
AcDbEntity
  8
08041038_ROSETTE
  6
Continuous
 62
     7
100
AcDbCircle
 10
248.55
 20
213.04293994
 30
0.0
 40
1.000000000000001
100
AcDbArc
 50
90.0
 51
180.0
  0
LINE
  5
13B
330
11B
100
AcDbEntity
  8
08002040_GEH_2LB
  6
Continuous
 62
     7
100
AcDbLine
 10
33.55
 20
160.64293994
 30
0.0
 11
33.55
 21
122.64293994
 31
0.0
  0
LINE
  5
13C
330
11B
100
AcDbEntity
  8
08002040_GEH_2LB
  6
Continuous
 62
     7
100
AcDbLine
 10
267.55
 20
160.64293994
 30
0.0
 11
267.55
 21
122.64293994
 31
0.0
  0
LINE
  5
13D
330
11B
100
AcDbEntity
  8
08002040_GEH_2LB
  6
Continuous
 62
     7
100
AcDbLine
 10
225.55
 20
141.64293994
 30
0.0
 11
206.55
 21
160.64293994
 31
0.0
  0
LINE
  5
13E
330
11B
100
AcDbEntity
  8
08002040_GEH_2LB
  6
Continuous
 62
     7
100
AcDbLine
 10
225.55
 20
141.64293994
 30
0.0
 11
244.55
 21
160.64293994
 31
0.0
  0
LINE
  5
13F
330
11B
100
AcDbEntity
  8
08002040_GEH_2LB
  6
Continuous
 62
     7
100
AcDbLine
 10
244.55
 20
165.94293994
 30
0.0
 11
206.55
 21
165.94293994
 31
0.0
  0
LINE
  5
140
330
11B
100
AcDbEntity
  8
08002040_GEH_2LB
  6
Continuous
 62
     7
100
AcDbLine
 10
75.55
 20
141.64293994
 30
0.0
 11
56.55
 21
160.64293994
 31
0.0
  0
LINE
  5
141
330
11B
100
AcDbEntity
  8
08002040_GEH_2LB
  6
Continuous
 62
     7
100
AcDbLine
 10
75.55
 20
141.64293994
 30
0.0
 11
94.55
 21
160.64293994
 31
0.0
  0
LINE
  5
142
330
11B
100
AcDbEntity
  8
08002040_GEH_2LB
  6
Continuous
 62
     7
100
AcDbLine
 10
94.55
 20
165.94293994
 30
0.0
 11
56.55
 21
165.94293994
 31
0.0
  0
LINE
  5
143
330
11B
100
AcDbEntity
  8
08002040_GEH_2LB
  6
Continuous
 62
     7
100
AcDbLine
 10
56.55
 20
160.64293994
 30
0.0
 11
33.55
 21
160.64293994
 31
0.0
  0
LINE
  5
144
330
11B
100
AcDbEntity
  8
08002040_GEH_2LB
  6
Continuous
 62
     7
100
AcDbLine
 10
206.55
 20
160.64293994
 30
0.0
 11
94.55
 21
160.64293994
 31
0.0
  0
LINE
  5
145
330
11B
100
AcDbEntity
  8
08002040_GEH_2LB
  6
Continuous
 62
     7
100
AcDbLine
 10
267.55
 20
160.64293994
 30
0.0
 11
244.55
 21
160.64293994
 31
0.0
  0
LINE
  5
146
330
11B
100
AcDbEntity
  8
08002040_GEH_2LB
  6
Continuous
 62
     7
100
AcDbLine
 10
33.55
 20
122.64293994
 30
0.0
 11
267.55
 21
122.64293994
 31
0.0
  0
LINE
  5
147
330
11B
100
AcDbEntity
  8
08002040_GEH_2LB
  6
Continuous
 62
     7
100
AcDbLine
 10
244.55
 20
160.64293994
 30
0.0
 11
244.55
 21
165.94293994
 31
0.0
  0
LINE
  5
148
330
11B
100
AcDbEntity
  8
08002040_GEH_2LB
  6
Continuous
 62
     7
100
AcDbLine
 10
206.55
 20
165.94293994
 30
0.0
 11
206.55
 21
160.64293994
 31
0.0
  0
LINE
  5
149
330
11B
100
AcDbEntity
  8
08002040_GEH_2LB
  6
Continuous
 62
     7
100
AcDbLine
 10
94.55
 20
160.64293994
 30
0.0
 11
94.55
 21
165.94293994
 31
0.0
  0
LINE
  5
14A
330
11B
100
AcDbEntity
  8
08002040_GEH_2LB
  6
Continuous
 62
     7
100
AcDbLine
 10
56.55
 20
165.94293994
 30
0.0
 11
56.55
 21
160.64293994
 31
0.0
  0
LINE
  5
14B
330
11B
100
AcDbEntity
  8
05941038_HUELSE_
  6
Continuous
 62
     7
100
AcDbLine
 10
241.05
 20
165.94293994
 30
0.0
 11
241.05
 21
201.04293994
 31
0.0
  0
LINE
  5
14C
330
11B
100
AcDbEntity
  8
05941038_HUELSE_
  6
Continuous
 62
     7
100
AcDbLine
 10
210.05
 20
201.04293994
 30
0.0
 11
210.05
 21
165.94293994
 31
0.0
  0
LINE
  5
14D
330
11B
100
AcDbEntity
  8
$DDT_AUDIT_GENERATED_(9F)
  6
Continuous
 62
     7
100
AcDbLine
 10
29.55
 20
155.99293994
 30
0.0
 11
29.55
 21
127.29293994
 31
0.0
  0
LINE
  5
14E
330
11B
100
AcDbEntity
  8
$DDT_AUDIT_GENERATED_(9F)
  6
Continuous
 62
     7
100
AcDbLine
 10
33.55
 20
156.49293994
 30
0.0
 11
30.05
 21
156.49293994
 31
0.0
  0
LINE
  5
14F
330
11B
100
AcDbEntity
  8
$DDT_AUDIT_GENERATED_(9F)
  6
Continuous
 62
     7
100
AcDbLine
 10
30.05
 20
126.79293994
 30
0.0
 11
33.55
 21
126.79293994
 31
0.0
  0
ARC
  5
150
330
11B
100
AcDbEntity
  8
$DDT_AUDIT_GENERATED_(9F)
  6
Continuous
 62
     7
100
AcDbCircle
 10
30.05
 20
155.99293994
 30
0.0
 40
0.5000000000000004
100
AcDbArc
 50
90.0
 51
180.0
  0
ARC
  5
151
330
11B
100
AcDbEntity
  8
$DDT_AUDIT_GENERATED_(9F)
  6
Continuous
 62
     7
100
AcDbCircle
 10
30.05
 20
127.29293994
 30
0.0
 40
0.5000000000000004
100
AcDbArc
 50
180.0
 51
270.0
  0
LINE
  5
152
330
11B
100
AcDbEntity
  8
$DDT_AUDIT_GENERATED_(A5)
  6
Continuous
 62
     7
100
AcDbLine
 10
29.35
 20
151.39293994
 30
0.0
 11
29.35
 21
131.89293994
 31
0.0
  0
SPLINE
  5
153
330
11B
100
AcDbEntity
  8
$DDT_AUDIT_GENERATED_(A5)
  6
Continuous
 62
     7
100
AcDbSpline
210
0.0
220
0.0
230
1.0
 70
     8
 71
     3
 72
     8
 73
     4
 74
     0
 42
0.0000000002822023
 43
0.0000000001
 40
0.0
 40
0.0
 40
0.0
 40
0.0
 40
0.0984565339952466
 40
0.0984565339952466
 40
0.0984565339952466
 40
0.0984565339952466
 10
13.850000000005
 20
131.9873501840372
 30
0.0
 10
12.56465585047678
 20
131.9873501840372
 30
0.0
 10
11.35048088459414
 20
131.8912403949641
 30
0.0
 10
10.36493479431844
 20
131.892292193557
 30
0.0
  0
SPLINE
  5
154
330
11B
100
AcDbEntity
  8
$DDT_AUDIT_GENERATED_(A5)
  6
Continuous
 62
     7
100
AcDbSpline
210
0.0
220
0.0
230
1.0
 70
     8
 71
     3
 72
    10
 73
     6
 74
     0
 42
0.0000000002806797
 43
0.0000000001
 40
0.9023151690163091
 40
0.9023151690163091
 40
0.9023151690163091
 40
0.9023151690163091
 40
0.9374999999999999
 40
0.9374999999999999
 40
1.0
 40
1.0
 40
1.0
 40
1.0
 10
17.32838303479497
 20
131.8930533502945
 30
0.0
 10
16.97734986532162
 20
131.8935544049465
 30
0.0
 10
16.59748555839935
 20
131.9067334956564
 30
0.0
 10
15.46874754602664
 20
131.9524222431724
 30
0.0
 10
14.66593375356764
 20
131.9873501840372
 30
0.0
 10
13.850000000005
 20
131.9873501840372
 30
0.0
  0
SPLINE
  5
155
330
11B
100
AcDbEntity
  8
$DDT_AUDIT_GENERATED_(A5)
  6
Continuous
 62
     7
100
AcDbSpline
210
0.0
220
0.0
230
1.0
 70
     8
 71
     3
 72
    12
 73
     8
 74
     0
 42
0.0000000002817549
 43
0.0000000001
 40
0.4022822089976056
 40
0.4022822089976056
 40
0.4022822089976056
 40
0.4022822089976056
 40
0.4375000000000002
 40
0.4375000000000002
 40
0.5000000000000002
 40
0.5000000000000002
 40
0.5987838826946918
 40
0.5987838826946918
 40
0.5987838826946918
 40
0.5987838826946918
 10
17.33682259524469
 20
151.3927154129777
 30
0.0
 10
16.98586787162626
 20
151.3924229182014
 30
0.0
 10
16.60641735547341
 20
151.3794618733144
 30
0.0
 10
15.49101307696091
 20
151.3344385291027
 30
0.0
 10
14.69017067952058
 20
151.2991308308149
 30
0.0
 10
12.58591739638207
 20
151.2976027583215
 30
0.0
 10
11.36250590293522
 20
151.3949021243917
 30
0.0
 10
10.36838741021301
 20
151.3937557059089
 30
0.0
  0
LINE
  5
156
330
11B
100
AcDbEntity
  8
$DDT_AUDIT_GENERATED_(A5)
  6
Continuous
 62
     7
100
AcDbLine
 10
6.35
 20
150.89293994
 30
0.0
 11
6.35
 21
132.39293994
 31
0.0
  0
CIRCLE
  5
157
330
11B
100
AcDbEntity
  8
$DDT_AUDIT_GENERATED_(A5)
  6
Continuous
 62
     7
100
AcDbCircle
 10
13.85
 20
141.64293994
 30
0.0
 40
6.0
  0
ELLIPSE
  5
158
330
11B
100
AcDbEntity
  8
$DDT_AUDIT_GENERATED_(A5)
  6
Continuous
 62
     7
100
AcDbEllipse
 10
13.85
 20
173.68587988
 30
0.0
 11
-6.000000000000005
 21
0.0
 31
0.0
210
0.0
220
0.0
230
1.0
 40
0.5
 41
0.0
 42
0.0122946798071087
  0
ELLIPSE
  5
159
330
11B
100
AcDbEntity
  8
$DDT_AUDIT_GENERATED_(A5)
  6
Continuous
 62
     7
100
AcDbEllipse
 10
13.85
 20
109.6
 30
0.0
 11
-6.000000000000005
 21
0.0
 31
0.0
210
0.0
220
0.0
230
1.0
 40
0.5
 41
3.141592653589793
 42
3.153887333397669
  0
LINE
  5
15A
330
11B
100
AcDbEntity
  8
$DDT_AUDIT_GENERATED_(A5)
  6
Continuous
 62
     7
100
AcDbLine
 10
19.85
 20
109.6
 30
0.0
 11
19.85
 21
131.89293994
 31
0.0
  0
LINE
  5
15B
330
11B
100
AcDbEntity
  8
$DDT_AUDIT_GENERATED_(A5)
  6
Continuous
 62
     7
100
AcDbLine
 10
7.85
 20
131.89293994
 30
0.0
 11
7.85
 21
109.6
 31
0.0
  0
LINE
  5
15C
330
11B
100
AcDbEntity
  8
$DDT_AUDIT_GENERATED_(A5)
  6
Continuous
 62
     7
100
AcDbLine
 10
7.85
 20
173.68587988
 30
0.0
 11
7.85
 21
151.39293994
 31
0.0
  0
LINE
  5
15D
330
11B
100
AcDbEntity
  8
$DDT_AUDIT_GENERATED_(A5)
  6
Continuous
 62
     7
100
AcDbLine
 10
19.85
 20
151.39293994
 30
0.0
 11
19.85
 21
173.68587988
 31
0.0
  0
LINE
  5
15E
330
11B
100
AcDbEntity
  8
$DDT_AUDIT_GENERATED_(A5)
  6
Continuous
 62
     7
100
AcDbLine
 10
17.3146169743
 20
131.89293994
 30
0.0
 11
29.35
 21
131.89293994
 31
0.0
  0
LINE
  5
15F
330
11B
100
AcDbEntity
  8
$DDT_AUDIT_GENERATED_(A5)
  6
Continuous
 62
     7
100
AcDbLine
 10
6.85
 20
131.89293994
 30
0.0
 11
10.3719321159
 21
131.89293994
 31
0.0
  0
LINE
  5
160
330
11B
100
AcDbEntity
  8
$DDT_AUDIT_GENERATED_(A5)
  6
Continuous
 62
     7
100
AcDbLine
 10
10.3777020211
 20
151.39293994
 30
0.0
 11
6.85
 21
151.39293994
 31
0.0
  0
LINE
  5
161
330
11B
100
AcDbEntity
  8
$DDT_AUDIT_GENERATED_(A5)
  6
Continuous
 62
     7
100
AcDbLine
 10
29.35
 20
151.39293994
 30
0.0
 11
17.3292855391
 21
151.39293994
 31
0.0
  0
ARC
  5
162
330
11B
100
AcDbEntity
  8
$DDT_AUDIT_GENERATED_(A5)
  6
Continuous
 62
     7
100
AcDbCircle
 10
6.85
 20
150.89293994
 30
0.0
 40
0.5000000000000004
100
AcDbArc
 50
90.0
 51
180.0
  0
ARC
  5
163
330
11B
100
AcDbEntity
  8
$DDT_AUDIT_GENERATED_(A5)
  6
Continuous
 62
     7
100
AcDbCircle
 10
6.85
 20
132.39293994
 30
0.0
 40
0.4999999999975024
100
AcDbArc
 50
180.0
 51
270.0
  0
SPLINE
  5
164
330
11B
100
AcDbEntity
  8
$DDT_AUDIT_GENERATED_(A5)
  6
Continuous
 62
     7
100
AcDbSpline
210
0.0
220
0.0
230
1.0
 70
     8
 71
     3
 72
    20
 73
    16
 74
     0
 42
0.000000001330831
 43
0.0000000001
 40
0.0
 40
0.0
 40
0.0
 40
0.0
 40
0.0385602578524074
 40
0.1136485122222554
 40
0.1889558193778904
 40
0.2662589310431854
 40
0.3463759236155105
 40
0.428867578295313
 40
0.5126067712818199
 40
0.5965561761786825
 40
0.6802390790609228
 40
0.763593503653744
 40
0.8466704513671954
 40
0.9295550913124138
 40
1.0
 40
1.0
 40
1.0
 40
1.0
 10
19.83644805527754
 20
173.6337459600979
 30
0.0
 10
19.84178235448017
 20
173.7148761444068
 30
0.0
 10
19.85340695500812
 20
173.9182435442058
 30
0.0
 10
19.76737306626905
 20
174.2854767398452
 30
0.0
 10
19.58844161023268
 20
174.6919988685188
 30
0.0
 10
19.31451436818368
 20
175.0811061956901
 30
0.0
 10
18.95189146900597
 20
175.4463533131181
 30
0.0
 10
18.50069482919328
 20
175.7842225027144
 30
0.0
 10
17.96852379516625
 20
176.0873863860734
 30
0.0
 10
17.36645256922778
 20
176.3497203491644
 30
0.0
 10
16.70760142929559
 20
176.5668658681561
 30
0.0
 10
16.00206381778466
 20
176.7365275298537
 30
0.0
 10
15.26837748342472
 20
176.8558818669261
 30
0.0
 10
14.53076895292041
 20
176.9242459321154
 30
0.0
 10
14.08965050436292
 20
176.932473070576
 30
0.0
 10
13.850000000005
 20
176.9358798800486
 30
0.0
  0
SPLINE
  5
165
330
11B
100
AcDbEntity
  8
$DDT_AUDIT_GENERATED_(A5)
  6
Continuous
 62
     7
100
AcDbSpline
210
0.0
220
0.0
230
1.0
 70
     8
 71
     3
 72
    20
 73
    16
 74
     0
 42
0.0000000013317202
 43
0.0000000001
 40
0.0
 40
0.0
 40
0.0
 40
0.0
 40
0.0437401709450386
 40
0.1265786947018641
 40
0.2095453772576702
 40
0.2926937169125937
 40
0.3761278841731974
 40
0.459957766180823
 40
0.5442812049699675
 40
0.6291244224305418
 40
0.7142346820411034
 40
0.7985911580509483
 40
0.8807135035660874
 40
0.9595562100986347
 40
1.0
 40
1.0
 40
1.0
 40
1.0
 10
13.850000000005
 20
176.9358798800486
 30
0.0
 10
13.70132574836278
 20
176.9345693309451
 30
0.0
 10
13.3357268379212
 20
176.9301647447311
 30
0.0
 10
12.67568630691726
 20
176.8841102483676
 30
0.0
 10
11.93571291364112
 20
176.7811078641466
 30
0.0
 10
11.21926800051284
 20
176.627846912368
 30
0.0
 10
10.54585090341117
 20
176.4266516355925
 30
0.0
 10
9.923519333556591
 20
176.1789686532047
 30
0.0
 10
9.362683280565415
 20
175.886526569135
 30
0.0
 10
8.872793533331286
 20
175.5508203718825
 30
0.0
 10
8.465299712986567
 20
175.1748107795642
 30
0.0
 10
8.150219831354304
 20
174.7622123366999
 30
0.0
 10
7.944854775745941
 20
174.3283777983068
 30
0.0
 10
7.848162634433248
 20
173.9381657825137
 30
0.0
 10
7.858364438084159
 20
173.7248494983802
 30
0.0
 10
7.863209003954569
 20
173.6398080399539
 30
0.0
  0
SPLINE
  5
166
330
11B
100
AcDbEntity
  8
$DDT_AUDIT_GENERATED_(A5)
  6
Continuous
 62
     7
100
AcDbSpline
210
0.0
220
0.0
230
1.0
 70
     8
 71
     3
 72
    20
 73
    16
 74
     0
 42
0.000000001330831
 43
0.0000000001
 40
0.0
 40
0.0
 40
0.0
 40
0.0
 40
0.0385602578523993
 40
0.1136485122222478
 40
0.1889558193778819
 40
0.2662589310431764
 40
0.3463759236154998
 40
0.4288675782953048
 40
0.5126067712818092
 40
0.5965561761786735
 40
0.6802390790609072
 40
0.763593503653732
 40
0.8466704513671804
 40
0.929555091312399
 40
1.0
 40
1.0
 40
1.0
 40
1.0
 10
7.8635519447324
 20
109.6521339199508
 30
0.0
 10
7.858217645529769
 20
109.5710037356419
 30
0.0
 10
7.84659304500182
 20
109.367636335843
 30
0.0
 10
7.932626933740888
 20
109.0004031402035
 30
0.0
 10
8.111558389777256
 20
108.5938810115299
 30
0.0
 10
8.385485631826201
 20
108.2047736843587
 30
0.0
 10
8.748108531003856
 20
107.8395265669308
 30
0.0
 10
9.199305170816713
 20
107.5016573773344
 30
0.0
 10
9.731476204843743
 20
107.1984934939754
 30
0.0
 10
10.3335474307821
 20
106.9361595308844
 30
0.0
 10
10.99239857071418
 20
106.7190140118925
 30
0.0
 10
11.69793618222523
 20
106.5493523501951
 30
0.0
 10
12.43162251658511
 20
106.4299980131226
 30
0.0
 10
13.16923104708942
 20
106.3616339479333
 30
0.0
 10
13.61034949564702
 20
106.3534068094727
 30
0.0
 10
13.850000000005
 20
106.3500000000001
 30
0.0
  0
SPLINE
  5
167
330
11B
100
AcDbEntity
  8
$DDT_AUDIT_GENERATED_(A5)
  6
Continuous
 62
     7
100
AcDbSpline
210
0.0
220
0.0
230
1.0
 70
     8
 71
     3
 72
    20
 73
    16
 74
     0
 42
0.0000000013317202
 43
0.0000000001
 40
0.0
 40
0.0
 40
0.0
 40
0.0
 40
0.0437401709450388
 40
0.1265786947018492
 40
0.2095453772576552
 40
0.2926937169125782
 40
0.3761278841731878
 40
0.4599577661808134
 40
0.5442812049699571
 40
0.6291244224305329
 40
0.7142346820410947
 40
0.7985911580509393
 40
0.880713503566081
 40
0.9595562100986281
 40
1.0
 40
1.0
 40
1.0
 40
1.0
 10
13.850000000005
 20
106.3500000000001
 30
0.0
 10
13.99867425164716
 20
106.3513105491036
 30
0.0
 10
14.36427316208869
 20
106.3557151353177
 30
0.0
 10
15.02431369309257
 20
106.401769631681
 30
0.0
 10
15.76428708636887
 20
106.5047720159021
 30
0.0
 10
16.48073199949699
 20
106.6580329676806
 30
0.0
 10
17.15414909659876
 20
106.8592282444562
 30
0.0
 10
17.77648066645329
 20
107.106911226844
 30
0.0
 10
18.33731671944447
 20
107.3993533109136
 30
0.0
 10
18.82720646667838
 20
107.7350595081662
 30
0.0
 10
19.23470028702354
 20
108.1110691004844
 30
0.0
 10
19.54978016865558
 20
108.5236675433488
 30
0.0
 10
19.755145224264
 20
108.9575020817417
 30
0.0
 10
19.85183736557664
 20
109.3477140975349
 30
0.0
 10
19.84163556192578
 20
109.5610303816685
 30
0.0
 10
19.83679099605537
 20
109.6460718400948
 30
0.0
  0
LINE
  5
168
330
11B
100
AcDbEntity
  8
$DDT_AUDIT_GENERATED_(BC)
  6
Continuous
 62
     7
100
AcDbLine
 10
29.35
 20
132.757299294
 30
0.0
 11
29.55
 21
132.757299294
 31
0.0
  0
LINE
  5
169
330
11B
100
AcDbEntity
  8
$DDT_AUDIT_GENERATED_(BC)
  6
Continuous
 62
     7
100
AcDbLine
 10
29.55
 20
150.528580586
 30
0.0
 11
29.35
 21
150.528580586
 31
0.0
  0
LINE
  5
16A
330
11B
100
AcDbEntity
  8
05941038_HUELSE_
  6
Continuous
 62
     7
100
AcDbLine
 10
91.05
 20
165.94293994
 30
0.0
 11
91.05
 21
201.04293994
 31
0.0
  0
LINE
  5
16B
330
11B
100
AcDbEntity
  8
05941038_HUELSE_
  6
Continuous
 62
     7
100
AcDbLine
 10
60.05
 20
201.04293994
 30
0.0
 11
60.05
 21
165.94293994
 31
0.0
  0
LINE
  5
16C
330
11B
100
AcDbEntity
  8
$DDT_AUDIT_GENERATED_(9F)
  6
Continuous
 62
     7
100
AcDbLine
 10
271.55
 20
155.99293994
 30
0.0
 11
271.55
 21
127.29293994
 31
0.0
  0
LINE
  5
16D
330
11B
100
AcDbEntity
  8
$DDT_AUDIT_GENERATED_(9F)
  6
Continuous
 62
     7
100
AcDbLine
 10
267.55
 20
126.79293994
 30
0.0
 11
271.05
 21
126.79293994
 31
0.0
  0
LINE
  5
16E
330
11B
100
AcDbEntity
  8
$DDT_AUDIT_GENERATED_(9F)
  6
Continuous
 62
     7
100
AcDbLine
 10
271.05
 20
156.49293994
 30
0.0
 11
267.55
 21
156.49293994
 31
0.0
  0
ARC
  5
16F
330
11B
100
AcDbEntity
  8
$DDT_AUDIT_GENERATED_(9F)
  6
Continuous
 62
     7
100
AcDbCircle
 10
271.05
 20
127.29293994
 30
0.0
 40
0.5000000000000004
100
AcDbArc
 50
270.0
 51
0.0
  0
ARC
  5
170
330
11B
100
AcDbEntity
  8
$DDT_AUDIT_GENERATED_(9F)
  6
Continuous
 62
     7
100
AcDbCircle
 10
271.05
 20
155.99293994
 30
0.0
 40
0.5000000000000004
100
AcDbArc
 50
0.0
 51
90.0
  0
LINE
  5
171
330
11B
100
AcDbEntity
  8
$DDT_AUDIT_GENERATED_(A5)
  6
Continuous
 62
     7
100
AcDbLine
 10
271.75
 20
151.39293994
 30
0.0
 11
271.75
 21
131.89293994
 31
0.0
  0
SPLINE
  5
172
330
11B
100
AcDbEntity
  8
$DDT_AUDIT_GENERATED_(A5)
  6
Continuous
 62
     7
100
AcDbSpline
210
0.0
220
0.0
230
1.0
 70
     8
 71
     3
 72
     8
 73
     4
 74
     0
 42
0.0000000002822023
 43
0.0000000001
 40
0.0
 40
0.0
 40
0.0
 40
0.0
 40
0.098456533995238
 40
0.098456533995238
 40
0.098456533995238
 40
0.098456533995238
 10
287.250000000005
 20
151.2985296960114
 30
0.0
 10
285.9646558504769
 20
151.2985296960114
 30
0.0
 10
284.7504808845944
 20
151.3946394850845
 30
0.0
 10
283.7649347943187
 20
151.3935876864916
 30
0.0
  0
SPLINE
  5
173
330
11B
100
AcDbEntity
  8
$DDT_AUDIT_GENERATED_(A5)
  6
Continuous
 62
     7
100
AcDbSpline
210
0.0
220
0.0
230
1.0
 70
     8
 71
     3
 72
    10
 73
     6
 74
     0
 42
0.0000000002806797
 43
0.0000000001
 40
0.9023151690163181
 40
0.9023151690163181
 40
0.9023151690163181
 40
0.9023151690163181
 40
0.9375000000000001
 40
0.9375000000000001
 40
1.0
 40
1.0
 40
1.0
 40
1.0
 10
290.7283830347948
 20
151.3928265297541
 30
0.0
 10
290.3773498653215
 20
151.3923254751021
 30
0.0
 10
289.9974855583993
 20
151.3791463843922
 30
0.0
 10
288.8687475460267
 20
151.3334576368762
 30
0.0
 10
288.0659337535677
 20
151.2985296960114
 30
0.0
 10
287.250000000005
 20
151.2985296960114
 30
0.0
  0
SPLINE
  5
174
330
11B
100
AcDbEntity
  8
$DDT_AUDIT_GENERATED_(A5)
  6
Continuous
 62
     7
100
AcDbSpline
210
0.0
220
0.0
230
1.0
 70
     8
 71
     3
 72
    12
 73
     8
 74
     0
 42
0.000000000281749
 43
0.0000000001
 40
0.4022930405037312
 40
0.4022930405037312
 40
0.4022930405037312
 40
0.4022930405037312
 40
0.4375
 40
0.4375
 40
0.5
 40
0.5
 40
0.5987674390754235
 40
0.5987674390754235
 40
0.5987674390754235
 40
0.5987674390754235
 10
283.7635012294337
 20
131.8931647405428
 30
0.0
 10
284.114365536444
 20
131.8934649346968
 30
0.0
 10
284.4937062812679
 20
131.9064229973364
 30
0.0
 10
285.608986923049
 20
131.9514413509459
 30
0.0
 10
286.4098293204893
 20
131.9867490492337
 30
0.0
 10
288.5138680655151
 20
131.9882769659332
 30
0.0
 10
289.7370867957664
 20
131.8910101459465
 30
0.0
 10
290.7311161262093
 20
131.8921236098219
 30
0.0
  0
LINE
  5
175
330
11B
100
AcDbEntity
  8
$DDT_AUDIT_GENERATED_(A5)
  6
Continuous
 62
     7
100
AcDbLine
 10
294.75
 20
150.89293994
 30
0.0
 11
294.75
 21
132.39293994
 31
0.0
  0
ELLIPSE
  5
176
330
11B
100
AcDbEntity
  8
$DDT_AUDIT_GENERATED_(A5)
  6
Continuous
 62
     7
100
AcDbEllipse
 10
287.25
 20
109.6
 30
0.0
 11
-6.000000000000005
 21
0.0
 31
0.0
210
0.0
220
0.0
230
1.0
 40
0.5
 41
3.141592653589793
 42
3.153887333397913
  0
ELLIPSE
  5
177
330
11B
100
AcDbEntity
  8
$DDT_AUDIT_GENERATED_(A5)
  6
Continuous
 62
     7
100
AcDbEllipse
 10
287.25
 20
173.68587988
 30
0.0
 11
-6.000000000000005
 21
0.0
 31
0.0
210
0.0
220
0.0
230
1.0
 40
0.5
 41
3.141592653589793
 42
3.153887333397913
  0
ELLIPSE
  5
178
330
11B
100
AcDbEntity
  8
$DDT_AUDIT_GENERATED_(A5)
  6
Continuous
 62
     7
100
AcDbEllipse
 10
287.25
 20
173.68587988
 30
0.0
 11
-6.000000000000005
 21
0.0
 31
0.0
210
0.0
220
0.0
230
1.0
 40
0.5
 41
6.269188345973106
 42
6.283185307179586
  0
CIRCLE
  5
179
330
11B
100
AcDbEntity
  8
$DDT_AUDIT_GENERATED_(A5)
  6
Continuous
 62
     7
100
AcDbCircle
 10
287.25
 20
141.64293994
 30
0.0
 40
6.0
  0
LINE
  5
17A
330
11B
100
AcDbEntity
  8
$DDT_AUDIT_GENERATED_(A5)
  6
Continuous
 62
     7
100
AcDbLine
 10
281.25
 20
173.68587988
 30
0.0
 11
281.25
 21
151.39293994
 31
0.0
  0
LINE
  5
17B
330
11B
100
AcDbEntity
  8
$DDT_AUDIT_GENERATED_(A5)
  6
Continuous
 62
     7
100
AcDbLine
 10
293.25
 20
151.39293994
 30
0.0
 11
293.25
 21
173.68587988
 31
0.0
  0
LINE
  5
17C
330
11B
100
AcDbEntity
  8
$DDT_AUDIT_GENERATED_(A5)
  6
Continuous
 62
     7
100
AcDbLine
 10
283.7719321159
 20
151.39293994
 30
0.0
 11
271.75
 21
151.39293994
 31
0.0
  0
LINE
  5
17D
330
11B
100
AcDbEntity
  8
$DDT_AUDIT_GENERATED_(A5)
  6
Continuous
 62
     7
100
AcDbLine
 10
294.25
 20
151.39293994
 30
0.0
 11
290.7146169743
 21
151.39293994
 31
0.0
  0
LINE
  5
17E
330
11B
100
AcDbEntity
  8
$DDT_AUDIT_GENERATED_(A5)
  6
Continuous
 62
     7
100
AcDbLine
 10
290.7214709239
 20
131.89293994
 30
0.0
 11
294.25
 21
131.89293994
 31
0.0
  0
LINE
  5
17F
330
11B
100
AcDbEntity
  8
$DDT_AUDIT_GENERATED_(A5)
  6
Continuous
 62
     7
100
AcDbLine
 10
271.75
 20
131.89293994
 30
0.0
 11
283.7712604719
 21
131.89293994
 31
0.0
  0
LINE
  5
180
330
11B
100
AcDbEntity
  8
$DDT_AUDIT_GENERATED_(A5)
  6
Continuous
 62
     7
100
AcDbLine
 10
293.25
 20
109.6
 30
0.0
 11
293.25
 21
131.89293994
 31
0.0
  0
LINE
  5
181
330
11B
100
AcDbEntity
  8
$DDT_AUDIT_GENERATED_(A5)
  6
Continuous
 62
     7
100
AcDbLine
 10
281.25
 20
131.89293994
 30
0.0
 11
281.25
 21
109.6
 31
0.0
  0
ARC
  5
182
330
11B
100
AcDbEntity
  8
$DDT_AUDIT_GENERATED_(A5)
  6
Continuous
 62
     7
100
AcDbCircle
 10
294.25
 20
132.39293994
 30
0.0
 40
0.5000000000000004
100
AcDbArc
 50
270.0
 51
0.0
  0
ARC
  5
183
330
11B
100
AcDbEntity
  8
$DDT_AUDIT_GENERATED_(A5)
  6
Continuous
 62
     7
100
AcDbCircle
 10
294.25
 20
150.89293994
 30
0.0
 40
0.4999999999975024
100
AcDbArc
 50
0.0
 51
90.0
  0
SPLINE
  5
184
330
11B
100
AcDbEntity
  8
$DDT_AUDIT_GENERATED_(A5)
  6
Continuous
 62
     7
100
AcDbSpline
210
0.0
220
0.0
230
1.0
 70
     8
 71
     3
 72
    20
 73
    16
 74
     0
 42
0.000000001330831
 43
0.0000000001
 40
0.0
 40
0.0
 40
0.0
 40
0.0
 40
0.038560257852401
 40
0.1136485122222507
 40
0.1889558193778877
 40
0.2662589310431809
 40
0.3463759236155052
 40
0.4288675782953081
 40
0.5126067712818143
 40
0.5965561761786755
 40
0.6802390790609124
 40
0.7635935036537372
 40
0.846670451367183
 40
0.9295550913124017
 40
1.0
 40
1.0
 40
1.0
 40
1.0
 10
281.2635519447324
 20
109.6521339199507
 30
0.0
 10
281.2582176455298
 20
109.5710037356418
 30
0.0
 10
281.2465930450021
 20
109.3676363358429
 30
0.0
 10
281.3326269337409
 20
109.0004031402035
 30
0.0
 10
281.5115583897773
 20
108.5938810115299
 30
0.0
 10
281.7854856318264
 20
108.2047736843584
 30
0.0
 10
282.1481085310039
 20
107.8395265669306
 30
0.0
 10
282.5993051708166
 20
107.5016573773343
 30
0.0
 10
283.1314762048439
 20
107.1984934939752
 30
0.0
 10
283.7335474307819
 20
106.9361595308843
 30
0.0
 10
284.3923985707143
 20
106.7190140118926
 30
0.0
 10
285.0979361822252
 20
106.549352350195
 30
0.0
 10
285.831622516585
 20
106.4299980131224
 30
0.0
 10
286.5692310470894
 20
106.3616339479333
 30
0.0
 10
287.0103494956471
 20
106.3534068094726
 30
0.0
 10
287.250000000005
 20
106.35
 30
0.0
  0
SPLINE
  5
185
330
11B
100
AcDbEntity
  8
$DDT_AUDIT_GENERATED_(A5)
  6
Continuous
 62
     7
100
AcDbSpline
210
0.0
220
0.0
230
1.0
 70
     8
 71
     3
 72
    20
 73
    16
 74
     0
 42
0.0000000013317202
 43
0.0000000001
 40
0.0
 40
0.0
 40
0.0
 40
0.0
 40
0.0437401709450386
 40
0.1265786947018429
 40
0.2095453772576515
 40
0.2926937169125802
 40
0.3761278841731805
 40
0.4599577661808114
 40
0.5442812049699552
 40
0.6291244224305319
 40
0.7142346820410947
 40
0.7985911580509403
 40
0.880713503566081
 40
0.9595562100986282
 40
1.0
 40
1.0
 40
1.0
 40
1.0
 10
287.250000000005
 20
106.35
 30
0.0
 10
287.3986742516472
 20
106.3513105491035
 30
0.0
 10
287.7642731620887
 20
106.3557151353176
 30
0.0
 10
288.4243136930924
 20
106.401769631681
 30
0.0
 10
289.1642870863689
 20
106.5047720159018
 30
0.0
 10
289.880731999497
 20
106.6580329676806
 30
0.0
 10
290.5541490965985
 20
106.8592282444561
 30
0.0
 10
291.1764806664534
 20
107.1069112268438
 30
0.0
 10
291.7373167194444
 20
107.3993533109137
 30
0.0
 10
292.2272064666784
 20
107.7350595081659
 30
0.0
 10
292.6347002870235
 20
108.1110691004844
 30
0.0
 10
292.9497801686555
 20
108.5236675433487
 30
0.0
 10
293.1551452242641
 20
108.9575020817417
 30
0.0
 10
293.2518373655767
 20
109.3477140975349
 30
0.0
 10
293.2416355619258
 20
109.5610303816684
 30
0.0
 10
293.2367909960554
 20
109.6460718400947
 30
0.0
  0
SPLINE
  5
186
330
11B
100
AcDbEntity
  8
$DDT_AUDIT_GENERATED_(A5)
  6
Continuous
 62
     7
100
AcDbSpline
210
0.0
220
0.0
230
1.0
 70
     8
 71
     3
 72
    32
 73
    28
 74
     0
 42
0.0000000006745475
 43
0.0000000001
 40
0.0
 40
0.0
 40
0.0
 40
0.0
 40
0.0181232908237167
 40
0.0563143376967875
 40
0.0947787965762516
 40
0.1343870766841937
 40
0.1754311817653164
 40
0.2175881567871513
 40
0.2602710428957692
 40
0.3029853343925412
 40
0.3455503958546343
 40
0.3879504844448963
 40
0.4302168636019859
 40
0.4723940790540722
 40
0.5145284979287361
 40
0.5566660269408462
 40
0.5988403238913834
 40
0.6410974218037078
 40
0.683489527681618
 40
0.7260723007405494
 40
0.7688980469864535
 40
0.8119910414502121
 40
0.8552762618850552
 40
0.898293927809596
 40
0.9403231792644763
 40
0.9807340654473841
 40
1.0
 40
1.0
 40
1.0
 40
1.0
 10
293.2367909960554
 20
173.7319517201432
 30
0.0
 10
293.2382416404944
 20
173.8069594408517
 30
0.0
 10
293.2405221565363
 20
174.0053091237339
 30
0.0
 10
293.139555588318
 20
174.3643464295464
 30
0.0
 10
292.9438648351025
 20
174.7670035159618
 30
0.0
 10
292.6528198172418
 20
175.1520019314368
 30
0.0
 10
292.2732917234625
 20
175.5124938454514
 30
0.0
 10
291.8060469763908
 20
175.8443748958423
 30
0.0
 10
291.259722646477
 20
176.1402451210195
 30
0.0
 10
290.6459603500291
 20
176.3943079165122
 30
0.0
 10
289.977368123961
 20
176.6026465754156
 30
0.0
 10
289.2657517409599
 20
176.7628970309705
 30
0.0
 10
288.5226766462285
 20
176.873440739931
 30
0.0
 10
287.7598907791589
 20
176.9331750381647
 30
0.0
 10
286.989355076076
 20
176.9415114408171
 30
0.0
 10
286.2231977729152
 20
176.8984102676463
 30
0.0
 10
285.4734564161858
 20
176.8044026811603
 30
0.0
 10
284.7518333381304
 20
176.6605431174873
 30
0.0
 10
284.0694344462962
 20
176.4682754198713
 30
0.0
 10
283.4366978640938
 20
176.2292469499986
 30
0.0
 10
282.8635139619417
 20
175.9451457130965
 30
0.0
 10
282.3593669808081
 20
175.6174314472667
 30
0.0
 10
281.9355064406581
 20
175.2487802255484
 30
0.0
 10
281.6016573979345
 20
174.8422739486247
 30
0.0
 10
281.376419850401
 20
174.4121656903833
 30
0.0
 10
281.2621336010383
 20
174.0279786721507
 30
0.0
 10
281.2626728100511
 20
173.8177654918451
 30
0.0
 10
281.2635519447324
 20
173.7380137999992
 30
0.0
  0
LINE
  5
187
330
11B
100
AcDbEntity
  8
$DDT_AUDIT_GENERATED_(BC)
  6
Continuous
 62
     7
100
AcDbLine
 10
271.75
 20
150.528580586
 30
0.0
 11
271.55
 21
150.528580586
 31
0.0
  0
LINE
  5
188
330
11B
100
AcDbEntity
  8
$DDT_AUDIT_GENERATED_(BC)
  6
Continuous
 62
     7
100
AcDbLine
 10
271.55
 20
132.757299294
 30
0.0
 11
271.75
 21
132.757299294
 31
0.0
  0
ENDBLK
  5
18A
330
11B
100
AcDbEntity
  8
0
100
AcDbBlockEnd
  0
ENDSEC
  0
SECTION
  2
ENTITIES
  0
INSERT
  5
5F
330
1F
100
AcDbEntity
  8
Default
100
AcDbBlockReference
  2
SEANNOT_GROUP
 10
0.0
 20
0.0
 30
0.0
  0
INSERT
  5
66
330
1F
100
AcDbEntity
  8
Default
100
AcDbBlockReference
  2
SEANNOT_GROUP1
 10
0.0
 20
0.0
 30
0.0
  0
INSERT
  5
6C
330
1F
100
AcDbEntity
  8
Default
100
AcDbBlockReference
  2
SEANNOT_GROUP2
 10
0.0
 20
0.0
 30
0.0
  0
INSERT
  5
72
330
1F
100
AcDbEntity
  8
Default
100
AcDbBlockReference
  2
SEANNOT_GROUP3
 10
0.0
 20
0.0
 30
0.0
  0
INSERT
  5
78
330
1F
100
AcDbEntity
  8
Default
100
AcDbBlockReference
  2
SEANNOT_GROUP4
 10
0.0
 20
0.0
 30
0.0
  0
INSERT
  5
7E
330
1F
100
AcDbEntity
  8
Default
100
AcDbBlockReference
  2
SEANNOT_GROUP5
 10
0.0
 20
0.0
 30
0.0
  0
INSERT
  5
84
330
1F
100
AcDbEntity
  8
Default
100
AcDbBlockReference
  2
SEANNOT_GROUP6
 10
0.0
 20
0.0
 30
0.0
  0
INSERT
  5
8A
330
1F
100
AcDbEntity
  8
Default
100
AcDbBlockReference
  2
SE
 10
0.0
 20
0.0
 30
0.0
  0
INSERT
  5
E5
330
1F
100
AcDbEntity
  8
Default
100
AcDbBlockReference
  2
SE1
 10
0.0
 20
0.0
 30
0.0
  0
INSERT
  5
11C
330
1F
100
AcDbEntity
  8
Default
100
AcDbBlockReference
  2
SE2
 10
0.0
 20
0.0
 30
0.0
  0
TEXT
  5
18C
330
1F
100
AcDbEntity
  8
Default
  6
Continuous
 62
     7
100
AcDbText
 10
5.9362635081
 20
53.4225120485
 30
0.0
 40
10.0
  1
Grohe AG^J
  7
SEACAD_seiso_ttf
 11
5.9362635081
 21
63.4225120485
 31
0.0
100
AcDbText
 73
     3
  0
TEXT
  5
18D
330
1F
100
AcDbEntity
  8
Default
  6
Continuous
 62
     7
100
AcDbText
 10
5.9362635081
 20
37.0588756849
 30
0.0
 40
10.0
  1
 
  7
SEACAD_seiso_ttf
 11
5.9362635081
 21
47.0588756849
 31
0.0
100
AcDbText
 73
     3
  0
TEXT
  5
18E
330
1F
100
AcDbEntity
  8
Default
  6
Continuous
 62
     7
100
AcDbText
 10
5.9362635081
 20
20.6952393213
 30
0.0
 40
10.0
  1
ecn: 
  7
SEACAD_seiso_ttf
 11
5.9362635081
 21
30.6952393213
 31
0.0
100
AcDbText
 73
     3
  0
TEXT
  5
18F
330
1F
100
AcDbEntity
  8
Default
  6
Continuous
 62
     7
100
AcDbText
 10
5.9362635081
 20
4.3316029576
 30
0.0
 40
10.0
  1
unit: mm
  7
SEACAD_seiso_ttf
 11
5.9362635081
 21
14.3316029576
 31
0.0
100
AcDbText
 73
     3
  0
LINE
  5
190
330
1F
100
AcDbEntity
  8
Default
  6
Continuous
 62
     7
100
AcDbLine
 10
0.0
 20
0.0
 30
0.0
 11
100.0
 21
0.0
 31
0.0
  0
LINE
  5
191
330
1F
100
AcDbEntity
  8
Default
  6
Continuous
 62
     7
100
AcDbLine
 10
0.0
 20
0.0
 30
0.0
 11
0.0
 21
100.0
 31
0.0
  0
TEXT
  5
192
330
1F
100
AcDbEntity
  8
Default
  6
Continuous
 62
     7
100
AcDbText
 10
24.3923665681
 20
-18.2375342018
 30
0.0
 40
10.0
  1
100 mm
  7
SEACAD_seiso_ttf
 11
24.3923665681
 21
-8.2375342018
 31
0.0
100
AcDbText
 73
     3
  0
TEXT
  5
193
330
1F
100
AcDbEntity
  8
Default
  6
Continuous
 62
     7
100
AcDbText
 10
-7.6150308803
 20
24.6231930421
 30
0.0
 40
10.0
  1
100 mm
 50
90.0
  7
SEACAD_seiso_ttf
 11
-17.6150308803
 21
24.6231930421
 31
0.0
100
AcDbText
 73
     3
  0
TEXT
  5
194
330
1F
100
AcDbEntity
  8
Default
  6
Continuous
 62
     7
100
AcDbText
 10
28.4878128572
 20
20.0907663715
 30
0.0
 40
10.0
  1
207609
  7
SEACAD_seiso_ttf
 11
28.4878128572
 21
30.0907663715
 31
0.0
100
AcDbText
 73
     3
  0
TEXT
  5
195
330
1F
100
AcDbEntity
  8
Default
  6
Continuous
 62
     7
100
AcDbText
 10
5.9012241913
 20
36.7242780188
 30
0.0
 40
10.0
  1
26003000
  7
SEACAD_seiso_ttf
 11
5.9012241913
 21
46.7242780188
 31
0.0
100
AcDbText
 73
     3
  0
ENDSEC
  0
SECTION
  2
OBJECTS
  0
DICTIONARY
  5
C
330
0
100
AcDbDictionary
281
     1
  3
ACAD_GROUP
350
D
  3
ACAD_LAYOUT
350
1A
  3
ACAD_MLEADERSTYLE
350
199
  3
ACAD_MLINESTYLE
350
17
  3
ACAD_PLOTSETTINGS
350
19
  3
ACAD_PLOTSTYLENAME
350
E
  3
ACAD_SCALELIST
350
3B
  3
ACAD_TABLESTYLE
350
198
  3
ACAD_VISUALSTYLE
350
2A
  3
AcDbVariableDictionary
350
196
  0
DICTIONARY
  5
D
102
{ACAD_REACTORS
330
C
102
}
330
C
100
AcDbDictionary
281
     1
  0
DICTIONARY
  5
1A
102
{ACAD_REACTORS
330
C
102
}
330
C
100
AcDbDictionary
281
     1
  3
Layout1
350
1E
  3
Model
350
22
  0
DICTIONARY
  5
199
102
{ACAD_REACTORS
330
C
102
}
330
C
100
AcDbDictionary
281
     1
  0
DICTIONARY
  5
17
102
{ACAD_REACTORS
330
C
102
}
330
C
100
AcDbDictionary
281
     1
  3
Standard
350
18
  0
DICTIONARY
  5
19
102
{ACAD_REACTORS
330
C
102
}
330
C
100
AcDbDictionary
281
     1
  0
ACDBDICTIONARYWDFLT
  5
E
102
{ACAD_REACTORS
330
C
102
}
330
C
100
AcDbDictionary
281
     1
  3
Normal
350
F
100
AcDbDictionaryWithDefault
340
F
  0
DICTIONARY
  5
3B
102
{ACAD_REACTORS
330
C
102
}
330
C
100
AcDbDictionary
281
     1
  3
A0
350
3C
  3
A1
350
3D
  3
A2
350
3E
  3
A3
350
3F
  3
A4
350
40
  3
A5
350
41
  3
A6
350
42
  3
A7
350
43
  3
A8
350
44
  3
A9
350
45
  3
B0
350
46
  3
B1
350
47
  3
B2
350
48
  3
B3
350
49
  3
B4
350
4A
  3
B5
350
4B
  3
B6
350
4C
  3
B7
350
4D
  3
B8
350
4E
  3
B9
350
4F
  3
C0
350
50
  3
C1
350
51
  3
C2
350
52
  3
C3
350
53
  3
C4
350
54
  3
C5
350
55
  3
C6
350
56
  3
C7
350
57
  3
C8
350
58
  3
C9
350
59
  3
D0
350
5A
  3
D1
350
5B
  3
D2
350
5C
  0
DICTIONARY
  5
198
102
{ACAD_REACTORS
330
C
102
}
330
C
100
AcDbDictionary
281
     1
  0
DICTIONARY
  5
2A
102
{ACAD_REACTORS
330
C
102
}
330
C
100
AcDbDictionary
281
     1
  3
2dWireframe
350
2F
  3
3D Hidden
350
31
  3
3dWireframe
350
30
  3
Basic
350
32
  3
Brighten
350
36
  3
ColorChange
350
3A
  3
Conceptual
350
34
  3
Dim
350
35
  3
Facepattern
350
39
  3
Flat
350
2B
  3
FlatWithEdges
350
2C
  3
Gouraud
350
2D
  3
GouraudWithEdges
350
2E
  3
Linepattern
350
38
  3
Realistic
350
33
  3
Thicken
350
37
  0
DICTIONARY
  5
196
102
{ACAD_REACTORS
330
C
102
}
330
C
100
AcDbDictionary
281
     1
  3
CANNOSCALE
350
197
  3
PSOLHEIGHT
350
19B
  3
PSOLWIDTH
350
19A
  0
LAYOUT
  5
1E
102
{ACAD_REACTORS
330
1A
102
}
330
1A
100
AcDbPlotSettings
  1

  2
none_device
  4

  6

 40
0.0
 41
0.0
 42
0.0
 43
0.0
 44
0.0
 45
0.0
 46
0.0
 47
0.0
 48
0.0
 49
0.0
140
0.0
141
0.0
142
1.0
143
1.0
 70
   688
 72
     0
 73
     0
 74
     5
  7

 75
    16
147
1.0
148
0.0
149
0.0
100
AcDbLayout
  1
Layout1
 70
     1
 71
     1
 10
0.0
 20
0.0
 11
1682.0
 21
2378.0
 12
0.0
 22
0.0
 32
0.0
 14
0.0
 24
0.0
 34
0.0
 15
1682.0
 25
2378.0
 35
0.0
146
0.0
 13
0.0
 23
0.0
 33
0.0
 16
1.0
 26
0.0
 36
0.0
 17
0.0
 27
1.0
 37
0.0
 76
     0
330
1B
  0
LAYOUT
  5
22
102
{ACAD_REACTORS
330
1A
102
}
330
1A
100
AcDbPlotSettings
  1

  2
none_device
  4

  6

 40
0.0
 41
0.0
 42
0.0
 43
0.0
 44
0.0
 45
0.0
 46
0.0
 47
0.0
 48
0.0
 49
0.0
140
0.0
141
0.0
142
1.0
143
1.0
 70
  1712
 72
     0
 73
     0
 74
     0
  7

 75
     0
147
1.0
148
0.0
149
0.0
100
AcDbLayout
  1
Model
 70
     1
 71
     0
 10
0.0
 20
0.0
 11
1682.0
 21
2378.0
 12
0.0
 22
0.0
 32
0.0
 14
0.0
 24
0.0
 34
0.0
 15
1682.0
 25
2378.0
 35
0.0
146
0.0
 13
0.0
 23
0.0
 33
0.0
 16
1.0
 26
0.0
 36
0.0
 17
0.0
 27
1.0
 37
0.0
 76
     0
330
1F
331
29
  0
MLINESTYLE
  5
18
102
{ACAD_REACTORS
330
17
102
}
330
17
100
AcDbMlineStyle
  2
Standard
 70
     0
  3

 62
   256
 51
90.0
 52
90.0
 71
     2
 49
0.5
 62
   256
  6
BYLAYER
 49
-0.5
 62
   256
  6
BYLAYER
  0
ACDBPLACEHOLDER
  5
F
102
{ACAD_REACTORS
330
E
102
}
330
E
  0
SCALE
  5
3C
102
{ACAD_REACTORS
330
3B
102
}
330
3B
100
AcDbScale
 70
     0
300
1:1
140
1.0
141
1.0
290
     1
  0
SCALE
  5
3D
102
{ACAD_REACTORS
330
3B
102
}
330
3B
100
AcDbScale
 70
     0
300
1:2
140
1.0
141
2.0
290
     0
  0
SCALE
  5
3E
102
{ACAD_REACTORS
330
3B
102
}
330
3B
100
AcDbScale
 70
     0
300
1:4
140
1.0
141
4.0
290
     0
  0
SCALE
  5
3F
102
{ACAD_REACTORS
330
3B
102
}
330
3B
100
AcDbScale
 70
     0
300
1:5
140
1.0
141
5.0
290
     0
  0
SCALE
  5
40
102
{ACAD_REACTORS
330
3B
102
}
330
3B
100
AcDbScale
 70
     0
300
1:8
140
1.0
141
8.0
290
     0
  0
SCALE
  5
41
102
{ACAD_REACTORS
330
3B
102
}
330
3B
100
AcDbScale
 70
     0
300
1:10
140
1.0
141
10.0
290
     0
  0
SCALE
  5
42
102
{ACAD_REACTORS
330
3B
102
}
330
3B
100
AcDbScale
 70
     0
300
1:16
140
1.0
141
16.0
290
     0
  0
SCALE
  5
43
102
{ACAD_REACTORS
330
3B
102
}
330
3B
100
AcDbScale
 70
     0
300
1:20
140
1.0
141
20.0
290
     0
  0
SCALE
  5
44
102
{ACAD_REACTORS
330
3B
102
}
330
3B
100
AcDbScale
 70
     0
300
1:30
140
1.0
141
30.0
290
     0
  0
SCALE
  5
45
102
{ACAD_REACTORS
330
3B
102
}
330
3B
100
AcDbScale
 70
     0
300
1:40
140
1.0
141
40.0
290
     0
  0
SCALE
  5
46
102
{ACAD_REACTORS
330
3B
102
}
330
3B
100
AcDbScale
 70
     0
300
1:50
140
1.0
141
50.0
290
     0
  0
SCALE
  5
47
102
{ACAD_REACTORS
330
3B
102
}
330
3B
100
AcDbScale
 70
     0
300
1:100
140
1.0
141
100.0
290
     0
  0
SCALE
  5
48
102
{ACAD_REACTORS
330
3B
102
}
330
3B
100
AcDbScale
 70
     0
300
2:1
140
2.0
141
1.0
290
     0
  0
SCALE
  5
49
102
{ACAD_REACTORS
330
3B
102
}
330
3B
100
AcDbScale
 70
     0
300
4:1
140
4.0
141
1.0
290
     0
  0
SCALE
  5
4A
102
{ACAD_REACTORS
330
3B
102
}
330
3B
100
AcDbScale
 70
     0
300
8:1
140
8.0
141
1.0
290
     0
  0
SCALE
  5
4B
102
{ACAD_REACTORS
330
3B
102
}
330
3B
100
AcDbScale
 70
     0
300
10:1
140
10.0
141
1.0
290
     0
  0
SCALE
  5
4C
102
{ACAD_REACTORS
330
3B
102
}
330
3B
100
AcDbScale
 70
     0
300
100:1
140
100.0
141
1.0
290
     0
  0
SCALE
  5
4D
102
{ACAD_REACTORS
330
3B
102
}
330
3B
100
AcDbScale
 70
     0
300
1/128" = 1'-0"
140
0.0078125
141
12.0
290
     0
  0
SCALE
  5
4E
102
{ACAD_REACTORS
330
3B
102
}
330
3B
100
AcDbScale
 70
     0
300
1/64" = 1'-0"
140
0.015625
141
12.0
290
     0
  0
SCALE
  5
4F
102
{ACAD_REACTORS
330
3B
102
}
330
3B
100
AcDbScale
 70
     0
300
1/32" = 1'-0"
140
0.03125
141
12.0
290
     0
  0
SCALE
  5
50
102
{ACAD_REACTORS
330
3B
102
}
330
3B
100
AcDbScale
 70
     0
300
1/16" = 1'-0"
140
0.0625
141
12.0
290
     0
  0
SCALE
  5
51
102
{ACAD_REACTORS
330
3B
102
}
330
3B
100
AcDbScale
 70
     0
300
3/32" = 1'-0"
140
0.09375
141
12.0
290
     0
  0
SCALE
  5
52
102
{ACAD_REACTORS
330
3B
102
}
330
3B
100
AcDbScale
 70
     0
300
1/8" = 1'-0"
140
0.125
141
12.0
290
     0
  0
SCALE
  5
53
102
{ACAD_REACTORS
330
3B
102
}
330
3B
100
AcDbScale
 70
     0
300
3/16" = 1'-0"
140
0.1875
141
12.0
290
     0
  0
SCALE
  5
54
102
{ACAD_REACTORS
330
3B
102
}
330
3B
100
AcDbScale
 70
     0
300
1/4" = 1'-0"
140
0.25
141
12.0
290
     0
  0
SCALE
  5
55
102
{ACAD_REACTORS
330
3B
102
}
330
3B
100
AcDbScale
 70
     0
300
3/8" = 1'-0"
140
0.375
141
12.0
290
     0
  0
SCALE
  5
56
102
{ACAD_REACTORS
330
3B
102
}
330
3B
100
AcDbScale
 70
     0
300
1/2" = 1'-0"
140
0.5
141
12.0
290
     0
  0
SCALE
  5
57
102
{ACAD_REACTORS
330
3B
102
}
330
3B
100
AcDbScale
 70
     0
300
3/4" = 1'-0"
140
0.75
141
12.0
290
     0
  0
SCALE
  5
58
102
{ACAD_REACTORS
330
3B
102
}
330
3B
100
AcDbScale
 70
     0
300
1" = 1'-0"
140
1.0
141
12.0
290
     0
  0
SCALE
  5
59
102
{ACAD_REACTORS
330
3B
102
}
330
3B
100
AcDbScale
 70
     0
300
1-1/2" = 1'-0"
140
1.5
141
12.0
290
     0
  0
SCALE
  5
5A
102
{ACAD_REACTORS
330
3B
102
}
330
3B
100
AcDbScale
 70
     0
300
3" = 1'-0"
140
3.0
141
12.0
290
     0
  0
SCALE
  5
5B
102
{ACAD_REACTORS
330
3B
102
}
330
3B
100
AcDbScale
 70
     0
300
6" = 1'-0"
140
6.0
141
12.0
290
     0
  0
SCALE
  5
5C
102
{ACAD_REACTORS
330
3B
102
}
330
3B
100
AcDbScale
 70
     0
300
1'-0" = 1'-0"
140
12.0
141
12.0
290
     0
  0
VISUALSTYLE
  5
2F
102
{ACAD_REACTORS
330
2A
102
}
330
2A
100
AcDbVisualStyle
  2
2dWireframe
 70
     4
 71
     0
 72
     2
 73
     0
 90
        0
 40
-0.6
 41
-30.0
 62
     5
 63
     7
 74
     1
 91
        4
 64
     7
 65
   257
 75
     1
175
     1
 42
1.0
 92
        0
 66
   257
 43
1.0
 76
     1
 77
     6
 78
     2
 67
     7
 79
     5
170
     0
171
     0
290
     0
174
     0
 93
        1
 44
0.0
173
     0
291
     0
 45
0.0
1001
ACAD
1000
AcDbSavedByObjectVersion
1070
     0
  0
VISUALSTYLE
  5
31
102
{ACAD_REACTORS
330
2A
102
}
330
2A
100
AcDbVisualStyle
  2
3D Hidden
 70
     6
 71
     1
 72
     2
 73
     2
 90
        0
 40
-0.6
 41
-30.0
 62
     5
 63
     7
 74
     2
 91
        2
 64
     7
 65
   257
 75
     2
175
     1
 42
40.0
 92
        0
 66
   257
 43
1.0
 76
     1
 77
     6
 78
     2
 67
     7
 79
     3
170
     0
171
     0
290
     0
174
     0
 93
        1
 44
0.0
173
     0
291
     0
 45
0.0
1001
ACAD
1000
AcDbSavedByObjectVersion
1070
     0
  0
VISUALSTYLE
  5
30
102
{ACAD_REACTORS
330
2A
102
}
330
2A
100
AcDbVisualStyle
  2
3dWireframe
 70
     5
 71
     0
 72
     2
 73
     0
 90
        0
 40
-0.6
 41
-30.0
 62
     5
 63
     7
 74
     1
 91
        4
 64
     7
 65
   257
 75
     1
175
     1
 42
1.0
 92
        0
 66
   257
 43
1.0
 76
     1
 77
     6
 78
     2
 67
     7
 79
     5
170
     0
171
     0
290
     0
174
     0
 93
        1
 44
0.0
173
     0
291
     0
 45
0.0
1001
ACAD
1000
AcDbSavedByObjectVersion
1070
     0
  0
VISUALSTYLE
  5
32
102
{ACAD_REACTORS
330
2A
102
}
330
2A
100
AcDbVisualStyle
  2
Basic
 70
     7
 71
     1
 72
     0
 73
     1
 90
        0
 40
-0.6
 41
-30.0
 62
     5
 63
     7
 74
     0
 91
        4
 64
     7
 65
   257
 75
     1
175
     1
 42
1.0
 92
        8
 66
     7
 43
1.0
 76
     1
 77
     6
 78
     2
 67
     7
 79
     5
170
     0
171
     0
290
     0
174
     0
 93
        1
 44
0.0
173
     0
291
     1
 45
0.0
1001
ACAD
1000
AcDbSavedByObjectVersion
1070
     0
  0
VISUALSTYLE
  5
36
102
{ACAD_REACTORS
330
2A
102
}
330
2A
100
AcDbVisualStyle
  2
Brighten
 70
    12
 71
     2
 72
     2
 73
     0
 90
        0
 40
-0.6
 41
-30.0
 62
     5
 63
     7
 74
     1
 91
        4
 64
     7
 65
   257
 75
     1
175
     1
 42
1.0
 92
        8
 66
     7
 43
1.0
 76
     1
 77
     6
 78
     2
 67
     7
 79
     5
170
     0
171
     0
290
     0
174
     0
 93
        1
 44
50.0
173
     0
291
     1
 45
0.0
1001
ACAD
1000
AcDbSavedByObjectVersion
1070
     0
  0
VISUALSTYLE
  5
3A
102
{ACAD_REACTORS
330
2A
102
}
330
2A
100
AcDbVisualStyle
  2
ColorChange
 70
    16
 71
     2
 72
     2
 73
     3
 90
        0
 40
-0.6
 41
-30.0
 62
     5
 63
     8
 74
     1
 91
        4
 64
     7
 65
   257
 75
     1
175
     1
 42
1.0
 92
        8
 66
     8
 43
1.0
 76
     1
 77
     6
 78
     2
 67
     7
 79
     5
170
     0
171
     0
290
     0
174
     0
 93
        1
 44
0.0
173
     0
291
     1
 45
0.0
1001
ACAD
1000
AcDbSavedByObjectVersion
1070
     0
  0
VISUALSTYLE
  5
34
102
{ACAD_REACTORS
330
2A
102
}
330
2A
100
AcDbVisualStyle
  2
Conceptual
 70
     9
 71
     3
 72
     2
 73
     0
 90
        0
 40
-0.6
 41
-30.0
 62
     5
 63
     7
 74
     2
 91
        2
 64
     7
 65
   257
 75
     1
175
     1
 42
40.0
 92
        8
 66
     7
 43
1.0
 76
     1
 77
     6
 78
     2
 67
     7
 79
     3
170
     0
171
     0
290
     0
174
     0
 93
        1
 44
0.0
173
     0
291
     0
 45
0.0
1001
ACAD
1000
AcDbSavedByObjectVersion
1070
     0
  0
VISUALSTYLE
  5
35
102
{ACAD_REACTORS
330
2A
102
}
330
2A
100
AcDbVisualStyle
  2
Dim
 70
    11
 71
     2
 72
     2
 73
     0
 90
        0
 40
-0.6
 41
-30.0
 62
     5
 63
     7
 74
     1
 91
        4
 64
     7
 65
   257
 75
     1
175
     1
 42
1.0
 92
        8
 66
     7
 43
1.0
 76
     1
 77
     6
 78
     2
 67
     7
 79
     5
170
     0
171
     0
290
     0
174
     0
 93
        1
 44
-50.0
173
     0
291
     1
 45
0.0
1001
ACAD
1000
AcDbSavedByObjectVersion
1070
     0
  0
VISUALSTYLE
  5
39
102
{ACAD_REACTORS
330
2A
102
}
330
2A
100
AcDbVisualStyle
  2
Facepattern
 70
    15
 71
     2
 72
     2
 73
     0
 90
        0
 40
-0.6
 41
-30.0
 62
     5
 63
     7
 74
     1
 91
        4
 64
     7
 65
   257
 75
     1
175
     1
 42
1.0
 92
        8
 66
     7
 43
1.0
 76
     1
 77
     6
 78
     2
 67
     7
 79
     5
170
     0
171
     0
290
     0
174
     0
 93
        1
 44
0.0
173
     0
291
     1
 45
0.0
1001
ACAD
1000
AcDbSavedByObjectVersion
1070
     0
  0
VISUALSTYLE
  5
2B
102
{ACAD_REACTORS
330
2A
102
}
330
2A
100
AcDbVisualStyle
  2
Flat
 70
     0
 71
     2
 72
     1
 73
     1
 90
        2
 40
-0.6
 41
30.0
 62
     5
 63
     7
 74
     0
 91
        4
 64
     7
 65
   257
 75
     1
175
     1
 42
1.0
 92
        8
 66
     7
 43
1.0
 76
     1
 77
     6
 78
     2
 67
     7
 79
     5
170
     0
171
     0
290
     0
174
     0
 93
       13
 44
0.0
173
     0
291
     1
 45
0.0
1001
ACAD
1000
AcDbSavedByObjectVersion
1070
     0
  0
VISUALSTYLE
  5
2C
102
{ACAD_REACTORS
330
2A
102
}
330
2A
100
AcDbVisualStyle
  2
FlatWithEdges
 70
     1
 71
     2
 72
     1
 73
     1
 90
        2
 40
-0.6
 41
30.0
 62
     5
 63
     7
 74
     1
 91
        4
 64
     7
 65
   257
 75
     1
175
     1
 42
1.0
 92
        0
 66
   257
 43
1.0
 76
     1
 77
     6
 78
     2
 67
     7
 79
     5
170
     0
171
     0
290
     0
174
     0
 93
       13
 44
0.0
173
     0
291
     1
 45
0.0
1001
ACAD
1000
AcDbSavedByObjectVersion
1070
     0
  0
VISUALSTYLE
  5
2D
102
{ACAD_REACTORS
330
2A
102
}
330
2A
100
AcDbVisualStyle
  2
Gouraud
 70
     2
 71
     2
 72
     2
 73
     1
 90
        2
 40
-0.6
 41
30.0
 62
     5
 63
     7
 74
     0
 91
        4
 64
     7
 65
   257
 75
     1
175
     1
 42
1.0
 92
        0
 66
     7
 43
1.0
 76
     1
 77
     6
 78
     2
 67
     7
 79
     5
170
     0
171
     0
290
     0
174
     0
 93
       13
 44
0.0
173
     0
291
     1
 45
0.0
1001
ACAD
1000
AcDbSavedByObjectVersion
1070
     0
  0
VISUALSTYLE
  5
2E
102
{ACAD_REACTORS
330
2A
102
}
330
2A
100
AcDbVisualStyle
  2
GouraudWithEdges
 70
     3
 71
     2
 72
     2
 73
     1
 90
        2
 40
-0.6
 41
30.0
 62
     5
 63
     7
 74
     1
 91
        4
 64
     7
 65
   257
 75
     1
175
     1
 42
1.0
 92
        0
 66
   257
 43
1.0
 76
     1
 77
     6
 78
     2
 67
     7
 79
     5
170
     0
171
     0
290
     0
174
     0
 93
       13
 44
0.0
173
     0
291
     1
 45
0.0
1001
ACAD
1000
AcDbSavedByObjectVersion
1070
     0
  0
VISUALSTYLE
  5
38
102
{ACAD_REACTORS
330
2A
102
}
330
2A
100
AcDbVisualStyle
  2
Linepattern
 70
    14
 71
     2
 72
     2
 73
     0
 90
        0
 40
-0.6
 41
-30.0
 62
     5
 63
     7
 74
     1
 91
        4
 64
     7
 65
   257
 75
     7
175
     7
 42
1.0
 92
        8
 66
     7
 43
1.0
 76
     1
 77
     6
 78
     2
 67
     7
 79
     5
170
     0
171
     0
290
     0
174
     0
 93
        1
 44
0.0
173
     0
291
     1
 45
0.0
1001
ACAD
1000
AcDbSavedByObjectVersion
1070
     0
  0
VISUALSTYLE
  5
33
102
{ACAD_REACTORS
330
2A
102
}
330
2A
100
AcDbVisualStyle
  2
Realistic
 70
     8
 71
     2
 72
     2
 73
     0
 90
        0
 40
-0.6
 41
-30.0
 62
     5
 63
     7
 74
     1
 91
        0
 64
     7
 65
   257
 75
     1
175
     1
 42
1.0
 92
        8
 66
     8
 43
1.0
 76
     1
 77
     6
 78
     2
 67
     7
 79
     5
170
     0
171
     0
290
     0
174
     0
 93
       13
 44
0.0
173
     0
291
     0
 45
0.0
1001
ACAD
1000
AcDbSavedByObjectVersion
1070
     0
  0
VISUALSTYLE
  5
37
102
{ACAD_REACTORS
330
2A
102
}
330
2A
100
AcDbVisualStyle
  2
Thicken
 70
    13
 71
     2
 72
     2
 73
     0
 90
        0
 40
-0.6
 41
-30.0
 62
     5
 63
     7
 74
     1
 91
        4
 64
     7
 65
   257
 75
     1
175
     1
 42
1.0
 92
       12
 66
     7
 43
1.0
 76
     1
 77
     6
 78
     2
 67
     7
 79
     5
170
     0
171
     0
290
     0
174
     0
 93
        1
 44
0.0
173
     0
291
     1
 45
0.0
1001
ACAD
1000
AcDbSavedByObjectVersion
1070
     0
  0
DICTIONARYVAR
  5
197
102
{ACAD_REACTORS
330
196
102
}
330
196
100
DictionaryVariables
280
     0
  1
1:1
  0
DICTIONARYVAR
  5
19B
102
{ACAD_REACTORS
330
196
102
}
330
196
100
DictionaryVariables
280
     0
  1
80.000000
  0
DICTIONARYVAR
  5
19A
102
{ACAD_REACTORS
330
196
102
}
330
196
100
DictionaryVariables
280
     0
  1
5.000000
  0
ENDSEC
  0
EOF
