  0
SECTION
  2
HEADER
  9
$ACADVER
  1
AC1015
  9
$ACADMAINTVER
 70
     6
  9
$DWGCODEPAGE
  3
ANSI_1252
  9
$INSBASE
 10
0.0
 20
0.0
 30
0.0
  9
$EXTMIN
 10
0.0
 20
0.0
 30
0.0
  9
$EXTMAX
 10
1682.0
 20
2378.0
 30
0.0
  9
$LIMMIN
 10
0.0
 20
0.0
  9
$LIMMAX
 10
1682.0
 20
2378.0
  9
$ORTHOMODE
 70
     0
  9
$REGENMODE
 70
     1
  9
$FILLMODE
 70
     1
  9
$QTEXTMODE
 70
     0
  9
$MIRRTEXT
 70
     1
  9
$LTSCALE
 40
1.0
  9
$ATTMODE
 70
     1
  9
$TEXTSIZE
 40
2.5
  9
$TRACEWID
 40
1.0
  9
$TEXTSTYLE
  7
Standard
  9
$CLAYER
  8
0
  9
$CELTYPE
  6
ByLayer
  9
$CECOLOR
 62
   256
  9
$CELTSCALE
 40
1.0
  9
$DISPSILH
 70
     0
  9
$DIMSCALE
 40
1.0
  9
$DIMASZ
 40
2.5
  9
$DIMEXO
 40
0.625
  9
$DIMDLI
 40
3.75
  9
$DIMRND
 40
0.0
  9
$DIMDLE
 40
0.0
  9
$DIMEXE
 40
1.25
  9
$DIMTP
 40
0.0
  9
$DIMTM
 40
0.0
  9
$DIMTXT
 40
2.5
  9
$DIMCEN
 40
2.5
  9
$DIMTSZ
 40
0.0
  9
$DIMTOL
 70
     0
  9
$DIMLIM
 70
     0
  9
$DIMTIH
 70
     0
  9
$DIMTOH
 70
     0
  9
$DIMSE1
 70
     0
  9
$DIMSE2
 70
     0
  9
$DIMTAD
 70
     1
  9
$DIMZIN
 70
     8
  9
$DIMBLK
  1

  9
$DIMASO
 70
     1
  9
$DIMSHO
 70
     1
  9
$DIMPOST
  1

  9
$DIMAPOST
  1

  9
$DIMALT
 70
     0
  9
$DIMALTD
 70
     3
  9
$DIMALTF
 40
0.0393700787
  9
$DIMLFAC
 40
1.0
  9
$DIMTOFL
 70
     1
  9
$DIMTVP
 40
0.0
  9
$DIMTIX
 70
     0
  9
$DIMSOXD
 70
     0
  9
$DIMSAH
 70
     0
  9
$DIMBLK1
  1

  9
$DIMBLK2
  1

  9
$DIMSTYLE
  2
ISO-25
  9
$DIMCLRD
 70
     0
  9
$DIMCLRE
 70
     0
  9
$DIMCLRT
 70
     0
  9
$DIMTFAC
 40
1.0
  9
$DIMGAP
 40
0.625
  9
$DIMJUST
 70
     0
  9
$DIMSD1
 70
     0
  9
$DIMSD2
 70
     0
  9
$DIMTOLJ
 70
     0
  9
$DIMTZIN
 70
     8
  9
$DIMALTZ
 70
     0
  9
$DIMALTTZ
 70
     0
  9
$DIMUPT
 70
     0
  9
$DIMDEC
 70
     2
  9
$DIMTDEC
 70
     2
  9
$DIMALTU
 70
     2
  9
$DIMALTTD
 70
     3
  9
$DIMTXSTY
  7
Standard
  9
$DIMAUNIT
 70
     0
  9
$DIMADEC
 70
     0
  9
$DIMALTRND
 40
0.0
  9
$DIMAZIN
 70
     0
  9
$DIMDSEP
 70
    44
  9
$DIMATFIT
 70
     3
  9
$DIMFRAC
 70
     0
  9
$DIMLDRBLK
  1

  9
$DIMLUNIT
 70
     2
  9
$DIMLWD
 70
    -2
  9
$DIMLWE
 70
    -2
  9
$DIMTMOVE
 70
     0
  9
$LUNITS
 70
     2
  9
$LUPREC
 70
     4
  9
$SKETCHINC
 40
1.0
  9
$FILLETRAD
 40
10.0
  9
$AUNITS
 70
     0
  9
$AUPREC
 70
     0
  9
$MENU
  1
.
  9
$ELEVATION
 40
0.0
  9
$PELEVATION
 40
0.0
  9
$THICKNESS
 40
0.0
  9
$LIMCHECK
 70
     0
  9
$CHAMFERA
 40
10.0
  9
$CHAMFERB
 40
10.0
  9
$CHAMFERC
 40
20.0
  9
$CHAMFERD
 40
0.0
  9
$SKPOLY
 70
     0
  9
$TDCREATE
 40
2455551.470693102
  9
$TDUCREATE
 40
2455551.429026435
  9
$TDUPDATE
 40
2455551.470693113
  9
$TDUUPDATE
 40
2455551.429026447
  9
$TDINDWG
 40
0.0000000116
  9
$TDUSRTIMER
 40
0.0000000116
  9
$USRTIMER
 70
     1
  9
$ANGBASE
 50
0.0
  9
$ANGDIR
 70
     0
  9
$PDMODE
 70
     0
  9
$PDSIZE
 40
0.0
  9
$PLINEWID
 40
0.0
  9
$SPLFRAME
 70
     0
  9
$SPLINETYPE
 70
     6
  9
$SPLINESEGS
 70
     8
  9
$HANDSEED
  5
1C0
  9
$SURFTAB1
 70
     6
  9
$SURFTAB2
 70
     6
  9
$SURFTYPE
 70
     6
  9
$SURFU
 70
     6
  9
$SURFV
 70
     6
  9
$UCSBASE
  2

  9
$UCSNAME
  2

  9
$UCSORG
 10
0.0
 20
0.0
 30
0.0
  9
$UCSXDIR
 10
1.0
 20
0.0
 30
0.0
  9
$UCSYDIR
 10
0.0
 20
1.0
 30
0.0
  9
$UCSORTHOREF
  2

  9
$UCSORTHOVIEW
 70
     0
  9
$UCSORGTOP
 10
0.0
 20
0.0
 30
0.0
  9
$UCSORGBOTTOM
 10
0.0
 20
0.0
 30
0.0
  9
$UCSORGLEFT
 10
0.0
 20
0.0
 30
0.0
  9
$UCSORGRIGHT
 10
0.0
 20
0.0
 30
0.0
  9
$UCSORGFRONT
 10
0.0
 20
0.0
 30
0.0
  9
$UCSORGBACK
 10
0.0
 20
0.0
 30
0.0
  9
$PUCSBASE
  2

  9
$PUCSNAME
  2

  9
$PUCSORG
 10
0.0
 20
0.0
 30
0.0
  9
$PUCSXDIR
 10
1.0
 20
0.0
 30
0.0
  9
$PUCSYDIR
 10
0.0
 20
1.0
 30
0.0
  9
$PUCSORTHOREF
  2

  9
$PUCSORTHOVIEW
 70
     0
  9
$PUCSORGTOP
 10
0.0
 20
0.0
 30
0.0
  9
$PUCSORGBOTTOM
 10
0.0
 20
0.0
 30
0.0
  9
$PUCSORGLEFT
 10
0.0
 20
0.0
 30
0.0
  9
$PUCSORGRIGHT
 10
0.0
 20
0.0
 30
0.0
  9
$PUCSORGFRONT
 10
0.0
 20
0.0
 30
0.0
  9
$PUCSORGBACK
 10
0.0
 20
0.0
 30
0.0
  9
$USERI1
 70
     0
  9
$USERI2
 70
     0
  9
$USERI3
 70
     0
  9
$USERI4
 70
     0
  9
$USERI5
 70
     0
  9
$USERR1
 40
0.0
  9
$USERR2
 40
0.0
  9
$USERR3
 40
0.0
  9
$USERR4
 40
0.0
  9
$USERR5
 40
0.0
  9
$WORLDVIEW
 70
     1
  9
$SHADEDGE
 70
     3
  9
$SHADEDIF
 70
    70
  9
$TILEMODE
 70
     1
  9
$MAXACTVP
 70
    64
  9
$PINSBASE
 10
0.0
 20
0.0
 30
0.0
  9
$PLIMCHECK
 70
     0
  9
$PEXTMIN
 10
0.0
 20
0.0
 30
0.0
  9
$PEXTMAX
 10
1682.0
 20
2378.0
 30
0.0
  9
$PLIMMIN
 10
0.0
 20
0.0
  9
$PLIMMAX
 10
1682.0
 20
2378.0
  9
$UNITMODE
 70
     0
  9
$VISRETAIN
 70
     1
  9
$PLINEGEN
 70
     0
  9
$PSLTSCALE
 70
     1
  9
$TREEDEPTH
 70
  3020
  9
$CMLSTYLE
  2
Standard
  9
$CMLJUST
 70
     0
  9
$CMLSCALE
 40
20.0
  9
$PROXYGRAPHICS
 70
     1
  9
$MEASUREMENT
 70
     1
  9
$CELWEIGHT
370
    -1
  9
$ENDCAPS
280
     0
  9
$JOINSTYLE
280
     0
  9
$LWDISPLAY
290
     0
  9
$INSUNITS
 70
     4
  9
$HYPERLINKBASE
  1

  9
$STYLESHEET
  1

  9
$XEDIT
290
     1
  9
$CEPSNTYPE
380
     0
  9
$PSTYLEMODE
290
     1
  9
$FINGERPRINTGUID
  2
{75D59297-809F-4BBE-9209-43AB8DC793E5}
  9
$VERSIONGUID
  2
{FAEB1C32-E019-11D5-929B-00C0DF256EC4}
  9
$EXTNAMES
290
     1
  9
$PSVPSCALE
 40
0.0
  9
$OLESTARTUP
290
     0
  0
ENDSEC
  0
SECTION
  2
CLASSES
  0
CLASS
  1
ACDBDICTIONARYWDFLT
  2
AcDbDictionaryWithDefault
  3
ObjectDBX Classes
 90
        0
280
     0
281
     0
  0
CLASS
  1
VISUALSTYLE
  2
AcDbVisualStyle
  3
ObjectDBX Classes
 90
     4095
280
     0
281
     0
  0
CLASS
  1
SCALE
  2
AcDbScale
  3
ObjectDBX Classes
 90
     1153
280
     0
281
     0
  0
CLASS
  1
DICTIONARYVAR
  2
AcDbDictionaryVar
  3
ObjectDBX Classes
 90
        0
280
     0
281
     0
  0
CLASS
  1
ACDBPLACEHOLDER
  2
AcDbPlaceHolder
  3
ObjectDBX Classes
 90
        0
280
     0
281
     0
  0
CLASS
  1
LAYOUT
  2
AcDbLayout
  3
ObjectDBX Classes
 90
        0
280
     0
281
     0
  0
ENDSEC
  0
SECTION
  2
TABLES
  0
TABLE
  2
VPORT
  5
8
330
0
100
AcDbSymbolTable
 70
     1
  0
VPORT
  5
29
330
8
100
AcDbSymbolTableRecord
100
AcDbViewportTableRecord
  2
*Active
 70
     0
 10
0.0
 20
0.0
 11
1.0
 21
1.0
 12
344.1869158879
 22
148.5
 13
0.0
 23
0.0
 14
10.0
 24
10.0
 15
10.0
 25
10.0
 16
0.0
 26
0.0
 36
1.0
 17
0.0
 27
0.0
 37
0.0
 40
297.0
 41
1.9729729729
 42
50.0
 43
0.0
 44
0.0
 50
0.0
 51
0.0
 71
     0
 72
   100
 73
     1
 74
     3
 75
     0
 76
     0
 77
     0
 78
     0
281
     0
 65
     1
110
0.0
120
0.0
130
0.0
111
1.0
121
0.0
131
0.0
112
0.0
122
1.0
132
0.0
 79
     0
146
0.0
  0
ENDTAB
  0
TABLE
  2
LTYPE
  5
5
330
0
100
AcDbSymbolTable
 70
     2
  0
LTYPE
  5
14
330
5
100
AcDbSymbolTableRecord
100
AcDbLinetypeTableRecord
  2
ByBlock
 70
     0
  3

 72
    65
 73
     0
 40
0.0
  0
LTYPE
  5
15
330
5
100
AcDbSymbolTableRecord
100
AcDbLinetypeTableRecord
  2
ByLayer
 70
     0
  3

 72
    65
 73
     0
 40
0.0
  0
LTYPE
  5
16
330
5
100
AcDbSymbolTableRecord
100
AcDbLinetypeTableRecord
  2
Continuous
 70
     0
  3
Solid line
 72
    65
 73
     0
 40
0.0
  0
LTYPE
  5
60
330
5
100
AcDbSymbolTableRecord
100
AcDbLinetypeTableRecord
  2
CENTER2
 70
     0
  3
Center (.5x) ___ _ ___ _ ___ _ ___ _ ___ _ ___
 72
    65
 73
     4
 40
28.575
 49
19.05
 74
     4
 75
     0
340
0
 46
0.0
 50
0.0
 44
0.0
 45
0.0
 49
-3.175
 74
     4
 75
     0
340
0
 46
0.0
 50
0.0
 44
0.0
 45
0.0
 49
3.175
 74
     4
 75
     0
340
0
 46
0.0
 50
0.0
 44
0.0
 45
0.0
 49
-3.175
 74
     4
 75
     0
340
0
 46
0.0
 50
0.0
 44
0.0
 45
0.0
  0
ENDTAB
  0
TABLE
  2
LAYER
  5
2
330
0
100
AcDbSymbolTable
 70
     9
  0
LAYER
  5
10
330
2
100
AcDbSymbolTableRecord
100
AcDbLayerTableRecord
  2
0
 70
     0
 62
     7
  6
Continuous
370
    -3
390
F
  0
LAYER
  5
5D
330
2
100
AcDbSymbolTableRecord
100
AcDbLayerTableRecord
  2
Default
 70
     0
 62
     7
  6
Continuous
370
    -3
390
F
  0
LAYER
  5
8B
330
2
100
AcDbSymbolTableRecord
100
AcDbLayerTableRecord
  2
20_01_80_KAPPE_0
 70
     0
 62
     7
  6
Continuous
370
    -3
390
F
  0
LAYER
  5
8D
330
2
100
AcDbSymbolTableRecord
100
AcDbLayerTableRecord
  2
03510_GRIFF__ANS
 70
     0
 62
     7
  6
Continuous
370
    -3
390
F
  0
LAYER
  5
B5
330
2
100
AcDbSymbolTableRecord
100
AcDbLayerTableRecord
  2
36247XXX_SELBSTS
 70
     0
 62
     7
  6
Continuous
370
    -3
390
F
  0
LAYER
  5
C6
330
2
100
AcDbSymbolTableRecord
100
AcDbLayerTableRecord
  2
17_02_80XX_INNEN
 70
     0
 62
     7
  6
Continuous
370
    -3
390
F
  0
LAYER
  5
C9
330
2
100
AcDbSymbolTableRecord
100
AcDbLayerTableRecord
  2
E03514
 70
     0
 62
     7
  6
Continuous
370
    -3
390
F
  0
LAYER
  5
DA
330
2
100
AcDbSymbolTableRecord
100
AcDbLayerTableRecord
  2
$DDT_AUDIT_GENERATED_(DA)
 70
     0
 62
     7
  6
Continuous
370
    -3
390
F
  0
LAYER
  5
12D
330
2
100
AcDbSymbolTableRecord
100
AcDbLayerTableRecord
  2
DV2_Standard
 70
     0
 62
     7
  6
Continuous
370
    -3
390
F
  0
ENDTAB
  0
TABLE
  2
STYLE
  5
3
330
0
100
AcDbSymbolTable
 70
     2
  0
STYLE
  5
11
330
3
100
AcDbSymbolTableRecord
100
AcDbTextStyleTableRecord
  2
Standard
 70
     0
 40
0.0
 41
1.0
 50
0.0
 71
     0
 42
2.5
  3
txt
  4

  0
STYLE
  5
1AF
330
3
100
AcDbSymbolTableRecord
100
AcDbTextStyleTableRecord
  2
SEACAD_seiso_ttf
 70
     0
 40
0.0
 41
1.0
 50
0.0
 71
     0
 42
0.2
  3
seiso.ttf
  4

  0
ENDTAB
  0
TABLE
  2
VIEW
  5
6
330
0
100
AcDbSymbolTable
 70
     0
  0
ENDTAB
  0
TABLE
  2
UCS
  5
7
330
0
100
AcDbSymbolTable
 70
     0
  0
ENDTAB
  0
TABLE
  2
APPID
  5
9
330
0
100
AcDbSymbolTable
 70
     1
  0
APPID
  5
12
330
9
100
AcDbSymbolTableRecord
100
AcDbRegAppTableRecord
  2
ACAD
 70
     0
  0
ENDTAB
  0
TABLE
  2
DIMSTYLE
  5
A
330
0
100
AcDbSymbolTable
 70
     1
100
AcDbDimStyleTable
  0
DIMSTYLE
105
27
330
A
100
AcDbSymbolTableRecord
100
AcDbDimStyleTableRecord
  2
ISO-25
 70
     0
 41
2.5
 42
0.625
 43
3.75
 44
1.25
 73
     0
 74
     0
 77
     1
 78
     8
140
2.5
141
2.5
143
0.0393700787
147
0.625
171
     3
172
     1
271
     2
272
     2
274
     3
278
    44
283
     0
284
     8
340
11
  0
ENDTAB
  0
TABLE
  2
BLOCK_RECORD
  5
1
330
0
100
AcDbSymbolTable
 70
    12
  0
BLOCK_RECORD
  5
1F
330
1
100
AcDbSymbolTableRecord
100
AcDbBlockTableRecord
  2
*Model_Space
340
22
  0
BLOCK_RECORD
  5
1B
330
1
100
AcDbSymbolTableRecord
100
AcDbBlockTableRecord
  2
*Paper_Space
340
1E
  0
BLOCK_RECORD
  5
5E
330
1
100
AcDbSymbolTableRecord
100
AcDbBlockTableRecord
  2
SEANNOT_GROUP
340
0
102
{BLKREFS
331
5F
102
}
  0
BLOCK_RECORD
  5
66
330
1
100
AcDbSymbolTableRecord
100
AcDbBlockTableRecord
  2
SEANNOT_GROUP1
340
0
102
{BLKREFS
331
67
102
}
  0
BLOCK_RECORD
  5
6B
330
1
100
AcDbSymbolTableRecord
100
AcDbBlockTableRecord
  2
SEANNOT_GROUP2
340
0
102
{BLKREFS
331
6C
102
}
  0
BLOCK_RECORD
  5
70
330
1
100
AcDbSymbolTableRecord
100
AcDbBlockTableRecord
  2
SEANNOT_GROUP3
340
0
102
{BLKREFS
331
71
102
}
  0
BLOCK_RECORD
  5
75
330
1
100
AcDbSymbolTableRecord
100
AcDbBlockTableRecord
  2
SEANNOT_GROUP4
340
0
102
{BLKREFS
331
76
102
}
  0
BLOCK_RECORD
  5
7A
330
1
100
AcDbSymbolTableRecord
100
AcDbBlockTableRecord
  2
SEANNOT_GROUP5
340
0
102
{BLKREFS
331
7B
102
}
  0
BLOCK_RECORD
  5
7F
330
1
100
AcDbSymbolTableRecord
100
AcDbBlockTableRecord
  2
SEANNOT_GROUP6
340
0
102
{BLKREFS
331
80
102
}
  0
BLOCK_RECORD
  5
84
330
1
100
AcDbSymbolTableRecord
100
AcDbBlockTableRecord
  2
SEANNOT_GROUP7
340
0
102
{BLKREFS
331
85
102
}
  0
BLOCK_RECORD
  5
89
330
1
100
AcDbSymbolTableRecord
100
AcDbBlockTableRecord
  2
SE
340
0
102
{BLKREFS
331
8A
102
}
  0
BLOCK_RECORD
  5
C4
330
1
100
AcDbSymbolTableRecord
100
AcDbBlockTableRecord
  2
SE1
340
0
102
{BLKREFS
331
C5
102
}
  0
BLOCK_RECORD
  5
131
330
1
100
AcDbSymbolTableRecord
100
AcDbBlockTableRecord
  2
SE2
340
0
102
{BLKREFS
331
132
102
}
  0
ENDTAB
  0
ENDSEC
  0
SECTION
  2
BLOCKS
  0
BLOCK
  5
20
330
1F
100
AcDbEntity
  8
0
100
AcDbBlockBegin
  2
*Model_Space
 70
     0
 10
0.0
 20
0.0
 30
0.0
  3
*Model_Space
  1

  0
ENDBLK
  5
21
330
1F
100
AcDbEntity
  8
0
100
AcDbBlockEnd
  0
BLOCK
  5
1C
330
1B
100
AcDbEntity
 67
     1
  8
0
100
AcDbBlockBegin
  2
*Paper_Space
 70
     0
 10
0.0
 20
0.0
 30
0.0
  3
*Paper_Space
  1

  0
ENDBLK
  5
1D
330
1B
100
AcDbEntity
 67
     1
  8
0
100
AcDbBlockEnd
  0
BLOCK
  5
63
330
5E
100
AcDbEntity
  8
0
100
AcDbBlockBegin
  2
SEANNOT_GROUP
 70
     0
 10
0.0
 20
0.0
 30
0.0
  3
SEANNOT_GROUP
  1

  0
LINE
  5
61
330
5E
100
AcDbEntity
  8
Default
  6
CENTER2
 62
     7
100
AcDbLine
 10
116.213509269
 20
476.9150198495
 30
0.0
 11
76.213510163
 21
476.9150198495
 31
0.0
  0
LINE
  5
62
330
5E
100
AcDbEntity
  8
Default
  6
CENTER2
 62
     7
100
AcDbLine
 10
96.213509716
 20
496.9150194025
 30
0.0
 11
96.213509716
 21
456.9150202965
 31
0.0
  0
ENDBLK
  5
64
330
5E
100
AcDbEntity
  8
0
100
AcDbBlockEnd
  0
BLOCK
  5
69
330
66
100
AcDbEntity
  8
0
100
AcDbBlockBegin
  2
SEANNOT_GROUP1
 70
     0
 10
0.0
 20
0.0
 30
0.0
  3
SEANNOT_GROUP1
  1

  0
LINE
  5
68
330
66
100
AcDbEntity
  8
Default
  6
CENTER2
 62
     7
100
AcDbLine
 10
341.8863788749
 20
395.9150228508
 30
0.0
 11
305.3034460849
 21
395.9150228508
 31
0.0
  0
ENDBLK
  5
6A
330
66
100
AcDbEntity
  8
0
100
AcDbBlockEnd
  0
BLOCK
  5
6E
330
6B
100
AcDbEntity
  8
0
100
AcDbBlockBegin
  2
SEANNOT_GROUP2
 70
     0
 10
0.0
 20
0.0
 30
0.0
  3
SEANNOT_GROUP2
  1

  0
LINE
  5
6D
330
6B
100
AcDbEntity
  8
Default
  6
CENTER2
 62
     7
100
AcDbLine
 10
96.2135100581
 20
177.2386964215
 30
0.0
 11
96.2135100581
 21
213.4787009547
 31
0.0
  0
ENDBLK
  5
6F
330
6B
100
AcDbEntity
  8
0
100
AcDbBlockEnd
  0
BLOCK
  5
73
330
70
100
AcDbEntity
  8
0
100
AcDbBlockBegin
  2
SEANNOT_GROUP3
 70
     0
 10
0.0
 20
0.0
 30
0.0
  3
SEANNOT_GROUP3
  1

  0
LINE
  5
72
330
70
100
AcDbEntity
  8
Default
  6
CENTER2
 62
     7
100
AcDbLine
 10
170.7135100581
 20
432.4150228508
 30
0.0
 11
205.3042946844
 21
432.4150228508
 31
0.0
  0
ENDBLK
  5
74
330
70
100
AcDbEntity
  8
0
100
AcDbBlockEnd
  0
BLOCK
  5
78
330
75
100
AcDbEntity
  8
0
100
AcDbBlockBegin
  2
SEANNOT_GROUP4
 70
     0
 10
0.0
 20
0.0
 30
0.0
  3
SEANNOT_GROUP4
  1

  0
LINE
  5
77
330
75
100
AcDbEntity
  8
Default
  6
CENTER2
 62
     7
100
AcDbLine
 10
96.2135100581
 20
527.4150228508
 30
0.0
 11
96.2135100581
 21
557.8696691803
 31
0.0
  0
ENDBLK
  5
79
330
75
100
AcDbEntity
  8
0
100
AcDbBlockEnd
  0
BLOCK
  5
7D
330
7A
100
AcDbEntity
  8
0
100
AcDbBlockBegin
  2
SEANNOT_GROUP5
 70
     0
 10
0.0
 20
0.0
 30
0.0
  3
SEANNOT_GROUP5
  1

  0
LINE
  5
7C
330
7A
100
AcDbEntity
  8
Default
  6
CENTER2
 62
     7
100
AcDbLine
 10
96.2135100581
 20
337.4150228508
 30
0.0
 11
96.2135100581
 21
306.0959231687
 31
0.0
  0
ENDBLK
  5
7E
330
7A
100
AcDbEntity
  8
0
100
AcDbBlockEnd
  0
BLOCK
  5
82
330
7F
100
AcDbEntity
  8
0
100
AcDbBlockBegin
  2
SEANNOT_GROUP6
 70
     0
 10
0.0
 20
0.0
 30
0.0
  3
SEANNOT_GROUP6
  1

  0
LINE
  5
81
330
7F
100
AcDbEntity
  8
Default
  6
CENTER2
 62
     7
100
AcDbLine
 10
21.7135100581
 20
432.4150228508
 30
0.0
 11
-3.0648045054
 21
432.4150228508
 31
0.0
  0
ENDBLK
  5
83
330
7F
100
AcDbEntity
  8
0
100
AcDbBlockEnd
  0
BLOCK
  5
87
330
84
100
AcDbEntity
  8
0
100
AcDbBlockBegin
  2
SEANNOT_GROUP7
 70
     0
 10
0.0
 20
0.0
 30
0.0
  3
SEANNOT_GROUP7
  1

  0
LINE
  5
86
330
84
100
AcDbEntity
  8
Default
  6
CENTER2
 62
     7
100
AcDbLine
 10
342.8898259016
 20
476.9150228508
 30
0.0
 11
306.4059693885
 21
476.9150228508
 31
0.0
  0
ENDBLK
  5
88
330
84
100
AcDbEntity
  8
0
100
AcDbBlockEnd
  0
BLOCK
  5
C2
330
89
100
AcDbEntity
  8
0
100
AcDbBlockBegin
  2
SE
 70
     0
 10
0.0
 20
0.0
 30
0.0
  3
SE
  1

  0
CIRCLE
  5
8C
330
89
100
AcDbEntity
  8
20_01_80_KAPPE_0
  6
Continuous
 62
     7
100
AcDbCircle
 10
96.2136285058
 20
398.6358502893
 30
0.0
 40
33.32645628411483
  0
ELLIPSE
  5
8E
330
89
100
AcDbEntity
  8
03510_GRIFF__ANS
  6
Continuous
 62
     7
100
AcDbEllipse
 10
117.3092620268
 20
453.6800007975
 30
0.0
 11
-1.700022070803508
 21
-1.053647698911295
 31
0.0
210
0.0
220
0.0
230
1.0
 40
0.9999400925
 41
0.1982577968736769
 42
0.5465467994484183
  0
ARC
  5
8F
330
89
100
AcDbEntity
  8
03510_GRIFF__ANS
  6
Continuous
 62
     7
100
AcDbCircle
 10
107.4003370984
 20
443.7324682746
 30
0.0
 40
12.08340813915715
100
AcDbArc
 50
83.0254166062
 51
108.2953464595
  0
ARC
  5
90
330
89
100
AcDbEntity
  8
03510_GRIFF__ANS
  6
Continuous
 62
     7
100
AcDbCircle
 10
107.4715763958
 20
444.025050127
 30
0.0
 40
11.78439336372356
100
AcDbArc
 50
44.6667017533
 51
83.1964826313
  0
LINE
  5
91
330
89
100
AcDbEntity
  8
03510_GRIFF__ANS
  6
Continuous
 62
     7
100
AcDbLine
 10
115.852622711
 20
452.3093846615
 30
0.0
 11
115.850022953
 21
452.3122101504
 31
0.0
  0
ELLIPSE
  5
92
330
89
100
AcDbEntity
  8
03510_GRIFF__ANS
  6
Continuous
 62
     7
100
AcDbEllipse
 10
117.2655339524
 20
453.7265636285
 30
0.0
 11
-1.459904718107915
 21
-1.366995754219988
 31
0.0
210
0.0
220
0.0
230
1.0
 40
0.9974726226
 41
0.0005641720614634
 42
1.553795408004786
  0
ARC
  5
93
330
89
100
AcDbEntity
  8
03510_GRIFF__ANS
  6
Continuous
 62
     7
100
AcDbCircle
 10
98.4560042457
 20
474.5228242821
 30
0.0
 40
30.1047417096154
100
AcDbArc
 50
312.1306944898
 51
314.1693236361
  0
CIRCLE
  5
94
330
89
100
AcDbEntity
  8
03510_GRIFF__ANS
  6
Continuous
 62
     7
100
AcDbCircle
 10
96.213509716
 20
476.9150198495
 30
0.0
 40
2.9999779562826
  0
LINE
  5
95
330
89
100
AcDbEntity
  8
03510_GRIFF__ANS
  6
Continuous
 62
     7
100
AcDbLine
 10
119.4324680516
 20
452.929122668
 30
0.0
 11
119.4324213267
 21
452.9291816296
 31
0.0
  0
ARC
  5
96
330
89
100
AcDbEntity
  8
03510_GRIFF__ANS
  6
Continuous
 62
     7
100
AcDbCircle
 10
106.1518521895
 20
443.9183142303
 30
0.0
 40
12.82385147169494
100
AcDbArc
 50
41.2409405653
 51
92.9376707
  0
ARC
  5
97
330
89
100
AcDbEntity
  8
03510_GRIFF__ANS
  6
Continuous
 62
     7
100
AcDbCircle
 10
107.4718905317
 20
444.0256604479
 30
0.0
 40
11.78375012890215
100
AcDbArc
 50
81.1482704742
 51
83.1976477395
  0
ARC
  5
98
330
89
100
AcDbEntity
  8
03510_GRIFF__ANS
  6
Continuous
 62
     7
100
AcDbCircle
 10
107.4718905317
 20
444.0256604479
 30
0.0
 40
11.78375012890215
100
AcDbArc
 50
44.6760284424
 51
45.0552713019
  0
LINE
  5
99
330
89
100
AcDbEntity
  8
03510_GRIFF__ANS
  6
Continuous
 62
     7
100
AcDbLine
 10
115.8063987382
 20
452.358746536
 30
0.0
 11
115.8496369927
 21
452.3126218758
 31
0.0
  0
ARC
  5
9A
330
89
100
AcDbEntity
  8
03510_GRIFF__ANS
  6
Continuous
 62
     7
100
AcDbCircle
 10
106.1646079964
 20
443.948437405
 30
0.0
 40
12.79442958436263
100
AcDbArc
 50
41.0974318538
 51
42.5549932063
  0
ARC
  5
9B
330
89
100
AcDbEntity
  8
03510_GRIFF__ANS
  6
Continuous
 62
     7
100
AcDbCircle
 10
118.0388995864
 20
454.3637804685
 30
0.0
 40
1.999994167264508
100
AcDbArc
 50
32.7498786848
 51
43.15
  0
ELLIPSE
  5
9C
330
89
100
AcDbEntity
  8
03510_GRIFF__ANS
  6
Continuous
 62
     7
100
AcDbEllipse
 10
117.9950921281
 20
454.4104829443
 30
0.0
 11
-1.459908873302579
 21
-1.366991347633135
 31
0.0
210
0.0
220
0.0
230
1.0
 40
0.9974782315
 41
2.95166491900396
 42
3.142159845990175
  0
LINE
  5
9D
330
89
100
AcDbEntity
  8
03510_GRIFF__ANS
  6
Continuous
 62
     7
100
AcDbLine
 10
119.4542273748
 20
455.778300033
 30
0.0
 11
119.4981015167
 21
455.7314972941
 31
0.0
  0
LINE
  5
9E
330
89
100
AcDbEntity
  8
03510_GRIFF__ANS
  6
Continuous
 62
     7
100
AcDbLine
 10
119.4980648731
 20
455.7315361434
 30
0.0
 11
119.4980161625
 21
455.7315879167
 31
0.0
  0
LINE
  5
9F
330
89
100
AcDbEntity
  8
03510_GRIFF__ANS
  6
Continuous
 62
     7
100
AcDbLine
 10
119.4980161625
 20
455.7315879167
 30
0.0
 11
119.4978855864
 21
455.7317273031
 31
0.0
  0
ARC
  5
A0
330
89
100
AcDbEntity
  8
03510_GRIFF__ANS
  6
Continuous
 62
     7
100
AcDbCircle
 10
96.5840325588
 20
476.6809256752
 30
0.0
 40
22.50273618578051
100
AcDbArc
 50
337.5672360776
 51
337.682540957
  0
LINE
  5
A1
330
89
100
AcDbEntity
  8
03510_GRIFF__ANS
  6
Continuous
 62
     7
100
AcDbLine
 10
119.4978515909
 20
455.7317636407
 30
0.0
 11
119.5005086414
 21
455.7289816734
 31
0.0
  0
ARC
  5
A2
330
89
100
AcDbEntity
  8
03510_GRIFF__ANS
  6
Continuous
 62
     7
100
AcDbCircle
 10
128.3084183606
 20
463.5579561433
 30
0.0
 40
11.78439309231626
100
AcDbArc
 50
183.1035408669
 51
189.4884577244
  0
ARC
  5
A3
330
89
100
AcDbEntity
  8
03510_GRIFF__ANS
  6
Continuous
 62
     7
100
AcDbCircle
 10
128.6051051298
 20
463.6101491031
 30
0.0
 40
12.08352425967898
100
AcDbArc
 50
158.0046577782
 51
183.2744946414
  0
CIRCLE
  5
A4
330
89
100
AcDbEntity
  8
03510_GRIFF__ANS
  6
Continuous
 62
     7
100
AcDbCircle
 10
96.2135100581
 20
476.9150228508
 30
0.0
 40
1.500000000000035
  0
ARC
  5
A5
330
89
100
AcDbEntity
  8
03510_GRIFF__ANS
  6
Continuous
 62
     7
100
AcDbCircle
 10
128.4711173078
 20
464.8579216774
 30
0.0
 40
12.79624293573127
100
AcDbArc
 50
173.3023137364
 51
225.1986155117
  0
SPLINE
  5
A6
330
89
100
AcDbEntity
  8
03510_GRIFF__ANS
  6
Continuous
 62
     7
100
AcDbSpline
210
0.0
220
0.0
230
1.0
 70
    12
 71
     2
 72
     8
 73
     5
 74
     0
 42
0.000000000088791
 43
0.0000000001
 40
0.0
 40
0.0
 40
0.0
 40
0.637129405440592
 40
0.637129405440592
 40
0.8366681237851697
 40
0.8366681237851697
 40
0.8366681237851697
 10
80.52322686635495
 20
493.6527239924836
 30
0.0
 41
1.000002217622286
 10
109.5137756456994
 20
520.8290916657837
 30
0.0
 41
0.5000011088111429
 10
118.5539260436912
 20
482.1343561165694
 30
0.0
 41
1.000002217622286
 10
120.2323724006399
 20
474.9500687920914
 30
0.0
 41
0.8434098839910198
 10
117.4085823604893
 20
468.1341039782917
 30
0.0
 41
0.7849019686539046
  0
ARC
  5
A7
330
89
100
AcDbEntity
  8
03510_GRIFF__ANS
  6
Continuous
 62
     7
100
AcDbCircle
 10
128.4690814006
 20
464.8572106883
 30
0.0
 40
12.79430388072475
100
AcDbArc
 50
224.2500051607
 51
225.0581650562
  0
ARC
  5
A8
330
89
100
AcDbEntity
  8
03510_GRIFF__ANS
  6
Continuous
 62
     7
100
AcDbCircle
 10
128.2866589294
 20
463.5489874176
 30
0.0
 40
11.76218257492919
100
AcDbArc
 50
221.3448864331
 51
221.670182577
  0
ARC
  5
A9
330
89
100
AcDbEntity
  8
03510_GRIFF__ANS
  6
Continuous
 62
     7
100
AcDbCircle
 10
128.2866589294
 20
463.5489874176
 30
0.0
 40
11.76218257492919
100
AcDbArc
 50
183.0656551929
 51
221.1387187577
  0
SPLINE
  5
AA
330
89
100
AcDbEntity
  8
03510_GRIFF__ANS
  6
Continuous
 62
     7
100
AcDbSpline
210
0.0
220
0.0
230
1.0
 70
     8
 71
     2
 72
    64
 73
    61
 74
     0
 42
0.0000000001471717
 43
0.0000000001
 40
0.0
 40
0.0
 40
0.0
 40
0.03125
 40
0.03125
 40
0.0625
 40
0.0625
 40
0.09375
 40
0.09375
 40
0.125
 40
0.125
 40
0.15625
 40
0.15625
 40
0.1875
 40
0.1875
 40
0.21875
 40
0.21875
 40
0.25
 40
0.25
 40
0.28125
 40
0.28125
 40
0.3125
 40
0.3125
 40
0.34375
 40
0.34375
 40
0.375
 40
0.375
 40
0.40625
 40
0.40625
 40
0.4375
 40
0.4375
 40
0.46875
 40
0.46875
 40
0.5
 40
0.5
 40
0.53125
 40
0.53125
 40
0.5625
 40
0.5625
 40
0.59375
 40
0.59375
 40
0.625
 40
0.625
 40
0.65625
 40
0.65625
 40
0.6875
 40
0.6875
 40
0.71875
 40
0.71875
 40
0.75
 40
0.75
 40
0.78125
 40
0.78125
 40
0.8125
 40
0.8125
 40
0.84375
 40
0.84375
 40
0.875
 40
0.875
 40
0.90625
 40
0.90625
 40
0.9182345612248592
 40
0.9182345612248592
 40
0.9182345612248592
 10
80.52322686635495
 20
493.6527239924836
 30
0.0
 10
79.86046937201216
 20
493.0314136396224
 30
0.0
 10
79.24887036686832
 20
492.3596538367493
 30
0.0
 10
78.61105768090154
 20
491.6591018074107
 30
0.0
 10
78.03257789859447
 20
490.9074969693008
 30
0.0
 10
77.43115231492182
 20
490.1260792045372
 30
0.0
 10
76.8984763797217
 20
489.2950511281741
 30
0.0
 10
76.34628146104193
 20
488.4335714728646
 30
0.0
 10
75.87253507013745
 20
487.5254122255864
 30
0.0
 10
75.38305917979449
 20
486.5870999457061
 30
0.0
 10
74.98169664486059
 20
485.606727248151
 30
0.0
 10
74.56854789479269
 20
484.5975654073172
 30
0.0
 10
74.25272346678786
 20
483.5527542732402
 30
0.0
 10
73.92895471498848
 20
482.4816617080347
 30
0.0
 10
73.71080440510744
 20
481.3831169008911
 30
0.0
 10
73.48815935094316
 20
480.2619378009313
 30
0.0
 10
73.37801585686863
 20
479.1231511829641
 30
0.0
 10
73.26613763005174
 20
477.9664289579121
 30
0.0
 10
73.27177649394584
 20
476.8032766327217
 30
0.0
 10
73.27747543952759
 20
475.6277310034791
 30
0.0
 10
73.40346691575921
 20
474.4578785753097
 30
0.0
 10
73.53013964096084
 20
473.2817006338153
 30
0.0
 10
73.77739132398236
 20
472.1237597297911
 30
0.0
 10
74.02466459331703
 20
470.9657177317129
 30
0.0
 10
74.39023140186559
 20
469.8382909187098
 30
0.0
 10
74.75388996201062
 20
468.7167492417903
 30
0.0
 10
75.23108364957079
 20
467.6374472969636
 30
0.0
 10
75.70329964204754
 20
466.5694037491448
 30
0.0
 10
76.2820906882166
 20
465.5539424422957
 30
0.0
 10
76.85192896532648
 20
464.5541883420958
 30
0.0
 10
77.51959181106753
 20
463.615660207421
 30
0.0
 10
78.17372694859269
 20
462.6961478601893
 30
0.0
 10
78.91564753813307
 20
461.8445358517897
 30
0.0
 10
79.63919299113051
 20
461.0140157057221
 30
0.0
 10
80.43975204746873
 20
460.2559657235422
 30
0.0
 10
81.21714196897773
 20
459.5198546128364
 30
0.0
 10
82.06054228596084
 20
458.8587461197528
 30
0.0
 10
82.87632950718131
 20
458.2192824515068
 30
0.0
 10
83.74733973019941
 20
457.6554739593201
 30
0.0
 10
84.58685350556688
 20
457.1120532469664
 30
0.0
 10
85.47140934758471
 20
456.6432962723154
 30
0.0
 10
86.32130295997112
 20
456.1929080214067
 30
0.0
 10
87.20687665776964
 20
455.8148763835384
 30
0.0
 10
88.05542628786453
 20
455.4526494934727
 30
0.0
 10
88.93129577734084
 20
455.1594492817788
 30
0.0
 10
89.78350464996097
 20
454.8741695399203
 30
0.0
 10
90.65641954704208
 20
454.6562184983639
 30
0.0
 10
91.56149195662694
 20
454.4302383082991
 30
0.0
 10
92.48294017068935
 20
454.2783606749537
 30
0.0
 10
93.44189051559708
 20
454.1203017556811
 30
0.0
 10
94.41178453597578
 20
454.0438748408879
 30
0.0
 10
95.41836590965875
 20
453.9645569904192
 30
0.0
 10
96.4290460184898
 20
453.9740296203776
 30
0.0
 10
97.47462958001258
 20
453.9838293840044
 30
0.0
 10
98.5160060650386
 20
454.0888506292762
 30
0.0
 10
99.58950131203399
 20
454.1971110031698
 30
0.0
 10
100.6491015479663
 20
454.4058879433059
 30
0.0
 10
101.7370637166063
 20
454.6202531395843
 30
0.0
 10
102.8002515848953
 20
454.9388889276541
 30
0.0
 10
103.2170980384789
 20
455.0638171761822
 30
0.0
 10
103.6285726986331
 20
455.2043504096821
 30
0.0
  0
ARC
  5
AB
330
89
100
AcDbEntity
  8
03510_GRIFF__ANS
  6
Continuous
 62
     7
100
AcDbCircle
 10
107.4876552122
 20
443.9865295713
 30
0.0
 40
11.83539876961376
100
AcDbArc
 50
43.096594174
 51
44.0444078515
  0
ARC
  5
AC
330
89
100
AcDbEntity
  8
03510_GRIFF__ANS
  6
Continuous
 62
     7
100
AcDbCircle
 10
107.4876552122
 20
443.9865295713
 30
0.0
 40
11.83539876961376
100
AcDbArc
 50
42.936522931
 51
42.939421099
  0
LINE
  5
AD
330
89
100
AcDbEntity
  8
03510_GRIFF__ANS
  6
Continuous
 62
     7
100
AcDbLine
 10
116.1523522089
 20
452.0487303806
 30
0.0
 11
116.1436278967
 21
452.0547477049
 31
0.0
  0
ARC
  5
AE
330
89
100
AcDbEntity
  8
03510_GRIFF__ANS
  6
Continuous
 62
     7
100
AcDbCircle
 10
117.3070593109
 20
453.6714670136
 30
0.0
 40
1.99155657039129
100
AcDbArc
 50
241.2699422876
 51
312.3432099255
  0
LINE
  5
AF
330
89
100
AcDbEntity
  8
03510_GRIFF__ANS
  6
Continuous
 62
     7
100
AcDbLine
 10
118.6323628882
 20
452.2165746393
 30
0.0
 11
119.4137440006
 21
452.9490567292
 31
0.0
  0
ARC
  5
B0
330
89
100
AcDbEntity
  8
03510_GRIFF__ANS
  6
Continuous
 62
     7
100
AcDbCircle
 10
117.9826151876
 20
454.3637918308
 30
0.0
 40
2.035871388319922
100
AcDbArc
 50
315.3024274394
 51
33.7062589613
  0
LINE
  5
B1
330
89
100
AcDbEntity
  8
03510_GRIFF__ANS
  6
Continuous
 62
     7
100
AcDbLine
 10
119.720680862
 20
455.4461535802
 30
0.0
 11
119.7205825258
 21
455.446259045
 31
0.0
  0
ARC
  5
B2
330
89
100
AcDbEntity
  8
03510_GRIFF__ANS
  6
Continuous
 62
     7
100
AcDbCircle
 10
128.3586307403
 20
463.5442053697
 30
0.0
 40
11.84922836912073
100
AcDbArc
 50
222.2447299173
 51
223.3662059307
  0
LINE
  5
B3
330
89
100
AcDbEntity
  8
03510_GRIFF__ANS
  6
Continuous
 62
     7
100
AcDbLine
 10
119.7358310598
 20
455.4221549483
 30
0.0
 11
119.7411502714
 21
455.4132574457
 31
0.0
  0
LINE
  5
B4
330
89
100
AcDbEntity
  8
03510_GRIFF__ANS
  6
Continuous
 62
     7
100
AcDbLine
 10
119.4542578759
 20
455.7782674852
 30
0.0
 11
119.453547928
 21
455.7790248676
 31
0.0
  0
LINE
  5
B6
330
89
100
AcDbEntity
  8
36247XXX_SELBSTS
  6
Continuous
 62
     7
100
AcDbLine
 10
25.2135100581
 20
530.9150228508
 30
0.0
 11
167.2135100581
 21
530.9150228508
 31
0.0
  0
LINE
  5
B7
330
89
100
AcDbEntity
  8
36247XXX_SELBSTS
  6
Continuous
 62
     7
100
AcDbLine
 10
25.2135100581
 20
333.9150228508
 30
0.0
 11
167.2135100581
 21
333.9150228508
 31
0.0
  0
LINE
  5
B8
330
89
100
AcDbEntity
  8
36247XXX_SELBSTS
  6
Continuous
 62
     7
100
AcDbLine
 10
174.2135100581
 20
523.9150228508
 30
0.0
 11
174.2135100581
 21
340.9150228508
 31
0.0
  0
LINE
  5
B9
330
89
100
AcDbEntity
  8
36247XXX_SELBSTS
  6
Continuous
 62
     7
100
AcDbLine
 10
18.2135100581
 20
340.9150228508
 30
0.0
 11
18.2135100581
 21
523.9150228508
 31
0.0
  0
ARC
  5
BA
330
89
100
AcDbEntity
  8
36247XXX_SELBSTS
  6
Continuous
 62
     7
100
AcDbCircle
 10
25.2135100581
 20
340.9150228508
 30
0.0
 40
7.000000000000083
100
AcDbArc
 50
180.0
 51
225.0
  0
ARC
  5
BB
330
89
100
AcDbEntity
  8
36247XXX_SELBSTS
  6
Continuous
 62
     7
100
AcDbCircle
 10
25.2135100581
 20
523.9150228508
 30
0.0
 40
7.000000000000063
100
AcDbArc
 50
135.0
 51
180.0
  0
ARC
  5
BC
330
89
100
AcDbEntity
  8
36247XXX_SELBSTS
  6
Continuous
 62
     7
100
AcDbCircle
 10
167.2135100581
 20
340.9150228508
 30
0.0
 40
6.999999999999988
100
AcDbArc
 50
315.0
 51
0.0
  0
ARC
  5
BD
330
89
100
AcDbEntity
  8
36247XXX_SELBSTS
  6
Continuous
 62
     7
100
AcDbCircle
 10
167.2135100581
 20
523.9150228508
 30
0.0
 40
7.000000000000033
100
AcDbArc
 50
0.0
 51
45.0
  0
ARC
  5
BE
330
89
100
AcDbEntity
  8
36247XXX_SELBSTS
  6
Continuous
 62
     7
100
AcDbCircle
 10
167.2135100581
 20
523.9150228508
 30
0.0
 40
7.000000000000291
100
AcDbArc
 50
45.0
 51
90.0
  0
ARC
  5
BF
330
89
100
AcDbEntity
  8
36247XXX_SELBSTS
  6
Continuous
 62
     7
100
AcDbCircle
 10
167.2135100581
 20
340.9150228508
 30
0.0
 40
7.000000000000019
100
AcDbArc
 50
270.0
 51
315.0
  0
ARC
  5
C0
330
89
100
AcDbEntity
  8
36247XXX_SELBSTS
  6
Continuous
 62
     7
100
AcDbCircle
 10
25.2135100581
 20
523.9150228508
 30
0.0
 40
6.999999999999942
100
AcDbArc
 50
90.0
 51
135.0
  0
ARC
  5
C1
330
89
100
AcDbEntity
  8
36247XXX_SELBSTS
  6
Continuous
 62
     7
100
AcDbCircle
 10
25.2135100581
 20
340.9150228508
 30
0.0
 40
6.999999999999826
100
AcDbArc
 50
225.0
 51
270.0
  0
ENDBLK
  5
C3
330
89
100
AcDbEntity
  8
0
100
AcDbBlockEnd
  0
BLOCK
  5
12F
330
C4
100
AcDbEntity
  8
0
100
AcDbBlockBegin
  2
SE1
 70
     0
 10
0.0
 20
0.0
 30
0.0
  3
SE1
  1

  0
LINE
  5
C7
330
C4
100
AcDbEntity
  8
17_02_80XX_INNEN
  6
Continuous
 62
     7
100
AcDbLine
 10
338.3898259016
 20
369.9150228508
 30
0.0
 11
356.1917030151
 21
369.9150228508
 31
0.0
  0
LINE
  5
C8
330
C4
100
AcDbEntity
  8
17_02_80XX_INNEN
  6
Continuous
 62
     7
100
AcDbLine
 10
349.1879487882
 20
421.9150228508
 30
0.0
 11
338.3898259016
 21
421.9150228508
 31
0.0
  0
LINE
  5
CA
330
C4
100
AcDbEntity
  8
E03514
  6
Continuous
 62
     7
100
AcDbLine
 10
350.3898259016
 20
454.4095565892
 30
0.0
 11
350.3898259016
 21
499.4204891124
 31
0.0
  0
LINE
  5
CB
330
C4
100
AcDbEntity
  8
E03514
  6
Continuous
 62
     7
100
AcDbLine
 10
339.3898259016
 20
454.5298151188
 30
0.0
 11
339.3898259016
 21
476.9150228508
 31
0.0
  0
ARC
  5
CC
330
C4
100
AcDbEntity
  8
E03514
  6
Continuous
 62
     7
100
AcDbCircle
 10
350.1898259016
 20
454.4095565892
 30
0.0
 40
0.2000000000000632
100
AcDbArc
 50
271.0
 51
0.0
  0
ARC
  5
CD
330
C4
100
AcDbEntity
  8
E03514
  6
Continuous
 62
     7
100
AcDbCircle
 10
350.1898259016
 20
499.4204891124
 30
0.0
 40
0.2000000000001237
100
AcDbArc
 50
0.0
 51
89.0
  0
LINE
  5
CE
330
C4
100
AcDbEntity
  8
E03514
  6
Continuous
 62
     7
100
AcDbLine
 10
339.8985521048
 20
454.0298912713
 30
0.0
 11
350.1933163829
 21
454.2095870502
 31
0.0
  0
LINE
  5
CF
330
C4
100
AcDbEntity
  8
E03514
  6
Continuous
 62
     7
100
AcDbLine
 10
350.1933163829
 20
499.6204586514
 30
0.0
 11
341.9366849103
 21
499.7645786898
 31
0.0
  0
ARC
  5
D0
330
C4
100
AcDbEntity
  8
E03514
  6
Continuous
 62
     7
100
AcDbCircle
 10
339.8898259016
 20
454.5298151188
 30
0.0
 40
0.4999999999999172
100
AcDbArc
 50
180.0
 51
271.0
  0
LINE
  5
D1
330
C4
100
AcDbEntity
  8
20_01_80_KAPPE_0
  6
Continuous
 62
     7
100
AcDbLine
 10
373.8421307018
 20
365.538288795
 30
0.0
 11
362.8621585099
 21
431.5056061497
 31
0.0
  0
LINE
  5
D2
330
C4
100
AcDbEntity
  8
20_01_80_KAPPE_0
  6
Continuous
 62
     7
100
AcDbLine
 10
356.4491902293
 20
368.0032859876
 30
0.0
 11
348.8589963169
 21
424.3573599103
 31
0.0
  0
ARC
  5
D3
330
C4
100
AcDbEntity
  8
20_01_80_KAPPE_0
  6
Continuous
 62
     7
100
AcDbCircle
 10
321.0598259016
 20
390.6503473363
 30
0.0
 40
60.5
100
AcDbArc
 50
337.3685437028
 51
41.5314562972
  0
LINE
  5
D4
330
C4
100
AcDbEntity
  8
20_01_80_KAPPE_0
  6
Continuous
 62
     7
100
AcDbLine
 10
362.8621585099
 20
431.5056061497
 30
0.0
 11
349.4361485218
 21
425.4011650116
 31
0.0
  0
LINE
  5
D5
330
C4
100
AcDbEntity
  8
20_01_80_KAPPE_0
  6
Continuous
 62
     7
100
AcDbLine
 10
357.3399928528
 20
367.1417995173
 30
0.0
 11
373.8421307018
 21
365.538288795
 31
0.0
  0
ARC
  5
D6
330
C4
100
AcDbEntity
  8
20_01_80_KAPPE_0
  6
Continuous
 62
     7
100
AcDbCircle
 10
374.1322737907
 20
368.5242253295
 30
0.0
 40
3.00000000000001
100
AcDbArc
 50
264.45
 51
337.3685437028
  0
ARC
  5
D7
330
C4
100
AcDbEntity
  8
20_01_80_KAPPE_0
  6
Continuous
 62
     7
100
AcDbCircle
 10
364.1038554914
 20
428.7746377123
 30
0.0
 40
2.999999999999995
100
AcDbArc
 50
41.5314562972
 51
114.45
  0
ARC
  5
D8
330
C4
100
AcDbEntity
  8
20_01_80_KAPPE_0
  6
Continuous
 62
     7
100
AcDbCircle
 10
357.440241428
 20
368.1367682765
 30
0.0
 40
0.9999999999999996
100
AcDbArc
 50
187.6708671619
 51
264.2442976289
  0
ARC
  5
D9
330
C4
100
AcDbEntity
  8
20_01_80_KAPPE_0
  6
Continuous
 62
     7
100
AcDbCircle
 10
349.8500475157
 20
424.4908421991
 30
0.0
 40
0.9999999999999986
100
AcDbArc
 50
114.4718175112
 51
187.6708671619
  0
LINE
  5
DB
330
C4
100
AcDbEntity
  8
$DDT_AUDIT_GENERATED_(DA)
  6
Continuous
 62
     7
100
AcDbLine
 10
338.3898259016
 20
499.9095400504
 30
0.0
 11
341.7898259016
 21
499.9095400504
 31
0.0
  0
LINE
  5
DC
330
C4
100
AcDbEntity
  8
$DDT_AUDIT_GENERATED_(DA)
  6
Continuous
 62
     7
100
AcDbLine
 10
338.3898259016
 20
499.8657001905
 30
0.0
 11
341.7898259016
 21
499.8657001905
 31
0.0
  0
LINE
  5
DD
330
C4
100
AcDbEntity
  8
$DDT_AUDIT_GENERATED_(DA)
  6
Continuous
 62
     7
100
AcDbLine
 10
338.3898259016
 20
499.7781406328
 30
0.0
 11
341.7898259016
 21
499.7781406328
 31
0.0
  0
LINE
  5
DE
330
C4
100
AcDbEntity
  8
$DDT_AUDIT_GENERATED_(DA)
  6
Continuous
 62
     7
100
AcDbLine
 10
338.3898259016
 20
499.6471013718
 30
0.0
 11
341.7898259016
 21
499.6471013718
 31
0.0
  0
LINE
  5
DF
330
C4
100
AcDbEntity
  8
$DDT_AUDIT_GENERATED_(DA)
  6
Continuous
 62
     7
100
AcDbLine
 10
338.3898259016
 20
497.5572654804
 30
0.0
 11
339.3898259016
 21
497.5572654804
 31
0.0
  0
LINE
  5
E0
330
C4
100
AcDbEntity
  8
$DDT_AUDIT_GENERATED_(DA)
  6
Continuous
 62
     7
100
AcDbLine
 10
338.3898259016
 20
497.1010418687
 30
0.0
 11
339.3898259016
 21
497.1010418687
 31
0.0
  0
LINE
  5
E1
330
C4
100
AcDbEntity
  8
$DDT_AUDIT_GENERATED_(DA)
  6
Continuous
 62
     7
100
AcDbLine
 10
338.3898259016
 20
496.6086762954
 30
0.0
 11
339.3898259016
 21
496.6086762954
 31
0.0
  0
LINE
  5
E2
330
C4
100
AcDbEntity
  8
$DDT_AUDIT_GENERATED_(DA)
  6
Continuous
 62
     7
100
AcDbLine
 10
338.3898259016
 20
496.0815183004
 30
0.0
 11
339.3898259016
 21
496.0815183004
 31
0.0
  0
LINE
  5
E3
330
C4
100
AcDbEntity
  8
$DDT_AUDIT_GENERATED_(DA)
  6
Continuous
 62
     7
100
AcDbLine
 10
338.3898259016
 20
495.521012787
 30
0.0
 11
339.3898259016
 21
495.521012787
 31
0.0
  0
LINE
  5
E4
330
C4
100
AcDbEntity
  8
$DDT_AUDIT_GENERATED_(DA)
  6
Continuous
 62
     7
100
AcDbLine
 10
338.3898259016
 20
494.9286960619
 30
0.0
 11
339.3898259016
 21
494.9286960619
 31
0.0
  0
LINE
  5
E5
330
C4
100
AcDbEntity
  8
$DDT_AUDIT_GENERATED_(DA)
  6
Continuous
 62
     7
100
AcDbLine
 10
339.3898259016
 20
494.3371910863
 30
0.0
 11
338.3898259016
 21
494.3371910863
 31
0.0
  0
LINE
  5
E6
330
C4
100
AcDbEntity
  8
$DDT_AUDIT_GENERATED_(DA)
  6
Continuous
 62
     7
100
AcDbLine
 10
338.3898259016
 20
494.3061916241
 30
0.0
 11
339.3898259016
 21
494.3061916241
 31
0.0
  0
LINE
  5
E7
330
C4
100
AcDbEntity
  8
$DDT_AUDIT_GENERATED_(DA)
  6
Continuous
 62
     7
100
AcDbLine
 10
339.3898259016
 20
493.717119672
 30
0.0
 11
338.3898259016
 21
493.717119672
 31
0.0
  0
LINE
  5
E8
330
C4
100
AcDbEntity
  8
$DDT_AUDIT_GENERATED_(DA)
  6
Continuous
 62
     7
100
AcDbLine
 10
338.3898259016
 20
493.6552057149
 30
0.0
 11
339.3898259016
 21
493.6552057149
 31
0.0
  0
LINE
  5
E9
330
C4
100
AcDbEntity
  8
$DDT_AUDIT_GENERATED_(DA)
  6
Continuous
 62
     7
100
AcDbLine
 10
339.3898259016
 20
493.0701813916
 30
0.0
 11
338.3898259016
 21
493.0701813916
 31
0.0
  0
LINE
  5
EA
330
C4
100
AcDbEntity
  8
$DDT_AUDIT_GENERATED_(DA)
  6
Continuous
 62
     7
100
AcDbLine
 10
338.3898259016
 20
492.9775226416
 30
0.0
 11
339.3898259016
 21
492.9775226416
 31
0.0
  0
LINE
  5
EB
330
C4
100
AcDbEntity
  8
$DDT_AUDIT_GENERATED_(DA)
  6
Continuous
 62
     7
100
AcDbLine
 10
339.3898259016
 20
492.398149458
 30
0.0
 11
338.3898259016
 21
492.398149458
 31
0.0
  0
LINE
  5
EC
330
C4
100
AcDbEntity
  8
$DDT_AUDIT_GENERATED_(DA)
  6
Continuous
 62
     7
100
AcDbLine
 10
338.3898259016
 20
492.2749998862
 30
0.0
 11
339.3898259016
 21
492.2749998862
 31
0.0
  0
LINE
  5
ED
330
C4
100
AcDbEntity
  8
$DDT_AUDIT_GENERATED_(DA)
  6
Continuous
 62
     7
100
AcDbLine
 10
339.3898259016
 20
491.7028658641
 30
0.0
 11
338.3898259016
 21
491.7028658641
 31
0.0
  0
LINE
  5
EE
330
C4
100
AcDbEntity
  8
$DDT_AUDIT_GENERATED_(DA)
  6
Continuous
 62
     7
100
AcDbLine
 10
338.3898259016
 20
491.5495630149
 30
0.0
 11
339.3898259016
 21
491.5495630149
 31
0.0
  0
LINE
  5
EF
330
C4
100
AcDbEntity
  8
$DDT_AUDIT_GENERATED_(DA)
  6
Continuous
 62
     7
100
AcDbLine
 10
339.3898259016
 20
490.9862363338
 30
0.0
 11
338.3898259016
 21
490.9862363338
 31
0.0
  0
LINE
  5
F0
330
C4
100
AcDbEntity
  8
$DDT_AUDIT_GENERATED_(DA)
  6
Continuous
 62
     7
100
AcDbLine
 10
338.3898259016
 20
490.8032003997
 30
0.0
 11
339.3898259016
 21
490.8032003997
 31
0.0
  0
LINE
  5
F1
330
C4
100
AcDbEntity
  8
$DDT_AUDIT_GENERATED_(DA)
  6
Continuous
 62
     7
100
AcDbLine
 10
339.3898259016
 20
490.2502250989
 30
0.0
 11
338.3898259016
 21
490.2502250989
 31
0.0
  0
LINE
  5
F2
330
C4
100
AcDbEntity
  8
$DDT_AUDIT_GENERATED_(DA)
  6
Continuous
 62
     7
100
AcDbLine
 10
338.3898259016
 20
490.0379577686
 30
0.0
 11
339.3898259016
 21
490.0379577686
 31
0.0
  0
LINE
  5
F3
330
C4
100
AcDbEntity
  8
$DDT_AUDIT_GENERATED_(DA)
  6
Continuous
 62
     7
100
AcDbLine
 10
339.3898259016
 20
489.4968495149
 30
0.0
 11
338.3898259016
 21
489.4968495149
 31
0.0
  0
LINE
  5
F4
330
C4
100
AcDbEntity
  8
$DDT_AUDIT_GENERATED_(DA)
  6
Continuous
 62
     7
100
AcDbLine
 10
338.3898259016
 20
489.2559325985
 30
0.0
 11
339.3898259016
 21
489.2559325985
 31
0.0
  0
LINE
  5
F5
330
C4
100
AcDbEntity
  8
$DDT_AUDIT_GENERATED_(DA)
  6
Continuous
 62
     7
100
AcDbLine
 10
339.3898259016
 20
488.7281745321
 30
0.0
 11
338.3898259016
 21
488.7281745321
 31
0.0
  0
LINE
  5
F6
330
C4
100
AcDbEntity
  8
$DDT_AUDIT_GENERATED_(DA)
  6
Continuous
 62
     7
100
AcDbLine
 10
338.3898259016
 20
488.459268366
 30
0.0
 11
339.3898259016
 21
488.459268366
 31
0.0
  0
LINE
  5
F7
330
C4
100
AcDbEntity
  8
$DDT_AUDIT_GENERATED_(DA)
  6
Continuous
 62
     7
100
AcDbLine
 10
339.3898259016
 20
487.946307035
 30
0.0
 11
338.3898259016
 21
487.946307035
 31
0.0
  0
LINE
  5
F8
330
C4
100
AcDbEntity
  8
$DDT_AUDIT_GENERATED_(DA)
  6
Continuous
 62
     7
100
AcDbLine
 10
338.3898259016
 20
487.6501486725
 30
0.0
 11
339.3898259016
 21
487.6501486725
 31
0.0
  0
LINE
  5
F9
330
C4
100
AcDbEntity
  8
$DDT_AUDIT_GENERATED_(DA)
  6
Continuous
 62
     7
100
AcDbLine
 10
339.3898259016
 20
487.1533900682
 30
0.0
 11
338.3898259016
 21
487.1533900682
 31
0.0
  0
LINE
  5
FA
330
C4
100
AcDbEntity
  8
$DDT_AUDIT_GENERATED_(DA)
  6
Continuous
 62
     7
100
AcDbLine
 10
338.3898259016
 20
486.8307912586
 30
0.0
 11
339.3898259016
 21
486.8307912586
 31
0.0
  0
LINE
  5
FB
330
C4
100
AcDbEntity
  8
$DDT_AUDIT_GENERATED_(DA)
  6
Continuous
 62
     7
100
AcDbLine
 10
339.3898259016
 20
486.351596962
 30
0.0
 11
338.3898259016
 21
486.351596962
 31
0.0
  0
LINE
  5
FC
330
C4
100
AcDbEntity
  8
$DDT_AUDIT_GENERATED_(DA)
  6
Continuous
 62
     7
100
AcDbLine
 10
338.3898259016
 20
486.0034419263
 30
0.0
 11
339.3898259016
 21
486.0034419263
 31
0.0
  0
LINE
  5
FD
330
C4
100
AcDbEntity
  8
$DDT_AUDIT_GENERATED_(DA)
  6
Continuous
 62
     7
100
AcDbLine
 10
339.3898259016
 20
485.5431253755
 30
0.0
 11
338.3898259016
 21
485.5431253755
 31
0.0
  0
LINE
  5
FE
330
C4
100
AcDbEntity
  8
$DDT_AUDIT_GENERATED_(DA)
  6
Continuous
 62
     7
100
AcDbLine
 10
338.3898259016
 20
485.1703683824
 30
0.0
 11
339.3898259016
 21
485.1703683824
 31
0.0
  0
LINE
  5
FF
330
C4
100
AcDbEntity
  8
$DDT_AUDIT_GENERATED_(DA)
  6
Continuous
 62
     7
100
AcDbLine
 10
338.3898259016
 20
484.3338540237
 30
0.0
 11
339.3898259016
 21
484.3338540237
 31
0.0
  0
LINE
  5
100
330
C4
100
AcDbEntity
  8
$DDT_AUDIT_GENERATED_(DA)
  6
Continuous
 62
     7
100
AcDbLine
 10
341.7898259016
 20
499.9095400504
 30
0.0
 11
342.2141398749
 21
499.4907088775
 31
0.0
  0
ARC
  5
101
330
C4
100
AcDbEntity
  8
03510_GRIFF__ANS
  6
Continuous
 62
     7
100
AcDbCircle
 10
372.2569440449
 20
506.1252947663
 30
0.0
 40
53.81744735350431
100
AcDbArc
 50
256.0136230127
 51
269.565422086
  0
ELLIPSE
  5
102
330
C4
100
AcDbEntity
  8
03510_GRIFF__ANS
  6
Continuous
 62
     7
100
AcDbEllipse
 10
374.9651036027
 20
453.7265636285
 30
0.0
 11
-0.103736192872704
 21
1.997301705225336
 31
0.0
210
0.0
220
0.0
230
0.9999999999999999
 40
0.0485653528
 41
2.322644740761953
 42
3.142495251367171
  0
ARC
  5
103
330
C4
100
AcDbEntity
  8
03510_GRIFF__ANS
  6
Continuous
 62
     7
100
AcDbCircle
 10
373.1607864482
 20
487.1309451385
 30
0.0
 40
34.81897980163306
100
AcDbArc
 50
269.9428756954
 51
272.9703930561
  0
LINE
  5
104
330
C4
100
AcDbEntity
  8
03510_GRIFF__ANS
  6
Continuous
 62
     7
100
AcDbLine
 10
373.1260716804
 20
452.3119826423
 30
0.0
 11
373.0904189475
 21
452.3120345041
 31
0.0
  0
ARC
  5
105
330
C4
100
AcDbEntity
  8
03510_GRIFF__ANS
  6
Continuous
 62
     7
100
AcDbCircle
 10
373.1915024858
 20
619.7746158257
 30
0.0
 40
167.4626118296196
100
AcDbArc
 50
269.9183955465
 51
269.9654152028
  0
LINE
  5
106
330
C4
100
AcDbEntity
  8
03510_GRIFF__ANS
  6
Continuous
 62
     7
100
AcDbLine
 10
401.7771718981
 20
473.9150813862
 30
0.0
 11
401.7771725108
 21
479.914954433
 31
0.0
  0
SPLINE
  5
107
330
C4
100
AcDbEntity
  8
03510_GRIFF__ANS
  6
Continuous
 62
     7
100
AcDbSpline
210
0.0
220
0.0
230
1.0
 70
     8
 71
     3
 72
     9
 73
     5
 74
     0
 42
0.0000000010108575
 43
0.0000000001
 40
0.0102834099941003
 40
0.0102834099941003
 40
0.0102834099941003
 40
0.0102834099941003
 40
0.0214372413684403
 40
0.0302952443929293
 40
0.0302952443929293
 40
0.0302952443929293
 40
0.0302952443929293
 10
396.0762028266328
 20
456.7667902582621
 30
0.0
 10
396.0763336306792
 20
456.7263974321525
 30
0.0
 10
396.0769771929783
 20
456.6581021902522
 30
0.0
 10
396.077135977855
 20
456.5954047838704
 30
0.0
 10
396.0771559220018
 20
456.5688248060628
 30
0.0
  0
SPLINE
  5
108
330
C4
100
AcDbEntity
  8
03510_GRIFF__ANS
  6
Continuous
 62
     7
100
AcDbSpline
210
0.0
220
0.0
230
1.0
 70
     8
 71
     3
 72
    38
 73
    34
 74
     0
 42
0.0000000003185254
 43
0.0000000001
 40
0.1231158649031067
 40
0.1231158649031067
 40
0.1231158649031067
 40
0.1231158649031067
 40
0.1414806338244862
 40
0.1770418719722845
 40
0.1980792774682343
 40
0.2329803136646789
 40
0.2585849121176135
 40
0.2848056621167567
 40
0.3097130779459377
 40
0.3430317580127966
 40
0.3660688310361369
 40
0.3914501206978211
 40
0.418429767824088
 40
0.4483580941453182
 40
0.4818858612902476
 40
0.5063408596979214
 40
0.5292557774002931
 40
0.5563298710957048
 40
0.5833062291027536
 40
0.624125556462544
 40
0.6442946625444466
 40
0.6714997566636347
 40
0.7031655768940337
 40
0.7421796839527779
 40
0.7736115129818604
 40
0.8148446496417071
 40
0.844328211351925
 40
0.8718802057760972
 40
0.8913451708421619
 40
0.9186562836742574
 40
0.9450017863966951
 40
0.9755676271987852
 40
1.0
 40
1.0
 40
1.0
 40
1.0
 10
396.0769078009288
 20
456.1486190440928
 30
0.0
 10
396.0769009436139
 20
456.1486025939383
 30
0.0
 10
396.0768698612074
 20
456.1646740546719
 30
0.0
 10
396.0766066468609
 20
456.2525198157874
 30
0.0
 10
396.077237608263
 20
456.4450600601762
 30
0.0
 10
396.0765297974577
 20
456.6880295752446
 30
0.0
 10
396.0767668137596
 20
457.031072908232
 30
0.0
 10
396.076717516863
 20
457.3962199770039
 30
0.0
 10
396.0768645471101
 20
457.864406106457
 30
0.0
 10
396.0765436154294
 20
458.3852666464524
 30
0.0
 10
396.0770593257639
 20
458.9769278727655
 30
0.0
 10
396.0767198362512
 20
459.572997167868
 30
0.0
 10
396.0771486941794
 20
460.2832876200125
 30
0.0
 10
396.0766242320744
 20
461.1298462187886
 30
0.0
 10
396.0772083160945
 20
462.0234493330112
 30
0.0
 10
396.0766641827855
 20
462.8987745148316
 30
0.0
 10
396.0769596039265
 20
463.7438639598078
 30
0.0
 10
396.0765374619884
 20
464.6568217804204
 30
0.0
 10
396.0778462499711
 20
465.8329958296147
 30
0.0
 10
396.0765054395863
 20
466.974538544969
 30
0.0
 10
396.0770326186507
 20
468.1607415935754
 30
0.0
 10
396.0767847797371
 20
469.249468834123
 30
0.0
 10
396.0766639554292
 20
470.6328555245537
 30
0.0
 10
396.0772065890068
 20
472.1127414662784
 30
0.0
 10
396.0767016690037
 20
473.7593536692378
 30
0.0
 10
396.0774374258642
 20
475.2855058468287
 30
0.0
 10
396.0766034021937
 20
476.7608751776992
 30
0.0
 10
396.0768542791173
 20
477.910027777728
 30
0.0
 10
396.0766708199602
 20
479.0232806285626
 30
0.0
 10
396.0766650432378
 20
480.1134106266741
 30
0.0
 10
396.0770405447602
 20
481.3569656091965
 30
0.0
 10
396.0771460695345
 20
482.5440024529804
 30
0.0
 10
396.0768437352224
 20
483.3292367742973
 30
0.0
 10
396.0767051996188
 20
483.6780710333656
 30
0.0
  0
ARC
  5
109
330
C4
100
AcDbEntity
  8
03510_GRIFF__ANS
  6
Continuous
 62
     7
100
AcDbCircle
 10
-3205.9933738822
 20
487.8651505116
 30
0.0
 40
3602.072512630945
100
AcDbArc
 50
359.9333988875
 51
0.0667526716
  0
ARC
  5
10A
330
C4
100
AcDbEntity
  8
03510_GRIFF__ANS
  6
Continuous
 62
     7
100
AcDbCircle
 10
367.7147318618
 20
494.5036348859
 30
0.0
 40
28.4668871564355
100
AcDbArc
 50
355.0791466511
 51
4.920085871
  0
SPLINE
  5
10B
330
C4
100
AcDbEntity
  8
03510_GRIFF__ANS
  6
Continuous
 62
     7
100
AcDbSpline
210
0.0
220
0.0
230
1.0
 70
     8
 71
     3
 72
    13
 73
     9
 74
     0
 42
0.0000000016711089
 43
0.0000000001
 40
0.0
 40
0.0
 40
0.0
 40
0.0
 40
0.0001277301291951
 40
0.0213190456172216
 40
0.0817964344220282
 40
0.0985015841145571
 40
0.1205370439317132
 40
0.1230950853230565
 40
0.1230950853230565
 40
0.1230950853230565
 40
0.1230950853230565
 10
396.0767268177657
 20
496.9451316588851
 30
0.0
 10
396.0767367070008
 20
496.9456219177257
 30
0.0
 10
396.0740850959818
 20
497.034294683112
 30
0.0
 10
396.0803721100675
 20
497.3209754506254
 30
0.0
 10
396.0763905782154
 20
497.5565477681535
 30
0.0
 10
396.076974650648
 20
497.6619965778573
 30
0.0
 10
396.0768368206925
 20
497.6805102376881
 30
0.0
 10
396.0768072817726
 20
497.681588771025
 30
0.0
 10
396.0768047651864
 20
497.6815933897993
 30
0.0
  0
SPLINE
  5
10C
330
C4
100
AcDbEntity
  8
03510_GRIFF__ANS
  6
Continuous
 62
     7
100
AcDbSpline
210
0.0
220
0.0
230
1.0
 70
     8
 71
     3
 72
   193
 73
   189
 74
     0
 42
0.0000000004380008
 43
0.0000000001
 40
0.0
 40
0.0
 40
0.0
 40
0.0
 40
0.0120870952577606
 40
0.0181306428865789
 40
0.0196391800395165
 40
0.0210883159925437
 40
0.0239865879016709
 40
0.0355796755476372
 40
0.0384811893579239
 40
0.0414652327320113
 40
0.0474333195074436
 40
0.0534014062866922
 40
0.0563854496657537
 40
0.0578888493161424
 40
0.0594809231264951
 40
0.0722175137731561
 40
0.0785851444651933
 40
0.084936802374148
 40
0.0976401183217089
 40
0.0982752841035997
 40
0.098656383571236
 40
0.0992284790959784
 40
0.1008188506890167
 40
0.1039995939630199
 40
0.1103610806916185
 40
0.1167225673518501
 40
0.1198477902178811
 40
0.1225414853412054
 40
0.1333162662998202
 40
0.1360099614523667
 40
0.1373564010825125
 40
0.1387018167686034
 40
0.1440834798652073
 40
0.1483888104917825
 40
0.1509720088038588
 40
0.1525219277361987
 40
0.1534518790689756
 40
0.1540098498575755
 40
0.1548464781941008
 40
0.1656017465473232
 40
0.1709793806279178
 40
0.1717476139954738
 40
0.1725209073501422
 40
0.1740693315425839
 40
0.1763919680307718
 40
0.1872309388383636
 40
0.1887793630300086
 40
0.1895534280521167
 40
0.1903268167071367
 40
0.1934203717301043
 40
0.199607482771933
 40
0.2057945932938709
 40
0.2073409397876694
 40
0.2088860541805244
 40
0.2119762835411247
 40
0.2243372013193818
 40
0.2305183921564857
 40
0.2366996210416685
 40
0.2413355415040986
 40
0.2420923200494629
 40
0.242848169988884
 40
0.2439819450783481
 40
0.2459660519174844
 40
0.2552252194946232
 40
0.2598548298082362
 40
0.2644852908023246
 40
0.2737462163987741
 40
0.276447318367696
 40
0.2773330980648963
 40
0.2780029692593181
 40
0.2791752441323824
 40
0.2846458633568702
 40
0.2890223599434256
 40
0.2916482571222991
 40
0.2932237948281839
 40
0.2944054477115215
 40
0.295586622787061
 40
0.3065219064983208
 40
0.3119895467567311
 40
0.3130087336035676
 40
0.3137724742123503
 40
0.3151090207959898
 40
0.317447978579102
 40
0.3283631172597515
 40
0.3297275081362195
 40
0.3304970207248208
 40
0.3310647499436492
 40
0.3337141547407235
 40
0.3390129694609635
 40
0.3443117837184335
 40
0.3469611879459888
 40
0.3484735964127402
 40
0.3496075603309672
 40
0.3601912357895674
 40
0.362837153008862
 40
0.3641601104103321
 40
0.365676537793085
 40
0.3719874890605661
 40
0.3846093951549922
 40
0.3887234458187462
 40
0.3918085623774565
 40
0.3972075221910649
 40
0.4035062993983386
 40
0.4050809894552335
 40
0.4066530538185373
 40
0.4097962360717366
 40
0.4223689920905519
 40
0.4255121709057444
 40
0.4282564277543461
 40
0.433691105029832
 40
0.4391257858758049
 40
0.4418431204476404
 40
0.4432017849603609
 40
0.444558106538564
 40
0.4554070203551346
 40
0.4608314677502313
 40
0.4662454087228318
 40
0.4770730628089371
 40
0.4784265133153213
 40
0.4796860098043281
 40
0.4822026048017882
 40
0.4872358096223554
 40
0.4922690107781773
 40
0.4947855349898458
 40
0.4972971845617508
 40
0.5073438277628779
 40
0.5098554819703812
 40
0.5111111341830796
 40
0.5123643987249885
 40
0.5173774815375116
 40
0.5274003330873938
 40
0.5277055096946709
 40
0.5280106865316381
 40
0.5283158635889124
 40
0.52862104085711
 40
0.5289262183268416
 40
0.5292313959887291
 40
0.5295365738333895
 40
0.5298417518514456
 40
0.5301469300335127
 40
0.5304521083702154
 40
0.5307572868521775
 40
0.5310624654700238
 40
0.5313676442143753
 40
0.5316728230758629
 40
0.5319780020451137
 40
0.5322831811127556
 40
0.5325883602694172
 40
0.5328935395057336
 40
0.5331987188123337
 40
0.5335038981798551
 40
0.5338090775989286
 40
0.5341142570601951
 40
0.5344194365542874
 40
0.5347246160718482
 40
0.5350297956035178
 40
0.5353349751399352
 40
0.5356401546717476
 40
0.5359453341895941
 40
0.5362505136841229
 40
0.5365556931459821
 40
0.5368608725658182
 40
0.5371660519342797
 40
0.5375148282804165
 40
0.5378636045332892
 40
0.5382123806789495
 40
0.5385611567034491
 40
0.5389099325928419
 40
0.5392587083331877
 40
0.5396074839105427
 40
0.5399562593109696
 40
0.5403050345205352
 40
0.5406538095253065
 40
0.5410025843113497
 40
0.541351358864744
 40
0.5417001331715592
 40
0.542048907217873
 40
0.5423976809897705
 40
0.5427464544733304
 40
0.5469237486603574
 40
0.5566691992670328
 40
0.559105030871626
 40
0.5615358528343646
 40
0.5663975286296795
 40
0.5712592080352581
 40
0.5736900345325746
 40
0.574911468569104
 40
0.5758579537372129
 40
0.5758579537372129
 40
0.5758579537372129
 40
0.5758579537372129
 10
374.965103154158
 20
452.3587465360496
 30
0.0
 10
375.0600618817001
 20
452.3638754026435
 30
0.0
 10
375.202499484623
 20
452.3715743151823
 30
0.0
 10
375.3567634087411
 20
452.380129800788
 30
0.0
 10
375.4274958151816
 20
452.3837981034306
 30
0.0
 10
375.4734342149983
 20
452.386881982642
 30
0.0
 10
375.5985409286585
 20
452.3947665785522
 30
0.0
 10
375.7349867697644
 20
452.4038427511295
 30
0.0
 10
375.8722027618162
 20
452.4122260169692
 30
0.0
 10
375.9650253638526
 20
452.4196703684356
 30
0.0
 10
376.0819425288406
 20
452.4284258510838
 30
0.0
 10
376.1988344958529
 20
452.4373741829565
 30
0.0
 10
376.2807441721142
 20
452.4436555199492
 30
0.0
 10
376.3283861609776
 20
452.447223730508
 30
0.0
 10
376.4521464242318
 20
452.4584674043374
 30
0.0
 10
376.6140051141352
 20
452.4726395737102
 30
0.0
 10
376.8131935192894
 20
452.4895272095969
 30
0.0
 10
377.0114417668567
 20
452.5101445246161
 30
0.0
 10
377.1651539458958
 20
452.5251744323473
 30
0.0
 10
377.2722056418772
 20
452.5359130238921
 30
0.0
 10
377.2846039496172
 20
452.5371328133324
 30
0.0
 10
377.3044227470657
 20
452.5392670814546
 30
0.0
 10
377.3459993304078
 20
452.5440094956817
 30
0.0
 10
377.432669285822
 20
452.5536784357012
 30
0.0
 10
377.5564677788631
 20
452.5675558137918
 30
0.0
 10
377.6798114589514
 20
452.5814619460073
 30
0.0
 10
377.7746732695358
 20
452.5918720038953
 30
0.0
 10
377.903431088549
 20
452.6081158994083
 30
0.0
 10
378.028963277201
 20
452.6233827639521
 30
0.0
 10
378.1439953684778
 20
452.6375116725222
 30
0.0
 10
378.1858021984662
 20
452.6426917368547
 30
0.0
 10
378.2482927055096
 20
452.6511724124909
 30
0.0
 10
378.3337562249736
 20
452.6624745865371
 30
0.0
 10
378.4287748828672
 20
452.6751627841846
 30
0.0
 10
378.4941255374625
 20
452.6838641187572
 30
0.0
 10
378.5333371573138
 20
452.6890780359482
 30
0.0
 10
378.5568608155772
 20
452.6922178975701
 30
0.0
 10
378.5748688577799
 20
452.6945910005131
 30
0.0
 10
378.6688017179108
 20
452.7077068139674
 30
0.0
 10
378.7997718253425
 20
452.7267952533441
 30
0.0
 10
378.9302651742756
 20
452.7455781372028
 30
0.0
 10
378.9837371939886
 20
452.7530952486442
 30
0.0
 10
379.0075220881667
 20
452.7567731678731
 30
0.0
 10
379.0432830167057
 20
452.7622586241745
 30
0.0
 10
379.1565357973172
 20
452.7796693859892
 30
0.0
 10
379.2697992344353
 20
452.797014374837
 30
0.0
 10
379.3711251566638
 20
452.8125468612996
 30
0.0
 10
379.3949664667797
 20
452.8161793540628
 30
0.0
 10
379.4305524073947
 20
452.822103119557
 30
0.0
 10
379.507734608245
 20
452.8346470551903
 30
0.0
 10
379.6264121560768
 20
452.8541186366483
 30
0.0
 10
379.733249714246
 20
452.8715084763335
 30
0.0
 10
379.8044414734283
 20
452.8831521943507
 30
0.0
 10
379.8516736254248
 20
452.8914762807782
 30
0.0
 10
379.9816474573688
 20
452.9140191715434
 30
0.0
 10
380.1473909258173
 20
452.9417921389744
 30
0.0
 10
380.3355705837162
 20
452.976795310739
 30
0.0
 10
380.465103801473
 20
453.0003980419711
 30
0.0
 10
380.5532345175766
 20
453.0166073264216
 30
0.0
 10
380.6001038364834
 20
453.0250839590522
 30
0.0
 10
380.6201570582287
 20
453.0290332331837
 30
0.0
 10
380.6495566245391
 20
453.0346953911017
 30
0.0
 10
380.7434499572885
 20
453.0528816387864
 30
0.0
 10
380.8638283100376
 20
453.076228117484
 30
0.0
 10
381.0044583267115
 20
453.1029695887295
 30
0.0
 10
381.1441884416287
 20
453.1318124124364
 30
0.0
 10
381.2695842984376
 20
453.1570660599549
 30
0.0
 10
381.3666595715488
 20
453.1766182462606
 30
0.0
 10
381.3987922641439
 20
453.1831622869084
 30
0.0
 10
381.4192932804535
 20
453.1875544521795
 30
0.0
 10
381.4743047306117
 20
453.1992043390006
 30
0.0
 10
381.5571713418632
 20
453.2167943981092
 30
0.0
 10
381.6509798867643
 20
453.236634935521
 30
0.0
 10
381.7155003587857
 20
453.2502434979381
 30
0.0
 10
381.7559742522794
 20
453.2588086449895
 30
0.0
 10
381.7856248699154
 20
453.2649885123056
 30
0.0
 10
381.8852430593327
 20
453.2868932066435
 30
0.0
 10
382.0167734995356
 20
453.3161545580491
 30
0.0
 10
382.1473516226808
 20
453.3445077808506
 30
0.0
 10
382.2015251948825
 20
453.3566274118875
 30
0.0
 10
382.2247541535414
 20
453.3619914953179
 30
0.0
 10
382.2578359723371
 20
453.369571664041
 30
0.0
 10
382.3665437540594
 20
453.3945065080396
 30
0.0
 10
382.4754273765333
 20
453.419458774169
 30
0.0
 10
382.5727011981152
 20
453.4415049332579
 30
0.0
 10
382.5927967260611
 20
453.4461500328695
 30
0.0
 10
382.6223334655244
 20
453.4532161670438
 30
0.0
 10
382.6854827322364
 20
453.468194829656
 30
0.0
 10
382.7836948659071
 20
453.491478933669
 30
0.0
 10
382.8818468946342
 20
453.5147960430336
 30
0.0
 10
382.9520886326764
 20
453.5311544597719
 30
0.0
 10
382.9911733916534
 20
453.5407142885917
 30
0.0
 10
383.0887302596055
 20
453.5647199679359
 30
0.0
 10
383.194701160684
 20
453.5905947502171
 30
0.0
 10
383.3019777217133
 20
453.6168485418959
 30
0.0
 10
383.342486409528
 20
453.6266108124408
 30
0.0
 10
383.409564755142
 20
453.6437072322017
 30
0.0
 10
383.5593634660777
 20
453.6819694697937
 30
0.0
 10
383.7289627466293
 20
453.7236289155833
 30
0.0
 10
383.8731821719
 20
453.7617943681695
 30
0.0
 10
383.9648964177194
 20
453.7859074764386
 30
0.0
 10
384.0725318207667
 20
453.8140939938079
 30
0.0
 10
384.1690608759061
 20
453.839450149549
 30
0.0
 10
384.2379453121428
 20
453.8571699268333
 30
0.0
 10
384.2833742664571
 20
453.8695999127661
 30
0.0
 10
384.408326168246
 20
453.9035631598131
 30
0.0
 10
384.5444073055306
 20
453.9406999605179
 30
0.0
 10
384.6780899285105
 20
453.9761724814259
 30
0.0
 10
384.7591902964126
 20
453.9990869368208
 30
0.0
 10
384.856882646726
 20
454.0262989861745
 30
0.0
 10
384.9543510241517
 20
454.0533787447848
 30
0.0
 10
385.0225231100677
 20
454.0723390434643
 30
0.0
 10
385.0615685419044
 20
454.0830135365058
 30
0.0
 10
385.1580517345851
 20
454.1109259849994
 30
0.0
 10
385.2835476545174
 20
454.1468744453462
 30
0.0
 10
385.4383484462641
 20
454.1902800719386
 30
0.0
 10
385.5911385983634
 20
454.2356569378468
 30
0.0
 10
385.7154388061246
 20
454.271942530837
 30
0.0
 10
385.8106370324236
 20
454.2992254639382
 30
0.0
 10
385.8465278989502
 20
454.3101238191313
 30
0.0
 10
385.9083462477913
 20
454.3285991979105
 30
0.0
 10
385.9965793481283
 20
454.3549648709072
 30
0.0
 10
386.0847407755792
 20
454.381267280861
 30
0.0
 10
386.1554653540258
 20
454.4019720677513
 30
0.0
 10
386.2600866769195
 20
454.4343452433487
 30
0.0
 10
386.3651186055966
 20
454.4660165494211
 30
0.0
 10
386.4611549387596
 20
454.4950990937543
 30
0.0
 10
386.4961491449022
 20
454.5055560199458
 30
0.0
 10
386.5479289782195
 20
454.5218548510585
 30
0.0
 10
386.6602936543842
 20
454.5567796389759
 30
0.0
 10
386.766794218387
 20
454.5887538174646
 30
0.0
 10
386.8395047683409
 20
454.6118265203265
 30
0.0
 10
386.8457667409643
 20
454.6138109144146
 30
0.0
 10
386.8520283184527
 20
454.6157949476507
 30
0.0
 10
386.8582900140107
 20
454.6177781296584
 30
0.0
 10
386.8645516901724
 20
454.6197605913625
 30
0.0
 10
386.8708133838188
 20
454.621742297211
 30
0.0
 10
386.8770750851144
 20
454.6237232562602
 30
0.0
 10
386.8833367967416
 20
454.625703465614
 30
0.0
 10
386.8895985180287
 20
454.62768292558
 30
0.0
 10
386.8958602492027
 20
454.6296616356078
 30
0.0
 10
386.9021219902497
 20
454.6316395953774
 30
0.0
 10
386.9083837412204
 20
454.6336168045082
 30
0.0
 10
386.9146455021483
 20
454.6355932626362
 30
0.0
 10
386.9209072730714
 20
454.6375689693938
 30
0.0
 10
386.9271690540266
 20
454.6395439244149
 30
0.0
 10
386.9334308450511
 20
454.6415181273337
 30
0.0
 10
386.939692646182
 20
454.6434915777851
 30
0.0
 10
386.9459544574565
 20
454.6454642754046
 30
0.0
 10
386.9522162789117
 20
454.647436219828
 30
0.0
 10
386.9584781105847
 20
454.6494074106917
 30
0.0
 10
386.9647399525128
 20
454.6513778476327
 30
0.0
 10
386.9710018047331
 20
454.6533475302885
 30
0.0
 10
386.9772636672828
 20
454.6553164582974
 30
0.0
 10
386.9835255401992
 20
454.6572846312978
 30
0.0
 10
386.9897874235194
 20
454.659252048929
 30
0.0
 10
386.9960493172807
 20
454.6612187108306
 30
0.0
 10
387.0023112215204
 20
454.6631846166429
 30
0.0
 10
387.0085731362755
 20
454.6651497660067
 30
0.0
 10
387.0148350615835
 20
454.6671141585632
 30
0.0
 10
387.0210969974815
 20
454.6690777939544
 30
0.0
 10
387.0273589440071
 20
454.6710406718228
 30
0.0
 10
387.0339190895399
 20
454.6730962260667
 30
0.0
 10
387.0407774360343
 20
454.6752443248178
 30
0.0
 10
387.0479339856418
 20
454.6774848283176
 30
0.0
 10
387.0550905493388
 20
454.6797243404064
 30
0.0
 10
387.0622471271815
 20
454.6819628605541
 30
0.0
 10
387.0694037192231
 20
454.6842003882346
 30
0.0
 10
387.076560325529
 20
454.6864369229117
 30
0.0
 10
387.0837169461192
 20
454.6886724640909
 30
0.0
 10
387.0908735811827
 20
454.6909070111274
 30
0.0
 10
387.0980302302784
 20
454.6931405639407
 30
0.0
 10
387.1051868953163
 20
454.6953731203492
 30
0.0
 10
387.1123435694332
 20
454.6976046860171
 30
0.0
 10
387.1195002785059
 20
454.6998352373321
 30
0.0
 10
387.1266569262266
 20
454.7020648599478
 30
0.0
 10
387.1338138722841
 20
454.7042932317365
 30
0.0
 10
387.1409697745677
 20
454.7065215524343
 30
0.0
 10
387.1743278339553
 20
454.7168822619361
 30
0.0
 10
387.2706834672599
 20
454.7482927733653
 30
0.0
 10
387.3816692149049
 20
454.7834764324282
 30
0.0
 10
387.4808625081399
 20
454.8146175327359
 30
0.0
 10
387.5459897036317
 20
454.8360455807342
 30
0.0
 10
387.6276728980574
 20
454.8624160962161
 30
0.0
 10
387.7092405659156
 20
454.8887036559245
 30
0.0
 10
387.7664084346878
 20
454.9069966424736
 30
0.0
 10
387.7972756673417
 20
454.9168628536754
 30
0.0
 10
387.8116701005832
 20
454.9216295686102
 30
0.0
 10
387.8179490045751
 20
454.9237135364037
 30
0.0
  0
ARC
  5
10D
330
C4
100
AcDbEntity
  8
03510_GRIFF__ANS
  6
Continuous
 62
     7
100
AcDbCircle
 10
372.247117708
 20
506.0721896736
 30
0.0
 40
53.76427008390284
100
AcDbArc
 50
256.0086557328
 51
269.5754643196
  0
ARC
  5
10E
330
C4
100
AcDbEntity
  8
03510_GRIFF__ANS
  6
Continuous
 62
     7
100
AcDbCircle
 10
341.1948750004
 20
1867.8685831156
 30
0.0
 40
1415.912612332753
100
AcDbArc
 50
271.2852195889
 51
271.3666627582
  0
SPLINE
  5
10F
330
C4
100
AcDbEntity
  8
03510_GRIFF__ANS
  6
Continuous
 62
     7
100
AcDbSpline
210
0.0
220
0.0
230
1.0
 70
    12
 71
     3
 72
    29
 73
    25
 74
     0
 42
0.0000000004235731
 43
0.0000000001
 40
0.0
 40
0.0
 40
0.0
 40
0.0
 40
0.0286756606900596
 40
0.0495526163252223
 40
0.0870033347817768
 40
0.1157503071839274
 40
0.1400389531786891
 40
0.1644149640442099
 40
0.1888717101490985
 40
0.2134025663585978
 40
0.2429056692342088
 40
0.2669374849230092
 40
0.2873840109017376
 40
0.3121733240960924
 40
0.3511799377907962
 40
0.3868639400521909
 40
0.4047402292573172
 40
0.4368709084833772
 40
0.4592859960688995
 40
0.486716910752728
 40
0.5061029676985286
 40
0.5338755593444637
 40
0.5540641691863647
 40
0.5569978583743725
 40
0.5569978583743725
 40
0.5569978583743725
 40
0.5569978583743725
 10
374.965103154158
 20
452.3587465360496
 30
0.0
 41
1.0
 10
375.2247179455966
 20
452.3723342426683
 30
0.0
 41
1.0
 10
375.6013863416441
 20
452.3924730772667
 30
0.0
 41
1.0
 10
376.3264578918179
 20
452.4449713312823
 30
0.0
 41
1.0
 10
377.034371129205
 20
452.5086480752588
 30
0.0
 41
1.0
 10
377.7715586763331
 20
452.5899097179672
 30
0.0
 41
1.0
 10
378.3980285314745
 20
452.6690864496542
 30
0.0
 41
1.0
 10
378.9869712297902
 20
452.7521693797006
 30
0.0
 41
1.0
 10
379.5743722458496
 20
452.8436211472175
 30
0.0
 41
1.0
 10
380.1987445961075
 20
452.9498912149215
 30
0.0
 41
1.0
 10
380.8149447341028
 20
453.0644745584507
 30
0.0
 41
1.0
 10
381.3934922057963
 20
453.1810451244347
 30
0.0
 41
1.0
 10
381.9354401835167
 20
453.2965625884934
 30
0.0
 41
1.0
 10
382.588186868629
 20
453.4431064940763
 30
0.0
 41
1.0
 10
383.3503277138061
 20
453.6261368208829
 30
0.0
 41
1.0
 10
384.0482918548006
 20
453.8058506910692
 30
0.0
 41
1.0
 10
384.6863329503171
 20
453.9775824432529
 30
0.0
 41
1.0
 10
385.2189599697803
 20
454.1265974557509
 30
0.0
 41
1.0
 10
385.8129129478173
 20
454.2991391198842
 30
0.0
 41
1.0
 10
386.3072873047154
 20
454.4473407924426
 30
0.0
 41
1.0
 10
386.8320324921871
 20
454.608825592516
 30
0.0
 41
1.0
 10
387.2983359264757
 20
454.7558233710815
 30
0.0
 41
1.0
 10
387.6445797483288
 20
454.8672844248861
 30
0.0
 41
1.0
 10
387.8004206476801
 20
454.9178946662016
 30
0.0
 41
1.0
 10
387.8201699201888
 20
454.9243153821047
 30
0.0
 41
1.0
  0
LINE
  5
110
330
C4
100
AcDbEntity
  8
03510_GRIFF__ANS
  6
Continuous
 62
     7
100
AcDbLine
 10
396.0767008977
 20
456.1493194025
 30
0.0
 11
396.0767010465
 21
457.1011228262
 31
0.0
  0
LINE
  5
111
330
C4
100
AcDbEntity
  8
03510_GRIFF__ANS
  6
Continuous
 62
     7
100
AcDbLine
 10
396.0767010566
 20
457.1660653999
 30
0.0
 11
396.0767051996
 21
483.6780710334
 31
0.0
  0
LINE
  5
112
330
C4
100
AcDbEntity
  8
03510_GRIFF__ANS
  6
Continuous
 62
     7
100
AcDbLine
 10
350.3898259017
 20
499.857028564
 30
0.0
 11
350.3898259017
 21
493.6527239925
 31
0.0
  0
LINE
  5
113
330
C4
100
AcDbEntity
  8
03510_GRIFF__ANS
  6
Continuous
 62
     7
100
AcDbLine
 10
396.0767012082
 20
497.6817648872
 30
0.0
 11
396.0767013722
 21
496.9451316589
 31
0.0
  0
LINE
  5
114
330
C4
100
AcDbEntity
  8
03510_GRIFF__ANS
  6
Continuous
 62
     7
100
AcDbLine
 10
350.3898259017
 20
493.6527239925
 30
0.0
 11
350.3898259016
 21
453.973019031
 31
0.0
  0
SPLINE
  5
115
330
C4
100
AcDbEntity
  8
03510_GRIFF__ANS
  6
Continuous
 62
     7
100
AcDbSpline
210
0.0
220
0.0
230
1.0
 70
     8
 71
     3
 72
    16
 73
    12
 74
     0
 42
0.0000000004693714
 43
0.0000000001
 40
0.3426632896083287
 40
0.3426632896083287
 40
0.3426632896083287
 40
0.3426632896083287
 40
0.3929735304528674
 40
0.4682195731211065
 40
0.5537115609176422
 40
0.6495659700248869
 40
0.7121409262230205
 40
0.7784698062995649
 40
0.8485503319423844
 40
0.9224494479078087
 40
1.0
 40
1.0
 40
1.0
 40
1.0
 10
358.1173504463915
 20
454.115636119936
 30
0.0
 10
358.4273735150551
 20
454.0152404841011
 30
0.0
 10
359.2150109635741
 20
453.764666902835
 30
0.0
 10
360.5844091139315
 20
453.3548591466703
 30
0.0
 10
362.3109779221986
 20
452.8917982906944
 30
0.0
 10
364.0047830156767
 20
452.5088111588426
 30
0.0
 10
365.5957481535144
 20
452.2137286845083
 30
0.0
 10
367.0249684329174
 20
451.997521531674
 30
0.0
 10
368.5416254665592
 20
451.8261289041232
 30
0.0
 10
370.1909792819655
 20
451.7070505613981
 30
0.0
 10
371.2202356994291
 20
451.6894793837894
 30
0.0
 10
371.8458878852923
 20
451.6807615530591
 30
0.0
  0
LINE
  5
116
330
C4
100
AcDbEntity
  8
03510_GRIFF__ANS
  6
Continuous
 62
     7
100
AcDbLine
 10
371.8458878849
 20
451.6807615533
 30
0.0
 11
372.9507345054
 21
451.6800335194
 31
0.0
  0
LINE
  5
117
330
C4
100
AcDbEntity
  8
03510_GRIFF__ANS
  6
Continuous
 62
     7
100
AcDbLine
 10
372.9488489561
 20
451.6799612692
 30
0.0
 11
373.0870430013
 21
451.6798574783
 31
0.0
  0
ARC
  5
118
330
C4
100
AcDbEntity
  8
03510_GRIFF__ANS
  6
Continuous
 62
     7
100
AcDbCircle
 10
373.1583352633
 20
488.5911462466
 30
0.0
 40
36.91135761512869
100
AcDbArc
 50
269.8893362717
 51
272.9670413391
  0
ARC
  5
119
330
C4
100
AcDbEntity
  8
03510_GRIFF__ANS
  6
Continuous
 62
     7
100
AcDbCircle
 10
361.8898259016
 20
476.9150228508
 30
0.0
 40
40.00000000000246
100
AcDbArc
 50
4.2767277305
 51
31.2762114845
  0
ARC
  5
11A
330
C4
100
AcDbEntity
  8
03510_GRIFF__ANS
  6
Continuous
 62
     7
100
AcDbCircle
 10
361.8898259016
 20
476.9150228508
 30
0.0
 40
40.00000000000246
100
AcDbArc
 50
328.7266170202
 51
355.7243290529
  0
ARC
  5
11B
330
C4
100
AcDbEntity
  8
03510_GRIFF__ANS
  6
Continuous
 62
     7
100
AcDbCircle
 10
371.4526576335
 20
501.3237860901
 30
0.0
 40
49.72619289289611
100
AcDbArc
 50
274.170462684
 51
290.7052079383
  0
LINE
  5
11C
330
C4
100
AcDbEntity
  8
03510_GRIFF__ANS
  6
Continuous
 62
     7
100
AcDbLine
 10
401.777167252
 20
473.9150228508
 30
0.0
 11
401.7784212456
 21
473.9150228508
 31
0.0
  0
LINE
  5
11D
330
C4
100
AcDbEntity
  8
03510_GRIFF__ANS
  6
Continuous
 62
     7
100
AcDbLine
 10
401.7784212456
 20
479.9150228508
 30
0.0
 11
401.777167252
 21
479.9150228508
 31
0.0
  0
ARC
  5
11E
330
C4
100
AcDbEntity
  8
03510_GRIFF__ANS
  6
Continuous
 62
     7
100
AcDbCircle
 10
394.3673950788
 20
457.1877051354
 30
0.0
 40
2.000000483934256
100
AcDbArc
 50
272.8425725474
 51
328.7213906134
  0
ARC
  5
11F
330
C4
100
AcDbEntity
  8
03510_GRIFF__ANS
  6
Continuous
 62
     7
100
AcDbCircle
 10
344.8557205119
 20
-500.1276572048
 30
0.0
 40
999.9999990473032
100
AcDbArc
 50
87.1562688507
 51
89.6828999516
  0
ARC
  5
120
330
C4
100
AcDbEntity
  8
03510_GRIFF__ANS
  6
Continuous
 62
     7
100
AcDbCircle
 10
394.3673511275
 20
496.6434251242
 30
0.0
 40
2.000002079626146
100
AcDbArc
 50
31.2762449797
 51
87.1561597188
  0
ARC
  5
121
330
C4
100
AcDbEntity
  8
03510_GRIFF__ANS
  6
Continuous
 62
     7
100
AcDbCircle
 10
344.8557205119
 20
1453.9577029063
 30
0.0
 40
999.9999990472853
100
AcDbArc
 50
270.3171030386
 51
272.8437443931
  0
LINE
  5
122
330
C4
100
AcDbEntity
  8
36247XXX_SELBSTS
  6
Continuous
 62
     7
100
AcDbLine
 10
327.3898259016
 20
523.9150228508
 30
0.0
 11
327.3898259016
 21
340.9150228508
 31
0.0
  0
LINE
  5
123
330
C4
100
AcDbEntity
  8
36247XXX_SELBSTS
  6
Continuous
 62
     7
100
AcDbLine
 10
338.3898259016
 20
525.9150228508
 30
0.0
 11
338.3898259016
 21
338.9150228508
 31
0.0
  0
ARC
  5
124
330
C4
100
AcDbEntity
  8
36247XXX_SELBSTS
  6
Continuous
 62
     7
100
AcDbCircle
 10
333.3898259016
 20
338.9150228508
 30
0.0
 40
4.99999999999999
100
AcDbArc
 50
323.8465757999
 51
0.0
  0
ARC
  5
125
330
C4
100
AcDbEntity
  8
36247XXX_SELBSTS
  6
Continuous
 62
     7
100
AcDbCircle
 10
333.3898259016
 20
525.9150228508
 30
0.0
 40
4.999999999999983
100
AcDbArc
 50
0.0
 51
36.1534242001
  0
LINE
  5
126
330
C4
100
AcDbEntity
  8
36247XXX_SELBSTS
  6
Continuous
 62
     7
100
AcDbLine
 10
333.3898259016
 20
530.9150228508
 30
0.0
 11
327.3898259016
 21
530.9150228508
 31
0.0
  0
LINE
  5
127
330
C4
100
AcDbEntity
  8
36247XXX_SELBSTS
  6
Continuous
 62
     7
100
AcDbLine
 10
327.3898259016
 20
523.9150228508
 30
0.0
 11
327.3898259016
 21
530.9150228508
 31
0.0
  0
ARC
  5
128
330
C4
100
AcDbEntity
  8
36247XXX_SELBSTS
  6
Continuous
 62
     7
100
AcDbCircle
 10
333.3898259016
 20
525.9150228508
 30
0.0
 40
4.999999999999868
100
AcDbArc
 50
36.1534242001
 51
90.0
  0
LINE
  5
129
330
C4
100
AcDbEntity
  8
36247XXX_SELBSTS
  6
Continuous
 62
     7
100
AcDbLine
 10
327.3898259016
 20
333.9150228508
 30
0.0
 11
327.3898259016
 21
340.9150228508
 31
0.0
  0
ARC
  5
12A
330
C4
100
AcDbEntity
  8
36247XXX_SELBSTS
  6
Continuous
 62
     7
100
AcDbCircle
 10
333.3898259016
 20
338.9150228508
 30
0.0
 40
4.999999999999806
100
AcDbArc
 50
270.0
 51
323.8465757999
  0
LINE
  5
12B
330
C4
100
AcDbEntity
  8
36247XXX_SELBSTS
  6
Continuous
 62
     7
100
AcDbLine
 10
333.3898259016
 20
333.9150228508
 30
0.0
 11
327.3898259016
 21
333.9150228508
 31
0.0
  0
LINE
  5
12C
330
C4
100
AcDbEntity
  8
36247XXX_SELBSTS
  6
Continuous
 62
     7
100
AcDbLine
 10
338.3898259016
 20
459.4150228508
 30
0.0
 11
339.3898259016
 21
459.4150228508
 31
0.0
  0
LINE
  5
12E
330
C4
100
AcDbEntity
  8
DV2_Standard
  6
Continuous
 62
     7
100
AcDbLine
 10
339.3898259016
 20
476.9150228508
 30
0.0
 11
339.3898259016
 21
499.6471013718
 31
0.0
  0
ENDBLK
  5
130
330
C4
100
AcDbEntity
  8
0
100
AcDbBlockEnd
  0
BLOCK
  5
1AD
330
131
100
AcDbEntity
  8
0
100
AcDbBlockBegin
  2
SE2
 70
     0
 10
0.0
 20
0.0
 30
0.0
  3
SE2
  1

  0
LINE
  5
133
330
131
100
AcDbEntity
  8
17_02_80XX_INNEN
  6
Continuous
 62
     7
100
AcDbLine
 10
70.2135100581
 20
169.7386964215
 30
0.0
 11
70.2135100581
 21
157.0531889044
 31
0.0
  0
LINE
  5
134
330
131
100
AcDbEntity
  8
17_02_80XX_INNEN
  6
Continuous
 62
     7
100
AcDbLine
 10
122.2135100581
 20
157.0565458505
 30
0.0
 11
122.2135100581
 21
169.7386964215
 31
0.0
  0
LINE
  5
135
330
131
100
AcDbEntity
  8
E03514
  6
Continuous
 62
     7
100
AcDbLine
 10
118.7186530315
 20
157.7386964215
 30
0.0
 11
73.7080437965
 21
157.7386964215
 31
0.0
  0
LINE
  5
136
330
131
100
AcDbEntity
  8
E03514
  6
Continuous
 62
     7
100
AcDbLine
 10
118.5987177901
 20
168.7386964215
 30
0.0
 11
73.8283023262
 21
168.7386964215
 31
0.0
  0
ARC
  5
137
330
131
100
AcDbEntity
  8
E03514
  6
Continuous
 62
     7
100
AcDbCircle
 10
73.7080437965
 20
157.9386964215
 30
0.0
 40
0.2000000000000597
100
AcDbArc
 50
181.0
 51
270.0
  0
ARC
  5
138
330
131
100
AcDbEntity
  8
E03514
  6
Continuous
 62
     7
100
AcDbCircle
 10
118.7189763197
 20
157.9386964215
 30
0.0
 40
0.2000000000001237
100
AcDbArc
 50
270.0
 51
359.0
  0
LINE
  5
139
330
131
100
AcDbEntity
  8
E03514
  6
Continuous
 62
     7
100
AcDbLine
 10
73.3283784786
 20
168.2299702183
 30
0.0
 11
73.5080742575
 21
157.9352059402
 31
0.0
  0
LINE
  5
13A
330
131
100
AcDbEntity
  8
E03514
  6
Continuous
 62
     7
100
AcDbLine
 10
118.9189458587
 20
157.9352059402
 30
0.0
 11
119.0986416376
 21
168.2299702183
 31
0.0
  0
ARC
  5
13B
330
131
100
AcDbEntity
  8
E03514
  6
Continuous
 62
     7
100
AcDbCircle
 10
73.8283023262
 20
168.2386964215
 30
0.0
 40
0.4999999999999172
100
AcDbArc
 50
90.0
 51
181.0
  0
ARC
  5
13C
330
131
100
AcDbEntity
  8
E03514
  6
Continuous
 62
     7
100
AcDbCircle
 10
118.5987177901
 20
168.2386964215
 30
0.0
 40
0.4999999999999158
100
AcDbArc
 50
359.0
 51
90.0
  0
ELLIPSE
  5
13D
330
131
100
AcDbEntity
  8
20_01_80_KAPPE_0
  6
Continuous
 62
     7
100
AcDbEllipse
 10
96.2135100581
 20
139.7763777173
 30
0.0
 11
33.43742943284307
 21
6.938893903907228E-15
 31
0.0
210
0.0
220
0.0
230
1.0
 40
0.1641868466
 41
2.319791374996245
 42
3.095819080392173
  0
ELLIPSE
  5
13E
330
131
100
AcDbEntity
  8
20_01_80_KAPPE_0
  6
Continuous
 62
     7
100
AcDbEllipse
 10
96.2135100581
 20
139.7763777173
 30
0.0
 11
33.43742943284307
 21
6.938893903907228E-15
 31
0.0
210
0.0
220
0.0
230
1.0
 40
0.1641868466
 41
0.0449595838482819
 42
0.8076901075052139
  0
ARC
  5
13F
330
131
100
AcDbEntity
  8
20_01_80_KAPPE_0
  6
Continuous
 62
     7
100
AcDbCircle
 10
96.2135100581
 20
187.0686964215
 30
0.0
 40
60.50000000000001
100
AcDbArc
 50
239.1989439717
 51
248.2358775978
  0
ARC
  5
140
330
131
100
AcDbEntity
  8
20_01_80_KAPPE_0
  6
Continuous
 62
     7
100
AcDbCircle
 10
96.2135100581
 20
187.0686964215
 30
0.0
 40
60.5
100
AcDbArc
 50
293.0445840903
 51
300.8010560283
  0
LINE
  5
141
330
131
100
AcDbEntity
  8
20_01_80_KAPPE_0
  6
Continuous
 62
     7
100
AcDbLine
 10
129.6176682693
 20
140.0212254653
 30
0.0
 11
125.5752990639
 21
154.8880124332
 31
0.0
  0
LINE
  5
142
330
131
100
AcDbEntity
  8
20_01_80_KAPPE_0
  6
Continuous
 62
     7
100
AcDbLine
 10
66.8513720103
 20
154.8867287465
 30
0.0
 11
62.8093518469
 21
140.0212254653
 31
0.0
  0
SPLINE
  5
143
330
131
100
AcDbEntity
  8
20_01_80_KAPPE_0
  6
Continuous
 62
     7
100
AcDbSpline
210
0.0
220
0.0
230
1.0
 70
     8
 71
     3
 72
    17
 73
    13
 74
     0
 42
0.0000000016418834
 43
0.0000000001
 40
0.0084835752551347
 40
0.0084835752551347
 40
0.0084835752551347
 40
0.0084835752551347
 40
0.1024956351168521
 40
0.2482185911692922
 40
0.3718842403070556
 40
0.481799231793705
 40
0.5830699174852529
 40
0.6792252543855332
 40
0.7727063927128677
 40
0.8727385822885539
 40
0.9701255021948643
 40
1.0
 40
1.0
 40
1.0
 40
1.0
 10
127.1043003430752
 20
135.0630319391545
 30
0.0
 10
127.2551965990325
 20
135.1469773441344
 30
0.0
 10
127.5886317707899
 20
135.3373804835359
 30
0.0
 10
128.1012695229085
 20
135.7223612836562
 30
0.0
 10
128.6000522927735
 20
136.1894014273394
 30
0.0
 10
129.0112218900792
 20
136.691573869922
 30
0.0
 10
129.3412278501729
 20
137.2368730217574
 30
0.0
 10
129.5849209765639
 20
137.8282058412801
 30
0.0
 10
129.7363252239326
 20
138.4775268071591
 30
0.0
 10
129.7682089653739
 20
139.1503416026979
 30
0.0
 10
129.7109783595228
 20
139.6982389709548
 30
0.0
 10
129.628559077795
 20
139.9523995615309
 30
0.0
 10
129.6055687277231
 20
140.0221903567008
 30
0.0
  0
SPLINE
  5
144
330
131
100
AcDbEntity
  8
20_01_80_KAPPE_0
  6
Continuous
 62
     7
100
AcDbSpline
210
0.0
220
0.0
230
1.0
 70
     8
 71
     3
 72
    17
 73
    13
 74
     0
 42
0.0000000016401828
 43
0.0000000001
 40
0.0
 40
0.0
 40
0.0
 40
0.0
 40
0.0617110477675962
 40
0.1620479649297652
 40
0.2595177428277353
 40
0.3557057438319539
 40
0.4527738069683612
 40
0.5535313145390119
 40
0.6615556187095911
 40
0.7816551367484244
 40
0.9203994374832322
 40
1.0
 40
1.0
 40
1.0
 40
1.0
 10
62.82661441598542
 20
140.0398943850656
 30
0.0
 10
62.78430409274226
 20
139.8920149364911
 30
0.0
 10
62.69323642178992
 20
139.562387954495
 30
0.0
 10
62.65473123796381
 20
138.9367733699501
 30
0.0
 10
62.72832015218155
 20
138.2594688469114
 30
0.0
 10
62.91354191546153
 20
137.6240921888642
 30
0.0
 10
63.18696949157498
 20
137.0504639317296
 30
0.0
 10
63.53342346582156
 20
136.5349343356104
 30
0.0
 10
63.94809935495799
 20
136.0664910861171
 30
0.0
 10
64.4371682985112
 20
135.6344718101995
 30
0.0
 10
64.91972656133363
 20
135.2846879140585
 30
0.0
 10
65.22561795902017
 20
135.1141633346483
 30
0.0
 10
65.3572363017072
 20
135.0417782501025
 30
0.0
  0
SPLINE
  5
145
330
131
100
AcDbEntity
  8
20_01_80_KAPPE_0
  6
Continuous
 62
     7
100
AcDbSpline
210
0.0
220
0.0
230
1.0
 70
     8
 71
     3
 72
    19
 73
    15
 74
     0
 42
0.000000000536784
 43
0.0000000001
 40
0.0
 40
0.0
 40
0.0
 40
0.0
 40
0.0022763520452398
 40
0.0283858869894039
 40
0.056169890819996
 40
0.0881489759837477
 40
0.1271477877398122
 40
0.1736016586694538
 40
0.2211036868618302
 40
0.2667561709325758
 40
0.3111878110902033
 40
0.3549035278761583
 40
0.398179760922799
 40
0.4087908108413139
 40
0.4087908108413139
 40
0.4087908108413139
 40
0.4087908108413139
 10
125.571509456115
 20
154.8842782747566
 30
0.0
 10
125.5695919722292
 20
154.8976635732621
 30
0.0
 10
125.548956721092
 20
155.0411295062689
 30
0.0
 10
125.4034174454012
 20
155.3059746610676
 30
0.0
 10
125.1673991116455
 20
155.6302852416504
 30
0.0
 10
124.8336662646902
 20
155.9305584262594
 30
0.0
 10
124.3870503289734
 20
156.2264979501717
 30
0.0
 10
123.7945741897466
 20
156.5193761041881
 30
0.0
 10
123.0608480169651
 20
156.8012146678349
 30
0.0
 10
122.2208790252551
 20
157.0624542964481
 30
0.0
 10
121.2922379027631
 20
157.3039017860766
 30
0.0
 10
120.2732567072553
 20
157.5298277946894
 30
0.0
 10
119.4399202700115
 20
157.689406298543
 30
0.0
 10
118.9545166588422
 20
157.7746136902339
 30
0.0
 10
118.8579639278168
 20
157.7912784068618
 30
0.0
  0
SPLINE
  5
146
330
131
100
AcDbEntity
  8
20_01_80_KAPPE_0
  6
Continuous
 62
     7
100
AcDbSpline
210
0.0
220
0.0
230
1.0
 70
     8
 71
     3
 72
    18
 73
    14
 74
     0
 42
0.0000000006330152
 43
0.0000000001
 40
0.5186698128027822
 40
0.5186698128027822
 40
0.5186698128027822
 40
0.5186698128027822
 40
0.547648667576477
 40
0.5982580155177913
 40
0.6491399355334815
 40
0.7004255216284614
 40
0.7523346787628493
 40
0.8052513803516486
 40
0.8598400986678046
 40
0.909055181640827
 40
0.9473099752495168
 40
0.9800681780286957
 40
1.0
 40
1.0
 40
1.0
 40
1.0
 10
73.56456080444599
 20
157.790502404854
 30
0.0
 10
73.34104112661993
 20
157.7519033011991
 30
0.0
 10
72.74146019118653
 20
157.6442194774147
 30
0.0
 10
71.82444819591069
 20
157.4603365761089
 30
0.0
 10
70.85206054841073
 20
157.2342828870339
 30
0.0
 10
69.97614273626023
 20
156.9951834877437
 30
0.0
 10
69.19594317477454
 20
156.7403234394836
 30
0.0
 10
68.50738247739648
 20
156.4632767989943
 30
0.0
 10
67.93300457978135
 20
156.1649697288715
 30
0.0
 10
67.4869241752397
 20
155.8494413787895
 30
0.0
 10
67.16600986748199
 20
155.5181981027287
 30
0.0
 10
66.94984120485108
 20
155.1955429937375
 30
0.0
 10
66.88975615171803
 20
154.9828754562678
 30
0.0
 10
66.86337735700461
 20
154.887398125677
 30
0.0
  0
LINE
  5
147
330
131
100
AcDbEntity
  8
$DDT_AUDIT_GENERATED_(DA)
  6
Continuous
 62
     7
100
AcDbLine
 10
112.2080272577
 20
169.7386964215
 30
0.0
 11
112.2080272577
 21
168.7386964215
 31
0.0
  0
LINE
  5
148
330
131
100
AcDbEntity
  8
$DDT_AUDIT_GENERATED_(DA)
  6
Continuous
 62
     7
100
AcDbLine
 10
112.1641873979
 20
169.7386964215
 30
0.0
 11
112.1641873979
 21
168.7386964215
 31
0.0
  0
LINE
  5
149
330
131
100
AcDbEntity
  8
$DDT_AUDIT_GENERATED_(DA)
  6
Continuous
 62
     7
100
AcDbLine
 10
112.0766278401
 20
169.7386964215
 30
0.0
 11
112.0766278401
 21
168.7386964215
 31
0.0
  0
LINE
  5
14A
330
131
100
AcDbEntity
  8
$DDT_AUDIT_GENERATED_(DA)
  6
Continuous
 62
     7
100
AcDbLine
 10
111.9455885792
 20
169.7386964215
 30
0.0
 11
111.9455885792
 21
168.7386964215
 31
0.0
  0
LINE
  5
14B
330
131
100
AcDbEntity
  8
$DDT_AUDIT_GENERATED_(DA)
  6
Continuous
 62
     7
100
AcDbLine
 10
111.7714287845
 20
169.7386964215
 30
0.0
 11
111.7714287845
 21
168.7386964215
 31
0.0
  0
LINE
  5
14C
330
131
100
AcDbEntity
  8
$DDT_AUDIT_GENERATED_(DA)
  6
Continuous
 62
     7
100
AcDbLine
 10
111.554625816
 20
169.7386964215
 30
0.0
 11
111.554625816
 21
168.7386964215
 31
0.0
  0
LINE
  5
14D
330
131
100
AcDbEntity
  8
$DDT_AUDIT_GENERATED_(DA)
  6
Continuous
 62
     7
100
AcDbLine
 10
111.2957739156
 20
169.7386964215
 30
0.0
 11
111.2957739156
 21
168.7386964215
 31
0.0
  0
LINE
  5
14E
330
131
100
AcDbEntity
  8
$DDT_AUDIT_GENERATED_(DA)
  6
Continuous
 62
     7
100
AcDbLine
 10
110.9955825783
 20
169.7386964215
 30
0.0
 11
110.9955825783
 21
168.7386964215
 31
0.0
  0
LINE
  5
14F
330
131
100
AcDbEntity
  8
$DDT_AUDIT_GENERATED_(DA)
  6
Continuous
 62
     7
100
AcDbLine
 10
110.6548746077
 20
169.7386964215
 30
0.0
 11
110.6548746077
 21
168.7386964215
 31
0.0
  0
LINE
  5
150
330
131
100
AcDbEntity
  8
$DDT_AUDIT_GENERATED_(DA)
  6
Continuous
 62
     7
100
AcDbLine
 10
110.2745838607
 20
169.7386964215
 30
0.0
 11
110.2745838607
 21
168.7386964215
 31
0.0
  0
LINE
  5
151
330
131
100
AcDbEntity
  8
$DDT_AUDIT_GENERATED_(DA)
  6
Continuous
 62
     7
100
AcDbLine
 10
109.8557526878
 20
169.7386964215
 30
0.0
 11
109.8557526878
 21
168.7386964215
 31
0.0
  0
LINE
  5
152
330
131
100
AcDbEntity
  8
$DDT_AUDIT_GENERATED_(DA)
  6
Continuous
 62
     7
100
AcDbLine
 10
109.3995290761
 20
169.7386964215
 30
0.0
 11
109.3995290761
 21
168.7386964215
 31
0.0
  0
LINE
  5
153
330
131
100
AcDbEntity
  8
$DDT_AUDIT_GENERATED_(DA)
  6
Continuous
 62
     7
100
AcDbLine
 10
108.9071635028
 20
169.7386964215
 30
0.0
 11
108.9071635028
 21
168.7386964215
 31
0.0
  0
LINE
  5
154
330
131
100
AcDbEntity
  8
$DDT_AUDIT_GENERATED_(DA)
  6
Continuous
 62
     7
100
AcDbLine
 10
108.3800055077
 20
169.7386964215
 30
0.0
 11
108.3800055077
 21
168.7386964215
 31
0.0
  0
LINE
  5
155
330
131
100
AcDbEntity
  8
$DDT_AUDIT_GENERATED_(DA)
  6
Continuous
 62
     7
100
AcDbLine
 10
107.8194999943
 20
169.7386964215
 30
0.0
 11
107.8194999943
 21
168.7386964215
 31
0.0
  0
LINE
  5
156
330
131
100
AcDbEntity
  8
$DDT_AUDIT_GENERATED_(DA)
  6
Continuous
 62
     7
100
AcDbLine
 10
107.2271832692
 20
169.7386964215
 30
0.0
 11
107.2271832692
 21
168.7386964215
 31
0.0
  0
LINE
  5
157
330
131
100
AcDbEntity
  8
$DDT_AUDIT_GENERATED_(DA)
  6
Continuous
 62
     7
100
AcDbLine
 10
106.6356782936
 20
168.7386964215
 30
0.0
 11
106.6356782936
 21
169.7386964215
 31
0.0
  0
LINE
  5
158
330
131
100
AcDbEntity
  8
$DDT_AUDIT_GENERATED_(DA)
  6
Continuous
 62
     7
100
AcDbLine
 10
106.6046788314
 20
169.7386964215
 30
0.0
 11
106.6046788314
 21
168.7386964215
 31
0.0
  0
LINE
  5
159
330
131
100
AcDbEntity
  8
$DDT_AUDIT_GENERATED_(DA)
  6
Continuous
 62
     7
100
AcDbLine
 10
106.0156068793
 20
168.7386964215
 30
0.0
 11
106.0156068793
 21
169.7386964215
 31
0.0
  0
LINE
  5
15A
330
131
100
AcDbEntity
  8
$DDT_AUDIT_GENERATED_(DA)
  6
Continuous
 62
     7
100
AcDbLine
 10
105.9536929223
 20
169.7386964215
 30
0.0
 11
105.9536929223
 21
168.7386964215
 31
0.0
  0
LINE
  5
15B
330
131
100
AcDbEntity
  8
$DDT_AUDIT_GENERATED_(DA)
  6
Continuous
 62
     7
100
AcDbLine
 10
105.368668599
 20
168.7386964215
 30
0.0
 11
105.368668599
 21
169.7386964215
 31
0.0
  0
LINE
  5
15C
330
131
100
AcDbEntity
  8
$DDT_AUDIT_GENERATED_(DA)
  6
Continuous
 62
     7
100
AcDbLine
 10
105.2760098489
 20
169.7386964215
 30
0.0
 11
105.2760098489
 21
168.7386964215
 31
0.0
  0
LINE
  5
15D
330
131
100
AcDbEntity
  8
$DDT_AUDIT_GENERATED_(DA)
  6
Continuous
 62
     7
100
AcDbLine
 10
104.6966366654
 20
168.7386964215
 30
0.0
 11
104.6966366654
 21
169.7386964215
 31
0.0
  0
LINE
  5
15E
330
131
100
AcDbEntity
  8
$DDT_AUDIT_GENERATED_(DA)
  6
Continuous
 62
     7
100
AcDbLine
 10
104.5734870936
 20
169.7386964215
 30
0.0
 11
104.5734870936
 21
168.7386964215
 31
0.0
  0
LINE
  5
15F
330
131
100
AcDbEntity
  8
$DDT_AUDIT_GENERATED_(DA)
  6
Continuous
 62
     7
100
AcDbLine
 10
104.0013530715
 20
168.7386964215
 30
0.0
 11
104.0013530715
 21
169.7386964215
 31
0.0
  0
LINE
  5
160
330
131
100
AcDbEntity
  8
$DDT_AUDIT_GENERATED_(DA)
  6
Continuous
 62
     7
100
AcDbLine
 10
103.2847235412
 20
168.7386964215
 30
0.0
 11
103.2847235412
 21
169.7386964215
 31
0.0
  0
LINE
  5
161
330
131
100
AcDbEntity
  8
$DDT_AUDIT_GENERATED_(DA)
  6
Continuous
 62
     7
100
AcDbLine
 10
102.5487123062
 20
168.7386964215
 30
0.0
 11
102.5487123062
 21
169.7386964215
 31
0.0
  0
LINE
  5
162
330
131
100
AcDbEntity
  8
$DDT_AUDIT_GENERATED_(DA)
  6
Continuous
 62
     7
100
AcDbLine
 10
101.7953367223
 20
168.7386964215
 30
0.0
 11
101.7953367223
 21
169.7386964215
 31
0.0
  0
LINE
  5
163
330
131
100
AcDbEntity
  8
$DDT_AUDIT_GENERATED_(DA)
  6
Continuous
 62
     7
100
AcDbLine
 10
101.0266617394
 20
168.7386964215
 30
0.0
 11
101.0266617394
 21
169.7386964215
 31
0.0
  0
LINE
  5
164
330
131
100
AcDbEntity
  8
$DDT_AUDIT_GENERATED_(DA)
  6
Continuous
 62
     7
100
AcDbLine
 10
91.4003583768
 20
168.7386964215
 30
0.0
 11
91.4003583768
 21
169.7386964215
 31
0.0
  0
LINE
  5
165
330
131
100
AcDbEntity
  8
$DDT_AUDIT_GENERATED_(DA)
  6
Continuous
 62
     7
100
AcDbLine
 10
90.631683394
 20
168.7386964215
 30
0.0
 11
90.631683394
 21
169.7386964215
 31
0.0
  0
LINE
  5
166
330
131
100
AcDbEntity
  8
$DDT_AUDIT_GENERATED_(DA)
  6
Continuous
 62
     7
100
AcDbLine
 10
89.87830781
 20
168.7386964215
 30
0.0
 11
89.87830781
 21
169.7386964215
 31
0.0
  0
LINE
  5
167
330
131
100
AcDbEntity
  8
$DDT_AUDIT_GENERATED_(DA)
  6
Continuous
 62
     7
100
AcDbLine
 10
89.1422965751
 20
168.7386964215
 30
0.0
 11
89.1422965751
 21
169.7386964215
 31
0.0
  0
LINE
  5
168
330
131
100
AcDbEntity
  8
$DDT_AUDIT_GENERATED_(DA)
  6
Continuous
 62
     7
100
AcDbLine
 10
88.4256670448
 20
168.7386964215
 30
0.0
 11
88.4256670448
 21
169.7386964215
 31
0.0
  0
LINE
  5
169
330
131
100
AcDbEntity
  8
$DDT_AUDIT_GENERATED_(DA)
  6
Continuous
 62
     7
100
AcDbLine
 10
87.8535330227
 20
169.7386964215
 30
0.0
 11
87.8535330227
 21
168.7386964215
 31
0.0
  0
LINE
  5
16A
330
131
100
AcDbEntity
  8
$DDT_AUDIT_GENERATED_(DA)
  6
Continuous
 62
     7
100
AcDbLine
 10
87.7303834509
 20
168.7386964215
 30
0.0
 11
87.7303834509
 21
169.7386964215
 31
0.0
  0
LINE
  5
16B
330
131
100
AcDbEntity
  8
$DDT_AUDIT_GENERATED_(DA)
  6
Continuous
 62
     7
100
AcDbLine
 10
87.1510102673
 20
169.7386964215
 30
0.0
 11
87.1510102673
 21
168.7386964215
 31
0.0
  0
LINE
  5
16C
330
131
100
AcDbEntity
  8
$DDT_AUDIT_GENERATED_(DA)
  6
Continuous
 62
     7
100
AcDbLine
 10
87.0583515173
 20
168.7386964215
 30
0.0
 11
87.0583515173
 21
169.7386964215
 31
0.0
  0
LINE
  5
16D
330
131
100
AcDbEntity
  8
$DDT_AUDIT_GENERATED_(DA)
  6
Continuous
 62
     7
100
AcDbLine
 10
86.473327194
 20
169.7386964215
 30
0.0
 11
86.473327194
 21
168.7386964215
 31
0.0
  0
LINE
  5
16E
330
131
100
AcDbEntity
  8
$DDT_AUDIT_GENERATED_(DA)
  6
Continuous
 62
     7
100
AcDbLine
 10
86.4114132369
 20
168.7386964215
 30
0.0
 11
86.4114132369
 21
169.7386964215
 31
0.0
  0
LINE
  5
16F
330
131
100
AcDbEntity
  8
$DDT_AUDIT_GENERATED_(DA)
  6
Continuous
 62
     7
100
AcDbLine
 10
85.8223412848
 20
169.7386964215
 30
0.0
 11
85.8223412848
 21
168.7386964215
 31
0.0
  0
LINE
  5
170
330
131
100
AcDbEntity
  8
$DDT_AUDIT_GENERATED_(DA)
  6
Continuous
 62
     7
100
AcDbLine
 10
85.7913418226
 20
168.7386964215
 30
0.0
 11
85.7913418226
 21
169.7386964215
 31
0.0
  0
LINE
  5
171
330
131
100
AcDbEntity
  8
$DDT_AUDIT_GENERATED_(DA)
  6
Continuous
 62
     7
100
AcDbLine
 10
85.199836847
 20
169.7386964215
 30
0.0
 11
85.199836847
 21
168.7386964215
 31
0.0
  0
LINE
  5
172
330
131
100
AcDbEntity
  8
$DDT_AUDIT_GENERATED_(DA)
  6
Continuous
 62
     7
100
AcDbLine
 10
84.6075201219
 20
169.7386964215
 30
0.0
 11
84.6075201219
 21
168.7386964215
 31
0.0
  0
LINE
  5
173
330
131
100
AcDbEntity
  8
$DDT_AUDIT_GENERATED_(DA)
  6
Continuous
 62
     7
100
AcDbLine
 10
84.0470146085
 20
169.7386964215
 30
0.0
 11
84.0470146085
 21
168.7386964215
 31
0.0
  0
LINE
  5
174
330
131
100
AcDbEntity
  8
$DDT_AUDIT_GENERATED_(DA)
  6
Continuous
 62
     7
100
AcDbLine
 10
83.5198566135
 20
169.7386964215
 30
0.0
 11
83.5198566135
 21
168.7386964215
 31
0.0
  0
LINE
  5
175
330
131
100
AcDbEntity
  8
$DDT_AUDIT_GENERATED_(DA)
  6
Continuous
 62
     7
100
AcDbLine
 10
83.0274910402
 20
169.7386964215
 30
0.0
 11
83.0274910402
 21
168.7386964215
 31
0.0
  0
LINE
  5
176
330
131
100
AcDbEntity
  8
$DDT_AUDIT_GENERATED_(DA)
  6
Continuous
 62
     7
100
AcDbLine
 10
82.5712674285
 20
169.7386964215
 30
0.0
 11
82.5712674285
 21
168.7386964215
 31
0.0
  0
LINE
  5
177
330
131
100
AcDbEntity
  8
$DDT_AUDIT_GENERATED_(DA)
  6
Continuous
 62
     7
100
AcDbLine
 10
82.1524362555
 20
169.7386964215
 30
0.0
 11
82.1524362555
 21
168.7386964215
 31
0.0
  0
LINE
  5
178
330
131
100
AcDbEntity
  8
$DDT_AUDIT_GENERATED_(DA)
  6
Continuous
 62
     7
100
AcDbLine
 10
81.7721455085
 20
169.7386964215
 30
0.0
 11
81.7721455085
 21
168.7386964215
 31
0.0
  0
LINE
  5
179
330
131
100
AcDbEntity
  8
$DDT_AUDIT_GENERATED_(DA)
  6
Continuous
 62
     7
100
AcDbLine
 10
81.431437538
 20
169.7386964215
 30
0.0
 11
81.431437538
 21
168.7386964215
 31
0.0
  0
LINE
  5
17A
330
131
100
AcDbEntity
  8
$DDT_AUDIT_GENERATED_(DA)
  6
Continuous
 62
     7
100
AcDbLine
 10
81.1312462007
 20
169.7386964215
 30
0.0
 11
81.1312462007
 21
168.7386964215
 31
0.0
  0
LINE
  5
17B
330
131
100
AcDbEntity
  8
$DDT_AUDIT_GENERATED_(DA)
  6
Continuous
 62
     7
100
AcDbLine
 10
80.8723943002
 20
169.7386964215
 30
0.0
 11
80.8723943002
 21
168.7386964215
 31
0.0
  0
LINE
  5
17C
330
131
100
AcDbEntity
  8
$DDT_AUDIT_GENERATED_(DA)
  6
Continuous
 62
     7
100
AcDbLine
 10
80.6555913318
 20
169.7386964215
 30
0.0
 11
80.6555913318
 21
168.7386964215
 31
0.0
  0
LINE
  5
17D
330
131
100
AcDbEntity
  8
$DDT_AUDIT_GENERATED_(DA)
  6
Continuous
 62
     7
100
AcDbLine
 10
80.4814315371
 20
169.7386964215
 30
0.0
 11
80.4814315371
 21
168.7386964215
 31
0.0
  0
LINE
  5
17E
330
131
100
AcDbEntity
  8
$DDT_AUDIT_GENERATED_(DA)
  6
Continuous
 62
     7
100
AcDbLine
 10
80.3503922762
 20
169.7386964215
 30
0.0
 11
80.3503922762
 21
168.7386964215
 31
0.0
  0
LINE
  5
17F
330
131
100
AcDbEntity
  8
$DDT_AUDIT_GENERATED_(DA)
  6
Continuous
 62
     7
100
AcDbLine
 10
80.2628327184
 20
169.7386964215
 30
0.0
 11
80.2628327184
 21
168.7386964215
 31
0.0
  0
LINE
  5
180
330
131
100
AcDbEntity
  8
$DDT_AUDIT_GENERATED_(DA)
  6
Continuous
 62
     7
100
AcDbLine
 10
80.2189928585
 20
169.7386964215
 30
0.0
 11
80.2189928585
 21
168.7386964215
 31
0.0
  0
LINE
  5
181
330
131
100
AcDbEntity
  8
03510_GRIFF__ANS
  6
Continuous
 62
     7
100
AcDbLine
 10
93.2135184388
 20
106.3513544167
 30
0.0
 11
99.2134764395
 21
106.3513525354
 31
0.0
  0
SPLINE
  5
182
330
131
100
AcDbEntity
  8
03510_GRIFF__ANS
  6
Continuous
 62
     7
100
AcDbSpline
210
0.0
220
0.0
230
1.0
 70
     8
 71
     3
 72
    13
 73
     9
 74
     0
 42
0.0000000013504983
 43
0.0000000001
 40
0.8471021105365929
 40
0.8471021105365929
 40
0.8471021105365929
 40
0.8471021105365929
 40
0.8718802057760972
 40
0.8913451708421619
 40
0.9186562836742574
 40
0.9450017863966951
 40
0.9755676271987852
 40
1.0
 40
1.0
 40
1.0
 40
1.0
 10
75.44685011639244
 20
112.0517714825524
 30
0.0
 10
75.44679369590803
 20
112.0518049792086
 30
0.0
 10
75.46486178015024
 20
112.0516748906466
 30
0.0
 10
75.54500927451393
 20
112.0518515031684
 30
0.0
 10
75.68239452267888
 20
112.0518572798908
 30
0.0
 10
75.91527550669736
 20
112.0514817783684
 30
0.0
 10
76.20863205976268
 20
112.051376253594
 30
0.0
 10
76.46500264350651
 20
112.0516785879061
 30
0.0
 10
76.57888592255924
 20
112.0518171235097
 30
0.0
  0
ARC
  5
183
330
131
100
AcDbEntity
  8
03510_GRIFF__ANS
  6
Continuous
 62
     7
100
AcDbCircle
 10
79.2891148682
 20
1898.2782300466
 30
0.0
 40
1786.228469027744
100
AcDbArc
 50
269.9130655779
 51
270.0871685196
  0
ARC
  5
184
330
131
100
AcDbEntity
  8
03510_GRIFF__ANS
  6
Continuous
 62
     7
100
AcDbCircle
 10
86.3665797356
 20
-575.444761508
 30
0.0
 40
687.5104144186073
100
AcDbArc
 50
89.6362192803
 51
90.3633511646
  0
SPLINE
  5
185
330
131
100
AcDbEntity
  8
03510_GRIFF__ANS
  6
Continuous
 62
     7
100
AcDbSpline
210
0.0
220
0.0
230
1.0
 70
     8
 71
     3
 72
    38
 73
    34
 74
     0
 42
0.0000000003227374
 43
0.0000000001
 40
0.0
 40
0.0
 40
0.0
 40
0.0
 40
0.0001277301291951
 40
0.0213190456172216
 40
0.0817964344220282
 40
0.0985015841145571
 40
0.1205370439317132
 40
0.1539104165804313
 40
0.1768044295195395
 40
0.2037309445465147
 40
0.226866280869433
 40
0.2596029980791678
 40
0.2802836798106829
 40
0.3114795284321837
 40
0.3370184069676859
 40
0.3670666004540369
 40
0.3982183943682381
 40
0.4295716703137969
 40
0.4621512409470816
 40
0.4884189693927964
 40
0.5180631332762123
 40
0.5405379935950078
 40
0.5691459728669023
 40
0.5981765046238376
 40
0.6347541841827722
 40
0.6657863536020869
 40
0.6995481214612557
 40
0.7202671691621028
 40
0.758186934035664
 40
0.7869653736694749
 40
0.8151162224401445
 40
0.8457999183941836
 40
0.8471221874865944
 40
0.8471221874865944
 40
0.8471221874865944
 40
0.8471221874865944
 10
90.7316718095895
 20
112.0517955053628
 30
0.0
 10
90.73352584897802
 20
112.0517856161277
 30
0.0
 10
91.04110295755753
 20
112.0544372271467
 30
0.0
 10
92.23601069689671
 20
112.048150213061
 30
0.0
 10
93.69899051529906
 20
112.0521317449131
 30
0.0
 10
95.18529376941667
 20
112.0515476724806
 30
0.0
 10
96.26801546389903
 20
112.0517883454017
 30
0.0
 10
97.44439265244812
 20
112.0516727953549
 30
0.0
 10
98.68868622276558
 20
112.0512606655039
 30
0.0
 10
99.77336571379894
 20
112.0518396504108
 30
0.0
 10
100.992050092226
 20
112.0511328145671
 30
0.0
 10
102.1038517642279
 20
112.0514241157401
 30
0.0
 10
103.3110184228206
 20
112.05192629303
 30
0.0
 10
104.3932200343818
 20
112.0511824576381
 30
0.0
 10
105.5748354975514
 20
112.0513992421278
 30
0.0
 10
106.7212546990725
 20
112.0520427102762
 30
0.0
 10
107.8966005904754
 20
112.0512186394194
 30
0.0
 10
109.0507166125479
 20
112.0515878696158
 30
0.0
 10
110.0871626080301
 20
112.0514360961162
 30
0.0
 10
111.0469963915045
 20
112.0514315422653
 30
0.0
 10
111.8466862497808
 20
112.0515956484264
 30
0.0
 10
112.6184016264738
 20
112.0518365272754
 30
0.0
 10
113.3311715213579
 20
112.0515196715847
 30
0.0
 10
114.0971172217602
 20
112.0516452703236
 30
0.0
 10
114.7944378921493
 20
112.0518493966821
 30
0.0
 10
115.4243967768668
 20
112.0512117541066
 30
0.0
 10
115.8735116031435
 20
112.0513611049624
 30
0.0
 10
116.2812716539112
 20
112.0518202482668
 30
0.0
 10
116.5867631278938
 20
112.0522198074871
 30
0.0
 10
116.814842656162
 20
112.0513888002625
 30
0.0
 10
116.9464736719215
 20
112.0515530922371
 30
0.0
 10
116.9791006721346
 20
112.0515324241539
 30
0.0
 10
116.9796540374387
 20
112.0514579984592
 30
0.0
 10
116.9796482450381
 20
112.0514548315865
 30
0.0
  0
SPLINE
  5
186
330
131
100
AcDbEntity
  8
03510_GRIFF__ANS
  6
Continuous
 62
     7
100
AcDbSpline
210
0.0
220
0.0
230
1.0
 70
     8
 71
     3
 72
    11
 73
     7
 74
     0
 42
0.0000000008621221
 43
0.0000000001
 40
0.9345565149177832
 40
0.9345565149177832
 40
0.9345565149177832
 40
0.9345565149177832
 40
0.9388754397372022
 40
0.9623161683782728
 40
0.9996961415536478
 40
1.0
 40
1.0
 40
1.0
 40
1.0
 10
116.607197064772
 20
112.0515746729055
 30
0.0
 10
116.5949390958144
 20
112.0515583232608
 30
0.0
 10
116.5143032806589
 20
112.0514967442347
 30
0.0
 10
116.2979261961756
 20
112.0524259861609
 30
0.0
 10
116.0311599066973
 20
112.0501367680822
 30
0.0
 10
115.8495830406011
 20
112.0517927575117
 30
0.0
 10
115.8481189202596
 20
112.051806110357
 30
0.0
  0
LINE
  5
187
330
131
100
AcDbEntity
  8
03510_GRIFF__ANS
  6
Continuous
 62
     7
100
AcDbLine
 10
115.8481189203
 20
112.0518061104
 30
0.0
 11
115.5517998661
 21
112.0517745054
 31
0.0
  0
ARC
  5
188
330
131
100
AcDbEntity
  8
03510_GRIFF__ANS
  6
Continuous
 62
     7
100
AcDbCircle
 10
82.3598755766
 20
134.9676855664
 30
0.0
 40
37.1382055682795
100
AcDbArc
 50
357.2153322526
 51
0.0536345902
  0
LINE
  5
189
330
131
100
AcDbEntity
  8
03510_GRIFF__ANS
  6
Continuous
 62
     7
100
AcDbLine
 10
119.4980648731
 20
135.0024506427
 30
0.0
 11
119.4980161625
 21
135.0381033756
 31
0.0
  0
ARC
  5
18A
330
131
100
AcDbEntity
  8
03510_GRIFF__ANS
  6
Continuous
 62
     7
100
AcDbCircle
 10
-59.3338810561
 20
134.9369012148
 30
0.0
 40
178.8319258541099
100
AcDbArc
 50
0.0324240595
 51
0.076454389
  0
SPLINE
  5
18B
330
131
100
AcDbEntity
  8
03510_GRIFF__ANS
  6
Continuous
 62
     7
100
AcDbSpline
210
0.0
220
0.0
230
1.0
 70
    12
 71
     3
 72
    18
 73
    14
 74
     0
 42
0.000000000469393
 43
0.0000000001
 40
0.0
 40
0.0
 40
0.0
 40
0.0
 40
0.042623365129039
 40
0.0855776026398357
 40
0.1178559068542546
 40
0.1505755835175443
 40
0.1723794301235224
 40
0.197375027923039
 40
0.2224478686681076
 40
0.2475928132319287
 40
0.2832868942707587
 40
0.3046065633967366
 40
0.3415632903266365
 40
0.3415632903266365
 40
0.3415632903266365
 40
0.3415632903266365
 10
119.5004935043191
 20
136.2826223478702
 30
0.0
 41
1.0
 10
119.5011233820555
 20
136.6186304244451
 30
0.0
 41
1.0
 10
119.4949691118595
 20
137.1868385026407
 30
0.0
 41
1.0
 10
119.4687322457211
 20
138.0486327319577
 30
0.0
 41
1.0
 10
119.4301972050781
 20
138.8165429154719
 30
0.0
 41
1.0
 10
119.3894798558264
 20
139.435945340445
 30
0.0
 41
1.0
 10
119.3448973889158
 20
140.0007542030387
 30
0.0
 41
1.0
 10
119.2990865463566
 20
140.5099097227015
 30
0.0
 41
1.0
 10
119.2451531991437
 20
141.040736540272
 30
0.0
 41
1.0
 10
119.176916975964
 20
141.6445534012943
 30
0.0
 41
1.0
 10
119.1042584718256
 20
142.2188297517148
 30
0.0
 41
1.0
 10
119.0137499111837
 20
142.8714699305829
 30
0.0
 41
1.0
 10
118.9530415454996
 20
143.2740717415134
 30
0.0
 41
1.0
 10
118.9129404257921
 20
143.5276708564891
 30
0.0
 41
1.0
  0
LINE
  5
18C
330
131
100
AcDbEntity
  8
03510_GRIFF__ANS
  6
Continuous
 62
     7
100
AcDbLine
 10
76.5788859226
 20
112.0518209974
 30
0.0
 11
75.4467679626
 21
112.0518213811
 31
0.0
  0
SPLINE
  5
18D
330
131
100
AcDbEntity
  8
03510_GRIFF__ANS
  6
Continuous
 62
     7
100
AcDbSpline
210
0.0
220
0.0
230
1.0
 70
    12
 71
     3
 72
    21
 73
    17
 74
     0
 42
0.0000000004120015
 43
0.0000000001
 40
0.6741245689791674
 40
0.6741245689791674
 40
0.6741245689791674
 40
0.6741245689791674
 40
0.6878266652301195
 40
0.7126159344360129
 40
0.7330624248978282
 40
0.7570941988171112
 40
0.7865972481175213
 40
0.8111280607942281
 40
0.835584763499085
 40
0.8599607311085363
 40
0.8842493340017057
 40
0.9129962547322596
 40
0.9504469076890674
 40
0.9713238262816781
 40
0.992111654119509
 40
1.0
 40
1.0
 40
1.0
 40
1.0
 10
118.3972229148366
 20
125.335006063805
 30
0.0
 41
1.0
 10
118.4202787790423
 20
125.4401818944558
 30
0.0
 41
1.0
 10
118.4843567283659
 20
125.7364055842786
 30
0.0
 41
1.0
 10
118.579331761675
 20
126.1930821015997
 30
0.0
 41
1.0
 10
118.6865293679945
 20
126.7350302168988
 30
0.0
 41
1.0
 10
118.7948760999863
 20
127.3135772042251
 30
0.0
 41
1.0
 10
118.901557582887
 20
127.9297791830298
 30
0.0
 41
1.0
 10
119.0006440780213
 20
128.554145735751
 30
0.0
 41
1.0
 10
119.0860163169984
 20
129.1415672773326
 30
0.0
 41
1.0
 10
119.163647394227
 20
129.730433658784
 30
0.0
 41
1.0
 10
119.2377227884119
 20
130.3572045127643
 30
0.0
 41
1.0
 10
119.3136668909031
 20
131.0929254673235
 30
0.0
 41
1.0
 10
119.3738116362938
 20
131.8069930697505
 30
0.0
 41
1.0
 10
119.4173823935631
 20
132.4518506844624
 30
0.0
 41
1.0
 10
119.4406368122743
 20
132.870546995056
 30
0.0
 41
1.0
 10
119.4509388721077
 20
133.0919654890961
 30
0.0
 41
1.0
 10
119.4542273748064
 20
133.1634190941519
 30
0.0
 41
1.0
  0
LINE
  5
18E
330
131
100
AcDbEntity
  8
03510_GRIFF__ANS
  6
Continuous
 62
     7
100
AcDbLine
 10
80.5232268664
 20
157.7386964215
 30
0.0
 11
119.1555157714
 21
157.7386964215
 31
0.0
  0
SPLINE
  5
18F
330
131
100
AcDbEntity
  8
03510_GRIFF__ANS
  6
Continuous
 62
     7
100
AcDbSpline
210
0.0
220
0.0
230
1.0
 70
     8
 71
     3
 72
   113
 73
   109
 74
     0
 42
0.000000000429227
 43
0.0000000001
 40
0.6585650437870983
 40
0.6585650437870983
 40
0.6585650437870983
 40
0.6585650437870983
 40
0.6602504760085556
 40
0.672962175099809
 40
0.6761400967654259
 40
0.6777290558051664
 40
0.679320584932072
 40
0.6856871413866411
 40
0.6984202560024314
 40
0.6990212679242475
 40
0.699716970447457
 40
0.7007605245971809
 40
0.7025867453033697
 40
0.7057826338609605
 40
0.7132397127339725
 40
0.7206967880075033
 40
0.7221882014058347
 40
0.7233067609073803
 40
0.7238657698975574
 40
0.7244232408993616
 40
0.7281397163962435
 40
0.7430056320405429
 40
0.7467221085775222
 40
0.7485640580641132
 40
0.7499189364200864
 40
0.7553384519815369
 40
0.7661774833911944
 40
0.7668382223285605
 40
0.7673341577653195
 40
0.768202044849611
 40
0.7697208474358332
 40
0.7723787524025051
 40
0.7770300867067451
 40
0.7824566427024546
 40
0.7835419536299829
 40
0.7841931401217823
 40
0.7851705193330112
 40
0.7878868426137434
 40
0.7987521379317974
 40
0.8014684613472298
 40
0.8028826404439686
 40
0.8047913343903526
 40
0.8124261124975466
 40
0.8276956688589445
 40
0.8281609143938573
 40
0.8286267308393491
 40
0.8293254555303962
 40
0.8305482238012367
 40
0.8326880684409687
 40
0.8364327969466162
 40
0.8429860723586582
 40
0.8506315596899683
 40
0.8525429311948964
 40
0.8534986168741346
 40
0.854238054742154
 40
0.8571624880132452
 40
0.8688602217938837
 40
0.8717846550968258
 40
0.8732470002443966
 40
0.8747101228788898
 40
0.8805626136639796
 40
0.8922675952312427
 40
0.903988087481401
 40
0.9098484836963747
 40
0.9113135827155713
 40
0.9120454687782757
 40
0.9127715834079569
 40
0.9156760419514274
 40
0.9272938762590683
 40
0.9301983348064264
 40
0.9316498198394059
 40
0.9412512444778367
 40
0.9508533191845614
 40
0.9700684487278313
 40
0.9705403157314861
 40
0.9710121827352153
 40
0.9714840497390148
 40
0.9719559167428792
 40
0.9724277837468052
 40
0.9728996507507852
 40
0.9733715177548142
 40
0.9738433847588889
 40
0.9743152517630042
 40
0.9747871187671541
 40
0.9752589857713355
 40
0.9757308527755392
 40
0.9762027197797649
 40
0.9766745867840032
 40
0.9771464537882526
 40
0.9776183207925063
 40
0.9780901877967586
 40
0.978562054801006
 40
0.9790339218052414
 40
0.9795057888094612
 40
0.9799776558136595
 40
0.9804495228178298
 40
0.9809213898219695
 40
0.9813932568260728
 40
0.9818651238301328
 40
0.9823369908341458
 40
0.9828088578381045
 40
0.9832807248420061
 40
0.9837525918458455
 40
0.9842244588496146
 40
0.9846963258533095
 40
0.9849322593551272
 40
0.9851669778433507
 40
1.0
 40
1.0
 40
1.0
 40
1.0
 10
118.3873181715155
 20
125.2908553546407
 30
0.0
 10
118.3900098183957
 20
125.3033734613714
 30
0.0
 10
118.4129533638134
 20
125.4103401298558
 30
0.0
 10
118.4413480779869
 20
125.5407715200599
 30
0.0
 10
118.4694364629008
 20
125.670656120539
 30
0.0
 10
118.4798736397825
 20
125.7177903541022
 30
0.0
 10
118.4944043700478
 20
125.789219098335
 30
0.0
 10
118.5265972422321
 20
125.9436710483
 30
0.0
 10
118.5569321001631
 20
126.0909979201248
 30
0.0
 10
118.5790048982668
 20
126.195715314181
 30
0.0
 10
118.5823930159461
 20
126.213338066057
 30
0.0
 10
118.587685494391
 20
126.2401195509155
 30
0.0
 10
118.5966267927436
 20
126.2857172949415
 30
0.0
 10
118.6150957219042
 20
126.3795024294656
 30
0.0
 10
118.6419558673812
 20
126.5156163144439
 30
0.0
 10
118.666385938022
 20
126.6389192914564
 30
0.0
 10
118.6814264175949
 20
126.7145767811646
 30
0.0
 10
118.6861505278628
 20
126.7383990114856
 30
0.0
 10
118.6895123622799
 20
126.7551877221513
 30
0.0
 10
118.6961623510439
 20
126.791790086369
 30
0.0
 10
118.7231626671094
 20
126.9364389006908
 30
0.0
 10
118.7545142207877
 20
127.105086875676
 30
0.0
 10
118.7831960972449
 20
127.2596246467485
 30
0.0
 10
118.7931776430728
 20
127.3118184078005
 30
0.0
 10
118.8044329143963
 20
127.3773995057997
 30
0.0
 10
118.8279850531027
 20
127.5112326857021
 30
0.0
 10
118.8507386407852
 20
127.6397750489935
 30
0.0
 10
118.86654548677
 20
127.7310664659461
 30
0.0
 10
118.8690798558764
 20
127.7465284445177
 30
0.0
 10
118.8727329839512
 20
127.7685259279253
 30
0.0
 10
118.8791031070976
 20
127.8070320498929
 30
0.0
 10
118.8902766202279
 20
127.87441114995
 30
0.0
 10
118.9064059089709
 20
127.9716213553353
 30
0.0
 10
118.9205983331759
 20
128.0568180668804
 30
0.0
 10
118.9296835232599
 20
128.1114990270764
 30
0.0
 10
118.9331621670886
 20
128.1322023292406
 30
0.0
 10
118.9384589375097
 20
128.1654549340005
 30
0.0
 10
118.9557676218259
 20
128.2770442448183
 30
0.0
 10
118.9754358993551
 20
128.4018739170863
 30
0.0
 10
118.9934469165897
 20
128.5167754924516
 30
0.0
 10
119.0007567759857
 20
128.5630333428257
 30
0.0
 10
119.01267120931
 20
128.6474387476461
 30
0.0
 10
119.0406862031452
 20
128.8382254446366
 30
0.0
 10
119.066546125141
 20
129.0181187809439
 30
0.0
 10
119.0848763640789
 20
129.1427191647581
 30
0.0
 10
119.0864824143401
 20
129.1553289815994
 30
0.0
 10
119.0889280142012
 20
129.1737706531468
 30
0.0
 10
119.0930392829644
 20
129.2051598350393
 30
0.0
 10
119.1002668751691
 20
129.2600816115808
 30
0.0
 10
119.1129120183568
 20
129.3561991123274
 30
0.0
 10
119.1311588592525
 20
129.4948691946232
 30
0.0
 10
119.1476842690045
 20
129.6193395327312
 30
0.0
 10
119.1583124364131
 20
129.7006098682261
 30
0.0
 10
119.1621147253292
 20
129.728447020138
 30
0.0
 10
119.1663098784076
 20
129.7642956954536
 30
0.0
 10
119.1806688354303
 20
129.8833887151688
 30
0.0
 10
119.1968942975337
 20
130.0194815115723
 30
0.0
 10
119.2118424207774
 20
130.1442171819909
 30
0.0
 10
119.2173108666991
 20
130.1895777222451
 30
0.0
 10
119.2245852182686
 20
130.2578783015105
 30
0.0
 10
119.2407780079351
 20
130.4057674020906
 30
0.0
 10
119.2665591529793
 20
130.6332329512479
 30
0.0
 10
119.2881314094081
 20
130.8617350180248
 30
0.0
 10
119.3029321666343
 20
131.010170598919
 30
0.0
 10
119.3090951562423
 20
131.0729877496186
 30
0.0
 10
119.311385444885
 20
131.0957663713377
 30
0.0
 10
119.3142850350321
 20
131.1298664520925
 30
0.0
 10
119.3249032474074
 20
131.2489616142699
 30
0.0
 10
119.3367217827775
 20
131.3851363065251
 30
0.0
 10
119.3478175191748
 20
131.5099080170337
 30
0.0
 10
119.357174002188
 20
131.6189952552234
 30
0.0
 10
119.3688614832877
 20
131.7808106701326
 30
0.0
 10
119.3928853443168
 20
132.0813935034167
 30
0.0
 10
119.4083000674212
 20
132.3110537011621
 30
0.0
 10
119.4173560654915
 20
132.4693038695906
 30
0.0
 10
119.4179934233359
 20
132.480416390894
 30
0.0
 10
119.4186304232344
 20
132.4915289560264
 30
0.0
 10
119.4192675429858
 20
132.5026415094108
 30
0.0
 10
119.4199046545787
 20
132.5137540659391
 30
0.0
 10
119.4205417923283
 20
132.5248666216212
 30
0.0
 10
119.4211789470544
 20
132.5359791775263
 30
0.0
 10
119.4218161212313
 20
132.5470917333683
 30
0.0
 10
119.4224533142106
 20
132.5582042892239
 30
0.0
 10
119.4230905261805
 20
132.5693168450727
 30
0.0
 10
119.4237277571051
 20
132.5804294009203
 30
0.0
 10
119.4243650070086
 20
132.5915419567653
 30
0.0
 10
119.425002275899
 20
132.6026545126083
 30
0.0
 10
119.4256395637887
 20
132.6137670684494
 30
0.0
 10
119.4262768706888
 20
132.6248796242886
 30
0.0
 10
119.426914196611
 20
132.635992180126
 30
0.0
 10
119.4275515415666
 20
132.6471047359619
 30
0.0
 10
119.4281889055672
 20
132.6582172917962
 30
0.0
 10
119.4288262886236
 20
132.6693298476293
 30
0.0
 10
119.4294636907498
 20
132.6804424034608
 30
0.0
 10
119.4301011119476
 20
132.6915549592921
 30
0.0
 10
119.4307385522648
 20
132.702667515119
 30
0.0
 10
119.4313760115767
 20
132.7137800709579
 30
0.0
 10
119.4320134904033
 20
132.7248926267478
 30
0.0
 10
119.4326509868577
 20
132.7360051827174
 30
0.0
 10
119.4332885080363
 20
132.7471177380132
 30
0.0
 10
119.4339260275092
 20
132.7582302958216
 30
0.0
 10
119.434563643968
 20
132.7693428442511
 30
0.0
 10
119.4352009891449
 20
132.7804554276822
 30
0.0
 10
119.4358394374879
 20
132.7915678804851
 30
0.0
 10
119.4363681225331
 20
132.8008286640801
 30
0.0
 10
119.4367980748876
 20
132.8082268441586
 30
0.0
 10
119.4433345353173
 20
132.9284046399253
 30
0.0
 10
119.4488254761063
 20
133.046834168551
 30
0.0
 10
119.4542273748064
 20
133.1634190941519
 30
0.0
  0
SPLINE
  5
190
330
131
100
AcDbEntity
  8
03510_GRIFF__ANS
  6
Continuous
 62
     7
100
AcDbSpline
210
0.0
220
0.0
230
1.0
 70
     8
 71
     3
 72
   223
 73
   219
 74
     0
 42
0.0000000004834068
 43
0.0000000001
 40
0.0
 40
0.0
 40
0.0
 40
0.0
 40
0.0019681770955436
 40
0.0068886297835633
 40
0.0096226733763734
 40
0.0116418614945506
 40
0.013997580965752
 40
0.0151754407013197
 40
0.0182603777230384
 40
0.0325072841547601
 40
0.0360690107612141
 40
0.0378498740633509
 40
0.0388724353098237
 40
0.0396413841104194
 40
0.0468182396027932
 40
0.0611719505898518
 40
0.0616314111628488
 40
0.0620908717363724
 40
0.0625503323104024
 40
0.063009792884912
 40
0.0634692534598831
 40
0.0639287140352934
 40
0.0643881746111233
 40
0.064847635187347
 40
0.0653070957639449
 40
0.0657665563408942
 40
0.0662260169181755
 40
0.0666854774957654
 40
0.0671449380736434
 40
0.0676043986517872
 40
0.0680638592301754
 40
0.0685233198087876
 40
0.0689827803876012
 40
0.0694422409665955
 40
0.0699017015457494
 40
0.0703611621250391
 40
0.0708206227044466
 40
0.0712800832839494
 40
0.0717395438635262
 40
0.0721990044431554
 40
0.072658465022815
 40
0.0731179256024862
 40
0.0735773861821472
 40
0.0740368467617739
 40
0.0744963073413492
 40
0.0749557679208514
 40
0.0754152285002581
 40
0.0758746890795479
 40
0.0763341496587007
 40
0.0767936102376958
 40
0.0772530708165135
 40
0.0777125313951307
 40
0.0781719919735289
 40
0.0786314525516842
 40
0.0790909131295786
 40
0.07955037370719
 40
0.0800098342844966
 40
0.0804692948614808
 40
0.08092875543812
 40
0.0813882160143945
 40
0.0818476765902826
 40
0.0823071371657635
 40
0.0827665977408192
 40
0.0832260583154253
 40
0.0836855188895647
 40
0.0841449794632162
 40
0.0849876085279492
 40
0.0864441033142873
 40
0.0893570929066279
 40
0.1010090513269981
 40
0.1021742471590438
 40
0.1028733646560134
 40
0.1039188078344833
 40
0.1068157565809061
 40
0.1126096541627055
 40
0.1184035517441064
 40
0.1213005004904563
 40
0.1222629176951508
 40
0.1235397862283477
 40
0.1254550890788062
 40
0.1433312501275715
 40
0.1478002902482218
 40
0.1500348102022097
 40
0.1507642402526419
 40
0.1513111368828909
 40
0.1522682060091739
 40
0.1612008522086077
 40
0.1790661447304314
 40
0.1793127864426722
 40
0.1795594281579177
 40
0.1798060698761098
 40
0.1800527115971843
 40
0.1802993533210843
 40
0.1805459950477474
 40
0.1807926367771123
 40
0.1810392785091198
 40
0.1812859202437098
 40
0.1815325619808238
 40
0.1817792037203961
 40
0.1820258454623699
 40
0.1822724872066853
 40
0.1825191289532817
 40
0.1827657707020982
 40
0.1830124124530718
 40
0.1832590542061483
 40
0.1835056959612636
 40
0.1837523377183583
 40
0.1839989794773718
 40
0.1842456212382428
 40
0.1844922630009151
 40
0.1847389047653248
 40
0.1849855465314131
 40
0.1852321882991198
 40
0.1854788300683873
 40
0.1857254718391514
 40
0.1859721136113552
 40
0.186218755384936
 40
0.1864653971598357
 40
0.1867120389359953
 40
0.1869586807133537
 40
0.1872053224918509
 40
0.1874519642714262
 40
0.1876986060520223
 40
0.1879452478335772
 40
0.1881918896160316
 40
0.1884385313993258
 40
0.1886851731833989
 40
0.1889318149681945
 40
0.1891784567536485
 40
0.1894250985397057
 40
0.1896717403263023
 40
0.189918382113382
 40
0.1901650239008828
 40
0.190411665688746
 40
0.1906583074769126
 40
0.1909049492653217
 40
0.1911515910539142
 40
0.1913982328426322
 40
0.191644874631415
 40
0.1918915164202006
 40
0.1921381582089337
 40
0.1923847999975526
 40
0.1926314417859993
 40
0.1928780835742127
 40
0.1931247253621352
 40
0.1933713671497059
 40
0.193618008936865
 40
0.1938646507235557
 40
0.1941112925097152
 40
0.194357934295288
 40
0.1946045760802134
 40
0.19485121786443
 40
0.1951330941883093
 40
0.195414970511099
 40
0.1956968468327122
 40
0.1959787231530587
 40
0.1962605994720515
 40
0.1965424757896048
 40
0.1968243521056242
 40
0.197106228420028
 40
0.197388104732726
 40
0.1976699810436283
 40
0.1979518573526484
 40
0.1982337336596994
 40
0.1985156099646923
 40
0.1987974862675368
 40
0.1990793625681491
 40
0.1993612388664406
 40
0.1996431151623219
 40
0.1999249914557054
 40
0.200206867746504
 40
0.2004887440346311
 40
0.2007706203199963
 40
0.2010524966025143
 40
0.2013343728820976
 40
0.2016162491586579
 40
0.2018981254321062
 40
0.2021800017023583
 40
0.2024618779693244
 40
0.2027437542329179
 40
0.203025630493052
 40
0.2033075067496385
 40
0.2035893830025908
 40
0.2038712592518201
 40
0.2051327675033055
 40
0.2060786342792178
 40
0.2077339012743394
 40
0.2106306188620375
 40
0.2264016381360525
 40
0.2283730150960935
 40
0.2293587034799993
 40
0.2304559040500912
 40
0.2349563773406799
 40
0.2439573278961908
 40
0.252958278437231
 40
0.2574587517251462
 40
0.2585835502731899
 40
0.2597072715576466
 40
0.2619547147574827
 40
0.2769845013907015
 40
0.2844993931091349
 40
0.2863781149234966
 40
0.2872717357066514
 40
0.2879866975685241
 40
0.2908465458704468
 40
0.3022859449652482
 40
0.308005642687434
 40
0.3085776122018073
 40
0.3094352702241702
 40
0.3108642689860937
 40
0.313722267723505
 40
0.3251542683686888
 40
0.3308702652401128
 40
0.3337236002377949
 40
0.3365768885455988
 40
0.3479900466189346
 40
0.3502726769778949
 40
0.3518695264648617
 40
0.3518695264648617
 40
0.3518695264648617
 40
0.3518695264648617
 10
119.5004935043191
 20
136.2826223478702
 30
0.0
 10
119.5004892674646
 20
136.2962805734313
 30
0.0
 10
119.5005274184634
 20
136.3440842811882
 30
0.0
 10
119.500573022123
 20
136.4108611410477
 30
0.0
 10
119.5004021917757
 20
136.4779914477565
 30
0.0
 10
119.5002063308323
 20
136.5273233073057
 30
0.0
 10
119.5000424550926
 20
136.5658558857853
 30
0.0
 10
119.4999284553881
 20
136.6117854519886
 30
0.0
 10
119.4980377018838
 20
136.7402084503115
 30
0.0
 10
119.4965970575562
 20
136.885182326762
 30
0.0
 10
119.4948136604923
 20
137.021097977966
 30
0.0
 10
119.494400155573
 20
137.0652658011084
 30
0.0
 10
119.4939004890698
 20
137.0900458993028
 30
0.0
 10
119.4923945040276
 20
137.1522422023389
 30
0.0
 10
119.4885372247484
 20
137.3068823830131
 30
0.0
 10
119.4862219113011
 20
137.4594705611264
 30
0.0
 10
119.4825696915193
 20
137.5653174154368
 30
0.0
 10
119.4822431819352
 20
137.5748704731417
 30
0.0
 10
119.4819158821517
 20
137.5844234787828
 30
0.0
 10
119.4815888371148
 20
137.5939764983659
 30
0.0
 10
119.4812617668222
 20
137.6035295142045
 30
0.0
 10
119.4809347462905
 20
137.6130825310375
 30
0.0
 10
119.480607755409
 20
137.6226355475947
 30
0.0
 10
119.4802807995567
 20
137.6321885642163
 30
0.0
 10
119.4799538772822
 20
137.6417415808107
 30
0.0
 10
119.4796269889647
 20
137.6512945974022
 30
0.0
 10
119.4793001344926
 20
137.6608476139839
 30
0.0
 10
119.478973313886
 20
137.6704006305576
 30
0.0
 10
119.4786465271296
 20
137.6799536471224
 30
0.0
 10
119.4783197742175
 20
137.6895066636782
 30
0.0
 10
119.4779930551415
 20
137.6990596802248
 30
0.0
 10
119.4776663698938
 20
137.708612696762
 30
0.0
 10
119.4773397184666
 20
137.7181657132895
 30
0.0
 10
119.4770131008521
 20
137.7277187298071
 30
0.0
 10
119.4766865170424
 20
137.7372717463146
 30
0.0
 10
119.4763599670298
 20
137.7468247628117
 30
0.0
 10
119.4760334508062
 20
137.7563777792984
 30
0.0
 10
119.475706968364
 20
137.7659307957742
 30
0.0
 10
119.4753805196954
 20
137.775483812239
 30
0.0
 10
119.4750541047923
 20
137.7850368286926
 30
0.0
 10
119.474727723647
 20
137.7945898451347
 30
0.0
 10
119.4744013762516
 20
137.8041428615652
 30
0.0
 10
119.4740750625982
 20
137.8136958779837
 30
0.0
 10
119.4737487826791
 20
137.8232488943902
 30
0.0
 10
119.4734225364863
 20
137.8328019107844
 30
0.0
 10
119.4730963240119
 20
137.842354927166
 30
0.0
 10
119.472770145248
 20
137.8519079435348
 30
0.0
 10
119.4724440001869
 20
137.8614609598906
 30
0.0
 10
119.4721178888206
 20
137.8710139762333
 30
0.0
 10
119.4717918111411
 20
137.8805669925624
 30
0.0
 10
119.4714657671407
 20
137.8901200088781
 30
0.0
 10
119.4711397568114
 20
137.8996730251798
 30
0.0
 10
119.4708137801451
 20
137.9092260414675
 30
0.0
 10
119.4704878371351
 20
137.918779057741
 30
0.0
 10
119.4701619277689
 20
137.9283320739997
 30
0.0
 10
119.4698360520554
 20
137.9378850902447
 30
0.0
 10
119.4695102099241
 20
137.9474381064711
 30
0.0
 10
119.4691844016006
 20
137.9569911226958
 30
0.0
 10
119.4688586262053
 20
137.9665441388554
 30
0.0
 10
119.4685328869842
 20
137.9760971551852
 30
0.0
 10
119.4682071717843
 20
137.985650170806
 30
0.0
 10
119.4678815259249
 20
137.9952031889981
 30
0.0
 10
119.4675557802339
 20
138.0047561975182
 30
0.0
 10
119.4672305660323
 20
138.0143092420578
 30
0.0
 10
119.4669035271611
 20
138.0238621520928
 30
0.0
 10
119.4664944823731
 20
138.0360712626519
 30
0.0
 10
119.4657806175575
 20
138.0551853955322
 30
0.0
 10
119.4640897903617
 20
138.0912681216005
 30
0.0
 10
119.4592396544692
 20
138.2022142970825
 30
0.0
 10
119.4543769478258
 20
138.3111333884674
 30
0.0
 10
119.450198849368
 20
138.404722003608
 30
0.0
 10
119.4493298669773
 20
138.4248726876418
 30
0.0
 10
119.4477035596093
 20
138.4569914555329
 30
0.0
 10
119.4440020399722
 20
138.5243302890562
 30
0.0
 10
119.4386957321095
 20
138.6245341350424
 30
0.0
 10
119.4332593695996
 20
138.7247214815487
 30
0.0
 10
119.429787786802
 20
138.7915080626091
 30
0.0
 10
119.4277655349123
 20
138.8270226170988
 30
0.0
 10
119.4258363689405
 20
138.8557088737378
 30
0.0
 10
119.4164885088477
 20
139.0012393391645
 30
0.0
 10
119.4056238019196
 20
139.1688014893541
 30
0.0
 10
119.3946110720181
 20
139.3385627089457
 30
0.0
 10
119.3913767262324
 20
139.3899118389336
 30
0.0
 10
119.3897352310934
 20
139.4141499444622
 30
0.0
 10
119.3884966189138
 20
139.4295359023837
 30
0.0
 10
119.3829156879062
 20
139.5014691164885
 30
0.0
 10
119.3675053603682
 20
139.6926570868379
 30
0.0
 10
119.3550052986274
 20
139.8794235562771
 30
0.0
 10
119.3435364458529
 20
140.0056223602362
 30
0.0
 10
119.3430751356144
 20
140.0107088558112
 30
0.0
 10
119.3426136294626
 20
140.0157953053947
 30
0.0
 10
119.3421522293804
 20
140.0208817672569
 30
0.0
 10
119.3416908544561
 20
140.0259682257838
 30
0.0
 10
119.3412295263743
 20
140.0310546851589
 30
0.0
 10
119.340768239329
 20
140.0361411442609
 30
0.0
 10
119.3403069948804
 20
140.0412276033899
 30
0.0
 10
119.3398457926148
 20
140.0463140624652
 30
0.0
 10
119.3393846326474
 20
140.051400521508
 30
0.0
 10
119.3389235149518
 20
140.0564869805123
 30
0.0
 10
119.3384624395394
 20
140.0615734394794
 30
0.0
 10
119.3380014064115
 20
140.0666598984087
 30
0.0
 10
119.3375404155721
 20
140.0717463572998
 30
0.0
 10
119.3370794670246
 20
140.0768328161526
 30
0.0
 10
119.3366185607724
 20
140.0819192749667
 30
0.0
 10
119.3361576968189
 20
140.087005733742
 30
0.0
 10
119.3356968751676
 20
140.0920921924781
 30
0.0
 10
119.3352360958218
 20
140.0971786511748
 30
0.0
 10
119.3347753587851
 20
140.1022651098318
 30
0.0
 10
119.3343146640609
 20
140.1073515684489
 30
0.0
 10
119.3338540116525
 20
140.1124380270257
 30
0.0
 10
119.3333934015634
 20
140.1175244855621
 30
0.0
 10
119.332932833797
 20
140.1226109440577
 30
0.0
 10
119.3324723083568
 20
140.1276974025123
 30
0.0
 10
119.332011825246
 20
140.1327838609257
 30
0.0
 10
119.3315513844681
 20
140.1378703192975
 30
0.0
 10
119.3310909860266
 20
140.1429567776275
 30
0.0
 10
119.3306306299248
 20
140.1480432359153
 30
0.0
 10
119.3301703161661
 20
140.153129694161
 30
0.0
 10
119.3297100447539
 20
140.1582161523639
 30
0.0
 10
119.3292498156916
 20
140.1633026105241
 30
0.0
 10
119.3287896289826
 20
140.1683890686411
 30
0.0
 10
119.3283294846302
 20
140.1734755267148
 30
0.0
 10
119.3278693826378
 20
140.1785619847448
 30
0.0
 10
119.3274093230089
 20
140.1836484427309
 30
0.0
 10
119.3269493057468
 20
140.1887349006729
 30
0.0
 10
119.3264893308547
 20
140.1938213585704
 30
0.0
 10
119.3260293983363
 20
140.1989078164233
 30
0.0
 10
119.3255695081946
 20
140.2039942742311
 30
0.0
 10
119.3251096604332
 20
140.2090807319939
 30
0.0
 10
119.3246498550554
 20
140.2141671897111
 30
0.0
 10
119.3241900920645
 20
140.2192536473826
 30
0.0
 10
119.3237303714639
 20
140.2243401050082
 30
0.0
 10
119.323270693257
 20
140.2294265625875
 30
0.0
 10
119.322811057447
 20
140.2345130201203
 30
0.0
 10
119.3223514640373
 20
140.2395994776064
 30
0.0
 10
119.3218919130313
 20
140.2446859350455
 30
0.0
 10
119.3214324044322
 20
140.2497723924373
 30
0.0
 10
119.3209729382435
 20
140.2548588497816
 30
0.0
 10
119.3205135144683
 20
140.2599453070781
 30
0.0
 10
119.3200541331101
 20
140.2650317643266
 30
0.0
 10
119.3195947941723
 20
140.2701182215267
 30
0.0
 10
119.319135497658
 20
140.2752046786784
 30
0.0
 10
119.3186762435705
 20
140.2802911357812
 30
0.0
 10
119.3182170319133
 20
140.285377592835
 30
0.0
 10
119.3177578626897
 20
140.2904640498395
 30
0.0
 10
119.3172987359028
 20
140.2955505067944
 30
0.0
 10
119.3168396515561
 20
140.3006369636995
 30
0.0
 10
119.3163806096527
 20
140.3057234205545
 30
0.0
 10
119.3159216101961
 20
140.3108098773592
 30
0.0
 10
119.3154626531895
 20
140.3158963341133
 30
0.0
 10
119.3150037386362
 20
140.3209827908166
 30
0.0
 10
119.3145230154873
 20
140.3263114596892
 30
0.0
 10
119.3140204911116
 20
140.3318823407228
 30
0.0
 10
119.3134961733124
 20
140.3376954339091
 30
0.0
 10
119.3129719109808
 20
140.3435085270276
 30
0.0
 10
119.3124477041217
 20
140.349321620078
 30
0.0
 10
119.3119235527398
 20
140.3551347130599
 30
0.0
 10
119.3113994568401
 20
140.3609478059728
 30
0.0
 10
119.3108754164274
 20
140.3667608988164
 30
0.0
 10
119.3103514315066
 20
140.3725739915903
 30
0.0
 10
119.3098275020825
 20
140.3783870842942
 30
0.0
 10
119.30930362816
 20
140.3842001769277
 30
0.0
 10
119.308779809744
 20
140.3900132694905
 30
0.0
 10
119.3082560468391
 20
140.395826361982
 30
0.0
 10
119.3077323394504
 20
140.4016394544022
 30
0.0
 10
119.3072086875825
 20
140.4074525467503
 30
0.0
 10
119.3066850912404
 20
140.4132656390262
 30
0.0
 10
119.3061615504289
 20
140.4190787312295
 30
0.0
 10
119.3056380651527
 20
140.4248918233599
 30
0.0
 10
119.3051146354167
 20
140.4307049154168
 30
0.0
 10
119.3045912612254
 20
140.4365180074
 30
0.0
 10
119.3040679425848
 20
140.4423310993094
 30
0.0
 10
119.3035446794953
 20
140.4481441911435
 30
0.0
 10
119.3030214719775
 20
140.4539572829055
 30
0.0
 10
119.3024983199778
 20
140.4597703745823
 30
0.0
 10
119.3019752237186
 20
140.4655834662208
 30
0.0
 10
119.3014521823925
 20
140.4713965576446
 30
0.0
 10
119.300929199035
 20
140.4772096495102
 30
0.0
 10
119.30040626234
 20
140.4830227393654
 30
0.0
 10
119.2998834145253
 20
140.4888358363609
 30
0.0
 10
119.2993604980544
 20
140.4946489063433
 30
0.0
 10
119.2988381008833
 20
140.500462076774
 30
0.0
 10
119.2983140287536
 20
140.5062748719583
 30
0.0
 10
119.2971968975345
 20
140.5188246137213
 30
0.0
 10
119.2954795781622
 20
140.5358975700159
 30
0.0
 10
119.2927656921458
 20
140.5623761762306
 30
0.0
 10
119.2889216939329
 20
140.6000688623425
 30
0.0
 10
119.2746970257683
 20
140.7393934917982
 30
0.0
 10
119.2604210301299
 20
140.8809143973957
 30
0.0
 10
119.2472995216412
 20
141.0092767845203
 30
0.0
 10
119.2445720089218
 20
141.0370929840373
 30
0.0
 10
119.2393989411486
 20
141.0820719518909
 30
0.0
 10
119.2280402814214
 20
141.1818318805266
 30
0.0
 10
119.2105172554594
 20
141.3355882651402
 30
0.0
 10
119.1930953418309
 20
141.489352630353
 30
0.0
 10
119.1817934246376
 20
141.589290445867
 30
0.0
 10
119.1765946418853
 20
141.6354112065489
 30
0.0
 10
119.1726112666463
 20
141.6659805442554
 30
0.0
 10
119.1568704501299
 20
141.7912565806239
 30
0.0
 10
119.1354485742013
 20
141.9599525168319
 30
0.0
 10
119.1146404441049
 20
142.1261942901331
 30
0.0
 10
119.1058501560862
 20
142.1961995348618
 30
0.0
 10
119.1029069940425
 20
142.2199434658574
 30
0.0
 10
119.0986681570436
 20
142.2502116880022
 30
0.0
 10
119.0848041930428
 20
142.3520359708867
 30
0.0
 10
119.0661962855526
 20
142.487737237509
 30
0.0
 10
119.0497941815917
 20
142.6079284891831
 30
0.0
 10
119.0432524349339
 20
142.6564119207255
 30
0.0
 10
119.0405173326979
 20
142.6757555166789
 30
0.0
 10
119.03537558725
 20
142.7104847695543
 30
0.0
 10
119.0199299585517
 20
142.816688632553
 30
0.0
 10
118.999944104977
 20
142.9516972621308
 30
0.0
 10
118.980983361166
 20
143.087035890976
 30
0.0
 10
118.9688894612905
 20
143.1638169724505
 30
0.0
 10
118.9511105278307
 20
143.2790167579324
 30
0.0
 10
118.9338987146007
 20
143.3903349062092
 30
0.0
 10
118.9181236012738
 20
143.4932263950785
 30
0.0
 10
118.914107622222
 20
143.5193198045897
 30
0.0
 10
118.9124684017407
 20
143.5300659444244
 30
0.0
  0
ARC
  5
191
330
131
100
AcDbEntity
  8
03510_GRIFF__ANS
  6
Continuous
 62
     7
100
AcDbCircle
 10
-1390.2624191014
 20
166.9273353545
 30
0.0
 40
1510.094154246179
100
AcDbArc
 50
358.7188274875
 51
358.7951887294
  0
LINE
  5
192
330
131
100
AcDbEntity
  8
03510_GRIFF__ANS
  6
Continuous
 62
     7
100
AcDbLine
 10
90.7316718096
 20
112.0517955054
 30
0.0
 11
116.9802513778
 21
112.0518212634
 31
0.0
  0
LINE
  5
193
330
131
100
AcDbEntity
  8
03510_GRIFF__ANS
  6
Continuous
 62
     7
100
AcDbLine
 10
73.2715059224
 20
157.7386964215
 30
0.0
 11
80.5232268664
 21
157.7386964215
 31
0.0
  0
ARC
  5
194
330
131
100
AcDbEntity
  8
03510_GRIFF__ANS
  6
Continuous
 62
     7
100
AcDbCircle
 10
96.2135100581
 20
146.2386964215
 30
0.0
 40
40.00000000000245
100
AcDbArc
 50
274.2752641691
 51
301.2748050178
  0
ARC
  5
195
330
131
100
AcDbEntity
  8
03510_GRIFF__ANS
  6
Continuous
 62
     7
100
AcDbCircle
 10
96.2135100581
 20
146.2386964215
 30
0.0
 40
40.00000000000245
100
AcDbArc
 50
238.7283375956
 51
265.7244257651
  0
LINE
  5
196
330
131
100
AcDbEntity
  8
03510_GRIFF__ANS
  6
Continuous
 62
     7
100
AcDbLine
 10
93.2135100581
 20
106.3513550711
 30
0.0
 11
93.2135100581
 21
106.3501010775
 31
0.0
  0
LINE
  5
197
330
131
100
AcDbEntity
  8
03510_GRIFF__ANS
  6
Continuous
 62
     7
100
AcDbLine
 10
99.2135100581
 20
106.3501010775
 30
0.0
 11
99.2135100581
 21
106.3513550711
 31
0.0
  0
ARC
  5
198
330
131
100
AcDbEntity
  8
03510_GRIFF__ANS
  6
Continuous
 62
     7
100
AcDbCircle
 10
80.80518918
 20
134.9700635605
 30
0.0
 40
39.2337592138163
100
AcDbArc
 50
357.2185723222
 51
0.103978955
  0
LINE
  5
199
330
131
100
AcDbEntity
  8
03510_GRIFF__ANS
  6
Continuous
 62
     7
100
AcDbLine
 10
120.0388837864
 20
135.0412639678
 30
0.0
 11
120.0387865053
 21
135.1794609696
 31
0.0
  0
SPLINE
  5
19A
330
131
100
AcDbEntity
  8
03510_GRIFF__ANS
  6
Continuous
 62
     7
100
AcDbSpline
210
0.0
220
0.0
230
1.0
 70
     8
 71
     3
 72
    13
 73
     9
 74
     0
 42
0.0000000004635746
 43
0.0000000001
 40
0.0
 40
0.0
 40
0.0
 40
0.0
 40
0.088160416674306
 40
0.1706252107586166
 40
0.2473296121091262
 40
0.3182749187957152
 40
0.3834529753402723
 40
0.4342895135506488
 40
0.4342895135506488
 40
0.4342895135506488
 40
0.4342895135506488
 10
120.0380339170628
 20
136.2857941753514
 30
0.0
 10
120.0277049956935
 20
136.9919826057221
 30
0.0
 10
120.0071848989315
 20
138.1431387414004
 30
0.0
 10
119.8683739304299
 20
139.9689115175583
 30
0.0
 10
119.676088204108
 20
141.6117594920142
 30
0.0
 10
119.4430230291618
 20
143.1219558314521
 30
0.0
 10
119.20038328385
 20
144.426988911039
 30
0.0
 10
119.0315744774105
 20
145.2244011272203
 30
0.0
 10
118.9546745605918
 20
145.5709836684136
 30
0.0
  0
LINE
  5
19B
330
131
100
AcDbEntity
  8
03510_GRIFF__ANS
  6
Continuous
 62
     7
100
AcDbLine
 10
120.038718784
 20
135.1776438582
 30
0.0
 11
120.0380339158
 21
136.2857941711
 31
0.0
  0
ARC
  5
19C
330
131
100
AcDbEntity
  8
03510_GRIFF__ANS
  6
Continuous
 62
     7
100
AcDbCircle
 10
76.4851062081
 20
113.7611676941
 30
0.0
 40
2.000000891523869
100
AcDbArc
 50
182.8437321598
 51
238.7236031279
  0
ARC
  5
19D
330
131
100
AcDbEntity
  8
03510_GRIFF__ANS
  6
Continuous
 62
     7
100
AcDbCircle
 10
66.7999707332
 20
136.1125894093
 30
0.0
 40
53.27992736269032
100
AcDbArc
 50
346.0111975848
 51
356.7222061832
  0
ARC
  5
19E
330
131
100
AcDbEntity
  8
03510_GRIFF__ANS
  6
Continuous
 62
     7
100
AcDbCircle
 10
-880.8291699974
 20
163.2728018113
 30
0.0
 40
999.9999990473033
100
AcDbArc
 50
357.1562752316
 51
359.6829181931
  0
ARC
  5
19F
330
131
100
AcDbEntity
  8
03510_GRIFF__ANS
  6
Continuous
 62
     7
100
AcDbCircle
 10
115.9407510513
 20
113.7611170175
 30
0.0
 40
1.999994195344927
100
AcDbArc
 50
301.2788635041
 51
357.1577049538
  0
ARC
  5
1A0
330
131
100
AcDbEntity
  8
03510_GRIFF__ANS
  6
Continuous
 62
     7
100
AcDbCircle
 10
1073.2561901137
 20
163.2728018113
 30
0.0
 40
999.9999990472854
100
AcDbArc
 50
180.3170842921
 51
182.8437386427
  0
LINE
  5
1A1
330
131
100
AcDbEntity
  8
36247XXX_SELBSTS
  6
Continuous
 62
     7
100
AcDbLine
 10
25.2135100581
 20
180.7386964215
 30
0.0
 11
167.2135100581
 21
180.7386964215
 31
0.0
  0
ARC
  5
1A2
330
131
100
AcDbEntity
  8
36247XXX_SELBSTS
  6
Continuous
 62
     7
100
AcDbCircle
 10
169.2135100581
 20
174.7386964215
 30
0.0
 40
5.000000000000036
100
AcDbArc
 50
270.0
 51
306.1534242001
  0
LINE
  5
1A3
330
131
100
AcDbEntity
  8
36247XXX_SELBSTS
  6
Continuous
 62
     7
100
AcDbLine
 10
23.2135100581
 20
169.7386964215
 30
0.0
 11
169.2135100581
 21
169.7386964215
 31
0.0
  0
ARC
  5
1A4
330
131
100
AcDbEntity
  8
36247XXX_SELBSTS
  6
Continuous
 62
     7
100
AcDbCircle
 10
23.2135100581
 20
174.7386964215
 30
0.0
 40
5.000000000000005
100
AcDbArc
 50
233.8465757999
 51
270.0
  0
ARC
  5
1A5
330
131
100
AcDbEntity
  8
36247XXX_SELBSTS
  6
Continuous
 62
     7
100
AcDbCircle
 10
23.2135100581
 20
174.7386964215
 30
0.0
 40
4.999999999999993
100
AcDbArc
 50
180.0
 51
233.8465757999
  0
ARC
  5
1A6
330
131
100
AcDbEntity
  8
36247XXX_SELBSTS
  6
Continuous
 62
     7
100
AcDbCircle
 10
169.2135100581
 20
174.7386964215
 30
0.0
 40
4.999999999999944
100
AcDbArc
 50
306.1534242001
 51
0.0
  0
LINE
  5
1A7
330
131
100
AcDbEntity
  8
36247XXX_SELBSTS
  6
Continuous
 62
     7
100
AcDbLine
 10
167.2135100581
 20
180.7386964215
 30
0.0
 11
174.2135100581
 21
180.7386964215
 31
0.0
  0
LINE
  5
1A8
330
131
100
AcDbEntity
  8
36247XXX_SELBSTS
  6
Continuous
 62
     7
100
AcDbLine
 10
18.2135100581
 20
180.7386964215
 30
0.0
 11
25.2135100581
 21
180.7386964215
 31
0.0
  0
LINE
  5
1A9
330
131
100
AcDbEntity
  8
36247XXX_SELBSTS
  6
Continuous
 62
     7
100
AcDbLine
 10
18.2135100581
 20
174.7386964215
 30
0.0
 11
18.2135100581
 21
180.7386964215
 31
0.0
  0
LINE
  5
1AA
330
131
100
AcDbEntity
  8
36247XXX_SELBSTS
  6
Continuous
 62
     7
100
AcDbLine
 10
174.2135100581
 20
174.7386964215
 30
0.0
 11
174.2135100581
 21
180.7386964215
 31
0.0
  0
LINE
  5
1AB
330
131
100
AcDbEntity
  8
36247XXX_SELBSTS
  6
Continuous
 62
     7
100
AcDbLine
 10
78.7135100581
 20
169.7386964215
 30
0.0
 11
78.7135100581
 21
168.7386964215
 31
0.0
  0
LINE
  5
1AC
330
131
100
AcDbEntity
  8
36247XXX_SELBSTS
  6
Continuous
 62
     7
100
AcDbLine
 10
113.7135100581
 20
168.7386964215
 30
0.0
 11
113.7135100581
 21
169.7386964215
 31
0.0
  0
ENDBLK
  5
1AE
330
131
100
AcDbEntity
  8
0
100
AcDbBlockEnd
  0
ENDSEC
  0
SECTION
  2
ENTITIES
  0
INSERT
  5
5F
330
1F
100
AcDbEntity
  8
Default
100
AcDbBlockReference
  2
SEANNOT_GROUP
 10
0.0
 20
0.0
 30
0.0
  0
LINE
  5
65
330
1F
100
AcDbEntity
  8
Default
  6
Continuous
 62
     7
100
AcDbLine
 10
338.3863788749
 20
421.9150228508
 30
0.0
 11
338.3863788749
 21
369.9150228508
 31
0.0
  0
INSERT
  5
67
330
1F
100
AcDbEntity
  8
Default
100
AcDbBlockReference
  2
SEANNOT_GROUP1
 10
0.0
 20
0.0
 30
0.0
  0
INSERT
  5
6C
330
1F
100
AcDbEntity
  8
Default
100
AcDbBlockReference
  2
SEANNOT_GROUP2
 10
0.0
 20
0.0
 30
0.0
  0
INSERT
  5
71
330
1F
100
AcDbEntity
  8
Default
100
AcDbBlockReference
  2
SEANNOT_GROUP3
 10
0.0
 20
0.0
 30
0.0
  0
INSERT
  5
76
330
1F
100
AcDbEntity
  8
Default
100
AcDbBlockReference
  2
SEANNOT_GROUP4
 10
0.0
 20
0.0
 30
0.0
  0
INSERT
  5
7B
330
1F
100
AcDbEntity
  8
Default
100
AcDbBlockReference
  2
SEANNOT_GROUP5
 10
0.0
 20
0.0
 30
0.0
  0
INSERT
  5
80
330
1F
100
AcDbEntity
  8
Default
100
AcDbBlockReference
  2
SEANNOT_GROUP6
 10
0.0
 20
0.0
 30
0.0
  0
INSERT
  5
85
330
1F
100
AcDbEntity
  8
Default
100
AcDbBlockReference
  2
SEANNOT_GROUP7
 10
0.0
 20
0.0
 30
0.0
  0
INSERT
  5
8A
330
1F
100
AcDbEntity
  8
Default
100
AcDbBlockReference
  2
SE
 10
0.0
 20
0.0
 30
0.0
  0
INSERT
  5
C5
330
1F
100
AcDbEntity
  8
Default
100
AcDbBlockReference
  2
SE1
 10
0.0
 20
0.0
 30
0.0
  0
INSERT
  5
132
330
1F
100
AcDbEntity
  8
Default
100
AcDbBlockReference
  2
SE2
 10
0.0
 20
0.0
 30
0.0
  0
TEXT
  5
1B0
330
1F
100
AcDbEntity
  8
Default
  6
Continuous
 62
     7
100
AcDbText
 10
5.9362635081
 20
53.4225120485
 30
0.0
 40
10.0
  1
Grohe AG^J
  7
SEACAD_seiso_ttf
 11
5.9362635081
 21
63.4225120485
 31
0.0
100
AcDbText
 73
     3
  0
TEXT
  5
1B1
330
1F
100
AcDbEntity
  8
Default
  6
Continuous
 62
     7
100
AcDbText
 10
5.9362635081
 20
37.0588756849
 30
0.0
 40
10.0
  1
 
  7
SEACAD_seiso_ttf
 11
5.9362635081
 21
47.0588756849
 31
0.0
100
AcDbText
 73
     3
  0
TEXT
  5
1B2
330
1F
100
AcDbEntity
  8
Default
  6
Continuous
 62
     7
100
AcDbText
 10
5.9362635081
 20
20.6952393213
 30
0.0
 40
10.0
  1
ecn: 
  7
SEACAD_seiso_ttf
 11
5.9362635081
 21
30.6952393213
 31
0.0
100
AcDbText
 73
     3
  0
TEXT
  5
1B3
330
1F
100
AcDbEntity
  8
Default
  6
Continuous
 62
     7
100
AcDbText
 10
5.9362635081
 20
4.3316029576
 30
0.0
 40
10.0
  1
unit: mm
  7
SEACAD_seiso_ttf
 11
5.9362635081
 21
14.3316029576
 31
0.0
100
AcDbText
 73
     3
  0
LINE
  5
1B4
330
1F
100
AcDbEntity
  8
Default
  6
Continuous
 62
     7
100
AcDbLine
 10
0.0
 20
0.0
 30
0.0
 11
100.0
 21
0.0
 31
0.0
  0
LINE
  5
1B5
330
1F
100
AcDbEntity
  8
Default
  6
Continuous
 62
     7
100
AcDbLine
 10
0.0
 20
0.0
 30
0.0
 11
0.0
 21
100.0
 31
0.0
  0
TEXT
  5
1B6
330
1F
100
AcDbEntity
  8
Default
  6
Continuous
 62
     7
100
AcDbText
 10
24.3923665681
 20
-18.2375342018
 30
0.0
 40
10.0
  1
100 mm
  7
SEACAD_seiso_ttf
 11
24.3923665681
 21
-8.2375342018
 31
0.0
100
AcDbText
 73
     3
  0
TEXT
  5
1B7
330
1F
100
AcDbEntity
  8
Default
  6
Continuous
 62
     7
100
AcDbText
 10
-7.6150308803
 20
24.6231930421
 30
0.0
 40
10.0
  1
100 mm
 50
90.0
  7
SEACAD_seiso_ttf
 11
-17.6150308803
 21
24.6231930421
 31
0.0
100
AcDbText
 73
     3
  0
TEXT
  5
1B8
330
1F
100
AcDbEntity
  8
Default
  6
Continuous
 62
     7
100
AcDbText
 10
28.4878128572
 20
20.0907663715
 30
0.0
 40
10.0
  1
215414
  7
SEACAD_seiso_ttf
 11
28.4878128572
 21
30.0907663715
 31
0.0
100
AcDbText
 73
     3
  0
TEXT
  5
1B9
330
1F
100
AcDbEntity
  8
Default
  6
Continuous
 62
     7
100
AcDbText
 10
5.9012241913
 20
36.7242780188
 30
0.0
 40
10.0
  1
36247XXX
  7
SEACAD_seiso_ttf
 11
5.9012241913
 21
46.7242780188
 31
0.0
100
AcDbText
 73
     3
  0
ENDSEC
  0
SECTION
  2
OBJECTS
  0
DICTIONARY
  5
C
330
0
100
AcDbDictionary
281
     1
  3
ACAD_GROUP
350
D
  3
ACAD_LAYOUT
350
1A
  3
ACAD_MLEADERSTYLE
350
1BD
  3
ACAD_MLINESTYLE
350
17
  3
ACAD_PLOTSETTINGS
350
19
  3
ACAD_PLOTSTYLENAME
350
E
  3
ACAD_SCALELIST
350
3B
  3
ACAD_TABLESTYLE
350
1BC
  3
ACAD_VISUALSTYLE
350
2A
  3
AcDbVariableDictionary
350
1BA
  0
DICTIONARY
  5
D
102
{ACAD_REACTORS
330
C
102
}
330
C
100
AcDbDictionary
281
     1
  0
DICTIONARY
  5
1A
102
{ACAD_REACTORS
330
C
102
}
330
C
100
AcDbDictionary
281
     1
  3
Layout1
350
1E
  3
Model
350
22
  0
DICTIONARY
  5
1BD
102
{ACAD_REACTORS
330
C
102
}
330
C
100
AcDbDictionary
281
     1
  0
DICTIONARY
  5
17
102
{ACAD_REACTORS
330
C
102
}
330
C
100
AcDbDictionary
281
     1
  3
Standard
350
18
  0
DICTIONARY
  5
19
102
{ACAD_REACTORS
330
C
102
}
330
C
100
AcDbDictionary
281
     1
  0
ACDBDICTIONARYWDFLT
  5
E
102
{ACAD_REACTORS
330
C
102
}
330
C
100
AcDbDictionary
281
     1
  3
Normal
350
F
100
AcDbDictionaryWithDefault
340
F
  0
DICTIONARY
  5
3B
102
{ACAD_REACTORS
330
C
102
}
330
C
100
AcDbDictionary
281
     1
  3
A0
350
3C
  3
A1
350
3D
  3
A2
350
3E
  3
A3
350
3F
  3
A4
350
40
  3
A5
350
41
  3
A6
350
42
  3
A7
350
43
  3
A8
350
44
  3
A9
350
45
  3
B0
350
46
  3
B1
350
47
  3
B2
350
48
  3
B3
350
49
  3
B4
350
4A
  3
B5
350
4B
  3
B6
350
4C
  3
B7
350
4D
  3
B8
350
4E
  3
B9
350
4F
  3
C0
350
50
  3
C1
350
51
  3
C2
350
52
  3
C3
350
53
  3
C4
350
54
  3
C5
350
55
  3
C6
350
56
  3
C7
350
57
  3
C8
350
58
  3
C9
350
59
  3
D0
350
5A
  3
D1
350
5B
  3
D2
350
5C
  0
DICTIONARY
  5
1BC
102
{ACAD_REACTORS
330
C
102
}
330
C
100
AcDbDictionary
281
     1
  0
DICTIONARY
  5
2A
102
{ACAD_REACTORS
330
C
102
}
330
C
100
AcDbDictionary
281
     1
  3
2dWireframe
350
2F
  3
3D Hidden
350
31
  3
3dWireframe
350
30
  3
Basic
350
32
  3
Brighten
350
36
  3
ColorChange
350
3A
  3
Conceptual
350
34
  3
Dim
350
35
  3
Facepattern
350
39
  3
Flat
350
2B
  3
FlatWithEdges
350
2C
  3
Gouraud
350
2D
  3
GouraudWithEdges
350
2E
  3
Linepattern
350
38
  3
Realistic
350
33
  3
Thicken
350
37
  0
DICTIONARY
  5
1BA
102
{ACAD_REACTORS
330
C
102
}
330
C
100
AcDbDictionary
281
     1
  3
CANNOSCALE
350
1BB
  3
PSOLHEIGHT
350
1BF
  3
PSOLWIDTH
350
1BE
  0
LAYOUT
  5
1E
102
{ACAD_REACTORS
330
1A
102
}
330
1A
100
AcDbPlotSettings
  1

  2
none_device
  4

  6

 40
0.0
 41
0.0
 42
0.0
 43
0.0
 44
0.0
 45
0.0
 46
0.0
 47
0.0
 48
0.0
 49
0.0
140
0.0
141
0.0
142
1.0
143
1.0
 70
   688
 72
     0
 73
     0
 74
     5
  7

 75
    16
147
1.0
148
0.0
149
0.0
100
AcDbLayout
  1
Layout1
 70
     1
 71
     1
 10
0.0
 20
0.0
 11
1682.0
 21
2378.0
 12
0.0
 22
0.0
 32
0.0
 14
0.0
 24
0.0
 34
0.0
 15
1682.0
 25
2378.0
 35
0.0
146
0.0
 13
0.0
 23
0.0
 33
0.0
 16
1.0
 26
0.0
 36
0.0
 17
0.0
 27
1.0
 37
0.0
 76
     0
330
1B
  0
LAYOUT
  5
22
102
{ACAD_REACTORS
330
1A
102
}
330
1A
100
AcDbPlotSettings
  1

  2
none_device
  4

  6

 40
0.0
 41
0.0
 42
0.0
 43
0.0
 44
0.0
 45
0.0
 46
0.0
 47
0.0
 48
0.0
 49
0.0
140
0.0
141
0.0
142
1.0
143
1.0
 70
  1712
 72
     0
 73
     0
 74
     0
  7

 75
     0
147
1.0
148
0.0
149
0.0
100
AcDbLayout
  1
Model
 70
     1
 71
     0
 10
0.0
 20
0.0
 11
1682.0
 21
2378.0
 12
0.0
 22
0.0
 32
0.0
 14
0.0
 24
0.0
 34
0.0
 15
1682.0
 25
2378.0
 35
0.0
146
0.0
 13
0.0
 23
0.0
 33
0.0
 16
1.0
 26
0.0
 36
0.0
 17
0.0
 27
1.0
 37
0.0
 76
     0
330
1F
331
29
  0
MLINESTYLE
  5
18
102
{ACAD_REACTORS
330
17
102
}
330
17
100
AcDbMlineStyle
  2
Standard
 70
     0
  3

 62
   256
 51
90.0
 52
90.0
 71
     2
 49
0.5
 62
   256
  6
BYLAYER
 49
-0.5
 62
   256
  6
BYLAYER
  0
ACDBPLACEHOLDER
  5
F
102
{ACAD_REACTORS
330
E
102
}
330
E
  0
SCALE
  5
3C
102
{ACAD_REACTORS
330
3B
102
}
330
3B
100
AcDbScale
 70
     0
300
1:1
140
1.0
141
1.0
290
     1
  0
SCALE
  5
3D
102
{ACAD_REACTORS
330
3B
102
}
330
3B
100
AcDbScale
 70
     0
300
1:2
140
1.0
141
2.0
290
     0
  0
SCALE
  5
3E
102
{ACAD_REACTORS
330
3B
102
}
330
3B
100
AcDbScale
 70
     0
300
1:4
140
1.0
141
4.0
290
     0
  0
SCALE
  5
3F
102
{ACAD_REACTORS
330
3B
102
}
330
3B
100
AcDbScale
 70
     0
300
1:5
140
1.0
141
5.0
290
     0
  0
SCALE
  5
40
102
{ACAD_REACTORS
330
3B
102
}
330
3B
100
AcDbScale
 70
     0
300
1:8
140
1.0
141
8.0
290
     0
  0
SCALE
  5
41
102
{ACAD_REACTORS
330
3B
102
}
330
3B
100
AcDbScale
 70
     0
300
1:10
140
1.0
141
10.0
290
     0
  0
SCALE
  5
42
102
{ACAD_REACTORS
330
3B
102
}
330
3B
100
AcDbScale
 70
     0
300
1:16
140
1.0
141
16.0
290
     0
  0
SCALE
  5
43
102
{ACAD_REACTORS
330
3B
102
}
330
3B
100
AcDbScale
 70
     0
300
1:20
140
1.0
141
20.0
290
     0
  0
SCALE
  5
44
102
{ACAD_REACTORS
330
3B
102
}
330
3B
100
AcDbScale
 70
     0
300
1:30
140
1.0
141
30.0
290
     0
  0
SCALE
  5
45
102
{ACAD_REACTORS
330
3B
102
}
330
3B
100
AcDbScale
 70
     0
300
1:40
140
1.0
141
40.0
290
     0
  0
SCALE
  5
46
102
{ACAD_REACTORS
330
3B
102
}
330
3B
100
AcDbScale
 70
     0
300
1:50
140
1.0
141
50.0
290
     0
  0
SCALE
  5
47
102
{ACAD_REACTORS
330
3B
102
}
330
3B
100
AcDbScale
 70
     0
300
1:100
140
1.0
141
100.0
290
     0
  0
SCALE
  5
48
102
{ACAD_REACTORS
330
3B
102
}
330
3B
100
AcDbScale
 70
     0
300
2:1
140
2.0
141
1.0
290
     0
  0
SCALE
  5
49
102
{ACAD_REACTORS
330
3B
102
}
330
3B
100
AcDbScale
 70
     0
300
4:1
140
4.0
141
1.0
290
     0
  0
SCALE
  5
4A
102
{ACAD_REACTORS
330
3B
102
}
330
3B
100
AcDbScale
 70
     0
300
8:1
140
8.0
141
1.0
290
     0
  0
SCALE
  5
4B
102
{ACAD_REACTORS
330
3B
102
}
330
3B
100
AcDbScale
 70
     0
300
10:1
140
10.0
141
1.0
290
     0
  0
SCALE
  5
4C
102
{ACAD_REACTORS
330
3B
102
}
330
3B
100
AcDbScale
 70
     0
300
100:1
140
100.0
141
1.0
290
     0
  0
SCALE
  5
4D
102
{ACAD_REACTORS
330
3B
102
}
330
3B
100
AcDbScale
 70
     0
300
1/128" = 1'-0"
140
0.0078125
141
12.0
290
     0
  0
SCALE
  5
4E
102
{ACAD_REACTORS
330
3B
102
}
330
3B
100
AcDbScale
 70
     0
300
1/64" = 1'-0"
140
0.015625
141
12.0
290
     0
  0
SCALE
  5
4F
102
{ACAD_REACTORS
330
3B
102
}
330
3B
100
AcDbScale
 70
     0
300
1/32" = 1'-0"
140
0.03125
141
12.0
290
     0
  0
SCALE
  5
50
102
{ACAD_REACTORS
330
3B
102
}
330
3B
100
AcDbScale
 70
     0
300
1/16" = 1'-0"
140
0.0625
141
12.0
290
     0
  0
SCALE
  5
51
102
{ACAD_REACTORS
330
3B
102
}
330
3B
100
AcDbScale
 70
     0
300
3/32" = 1'-0"
140
0.09375
141
12.0
290
     0
  0
SCALE
  5
52
102
{ACAD_REACTORS
330
3B
102
}
330
3B
100
AcDbScale
 70
     0
300
1/8" = 1'-0"
140
0.125
141
12.0
290
     0
  0
SCALE
  5
53
102
{ACAD_REACTORS
330
3B
102
}
330
3B
100
AcDbScale
 70
     0
300
3/16" = 1'-0"
140
0.1875
141
12.0
290
     0
  0
SCALE
  5
54
102
{ACAD_REACTORS
330
3B
102
}
330
3B
100
AcDbScale
 70
     0
300
1/4" = 1'-0"
140
0.25
141
12.0
290
     0
  0
SCALE
  5
55
102
{ACAD_REACTORS
330
3B
102
}
330
3B
100
AcDbScale
 70
     0
300
3/8" = 1'-0"
140
0.375
141
12.0
290
     0
  0
SCALE
  5
56
102
{ACAD_REACTORS
330
3B
102
}
330
3B
100
AcDbScale
 70
     0
300
1/2" = 1'-0"
140
0.5
141
12.0
290
     0
  0
SCALE
  5
57
102
{ACAD_REACTORS
330
3B
102
}
330
3B
100
AcDbScale
 70
     0
300
3/4" = 1'-0"
140
0.75
141
12.0
290
     0
  0
SCALE
  5
58
102
{ACAD_REACTORS
330
3B
102
}
330
3B
100
AcDbScale
 70
     0
300
1" = 1'-0"
140
1.0
141
12.0
290
     0
  0
SCALE
  5
59
102
{ACAD_REACTORS
330
3B
102
}
330
3B
100
AcDbScale
 70
     0
300
1-1/2" = 1'-0"
140
1.5
141
12.0
290
     0
  0
SCALE
  5
5A
102
{ACAD_REACTORS
330
3B
102
}
330
3B
100
AcDbScale
 70
     0
300
3" = 1'-0"
140
3.0
141
12.0
290
     0
  0
SCALE
  5
5B
102
{ACAD_REACTORS
330
3B
102
}
330
3B
100
AcDbScale
 70
     0
300
6" = 1'-0"
140
6.0
141
12.0
290
     0
  0
SCALE
  5
5C
102
{ACAD_REACTORS
330
3B
102
}
330
3B
100
AcDbScale
 70
     0
300
1'-0" = 1'-0"
140
12.0
141
12.0
290
     0
  0
VISUALSTYLE
  5
2F
102
{ACAD_REACTORS
330
2A
102
}
330
2A
100
AcDbVisualStyle
  2
2dWireframe
 70
     4
 71
     0
 72
     2
 73
     0
 90
        0
 40
-0.6
 41
-30.0
 62
     5
 63
     7
 74
     1
 91
        4
 64
     7
 65
   257
 75
     1
175
     1
 42
1.0
 92
        0
 66
   257
 43
1.0
 76
     1
 77
     6
 78
     2
 67
     7
 79
     5
170
     0
171
     0
290
     0
174
     0
 93
        1
 44
0.0
173
     0
291
     0
 45
0.0
1001
ACAD
1000
AcDbSavedByObjectVersion
1070
     0
  0
VISUALSTYLE
  5
31
102
{ACAD_REACTORS
330
2A
102
}
330
2A
100
AcDbVisualStyle
  2
3D Hidden
 70
     6
 71
     1
 72
     2
 73
     2
 90
        0
 40
-0.6
 41
-30.0
 62
     5
 63
     7
 74
     2
 91
        2
 64
     7
 65
   257
 75
     2
175
     1
 42
40.0
 92
        0
 66
   257
 43
1.0
 76
     1
 77
     6
 78
     2
 67
     7
 79
     3
170
     0
171
     0
290
     0
174
     0
 93
        1
 44
0.0
173
     0
291
     0
 45
0.0
1001
ACAD
1000
AcDbSavedByObjectVersion
1070
     0
  0
VISUALSTYLE
  5
30
102
{ACAD_REACTORS
330
2A
102
}
330
2A
100
AcDbVisualStyle
  2
3dWireframe
 70
     5
 71
     0
 72
     2
 73
     0
 90
        0
 40
-0.6
 41
-30.0
 62
     5
 63
     7
 74
     1
 91
        4
 64
     7
 65
   257
 75
     1
175
     1
 42
1.0
 92
        0
 66
   257
 43
1.0
 76
     1
 77
     6
 78
     2
 67
     7
 79
     5
170
     0
171
     0
290
     0
174
     0
 93
        1
 44
0.0
173
     0
291
     0
 45
0.0
1001
ACAD
1000
AcDbSavedByObjectVersion
1070
     0
  0
VISUALSTYLE
  5
32
102
{ACAD_REACTORS
330
2A
102
}
330
2A
100
AcDbVisualStyle
  2
Basic
 70
     7
 71
     1
 72
     0
 73
     1
 90
        0
 40
-0.6
 41
-30.0
 62
     5
 63
     7
 74
     0
 91
        4
 64
     7
 65
   257
 75
     1
175
     1
 42
1.0
 92
        8
 66
     7
 43
1.0
 76
     1
 77
     6
 78
     2
 67
     7
 79
     5
170
     0
171
     0
290
     0
174
     0
 93
        1
 44
0.0
173
     0
291
     1
 45
0.0
1001
ACAD
1000
AcDbSavedByObjectVersion
1070
     0
  0
VISUALSTYLE
  5
36
102
{ACAD_REACTORS
330
2A
102
}
330
2A
100
AcDbVisualStyle
  2
Brighten
 70
    12
 71
     2
 72
     2
 73
     0
 90
        0
 40
-0.6
 41
-30.0
 62
     5
 63
     7
 74
     1
 91
        4
 64
     7
 65
   257
 75
     1
175
     1
 42
1.0
 92
        8
 66
     7
 43
1.0
 76
     1
 77
     6
 78
     2
 67
     7
 79
     5
170
     0
171
     0
290
     0
174
     0
 93
        1
 44
50.0
173
     0
291
     1
 45
0.0
1001
ACAD
1000
AcDbSavedByObjectVersion
1070
     0
  0
VISUALSTYLE
  5
3A
102
{ACAD_REACTORS
330
2A
102
}
330
2A
100
AcDbVisualStyle
  2
ColorChange
 70
    16
 71
     2
 72
     2
 73
     3
 90
        0
 40
-0.6
 41
-30.0
 62
     5
 63
     8
 74
     1
 91
        4
 64
     7
 65
   257
 75
     1
175
     1
 42
1.0
 92
        8
 66
     8
 43
1.0
 76
     1
 77
     6
 78
     2
 67
     7
 79
     5
170
     0
171
     0
290
     0
174
     0
 93
        1
 44
0.0
173
     0
291
     1
 45
0.0
1001
ACAD
1000
AcDbSavedByObjectVersion
1070
     0
  0
VISUALSTYLE
  5
34
102
{ACAD_REACTORS
330
2A
102
}
330
2A
100
AcDbVisualStyle
  2
Conceptual
 70
     9
 71
     3
 72
     2
 73
     0
 90
        0
 40
-0.6
 41
-30.0
 62
     5
 63
     7
 74
     2
 91
        2
 64
     7
 65
   257
 75
     1
175
     1
 42
40.0
 92
        8
 66
     7
 43
1.0
 76
     1
 77
     6
 78
     2
 67
     7
 79
     3
170
     0
171
     0
290
     0
174
     0
 93
        1
 44
0.0
173
     0
291
     0
 45
0.0
1001
ACAD
1000
AcDbSavedByObjectVersion
1070
     0
  0
VISUALSTYLE
  5
35
102
{ACAD_REACTORS
330
2A
102
}
330
2A
100
AcDbVisualStyle
  2
Dim
 70
    11
 71
     2
 72
     2
 73
     0
 90
        0
 40
-0.6
 41
-30.0
 62
     5
 63
     7
 74
     1
 91
        4
 64
     7
 65
   257
 75
     1
175
     1
 42
1.0
 92
        8
 66
     7
 43
1.0
 76
     1
 77
     6
 78
     2
 67
     7
 79
     5
170
     0
171
     0
290
     0
174
     0
 93
        1
 44
-50.0
173
     0
291
     1
 45
0.0
1001
ACAD
1000
AcDbSavedByObjectVersion
1070
     0
  0
VISUALSTYLE
  5
39
102
{ACAD_REACTORS
330
2A
102
}
330
2A
100
AcDbVisualStyle
  2
Facepattern
 70
    15
 71
     2
 72
     2
 73
     0
 90
        0
 40
-0.6
 41
-30.0
 62
     5
 63
     7
 74
     1
 91
        4
 64
     7
 65
   257
 75
     1
175
     1
 42
1.0
 92
        8
 66
     7
 43
1.0
 76
     1
 77
     6
 78
     2
 67
     7
 79
     5
170
     0
171
     0
290
     0
174
     0
 93
        1
 44
0.0
173
     0
291
     1
 45
0.0
1001
ACAD
1000
AcDbSavedByObjectVersion
1070
     0
  0
VISUALSTYLE
  5
2B
102
{ACAD_REACTORS
330
2A
102
}
330
2A
100
AcDbVisualStyle
  2
Flat
 70
     0
 71
     2
 72
     1
 73
     1
 90
        2
 40
-0.6
 41
30.0
 62
     5
 63
     7
 74
     0
 91
        4
 64
     7
 65
   257
 75
     1
175
     1
 42
1.0
 92
        8
 66
     7
 43
1.0
 76
     1
 77
     6
 78
     2
 67
     7
 79
     5
170
     0
171
     0
290
     0
174
     0
 93
       13
 44
0.0
173
     0
291
     1
 45
0.0
1001
ACAD
1000
AcDbSavedByObjectVersion
1070
     0
  0
VISUALSTYLE
  5
2C
102
{ACAD_REACTORS
330
2A
102
}
330
2A
100
AcDbVisualStyle
  2
FlatWithEdges
 70
     1
 71
     2
 72
     1
 73
     1
 90
        2
 40
-0.6
 41
30.0
 62
     5
 63
     7
 74
     1
 91
        4
 64
     7
 65
   257
 75
     1
175
     1
 42
1.0
 92
        0
 66
   257
 43
1.0
 76
     1
 77
     6
 78
     2
 67
     7
 79
     5
170
     0
171
     0
290
     0
174
     0
 93
       13
 44
0.0
173
     0
291
     1
 45
0.0
1001
ACAD
1000
AcDbSavedByObjectVersion
1070
     0
  0
VISUALSTYLE
  5
2D
102
{ACAD_REACTORS
330
2A
102
}
330
2A
100
AcDbVisualStyle
  2
Gouraud
 70
     2
 71
     2
 72
     2
 73
     1
 90
        2
 40
-0.6
 41
30.0
 62
     5
 63
     7
 74
     0
 91
        4
 64
     7
 65
   257
 75
     1
175
     1
 42
1.0
 92
        0
 66
     7
 43
1.0
 76
     1
 77
     6
 78
     2
 67
     7
 79
     5
170
     0
171
     0
290
     0
174
     0
 93
       13
 44
0.0
173
     0
291
     1
 45
0.0
1001
ACAD
1000
AcDbSavedByObjectVersion
1070
     0
  0
VISUALSTYLE
  5
2E
102
{ACAD_REACTORS
330
2A
102
}
330
2A
100
AcDbVisualStyle
  2
GouraudWithEdges
 70
     3
 71
     2
 72
     2
 73
     1
 90
        2
 40
-0.6
 41
30.0
 62
     5
 63
     7
 74
     1
 91
        4
 64
     7
 65
   257
 75
     1
175
     1
 42
1.0
 92
        0
 66
   257
 43
1.0
 76
     1
 77
     6
 78
     2
 67
     7
 79
     5
170
     0
171
     0
290
     0
174
     0
 93
       13
 44
0.0
173
     0
291
     1
 45
0.0
1001
ACAD
1000
AcDbSavedByObjectVersion
1070
     0
  0
VISUALSTYLE
  5
38
102
{ACAD_REACTORS
330
2A
102
}
330
2A
100
AcDbVisualStyle
  2
Linepattern
 70
    14
 71
     2
 72
     2
 73
     0
 90
        0
 40
-0.6
 41
-30.0
 62
     5
 63
     7
 74
     1
 91
        4
 64
     7
 65
   257
 75
     7
175
     7
 42
1.0
 92
        8
 66
     7
 43
1.0
 76
     1
 77
     6
 78
     2
 67
     7
 79
     5
170
     0
171
     0
290
     0
174
     0
 93
        1
 44
0.0
173
     0
291
     1
 45
0.0
1001
ACAD
1000
AcDbSavedByObjectVersion
1070
     0
  0
VISUALSTYLE
  5
33
102
{ACAD_REACTORS
330
2A
102
}
330
2A
100
AcDbVisualStyle
  2
Realistic
 70
     8
 71
     2
 72
     2
 73
     0
 90
        0
 40
-0.6
 41
-30.0
 62
     5
 63
     7
 74
     1
 91
        0
 64
     7
 65
   257
 75
     1
175
     1
 42
1.0
 92
        8
 66
     8
 43
1.0
 76
     1
 77
     6
 78
     2
 67
     7
 79
     5
170
     0
171
     0
290
     0
174
     0
 93
       13
 44
0.0
173
     0
291
     0
 45
0.0
1001
ACAD
1000
AcDbSavedByObjectVersion
1070
     0
  0
VISUALSTYLE
  5
37
102
{ACAD_REACTORS
330
2A
102
}
330
2A
100
AcDbVisualStyle
  2
Thicken
 70
    13
 71
     2
 72
     2
 73
     0
 90
        0
 40
-0.6
 41
-30.0
 62
     5
 63
     7
 74
     1
 91
        4
 64
     7
 65
   257
 75
     1
175
     1
 42
1.0
 92
       12
 66
     7
 43
1.0
 76
     1
 77
     6
 78
     2
 67
     7
 79
     5
170
     0
171
     0
290
     0
174
     0
 93
        1
 44
0.0
173
     0
291
     1
 45
0.0
1001
ACAD
1000
AcDbSavedByObjectVersion
1070
     0
  0
DICTIONARYVAR
  5
1BB
102
{ACAD_REACTORS
330
1BA
102
}
330
1BA
100
DictionaryVariables
280
     0
  1
1:1
  0
DICTIONARYVAR
  5
1BF
102
{ACAD_REACTORS
330
1BA
102
}
330
1BA
100
DictionaryVariables
280
     0
  1
80.000000
  0
DICTIONARYVAR
  5
1BE
102
{ACAD_REACTORS
330
1BA
102
}
330
1BA
100
DictionaryVariables
280
     0
  1
5.000000
  0
ENDSEC
  0
EOF
