  0
SECTION
  2
HEADER
  9
$ACADVER
  1
AC1015
  9
$ACADMAINTVER
 70
     6
  9
$DWGCODEPAGE
  3
ANSI_1252
  9
$INSBASE
 10
0.0
 20
0.0
 30
0.0
  9
$EXTMIN
 10
0.0
 20
0.0
 30
0.0
  9
$EXTMAX
 10
1682.0
 20
2378.0
 30
0.0
  9
$LIMMIN
 10
0.0
 20
0.0
  9
$LIMMAX
 10
1682.0
 20
2378.0
  9
$ORTHOMODE
 70
     0
  9
$REGENMODE
 70
     1
  9
$FILLMODE
 70
     1
  9
$QTEXTMODE
 70
     0
  9
$MIRRTEXT
 70
     1
  9
$LTSCALE
 40
1.0
  9
$ATTMODE
 70
     1
  9
$TEXTSIZE
 40
2.5
  9
$TRACEWID
 40
1.0
  9
$TEXTSTYLE
  7
Standard
  9
$CLAYER
  8
0
  9
$CELTYPE
  6
ByLayer
  9
$CECOLOR
 62
   256
  9
$CELTSCALE
 40
1.0
  9
$DISPSILH
 70
     0
  9
$DIMSCALE
 40
1.0
  9
$DIMASZ
 40
2.5
  9
$DIMEXO
 40
0.625
  9
$DIMDLI
 40
3.75
  9
$DIMRND
 40
0.0
  9
$DIMDLE
 40
0.0
  9
$DIMEXE
 40
1.25
  9
$DIMTP
 40
0.0
  9
$DIMTM
 40
0.0
  9
$DIMTXT
 40
2.5
  9
$DIMCEN
 40
2.5
  9
$DIMTSZ
 40
0.0
  9
$DIMTOL
 70
     0
  9
$DIMLIM
 70
     0
  9
$DIMTIH
 70
     0
  9
$DIMTOH
 70
     0
  9
$DIMSE1
 70
     0
  9
$DIMSE2
 70
     0
  9
$DIMTAD
 70
     1
  9
$DIMZIN
 70
     8
  9
$DIMBLK
  1

  9
$DIMASO
 70
     1
  9
$DIMSHO
 70
     1
  9
$DIMPOST
  1

  9
$DIMAPOST
  1

  9
$DIMALT
 70
     0
  9
$DIMALTD
 70
     3
  9
$DIMALTF
 40
0.0393700787
  9
$DIMLFAC
 40
1.0
  9
$DIMTOFL
 70
     1
  9
$DIMTVP
 40
0.0
  9
$DIMTIX
 70
     0
  9
$DIMSOXD
 70
     0
  9
$DIMSAH
 70
     0
  9
$DIMBLK1
  1

  9
$DIMBLK2
  1

  9
$DIMSTYLE
  2
ISO-25
  9
$DIMCLRD
 70
     0
  9
$DIMCLRE
 70
     0
  9
$DIMCLRT
 70
     0
  9
$DIMTFAC
 40
1.0
  9
$DIMGAP
 40
0.625
  9
$DIMJUST
 70
     0
  9
$DIMSD1
 70
     0
  9
$DIMSD2
 70
     0
  9
$DIMTOLJ
 70
     0
  9
$DIMTZIN
 70
     8
  9
$DIMALTZ
 70
     0
  9
$DIMALTTZ
 70
     0
  9
$DIMUPT
 70
     0
  9
$DIMDEC
 70
     2
  9
$DIMTDEC
 70
     2
  9
$DIMALTU
 70
     2
  9
$DIMALTTD
 70
     3
  9
$DIMTXSTY
  7
Standard
  9
$DIMAUNIT
 70
     0
  9
$DIMADEC
 70
     0
  9
$DIMALTRND
 40
0.0
  9
$DIMAZIN
 70
     0
  9
$DIMDSEP
 70
    44
  9
$DIMATFIT
 70
     3
  9
$DIMFRAC
 70
     0
  9
$DIMLDRBLK
  1

  9
$DIMLUNIT
 70
     2
  9
$DIMLWD
 70
    -2
  9
$DIMLWE
 70
    -2
  9
$DIMTMOVE
 70
     0
  9
$LUNITS
 70
     2
  9
$LUPREC
 70
     4
  9
$SKETCHINC
 40
1.0
  9
$FILLETRAD
 40
10.0
  9
$AUNITS
 70
     0
  9
$AUPREC
 70
     0
  9
$MENU
  1
.
  9
$ELEVATION
 40
0.0
  9
$PELEVATION
 40
0.0
  9
$THICKNESS
 40
0.0
  9
$LIMCHECK
 70
     0
  9
$CHAMFERA
 40
10.0
  9
$CHAMFERB
 40
10.0
  9
$CHAMFERC
 40
20.0
  9
$CHAMFERD
 40
0.0
  9
$SKPOLY
 70
     0
  9
$TDCREATE
 40
2455547.329983588
  9
$TDUCREATE
 40
2455547.288316921
  9
$TDUPDATE
 40
2455547.329983599
  9
$TDUUPDATE
 40
2455547.288316933
  9
$TDINDWG
 40
0.0000000116
  9
$TDUSRTIMER
 40
0.0000000116
  9
$USRTIMER
 70
     1
  9
$ANGBASE
 50
0.0
  9
$ANGDIR
 70
     0
  9
$PDMODE
 70
     0
  9
$PDSIZE
 40
0.0
  9
$PLINEWID
 40
0.0
  9
$SPLFRAME
 70
     0
  9
$SPLINETYPE
 70
     6
  9
$SPLINESEGS
 70
     8
  9
$HANDSEED
  5
1AA
  9
$SURFTAB1
 70
     6
  9
$SURFTAB2
 70
     6
  9
$SURFTYPE
 70
     6
  9
$SURFU
 70
     6
  9
$SURFV
 70
     6
  9
$UCSBASE
  2

  9
$UCSNAME
  2

  9
$UCSORG
 10
0.0
 20
0.0
 30
0.0
  9
$UCSXDIR
 10
1.0
 20
0.0
 30
0.0
  9
$UCSYDIR
 10
0.0
 20
1.0
 30
0.0
  9
$UCSORTHOREF
  2

  9
$UCSORTHOVIEW
 70
     0
  9
$UCSORGTOP
 10
0.0
 20
0.0
 30
0.0
  9
$UCSORGBOTTOM
 10
0.0
 20
0.0
 30
0.0
  9
$UCSORGLEFT
 10
0.0
 20
0.0
 30
0.0
  9
$UCSORGRIGHT
 10
0.0
 20
0.0
 30
0.0
  9
$UCSORGFRONT
 10
0.0
 20
0.0
 30
0.0
  9
$UCSORGBACK
 10
0.0
 20
0.0
 30
0.0
  9
$PUCSBASE
  2

  9
$PUCSNAME
  2

  9
$PUCSORG
 10
0.0
 20
0.0
 30
0.0
  9
$PUCSXDIR
 10
1.0
 20
0.0
 30
0.0
  9
$PUCSYDIR
 10
0.0
 20
1.0
 30
0.0
  9
$PUCSORTHOREF
  2

  9
$PUCSORTHOVIEW
 70
     0
  9
$PUCSORGTOP
 10
0.0
 20
0.0
 30
0.0
  9
$PUCSORGBOTTOM
 10
0.0
 20
0.0
 30
0.0
  9
$PUCSORGLEFT
 10
0.0
 20
0.0
 30
0.0
  9
$PUCSORGRIGHT
 10
0.0
 20
0.0
 30
0.0
  9
$PUCSORGFRONT
 10
0.0
 20
0.0
 30
0.0
  9
$PUCSORGBACK
 10
0.0
 20
0.0
 30
0.0
  9
$USERI1
 70
     0
  9
$USERI2
 70
     0
  9
$USERI3
 70
     0
  9
$USERI4
 70
     0
  9
$USERI5
 70
     0
  9
$USERR1
 40
0.0
  9
$USERR2
 40
0.0
  9
$USERR3
 40
0.0
  9
$USERR4
 40
0.0
  9
$USERR5
 40
0.0
  9
$WORLDVIEW
 70
     1
  9
$SHADEDGE
 70
     3
  9
$SHADEDIF
 70
    70
  9
$TILEMODE
 70
     1
  9
$MAXACTVP
 70
    64
  9
$PINSBASE
 10
0.0
 20
0.0
 30
0.0
  9
$PLIMCHECK
 70
     0
  9
$PEXTMIN
 10
0.0
 20
0.0
 30
0.0
  9
$PEXTMAX
 10
1682.0
 20
2378.0
 30
0.0
  9
$PLIMMIN
 10
0.0
 20
0.0
  9
$PLIMMAX
 10
1682.0
 20
2378.0
  9
$UNITMODE
 70
     0
  9
$VISRETAIN
 70
     1
  9
$PLINEGEN
 70
     0
  9
$PSLTSCALE
 70
     1
  9
$TREEDEPTH
 70
  3020
  9
$CMLSTYLE
  2
Standard
  9
$CMLJUST
 70
     0
  9
$CMLSCALE
 40
20.0
  9
$PROXYGRAPHICS
 70
     1
  9
$MEASUREMENT
 70
     1
  9
$CELWEIGHT
370
    -1
  9
$ENDCAPS
280
     0
  9
$JOINSTYLE
280
     0
  9
$LWDISPLAY
290
     0
  9
$INSUNITS
 70
     4
  9
$HYPERLINKBASE
  1

  9
$STYLESHEET
  1

  9
$XEDIT
290
     1
  9
$CEPSNTYPE
380
     0
  9
$PSTYLEMODE
290
     1
  9
$FINGERPRINTGUID
  2
{9358DDC6-EC43-45D2-ABD7-A78E8D04BDD9}
  9
$VERSIONGUID
  2
{FAEB1C32-E019-11D5-929B-00C0DF256EC4}
  9
$EXTNAMES
290
     1
  9
$PSVPSCALE
 40
0.0
  9
$OLESTARTUP
290
     0
  0
ENDSEC
  0
SECTION
  2
CLASSES
  0
CLASS
  1
ACDBDICTIONARYWDFLT
  2
AcDbDictionaryWithDefault
  3
ObjectDBX Classes
 90
        0
280
     0
281
     0
  0
CLASS
  1
VISUALSTYLE
  2
AcDbVisualStyle
  3
ObjectDBX Classes
 90
     4095
280
     0
281
     0
  0
CLASS
  1
SCALE
  2
AcDbScale
  3
ObjectDBX Classes
 90
     1153
280
     0
281
     0
  0
CLASS
  1
DICTIONARYVAR
  2
AcDbDictionaryVar
  3
ObjectDBX Classes
 90
        0
280
     0
281
     0
  0
CLASS
  1
ACDBPLACEHOLDER
  2
AcDbPlaceHolder
  3
ObjectDBX Classes
 90
        0
280
     0
281
     0
  0
CLASS
  1
LAYOUT
  2
AcDbLayout
  3
ObjectDBX Classes
 90
        0
280
     0
281
     0
  0
ENDSEC
  0
SECTION
  2
TABLES
  0
TABLE
  2
VPORT
  5
8
330
0
100
AcDbSymbolTable
 70
     1
  0
VPORT
  5
29
330
8
100
AcDbSymbolTableRecord
100
AcDbViewportTableRecord
  2
*Active
 70
     0
 10
0.0
 20
0.0
 11
1.0
 21
1.0
 12
344.1869158879
 22
148.5
 13
0.0
 23
0.0
 14
10.0
 24
10.0
 15
10.0
 25
10.0
 16
0.0
 26
0.0
 36
1.0
 17
0.0
 27
0.0
 37
0.0
 40
297.0
 41
1.9729729729
 42
50.0
 43
0.0
 44
0.0
 50
0.0
 51
0.0
 71
     0
 72
   100
 73
     1
 74
     3
 75
     0
 76
     0
 77
     0
 78
     0
281
     0
 65
     1
110
0.0
120
0.0
130
0.0
111
1.0
121
0.0
131
0.0
112
0.0
122
1.0
132
0.0
 79
     0
146
0.0
  0
ENDTAB
  0
TABLE
  2
LTYPE
  5
5
330
0
100
AcDbSymbolTable
 70
     2
  0
LTYPE
  5
14
330
5
100
AcDbSymbolTableRecord
100
AcDbLinetypeTableRecord
  2
ByBlock
 70
     0
  3

 72
    65
 73
     0
 40
0.0
  0
LTYPE
  5
15
330
5
100
AcDbSymbolTableRecord
100
AcDbLinetypeTableRecord
  2
ByLayer
 70
     0
  3

 72
    65
 73
     0
 40
0.0
  0
LTYPE
  5
16
330
5
100
AcDbSymbolTableRecord
100
AcDbLinetypeTableRecord
  2
Continuous
 70
     0
  3
Solid line
 72
    65
 73
     0
 40
0.0
  0
LTYPE
  5
60
330
5
100
AcDbSymbolTableRecord
100
AcDbLinetypeTableRecord
  2
CENTER2
 70
     0
  3
Center (.5x) ___ _ ___ _ ___ _ ___ _ ___ _ ___
 72
    65
 73
     4
 40
28.575
 49
19.05
 74
     4
 75
     0
340
0
 46
0.0
 50
0.0
 44
0.0
 45
0.0
 49
-3.175
 74
     4
 75
     0
340
0
 46
0.0
 50
0.0
 44
0.0
 45
0.0
 49
3.175
 74
     4
 75
     0
340
0
 46
0.0
 50
0.0
 44
0.0
 45
0.0
 49
-3.175
 74
     4
 75
     0
340
0
 46
0.0
 50
0.0
 44
0.0
 45
0.0
  0
ENDTAB
  0
TABLE
  2
LAYER
  5
2
330
0
100
AcDbSymbolTable
 70
     6
  0
LAYER
  5
10
330
2
100
AcDbSymbolTableRecord
100
AcDbLayerTableRecord
  2
0
 70
     0
 62
     7
  6
Continuous
370
    -3
390
F
  0
LAYER
  5
5D
330
2
100
AcDbSymbolTableRecord
100
AcDbLayerTableRecord
  2
Default
 70
     0
 62
     7
  6
Continuous
370
    -3
390
F
  0
LAYER
  5
77
330
2
100
AcDbSymbolTableRecord
100
AcDbLayerTableRecord
  2
02.25.50XX_VM_GE
 70
     0
 62
     7
  6
Continuous
370
    -3
390
F
  0
LAYER
  5
80
330
2
100
AcDbSymbolTableRecord
100
AcDbLayerTableRecord
  2
0008200U_DECKEL_
 70
     0
 62
     7
  6
Continuous
370
    -3
390
F
  0
LAYER
  5
8A
330
2
100
AcDbSymbolTableRecord
100
AcDbLayerTableRecord
  2
02636038_GEHÄUSE
 70
     0
 62
     7
  6
Continuous
370
    -3
390
F
  0
LAYER
  5
9D
330
2
100
AcDbSymbolTableRecord
100
AcDbLayerTableRecord
  2
$DDT_AUDIT_GENERATED_(9D)
 70
     0
 62
     7
  6
Continuous
370
    -3
390
F
  0
ENDTAB
  0
TABLE
  2
STYLE
  5
3
330
0
100
AcDbSymbolTable
 70
     2
  0
STYLE
  5
11
330
3
100
AcDbSymbolTableRecord
100
AcDbTextStyleTableRecord
  2
Standard
 70
     0
 40
0.0
 41
1.0
 50
0.0
 71
     0
 42
2.5
  3
txt
  4

  0
STYLE
  5
199
330
3
100
AcDbSymbolTableRecord
100
AcDbTextStyleTableRecord
  2
SEACAD_seiso_ttf
 70
     0
 40
0.0
 41
1.0
 50
0.0
 71
     0
 42
0.2
  3
seiso.ttf
  4

  0
ENDTAB
  0
TABLE
  2
VIEW
  5
6
330
0
100
AcDbSymbolTable
 70
     0
  0
ENDTAB
  0
TABLE
  2
UCS
  5
7
330
0
100
AcDbSymbolTable
 70
     0
  0
ENDTAB
  0
TABLE
  2
APPID
  5
9
330
0
100
AcDbSymbolTable
 70
     1
  0
APPID
  5
12
330
9
100
AcDbSymbolTableRecord
100
AcDbRegAppTableRecord
  2
ACAD
 70
     0
  0
ENDTAB
  0
TABLE
  2
DIMSTYLE
  5
A
330
0
100
AcDbSymbolTable
 70
     1
100
AcDbDimStyleTable
  0
DIMSTYLE
105
27
330
A
100
AcDbSymbolTableRecord
100
AcDbDimStyleTableRecord
  2
ISO-25
 70
     0
 41
2.5
 42
0.625
 43
3.75
 44
1.25
 73
     0
 74
     0
 77
     1
 78
     8
140
2.5
141
2.5
143
0.0393700787
147
0.625
171
     3
172
     1
271
     2
272
     2
274
     3
278
    44
283
     0
284
     8
340
11
  0
ENDTAB
  0
TABLE
  2
BLOCK_RECORD
  5
1
330
0
100
AcDbSymbolTable
 70
     7
  0
BLOCK_RECORD
  5
1F
330
1
100
AcDbSymbolTableRecord
100
AcDbBlockTableRecord
  2
*Model_Space
340
22
  0
BLOCK_RECORD
  5
1B
330
1
100
AcDbSymbolTableRecord
100
AcDbBlockTableRecord
  2
*Paper_Space
340
1E
  0
BLOCK_RECORD
  5
5E
330
1
100
AcDbSymbolTableRecord
100
AcDbBlockTableRecord
  2
SEANNOT_GROUP
340
0
102
{BLKREFS
331
5F
102
}
  0
BLOCK_RECORD
  5
65
330
1
100
AcDbSymbolTableRecord
100
AcDbBlockTableRecord
  2
SEANNOT_GROUP1
340
0
102
{BLKREFS
331
66
102
}
  0
BLOCK_RECORD
  5
6B
330
1
100
AcDbSymbolTableRecord
100
AcDbBlockTableRecord
  2
SEANNOT_GROUP2
340
0
102
{BLKREFS
331
6C
102
}
  0
BLOCK_RECORD
  5
75
330
1
100
AcDbSymbolTableRecord
100
AcDbBlockTableRecord
  2
SE
340
0
102
{BLKREFS
331
76
102
}
  0
BLOCK_RECORD
  5
162
330
1
100
AcDbSymbolTableRecord
100
AcDbBlockTableRecord
  2
SE1
340
0
102
{BLKREFS
331
163
102
}
  0
BLOCK_RECORD
  5
188
330
1
100
AcDbSymbolTableRecord
100
AcDbBlockTableRecord
  2
SE2
340
0
102
{BLKREFS
331
189
102
}
  0
ENDTAB
  0
ENDSEC
  0
SECTION
  2
BLOCKS
  0
BLOCK
  5
20
330
1F
100
AcDbEntity
  8
0
100
AcDbBlockBegin
  2
*Model_Space
 70
     0
 10
0.0
 20
0.0
 30
0.0
  3
*Model_Space
  1

  0
ENDBLK
  5
21
330
1F
100
AcDbEntity
  8
0
100
AcDbBlockEnd
  0
BLOCK
  5
1C
330
1B
100
AcDbEntity
 67
     1
  8
0
100
AcDbBlockBegin
  2
*Paper_Space
 70
     0
 10
0.0
 20
0.0
 30
0.0
  3
*Paper_Space
  1

  0
ENDBLK
  5
1D
330
1B
100
AcDbEntity
 67
     1
  8
0
100
AcDbBlockEnd
  0
BLOCK
  5
63
330
5E
100
AcDbEntity
  8
0
100
AcDbBlockBegin
  2
SEANNOT_GROUP
 70
     0
 10
0.0
 20
0.0
 30
0.0
  3
SEANNOT_GROUP
  1

  0
LINE
  5
61
330
5E
100
AcDbEntity
  8
Default
  6
CENTER2
 62
     7
100
AcDbLine
 10
62.8514520403
 20
325.2696233782
 30
0.0
 11
22.8514529343
 21
325.2696233782
 31
0.0
  0
LINE
  5
62
330
5E
100
AcDbEntity
  8
Default
  6
CENTER2
 62
     7
100
AcDbLine
 10
42.8514524873
 20
345.2696229311
 30
0.0
 11
42.8514524873
 21
305.2696238252
 31
0.0
  0
ENDBLK
  5
64
330
5E
100
AcDbEntity
  8
0
100
AcDbBlockEnd
  0
BLOCK
  5
69
330
65
100
AcDbEntity
  8
0
100
AcDbBlockBegin
  2
SEANNOT_GROUP1
 70
     0
 10
0.0
 20
0.0
 30
0.0
  3
SEANNOT_GROUP1
  1

  0
LINE
  5
67
330
65
100
AcDbEntity
  8
Default
  6
CENTER2
 62
     7
100
AcDbLine
 10
192.5930240485
 20
325.2696233782
 30
0.0
 11
152.5930249425
 21
325.2696233782
 31
0.0
  0
LINE
  5
68
330
65
100
AcDbEntity
  8
Default
  6
CENTER2
 62
     7
100
AcDbLine
 10
172.5930244955
 20
345.2696229311
 30
0.0
 11
172.5930244955
 21
305.2696238252
 31
0.0
  0
ENDBLK
  5
6A
330
65
100
AcDbEntity
  8
0
100
AcDbBlockEnd
  0
BLOCK
  5
73
330
6B
100
AcDbEntity
  8
0
100
AcDbBlockBegin
  2
SEANNOT_GROUP2
 70
     0
 10
0.0
 20
0.0
 30
0.0
  3
SEANNOT_GROUP2
  1

  0
LINE
  5
6D
330
6B
100
AcDbEntity
  8
Default
  6
CENTER2
 62
     7
100
AcDbLine
 10
42.8514524873
 20
215.6001346217
 30
0.0
 11
42.8514524873
 21
255.6001337277
 31
0.0
  0
LINE
  5
6E
330
6B
100
AcDbEntity
  8
Default
  6
CENTER2
 62
     7
100
AcDbLine
 10
62.8514520403
 20
235.6001341747
 30
0.0
 11
22.8514529343
 21
235.6001341747
 31
0.0
  0
LINE
  5
6F
330
6B
100
AcDbEntity
  8
Default
  6
CENTER2
 62
     7
100
AcDbLine
 10
42.8514524873
 20
210.6001347335
 30
0.0
 11
42.8514524873
 21
201.5595208694
 31
0.0
  0
LINE
  5
70
330
6B
100
AcDbEntity
  8
Default
  6
CENTER2
 62
     7
100
AcDbLine
 10
67.8514519285
 20
235.6001341747
 30
0.0
 11
75.8514524873
 21
235.6001341747
 31
0.0
  0
LINE
  5
71
330
6B
100
AcDbEntity
  8
Default
  6
CENTER2
 62
     7
100
AcDbLine
 10
42.8514524873
 20
260.6001336159
 30
0.0
 11
42.8514524873
 21
269.64074748
 31
0.0
  0
LINE
  5
72
330
6B
100
AcDbEntity
  8
Default
  6
CENTER2
 62
     7
100
AcDbLine
 10
17.8514530461
 20
235.6001341747
 30
0.0
 11
9.8514524873
 21
235.6001341747
 31
0.0
  0
ENDBLK
  5
74
330
6B
100
AcDbEntity
  8
0
100
AcDbBlockEnd
  0
BLOCK
  5
160
330
75
100
AcDbEntity
  8
0
100
AcDbBlockBegin
  2
SE
 70
     0
 10
0.0
 20
0.0
 30
0.0
  3
SE
  1

  0
LINE
  5
78
330
75
100
AcDbEntity
  8
02.25.50XX_VM_GE
  6
Continuous
 62
     7
100
AcDbLine
 10
13.3514524873
 20
325.2696233782
 30
0.0
 11
72.3514524873
 21
325.2696233782
 31
0.0
  0
SPLINE
  5
79
330
75
100
AcDbEntity
  8
02.25.50XX_VM_GE
  6
Continuous
 62
     7
100
AcDbSpline
210
0.0
220
0.0
230
1.0
 70
    11
 71
     3
 72
    46
 73
    42
 74
     0
 42
0.0000000000873424
 43
0.0000000001
 40
0.0
 40
0.0
 40
0.0
 40
0.0
 40
0.0625
 40
0.0625
 40
0.125
 40
0.125
 40
0.1562500000000001
 40
0.1562500000000001
 40
0.1875000000000001
 40
0.1875000000000001
 40
0.2187500000000002
 40
0.2187500000000002
 40
0.2500000000000002
 40
0.2500000000000002
 40
0.3125000000000002
 40
0.3125000000000002
 40
0.3750000000000001
 40
0.3750000000000001
 40
0.4375000000000001
 40
0.4375000000000001
 40
0.5
 40
0.5
 40
0.5625
 40
0.5625
 40
0.625
 40
0.625
 40
0.65625
 40
0.65625
 40
0.6875
 40
0.6875
 40
0.71875
 40
0.71875
 40
0.75
 40
0.75
 40
0.8125
 40
0.8125
 40
0.875
 40
0.875
 40
0.9375
 40
0.9375
 40
1.0
 40
1.0
 40
1.0
 40
1.0
 10
23.64380298068987
 20
415.1177006190276
 30
0.0
 10
24.58273629499262
 20
416.9632898957512
 30
0.0
 10
25.92276488226678
 20
418.5899367874007
 30
0.0
 10
29.42833872834681
 20
421.4766179125355
 30
0.0
 10
31.55499846659193
 20
422.6908628790503
 30
0.0
 10
35.31782810148317
 20
424.0305253819187
 30
0.0
 10
36.64080323617799
 20
424.3862196929688
 30
0.0
 10
39.44733177099436
 20
424.8945105791205
 30
0.0
 10
40.90682982059534
 20
425.0391645687209
 30
0.0
 10
43.81954491684163
 20
425.0912737217086
 30
0.0
 10
45.3102331105865
 20
424.996935659172
 30
0.0
 10
48.14852574317639
 20
424.5863985561015
 30
0.0
 10
49.52816859258277
 20
424.2682722420344
 30
0.0
 10
53.39821345986272
 20
423.0433104652204
 30
0.0
 10
55.63084532704578
 20
421.8705510910104
 30
0.0
 10
59.26994771119062
 20
419.1082535458205
 30
0.0
 10
60.72952232299001
 20
417.4794100325404
 30
0.0
 10
62.76982017065488
 20
413.903324785571
 30
0.0
 10
63.36135120045175
 20
411.8990768471219
 30
0.0
 10
63.47353514033738
 20
407.8943656327835
 30
0.0
 10
62.99141392241936
 20
405.8585285116718
 30
0.0
 10
61.13862990436718
 20
402.2078644781928
 30
0.0
 10
59.76323468394796
 20
400.5356659759532
 30
0.0
 10
56.29415122224772
 20
397.6784795530062
 30
0.0
 10
54.14269128463398
 20
396.4474811746425
 30
0.0
 10
50.39923422285884
 20
395.1132869286129
 30
0.0
 10
49.0440713063397
 20
394.7492298038977
 30
0.0
 10
46.2544004596859
 20
394.2450592194109
 30
0.0
 10
44.78136984268461
 20
394.0985177819524
 30
0.0
 10
41.8492332144349
 20
394.0486856763632
 30
0.0
 10
40.39251742501322
 20
394.1414038209108
 30
0.0
 10
37.52086168829484
 20
394.5586368323217
 30
0.0
 10
36.16235834633032
 20
394.873998969559
 30
0.0
 10
32.28484448335947
 20
396.1040208329494
 30
0.0
 10
30.07156926831809
 20
397.2660774422346
 30
0.0
 10
26.40224694183313
 20
400.0573201645814
 30
0.0
 10
24.97516594722616
 20
401.6526235291347
 30
0.0
 10
22.91792942830456
 20
405.2665994021459
 30
0.0
 10
22.3405198755189
 20
407.2146336602177
 30
0.0
 10
22.22984970308156
 20
411.2905034643061
 30
0.0
 10
22.7048696663871
 20
413.272111342304
 30
0.0
 10
23.64380298068987
 20
415.1177006190276
 30
0.0
  0
ELLIPSE
  5
7A
330
75
100
AcDbEntity
  8
02.25.50XX_VM_GE
  6
Continuous
 62
     7
100
AcDbEllipse
 10
42.8514524873
 20
406.4376147884
 30
0.0
 11
12.50000428991005
 21
0.0
 31
0.0
210
0.0
220
0.0
230
1.0
 40
0.5
 41
0.0
 42
3.477839424082231
  0
ELLIPSE
  5
7B
330
75
100
AcDbEntity
  8
02.25.50XX_VM_GE
  6
Continuous
 62
     7
100
AcDbEllipse
 10
42.8514524873
 20
406.4376147884
 30
0.0
 11
12.50000428991005
 21
0.0
 31
0.0
210
0.0
220
0.0
230
1.0
 40
0.5
 41
5.946938536687142
 42
6.283185307179586
  0
ELLIPSE
  5
7C
330
75
100
AcDbEntity
  8
02.25.50XX_VM_GE
  6
Continuous
 62
     7
100
AcDbEllipse
 10
42.8514524873
 20
407.3636196631
 30
0.0
 11
12.50000428991005
 21
0.0
 31
0.0
210
0.0
220
0.0
230
1.0
 40
0.5
 41
3.215740943635285
 42
3.477839424082231
  0
ELLIPSE
  5
7D
330
75
100
AcDbEntity
  8
02.25.50XX_VM_GE
  6
Continuous
 62
     7
100
AcDbEllipse
 10
42.8514524873
 20
407.3636196631
 30
0.0
 11
12.50000428991005
 21
0.0
 31
0.0
210
0.0
220
0.0
230
1.0
 40
0.5
 41
5.946938536687142
 42
6.209037017134092
  0
LINE
  5
7E
330
75
100
AcDbEntity
  8
02.25.50XX_VM_GE
  6
Continuous
 62
     7
100
AcDbLine
 10
13.3514524873
 20
460.9169627238
 30
0.0
 11
13.3514524873
 21
325.2696233782
 31
0.0
  0
LINE
  5
7F
330
75
100
AcDbEntity
  8
02.25.50XX_VM_GE
  6
Continuous
 62
     7
100
AcDbLine
 10
72.3514524873
 20
325.2696233782
 30
0.0
 11
72.3514524873
 21
460.9169627238
 31
0.0
  0
ELLIPSE
  5
81
330
75
100
AcDbEntity
  8
0008200U_DECKEL_
  6
Continuous
 62
     7
100
AcDbEllipse
 10
42.8514524873
 20
469.6534242664
 30
0.0
 11
35.7731630994417
 21
0.0
 31
0.0
210
0.0
220
0.0
230
1.0
 40
0.2588150299
 41
-3.603322467024205
 42
-3.574423067596165
  0
ELLIPSE
  5
82
330
75
100
AcDbEntity
  8
0008200U_DECKEL_
  6
Continuous
 62
     7
100
AcDbEllipse
 10
42.8514524873
 20
469.6534242664
 30
0.0
 11
35.7731630994417
 21
0.0
 31
0.0
210
0.0
220
0.0
230
1.0
 40
0.2588150299
 41
0.4270869375660967
 42
0.4620152814377587
  0
ELLIPSE
  5
83
330
75
100
AcDbEntity
  8
0008200U_DECKEL_
  6
Continuous
 62
     7
100
AcDbEllipse
 10
42.8514524873
 20
466.479980924
 30
0.0
 11
36.49999999999999
 21
0.0
 31
0.0
210
0.0
220
0.0
230
1.0
 40
0.2588150299
 41
3.141592653589799
 42
6.283185307179586
  0
ARC
  5
84
330
75
100
AcDbEntity
  8
0008200U_DECKEL_
  6
Continuous
 62
     7
100
AcDbCircle
 10
42.794023495
 20
412.2235509579
 30
0.0
 40
69.4093934703783
100
AcDbArc
 50
62.4882811531
 51
89.9525937472
  0
ARC
  5
85
330
75
100
AcDbEntity
  8
0008200U_DECKEL_
  6
Continuous
 62
     7
100
AcDbCircle
 10
42.9105597693
 20
412.2156310378
 30
0.0
 40
69.41731479650323
100
AcDbArc
 50
90.0487860733
 51
117.5267001619
  0
LINE
  5
86
330
75
100
AcDbEntity
  8
0008200U_DECKEL_
  6
Continuous
 62
     7
100
AcDbLine
 10
79.3514524873
 20
466.479980924
 30
0.0
 11
79.3514524873
 21
468.4118347283
 31
0.0
  0
LINE
  5
87
330
75
100
AcDbEntity
  8
0008200U_DECKEL_
  6
Continuous
 62
     7
100
AcDbLine
 10
6.3514524873
 20
468.4118347283
 30
0.0
 11
6.3514524873
 21
466.479980924
 31
0.0
  0
SPLINE
  5
88
330
75
100
AcDbEntity
  8
0008200U_DECKEL_
  6
Continuous
 62
     7
100
AcDbSpline
210
0.0
220
0.0
230
1.0
 70
     8
 71
     3
 72
    20
 73
    16
 74
     0
 42
0.0000000014901546
 43
0.0000000001
 40
0.0
 40
0.0
 40
0.0
 40
0.0
 40
0.0298731844163814
 40
0.1018673987278723
 40
0.1740299434382467
 40
0.2472356977151794
 40
0.3223353382115656
 40
0.4000801856798287
 40
0.4810356076524358
 40
0.5654522868405767
 40
0.65314508068044
 40
0.7434830786656731
 40
0.8355653935538945
 40
0.9285033747103181
 40
1.0
 40
1.0
 40
1.0
 40
1.0
 10
79.34498035223727
 20
468.4062388660512
 30
0.0
 10
79.34696171125219
 20
468.4747391505548
 30
0.0
 10
79.35198525666246
 20
468.6735605610534
 30
0.0
 10
79.30649356566732
 20
469.0446718489221
 30
0.0
 10
79.20982317411296
 20
469.4835942870614
 30
0.0
 10
79.05992313797567
 20
469.9189026896864
 30
0.0
 10
78.86070075828732
 20
470.3461657777327
 30
0.0
 10
78.60987772410589
 20
470.768156484324
 30
0.0
 10
78.30563018933806
 20
471.1855680331498
 30
0.0
 10
77.94541855049795
 20
471.5989640684946
 30
0.0
 10
77.5279224743799
 20
472.0073252392629
 30
0.0
 10
77.05208079617834
 20
472.4098746035647
 30
0.0
 10
76.52398017923834
 20
472.8005030953631
 30
0.0
 10
75.97702568533661
 20
473.1613170109852
 30
0.0
 10
75.62644536898408
 20
473.3630816559222
 30
0.0
 10
75.44542482828395
 20
473.4665602950321
 30
0.0
  0
SPLINE
  5
89
330
75
100
AcDbEntity
  8
0008200U_DECKEL_
  6
Continuous
 62
     7
100
AcDbSpline
210
0.0
220
0.0
230
1.0
 70
     8
 71
     3
 72
    20
 73
    16
 74
     0
 42
0.0000000014680816
 43
0.0000000001
 40
0.0
 40
0.0
 40
0.0
 40
0.0
 40
0.0364425263711934
 40
0.1281925004521566
 40
0.2203743744328018
 40
0.3127611457387006
 40
0.4047188213140849
 40
0.4953931599936378
 40
0.583718276768095
 40
0.6687461941091625
 40
0.7500197394092256
 40
0.8276980260510944
 40
0.9024041953099333
 40
0.974995720032058
 40
1.0
 40
1.0
 40
1.0
 40
1.0
 10
10.35144980820601
 20
473.5185113563154
 30
0.0
 10
10.25508879919754
 20
473.4658950214537
 30
0.0
 10
9.966887624393316
 20
473.3079689623642
 30
0.0
 10
9.472096197881738
 20
472.9976006003061
 30
0.0
 10
8.911418330967397
 20
472.6095624030323
 30
0.0
 10
8.394965265175621
 20
472.200966016424
 30
0.0
 10
7.930548403801335
 20
471.7770876838415
 30
0.0
 10
7.521361331010307
 20
471.3379378521449
 30
0.0
 10
7.171713173328986
 20
470.8866580729646
 30
0.0
 10
6.884102633705299
 20
470.4268263703966
 30
0.0
 10
6.659604826293554
 20
469.9630004122931
 30
0.0
 10
6.495709672702167
 20
469.4969264767062
 30
0.0
 10
6.394860466265223
 20
469.0372272734201
 30
0.0
 10
6.350000000000001
 20
468.6647063719028
 30
0.0
 10
6.355620969154082
 20
468.4715867911546
 30
0.0
 10
6.357492230205749
 20
468.4135699278121
 30
0.0
  0
ELLIPSE
  5
8B
330
75
100
AcDbEntity
  8
02636038_GEHÄUSE
  6
Continuous
 62
     7
100
AcDbEllipse
 10
42.8514524873
 20
400.002403731
 30
0.0
 11
10.05000000000001
 21
0.0
 31
0.0
210
0.0
220
0.0
230
1.0
 40
0.5
 41
0.0
 42
6.283185307179586
  0
ELLIPSE
  5
8C
330
75
100
AcDbEntity
  8
02636038_GEHÄUSE
  6
Continuous
 62
     7
100
AcDbEllipse
 10
42.8514524873
 20
400.002403731
 30
0.0
 11
10.75000000000001
 21
0.0
 31
0.0
210
0.0
220
0.0
230
1.0
 40
0.5
 41
0.0
 42
6.283185307179586
  0
ELLIPSE
  5
8D
330
75
100
AcDbEntity
  8
02636038_GEHÄUSE
  6
Continuous
 62
     7
100
AcDbEllipse
 10
42.8514524873
 20
407.3636196631
 30
0.0
 11
11.80000000000001
 21
0.0
 31
0.0
210
0.0
220
0.0
230
1.0
 40
0.5
 41
2.825656795843884
 42
3.141592653589793
  0
ELLIPSE
  5
8E
330
75
100
AcDbEntity
  8
02636038_GEHÄUSE
  6
Continuous
 62
     7
100
AcDbEllipse
 10
42.8514524873
 20
407.3636196631
 30
0.0
 11
11.80000000000001
 21
0.0
 31
0.0
210
0.0
220
0.0
230
1.0
 40
0.5
 41
0.0
 42
0.31593585774592
  0
ELLIPSE
  5
8F
330
75
100
AcDbEntity
  8
02636038_GEHÄUSE
  6
Continuous
 62
     7
100
AcDbEllipse
 10
42.8514524873
 20
400.277403731
 30
0.0
 11
-11.29999999999999
 21
-2.775557561562892E-14
 31
0.0
210
0.0
220
0.0
230
1.0
 40
0.5
 41
1.801737805935046
 42
2.051545051276041
  0
ARC
  5
90
330
75
100
AcDbEntity
  8
02636038_GEHÄUSE
  6
Continuous
 62
     7
100
AcDbCircle
 10
42.8514524873
 20
428.0024037338
 30
0.0
 40
22.37500000281831
100
AcDbArc
 50
263.361886725
 51
276.638113275
  0
ELLIPSE
  5
91
330
75
100
AcDbEntity
  8
02636038_GEHÄUSE
  6
Continuous
 62
     7
100
AcDbEllipse
 10
42.8514524873
 20
402.6004799423
 30
0.0
 11
11.79999999999998
 21
2.775557561562891E-14
 31
0.0
210
0.0
220
0.0
230
1.0
 40
0.5
 41
1.200453694703177
 42
1.94113895888661
  0
LINE
  5
92
330
75
100
AcDbEntity
  8
02636038_GEHÄUSE
  6
Continuous
 62
     7
100
AcDbLine
 10
47.1222837881
 20
408.1004799423
 30
0.0
 11
38.5806211865
 21
408.1004799423
 31
0.0
  0
LINE
  5
93
330
75
100
AcDbEntity
  8
02636038_GEHÄUSE
  6
Continuous
 62
     7
100
AcDbLine
 10
47.1222837881
 20
408.1004799423
 30
0.0
 11
47.1222837881
 21
406.527403731
 31
0.0
  0
SPLINE
  5
94
330
75
100
AcDbEntity
  8
02636038_GEHÄUSE
  6
Continuous
 62
     7
100
AcDbSpline
210
0.0
220
0.0
230
1.0
 70
     8
 71
     3
 72
    14
 73
    10
 74
     0
 42
0.0000000050999968
 43
0.0000000001
 40
0.0
 40
0.0
 40
0.0
 40
0.0
 40
0.1250000000000004
 40
0.1250000000000004
 40
0.2500000000000009
 40
0.2500000000000009
 40
0.5000000000000008
 40
0.5000000000000008
 40
1.0
 40
1.0
 40
1.0
 40
1.0
 10
47.12228378810736
 20
406.5274037309609
 30
0.0
 10
47.12228378810736
 20
406.4544486260436
 30
0.0
 10
47.09015229682748
 20
406.3815836264158
 30
0.0
 10
46.99435469759641
 20
406.261034707778
 30
0.0
 10
46.93122783330352
 20
406.2099258696149
 30
0.0
 10
46.72891788252277
 20
406.0790513235909
 30
0.0
 10
46.57292827227094
 20
406.0172130213206
 30
0.0
 10
46.10216218783655
 20
405.8688004156696
 30
0.0
 10
45.76974890979894
 20
405.8153764615045
 30
0.0
 10
45.43795591857037
 20
405.7774037309608
 30
0.0
  0
SPLINE
  5
95
330
75
100
AcDbEntity
  8
02636038_GEHÄUSE
  6
Continuous
 62
     7
100
AcDbSpline
210
0.0
220
0.0
230
1.0
 70
     8
 71
     3
 72
    18
 73
    14
 74
     0
 42
0.0000000051067136
 43
0.0000000001
 40
0.0
 40
0.0
 40
0.0
 40
0.0
 40
0.2499999999999998
 40
0.2499999999999998
 40
0.4999999999999997
 40
0.4999999999999997
 40
0.6249999999999992
 40
0.6249999999999992
 40
0.7499999999999989
 40
0.7499999999999989
 40
0.8749999999999994
 40
0.8749999999999994
 40
1.0
 40
1.0
 40
1.0
 40
1.0
 10
40.26494905601921
 20
405.7774037309608
 30
0.0
 10
40.09855627585565
 20
405.7964468945373
 30
0.0
 10
39.93300371963884
 20
405.8198938894095
 30
0.0
 10
39.60463597309433
 20
405.8811351226677
 30
0.0
 10
39.441865975436
 20
405.9187663735362
 30
0.0
 10
39.20639401766692
 20
405.9931836369204
 30
0.0
 10
39.12922507572089
 20
406.0210425006834
 30
0.0
 10
38.97889918629854
 20
406.0860278070795
 30
0.0
 10
38.90532859334984
 20
406.1233846600338
 30
0.0
 10
38.77131041054775
 20
406.2102460118043
 30
0.0
 10
38.70893202667294
 20
406.2605700261701
 30
0.0
 10
38.61244835369536
 20
406.3819508904801
 30
0.0
 10
38.58062118648222
 20
406.4531412010885
 30
0.0
 10
38.58062118648223
 20
406.5274037309609
 30
0.0
  0
LINE
  5
96
330
75
100
AcDbEntity
  8
02636038_GEHÄUSE
  6
Continuous
 62
     7
100
AcDbLine
 10
38.5806211865
 20
406.527403731
 30
0.0
 11
38.5806211865
 21
408.1004799423
 31
0.0
  0
ELLIPSE
  5
97
330
75
100
AcDbEntity
  8
02636038_GEHÄUSE
  6
Continuous
 62
     7
100
AcDbEllipse
 10
42.8514524873
 20
400.277403731
 30
0.0
 11
11.30000000000003
 21
1.387778780781446E-14
 31
0.0
210
0.0
220
0.0
230
1.0
 40
0.5
 41
4.193302787716894
 42
4.481447501244537
  0
ARC
  5
98
330
75
100
AcDbEntity
  8
02636038_GEHÄUSE
  6
Continuous
 62
     7
100
AcDbCircle
 10
42.8514524873
 20
417.0024037338
 30
0.0
 40
22.37500000281911
100
AcDbArc
 50
263.361886725
 51
276.638113275
  0
SPLINE
  5
99
330
75
100
AcDbEntity
  8
02636038_GEHÄUSE
  6
Continuous
 62
     7
100
AcDbSpline
210
0.0
220
0.0
230
1.0
 70
     8
 71
     3
 72
    24
 73
    20
 74
     0
 42
0.0000000011213817
 43
0.0000000001
 40
0.0
 40
0.0
 40
0.0
 40
0.0
 40
0.029660226038071
 40
0.0881175430467071
 40
0.1466447160193013
 40
0.2056693856458573
 40
0.2655501894240637
 40
0.3265334704547121
 40
0.3887194890331392
 40
0.4520514601721134
 40
0.5163402802070501
 40
0.581322073492737
 40
0.6467256378961269
 40
0.7123226146783889
 40
0.7779242761092597
 40
0.8434293600419992
 40
0.9087951102442138
 40
0.9740069259909957
 40
1.0
 40
1.0
 40
1.0
 40
1.0
 10
31.05808859316263
 20
401.0302381835382
 30
0.0
 10
31.05643242878218
 20
400.9480980749347
 30
0.0
 10
31.05321536596635
 20
400.7406949727997
 30
0.0
 10
31.10360096355508
 20
400.3635971780296
 30
0.0
 10
31.20608618292746
 20
399.932200770101
 30
0.0
 10
31.3621046540331
 20
399.5042867966869
 30
0.0
 10
31.56814217974041
 20
399.0854633411795
 30
0.0
 10
31.82518028466293
 20
398.6753336344704
 30
0.0
 10
32.1330118209755
 20
398.2756117673639
 30
0.0
 10
32.49127166401911
 20
397.888041920267
 30
0.0
 10
32.89871797319448
 20
397.5148705474436
 30
0.0
 10
33.3532765393583
 20
397.1584123049012
 30
0.0
 10
33.85212731048316
 20
396.8208497729156
 30
0.0
 10
34.39213738022283
 20
396.5039479126059
 30
0.0
 10
34.96945806938918
 20
396.2094463927385
 30
0.0
 10
35.58243989518839
 20
395.9372770039812
 30
0.0
 10
36.22167567792552
 20
395.6924303785208
 30
0.0
 10
36.77052367597954
 20
395.5062847506579
 30
0.0
 10
37.07660373471651
 20
395.4209467745308
 30
0.0
 10
37.1790710408343
 20
395.3925284888249
 30
0.0
  0
SPLINE
  5
9A
330
75
100
AcDbEntity
  8
02636038_GEHÄUSE
  6
Continuous
 62
     7
100
AcDbSpline
210
0.0
220
0.0
230
1.0
 70
     8
 71
     3
 72
    24
 73
    20
 74
     0
 42
0.00000000106903
 43
0.0000000001
 40
0.0
 40
0.0
 40
0.0
 40
0.0
 40
0.0438546725248654
 40
0.1064822537559511
 40
0.1692710214792829
 40
0.2322380232703113
 40
0.2953931979919881
 40
0.3587329697670456
 40
0.4222302331491268
 40
0.4858184898881727
 40
0.5493235711118049
 40
0.6125294390700855
 40
0.6751537177035924
 40
0.7368895634288701
 40
0.797481840577153
 40
0.8568083617173664
 40
0.9149249414020889
 40
0.9720566977070731
 40
1.0
 40
1.0
 40
1.0
 40
1.0
 10
48.09787483562271
 20
395.2750594314347
 30
0.0
 10
48.27975931304376
 20
395.322477816095
 30
0.0
 10
48.65312207873745
 20
395.4207201315587
 30
0.0
 10
49.276516369769
 20
395.6203028344162
 30
0.0
 10
49.92417790552356
 20
395.8580879040945
 30
0.0
 10
50.54675492814911
 20
396.122495534551
 30
0.0
 10
51.13559161872821
 20
396.4101611706326
 30
0.0
 10
51.68954730494323
 20
396.7214102231213
 30
0.0
 10
52.20538074123493
 20
397.0555166987589
 30
0.0
 10
52.68011923967513
 20
397.411779399053
 30
0.0
 10
53.11044694207909
 20
397.7890501595469
 30
0.0
 10
53.49297909573617
 20
398.1856319828903
 30
0.0
 10
53.82448486977376
 20
398.5991510007348
 30
0.0
 10
54.10229927215486
 20
399.0266561771639
 30
0.0
 10
54.32426499348313
 20
399.4641654340032
 30
0.0
 10
54.49054178089638
 20
399.9093396701364
 30
0.0
 10
54.59781413988228
 20
400.3535085576442
 30
0.0
 10
54.64951023904317
 20
400.7360775226454
 30
0.0
 10
54.64639061300453
 20
400.944179624074
 30
0.0
 10
54.64481638142694
 20
401.0245692783838
 30
0.0
  0
LINE
  5
9B
330
75
100
AcDbEntity
  8
02636038_GEHÄUSE
  6
Continuous
 62
     7
100
AcDbLine
 10
31.0514524873
 20
407.3636196631
 30
0.0
 11
31.0514524873
 21
401.027403731
 31
0.0
  0
LINE
  5
9C
330
75
100
AcDbEntity
  8
02636038_GEHÄUSE
  6
Continuous
 62
     7
100
AcDbLine
 10
54.6514524873
 20
401.027403731
 30
0.0
 11
54.6514524873
 21
407.3636196631
 31
0.0
  0
ELLIPSE
  5
9E
330
75
100
AcDbEntity
  8
$DDT_AUDIT_GENERATED_(9D)
  6
Continuous
 62
     7
100
AcDbEllipse
 10
42.8514524873
 20
399.6559935694
 30
0.0
 11
-9.000000000000002
 21
0.0
 31
0.0
210
0.0
220
0.0
230
1.0
 40
0.5
 41
0.0
 42
6.283185307179586
  0
ELLIPSE
  5
9F
330
75
100
AcDbEntity
  8
$DDT_AUDIT_GENERATED_(9D)
  6
Continuous
 62
     7
100
AcDbEllipse
 10
42.8514524873
 20
401.9942621597
 30
0.0
 11
-9.000000000000002
 21
0.0
 31
0.0
210
0.0
220
0.0
230
1.0
 40
0.5
 41
6.22552292391808
 42
6.283185307179586
  0
ELLIPSE
  5
A0
330
75
100
AcDbEntity
  8
$DDT_AUDIT_GENERATED_(9D)
  6
Continuous
 62
     7
100
AcDbEllipse
 10
42.8514524873
 20
401.9942621597
 30
0.0
 11
-9.000000000000002
 21
0.0
 31
0.0
210
0.0
220
0.0
230
1.0
 40
0.5
 41
3.141592653589793
 42
3.199255036851299
  0
ELLIPSE
  5
A1
330
75
100
AcDbEntity
  8
$DDT_AUDIT_GENERATED_(9D)
  6
Continuous
 62
     7
100
AcDbEllipse
 10
42.8514524873
 20
402.3289585515
 30
0.0
 11
9.386474103794409
 21
1.387778780781446E-13
 31
0.0
210
0.0
220
0.0
230
1.0
 40
0.5
 41
5.99522975903665
 42
6.182792757029015
  0
ELLIPSE
  5
A2
330
75
100
AcDbEntity
  8
$DDT_AUDIT_GENERATED_(9D)
  6
Continuous
 62
     7
100
AcDbEllipse
 10
42.8514524873
 20
402.3289585515
 30
0.0
 11
-9.386474103797219
 21
-3.608224830031759E-13
 31
0.0
210
0.0
220
0.0
230
1.0
 40
0.5
 41
0.1003925501505626
 42
0.2879555481428813
  0
ELLIPSE
  5
A3
330
75
100
AcDbEntity
  8
$DDT_AUDIT_GENERATED_(9D)
  6
Continuous
 62
     7
100
AcDbEllipse
 10
42.8514524873
 20
399.6559935694
 30
0.0
 11
-5.249999999999998
 21
0.0
 31
0.0
210
0.0
220
0.0
230
1.0
 40
0.5
 41
0.0
 42
6.283185307179586
  0
ELLIPSE
  5
A4
330
75
100
AcDbEntity
  8
$DDT_AUDIT_GENERATED_(9D)
  6
Continuous
 62
     7
100
AcDbEllipse
 10
42.8514524873
 20
399.6559935694
 30
0.0
 11
-6.249999999999999
 21
0.0
 31
0.0
210
0.0
220
0.0
230
1.0
 40
0.5
 41
0.0
 42
6.283185307179586
  0
ELLIPSE
  5
A5
330
75
100
AcDbEntity
  8
$DDT_AUDIT_GENERATED_(9D)
  6
Continuous
 62
     7
100
AcDbEllipse
 10
42.8514524873
 20
399.6559935694
 30
0.0
 11
-2.750000000000002
 21
0.0
 31
0.0
210
0.0
220
0.0
230
1.0
 40
0.5
 41
0.0
 42
6.283185307179586
  0
ELLIPSE
  5
A6
330
75
100
AcDbEntity
  8
$DDT_AUDIT_GENERATED_(9D)
  6
Continuous
 62
     7
100
AcDbEllipse
 10
42.8514524873
 20
399.6559935694
 30
0.0
 11
2.150000000000001
 21
0.0
 31
0.0
210
0.0
220
0.0
230
1.0
 40
0.5
 41
0.0
 42
6.283185307179586
  0
ELLIPSE
  5
A7
330
75
100
AcDbEntity
  8
$DDT_AUDIT_GENERATED_(9D)
  6
Continuous
 62
     7
100
AcDbEllipse
 10
42.8514524873
 20
399.8291986502
 30
0.0
 11
0.5196299438963558
 21
0.0
 31
0.0
210
0.0
220
0.0
230
1.0
 40
0.5
 41
0.0
 42
6.283185307179586
  0
ELLIPSE
  5
A8
330
75
100
AcDbEntity
  8
$DDT_AUDIT_GENERATED_(9D)
  6
Continuous
 62
     7
100
AcDbEllipse
 10
42.8514524873
 20
399.6559935694
 30
0.0
 11
-8.699999999999999
 21
0.0
 31
0.0
210
0.0
220
0.0
230
1.0
 40
0.5
 41
0.0
 42
6.283185307179586
  0
ARC
  5
A9
330
75
100
AcDbEntity
  8
$DDT_AUDIT_GENERATED_(9D)
  6
Continuous
 62
     7
100
AcDbCircle
 10
42.8514524873
 20
412.5783162666
 30
0.0
 40
16.99911762407546
100
AcDbArc
 50
269.6629465644
 51
270.3370534356
  0
ELLIPSE
  5
AA
330
75
100
AcDbEntity
  8
$DDT_AUDIT_GENERATED_(9D)
  6
Continuous
 62
     7
100
AcDbEllipse
 10
42.8514524873
 20
399.8291986502
 30
0.0
 11
8.499999999987336
 21
2.331468351712829E-12
 31
0.0
210
0.0
220
0.0
230
1.0
 40
0.5
 41
4.724153957672277
 42
4.962423390895601
  0
LINE
  5
AB
330
75
100
AcDbEntity
  8
$DDT_AUDIT_GENERATED_(9D)
  6
Continuous
 62
     7
100
AcDbLine
 10
42.7514524873
 20
396.5313935951
 30
0.0
 11
42.7514524873
 21
395.579492778
 31
0.0
  0
LINE
  5
AC
330
75
100
AcDbEntity
  8
$DDT_AUDIT_GENERATED_(9D)
  6
Continuous
 62
     7
100
AcDbLine
 10
42.9514524873
 20
396.5313935951
 30
0.0
 11
42.9514524873
 21
395.579492778
 31
0.0
  0
LINE
  5
AD
330
75
100
AcDbEntity
  8
$DDT_AUDIT_GENERATED_(9D)
  6
Continuous
 62
     7
100
AcDbLine
 10
43.1014524873
 20
398.9756572041
 30
0.0
 11
43.1014524873
 21
399.6014294257
 31
0.0
  0
LINE
  5
AE
330
75
100
AcDbEntity
  8
$DDT_AUDIT_GENERATED_(9D)
  6
Continuous
 62
     7
100
AcDbLine
 10
42.6014524873
 20
398.9756572041
 30
0.0
 11
42.6014524873
 21
399.6014294257
 31
0.0
  0
ELLIPSE
  5
AF
330
75
100
AcDbEntity
  8
$DDT_AUDIT_GENERATED_(9D)
  6
Continuous
 62
     7
100
AcDbEllipse
 10
42.8514524873
 20
400.0433650293
 30
0.0
 11
-2.150000000001601
 21
-4.163336342344337E-14
 31
0.0
210
0.0
220
0.0
230
1.0
 40
0.5
 41
1.454253618345625
 42
1.687339035244129
  0
LINE
  5
B0
330
75
100
AcDbEntity
  8
$DDT_AUDIT_GENERATED_(9D)
  6
Continuous
 62
     7
100
AcDbLine
 10
42.581944618
 20
400.265502817
 30
0.0
 11
42.581944618
 21
400.7225142571
 31
0.0
  0
ELLIPSE
  5
B1
330
75
100
AcDbEntity
  8
$DDT_AUDIT_GENERATED_(9D)
  6
Continuous
 62
     7
100
AcDbEllipse
 10
42.8514524873
 20
400.0433650293
 30
0.0
 11
-0.5196299438963525
 21
0.0
 31
0.0
210
0.0
220
0.0
230
1.0
 40
0.5
 41
5.257664250556986
 42
6.261508812605466
  0
LINE
  5
B2
330
75
100
AcDbEntity
  8
$DDT_AUDIT_GENERATED_(9D)
  6
Continuous
 62
     7
100
AcDbLine
 10
41.2360076991
 20
400.3653662036
 30
0.0
 11
42.331944618
 21
400.0489964661
 31
0.0
  0
LINE
  5
B3
330
75
100
AcDbEntity
  8
$DDT_AUDIT_GENERATED_(9D)
  6
Continuous
 62
     7
100
AcDbLine
 10
41.629437558
 20
400.5404679208
 30
0.0
 11
42.581944618
 21
400.265502817
 31
0.0
  0
ELLIPSE
  5
B4
330
75
100
AcDbEntity
  8
$DDT_AUDIT_GENERATED_(9D)
  6
Continuous
 62
     7
100
AcDbEllipse
 10
42.8514524873
 20
400.0433650293
 30
0.0
 11
0.5196299438963548
 21
0.0
 31
0.0
210
0.0
220
0.0
230
1.0
 40
0.5
 41
0.0216764945736955
 42
1.025521056622603
  0
LINE
  5
B5
330
75
100
AcDbEntity
  8
$DDT_AUDIT_GENERATED_(9D)
  6
Continuous
 62
     7
100
AcDbLine
 10
44.0734674166
 20
400.5404679208
 30
0.0
 11
43.1209603566
 21
400.265502817
 31
0.0
  0
LINE
  5
B6
330
75
100
AcDbEntity
  8
$DDT_AUDIT_GENERATED_(9D)
  6
Continuous
 62
     7
100
AcDbLine
 10
43.1209603566
 20
400.265502817
 30
0.0
 11
43.1209603566
 21
400.7225142571
 31
0.0
  0
LINE
  5
B7
330
75
100
AcDbEntity
  8
$DDT_AUDIT_GENERATED_(9D)
  6
Continuous
 62
     7
100
AcDbLine
 10
44.4668972754
 20
400.3653662036
 30
0.0
 11
43.3709603566
 21
400.0489964661
 31
0.0
  0
ELLIPSE
  5
B8
330
75
100
AcDbEntity
  8
$DDT_AUDIT_GENERATED_(9D)
  6
Continuous
 62
     7
100
AcDbEllipse
 10
42.8514523736
 20
399.829198438
 30
0.0
 11
-8.499999765560952
 21
7.320707928748504E-8
 31
0.0
210
0.0
220
0.0
230
1.0
 40
0.4999999888
 41
1.297231972164273
 42
1.320761927348726
  0
ELLIPSE
  5
B9
330
75
100
AcDbEntity
  8
$DDT_AUDIT_GENERATED_(9D)
  6
Continuous
 62
     7
100
AcDbEllipse
 10
42.8514524873
 20
399.8291986502
 30
0.0
 11
-8.500000000007603
 21
-1.443289932012704E-12
 31
0.0
210
0.0
220
0.0
230
1.0
 40
0.5
 41
1.320761916283727
 42
1.559031349506488
  0
LINE
  5
BA
330
75
100
AcDbEntity
  8
$DDT_AUDIT_GENERATED_(9D)
  6
Continuous
 62
     7
100
AcDbLine
 10
40.5550502731
 20
395.7372389464
 30
0.0
 11
40.5550502731
 21
396.7495766658
 31
0.0
  0
LINE
  5
BB
330
75
100
AcDbEntity
  8
$DDT_AUDIT_GENERATED_(9D)
  6
Continuous
 62
     7
100
AcDbLine
 10
41.0513832813
 20
396.6634089485
 30
0.0
 11
40.5550502731
 21
395.7372389464
 31
0.0
  0
LINE
  5
BC
330
75
100
AcDbEntity
  8
$DDT_AUDIT_GENERATED_(9D)
  6
Continuous
 62
     7
100
AcDbLine
 10
41.2438257124
 20
396.6361410833
 30
0.0
 11
40.7482354383
 21
395.7113570419
 31
0.0
  0
ELLIPSE
  5
BD
330
75
100
AcDbEntity
  8
$DDT_AUDIT_GENERATED_(9D)
  6
Continuous
 62
     7
100
AcDbEllipse
 10
42.8514522681
 20
399.8291984603
 30
0.0
 11
-8.499999725916942
 21
1.265813148743078E-7
 31
0.0
210
0.0
220
0.0
230
1.0
 40
0.4999999935
 41
1.035432592215682
 42
1.058962547398956
  0
ELLIPSE
  5
BE
330
75
100
AcDbEntity
  8
$DDT_AUDIT_GENERATED_(9D)
  6
Continuous
 62
     7
100
AcDbEllipse
 10
42.8514524873
 20
399.8291986502
 30
0.0
 11
-8.499999999980105
 21
8.409939411535561E-12
 31
0.0
210
0.0
220
0.0
230
1.0
 40
0.5
 41
1.058962528485693
 42
1.297231961709149
  0
LINE
  5
BF
330
75
100
AcDbEntity
  8
$DDT_AUDIT_GENERATED_(9D)
  6
Continuous
 62
     7
100
AcDbLine
 10
38.5151440747
 20
396.1738454063
 30
0.0
 11
38.5151440747
 21
397.4054975491
 31
0.0
  0
LINE
  5
C0
330
75
100
AcDbEntity
  8
$DDT_AUDIT_GENERATED_(9D)
  6
Continuous
 62
     7
100
AcDbLine
 10
39.4928370152
 20
397.0205523298
 30
0.0
 11
38.5151440747
 21
396.1738454063
 31
0.0
  0
LINE
  5
C1
330
75
100
AcDbEntity
  8
$DDT_AUDIT_GENERATED_(9D)
  6
Continuous
 62
     7
100
AcDbLine
 10
39.6632693944
 20
396.9681510998
 30
0.0
 11
38.6883491555
 21
396.1238454063
 31
0.0
  0
ELLIPSE
  5
C2
330
75
100
AcDbEntity
  8
$DDT_AUDIT_GENERATED_(9D)
  6
Continuous
 62
     7
100
AcDbEllipse
 10
42.8514521536
 20
399.8291984834
 30
0.0
 11
-8.499999646043648
 21
1.573249308606250E-7
 31
0.0
210
0.0
220
0.0
230
0.9999999999999999
 40
0.5
 41
0.7736332089193052
 42
0.7971631641486964
  0
ELLIPSE
  5
C3
330
75
100
AcDbEntity
  8
$DDT_AUDIT_GENERATED_(9D)
  6
Continuous
 62
     7
100
AcDbEllipse
 10
42.8514524873
 20
399.8291986502
 30
0.0
 11
-8.499999999999062
 21
3.469446951953614E-13
 31
0.0
210
0.0
220
0.0
230
1.0
 40
0.5
 41
0.7971631406855842
 42
1.035432573908571
  0
LINE
  5
C4
330
75
100
AcDbEntity
  8
$DDT_AUDIT_GENERATED_(9D)
  6
Continuous
 62
     7
100
AcDbLine
 10
36.7707501286
 20
396.859558149
 30
0.0
 11
36.7707501286
 21
398.0161160515
 31
0.0
  0
LINE
  5
C5
330
75
100
AcDbEntity
  8
$DDT_AUDIT_GENERATED_(9D)
  6
Continuous
 62
     7
100
AcDbLine
 10
38.194855559
 20
397.5716108642
 30
0.0
 11
36.7707501286
 21
396.859558149
 31
0.0
  0
LINE
  5
C6
330
75
100
AcDbEntity
  8
$DDT_AUDIT_GENERATED_(9D)
  6
Continuous
 62
     7
100
AcDbLine
 10
38.3307293788
 20
397.4981264178
 30
0.0
 11
36.9121714849
 21
396.7888474709
 31
0.0
  0
ELLIPSE
  5
C7
330
75
100
AcDbEntity
  8
$DDT_AUDIT_GENERATED_(9D)
  6
Continuous
 62
     7
100
AcDbEllipse
 10
42.8514520793
 20
399.8291985324
 30
0.0
 11
-8.499999587736472
 21
1.360114382231714E-7
 31
0.0
210
0.0
220
0.0
230
1.0
 40
0.5000000069
 41
0.5118338179866968
 42
0.5353637732149767
  0
ELLIPSE
  5
C8
330
75
100
AcDbEntity
  8
$DDT_AUDIT_GENERATED_(9D)
  6
Continuous
 62
     7
100
AcDbEllipse
 10
42.8514524873
 20
399.8291986502
 30
0.0
 11
-8.499999999998638
 21
8.326672684688674E-14
 31
0.0
210
0.0
220
0.0
230
1.0
 40
0.5
 41
0.5353637528864237
 42
0.7736331861094187
  0
LINE
  5
C9
330
75
100
AcDbEntity
  8
$DDT_AUDIT_GENERATED_(9D)
  6
Continuous
 62
     7
100
AcDbLine
 10
35.4407459995
 20
397.7476469843
 30
0.0
 11
35.4407459995
 21
398.7845884318
 31
0.0
  0
LINE
  5
CA
330
75
100
AcDbEntity
  8
$DDT_AUDIT_GENERATED_(9D)
  6
Continuous
 62
     7
100
AcDbLine
 10
37.2498902133
 20
398.2699019337
 30
0.0
 11
35.4407459995
 21
397.7476469843
 31
0.0
  0
LINE
  5
CB
330
75
100
AcDbEntity
  8
$DDT_AUDIT_GENERATED_(9D)
  6
Continuous
 62
     7
100
AcDbLine
 10
37.3415657047
 20
398.1808963147
 30
0.0
 11
35.5407459995
 21
397.6610444439
 31
0.0
  0
ELLIPSE
  5
CC
330
75
100
AcDbEntity
  8
$DDT_AUDIT_GENERATED_(9D)
  6
Continuous
 62
     7
100
AcDbEllipse
 10
42.8514520976
 20
399.8291985979
 30
0.0
 11
-8.499999610059323
 21
6.740226432544461E-8
 31
0.0
210
0.0
220
0.0
230
1.0
 40
0.5000000103
 41
0.2500344201295966
 42
0.2735643752642455
  0
ELLIPSE
  5
CD
330
75
100
AcDbEntity
  8
$DDT_AUDIT_GENERATED_(9D)
  6
Continuous
 62
     7
100
AcDbEllipse
 10
42.8514524873
 20
399.8291986502
 30
0.0
 11
-8.500000000027676
 21
-7.660538869913580E-12
 31
0.0
210
0.0
220
0.0
230
1.0
 40
0.5
 41
0.2735643650863687
 42
0.5118337983089206
  0
LINE
  5
CE
330
75
100
AcDbEntity
  8
$DDT_AUDIT_GENERATED_(9D)
  6
Continuous
 62
     7
100
AcDbLine
 10
34.6157692707
 20
398.7775901257
 30
0.0
 11
34.6157692707
 21
399.7791986502
 31
0.0
  0
LINE
  5
CF
330
75
100
AcDbEntity
  8
$DDT_AUDIT_GENERATED_(9D)
  6
Continuous
 62
     7
100
AcDbLine
 10
36.7165450591
 20
399.0590407137
 30
0.0
 11
34.6157692707
 21
398.7775901257
 31
0.0
  0
LINE
  5
D0
330
75
100
AcDbEntity
  8
$DDT_AUDIT_GENERATED_(9D)
  6
Continuous
 62
     7
100
AcDbLine
 10
36.757950118
 20
398.9610603217
 30
0.0
 11
34.6675330797
 21
398.6809975431
 31
0.0
  0
ARC
  5
D1
330
75
100
AcDbEntity
  8
$DDT_AUDIT_GENERATED_(9D)
  6
Continuous
 62
     7
100
AcDbCircle
 10
36.476893679
 20
399.8291986502
 30
0.0
 40
2.125441130683849
100
AcDbArc
 50
178.6520194651
 51
181.3479805349
  0
ELLIPSE
  5
D2
330
75
100
AcDbEntity
  8
$DDT_AUDIT_GENERATED_(9D)
  6
Continuous
 62
     7
100
AcDbEllipse
 10
42.8514524873
 20
399.8291986502
 30
0.0
 11
-8.500000000026541
 21
-2.955968803064479E-12
 31
0.0
210
0.0
220
0.0
230
1.0
 40
0.5
 41
0.0117649772879327
 42
0.2500344105104965
  0
ARC
  5
D3
330
75
100
AcDbEntity
  8
$DDT_AUDIT_GENERATED_(9D)
  6
Continuous
 62
     7
100
AcDbCircle
 10
38.1645525257
 20
399.8291986502
 30
0.0
 40
1.563099884844298
100
AcDbArc
 50
178.1669260056
 51
180.0
  0
LINE
  5
D4
330
75
100
AcDbEntity
  8
$DDT_AUDIT_GENERATED_(9D)
  6
Continuous
 62
     7
100
AcDbLine
 10
36.6022525385
 20
399.8791986502
 30
0.0
 11
36.6022525385
 21
400.614668881
 31
0.0
  0
LINE
  5
D5
330
75
100
AcDbEntity
  8
$DDT_AUDIT_GENERATED_(9D)
  6
Continuous
 62
     7
100
AcDbLine
 10
36.6022525385
 20
399.8791986502
 30
0.0
 11
34.3520407429
 21
399.8791986502
 31
0.0
  0
LINE
  5
D6
330
75
100
AcDbEntity
  8
$DDT_AUDIT_GENERATED_(9D)
  6
Continuous
 62
     7
100
AcDbLine
 10
36.6014524873
 20
399.7791986502
 30
0.0
 11
34.3520407429
 21
399.7791986502
 31
0.0
  0
ELLIPSE
  5
D7
330
75
100
AcDbEntity
  8
$DDT_AUDIT_GENERATED_(9D)
  6
Continuous
 62
     7
100
AcDbEllipse
 10
42.8514520319
 20
399.8291987112
 30
0.0
 11
-8.499999544294877
 21
-7.855084638297427E-8
 31
0.0
210
0.0
220
0.0
230
1.0
 40
0.500000012
 41
-0.2735643769684017
 42
-0.2500344217396453
  0
ELLIPSE
  5
D8
330
75
100
AcDbEntity
  8
$DDT_AUDIT_GENERATED_(9D)
  6
Continuous
 62
     7
100
AcDbEllipse
 10
42.8514524873
 20
399.8291986502
 30
0.0
 11
-8.500000000027459
 21
2.359223927328458E-12
 31
0.0
210
0.0
220
0.0
230
1.0
 40
0.5
 41
6.033150896669068
 42
6.271420329891692
  0
ELLIPSE
  5
D9
330
75
100
AcDbEntity
  8
$DDT_AUDIT_GENERATED_(9D)
  6
Continuous
 62
     7
100
AcDbEllipse
 10
42.8514525432
 20
399.8291986427
 30
0.0
 11
-6.250000055891139
 21
9.656692112613996E-9
 31
0.0
210
0.0
220
0.0
230
1.0
 40
0.499999998
 41
-0.2778000685412305
 42
-0.2457987031986146
  0
LINE
  5
DA
330
75
100
AcDbEntity
  8
$DDT_AUDIT_GENERATED_(9D)
  6
Continuous
 62
     7
100
AcDbLine
 10
36.8410707676
 20
400.6862009232
 30
0.0
 11
36.8410707676
 21
401.5065113752
 31
0.0
  0
LINE
  5
DB
330
75
100
AcDbEntity
  8
$DDT_AUDIT_GENERATED_(9D)
  6
Continuous
 62
     7
100
AcDbLine
 10
36.8410707676
 20
400.6862009232
 30
0.0
 11
34.6675330797
 21
400.9773997573
 31
0.0
  0
LINE
  5
DC
330
75
100
AcDbEntity
  8
$DDT_AUDIT_GENERATED_(9D)
  6
Continuous
 62
     7
100
AcDbLine
 10
36.7893069586
 20
400.5896083406
 30
0.0
 11
34.6157692707
 21
400.8808071747
 31
0.0
  0
ELLIPSE
  5
DD
330
75
100
AcDbEntity
  8
$DDT_AUDIT_GENERATED_(9D)
  6
Continuous
 62
     7
100
AcDbEllipse
 10
42.8514520791
 20
399.829198768
 30
0.0
 11
-8.49999958760252
 21
-1.360540152761658E-7
 31
0.0
210
0.0
220
0.0
230
1.0
 40
0.5000000069
 41
-0.535363773221551
 42
-0.5118338179930211
  0
ELLIPSE
  5
DE
330
75
100
AcDbEntity
  8
$DDT_AUDIT_GENERATED_(9D)
  6
Continuous
 62
     7
100
AcDbEllipse
 10
42.8514524873
 20
399.8291986502
 30
0.0
 11
-8.500000000027889
 21
7.160938508832260E-12
 31
0.0
210
0.0
220
0.0
230
1.0
 40
0.5
 41
5.771351508870637
 42
6.009620942093179
  0
ELLIPSE
  5
DF
330
75
100
AcDbEntity
  8
$DDT_AUDIT_GENERATED_(9D)
  6
Continuous
 62
     7
100
AcDbEllipse
 10
42.8514525148
 20
399.8291986422
 30
0.0
 11
-6.250000027802199
 21
9.206219120372339E-9
 31
0.0
210
0.0
220
0.0
230
1.0
 40
0.4999999994
 41
-0.5395994564654254
 42
-0.5075980910561189
  0
LINE
  5
E0
330
75
100
AcDbEntity
  8
$DDT_AUDIT_GENERATED_(9D)
  6
Continuous
 62
     7
100
AcDbLine
 10
37.4894865783
 20
401.4347999076
 30
0.0
 11
37.4894865783
 21
402.4394709266
 31
0.0
  0
LINE
  5
E1
330
75
100
AcDbEntity
  8
$DDT_AUDIT_GENERATED_(9D)
  6
Continuous
 62
     7
100
AcDbLine
 10
37.4894865783
 20
401.4347999076
 30
0.0
 11
35.5407459995
 21
401.9973528565
 31
0.0
  0
LINE
  5
E2
330
75
100
AcDbEntity
  8
$DDT_AUDIT_GENERATED_(9D)
  6
Continuous
 62
     7
100
AcDbLine
 10
37.3894865783
 20
401.3481973672
 30
0.0
 11
35.4407459995
 21
401.9107503161
 31
0.0
  0
ELLIPSE
  5
E3
330
75
100
AcDbEntity
  8
$DDT_AUDIT_GENERATED_(9D)
  6
Continuous
 62
     7
100
AcDbEllipse
 10
42.8514524873
 20
399.8291986502
 30
0.0
 11
-8.500000000024981
 21
1.039446306805303E-11
 31
0.0
210
0.0
220
0.0
230
1.0
 40
0.5
 41
-0.5989378890727179
 42
-0.5353637528851216
  0
ELLIPSE
  5
E4
330
75
100
AcDbEntity
  8
$DDT_AUDIT_GENERATED_(9D)
  6
Continuous
 62
     7
100
AcDbEllipse
 10
42.8514524529
 20
399.8291986674
 30
0.0
 11
-6.249999963528196
 21
-1.620070744223767E-8
 31
0.0
210
0.0
220
0.0
230
1.0
 40
0.5
 41
-0.8013988494464543
 42
-0.7693974838313071
  0
LINE
  5
E5
330
75
100
AcDbEntity
  8
$DDT_AUDIT_GENERATED_(9D)
  6
Continuous
 62
     7
100
AcDbLine
 10
38.5033115046
 20
402.0739798197
 30
0.0
 11
38.5033115046
 21
403.4237405751
 31
0.0
  0
LINE
  5
E6
330
75
100
AcDbEntity
  8
$DDT_AUDIT_GENERATED_(9D)
  6
Continuous
 62
     7
100
AcDbLine
 10
38.5033115046
 20
402.0739798197
 30
0.0
 11
36.9483766972
 21
402.8514472233
 31
0.0
  0
LINE
  5
E7
330
75
100
AcDbEntity
  8
$DDT_AUDIT_GENERATED_(9D)
  6
Continuous
 62
     7
100
AcDbLine
 10
38.3618901484
 20
402.0032691415
 30
0.0
 11
36.8029717723
 21
402.7827283296
 31
0.0
  0
ELLIPSE
  5
E8
330
75
100
AcDbEntity
  8
$DDT_AUDIT_GENERATED_(9D)
  6
Continuous
 62
     7
100
AcDbEllipse
 10
42.8514525163
 20
399.8291986251
 30
0.0
 11
-6.250000036280699
 21
1.677347150064179E-8
 31
0.0
210
0.0
220
0.0
230
1.0
 40
0.5000000012
 41
-1.063198230513509
 42
-1.031196865171467
  0
LINE
  5
E9
330
75
100
AcDbEntity
  8
$DDT_AUDIT_GENERATED_(9D)
  6
Continuous
 62
     7
100
AcDbLine
 10
39.8134550533
 20
402.5601816047
 30
0.0
 11
39.8134550533
 21
403.7321612424
 31
0.0
  0
LINE
  5
EA
330
75
100
AcDbEntity
  8
$DDT_AUDIT_GENERATED_(9D)
  6
Continuous
 62
     7
100
AcDbLine
 10
39.8134550533
 20
402.5601816047
 30
0.0
 11
38.7402004135
 21
403.4896473875
 31
0.0
  0
LINE
  5
EB
330
75
100
AcDbEntity
  8
$DDT_AUDIT_GENERATED_(9D)
  6
Continuous
 62
     7
100
AcDbLine
 10
39.6402499725
 20
402.5101816047
 30
0.0
 11
38.5650039434
 21
403.4413719812
 31
0.0
  0
ELLIPSE
  5
EC
330
75
100
AcDbEntity
  8
$DDT_AUDIT_GENERATED_(9D)
  6
Continuous
 62
     7
100
AcDbEllipse
 10
42.8514525022
 20
399.8291986224
 30
0.0
 11
-6.25000003063401
 21
9.596851091586700E-9
 31
0.0
210
0.0
220
0.0
230
1.0
 40
0.500000002
 41
-1.324997619750572
 42
-1.292996254406898
  0
LINE
  5
ED
330
75
100
AcDbEntity
  8
$DDT_AUDIT_GENERATED_(9D)
  6
Continuous
 62
     7
100
AcDbLine
 10
41.3306331065
 20
402.8602714146
 30
0.0
 11
41.3306331065
 21
403.9390155286
 31
0.0
  0
LINE
  5
EE
330
75
100
AcDbEntity
  8
$DDT_AUDIT_GENERATED_(9D)
  6
Continuous
 62
     7
100
AcDbLine
 10
41.3306331065
 20
402.8602714146
 30
0.0
 11
40.7834570227
 21
403.8813158873
 31
0.0
  0
LINE
  5
EF
330
75
100
AcDbEntity
  8
$DDT_AUDIT_GENERATED_(9D)
  6
Continuous
 62
     7
100
AcDbLine
 10
41.1374479413
 20
402.83438951
 30
0.0
 11
40.5897383437
 21
403.8564295329
 31
0.0
  0
ARC
  5
F0
330
75
100
AcDbEntity
  8
$DDT_AUDIT_GENERATED_(9D)
  6
Continuous
 62
     7
100
AcDbCircle
 10
42.8514524873
 20
390.455398727
 30
0.0
 40
12.49879994239108
100
AcDbArc
 50
89.5415848636
 51
90.4584151364
  0
LINE
  5
F1
330
75
100
AcDbEntity
  8
$DDT_AUDIT_GENERATED_(9D)
  6
Continuous
 62
     7
100
AcDbLine
 10
42.9514524873
 20
402.9537986246
 30
0.0
 11
42.9514524873
 21
404.0057062036
 31
0.0
  0
LINE
  5
F2
330
75
100
AcDbEntity
  8
$DDT_AUDIT_GENERATED_(9D)
  6
Continuous
 62
     7
100
AcDbLine
 10
42.7514524873
 20
402.9537986246
 30
0.0
 11
42.7514524873
 21
404.0057062036
 31
0.0
  0
ELLIPSE
  5
F3
330
75
100
AcDbEntity
  8
$DDT_AUDIT_GENERATED_(9D)
  6
Continuous
 62
     7
100
AcDbEllipse
 10
42.8514524724
 20
399.8291986225
 30
0.0
 11
6.250000030678086
 21
9.574618875518581E-9
 31
0.0
210
0.0
220
0.0
230
1.0
 40
0.500000002
 41
1.292996254408441
 42
1.324997619751851
  0
LINE
  5
F4
330
75
100
AcDbEntity
  8
$DDT_AUDIT_GENERATED_(9D)
  6
Continuous
 62
     7
100
AcDbLine
 10
44.5654570333
 20
402.83438951
 30
0.0
 11
45.1131666308
 21
403.8564295329
 31
0.0
  0
LINE
  5
F5
330
75
100
AcDbEntity
  8
$DDT_AUDIT_GENERATED_(9D)
  6
Continuous
 62
     7
100
AcDbLine
 10
44.3722718681
 20
402.8602714146
 30
0.0
 11
44.9194479519
 21
403.8813158873
 31
0.0
  0
LINE
  5
F6
330
75
100
AcDbEntity
  8
$DDT_AUDIT_GENERATED_(9D)
  6
Continuous
 62
     7
100
AcDbLine
 10
44.3722718681
 20
402.8602714146
 30
0.0
 11
44.3722718681
 21
403.9390155286
 31
0.0
  0
ELLIPSE
  5
F7
330
75
100
AcDbEntity
  8
$DDT_AUDIT_GENERATED_(9D)
  6
Continuous
 62
     7
100
AcDbEllipse
 10
42.8514524587
 20
399.8291986255
 30
0.0
 11
6.25000003569108
 21
1.649849701301775E-8
 31
0.0
210
0.0
220
0.0
230
1.0
 40
0.5000000011
 41
1.031196865226346
 42
1.063198230570781
  0
LINE
  5
F8
330
75
100
AcDbEntity
  8
$DDT_AUDIT_GENERATED_(9D)
  6
Continuous
 62
     7
100
AcDbLine
 10
46.0626550021
 20
402.5101816047
 30
0.0
 11
47.1379010312
 21
403.4413719812
 31
0.0
  0
LINE
  5
F9
330
75
100
AcDbEntity
  8
$DDT_AUDIT_GENERATED_(9D)
  6
Continuous
 62
     7
100
AcDbLine
 10
45.8894499213
 20
402.5601816047
 30
0.0
 11
46.9627045611
 21
403.4896473875
 31
0.0
  0
LINE
  5
FA
330
75
100
AcDbEntity
  8
$DDT_AUDIT_GENERATED_(9D)
  6
Continuous
 62
     7
100
AcDbLine
 10
45.8894499213
 20
402.5601816047
 30
0.0
 11
45.8894499213
 21
403.7321612424
 31
0.0
  0
ELLIPSE
  5
FB
330
75
100
AcDbEntity
  8
$DDT_AUDIT_GENERATED_(9D)
  6
Continuous
 62
     7
100
AcDbEllipse
 10
42.851452437
 20
399.829198625
 30
0.0
 11
6.250000053307319
 21
2.372733953759365E-8
 31
0.0
210
0.0
220
0.0
230
1.0
 40
0.5
 41
0.7693974760047406
 42
0.8013988413133261
  0
LINE
  5
FC
330
75
100
AcDbEntity
  8
$DDT_AUDIT_GENERATED_(9D)
  6
Continuous
 62
     7
100
AcDbLine
 10
47.3410148262
 20
402.0032691415
 30
0.0
 11
48.8999332023
 21
402.7827283296
 31
0.0
  0
LINE
  5
FD
330
75
100
AcDbEntity
  8
$DDT_AUDIT_GENERATED_(9D)
  6
Continuous
 62
     7
100
AcDbLine
 10
47.19959347
 20
402.0739798197
 30
0.0
 11
48.7545282773
 21
402.8514472233
 31
0.0
  0
LINE
  5
FE
330
75
100
AcDbEntity
  8
$DDT_AUDIT_GENERATED_(9D)
  6
Continuous
 62
     7
100
AcDbLine
 10
47.19959347
 20
402.0739798197
 30
0.0
 11
47.19959347
 21
403.4237405751
 31
0.0
  0
ELLIPSE
  5
FF
330
75
100
AcDbEntity
  8
$DDT_AUDIT_GENERATED_(9D)
  6
Continuous
 62
     7
100
AcDbEllipse
 10
42.8514528961
 20
399.8291987682
 30
0.0
 11
8.499999586922419
 21
-1.362799040283136E-7
 31
0.0
210
0.0
220
0.0
230
1.0
 40
0.5000000069
 41
0.5118338180259319
 42
0.5353637732555085
  0
ELLIPSE
  5
100
330
75
100
AcDbEntity
  8
$DDT_AUDIT_GENERATED_(9D)
  6
Continuous
 62
     7
100
AcDbEllipse
 10
42.8514524873
 20
399.8291986502
 30
0.0
 11
8.50000000000392
 21
1.360023205165817E-12
 31
0.0
210
0.0
220
0.0
230
1.0
 40
0.5
 41
0.5353637528862102
 42
0.5989378890739089
  0
ELLIPSE
  5
101
330
75
100
AcDbEntity
  8
$DDT_AUDIT_GENERATED_(9D)
  6
Continuous
 62
     7
100
AcDbEllipse
 10
42.851452437
 20
399.8291986357
 30
0.0
 11
6.250000050789115
 21
1.675837246750689E-8
 31
0.0
210
0.0
220
0.0
230
1.0
 40
0.4999999988
 41
0.5075980895756725
 42
0.5395994549177014
  0
LINE
  5
102
330
75
100
AcDbEntity
  8
$DDT_AUDIT_GENERATED_(9D)
  6
Continuous
 62
     7
100
AcDbLine
 10
48.3134183963
 20
401.3481973672
 30
0.0
 11
50.2621589751
 21
401.9107503161
 31
0.0
  0
LINE
  5
103
330
75
100
AcDbEntity
  8
$DDT_AUDIT_GENERATED_(9D)
  6
Continuous
 62
     7
100
AcDbLine
 10
48.2134183963
 20
401.4347999076
 30
0.0
 11
50.1621589751
 21
401.9973528565
 31
0.0
  0
LINE
  5
104
330
75
100
AcDbEntity
  8
$DDT_AUDIT_GENERATED_(9D)
  6
Continuous
 62
     7
100
AcDbLine
 10
48.2134183963
 20
401.4347999076
 30
0.0
 11
48.2134183963
 21
402.4394709266
 31
0.0
  0
ELLIPSE
  5
105
330
75
100
AcDbEntity
  8
$DDT_AUDIT_GENERATED_(9D)
  6
Continuous
 62
     7
100
AcDbEllipse
 10
42.8514528778
 20
399.8291987026
 30
0.0
 11
8.499999609287162
 21
-6.753528292158251E-8
 31
0.0
210
0.0
220
0.0
230
1.0
 40
0.5000000103
 41
0.2500344201485039
 42
0.2735643752842613
  0
ELLIPSE
  5
106
330
75
100
AcDbEntity
  8
$DDT_AUDIT_GENERATED_(9D)
  6
Continuous
 62
     7
100
AcDbEllipse
 10
42.8514524873
 20
399.8291986502
 30
0.0
 11
8.500000000023858
 21
5.495603971894525E-12
 31
0.0
210
0.0
220
0.0
230
1.0
 40
0.5
 41
0.2735643650865594
 42
0.511833798309163
  0
ELLIPSE
  5
107
330
75
100
AcDbEntity
  8
$DDT_AUDIT_GENERATED_(9D)
  6
Continuous
 62
     7
100
AcDbEllipse
 10
42.8514524316
 20
399.8291986427
 30
0.0
 11
6.250000055710426
 21
9.625536478985453E-9
 31
0.0
210
0.0
220
0.0
230
1.0
 40
0.499999998
 41
0.2457987032045988
 42
0.2778000685476728
  0
LINE
  5
108
330
75
100
AcDbEntity
  8
$DDT_AUDIT_GENERATED_(9D)
  6
Continuous
 62
     7
100
AcDbLine
 10
48.913598016
 20
400.5896083406
 30
0.0
 11
51.0871357039
 21
400.8808071747
 31
0.0
  0
LINE
  5
109
330
75
100
AcDbEntity
  8
$DDT_AUDIT_GENERATED_(9D)
  6
Continuous
 62
     7
100
AcDbLine
 10
48.861834207
 20
400.6862009232
 30
0.0
 11
51.0353718949
 21
400.9773997573
 31
0.0
  0
LINE
  5
10A
330
75
100
AcDbEntity
  8
$DDT_AUDIT_GENERATED_(9D)
  6
Continuous
 62
     7
100
AcDbLine
 10
48.861834207
 20
400.6862009232
 30
0.0
 11
48.861834207
 21
401.5065113752
 31
0.0
  0
ARC
  5
10B
330
75
100
AcDbEntity
  8
$DDT_AUDIT_GENERATED_(9D)
  6
Continuous
 62
     7
100
AcDbCircle
 10
49.2260112956
 20
399.8291986502
 30
0.0
 40
2.125441130682283
100
AcDbArc
 50
358.6520194651
 51
1.3479805349
  0
ELLIPSE
  5
10C
330
75
100
AcDbEntity
  8
$DDT_AUDIT_GENERATED_(9D)
  6
Continuous
 62
     7
100
AcDbEllipse
 10
42.8514524873
 20
399.8291986502
 30
0.0
 11
8.500000000038389
 21
2.636779683484747E-12
 31
0.0
210
0.0
220
0.0
230
1.0
 40
0.5
 41
0.0117649772878855
 42
0.2500344105103416
  0
ARC
  5
10D
330
75
100
AcDbEntity
  8
$DDT_AUDIT_GENERATED_(9D)
  6
Continuous
 62
     7
100
AcDbCircle
 10
47.5383524489
 20
399.8291986502
 30
0.0
 40
1.563099884844286
100
AcDbArc
 50
0.0
 51
1.8330739944
  0
LINE
  5
10E
330
75
100
AcDbEntity
  8
$DDT_AUDIT_GENERATED_(9D)
  6
Continuous
 62
     7
100
AcDbLine
 10
49.1014524873
 20
399.7791986502
 30
0.0
 11
51.3508642316
 21
399.7791986502
 31
0.0
  0
LINE
  5
10F
330
75
100
AcDbEntity
  8
$DDT_AUDIT_GENERATED_(9D)
  6
Continuous
 62
     7
100
AcDbLine
 10
49.1006524361
 20
399.8791986502
 30
0.0
 11
51.3508642316
 21
399.8791986502
 31
0.0
  0
LINE
  5
110
330
75
100
AcDbEntity
  8
$DDT_AUDIT_GENERATED_(9D)
  6
Continuous
 62
     7
100
AcDbLine
 10
49.1006524361
 20
399.8791986502
 30
0.0
 11
49.1006524361
 21
400.614668881
 31
0.0
  0
ELLIPSE
  5
111
330
75
100
AcDbEntity
  8
$DDT_AUDIT_GENERATED_(9D)
  6
Continuous
 62
     7
100
AcDbEllipse
 10
42.8514528778
 20
399.829198598
 30
0.0
 11
8.49999960922348
 21
6.728853585435957E-8
 31
0.0
210
0.0
220
0.0
230
1.0
 40
0.5000000103
 41
-0.2735643752721781
 42
-0.2500344201364522
  0
ELLIPSE
  5
112
330
75
100
AcDbEntity
  8
$DDT_AUDIT_GENERATED_(9D)
  6
Continuous
 62
     7
100
AcDbEllipse
 10
42.8514524873
 20
399.8291986502
 30
0.0
 11
8.50000000003347
 21
-2.886579864025407E-12
 31
0.0
210
0.0
220
0.0
230
1.0
 40
0.5
 41
6.033150896669191
 42
6.271420329891795
  0
LINE
  5
113
330
75
100
AcDbEntity
  8
$DDT_AUDIT_GENERATED_(9D)
  6
Continuous
 62
     7
100
AcDbLine
 10
51.0871357039
 20
398.7775901257
 30
0.0
 11
51.0871357039
 21
399.7791986502
 31
0.0
  0
LINE
  5
114
330
75
100
AcDbEntity
  8
$DDT_AUDIT_GENERATED_(9D)
  6
Continuous
 62
     7
100
AcDbLine
 10
48.9449548566
 20
398.9610603217
 30
0.0
 11
51.0353718949
 21
398.6809975431
 31
0.0
  0
LINE
  5
115
330
75
100
AcDbEntity
  8
$DDT_AUDIT_GENERATED_(9D)
  6
Continuous
 62
     7
100
AcDbLine
 10
48.9863599155
 20
399.0590407137
 30
0.0
 11
51.0871357039
 21
398.7775901257
 31
0.0
  0
ELLIPSE
  5
116
330
75
100
AcDbEntity
  8
$DDT_AUDIT_GENERATED_(9D)
  6
Continuous
 62
     7
100
AcDbEllipse
 10
42.8514528371
 20
399.8291985493
 30
0.0
 11
8.499999646610743
 21
1.165316176887643E-7
 31
0.0
210
0.0
220
0.0
230
1.0
 40
0.5000000059
 41
-0.5353637703117915
 42
-0.5118338151767485
  0
ELLIPSE
  5
117
330
75
100
AcDbEntity
  8
$DDT_AUDIT_GENERATED_(9D)
  6
Continuous
 62
     7
100
AcDbEllipse
 10
42.8514524873
 20
399.8291986502
 30
0.0
 11
8.499999999990029
 21
2.525757381022231E-12
 31
0.0
210
0.0
220
0.0
230
1.0
 40
0.5
 41
5.77135150886893
 42
6.009620942092051
  0
LINE
  5
118
330
75
100
AcDbEntity
  8
$DDT_AUDIT_GENERATED_(9D)
  6
Continuous
 62
     7
100
AcDbLine
 10
50.2621589751
 20
397.7476469843
 30
0.0
 11
50.2621589751
 21
398.7845884318
 31
0.0
  0
LINE
  5
119
330
75
100
AcDbEntity
  8
$DDT_AUDIT_GENERATED_(9D)
  6
Continuous
 62
     7
100
AcDbLine
 10
48.3613392698
 20
398.1808963147
 30
0.0
 11
50.1621589751
 21
397.6610444439
 31
0.0
  0
LINE
  5
11A
330
75
100
AcDbEntity
  8
$DDT_AUDIT_GENERATED_(9D)
  6
Continuous
 62
     7
100
AcDbLine
 10
48.4530147613
 20
398.2699019337
 30
0.0
 11
50.2621589751
 21
397.7476469843
 31
0.0
  0
ELLIPSE
  5
11B
330
75
100
AcDbEntity
  8
$DDT_AUDIT_GENERATED_(9D)
  6
Continuous
 62
     7
100
AcDbEllipse
 10
42.8514528205
 20
399.8291984836
 30
0.0
 11
8.499999646571604
 21
1.570884949897433E-7
 31
0.0
210
0.0
220
0.0
230
0.9999999999999999
 40
0.5
 41
-0.7971631641131314
 42
-0.7736332088847027
  0
ELLIPSE
  5
11C
330
75
100
AcDbEntity
  8
$DDT_AUDIT_GENERATED_(9D)
  6
Continuous
 62
     7
100
AcDbEllipse
 10
42.8514524873
 20
399.8291986502
 30
0.0
 11
8.500000000006011
 21
-2.262079412673756E-12
 31
0.0
210
0.0
220
0.0
230
1.0
 40
0.5
 41
-0.7736331861089578
 42
-0.5353637528860888
  0
LINE
  5
11D
330
75
100
AcDbEntity
  8
$DDT_AUDIT_GENERATED_(9D)
  6
Continuous
 62
     7
100
AcDbLine
 10
48.9321548459
 20
396.859558149
 30
0.0
 11
48.9321548459
 21
398.0161160515
 31
0.0
  0
LINE
  5
11E
330
75
100
AcDbEntity
  8
$DDT_AUDIT_GENERATED_(9D)
  6
Continuous
 62
     7
100
AcDbLine
 10
47.3721755958
 20
397.4981264178
 30
0.0
 11
48.7907334897
 21
396.7888474709
 31
0.0
  0
LINE
  5
11F
330
75
100
AcDbEntity
  8
$DDT_AUDIT_GENERATED_(9D)
  6
Continuous
 62
     7
100
AcDbLine
 10
47.5080494155
 20
397.5716108642
 30
0.0
 11
48.9321548459
 21
396.859558149
 31
0.0
  0
ELLIPSE
  5
120
330
75
100
AcDbEntity
  8
$DDT_AUDIT_GENERATED_(9D)
  6
Continuous
 62
     7
100
AcDbEllipse
 10
42.8514527067
 20
399.8291984603
 30
0.0
 11
8.499999725844754
 21
1.266760724094596E-7
 31
0.0
210
0.0
220
0.0
230
1.0
 40
0.4999999936
 41
-1.058962547419926
 42
-1.035432592236699
  0
ELLIPSE
  5
121
330
75
100
AcDbEntity
  8
$DDT_AUDIT_GENERATED_(9D)
  6
Continuous
 62
     7
100
AcDbEllipse
 10
42.8514524873
 20
399.8291986502
 30
0.0
 11
8.500000000035675
 21
-1.702804564018834E-11
 31
0.0
210
0.0
220
0.0
230
1.0
 40
0.5
 41
-1.035432573905659
 42
-0.7971631406834225
  0
LINE
  5
122
330
75
100
AcDbEntity
  8
$DDT_AUDIT_GENERATED_(9D)
  6
Continuous
 62
     7
100
AcDbLine
 10
47.1877608998
 20
396.1738454063
 30
0.0
 11
47.1877608998
 21
397.4054975491
 31
0.0
  0
LINE
  5
123
330
75
100
AcDbEntity
  8
$DDT_AUDIT_GENERATED_(9D)
  6
Continuous
 62
     7
100
AcDbLine
 10
46.0396355802
 20
396.9681510998
 30
0.0
 11
47.0145558191
 21
396.1238454063
 31
0.0
  0
LINE
  5
124
330
75
100
AcDbEntity
  8
$DDT_AUDIT_GENERATED_(9D)
  6
Continuous
 62
     7
100
AcDbLine
 10
46.2100679594
 20
397.0205523298
 30
0.0
 11
47.1877608998
 21
396.1738454063
 31
0.0
  0
ELLIPSE
  5
125
330
75
100
AcDbEntity
  8
$DDT_AUDIT_GENERATED_(9D)
  6
Continuous
 62
     7
100
AcDbEllipse
 10
42.8514526004
 20
399.8291984393
 30
0.0
 11
8.499999767001759
 21
7.284658987138926E-8
 31
0.0
210
0.0
220
0.0
230
1.0
 40
0.4999999889
 41
-1.32076192730452
 42
-1.297231972123927
  0
ELLIPSE
  5
126
330
75
100
AcDbEntity
  8
$DDT_AUDIT_GENERATED_(9D)
  6
Continuous
 62
     7
100
AcDbEllipse
 10
42.8514524873
 20
399.8291986502
 30
0.0
 11
8.500000000008722
 21
-3.608224830031759E-12
 31
0.0
210
0.0
220
0.0
230
1.0
 40
0.5
 41
4.985953345472561
 42
5.224222778695317
  0
LINE
  5
127
330
75
100
AcDbEntity
  8
$DDT_AUDIT_GENERATED_(9D)
  6
Continuous
 62
     7
100
AcDbLine
 10
45.1478547015
 20
395.7372389464
 30
0.0
 11
45.1478547015
 21
396.7495766658
 31
0.0
  0
LINE
  5
128
330
75
100
AcDbEntity
  8
$DDT_AUDIT_GENERATED_(9D)
  6
Continuous
 62
     7
100
AcDbLine
 10
44.4590792621
 20
396.6361410833
 30
0.0
 11
44.9546695363
 21
395.7113570419
 31
0.0
  0
LINE
  5
129
330
75
100
AcDbEntity
  8
$DDT_AUDIT_GENERATED_(9D)
  6
Continuous
 62
     7
100
AcDbLine
 10
44.6515216933
 20
396.6634089485
 30
0.0
 11
45.1478547015
 21
395.7372389464
 31
0.0
  0
ARC
  5
12A
330
75
100
AcDbEntity
  8
$DDT_AUDIT_GENERATED_(9D)
  6
Continuous
 62
     7
100
AcDbCircle
 10
42.8514524873
 20
407.6998224343
 30
0.0
 40
10.49562408816837
100
AcDbArc
 50
269.0446279347
 51
270.9553720653
  0
LINE
  5
12B
330
75
100
AcDbEntity
  8
$DDT_AUDIT_GENERATED_(9D)
  6
Continuous
 62
     7
100
AcDbLine
 10
42.6764524873
 20
398.2837804847
 30
0.0
 11
42.6764524873
 21
397.2056573889
 31
0.0
  0
LINE
  5
12C
330
75
100
AcDbEntity
  8
$DDT_AUDIT_GENERATED_(9D)
  6
Continuous
 62
     7
100
AcDbLine
 10
43.0264524873
 20
398.2837804847
 30
0.0
 11
43.0264524873
 21
397.2056573889
 31
0.0
  0
ELLIPSE
  5
12D
330
75
100
AcDbEntity
  8
$DDT_AUDIT_GENERATED_(9D)
  6
Continuous
 62
     7
100
AcDbEllipse
 10
42.8514524856
 20
399.8291986487
 30
0.0
 11
-5.249999997830836
 21
1.003239158414715E-9
 31
0.0
210
0.0
220
0.0
230
1.0
 40
0.4999999999
 41
1.013858042163177
 42
1.08053706070782
  0
LINE
  5
12E
330
75
100
AcDbEntity
  8
$DDT_AUDIT_GENERATED_(9D)
  6
Continuous
 62
     7
100
AcDbLine
 10
41.1859650134
 20
398.5618441881
 30
0.0
 11
40.0763567803
 21
397.60089527
 31
0.0
  0
LINE
  5
12F
330
75
100
AcDbEntity
  8
$DDT_AUDIT_GENERATED_(9D)
  6
Continuous
 62
     7
100
AcDbLine
 10
41.4780072258
 20
398.4647601631
 30
0.0
 11
40.3794656716
 21
397.51339527
 31
0.0
  0
LINE
  5
130
330
75
100
AcDbEntity
  8
$DDT_AUDIT_GENERATED_(9D)
  6
Continuous
 62
     7
100
AcDbLine
 10
40.0763567803
 20
398.9270612264
 30
0.0
 11
40.0763567803
 21
397.60089527
 31
0.0
  0
ELLIPSE
  5
131
330
75
100
AcDbEntity
  8
$DDT_AUDIT_GENERATED_(9D)
  6
Continuous
 62
     7
100
AcDbEllipse
 10
42.8514524842
 20
399.8291986493
 30
0.0
 11
-5.249999996858801
 21
1.037836483419596E-9
 31
0.0
210
0.0
220
0.0
230
1.0
 40
0.5000000001
 41
0.4902592665726108
 42
0.5569382851180082
  0
LINE
  5
132
330
75
100
AcDbEntity
  8
$DDT_AUDIT_GENERATED_(9D)
  6
Continuous
 62
     7
100
AcDbLine
 10
40.2681783613
 20
399.1845079413
 30
0.0
 11
38.2198457269
 21
398.5932052424
 31
0.0
  0
LINE
  5
133
330
75
100
AcDbEntity
  8
$DDT_AUDIT_GENERATED_(9D)
  6
Continuous
 62
     7
100
AcDbLine
 10
40.4098441985
 20
399.0233307517
 30
0.0
 11
38.3948457269
 21
398.4416507967
 31
0.0
  0
LINE
  5
134
330
75
100
AcDbEntity
  8
$DDT_AUDIT_GENERATED_(9D)
  6
Continuous
 62
     7
100
AcDbLine
 10
38.2198457269
 20
399.7416986502
 30
0.0
 11
38.2198457269
 21
398.5932052424
 31
0.0
  0
LINE
  5
135
330
75
100
AcDbEntity
  8
$DDT_AUDIT_GENERATED_(9D)
  6
Continuous
 62
     7
100
AcDbLine
 10
40.1070263178
 20
400.520409947
 30
0.0
 11
40.1070263178
 21
399.9166986502
 31
0.0
  0
ELLIPSE
  5
136
330
75
100
AcDbEntity
  8
$DDT_AUDIT_GENERATED_(9D)
  6
Continuous
 62
     7
100
AcDbEllipse
 10
42.8514524873
 20
399.8291986502
 30
0.0
 11
2.74999999999884
 21
2.289834988289385E-12
 31
0.0
210
0.0
220
0.0
230
1.0
 40
0.5
 41
3.077913261332415
 42
3.141592653589782
  0
LINE
  5
137
330
75
100
AcDbEntity
  8
$DDT_AUDIT_GENERATED_(9D)
  6
Continuous
 62
     7
100
AcDbLine
 10
40.1070263178
 20
399.9166986502
 30
0.0
 11
37.627408896
 21
399.9166986502
 31
0.0
  0
LINE
  5
138
330
75
100
AcDbEntity
  8
$DDT_AUDIT_GENERATED_(9D)
  6
Continuous
 62
     7
100
AcDbLine
 10
40.1014524873
 20
399.7416986502
 30
0.0
 11
37.6043699646
 21
399.7416986502
 31
0.0
  0
LINE
  5
139
330
75
100
AcDbEntity
  8
$DDT_AUDIT_GENERATED_(9D)
  6
Continuous
 62
     7
100
AcDbLine
 10
40.5622097057
 20
401.6367410545
 30
0.0
 11
40.5622097057
 21
400.5910824154
 31
0.0
  0
ELLIPSE
  5
13A
330
75
100
AcDbEntity
  8
$DDT_AUDIT_GENERATED_(9D)
  6
Continuous
 62
     7
100
AcDbEllipse
 10
42.8514524873
 20
399.8291986502
 30
0.0
 11
-2.749999999991314
 21
-5.967448757360216E-13
 31
0.0
210
0.0
220
0.0
230
1.0
 40
0.5
 41
-0.5872781678562982
 42
-0.4599193833420312
  0
LINE
  5
13B
330
75
100
AcDbEntity
  8
$DDT_AUDIT_GENERATED_(9D)
  6
Continuous
 62
     7
100
AcDbLine
 10
40.5622097057
 20
400.5910824154
 30
0.0
 11
38.560966594
 21
401.16879154
 31
0.0
  0
LINE
  5
13C
330
75
100
AcDbEntity
  8
$DDT_AUDIT_GENERATED_(9D)
  6
Continuous
 62
     7
100
AcDbLine
 10
40.3872097057
 20
400.4395279698
 30
0.0
 11
38.3686080284
 21
401.0222480806
 31
0.0
  0
LINE
  5
13D
330
75
100
AcDbEntity
  8
$DDT_AUDIT_GENERATED_(9D)
  6
Continuous
 62
     7
100
AcDbLine
 10
41.6307938482
 20
402.2090550888
 30
0.0
 11
41.6307938482
 21
401.061320041
 31
0.0
  0
ELLIPSE
  5
13E
330
75
100
AcDbEntity
  8
$DDT_AUDIT_GENERATED_(9D)
  6
Continuous
 62
     7
100
AcDbEllipse
 10
42.8514524872
 20
399.8291986502
 30
0.0
 11
-2.749999999941587
 21
-2.660371922758031E-11
 31
0.0
210
0.0
220
0.0
230
1.0
 40
0.5
 41
-1.110876943466922
 42
-0.9835181589507176
  0
LINE
  5
13F
330
75
100
AcDbEntity
  8
$DDT_AUDIT_GENERATED_(9D)
  6
Continuous
 62
     7
100
AcDbLine
 10
41.6307938482
 20
401.061320041
 30
0.0
 11
40.5337869526
 21
402.0113558807
 31
0.0
  0
LINE
  5
140
330
75
100
AcDbEntity
  8
$DDT_AUDIT_GENERATED_(9D)
  6
Continuous
 62
     7
100
AcDbLine
 10
41.3276849569
 20
400.973820041
 30
0.0
 11
40.224898195
 21
401.9288613917
 31
0.0
  0
ARC
  5
141
330
75
100
AcDbEntity
  8
$DDT_AUDIT_GENERATED_(9D)
  6
Continuous
 62
     7
100
AcDbCircle
 10
42.8514524873
 20
395.7125593959
 30
0.0
 40
5.491641375762418
100
AcDbArc
 50
88.1738685209
 51
91.8261314791
  0
LINE
  5
142
330
75
100
AcDbEntity
  8
$DDT_AUDIT_GENERATED_(9D)
  6
Continuous
 62
     7
100
AcDbLine
 10
43.0264524873
 20
401.201411735
 30
0.0
 11
43.0264524873
 21
402.2795348308
 31
0.0
  0
LINE
  5
143
330
75
100
AcDbEntity
  8
$DDT_AUDIT_GENERATED_(9D)
  6
Continuous
 62
     7
100
AcDbLine
 10
42.6764524873
 20
401.201411735
 30
0.0
 11
42.6764524873
 21
402.2795348308
 31
0.0
  0
ELLIPSE
  5
144
330
75
100
AcDbEntity
  8
$DDT_AUDIT_GENERATED_(9D)
  6
Continuous
 62
     7
100
AcDbEllipse
 10
42.8514524873
 20
399.8291986502
 30
0.0
 11
2.749999999993482
 21
-2.678413046908190E-12
 31
0.0
210
0.0
220
0.0
230
1.0
 40
0.5
 41
0.983518158940836
 42
1.110876943455106
  0
LINE
  5
145
330
75
100
AcDbEntity
  8
$DDT_AUDIT_GENERATED_(9D)
  6
Continuous
 62
     7
100
AcDbLine
 10
44.0721111264
 20
402.2090550888
 30
0.0
 11
44.0721111264
 21
401.061320041
 31
0.0
  0
LINE
  5
146
330
75
100
AcDbEntity
  8
$DDT_AUDIT_GENERATED_(9D)
  6
Continuous
 62
     7
100
AcDbLine
 10
44.3752200177
 20
400.973820041
 30
0.0
 11
45.4780067795
 21
401.9288613917
 31
0.0
  0
LINE
  5
147
330
75
100
AcDbEntity
  8
$DDT_AUDIT_GENERATED_(9D)
  6
Continuous
 62
     7
100
AcDbLine
 10
44.0721111264
 20
401.061320041
 30
0.0
 11
45.169118022
 21
402.0113558807
 31
0.0
  0
ELLIPSE
  5
148
330
75
100
AcDbEntity
  8
$DDT_AUDIT_GENERATED_(9D)
  6
Continuous
 62
     7
100
AcDbEllipse
 10
42.8514524873
 20
399.8291986502
 30
0.0
 11
2.750000000012839
 21
4.385380947269368E-12
 31
0.0
210
0.0
220
0.0
230
1.0
 40
0.5
 41
0.4599193833394863
 42
0.5872781678531899
  0
LINE
  5
149
330
75
100
AcDbEntity
  8
$DDT_AUDIT_GENERATED_(9D)
  6
Continuous
 62
     7
100
AcDbLine
 10
45.1406952689
 20
401.6367410545
 30
0.0
 11
45.1406952689
 21
400.5910824154
 31
0.0
  0
LINE
  5
14A
330
75
100
AcDbEntity
  8
$DDT_AUDIT_GENERATED_(9D)
  6
Continuous
 62
     7
100
AcDbLine
 10
45.3156952689
 20
400.4395279698
 30
0.0
 11
47.3342969462
 21
401.0222480806
 31
0.0
  0
LINE
  5
14B
330
75
100
AcDbEntity
  8
$DDT_AUDIT_GENERATED_(9D)
  6
Continuous
 62
     7
100
AcDbLine
 10
45.1406952689
 20
400.5910824154
 30
0.0
 11
47.1419383806
 21
401.16879154
 31
0.0
  0
ELLIPSE
  5
14C
330
75
100
AcDbEntity
  8
$DDT_AUDIT_GENERATED_(9D)
  6
Continuous
 62
     7
100
AcDbEllipse
 10
42.8514524873
 20
399.8291986502
 30
0.0
 11
-2.750000000000099
 21
-2.275957200481571E-12
 31
0.0
210
0.0
220
0.0
230
1.0
 40
0.5
 41
3.141592653589792
 42
3.20527204584637
  0
LINE
  5
14D
330
75
100
AcDbEntity
  8
$DDT_AUDIT_GENERATED_(9D)
  6
Continuous
 62
     7
100
AcDbLine
 10
45.5958786568
 20
400.520409947
 30
0.0
 11
45.5958786568
 21
399.9166986502
 31
0.0
  0
LINE
  5
14E
330
75
100
AcDbEntity
  8
$DDT_AUDIT_GENERATED_(9D)
  6
Continuous
 62
     7
100
AcDbLine
 10
45.6014524873
 20
399.7416986502
 30
0.0
 11
48.09853501
 21
399.7416986502
 31
0.0
  0
LINE
  5
14F
330
75
100
AcDbEntity
  8
$DDT_AUDIT_GENERATED_(9D)
  6
Continuous
 62
     7
100
AcDbLine
 10
45.5958786568
 20
399.9166986502
 30
0.0
 11
48.0754960786
 21
399.9166986502
 31
0.0
  0
ELLIPSE
  5
150
330
75
100
AcDbEntity
  8
$DDT_AUDIT_GENERATED_(9D)
  6
Continuous
 62
     7
100
AcDbEllipse
 10
42.8514524893
 20
399.8291986496
 30
0.0
 11
5.24999999802076
 21
6.470796121149647E-10
 31
0.0
210
0.0
220
0.0
230
1.0
 40
0.5000000001
 41
-0.5569382850216913
 42
-0.4902592664847036
  0
LINE
  5
151
330
75
100
AcDbEntity
  8
$DDT_AUDIT_GENERATED_(9D)
  6
Continuous
 62
     7
100
AcDbLine
 10
45.2930607761
 20
399.0233307517
 30
0.0
 11
47.3080592477
 21
398.4416507967
 31
0.0
  0
LINE
  5
152
330
75
100
AcDbEntity
  8
$DDT_AUDIT_GENERATED_(9D)
  6
Continuous
 62
     7
100
AcDbLine
 10
45.4347266132
 20
399.1845079413
 30
0.0
 11
47.4830592477
 21
398.5932052424
 31
0.0
  0
LINE
  5
153
330
75
100
AcDbEntity
  8
$DDT_AUDIT_GENERATED_(9D)
  6
Continuous
 62
     7
100
AcDbLine
 10
47.4830592477
 20
399.7416986502
 30
0.0
 11
47.4830592477
 21
398.5932052424
 31
0.0
  0
ELLIPSE
  5
154
330
75
100
AcDbEntity
  8
$DDT_AUDIT_GENERATED_(9D)
  6
Continuous
 62
     7
100
AcDbEllipse
 10
42.8514524891
 20
399.8291986486
 30
0.0
 11
5.249999997705472
 21
1.060221355153601E-9
 31
0.0
210
0.0
220
0.0
230
1.0
 40
0.4999999999
 41
-1.080537060721772
 42
-1.013858042175834
  0
LINE
  5
155
330
75
100
AcDbEntity
  8
$DDT_AUDIT_GENERATED_(9D)
  6
Continuous
 62
     7
100
AcDbLine
 10
44.2248977487
 20
398.4647601631
 30
0.0
 11
45.323439303
 21
397.51339527
 31
0.0
  0
LINE
  5
156
330
75
100
AcDbEntity
  8
$DDT_AUDIT_GENERATED_(9D)
  6
Continuous
 62
     7
100
AcDbLine
 10
44.5169399612
 20
398.5618441881
 30
0.0
 11
45.6265481943
 21
397.60089527
 31
0.0
  0
LINE
  5
157
330
75
100
AcDbEntity
  8
$DDT_AUDIT_GENERATED_(9D)
  6
Continuous
 62
     7
100
AcDbLine
 10
45.6265481943
 20
398.9270612264
 30
0.0
 11
45.6265481943
 21
397.60089527
 31
0.0
  0
LINE
  5
158
330
75
100
AcDbEntity
  8
$DDT_AUDIT_GENERATED_(9D)
  6
Continuous
 62
     7
100
AcDbLine
 10
33.8514524873
 20
401.9942621597
 30
0.0
 11
33.8514524873
 21
399.6559935694
 31
0.0
  0
LINE
  5
159
330
75
100
AcDbEntity
  8
$DDT_AUDIT_GENERATED_(9D)
  6
Continuous
 62
     7
100
AcDbLine
 10
51.8514524873
 20
399.6559935694
 30
0.0
 11
51.8514524873
 21
401.9942621597
 31
0.0
  0
LINE
  5
15A
330
75
100
AcDbEntity
  8
$DDT_AUDIT_GENERATED_(9D)
  6
Continuous
 62
     7
100
AcDbLine
 10
36.6014524873
 20
399.8291986502
 30
0.0
 11
36.6014524873
 21
399.6559935694
 31
0.0
  0
LINE
  5
15B
330
75
100
AcDbEntity
  8
$DDT_AUDIT_GENERATED_(9D)
  6
Continuous
 62
     7
100
AcDbLine
 10
49.1014524873
 20
399.6559935694
 30
0.0
 11
49.1014524873
 21
399.8291986502
 31
0.0
  0
LINE
  5
15C
330
75
100
AcDbEntity
  8
$DDT_AUDIT_GENERATED_(9D)
  6
Continuous
 62
     7
100
AcDbLine
 10
40.1014524873
 20
399.8291986502
 30
0.0
 11
40.1014524873
 21
399.6559935694
 31
0.0
  0
LINE
  5
15D
330
75
100
AcDbEntity
  8
$DDT_AUDIT_GENERATED_(9D)
  6
Continuous
 62
     7
100
AcDbLine
 10
45.6014524873
 20
399.6559935694
 30
0.0
 11
45.6014524873
 21
399.8291986502
 31
0.0
  0
LINE
  5
15E
330
75
100
AcDbEntity
  8
$DDT_AUDIT_GENERATED_(9D)
  6
Continuous
 62
     7
100
AcDbLine
 10
42.3318225434
 20
400.049031706
 30
0.0
 11
42.3318225434
 21
399.8291986502
 31
0.0
  0
LINE
  5
15F
330
75
100
AcDbEntity
  8
$DDT_AUDIT_GENERATED_(9D)
  6
Continuous
 62
     7
100
AcDbLine
 10
43.3710824312
 20
399.8291986502
 30
0.0
 11
43.3710824312
 21
400.049031706
 31
0.0
  0
ENDBLK
  5
161
330
75
100
AcDbEntity
  8
0
100
AcDbBlockEnd
  0
BLOCK
  5
186
330
162
100
AcDbEntity
  8
0
100
AcDbBlockBegin
  2
SE1
 70
     0
 10
0.0
 20
0.0
 30
0.0
  3
SE1
  1

  0
LINE
  5
164
330
162
100
AcDbEntity
  8
02.25.50XX_VM_GE
  6
Continuous
 62
     7
100
AcDbLine
 10
203.1336378008
 20
325.2696233782
 30
0.0
 11
142.0524111902
 21
325.2696233782
 31
0.0
  0
LINE
  5
165
330
162
100
AcDbEntity
  8
02.25.50XX_VM_GE
  6
Continuous
 62
     7
100
AcDbLine
 10
261.7864605931
 20
394.6860990275
 30
0.0
 11
299.5448296339
 21
416.4859035573
 31
0.0
  0
LINE
  5
166
330
162
100
AcDbEntity
  8
02.25.50XX_VM_GE
  6
Continuous
 62
     7
100
AcDbLine
 10
181.9347530126
 20
474.1150243053
 30
0.0
 11
142.0524111902
 21
325.2696233782
 31
0.0
  0
LINE
  5
167
330
162
100
AcDbEntity
  8
02.25.50XX_VM_GE
  6
Continuous
 62
     7
100
AcDbLine
 10
233.0778577119
 20
437.0248316845
 30
0.0
 11
238.9244402399
 21
458.8449375428
 31
0.0
  0
LINE
  5
168
330
162
100
AcDbEntity
  8
02.25.50XX_VM_GE
  6
Continuous
 62
     7
100
AcDbLine
 10
203.1336378008
 20
325.2696233782
 30
0.0
 11
219.6815778843
 21
387.0284034218
 31
0.0
  0
LINE
  5
169
330
162
100
AcDbEntity
  8
02.25.50XX_VM_GE
  6
Continuous
 62
     7
100
AcDbLine
 10
297.2341011966
 20
425.0695861183
 30
0.0
 11
242.2471747809
 21
425.0695861183
 31
0.0
  0
LINE
  5
16A
330
162
100
AcDbEntity
  8
02.25.50XX_VM_GE
  6
Continuous
 62
     7
100
AcDbLine
 10
228.8578834548
 20
394.069660638
 30
0.0
 11
259.5314252498
 21
394.069660638
 31
0.0
  0
ARC
  5
16B
330
162
100
AcDbEntity
  8
02.25.50XX_VM_GE
  6
Continuous
 62
     7
100
AcDbCircle
 10
228.8347028663
 20
384.5929447917
 30
0.0
 40
9.467682257335916
100
AcDbArc
 50
89.8547500104
 51
165.0748818567
  0
ARC
  5
16C
330
162
100
AcDbEntity
  8
02.25.50XX_VM_GE
  6
Continuous
 62
     7
100
AcDbCircle
 10
242.2466947157
 20
434.5631741279
 30
0.0
 40
9.489413282165131
100
AcDbArc
 50
164.9974606089
 51
269.9928438126
  0
ARC
  5
16D
330
162
100
AcDbEntity
  8
02.25.50XX_VM_GE
  6
Continuous
 62
     7
100
AcDbCircle
 10
259.4862627802
 20
398.6696541137
 30
0.0
 40
4.599958808554454
100
AcDbArc
 50
270.5565752157
 51
300.0014528757
  0
ARC
  5
16E
330
162
100
AcDbEntity
  8
02.25.50XX_VM_GE
  6
Continuous
 62
     7
100
AcDbCircle
 10
297.2447070185
 20
420.4695443328
 30
0.0
 40
4.599995361478193
100
AcDbArc
 50
299.9989987376
 51
90.1267018769
  0
LINE
  5
16F
330
162
100
AcDbEntity
  8
0008200U_DECKEL_
  6
Continuous
 62
     7
100
AcDbLine
 10
245.685928555
 20
457.0332323337
 30
0.0
 11
175.1732646975
 21
475.9267295144
 31
0.0
  0
ARC
  5
170
330
162
100
AcDbEntity
  8
0008200U_DECKEL_
  6
Continuous
 62
     7
100
AcDbCircle
 10
196.0522540283
 20
411.63292067
 30
0.0
 40
70.0
100
AcDbArc
 50
75.2521616017
 51
106.0272460616
  0
ARC
  5
171
330
162
100
AcDbEntity
  8
0008200U_DECKEL_
  6
Continuous
 62
     7
100
AcDbCircle
 10
195.4576650871
 20
411.7922376475
 30
0.0
 40
70.00000000000001
100
AcDbArc
 50
43.9732302806
 51
74.7483147405
  0
LINE
  5
172
330
162
100
AcDbEntity
  8
0008200U_DECKEL_
  6
Continuous
 62
     7
100
AcDbLine
 10
245.685928555
 20
457.0332323337
 30
0.0
 11
246.2035586148
 21
458.965086138
 31
0.0
  0
LINE
  5
173
330
162
100
AcDbEntity
  8
0008200U_DECKEL_
  6
Continuous
 62
     7
100
AcDbLine
 10
175.6908947573
 20
477.8585833187
 30
0.0
 11
175.1732646975
 21
475.9267295144
 31
0.0
  0
ARC
  5
174
330
162
100
AcDbEntity
  8
0008200U_DECKEL_
  6
Continuous
 62
     7
100
AcDbCircle
 10
244.7546682615
 20
459.3533086828
 30
0.0
 40
1.500000000000003
100
AcDbArc
 50
345.0002381711
 51
43.9732302806
  0
ARC
  5
175
330
162
100
AcDbEntity
  8
0008200U_DECKEL_
  6
Continuous
 62
     7
100
AcDbCircle
 10
177.1397851105
 20
477.4703607739
 30
0.0
 40
1.499999999999999
100
AcDbArc
 50
106.0272460616
 51
165.0002381711
  0
LINE
  5
176
330
162
100
AcDbEntity
  8
02636038_GEHÄUSE
  6
Continuous
 62
     7
100
AcDbLine
 10
276.5462807026
 20
394.627403731
 30
0.0
 11
295.165826884
 21
405.377403731
 31
0.0
  0
LINE
  5
177
330
162
100
AcDbEntity
  8
02636038_GEHÄUSE
  6
Continuous
 62
     7
100
AcDbLine
 10
295.2235619109
 20
405.777403731
 30
0.0
 11
295.3101644506
 21
405.6274037321
 31
0.0
  0
LINE
  5
178
330
162
100
AcDbEntity
  8
02636038_GEHÄUSE
  6
Continuous
 62
     7
100
AcDbLine
 10
293.8823332349
 20
408.1004799423
 30
0.0
 11
294.575153558
 21
408.5004799423
 31
0.0
  0
LINE
  5
179
330
162
100
AcDbEntity
  8
02636038_GEHÄUSE
  6
Continuous
 62
     7
100
AcDbLine
 10
295.2235619109
 20
405.777403731
 30
0.0
 11
294.790549209
 21
406.527403731
 31
0.0
  0
LINE
  5
17A
330
162
100
AcDbEntity
  8
02636038_GEHÄUSE
  6
Continuous
 62
     7
100
AcDbLine
 10
294.790549209
 20
406.527403731
 30
0.0
 11
293.8823332349
 21
408.1004799423
 31
0.0
  0
LINE
  5
17B
330
162
100
AcDbEntity
  8
02636038_GEHÄUSE
  6
Continuous
 62
     7
100
AcDbLine
 10
276.1710030276
 20
394.777403731
 30
0.0
 11
276.2576055674
 21
394.6274037321
 31
0.0
  0
LINE
  5
17C
330
162
100
AcDbEntity
  8
02636038_GEHÄUSE
  6
Continuous
 62
     7
100
AcDbLine
 10
274.8297743517
 20
397.1004799423
 30
0.0
 11
274.1369540286
 21
396.7004799423
 31
0.0
  0
LINE
  5
17D
330
162
100
AcDbEntity
  8
02636038_GEHÄUSE
  6
Continuous
 62
     7
100
AcDbLine
 10
274.8297743517
 20
397.1004799423
 30
0.0
 11
275.7379903258
 21
395.527403731
 31
0.0
  0
LINE
  5
17E
330
162
100
AcDbEntity
  8
02636038_GEHÄUSE
  6
Continuous
 62
     7
100
AcDbLine
 10
275.7379903258
 20
395.527403731
 30
0.0
 11
276.1710030276
 21
394.777403731
 31
0.0
  0
LINE
  5
17F
330
162
100
AcDbEntity
  8
02636038_GEHÄUSE
  6
Continuous
 62
     7
100
AcDbLine
 10
276.257605568
 20
394.627403731
 30
0.0
 11
276.5462807026
 21
394.627403731
 31
0.0
  0
LINE
  5
180
330
162
100
AcDbEntity
  8
02636038_GEHÄUSE
  6
Continuous
 62
     7
100
AcDbLine
 10
295.165826884
 20
405.377403731
 30
0.0
 11
295.3101644513
 21
405.627403731
 31
0.0
  0
LINE
  5
181
330
162
100
AcDbEntity
  8
02636038_GEHÄUSE
  6
Continuous
 62
     7
100
AcDbLine
 10
271.9215831923
 20
400.5376147884
 30
0.0
 11
274.1369540286
 21
396.7004799423
 31
0.0
  0
LINE
  5
182
330
162
100
AcDbEntity
  8
02636038_GEHÄUSE
  6
Continuous
 62
     7
100
AcDbLine
 10
294.575153558
 20
408.5004799423
 30
0.0
 11
292.3597827217
 21
412.3376147884
 31
0.0
  0
LINE
  5
183
330
162
100
AcDbEntity
  8
$DDT_AUDIT_GENERATED_(9D)
  6
Continuous
 62
     7
100
AcDbLine
 10
278.2618251592
 20
395.1559935694
 30
0.0
 11
293.8502824274
 21
404.1559935694
 31
0.0
  0
LINE
  5
184
330
162
100
AcDbEntity
  8
$DDT_AUDIT_GENERATED_(9D)
  6
Continuous
 62
     7
100
AcDbLine
 10
278.0618251592
 20
395.502403731
 30
0.0
 11
278.2618251592
 21
395.1559935694
 31
0.0
  0
LINE
  5
185
330
162
100
AcDbEntity
  8
$DDT_AUDIT_GENERATED_(9D)
  6
Continuous
 62
     7
100
AcDbLine
 10
293.8502824274
 20
404.1559935694
 30
0.0
 11
293.6502824274
 21
404.502403731
 31
0.0
  0
ENDBLK
  5
187
330
162
100
AcDbEntity
  8
0
100
AcDbBlockEnd
  0
BLOCK
  5
197
330
188
100
AcDbEntity
  8
0
100
AcDbBlockBegin
  2
SE2
 70
     0
 10
0.0
 20
0.0
 30
0.0
  3
SE2
  1

  0
ELLIPSE
  5
18A
330
188
100
AcDbEntity
  8
02.25.50XX_VM_GE
  6
Continuous
 62
     7
100
AcDbEllipse
 10
42.8514524873
 20
235.6001341747
 30
0.0
 11
0.0
 21
-30.54061330531465
 31
0.0
210
0.0
220
0.0
230
1.0
 40
0.9659269022
 41
1.570796326794897
 42
4.71238898038469
  0
LINE
  5
18B
330
188
100
AcDbEntity
  8
02.25.50XX_VM_GE
  6
Continuous
 62
     7
100
AcDbLine
 10
72.3514524873
 20
218.5253738267
 30
0.0
 11
72.3514524873
 21
235.6001341747
 31
0.0
  0
LINE
  5
18C
330
188
100
AcDbEntity
  8
02.25.50XX_VM_GE
  6
Continuous
 62
     7
100
AcDbLine
 10
13.3514524873
 20
235.6001341747
 30
0.0
 11
13.3514524873
 21
218.5253738267
 31
0.0
  0
LINE
  5
18D
330
188
100
AcDbEntity
  8
02.25.50XX_VM_GE
  6
Continuous
 62
     7
100
AcDbLine
 10
22.2808808196
 20
168.0866002497
 30
0.0
 11
22.2808808196
 21
129.827915436
 31
0.0
  0
LINE
  5
18E
330
188
100
AcDbEntity
  8
02.25.50XX_VM_GE
  6
Continuous
 62
     7
100
AcDbLine
 10
63.422024155
 20
129.8275679335
 30
0.0
 11
63.422024155
 21
168.0834392977
 31
0.0
  0
SPLINE
  5
18F
330
188
100
AcDbEntity
  8
02.25.50XX_VM_GE
  6
Continuous
 62
     7
100
AcDbSpline
210
0.0
220
0.0
230
1.0
 70
     8
 71
     3
 72
    74
 73
    70
 74
     0
 42
0.0000000001445277
 43
0.0000000001
 40
0.0
 40
0.0
 40
0.0
 40
0.0
 40
0.0097863132195186
 40
0.027475731087092
 40
0.0452106629271249
 40
0.0629819212564308
 40
0.080912131557569
 40
0.098725349832477
 40
0.11638964590341
 40
0.1338819945898411
 40
0.1511858213977681
 40
0.1682907364088733
 40
0.1851921065158497
 40
0.2018905172112314
 40
0.218391178409384
 40
0.234703318841659
 40
0.2508396027604392
 40
0.2668155924234126
 40
0.2826492708992189
 40
0.296762623636147
 40
0.311843365218162
 40
0.3267284472003082
 40
0.3413547007694626
 40
0.3557239655698705
 40
0.3698466443171881
 40
0.3837392558980462
 40
0.3974228699432809
 40
0.4109218800988249
 40
0.4230074856876755
 40
0.4358334568094849
 40
0.4486250333700766
 40
0.4614659496051072
 40
0.474339815402245
 40
0.4872268296760576
 40
0.5001081185338778
 40
0.51296817331813
 40
0.5257929888498872
 40
0.5385705278837662
 40
0.5512910643926308
 40
0.5637533728709754
 40
0.5762042054628697
 40
0.5889545114686803
 40
0.6018984919446473
 40
0.615049111302756
 40
0.6284123856484428
 40
0.6419878554277003
 40
0.6557672790620033
 40
0.6697333524196125
 40
0.6838585544501724
 40
0.6979436925071225
 40
0.7121179571510792
 40
0.726967622571742
 40
0.7420506307646081
 40
0.7573863750781699
 40
0.7729832892015023
 40
0.7888438671185956
 40
0.8049632357557908
 40
0.8213054811540869
 40
0.8379792277802424
 40
0.8549985241546932
 40
0.8721126469148027
 40
0.8893216174286833
 40
0.906622321211986
 40
0.9240095855425304
 40
0.9414762343664191
 40
0.959013203882783
 40
0.9766097179023205
 40
0.9942535232451919
 40
1.0
 40
1.0
 40
1.0
 40
1.0
 10
22.28497083943439
 20
129.8363608107084
 30
0.0
 10
22.28389604989702
 20
129.5992425580711
 30
0.0
 10
22.28243193671778
 20
129.0340019918762
 30
0.0
 10
22.33639024573714
 20
128.0145021906038
 30
0.0
 10
22.44348705697734
 20
126.8546669155063
 30
0.0
 10
22.605382819355
 20
125.685574988356
 30
0.0
 10
22.81902336359222
 20
124.5236856398291
 30
0.0
 10
23.08500517781783
 20
123.3719286815259
 30
0.0
 10
23.40096291357857
 20
122.2401310683003
 30
0.0
 10
23.7656258091386
 20
121.131443010342
 30
0.0
 10
24.17753705541089
 20
120.0488124095649
 30
0.0
 10
24.63519671241271
 20
118.9947070916708
 30
0.0
 10
25.13707613880028
 20
117.9712357316325
 30
0.0
 10
25.68166178997779
 20
116.9801596752283
 30
0.0
 10
26.26747657037723
 20
116.0229440472394
 30
0.0
 10
26.8931172944901
 20
115.1007854615989
 30
0.0
 10
27.55720979755214
 20
114.2147008905755
 30
0.0
 10
28.25863723392634
 20
113.3653914684722
 30
0.0
 10
28.97095559603121
 20
112.5812052279686
 30
0.0
 10
29.70756081103056
 20
111.8401239170587
 30
0.0
 10
30.46601780248458
 20
111.1459186347492
 30
0.0
 10
31.27079755006526
 20
110.4788285120641
 30
0.0
 10
32.09852804140605
 20
109.859448728355
 30
0.0
 10
32.9454531446733
 20
109.2895963169928
 30
0.0
 10
33.80924983144528
 20
108.7698520720218
 30
0.0
 10
34.68789741784944
 20
108.3004976045571
 30
0.0
 10
35.57968522993097
 20
107.8815983717003
 30
0.0
 10
36.45499818178892
 20
107.5245657043016
 30
0.0
 10
37.33046948907686
 20
107.2172559219855
 30
0.0
 10
38.20678503932951
 20
106.9597890240197
 30
0.0
 10
39.11508485355191
 20
106.7434408457322
 30
0.0
 10
40.03623963427034
 20
106.5736927501362
 30
0.0
 10
40.96855951531271
 20
106.4510201492331
 30
0.0
 10
41.90787585041707
 20
106.3762662217518
 30
0.0
 10
42.84994935853427
 20
106.35
 30
0.0
 10
43.7906249475118
 20
106.3725283318167
 30
0.0
 10
44.72587724995776
 20
106.4439246540117
 30
0.0
 10
45.65178619676447
 20
106.5639946226076
 30
0.0
 10
46.56000078591158
 20
106.7316067863494
 30
0.0
 10
47.44838491953661
 20
106.9452359365345
 30
0.0
 10
48.3234129855683
 20
107.2029827989415
 30
0.0
 10
49.1930216035969
 20
107.5071777909699
 30
0.0
 10
50.05932449799898
 20
107.8593506356908
 30
0.0
 10
50.91760134266507
 20
108.25841935362
 30
0.0
 10
51.76556506210405
 20
108.7040986288415
 30
0.0
 10
52.60049694408601
 20
109.1958512324252
 30
0.0
 10
53.41926893125093
 20
109.7328715717055
 30
0.0
 10
54.21818308403404
 20
110.3137456501545
 30
0.0
 10
54.99049812270066
 20
110.9349157750324
 30
0.0
 10
55.73131314246763
 20
111.5916343349388
 30
0.0
 10
56.45059641655826
 20
112.2897338402994
 30
0.0
 10
57.14963847492433
 20
113.0333803536094
 30
0.0
 10
57.82792724639164
 20
113.8249251275872
 30
0.0
 10
58.47687229763168
 20
114.6561122308007
 30
0.0
 10
59.09499427803826
 20
115.5262097662565
 30
0.0
 10
59.68047770532188
 20
116.4339718599336
 30
0.0
 10
60.23112839163383
 20
117.3776793133352
 30
0.0
 10
60.7456792542755
 20
118.3562710882117
 30
0.0
 10
61.22418359118174
 20
119.371355251448
 30
0.0
 10
61.66228857485059
 20
120.4193848700872
 30
0.0
 10
62.05593579072034
 20
121.494080034604
 30
0.0
 10
62.40194446247968
 20
122.5884485075538
 30
0.0
 10
62.69934314721859
 20
123.7004445768027
 30
0.0
 10
62.94730854693032
 20
124.8281901001773
 30
0.0
 10
63.14470388441531
 20
125.96837465401
 30
0.0
 10
63.29197107026384
 20
127.1223605237424
 30
0.0
 10
63.38411101375384
 20
128.2733082563169
 30
0.0
 10
63.42515164154644
 20
129.2017482183493
 30
0.0
 10
63.41901584386386
 20
129.6855628869006
 30
0.0
 10
63.41708818439687
 20
129.8247892376967
 30
0.0
  0
ELLIPSE
  5
190
330
188
100
AcDbEntity
  8
0008200U_DECKEL_
  6
Continuous
 62
     7
100
AcDbEllipse
 10
42.8514524873
 20
197.7635620439
 30
0.0
 11
-36.50000000000004
 21
-8.396061623727746E-13
 31
0.0
210
0.0
220
0.0
230
1.0
 40
0.9659269022
 41
3.141592653589793
 42
6.283185307179586
  0
ELLIPSE
  5
191
330
188
100
AcDbEntity
  8
0008200U_DECKEL_
  6
Continuous
 62
     7
100
AcDbEllipse
 10
42.8514524873
 20
197.2459319842
 30
0.0
 11
-36.50000000000004
 21
-8.396061623727746E-13
 31
0.0
210
0.0
220
0.0
230
1.0
 40
0.9659269022
 41
6.148746440608572
 42
6.283185307179586
  0
ELLIPSE
  5
192
330
188
100
AcDbEntity
  8
0008200U_DECKEL_
  6
Continuous
 62
     7
100
AcDbEllipse
 10
42.8514524873
 20
197.2459319842
 30
0.0
 11
-36.50000000000004
 21
-8.396061623727746E-13
 31
0.0
210
0.0
220
0.0
230
1.0
 40
0.9659269022
 41
3.005846209305385
 42
3.285219052352119
  0
ELLIPSE
  5
193
330
188
100
AcDbEntity
  8
0008200U_DECKEL_
  6
Continuous
 62
     7
100
AcDbEllipse
 10
42.8514524873
 20
197.2459319842
 30
0.0
 11
-36.50000000000004
 21
-8.396061623727746E-13
 31
0.0
210
0.0
220
0.0
230
1.0
 40
0.9659269022
 41
0.0000000000000004
 42
0.1459623578455734
  0
LINE
  5
194
330
188
100
AcDbEntity
  8
0008200U_DECKEL_
  6
Continuous
 62
     7
100
AcDbLine
 10
6.3514524873
 20
197.7635620439
 30
0.0
 11
6.3514524873
 21
197.2459319842
 31
0.0
  0
LINE
  5
195
330
188
100
AcDbEntity
  8
0008200U_DECKEL_
  6
Continuous
 62
     7
100
AcDbLine
 10
79.3514524873
 20
197.2459319842
 30
0.0
 11
79.3514524873
 21
197.7635620439
 31
0.0
  0
ARC
  5
196
330
188
100
AcDbEntity
  8
0008200U_DECKEL_
  6
Continuous
 62
     7
100
AcDbCircle
 10
42.847186153
 20
198.7255219492
 30
0.0
 40
36.70262686575137
100
AcDbArc
 50
190.3938804902
 51
350.1727015759
  0
ENDBLK
  5
198
330
188
100
AcDbEntity
  8
0
100
AcDbBlockEnd
  0
ENDSEC
  0
SECTION
  2
ENTITIES
  0
INSERT
  5
5F
330
1F
100
AcDbEntity
  8
Default
100
AcDbBlockReference
  2
SEANNOT_GROUP
 10
0.0
 20
0.0
 30
0.0
  0
INSERT
  5
66
330
1F
100
AcDbEntity
  8
Default
100
AcDbBlockReference
  2
SEANNOT_GROUP1
 10
0.0
 20
0.0
 30
0.0
  0
INSERT
  5
6C
330
1F
100
AcDbEntity
  8
Default
100
AcDbBlockReference
  2
SEANNOT_GROUP2
 10
0.0
 20
0.0
 30
0.0
  0
INSERT
  5
76
330
1F
100
AcDbEntity
  8
Default
100
AcDbBlockReference
  2
SE
 10
0.0
 20
0.0
 30
0.0
  0
INSERT
  5
163
330
1F
100
AcDbEntity
  8
Default
100
AcDbBlockReference
  2
SE1
 10
0.0
 20
0.0
 30
0.0
  0
INSERT
  5
189
330
1F
100
AcDbEntity
  8
Default
100
AcDbBlockReference
  2
SE2
 10
0.0
 20
0.0
 30
0.0
  0
TEXT
  5
19A
330
1F
100
AcDbEntity
  8
Default
  6
Continuous
 62
     7
100
AcDbText
 10
5.9362635081
 20
53.4225120485
 30
0.0
 40
10.0
  1
Grohe AG^J
  7
SEACAD_seiso_ttf
 11
5.9362635081
 21
63.4225120485
 31
0.0
100
AcDbText
 73
     3
  0
TEXT
  5
19B
330
1F
100
AcDbEntity
  8
Default
  6
Continuous
 62
     7
100
AcDbText
 10
5.9362635081
 20
37.0588756849
 30
0.0
 40
10.0
  1
 
  7
SEACAD_seiso_ttf
 11
5.9362635081
 21
47.0588756849
 31
0.0
100
AcDbText
 73
     3
  0
TEXT
  5
19C
330
1F
100
AcDbEntity
  8
Default
  6
Continuous
 62
     7
100
AcDbText
 10
5.9362635081
 20
20.6952393213
 30
0.0
 40
10.0
  1
ecn: 
  7
SEACAD_seiso_ttf
 11
5.9362635081
 21
30.6952393213
 31
0.0
100
AcDbText
 73
     3
  0
TEXT
  5
19D
330
1F
100
AcDbEntity
  8
Default
  6
Continuous
 62
     7
100
AcDbText
 10
5.9362635081
 20
4.3316029576
 30
0.0
 40
10.0
  1
unit: mm
  7
SEACAD_seiso_ttf
 11
5.9362635081
 21
14.3316029576
 31
0.0
100
AcDbText
 73
     3
  0
LINE
  5
19E
330
1F
100
AcDbEntity
  8
Default
  6
Continuous
 62
     7
100
AcDbLine
 10
0.0
 20
0.0
 30
0.0
 11
100.0
 21
0.0
 31
0.0
  0
LINE
  5
19F
330
1F
100
AcDbEntity
  8
Default
  6
Continuous
 62
     7
100
AcDbLine
 10
0.0
 20
0.0
 30
0.0
 11
0.0
 21
100.0
 31
0.0
  0
TEXT
  5
1A0
330
1F
100
AcDbEntity
  8
Default
  6
Continuous
 62
     7
100
AcDbText
 10
24.3923665681
 20
-18.2375342018
 30
0.0
 40
10.0
  1
100 mm
  7
SEACAD_seiso_ttf
 11
24.3923665681
 21
-8.2375342018
 31
0.0
100
AcDbText
 73
     3
  0
TEXT
  5
1A1
330
1F
100
AcDbEntity
  8
Default
  6
Continuous
 62
     7
100
AcDbText
 10
-7.6150308803
 20
24.6231930421
 30
0.0
 40
10.0
  1
100 mm
 50
90.0
  7
SEACAD_seiso_ttf
 11
-17.6150308803
 21
24.6231930421
 31
0.0
100
AcDbText
 73
     3
  0
TEXT
  5
1A2
330
1F
100
AcDbEntity
  8
Default
  6
Continuous
 62
     7
100
AcDbText
 10
28.4878128572
 20
20.0907663715
 30
0.0
 40
10.0
  1
211243
  7
SEACAD_seiso_ttf
 11
28.4878128572
 21
30.0907663715
 31
0.0
100
AcDbText
 73
     3
  0
TEXT
  5
1A3
330
1F
100
AcDbEntity
  8
Default
  6
Continuous
 62
     7
100
AcDbText
 10
5.9012241913
 20
36.7242780188
 30
0.0
 40
10.0
  1
36109000
  7
SEACAD_seiso_ttf
 11
5.9012241913
 21
46.7242780188
 31
0.0
100
AcDbText
 73
     3
  0
ENDSEC
  0
SECTION
  2
OBJECTS
  0
DICTIONARY
  5
C
330
0
100
AcDbDictionary
281
     1
  3
ACAD_GROUP
350
D
  3
ACAD_LAYOUT
350
1A
  3
ACAD_MLEADERSTYLE
350
1A7
  3
ACAD_MLINESTYLE
350
17
  3
ACAD_PLOTSETTINGS
350
19
  3
ACAD_PLOTSTYLENAME
350
E
  3
ACAD_SCALELIST
350
3B
  3
ACAD_TABLESTYLE
350
1A6
  3
ACAD_VISUALSTYLE
350
2A
  3
AcDbVariableDictionary
350
1A4
  0
DICTIONARY
  5
D
102
{ACAD_REACTORS
330
C
102
}
330
C
100
AcDbDictionary
281
     1
  0
DICTIONARY
  5
1A
102
{ACAD_REACTORS
330
C
102
}
330
C
100
AcDbDictionary
281
     1
  3
Layout1
350
1E
  3
Model
350
22
  0
DICTIONARY
  5
1A7
102
{ACAD_REACTORS
330
C
102
}
330
C
100
AcDbDictionary
281
     1
  0
DICTIONARY
  5
17
102
{ACAD_REACTORS
330
C
102
}
330
C
100
AcDbDictionary
281
     1
  3
Standard
350
18
  0
DICTIONARY
  5
19
102
{ACAD_REACTORS
330
C
102
}
330
C
100
AcDbDictionary
281
     1
  0
ACDBDICTIONARYWDFLT
  5
E
102
{ACAD_REACTORS
330
C
102
}
330
C
100
AcDbDictionary
281
     1
  3
Normal
350
F
100
AcDbDictionaryWithDefault
340
F
  0
DICTIONARY
  5
3B
102
{ACAD_REACTORS
330
C
102
}
330
C
100
AcDbDictionary
281
     1
  3
A0
350
3C
  3
A1
350
3D
  3
A2
350
3E
  3
A3
350
3F
  3
A4
350
40
  3
A5
350
41
  3
A6
350
42
  3
A7
350
43
  3
A8
350
44
  3
A9
350
45
  3
B0
350
46
  3
B1
350
47
  3
B2
350
48
  3
B3
350
49
  3
B4
350
4A
  3
B5
350
4B
  3
B6
350
4C
  3
B7
350
4D
  3
B8
350
4E
  3
B9
350
4F
  3
C0
350
50
  3
C1
350
51
  3
C2
350
52
  3
C3
350
53
  3
C4
350
54
  3
C5
350
55
  3
C6
350
56
  3
C7
350
57
  3
C8
350
58
  3
C9
350
59
  3
D0
350
5A
  3
D1
350
5B
  3
D2
350
5C
  0
DICTIONARY
  5
1A6
102
{ACAD_REACTORS
330
C
102
}
330
C
100
AcDbDictionary
281
     1
  0
DICTIONARY
  5
2A
102
{ACAD_REACTORS
330
C
102
}
330
C
100
AcDbDictionary
281
     1
  3
2dWireframe
350
2F
  3
3D Hidden
350
31
  3
3dWireframe
350
30
  3
Basic
350
32
  3
Brighten
350
36
  3
ColorChange
350
3A
  3
Conceptual
350
34
  3
Dim
350
35
  3
Facepattern
350
39
  3
Flat
350
2B
  3
FlatWithEdges
350
2C
  3
Gouraud
350
2D
  3
GouraudWithEdges
350
2E
  3
Linepattern
350
38
  3
Realistic
350
33
  3
Thicken
350
37
  0
DICTIONARY
  5
1A4
102
{ACAD_REACTORS
330
C
102
}
330
C
100
AcDbDictionary
281
     1
  3
CANNOSCALE
350
1A5
  3
PSOLHEIGHT
350
1A9
  3
PSOLWIDTH
350
1A8
  0
LAYOUT
  5
1E
102
{ACAD_REACTORS
330
1A
102
}
330
1A
100
AcDbPlotSettings
  1

  2
none_device
  4

  6

 40
0.0
 41
0.0
 42
0.0
 43
0.0
 44
0.0
 45
0.0
 46
0.0
 47
0.0
 48
0.0
 49
0.0
140
0.0
141
0.0
142
1.0
143
1.0
 70
   688
 72
     0
 73
     0
 74
     5
  7

 75
    16
147
1.0
148
0.0
149
0.0
100
AcDbLayout
  1
Layout1
 70
     1
 71
     1
 10
0.0
 20
0.0
 11
1682.0
 21
2378.0
 12
0.0
 22
0.0
 32
0.0
 14
0.0
 24
0.0
 34
0.0
 15
1682.0
 25
2378.0
 35
0.0
146
0.0
 13
0.0
 23
0.0
 33
0.0
 16
1.0
 26
0.0
 36
0.0
 17
0.0
 27
1.0
 37
0.0
 76
     0
330
1B
  0
LAYOUT
  5
22
102
{ACAD_REACTORS
330
1A
102
}
330
1A
100
AcDbPlotSettings
  1

  2
none_device
  4

  6

 40
0.0
 41
0.0
 42
0.0
 43
0.0
 44
0.0
 45
0.0
 46
0.0
 47
0.0
 48
0.0
 49
0.0
140
0.0
141
0.0
142
1.0
143
1.0
 70
  1712
 72
     0
 73
     0
 74
     0
  7

 75
     0
147
1.0
148
0.0
149
0.0
100
AcDbLayout
  1
Model
 70
     1
 71
     0
 10
0.0
 20
0.0
 11
1682.0
 21
2378.0
 12
0.0
 22
0.0
 32
0.0
 14
0.0
 24
0.0
 34
0.0
 15
1682.0
 25
2378.0
 35
0.0
146
0.0
 13
0.0
 23
0.0
 33
0.0
 16
1.0
 26
0.0
 36
0.0
 17
0.0
 27
1.0
 37
0.0
 76
     0
330
1F
331
29
  0
MLINESTYLE
  5
18
102
{ACAD_REACTORS
330
17
102
}
330
17
100
AcDbMlineStyle
  2
Standard
 70
     0
  3

 62
   256
 51
90.0
 52
90.0
 71
     2
 49
0.5
 62
   256
  6
BYLAYER
 49
-0.5
 62
   256
  6
BYLAYER
  0
ACDBPLACEHOLDER
  5
F
102
{ACAD_REACTORS
330
E
102
}
330
E
  0
SCALE
  5
3C
102
{ACAD_REACTORS
330
3B
102
}
330
3B
100
AcDbScale
 70
     0
300
1:1
140
1.0
141
1.0
290
     1
  0
SCALE
  5
3D
102
{ACAD_REACTORS
330
3B
102
}
330
3B
100
AcDbScale
 70
     0
300
1:2
140
1.0
141
2.0
290
     0
  0
SCALE
  5
3E
102
{ACAD_REACTORS
330
3B
102
}
330
3B
100
AcDbScale
 70
     0
300
1:4
140
1.0
141
4.0
290
     0
  0
SCALE
  5
3F
102
{ACAD_REACTORS
330
3B
102
}
330
3B
100
AcDbScale
 70
     0
300
1:5
140
1.0
141
5.0
290
     0
  0
SCALE
  5
40
102
{ACAD_REACTORS
330
3B
102
}
330
3B
100
AcDbScale
 70
     0
300
1:8
140
1.0
141
8.0
290
     0
  0
SCALE
  5
41
102
{ACAD_REACTORS
330
3B
102
}
330
3B
100
AcDbScale
 70
     0
300
1:10
140
1.0
141
10.0
290
     0
  0
SCALE
  5
42
102
{ACAD_REACTORS
330
3B
102
}
330
3B
100
AcDbScale
 70
     0
300
1:16
140
1.0
141
16.0
290
     0
  0
SCALE
  5
43
102
{ACAD_REACTORS
330
3B
102
}
330
3B
100
AcDbScale
 70
     0
300
1:20
140
1.0
141
20.0
290
     0
  0
SCALE
  5
44
102
{ACAD_REACTORS
330
3B
102
}
330
3B
100
AcDbScale
 70
     0
300
1:30
140
1.0
141
30.0
290
     0
  0
SCALE
  5
45
102
{ACAD_REACTORS
330
3B
102
}
330
3B
100
AcDbScale
 70
     0
300
1:40
140
1.0
141
40.0
290
     0
  0
SCALE
  5
46
102
{ACAD_REACTORS
330
3B
102
}
330
3B
100
AcDbScale
 70
     0
300
1:50
140
1.0
141
50.0
290
     0
  0
SCALE
  5
47
102
{ACAD_REACTORS
330
3B
102
}
330
3B
100
AcDbScale
 70
     0
300
1:100
140
1.0
141
100.0
290
     0
  0
SCALE
  5
48
102
{ACAD_REACTORS
330
3B
102
}
330
3B
100
AcDbScale
 70
     0
300
2:1
140
2.0
141
1.0
290
     0
  0
SCALE
  5
49
102
{ACAD_REACTORS
330
3B
102
}
330
3B
100
AcDbScale
 70
     0
300
4:1
140
4.0
141
1.0
290
     0
  0
SCALE
  5
4A
102
{ACAD_REACTORS
330
3B
102
}
330
3B
100
AcDbScale
 70
     0
300
8:1
140
8.0
141
1.0
290
     0
  0
SCALE
  5
4B
102
{ACAD_REACTORS
330
3B
102
}
330
3B
100
AcDbScale
 70
     0
300
10:1
140
10.0
141
1.0
290
     0
  0
SCALE
  5
4C
102
{ACAD_REACTORS
330
3B
102
}
330
3B
100
AcDbScale
 70
     0
300
100:1
140
100.0
141
1.0
290
     0
  0
SCALE
  5
4D
102
{ACAD_REACTORS
330
3B
102
}
330
3B
100
AcDbScale
 70
     0
300
1/128" = 1'-0"
140
0.0078125
141
12.0
290
     0
  0
SCALE
  5
4E
102
{ACAD_REACTORS
330
3B
102
}
330
3B
100
AcDbScale
 70
     0
300
1/64" = 1'-0"
140
0.015625
141
12.0
290
     0
  0
SCALE
  5
4F
102
{ACAD_REACTORS
330
3B
102
}
330
3B
100
AcDbScale
 70
     0
300
1/32" = 1'-0"
140
0.03125
141
12.0
290
     0
  0
SCALE
  5
50
102
{ACAD_REACTORS
330
3B
102
}
330
3B
100
AcDbScale
 70
     0
300
1/16" = 1'-0"
140
0.0625
141
12.0
290
     0
  0
SCALE
  5
51
102
{ACAD_REACTORS
330
3B
102
}
330
3B
100
AcDbScale
 70
     0
300
3/32" = 1'-0"
140
0.09375
141
12.0
290
     0
  0
SCALE
  5
52
102
{ACAD_REACTORS
330
3B
102
}
330
3B
100
AcDbScale
 70
     0
300
1/8" = 1'-0"
140
0.125
141
12.0
290
     0
  0
SCALE
  5
53
102
{ACAD_REACTORS
330
3B
102
}
330
3B
100
AcDbScale
 70
     0
300
3/16" = 1'-0"
140
0.1875
141
12.0
290
     0
  0
SCALE
  5
54
102
{ACAD_REACTORS
330
3B
102
}
330
3B
100
AcDbScale
 70
     0
300
1/4" = 1'-0"
140
0.25
141
12.0
290
     0
  0
SCALE
  5
55
102
{ACAD_REACTORS
330
3B
102
}
330
3B
100
AcDbScale
 70
     0
300
3/8" = 1'-0"
140
0.375
141
12.0
290
     0
  0
SCALE
  5
56
102
{ACAD_REACTORS
330
3B
102
}
330
3B
100
AcDbScale
 70
     0
300
1/2" = 1'-0"
140
0.5
141
12.0
290
     0
  0
SCALE
  5
57
102
{ACAD_REACTORS
330
3B
102
}
330
3B
100
AcDbScale
 70
     0
300
3/4" = 1'-0"
140
0.75
141
12.0
290
     0
  0
SCALE
  5
58
102
{ACAD_REACTORS
330
3B
102
}
330
3B
100
AcDbScale
 70
     0
300
1" = 1'-0"
140
1.0
141
12.0
290
     0
  0
SCALE
  5
59
102
{ACAD_REACTORS
330
3B
102
}
330
3B
100
AcDbScale
 70
     0
300
1-1/2" = 1'-0"
140
1.5
141
12.0
290
     0
  0
SCALE
  5
5A
102
{ACAD_REACTORS
330
3B
102
}
330
3B
100
AcDbScale
 70
     0
300
3" = 1'-0"
140
3.0
141
12.0
290
     0
  0
SCALE
  5
5B
102
{ACAD_REACTORS
330
3B
102
}
330
3B
100
AcDbScale
 70
     0
300
6" = 1'-0"
140
6.0
141
12.0
290
     0
  0
SCALE
  5
5C
102
{ACAD_REACTORS
330
3B
102
}
330
3B
100
AcDbScale
 70
     0
300
1'-0" = 1'-0"
140
12.0
141
12.0
290
     0
  0
VISUALSTYLE
  5
2F
102
{ACAD_REACTORS
330
2A
102
}
330
2A
100
AcDbVisualStyle
  2
2dWireframe
 70
     4
 71
     0
 72
     2
 73
     0
 90
        0
 40
-0.6
 41
-30.0
 62
     5
 63
     7
 74
     1
 91
        4
 64
     7
 65
   257
 75
     1
175
     1
 42
1.0
 92
        0
 66
   257
 43
1.0
 76
     1
 77
     6
 78
     2
 67
     7
 79
     5
170
     0
171
     0
290
     0
174
     0
 93
        1
 44
0.0
173
     0
291
     0
 45
0.0
1001
ACAD
1000
AcDbSavedByObjectVersion
1070
     0
  0
VISUALSTYLE
  5
31
102
{ACAD_REACTORS
330
2A
102
}
330
2A
100
AcDbVisualStyle
  2
3D Hidden
 70
     6
 71
     1
 72
     2
 73
     2
 90
        0
 40
-0.6
 41
-30.0
 62
     5
 63
     7
 74
     2
 91
        2
 64
     7
 65
   257
 75
     2
175
     1
 42
40.0
 92
        0
 66
   257
 43
1.0
 76
     1
 77
     6
 78
     2
 67
     7
 79
     3
170
     0
171
     0
290
     0
174
     0
 93
        1
 44
0.0
173
     0
291
     0
 45
0.0
1001
ACAD
1000
AcDbSavedByObjectVersion
1070
     0
  0
VISUALSTYLE
  5
30
102
{ACAD_REACTORS
330
2A
102
}
330
2A
100
AcDbVisualStyle
  2
3dWireframe
 70
     5
 71
     0
 72
     2
 73
     0
 90
        0
 40
-0.6
 41
-30.0
 62
     5
 63
     7
 74
     1
 91
        4
 64
     7
 65
   257
 75
     1
175
     1
 42
1.0
 92
        0
 66
   257
 43
1.0
 76
     1
 77
     6
 78
     2
 67
     7
 79
     5
170
     0
171
     0
290
     0
174
     0
 93
        1
 44
0.0
173
     0
291
     0
 45
0.0
1001
ACAD
1000
AcDbSavedByObjectVersion
1070
     0
  0
VISUALSTYLE
  5
32
102
{ACAD_REACTORS
330
2A
102
}
330
2A
100
AcDbVisualStyle
  2
Basic
 70
     7
 71
     1
 72
     0
 73
     1
 90
        0
 40
-0.6
 41
-30.0
 62
     5
 63
     7
 74
     0
 91
        4
 64
     7
 65
   257
 75
     1
175
     1
 42
1.0
 92
        8
 66
     7
 43
1.0
 76
     1
 77
     6
 78
     2
 67
     7
 79
     5
170
     0
171
     0
290
     0
174
     0
 93
        1
 44
0.0
173
     0
291
     1
 45
0.0
1001
ACAD
1000
AcDbSavedByObjectVersion
1070
     0
  0
VISUALSTYLE
  5
36
102
{ACAD_REACTORS
330
2A
102
}
330
2A
100
AcDbVisualStyle
  2
Brighten
 70
    12
 71
     2
 72
     2
 73
     0
 90
        0
 40
-0.6
 41
-30.0
 62
     5
 63
     7
 74
     1
 91
        4
 64
     7
 65
   257
 75
     1
175
     1
 42
1.0
 92
        8
 66
     7
 43
1.0
 76
     1
 77
     6
 78
     2
 67
     7
 79
     5
170
     0
171
     0
290
     0
174
     0
 93
        1
 44
50.0
173
     0
291
     1
 45
0.0
1001
ACAD
1000
AcDbSavedByObjectVersion
1070
     0
  0
VISUALSTYLE
  5
3A
102
{ACAD_REACTORS
330
2A
102
}
330
2A
100
AcDbVisualStyle
  2
ColorChange
 70
    16
 71
     2
 72
     2
 73
     3
 90
        0
 40
-0.6
 41
-30.0
 62
     5
 63
     8
 74
     1
 91
        4
 64
     7
 65
   257
 75
     1
175
     1
 42
1.0
 92
        8
 66
     8
 43
1.0
 76
     1
 77
     6
 78
     2
 67
     7
 79
     5
170
     0
171
     0
290
     0
174
     0
 93
        1
 44
0.0
173
     0
291
     1
 45
0.0
1001
ACAD
1000
AcDbSavedByObjectVersion
1070
     0
  0
VISUALSTYLE
  5
34
102
{ACAD_REACTORS
330
2A
102
}
330
2A
100
AcDbVisualStyle
  2
Conceptual
 70
     9
 71
     3
 72
     2
 73
     0
 90
        0
 40
-0.6
 41
-30.0
 62
     5
 63
     7
 74
     2
 91
        2
 64
     7
 65
   257
 75
     1
175
     1
 42
40.0
 92
        8
 66
     7
 43
1.0
 76
     1
 77
     6
 78
     2
 67
     7
 79
     3
170
     0
171
     0
290
     0
174
     0
 93
        1
 44
0.0
173
     0
291
     0
 45
0.0
1001
ACAD
1000
AcDbSavedByObjectVersion
1070
     0
  0
VISUALSTYLE
  5
35
102
{ACAD_REACTORS
330
2A
102
}
330
2A
100
AcDbVisualStyle
  2
Dim
 70
    11
 71
     2
 72
     2
 73
     0
 90
        0
 40
-0.6
 41
-30.0
 62
     5
 63
     7
 74
     1
 91
        4
 64
     7
 65
   257
 75
     1
175
     1
 42
1.0
 92
        8
 66
     7
 43
1.0
 76
     1
 77
     6
 78
     2
 67
     7
 79
     5
170
     0
171
     0
290
     0
174
     0
 93
        1
 44
-50.0
173
     0
291
     1
 45
0.0
1001
ACAD
1000
AcDbSavedByObjectVersion
1070
     0
  0
VISUALSTYLE
  5
39
102
{ACAD_REACTORS
330
2A
102
}
330
2A
100
AcDbVisualStyle
  2
Facepattern
 70
    15
 71
     2
 72
     2
 73
     0
 90
        0
 40
-0.6
 41
-30.0
 62
     5
 63
     7
 74
     1
 91
        4
 64
     7
 65
   257
 75
     1
175
     1
 42
1.0
 92
        8
 66
     7
 43
1.0
 76
     1
 77
     6
 78
     2
 67
     7
 79
     5
170
     0
171
     0
290
     0
174
     0
 93
        1
 44
0.0
173
     0
291
     1
 45
0.0
1001
ACAD
1000
AcDbSavedByObjectVersion
1070
     0
  0
VISUALSTYLE
  5
2B
102
{ACAD_REACTORS
330
2A
102
}
330
2A
100
AcDbVisualStyle
  2
Flat
 70
     0
 71
     2
 72
     1
 73
     1
 90
        2
 40
-0.6
 41
30.0
 62
     5
 63
     7
 74
     0
 91
        4
 64
     7
 65
   257
 75
     1
175
     1
 42
1.0
 92
        8
 66
     7
 43
1.0
 76
     1
 77
     6
 78
     2
 67
     7
 79
     5
170
     0
171
     0
290
     0
174
     0
 93
       13
 44
0.0
173
     0
291
     1
 45
0.0
1001
ACAD
1000
AcDbSavedByObjectVersion
1070
     0
  0
VISUALSTYLE
  5
2C
102
{ACAD_REACTORS
330
2A
102
}
330
2A
100
AcDbVisualStyle
  2
FlatWithEdges
 70
     1
 71
     2
 72
     1
 73
     1
 90
        2
 40
-0.6
 41
30.0
 62
     5
 63
     7
 74
     1
 91
        4
 64
     7
 65
   257
 75
     1
175
     1
 42
1.0
 92
        0
 66
   257
 43
1.0
 76
     1
 77
     6
 78
     2
 67
     7
 79
     5
170
     0
171
     0
290
     0
174
     0
 93
       13
 44
0.0
173
     0
291
     1
 45
0.0
1001
ACAD
1000
AcDbSavedByObjectVersion
1070
     0
  0
VISUALSTYLE
  5
2D
102
{ACAD_REACTORS
330
2A
102
}
330
2A
100
AcDbVisualStyle
  2
Gouraud
 70
     2
 71
     2
 72
     2
 73
     1
 90
        2
 40
-0.6
 41
30.0
 62
     5
 63
     7
 74
     0
 91
        4
 64
     7
 65
   257
 75
     1
175
     1
 42
1.0
 92
        0
 66
     7
 43
1.0
 76
     1
 77
     6
 78
     2
 67
     7
 79
     5
170
     0
171
     0
290
     0
174
     0
 93
       13
 44
0.0
173
     0
291
     1
 45
0.0
1001
ACAD
1000
AcDbSavedByObjectVersion
1070
     0
  0
VISUALSTYLE
  5
2E
102
{ACAD_REACTORS
330
2A
102
}
330
2A
100
AcDbVisualStyle
  2
GouraudWithEdges
 70
     3
 71
     2
 72
     2
 73
     1
 90
        2
 40
-0.6
 41
30.0
 62
     5
 63
     7
 74
     1
 91
        4
 64
     7
 65
   257
 75
     1
175
     1
 42
1.0
 92
        0
 66
   257
 43
1.0
 76
     1
 77
     6
 78
     2
 67
     7
 79
     5
170
     0
171
     0
290
     0
174
     0
 93
       13
 44
0.0
173
     0
291
     1
 45
0.0
1001
ACAD
1000
AcDbSavedByObjectVersion
1070
     0
  0
VISUALSTYLE
  5
38
102
{ACAD_REACTORS
330
2A
102
}
330
2A
100
AcDbVisualStyle
  2
Linepattern
 70
    14
 71
     2
 72
     2
 73
     0
 90
        0
 40
-0.6
 41
-30.0
 62
     5
 63
     7
 74
     1
 91
        4
 64
     7
 65
   257
 75
     7
175
     7
 42
1.0
 92
        8
 66
     7
 43
1.0
 76
     1
 77
     6
 78
     2
 67
     7
 79
     5
170
     0
171
     0
290
     0
174
     0
 93
        1
 44
0.0
173
     0
291
     1
 45
0.0
1001
ACAD
1000
AcDbSavedByObjectVersion
1070
     0
  0
VISUALSTYLE
  5
33
102
{ACAD_REACTORS
330
2A
102
}
330
2A
100
AcDbVisualStyle
  2
Realistic
 70
     8
 71
     2
 72
     2
 73
     0
 90
        0
 40
-0.6
 41
-30.0
 62
     5
 63
     7
 74
     1
 91
        0
 64
     7
 65
   257
 75
     1
175
     1
 42
1.0
 92
        8
 66
     8
 43
1.0
 76
     1
 77
     6
 78
     2
 67
     7
 79
     5
170
     0
171
     0
290
     0
174
     0
 93
       13
 44
0.0
173
     0
291
     0
 45
0.0
1001
ACAD
1000
AcDbSavedByObjectVersion
1070
     0
  0
VISUALSTYLE
  5
37
102
{ACAD_REACTORS
330
2A
102
}
330
2A
100
AcDbVisualStyle
  2
Thicken
 70
    13
 71
     2
 72
     2
 73
     0
 90
        0
 40
-0.6
 41
-30.0
 62
     5
 63
     7
 74
     1
 91
        4
 64
     7
 65
   257
 75
     1
175
     1
 42
1.0
 92
       12
 66
     7
 43
1.0
 76
     1
 77
     6
 78
     2
 67
     7
 79
     5
170
     0
171
     0
290
     0
174
     0
 93
        1
 44
0.0
173
     0
291
     1
 45
0.0
1001
ACAD
1000
AcDbSavedByObjectVersion
1070
     0
  0
DICTIONARYVAR
  5
1A5
102
{ACAD_REACTORS
330
1A4
102
}
330
1A4
100
DictionaryVariables
280
     0
  1
1:1
  0
DICTIONARYVAR
  5
1A9
102
{ACAD_REACTORS
330
1A4
102
}
330
1A4
100
DictionaryVariables
280
     0
  1
80.000000
  0
DICTIONARYVAR
  5
1A8
102
{ACAD_REACTORS
330
1A4
102
}
330
1A4
100
DictionaryVariables
280
     0
  1
5.000000
  0
ENDSEC
  0
EOF
