  0
SECTION
  2
HEADER
  9
$ACADVER
  1
AC1015
  9
$ACADMAINTVER
 70
     6
  9
$DWGCODEPAGE
  3
ANSI_1252
  9
$INSBASE
 10
0.0
 20
0.0
 30
0.0
  9
$EXTMIN
 10
0.0
 20
0.0
 30
0.0
  9
$EXTMAX
 10
1682.0
 20
2378.0
 30
0.0
  9
$LIMMIN
 10
0.0
 20
0.0
  9
$LIMMAX
 10
1682.0
 20
2378.0
  9
$ORTHOMODE
 70
     0
  9
$REGENMODE
 70
     1
  9
$FILLMODE
 70
     1
  9
$QTEXTMODE
 70
     0
  9
$MIRRTEXT
 70
     1
  9
$LTSCALE
 40
1.0
  9
$ATTMODE
 70
     1
  9
$TEXTSIZE
 40
2.5
  9
$TRACEWID
 40
1.0
  9
$TEXTSTYLE
  7
Standard
  9
$CLAYER
  8
0
  9
$CELTYPE
  6
ByLayer
  9
$CECOLOR
 62
   256
  9
$CELTSCALE
 40
1.0
  9
$DISPSILH
 70
     0
  9
$DIMSCALE
 40
1.0
  9
$DIMASZ
 40
2.5
  9
$DIMEXO
 40
0.625
  9
$DIMDLI
 40
3.75
  9
$DIMRND
 40
0.0
  9
$DIMDLE
 40
0.0
  9
$DIMEXE
 40
1.25
  9
$DIMTP
 40
0.0
  9
$DIMTM
 40
0.0
  9
$DIMTXT
 40
2.5
  9
$DIMCEN
 40
2.5
  9
$DIMTSZ
 40
0.0
  9
$DIMTOL
 70
     0
  9
$DIMLIM
 70
     0
  9
$DIMTIH
 70
     0
  9
$DIMTOH
 70
     0
  9
$DIMSE1
 70
     0
  9
$DIMSE2
 70
     0
  9
$DIMTAD
 70
     1
  9
$DIMZIN
 70
     8
  9
$DIMBLK
  1

  9
$DIMASO
 70
     1
  9
$DIMSHO
 70
     1
  9
$DIMPOST
  1

  9
$DIMAPOST
  1

  9
$DIMALT
 70
     0
  9
$DIMALTD
 70
     3
  9
$DIMALTF
 40
0.0393700787
  9
$DIMLFAC
 40
1.0
  9
$DIMTOFL
 70
     1
  9
$DIMTVP
 40
0.0
  9
$DIMTIX
 70
     0
  9
$DIMSOXD
 70
     0
  9
$DIMSAH
 70
     0
  9
$DIMBLK1
  1

  9
$DIMBLK2
  1

  9
$DIMSTYLE
  2
ISO-25
  9
$DIMCLRD
 70
     0
  9
$DIMCLRE
 70
     0
  9
$DIMCLRT
 70
     0
  9
$DIMTFAC
 40
1.0
  9
$DIMGAP
 40
0.625
  9
$DIMJUST
 70
     0
  9
$DIMSD1
 70
     0
  9
$DIMSD2
 70
     0
  9
$DIMTOLJ
 70
     0
  9
$DIMTZIN
 70
     8
  9
$DIMALTZ
 70
     0
  9
$DIMALTTZ
 70
     0
  9
$DIMUPT
 70
     0
  9
$DIMDEC
 70
     2
  9
$DIMTDEC
 70
     2
  9
$DIMALTU
 70
     2
  9
$DIMALTTD
 70
     3
  9
$DIMTXSTY
  7
Standard
  9
$DIMAUNIT
 70
     0
  9
$DIMADEC
 70
     0
  9
$DIMALTRND
 40
0.0
  9
$DIMAZIN
 70
     0
  9
$DIMDSEP
 70
    44
  9
$DIMATFIT
 70
     3
  9
$DIMFRAC
 70
     0
  9
$DIMLDRBLK
  1

  9
$DIMLUNIT
 70
     2
  9
$DIMLWD
 70
    -2
  9
$DIMLWE
 70
    -2
  9
$DIMTMOVE
 70
     0
  9
$LUNITS
 70
     2
  9
$LUPREC
 70
     4
  9
$SKETCHINC
 40
1.0
  9
$FILLETRAD
 40
10.0
  9
$AUNITS
 70
     0
  9
$AUPREC
 70
     0
  9
$MENU
  1
.
  9
$ELEVATION
 40
0.0
  9
$PELEVATION
 40
0.0
  9
$THICKNESS
 40
0.0
  9
$LIMCHECK
 70
     0
  9
$CHAMFERA
 40
10.0
  9
$CHAMFERB
 40
10.0
  9
$CHAMFERC
 40
20.0
  9
$CHAMFERD
 40
0.0
  9
$SKPOLY
 70
     0
  9
$TDCREATE
 40
2455546.624214039
  9
$TDUCREATE
 40
2455546.582547373
  9
$TDUPDATE
 40
2455546.624214051
  9
$TDUUPDATE
 40
2455546.582547384
  9
$TDINDWG
 40
0.0000000116
  9
$TDUSRTIMER
 40
0.0000000116
  9
$USRTIMER
 70
     1
  9
$ANGBASE
 50
0.0
  9
$ANGDIR
 70
     0
  9
$PDMODE
 70
     0
  9
$PDSIZE
 40
0.0
  9
$PLINEWID
 40
0.0
  9
$SPLFRAME
 70
     0
  9
$SPLINETYPE
 70
     6
  9
$SPLINESEGS
 70
     8
  9
$HANDSEED
  5
112
  9
$SURFTAB1
 70
     6
  9
$SURFTAB2
 70
     6
  9
$SURFTYPE
 70
     6
  9
$SURFU
 70
     6
  9
$SURFV
 70
     6
  9
$UCSBASE
  2

  9
$UCSNAME
  2

  9
$UCSORG
 10
0.0
 20
0.0
 30
0.0
  9
$UCSXDIR
 10
1.0
 20
0.0
 30
0.0
  9
$UCSYDIR
 10
0.0
 20
1.0
 30
0.0
  9
$UCSORTHOREF
  2

  9
$UCSORTHOVIEW
 70
     0
  9
$UCSORGTOP
 10
0.0
 20
0.0
 30
0.0
  9
$UCSORGBOTTOM
 10
0.0
 20
0.0
 30
0.0
  9
$UCSORGLEFT
 10
0.0
 20
0.0
 30
0.0
  9
$UCSORGRIGHT
 10
0.0
 20
0.0
 30
0.0
  9
$UCSORGFRONT
 10
0.0
 20
0.0
 30
0.0
  9
$UCSORGBACK
 10
0.0
 20
0.0
 30
0.0
  9
$PUCSBASE
  2

  9
$PUCSNAME
  2

  9
$PUCSORG
 10
0.0
 20
0.0
 30
0.0
  9
$PUCSXDIR
 10
1.0
 20
0.0
 30
0.0
  9
$PUCSYDIR
 10
0.0
 20
1.0
 30
0.0
  9
$PUCSORTHOREF
  2

  9
$PUCSORTHOVIEW
 70
     0
  9
$PUCSORGTOP
 10
0.0
 20
0.0
 30
0.0
  9
$PUCSORGBOTTOM
 10
0.0
 20
0.0
 30
0.0
  9
$PUCSORGLEFT
 10
0.0
 20
0.0
 30
0.0
  9
$PUCSORGRIGHT
 10
0.0
 20
0.0
 30
0.0
  9
$PUCSORGFRONT
 10
0.0
 20
0.0
 30
0.0
  9
$PUCSORGBACK
 10
0.0
 20
0.0
 30
0.0
  9
$USERI1
 70
     0
  9
$USERI2
 70
     0
  9
$USERI3
 70
     0
  9
$USERI4
 70
     0
  9
$USERI5
 70
     0
  9
$USERR1
 40
0.0
  9
$USERR2
 40
0.0
  9
$USERR3
 40
0.0
  9
$USERR4
 40
0.0
  9
$USERR5
 40
0.0
  9
$WORLDVIEW
 70
     1
  9
$SHADEDGE
 70
     3
  9
$SHADEDIF
 70
    70
  9
$TILEMODE
 70
     1
  9
$MAXACTVP
 70
    64
  9
$PINSBASE
 10
0.0
 20
0.0
 30
0.0
  9
$PLIMCHECK
 70
     0
  9
$PEXTMIN
 10
0.0
 20
0.0
 30
0.0
  9
$PEXTMAX
 10
1682.0
 20
2378.0
 30
0.0
  9
$PLIMMIN
 10
0.0
 20
0.0
  9
$PLIMMAX
 10
1682.0
 20
2378.0
  9
$UNITMODE
 70
     0
  9
$VISRETAIN
 70
     1
  9
$PLINEGEN
 70
     0
  9
$PSLTSCALE
 70
     1
  9
$TREEDEPTH
 70
  3020
  9
$CMLSTYLE
  2
Standard
  9
$CMLJUST
 70
     0
  9
$CMLSCALE
 40
20.0
  9
$PROXYGRAPHICS
 70
     1
  9
$MEASUREMENT
 70
     1
  9
$CELWEIGHT
370
    -1
  9
$ENDCAPS
280
     0
  9
$JOINSTYLE
280
     0
  9
$LWDISPLAY
290
     0
  9
$INSUNITS
 70
     4
  9
$HYPERLINKBASE
  1

  9
$STYLESHEET
  1

  9
$XEDIT
290
     1
  9
$CEPSNTYPE
380
     0
  9
$PSTYLEMODE
290
     1
  9
$FINGERPRINTGUID
  2
{85132B2E-E194-44FF-ADBE-7DF9C6A8EDDA}
  9
$VERSIONGUID
  2
{FAEB1C32-E019-11D5-929B-00C0DF256EC4}
  9
$EXTNAMES
290
     1
  9
$PSVPSCALE
 40
0.0
  9
$OLESTARTUP
290
     0
  0
ENDSEC
  0
SECTION
  2
CLASSES
  0
CLASS
  1
ACDBDICTIONARYWDFLT
  2
AcDbDictionaryWithDefault
  3
ObjectDBX Classes
 90
        0
280
     0
281
     0
  0
CLASS
  1
VISUALSTYLE
  2
AcDbVisualStyle
  3
ObjectDBX Classes
 90
     4095
280
     0
281
     0
  0
CLASS
  1
SCALE
  2
AcDbScale
  3
ObjectDBX Classes
 90
     1153
280
     0
281
     0
  0
CLASS
  1
DICTIONARYVAR
  2
AcDbDictionaryVar
  3
ObjectDBX Classes
 90
        0
280
     0
281
     0
  0
CLASS
  1
ACDBPLACEHOLDER
  2
AcDbPlaceHolder
  3
ObjectDBX Classes
 90
        0
280
     0
281
     0
  0
CLASS
  1
LAYOUT
  2
AcDbLayout
  3
ObjectDBX Classes
 90
        0
280
     0
281
     0
  0
ENDSEC
  0
SECTION
  2
TABLES
  0
TABLE
  2
VPORT
  5
8
330
0
100
AcDbSymbolTable
 70
     1
  0
VPORT
  5
29
330
8
100
AcDbSymbolTableRecord
100
AcDbViewportTableRecord
  2
*Active
 70
     0
 10
0.0
 20
0.0
 11
1.0
 21
1.0
 12
344.1869158879
 22
148.5
 13
0.0
 23
0.0
 14
10.0
 24
10.0
 15
10.0
 25
10.0
 16
0.0
 26
0.0
 36
1.0
 17
0.0
 27
0.0
 37
0.0
 40
297.0
 41
1.9729729729
 42
50.0
 43
0.0
 44
0.0
 50
0.0
 51
0.0
 71
     0
 72
   100
 73
     1
 74
     3
 75
     0
 76
     0
 77
     0
 78
     0
281
     0
 65
     1
110
0.0
120
0.0
130
0.0
111
1.0
121
0.0
131
0.0
112
0.0
122
1.0
132
0.0
 79
     0
146
0.0
  0
ENDTAB
  0
TABLE
  2
LTYPE
  5
5
330
0
100
AcDbSymbolTable
 70
     2
  0
LTYPE
  5
14
330
5
100
AcDbSymbolTableRecord
100
AcDbLinetypeTableRecord
  2
ByBlock
 70
     0
  3

 72
    65
 73
     0
 40
0.0
  0
LTYPE
  5
15
330
5
100
AcDbSymbolTableRecord
100
AcDbLinetypeTableRecord
  2
ByLayer
 70
     0
  3

 72
    65
 73
     0
 40
0.0
  0
LTYPE
  5
16
330
5
100
AcDbSymbolTableRecord
100
AcDbLinetypeTableRecord
  2
Continuous
 70
     0
  3
Solid line
 72
    65
 73
     0
 40
0.0
  0
LTYPE
  5
60
330
5
100
AcDbSymbolTableRecord
100
AcDbLinetypeTableRecord
  2
CENTER2
 70
     0
  3
Center (.5x) ___ _ ___ _ ___ _ ___ _ ___ _ ___
 72
    65
 73
     4
 40
28.575
 49
19.05
 74
     4
 75
     0
340
0
 46
0.0
 50
0.0
 44
0.0
 45
0.0
 49
-3.175
 74
     4
 75
     0
340
0
 46
0.0
 50
0.0
 44
0.0
 45
0.0
 49
3.175
 74
     4
 75
     0
340
0
 46
0.0
 50
0.0
 44
0.0
 45
0.0
 49
-3.175
 74
     4
 75
     0
340
0
 46
0.0
 50
0.0
 44
0.0
 45
0.0
  0
ENDTAB
  0
TABLE
  2
LAYER
  5
2
330
0
100
AcDbSymbolTable
 70
     5
  0
LAYER
  5
10
330
2
100
AcDbSymbolTableRecord
100
AcDbLayerTableRecord
  2
0
 70
     0
 62
     7
  6
Continuous
370
    -3
390
F
  0
LAYER
  5
5D
330
2
100
AcDbSymbolTableRecord
100
AcDbLayerTableRecord
  2
Default
 70
     0
 62
     7
  6
Continuous
370
    -3
390
F
  0
LAYER
  5
77
330
2
100
AcDbSymbolTableRecord
100
AcDbLayerTableRecord
  2
00572029_ROHLING
 70
     0
 62
     7
  6
Continuous
370
    -3
390
F
  0
LAYER
  5
8A
330
2
100
AcDbSymbolTableRecord
100
AcDbLayerTableRecord
  2
02396031_BRS_KOP
 70
     0
 62
     7
  6
Continuous
370
    -3
390
F
  0
LAYER
  5
98
330
2
100
AcDbSymbolTableRecord
100
AcDbLayerTableRecord
  2
02398031_BODEN_B
 70
     0
 62
     7
  6
Continuous
370
    -3
390
F
  0
ENDTAB
  0
TABLE
  2
STYLE
  5
3
330
0
100
AcDbSymbolTable
 70
     2
  0
STYLE
  5
11
330
3
100
AcDbSymbolTableRecord
100
AcDbTextStyleTableRecord
  2
Standard
 70
     0
 40
0.0
 41
1.0
 50
0.0
 71
     0
 42
2.5
  3
txt
  4

  0
STYLE
  5
101
330
3
100
AcDbSymbolTableRecord
100
AcDbTextStyleTableRecord
  2
SEACAD_seiso_ttf
 70
     0
 40
0.0
 41
1.0
 50
0.0
 71
     0
 42
0.2
  3
seiso.ttf
  4

  0
ENDTAB
  0
TABLE
  2
VIEW
  5
6
330
0
100
AcDbSymbolTable
 70
     0
  0
ENDTAB
  0
TABLE
  2
UCS
  5
7
330
0
100
AcDbSymbolTable
 70
     0
  0
ENDTAB
  0
TABLE
  2
APPID
  5
9
330
0
100
AcDbSymbolTable
 70
     1
  0
APPID
  5
12
330
9
100
AcDbSymbolTableRecord
100
AcDbRegAppTableRecord
  2
ACAD
 70
     0
  0
ENDTAB
  0
TABLE
  2
DIMSTYLE
  5
A
330
0
100
AcDbSymbolTable
 70
     1
100
AcDbDimStyleTable
  0
DIMSTYLE
105
27
330
A
100
AcDbSymbolTableRecord
100
AcDbDimStyleTableRecord
  2
ISO-25
 70
     0
 41
2.5
 42
0.625
 43
3.75
 44
1.25
 73
     0
 74
     0
 77
     1
 78
     8
140
2.5
141
2.5
143
0.0393700787
147
0.625
171
     3
172
     1
271
     2
272
     2
274
     3
278
    44
283
     0
284
     8
340
11
  0
ENDTAB
  0
TABLE
  2
BLOCK_RECORD
  5
1
330
0
100
AcDbSymbolTable
 70
     7
  0
BLOCK_RECORD
  5
1F
330
1
100
AcDbSymbolTableRecord
100
AcDbBlockTableRecord
  2
*Model_Space
340
22
  0
BLOCK_RECORD
  5
1B
330
1
100
AcDbSymbolTableRecord
100
AcDbBlockTableRecord
  2
*Paper_Space
340
1E
  0
BLOCK_RECORD
  5
5E
330
1
100
AcDbSymbolTableRecord
100
AcDbBlockTableRecord
  2
SEANNOT_GROUP
340
0
102
{BLKREFS
331
5F
102
}
  0
BLOCK_RECORD
  5
69
330
1
100
AcDbSymbolTableRecord
100
AcDbBlockTableRecord
  2
SEANNOT_GROUP1
340
0
102
{BLKREFS
331
6A
102
}
  0
BLOCK_RECORD
  5
6F
330
1
100
AcDbSymbolTableRecord
100
AcDbBlockTableRecord
  2
SEANNOT_GROUP2
340
0
102
{BLKREFS
331
70
102
}
  0
BLOCK_RECORD
  5
75
330
1
100
AcDbSymbolTableRecord
100
AcDbBlockTableRecord
  2
SE
340
0
102
{BLKREFS
331
76
102
}
  0
BLOCK_RECORD
  5
AF
330
1
100
AcDbSymbolTableRecord
100
AcDbBlockTableRecord
  2
SE1
340
0
102
{BLKREFS
331
B0
102
}
  0
BLOCK_RECORD
  5
E6
330
1
100
AcDbSymbolTableRecord
100
AcDbBlockTableRecord
  2
SE2
340
0
102
{BLKREFS
331
E7
102
}
  0
ENDTAB
  0
ENDSEC
  0
SECTION
  2
BLOCKS
  0
BLOCK
  5
20
330
1F
100
AcDbEntity
  8
0
100
AcDbBlockBegin
  2
*Model_Space
 70
     0
 10
0.0
 20
0.0
 30
0.0
  3
*Model_Space
  1

  0
ENDBLK
  5
21
330
1F
100
AcDbEntity
  8
0
100
AcDbBlockEnd
  0
BLOCK
  5
1C
330
1B
100
AcDbEntity
 67
     1
  8
0
100
AcDbBlockBegin
  2
*Paper_Space
 70
     0
 10
0.0
 20
0.0
 30
0.0
  3
*Paper_Space
  1

  0
ENDBLK
  5
1D
330
1B
100
AcDbEntity
 67
     1
  8
0
100
AcDbBlockEnd
  0
BLOCK
  5
67
330
5E
100
AcDbEntity
  8
0
100
AcDbBlockBegin
  2
SEANNOT_GROUP
 70
     0
 10
0.0
 20
0.0
 30
0.0
  3
SEANNOT_GROUP
  1

  0
LINE
  5
61
330
5E
100
AcDbEntity
  8
Default
  6
CENTER2
 62
     7
100
AcDbLine
 10
159.2278142346
 20
296.1584306721
 30
0.0
 11
119.2278151286
 21
296.1584306721
 31
0.0
  0
LINE
  5
62
330
5E
100
AcDbEntity
  8
Default
  6
CENTER2
 62
     7
100
AcDbLine
 10
139.2278146816
 20
316.158430225
 30
0.0
 11
139.2278146816
 21
276.1584311191
 31
0.0
  0
LINE
  5
63
330
5E
100
AcDbEntity
  8
Default
  6
CENTER2
 62
     7
100
AcDbLine
 10
164.2278141228
 20
296.1584306721
 30
0.0
 11
173.2631758271
 21
296.1584306721
 31
0.0
  0
LINE
  5
64
330
5E
100
AcDbEntity
  8
Default
  6
CENTER2
 62
     7
100
AcDbLine
 10
139.2278146816
 20
321.1584301133
 30
0.0
 11
139.2278146816
 21
330.1937918175
 31
0.0
  0
LINE
  5
65
330
5E
100
AcDbEntity
  8
Default
  6
CENTER2
 62
     7
100
AcDbLine
 10
114.2278152404
 20
296.1584306721
 30
0.0
 11
105.1924535361
 21
296.1584306721
 31
0.0
  0
LINE
  5
66
330
5E
100
AcDbEntity
  8
Default
  6
CENTER2
 62
     7
100
AcDbLine
 10
139.2278146816
 20
271.1584312309
 30
0.0
 11
139.2278146816
 21
262.1230695266
 31
0.0
  0
ENDBLK
  5
68
330
5E
100
AcDbEntity
  8
0
100
AcDbBlockEnd
  0
BLOCK
  5
6D
330
69
100
AcDbEntity
  8
0
100
AcDbBlockBegin
  2
SEANNOT_GROUP1
 70
     0
 10
0.0
 20
0.0
 30
0.0
  3
SEANNOT_GROUP1
  1

  0
LINE
  5
6B
330
69
100
AcDbEntity
  8
Default
  6
CENTER2
 62
     7
100
AcDbLine
 10
220.2625557794
 20
296.1584306721
 30
0.0
 11
180.2625566735
 21
296.1584306721
 31
0.0
  0
LINE
  5
6C
330
69
100
AcDbEntity
  8
Default
  6
CENTER2
 62
     7
100
AcDbLine
 10
200.2625562264
 20
316.158430225
 30
0.0
 11
200.2625562264
 21
276.1584311191
 31
0.0
  0
ENDBLK
  5
6E
330
69
100
AcDbEntity
  8
0
100
AcDbBlockEnd
  0
BLOCK
  5
73
330
6F
100
AcDbEntity
  8
0
100
AcDbBlockBegin
  2
SEANNOT_GROUP2
 70
     0
 10
0.0
 20
0.0
 30
0.0
  3
SEANNOT_GROUP2
  1

  0
LINE
  5
71
330
6F
100
AcDbEntity
  8
Default
  6
CENTER2
 62
     7
100
AcDbLine
 10
159.2280610146
 20
207.0280197062
 30
0.0
 11
119.2280619086
 21
207.0280197062
 31
0.0
  0
LINE
  5
72
330
6F
100
AcDbEntity
  8
Default
  6
CENTER2
 62
     7
100
AcDbLine
 10
139.2280614616
 20
227.0280192592
 30
0.0
 11
139.2280614616
 21
187.0280201532
 31
0.0
  0
ENDBLK
  5
74
330
6F
100
AcDbEntity
  8
0
100
AcDbBlockEnd
  0
BLOCK
  5
AD
330
75
100
AcDbEntity
  8
0
100
AcDbBlockBegin
  2
SE
 70
     0
 10
0.0
 20
0.0
 30
0.0
  3
SE
  1

  0
ELLIPSE
  5
78
330
75
100
AcDbEntity
  8
00572029_ROHLING
  6
Continuous
 62
     7
100
AcDbEllipse
 10
139.2280614616
 20
272.0102850148
 30
0.0
 11
22.50000000000062
 21
-2.688821387764051E-14
 31
0.0
210
0.0
220
0.0
230
1.0
 40
0.2588190451
 41
1.217604125528629
 42
1.570796326794893
  0
ELLIPSE
  5
79
330
75
100
AcDbEntity
  8
00572029_ROHLING
  6
Continuous
 62
     7
100
AcDbEllipse
 10
139.2280614616
 20
272.0102850148
 30
0.0
 11
-22.50000000000254
 21
-2.775557561562891E-14
 31
0.0
210
0.0
220
0.0
230
1.0
 40
0.2588190451
 41
3.141592653589798
 42
3.299620175050143
  0
ELLIPSE
  5
7A
330
75
100
AcDbEntity
  8
00572029_ROHLING
  6
Continuous
 62
     7
100
AcDbEllipse
 10
139.2280614616
 20
272.0102850148
 30
0.0
 11
22.49999999999338
 21
-1.307114139148524E-12
 31
0.0
210
0.0
220
0.0
230
1.0
 40
0.2588190451
 41
0.8644119241268912
 42
1.217604125528778
  0
ELLIPSE
  5
7B
330
75
100
AcDbEntity
  8
00572029_ROHLING
  6
Continuous
 62
     7
100
AcDbEllipse
 10
139.2280614616
 20
272.0102850148
 30
0.0
 11
22.50000000000013
 21
5.377642775528102E-14
 31
0.0
210
0.0
220
0.0
230
1.0
 40
0.2588190451
 41
0.5112197227935282
 42
0.8644119241268192
  0
ELLIPSE
  5
7C
330
75
100
AcDbEntity
  8
00572029_ROHLING
  6
Continuous
 62
     7
100
AcDbEllipse
 10
139.2280614616
 20
272.0102850148
 30
0.0
 11
22.49999999998827
 21
-1.129304982860901E-12
 31
0.0
210
0.0
220
0.0
230
1.0
 40
0.2588190451
 41
0.1580275214604107
 42
0.5112197227936791
  0
ELLIPSE
  5
7D
330
75
100
AcDbEntity
  8
00572029_ROHLING
  6
Continuous
 62
     7
100
AcDbEllipse
 10
139.2280614616
 20
272.0102850148
 30
0.0
 11
-22.50000000000062
 21
-2.688821387764051E-14
 31
0.0
210
0.0
220
0.0
230
1.0
 40
0.2588190451
 41
4.712388980384693
 42
5.065581181650956
  0
ELLIPSE
  5
7E
330
75
100
AcDbEntity
  8
00572029_ROHLING
  6
Continuous
 62
     7
100
AcDbEllipse
 10
139.2280614616
 20
272.0102850148
 30
0.0
 11
-22.49999999999338
 21
-1.307114139148524E-12
 31
0.0
210
0.0
220
0.0
230
1.0
 40
0.2588190451
 41
-1.217604125528776
 42
-0.8644119241268902
  0
ELLIPSE
  5
7F
330
75
100
AcDbEntity
  8
00572029_ROHLING
  6
Continuous
 62
     7
100
AcDbEllipse
 10
139.2280614616
 20
272.0102850148
 30
0.0
 11
-22.50000000000013
 21
5.377642775528102E-14
 31
0.0
210
0.0
220
0.0
230
1.0
 40
0.2588190451
 41
-0.86441192412682
 42
-0.5112197227935269
  0
ELLIPSE
  5
80
330
75
100
AcDbEntity
  8
00572029_ROHLING
  6
Continuous
 62
     7
100
AcDbEllipse
 10
139.2280614616
 20
272.0102850148
 30
0.0
 11
-22.49999999998827
 21
-1.129304982860901E-12
 31
0.0
210
0.0
220
0.0
230
1.0
 40
0.2588190451
 41
-0.5112197227936761
 42
-0.158027521460415
  0
ELLIPSE
  5
81
330
75
100
AcDbEntity
  8
00572029_ROHLING
  6
Continuous
 62
     7
100
AcDbEllipse
 10
139.2280614616
 20
272.0102850148
 30
0.0
 11
22.50000000000254
 21
-2.775557561562891E-14
 31
0.0
210
0.0
220
0.0
230
1.0
 40
0.2588190451
 41
2.983565132129435
 42
3.141592653589788
  0
ARC
  5
82
330
75
100
AcDbEntity
  8
00572029_ROHLING
  6
Continuous
 62
     7
100
AcDbCircle
 10
139.2278146816
 20
296.1584306721
 30
0.0
 40
30.53536114546401
100
AcDbArc
 50
317.6694996609
 51
89.9995369482
  0
ARC
  5
83
330
75
100
AcDbEntity
  8
00572029_ROHLING
  6
Continuous
 62
     7
100
AcDbCircle
 10
139.2282954216
 20
296.1584306721
 30
0.0
 40
30.5353611453631
100
AcDbArc
 50
90.0004389966
 51
222.3313777681
  0
LINE
  5
84
330
75
100
AcDbEntity
  8
00572029_ROHLING
  6
Continuous
 62
     7
100
AcDbLine
 10
116.7280614616
 20
272.0102850148
 30
0.0
 11
116.7280614616
 21
271.023301293
 31
0.0
  0
LINE
  5
85
330
75
100
AcDbEntity
  8
00572029_ROHLING
  6
Continuous
 62
     7
100
AcDbLine
 10
161.7280614616
 20
271.023301293
 30
0.0
 11
161.7280614616
 21
272.0102850148
 31
0.0
  0
SPLINE
  5
86
330
75
100
AcDbEntity
  8
00572029_ROHLING
  6
Continuous
 62
     7
100
AcDbSpline
210
0.0
220
0.0
230
1.0
 70
     8
 71
     3
 72
    49
 73
    45
 74
     0
 42
0.0000000003962197
 43
0.0000000001
 40
0.3671193565900305
 40
0.3671193565900305
 40
0.3671193565900305
 40
0.3671193565900305
 40
0.376647200070091
 40
0.3907814295230952
 40
0.4046119309635479
 40
0.4164803808773763
 40
0.426357943061539
 40
0.4369183276662951
 40
0.4496880253407199
 40
0.467210683943358
 40
0.4842934148299818
 40
0.4996702080899929
 40
0.513504075644944
 40
0.5279550662696012
 40
0.543682065954042
 40
0.5631883035325741
 40
0.580151758141259
 40
0.5960395404414971
 40
0.6143214754745595
 40
0.6350125522420657
 40
0.6485532049821057
 40
0.6607020685312446
 40
0.6716007765554775
 40
0.6815000033898845
 40
0.6906095313970626
 40
0.6994724778373227
 40
0.7091765248453158
 40
0.7203460312123223
 40
0.7314113748339245
 40
0.7407442394483365
 40
0.7485588859904104
 40
0.7556322981602113
 40
0.7621869568055989
 40
0.7687291953927144
 40
0.7776640896196289
 40
0.7894559860123314
 40
0.8042165672173894
 40
0.8220832542638674
 40
0.8432037429889525
 40
0.8676789892157424
 40
0.895584872760856
 40
0.926962008650277
 40
0.9617944306758774
 40
1.0
 40
1.0
 40
1.0
 40
1.0
 10
115.8810362883345
 20
287.8015198997812
 30
0.0
 10
115.880967293862
 20
287.8014854845457
 30
0.0
 10
115.8824585925227
 20
287.7927375248036
 30
0.0
 10
115.8907699665806
 20
287.7448853468056
 30
0.0
 10
115.9054041408093
 20
287.6559804674284
 30
0.0
 10
115.9210198156921
 20
287.5566626049508
 30
0.0
 10
115.9384239895464
 20
287.4420101526691
 30
0.0
 10
115.958819112898
 20
287.3029512724102
 30
0.0
 10
115.9856189736209
 20
287.1134075929985
 30
0.0
 10
116.0189768241698
 20
286.8669821422664
 30
0.0
 10
116.0557113932128
 20
286.5828845145791
 30
0.0
 10
116.0909325798118
 20
286.2995681823519
 30
0.0
 10
116.1251190438796
 20
286.015350429715
 30
0.0
 10
116.1600858651659
 20
285.7157865490827
 30
0.0
 10
116.200164510298
 20
285.3614907529234
 30
0.0
 10
116.2425955417902
 20
284.9735857240636
 30
0.0
 10
116.2862607065371
 20
284.5569295246371
 30
0.0
 10
116.3248236420705
 20
284.1846460006712
 30
0.0
 10
116.3616518995489
 20
283.8225063697001
 30
0.0
 10
116.3941377991042
 20
283.4918710413442
 30
0.0
 10
116.4228062703729
 20
283.1891803334393
 30
0.0
 10
116.4413364172699
 20
282.9818954009784
 30
0.0
 10
116.4512455042395
 20
282.8751553329366
 30
0.0
 10
116.4645778261422
 20
282.7286109287346
 30
0.0
 10
116.481507352309
 20
282.5084861700794
 30
0.0
 10
116.4974929812101
 20
282.278517153038
 30
0.0
 10
116.5034891148511
 20
282.190042713176
 30
0.0
 10
116.5021020491901
 20
282.212073447185
 30
0.0
 10
116.5000957820629
 20
282.2485553082911
 30
0.0
 10
116.5011655289091
 20
282.223644519446
 30
0.0
 10
116.504577740596
 20
282.1418305710591
 30
0.0
 10
116.5088412508318
 20
282.033388503778
 30
0.0
 10
116.513901972167
 20
281.8981058276736
 30
0.0
 10
116.5208455892497
 20
281.7035147290197
 30
0.0
 10
116.5307576079548
 20
281.4102119397525
 30
0.0
 10
116.5437757486935
 20
280.9961638122369
 30
0.0
 10
116.5598334348634
 20
280.4407727356968
 30
0.0
 10
116.578457275139
 20
279.7311027322343
 30
0.0
 10
116.5992528165791
 20
278.8683275352548
 30
0.0
 10
116.6218996613114
 20
277.8406556396504
 30
0.0
 10
116.6462131985055
 20
276.6378554429316
 30
0.0
 10
116.6719752041583
 20
275.2624255318924
 30
0.0
 10
116.7001013816188
 20
273.6663615976365
 30
0.0
 10
116.7178696619545
 20
272.6294647098816
 30
0.0
 10
116.7288695835025
 20
271.9842204908495
 30
0.0
  0
SPLINE
  5
87
330
75
100
AcDbEntity
  8
00572029_ROHLING
  6
Continuous
 62
     7
100
AcDbSpline
210
0.0
220
0.0
230
1.0
 70
     8
 71
     3
 72
    51
 73
    47
 74
     0
 42
0.0000000003937292
 43
0.0000000001
 40
0.0
 40
0.0
 40
0.0
 40
0.0
 40
0.0375951505814033
 40
0.0716945080424327
 40
0.1022206458380857
 40
0.1291631015327621
 40
0.1525669403468837
 40
0.1725105517855154
 40
0.189092378156942
 40
0.2009423142825041
 40
0.2104054959241665
 40
0.2177203156390925
 40
0.2247940675913027
 40
0.2322210959260775
 40
0.2401075257665027
 40
0.2503330187897869
 40
0.2624123441621281
 40
0.2759754262428974
 40
0.2905368814720364
 40
0.3058538771698351
 40
0.3191936037736909
 40
0.3303663480806519
 40
0.3397980574310266
 40
0.3477855098215309
 40
0.3556672983684727
 40
0.3660124574141477
 40
0.3777181280420653
 40
0.3879945959251931
 40
0.3966865786601336
 40
0.4053442020417058
 40
0.4144804738468673
 40
0.4237931588400755
 40
0.437743392083928
 40
0.4517098160113528
 40
0.466156572664442
 40
0.4826676670089188
 40
0.5013742497921395
 40
0.5208399121156422
 40
0.5338805529240452
 40
0.5447709589121936
 40
0.5551878176335185
 40
0.5678664951664971
 40
0.5828362036599927
 40
0.5984037668340347
 40
0.6131023483542688
 40
0.6247489589703819
 40
0.6247489589703819
 40
0.6247489589703819
 40
0.6247489589703819
 10
161.7272533397163
 20
271.9842204908495
 30
0.0
 10
161.7382553620291
 20
272.6282881167342
 30
0.0
 10
161.7559844004238
 20
273.6607636429366
 30
0.0
 10
161.7841713510999
 20
275.2480376643146
 30
0.0
 10
161.8098663284003
 20
276.6096030752562
 30
0.0
 10
161.8339057906246
 20
277.7934538571427
 30
0.0
 10
161.8560072376811
 20
278.7976053558386
 30
0.0
 10
161.8759452525042
 20
279.6322402279279
 30
0.0
 10
161.8928576584451
 20
280.2887901486421
 30
0.0
 10
161.9065542246669
 20
280.7815916928482
 30
0.0
 10
161.9170198499276
 20
281.1344449732291
 30
0.0
 10
161.9255493042878
 20
281.4070946470965
 30
0.0
 10
161.9325855027651
 20
281.6216030301799
 30
0.0
 10
161.9389647603184
 20
281.8070603482398
 30
0.0
 10
161.9454275939769
 20
281.9850522659731
 30
0.0
 10
161.9503461308269
 20
282.1128407279551
 30
0.0
 10
161.9523876661183
 20
282.1698516297899
 30
0.0
 10
161.954434595932
 20
282.2243238170344
 30
0.0
 10
161.9612305791463
 20
282.3432874471351
 30
0.0
 10
161.9722774607043
 20
282.4825171563319
 30
0.0
 10
161.9862351669177
 20
282.6345973210992
 30
0.0
 10
162.0006380986319
 20
282.8156079708737
 30
0.0
 10
162.0157934263638
 20
282.9939951363154
 30
0.0
 10
162.0297797444187
 20
283.1492514077274
 30
0.0
 10
162.0459799620267
 20
283.3228169937075
 30
0.0
 10
162.0649228774811
 20
283.521221415315
 30
0.0
 10
162.0857603644447
 20
283.7335874759598
 30
0.0
 10
162.1059001932939
 20
283.9345962201737
 30
0.0
 10
162.1249878953442
 20
284.1222837067198
 30
0.0
 10
162.144153684294
 20
284.3087038123599
 30
0.0
 10
162.1646141771816
 20
284.5058498792004
 30
0.0
 10
162.1910665609829
 20
284.7601520517696
 30
0.0
 10
162.2217279594625
 20
285.0482795810104
 30
0.0
 10
162.2564606530472
 20
285.3653000279926
 30
0.0
 10
162.2931429738389
 20
285.690654694703
 30
0.0
 10
162.3332316862569
 20
286.0349738782053
 30
0.0
 10
162.3764883911978
 20
286.3926308390503
 30
0.0
 10
162.4158241400322
 20
286.7035115158935
 30
0.0
 10
162.4475817726178
 20
286.9442738292306
 30
0.0
 10
162.4717988159449
 20
287.1219459820142
 30
0.0
 10
162.4940831711346
 20
287.2804216871189
 30
0.0
 10
162.5163952428157
 20
287.4337486448437
 30
0.0
 10
162.539130272621
 20
287.5834136117096
 30
0.0
 10
162.5596741954992
 20
287.7113433130941
 30
0.0
 10
162.5735382374727
 20
287.7921754422941
 30
0.0
 10
162.5772605261048
 20
287.8125314266709
 30
0.0
 10
162.5773116544422
 20
287.8130709123358
 30
0.0
  0
SPLINE
  5
88
330
75
100
AcDbEntity
  8
00572029_ROHLING
  6
Continuous
 62
     7
100
AcDbSpline
210
0.0
220
0.0
230
1.0
 70
     8
 71
     3
 72
    13
 73
     9
 74
     0
 42
0.0000000002736928
 43
0.0000000001
 40
0.0
 40
0.0
 40
0.0
 40
0.0
 40
0.0073875059330722
 40
0.0179450171312037
 40
0.0285365667712479
 40
0.0392969311659384
 40
0.0503683725201272
 40
0.0529292090739418
 40
0.0529292090739418
 40
0.0529292090739418
 40
0.0529292090739418
 10
116.7329711741134
 20
271.02158997777
 30
0.0
 10
116.7329443948273
 20
270.9205455392913
 30
0.0
 10
116.7340902481827
 20
270.7129965578408
 30
0.0
 10
116.7878021646416
 20
270.3546971420161
 30
0.0
 10
116.884857999176
 20
269.9781167429169
 30
0.0
 10
117.0245717105822
 20
269.6107528411035
 30
0.0
 10
117.1554762547028
 20
269.3516343904485
 30
0.0
 10
117.2363300790322
 20
269.2128298625688
 30
0.0
 10
117.2517800226061
 20
269.1869661062573
 30
0.0
  0
SPLINE
  5
89
330
75
100
AcDbEntity
  8
00572029_ROHLING
  6
Continuous
 62
     7
100
AcDbSpline
210
0.0
220
0.0
230
1.0
 70
     8
 71
     3
 72
    13
 73
     9
 74
     0
 42
0.000000000273659
 43
0.0000000001
 40
0.9467890360427356
 40
0.9467890360427356
 40
0.9467890360427356
 40
0.9467890360427356
 40
0.9536918891385274
 40
0.9645086995439459
 40
0.9760808759186614
 40
0.987188783315903
 40
0.997972883558118
 40
1.0
 40
1.0
 40
1.0
 40
1.0
 10
161.2014640989024
 20
269.1821491774424
 30
0.0
 10
161.2432088789039
 20
269.2518105294022
 30
0.0
 10
161.3455021193435
 20
269.4345645475744
 30
0.0
 10
161.4915137534753
 20
269.7532764387621
 30
0.0
 10
161.6206282682864
 20
270.1414896504323
 30
0.0
 10
161.6997380314587
 20
270.5424800155209
 30
0.0
 10
161.7324483470993
 20
270.8485161329374
 30
0.0
 10
161.725768482316
 20
270.9982816121417
 30
0.0
 10
161.7244890435366
 20
271.0259310336999
 30
0.0
  0
ELLIPSE
  5
8B
330
75
100
AcDbEntity
  8
02396031_BRS_KOP
  6
Continuous
 62
     7
100
AcDbEllipse
 10
139.2280614616
 20
257.474162493
 30
0.0
 11
13.85
 21
0.0
 31
0.0
210
0.0
220
0.0
230
1.0
 40
0.2588190451
 41
3.353727624332957
 42
3.369845488219246
  0
ELLIPSE
  5
8C
330
75
100
AcDbEntity
  8
02396031_BRS_KOP
  6
Continuous
 62
     7
100
AcDbEllipse
 10
139.2280614616
 20
257.474162493
 30
0.0
 11
13.85
 21
0.0
 31
0.0
210
0.0
220
0.0
230
1.0
 40
0.2588190451
 41
-0.2282528346294574
 42
-0.2121349707431639
  0
ELLIPSE
  5
8D
330
75
100
AcDbEntity
  8
02396031_BRS_KOP
  6
Continuous
 62
     7
100
AcDbEllipse
 10
139.2280614616
 20
257.474162493
 30
0.0
 11
15.50000000000001
 21
1.734723475976807E-15
 31
0.0
210
0.0
220
0.0
230
1.0
 40
0.2588190451
 41
3.438726039422313
 42
3.453458084804674
  0
ELLIPSE
  5
8E
330
75
100
AcDbEntity
  8
02396031_BRS_KOP
  6
Continuous
 62
     7
100
AcDbEllipse
 10
139.2280614616
 20
257.474162493
 30
0.0
 11
15.50000000000001
 21
1.734723475976807E-15
 31
0.0
210
0.0
220
0.0
230
1.0
 40
0.2588190451
 41
-0.3118654312148808
 42
-0.2971333858325229
  0
ELLIPSE
  5
8F
330
75
100
AcDbEntity
  8
02396031_BRS_KOP
  6
Continuous
 62
     7
100
AcDbEllipse
 10
139.2280614616
 20
253.6104591878
 30
0.0
 11
18.09999999999999
 21
0.0
 31
0.0
210
0.0
220
0.0
230
1.0
 40
0.2588190451
 41
0.0
 42
3.254796153008416
  0
ELLIPSE
  5
90
330
75
100
AcDbEntity
  8
02396031_BRS_KOP
  6
Continuous
 62
     7
100
AcDbEllipse
 10
139.2280614616
 20
253.6104591878
 30
0.0
 11
18.09999999999999
 21
0.0
 31
0.0
210
0.0
220
0.0
230
1.0
 40
0.2588190451
 41
6.169981807760949
 42
6.283185307179586
  0
ELLIPSE
  5
91
330
75
100
AcDbEntity
  8
02396031_BRS_KOP
  6
Continuous
 62
     7
100
AcDbEllipse
 10
139.2280614616
 20
253.6104591878
 30
0.0
 11
19.84313483298444
 21
0.0
 31
0.0
210
0.0
220
0.0
230
1.0
 40
0.2588190451
 41
0.0
 42
3.557394057269905
  0
ELLIPSE
  5
92
330
75
100
AcDbEntity
  8
02396031_BRS_KOP
  6
Continuous
 62
     7
100
AcDbEllipse
 10
139.2280614616
 20
253.6104591878
 30
0.0
 11
19.84313483298444
 21
0.0
 31
0.0
210
0.0
220
0.0
230
1.0
 40
0.2588190451
 41
5.867383903499472
 42
6.283185307179586
  0
ELLIPSE
  5
93
330
75
100
AcDbEntity
  8
02396031_BRS_KOP
  6
Continuous
 62
     7
100
AcDbEllipse
 10
139.2280614616
 20
269.0652724084
 30
0.0
 11
22.0
 21
4.336808689942018E-16
 31
0.0
210
0.0
220
0.0
230
1.0
 40
0.2588190451
 41
0.0
 42
3.141592653589793
  0
ARC
  5
94
330
75
100
AcDbEntity
  8
02396031_BRS_KOP
  6
Continuous
 62
     7
100
AcDbCircle
 10
139.2280614616
 20
262.7867545376
 30
0.0
 40
22.0
100
AcDbArc
 50
180.0
 51
206.5546409955
  0
ARC
  5
95
330
75
100
AcDbEntity
  8
02396031_BRS_KOP
  6
Continuous
 62
     7
100
AcDbCircle
 10
139.2280614616
 20
262.7867545376
 30
0.0
 40
22.0
100
AcDbArc
 50
333.4453590045
 51
0.0
  0
LINE
  5
96
330
75
100
AcDbEntity
  8
02396031_BRS_KOP
  6
Continuous
 62
     7
100
AcDbLine
 10
161.2280614616
 20
262.7867545376
 30
0.0
 11
161.2280614616
 21
269.0652724084
 31
0.0
  0
LINE
  5
97
330
75
100
AcDbEntity
  8
02396031_BRS_KOP
  6
Continuous
 62
     7
100
AcDbLine
 10
117.2280614616
 20
269.0652724084
 30
0.0
 11
117.2280614616
 21
262.7867545376
 31
0.0
  0
ELLIPSE
  5
99
330
75
100
AcDbEntity
  8
02398031_BODEN_B
  6
Continuous
 62
     7
100
AcDbEllipse
 10
139.2280614616
 20
244.664186179
 30
0.0
 11
14.80971646033582
 21
-3.469446951953614E-15
 31
0.0
210
0.0
220
0.0
230
1.0
 40
0.2588190451
 41
5.667306374296198
 42
6.283185307179586
  0
ELLIPSE
  5
9A
330
75
100
AcDbEntity
  8
02398031_BODEN_B
  6
Continuous
 62
     7
100
AcDbEllipse
 10
139.2280614616
 20
244.664186179
 30
0.0
 11
14.80971646033582
 21
-3.469446951953614E-15
 31
0.0
210
0.0
220
0.0
230
1.0
 40
0.2588190451
 41
0.0000000000000009
 42
3.760476517819692
  0
ELLIPSE
  5
9B
330
75
100
AcDbEntity
  8
02398031_BODEN_B
  6
Continuous
 62
     7
100
AcDbEllipse
 10
139.2280614616
 20
245.567617558
 30
0.0
 11
14.80971646033579
 21
-3.469446951953614E-15
 31
0.0
210
0.0
220
0.0
230
1.0
 40
0.2588190451
 41
0.0000000000000009
 42
3.141592653589787
  0
ELLIPSE
  5
9C
330
75
100
AcDbEntity
  8
02398031_BODEN_B
  6
Continuous
 62
     7
100
AcDbEllipse
 10
139.2280614616
 20
247.0790007448
 30
0.0
 11
16.30971646033578
 21
-3.469446951953614E-15
 31
0.0
210
0.0
220
0.0
230
1.0
 40
0.2588190451
 41
6.02340347097123
 42
6.283185307179586
  0
ELLIPSE
  5
9D
330
75
100
AcDbEntity
  8
02398031_BODEN_B
  6
Continuous
 62
     7
100
AcDbEllipse
 10
139.2280614616
 20
247.0790007448
 30
0.0
 11
16.30971646033578
 21
-3.469446951953614E-15
 31
0.0
210
0.0
220
0.0
230
1.0
 40
0.2588190451
 41
0.0000000000000008
 42
3.401374489798159
  0
ELLIPSE
  5
9E
330
75
100
AcDbEntity
  8
02398031_BODEN_B
  6
Continuous
 62
     7
100
AcDbEllipse
 10
139.2280614616
 20
250.9427040499
 30
0.0
 11
-18.20971646033569
 21
1.734723475976807E-15
 31
0.0
210
0.0
220
0.0
230
1.0
 40
0.2588190451
 41
2.680709558300364
 42
6.283185307179586
  0
ELLIPSE
  5
9F
330
75
100
AcDbEntity
  8
02398031_BODEN_B
  6
Continuous
 62
     7
100
AcDbEllipse
 10
139.2280614616
 20
250.9427040499
 30
0.0
 11
-18.20971646033569
 21
1.734723475976807E-15
 31
0.0
210
0.0
220
0.0
230
1.0
 40
0.2588190451
 41
0.0
 42
0.4608830952894317
  0
ELLIPSE
  5
A0
330
75
100
AcDbEntity
  8
02398031_BODEN_B
  6
Continuous
 62
     7
100
AcDbEllipse
 10
139.2280614616
 20
253.6104591878
 30
0.0
 11
17.9194329250843
 21
-5.204170427930421E-15
 31
0.0
210
0.0
220
0.0
230
1.0
 40
0.2588190451
 41
0.0281663190645987
 42
3.113426334525222
  0
ELLIPSE
  5
A1
330
75
100
AcDbEntity
  8
02398031_BODEN_B
  6
Continuous
 62
     7
100
AcDbEllipse
 10
139.2280614616
 20
244.664186179
 30
0.0
 11
-13.90971646033573
 21
0.0
 31
0.0
210
0.0
220
0.0
230
1.0
 40
0.2588190451
 41
2.898942187473997
 42
6.283185307179586
  0
ELLIPSE
  5
A2
330
75
100
AcDbEntity
  8
02398031_BODEN_B
  6
Continuous
 62
     7
100
AcDbEllipse
 10
139.2280614616
 20
244.664186179
 30
0.0
 11
-13.90971646033573
 21
0.0
 31
0.0
210
0.0
220
0.0
230
1.0
 40
0.2588190451
 41
0.0
 42
0.2425812693901503
  0
LINE
  5
A3
330
75
100
AcDbEntity
  8
02398031_BODEN_B
  6
Continuous
 62
     7
100
AcDbLine
 10
124.4183450013
 20
245.567617558
 30
0.0
 11
124.4183450013
 21
244.664186179
 31
0.0
  0
LINE
  5
A4
330
75
100
AcDbEntity
  8
02398031_BODEN_B
  6
Continuous
 62
     7
100
AcDbLine
 10
154.0377779219
 20
244.664186179
 30
0.0
 11
154.0377779219
 21
245.567617558
 31
0.0
  0
LINE
  5
A5
330
75
100
AcDbEntity
  8
02398031_BODEN_B
  6
Continuous
 62
     7
100
AcDbLine
 10
123.4656005619
 20
245.9946855478
 30
0.0
 11
124.4183450013
 21
245.0669218789
 31
0.0
  0
LINE
  5
A6
330
75
100
AcDbEntity
  8
02398031_BODEN_B
  6
Continuous
 62
     7
100
AcDbLine
 10
154.0377779219
 20
245.0669218789
 30
0.0
 11
154.9905223613
 21
245.9946855478
 31
0.0
  0
LINE
  5
A7
330
75
100
AcDbEntity
  8
02398031_BODEN_B
  6
Continuous
 62
     7
100
AcDbLine
 10
122.9183450013
 20
250.4597411368
 30
0.0
 11
122.9183450013
 21
247.0790007448
 31
0.0
  0
LINE
  5
A8
330
75
100
AcDbEntity
  8
02398031_BODEN_B
  6
Continuous
 62
     7
100
AcDbLine
 10
155.5377779219
 20
247.0790007448
 30
0.0
 11
155.5377779219
 21
250.4597411368
 31
0.0
  0
LINE
  5
A9
330
75
100
AcDbEntity
  8
02398031_BODEN_B
  6
Continuous
 62
     7
100
AcDbLine
 10
157.4305551373
 20
251.0754349634
 30
0.0
 11
157.1403867414
 21
253.74107422
 31
0.0
  0
LINE
  5
AA
330
75
100
AcDbEntity
  8
02398031_BODEN_B
  6
Continuous
 62
     7
100
AcDbLine
 10
121.3157361818
 20
253.74107422
 30
0.0
 11
121.0255677859
 21
251.0754349634
 31
0.0
  0
ARC
  5
AB
330
75
100
AcDbEntity
  8
02398031_BODEN_B
  6
Continuous
 62
     7
100
AcDbCircle
 10
139.261173869
 20
256.7168555566
 30
0.0
 40
18.70936789230712
100
AcDbArc
 50
223.6676065645
 51
269.8985961368
  0
ARC
  5
AC
330
75
100
AcDbEntity
  8
02398031_BODEN_B
  6
Continuous
 62
     7
100
AcDbCircle
 10
139.1944212971
 20
256.7044320543
 30
0.0
 40
18.69694535150225
100
AcDbArc
 50
270.1030885233
 51
316.349855486
  0
ENDBLK
  5
AE
330
75
100
AcDbEntity
  8
0
100
AcDbBlockEnd
  0
BLOCK
  5
E4
330
AF
100
AcDbEntity
  8
0
100
AcDbBlockBegin
  2
SE1
 70
     0
 10
0.0
 20
0.0
 30
0.0
  3
SE1
  1

  0
SPLINE
  5
B1
330
AF
100
AcDbEntity
  8
00572029_ROHLING
  6
Continuous
 62
     7
100
AcDbSpline
210
0.0
220
0.0
230
1.0
 70
     8
 71
     3
 72
    32
 73
    28
 74
     0
 42
0.0000000000531545
 43
0.0000000001
 40
0.0
 40
0.0
 40
0.0
 40
0.0
 40
0.0019040233893655
 40
0.0019040233893655
 40
0.0243873597490866
 40
0.0243873597490866
 40
0.0468706961088076
 40
0.0468706961088076
 40
0.0646491389385326
 40
0.0646491389385326
 40
0.0824275817682574
 40
0.0824275817682574
 40
0.1028912920748315
 40
0.1028912920748315
 40
0.1300539677693501
 40
0.1300539677693501
 40
0.1572166434638688
 40
0.1572166434638688
 40
0.1843793191583875
 40
0.1843793191583875
 40
0.2115419948529061
 40
0.2115419948529061
 40
0.2864398231486847
 40
0.2864398231486847
 40
0.7329698587451405
 40
0.7329698587451405
 40
1.0
 40
1.0
 40
1.0
 40
1.0
 10
366.6663634454923
 20
277.8337135296543
 30
0.0
 10
366.6201132027856
 20
278.0063217852982
 30
0.0
 10
366.5738629600788
 20
278.1789300409421
 30
0.0
 10
365.9814745925455
 20
280.3897535263891
 30
0.0
 10
365.4353364677189
 20
282.4279687561921
 30
0.0
 10
364.3430602180657
 20
286.5043992157984
 30
0.0
 10
363.7969220932391
 20
288.5426144456015
 30
0.0
 10
362.8189314499955
 20
292.1925252155134
 30
0.0
 10
362.2958724507144
 20
293.7457756759422
 30
0.0
 10
361.0675731497823
 20
296.7746551990362
 30
0.0
 10
360.3622162107726
 20
298.2505641716265
 30
0.0
 10
358.6213889296397
 20
301.3737868459461
 30
0.0
 10
357.5523554282166
 20
303.0141885099133
 30
0.0
 10
354.656868654932
 20
306.7749823219379
 30
0.0
 10
352.7334447871537
 20
308.8176701938796
 30
0.0
 10
348.407215132606
 20
312.5073740121762
 30
0.0
 10
346.0048857800094
 20
314.1533347981572
 30
0.0
 10
340.8581528341582
 20
316.897180120458
 30
0.0
 10
338.1147050404848
 20
317.9943195211852
 30
0.0
 10
332.4738403963809
 20
319.5572493947531
 30
0.0
 10
329.5776229237453
 20
320.0228162026935
 30
0.0
 10
318.7923115198536
 20
320.5880504222476
 30
0.0
 10
308.2426425695299
 20
321.1409351441052
 30
0.0
 10
271.4834439959868
 20
323.0674031095689
 30
0.0
 10
260.9625562264252
 20
323.6187794736578
 30
0.0
 10
227.4043126160897
 20
325.3774924979148
 30
0.0
 10
214.8460690057543
 20
326.0356421572279
 30
0.0
 10
202.2878253954189
 20
326.693791816541
 30
0.0
  0
SPLINE
  5
B2
330
AF
100
AcDbEntity
  8
00572029_ROHLING
  6
Continuous
 62
     7
100
AcDbSpline
210
0.0
220
0.0
230
1.0
 70
     8
 71
     3
 72
    12
 73
     8
 74
     0
 42
0.0000000027311332
 43
0.0000000001
 40
0.0
 40
0.0
 40
0.0
 40
0.0
 40
0.0618158240873411
 40
0.0618158240873411
 40
0.7917574692749042
 40
0.7917574692749042
 40
1.0
 40
1.0
 40
1.0
 40
1.0
 10
323.1997012624843
 20
266.1868565000404
 30
0.0
 10
323.1802613499386
 20
266.2594072413556
 30
0.0
 10
323.1608214373931
 20
266.3319579826705
 30
0.0
 10
322.9118286238652
 20
267.2612118134756
 30
0.0
 10
322.5176019456962
 20
268.0734734183803
 30
0.0
 10
321.8350828968759
 20
268.9865221688178
 30
0.0
 10
321.6724847466781
 20
269.1808540536368
 30
0.0
 10
321.4998785167277
 20
269.3658561865782
 30
0.0
  0
LINE
  5
B3
330
AF
100
AcDbEntity
  8
00572029_ROHLING
  6
Continuous
 62
     7
100
AcDbLine
 10
366.6663634455
 20
277.8337135297
 30
0.0
 11
365.3248372832
 21
277.4742526778
 31
0.0
  0
LINE
  5
B4
330
AF
100
AcDbEntity
  8
00572029_ROHLING
  6
Continuous
 62
     7
100
AcDbLine
 10
365.3248372832
 20
277.4742526778
 30
0.0
 11
361.4658746804
 21
276.4402467648
 31
0.0
  0
LINE
  5
B5
330
AF
100
AcDbEntity
  8
00572029_ROHLING
  6
Continuous
 62
     7
100
AcDbLine
 10
361.4658746804
 20
276.4402467648
 30
0.0
 11
355.5658774633
 21
274.8593472751
 31
0.0
  0
LINE
  5
B6
330
AF
100
AcDbEntity
  8
00572029_ROHLING
  6
Continuous
 62
     7
100
AcDbLine
 10
355.5658774633
 20
274.8593472751
 30
0.0
 11
348.3532199973
 21
272.9267215318
 31
0.0
  0
LINE
  5
B7
330
AF
100
AcDbEntity
  8
00572029_ROHLING
  6
Continuous
 62
     7
100
AcDbLine
 10
348.3532199973
 20
272.9267215318
 30
0.0
 11
341.5128447106
 21
271.0938484979
 31
0.0
  0
LINE
  5
B8
330
AF
100
AcDbEntity
  8
00572029_ROHLING
  6
Continuous
 62
     7
100
AcDbLine
 10
341.5128447106
 20
271.0938484979
 30
0.0
 11
334.3001872447
 21
269.1612227546
 31
0.0
  0
LINE
  5
B9
330
AF
100
AcDbEntity
  8
00572029_ROHLING
  6
Continuous
 62
     7
100
AcDbLine
 10
334.3001872447
 20
269.1612227546
 30
0.0
 11
328.4001900276
 21
267.5803232649
 31
0.0
  0
LINE
  5
BA
330
AF
100
AcDbEntity
  8
00572029_ROHLING
  6
Continuous
 62
     7
100
AcDbLine
 10
328.4001900276
 20
267.5803232649
 30
0.0
 11
324.5412274253
 21
266.546317352
 31
0.0
  0
LINE
  5
BB
330
AF
100
AcDbEntity
  8
00572029_ROHLING
  6
Continuous
 62
     7
100
AcDbLine
 10
324.5412274253
 20
266.546317352
 30
0.0
 11
323.1997012625
 21
266.1868565
 31
0.0
  0
ARC
  5
BC
330
AF
100
AcDbEntity
  8
00572029_ROHLING
  6
Continuous
 62
     7
100
AcDbCircle
 10
225.9625562264
 20
265.6584306721
 30
0.0
 40
11.99999999999999
100
AcDbArc
 50
90.0
 51
169.7701792132
  0
LINE
  5
BD
330
AF
100
AcDbEntity
  8
00572029_ROHLING
  6
Continuous
 62
     7
100
AcDbLine
 10
313.9625562264
 20
277.6584306721
 30
0.0
 11
225.9625562264
 21
277.6584306721
 31
0.0
  0
ELLIPSE
  5
BE
330
AF
100
AcDbEntity
  8
00572029_ROHLING
  6
Continuous
 62
     7
100
AcDbEllipse
 10
313.9625562264
 20
270.654163862
 30
0.0
 11
0.0
 21
7.000000304715218
 31
0.0
210
0.0
220
0.0
230
1.0
 40
1.0
 41
-1.562341610269652
 42
0.0
  0
LINE
  5
BF
330
AF
100
AcDbEntity
  8
00572029_ROHLING
  6
Continuous
 62
     7
100
AcDbLine
 10
212.2884803718
 20
266.1471816463
 30
0.0
 11
202.2878253954
 21
265.6230695276
 31
0.0
  0
ARC
  5
C0
330
AF
100
AcDbEntity
  8
00572029_ROHLING
  6
Continuous
 62
     7
100
AcDbCircle
 10
312.3813758057
 20
20670.96768931
 30
0.0
 40
20392.7091823707
100
AcDbArc
 50
269.7666583614
 51
270.0044425174
  0
SPLINE
  5
C1
330
AF
100
AcDbEntity
  8
00572029_ROHLING
  6
Continuous
 62
     7
100
AcDbSpline
210
0.0
220
0.0
230
1.0
 70
     8
 71
     3
 72
    16
 73
    12
 74
     0
 42
0.0000000037155473
 43
0.0000000001
 40
0.0
 40
0.0
 40
0.0
 40
0.0
 40
0.1250000000000002
 40
0.1250000000000002
 40
0.2500000000000003
 40
0.2500000000000003
 40
0.5000000000000002
 40
0.5000000000000002
 40
0.7500000000000001
 40
0.7500000000000001
 40
1.0
 40
1.0
 40
1.0
 40
1.0
 10
212.2884803718105
 20
266.147181646296
 30
0.0
 10
212.3994838962675
 20
266.152999094506
 30
0.0
 10
212.5116314954564
 20
266.1683360812283
 30
0.0
 10
212.7290573595652
 20
266.2169165072619
 30
0.0
 10
212.8359339241974
 20
266.2502937030523
 30
0.0
 10
213.148754462629
 20
266.3779385979725
 30
0.0
 10
213.3380195432628
 20
266.4952009056224
 30
0.0
 10
213.6761845376991
 20
266.7930941473571
 30
0.0
 10
213.8162973031303
 20
266.9659091952648
 30
0.0
 10
214.0378307646882
 20
267.3585605658471
 30
0.0
 10
214.1132674310241
 20
267.5676734061263
 30
0.0
 10
214.1533165398807
 20
267.7895942100838
 30
0.0
  0
ARC
  5
C2
330
AF
100
AcDbEntity
  8
00572029_ROHLING
  6
Continuous
 62
     7
100
AcDbCircle
 10
322.9622349474
 20
270.7302294737
 30
0.0
 40
1.999999865329733
100
AcDbArc
 50
180.483803123
 51
223.0147426779
  0
LINE
  5
C3
330
AF
100
AcDbEntity
  8
00572029_ROHLING
  6
Continuous
 62
     7
100
AcDbLine
 10
200.2625562264
 20
322.7933489569
 30
0.0
 11
200.2625562264
 21
269.5235123872
 31
0.0
  0
SPLINE
  5
C4
330
AF
100
AcDbEntity
  8
00572029_ROHLING
  6
Continuous
 62
     7
100
AcDbSpline
210
0.0
220
0.0
230
1.0
 70
     8
 71
     3
 72
    14
 73
    10
 74
     0
 42
0.0000000045771527
 43
0.0000000001
 40
0.0
 40
0.0
 40
0.0
 40
0.0
 40
0.25
 40
0.25
 40
0.5000000000000002
 40
0.5000000000000002
 40
0.7500000000000001
 40
0.7500000000000001
 40
1.0
 40
1.0
 40
1.0
 40
1.0
 10
200.7321098315361
 20
325.4563197809095
 30
0.0
 10
200.763553680605
 20
325.6346467104727
 30
0.0
 10
200.827627960432
 20
325.8071676267802
 30
0.0
 10
201.0127957271726
 20
326.1184066602693
 30
0.0
 10
201.1338364567889
 20
326.2570361004067
 30
0.0
 10
201.4172625554072
 20
326.4824833989688
 30
0.0
 10
201.5795671717208
 20
326.5692370238046
 30
0.0
 10
201.9244828533041
 20
326.6796454039434
 30
0.0
 10
202.1069956465067
 20
326.7032687021098
 30
0.0
 10
202.2878253954189
 20
326.693791816541
 30
0.0
  0
SPLINE
  5
C5
330
AF
100
AcDbEntity
  8
00572029_ROHLING
  6
Continuous
 62
     7
100
AcDbSpline
210
0.0
220
0.0
230
1.0
 70
     8
 71
     3
 72
    14
 73
    10
 74
     0
 42
0.0000000045771527
 43
0.0000000001
 40
0.0
 40
0.0
 40
0.0
 40
0.0
 40
0.25
 40
0.25
 40
0.5
 40
0.5
 40
0.75
 40
0.75
 40
1.0
 40
1.0
 40
1.0
 40
1.0
 10
202.2878253954189
 20
265.6230695276074
 30
0.0
 10
202.1069956465067
 20
265.6135926420386
 30
0.0
 10
201.9244828533041
 20
265.6372159402049
 30
0.0
 10
201.5795671717208
 20
265.7476243203437
 30
0.0
 10
201.4172625554072
 20
265.8343779451796
 30
0.0
 10
201.1338364567889
 20
266.0598252437416
 30
0.0
 10
201.0127957271726
 20
266.1984546838791
 30
0.0
 10
200.827627960432
 20
266.5096937173682
 30
0.0
 10
200.763553680605
 20
266.6822146336756
 30
0.0
 10
200.7321098315362
 20
266.8605415632388
 30
0.0
  0
LINE
  5
C6
330
AF
100
AcDbEntity
  8
00572029_ROHLING
  6
Continuous
 62
     7
100
AcDbLine
 10
323.1997012625
 20
266.1868565
 30
0.0
 11
323.4641627537
 21
265.1998727782
 31
0.0
  0
LINE
  5
C7
330
AF
100
AcDbEntity
  8
00572029_ROHLING
  6
Continuous
 62
     7
100
AcDbLine
 10
366.9308249367
 20
276.8467298078
 30
0.0
 11
366.6663634455
 21
277.8337135297
 31
0.0
  0
LINE
  5
C8
330
AF
100
AcDbEntity
  8
00572029_ROHLING
  6
Continuous
 62
     7
100
AcDbLine
 10
200.7321098315
 20
325.4563197809
 30
0.0
 11
200.2625562264
 21
322.7933489569
 31
0.0
  0
LINE
  5
C9
330
AF
100
AcDbEntity
  8
00572029_ROHLING
  6
Continuous
 62
     7
100
AcDbLine
 10
200.2625562264
 20
269.5235123872
 30
0.0
 11
200.7321098315
 21
266.8605415632
 31
0.0
  0
ARC
  5
CA
330
AF
100
AcDbEntity
  8
00572029_ROHLING
  6
Continuous
 62
     7
100
AcDbCircle
 10
364.9989732841
 20
276.3290917176
 30
0.0
 40
1.999999999999985
100
AcDbArc
 50
307.024312837
 51
15.0
  0
ARC
  5
CB
330
AF
100
AcDbEntity
  8
00572029_ROHLING
  6
Continuous
 62
     7
100
AcDbCircle
 10
325.3960144063
 20
265.7175108684
 30
0.0
 40
2.00000000000001
100
AcDbArc
 50
195.0
 51
262.975687163
  0
LINE
  5
CC
330
AF
100
AcDbEntity
  8
02396031_BRS_KOP
  6
Continuous
 62
     7
100
AcDbLine
 10
330.6962544155
 20
248.4746779785
 30
0.0
 11
369.0302472349
 21
258.7462403971
 31
0.0
  0
LINE
  5
CD
330
AF
100
AcDbEntity
  8
02396031_BRS_KOP
  6
Continuous
 62
     7
100
AcDbLine
 10
324.4717779252
 20
263.3712534162
 30
0.0
 11
366.9725142819
 21
274.7592914007
 31
0.0
  0
ARC
  5
CE
330
AF
100
AcDbEntity
  8
02396031_BRS_KOP
  6
Continuous
 62
     7
100
AcDbCircle
 10
347.4044698967
 20
262.7867545376
 30
0.0
 40
21.99999999999998
100
AcDbArc
 50
195.0
 51
220.5830019774
  0
ARC
  5
CF
330
AF
100
AcDbEntity
  8
02396031_BRS_KOP
  6
Continuous
 62
     7
100
AcDbCircle
 10
347.4044698967
 20
262.7867545376
 30
0.0
 40
22.00000000000002
100
AcDbArc
 50
349.4169980226
 51
15.0
  0
LINE
  5
D0
330
AF
100
AcDbEntity
  8
02396031_BRS_KOP
  6
Continuous
 62
     7
100
AcDbLine
 10
368.6548380751
 20
268.4807735298
 30
0.0
 11
366.9725142819
 21
274.7592914007
 31
0.0
  0
LINE
  5
D1
330
AF
100
AcDbEntity
  8
02396031_BRS_KOP
  6
Continuous
 62
     7
100
AcDbLine
 10
324.4717779252
 20
263.3712534162
 30
0.0
 11
326.1541017184
 21
257.0927355453
 31
0.0
  0
LINE
  5
D2
330
AF
100
AcDbEntity
  8
02396031_BRS_KOP
  6
Continuous
 62
     7
100
AcDbLine
 10
366.2480699122
 20
274.5651771169
 30
0.0
 11
366.2032810065
 21
274.7323315886
 31
0.0
  0
LINE
  5
D3
330
AF
100
AcDbEntity
  8
02396031_BRS_KOP
  6
Continuous
 62
     7
100
AcDbLine
 10
325.1514333892
 20
263.7325221717
 30
0.0
 11
325.1962222949
 21
263.5653677
 31
0.0
  0
LINE
  5
D4
330
AF
100
AcDbEntity
  8
02398031_BODEN_B
  6
Continuous
 62
     7
100
AcDbLine
 10
366.5654850622
 20
248.4972228515
 30
0.0
 11
337.9553098441
 21
240.8311495065
 31
0.0
  0
LINE
  5
D5
330
AF
100
AcDbEntity
  8
02398031_BODEN_B
  6
Continuous
 62
     7
100
AcDbLine
 10
366.3234113538
 20
249.4006542305
 30
0.0
 11
337.7132361357
 21
241.7345808855
 31
0.0
  0
LINE
  5
D6
330
AF
100
AcDbEntity
  8
02398031_BODEN_B
  6
Continuous
 62
     7
100
AcDbLine
 10
367.3673261889
 20
251.3002659849
 30
0.0
 11
335.8593734919
 21
242.8577355046
 31
0.0
  0
LINE
  5
D7
330
AF
100
AcDbEntity
  8
02398031_BODEN_B
  6
Continuous
 62
     7
100
AcDbLine
 10
368.1673090785
 20
255.6557254758
 30
0.0
 11
332.9888382416
 21
246.2296826241
 31
0.0
  0
LINE
  5
D8
330
AF
100
AcDbEntity
  8
02398031_BODEN_B
  6
Continuous
 62
     7
100
AcDbLine
 10
337.7132361357
 20
241.7345808855
 30
0.0
 11
337.9553098441
 21
240.8311495065
 31
0.0
  0
LINE
  5
D9
330
AF
100
AcDbEntity
  8
02398031_BODEN_B
  6
Continuous
 62
     7
100
AcDbLine
 10
366.5654850622
 20
248.4972228515
 30
0.0
 11
366.3234113538
 21
249.4006542305
 31
0.0
  0
LINE
  5
DA
330
AF
100
AcDbEntity
  8
02398031_BODEN_B
  6
Continuous
 62
     7
100
AcDbLine
 10
335.8593734919
 20
242.8577355046
 30
0.0
 11
337.7132361357
 21
241.7345808855
 31
0.0
  0
LINE
  5
DB
330
AF
100
AcDbEntity
  8
02398031_BODEN_B
  6
Continuous
 62
     7
100
AcDbLine
 10
366.3234113538
 20
249.4006542305
 30
0.0
 11
367.3673261889
 21
251.3002659849
 31
0.0
  0
LINE
  5
DC
330
AF
100
AcDbEntity
  8
02398031_BODEN_B
  6
Continuous
 62
     7
100
AcDbLine
 10
334.9535068341
 20
246.2384758966
 30
0.0
 11
335.8593734919
 21
242.8577355046
 31
0.0
  0
LINE
  5
DD
330
AF
100
AcDbEntity
  8
02398031_BODEN_B
  6
Continuous
 62
     7
100
AcDbLine
 10
367.3673261889
 20
251.3002659849
 30
0.0
 11
366.4614595311
 21
254.6810063769
 31
0.0
  0
ARC
  5
DE
330
AF
100
AcDbEntity
  8
02398031_BODEN_B
  6
Continuous
 62
     7
100
AcDbCircle
 10
334.4705439209
 20
246.1090663741
 30
0.0
 40
0.4999999999998166
100
AcDbArc
 50
15.0
 51
105.0
  0
ARC
  5
DF
330
AF
100
AcDbEntity
  8
02398031_BODEN_B
  6
Continuous
 62
     7
100
AcDbCircle
 10
366.9444224442
 20
254.8104158995
 30
0.0
 40
0.4999999999998212
100
AcDbArc
 50
105.0
 51
195.0
  0
LINE
  5
E0
330
AF
100
AcDbEntity
  8
02398031_BODEN_B
  6
Continuous
 62
     7
100
AcDbLine
 10
368.1673090785
 20
255.6557254758
 30
0.0
 11
367.17209388
 21
258.2483497063
 31
0.0
  0
LINE
  5
E1
330
AF
100
AcDbEntity
  8
02398031_BODEN_B
  6
Continuous
 62
     7
100
AcDbLine
 10
332.5544077704
 20
248.9725686694
 30
0.0
 11
332.9888382416
 21
246.2296826241
 31
0.0
  0
ARC
  5
E2
330
AF
100
AcDbEntity
  8
02398031_BODEN_B
  6
Continuous
 62
     7
100
AcDbCircle
 10
348.9256557682
 20
256.760782767
 30
0.0
 40
18.79999999999976
100
AcDbArc
 50
285.2751534928
 51
333.1316937737
  0
ARC
  5
E3
330
AF
100
AcDbEntity
  8
02398031_BODEN_B
  6
Continuous
 62
     7
100
AcDbCircle
 10
349.1000701735
 20
256.807516966
 30
0.0
 40
18.79999999999974
100
AcDbArc
 50
236.8683062263
 51
284.7248465072
  0
ENDBLK
  5
E5
330
AF
100
AcDbEntity
  8
0
100
AcDbBlockEnd
  0
BLOCK
  5
FF
330
E6
100
AcDbEntity
  8
0
100
AcDbBlockBegin
  2
SE2
 70
     0
 10
0.0
 20
0.0
 30
0.0
  3
SE2
  1

  0
ELLIPSE
  5
E8
330
E6
100
AcDbEntity
  8
00572029_ROHLING
  6
Continuous
 62
     7
100
AcDbEllipse
 10
139.2280614616
 20
62.3575435786
 30
0.0
 11
22.50000000000118
 21
-4.271583087245290E-11
 31
0.0
210
0.0
220
0.0
230
1.0
 40
0.9659258263
 41
4.712388980386527
 42
5.065581181652791
  0
ELLIPSE
  5
E9
330
E6
100
AcDbEntity
  8
00572029_ROHLING
  6
Continuous
 62
     7
100
AcDbEllipse
 10
139.2280614616
 20
62.3575435786
 30
0.0
 11
-22.5000000000021
 21
6.522560269672795E-12
 31
0.0
210
0.0
220
0.0
230
1.0
 40
0.9659258263
 41
2.98356513212972
 42
3.069042336719892
  0
ELLIPSE
  5
EA
330
E6
100
AcDbEntity
  8
00572029_ROHLING
  6
Continuous
 62
     7
100
AcDbEllipse
 10
139.2280614616
 20
62.3575435786
 30
0.0
 11
22.49999999999468
 21
2.614575222992243E-11
 31
0.0
210
0.0
220
0.0
230
1.0
 40
0.9659258263
 41
5.065581181649677
 42
5.418773383051581
  0
ELLIPSE
  5
EB
330
E6
100
AcDbEntity
  8
00572029_ROHLING
  6
Continuous
 62
     7
100
AcDbEllipse
 10
139.2280614616
 20
62.3575435786
 30
0.0
 11
22.50000000000049
 21
-2.248201624865942E-12
 31
0.0
210
0.0
220
0.0
230
1.0
 40
0.9659258263
 41
5.418773383052851
 42
5.771965584386152
  0
ELLIPSE
  5
EC
330
E6
100
AcDbEntity
  8
00572029_ROHLING
  6
Continuous
 62
     7
100
AcDbEllipse
 10
139.2280614616
 20
62.3575435786
 30
0.0
 11
22.4999999999885
 21
5.032085859113522E-11
 31
0.0
210
0.0
220
0.0
230
1.0
 40
0.9659258263
 41
5.771965584383755
 42
6.125157785717027
  0
ELLIPSE
  5
ED
330
E6
100
AcDbEntity
  8
00572029_ROHLING
  6
Continuous
 62
     7
100
AcDbEllipse
 10
139.2280614616
 20
62.3575435786
 30
0.0
 11
-22.50000000000118
 21
-4.271583087245290E-11
 31
0.0
210
0.0
220
0.0
230
1.0
 40
0.9659258263
 41
1.217604125526793
 42
1.570796326793058
  0
ELLIPSE
  5
EE
330
E6
100
AcDbEntity
  8
00572029_ROHLING
  6
Continuous
 62
     7
100
AcDbEllipse
 10
139.2280614616
 20
62.3575435786
 30
0.0
 11
-22.49999999999468
 21
2.614575222992243E-11
 31
0.0
210
0.0
220
0.0
230
1.0
 40
0.9659258263
 41
0.8644119241280022
 42
1.217604125529907
  0
ELLIPSE
  5
EF
330
E6
100
AcDbEntity
  8
00572029_ROHLING
  6
Continuous
 62
     7
100
AcDbEllipse
 10
139.2280614616
 20
62.3575435786
 30
0.0
 11
-22.50000000000049
 21
-2.248201624865942E-12
 31
0.0
210
0.0
220
0.0
230
1.0
 40
0.9659258263
 41
0.5112197227934347
 42
0.8644119241267327
  0
ELLIPSE
  5
F0
330
E6
100
AcDbEntity
  8
00572029_ROHLING
  6
Continuous
 62
     7
100
AcDbEllipse
 10
139.2280614616
 20
62.3575435786
 30
0.0
 11
-22.4999999999885
 21
5.032085859113522E-11
 31
0.0
210
0.0
220
0.0
230
1.0
 40
0.9659258263
 41
0.1580275214625631
 42
0.5112197227958293
  0
ELLIPSE
  5
F1
330
E6
100
AcDbEntity
  8
00572029_ROHLING
  6
Continuous
 62
     7
100
AcDbEllipse
 10
139.2280614616
 20
62.3575435786
 30
0.0
 11
22.5000000000021
 21
6.522560269672795E-12
 31
0.0
210
0.0
220
0.0
230
1.0
 40
0.9659258263
 41
3.209257028002026
 42
3.299620175049867
  0
LINE
  5
F2
330
E6
100
AcDbEntity
  8
00572029_ROHLING
  6
Continuous
 62
     7
100
AcDbLine
 10
165.8629797464
 20
207.0280197062
 30
0.0
 11
112.5931431768
 21
207.0280197062
 31
0.0
  0
ELLIPSE
  5
F3
330
E6
100
AcDbEntity
  8
00572029_ROHLING
  6
Continuous
 62
     7
100
AcDbEllipse
 10
139.2280614616
 20
62.0930820874
 30
0.0
 11
-22.50000000000001
 21
5.551115123125783E-14
 31
0.0
210
0.0
220
0.0
230
1.0
 40
0.9659258263
 41
0.0392130562192659
 42
0.088860983972648
  0
ELLIPSE
  5
F4
330
E6
100
AcDbEntity
  8
00572029_ROHLING
  6
Continuous
 62
     7
100
AcDbEllipse
 10
139.2280614616
 20
62.0930820874
 30
0.0
 11
-22.50000000000001
 21
5.551115123125783E-14
 31
0.0
210
0.0
220
0.0
230
1.0
 40
0.9659258263
 41
3.054281636606831
 42
3.103356131506196
  0
SPLINE
  5
F5
330
E6
100
AcDbEntity
  8
00572029_ROHLING
  6
Continuous
 62
     7
100
AcDbSpline
210
0.0
220
0.0
230
1.0
 70
     8
 71
     3
 72
   105
 73
   101
 74
     0
 42
0.0000000000689958
 43
0.0000000001
 40
0.0
 40
0.0
 40
0.0
 40
0.0
 40
0.0277987661496913
 40
0.0598673003299954
 40
0.0908519420298223
 40
0.1207522319412038
 40
0.149567863699019
 40
0.176526857154764
 40
0.2017088738806919
 40
0.225926514951882
 40
0.24915739525095
 40
0.2713553045628346
 40
0.294729320121973
 40
0.3169704923852423
 40
0.337994284909082
 40
0.3578189288620255
 40
0.3764579093996703
 40
0.3939206494989118
 40
0.4102131355284413
 40
0.4249169283047282
 40
0.4382423094532386
 40
0.4505135734070596
 40
0.4617286864480644
 40
0.4718664235856821
 40
0.4821737621486063
 40
0.5030902764729266
 40
0.5243624711555288
 40
0.5448148912448264
 40
0.5660847534617016
 40
0.5877723883649741
 40
0.6004979934087273
 40
0.6074162439880691
 40
0.6142832726050137
 40
0.6204849439149304
 40
0.625630577931657
 40
0.6290435062031215
 40
0.632560820407208
 40
0.6366675809318052
 40
0.6417933635283541
 40
0.6475218409247977
 40
0.6536183107675536
 40
0.6603846418528457
 40
0.6671373759792498
 40
0.673521456602933
 40
0.6794665863565381
 40
0.6876453298528672
 40
0.6948155214526724
 40
0.7023166831299379
 40
0.7116872688761992
 40
0.7212331659338039
 40
0.7280874570180793
 40
0.7317332998828214
 40
0.7354254775562009
 40
0.7392757953978881
 40
0.7433045175765538
 40
0.7469623163484561
 40
0.7511348834804857
 40
0.756824493400959
 40
0.7628694063159265
 40
0.7686167627979301
 40
0.7747502780004207
 40
0.7813146734026873
 40
0.7874586109347987
 40
0.7930054023794518
 40
0.7983596004782414
 40
0.8042118347676035
 40
0.8111703025926706
 40
0.8173759833863697
 40
0.8230159366840545
 40
0.827888315268991
 40
0.8319149133398894
 40
0.8355886896823125
 40
0.8400865427119582
 40
0.8455676896457689
 40
0.8514292640918043
 40
0.8572742731050969
 40
0.8630708906951308
 40
0.8695873222789496
 40
0.8755625616975417
 40
0.8808833684931949
 40
0.8863114674325526
 40
0.8931136933109735
 40
0.9004186505928002
 40
0.9076744463957291
 40
0.9147737359701928
 40
0.9217183760582284
 40
0.9285637244076913
 40
0.9356868780329003
 40
0.9417665858707033
 40
0.9469431969052413
 40
0.9513046958458684
 40
0.9550959479949842
 40
0.9584381686633758
 40
0.9610605086125037
 40
0.9643701368631217
 40
0.9688934066826935
 40
0.9747088029939627
 40
0.981830705029026
 40
0.9902640410854442
 40
1.0
 40
1.0
 40
1.0
 40
1.0
 10
108.6992137401645
 20
204.9975505661248
 30
0.0
 10
108.7913709804621
 20
203.368378224761
 30
0.0
 10
108.9569372244062
 20
200.4382816179913
 30
0.0
 10
109.2373212433994
 20
195.4361857242747
 30
0.0
 10
109.5061836099091
 20
190.5586309007464
 30
0.0
 10
109.7659746481284
 20
185.739161040486
 30
0.0
 10
110.0033753654688
 20
181.1971409634657
 30
0.0
 10
110.2219325498871
 20
176.8679688350707
 30
0.0
 10
110.4185001085463
 20
172.8067499559289
 30
0.0
 10
110.5980518322681
 20
168.9299446629189
 30
0.0
 10
110.7607984492318
 20
165.2197714275592
 30
0.0
 10
110.9150967526434
 20
161.5500299357398
 30
0.0
 10
111.0623257406554
 20
157.9349933168077
 30
0.0
 10
111.2043616147326
 20
154.3814883532059
 30
0.0
 10
111.338114767858
 20
151.0176618671065
 30
0.0
 10
111.4650859985696
 20
147.845749176876
 30
0.0
 10
111.5864271321505
 20
144.863890632835
 30
0.0
 10
111.7028564713767
 20
142.0704129324656
 30
0.0
 10
111.8137303059519
 20
139.4869043838626
 30
0.0
 10
111.9184486995435
 20
137.1240865520523
 30
0.0
 10
112.0168473549423
 20
134.9757902435648
 30
0.0
 10
112.1097249158192
 20
133.0135908533014
 30
0.0
 10
112.1973305651589
 20
131.2214378481965
 30
0.0
 10
112.2823910689079
 20
129.5340850714085
 30
0.0
 10
112.396953238923
 20
127.3298697732944
 30
0.0
 10
112.5494487744656
 20
124.5326584875914
 30
0.0
 10
112.7442106969757
 20
121.1956012327723
 30
0.0
 10
112.9541054283839
 20
117.8405831664359
 30
0.0
 10
113.1806888954718
 20
114.4644678783794
 30
0.0
 10
113.3945365869973
 20
111.5008146042122
 30
0.0
 10
113.5626754825644
 20
109.30163654456
 30
0.0
 10
113.674064113158
 20
107.8913314633193
 30
0.0
 10
113.7599274679196
 20
106.8282216863253
 30
0.0
 10
113.8398619284494
 20
105.85953742335
 30
0.0
 10
113.9057504167614
 20
105.0746423453383
 30
0.0
 10
113.9605204392607
 20
104.4325753353357
 30
0.0
 10
114.0105944697535
 20
103.8458225846192
 30
0.0
 10
114.0648026721861
 20
103.1677857980803
 30
0.0
 10
114.1261954988995
 20
102.3721045871884
 30
0.0
 10
114.1925475569266
 20
101.4703415379879
 30
0.0
 10
114.2631378933086
 20
100.4811555518894
 30
0.0
 10
114.3353959617273
 20
99.4372474443831
 30
0.0
 10
114.4072607298066
 20
98.3780407339675
 30
0.0
 10
114.4751237147608
 20
97.362611625181
 30
0.0
 10
114.5474451098251
 20
96.27155636571791
 30
0.0
 10
114.6221007036864
 20
95.13913732329934
 30
0.0
 10
114.7021433324704
 20
93.92562905970927
 30
0.0
 10
114.7866204583942
 20
92.65143335119025
 30
0.0
 10
114.8802643553037
 20
91.25389186511507
 30
0.0
 10
114.9728953463435
 20
89.89897760197968
 30
0.0
 10
115.0456527893077
 20
88.85341867577584
 30
0.0
 10
115.0959366993929
 20
88.10838020308604
 30
0.0
 10
115.1352250000183
 20
87.52199092000306
 30
0.0
 10
115.1751447388037
 20
86.91487157945258
 30
0.0
 10
115.2142938844449
 20
86.31079003186984
 30
0.0
 10
115.2538973375981
 20
85.68681917478516
 30
0.0
 10
115.2995241326053
 20
84.9575983713949
 30
0.0
 10
115.3478072989701
 20
84.15562741779944
 30
0.0
 10
115.4008853390544
 20
83.24651453074617
 30
0.0
 10
115.4549120441812
 20
82.28047199091459
 30
0.0
 10
115.5077326128919
 20
81.31387276642498
 30
0.0
 10
115.5617283883967
 20
80.31447611410776
 30
0.0
 10
115.6130948132511
 20
79.36690311877213
 30
0.0
 10
115.6602056916293
 20
78.49418500205078
 30
0.0
 10
115.7059102594476
 20
77.6494974962018
 30
0.0
 10
115.7548965240317
 20
76.74642292091542
 30
0.0
 10
115.8057501189854
 20
75.81533025801039
 30
0.0
 10
115.855705635088
 20
74.90951909920392
 30
0.0
 10
115.8999169420968
 20
74.11716666893213
 30
0.0
 10
115.938238612977
 20
73.43906180481015
 30
0.0
 10
115.971264124871
 20
72.86176557988915
 30
0.0
 10
116.0031338293096
 20
72.31165799131516
 30
0.0
 10
116.0385640627938
 20
71.70786057841399
 30
0.0
 10
116.0798152463166
 20
71.01882697889981
 30
0.0
 10
116.1241687226498
 20
70.292681578234
 30
0.0
 10
116.1689804915429
 20
69.58059245349958
 30
0.0
 10
116.2148250536098
 20
68.86558107047068
 30
0.0
 10
116.2608448829352
 20
68.18491282274773
 30
0.0
 10
116.3038303825079
 20
67.52371230068323
 30
0.0
 10
116.3421998018853
 20
66.91052098978905
 30
0.0
 10
116.3815231141729
 20
66.28173700087606
 30
0.0
 10
116.4272308217184
 20
65.577314658174
 30
0.0
 10
116.4786700062079
 20
64.85575139536888
 30
0.0
 10
116.5270944939693
 20
64.18780881341561
 30
0.0
 10
116.5729802026287
 20
63.58923022305317
 30
0.0
 10
116.6142584086865
 20
63.06497301172888
 30
0.0
 10
116.6564209422909
 20
62.55737124427442
 30
0.0
 10
116.686102444007
 20
62.21710532627732
 30
0.0
 10
116.7081043915057
 20
61.97841214710466
 30
0.0
 10
116.7131386470734
 20
61.93401106998524
 30
0.0
 10
116.7049368998332
 20
62.03713093646991
 30
0.0
 10
116.6964017317882
 20
62.15096489315218
 30
0.0
 10
116.6945752777302
 20
62.17589488998508
 30
0.0
 10
116.6964500351989
 20
62.1456125177894
 30
0.0
 10
116.7024004671864
 20
62.05228715883908
 30
0.0
 10
116.7124859843279
 20
61.89269762332318
 30
0.0
 10
116.726474587726
 20
61.6711930082899
 30
0.0
 10
116.74379416283
 20
61.40186253864329
 30
0.0
 10
116.7651209239122
 20
61.0831374315735
 30
0.0
 10
116.7787880295187
 20
60.8998016165319
 30
0.0
 10
116.7875684430468
 20
60.78277794488456
 30
0.0
  0
SPLINE
  5
F6
330
E6
100
AcDbEntity
  8
00572029_ROHLING
  6
Continuous
 62
     7
100
AcDbSpline
210
0.0
220
0.0
230
1.0
 70
     8
 71
     3
 72
    95
 73
    91
 74
     0
 42
0.0000000000689773
 43
0.0000000001
 40
0.0
 40
0.0
 40
0.0
 40
0.0
 40
0.0109216388185695
 40
0.0198556230992252
 40
0.0262814587564191
 40
0.0302737768968382
 40
0.0331339747751833
 40
0.0361764443593509
 40
0.0396419557237395
 40
0.0434680193637181
 40
0.0480144992798552
 40
0.0527186091583398
 40
0.0563331105916755
 40
0.0594652179367261
 40
0.0636283659821961
 40
0.06895562570984
 40
0.074188755835747
 40
0.0785263309978272
 40
0.0819215795184808
 40
0.0867701302652031
 40
0.0940712817137375
 40
0.1020555271407262
 40
0.109357988342927
 40
0.1179474945157058
 40
0.1276113443431049
 40
0.1381385557789239
 40
0.149286248482683
 40
0.1584295552082312
 40
0.1645439114230627
 40
0.1696478384202454
 40
0.1751731082906787
 40
0.1821556437737089
 40
0.1881451979441376
 40
0.193363898281244
 40
0.1995793768823169
 40
0.2059271136466992
 40
0.2116791048705052
 40
0.2162009906404328
 40
0.2198949896070002
 40
0.2242193803884603
 40
0.2302820198847146
 40
0.2365908907194263
 40
0.2414865368442629
 40
0.2465371840209477
 40
0.252109652041085
 40
0.2594043939445044
 40
0.2674679983193594
 40
0.2747338257437556
 40
0.2803107014756307
 40
0.2840891518041428
 40
0.2877629248105263
 40
0.2925563021376224
 40
0.3079297546571637
 40
0.3292713854446608
 40
0.3441410590508392
 40
0.3503829612409299
 40
0.3566041482415312
 40
0.3624037030840199
 40
0.366781085306966
 40
0.3697601134025088
 40
0.3719188944763225
 40
0.3753187105905139
 40
0.3803320508846637
 40
0.387877792300432
 40
0.4003178539707868
 40
0.4133213937288399
 40
0.4254210345929793
 40
0.436307921375759
 40
0.4456944461860896
 40
0.4541643952769673
 40
0.4620459307492081
 40
0.4718621348196472
 40
0.4843915566140991
 40
0.4989202273659366
 40
0.5158041640628204
 40
0.534754691496724
 40
0.5557234491406501
 40
0.5778251876239933
 40
0.6018135778003938
 40
0.6278812622858685
 40
0.6557443762236305
 40
0.6840870646700712
 40
0.7140964398023691
 40
0.7461366297420531
 40
0.7822483094959253
 40
0.8224033529995404
 40
0.8648240347002091
 40
0.9093995634327778
 40
0.9563614178379576
 40
1.0
 40
1.0
 40
1.0
 40
1.0
 10
161.668554480172
 20
60.78277794488456
 30
0.0
 10
161.6793824077827
 20
60.92683470542671
 30
0.0
 10
161.6954833696085
 20
61.14465136353444
 30
0.0
 10
161.7204445763188
 20
61.52240180446115
 30
0.0
 10
161.7371205263652
 20
61.78414577956083
 30
0.0
 10
161.7486860520264
 20
61.96846678601266
 30
0.0
 10
161.7549329007131
 20
62.06819641612206
 30
0.0
 10
161.7578713076539
 20
62.1159305873555
 30
0.0
 10
161.7594906573635
 20
62.14356565059408
 30
0.0
 10
161.7594059149376
 20
62.14674744273182
 30
0.0
 10
161.7552913487967
 20
62.09139460439404
 30
0.0
 10
161.745350879481
 20
61.96295151364082
 30
0.0
 10
161.7397214463776
 20
61.88548687197058
 30
0.0
 10
161.7484493544025
 20
61.9815022799357
 30
0.0
 10
161.7649239809522
 20
62.16069528253247
 30
0.0
 10
161.7888971099016
 20
62.43237204092271
 30
0.0
 10
161.8153067436905
 20
62.74456547712552
 30
0.0
 10
161.8394084557759
 20
63.03838193491278
 30
0.0
 10
161.8644359968121
 20
63.35102740668798
 30
0.0
 10
161.8971438233445
 20
63.76970385468785
 30
0.0
 10
161.941190527313
 20
64.35359733880948
 30
0.0
 10
161.9925058540503
 20
65.06301299484353
 30
0.0
 10
162.0490904208266
 20
65.87519453986536
 30
0.0
 10
162.1088803930107
 20
66.83059582814525
 30
0.0
 10
162.1739743835038
 20
67.87015561804034
 30
0.0
 10
162.2515880712892
 20
69.01289062616301
 30
0.0
 10
162.3309342194483
 20
70.27313296415696
 30
0.0
 10
162.3992513495849
 20
71.39678677104048
 30
0.0
 10
162.4523416160323
 20
72.29971186456417
 30
0.0
 10
162.4961389197453
 20
73.05714031624642
 30
0.0
 10
162.5424702786589
 20
73.87237968471362
 30
0.0
 10
162.5913244615883
 20
74.7453221202337
 30
0.0
 10
162.639579740663
 20
75.61921097697612
 30
0.0
 10
162.6861338165474
 20
76.46958479582274
 30
0.0
 10
162.7340941891191
 20
77.35172108947363
 30
0.0
 10
162.7839352404933
 20
78.27271644950206
 30
0.0
 10
162.8296523864038
 20
79.11887211124542
 30
0.0
 10
162.8686431132147
 20
79.83970360975427
 30
0.0
 10
162.9040557960971
 20
80.4934340736578
 30
0.0
 10
162.9444721393186
 20
81.23844205765958
 30
0.0
 10
162.9920769816462
 20
82.11656228121667
 30
0.0
 10
163.0438862604712
 20
83.044567405443
 30
0.0
 10
163.0928315133483
 20
83.89368840483229
 30
0.0
 10
163.1415069740291
 20
84.7076304179224
 30
0.0
 10
163.199487765882
 20
85.64765562616019
 30
0.0
 10
163.2694782459238
 20
86.74379727840595
 30
0.0
 10
163.3480228904574
 20
87.93251265625264
 30
0.0
 10
163.422301186605
 20
89.02536233826652
 30
0.0
 10
163.4827644894984
 20
89.89508883200946
 30
0.0
 10
163.529508254877
 20
90.57619235708349
 30
0.0
 10
163.5733697222801
 20
91.22107271739063
 30
0.0
 10
163.6582985027945
 20
92.48092372760357
 30
0.0
 10
163.8041661106753
 20
94.68175517905095
 30
0.0
 10
163.9843967768326
 20
97.4266568411452
 30
0.0
 10
164.1372576911421
 20
99.68638673945627
 30
0.0
 10
164.2397884548942
 20
101.1410918168673
 30
0.0
 10
164.3105714844243
 20
102.1129328786134
 30
0.0
 10
164.3768692565422
 20
102.9853354161895
 30
0.0
 10
164.4325825670919
 20
103.6850030220897
 30
0.0
 10
164.4747669401715
 20
104.1908730477509
 30
0.0
 10
164.5138215251723
 20
104.6448126431716
 30
0.0
 10
164.5614916298643
 20
105.2070234892156
 30
0.0
 10
164.632639295368
 20
106.0557701430689
 30
0.0
 10
164.7418262132805
 20
107.3855082921976
 30
0.0
 10
164.8813615855192
 20
109.1406081273733
 30
0.0
 10
165.0336540287456
 20
111.1384713421619
 30
0.0
 10
165.1737047477051
 20
113.0541420444629
 30
0.0
 10
165.2949288157555
 20
114.7776262525891
 30
0.0
 10
165.3989648745443
 20
116.3081194250946
 30
0.0
 10
165.489369890798
 20
117.6787637374642
 30
0.0
 10
165.5787972818242
 20
119.0724308697025
 30
0.0
 10
165.6790801319665
 20
120.6824990119976
 30
0.0
 10
165.7969497911914
 20
122.6469436330841
 30
0.0
 10
165.9312996632867
 20
124.9882554798749
 30
0.0
 10
166.0777011993769
 20
127.6721979347681
 30
0.0
 10
166.2338937056573
 20
130.6996964363996
 30
0.0
 10
166.3947966034796
 20
134.0059898905842
 30
0.0
 10
166.5590693512542
 20
137.5808693245288
 30
0.0
 10
166.7267677852307
 20
141.4287260389512
 30
0.0
 10
166.8996494963097
 20
145.5826809711775
 30
0.0
 10
167.0765074002133
 20
149.9717063056192
 30
0.0
 10
167.2588696830363
 20
154.566128519641
 30
0.0
 10
167.4523291202553
 20
159.3924102765369
 30
0.0
 10
167.6678715969715
 20
164.6155665722939
 30
0.0
 10
167.9234648911033
 20
170.412300545489
 30
0.0
 10
168.223582213264
 20
176.6978379118607
 30
0.0
 10
168.5733127991357
 20
183.5522811365673
 30
0.0
 10
168.9477539486206
 20
190.5462053081344
 30
0.0
 10
169.3634222305651
 20
198.0335192776504
 30
0.0
 10
169.6122180229543
 20
202.4396607166269
 30
0.0
 10
169.7569209704068
 20
204.997463182676
 30
0.0
  0
LINE
  5
F7
330
E6
100
AcDbEntity
  8
00572029_ROHLING
  6
Continuous
 62
     7
100
AcDbLine
 10
168.5175619489
 20
206.5599452414
 30
0.0
 11
165.8629797464
 21
207.0280197062
 31
0.0
  0
LINE
  5
F8
330
E6
100
AcDbEntity
  8
00572029_ROHLING
  6
Continuous
 62
     7
100
AcDbLine
 10
112.5931431768
 20
207.0280197062
 30
0.0
 11
109.9377832977
 21
206.559808116
 31
0.0
  0
ARC
  5
F9
330
E6
100
AcDbEntity
  8
00572029_ROHLING
  6
Continuous
 62
     7
100
AcDbCircle
 10
110.1968814037
 20
205.082354185
 30
0.0
 40
1.49999999996537
100
AcDbArc
 50
99.947074462
 51
183.2444397142
  0
ARC
  5
FA
330
E6
100
AcDbEntity
  8
00572029_ROHLING
  6
Continuous
 62
     7
100
AcDbCircle
 10
168.2592415195
 20
205.082354185
 30
0.0
 40
1.4999999999905
100
AcDbArc
 50
356.7643305263
 51
80.0868776338
  0
ARC
  5
FB
330
E6
100
AcDbEntity
  8
00572029_ROHLING
  6
Continuous
 62
     7
100
AcDbCircle
 10
138.9273380908
 20
62.5202279072
 30
0.0
 40
22.23065935678384
100
AcDbArc
 50
186.113753404
 51
270.7750874685
  0
ARC
  5
FC
330
E6
100
AcDbEntity
  8
00572029_ROHLING
  6
Continuous
 62
     7
100
AcDbCircle
 10
139.5295500952
 20
62.5209410973
 30
0.0
 40
22.23138284645443
100
AcDbArc
 50
269.2229653044
 51
353.9716365568
  0
ARC
  5
FD
330
E6
100
AcDbEntity
  8
02396031_BRS_KOP
  6
Continuous
 62
     7
100
AcDbCircle
 10
139.2280614616
 20
59.8861060359
 30
0.0
 40
22.0
100
AcDbArc
 50
189.4600554302
 51
270.0
  0
ARC
  5
FE
330
E6
100
AcDbEntity
  8
02396031_BRS_KOP
  6
Continuous
 62
     7
100
AcDbCircle
 10
139.2280614616
 20
59.8861060359
 30
0.0
 40
22.00000000000002
100
AcDbArc
 50
270.0
 51
350.430983851
  0
ENDBLK
  5
100
330
E6
100
AcDbEntity
  8
0
100
AcDbBlockEnd
  0
ENDSEC
  0
SECTION
  2
ENTITIES
  0
INSERT
  5
5F
330
1F
100
AcDbEntity
  8
Default
100
AcDbBlockReference
  2
SEANNOT_GROUP
 10
0.0
 20
0.0
 30
0.0
  0
INSERT
  5
6A
330
1F
100
AcDbEntity
  8
Default
100
AcDbBlockReference
  2
SEANNOT_GROUP1
 10
0.0
 20
0.0
 30
0.0
  0
INSERT
  5
70
330
1F
100
AcDbEntity
  8
Default
100
AcDbBlockReference
  2
SEANNOT_GROUP2
 10
0.0
 20
0.0
 30
0.0
  0
INSERT
  5
76
330
1F
100
AcDbEntity
  8
Default
100
AcDbBlockReference
  2
SE
 10
0.0
 20
0.0
 30
0.0
  0
INSERT
  5
B0
330
1F
100
AcDbEntity
  8
Default
100
AcDbBlockReference
  2
SE1
 10
0.0
 20
0.0
 30
0.0
  0
INSERT
  5
E7
330
1F
100
AcDbEntity
  8
Default
100
AcDbBlockReference
  2
SE2
 10
0.0
 20
0.0
 30
0.0
  0
TEXT
  5
102
330
1F
100
AcDbEntity
  8
Default
  6
Continuous
 62
     7
100
AcDbText
 10
5.9362635081
 20
53.4225120485
 30
0.0
 40
10.0
  1
Grohe AG^J
  7
SEACAD_seiso_ttf
 11
5.9362635081
 21
63.4225120485
 31
0.0
100
AcDbText
 73
     3
  0
TEXT
  5
103
330
1F
100
AcDbEntity
  8
Default
  6
Continuous
 62
     7
100
AcDbText
 10
5.9362635081
 20
37.0588756849
 30
0.0
 40
10.0
  1
 
  7
SEACAD_seiso_ttf
 11
5.9362635081
 21
47.0588756849
 31
0.0
100
AcDbText
 73
     3
  0
TEXT
  5
104
330
1F
100
AcDbEntity
  8
Default
  6
Continuous
 62
     7
100
AcDbText
 10
5.9362635081
 20
20.6952393213
 30
0.0
 40
10.0
  1
ecn: 
  7
SEACAD_seiso_ttf
 11
5.9362635081
 21
30.6952393213
 31
0.0
100
AcDbText
 73
     3
  0
TEXT
  5
105
330
1F
100
AcDbEntity
  8
Default
  6
Continuous
 62
     7
100
AcDbText
 10
5.9362635081
 20
4.3316029576
 30
0.0
 40
10.0
  1
unit: mm
  7
SEACAD_seiso_ttf
 11
5.9362635081
 21
14.3316029576
 31
0.0
100
AcDbText
 73
     3
  0
LINE
  5
106
330
1F
100
AcDbEntity
  8
Default
  6
Continuous
 62
     7
100
AcDbLine
 10
0.0
 20
0.0
 30
0.0
 11
100.0
 21
0.0
 31
0.0
  0
LINE
  5
107
330
1F
100
AcDbEntity
  8
Default
  6
Continuous
 62
     7
100
AcDbLine
 10
0.0
 20
0.0
 30
0.0
 11
0.0
 21
100.0
 31
0.0
  0
TEXT
  5
108
330
1F
100
AcDbEntity
  8
Default
  6
Continuous
 62
     7
100
AcDbText
 10
24.3923665681
 20
-18.2375342018
 30
0.0
 40
10.0
  1
100 mm
  7
SEACAD_seiso_ttf
 11
24.3923665681
 21
-8.2375342018
 31
0.0
100
AcDbText
 73
     3
  0
TEXT
  5
109
330
1F
100
AcDbEntity
  8
Default
  6
Continuous
 62
     7
100
AcDbText
 10
-7.6150308803
 20
24.6231930421
 30
0.0
 40
10.0
  1
100 mm
 50
90.0
  7
SEACAD_seiso_ttf
 11
-17.6150308803
 21
24.6231930421
 31
0.0
100
AcDbText
 73
     3
  0
TEXT
  5
10A
330
1F
100
AcDbEntity
  8
Default
  6
Continuous
 62
     7
100
AcDbText
 10
28.4878128572
 20
20.0907663715
 30
0.0
 40
10.0
  1
99991
  7
SEACAD_seiso_ttf
 11
28.4878128572
 21
30.0907663715
 31
0.0
100
AcDbText
 73
     3
  0
TEXT
  5
10B
330
1F
100
AcDbEntity
  8
Default
  6
Continuous
 62
     7
100
AcDbText
 10
5.9012241913
 20
36.7242780188
 30
0.0
 40
10.0
  1
28089040
  7
SEACAD_seiso_ttf
 11
5.9012241913
 21
46.7242780188
 31
0.0
100
AcDbText
 73
     3
  0
ENDSEC
  0
SECTION
  2
OBJECTS
  0
DICTIONARY
  5
C
330
0
100
AcDbDictionary
281
     1
  3
ACAD_GROUP
350
D
  3
ACAD_LAYOUT
350
1A
  3
ACAD_MLEADERSTYLE
350
10F
  3
ACAD_MLINESTYLE
350
17
  3
ACAD_PLOTSETTINGS
350
19
  3
ACAD_PLOTSTYLENAME
350
E
  3
ACAD_SCALELIST
350
3B
  3
ACAD_TABLESTYLE
350
10E
  3
ACAD_VISUALSTYLE
350
2A
  3
AcDbVariableDictionary
350
10C
  0
DICTIONARY
  5
D
102
{ACAD_REACTORS
330
C
102
}
330
C
100
AcDbDictionary
281
     1
  0
DICTIONARY
  5
1A
102
{ACAD_REACTORS
330
C
102
}
330
C
100
AcDbDictionary
281
     1
  3
Layout1
350
1E
  3
Model
350
22
  0
DICTIONARY
  5
10F
102
{ACAD_REACTORS
330
C
102
}
330
C
100
AcDbDictionary
281
     1
  0
DICTIONARY
  5
17
102
{ACAD_REACTORS
330
C
102
}
330
C
100
AcDbDictionary
281
     1
  3
Standard
350
18
  0
DICTIONARY
  5
19
102
{ACAD_REACTORS
330
C
102
}
330
C
100
AcDbDictionary
281
     1
  0
ACDBDICTIONARYWDFLT
  5
E
102
{ACAD_REACTORS
330
C
102
}
330
C
100
AcDbDictionary
281
     1
  3
Normal
350
F
100
AcDbDictionaryWithDefault
340
F
  0
DICTIONARY
  5
3B
102
{ACAD_REACTORS
330
C
102
}
330
C
100
AcDbDictionary
281
     1
  3
A0
350
3C
  3
A1
350
3D
  3
A2
350
3E
  3
A3
350
3F
  3
A4
350
40
  3
A5
350
41
  3
A6
350
42
  3
A7
350
43
  3
A8
350
44
  3
A9
350
45
  3
B0
350
46
  3
B1
350
47
  3
B2
350
48
  3
B3
350
49
  3
B4
350
4A
  3
B5
350
4B
  3
B6
350
4C
  3
B7
350
4D
  3
B8
350
4E
  3
B9
350
4F
  3
C0
350
50
  3
C1
350
51
  3
C2
350
52
  3
C3
350
53
  3
C4
350
54
  3
C5
350
55
  3
C6
350
56
  3
C7
350
57
  3
C8
350
58
  3
C9
350
59
  3
D0
350
5A
  3
D1
350
5B
  3
D2
350
5C
  0
DICTIONARY
  5
10E
102
{ACAD_REACTORS
330
C
102
}
330
C
100
AcDbDictionary
281
     1
  0
DICTIONARY
  5
2A
102
{ACAD_REACTORS
330
C
102
}
330
C
100
AcDbDictionary
281
     1
  3
2dWireframe
350
2F
  3
3D Hidden
350
31
  3
3dWireframe
350
30
  3
Basic
350
32
  3
Brighten
350
36
  3
ColorChange
350
3A
  3
Conceptual
350
34
  3
Dim
350
35
  3
Facepattern
350
39
  3
Flat
350
2B
  3
FlatWithEdges
350
2C
  3
Gouraud
350
2D
  3
GouraudWithEdges
350
2E
  3
Linepattern
350
38
  3
Realistic
350
33
  3
Thicken
350
37
  0
DICTIONARY
  5
10C
102
{ACAD_REACTORS
330
C
102
}
330
C
100
AcDbDictionary
281
     1
  3
CANNOSCALE
350
10D
  3
PSOLHEIGHT
350
111
  3
PSOLWIDTH
350
110
  0
LAYOUT
  5
1E
102
{ACAD_REACTORS
330
1A
102
}
330
1A
100
AcDbPlotSettings
  1

  2
none_device
  4

  6

 40
0.0
 41
0.0
 42
0.0
 43
0.0
 44
0.0
 45
0.0
 46
0.0
 47
0.0
 48
0.0
 49
0.0
140
0.0
141
0.0
142
1.0
143
1.0
 70
   688
 72
     0
 73
     0
 74
     5
  7

 75
    16
147
1.0
148
0.0
149
0.0
100
AcDbLayout
  1
Layout1
 70
     1
 71
     1
 10
0.0
 20
0.0
 11
1682.0
 21
2378.0
 12
0.0
 22
0.0
 32
0.0
 14
0.0
 24
0.0
 34
0.0
 15
1682.0
 25
2378.0
 35
0.0
146
0.0
 13
0.0
 23
0.0
 33
0.0
 16
1.0
 26
0.0
 36
0.0
 17
0.0
 27
1.0
 37
0.0
 76
     0
330
1B
  0
LAYOUT
  5
22
102
{ACAD_REACTORS
330
1A
102
}
330
1A
100
AcDbPlotSettings
  1

  2
none_device
  4

  6

 40
0.0
 41
0.0
 42
0.0
 43
0.0
 44
0.0
 45
0.0
 46
0.0
 47
0.0
 48
0.0
 49
0.0
140
0.0
141
0.0
142
1.0
143
1.0
 70
  1712
 72
     0
 73
     0
 74
     0
  7

 75
     0
147
1.0
148
0.0
149
0.0
100
AcDbLayout
  1
Model
 70
     1
 71
     0
 10
0.0
 20
0.0
 11
1682.0
 21
2378.0
 12
0.0
 22
0.0
 32
0.0
 14
0.0
 24
0.0
 34
0.0
 15
1682.0
 25
2378.0
 35
0.0
146
0.0
 13
0.0
 23
0.0
 33
0.0
 16
1.0
 26
0.0
 36
0.0
 17
0.0
 27
1.0
 37
0.0
 76
     0
330
1F
331
29
  0
MLINESTYLE
  5
18
102
{ACAD_REACTORS
330
17
102
}
330
17
100
AcDbMlineStyle
  2
Standard
 70
     0
  3

 62
   256
 51
90.0
 52
90.0
 71
     2
 49
0.5
 62
   256
  6
BYLAYER
 49
-0.5
 62
   256
  6
BYLAYER
  0
ACDBPLACEHOLDER
  5
F
102
{ACAD_REACTORS
330
E
102
}
330
E
  0
SCALE
  5
3C
102
{ACAD_REACTORS
330
3B
102
}
330
3B
100
AcDbScale
 70
     0
300
1:1
140
1.0
141
1.0
290
     1
  0
SCALE
  5
3D
102
{ACAD_REACTORS
330
3B
102
}
330
3B
100
AcDbScale
 70
     0
300
1:2
140
1.0
141
2.0
290
     0
  0
SCALE
  5
3E
102
{ACAD_REACTORS
330
3B
102
}
330
3B
100
AcDbScale
 70
     0
300
1:4
140
1.0
141
4.0
290
     0
  0
SCALE
  5
3F
102
{ACAD_REACTORS
330
3B
102
}
330
3B
100
AcDbScale
 70
     0
300
1:5
140
1.0
141
5.0
290
     0
  0
SCALE
  5
40
102
{ACAD_REACTORS
330
3B
102
}
330
3B
100
AcDbScale
 70
     0
300
1:8
140
1.0
141
8.0
290
     0
  0
SCALE
  5
41
102
{ACAD_REACTORS
330
3B
102
}
330
3B
100
AcDbScale
 70
     0
300
1:10
140
1.0
141
10.0
290
     0
  0
SCALE
  5
42
102
{ACAD_REACTORS
330
3B
102
}
330
3B
100
AcDbScale
 70
     0
300
1:16
140
1.0
141
16.0
290
     0
  0
SCALE
  5
43
102
{ACAD_REACTORS
330
3B
102
}
330
3B
100
AcDbScale
 70
     0
300
1:20
140
1.0
141
20.0
290
     0
  0
SCALE
  5
44
102
{ACAD_REACTORS
330
3B
102
}
330
3B
100
AcDbScale
 70
     0
300
1:30
140
1.0
141
30.0
290
     0
  0
SCALE
  5
45
102
{ACAD_REACTORS
330
3B
102
}
330
3B
100
AcDbScale
 70
     0
300
1:40
140
1.0
141
40.0
290
     0
  0
SCALE
  5
46
102
{ACAD_REACTORS
330
3B
102
}
330
3B
100
AcDbScale
 70
     0
300
1:50
140
1.0
141
50.0
290
     0
  0
SCALE
  5
47
102
{ACAD_REACTORS
330
3B
102
}
330
3B
100
AcDbScale
 70
     0
300
1:100
140
1.0
141
100.0
290
     0
  0
SCALE
  5
48
102
{ACAD_REACTORS
330
3B
102
}
330
3B
100
AcDbScale
 70
     0
300
2:1
140
2.0
141
1.0
290
     0
  0
SCALE
  5
49
102
{ACAD_REACTORS
330
3B
102
}
330
3B
100
AcDbScale
 70
     0
300
4:1
140
4.0
141
1.0
290
     0
  0
SCALE
  5
4A
102
{ACAD_REACTORS
330
3B
102
}
330
3B
100
AcDbScale
 70
     0
300
8:1
140
8.0
141
1.0
290
     0
  0
SCALE
  5
4B
102
{ACAD_REACTORS
330
3B
102
}
330
3B
100
AcDbScale
 70
     0
300
10:1
140
10.0
141
1.0
290
     0
  0
SCALE
  5
4C
102
{ACAD_REACTORS
330
3B
102
}
330
3B
100
AcDbScale
 70
     0
300
100:1
140
100.0
141
1.0
290
     0
  0
SCALE
  5
4D
102
{ACAD_REACTORS
330
3B
102
}
330
3B
100
AcDbScale
 70
     0
300
1/128" = 1'-0"
140
0.0078125
141
12.0
290
     0
  0
SCALE
  5
4E
102
{ACAD_REACTORS
330
3B
102
}
330
3B
100
AcDbScale
 70
     0
300
1/64" = 1'-0"
140
0.015625
141
12.0
290
     0
  0
SCALE
  5
4F
102
{ACAD_REACTORS
330
3B
102
}
330
3B
100
AcDbScale
 70
     0
300
1/32" = 1'-0"
140
0.03125
141
12.0
290
     0
  0
SCALE
  5
50
102
{ACAD_REACTORS
330
3B
102
}
330
3B
100
AcDbScale
 70
     0
300
1/16" = 1'-0"
140
0.0625
141
12.0
290
     0
  0
SCALE
  5
51
102
{ACAD_REACTORS
330
3B
102
}
330
3B
100
AcDbScale
 70
     0
300
3/32" = 1'-0"
140
0.09375
141
12.0
290
     0
  0
SCALE
  5
52
102
{ACAD_REACTORS
330
3B
102
}
330
3B
100
AcDbScale
 70
     0
300
1/8" = 1'-0"
140
0.125
141
12.0
290
     0
  0
SCALE
  5
53
102
{ACAD_REACTORS
330
3B
102
}
330
3B
100
AcDbScale
 70
     0
300
3/16" = 1'-0"
140
0.1875
141
12.0
290
     0
  0
SCALE
  5
54
102
{ACAD_REACTORS
330
3B
102
}
330
3B
100
AcDbScale
 70
     0
300
1/4" = 1'-0"
140
0.25
141
12.0
290
     0
  0
SCALE
  5
55
102
{ACAD_REACTORS
330
3B
102
}
330
3B
100
AcDbScale
 70
     0
300
3/8" = 1'-0"
140
0.375
141
12.0
290
     0
  0
SCALE
  5
56
102
{ACAD_REACTORS
330
3B
102
}
330
3B
100
AcDbScale
 70
     0
300
1/2" = 1'-0"
140
0.5
141
12.0
290
     0
  0
SCALE
  5
57
102
{ACAD_REACTORS
330
3B
102
}
330
3B
100
AcDbScale
 70
     0
300
3/4" = 1'-0"
140
0.75
141
12.0
290
     0
  0
SCALE
  5
58
102
{ACAD_REACTORS
330
3B
102
}
330
3B
100
AcDbScale
 70
     0
300
1" = 1'-0"
140
1.0
141
12.0
290
     0
  0
SCALE
  5
59
102
{ACAD_REACTORS
330
3B
102
}
330
3B
100
AcDbScale
 70
     0
300
1-1/2" = 1'-0"
140
1.5
141
12.0
290
     0
  0
SCALE
  5
5A
102
{ACAD_REACTORS
330
3B
102
}
330
3B
100
AcDbScale
 70
     0
300
3" = 1'-0"
140
3.0
141
12.0
290
     0
  0
SCALE
  5
5B
102
{ACAD_REACTORS
330
3B
102
}
330
3B
100
AcDbScale
 70
     0
300
6" = 1'-0"
140
6.0
141
12.0
290
     0
  0
SCALE
  5
5C
102
{ACAD_REACTORS
330
3B
102
}
330
3B
100
AcDbScale
 70
     0
300
1'-0" = 1'-0"
140
12.0
141
12.0
290
     0
  0
VISUALSTYLE
  5
2F
102
{ACAD_REACTORS
330
2A
102
}
330
2A
100
AcDbVisualStyle
  2
2dWireframe
 70
     4
 71
     0
 72
     2
 73
     0
 90
        0
 40
-0.6
 41
-30.0
 62
     5
 63
     7
 74
     1
 91
        4
 64
     7
 65
   257
 75
     1
175
     1
 42
1.0
 92
        0
 66
   257
 43
1.0
 76
     1
 77
     6
 78
     2
 67
     7
 79
     5
170
     0
171
     0
290
     0
174
     0
 93
        1
 44
0.0
173
     0
291
     0
 45
0.0
1001
ACAD
1000
AcDbSavedByObjectVersion
1070
     0
  0
VISUALSTYLE
  5
31
102
{ACAD_REACTORS
330
2A
102
}
330
2A
100
AcDbVisualStyle
  2
3D Hidden
 70
     6
 71
     1
 72
     2
 73
     2
 90
        0
 40
-0.6
 41
-30.0
 62
     5
 63
     7
 74
     2
 91
        2
 64
     7
 65
   257
 75
     2
175
     1
 42
40.0
 92
        0
 66
   257
 43
1.0
 76
     1
 77
     6
 78
     2
 67
     7
 79
     3
170
     0
171
     0
290
     0
174
     0
 93
        1
 44
0.0
173
     0
291
     0
 45
0.0
1001
ACAD
1000
AcDbSavedByObjectVersion
1070
     0
  0
VISUALSTYLE
  5
30
102
{ACAD_REACTORS
330
2A
102
}
330
2A
100
AcDbVisualStyle
  2
3dWireframe
 70
     5
 71
     0
 72
     2
 73
     0
 90
        0
 40
-0.6
 41
-30.0
 62
     5
 63
     7
 74
     1
 91
        4
 64
     7
 65
   257
 75
     1
175
     1
 42
1.0
 92
        0
 66
   257
 43
1.0
 76
     1
 77
     6
 78
     2
 67
     7
 79
     5
170
     0
171
     0
290
     0
174
     0
 93
        1
 44
0.0
173
     0
291
     0
 45
0.0
1001
ACAD
1000
AcDbSavedByObjectVersion
1070
     0
  0
VISUALSTYLE
  5
32
102
{ACAD_REACTORS
330
2A
102
}
330
2A
100
AcDbVisualStyle
  2
Basic
 70
     7
 71
     1
 72
     0
 73
     1
 90
        0
 40
-0.6
 41
-30.0
 62
     5
 63
     7
 74
     0
 91
        4
 64
     7
 65
   257
 75
     1
175
     1
 42
1.0
 92
        8
 66
     7
 43
1.0
 76
     1
 77
     6
 78
     2
 67
     7
 79
     5
170
     0
171
     0
290
     0
174
     0
 93
        1
 44
0.0
173
     0
291
     1
 45
0.0
1001
ACAD
1000
AcDbSavedByObjectVersion
1070
     0
  0
VISUALSTYLE
  5
36
102
{ACAD_REACTORS
330
2A
102
}
330
2A
100
AcDbVisualStyle
  2
Brighten
 70
    12
 71
     2
 72
     2
 73
     0
 90
        0
 40
-0.6
 41
-30.0
 62
     5
 63
     7
 74
     1
 91
        4
 64
     7
 65
   257
 75
     1
175
     1
 42
1.0
 92
        8
 66
     7
 43
1.0
 76
     1
 77
     6
 78
     2
 67
     7
 79
     5
170
     0
171
     0
290
     0
174
     0
 93
        1
 44
50.0
173
     0
291
     1
 45
0.0
1001
ACAD
1000
AcDbSavedByObjectVersion
1070
     0
  0
VISUALSTYLE
  5
3A
102
{ACAD_REACTORS
330
2A
102
}
330
2A
100
AcDbVisualStyle
  2
ColorChange
 70
    16
 71
     2
 72
     2
 73
     3
 90
        0
 40
-0.6
 41
-30.0
 62
     5
 63
     8
 74
     1
 91
        4
 64
     7
 65
   257
 75
     1
175
     1
 42
1.0
 92
        8
 66
     8
 43
1.0
 76
     1
 77
     6
 78
     2
 67
     7
 79
     5
170
     0
171
     0
290
     0
174
     0
 93
        1
 44
0.0
173
     0
291
     1
 45
0.0
1001
ACAD
1000
AcDbSavedByObjectVersion
1070
     0
  0
VISUALSTYLE
  5
34
102
{ACAD_REACTORS
330
2A
102
}
330
2A
100
AcDbVisualStyle
  2
Conceptual
 70
     9
 71
     3
 72
     2
 73
     0
 90
        0
 40
-0.6
 41
-30.0
 62
     5
 63
     7
 74
     2
 91
        2
 64
     7
 65
   257
 75
     1
175
     1
 42
40.0
 92
        8
 66
     7
 43
1.0
 76
     1
 77
     6
 78
     2
 67
     7
 79
     3
170
     0
171
     0
290
     0
174
     0
 93
        1
 44
0.0
173
     0
291
     0
 45
0.0
1001
ACAD
1000
AcDbSavedByObjectVersion
1070
     0
  0
VISUALSTYLE
  5
35
102
{ACAD_REACTORS
330
2A
102
}
330
2A
100
AcDbVisualStyle
  2
Dim
 70
    11
 71
     2
 72
     2
 73
     0
 90
        0
 40
-0.6
 41
-30.0
 62
     5
 63
     7
 74
     1
 91
        4
 64
     7
 65
   257
 75
     1
175
     1
 42
1.0
 92
        8
 66
     7
 43
1.0
 76
     1
 77
     6
 78
     2
 67
     7
 79
     5
170
     0
171
     0
290
     0
174
     0
 93
        1
 44
-50.0
173
     0
291
     1
 45
0.0
1001
ACAD
1000
AcDbSavedByObjectVersion
1070
     0
  0
VISUALSTYLE
  5
39
102
{ACAD_REACTORS
330
2A
102
}
330
2A
100
AcDbVisualStyle
  2
Facepattern
 70
    15
 71
     2
 72
     2
 73
     0
 90
        0
 40
-0.6
 41
-30.0
 62
     5
 63
     7
 74
     1
 91
        4
 64
     7
 65
   257
 75
     1
175
     1
 42
1.0
 92
        8
 66
     7
 43
1.0
 76
     1
 77
     6
 78
     2
 67
     7
 79
     5
170
     0
171
     0
290
     0
174
     0
 93
        1
 44
0.0
173
     0
291
     1
 45
0.0
1001
ACAD
1000
AcDbSavedByObjectVersion
1070
     0
  0
VISUALSTYLE
  5
2B
102
{ACAD_REACTORS
330
2A
102
}
330
2A
100
AcDbVisualStyle
  2
Flat
 70
     0
 71
     2
 72
     1
 73
     1
 90
        2
 40
-0.6
 41
30.0
 62
     5
 63
     7
 74
     0
 91
        4
 64
     7
 65
   257
 75
     1
175
     1
 42
1.0
 92
        8
 66
     7
 43
1.0
 76
     1
 77
     6
 78
     2
 67
     7
 79
     5
170
     0
171
     0
290
     0
174
     0
 93
       13
 44
0.0
173
     0
291
     1
 45
0.0
1001
ACAD
1000
AcDbSavedByObjectVersion
1070
     0
  0
VISUALSTYLE
  5
2C
102
{ACAD_REACTORS
330
2A
102
}
330
2A
100
AcDbVisualStyle
  2
FlatWithEdges
 70
     1
 71
     2
 72
     1
 73
     1
 90
        2
 40
-0.6
 41
30.0
 62
     5
 63
     7
 74
     1
 91
        4
 64
     7
 65
   257
 75
     1
175
     1
 42
1.0
 92
        0
 66
   257
 43
1.0
 76
     1
 77
     6
 78
     2
 67
     7
 79
     5
170
     0
171
     0
290
     0
174
     0
 93
       13
 44
0.0
173
     0
291
     1
 45
0.0
1001
ACAD
1000
AcDbSavedByObjectVersion
1070
     0
  0
VISUALSTYLE
  5
2D
102
{ACAD_REACTORS
330
2A
102
}
330
2A
100
AcDbVisualStyle
  2
Gouraud
 70
     2
 71
     2
 72
     2
 73
     1
 90
        2
 40
-0.6
 41
30.0
 62
     5
 63
     7
 74
     0
 91
        4
 64
     7
 65
   257
 75
     1
175
     1
 42
1.0
 92
        0
 66
     7
 43
1.0
 76
     1
 77
     6
 78
     2
 67
     7
 79
     5
170
     0
171
     0
290
     0
174
     0
 93
       13
 44
0.0
173
     0
291
     1
 45
0.0
1001
ACAD
1000
AcDbSavedByObjectVersion
1070
     0
  0
VISUALSTYLE
  5
2E
102
{ACAD_REACTORS
330
2A
102
}
330
2A
100
AcDbVisualStyle
  2
GouraudWithEdges
 70
     3
 71
     2
 72
     2
 73
     1
 90
        2
 40
-0.6
 41
30.0
 62
     5
 63
     7
 74
     1
 91
        4
 64
     7
 65
   257
 75
     1
175
     1
 42
1.0
 92
        0
 66
   257
 43
1.0
 76
     1
 77
     6
 78
     2
 67
     7
 79
     5
170
     0
171
     0
290
     0
174
     0
 93
       13
 44
0.0
173
     0
291
     1
 45
0.0
1001
ACAD
1000
AcDbSavedByObjectVersion
1070
     0
  0
VISUALSTYLE
  5
38
102
{ACAD_REACTORS
330
2A
102
}
330
2A
100
AcDbVisualStyle
  2
Linepattern
 70
    14
 71
     2
 72
     2
 73
     0
 90
        0
 40
-0.6
 41
-30.0
 62
     5
 63
     7
 74
     1
 91
        4
 64
     7
 65
   257
 75
     7
175
     7
 42
1.0
 92
        8
 66
     7
 43
1.0
 76
     1
 77
     6
 78
     2
 67
     7
 79
     5
170
     0
171
     0
290
     0
174
     0
 93
        1
 44
0.0
173
     0
291
     1
 45
0.0
1001
ACAD
1000
AcDbSavedByObjectVersion
1070
     0
  0
VISUALSTYLE
  5
33
102
{ACAD_REACTORS
330
2A
102
}
330
2A
100
AcDbVisualStyle
  2
Realistic
 70
     8
 71
     2
 72
     2
 73
     0
 90
        0
 40
-0.6
 41
-30.0
 62
     5
 63
     7
 74
     1
 91
        0
 64
     7
 65
   257
 75
     1
175
     1
 42
1.0
 92
        8
 66
     8
 43
1.0
 76
     1
 77
     6
 78
     2
 67
     7
 79
     5
170
     0
171
     0
290
     0
174
     0
 93
       13
 44
0.0
173
     0
291
     0
 45
0.0
1001
ACAD
1000
AcDbSavedByObjectVersion
1070
     0
  0
VISUALSTYLE
  5
37
102
{ACAD_REACTORS
330
2A
102
}
330
2A
100
AcDbVisualStyle
  2
Thicken
 70
    13
 71
     2
 72
     2
 73
     0
 90
        0
 40
-0.6
 41
-30.0
 62
     5
 63
     7
 74
     1
 91
        4
 64
     7
 65
   257
 75
     1
175
     1
 42
1.0
 92
       12
 66
     7
 43
1.0
 76
     1
 77
     6
 78
     2
 67
     7
 79
     5
170
     0
171
     0
290
     0
174
     0
 93
        1
 44
0.0
173
     0
291
     1
 45
0.0
1001
ACAD
1000
AcDbSavedByObjectVersion
1070
     0
  0
DICTIONARYVAR
  5
10D
102
{ACAD_REACTORS
330
10C
102
}
330
10C
100
DictionaryVariables
280
     0
  1
1:1
  0
DICTIONARYVAR
  5
111
102
{ACAD_REACTORS
330
10C
102
}
330
10C
100
DictionaryVariables
280
     0
  1
80.000000
  0
DICTIONARYVAR
  5
110
102
{ACAD_REACTORS
330
10C
102
}
330
10C
100
DictionaryVariables
280
     0
  1
5.000000
  0
ENDSEC
  0
EOF
