  0
SECTION
  2
HEADER
  9
$ACADVER
  1
AC1015
  9
$ACADMAINTVER
 70
     6
  9
$DWGCODEPAGE
  3
ANSI_1252
  9
$INSBASE
 10
0.0
 20
0.0
 30
0.0
  9
$EXTMIN
 10
0.0
 20
0.0
 30
0.0
  9
$EXTMAX
 10
1682.0
 20
2378.0
 30
0.0
  9
$LIMMIN
 10
0.0
 20
0.0
  9
$LIMMAX
 10
1682.0
 20
2378.0
  9
$ORTHOMODE
 70
     0
  9
$REGENMODE
 70
     1
  9
$FILLMODE
 70
     1
  9
$QTEXTMODE
 70
     0
  9
$MIRRTEXT
 70
     1
  9
$LTSCALE
 40
1.0
  9
$ATTMODE
 70
     1
  9
$TEXTSIZE
 40
2.5
  9
$TRACEWID
 40
1.0
  9
$TEXTSTYLE
  7
Standard
  9
$CLAYER
  8
0
  9
$CELTYPE
  6
ByLayer
  9
$CECOLOR
 62
   256
  9
$CELTSCALE
 40
1.0
  9
$DISPSILH
 70
     0
  9
$DIMSCALE
 40
1.0
  9
$DIMASZ
 40
2.5
  9
$DIMEXO
 40
0.625
  9
$DIMDLI
 40
3.75
  9
$DIMRND
 40
0.0
  9
$DIMDLE
 40
0.0
  9
$DIMEXE
 40
1.25
  9
$DIMTP
 40
0.0
  9
$DIMTM
 40
0.0
  9
$DIMTXT
 40
2.5
  9
$DIMCEN
 40
2.5
  9
$DIMTSZ
 40
0.0
  9
$DIMTOL
 70
     0
  9
$DIMLIM
 70
     0
  9
$DIMTIH
 70
     0
  9
$DIMTOH
 70
     0
  9
$DIMSE1
 70
     0
  9
$DIMSE2
 70
     0
  9
$DIMTAD
 70
     1
  9
$DIMZIN
 70
     8
  9
$DIMBLK
  1

  9
$DIMASO
 70
     1
  9
$DIMSHO
 70
     1
  9
$DIMPOST
  1

  9
$DIMAPOST
  1

  9
$DIMALT
 70
     0
  9
$DIMALTD
 70
     3
  9
$DIMALTF
 40
0.0393700787
  9
$DIMLFAC
 40
1.0
  9
$DIMTOFL
 70
     1
  9
$DIMTVP
 40
0.0
  9
$DIMTIX
 70
     0
  9
$DIMSOXD
 70
     0
  9
$DIMSAH
 70
     0
  9
$DIMBLK1
  1

  9
$DIMBLK2
  1

  9
$DIMSTYLE
  2
ISO-25
  9
$DIMCLRD
 70
     0
  9
$DIMCLRE
 70
     0
  9
$DIMCLRT
 70
     0
  9
$DIMTFAC
 40
1.0
  9
$DIMGAP
 40
0.625
  9
$DIMJUST
 70
     0
  9
$DIMSD1
 70
     0
  9
$DIMSD2
 70
     0
  9
$DIMTOLJ
 70
     0
  9
$DIMTZIN
 70
     8
  9
$DIMALTZ
 70
     0
  9
$DIMALTTZ
 70
     0
  9
$DIMUPT
 70
     0
  9
$DIMDEC
 70
     2
  9
$DIMTDEC
 70
     2
  9
$DIMALTU
 70
     2
  9
$DIMALTTD
 70
     3
  9
$DIMTXSTY
  7
Standard
  9
$DIMAUNIT
 70
     0
  9
$DIMADEC
 70
     0
  9
$DIMALTRND
 40
0.0
  9
$DIMAZIN
 70
     0
  9
$DIMDSEP
 70
    44
  9
$DIMATFIT
 70
     3
  9
$DIMFRAC
 70
     0
  9
$DIMLDRBLK
  1

  9
$DIMLUNIT
 70
     2
  9
$DIMLWD
 70
    -2
  9
$DIMLWE
 70
    -2
  9
$DIMTMOVE
 70
     0
  9
$LUNITS
 70
     2
  9
$LUPREC
 70
     4
  9
$SKETCHINC
 40
1.0
  9
$FILLETRAD
 40
10.0
  9
$AUNITS
 70
     0
  9
$AUPREC
 70
     0
  9
$MENU
  1
.
  9
$ELEVATION
 40
0.0
  9
$PELEVATION
 40
0.0
  9
$THICKNESS
 40
0.0
  9
$LIMCHECK
 70
     0
  9
$CHAMFERA
 40
10.0
  9
$CHAMFERB
 40
10.0
  9
$CHAMFERC
 40
20.0
  9
$CHAMFERD
 40
0.0
  9
$SKPOLY
 70
     0
  9
$TDCREATE
 40
2455545.6139864
  9
$TDUCREATE
 40
2455545.572319734
  9
$TDUPDATE
 40
2455545.613986412
  9
$TDUUPDATE
 40
2455545.572319746
  9
$TDINDWG
 40
0.0000000116
  9
$TDUSRTIMER
 40
0.0000000116
  9
$USRTIMER
 70
     1
  9
$ANGBASE
 50
0.0
  9
$ANGDIR
 70
     0
  9
$PDMODE
 70
     0
  9
$PDSIZE
 40
0.0
  9
$PLINEWID
 40
0.0
  9
$SPLFRAME
 70
     0
  9
$SPLINETYPE
 70
     6
  9
$SPLINESEGS
 70
     8
  9
$HANDSEED
  5
220
  9
$SURFTAB1
 70
     6
  9
$SURFTAB2
 70
     6
  9
$SURFTYPE
 70
     6
  9
$SURFU
 70
     6
  9
$SURFV
 70
     6
  9
$UCSBASE
  2

  9
$UCSNAME
  2

  9
$UCSORG
 10
0.0
 20
0.0
 30
0.0
  9
$UCSXDIR
 10
1.0
 20
0.0
 30
0.0
  9
$UCSYDIR
 10
0.0
 20
1.0
 30
0.0
  9
$UCSORTHOREF
  2

  9
$UCSORTHOVIEW
 70
     0
  9
$UCSORGTOP
 10
0.0
 20
0.0
 30
0.0
  9
$UCSORGBOTTOM
 10
0.0
 20
0.0
 30
0.0
  9
$UCSORGLEFT
 10
0.0
 20
0.0
 30
0.0
  9
$UCSORGRIGHT
 10
0.0
 20
0.0
 30
0.0
  9
$UCSORGFRONT
 10
0.0
 20
0.0
 30
0.0
  9
$UCSORGBACK
 10
0.0
 20
0.0
 30
0.0
  9
$PUCSBASE
  2

  9
$PUCSNAME
  2

  9
$PUCSORG
 10
0.0
 20
0.0
 30
0.0
  9
$PUCSXDIR
 10
1.0
 20
0.0
 30
0.0
  9
$PUCSYDIR
 10
0.0
 20
1.0
 30
0.0
  9
$PUCSORTHOREF
  2

  9
$PUCSORTHOVIEW
 70
     0
  9
$PUCSORGTOP
 10
0.0
 20
0.0
 30
0.0
  9
$PUCSORGBOTTOM
 10
0.0
 20
0.0
 30
0.0
  9
$PUCSORGLEFT
 10
0.0
 20
0.0
 30
0.0
  9
$PUCSORGRIGHT
 10
0.0
 20
0.0
 30
0.0
  9
$PUCSORGFRONT
 10
0.0
 20
0.0
 30
0.0
  9
$PUCSORGBACK
 10
0.0
 20
0.0
 30
0.0
  9
$USERI1
 70
     0
  9
$USERI2
 70
     0
  9
$USERI3
 70
     0
  9
$USERI4
 70
     0
  9
$USERI5
 70
     0
  9
$USERR1
 40
0.0
  9
$USERR2
 40
0.0
  9
$USERR3
 40
0.0
  9
$USERR4
 40
0.0
  9
$USERR5
 40
0.0
  9
$WORLDVIEW
 70
     1
  9
$SHADEDGE
 70
     3
  9
$SHADEDIF
 70
    70
  9
$TILEMODE
 70
     1
  9
$MAXACTVP
 70
    64
  9
$PINSBASE
 10
0.0
 20
0.0
 30
0.0
  9
$PLIMCHECK
 70
     0
  9
$PEXTMIN
 10
0.0
 20
0.0
 30
0.0
  9
$PEXTMAX
 10
1682.0
 20
2378.0
 30
0.0
  9
$PLIMMIN
 10
0.0
 20
0.0
  9
$PLIMMAX
 10
1682.0
 20
2378.0
  9
$UNITMODE
 70
     0
  9
$VISRETAIN
 70
     1
  9
$PLINEGEN
 70
     0
  9
$PSLTSCALE
 70
     1
  9
$TREEDEPTH
 70
  3020
  9
$CMLSTYLE
  2
Standard
  9
$CMLJUST
 70
     0
  9
$CMLSCALE
 40
20.0
  9
$PROXYGRAPHICS
 70
     1
  9
$MEASUREMENT
 70
     1
  9
$CELWEIGHT
370
    -1
  9
$ENDCAPS
280
     0
  9
$JOINSTYLE
280
     0
  9
$LWDISPLAY
290
     0
  9
$INSUNITS
 70
     4
  9
$HYPERLINKBASE
  1

  9
$STYLESHEET
  1

  9
$XEDIT
290
     1
  9
$CEPSNTYPE
380
     0
  9
$PSTYLEMODE
290
     1
  9
$FINGERPRINTGUID
  2
{45D994E3-BF3D-4F97-BBB2-DB5166288049}
  9
$VERSIONGUID
  2
{FAEB1C32-E019-11D5-929B-00C0DF256EC4}
  9
$EXTNAMES
290
     1
  9
$PSVPSCALE
 40
0.0
  9
$OLESTARTUP
290
     0
  0
ENDSEC
  0
SECTION
  2
CLASSES
  0
CLASS
  1
ACDBDICTIONARYWDFLT
  2
AcDbDictionaryWithDefault
  3
ObjectDBX Classes
 90
        0
280
     0
281
     0
  0
CLASS
  1
VISUALSTYLE
  2
AcDbVisualStyle
  3
ObjectDBX Classes
 90
     4095
280
     0
281
     0
  0
CLASS
  1
SCALE
  2
AcDbScale
  3
ObjectDBX Classes
 90
     1153
280
     0
281
     0
  0
CLASS
  1
DICTIONARYVAR
  2
AcDbDictionaryVar
  3
ObjectDBX Classes
 90
        0
280
     0
281
     0
  0
CLASS
  1
ACDBPLACEHOLDER
  2
AcDbPlaceHolder
  3
ObjectDBX Classes
 90
        0
280
     0
281
     0
  0
CLASS
  1
LAYOUT
  2
AcDbLayout
  3
ObjectDBX Classes
 90
        0
280
     0
281
     0
  0
ENDSEC
  0
SECTION
  2
TABLES
  0
TABLE
  2
VPORT
  5
8
330
0
100
AcDbSymbolTable
 70
     1
  0
VPORT
  5
29
330
8
100
AcDbSymbolTableRecord
100
AcDbViewportTableRecord
  2
*Active
 70
     0
 10
0.0
 20
0.0
 11
1.0
 21
1.0
 12
344.1869158879
 22
148.5
 13
0.0
 23
0.0
 14
10.0
 24
10.0
 15
10.0
 25
10.0
 16
0.0
 26
0.0
 36
1.0
 17
0.0
 27
0.0
 37
0.0
 40
297.0
 41
1.9729729729
 42
50.0
 43
0.0
 44
0.0
 50
0.0
 51
0.0
 71
     0
 72
   100
 73
     1
 74
     3
 75
     0
 76
     0
 77
     0
 78
     0
281
     0
 65
     1
110
0.0
120
0.0
130
0.0
111
1.0
121
0.0
131
0.0
112
0.0
122
1.0
132
0.0
 79
     0
146
0.0
  0
ENDTAB
  0
TABLE
  2
LTYPE
  5
5
330
0
100
AcDbSymbolTable
 70
     2
  0
LTYPE
  5
14
330
5
100
AcDbSymbolTableRecord
100
AcDbLinetypeTableRecord
  2
ByBlock
 70
     0
  3

 72
    65
 73
     0
 40
0.0
  0
LTYPE
  5
15
330
5
100
AcDbSymbolTableRecord
100
AcDbLinetypeTableRecord
  2
ByLayer
 70
     0
  3

 72
    65
 73
     0
 40
0.0
  0
LTYPE
  5
16
330
5
100
AcDbSymbolTableRecord
100
AcDbLinetypeTableRecord
  2
Continuous
 70
     0
  3
Solid line
 72
    65
 73
     0
 40
0.0
  0
LTYPE
  5
60
330
5
100
AcDbSymbolTableRecord
100
AcDbLinetypeTableRecord
  2
CENTER2
 70
     0
  3
Center (.5x) ___ _ ___ _ ___ _ ___ _ ___ _ ___
 72
    65
 73
     4
 40
28.575
 49
19.05
 74
     4
 75
     0
340
0
 46
0.0
 50
0.0
 44
0.0
 45
0.0
 49
-3.175
 74
     4
 75
     0
340
0
 46
0.0
 50
0.0
 44
0.0
 45
0.0
 49
3.175
 74
     4
 75
     0
340
0
 46
0.0
 50
0.0
 44
0.0
 45
0.0
 49
-3.175
 74
     4
 75
     0
340
0
 46
0.0
 50
0.0
 44
0.0
 45
0.0
  0
ENDTAB
  0
TABLE
  2
LAYER
  5
2
330
0
100
AcDbSymbolTable
 70
    11
  0
LAYER
  5
10
330
2
100
AcDbSymbolTableRecord
100
AcDbLayerTableRecord
  2
0
 70
     0
 62
     7
  6
Continuous
370
    -3
390
F
  0
LAYER
  5
5D
330
2
100
AcDbSymbolTableRecord
100
AcDbLayerTableRecord
  2
Default
 70
     0
 62
     7
  6
Continuous
370
    -3
390
F
  0
LAYER
  5
77
330
2
100
AcDbSymbolTableRecord
100
AcDbLayerTableRecord
  2
$DDT_AUDIT_GENERATED_(77)
 70
     0
 62
     7
  6
Continuous
370
    -3
390
F
  0
LAYER
  5
7D
330
2
100
AcDbSymbolTableRecord
100
AcDbLayerTableRecord
  2
$DDT_AUDIT_GENERATED_(7D)
 70
     0
 62
     7
  6
Continuous
370
    -3
390
F
  0
LAYER
  5
96
330
2
100
AcDbSymbolTableRecord
100
AcDbLayerTableRecord
  2
$DDT_AUDIT_GENERATED_(96)
 70
     0
 62
     7
  6
Continuous
370
    -3
390
F
  0
LAYER
  5
A1
330
2
100
AcDbSymbolTableRecord
100
AcDbLayerTableRecord
  2
$DDT_AUDIT_GENERATED_(A1)
 70
     0
 62
     7
  6
Continuous
370
    -3
390
F
  0
LAYER
  5
AA
330
2
100
AcDbSymbolTableRecord
100
AcDbLayerTableRecord
  2
$DDT_AUDIT_GENERATED_(AA)
 70
     0
 62
     7
  6
Continuous
370
    -3
390
F
  0
LAYER
  5
BB
330
2
100
AcDbSymbolTableRecord
100
AcDbLayerTableRecord
  2
$DDT_AUDIT_GENERATED_(BB)
 70
     0
 62
     7
  6
Continuous
370
    -3
390
F
  0
LAYER
  5
DA
330
2
100
AcDbSymbolTableRecord
100
AcDbLayerTableRecord
  2
$DDT_AUDIT_GENERATED_(DA)
 70
     0
 62
     7
  6
Continuous
370
    -3
390
F
  0
LAYER
  5
E7
330
2
100
AcDbSymbolTableRecord
100
AcDbLayerTableRecord
  2
$DDT_AUDIT_GENERATED_(E7)
 70
     0
 62
     7
  6
Continuous
370
    -3
390
F
  0
LAYER
  5
1DC
330
2
100
AcDbSymbolTableRecord
100
AcDbLayerTableRecord
  2
$DDT_AUDIT_GENERATED_(1DC)
 70
     0
 62
     7
  6
Continuous
370
    -3
390
F
  0
ENDTAB
  0
TABLE
  2
STYLE
  5
3
330
0
100
AcDbSymbolTable
 70
     2
  0
STYLE
  5
11
330
3
100
AcDbSymbolTableRecord
100
AcDbTextStyleTableRecord
  2
Standard
 70
     0
 40
0.0
 41
1.0
 50
0.0
 71
     0
 42
2.5
  3
txt
  4

  0
STYLE
  5
20F
330
3
100
AcDbSymbolTableRecord
100
AcDbTextStyleTableRecord
  2
SEACAD_seiso_ttf
 70
     0
 40
0.0
 41
1.0
 50
0.0
 71
     0
 42
0.2
  3
seiso.ttf
  4

  0
ENDTAB
  0
TABLE
  2
VIEW
  5
6
330
0
100
AcDbSymbolTable
 70
     0
  0
ENDTAB
  0
TABLE
  2
UCS
  5
7
330
0
100
AcDbSymbolTable
 70
     0
  0
ENDTAB
  0
TABLE
  2
APPID
  5
9
330
0
100
AcDbSymbolTable
 70
     1
  0
APPID
  5
12
330
9
100
AcDbSymbolTableRecord
100
AcDbRegAppTableRecord
  2
ACAD
 70
     0
  0
ENDTAB
  0
TABLE
  2
DIMSTYLE
  5
A
330
0
100
AcDbSymbolTable
 70
     1
100
AcDbDimStyleTable
  0
DIMSTYLE
105
27
330
A
100
AcDbSymbolTableRecord
100
AcDbDimStyleTableRecord
  2
ISO-25
 70
     0
 41
2.5
 42
0.625
 43
3.75
 44
1.25
 73
     0
 74
     0
 77
     1
 78
     8
140
2.5
141
2.5
143
0.0393700787
147
0.625
171
     3
172
     1
271
     2
272
     2
274
     3
278
    44
283
     0
284
     8
340
11
  0
ENDTAB
  0
TABLE
  2
BLOCK_RECORD
  5
1
330
0
100
AcDbSymbolTable
 70
     7
  0
BLOCK_RECORD
  5
1F
330
1
100
AcDbSymbolTableRecord
100
AcDbBlockTableRecord
  2
*Model_Space
340
22
  0
BLOCK_RECORD
  5
1B
330
1
100
AcDbSymbolTableRecord
100
AcDbBlockTableRecord
  2
*Paper_Space
340
1E
  0
BLOCK_RECORD
  5
5E
330
1
100
AcDbSymbolTableRecord
100
AcDbBlockTableRecord
  2
SEANNOT_GROUP
340
0
102
{BLKREFS
331
5F
102
}
  0
BLOCK_RECORD
  5
69
330
1
100
AcDbSymbolTableRecord
100
AcDbBlockTableRecord
  2
SEANNOT_GROUP1
340
0
102
{BLKREFS
331
6A
102
}
  0
BLOCK_RECORD
  5
6F
330
1
100
AcDbSymbolTableRecord
100
AcDbBlockTableRecord
  2
SEANNOT_GROUP2
340
0
102
{BLKREFS
331
70
102
}
  0
BLOCK_RECORD
  5
75
330
1
100
AcDbSymbolTableRecord
100
AcDbBlockTableRecord
  2
SE
340
0
102
{BLKREFS
331
76
102
}
  0
BLOCK_RECORD
  5
195
330
1
100
AcDbSymbolTableRecord
100
AcDbBlockTableRecord
  2
SE1
340
0
102
{BLKREFS
331
196
102
}
  0
BLOCK_RECORD
  5
1EB
330
1
100
AcDbSymbolTableRecord
100
AcDbBlockTableRecord
  2
SE2
340
0
102
{BLKREFS
331
1EC
102
}
  0
ENDTAB
  0
ENDSEC
  0
SECTION
  2
BLOCKS
  0
BLOCK
  5
20
330
1F
100
AcDbEntity
  8
0
100
AcDbBlockBegin
  2
*Model_Space
 70
     0
 10
0.0
 20
0.0
 30
0.0
  3
*Model_Space
  1

  0
ENDBLK
  5
21
330
1F
100
AcDbEntity
  8
0
100
AcDbBlockEnd
  0
BLOCK
  5
1C
330
1B
100
AcDbEntity
 67
     1
  8
0
100
AcDbBlockBegin
  2
*Paper_Space
 70
     0
 10
0.0
 20
0.0
 30
0.0
  3
*Paper_Space
  1

  0
ENDBLK
  5
1D
330
1B
100
AcDbEntity
 67
     1
  8
0
100
AcDbBlockEnd
  0
BLOCK
  5
67
330
5E
100
AcDbEntity
  8
0
100
AcDbBlockBegin
  2
SEANNOT_GROUP
 70
     0
 10
0.0
 20
0.0
 30
0.0
  3
SEANNOT_GROUP
  1

  0
LINE
  5
61
330
5E
100
AcDbEntity
  8
Default
  6
CENTER2
 62
     7
100
AcDbLine
 10
72.8663108825
 20
361.2267888951
 30
0.0
 11
32.8663117766
 21
361.2267888951
 31
0.0
  0
LINE
  5
62
330
5E
100
AcDbEntity
  8
Default
  6
CENTER2
 62
     7
100
AcDbLine
 10
52.8663113296
 20
381.226788448
 30
0.0
 11
52.8663113296
 21
341.2267893421
 31
0.0
  0
LINE
  5
63
330
5E
100
AcDbEntity
  8
Default
  6
CENTER2
 62
     7
100
AcDbLine
 10
77.8663107708
 20
361.2267888951
 30
0.0
 11
85.3663113296
 21
361.2267888951
 31
0.0
  0
LINE
  5
64
330
5E
100
AcDbEntity
  8
Default
  6
CENTER2
 62
     7
100
AcDbLine
 10
52.8663113296
 20
386.2267883363
 30
0.0
 11
52.8663113296
 21
393.7267888951
 31
0.0
  0
LINE
  5
65
330
5E
100
AcDbEntity
  8
Default
  6
CENTER2
 62
     7
100
AcDbLine
 10
27.8663118884
 20
361.2267888951
 30
0.0
 11
20.3663113296
 21
361.2267888951
 31
0.0
  0
LINE
  5
66
330
5E
100
AcDbEntity
  8
Default
  6
CENTER2
 62
     7
100
AcDbLine
 10
52.8663113296
 20
336.2267894539
 30
0.0
 11
52.8663113296
 21
328.7267888951
 31
0.0
  0
ENDBLK
  5
68
330
5E
100
AcDbEntity
  8
0
100
AcDbBlockEnd
  0
BLOCK
  5
6D
330
69
100
AcDbEntity
  8
0
100
AcDbBlockBegin
  2
SEANNOT_GROUP1
 70
     0
 10
0.0
 20
0.0
 30
0.0
  3
SEANNOT_GROUP1
  1

  0
LINE
  5
6B
330
69
100
AcDbEntity
  8
Default
  6
CENTER2
 62
     7
100
AcDbLine
 10
72.8663108825
 20
418.1388006434
 30
0.0
 11
32.8663117766
 21
418.1388006434
 31
0.0
  0
LINE
  5
6C
330
69
100
AcDbEntity
  8
Default
  6
CENTER2
 62
     7
100
AcDbLine
 10
52.8663113296
 20
438.1388001964
 30
0.0
 11
52.8663113296
 21
398.1388010905
 31
0.0
  0
ENDBLK
  5
6E
330
69
100
AcDbEntity
  8
0
100
AcDbBlockEnd
  0
BLOCK
  5
73
330
6F
100
AcDbEntity
  8
0
100
AcDbBlockBegin
  2
SEANNOT_GROUP2
 70
     0
 10
0.0
 20
0.0
 30
0.0
  3
SEANNOT_GROUP2
  1

  0
LINE
  5
71
330
6F
100
AcDbEntity
  8
Default
  6
CENTER2
 62
     7
100
AcDbLine
 10
187.7038510692
 20
418.1388006434
 30
0.0
 11
147.7038519633
 21
418.1388006434
 31
0.0
  0
LINE
  5
72
330
6F
100
AcDbEntity
  8
Default
  6
CENTER2
 62
     7
100
AcDbLine
 10
167.7038515162
 20
438.1388001964
 30
0.0
 11
167.7038515162
 21
398.1388010905
 31
0.0
  0
ENDBLK
  5
74
330
6F
100
AcDbEntity
  8
0
100
AcDbBlockEnd
  0
BLOCK
  5
193
330
75
100
AcDbEntity
  8
0
100
AcDbBlockBegin
  2
SE
 70
     0
 10
0.0
 20
0.0
 30
0.0
  3
SE
  1

  0
LINE
  5
78
330
75
100
AcDbEntity
  8
$DDT_AUDIT_GENERATED_(77)
  6
Continuous
 62
     7
100
AcDbLine
 10
81.8663113296
 20
486.1388006434
 30
0.0
 11
68.379802145
 21
486.1388006434
 31
0.0
  0
LINE
  5
79
330
75
100
AcDbEntity
  8
$DDT_AUDIT_GENERATED_(77)
  6
Continuous
 62
     7
100
AcDbLine
 10
37.3551683725
 20
486.1388006434
 30
0.0
 11
23.8663113296
 21
486.1388006434
 31
0.0
  0
LINE
  5
7A
330
75
100
AcDbEntity
  8
$DDT_AUDIT_GENERATED_(77)
  6
Continuous
 62
     7
100
AcDbLine
 10
81.8663113296
 20
418.1388006434
 30
0.0
 11
23.8663113296
 21
418.1388006434
 31
0.0
  0
LINE
  5
7B
330
75
100
AcDbEntity
  8
$DDT_AUDIT_GENERATED_(77)
  6
Continuous
 62
     7
100
AcDbLine
 10
81.8663113296
 20
418.1388006434
 30
0.0
 11
81.8663113296
 21
486.1388006434
 31
0.0
  0
LINE
  5
7C
330
75
100
AcDbEntity
  8
$DDT_AUDIT_GENERATED_(77)
  6
Continuous
 62
     7
100
AcDbLine
 10
23.8663113296
 20
486.1388006434
 30
0.0
 11
23.8663113296
 21
418.1388006434
 31
0.0
  0
ARC
  5
7E
330
75
100
AcDbEntity
  8
$DDT_AUDIT_GENERATED_(7D)
  6
Continuous
 62
     7
100
AcDbCircle
 10
38.9975123005
 20
571.0516442758
 30
0.0
 40
1.629301085176685
100
AcDbArc
 50
170.1252323237
 51
179.7716853277
  0
SPLINE
  5
7F
330
75
100
AcDbEntity
  8
$DDT_AUDIT_GENERATED_(7D)
  6
Continuous
 62
     7
100
AcDbSpline
210
0.0
220
0.0
230
1.0
 70
     8
 71
     3
 72
    13
 73
     9
 74
     0
 42
0.0000000005406692
 43
0.0000000001
 40
0.3552665661556743
 40
0.3552665661556743
 40
0.3552665661556743
 40
0.3552665661556743
 40
0.3629922741445504
 40
0.5091723583871299
 40
0.6336587530201696
 40
0.7569830531521616
 40
0.999999129387518
 40
1.0
 40
1.0
 40
1.0
 40
1.0
 10
40.99925856877775
 20
573.6972172067165
 30
0.0
 10
41.03025176749253
 20
573.7039887775926
 30
0.0
 10
41.65339280612813
 20
573.8383879394671
 30
0.0
 10
42.98447451560495
 20
574.0630502920748
 30
0.0
 10
45.27547302957877
 20
574.318092807455
 30
0.0
 10
48.46450564074112
 20
574.5522780261787
 30
0.0
 10
51.12408192915954
 20
574.6256142720027
 30
0.0
 10
52.86634666876137
 20
574.6256164141244
 30
0.0
 10
52.86635291039504
 20
574.6256164141321
 30
0.0
  0
ELLIPSE
  5
80
330
75
100
AcDbEntity
  8
$DDT_AUDIT_GENERATED_(7D)
  6
Continuous
 62
     7
100
AcDbEllipse
 10
52.8663526349
 20
559.3730934546
 30
0.0
 11
15.49811222341744
 21
2.783091673785876E-7
 31
0.0
210
0.0
220
0.0
230
1.0
 40
0.139173101
 41
3.141592653589793
 42
3.144589086646643
  0
ARC
  5
81
330
75
100
AcDbEntity
  8
$DDT_AUDIT_GENERATED_(7D)
  6
Continuous
 62
     7
100
AcDbCircle
 10
44.5356955243
 20
459.8961628089
 30
0.0
 40
8.195085810060364
100
AcDbArc
 50
151.3475982331
 51
196.9484111647
  0
ELLIPSE
  5
82
330
75
100
AcDbEntity
  8
$DDT_AUDIT_GENERATED_(7D)
  6
Continuous
 62
     7
100
AcDbEllipse
 10
52.8663526349
 20
559.1750398408
 30
0.0
 11
15.29811222341763
 21
1.387778780781446E-14
 31
0.0
210
0.0
220
0.0
230
1.0
 40
0.139173101
 41
1.570796308779558
 42
2.781545484748461
  0
ELLIPSE
  5
83
330
75
100
AcDbEntity
  8
$DDT_AUDIT_GENERATED_(7D)
  6
Continuous
 62
     7
100
AcDbEllipse
 10
52.8663526349
 20
559.1750398408
 30
0.0
 11
15.29811222341763
 21
1.387778780781446E-14
 31
0.0
210
0.0
220
0.0
230
1.0
 40
0.139173101
 41
3.667194710983372
 42
3.853949543147444
  0
ELLIPSE
  5
84
330
75
100
AcDbEntity
  8
$DDT_AUDIT_GENERATED_(7D)
  6
Continuous
 62
     7
100
AcDbEllipse
 10
52.8663529105
 20
559.1750398408
 30
0.0
 11
14.90000000000001
 21
-1.387778780781446E-14
 31
0.0
210
0.0
220
0.0
230
1.0
 40
0.139173101
 41
5.69730897984641
 42
6.283185307179586
  0
ELLIPSE
  5
85
330
75
100
AcDbEntity
  8
$DDT_AUDIT_GENERATED_(7D)
  6
Continuous
 62
     7
100
AcDbEllipse
 10
52.8663529105
 20
559.1750398408
 30
0.0
 11
14.90000000000001
 21
-1.387778780781446E-14
 31
0.0
210
0.0
220
0.0
230
1.0
 40
0.139173101
 41
0.0
 42
3.727468980922988
  0
ARC
  5
86
330
75
100
AcDbEntity
  8
$DDT_AUDIT_GENERATED_(7D)
  6
Continuous
 62
     7
100
AcDbCircle
 10
52.0567008878
 20
465.03528425
 30
0.0
 40
17.10574185480898
100
AcDbArc
 50
206.1096585123
 51
272.7129476784
  0
ARC
  5
87
330
75
100
AcDbEntity
  8
$DDT_AUDIT_GENERATED_(7D)
  6
Continuous
 62
     7
100
AcDbCircle
 10
53.6760049331
 20
465.03528425
 30
0.0
 40
17.10574185480906
100
AcDbArc
 50
267.2870523216
 51
333.8903414877
  0
ARC
  5
88
330
75
100
AcDbEntity
  8
$DDT_AUDIT_GENERATED_(7D)
  6
Continuous
 62
     7
100
AcDbCircle
 10
66.7351935204
 20
571.0516442758
 30
0.0
 40
1.629301085176738
100
AcDbArc
 50
0.2283146723
 51
9.8747676763
  0
SPLINE
  5
89
330
75
100
AcDbEntity
  8
$DDT_AUDIT_GENERATED_(7D)
  6
Continuous
 62
     7
100
AcDbSpline
210
0.0
220
0.0
230
1.0
 70
    12
 71
     3
 72
    14
 73
    10
 74
     0
 42
0.0000000005474885
 43
0.0000000001
 40
0.3471541126926323
 40
0.3471541126926323
 40
0.3471541126926323
 40
0.3471541126926323
 40
0.4999995529536929
 40
0.4999995529536929
 40
0.7499993294305405
 40
0.7499993294305405
 40
0.9999991059073887
 40
0.9999991059073887
 40
1.0
 40
1.0
 40
1.0
 40
1.0
 10
64.73359172372928
 20
573.697075361652
 30
0.0
 41
0.9999999999999849
 10
64.1125927719116
 20
573.8327050128636
 30
0.0
 41
0.9999999999999849
 10
63.37983478932088
 20
573.9576838679061
 30
0.0
 41
0.9999999999999849
 10
61.2267201699095
 20
574.2483095925905
 30
0.0
 41
0.9999999999999847
 10
59.66835471266715
 20
574.38943267711
 30
0.0
 41
0.9999999999999847
 10
56.36006757083036
 20
574.5779131550901
 30
0.0
 41
0.9999999999999847
 10
54.61162945644831
 20
574.6256140325426
 30
0.0
 41
0.9999999999999847
 10
52.86636539384305
 20
574.625616414117
 30
0.0
 41
0.9999999999999847
 10
52.86635915214892
 20
574.6256164141248
 30
0.0
 41
0.9999999999999847
 10
52.86635291039504
 20
574.6256164141321
 30
0.0
 41
0.9999999999999847
  0
ELLIPSE
  5
8A
330
75
100
AcDbEntity
  8
$DDT_AUDIT_GENERATED_(7D)
  6
Continuous
 62
     7
100
AcDbEllipse
 10
52.8663531861
 20
559.1750398408
 30
0.0
 11
-15.29811222341763
 21
1.387778780781446E-14
 31
0.0
210
0.0
220
0.0
230
1.0
 40
0.139173101
 41
3.502220503293007
 42
4.71238899840003
  0
ELLIPSE
  5
8B
330
75
100
AcDbEntity
  8
$DDT_AUDIT_GENERATED_(7D)
  6
Continuous
 62
     7
100
AcDbEllipse
 10
52.8663531861
 20
559.1750398408
 30
0.0
 11
-15.29811222341763
 21
1.387778780781446E-14
 31
0.0
210
0.0
220
0.0
230
1.0
 40
0.139173101
 41
-3.853949543147434
 42
-3.667446935922797
  0
ELLIPSE
  5
8C
330
75
100
AcDbEntity
  8
$DDT_AUDIT_GENERATED_(7D)
  6
Continuous
 62
     7
100
AcDbEllipse
 10
52.8663531861
 20
559.3730934546
 30
0.0
 11
-15.49811222341744
 21
2.783091535007998E-7
 31
0.0
210
0.0
220
0.0
230
1.0
 40
0.139173101
 41
3.139304643388796
 42
3.141592653589804
  0
ARC
  5
8D
330
75
100
AcDbEntity
  8
$DDT_AUDIT_GENERATED_(7D)
  6
Continuous
 62
     7
100
AcDbCircle
 10
61.1970102966
 20
459.8961628089
 30
0.0
 40
8.195085810060425
100
AcDbArc
 50
343.0515888353
 51
28.6524730082
  0
ARC
  5
8E
330
75
100
AcDbEntity
  8
$DDT_AUDIT_GENERATED_(7D)
  6
Continuous
 62
     7
100
AcDbCircle
 10
110453.3052499401
 20
512.8913089481
 30
0.0
 40
110415.952342467
100
AcDbArc
 50
179.9698197248
 51
180.0276485817
  0
LINE
  5
8F
330
75
100
AcDbEntity
  8
$DDT_AUDIT_GENERATED_(7D)
  6
Continuous
 62
     7
100
AcDbLine
 10
37.3682241236
 20
571.0779628595
 30
0.0
 11
37.3682404114
 21
559.373092764
 31
0.0
  0
SPLINE
  5
90
330
75
100
AcDbEntity
  8
$DDT_AUDIT_GENERATED_(7D)
  6
Continuous
 62
     7
100
AcDbSpline
210
0.0
220
0.0
230
1.0
 70
     8
 71
     3
 72
    31
 73
    27
 74
     0
 42
0.00000000060481
 43
0.0000000001
 40
0.0
 40
0.0
 40
0.0
 40
0.0
 40
0.0697640307461246
 40
0.141365712266206
 40
0.2091271831173107
 40
0.2731052411808985
 40
0.3332848759379688
 40
0.3896038506447607
 40
0.4420208732539508
 40
0.4905119784540426
 40
0.5350381062280752
 40
0.5755394185811632
 40
0.6119685316150155
 40
0.6442891406943332
 40
0.6776102225950624
 40
0.7054128376698476
 40
0.7320300766891095
 40
0.7585396721016261
 40
0.7849749305340555
 40
0.8069720125699086
 40
0.8293178726030778
 40
0.8581639779987712
 40
0.8857465084830489
 40
0.9185825595077132
 40
0.9567067142226869
 40
1.0
 40
1.0
 40
1.0
 40
1.0
 10
52.86637371809332
 20
574.5900560747159
 30
0.0
 10
52.28649245335258
 20
574.5876830189644
 30
0.0
 10
51.29447524070225
 20
574.5824890821116
 30
0.0
 10
49.69773093643168
 20
574.541338742249
 30
0.0
 10
48.21635390535562
 20
574.4796081282534
 30
0.0
 10
46.85334873978676
 20
574.3999145867393
 30
0.0
 10
45.62630721969537
 20
574.3072147498667
 30
0.0
 10
44.53291014514444
 20
574.2055716005605
 30
0.0
 10
43.57166991995035
 20
574.0986854906557
 30
0.0
 10
42.73732814712216
 20
573.9897872873609
 30
0.0
 10
42.02288148925352
 20
573.881725566661
 30
0.0
 10
41.41839326718021
 20
573.7771591849698
 30
0.0
 10
40.91334025041724
 20
573.6782264263178
 30
0.0
 10
40.47511822585365
 20
573.5818964764293
 30
0.0
 10
40.10329837221471
 20
573.4899815073775
 30
0.0
 10
39.78179805217485
 20
573.4009126668487
 30
0.0
 10
39.4949051149731
 20
573.3109299549006
 30
0.0
 10
39.22309729955126
 20
573.2140874189727
 30
0.0
 10
38.97774070822097
 20
573.1142457403379
 30
0.0
 10
38.75395744549498
 20
573.0096439502395
 30
0.0
 10
38.53821421284071
 20
572.8958902163539
 30
0.0
 10
38.27366958832166
 20
572.7269159341246
 30
0.0
 10
37.9925259925925
 20
572.4942699339814
 30
0.0
 10
37.72630025814272
 20
572.1961266986931
 30
0.0
 10
37.4900206674882
 20
571.7937455730313
 30
0.0
 10
37.42774945075211
 20
571.5104874227197
 30
0.0
 10
37.39147126566336
 20
571.3306159146397
 30
0.0
  0
SPLINE
  5
91
330
75
100
AcDbEntity
  8
$DDT_AUDIT_GENERATED_(7D)
  6
Continuous
 62
     7
100
AcDbSpline
210
0.0
220
0.0
230
1.0
 70
     8
 71
     3
 72
    17
 73
    13
 74
     0
 42
0.0000000037199408
 43
0.0000000001
 40
0.0
 40
0.0
 40
0.0
 40
0.0
 40
0.0383319996342974
 40
0.1265469284438663
 40
0.2176165511408135
 40
0.3193519068329252
 40
0.4329078750340642
 40
0.5512542770884288
 40
0.668170139820248
 40
0.7834946144098458
 40
0.8977191039591175
 40
1.0
 40
1.0
 40
1.0
 40
1.0
 10
37.37531481018793
 20
559.3624319199035
 30
0.0
 10
37.37392183856301
 20
559.3364351811036
 30
0.0
 10
37.37053378029477
 20
559.2637048090248
 30
0.0
 10
37.42100699449505
 20
559.1328257913947
 30
0.0
 10
37.5153144185381
 20
558.9907494313917
 30
0.0
 10
37.65916275493787
 20
558.8528509956485
 30
0.0
 10
37.8572563909357
 20
558.7164710882079
 30
0.0
 10
38.11346653549592
 20
558.5822655947553
 30
0.0
 10
38.42255728383482
 20
558.4529213901346
 30
0.0
 10
38.77597309682407
 20
558.3305007059442
 30
0.0
 10
39.16950151058588
 20
558.2140643184349
 30
0.0
 10
39.43658497131646
 20
558.1478652033719
 30
0.0
 10
39.58704659293631
 20
558.1109250831588
 30
0.0
  0
SPLINE
  5
92
330
75
100
AcDbEntity
  8
$DDT_AUDIT_GENERATED_(7D)
  6
Continuous
 62
     7
100
AcDbSpline
210
0.0
220
0.0
230
1.0
 70
     8
 71
     3
 72
    54
 73
    50
 74
     0
 42
0.0000000000897371
 43
0.0000000001
 40
0.0
 40
0.0
 40
0.0
 40
0.0
 40
0.0034927520078372
 40
0.0399617086516953
 40
0.0790875647401092
 40
0.1131591893847309
 40
0.1492517590961375
 40
0.1835898356536784
 40
0.2164201144649104
 40
0.2479762830371786
 40
0.2784349185039343
 40
0.3079353098335305
 40
0.3364435120426837
 40
0.3637839898416382
 40
0.3901286079206687
 40
0.4156135071082459
 40
0.4403460911951711
 40
0.464413169008918
 40
0.4878863532568226
 40
0.5108259270259987
 40
0.5332768899077611
 40
0.5550767847286502
 40
0.576254357599411
 40
0.5968714497660789
 40
0.6169800280590415
 40
0.6366241393096511
 40
0.6558416511221075
 40
0.6746655299217476
 40
0.6931247969277021
 40
0.7112452565287122
 40
0.7290500603228208
 40
0.7465528839179965
 40
0.7636900172378738
 40
0.7804991926964717
 40
0.7970110536650923
 40
0.8132449629436256
 40
0.8292187504341136
 40
0.8449489694368075
 40
0.8604510679884262
 40
0.8757395316857123
 40
0.8908280036744576
 40
0.9057293859790129
 40
0.920455925371129
 40
0.9350192861833846
 40
0.9494306117655387
 40
0.9637005802615101
 40
0.9778325047602902
 40
0.9918228191537536
 40
1.0
 40
1.0
 40
1.0
 40
1.0
 10
68.36692678806423
 20
459.6155297592001
 30
0.0
 10
68.36689947650709
 20
459.8047826237469
 30
0.0
 10
68.36663138313915
 20
461.6671999181766
 30
0.0
 10
68.36623726110065
 20
465.6628448294974
 30
0.0
 10
68.36590068182761
 20
470.9428778390956
 30
0.0
 10
68.36574737648051
 20
476.2256359884365
 30
0.0
 10
68.36574564903233
 20
481.221182771502
 30
0.0
 10
68.36586955100623
 20
486.116148387051
 30
0.0
 10
68.36608575475515
 20
490.7499075854587
 30
0.0
 10
68.36636888918187
 20
495.1567493702718
 30
0.0
 10
68.36669937036028
 20
499.3636191282275
 30
0.0
 10
68.36705971335505
 20
503.3855643841685
 30
0.0
 10
68.36743313512264
 20
507.2200874448054
 30
0.0
 10
68.36780667443432
 20
510.8665908702004
 30
0.0
 10
68.36817020836801
 20
514.3327467882315
 30
0.0
 10
68.36851708443412
 20
517.6384467422292
 30
0.0
 10
68.36884176625516
 20
520.7994342945683
 30
0.0
 10
68.36913966110458
 20
523.8283187428822
 30
0.0
 10
68.36940652898532
 20
526.7353934230101
 30
0.0
 10
68.36963972512515
 20
529.5290309910894
 30
0.0
 10
68.36983213549964
 20
532.2077773942834
 30
0.0
 10
68.36998262920905
 20
534.7684698455117
 30
0.0
 10
68.37009194544902
 20
537.209403808663
 30
0.0
 10
68.37016109228269
 20
539.5372808671597
 30
0.0
 10
68.37019107308052
 20
541.7591881291576
 30
0.0
 10
68.37018271905916
 20
543.8810980630076
 30
0.0
 10
68.37013675057493
 20
545.908101866436
 30
0.0
 10
68.37005378542523
 20
547.8445905391072
 30
0.0
 10
68.36993438870317
 20
549.6943883127087
 30
0.0
 10
68.36977897400686
 20
551.4608612861323
 30
0.0
 10
68.36958824336995
 20
553.1467438917585
 30
0.0
 10
68.36936208085478
 20
554.7520104554189
 30
0.0
 10
68.36909568344971
 20
556.276703177734
 30
0.0
 10
68.36879967348132
 20
557.7218191871124
 30
0.0
 10
68.36848036450598
 20
559.0906630043411
 30
0.0
 10
68.36814425236405
 20
560.38581719016
 30
0.0
 10
68.36779711115972
 20
561.6093686839749
 30
0.0
 10
68.36744427160451
 20
562.7632121671746
 30
0.0
 10
68.36709061487157
 20
563.8490728293732
 30
0.0
 10
68.36674064124043
 20
564.86852659929
 30
0.0
 10
68.36639851772081
 20
565.8230102457796
 30
0.0
 10
68.366068092845
 20
566.7138541233796
 30
0.0
 10
68.36575302427121
 20
567.5422210036629
 30
0.0
 10
68.36545646465686
 20
568.3093800543852
 30
0.0
 10
68.36518235103797
 20
569.0157432210699
 30
0.0
 10
68.3649308273199
 20
569.6643370857253
 30
0.0
 10
68.36471550129546
 20
570.2476279546237
 30
0.0
 10
68.36455828100901
 20
570.7212713704546
 30
0.0
 10
68.36450513682156
 20
570.9522294409064
 30
0.0
 10
68.36448243270856
 20
571.052134824396
 30
0.0
  0
LINE
  5
93
330
75
100
AcDbEntity
  8
$DDT_AUDIT_GENERATED_(7D)
  6
Continuous
 62
     7
100
AcDbLine
 10
68.3644654095
 20
559.373092764
 30
0.0
 11
68.3644816973
 21
571.0779628595
 31
0.0
  0
SPLINE
  5
94
330
75
100
AcDbEntity
  8
$DDT_AUDIT_GENERATED_(7D)
  6
Continuous
 62
     7
100
AcDbSpline
210
0.0
220
0.0
230
1.0
 70
     8
 71
     3
 72
    32
 73
    28
 74
     0
 42
0.0000000006047995
 43
0.0000000001
 40
0.0
 40
0.0
 40
0.0
 40
0.0
 40
0.0432933296237988
 40
0.0814175229500873
 40
0.1178356890647194
 40
0.1476832664027862
 40
0.1711674656252619
 40
0.1899477604371453
 40
0.2084221742047193
 40
0.2269124964839176
 40
0.2454300340894245
 40
0.2709573602205433
 40
0.2965877781708777
 40
0.3235304076169663
 40
0.3557102067852932
 40
0.3880308485982731
 40
0.4244599985267997
 40
0.4649613518988012
 40
0.5094875247679997
 40
0.5579786790789072
 40
0.6103957547750033
 40
0.66671478652052
 40
0.7268944822263141
 40
0.7908726050855919
 40
0.8586341445641532
 40
0.930235898600982
 40
1.0
 40
1.0
 40
1.0
 40
1.0
 10
68.34123455524677
 20
571.3306159146397
 30
0.0
 10
68.304956370158
 20
571.5104874227197
 30
0.0
 10
68.24265599969367
 20
571.7937716528799
 30
0.0
 10
67.99908507252216
 20
572.208664018497
 30
0.0
 10
67.71335036831641
 20
572.5222165403468
 30
0.0
 10
67.42552555023052
 20
572.7496876312568
 30
0.0
 10
67.18545608625412
 20
572.899719256793
 30
0.0
 10
67.0062751985581
 20
572.9952382735155
 30
0.0
 10
66.83174918630763
 20
573.0791193999643
 30
0.0
 10
66.65324168169558
 20
573.1561463235375
 30
0.0
 10
66.44557277054801
 20
573.2374431649666
 30
0.0
 10
66.20641056986831
 20
573.3211805065503
 30
0.0
 10
65.92874857701663
 20
573.407282247272
 30
0.0
 10
65.61709053791736
 20
573.493072048054
 30
0.0
 10
65.25267408087579
 20
573.5829789426978
 30
0.0
 10
64.81936969288859
 20
573.6782247934591
 30
0.0
 10
64.31431125345472
 20
573.7771596999977
 30
0.0
 10
63.70982473463948
 20
573.8817254070374
 30
0.0
 10
62.9953775506761
 20
573.9897873361191
 30
0.0
 10
62.16103593808631
 20
574.0986854759424
 30
0.0
 10
61.19979566462644
 20
574.2055716049637
 30
0.0
 10
60.10639860447242
 20
574.307214748565
 30
0.0
 10
58.87935708011348
 20
574.3999145871257
 30
0.0
 10
57.51635191579166
 20
574.4796081281436
 30
0.0
 10
56.0349748843437
 20
574.5413387422835
 30
0.0
 10
54.43823058019483
 20
574.5824890821028
 30
0.0
 10
53.44621336753658
 20
574.5876830189643
 30
0.0
 10
52.86633210281677
 20
574.5900560747154
 30
0.0
  0
SPLINE
  5
95
330
75
100
AcDbEntity
  8
$DDT_AUDIT_GENERATED_(7D)
  6
Continuous
 62
     7
100
AcDbSpline
210
0.0
220
0.0
230
1.0
 70
     8
 71
     3
 72
    17
 73
    13
 74
     0
 42
0.0000000037132861
 43
0.0000000001
 40
0.0
 40
0.0
 40
0.0
 40
0.0
 40
0.1025078679601779
 40
0.2154171897901755
 40
0.3288222637955021
 40
0.442969970181905
 40
0.558243731605736
 40
0.6751488376452811
 40
0.7937123142632353
 40
0.8865698181799501
 40
0.9714803244316839
 40
1.0
 40
1.0
 40
1.0
 40
1.0
 10
66.14391064705808
 20
558.110438513288
 30
0.0
 10
66.29494156111937
 20
558.1475331828909
 30
0.0
 10
66.56104507857489
 20
558.213515910537
 30
0.0
 10
66.95201365024883
 20
558.3290697453766
 30
0.0
 10
67.30079998560136
 20
558.4495265121174
 30
0.0
 10
67.60538094588865
 20
558.5760693308624
 30
0.0
 10
67.86318439151341
 20
558.7091974633877
 30
0.0
 10
68.07444983072536
 20
558.8521791135674
 30
0.0
 10
68.22782711151974
 20
559.0005464185443
 30
0.0
 10
68.32147537302463
 20
559.1535847742682
 30
0.0
 10
68.36513831061156
 20
559.2801979128924
 30
0.0
 10
68.36000781911146
 20
559.3454762599604
 30
0.0
 10
68.35838646140802
 20
559.3647762857499
 30
0.0
  0
ELLIPSE
  5
97
330
75
100
AcDbEntity
  8
$DDT_AUDIT_GENERATED_(96)
  6
Continuous
 62
     7
100
AcDbEllipse
 10
52.8663529105
 20
558.283798579
 30
0.0
 11
-12.0
 21
0.0
 31
0.0
210
0.0
220
0.0
230
1.0
 40
0.139173101
 41
0.0
 42
0.294340590242581
  0
ELLIPSE
  5
98
330
75
100
AcDbEntity
  8
$DDT_AUDIT_GENERATED_(96)
  6
Continuous
 62
     7
100
AcDbEllipse
 10
52.8663529105
 20
558.283798579
 30
0.0
 11
-12.0
 21
0.0
 31
0.0
210
0.0
220
0.0
230
1.0
 40
0.139173101
 41
2.848334976269286
 42
6.283185307179586
  0
ELLIPSE
  5
99
330
75
100
AcDbEntity
  8
$DDT_AUDIT_GENERATED_(96)
  6
Continuous
 62
     7
100
AcDbEllipse
 10
52.8663529105
 20
559.1750398408
 30
0.0
 11
14.75
 21
0.0
 31
0.0
210
0.0
220
0.0
230
1.0
 40
0.139173101
 41
0.0
 42
3.585454539984254
  0
ELLIPSE
  5
9A
330
75
100
AcDbEntity
  8
$DDT_AUDIT_GENERATED_(96)
  6
Continuous
 62
     7
100
AcDbEllipse
 10
52.8663529105
 20
559.1750398408
 30
0.0
 11
14.75
 21
0.0
 31
0.0
210
0.0
220
0.0
230
1.0
 40
0.139173101
 41
5.839323420785125
 42
6.283185307179586
  0
ELLIPSE
  5
9B
330
75
100
AcDbEntity
  8
$DDT_AUDIT_GENERATED_(96)
  6
Continuous
 62
     7
100
AcDbEllipse
 10
52.8663529105
 20
561.7497368196
 30
0.0
 11
-14.33923048454133
 21
0.0
 31
0.0
210
0.0
220
0.0
230
1.0
 40
0.139173101
 41
3.179259362921952
 42
4.712388980384691
  0
ELLIPSE
  5
9C
330
75
100
AcDbEntity
  8
$DDT_AUDIT_GENERATED_(96)
  6
Continuous
 62
     7
100
AcDbEllipse
 10
52.8663529105
 20
558.283798579
 30
0.0
 11
10.40000000000002
 21
0.0
 31
0.0
210
0.0
220
0.0
230
1.0
 40
0.139173101
 41
0.1083931445060154
 42
3.033199509083778
  0
LINE
  5
9D
330
75
100
AcDbEntity
  8
$DDT_AUDIT_GENERATED_(96)
  6
Continuous
 62
     7
100
AcDbLine
 10
67.6163529105
 20
559.1750398408
 30
0.0
 11
67.6163529105
 21
559.4685433394
 31
0.0
  0
LINE
  5
9E
330
75
100
AcDbEntity
  8
$DDT_AUDIT_GENERATED_(96)
  6
Continuous
 62
     7
100
AcDbLine
 10
38.1163529105
 20
559.4685433394
 30
0.0
 11
38.1163529105
 21
559.1750398408
 31
0.0
  0
LINE
  5
9F
330
75
100
AcDbEntity
  8
$DDT_AUDIT_GENERATED_(96)
  6
Continuous
 62
     7
100
AcDbLine
 10
39.5456280479
 20
558.293503872
 30
0.0
 11
41.3867593212
 21
557.7546348925
 31
0.0
  0
LINE
  5
A0
330
75
100
AcDbEntity
  8
$DDT_AUDIT_GENERATED_(96)
  6
Continuous
 62
     7
100
AcDbLine
 10
64.3436323339
 20
557.753957574
 30
0.0
 11
66.187077773
 21
558.293503872
 31
0.0
  0
LINE
  5
A2
330
75
100
AcDbEntity
  8
$DDT_AUDIT_GENERATED_(A1)
  6
Continuous
 62
     7
100
AcDbLine
 10
24.4663113296
 20
486.7388006434
 30
0.0
 11
37.3629601036
 21
486.7388006434
 31
0.0
  0
LINE
  5
A3
330
75
100
AcDbEntity
  8
$DDT_AUDIT_GENERATED_(A1)
  6
Continuous
 62
     7
100
AcDbLine
 10
68.3800297338
 20
486.7388006434
 30
0.0
 11
81.2663113296
 21
486.7388006434
 31
0.0
  0
LINE
  5
A4
330
75
100
AcDbEntity
  8
$DDT_AUDIT_GENERATED_(A1)
  6
Continuous
 62
     7
100
AcDbLine
 10
81.3663113296
 20
486.2388006434
 30
0.0
 11
81.3663113296
 21
486.6388006434
 31
0.0
  0
LINE
  5
A5
330
75
100
AcDbEntity
  8
$DDT_AUDIT_GENERATED_(A1)
  6
Continuous
 62
     7
100
AcDbLine
 10
24.3663113296
 20
486.6388006434
 30
0.0
 11
24.3663113296
 21
486.2388006434
 31
0.0
  0
ARC
  5
A6
330
75
100
AcDbEntity
  8
$DDT_AUDIT_GENERATED_(A1)
  6
Continuous
 62
     7
100
AcDbCircle
 10
24.4663113296
 20
486.6388006434
 30
0.0
 40
0.1000000000000029
100
AcDbArc
 50
90.0
 51
180.0
  0
ARC
  5
A7
330
75
100
AcDbEntity
  8
$DDT_AUDIT_GENERATED_(A1)
  6
Continuous
 62
     7
100
AcDbCircle
 10
81.2663113296
 20
486.6388006434
 30
0.0
 40
0.0999999999999994
100
AcDbArc
 50
0.0
 51
90.0
  0
ARC
  5
A8
330
75
100
AcDbEntity
  8
$DDT_AUDIT_GENERATED_(A1)
  6
Continuous
 62
     7
100
AcDbCircle
 10
81.2663113296
 20
486.2388006434
 30
0.0
 40
0.1000000000000029
100
AcDbArc
 50
270.0
 51
0.0
  0
ARC
  5
A9
330
75
100
AcDbEntity
  8
$DDT_AUDIT_GENERATED_(A1)
  6
Continuous
 62
     7
100
AcDbCircle
 10
24.4663113296
 20
486.2388006434
 30
0.0
 40
0.0999999999999994
100
AcDbArc
 50
180.0
 51
270.0
  0
LINE
  5
AB
330
75
100
AcDbEntity
  8
$DDT_AUDIT_GENERATED_(AA)
  6
Continuous
 62
     7
100
AcDbLine
 10
81.2669399553
 20
486.7388659518
 30
0.0
 11
68.3818958286
 21
486.7388659518
 31
0.0
  0
LINE
  5
AC
330
75
100
AcDbEntity
  8
$DDT_AUDIT_GENERATED_(AA)
  6
Continuous
 62
     7
100
AcDbLine
 10
37.3543541231
 20
486.7388659518
 30
0.0
 11
24.4656827039
 21
486.7388659518
 31
0.0
  0
LINE
  5
AD
330
75
100
AcDbEntity
  8
$DDT_AUDIT_GENERATED_(AA)
  6
Continuous
 62
     7
100
AcDbLine
 10
81.8567856412
 20
487.2287116377
 30
0.0
 11
68.3736377886
 21
487.2287116377
 31
0.0
  0
LINE
  5
AE
330
75
100
AcDbEntity
  8
$DDT_AUDIT_GENERATED_(AA)
  6
Continuous
 62
     7
100
AcDbLine
 10
37.35414634
 20
487.2287116377
 30
0.0
 11
23.875837018
 21
487.2287116377
 31
0.0
  0
LINE
  5
AF
330
75
100
AcDbEntity
  8
$DDT_AUDIT_GENERATED_(AA)
  6
Continuous
 62
     7
100
AcDbLine
 10
78.6903618155
 20
530.2354878719
 30
0.0
 11
68.3843274973
 21
530.2354878719
 31
0.0
  0
LINE
  5
B0
330
75
100
AcDbEntity
  8
$DDT_AUDIT_GENERATED_(AA)
  6
Continuous
 62
     7
100
AcDbLine
 10
37.3495176678
 20
530.2354878719
 30
0.0
 11
27.0422608436
 21
530.2354878719
 31
0.0
  0
LINE
  5
B1
330
75
100
AcDbEntity
  8
$DDT_AUDIT_GENERATED_(AA)
  6
Continuous
 62
     7
100
AcDbLine
 10
23.975837018
 20
487.2287116377
 30
0.0
 11
24.4656827039
 21
486.7388659518
 31
0.0
  0
LINE
  5
B2
330
75
100
AcDbEntity
  8
$DDT_AUDIT_GENERATED_(AA)
  6
Continuous
 62
     7
100
AcDbLine
 10
81.2669399553
 20
486.7388659518
 30
0.0
 11
81.7567856412
 21
487.2287116377
 31
0.0
  0
ARC
  5
B3
330
75
100
AcDbEntity
  8
$DDT_AUDIT_GENERATED_(AA)
  6
Continuous
 62
     7
100
AcDbCircle
 10
716.3867987747
 20
472.6281957239
 30
0.0
 40
692.6648592344261
100
AcDbArc
 50
175.3055434556
 51
178.7921865962
  0
ARC
  5
B4
330
75
100
AcDbEntity
  8
$DDT_AUDIT_GENERATED_(AA)
  6
Continuous
 62
     7
100
AcDbCircle
 10
-610.6541761156
 20
472.6281957239
 30
0.0
 40
692.664859234426
100
AcDbArc
 50
1.2078134038
 51
4.6944565444
  0
ARC
  5
B5
330
75
100
AcDbEntity
  8
$DDT_AUDIT_GENERATED_(AA)
  6
Continuous
 62
     7
100
AcDbCircle
 10
78.6903618156
 20
529.235487872
 30
0.0
 40
0.9999999999376187
100
AcDbArc
 50
4.6944565446
 51
90.0000000009
  0
ARC
  5
B6
330
75
100
AcDbEntity
  8
$DDT_AUDIT_GENERATED_(AA)
  6
Continuous
 62
     7
100
AcDbCircle
 10
27.0422608436
 20
529.235487872
 30
0.0
 40
0.9999999999430464
100
AcDbArc
 50
89.9999999991
 51
175.3055434554
  0
ARC
  5
B7
330
75
100
AcDbEntity
  8
$DDT_AUDIT_GENERATED_(AA)
  6
Continuous
 62
     7
100
AcDbCircle
 10
78.2458660654
 20
530.7354878719
 30
0.0
 40
0.4999999999933252
100
AcDbArc
 50
198.709613237
 51
270.0000000009
  0
ARC
  5
B8
330
75
100
AcDbEntity
  8
$DDT_AUDIT_GENERATED_(AA)
  6
Continuous
 62
     7
100
AcDbCircle
 10
27.4867565938
 20
530.7354878719
 30
0.0
 40
0.4999999999933351
100
AcDbArc
 50
269.9999999991
 51
341.290386763
  0
ARC
  5
B9
330
75
100
AcDbEntity
  8
$DDT_AUDIT_GENERATED_(AA)
  6
Continuous
 62
     7
100
AcDbCircle
 10
52.8705500198
 20
522.1388006434
 30
0.0
 40
26.30000000000001
100
AcDbArc
 50
156.0858459764
 51
161.290386763
  0
ARC
  5
BA
330
75
100
AcDbEntity
  8
$DDT_AUDIT_GENERATED_(AA)
  6
Continuous
 62
     7
100
AcDbCircle
 10
52.8620726393
 20
522.1388006434
 30
0.0
 40
26.3
100
AcDbArc
 50
18.709613237
 51
23.902715192
  0
SPLINE
  5
BC
330
75
100
AcDbEntity
  8
$DDT_AUDIT_GENERATED_(BB)
  6
Continuous
 62
     7
100
AcDbSpline
210
0.0
220
0.0
230
1.0
 70
     8
 71
     3
 72
    10
 73
     6
 74
     0
 42
0.0000000007015913
 43
0.0000000001
 40
0.0
 40
0.0
 40
0.0
 40
0.0
 40
0.2500000000000003
 40
0.2500000000000003
 40
0.2540258422023007
 40
0.2540258422023007
 40
0.2540258422023007
 40
0.2540258422023007
 10
36.73431433903679
 20
566.4589656718867
 30
0.0
 10
36.74822263182078
 20
568.0157375893863
 30
0.0
 10
36.78802669040686
 20
569.2652915102667
 30
0.0
 10
36.74938340031062
 20
570.053372892648
 30
0.0
 10
36.74872513418137
 20
570.0657461407903
 30
0.0
 10
36.74802539873806
 20
570.0779953499824
 30
0.0
  0
SPLINE
  5
BD
330
75
100
AcDbEntity
  8
$DDT_AUDIT_GENERATED_(BB)
  6
Continuous
 62
     7
100
AcDbSpline
210
0.0
220
0.0
230
1.0
 70
     8
 71
     3
 72
     8
 73
     4
 74
     0
 42
0.0000000027160816
 43
0.0000000001
 40
0.6699892387992172
 40
0.6699892387992172
 40
0.6699892387992172
 40
0.6699892387992172
 40
0.6722462165388579
 40
0.6722462165388579
 40
0.6722462165388579
 40
0.6722462165388579
 10
69.03580369060835
 20
570.5794346583413
 30
0.0
 10
69.03600227735132
 20
570.5767208643827
 30
0.0
 10
69.03607760081226
 20
570.5739566845606
 30
0.0
 10
69.03604861239158
 20
570.5711334065347
 30
0.0
  0
SPLINE
  5
BE
330
75
100
AcDbEntity
  8
$DDT_AUDIT_GENERATED_(BB)
  6
Continuous
 62
     7
100
AcDbSpline
210
0.0
220
0.0
230
1.0
 70
     8
 71
     3
 72
    10
 73
     6
 74
     0
 42
0.0000000007125546
 43
0.0000000001
 40
0.7368955068992372
 40
0.7368955068992372
 40
0.7368955068992372
 40
0.7368955068992372
 40
0.7500000000000003
 40
0.7500000000000003
 40
1.0
 40
1.0
 40
1.0
 40
1.0
 10
68.98924978441586
 20
570.1495708246341
 30
0.0
 10
68.98652139289493
 20
570.1115688809095
 30
0.0
 10
68.98412037745595
 20
570.0720933817817
 30
0.0
 10
68.94512607692401
 20
569.2549609323341
 30
0.0
 10
68.98446456458521
 20
568.0094214772231
 30
0.0
 10
68.99831642418852
 20
566.4589427742337
 30
0.0
  0
SPLINE
  5
BF
330
75
100
AcDbEntity
  8
$DDT_AUDIT_GENERATED_(BB)
  6
Continuous
 62
     7
100
AcDbSpline
210
0.0
220
0.0
230
1.0
 70
     8
 71
     3
 72
    14
 73
    10
 74
     0
 42
0.0000000001493784
 43
0.0000000001
 40
0.3610408468683542
 40
0.3610408468683542
 40
0.3610408468683542
 40
0.3610408468683542
 40
0.3749999999999999
 40
0.3749999999999999
 40
0.3906249999999998
 40
0.3906249999999998
 40
0.4062499999999996
 40
0.4062499999999996
 40
0.4203741440678568
 40
0.4203741440678568
 40
0.4203741440678568
 40
0.4203741440678568
 10
37.35710583957064
 20
573.775130016965
 30
0.0
 10
37.43055048208028
 20
573.7821300187679
 30
0.0
 10
37.54323335975526
 20
573.7871141868021
 30
0.0
 10
37.91790214594846
 20
573.7933056461868
 30
0.0
 10
38.19431064295063
 20
573.7940704814479
 30
0.0
 10
38.90811676895464
 20
573.791378584695
 30
0.0
 10
39.34767102748086
 20
573.7878649911429
 30
0.0
 10
40.28938783876291
 20
573.7784010436206
 30
0.0
 10
40.78787225734553
 20
573.7726597351416
 30
0.0
 10
41.3284849454193
 20
573.7661927870707
 30
0.0
  0
SPLINE
  5
C0
330
75
100
AcDbEntity
  8
$DDT_AUDIT_GENERATED_(BB)
  6
Continuous
 62
     7
100
AcDbSpline
210
0.0
220
0.0
230
1.0
 70
     8
 71
     3
 72
    16
 73
    12
 74
     0
 42
0.0000000001571283
 43
0.0000000001
 40
0.5753702393072371
 40
0.5753702393072371
 40
0.5753702393072371
 40
0.5753702393072371
 40
0.5781249999999983
 40
0.5781249999999983
 40
0.5937499999999983
 40
0.5937499999999983
 40
0.6093749999999983
 40
0.6093749999999983
 40
0.6249999999999983
 40
0.6249999999999983
 40
0.6385827581083737
 40
0.6385827581083737
 40
0.6385827581083737
 40
0.6385827581083737
 10
64.40823346299337
 20
573.766254554315
 30
0.0
 10
64.51319710926649
 20
573.7675098317746
 30
0.0
 10
64.61667518187971
 20
573.7687386209374
 30
0.0
 10
65.29709209617923
 20
573.7767387436501
 30
0.0
 10
65.82949244861277
 20
573.7825921309479
 30
0.0
 10
66.74615283802234
 20
573.7907594607465
 30
0.0
 10
67.13612180856404
 20
573.7931539661696
 30
0.0
 10
67.76478290806843
 20
573.7935336624687
 30
0.0
 10
68.00216462873266
 20
573.7914199449172
 30
0.0
 10
68.29478968094678
 20
573.7827208668075
 30
0.0
 10
68.37797006647165
 20
573.7768071637881
 30
0.0
 10
68.43016031544019
 20
573.7690478604708
 30
0.0
  0
SPLINE
  5
C1
330
75
100
AcDbEntity
  8
$DDT_AUDIT_GENERATED_(BB)
  6
Continuous
 62
     7
100
AcDbSpline
210
0.0
220
0.0
230
1.0
 70
     8
 71
     3
 72
     8
 73
     4
 74
     0
 42
0.0000000005309828
 43
0.0000000001
 40
0.0
 40
0.0
 40
0.0
 40
0.0
 40
0.048212971305283
 40
0.048212971305283
 40
0.048212971305283
 40
0.048212971305283
 10
68.99798344824185
 20
569.2173747239809
 30
0.0
 10
68.99528470251731
 20
569.5361798938783
 30
0.0
 10
68.99163780457765
 20
569.8391719956842
 30
0.0
 10
68.98778530763518
 20
570.1253104135416
 30
0.0
  0
SPLINE
  5
C2
330
75
100
AcDbEntity
  8
$DDT_AUDIT_GENERATED_(BB)
  6
Continuous
 62
     7
100
AcDbSpline
210
0.0
220
0.0
230
1.0
 70
     8
 71
     3
 72
     8
 73
     4
 74
     0
 42
0.0000000026958809
 43
0.0000000001
 40
0.3212101191548993
 40
0.3212101191548993
 40
0.3212101191548993
 40
0.3212101191548993
 40
0.3258731265763571
 40
0.3258731265763571
 40
0.3258731265763571
 40
0.3258731265763571
 10
69.03457816782695
 20
573.1748348524654
 30
0.0
 10
69.03544142156495
 20
573.1807759968661
 30
0.0
 10
69.03605508815328
 20
573.1865076080798
 30
0.0
 10
69.03622289628656
 20
573.1920339444583
 30
0.0
  0
SPLINE
  5
C3
330
75
100
AcDbEntity
  8
$DDT_AUDIT_GENERATED_(BB)
  6
Continuous
 62
     7
100
AcDbSpline
210
0.0
220
0.0
230
1.0
 70
     8
 71
     3
 72
     8
 73
     4
 74
     0
 42
0.0000000027462017
 43
0.0000000001
 40
0.6733718636899155
 40
0.6733718636899155
 40
0.6733718636899155
 40
0.6733718636899155
 40
0.6763742825187826
 40
0.6763742825187826
 40
0.6763742825187826
 40
0.6763742825187826
 10
36.69645384968763
 20
573.192023850686
 30
0.0
 10
36.69653792810617
 20
573.1884754109676
 30
0.0
 10
36.6968064520771
 20
573.1848423678564
 30
0.0
 10
36.69721020634812
 20
573.1811236235654
 30
0.0
  0
SPLINE
  5
C4
330
75
100
AcDbEntity
  8
$DDT_AUDIT_GENERATED_(BB)
  6
Continuous
 62
     7
100
AcDbSpline
210
0.0
220
0.0
230
1.0
 70
     8
 71
     3
 72
     8
 73
     4
 74
     0
 42
0.000000000532244
 43
0.0000000001
 40
0.9519336811961416
 40
0.9519336811961416
 40
0.9519336811961416
 40
0.9519336811961416
 40
1.0
 40
1.0
 40
1.0
 40
1.0
 10
36.74477523940703
 20
570.1204038919259
 30
0.0
 10
36.74094955853774
 20
569.8356846961061
 30
0.0
 10
36.73733046832058
 20
569.5343308121119
 30
0.0
 10
36.73464731804984
 20
569.2173746877305
 30
0.0
  0
ELLIPSE
  5
C5
330
75
100
AcDbEntity
  8
$DDT_AUDIT_GENERATED_(BB)
  6
Continuous
 62
     7
100
AcDbEllipse
 10
34.7707739038
 20
568.4844804775
 30
0.0
 11
0.06347513983595912
 21
-0.4959545408833588
 31
0.0
210
0.0
220
0.0
230
1.0
 40
0.7072768997
 41
3.124534676981398
 42
3.158017514530194
  0
SPLINE
  5
C6
330
75
100
AcDbEntity
  8
$DDT_AUDIT_GENERATED_(BB)
  6
Continuous
 62
     7
100
AcDbSpline
210
0.0
220
0.0
230
1.0
 70
     8
 71
     3
 72
     8
 73
     4
 74
     0
 42
0.0000000002101932
 43
0.0000000001
 40
0.0
 40
0.0
 40
0.0
 40
0.0
 40
0.0059188190597832
 40
0.0059188190597832
 40
0.0059188190597832
 40
0.0059188190597832
 10
78.86209535027987
 20
533.5023915201064
 30
0.0
 10
78.86490554633873
 20
533.5962239719304
 30
0.0
 10
78.86629484809376
 20
533.6900758731633
 30
0.0
 10
78.86627460301956
 20
533.7839286773788
 30
0.0
  0
SPLINE
  5
C7
330
75
100
AcDbEntity
  8
$DDT_AUDIT_GENERATED_(BB)
  6
Continuous
 62
     7
100
AcDbSpline
210
0.0
220
0.0
230
1.0
 70
     8
 71
     3
 72
     8
 73
     4
 74
     0
 42
0.0000000002102469
 43
0.0000000001
 40
0.9940817696805627
 40
0.9940817696805627
 40
0.9940817696805627
 40
0.9940817696805627
 40
1.0
 40
1.0
 40
1.0
 40
1.0
 10
26.86630470785076
 20
533.7838284260374
 30
0.0
 10
26.86631618219252
 20
533.6900858134666
 30
0.0
 10
26.86772379871955
 20
533.5962737011984
 30
0.0
 10
26.87053548395575
 20
533.5023915205987
 30
0.0
  0
LINE
  5
C8
330
75
100
AcDbEntity
  8
$DDT_AUDIT_GENERATED_(BB)
  6
Continuous
 62
     7
100
AcDbLine
 10
78.4940199374
 20
532.79212138
 30
0.0
 11
68.3744277464
 21
532.79212138
 31
0.0
  0
LINE
  5
C9
330
75
100
AcDbEntity
  8
$DDT_AUDIT_GENERATED_(BB)
  6
Continuous
 62
     7
100
AcDbLine
 10
37.3482233456
 20
532.79212138
 30
0.0
 11
27.2386108961
 21
532.79212138
 31
0.0
  0
LINE
  5
CA
330
75
100
AcDbEntity
  8
$DDT_AUDIT_GENERATED_(BB)
  6
Continuous
 62
     7
100
AcDbLine
 10
67.4869258863
 20
573.79335598
 30
0.0
 11
64.2076460733
 21
573.79335598
 31
0.0
  0
LINE
  5
CB
330
75
100
AcDbEntity
  8
$DDT_AUDIT_GENERATED_(BB)
  6
Continuous
 62
     7
100
AcDbLine
 10
41.4783686945
 20
573.79335598
 30
0.0
 11
38.2589763128
 21
573.79335598
 31
0.0
  0
LINE
  5
CC
330
75
100
AcDbEntity
  8
$DDT_AUDIT_GENERATED_(BB)
  6
Continuous
 62
     7
100
AcDbLine
 10
36.6983973016
 20
573.1909009699
 30
0.0
 11
36.6983973015
 21
570.5725012615
 31
0.0
  0
LINE
  5
CD
330
75
100
AcDbEntity
  8
$DDT_AUDIT_GENERATED_(BB)
  6
Continuous
 62
     7
100
AcDbLine
 10
69.034241949
 20
570.5719641684
 30
0.0
 11
69.0342419491
 21
573.1805901001
 31
0.0
  0
SPLINE
  5
CE
330
75
100
AcDbEntity
  8
$DDT_AUDIT_GENERATED_(BB)
  6
Continuous
 62
     7
100
AcDbSpline
210
0.0
220
0.0
230
1.0
 70
     8
 71
     3
 72
    16
 73
    12
 74
     0
 42
0.0000000179144301
 43
0.0000000001
 40
0.0012712905281354
 40
0.0012712905281354
 40
0.0012712905281354
 40
0.0012712905281354
 40
0.0113522795299211
 40
0.0224882426823895
 40
0.1001309178481511
 40
0.1872637662145336
 40
0.3011232279530252
 40
0.448673725958491
 40
0.6123980703952742
 40
0.777702765046747
 40
1.0
 40
1.0
 40
1.0
 40
1.0
 10
36.69839350392713
 20
570.5733309908221
 30
0.0
 10
36.69838693976
 20
570.5730782234368
 30
0.0
 10
36.69846187901442
 20
570.5550463536944
 30
0.0
 10
36.699456202306
 20
570.5120745339544
 30
0.0
 10
36.7049025154331
 20
570.43617253223
 30
0.0
 10
36.71424777475826
 20
570.366890733568
 30
0.0
 10
36.72362802815064
 20
570.3051803141726
 30
0.0
 10
36.72827943699888
 20
570.2748162657628
 30
0.0
 10
36.73498422126087
 20
570.2152697809673
 30
0.0
 10
36.74257938929919
 20
570.1334356180569
 30
0.0
 10
36.74634960504987
 20
570.0654950181282
 30
0.0
 10
36.74891470836521
 20
570.018631467832
 30
0.0
  0
SPLINE
  5
CF
330
75
100
AcDbEntity
  8
$DDT_AUDIT_GENERATED_(BB)
  6
Continuous
 62
     7
100
AcDbSpline
210
0.0
220
0.0
230
1.0
 70
     8
 71
     3
 72
    14
 73
    10
 74
     0
 42
0.000000019284666
 43
0.0000000001
 40
0.0
 40
0.0
 40
0.0
 40
0.0
 40
0.3305744266873378
 40
0.5664339313282203
 40
0.7118384830944116
 40
0.8246550827656794
 40
0.9123811167957495
 40
0.9504712119002544
 40
0.9669168303422326
 40
0.9669168303422326
 40
0.9669168303422326
 40
0.9669168303422326
 10
68.98703606679358
 20
570.0830423463608
 30
0.0
 10
68.99138222481218
 20
570.1397567108521
 30
0.0
 10
68.99809285448666
 20
570.2233643369173
 30
0.0
 10
69.00504889304096
 20
570.2801403087333
 30
0.0
 10
69.01360954775885
 20
570.3355622760449
 30
0.0
 10
69.02397697660723
 20
570.4029765111425
 30
0.0
 10
69.03152585365868
 20
570.4849802527106
 30
0.0
 10
69.03421116586286
 20
570.5368086676285
 30
0.0
 10
69.03418994311437
 20
570.5747486805839
 30
0.0
 10
69.03417383108071
 20
570.5817081394155
 30
0.0
  0
SPLINE
  5
D0
330
75
100
AcDbEntity
  8
$DDT_AUDIT_GENERATED_(BB)
  6
Continuous
 62
     7
100
AcDbSpline
210
0.0
220
0.0
230
1.0
 70
     8
 71
     3
 72
    26
 73
    22
 74
     0
 42
0.0000000011308059
 43
0.0000000001
 40
0.0018951581613747
 40
0.0018951581613747
 40
0.0018951581613747
 40
0.0018951581613747
 40
0.0042809719414521
 40
0.0461792779374703
 40
0.0880368961756162
 40
0.1317821441923543
 40
0.1795488670957581
 40
0.2329782716843981
 40
0.2920332508019899
 40
0.3542436355790297
 40
0.4167204230794705
 40
0.4784312273242795
 40
0.539370419106812
 40
0.5996434628988744
 40
0.6593298313341289
 40
0.718471192251902
 40
0.7770825222439106
 40
0.8351639314047796
 40
0.8927096398876362
 40
0.949696603199261
 40
1.0
 40
1.0
 40
1.0
 40
1.0
 10
78.86373791612539
 20
565.9810537715344
 30
0.0
 10
78.86423330124711
 20
565.98547407761
 30
0.0
 10
78.87235045480386
 20
566.0637445946978
 30
0.0
 10
78.84126144345035
 20
566.2314296527435
 30
0.0
 10
78.76668604714021
 20
566.4506311429012
 30
0.0
 10
78.64300371724956
 20
566.6583814792763
 30
0.0
 10
78.47546495068987
 20
566.856736178907
 30
0.0
 10
78.25444118058388
 20
567.052283710608
 30
0.0
 10
77.97332061807239
 20
567.2458504728763
 30
0.0
 10
77.63118723390761
 20
567.4349328658905
 30
0.0
 10
77.23433380092823
 20
567.616106625616
 30
0.0
 10
76.78992546614269
 20
567.7878671561374
 30
0.0
 10
76.30124381249293
 20
567.950753427422
 30
0.0
 10
75.76935513316374
 20
568.1057033860571
 30
0.0
 10
75.19523233294863
 20
568.2533040825482
 30
0.0
 10
74.57991903135813
 20
568.3938750108841
 30
0.0
 10
73.9253444536181
 20
568.5274369415226
 30
0.0
 10
73.23141473605743
 20
568.6542957337797
 30
0.0
 10
72.50654951964638
 20
568.7732332092847
 30
0.0
 10
71.75668742998842
 20
568.8842389352748
 30
0.0
 10
71.28501763991359
 20
568.9459026365518
 30
0.0
 10
71.02224386316068
 20
568.9800144307276
 30
0.0
  0
SPLINE
  5
D1
330
75
100
AcDbEntity
  8
$DDT_AUDIT_GENERATED_(BB)
  6
Continuous
 62
     7
100
AcDbSpline
210
0.0
220
0.0
230
1.0
 70
     8
 71
     3
 72
    26
 73
    22
 74
     0
 42
0.0000000011334439
 43
0.0000000001
 40
0.0
 40
0.0
 40
0.0
 40
0.0
 40
0.0244391456066799
 40
0.0810895721536813
 40
0.1375055393696666
 40
0.1940232777208152
 40
0.251561566686655
 40
0.3096444634802804
 40
0.3682602523977112
 40
0.4273981697724258
 40
0.487058564529311
 40
0.5472631080419957
 40
0.6080671635460634
 40
0.6695672894764708
 40
0.7318685275404145
 40
0.794863231316406
 40
0.847937612785509
 40
0.8950487750914717
 40
0.9377959715292603
 40
0.9781275986649577
 40
1.0
 40
1.0
 40
1.0
 40
1.0
 10
34.71343330158101
 20
568.9795621944364
 30
0.0
 10
34.5839043712691
 20
568.9633880363708
 30
0.0
 10
34.21856162362194
 20
568.9176009504588
 30
0.0
 10
33.5788502129306
 20
568.8264951193263
 30
0.0
 10
32.84984277223672
 20
568.7130894110369
 30
0.0
 10
32.15219608288023
 20
568.592096640825
 30
0.0
 10
31.4910191140486
 20
568.4646646945488
 30
0.0
 10
30.86486692566859
 20
568.3300229016993
 30
0.0
 10
30.27777399000594
 20
568.1886399501249
 30
0.0
 10
29.73120646837295
 20
568.0404004465328
 30
0.0
 10
29.22656942597943
 20
567.8850680781572
 30
0.0
 10
28.764898045936
 20
567.7221004061979
 30
0.0
 10
28.34685592208798
 20
567.5504434071427
 30
0.0
 10
27.97273833304471
 20
567.3681557237351
 30
0.0
 10
27.64298369491234
 20
567.1719509633077
 30
0.0
 10
27.37382091399206
 20
566.9678045768483
 30
0.0
 10
27.1669502883041
 20
566.7586498189099
 30
0.0
 10
27.01832613040018
 20
566.5497924552286
 30
0.0
 10
26.9211180562184
 20
566.3364845523862
 30
0.0
 10
26.8703212507362
 20
566.1412309099499
 30
0.0
 10
26.87298884764823
 20
566.03245587831
 30
0.0
 10
26.87440934893629
 20
565.9872466900342
 30
0.0
  0
SPLINE
  5
D2
330
75
100
AcDbEntity
  8
$DDT_AUDIT_GENERATED_(BB)
  6
Continuous
 62
     7
100
AcDbSpline
210
0.0
220
0.0
230
1.0
 70
     8
 71
     3
 72
    15
 73
    11
 74
     0
 42
0.000000003190591
 43
0.0000000001
 40
0.3332525180856642
 40
0.3332525180856642
 40
0.3332525180856642
 40
0.3332525180856642
 40
0.3910009782466667
 40
0.4749178389757735
 40
0.5645558086291679
 40
0.6576309764315205
 40
0.7530863137224686
 40
0.8506131465489674
 40
0.9495451816102264
 40
1.0
 40
1.0
 40
1.0
 40
1.0
 10
36.74049336938195
 20
569.4110126832204
 30
0.0
 10
36.71780424794452
 20
569.4006356046544
 30
0.0
 10
36.65211632535328
 20
569.3728727181242
 30
0.0
 10
36.50891742597733
 20
569.3227672571767
 30
0.0
 10
36.2985315021955
 20
569.2623689962206
 30
0.0
 10
36.0336698818186
 20
569.1989701362969
 30
0.0
 10
35.7162866273216
 20
569.134615897711
 30
0.0
 10
35.3514418793134
 20
569.0717079973075
 30
0.0
 10
35.00203895329798
 20
569.0188035650065
 30
0.0
 10
34.78701908791327
 20
568.991792441679
 30
0.0
 10
34.70132329991972
 20
568.981088365338
 30
0.0
  0
SPLINE
  5
D3
330
75
100
AcDbEntity
  8
$DDT_AUDIT_GENERATED_(BB)
  6
Continuous
 62
     7
100
AcDbSpline
210
0.0
220
0.0
230
1.0
 70
     8
 71
     3
 72
    15
 73
    11
 74
     0
 42
0.0000000031806684
 43
0.0000000001
 40
0.0
 40
0.0
 40
0.0
 40
0.0
 40
0.0036401383225565
 40
0.1036267387294576
 40
0.2033821591015578
 40
0.3025749459262845
 40
0.4007485289284515
 40
0.4972432535908866
 40
0.5908808117637334
 40
0.6627314883994531
 40
0.6627314883994531
 40
0.6627314883994531
 40
0.6627314883994531
 10
71.02722587740347
 20
568.9806405081954
 30
0.0
 10
71.02086831912553
 20
568.9813975974703
 30
0.0
 10
70.8648382682543
 20
568.9999853904407
 30
0.0
 10
70.56498875868013
 20
569.0435469838845
 30
0.0
 10
70.1706332067048
 20
569.1065766829262
 30
0.0
 10
69.8210747993813
 20
569.1729538286967
 30
0.0
 10
69.52214336855836
 20
569.2398963059181
 30
0.0
 10
69.27763017477325
 20
569.3058221264401
 30
0.0
 10
69.10328795414874
 20
569.3637854949571
 30
0.0
 10
69.02271303182586
 20
569.3970165520599
 30
0.0
 10
68.994076290654
 20
569.4100443299724
 30
0.0
  0
SPLINE
  5
D4
330
75
100
AcDbEntity
  8
$DDT_AUDIT_GENERATED_(BB)
  6
Continuous
 62
     7
100
AcDbSpline
210
0.0
220
0.0
230
1.0
 70
     8
 71
     3
 72
    14
 73
    10
 74
     0
 42
0.0000000104074249
 43
0.0000000001
 40
0.0
 40
0.0
 40
0.0
 40
0.0
 40
0.1319019891307723
 40
0.2805644422322104
 40
0.4231266110247071
 40
0.5703786887266798
 40
0.7211546873497299
 40
0.8786077394805413
 40
1.0
 40
1.0
 40
1.0
 40
1.0
 10
37.31087535209348
 20
573.7719628332377
 30
0.0
 10
37.27449113879145
 20
573.7689573051488
 30
0.0
 10
37.20720084263915
 20
573.7613803620599
 30
0.0
 10
37.09734384262507
 20
573.7391107446656
 30
0.0
 10
36.94097434479065
 20
573.666134989224
 30
0.0
 10
36.82938860109736
 20
573.5678642517202
 30
0.0
 10
36.73337776767029
 20
573.4240792688753
 30
0.0
 10
36.69375770628022
 20
573.2740488920939
 30
0.0
 10
36.69302722389777
 20
573.2113454304946
 30
0.0
 10
36.69371466865835
 20
573.1788394575927
 30
0.0
  0
ARC
  5
D5
330
75
100
AcDbEntity
  8
$DDT_AUDIT_GENERATED_(BB)
  6
Continuous
 62
     7
100
AcDbCircle
 10
68.4592416837
 20
573.1879135094
 30
0.0
 40
0.5769524273686614
100
AcDbArc
 50
357.5024142221
 51
85.5143776071
  0
SPLINE
  5
D6
330
75
100
AcDbEntity
  8
$DDT_AUDIT_GENERATED_(BB)
  6
Continuous
 62
     7
100
AcDbSpline
210
0.0
220
0.0
230
1.0
 70
     8
 71
     3
 72
    14
 73
    10
 74
     0
 42
0.0000000119594874
 43
0.0000000001
 40
0.0
 40
0.0
 40
0.0
 40
0.0
 40
0.2050243612321993
 40
0.4420157486021151
 40
0.5946633319161799
 40
0.7154873900703503
 40
0.7986673354899498
 40
0.8819378008762339
 40
0.9047174251400999
 40
0.9047174251400999
 40
0.9047174251400999
 40
0.9047174251400999
 10
26.87092032156432
 20
533.4956694787885
 30
0.0
 10
26.87318056372724
 20
533.4277385195414
 30
0.0
 10
26.87794240319966
 20
533.3044286246604
 30
0.0
 10
26.89147717315571
 20
533.1689150432888
 30
0.0
 10
26.9120584244735
 20
533.0660713600352
 30
0.0
 10
26.9396395366303
 20
532.9863217856988
 30
0.0
 10
26.99066539850761
 20
532.9037042679606
 30
0.0
 10
27.05137925572893
 20
532.8504761495583
 30
0.0
 10
27.09569709896272
 20
532.8255786584896
 30
0.0
 10
27.1055311276983
 20
532.8206952609278
 30
0.0
  0
SPLINE
  5
D7
330
75
100
AcDbEntity
  8
$DDT_AUDIT_GENERATED_(BB)
  6
Continuous
 62
     7
100
AcDbSpline
210
0.0
220
0.0
230
1.0
 70
     8
 71
     3
 72
    15
 73
    11
 74
     0
 42
0.0000000119241776
 43
0.0000000001
 40
0.0925748707615433
 40
0.0925748707615433
 40
0.0925748707615433
 40
0.0925748707615433
 40
0.1241184324061996
 40
0.199544614674644
 40
0.2766363495685953
 40
0.3665122331198314
 40
0.4894875527813199
 40
0.697312755759895
 40
0.9247495197080263
 40
1.0
 40
1.0
 40
1.0
 40
1.0
 10
78.62537093857767
 20
532.8198525770127
 30
0.0
 10
78.63902833213892
 20
532.8264321240715
 30
0.0
 10
78.68348350417305
 20
532.852061386923
 30
0.0
 10
78.74129926557112
 20
532.9042760470275
 30
0.0
 10
78.78571704595052
 20
532.9740306071333
 30
0.0
 10
78.81297181310998
 20
533.0421153100696
 30
0.0
 10
78.83430403289348
 20
533.1272149189227
 30
0.0
 10
78.84961337575378
 20
533.2458989337543
 30
0.0
 10
78.8588312336896
 20
533.3769552938919
 30
0.0
 10
78.8608389883847
 20
533.4712256577959
 30
0.0
 10
78.86139296829693
 20
533.498733389669
 30
0.0
  0
LINE
  5
D8
330
75
100
AcDbEntity
  8
$DDT_AUDIT_GENERATED_(BB)
  6
Continuous
 62
     7
100
AcDbLine
 10
78.8663154173
 20
533.7839166928
 30
0.0
 11
78.8663154438
 21
565.9876052295
 31
0.0
  0
LINE
  5
D9
330
75
100
AcDbEntity
  8
$DDT_AUDIT_GENERATED_(BB)
  6
Continuous
 62
     7
100
AcDbLine
 10
26.8663154438
 20
565.9879828174
 30
0.0
 11
26.8663154173
 21
533.7838332738
 31
0.0
  0
ELLIPSE
  5
DB
330
75
100
AcDbEntity
  8
$DDT_AUDIT_GENERATED_(DA)
  6
Continuous
 62
     7
100
AcDbEllipse
 10
52.8663529105
 20
540.954107376
 30
0.0
 11
-10.5
 21
1.387778780781446E-14
 31
0.0
210
0.0
220
0.0
230
1.0
 40
0.139173101
 41
0.0
 42
0.6279407185188304
  0
ELLIPSE
  5
DC
330
75
100
AcDbEntity
  8
$DDT_AUDIT_GENERATED_(DA)
  6
Continuous
 62
     7
100
AcDbEllipse
 10
52.8663529105
 20
540.954107376
 30
0.0
 11
-10.5
 21
1.387778780781446E-14
 31
0.0
210
0.0
220
0.0
230
1.0
 40
0.139173101
 41
2.513651935070959
 42
6.283185307179586
  0
ELLIPSE
  5
DD
330
75
100
AcDbEntity
  8
$DDT_AUDIT_GENERATED_(DA)
  6
Continuous
 62
     7
100
AcDbEllipse
 10
52.8663529105
 20
540.954107376
 30
0.0
 11
-10.05
 21
0.0
 31
0.0
210
0.0
220
0.0
230
1.0
 40
0.139173101
 41
2.652191596054453
 42
6.283185307179586
  0
ELLIPSE
  5
DE
330
75
100
AcDbEntity
  8
$DDT_AUDIT_GENERATED_(DA)
  6
Continuous
 62
     7
100
AcDbEllipse
 10
52.8663529105
 20
540.954107376
 30
0.0
 11
-10.05
 21
0.0
 31
0.0
210
0.0
220
0.0
230
1.0
 40
0.139173101
 41
0.0
 42
0.4894010575353377
  0
ELLIPSE
  5
DF
330
75
100
AcDbEntity
  8
$DDT_AUDIT_GENERATED_(DA)
  6
Continuous
 62
     7
100
AcDbEllipse
 10
52.8663529105
 20
557.6401243343
 30
0.0
 11
11.49999999999999
 21
0.0
 31
0.0
210
0.0
220
0.0
230
1.0
 40
0.139173101
 41
3.138657026093006
 42
3.141592653589793
  0
ELLIPSE
  5
E0
330
75
100
AcDbEntity
  8
$DDT_AUDIT_GENERATED_(DA)
  6
Continuous
 62
     7
100
AcDbEllipse
 10
52.8663529105
 20
557.7886645446
 30
0.0
 11
-11.34999999999999
 21
0.0
 31
0.0
210
0.0
220
0.0
230
1.0
 40
0.139173101
 41
3.532687061229736
 42
5.859581108267231
  0
ARC
  5
E1
330
75
100
AcDbEntity
  8
$DDT_AUDIT_GENERATED_(DA)
  6
Continuous
 62
     7
100
AcDbCircle
 10
58.0324152972
 20
546.5900529752
 30
0.0
 40
16.65969801590105
100
AcDbArc
 50
179.8188946712
 51
200.0537955939
  0
ARC
  5
E2
330
75
100
AcDbEntity
  8
$DDT_AUDIT_GENERATED_(DA)
  6
Continuous
 62
     7
100
AcDbCircle
 10
47.875213687
 20
546.574772624
 30
0.0
 40
16.48483220236125
100
AcDbArc
 50
339.7806943996
 51
0.2365530821
  0
LINE
  5
E3
330
75
100
AcDbEntity
  8
$DDT_AUDIT_GENERATED_(DA)
  6
Continuous
 62
     7
100
AcDbLine
 10
64.3663529105
 20
546.6427643338
 30
0.0
 11
64.3663529105
 21
557.6401243343
 31
0.0
  0
LINE
  5
E4
330
75
100
AcDbEntity
  8
$DDT_AUDIT_GENERATED_(DA)
  6
Continuous
 62
     7
100
AcDbLine
 10
41.3663529105
 20
557.6401243343
 30
0.0
 11
41.3663529105
 21
546.6427643338
 31
0.0
  0
SPLINE
  5
E5
330
75
100
AcDbEntity
  8
$DDT_AUDIT_GENERATED_(DA)
  6
Continuous
 62
     7
100
AcDbSpline
210
0.0
220
0.0
230
1.0
 70
     8
 71
     3
 72
    14
 73
    10
 74
     0
 42
0.0000000069383032
 43
0.0000000001
 40
0.0
 40
0.0
 40
0.0
 40
0.0
 40
0.1432727417875241
 40
0.3077914271094533
 40
0.4740899449250307
 40
0.6431364010803324
 40
0.7892302008844849
 40
0.9160636967225795
 40
1.0
 40
1.0
 40
1.0
 40
1.0
 10
42.47672728373103
 20
558.4321729760283
 30
0.0
 10
42.37309722272967
 20
558.3993250995609
 30
0.0
 10
42.18680405416261
 20
558.3394881418756
 30
0.0
 10
41.92892009167561
 20
558.2332177338068
 30
0.0
 10
41.71096636703513
 20
558.1189060572367
 30
0.0
 10
41.54602889290252
 20
557.999158991688
 30
0.0
 10
41.43676000213983
 20
557.8760458461044
 30
0.0
 10
41.37497195245487
 20
557.7543336748187
 30
0.0
 10
41.37230548965304
 20
557.6817854653985
 30
0.0
 10
41.37143778978812
 20
557.6474621006513
 30
0.0
  0
SPLINE
  5
E6
330
75
100
AcDbEntity
  8
$DDT_AUDIT_GENERATED_(DA)
  6
Continuous
 62
     7
100
AcDbSpline
210
0.0
220
0.0
230
1.0
 70
     8
 71
     3
 72
    15
 73
    11
 74
     0
 42
0.0000000077197715
 43
0.0000000001
 40
0.0
 40
0.0
 40
0.0
 40
0.0
 40
0.015299001386223
 40
0.1518171138924514
 40
0.2892754459917081
 40
0.4425765714583354
 40
0.6172408809584938
 40
0.7999718352485993
 40
0.9798494018196181
 40
1.0
 40
1.0
 40
1.0
 40
1.0
 10
64.36388758126252
 20
557.6373234378465
 30
0.0
 10
64.36481543258219
 20
557.6430218868727
 30
0.0
 10
64.3726197375485
 20
557.6915411429384
 30
0.0
 10
64.33972207674944
 20
557.7942187270004
 30
0.0
 10
64.26563293757134
 20
557.9169898398179
 30
0.0
 10
64.14342664436478
 20
558.0340598514417
 30
0.0
 10
63.96988882935331
 20
558.1495946891904
 30
0.0
 10
63.73671551196837
 20
558.2621066059188
 30
0.0
 10
63.53775422094994
 20
558.3428198552314
 30
0.0
 10
63.41988109401106
 20
558.3794859810207
 30
0.0
 10
63.40605233729406
 20
558.3837800166247
 30
0.0
  0
ELLIPSE
  5
E8
330
75
100
AcDbEntity
  8
$DDT_AUDIT_GENERATED_(E7)
  6
Continuous
 62
     7
100
AcDbEllipse
 10
52.8663529105
 20
540.5084867451
 30
0.0
 11
9.000000000000007
 21
-1.387778780781446E-14
 31
0.0
210
0.0
220
0.0
230
1.0
 40
0.139173101
 41
0.0
 42
6.283185307179586
  0
ELLIPSE
  5
E9
330
75
100
AcDbEntity
  8
$DDT_AUDIT_GENERATED_(E7)
  6
Continuous
 62
     7
100
AcDbEllipse
 10
52.8663529105
 20
540.5084867451
 30
0.0
 11
-5.249999999999998
 21
0.0
 31
0.0
210
0.0
220
0.0
230
1.0
 40
0.139173101
 41
0.0
 42
6.283185307179586
  0
ELLIPSE
  5
EA
330
75
100
AcDbEntity
  8
$DDT_AUDIT_GENERATED_(E7)
  6
Continuous
 62
     7
100
AcDbEllipse
 10
52.8663529105
 20
540.5084867451
 30
0.0
 11
-6.249999999999999
 21
0.0
 31
0.0
210
0.0
220
0.0
230
1.0
 40
0.139173101
 41
0.0
 42
6.283185307179586
  0
ELLIPSE
  5
EB
330
75
100
AcDbEntity
  8
$DDT_AUDIT_GENERATED_(E7)
  6
Continuous
 62
     7
100
AcDbEllipse
 10
52.8663529105
 20
540.5084867451
 30
0.0
 11
2.750000000000002
 21
0.0
 31
0.0
210
0.0
220
0.0
230
1.0
 40
0.139173101
 41
0.0
 42
6.283185307179586
  0
ELLIPSE
  5
EC
330
75
100
AcDbEntity
  8
$DDT_AUDIT_GENERATED_(E7)
  6
Continuous
 62
     7
100
AcDbEllipse
 10
52.8663529105
 20
540.5084867451
 30
0.0
 11
2.150000000000001
 21
0.0
 31
0.0
210
0.0
220
0.0
230
1.0
 40
0.139173101
 41
0.0
 42
6.283185307179586
  0
ELLIPSE
  5
ED
330
75
100
AcDbEntity
  8
$DDT_AUDIT_GENERATED_(E7)
  6
Continuous
 62
     7
100
AcDbEllipse
 10
52.8663529105
 20
540.7065403588
 30
0.0
 11
0.5196299438963558
 21
0.0
 31
0.0
210
0.0
220
0.0
230
1.0
 40
0.139173101
 41
0.0
 42
6.283185307179586
  0
ELLIPSE
  5
EE
330
75
100
AcDbEntity
  8
$DDT_AUDIT_GENERATED_(E7)
  6
Continuous
 62
     7
100
AcDbEllipse
 10
52.8663529105
 20
540.5084867451
 30
0.0
 11
8.700000000000005
 21
0.0
 31
0.0
210
0.0
220
0.0
230
1.0
 40
0.139173101
 41
0.0
 42
6.283185307179586
  0
ARC
  5
EF
330
75
100
AcDbEntity
  8
$DDT_AUDIT_GENERATED_(E7)
  6
Continuous
 62
     7
100
AcDbCircle
 10
52.8663529105
 20
496.6739061602
 30
0.0
 40
44.90246608655924
100
AcDbArc
 50
89.8723993761
 51
90.1276006239
  0
LINE
  5
F0
330
75
100
AcDbEntity
  8
$DDT_AUDIT_GENERATED_(E7)
  6
Continuous
 62
     7
100
AcDbLine
 10
52.9663529105
 20
541.5762608942
 30
0.0
 11
52.9663529105
 21
541.7192127362
 31
0.0
  0
LINE
  5
F1
330
75
100
AcDbEntity
  8
$DDT_AUDIT_GENERATED_(E7)
  6
Continuous
 62
     7
100
AcDbLine
 10
52.7663529105
 20
541.5762608942
 30
0.0
 11
52.7663529105
 21
541.7192127362
 31
0.0
  0
ELLIPSE
  5
F2
330
75
100
AcDbEntity
  8
$DDT_AUDIT_GENERATED_(E7)
  6
Continuous
 62
     7
100
AcDbEllipse
 10
52.8663528938
 20
540.7065403502
 30
0.0
 11
6.250000034381732
 21
2.278205402106437E-9
 31
0.0
210
0.0
220
0.0
230
1.0
 40
0.1391731016
 41
1.292996254998994
 42
1.32499762032444
  0
LINE
  5
F3
330
75
100
AcDbEntity
  8
$DDT_AUDIT_GENERATED_(E7)
  6
Continuous
 62
     7
100
AcDbLine
 10
54.5803574565
 20
541.5430238207
 30
0.0
 11
54.8578315452
 21
541.6871441631
 31
0.0
  0
LINE
  5
F4
330
75
100
AcDbEntity
  8
$DDT_AUDIT_GENERATED_(E7)
  6
Continuous
 62
     7
100
AcDbLine
 10
54.3871722912
 20
541.5502279505
 30
0.0
 11
54.6624528225
 21
541.6932089568
 31
0.0
  0
LINE
  5
F5
330
75
100
AcDbEntity
  8
$DDT_AUDIT_GENERATED_(E7)
  6
Continuous
 62
     7
100
AcDbLine
 10
54.3871722912
 20
541.5502279505
 30
0.0
 11
54.3871722912
 21
541.7006496401
 31
0.0
  0
ELLIPSE
  5
F6
330
75
100
AcDbEntity
  8
$DDT_AUDIT_GENERATED_(E7)
  6
Continuous
 62
     7
100
AcDbEllipse
 10
52.8663528824
 20
540.706540352
 30
0.0
 11
6.250000035044397
 21
3.449573959812824E-9
 31
0.0
210
0.0
220
0.0
230
1.0
 40
0.1391731013
 41
1.031196866504236
 42
1.063198231851261
  0
LINE
  5
F7
330
75
100
AcDbEntity
  8
$DDT_AUDIT_GENERATED_(E7)
  6
Continuous
 62
     7
100
AcDbLine
 10
56.0775554252
 20
541.4527817816
 30
0.0
 11
56.6759865709
 21
541.5970365308
 31
0.0
  0
LINE
  5
F8
330
75
100
AcDbEntity
  8
$DDT_AUDIT_GENERATED_(E7)
  6
Continuous
 62
     7
100
AcDbLine
 10
55.9043503445
 20
541.4666990917
 30
0.0
 11
56.4945748638
 21
541.6089755935
 31
0.0
  0
LINE
  5
F9
330
75
100
AcDbEntity
  8
$DDT_AUDIT_GENERATED_(E7)
  6
Continuous
 62
     7
100
AcDbLine
 10
55.9043503445
 20
541.4666990917
 30
0.0
 11
55.9043503445
 21
541.6430725352
 31
0.0
  0
ELLIPSE
  5
FA
330
75
100
AcDbEntity
  8
$DDT_AUDIT_GENERATED_(E7)
  6
Continuous
 62
     7
100
AcDbEllipse
 10
52.8663528697
 20
540.7065403531
 30
0.0
 11
6.250000043256821
 21
4.105174533641787E-9
 31
0.0
210
0.0
220
0.0
230
1.0
 40
0.139173101
 41
0.7693974783277078
 42
0.8013988436706988
  0
LINE
  5
FB
330
75
100
AcDbEntity
  8
$DDT_AUDIT_GENERATED_(E7)
  6
Continuous
 62
     7
100
AcDbLine
 10
57.3559152494
 20
541.3116846228
 30
0.0
 11
58.3438876437
 21
541.4491838046
 31
0.0
  0
LINE
  5
FC
330
75
100
AcDbEntity
  8
$DDT_AUDIT_GENERATED_(E7)
  6
Continuous
 62
     7
100
AcDbLine
 10
57.2144938931
 20
541.3313666715
 30
0.0
 11
58.1859974759
 21
541.4665738377
 31
0.0
  0
LINE
  5
FD
330
75
100
AcDbEntity
  8
$DDT_AUDIT_GENERATED_(E7)
  6
Continuous
 62
     7
100
AcDbLine
 10
57.2144938931
 20
541.3313666715
 30
0.0
 11
57.2144938931
 21
541.5572248139
 31
0.0
  0
ELLIPSE
  5
FE
330
75
100
AcDbEntity
  8
$DDT_AUDIT_GENERATED_(E7)
  6
Continuous
 62
     7
100
AcDbEllipse
 10
52.8663528828
 20
540.7065403566
 30
0.0
 11
6.250000027896038
 21
1.963221252232472E-9
 31
0.0
210
0.0
220
0.0
230
1.0
 40
0.1391731008
 41
0.5075980917455872
 42
0.5395994571545545
  0
LINE
  5
FF
330
75
100
AcDbEntity
  8
$DDT_AUDIT_GENERATED_(E7)
  6
Continuous
 62
     7
100
AcDbLine
 10
58.3283188194
 20
541.1293478824
 30
0.0
 11
59.7704665532
 21
541.2452267996
 31
0.0
  0
LINE
  5
100
330
75
100
AcDbEntity
  8
$DDT_AUDIT_GENERATED_(E7)
  6
Continuous
 62
     7
100
AcDbLine
 10
58.2283188194
 20
541.1534533706
 30
0.0
 11
59.6456791454
 21
541.2673405793
 31
0.0
  0
LINE
  5
101
330
75
100
AcDbEntity
  8
$DDT_AUDIT_GENERATED_(E7)
  6
Continuous
 62
     7
100
AcDbLine
 10
58.2283188194
 20
541.1534533706
 30
0.0
 11
58.2283188194
 21
541.4330997329
 31
0.0
  0
ELLIPSE
  5
102
330
75
100
AcDbEntity
  8
$DDT_AUDIT_GENERATED_(E7)
  6
Continuous
 62
     7
100
AcDbEllipse
 10
52.8663528809
 20
540.7065403577
 30
0.0
 11
6.25000002953072
 21
1.104047409050679E-9
 31
0.0
210
0.0
220
0.0
230
1.0
 40
0.1391731007
 41
0.2457987044572837
 42
0.2778000698697115
  0
LINE
  5
103
330
75
100
AcDbEntity
  8
$DDT_AUDIT_GENERATED_(E7)
  6
Continuous
 62
     7
100
AcDbLine
 10
58.9284984391
 20
540.918197508
 30
0.0
 11
60.8493474483
 21
540.9898285031
 31
0.0
  0
LINE
  5
104
330
75
100
AcDbEntity
  8
$DDT_AUDIT_GENERATED_(E7)
  6
Continuous
 62
     7
100
AcDbLine
 10
58.8767346301
 20
540.9450836865
 30
0.0
 11
60.7666703307
 21
541.0155618836
 31
0.0
  0
LINE
  5
105
330
75
100
AcDbEntity
  8
$DDT_AUDIT_GENERATED_(E7)
  6
Continuous
 62
     7
100
AcDbLine
 10
58.8767346301
 20
540.9450836865
 30
0.0
 11
58.8767346301
 21
541.1734139852
 31
0.0
  0
ARC
  5
106
330
75
100
AcDbEntity
  8
$DDT_AUDIT_GENERATED_(E7)
  6
Continuous
 62
     7
100
AcDbCircle
 10
61.2011382566
 20
540.7065403588
 30
0.0
 40
0.1652136269221915
100
AcDbArc
 50
355.1677761493
 51
4.8322238506
  0
ELLIPSE
  5
107
330
75
100
AcDbEntity
  8
$DDT_AUDIT_GENERATED_(E7)
  6
Continuous
 62
     7
100
AcDbEllipse
 10
52.8663529104
 20
540.7065403588
 30
0.0
 11
8.500000000026546
 21
-9.714451465470120E-14
 31
0.0
210
0.0
220
0.0
230
1.0
 40
0.139173101
 41
0.0117649772881308
 42
0.0585174149122117
  0
ARC
  5
108
330
75
100
AcDbEntity
  8
$DDT_AUDIT_GENERATED_(E7)
  6
Continuous
 62
     7
100
AcDbCircle
 10
58.9945111554
 20
540.7065403588
 30
0.0
 40
0.1218391792417906
100
AcDbArc
 50
0.0
 51
6.5590350651
  0
LINE
  5
109
330
75
100
AcDbEntity
  8
$DDT_AUDIT_GENERATED_(E7)
  6
Continuous
 62
     7
100
AcDbLine
 10
59.1163529105
 20
540.6926230487
 30
0.0
 11
61.3657646548
 21
540.6926230487
 31
0.0
  0
LINE
  5
10A
330
75
100
AcDbEntity
  8
$DDT_AUDIT_GENERATED_(E7)
  6
Continuous
 62
     7
100
AcDbLine
 10
59.1155528592
 20
540.7204576689
 30
0.0
 11
61.3657646548
 21
540.7204576689
 31
0.0
  0
LINE
  5
10B
330
75
100
AcDbEntity
  8
$DDT_AUDIT_GENERATED_(E7)
  6
Continuous
 62
     7
100
AcDbLine
 10
59.1155528592
 20
540.7204576689
 30
0.0
 11
59.1155528592
 21
540.9251730143
 31
0.0
  0
ELLIPSE
  5
10C
330
75
100
AcDbEntity
  8
$DDT_AUDIT_GENERATED_(E7)
  6
Continuous
 62
     7
100
AcDbEllipse
 10
52.8663533008
 20
540.7065403442
 30
0.0
 11
8.499999609393585
 21
1.437480690036353E-8
 31
0.0
210
0.0
220
0.0
230
1.0
 40
0.1391731038
 41
-0.273564371546672
 42
-0.2500344164112098
  0
ELLIPSE
  5
10D
330
75
100
AcDbEntity
  8
$DDT_AUDIT_GENERATED_(E7)
  6
Continuous
 62
     7
100
AcDbEllipse
 10
52.8663529104
 20
540.7065403588
 30
0.0
 11
8.500000000029532
 21
-9.436895709313831E-13
 31
0.0
210
0.0
220
0.0
230
1.0
 40
0.139173101
 41
6.033150896668956
 42
6.271420329891521
  0
LINE
  5
10E
330
75
100
AcDbEntity
  8
$DDT_AUDIT_GENERATED_(E7)
  6
Continuous
 62
     7
100
AcDbLine
 10
61.1020361271
 20
540.4138291201
 30
0.0
 11
61.1020361271
 21
540.6926230487
 31
0.0
  0
LINE
  5
10F
330
75
100
AcDbEntity
  8
$DDT_AUDIT_GENERATED_(E7)
  6
Continuous
 62
     7
100
AcDbLine
 10
59.1064061368
 20
540.4594322774
 30
0.0
 11
61.0502723181
 21
540.3869429416
 31
0.0
  0
LINE
  5
110
330
75
100
AcDbEntity
  8
$DDT_AUDIT_GENERATED_(E7)
  6
Continuous
 62
     7
100
AcDbLine
 10
59.114609482
 20
540.4879428831
 30
0.0
 11
61.1020361271
 21
540.4138291201
 31
0.0
  0
ELLIPSE
  5
111
330
75
100
AcDbEntity
  8
$DDT_AUDIT_GENERATED_(E7)
  6
Continuous
 62
     7
100
AcDbEllipse
 10
52.8663533187
 20
540.706540326
 30
0.0
 11
8.499999587498687
 21
2.895536588276570E-8
 31
0.0
210
0.0
220
0.0
230
1.0
 40
0.1391731029
 41
-0.5353637656958776
 42
-0.5118338104671416
  0
ELLIPSE
  5
112
330
75
100
AcDbEntity
  8
$DDT_AUDIT_GENERATED_(E7)
  6
Continuous
 62
     7
100
AcDbEllipse
 10
52.8663529104
 20
540.7065403588
 30
0.0
 11
8.500000000005167
 21
3.330669073875470E-13
 31
0.0
210
0.0
220
0.0
230
1.0
 40
0.139173101
 41
-0.5118337983100236
 42
-0.2735643650871245
  0
LINE
  5
113
330
75
100
AcDbEntity
  8
$DDT_AUDIT_GENERATED_(E7)
  6
Continuous
 62
     7
100
AcDbLine
 10
60.2770593983
 20
540.1271483585
 30
0.0
 11
60.2770593983
 21
540.415777072
 31
0.0
  0
LINE
  5
114
330
75
100
AcDbEntity
  8
$DDT_AUDIT_GENERATED_(E7)
  6
Continuous
 62
     7
100
AcDbLine
 10
58.7556341234
 20
540.2172567042
 30
0.0
 11
60.1770593983
 21
540.1030428703
 31
0.0
  0
LINE
  5
115
330
75
100
AcDbEntity
  8
$DDT_AUDIT_GENERATED_(E7)
  6
Continuous
 62
     7
100
AcDbLine
 10
58.8207915123
 20
540.2441618529
 30
0.0
 11
60.2770593983
 21
540.1271483585
 31
0.0
  0
ELLIPSE
  5
116
330
75
100
AcDbEntity
  8
$DDT_AUDIT_GENERATED_(E7)
  6
Continuous
 62
     7
100
AcDbEllipse
 10
52.8663532432
 20
540.7065403126
 30
0.0
 11
8.499999647065046
 21
3.334890696926607E-8
 31
0.0
210
0.0
220
0.0
230
1.0
 40
0.139173101
 41
-0.7971631553993408
 42
-0.7736332001717923
  0
ELLIPSE
  5
117
330
75
100
AcDbEntity
  8
$DDT_AUDIT_GENERATED_(E7)
  6
Continuous
 62
     7
100
AcDbEllipse
 10
52.8663529104
 20
540.7065403588
 30
0.0
 11
8.500000000020103
 21
-1.887379141862766E-12
 31
0.0
210
0.0
220
0.0
230
1.0
 40
0.139173101
 41
-0.7736331861084365
 42
-0.535363752885833
  0
LINE
  5
118
330
75
100
AcDbEntity
  8
$DDT_AUDIT_GENERATED_(E7)
  6
Continuous
 62
     7
100
AcDbLine
 10
58.9470552691
 20
539.8799522042
 30
0.0
 11
58.9470552691
 21
540.2018757037
 31
0.0
  0
LINE
  5
119
330
75
100
AcDbEntity
  8
$DDT_AUDIT_GENERATED_(E7)
  6
Continuous
 62
     7
100
AcDbLine
 10
57.8798890807
 20
539.9891089345
 30
0.0
 11
58.8056339129
 21
539.8602701555
 31
0.0
  0
LINE
  5
11A
330
75
100
AcDbEntity
  8
$DDT_AUDIT_GENERATED_(E7)
  6
Continuous
 62
     7
100
AcDbLine
 10
57.9982371679
 20
540.0120021616
 30
0.0
 11
58.9470552691
 21
539.8799522042
 31
0.0
  0
ELLIPSE
  5
11B
330
75
100
AcDbEntity
  8
$DDT_AUDIT_GENERATED_(E7)
  6
Continuous
 62
     7
100
AcDbEllipse
 10
52.8663531303
 20
540.7065403058
 30
0.0
 11
8.499999725266806
 21
2.703814949711614E-8
 31
0.0
210
0.0
220
0.0
230
1.0
 40
0.1391730992
 41
-1.058962540436395
 42
-1.035432585251929
  0
ELLIPSE
  5
11C
330
75
100
AcDbEntity
  8
$DDT_AUDIT_GENERATED_(E7)
  6
Continuous
 62
     7
100
AcDbEllipse
 10
52.8663529104
 20
540.7065403588
 30
0.0
 11
8.500000000012317
 21
-1.179611963664229E-12
 31
0.0
210
0.0
220
0.0
230
1.0
 40
0.139173101
 41
-1.035432573907828
 42
-0.7971631406850781
  0
LINE
  5
11D
330
75
100
AcDbEntity
  8
$DDT_AUDIT_GENERATED_(E7)
  6
Continuous
 62
     7
100
AcDbLine
 10
57.202661323
 20
539.6890866667
 30
0.0
 11
57.202661323
 21
539.8820697254
 31
0.0
  0
LINE
  5
11E
330
75
100
AcDbEntity
  8
$DDT_AUDIT_GENERATED_(E7)
  6
Continuous
 62
     7
100
AcDbLine
 10
56.5059643887
 20
539.8013596235
 30
0.0
 11
57.0294562423
 21
539.6751693566
 31
0.0
  0
LINE
  5
11F
330
75
100
AcDbEntity
  8
$DDT_AUDIT_GENERATED_(E7)
  6
Continuous
 62
     7
100
AcDbLine
 10
56.6677088698
 20
539.8180395671
 30
0.0
 11
57.202661323
 21
539.6890866667
 31
0.0
  0
ELLIPSE
  5
120
330
75
100
AcDbEntity
  8
$DDT_AUDIT_GENERATED_(E7)
  6
Continuous
 62
     7
100
AcDbEllipse
 10
52.8663530326
 20
540.7065402954
 30
0.0
 11
8.49999974831946
 21
1.674209382240832E-8
 31
0.0
210
0.0
220
0.0
230
1.0
 40
0.1391730976
 41
-1.320761923822247
 42
-1.297231968593071
  0
ELLIPSE
  5
121
330
75
100
AcDbEntity
  8
$DDT_AUDIT_GENERATED_(E7)
  6
Continuous
 62
     7
100
AcDbEllipse
 10
52.8663529104
 20
540.7065403588
 30
0.0
 11
8.500000000019254
 21
-1.776356839400250E-12
 31
0.0
210
0.0
220
0.0
230
1.0
 40
0.139173101
 41
-1.297231961706677
 42
-1.058962528484155
  0
LINE
  5
122
330
75
100
AcDbEntity
  8
$DDT_AUDIT_GENERATED_(E7)
  6
Continuous
 62
     7
100
AcDbLine
 10
55.1627551247
 20
539.5675589168
 30
0.0
 11
55.1627551247
 21
539.6994966387
 31
0.0
  0
LINE
  5
123
330
75
100
AcDbEntity
  8
$DDT_AUDIT_GENERATED_(E7)
  6
Continuous
 62
     7
100
AcDbLine
 10
54.7416564664
 20
539.6787333023
 30
0.0
 11
54.9695699594
 21
539.560354787
 31
0.0
  0
LINE
  5
124
330
75
100
AcDbEntity
  8
$DDT_AUDIT_GENERATED_(E7)
  6
Continuous
 62
     7
100
AcDbLine
 10
54.9317854348
 20
539.6875248241
 30
0.0
 11
55.1627551247
 21
539.5675589168
 31
0.0
  0
ARC
  5
125
330
75
100
AcDbEntity
  8
$DDT_AUDIT_GENERATED_(E7)
  6
Continuous
 62
     7
100
AcDbCircle
 10
52.8663529105
 20
600.5944446184
 30
0.0
 40
61.07087562054814
100
AcDbArc
 50
269.906181458
 51
270.093818542
  0
ELLIPSE
  5
126
330
75
100
AcDbEntity
  8
$DDT_AUDIT_GENERATED_(E7)
  6
Continuous
 62
     7
100
AcDbEllipse
 10
52.8663529105
 20
540.7065403588
 30
0.0
 11
8.500000000006173
 21
-2.636779683484747E-13
 31
0.0
210
0.0
220
0.0
230
1.0
 40
0.139173101
 41
4.724153957672959
 42
4.962423390895775
  0
LINE
  5
127
330
75
100
AcDbEntity
  8
$DDT_AUDIT_GENERATED_(E7)
  6
Continuous
 62
     7
100
AcDbLine
 10
52.7663529105
 20
539.6387662097
 30
0.0
 11
52.7663529105
 21
539.52365087
 31
0.0
  0
LINE
  5
128
330
75
100
AcDbEntity
  8
$DDT_AUDIT_GENERATED_(E7)
  6
Continuous
 62
     7
100
AcDbLine
 10
52.9663529105
 20
539.6387662097
 30
0.0
 11
52.9663529105
 21
539.52365087
 31
0.0
  0
ELLIPSE
  5
129
330
75
100
AcDbEntity
  8
$DDT_AUDIT_GENERATED_(E7)
  6
Continuous
 62
     7
100
AcDbEllipse
 10
52.8663527794
 20
540.7065402908
 30
0.0
 11
-8.499999730110435
 21
1.797104132172933E-8
 31
0.0
210
0.0
220
0.0
230
1.0
 40
0.1391730974
 41
1.297231969104417
 42
1.320761924380688
  0
ELLIPSE
  5
12A
330
75
100
AcDbEntity
  8
$DDT_AUDIT_GENERATED_(E7)
  6
Continuous
 62
     7
100
AcDbEllipse
 10
52.8663529105
 20
540.7065403588
 30
0.0
 11
-8.499999999989331
 21
4.024558464266192E-13
 31
0.0
210
0.0
220
0.0
230
1.0
 40
0.139173101
 41
1.32076191628384
 42
1.559031349507112
  0
LINE
  5
12B
330
75
100
AcDbEntity
  8
$DDT_AUDIT_GENERATED_(E7)
  6
Continuous
 62
     7
100
AcDbLine
 10
50.5699506962
 20
539.5675589168
 30
0.0
 11
50.5699506962
 21
539.6994966387
 31
0.0
  0
LINE
  5
12C
330
75
100
AcDbEntity
  8
$DDT_AUDIT_GENERATED_(E7)
  6
Continuous
 62
     7
100
AcDbLine
 10
50.8009203861
 20
539.6875248241
 30
0.0
 11
50.5699506962
 21
539.5675589168
 31
0.0
  0
LINE
  5
12D
330
75
100
AcDbEntity
  8
$DDT_AUDIT_GENERATED_(E7)
  6
Continuous
 62
     7
100
AcDbLine
 10
50.9910493545
 20
539.6787333023
 30
0.0
 11
50.7631358615
 21
539.560354787
 31
0.0
  0
ELLIPSE
  5
12E
330
75
100
AcDbEntity
  8
$DDT_AUDIT_GENERATED_(E7)
  6
Continuous
 62
     7
100
AcDbEllipse
 10
52.8663526745
 20
540.7065403019
 30
0.0
 11
-8.499999705072423
 21
2.901845430614003E-8
 31
0.0
210
0.0
220
0.0
230
1.0
 40
0.139173099
 41
1.035432586076863
 42
1.058962541306262
  0
ELLIPSE
  5
12F
330
75
100
AcDbEntity
  8
$DDT_AUDIT_GENERATED_(E7)
  6
Continuous
 62
     7
100
AcDbEllipse
 10
52.8663529105
 20
540.7065403588
 30
0.0
 11
-8.50000000002529
 21
-2.331468351712829E-12
 31
0.0
210
0.0
220
0.0
230
1.0
 40
0.139173101
 41
1.058962528484013
 42
1.29723196170637
  0
LINE
  5
130
330
75
100
AcDbEntity
  8
$DDT_AUDIT_GENERATED_(E7)
  6
Continuous
 62
     7
100
AcDbLine
 10
48.5300444979
 20
539.6890866667
 30
0.0
 11
48.5300444979
 21
539.8820697254
 31
0.0
  0
LINE
  5
131
330
75
100
AcDbEntity
  8
$DDT_AUDIT_GENERATED_(E7)
  6
Continuous
 62
     7
100
AcDbLine
 10
49.0649969511
 20
539.8180395671
 30
0.0
 11
48.5300444979
 21
539.6890866667
 31
0.0
  0
LINE
  5
132
330
75
100
AcDbEntity
  8
$DDT_AUDIT_GENERATED_(E7)
  6
Continuous
 62
     7
100
AcDbLine
 10
49.2267414322
 20
539.8013596235
 30
0.0
 11
48.7032495787
 21
539.6751693566
 31
0.0
  0
ELLIPSE
  5
133
330
75
100
AcDbEntity
  8
$DDT_AUDIT_GENERATED_(E7)
  6
Continuous
 62
     7
100
AcDbEllipse
 10
52.8663525768
 20
540.7065403123
 30
0.0
 11
-8.499999646114524
 21
3.351161015352488E-8
 31
0.0
210
0.0
220
0.0
230
1.0
 40
0.139173101
 41
0.7736332002111425
 42
0.7971631554404087
  0
ELLIPSE
  5
134
330
75
100
AcDbEntity
  8
$DDT_AUDIT_GENERATED_(E7)
  6
Continuous
 62
     7
100
AcDbEllipse
 10
52.8663529104
 20
540.7065403588
 30
0.0
 11
-8.499999999986057
 21
1.471045507628332E-12
 31
0.0
210
0.0
220
0.0
230
1.0
 40
0.139173101
 41
0.7971631406859774
 42
1.035432573909232
  0
LINE
  5
135
330
75
100
AcDbEntity
  8
$DDT_AUDIT_GENERATED_(E7)
  6
Continuous
 62
     7
100
AcDbLine
 10
46.7856505518
 20
539.8799522042
 30
0.0
 11
46.7856505518
 21
540.2018757037
 31
0.0
  0
LINE
  5
136
330
75
100
AcDbEntity
  8
$DDT_AUDIT_GENERATED_(E7)
  6
Continuous
 62
     7
100
AcDbLine
 10
47.734468653
 20
540.0120021616
 30
0.0
 11
46.7856505518
 21
539.8799522042
 31
0.0
  0
LINE
  5
137
330
75
100
AcDbEntity
  8
$DDT_AUDIT_GENERATED_(E7)
  6
Continuous
 62
     7
100
AcDbLine
 10
47.8528167402
 20
539.9891089345
 30
0.0
 11
46.927071908
 21
539.8602701555
 31
0.0
  0
ELLIPSE
  5
138
330
75
100
AcDbEntity
  8
$DDT_AUDIT_GENERATED_(E7)
  6
Continuous
 62
     7
100
AcDbEllipse
 10
52.8663525024
 20
540.706540326
 30
0.0
 11
-8.499999587741538
 21
2.893842110385236E-8
 31
0.0
210
0.0
220
0.0
230
1.0
 40
0.1391731029
 41
0.5118338104598821
 42
0.5353637656881974
  0
ELLIPSE
  5
139
330
75
100
AcDbEntity
  8
$DDT_AUDIT_GENERATED_(E7)
  6
Continuous
 62
     7
100
AcDbEllipse
 10
52.8663529105
 20
540.7065403588
 30
0.0
 11
-8.500000000020249
 21
-1.887379141862766E-12
 31
0.0
210
0.0
220
0.0
230
1.0
 40
0.139173101
 41
0.5353637528858356
 42
0.7736331861084399
  0
LINE
  5
13A
330
75
100
AcDbEntity
  8
$DDT_AUDIT_GENERATED_(E7)
  6
Continuous
 62
     7
100
AcDbLine
 10
45.4556464226
 20
540.1271483585
 30
0.0
 11
45.4556464226
 21
540.415777072
 31
0.0
  0
LINE
  5
13B
330
75
100
AcDbEntity
  8
$DDT_AUDIT_GENERATED_(E7)
  6
Continuous
 62
     7
100
AcDbLine
 10
46.9119143087
 20
540.2441618529
 30
0.0
 11
45.4556464226
 21
540.1271483585
 31
0.0
  0
LINE
  5
13C
330
75
100
AcDbEntity
  8
$DDT_AUDIT_GENERATED_(E7)
  6
Continuous
 62
     7
100
AcDbLine
 10
46.9770716975
 20
540.2172567042
 30
0.0
 11
45.5556464226
 21
540.1030428703
 31
0.0
  0
ELLIPSE
  5
13D
330
75
100
AcDbEntity
  8
$DDT_AUDIT_GENERATED_(E7)
  6
Continuous
 62
     7
100
AcDbEllipse
 10
52.8663529364
 20
540.7065403598
 30
0.0
 11
-8.500000025985194
 21
-1.018241047034962E-9
 31
0.0
210
0.0
220
0.0
230
1.0
 40
0.1391731008
 41
0.2500344101182089
 42
0.2735643646571001
  0
ELLIPSE
  5
13E
330
75
100
AcDbEntity
  8
$DDT_AUDIT_GENERATED_(E7)
  6
Continuous
 62
     7
100
AcDbEllipse
 10
52.8663529105
 20
540.7065403588
 30
0.0
 11
-8.500000000020565
 21
-1.429412144204889E-12
 31
0.0
210
0.0
220
0.0
230
1.0
 40
0.139173101
 41
0.273564365086884
 42
0.5118337983095873
  0
LINE
  5
13F
330
75
100
AcDbEntity
  8
$DDT_AUDIT_GENERATED_(E7)
  6
Continuous
 62
     7
100
AcDbLine
 10
44.6306696938
 20
540.4138291201
 30
0.0
 11
44.6306696938
 21
540.6926230487
 31
0.0
  0
LINE
  5
140
330
75
100
AcDbEntity
  8
$DDT_AUDIT_GENERATED_(E7)
  6
Continuous
 62
     7
100
AcDbLine
 10
46.6180963389
 20
540.4879428831
 30
0.0
 11
44.6306696938
 21
540.4138291201
 31
0.0
  0
LINE
  5
141
330
75
100
AcDbEntity
  8
$DDT_AUDIT_GENERATED_(E7)
  6
Continuous
 62
     7
100
AcDbLine
 10
46.6262996841
 20
540.4594322774
 30
0.0
 11
44.6824335028
 21
540.3869429416
 31
0.0
  0
ARC
  5
142
330
75
100
AcDbEntity
  8
$DDT_AUDIT_GENERATED_(E7)
  6
Continuous
 62
     7
100
AcDbCircle
 10
44.5315675644
 20
540.7065403588
 30
0.0
 40
0.1652136269220279
100
AcDbArc
 50
175.1677761494
 51
184.8322238507
  0
ELLIPSE
  5
143
330
75
100
AcDbEntity
  8
$DDT_AUDIT_GENERATED_(E7)
  6
Continuous
 62
     7
100
AcDbEllipse
 10
52.8663529105
 20
540.7065403588
 30
0.0
 11
-8.500000000026546
 21
9.714451465470120E-14
 31
0.0
210
0.0
220
0.0
230
1.0
 40
0.139173101
 41
0.0117649772881308
 42
0.2500344105106705
  0
ARC
  5
144
330
75
100
AcDbEntity
  8
$DDT_AUDIT_GENERATED_(E7)
  6
Continuous
 62
     7
100
AcDbCircle
 10
46.7381946655
 20
540.7065403588
 30
0.0
 40
0.1218391792417571
100
AcDbArc
 50
173.4409649349
 51
180.0
  0
LINE
  5
145
330
75
100
AcDbEntity
  8
$DDT_AUDIT_GENERATED_(E7)
  6
Continuous
 62
     7
100
AcDbLine
 10
46.6171529617
 20
540.7204576689
 30
0.0
 11
46.6171529617
 21
540.9251730143
 31
0.0
  0
LINE
  5
146
330
75
100
AcDbEntity
  8
$DDT_AUDIT_GENERATED_(E7)
  6
Continuous
 62
     7
100
AcDbLine
 10
46.6171529617
 20
540.7204576689
 30
0.0
 11
44.3669411661
 21
540.7204576689
 31
0.0
  0
LINE
  5
147
330
75
100
AcDbEntity
  8
$DDT_AUDIT_GENERATED_(E7)
  6
Continuous
 62
     7
100
AcDbLine
 10
46.6163529105
 20
540.6926230487
 30
0.0
 11
44.3669411661
 21
540.6926230487
 31
0.0
  0
ELLIPSE
  5
148
330
75
100
AcDbEntity
  8
$DDT_AUDIT_GENERATED_(E7)
  6
Continuous
 62
     7
100
AcDbEllipse
 10
52.8663529105
 20
540.7065403588
 30
0.0
 11
-8.500000000025056
 21
-1.110223024625157E-13
 31
0.0
210
0.0
220
0.0
230
1.0
 40
0.139173101
 41
-0.0585174149122398
 42
-0.0117649772880837
  0
ELLIPSE
  5
149
330
75
100
AcDbEntity
  8
$DDT_AUDIT_GENERATED_(E7)
  6
Continuous
 62
     7
100
AcDbEllipse
 10
52.8663529411
 20
540.7065403577
 30
0.0
 11
-6.250000030708869
 21
1.120756265571288E-9
 31
0.0
210
0.0
220
0.0
230
1.0
 40
0.1391731007
 41
-0.2778000698432548
 42
-0.2457987044339713
  0
LINE
  5
14A
330
75
100
AcDbEntity
  8
$DDT_AUDIT_GENERATED_(E7)
  6
Continuous
 62
     7
100
AcDbLine
 10
46.8559711908
 20
540.9450836865
 30
0.0
 11
46.8559711908
 21
541.1734139852
 31
0.0
  0
LINE
  5
14B
330
75
100
AcDbEntity
  8
$DDT_AUDIT_GENERATED_(E7)
  6
Continuous
 62
     7
100
AcDbLine
 10
46.8559711908
 20
540.9450836865
 30
0.0
 11
44.9660354902
 21
541.0155618836
 31
0.0
  0
LINE
  5
14C
330
75
100
AcDbEntity
  8
$DDT_AUDIT_GENERATED_(E7)
  6
Continuous
 62
     7
100
AcDbLine
 10
46.8042073818
 20
540.918197508
 30
0.0
 11
44.8833583726
 21
540.9898285031
 31
0.0
  0
ELLIPSE
  5
14D
330
75
100
AcDbEntity
  8
$DDT_AUDIT_GENERATED_(E7)
  6
Continuous
 62
     7
100
AcDbEllipse
 10
52.866352938
 20
540.7065403566
 30
0.0
 11
-6.250000027825256
 21
1.958377904287545E-9
 31
0.0
210
0.0
220
0.0
230
1.0
 40
0.1391731008
 41
-0.539599457157383
 42
-0.5075980917481324
  0
LINE
  5
14E
330
75
100
AcDbEntity
  8
$DDT_AUDIT_GENERATED_(E7)
  6
Continuous
 62
     7
100
AcDbLine
 10
47.5043870015
 20
541.1534533706
 30
0.0
 11
47.5043870015
 21
541.4330997329
 31
0.0
  0
LINE
  5
14F
330
75
100
AcDbEntity
  8
$DDT_AUDIT_GENERATED_(E7)
  6
Continuous
 62
     7
100
AcDbLine
 10
47.5043870015
 20
541.1534533706
 30
0.0
 11
46.0870266755
 21
541.2673405793
 31
0.0
  0
LINE
  5
150
330
75
100
AcDbEntity
  8
$DDT_AUDIT_GENERATED_(E7)
  6
Continuous
 62
     7
100
AcDbLine
 10
47.4043870015
 20
541.1293478824
 30
0.0
 11
45.9622392677
 21
541.2452267996
 31
0.0
  0
ELLIPSE
  5
151
330
75
100
AcDbEntity
  8
$DDT_AUDIT_GENERATED_(E7)
  6
Continuous
 62
     7
100
AcDbEllipse
 10
52.8663529337
 20
540.7065403556
 30
0.0
 11
-6.250000024633112
 21
2.323891079569762E-9
 31
0.0
210
0.0
220
0.0
230
1.0
 40
0.139173101
 41
-0.8013988447345062
 42
-0.7693974793279326
  0
LINE
  5
152
330
75
100
AcDbEntity
  8
$DDT_AUDIT_GENERATED_(E7)
  6
Continuous
 62
     7
100
AcDbLine
 10
48.5182119278
 20
541.3313666715
 30
0.0
 11
48.5182119278
 21
541.5572248139
 31
0.0
  0
LINE
  5
153
330
75
100
AcDbEntity
  8
$DDT_AUDIT_GENERATED_(E7)
  6
Continuous
 62
     7
100
AcDbLine
 10
48.5182119278
 20
541.3313666715
 30
0.0
 11
47.546708345
 21
541.4665738377
 31
0.0
  0
LINE
  5
154
330
75
100
AcDbEntity
  8
$DDT_AUDIT_GENERATED_(E7)
  6
Continuous
 62
     7
100
AcDbLine
 10
48.3767905716
 20
541.3116846228
 30
0.0
 11
47.3888181772
 21
541.4491838046
 31
0.0
  0
ELLIPSE
  5
155
330
75
100
AcDbEntity
  8
$DDT_AUDIT_GENERATED_(E7)
  6
Continuous
 62
     7
100
AcDbEllipse
 10
52.8663529397
 20
540.7065403518
 30
0.0
 11
-6.250000036517757
 21
3.594943787099680E-9
 31
0.0
210
0.0
220
0.0
230
1.0
 40
0.1391731013
 41
-1.063198231762731
 42
-1.031196866421729
  0
LINE
  5
156
330
75
100
AcDbEntity
  8
$DDT_AUDIT_GENERATED_(E7)
  6
Continuous
 62
     7
100
AcDbLine
 10
49.8283554764
 20
541.4666990917
 30
0.0
 11
49.8283554764
 21
541.6430725352
 31
0.0
  0
LINE
  5
157
330
75
100
AcDbEntity
  8
$DDT_AUDIT_GENERATED_(E7)
  6
Continuous
 62
     7
100
AcDbLine
 10
49.8283554764
 20
541.4666990917
 30
0.0
 11
49.2381309571
 21
541.6089755935
 31
0.0
  0
LINE
  5
158
330
75
100
AcDbEntity
  8
$DDT_AUDIT_GENERATED_(E7)
  6
Continuous
 62
     7
100
AcDbLine
 10
49.6551503957
 20
541.4527817816
 30
0.0
 11
49.05671925
 21
541.5970365308
 31
0.0
  0
ELLIPSE
  5
159
330
75
100
AcDbEntity
  8
$DDT_AUDIT_GENERATED_(E7)
  6
Continuous
 62
     7
100
AcDbEllipse
 10
52.8663528945
 20
540.7065403671
 30
0.0
 11
-6.249999967138488
 21
-2.197492188216188E-9
 31
0.0
210
0.0
220
0.0
230
1.0
 40
0.1391731004
 41
-1.324997623107368
 42
-1.292996257459076
  0
LINE
  5
15A
330
75
100
AcDbEntity
  8
$DDT_AUDIT_GENERATED_(E7)
  6
Continuous
 62
     7
100
AcDbLine
 10
51.3455335297
 20
541.5502279505
 30
0.0
 11
51.3455335297
 21
541.7006496401
 31
0.0
  0
LINE
  5
15B
330
75
100
AcDbEntity
  8
$DDT_AUDIT_GENERATED_(E7)
  6
Continuous
 62
     7
100
AcDbLine
 10
51.3455335297
 20
541.5502279505
 30
0.0
 11
51.0702529984
 21
541.6932089568
 31
0.0
  0
LINE
  5
15C
330
75
100
AcDbEntity
  8
$DDT_AUDIT_GENERATED_(E7)
  6
Continuous
 62
     7
100
AcDbLine
 10
51.1523483644
 20
541.5430238207
 30
0.0
 11
50.8748742757
 21
541.6871441631
 31
0.0
  0
ARC
  5
15D
330
75
100
AcDbEntity
  8
$DDT_AUDIT_GENERATED_(E7)
  6
Continuous
 62
     7
100
AcDbCircle
 10
52.8663529105
 20
521.3689748145
 30
0.0
 40
19.72029234444059
100
AcDbArc
 50
89.4915444028
 51
90.5084555972
  0
LINE
  5
15E
330
75
100
AcDbEntity
  8
$DDT_AUDIT_GENERATED_(E7)
  6
Continuous
 62
     7
100
AcDbLine
 10
53.0413529105
 20
541.0884906592
 30
0.0
 11
53.0413529105
 21
541.2387394907
 31
0.0
  0
LINE
  5
15F
330
75
100
AcDbEntity
  8
$DDT_AUDIT_GENERATED_(E7)
  6
Continuous
 62
     7
100
AcDbLine
 10
52.6913529105
 20
541.0884906592
 30
0.0
 11
52.6913529105
 21
541.2387394907
 31
0.0
  0
ELLIPSE
  5
160
330
75
100
AcDbEntity
  8
$DDT_AUDIT_GENERATED_(E7)
  6
Continuous
 62
     7
100
AcDbEllipse
 10
52.8663529104
 20
540.7065403588
 30
0.0
 11
2.750000000030466
 21
3.039235529911366E-12
 31
0.0
210
0.0
220
0.0
230
1.0
 40
0.139173101
 41
0.9835181589360953
 42
1.110876943449017
  0
LINE
  5
161
330
75
100
AcDbEntity
  8
$DDT_AUDIT_GENERATED_(E7)
  6
Continuous
 62
     7
100
AcDbLine
 10
54.0870115496
 20
541.2191217223
 30
0.0
 11
54.0870115496
 21
541.0494966683
 31
0.0
  0
LINE
  5
162
330
75
100
AcDbEntity
  8
$DDT_AUDIT_GENERATED_(E7)
  6
Continuous
 62
     7
100
AcDbLine
 10
54.3901204409
 20
541.0251413756
 30
0.0
 11
55.0129540943
 21
541.1752784684
 31
0.0
  0
LINE
  5
163
330
75
100
AcDbEntity
  8
$DDT_AUDIT_GENERATED_(E7)
  6
Continuous
 62
     7
100
AcDbLine
 10
54.0870115496
 20
541.0494966683
 30
0.0
 11
54.6858926098
 21
541.1938598715
 31
0.0
  0
ELLIPSE
  5
164
330
75
100
AcDbEntity
  8
$DDT_AUDIT_GENERATED_(E7)
  6
Continuous
 62
     7
100
AcDbEllipse
 10
52.8663529105
 20
540.7065403588
 30
0.0
 11
2.749999999999894
 21
8.881784197001252E-13
 31
0.0
210
0.0
220
0.0
230
1.0
 40
0.139173101
 41
0.4599193833412899
 42
0.5872781678553013
  0
LINE
  5
165
330
75
100
AcDbEntity
  8
$DDT_AUDIT_GENERATED_(E7)
  6
Continuous
 62
     7
100
AcDbLine
 10
55.1555956921
 20
541.1660243067
 30
0.0
 11
55.1555956921
 21
540.9186078112
 31
0.0
  0
LINE
  5
166
330
75
100
AcDbEntity
  8
$DDT_AUDIT_GENERATED_(E7)
  6
Continuous
 62
     7
100
AcDbLine
 10
55.3305956921
 20
540.8764232068
 30
0.0
 11
56.7911003488
 21
540.9937771327
 31
0.0
  0
LINE
  5
167
330
75
100
AcDbEntity
  8
$DDT_AUDIT_GENERATED_(E7)
  6
Continuous
 62
     7
100
AcDbLine
 10
55.1555956921
 20
540.9186078112
 30
0.0
 11
56.5428556306
 21
541.0300764047
 31
0.0
  0
ELLIPSE
  5
168
330
75
100
AcDbEntity
  8
$DDT_AUDIT_GENERATED_(E7)
  6
Continuous
 62
     7
100
AcDbEllipse
 10
52.8663529104
 20
540.7065403588
 30
0.0
 11
-2.750000000096477
 21
-1.748601263784622E-12
 31
0.0
210
0.0
220
0.0
230
1.0
 40
0.139173101
 41
3.141592653589977
 42
3.205272045845702
  0
LINE
  5
169
330
75
100
AcDbEntity
  8
$DDT_AUDIT_GENERATED_(E7)
  6
Continuous
 62
     7
100
AcDbLine
 10
55.61077908
 20
540.898936398
 30
0.0
 11
55.61077908
 21
540.7308956515
 31
0.0
  0
LINE
  5
16A
330
75
100
AcDbEntity
  8
$DDT_AUDIT_GENERATED_(E7)
  6
Continuous
 62
     7
100
AcDbLine
 10
55.6163529105
 20
540.6821850661
 30
0.0
 11
57.9658442017
 21
540.6821850661
 31
0.0
  0
LINE
  5
16B
330
75
100
AcDbEntity
  8
$DDT_AUDIT_GENERATED_(E7)
  6
Continuous
 62
     7
100
AcDbLine
 10
55.61077908
 20
540.7308956515
 30
0.0
 11
57.8672188023
 21
540.7308956515
 31
0.0
  0
ELLIPSE
  5
16C
330
75
100
AcDbEntity
  8
$DDT_AUDIT_GENERATED_(E7)
  6
Continuous
 62
     7
100
AcDbEllipse
 10
52.8663529111
 20
540.7065403588
 30
0.0
 11
5.249999999378697
 21
4.317379787011077E-11
 31
0.0
210
0.0
220
0.0
230
1.0
 40
0.139173101
 41
-0.5569382848922801
 42
-0.4902592663651202
  0
LINE
  5
16D
330
75
100
AcDbEntity
  8
$DDT_AUDIT_GENERATED_(E7)
  6
Continuous
 62
     7
100
AcDbLine
 10
55.5935330826
 20
540.4592839245
 30
0.0
 11
57.3229596709
 21
540.3203216838
 31
0.0
  0
LINE
  5
16E
330
75
100
AcDbEntity
  8
$DDT_AUDIT_GENERATED_(E7)
  6
Continuous
 62
     7
100
AcDbLine
 10
55.6163529105
 20
540.5136964533
 30
0.0
 11
57.4979596709
 21
540.3625062881
 31
0.0
  0
LINE
  5
16F
330
75
100
AcDbEntity
  8
$DDT_AUDIT_GENERATED_(E7)
  6
Continuous
 62
     7
100
AcDbLine
 10
57.4979596709
 20
540.6821850661
 30
0.0
 11
57.4979596709
 21
540.3625062881
 31
0.0
  0
ELLIPSE
  5
170
330
75
100
AcDbEntity
  8
$DDT_AUDIT_GENERATED_(E7)
  6
Continuous
 62
     7
100
AcDbEllipse
 10
52.8663529121
 20
540.7065403584
 30
0.0
 11
5.249999997910129
 21
2.086941730539138E-10
 31
0.0
210
0.0
220
0.0
230
1.0
 40
0.1391731009
 41
-1.080537060612026
 42
-1.013858042068223
  0
LINE
  5
171
330
75
100
AcDbEntity
  8
$DDT_AUDIT_GENERATED_(E7)
  6
Continuous
 62
     7
100
AcDbLine
 10
54.6795834812
 20
540.2207416924
 30
0.0
 11
55.3383397261
 21
540.0619452835
 31
0.0
  0
LINE
  5
172
330
75
100
AcDbEntity
  8
$DDT_AUDIT_GENERATED_(E7)
  6
Continuous
 62
     7
100
AcDbLine
 10
54.9357070341
 20
540.2564230302
 30
0.0
 11
55.6414486175
 21
540.0863005762
 31
0.0
  0
LINE
  5
173
330
75
100
AcDbEntity
  8
$DDT_AUDIT_GENERATED_(E7)
  6
Continuous
 62
     7
100
AcDbLine
 10
55.6414486175
 20
540.4554338333
 30
0.0
 11
55.6414486175
 21
540.0863005762
 31
0.0
  0
ARC
  5
174
330
75
100
AcDbEntity
  8
$DDT_AUDIT_GENERATED_(E7)
  6
Continuous
 62
     7
100
AcDbCircle
 10
52.8663529105
 20
577.6781314788
 30
0.0
 40
37.70225001067324
100
AcDbArc
 50
269.734053076
 51
270.265946924
  0
LINE
  5
175
330
75
100
AcDbEntity
  8
$DDT_AUDIT_GENERATED_(E7)
  6
Continuous
 62
     7
100
AcDbLine
 10
52.6913529105
 20
540.1265364447
 30
0.0
 11
52.6913529105
 21
539.9762876131
 31
0.0
  0
LINE
  5
176
330
75
100
AcDbEntity
  8
$DDT_AUDIT_GENERATED_(E7)
  6
Continuous
 62
     7
100
AcDbLine
 10
53.0413529105
 20
540.1265364447
 30
0.0
 11
53.0413529105
 21
539.9762876131
 31
0.0
  0
ELLIPSE
  5
177
330
75
100
AcDbEntity
  8
$DDT_AUDIT_GENERATED_(E7)
  6
Continuous
 62
     7
100
AcDbEllipse
 10
52.8663529087
 20
540.7065403584
 30
0.0
 11
-5.249999997798467
 21
2.133293541817238E-10
 31
0.0
210
0.0
220
0.0
230
1.0
 40
0.1391731009
 41
1.013858042075341
 42
1.080537060620325
  0
LINE
  5
178
330
75
100
AcDbEntity
  8
$DDT_AUDIT_GENERATED_(E7)
  6
Continuous
 62
     7
100
AcDbLine
 10
50.7969987868
 20
540.2564230302
 30
0.0
 11
50.0912572034
 21
540.0863005762
 31
0.0
  0
LINE
  5
179
330
75
100
AcDbEntity
  8
$DDT_AUDIT_GENERATED_(E7)
  6
Continuous
 62
     7
100
AcDbLine
 10
51.0531223397
 20
540.2207416924
 30
0.0
 11
50.3943660948
 21
540.0619452835
 31
0.0
  0
LINE
  5
17A
330
75
100
AcDbEntity
  8
$DDT_AUDIT_GENERATED_(E7)
  6
Continuous
 62
     7
100
AcDbLine
 10
50.0912572034
 20
540.4554338333
 30
0.0
 11
50.0912572034
 21
540.0863005762
 31
0.0
  0
ELLIPSE
  5
17B
330
75
100
AcDbEntity
  8
$DDT_AUDIT_GENERATED_(E7)
  6
Continuous
 62
     7
100
AcDbEllipse
 10
52.8663529075
 20
540.7065403586
 30
0.0
 11
-5.249999997000292
 21
2.103595075908515E-10
 31
0.0
210
0.0
220
0.0
230
1.0
 40
0.139173101
 41
0.4902592664731703
 42
0.5569382850175886
  0
LINE
  5
17C
330
75
100
AcDbEntity
  8
$DDT_AUDIT_GENERATED_(E7)
  6
Continuous
 62
     7
100
AcDbLine
 10
50.1163529105
 20
540.5136964533
 30
0.0
 11
48.23474615
 21
540.3625062881
 31
0.0
  0
LINE
  5
17D
330
75
100
AcDbEntity
  8
$DDT_AUDIT_GENERATED_(E7)
  6
Continuous
 62
     7
100
AcDbLine
 10
50.1391727383
 20
540.4592839245
 30
0.0
 11
48.40974615
 21
540.3203216838
 31
0.0
  0
LINE
  5
17E
330
75
100
AcDbEntity
  8
$DDT_AUDIT_GENERATED_(E7)
  6
Continuous
 62
     7
100
AcDbLine
 10
48.23474615
 20
540.6821850661
 30
0.0
 11
48.23474615
 21
540.3625062881
 31
0.0
  0
LINE
  5
17F
330
75
100
AcDbEntity
  8
$DDT_AUDIT_GENERATED_(E7)
  6
Continuous
 62
     7
100
AcDbLine
 10
50.1219267409
 20
540.898936398
 30
0.0
 11
50.1219267409
 21
540.7308956515
 31
0.0
  0
ELLIPSE
  5
180
330
75
100
AcDbEntity
  8
$DDT_AUDIT_GENERATED_(E7)
  6
Continuous
 62
     7
100
AcDbEllipse
 10
52.8663529105
 20
540.7065403588
 30
0.0
 11
2.749999999995068
 21
1.748601263784622E-12
 31
0.0
210
0.0
220
0.0
230
1.0
 40
0.139173101
 41
3.077913261332616
 42
3.14159265358968
  0
LINE
  5
181
330
75
100
AcDbEntity
  8
$DDT_AUDIT_GENERATED_(E7)
  6
Continuous
 62
     7
100
AcDbLine
 10
50.1219267409
 20
540.7308956515
 30
0.0
 11
47.8654870186
 21
540.7308956515
 31
0.0
  0
LINE
  5
182
330
75
100
AcDbEntity
  8
$DDT_AUDIT_GENERATED_(E7)
  6
Continuous
 62
     7
100
AcDbLine
 10
50.1163529105
 20
540.6821850661
 30
0.0
 11
47.7668616192
 21
540.6821850661
 31
0.0
  0
LINE
  5
183
330
75
100
AcDbEntity
  8
$DDT_AUDIT_GENERATED_(E7)
  6
Continuous
 62
     7
100
AcDbLine
 10
50.5771101288
 20
541.1660243067
 30
0.0
 11
50.5771101288
 21
540.9186078112
 31
0.0
  0
ELLIPSE
  5
184
330
75
100
AcDbEntity
  8
$DDT_AUDIT_GENERATED_(E7)
  6
Continuous
 62
     7
100
AcDbEllipse
 10
52.8663529104
 20
540.7065403588
 30
0.0
 11
-2.749999999951199
 21
-4.107825191113079E-12
 31
0.0
210
0.0
220
0.0
230
1.0
 40
0.139173101
 41
-0.5872781678605579
 42
-0.4599193833451398
  0
LINE
  5
185
330
75
100
AcDbEntity
  8
$DDT_AUDIT_GENERATED_(E7)
  6
Continuous
 62
     7
100
AcDbLine
 10
50.5771101288
 20
540.9186078112
 30
0.0
 11
49.1898501903
 21
541.0300764047
 31
0.0
  0
LINE
  5
186
330
75
100
AcDbEntity
  8
$DDT_AUDIT_GENERATED_(E7)
  6
Continuous
 62
     7
100
AcDbLine
 10
50.4021101288
 20
540.8764232068
 30
0.0
 11
48.9416054721
 21
540.9937771327
 31
0.0
  0
LINE
  5
187
330
75
100
AcDbEntity
  8
$DDT_AUDIT_GENERATED_(E7)
  6
Continuous
 62
     7
100
AcDbLine
 10
51.6456942714
 20
541.2191217223
 30
0.0
 11
51.6456942714
 21
541.0494966683
 31
0.0
  0
ELLIPSE
  5
188
330
75
100
AcDbEntity
  8
$DDT_AUDIT_GENERATED_(E7)
  6
Continuous
 62
     7
100
AcDbEllipse
 10
52.8663529105
 20
540.7065403588
 30
0.0
 11
-2.749999999996528
 21
-2.775557561562891E-13
 31
0.0
210
0.0
220
0.0
230
1.0
 40
0.139173101
 41
-1.110876943453974
 42
-0.9835181589398649
  0
LINE
  5
189
330
75
100
AcDbEntity
  8
$DDT_AUDIT_GENERATED_(E7)
  6
Continuous
 62
     7
100
AcDbLine
 10
51.6456942714
 20
541.0494966683
 30
0.0
 11
51.0468132111
 21
541.1938598715
 31
0.0
  0
LINE
  5
18A
330
75
100
AcDbEntity
  8
$DDT_AUDIT_GENERATED_(E7)
  6
Continuous
 62
     7
100
AcDbLine
 10
51.34258538
 20
541.0251413756
 30
0.0
 11
50.7197517266
 21
541.1752784684
 31
0.0
  0
LINE
  5
18B
330
75
100
AcDbEntity
  8
$DDT_AUDIT_GENERATED_(E7)
  6
Continuous
 62
     7
100
AcDbLine
 10
43.8663529105
 20
541.5765473036
 30
0.0
 11
43.8663529105
 21
540.5084867451
 31
0.0
  0
LINE
  5
18C
330
75
100
AcDbEntity
  8
$DDT_AUDIT_GENERATED_(E7)
  6
Continuous
 62
     7
100
AcDbLine
 10
61.8663529105
 20
540.5084867451
 30
0.0
 11
61.8663529105
 21
541.5765473036
 31
0.0
  0
LINE
  5
18D
330
75
100
AcDbEntity
  8
$DDT_AUDIT_GENERATED_(E7)
  6
Continuous
 62
     7
100
AcDbLine
 10
46.6163529105
 20
540.7065403588
 30
0.0
 11
46.6163529105
 21
540.5084867451
 31
0.0
  0
LINE
  5
18E
330
75
100
AcDbEntity
  8
$DDT_AUDIT_GENERATED_(E7)
  6
Continuous
 62
     7
100
AcDbLine
 10
59.1163529105
 20
540.5084867451
 30
0.0
 11
59.1163529105
 21
540.7065403588
 31
0.0
  0
LINE
  5
18F
330
75
100
AcDbEntity
  8
$DDT_AUDIT_GENERATED_(E7)
  6
Continuous
 62
     7
100
AcDbLine
 10
50.1163529105
 20
540.7065403588
 30
0.0
 11
50.1163529105
 21
540.5084867451
 31
0.0
  0
LINE
  5
190
330
75
100
AcDbEntity
  8
$DDT_AUDIT_GENERATED_(E7)
  6
Continuous
 62
     7
100
AcDbLine
 10
55.6163529105
 20
540.5084867451
 30
0.0
 11
55.6163529105
 21
540.7065403588
 31
0.0
  0
LINE
  5
191
330
75
100
AcDbEntity
  8
$DDT_AUDIT_GENERATED_(E7)
  6
Continuous
 62
     7
100
AcDbLine
 10
52.3467229666
 20
540.7988381499
 30
0.0
 11
52.3467229666
 21
540.7065403588
 31
0.0
  0
LINE
  5
192
330
75
100
AcDbEntity
  8
$DDT_AUDIT_GENERATED_(E7)
  6
Continuous
 62
     7
100
AcDbLine
 10
53.3859828544
 20
540.7065403588
 30
0.0
 11
53.3859828544
 21
540.7988381499
 31
0.0
  0
ENDBLK
  5
194
330
75
100
AcDbEntity
  8
0
100
AcDbBlockEnd
  0
BLOCK
  5
1E9
330
195
100
AcDbEntity
  8
0
100
AcDbBlockBegin
  2
SE1
 70
     0
 10
0.0
 20
0.0
 30
0.0
  3
SE1
  1

  0
LINE
  5
197
330
195
100
AcDbEntity
  8
$DDT_AUDIT_GENERATED_(77)
  6
Continuous
 62
     7
100
AcDbLine
 10
196.7038515162
 20
486.1388006434
 30
0.0
 11
138.7038515162
 21
486.1388006434
 31
0.0
  0
LINE
  5
198
330
195
100
AcDbEntity
  8
$DDT_AUDIT_GENERATED_(77)
  6
Continuous
 62
     7
100
AcDbLine
 10
196.7038515162
 20
418.1388006434
 30
0.0
 11
138.7038515162
 21
418.1388006434
 31
0.0
  0
ARC
  5
199
330
195
100
AcDbEntity
  8
$DDT_AUDIT_GENERATED_(77)
  6
Continuous
 62
     7
100
AcDbCircle
 10
109.7702653649
 20
479.3388006436
 30
0.0
 40
29.00262759774685
100
AcDbArc
 50
356.0457869831
 51
3.9542132731
  0
LINE
  5
19A
330
195
100
AcDbEntity
  8
$DDT_AUDIT_GENERATED_(77)
  6
Continuous
 62
     7
100
AcDbLine
 10
196.7038515162
 20
418.1388006434
 30
0.0
 11
196.7038515162
 21
448.1849966994
 31
0.0
  0
LINE
  5
19B
330
195
100
AcDbEntity
  8
$DDT_AUDIT_GENERATED_(77)
  6
Continuous
 62
     7
100
AcDbLine
 10
196.7038515162
 20
470.2175624695
 30
0.0
 11
196.7038515162
 21
486.1388006434
 31
0.0
  0
LINE
  5
19C
330
195
100
AcDbEntity
  8
$DDT_AUDIT_GENERATED_(77)
  6
Continuous
 62
     7
100
AcDbLine
 10
138.7038515162
 20
477.3634544724
 30
0.0
 11
138.7038515162
 21
418.1388006434
 31
0.0
  0
LINE
  5
19D
330
195
100
AcDbEntity
  8
$DDT_AUDIT_GENERATED_(77)
  6
Continuous
 62
     7
100
AcDbLine
 10
138.7038515162
 20
486.1388006434
 30
0.0
 11
138.7038515162
 21
481.3388006434
 31
0.0
  0
ARC
  5
19E
330
195
100
AcDbEntity
  8
$DDT_AUDIT_GENERATED_(7D)
  6
Continuous
 62
     7
100
AcDbCircle
 10
390.9009670236
 20
557.0402420001
 30
0.0
 40
1.000000000010044
100
AcDbArc
 50
9.7725967937
 51
102.6051519947
  0
ARC
  5
19F
330
195
100
AcDbEntity
  8
$DDT_AUDIT_GENERATED_(7D)
  6
Continuous
 62
     7
100
AcDbCircle
 10
419.0498283949
 20
475.1272148877
 30
0.0
 40
98.49967801296333
100
AcDbArc
 50
97.8935746234
 51
97.9864566882
  0
ARC
  5
1A0
330
195
100
AcDbEntity
  8
$DDT_AUDIT_GENERATED_(7D)
  6
Continuous
 62
     7
100
AcDbCircle
 10
392.0835540551
 20
557.2439278193
 30
0.0
 40
0.2000000000000013
100
AcDbArc
 50
189.7725967932
 51
277.9999999998
  0
ARC
  5
1A1
330
195
100
AcDbEntity
  8
$DDT_AUDIT_GENERATED_(7D)
  6
Continuous
 62
     7
100
AcDbCircle
 10
-47.3046792233
 20
665.8506990883
 30
0.0
 40
312.6934307424418
100
AcDbArc
 50
320.3712110021
 51
321.3067611418
  0
ARC
  5
1A2
330
195
100
AcDbEntity
  8
$DDT_AUDIT_GENERATED_(7D)
  6
Continuous
 62
     7
100
AcDbCircle
 10
203.7273020441
 20
459.8608503128
 30
0.0
 40
12.12035672632317
100
AcDbArc
 50
147.2853158504
 51
191.1973578508
  0
LINE
  5
1A3
330
195
100
AcDbEntity
  8
$DDT_AUDIT_GENERATED_(7D)
  6
Continuous
 62
     7
100
AcDbLine
 10
422.4104214177
 20
561.3041255578
 30
0.0
 11
392.1463837189
 21
557.0507924382
 31
0.0
  0
LINE
  5
1A4
330
195
100
AcDbEntity
  8
$DDT_AUDIT_GENERATED_(7D)
  6
Continuous
 62
     7
100
AcDbLine
 10
379.9378440402
 20
555.3349940812
 30
0.0
 11
390.6827360294
 21
558.0161391429
 31
0.0
  0
SPLINE
  5
1A5
330
195
100
AcDbEntity
  8
$DDT_AUDIT_GENERATED_(7D)
  6
Continuous
 62
     7
100
AcDbSpline
210
0.0
220
0.0
230
1.0
 70
     8
 71
     3
 72
    10
 73
     6
 74
     0
 42
0.0000000007476224
 43
0.0000000001
 40
0.0
 40
0.0
 40
0.0
 40
0.0
 40
0.5000000000000001
 40
0.5000000000000001
 40
1.0
 40
1.0
 40
1.0
 40
1.0
 10
418.5535690243959
 20
574.6256164141321
 30
0.0
 10
416.3241181115759
 20
574.6136817431088
 30
0.0
 10
414.0966416354113
 20
574.5281884867861
 30
0.0
 10
409.6520314027761
 20
574.2074722795011
 30
0.0
 10
407.4331212233214
 20
573.9721087006785
 30
0.0
 10
405.2252070778768
 20
573.661806603694
 30
0.0
  0
SPLINE
  5
1A6
330
195
100
AcDbEntity
  8
$DDT_AUDIT_GENERATED_(7D)
  6
Continuous
 62
     7
100
AcDbSpline
210
0.0
220
0.0
230
1.0
 70
     8
 71
     3
 72
    16
 73
    12
 74
     0
 42
0.000000000042999
 43
0.0000000001
 40
0.0
 40
0.0
 40
0.0
 40
0.0
 40
0.2499999999999999
 40
0.2499999999999999
 40
0.3749999999999998
 40
0.3749999999999998
 40
0.4999999999999998
 40
0.4999999999999998
 40
0.7499999999999999
 40
0.7499999999999999
 40
1.0
 40
1.0
 40
1.0
 40
1.0
 10
405.2252070778768
 20
573.661806603694
 30
0.0
 10
385.9527911303211
 20
570.9532358389736
 30
0.0
 10
367.4171088964407
 20
565.6721996497278
 30
0.0
 10
340.3495522523168
 20
555.1808581125262
 30
0.0
 10
331.4531557982498
 20
551.2505539804761
 30
0.0
 10
313.9958813729878
 20
542.7712109460673
 30
0.0
 10
305.4406818659231
 20
538.2276702695898
 30
0.0
 10
280.1704327742981
 20
523.9043816807722
 30
0.0
 10
263.826769901198
 20
513.4304397670795
 30
0.0
 10
231.8527423809172
 20
491.524794909661
 30
0.0
 10
216.2143910936594
 20
480.0826751535655
 30
0.0
 10
200.7634920790005
 20
468.3774932582135
 30
0.0
  0
SPLINE
  5
1A7
330
195
100
AcDbEntity
  8
$DDT_AUDIT_GENERATED_(7D)
  6
Continuous
 62
     7
100
AcDbSpline
210
0.0
220
0.0
230
1.0
 70
     8
 71
     3
 72
    20
 73
    16
 74
     0
 42
0.0000000027779355
 43
0.0000000001
 40
0.0
 40
0.0
 40
0.0
 40
0.0
 40
0.25
 40
0.25
 40
0.375
 40
0.375
 40
0.5
 40
0.5
 40
0.625
 40
0.625
 40
0.75
 40
0.75
 40
0.875
 40
0.875
 40
1.0
 40
1.0
 40
1.0
 40
1.0
 10
418.5535690243959
 20
574.6256164141321
 30
0.0
 10
418.8555344617581
 20
574.6272328920436
 30
0.0
 10
419.1509988686155
 20
574.5750111895894
 30
0.0
 10
419.5742261785679
 20
574.418688627403
 30
0.0
 10
419.7088115060453
 20
574.3546291678249
 30
0.0
 10
419.9653746777146
 20
574.2032939781111
 30
0.0
 10
420.0884399972006
 20
574.1150141411944
 30
0.0
 10
420.3153303041781
 20
573.9188783044868
 30
0.0
 10
420.4187809168147
 20
573.8117586215548
 30
0.0
 10
420.6060404719935
 20
573.5797303671109
 30
0.0
 10
420.6904908357036
 20
573.4534176239538
 30
0.0
 10
420.8336735928636
 20
573.1907115195447
 30
0.0
 10
420.8929266535735
 20
573.0541626906631
 30
0.0
 10
420.9869020126611
 20
572.770734908151
 30
0.0
 10
421.0216162751511
 20
572.6230483128794
 30
0.0
 10
421.0426217847726
 20
572.473584959261
 30
0.0
  0
LINE
  5
1A8
330
195
100
AcDbEntity
  8
$DDT_AUDIT_GENERATED_(7D)
  6
Continuous
 62
     7
100
AcDbLine
 10
421.0426217848
 20
572.4735849593
 30
0.0
 11
422.5806404113
 21
561.5300137918
 31
0.0
  0
ARC
  5
1A9
330
195
100
AcDbEntity
  8
$DDT_AUDIT_GENERATED_(7D)
  6
Continuous
 62
     7
100
AcDbCircle
 10
422.3825867975
 20
561.5021791716
 30
0.0
 40
0.1999999999999581
100
AcDbArc
 50
278.0
 51
8.0000000001
  0
ARC
  5
1AA
330
195
100
AcDbEntity
  8
$DDT_AUDIT_GENERATED_(7D)
  6
Continuous
 62
     7
100
AcDbCircle
 10
222.0806699993
 20
467.018470016
 30
0.0
 40
31.70336436962673
100
AcDbArc
 50
197.4580800461
 51
216.977814468
  0
SPLINE
  5
1AB
330
195
100
AcDbEntity
  8
$DDT_AUDIT_GENERATED_(7D)
  6
Continuous
 62
     7
100
AcDbSpline
210
0.0
220
0.0
230
1.0
 70
     8
 71
     3
 72
    26
 73
    22
 74
     0
 42
0.0000000017978341
 43
0.0000000001
 40
0.0
 40
0.0
 40
0.0
 40
0.0
 40
0.1250000000000055
 40
0.1250000000000055
 40
0.1875000000000063
 40
0.1875000000000063
 40
0.2500000000000072
 40
0.2500000000000072
 40
0.3750000000000055
 40
0.3750000000000055
 40
0.5000000000000038
 40
0.5000000000000038
 40
0.6250000000000021
 40
0.6250000000000021
 40
0.6875000000000019
 40
0.6875000000000019
 40
0.7500000000000016
 40
0.7500000000000016
 40
0.8750000000000009
 40
0.8750000000000009
 40
1.0
 40
1.0
 40
1.0
 40
1.0
 10
196.7538515162089
 20
470.3702263991934
 30
0.0
 10
196.7538515162089
 20
470.1370283495467
 30
0.0
 10
196.785856142675
 20
469.9092807801232
 30
0.0
 10
196.8806709371053
 20
469.5756309386933
 30
0.0
 10
196.920498473838
 20
469.4653599616202
 30
0.0
 10
197.0137903125297
 20
469.2542311062109
 30
0.0
 10
197.0674213087387
 20
469.1525377305014
 30
0.0
 10
197.2490882105193
 20
468.8589702752506
 30
0.0
 10
197.3996995561235
 20
468.6776022627809
 30
0.0
 10
197.739500001446
 20
468.367828974108
 30
0.0
 10
197.9323899405037
 20
468.2352508409513
 30
0.0
 10
198.3500496949129
 20
468.0276800072994
 30
0.0
 10
198.568242387907
 20
467.9549806248037
 30
0.0
 10
198.9092248639512
 20
467.8913959335453
 30
0.0
 10
199.0256983599492
 20
467.877985273727
 30
0.0
 10
199.2562849596046
 20
467.8675650620307
 30
0.0
 10
199.3712204425514
 20
467.8703329452409
 30
0.0
 10
199.7149627288979
 20
467.9023634707648
 30
0.0
 10
199.944408563182
 20
467.9565182720345
 30
0.0
 10
200.3730410017533
 20
468.1229456304231
 30
0.0
 10
200.5776114862232
 20
468.2366751642494
 30
0.0
 10
200.7634920790005
 20
468.3774932582135
 30
0.0
  0
SPLINE
  5
1AC
330
195
100
AcDbEntity
  8
$DDT_AUDIT_GENERATED_(7D)
  6
Continuous
 62
     7
100
AcDbSpline
210
0.0
220
0.0
230
1.0
 70
     8
 71
     3
 72
    16
 73
    12
 74
     0
 42
0.000000000047211
 43
0.0000000001
 40
0.0
 40
0.0
 40
0.0
 40
0.0
 40
0.125
 40
0.125
 40
0.25
 40
0.25
 40
0.5
 40
0.5
 40
0.75
 40
0.75
 40
1.0
 40
1.0
 40
1.0
 40
1.0
 10
379.9378440402035
 20
555.3349940812092
 30
0.0
 10
371.4053667673305
 20
552.9883633931692
 30
0.0
 10
363.0330317728778
 20
550.1780998768633
 30
0.0
 10
346.5421914429406
 20
543.8227028035471
 30
0.0
 10
338.4329131906541
 20
540.2795294883258
 30
0.0
 10
314.5699808888917
 20
528.8648834082973
 30
0.0
 10
299.1942399891504
 20
520.188225766085
 30
0.0
 10
269.1570457995458
 20
501.6047848110483
 30
0.0
 10
254.5503680635365
 20
491.7263465626963
 30
0.0
 10
225.8220422823646
 20
471.2786175169997
 30
0.0
 10
211.7032630529515
 20
460.7052405189324
 30
0.0
 10
197.727263799363
 20
449.9284947125116
 30
0.0
  0
SPLINE
  5
1AD
330
195
100
AcDbEntity
  8
$DDT_AUDIT_GENERATED_(7D)
  6
Continuous
 62
     7
100
AcDbSpline
210
0.0
220
0.0
230
1.0
 70
     8
 71
     3
 72
    12
 73
     8
 74
     0
 42
0.0000000043530638
 43
0.0000000001
 40
0.0
 40
0.0
 40
0.0
 40
0.0
 40
0.2500000000000089
 40
0.2500000000000089
 40
0.5000000000000179
 40
0.5000000000000179
 40
1.0
 40
1.0
 40
1.0
 40
1.0
 10
197.727263799363
 20
449.9284947125116
 30
0.0
 10
197.575224180609
 20
449.8112585640197
 30
0.0
 10
197.4394557776005
 20
449.6790079533477
 30
0.0
 10
197.1992599756999
 20
449.385586439363
 30
0.0
 10
197.0944259444573
 20
449.2226023159755
 30
0.0
 10
196.8434112370148
 20
448.7125299779456
 30
0.0
 10
196.753851516209
 20
448.332695478269
 30
0.0
 10
196.753851516209
 20
447.9487144361116
 30
0.0
  0
LINE
  5
1AE
330
195
100
AcDbEntity
  8
$DDT_AUDIT_GENERATED_(96)
  6
Continuous
 62
     7
100
AcDbLine
 10
419.2696619866
 20
559.9538757905
 30
0.0
 11
395.5032283368
 21
556.6137213675
 31
0.0
  0
LINE
  5
1AF
330
195
100
AcDbEntity
  8
$DDT_AUDIT_GENERATED_(96)
  6
Continuous
 62
     7
100
AcDbLine
 10
392.6547353569
 20
557.1222366017
 30
0.0
 11
395.5032283368
 21
556.6137213675
 31
0.0
  0
LINE
  5
1B0
330
195
100
AcDbEntity
  8
$DDT_AUDIT_GENERATED_(96)
  6
Continuous
 62
     7
100
AcDbLine
 10
419.2696619866
 20
559.9538757905
 30
0.0
 11
421.8676433848
 21
561.22784308
 31
0.0
  0
LINE
  5
1B1
330
195
100
AcDbEntity
  8
$DDT_AUDIT_GENERATED_(96)
  6
Continuous
 62
     7
100
AcDbLine
 10
417.7548196271
 20
559.2360647946
 30
0.0
 11
417.6852330767
 21
559.731198829
 31
0.0
  0
LINE
  5
1B2
330
195
100
AcDbEntity
  8
$DDT_AUDIT_GENERATED_(96)
  6
Continuous
 62
     7
100
AcDbLine
 10
397.0876572468
 20
556.836398329
 30
0.0
 11
397.1572437973
 21
556.3412642946
 31
0.0
  0
LINE
  5
1B3
330
195
100
AcDbEntity
  8
$DDT_AUDIT_GENERATED_(A1)
  6
Continuous
 62
     7
100
AcDbLine
 10
196.1038515162
 20
486.7388006434
 30
0.0
 11
139.3038515162
 21
486.7388006434
 31
0.0
  0
LINE
  5
1B4
330
195
100
AcDbEntity
  8
$DDT_AUDIT_GENERATED_(A1)
  6
Continuous
 62
     7
100
AcDbLine
 10
196.2038515162
 20
486.2388006434
 30
0.0
 11
196.2038515162
 21
486.6388006434
 31
0.0
  0
LINE
  5
1B5
330
195
100
AcDbEntity
  8
$DDT_AUDIT_GENERATED_(A1)
  6
Continuous
 62
     7
100
AcDbLine
 10
139.2038515162
 20
486.6388006434
 30
0.0
 11
139.2038515162
 21
486.2388006434
 31
0.0
  0
ARC
  5
1B6
330
195
100
AcDbEntity
  8
$DDT_AUDIT_GENERATED_(A1)
  6
Continuous
 62
     7
100
AcDbCircle
 10
139.3038515162
 20
486.6388006434
 30
0.0
 40
0.1000000000000029
100
AcDbArc
 50
90.0
 51
180.0
  0
ARC
  5
1B7
330
195
100
AcDbEntity
  8
$DDT_AUDIT_GENERATED_(A1)
  6
Continuous
 62
     7
100
AcDbCircle
 10
196.1038515162
 20
486.6388006434
 30
0.0
 40
0.0999999999999994
100
AcDbArc
 50
0.0
 51
90.0
  0
ARC
  5
1B8
330
195
100
AcDbEntity
  8
$DDT_AUDIT_GENERATED_(A1)
  6
Continuous
 62
     7
100
AcDbCircle
 10
196.1038515162
 20
486.2388006434
 30
0.0
 40
0.1000000000000029
100
AcDbArc
 50
270.0
 51
0.0
  0
ARC
  5
1B9
330
195
100
AcDbEntity
  8
$DDT_AUDIT_GENERATED_(A1)
  6
Continuous
 62
     7
100
AcDbCircle
 10
139.3038515162
 20
486.2388006434
 30
0.0
 40
0.0999999999999994
100
AcDbArc
 50
180.0
 51
270.0
  0
LINE
  5
1BA
330
195
100
AcDbEntity
  8
$DDT_AUDIT_GENERATED_(AA)
  6
Continuous
 62
     7
100
AcDbLine
 10
196.104480142
 20
486.7388659518
 30
0.0
 11
139.3032228905
 21
486.7388659518
 31
0.0
  0
LINE
  5
1BB
330
195
100
AcDbEntity
  8
$DDT_AUDIT_GENERATED_(AA)
  6
Continuous
 62
     7
100
AcDbLine
 10
196.6943258278
 20
487.2287116377
 30
0.0
 11
138.7133772046
 21
487.2287116377
 31
0.0
  0
LINE
  5
1BC
330
195
100
AcDbEntity
  8
$DDT_AUDIT_GENERATED_(AA)
  6
Continuous
 62
     7
100
AcDbLine
 10
193.5279020022
 20
530.2354878719
 30
0.0
 11
141.8798010303
 21
530.2354878719
 31
0.0
  0
LINE
  5
1BD
330
195
100
AcDbEntity
  8
$DDT_AUDIT_GENERATED_(AA)
  6
Continuous
 62
     7
100
AcDbLine
 10
138.8133772046
 20
487.2287116377
 30
0.0
 11
139.3032228905
 21
486.7388659518
 31
0.0
  0
LINE
  5
1BE
330
195
100
AcDbEntity
  8
$DDT_AUDIT_GENERATED_(AA)
  6
Continuous
 62
     7
100
AcDbLine
 10
196.104480142
 20
486.7388659518
 30
0.0
 11
196.5943258278
 21
487.2287116377
 31
0.0
  0
ARC
  5
1BF
330
195
100
AcDbEntity
  8
$DDT_AUDIT_GENERATED_(AA)
  6
Continuous
 62
     7
100
AcDbCircle
 10
831.2243389614
 20
472.6281957239
 30
0.0
 40
692.6648592344261
100
AcDbArc
 50
175.3055434556
 51
178.7921865962
  0
ARC
  5
1C0
330
195
100
AcDbEntity
  8
$DDT_AUDIT_GENERATED_(AA)
  6
Continuous
 62
     7
100
AcDbCircle
 10
-495.8166359289
 20
472.6281957239
 30
0.0
 40
692.664859234426
100
AcDbArc
 50
1.2078134038
 51
4.6944565444
  0
ARC
  5
1C1
330
195
100
AcDbEntity
  8
$DDT_AUDIT_GENERATED_(AA)
  6
Continuous
 62
     7
100
AcDbCircle
 10
193.5279020022
 20
529.235487872
 30
0.0
 40
0.9999999999376187
100
AcDbArc
 50
4.6944565446
 51
90.0000000009
  0
ARC
  5
1C2
330
195
100
AcDbEntity
  8
$DDT_AUDIT_GENERATED_(AA)
  6
Continuous
 62
     7
100
AcDbCircle
 10
141.8798010303
 20
529.235487872
 30
0.0
 40
0.9999999999430464
100
AcDbArc
 50
89.9999999991
 51
175.3055434554
  0
ARC
  5
1C3
330
195
100
AcDbEntity
  8
$DDT_AUDIT_GENERATED_(AA)
  6
Continuous
 62
     7
100
AcDbCircle
 10
193.083406252
 20
530.7354878719
 30
0.0
 40
0.4999999999933252
100
AcDbArc
 50
198.709613237
 51
270.0000000009
  0
ARC
  5
1C4
330
195
100
AcDbEntity
  8
$DDT_AUDIT_GENERATED_(AA)
  6
Continuous
 62
     7
100
AcDbCircle
 10
142.3242967804
 20
530.7354878719
 30
0.0
 40
0.4999999999933351
100
AcDbArc
 50
269.9999999991
 51
341.290386763
  0
ARC
  5
1C5
330
195
100
AcDbEntity
  8
$DDT_AUDIT_GENERATED_(AA)
  6
Continuous
 62
     7
100
AcDbCircle
 10
167.7080902065
 20
522.1388006434
 30
0.0
 40
26.30000000000001
100
AcDbArc
 50
126.5623252948
 51
161.290386763
  0
ARC
  5
1C6
330
195
100
AcDbEntity
  8
$DDT_AUDIT_GENERATED_(AA)
  6
Continuous
 62
     7
100
AcDbCircle
 10
167.699612826
 20
522.1388006434
 30
0.0
 40
26.3
100
AcDbArc
 50
18.709613237
 51
24.0110406366
  0
ARC
  5
1C7
330
195
100
AcDbEntity
  8
$DDT_AUDIT_GENERATED_(BB)
  6
Continuous
 62
     7
100
AcDbCircle
 10
262.6697250086
 20
-15.6796996861
 30
0.0
 40
585.4555592149505
100
AcDbArc
 50
89.6670970228
 51
96.9420831055
  0
ARC
  5
1C8
330
195
100
AcDbEntity
  8
$DDT_AUDIT_GENERATED_(BB)
  6
Continuous
 62
     7
100
AcDbCircle
 10
302.6175249734
 20
-338.909113757
 30
0.0
 40
915.397409571319
100
AcDbArc
 50
97.3432142448
 51
100.0977046826
  0
ARC
  5
1C9
330
195
100
AcDbEntity
  8
$DDT_AUDIT_GENERATED_(BB)
  6
Continuous
 62
     7
100
AcDbCircle
 10
275.2986750062
 20
-137.6050101567
 30
0.0
 40
712.2539502978599
100
AcDbArc
 50
96.7486785412
 51
97.233363709
  0
ARC
  5
1CA
330
195
100
AcDbEntity
  8
$DDT_AUDIT_GENERATED_(BB)
  6
Continuous
 62
     7
100
AcDbCircle
 10
256.3763499458
 20
54.2438897284
 30
0.0
 40
519.5242535657133
100
AcDbArc
 50
88.9248320745
 51
97.1626715149
  0
LINE
  5
1CB
330
195
100
AcDbEntity
  8
$DDT_AUDIT_GENERATED_(BB)
  6
Continuous
 62
     7
100
AcDbLine
 10
168.0010393201
 20
533.2479770915
 30
0.0
 11
141.850507027
 21
549.5886432576
 31
0.0
  0
ARC
  5
1CC
330
195
100
AcDbEntity
  8
$DDT_AUDIT_GENERATED_(BB)
  6
Continuous
 62
     7
100
AcDbCircle
 10
169.5907971128
 20
535.79212138
 30
0.0
 40
2.999999999999688
100
AcDbArc
 50
238.0
 51
270.0
  0
LINE
  5
1CD
330
195
100
AcDbEntity
  8
$DDT_AUDIT_GENERATED_(BB)
  6
Continuous
 62
     7
100
AcDbLine
 10
169.5907971128
 20
532.79212138
 30
0.0
 11
193.4294185879
 21
532.79212138
 31
0.0
  0
ARC
  5
1CE
330
195
100
AcDbEntity
  8
$DDT_AUDIT_GENERATED_(BB)
  6
Continuous
 62
     7
100
AcDbCircle
 10
222.9293874853
 20
544.3693618279
 30
0.0
 40
29.44507837698672
100
AcDbArc
 50
172.7365420764
 51
187.3979830373
  0
LINE
  5
1CF
330
195
100
AcDbEntity
  8
$DDT_AUDIT_GENERATED_(BB)
  6
Continuous
 62
     7
100
AcDbLine
 10
266.899464371
 20
570.8753741008
 30
0.0
 11
266.6087230232
 21
573.2432718365
 31
0.0
  0
SPLINE
  5
1D0
330
195
100
AcDbEntity
  8
$DDT_AUDIT_GENERATED_(BB)
  6
Continuous
 62
     7
100
AcDbSpline
210
0.0
220
0.0
230
1.0
 70
     8
 71
     3
 72
    27
 73
    23
 74
     0
 42
0.0000000001432756
 43
0.0000000001
 40
0.0
 40
0.0
 40
0.0
 40
0.0
 40
0.0283610874194087
 40
0.1285646008217126
 40
0.2191137110375845
 40
0.3007093922876985
 40
0.3741188182324842
 40
0.440107072084941
 40
0.5104438160198573
 40
0.5714880720112651
 40
0.6233771804957133
 40
0.6662495143443454
 40
0.700573405524157
 40
0.7381261202450682
 40
0.769381151105507
 40
0.8004355703844245
 40
0.8348159772812271
 40
0.8593127300231715
 40
0.8868808639417687
 40
0.9192777786484948
 40
0.959190327914876
 40
1.0
 40
1.0
 40
1.0
 40
1.0
 10
196.42118113289
 20
565.4355664405957
 30
0.0
 10
197.1428680226668
 20
565.5124601796955
 30
0.0
 10
199.9388644115929
 20
565.8098388411222
 30
0.0
 10
205.1650194037404
 20
566.3095881937526
 30
0.0
 10
211.4277868487773
 20
566.8695096130043
 30
0.0
 10
217.1330376410546
 20
567.328604024365
 30
0.0
 10
222.2584321266
 20
567.6985699027292
 30
0.0
 10
227.1283452887999
 20
568.0106119468616
 30
0.0
 10
231.7125410700101
 20
568.2694333073734
 30
0.0
 10
235.9715274482599
 20
568.470078844812
 30
0.0
 10
239.593981463747
 20
568.5990587866711
 30
0.0
 10
242.5964970527369
 20
568.6627042685901
 30
0.0
 10
245.2662536083349
 20
568.6648908563334
 30
0.0
 10
247.6649737471697
 20
568.6036325372723
 30
0.0
 10
249.9861299911298
 20
568.5054819490692
 30
0.0
 10
252.2355681183567
 20
568.4680388902924
 30
0.0
 10
254.3280088797215
 20
568.5119504545942
 30
0.0
 10
256.3361201031383
 20
568.6122097319721
 30
0.0
 10
258.2988131260661
 20
568.7477706910602
 30
0.0
 10
260.6009400329454
 20
568.969995718814
 30
0.0
 10
263.2636165861474
 20
569.31359744523
 30
0.0
 10
264.9808419033981
 20
569.5925970936989
 30
0.0
 10
266.0112090875431
 20
569.7628360229651
 30
0.0
  0
ARC
  5
1D1
330
195
100
AcDbEntity
  8
$DDT_AUDIT_GENERATED_(BB)
  6
Continuous
 62
     7
100
AcDbCircle
 10
265.9108228259
 20
570.7514887136
 30
0.0
 40
0.9959490821897494
100
AcDbArc
 50
289.6552729874
 51
7.24026814
  0
ARC
  5
1D2
330
195
100
AcDbEntity
  8
$DDT_AUDIT_GENERATED_(BB)
  6
Continuous
 62
     7
100
AcDbCircle
 10
196.7070350255
 20
562.4986419074
 30
0.0
 40
2.955721282678164
100
AcDbArc
 50
95.564646626
 51
180.8078436323
  0
ARC
  5
1D3
330
195
100
AcDbEntity
  8
$DDT_AUDIT_GENERATED_(BB)
  6
Continuous
 62
     7
100
AcDbCircle
 10
142.2094830048
 20
561.8164463801
 30
0.0
 40
0.4999999999728512
100
AcDbArc
 50
100.0367880122
 51
178.4708894333
  0
ARC
  5
1D4
330
195
100
AcDbEntity
  8
$DDT_AUDIT_GENERATED_(BB)
  6
Continuous
 62
     7
100
AcDbCircle
 10
266.1156658242
 20
573.1800191474
 30
0.0
 40
0.4958898475909135
100
AcDbArc
 50
8.1545563297
 51
67.1503825068
  0
ARC
  5
1D5
330
195
100
AcDbEntity
  8
$DDT_AUDIT_GENERATED_(BB)
  6
Continuous
 62
     7
100
AcDbCircle
 10
193.4294191874
 20
533.09212138
 30
0.0
 40
0.2999999999997367
100
AcDbArc
 50
269.9999994
 51
1.2184034963
  0
ARC
  5
1D6
330
195
100
AcDbEntity
  8
$DDT_AUDIT_GENERATED_(BB)
  6
Continuous
 62
     7
100
AcDbCircle
 10
142.009483216
 20
549.8430574252
 30
0.0
 40
0.2999999955621349
100
AcDbArc
 50
184.9968150703
 51
238.0016114901
  0
LINE
  5
1D7
330
195
100
AcDbEntity
  8
$DDT_AUDIT_GENERATED_(BB)
  6
Continuous
 62
     7
100
AcDbLine
 10
193.7294191875
 20
548.1607325145
 30
0.0
 11
193.7294191875
 21
562.4578267902
 31
0.0
  0
LINE
  5
1D8
330
195
100
AcDbEntity
  8
$DDT_AUDIT_GENERATED_(BB)
  6
Continuous
 62
     7
100
AcDbLine
 10
193.7294191875
 20
533.09212138
 30
0.0
 11
193.7294191875
 21
540.6091700358
 31
0.0
  0
LINE
  5
1D9
330
195
100
AcDbEntity
  8
$DDT_AUDIT_GENERATED_(BB)
  6
Continuous
 62
     7
100
AcDbLine
 10
141.7094830036
 20
561.8265310758
 30
0.0
 11
141.7094830036
 21
549.8173801452
 31
0.0
  0
ARC
  5
1DA
330
195
100
AcDbEntity
  8
$DDT_AUDIT_GENERATED_(BB)
  6
Continuous
 62
     7
100
AcDbCircle
 10
193.5550795025
 20
548.1503019407
 30
0.0
 40
0.1732844803728421
100
AcDbArc
 50
351.3607262829
 51
354.7354042253
  0
LINE
  5
1DB
330
195
100
AcDbEntity
  8
$DDT_AUDIT_GENERATED_(BB)
  6
Continuous
 62
     7
100
AcDbLine
 10
193.7185949314
 20
548.0673269359
 30
0.0
 11
193.7262525957
 21
548.1242944166
 31
0.0
  0
LINE
  5
1DD
330
195
100
AcDbEntity
  8
$DDT_AUDIT_GENERATED_(1DC)
  6
Continuous
 62
     7
100
AcDbLine
 10
193.3790429569
 20
547.4117418664
 30
0.0
 11
193.5416723279
 21
541.201176751
 31
0.0
  0
LINE
  5
1DE
330
195
100
AcDbEntity
  8
$DDT_AUDIT_GENERATED_(DA)
  6
Continuous
 62
     7
100
AcDbLine
 10
420.2197891503
 20
542.4154249361
 30
0.0
 11
399.4241597068
 21
539.4927898159
 31
0.0
  0
LINE
  5
1DF
330
195
100
AcDbEntity
  8
$DDT_AUDIT_GENERATED_(DA)
  6
Continuous
 62
     7
100
AcDbLine
 10
396.216489132
 20
556.2090498487
 30
0.0
 11
418.6955742924
 21
559.3682792405
 31
0.0
  0
ARC
  5
1E0
330
195
100
AcDbEntity
  8
$DDT_AUDIT_GENERATED_(DA)
  6
Continuous
 62
     7
100
AcDbCircle
 10
414.4689602094
 20
547.408216389
 30
0.0
 40
16.9999999999998
100
AcDbArc
 50
188.0
 51
207.7499227956
  0
ARC
  5
1E1
330
195
100
AcDbEntity
  8
$DDT_AUDIT_GENERATED_(DA)
  6
Continuous
 62
     7
100
AcDbCircle
 10
403.5760114533
 20
545.8773122785
 30
0.0
 40
16.99999999999983
100
AcDbArc
 50
348.2500772044
 51
8.0
  0
LINE
  5
1E2
330
195
100
AcDbEntity
  8
$DDT_AUDIT_GENERATED_(DA)
  6
Continuous
 62
     7
100
AcDbLine
 10
420.4105686219
 20
548.2432549948
 30
0.0
 11
418.8649904679
 21
559.2406149953
 31
0.0
  0
LINE
  5
1E3
330
195
100
AcDbEntity
  8
$DDT_AUDIT_GENERATED_(DA)
  6
Continuous
 62
     7
100
AcDbLine
 10
396.0888248868
 20
556.0396336733
 30
0.0
 11
397.6344030408
 21
545.0422736727
 31
0.0
  0
ARC
  5
1E4
330
195
100
AcDbEntity
  8
$DDT_AUDIT_GENERATED_(DA)
  6
Continuous
 62
     7
100
AcDbCircle
 10
418.7164502576
 20
559.2197390302
 30
0.0
 40
0.1500000000000095
100
AcDbArc
 50
8.0
 51
98.0
  0
ARC
  5
1E5
330
195
100
AcDbEntity
  8
$DDT_AUDIT_GENERATED_(DA)
  6
Continuous
 62
     7
100
AcDbCircle
 10
396.2373650972
 20
556.0605096384
 30
0.0
 40
0.1499999999999919
100
AcDbArc
 50
98.0
 51
188.0
  0
LINE
  5
1E6
330
195
100
AcDbEntity
  8
$DDT_AUDIT_GENERATED_(E7)
  6
Continuous
 62
     7
100
AcDbLine
 10
400.9721897053
 20
539.2559288364
 30
0.0
 11
418.7970149427
 21
541.7610446537
 31
0.0
  0
LINE
  5
1E7
330
195
100
AcDbEntity
  8
$DDT_AUDIT_GENERATED_(E7)
  6
Continuous
 62
     7
100
AcDbLine
 10
400.9095618099
 20
539.7015494674
 30
0.0
 11
400.9721897053
 21
539.2559288364
 31
0.0
  0
LINE
  5
1E8
330
195
100
AcDbEntity
  8
$DDT_AUDIT_GENERATED_(E7)
  6
Continuous
 62
     7
100
AcDbLine
 10
418.7970149427
 20
541.7610446537
 30
0.0
 11
418.7343870472
 21
542.2066652846
 31
0.0
  0
ENDBLK
  5
1EA
330
195
100
AcDbEntity
  8
0
100
AcDbBlockEnd
  0
BLOCK
  5
20D
330
1EB
100
AcDbEntity
  8
0
100
AcDbBlockBegin
  2
SE2
 70
     0
 10
0.0
 20
0.0
 30
0.0
  3
SE2
  1

  0
ARC
  5
1ED
330
1EB
100
AcDbEntity
  8
$DDT_AUDIT_GENERATED_(77)
  6
Continuous
 62
     7
100
AcDbCircle
 10
52.8663113296
 20
361.2267888951
 30
0.0
 40
29.00000000000001
100
AcDbArc
 50
303.8346481752
 51
0.0
  0
ARC
  5
1EE
330
1EB
100
AcDbEntity
  8
$DDT_AUDIT_GENERATED_(77)
  6
Continuous
 62
     7
100
AcDbCircle
 10
52.8663113296
 20
361.2267888951
 30
0.0
 40
29.00000000000001
100
AcDbArc
 50
0.0
 51
236.1631463924
  0
ELLIPSE
  5
1EF
330
1EB
100
AcDbEntity
  8
$DDT_AUDIT_GENERATED_(7D)
  6
Continuous
 62
     7
100
AcDbEllipse
 10
52.8663526349
 20
121.6972856606
 30
0.0
 11
15.49811222341734
 21
1.980272834600783E-6
 31
0.0
210
0.0
220
0.0
230
0.9999999999999999
 40
0.9902680687
 41
3.141602332223782
 42
4.712388871635943
  0
ARC
  5
1F0
330
1EB
100
AcDbEntity
  8
$DDT_AUDIT_GENERATED_(7D)
  6
Continuous
 62
     7
100
AcDbCircle
 10
52.8651221356
 20
361.2274013615
 30
0.0
 40
29.04999999997802
100
AcDbArc
 50
235.217365764
 51
236.2487593827
  0
ARC
  5
1F1
330
1EB
100
AcDbEntity
  8
$DDT_AUDIT_GENERATED_(7D)
  6
Continuous
 62
     7
100
AcDbCircle
 10
52.8568930113
 20
123.3957062158
 30
0.0
 40
15.5076904746087
100
AcDbArc
 50
359.1334801852
 51
359.7923783199
  0
ELLIPSE
  5
1F2
330
1EB
100
AcDbEntity
  8
$DDT_AUDIT_GENERATED_(7D)
  6
Continuous
 62
     7
100
AcDbEllipse
 10
52.8663531861
 20
121.6972856606
 30
0.0
 11
-15.49811222341733
 21
1.980271585599880E-6
 31
0.0
210
0.0
220
0.0
230
0.9999999999999999
 40
0.9902680687
 41
1.570796435543563
 42
3.141582975036101
  0
ARC
  5
1F3
330
1EB
100
AcDbEntity
  8
$DDT_AUDIT_GENERATED_(7D)
  6
Continuous
 62
     7
100
AcDbCircle
 10
52.8675836853
 20
361.2274013615
 30
0.0
 40
29.04999999998465
100
AcDbArc
 50
303.7515140379
 51
304.7826843017
  0
SPLINE
  5
1F4
330
1EB
100
AcDbEntity
  8
$DDT_AUDIT_GENERATED_(7D)
  6
Continuous
 62
     7
100
AcDbSpline
210
0.0
220
0.0
230
1.0
 70
     8
 71
     3
 72
    44
 73
    40
 74
     0
 42
0.0000000000455871
 43
0.0000000001
 40
0.3145693058277043
 40
0.3145693058277043
 40
0.3145693058277043
 40
0.3145693058277043
 40
0.3364803099117302
 40
0.3638181079478272
 40
0.3901603960318221
 40
0.4156432325737357
 40
0.4403739627713367
 40
0.4644393522916558
 40
0.4879109809844285
 40
0.510849107980234
 40
0.533297788657463
 40
0.5550965686494239
 40
0.5762731141335629
 40
0.5968892371701305
 40
0.6169968900072722
 40
0.6366401074543012
 40
0.6558567467262697
 40
0.6746797648981263
 40
0.6931381744232777
 40
0.7112577711365631
 40
0.7290616979628055
 40
0.7465636092810655
 40
0.7636996127042769
 40
0.7805090551062369
 40
0.7970211773830963
 40
0.813255341557738
 40
0.8292293843055651
 40
0.8449598662451832
 40
0.8604622436128256
 40
0.8757510115621625
 40
0.8908398247938758
 40
0.9057415997824276
 40
0.9204686019462497
 40
0.9350325204097896
 40
0.9494445324712335
 40
0.9637153643660925
 40
0.9778534660446502
 40
0.9918490225708448
 40
1.0
 40
1.0
 40
1.0
 40
1.0
 10
37.36555279068413
 20
273.6948407024563
 30
0.0
 10
37.36545873741272
 20
272.2285537051475
 30
0.0
 10
37.3652422629379
 20
268.9259721843582
 30
0.0
 10
37.36489871719061
 20
263.8319755788313
 30
0.0
 10
37.36453521478999
 20
258.4671301269332
 30
0.0
 10
37.36418837486083
 20
253.2493527687375
 30
0.0
 10
37.36386373230403
 20
248.1576734323791
 30
0.0
 10
37.36356587876222
 20
243.1752891423899
 30
0.0
 10
37.3632990532648
 20
238.288426704764
 30
0.0
 10
37.36306590323183
 20
233.4861500543919
 30
0.0
 10
37.36287353977966
 20
228.7735009838394
 30
0.0
 10
37.36272308652018
 20
224.157566524438
 30
0.0
 10
37.3626138056926
 20
219.6446368718668
 30
0.0
 10
37.36254469136772
 20
215.2260201785223
 30
0.0
 10
37.36251474037493
 20
210.8917490636197
 30
0.0
 10
37.36252312143134
 20
206.6334487439677
 30
0.0
 10
37.36256911406229
 20
202.4440106720415
 30
0.0
 10
37.36265210029248
 20
198.3173276734264
 30
0.0
 10
37.36277151464708
 20
194.248096279692
 30
0.0
 10
37.36292694348587
 20
190.2316686983684
 30
0.0
 10
37.36311768299366
 20
186.2644710982124
 30
0.0
 10
37.36334385213593
 20
182.3496027226794
 30
0.0
 10
37.36361025343628
 20
178.4888096128312
 30
0.0
 10
37.36390626830355
 20
174.6828469610879
 30
0.0
 10
37.36422558787945
 20
170.9261542469766
 30
0.0
 10
37.36456170803131
 20
167.214735882125
 30
0.0
 10
37.36490885475939
 20
163.5455170679881
 30
0.0
 10
37.3652616975368
 20
159.9156875790589
 30
0.0
 10
37.36561535542783
 20
156.3226646235451
 30
0.0
 10
37.36596532843425
 20
152.7640569896626
 30
0.0
 10
37.36630744985867
 20
149.237663715595
 30
0.0
 10
37.36663787155037
 20
145.7413671744166
 30
0.0
 10
37.36695293614805
 20
142.2734301257028
 30
0.0
 10
37.36724949175387
 20
138.8313255650316
 30
0.0
 10
37.36752360048781
 20
135.4159629213913
 30
0.0
 10
37.36777515334008
 20
132.0162455171517
 30
0.0
 10
37.36799050432965
 20
128.6677742091301
 30
0.0
 10
37.36814765041042
 20
125.7066186290441
 30
0.0
 10
37.36820070765456
 20
124.0551083528634
 30
0.0
 10
37.3682233234163
 20
123.3386123710713
 30
0.0
  0
LINE
  5
1F5
330
1EB
100
AcDbEntity
  8
$DDT_AUDIT_GENERATED_(7D)
  6
Continuous
 62
     7
100
AcDbLine
 10
37.3682241243
 20
123.3421473554
 30
0.0
 11
37.3682404122
 21
121.6971351421
 31
0.0
  0
ARC
  5
1F6
330
1EB
100
AcDbEntity
  8
$DDT_AUDIT_GENERATED_(7D)
  6
Continuous
 62
     7
100
AcDbCircle
 10
38.4267351888
 20
123.1626217411
 30
0.0
 40
1.057390936719
100
AcDbArc
 50
168.2580155577
 51
180.685564288
  0
ARC
  5
1F7
330
1EB
100
AcDbEntity
  8
$DDT_AUDIT_GENERATED_(7D)
  6
Continuous
 62
     7
100
AcDbCircle
 10
34.8636037536
 20
335.3171712112
 30
0.0
 40
2.499636097462677
100
AcDbArc
 50
41.5117901993
 51
53.6496284237
  0
SPLINE
  5
1F8
330
1EB
100
AcDbEntity
  8
$DDT_AUDIT_GENERATED_(7D)
  6
Continuous
 62
     7
100
AcDbSpline
210
0.0
220
0.0
230
1.0
 70
     8
 71
     3
 72
    46
 73
    42
 74
     0
 42
0.0000000000455945
 43
0.0000000001
 40
0.0
 40
0.0
 40
0.0
 40
0.0
 40
0.0089097653442475
 40
0.0226515379703279
 40
0.0365081472189478
 40
0.0504904161063178
 40
0.0646214568290619
 40
0.0788889055495113
 40
0.093300584797904
 40
0.1078665758222436
 40
0.1225973403326444
 40
0.1375037792965007
 40
0.1525972859512494
 40
0.1678898068192299
 40
0.1833939121497887
 40
0.1991228776509386
 40
0.2150907798223053
 40
0.2313126077814782
 40
0.2478043952314295
 40
0.2645833735212526
 40
0.281650085918002
 40
0.2990521860651644
 40
0.3167323477472369
 40
0.3347092841831706
 40
0.3530025930202514
 40
0.3716338437321835
 40
0.3906269396648793
 40
0.410008582524693
 40
0.4298088611406492
 40
0.4500620078613408
 40
0.4708073848321491
 40
0.4920907917061427
 40
0.5139722814316632
 40
0.5364631745169548
 40
0.559424461435944
 40
0.5829022251122525
 40
0.6069494116995188
 40
0.6316279526444021
 40
0.6570112450696118
 40
0.6831875986251891
 40
0.6854742088143227
 40
0.6854742088143227
 40
0.6854742088143227
 40
0.6854742088143227
 10
68.36448278493287
 20
123.3701713339886
 30
0.0
 10
68.36450842000721
 20
124.1531507015139
 30
0.0
 10
68.36456466077271
 20
125.8396377565606
 30
0.0
 10
68.364724080214
 20
128.8157603970902
 30
0.0
 10
68.36493678456674
 20
132.0991975484459
 30
0.0
 10
68.36518346098322
 20
135.4305423575217
 30
0.0
 10
68.36545195543422
 20
138.7771785459406
 30
0.0
 10
68.36574195359356
 20
142.148789200806
 30
0.0
 10
68.36604959303303
 20
145.5424775007657
 30
0.0
 10
68.36637185138859
 20
148.9602873305509
 30
0.0
 10
68.36670527849692
 20
152.4036383402676
 30
0.0
 10
68.36704626569279
 20
155.8742737160294
 30
0.0
 10
68.36739093610157
 20
159.3739758068249
 30
0.0
 10
68.36773513637797
 20
162.9046594170405
 30
0.0
 10
68.36807439934043
 20
166.4683644029809
 30
0.0
 10
68.36840389494873
 20
170.067278476309
 30
0.0
 10
68.3687184294106
 20
173.7037558864448
 30
0.0
 10
68.36901222391336
 20
177.3803390448361
 30
0.0
 10
68.36927950272255
 20
181.0997934425024
 30
0.0
 10
68.3695118580351
 20
184.8637584974873
 30
0.0
 10
68.36970793214171
 20
188.6763245573098
 30
0.0
 10
68.36987230116843
 20
192.5358701242383
 30
0.0
 10
68.37000293234549
 20
196.4420856856372
 30
0.0
 10
68.370099740335
 20
200.3926966485504
 30
0.0
 10
68.37016232771562
 20
204.3912275657488
 30
0.0
 10
68.37019040452836
 20
208.4415514897978
 30
0.0
 10
68.3701836064324
 20
212.5480215248243
 30
0.0
 10
68.37014153468456
 20
216.7155667422656
 30
0.0
 10
68.37006374833267
 20
220.9498140728102
 30
0.0
 10
68.36994970493323
 20
225.2572442819626
 30
0.0
 10
68.36979894907883
 20
229.6454004221869
 30
0.0
 10
68.36961028790864
 20
234.1235709475309
 30
0.0
 10
68.36938501150732
 20
238.6990611698589
 30
0.0
 10
68.36912861650666
 20
243.3658035193321
 30
0.0
 10
68.36884429337064
 20
248.1169771950201
 30
0.0
 10
68.36853680639875
 20
252.9489043456525
 30
0.0
 10
68.36821052485178
 20
257.8717376287073
 30
0.0
 10
68.36787055693044
 20
262.897408892596
 30
0.0
 10
68.3675228289467
 20
268.0401497159207
 30
0.0
 10
68.36728421096149
 20
271.6535755209169
 30
0.0
 10
68.3671617684568
 20
273.558443646672
 30
0.0
 10
68.3671519566302
 20
273.7114405539076
 30
0.0
  0
LINE
  5
1F9
330
1EB
100
AcDbEntity
  8
$DDT_AUDIT_GENERATED_(7D)
  6
Continuous
 62
     7
100
AcDbLine
 10
68.3644654087
 20
121.6971351421
 30
0.0
 11
68.3644816966
 21
123.3421473554
 31
0.0
  0
ARC
  5
1FA
330
1EB
100
AcDbEntity
  8
$DDT_AUDIT_GENERATED_(7D)
  6
Continuous
 62
     7
100
AcDbCircle
 10
67.3059706321
 20
123.1626217411
 30
0.0
 40
1.057390936715562
100
AcDbArc
 50
359.314435712
 51
11.7419844423
  0
ARC
  5
1FB
330
1EB
100
AcDbEntity
  8
$DDT_AUDIT_GENERATED_(7D)
  6
Continuous
 62
     7
100
AcDbCircle
 10
70.8662373233
 20
335.3195290074
 30
0.0
 40
2.496043987883771
100
AcDbArc
 50
126.3307679992
 51
138.4509199233
  0
ARC
  5
1FC
330
1EB
100
AcDbEntity
  8
$DDT_AUDIT_GENERATED_(AA)
  6
Continuous
 62
     7
100
AcDbCircle
 10
52.8663113296
 20
361.2267888951
 30
0.0
 40
28.99047431159973
100
AcDbArc
 50
303.8301403742
 51
0.0
  0
ARC
  5
1FD
330
1EB
100
AcDbEntity
  8
$DDT_AUDIT_GENERATED_(AA)
  6
Continuous
 62
     7
100
AcDbCircle
 10
52.8663113296
 20
361.2267888951
 30
0.0
 40
28.99047431159973
100
AcDbArc
 50
0.0
 51
236.1883256428
  0
LINE
  5
1FE
330
1EB
100
AcDbEntity
  8
$DDT_AUDIT_GENERATED_(BB)
  6
Continuous
 62
     7
100
AcDbLine
 10
68.9983164242
 20
337.2731554597
 30
0.0
 11
68.9979834482
 21
337.2728949893
 31
0.0
  0
ARC
  5
1FF
330
1EB
100
AcDbEntity
  8
$DDT_AUDIT_GENERATED_(BB)
  6
Continuous
 62
     7
100
AcDbCircle
 10
76.9985750851
 20
337.2652262372
 30
0.0
 40
8.000262590355725
100
AcDbArc
 50
135.247451806
 51
179.9432129814
  0
ARC
  5
200
330
1EB
100
AcDbEntity
  8
$DDT_AUDIT_GENERATED_(BB)
  6
Continuous
 62
     7
100
AcDbCircle
 10
28.734056733
 20
337.2652268091
 30
0.0
 40
8.000261535124377
100
AcDbArc
 50
0.0567846418
 51
44.7525510361
  0
SPLINE
  5
201
330
1EB
100
AcDbEntity
  8
$DDT_AUDIT_GENERATED_(BB)
  6
Continuous
 62
     7
100
AcDbSpline
210
0.0
220
0.0
230
1.0
 70
     8
 71
     3
 72
     8
 73
     4
 74
     0
 42
0.0000000000592721
 43
0.0000000001
 40
0.0
 40
0.0
 40
0.0
 40
0.0
 40
0.1840904802802457
 40
0.1840904802802457
 40
0.1840904802802457
 40
0.1840904802802457
 10
36.73431433903679
 20
337.2731556986814
 30
0.0
 10
36.74455587623073
 20
326.9382055657782
 30
0.0
 10
36.76883884548318
 20
316.5851643237625
 30
0.0
 10
36.76574599953675
 20
306.2146595980489
 30
0.0
  0
SPLINE
  5
202
330
1EB
100
AcDbEntity
  8
$DDT_AUDIT_GENERATED_(BB)
  6
Continuous
 62
     7
100
AcDbSpline
210
0.0
220
0.0
230
1.0
 70
     8
 71
     3
 72
    12
 73
     8
 74
     0
 42
0.0000000000589162
 43
0.0000000001
 40
0.3264304237686645
 40
0.3264304237686645
 40
0.3264304237686645
 40
0.3264304237686645
 40
0.3437500000000002
 40
0.3437500000000002
 40
0.375
 40
0.375
 40
0.3958007497104638
 40
0.3958007497104638
 40
0.3958007497104638
 40
0.3958007497104638
 10
36.69638622414041
 20
282.1291788034737
 30
0.0
 10
36.695847298575
 20
281.1510592241001
 30
0.0
 10
36.7015436348415
 20
280.1731064704113
 30
0.0
 10
36.76250427485162
 20
277.4335603187001
 30
0.0
 10
36.85664244040908
 20
275.6567863458445
 30
0.0
 10
37.57474989463758
 20
272.7965925874002
 30
0.0
 10
38.00948783480305
 20
271.7013513811492
 30
0.0
 10
38.56575983865814
 20
270.6703605500821
 30
0.0
  0
SPLINE
  5
203
330
1EB
100
AcDbEntity
  8
$DDT_AUDIT_GENERATED_(BB)
  6
Continuous
 62
     7
100
AcDbSpline
210
0.0
220
0.0
230
1.0
 70
     8
 71
     3
 72
    12
 73
     8
 74
     0
 42
0.0000000000591051
 43
0.0000000001
 40
0.6024380165988881
 40
0.6024380165988881
 40
0.6024380165988881
 40
0.6024380165988881
 40
0.6250000000000002
 40
0.6250000000000002
 40
0.6562500000000003
 40
0.6562500000000003
 40
0.6722352421216933
 40
0.6722352421216933
 40
0.6722352421216933
 40
0.6722352421216933
 10
67.15416435201023
 20
270.6392270624139
 30
0.0
 10
67.7587020905052
 20
271.7536091608087
 30
0.0
 10
68.21191912798882
 20
272.9320828221767
 30
0.0
 10
68.90495185299982
 20
275.9038085033209
 30
0.0
 10
68.98094633598906
 20
277.6758990237741
 30
0.0
 10
69.03120805403537
 20
280.3310136422725
 30
0.0
 10
69.03624715298264
 20
281.2298816441007
 30
0.0
 10
69.03604902785388
 20
282.1288043504185
 30
0.0
  0
SPLINE
  5
204
330
1EB
100
AcDbEntity
  8
$DDT_AUDIT_GENERATED_(BB)
  6
Continuous
 62
     7
100
AcDbSpline
210
0.0
220
0.0
230
1.0
 70
     8
 71
     3
 72
     8
 73
     4
 74
     0
 42
0.0000000000595846
 43
0.0000000001
 40
0.0
 40
0.0
 40
0.0
 40
0.0
 40
0.0917118696188303
 40
0.0917118696188303
 40
0.0917118696188303
 40
0.0917118696188303
 10
68.99798344824185
 20
337.2728949892814
 30
0.0
 10
68.99284982943922
 20
332.146474512181
 30
0.0
 10
68.98428536353921
 20
327.0160242578271
 30
0.0
 10
68.97740112879299
 20
321.8810420815425
 30
0.0
  0
SPLINE
  5
205
330
1EB
100
AcDbEntity
  8
$DDT_AUDIT_GENERATED_(BB)
  6
Continuous
 62
     7
100
AcDbSpline
210
0.0
220
0.0
230
1.0
 70
     8
 71
     3
 72
    34
 73
    30
 74
     0
 42
0.000000000059252
 43
0.0000000001
 40
0.3027699916031081
 40
0.3027699916031081
 40
0.3027699916031081
 40
0.3027699916031081
 40
0.3125000000000005
 40
0.3125000000000005
 40
0.3437500000000005
 40
0.3437500000000005
 40
0.3750000000000005
 40
0.3750000000000005
 40
0.4375000000000006
 40
0.4375000000000006
 40
0.4687500000000006
 40
0.4687500000000006
 40
0.5000000000000006
 40
0.5000000000000006
 40
0.5312500000000006
 40
0.5312500000000006
 40
0.5625000000000007
 40
0.5625000000000007
 40
0.5937500000000007
 40
0.5937500000000007
 40
0.6250000000000008
 40
0.6250000000000008
 40
0.6562500000000008
 40
0.6562500000000008
 40
0.6875000000000009
 40
0.6875000000000009
 40
0.7500000000000007
 40
0.7500000000000007
 40
1.0
 40
1.0
 40
1.0
 40
1.0
 10
69.02108601587099
 20
286.3512051792159
 30
0.0
 10
69.02362740158428
 20
285.8039179440246
 30
0.0
 10
69.0260894071851
 20
285.2565661460931
 30
0.0
 10
69.03585197157449
 20
282.9510026145925
 30
0.0
 10
69.04855277438763
 20
281.1906979860102
 30
0.0
 10
68.96631545491972
 20
277.6755113574615
 30
0.0
 10
68.86950602787431
 20
275.9234512418482
 30
0.0
 10
67.56220722210965
 20
270.7696329080526
 30
0.0
 10
65.38711102136156
 20
267.8025548786195
 30
0.0
 10
61.1637292533179
 20
264.6143086456723
 30
0.0
 10
59.62622594803461
 20
263.7788109778417
 30
0.0
 10
56.28246238257049
 20
262.6115691857008
 30
0.0
 10
54.56561743121804
 20
262.3136705386562
 30
0.0
 10
51.03573296085249
 20
262.3290936471328
 30
0.0
 10
49.30000752519631
 20
262.647508357487
 30
0.0
 10
45.97563625529391
 20
263.8423902248273
 30
0.0
 10
44.43392477668769
 20
264.6967432614897
 30
0.0
 10
41.63341143451212
 20
266.851633075161
 30
0.0
 10
40.41606431824947
 20
268.1183365310224
 30
0.0
 10
38.42328497634048
 20
271.0195030946675
 30
0.0
 10
37.68314331214609
 20
272.6289038696318
 30
0.0
 10
36.85201448802405
 20
276.0329691102737
 30
0.0
 10
36.75981660135851
 20
277.816417927067
 30
0.0
 10
36.68445847980846
 20
281.3229666585736
 30
0.0
 10
36.69716524553049
 20
283.0767559042729
 30
0.0
 10
36.71996488398442
 20
288.3371173382768
 30
0.0
 10
36.74034371199949
 20
291.8432959008658
 30
0.0
 10
36.78787722122505
 20
309.3663711272693
 30
0.0
 10
36.74860277759776
 20
323.3373004448105
 30
0.0
 10
36.73464731804984
 20
337.2728952964463
 30
0.0
  0
ARC
  5
206
330
1EB
100
AcDbEntity
  8
$DDT_AUDIT_GENERATED_(BB)
  6
Continuous
 62
     7
100
AcDbCircle
 10
76.9982925978
 20
337.2648694547
 30
0.0
 40
8.000313174993574
100
AcDbArc
 50
135.2465314718
 51
179.9425235826
  0
ARC
  5
207
330
1EB
100
AcDbEntity
  8
$DDT_AUDIT_GENERATED_(BB)
  6
Continuous
 62
     7
100
AcDbCircle
 10
28.7343381652
 20
337.2648695913
 30
0.0
 40
8.00031317842672
100
AcDbArc
 50
0.0574776388
 51
44.7534682444
  0
ARC
  5
208
330
1EB
100
AcDbEntity
  8
$DDT_AUDIT_GENERATED_(BB)
  6
Continuous
 62
     7
100
AcDbCircle
 10
52.8663154517
 20
361.218313012
 30
0.0
 40
26.00145005932028
100
AcDbArc
 50
315.2023287032
 51
224.7976709525
  0
LINE
  5
209
330
1EB
100
AcDbEntity
  8
$DDT_AUDIT_GENERATED_(BB)
  6
Continuous
 62
     7
100
AcDbLine
 10
69.0342419548
 20
282.1288238338
 30
0.0
 11
69.0342419549
 21
282.4484454193
 31
0.0
  0
LINE
  5
20A
330
1EB
100
AcDbEntity
  8
$DDT_AUDIT_GENERATED_(BB)
  6
Continuous
 62
     7
100
AcDbLine
 10
36.6983973001
 20
282.4507077218
 30
0.0
 11
36.6983973
 21
282.129208529
 31
0.0
  0
ARC
  5
20B
330
1EB
100
AcDbEntity
  8
$DDT_AUDIT_GENERATED_(BB)
  6
Continuous
 62
     7
100
AcDbCircle
 10
52.8645002186
 20
278.21104987
 30
0.0
 40
16.16866670032909
100
AcDbArc
 50
207.808712523
 51
331.5141980658
  0
ARC
  5
20C
330
1EB
100
AcDbEntity
  8
$DDT_AUDIT_GENERATED_(BB)
  6
Continuous
 62
     7
100
AcDbCircle
 10
4628.1251265255
 20
309.5840592486
 30
0.0
 40
4559.161166408651
100
AcDbArc
 50
179.8454733894
 51
180.2919646178
  0
ENDBLK
  5
20E
330
1EB
100
AcDbEntity
  8
0
100
AcDbBlockEnd
  0
ENDSEC
  0
SECTION
  2
ENTITIES
  0
INSERT
  5
5F
330
1F
100
AcDbEntity
  8
Default
100
AcDbBlockReference
  2
SEANNOT_GROUP
 10
0.0
 20
0.0
 30
0.0
  0
INSERT
  5
6A
330
1F
100
AcDbEntity
  8
Default
100
AcDbBlockReference
  2
SEANNOT_GROUP1
 10
0.0
 20
0.0
 30
0.0
  0
INSERT
  5
70
330
1F
100
AcDbEntity
  8
Default
100
AcDbBlockReference
  2
SEANNOT_GROUP2
 10
0.0
 20
0.0
 30
0.0
  0
INSERT
  5
76
330
1F
100
AcDbEntity
  8
Default
100
AcDbBlockReference
  2
SE
 10
0.0
 20
0.0
 30
0.0
  0
INSERT
  5
196
330
1F
100
AcDbEntity
  8
Default
100
AcDbBlockReference
  2
SE1
 10
0.0
 20
0.0
 30
0.0
  0
INSERT
  5
1EC
330
1F
100
AcDbEntity
  8
Default
100
AcDbBlockReference
  2
SE2
 10
0.0
 20
0.0
 30
0.0
  0
TEXT
  5
210
330
1F
100
AcDbEntity
  8
Default
  6
Continuous
 62
     7
100
AcDbText
 10
5.9362635081
 20
53.4225120485
 30
0.0
 40
10.0
  1
Grohe AG^J
  7
SEACAD_seiso_ttf
 11
5.9362635081
 21
63.4225120485
 31
0.0
100
AcDbText
 73
     3
  0
TEXT
  5
211
330
1F
100
AcDbEntity
  8
Default
  6
Continuous
 62
     7
100
AcDbText
 10
5.9362635081
 20
37.0588756849
 30
0.0
 40
10.0
  1
 
  7
SEACAD_seiso_ttf
 11
5.9362635081
 21
47.0588756849
 31
0.0
100
AcDbText
 73
     3
  0
TEXT
  5
212
330
1F
100
AcDbEntity
  8
Default
  6
Continuous
 62
     7
100
AcDbText
 10
5.9362635081
 20
20.6952393213
 30
0.0
 40
10.0
  1
ecn: 
  7
SEACAD_seiso_ttf
 11
5.9362635081
 21
30.6952393213
 31
0.0
100
AcDbText
 73
     3
  0
TEXT
  5
213
330
1F
100
AcDbEntity
  8
Default
  6
Continuous
 62
     7
100
AcDbText
 10
5.9362635081
 20
4.3316029576
 30
0.0
 40
10.0
  1
unit: mm
  7
SEACAD_seiso_ttf
 11
5.9362635081
 21
14.3316029576
 31
0.0
100
AcDbText
 73
     3
  0
LINE
  5
214
330
1F
100
AcDbEntity
  8
Default
  6
Continuous
 62
     7
100
AcDbLine
 10
0.0
 20
0.0
 30
0.0
 11
100.0
 21
0.0
 31
0.0
  0
LINE
  5
215
330
1F
100
AcDbEntity
  8
Default
  6
Continuous
 62
     7
100
AcDbLine
 10
0.0
 20
0.0
 30
0.0
 11
0.0
 21
100.0
 31
0.0
  0
TEXT
  5
216
330
1F
100
AcDbEntity
  8
Default
  6
Continuous
 62
     7
100
AcDbText
 10
24.3923665681
 20
-18.2375342018
 30
0.0
 40
10.0
  1
100 mm
  7
SEACAD_seiso_ttf
 11
24.3923665681
 21
-8.2375342018
 31
0.0
100
AcDbText
 73
     3
  0
TEXT
  5
217
330
1F
100
AcDbEntity
  8
Default
  6
Continuous
 62
     7
100
AcDbText
 10
-7.6150308803
 20
24.6231930421
 30
0.0
 40
10.0
  1
100 mm
 50
90.0
  7
SEACAD_seiso_ttf
 11
-17.6150308803
 21
24.6231930421
 31
0.0
100
AcDbText
 73
     3
  0
TEXT
  5
218
330
1F
100
AcDbEntity
  8
Default
  6
Continuous
 62
     7
100
AcDbText
 10
28.4878128572
 20
20.0907663715
 30
0.0
 40
10.0
  1
218912
  7
SEACAD_seiso_ttf
 11
28.4878128572
 21
30.0907663715
 31
0.0
100
AcDbText
 73
     3
  0
TEXT
  5
219
330
1F
100
AcDbEntity
  8
Default
  6
Continuous
 62
     7
100
AcDbText
 10
5.9012241913
 20
36.7242780188
 30
0.0
 40
10.0
  1
33977002
  7
SEACAD_seiso_ttf
 11
5.9012241913
 21
46.7242780188
 31
0.0
100
AcDbText
 73
     3
  0
ENDSEC
  0
SECTION
  2
OBJECTS
  0
DICTIONARY
  5
C
330
0
100
AcDbDictionary
281
     1
  3
ACAD_GROUP
350
D
  3
ACAD_LAYOUT
350
1A
  3
ACAD_MLEADERSTYLE
350
21D
  3
ACAD_MLINESTYLE
350
17
  3
ACAD_PLOTSETTINGS
350
19
  3
ACAD_PLOTSTYLENAME
350
E
  3
ACAD_SCALELIST
350
3B
  3
ACAD_TABLESTYLE
350
21C
  3
ACAD_VISUALSTYLE
350
2A
  3
AcDbVariableDictionary
350
21A
  0
DICTIONARY
  5
D
102
{ACAD_REACTORS
330
C
102
}
330
C
100
AcDbDictionary
281
     1
  0
DICTIONARY
  5
1A
102
{ACAD_REACTORS
330
C
102
}
330
C
100
AcDbDictionary
281
     1
  3
Layout1
350
1E
  3
Model
350
22
  0
DICTIONARY
  5
21D
102
{ACAD_REACTORS
330
C
102
}
330
C
100
AcDbDictionary
281
     1
  0
DICTIONARY
  5
17
102
{ACAD_REACTORS
330
C
102
}
330
C
100
AcDbDictionary
281
     1
  3
Standard
350
18
  0
DICTIONARY
  5
19
102
{ACAD_REACTORS
330
C
102
}
330
C
100
AcDbDictionary
281
     1
  0
ACDBDICTIONARYWDFLT
  5
E
102
{ACAD_REACTORS
330
C
102
}
330
C
100
AcDbDictionary
281
     1
  3
Normal
350
F
100
AcDbDictionaryWithDefault
340
F
  0
DICTIONARY
  5
3B
102
{ACAD_REACTORS
330
C
102
}
330
C
100
AcDbDictionary
281
     1
  3
A0
350
3C
  3
A1
350
3D
  3
A2
350
3E
  3
A3
350
3F
  3
A4
350
40
  3
A5
350
41
  3
A6
350
42
  3
A7
350
43
  3
A8
350
44
  3
A9
350
45
  3
B0
350
46
  3
B1
350
47
  3
B2
350
48
  3
B3
350
49
  3
B4
350
4A
  3
B5
350
4B
  3
B6
350
4C
  3
B7
350
4D
  3
B8
350
4E
  3
B9
350
4F
  3
C0
350
50
  3
C1
350
51
  3
C2
350
52
  3
C3
350
53
  3
C4
350
54
  3
C5
350
55
  3
C6
350
56
  3
C7
350
57
  3
C8
350
58
  3
C9
350
59
  3
D0
350
5A
  3
D1
350
5B
  3
D2
350
5C
  0
DICTIONARY
  5
21C
102
{ACAD_REACTORS
330
C
102
}
330
C
100
AcDbDictionary
281
     1
  0
DICTIONARY
  5
2A
102
{ACAD_REACTORS
330
C
102
}
330
C
100
AcDbDictionary
281
     1
  3
2dWireframe
350
2F
  3
3D Hidden
350
31
  3
3dWireframe
350
30
  3
Basic
350
32
  3
Brighten
350
36
  3
ColorChange
350
3A
  3
Conceptual
350
34
  3
Dim
350
35
  3
Facepattern
350
39
  3
Flat
350
2B
  3
FlatWithEdges
350
2C
  3
Gouraud
350
2D
  3
GouraudWithEdges
350
2E
  3
Linepattern
350
38
  3
Realistic
350
33
  3
Thicken
350
37
  0
DICTIONARY
  5
21A
102
{ACAD_REACTORS
330
C
102
}
330
C
100
AcDbDictionary
281
     1
  3
CANNOSCALE
350
21B
  3
PSOLHEIGHT
350
21F
  3
PSOLWIDTH
350
21E
  0
LAYOUT
  5
1E
102
{ACAD_REACTORS
330
1A
102
}
330
1A
100
AcDbPlotSettings
  1

  2
none_device
  4

  6

 40
0.0
 41
0.0
 42
0.0
 43
0.0
 44
0.0
 45
0.0
 46
0.0
 47
0.0
 48
0.0
 49
0.0
140
0.0
141
0.0
142
1.0
143
1.0
 70
   688
 72
     0
 73
     0
 74
     5
  7

 75
    16
147
1.0
148
0.0
149
0.0
100
AcDbLayout
  1
Layout1
 70
     1
 71
     1
 10
0.0
 20
0.0
 11
1682.0
 21
2378.0
 12
0.0
 22
0.0
 32
0.0
 14
0.0
 24
0.0
 34
0.0
 15
1682.0
 25
2378.0
 35
0.0
146
0.0
 13
0.0
 23
0.0
 33
0.0
 16
1.0
 26
0.0
 36
0.0
 17
0.0
 27
1.0
 37
0.0
 76
     0
330
1B
  0
LAYOUT
  5
22
102
{ACAD_REACTORS
330
1A
102
}
330
1A
100
AcDbPlotSettings
  1

  2
none_device
  4

  6

 40
0.0
 41
0.0
 42
0.0
 43
0.0
 44
0.0
 45
0.0
 46
0.0
 47
0.0
 48
0.0
 49
0.0
140
0.0
141
0.0
142
1.0
143
1.0
 70
  1712
 72
     0
 73
     0
 74
     0
  7

 75
     0
147
1.0
148
0.0
149
0.0
100
AcDbLayout
  1
Model
 70
     1
 71
     0
 10
0.0
 20
0.0
 11
1682.0
 21
2378.0
 12
0.0
 22
0.0
 32
0.0
 14
0.0
 24
0.0
 34
0.0
 15
1682.0
 25
2378.0
 35
0.0
146
0.0
 13
0.0
 23
0.0
 33
0.0
 16
1.0
 26
0.0
 36
0.0
 17
0.0
 27
1.0
 37
0.0
 76
     0
330
1F
331
29
  0
MLINESTYLE
  5
18
102
{ACAD_REACTORS
330
17
102
}
330
17
100
AcDbMlineStyle
  2
Standard
 70
     0
  3

 62
   256
 51
90.0
 52
90.0
 71
     2
 49
0.5
 62
   256
  6
BYLAYER
 49
-0.5
 62
   256
  6
BYLAYER
  0
ACDBPLACEHOLDER
  5
F
102
{ACAD_REACTORS
330
E
102
}
330
E
  0
SCALE
  5
3C
102
{ACAD_REACTORS
330
3B
102
}
330
3B
100
AcDbScale
 70
     0
300
1:1
140
1.0
141
1.0
290
     1
  0
SCALE
  5
3D
102
{ACAD_REACTORS
330
3B
102
}
330
3B
100
AcDbScale
 70
     0
300
1:2
140
1.0
141
2.0
290
     0
  0
SCALE
  5
3E
102
{ACAD_REACTORS
330
3B
102
}
330
3B
100
AcDbScale
 70
     0
300
1:4
140
1.0
141
4.0
290
     0
  0
SCALE
  5
3F
102
{ACAD_REACTORS
330
3B
102
}
330
3B
100
AcDbScale
 70
     0
300
1:5
140
1.0
141
5.0
290
     0
  0
SCALE
  5
40
102
{ACAD_REACTORS
330
3B
102
}
330
3B
100
AcDbScale
 70
     0
300
1:8
140
1.0
141
8.0
290
     0
  0
SCALE
  5
41
102
{ACAD_REACTORS
330
3B
102
}
330
3B
100
AcDbScale
 70
     0
300
1:10
140
1.0
141
10.0
290
     0
  0
SCALE
  5
42
102
{ACAD_REACTORS
330
3B
102
}
330
3B
100
AcDbScale
 70
     0
300
1:16
140
1.0
141
16.0
290
     0
  0
SCALE
  5
43
102
{ACAD_REACTORS
330
3B
102
}
330
3B
100
AcDbScale
 70
     0
300
1:20
140
1.0
141
20.0
290
     0
  0
SCALE
  5
44
102
{ACAD_REACTORS
330
3B
102
}
330
3B
100
AcDbScale
 70
     0
300
1:30
140
1.0
141
30.0
290
     0
  0
SCALE
  5
45
102
{ACAD_REACTORS
330
3B
102
}
330
3B
100
AcDbScale
 70
     0
300
1:40
140
1.0
141
40.0
290
     0
  0
SCALE
  5
46
102
{ACAD_REACTORS
330
3B
102
}
330
3B
100
AcDbScale
 70
     0
300
1:50
140
1.0
141
50.0
290
     0
  0
SCALE
  5
47
102
{ACAD_REACTORS
330
3B
102
}
330
3B
100
AcDbScale
 70
     0
300
1:100
140
1.0
141
100.0
290
     0
  0
SCALE
  5
48
102
{ACAD_REACTORS
330
3B
102
}
330
3B
100
AcDbScale
 70
     0
300
2:1
140
2.0
141
1.0
290
     0
  0
SCALE
  5
49
102
{ACAD_REACTORS
330
3B
102
}
330
3B
100
AcDbScale
 70
     0
300
4:1
140
4.0
141
1.0
290
     0
  0
SCALE
  5
4A
102
{ACAD_REACTORS
330
3B
102
}
330
3B
100
AcDbScale
 70
     0
300
8:1
140
8.0
141
1.0
290
     0
  0
SCALE
  5
4B
102
{ACAD_REACTORS
330
3B
102
}
330
3B
100
AcDbScale
 70
     0
300
10:1
140
10.0
141
1.0
290
     0
  0
SCALE
  5
4C
102
{ACAD_REACTORS
330
3B
102
}
330
3B
100
AcDbScale
 70
     0
300
100:1
140
100.0
141
1.0
290
     0
  0
SCALE
  5
4D
102
{ACAD_REACTORS
330
3B
102
}
330
3B
100
AcDbScale
 70
     0
300
1/128" = 1'-0"
140
0.0078125
141
12.0
290
     0
  0
SCALE
  5
4E
102
{ACAD_REACTORS
330
3B
102
}
330
3B
100
AcDbScale
 70
     0
300
1/64" = 1'-0"
140
0.015625
141
12.0
290
     0
  0
SCALE
  5
4F
102
{ACAD_REACTORS
330
3B
102
}
330
3B
100
AcDbScale
 70
     0
300
1/32" = 1'-0"
140
0.03125
141
12.0
290
     0
  0
SCALE
  5
50
102
{ACAD_REACTORS
330
3B
102
}
330
3B
100
AcDbScale
 70
     0
300
1/16" = 1'-0"
140
0.0625
141
12.0
290
     0
  0
SCALE
  5
51
102
{ACAD_REACTORS
330
3B
102
}
330
3B
100
AcDbScale
 70
     0
300
3/32" = 1'-0"
140
0.09375
141
12.0
290
     0
  0
SCALE
  5
52
102
{ACAD_REACTORS
330
3B
102
}
330
3B
100
AcDbScale
 70
     0
300
1/8" = 1'-0"
140
0.125
141
12.0
290
     0
  0
SCALE
  5
53
102
{ACAD_REACTORS
330
3B
102
}
330
3B
100
AcDbScale
 70
     0
300
3/16" = 1'-0"
140
0.1875
141
12.0
290
     0
  0
SCALE
  5
54
102
{ACAD_REACTORS
330
3B
102
}
330
3B
100
AcDbScale
 70
     0
300
1/4" = 1'-0"
140
0.25
141
12.0
290
     0
  0
SCALE
  5
55
102
{ACAD_REACTORS
330
3B
102
}
330
3B
100
AcDbScale
 70
     0
300
3/8" = 1'-0"
140
0.375
141
12.0
290
     0
  0
SCALE
  5
56
102
{ACAD_REACTORS
330
3B
102
}
330
3B
100
AcDbScale
 70
     0
300
1/2" = 1'-0"
140
0.5
141
12.0
290
     0
  0
SCALE
  5
57
102
{ACAD_REACTORS
330
3B
102
}
330
3B
100
AcDbScale
 70
     0
300
3/4" = 1'-0"
140
0.75
141
12.0
290
     0
  0
SCALE
  5
58
102
{ACAD_REACTORS
330
3B
102
}
330
3B
100
AcDbScale
 70
     0
300
1" = 1'-0"
140
1.0
141
12.0
290
     0
  0
SCALE
  5
59
102
{ACAD_REACTORS
330
3B
102
}
330
3B
100
AcDbScale
 70
     0
300
1-1/2" = 1'-0"
140
1.5
141
12.0
290
     0
  0
SCALE
  5
5A
102
{ACAD_REACTORS
330
3B
102
}
330
3B
100
AcDbScale
 70
     0
300
3" = 1'-0"
140
3.0
141
12.0
290
     0
  0
SCALE
  5
5B
102
{ACAD_REACTORS
330
3B
102
}
330
3B
100
AcDbScale
 70
     0
300
6" = 1'-0"
140
6.0
141
12.0
290
     0
  0
SCALE
  5
5C
102
{ACAD_REACTORS
330
3B
102
}
330
3B
100
AcDbScale
 70
     0
300
1'-0" = 1'-0"
140
12.0
141
12.0
290
     0
  0
VISUALSTYLE
  5
2F
102
{ACAD_REACTORS
330
2A
102
}
330
2A
100
AcDbVisualStyle
  2
2dWireframe
 70
     4
 71
     0
 72
     2
 73
     0
 90
        0
 40
-0.6
 41
-30.0
 62
     5
 63
     7
 74
     1
 91
        4
 64
     7
 65
   257
 75
     1
175
     1
 42
1.0
 92
        0
 66
   257
 43
1.0
 76
     1
 77
     6
 78
     2
 67
     7
 79
     5
170
     0
171
     0
290
     0
174
     0
 93
        1
 44
0.0
173
     0
291
     0
 45
0.0
1001
ACAD
1000
AcDbSavedByObjectVersion
1070
     0
  0
VISUALSTYLE
  5
31
102
{ACAD_REACTORS
330
2A
102
}
330
2A
100
AcDbVisualStyle
  2
3D Hidden
 70
     6
 71
     1
 72
     2
 73
     2
 90
        0
 40
-0.6
 41
-30.0
 62
     5
 63
     7
 74
     2
 91
        2
 64
     7
 65
   257
 75
     2
175
     1
 42
40.0
 92
        0
 66
   257
 43
1.0
 76
     1
 77
     6
 78
     2
 67
     7
 79
     3
170
     0
171
     0
290
     0
174
     0
 93
        1
 44
0.0
173
     0
291
     0
 45
0.0
1001
ACAD
1000
AcDbSavedByObjectVersion
1070
     0
  0
VISUALSTYLE
  5
30
102
{ACAD_REACTORS
330
2A
102
}
330
2A
100
AcDbVisualStyle
  2
3dWireframe
 70
     5
 71
     0
 72
     2
 73
     0
 90
        0
 40
-0.6
 41
-30.0
 62
     5
 63
     7
 74
     1
 91
        4
 64
     7
 65
   257
 75
     1
175
     1
 42
1.0
 92
        0
 66
   257
 43
1.0
 76
     1
 77
     6
 78
     2
 67
     7
 79
     5
170
     0
171
     0
290
     0
174
     0
 93
        1
 44
0.0
173
     0
291
     0
 45
0.0
1001
ACAD
1000
AcDbSavedByObjectVersion
1070
     0
  0
VISUALSTYLE
  5
32
102
{ACAD_REACTORS
330
2A
102
}
330
2A
100
AcDbVisualStyle
  2
Basic
 70
     7
 71
     1
 72
     0
 73
     1
 90
        0
 40
-0.6
 41
-30.0
 62
     5
 63
     7
 74
     0
 91
        4
 64
     7
 65
   257
 75
     1
175
     1
 42
1.0
 92
        8
 66
     7
 43
1.0
 76
     1
 77
     6
 78
     2
 67
     7
 79
     5
170
     0
171
     0
290
     0
174
     0
 93
        1
 44
0.0
173
     0
291
     1
 45
0.0
1001
ACAD
1000
AcDbSavedByObjectVersion
1070
     0
  0
VISUALSTYLE
  5
36
102
{ACAD_REACTORS
330
2A
102
}
330
2A
100
AcDbVisualStyle
  2
Brighten
 70
    12
 71
     2
 72
     2
 73
     0
 90
        0
 40
-0.6
 41
-30.0
 62
     5
 63
     7
 74
     1
 91
        4
 64
     7
 65
   257
 75
     1
175
     1
 42
1.0
 92
        8
 66
     7
 43
1.0
 76
     1
 77
     6
 78
     2
 67
     7
 79
     5
170
     0
171
     0
290
     0
174
     0
 93
        1
 44
50.0
173
     0
291
     1
 45
0.0
1001
ACAD
1000
AcDbSavedByObjectVersion
1070
     0
  0
VISUALSTYLE
  5
3A
102
{ACAD_REACTORS
330
2A
102
}
330
2A
100
AcDbVisualStyle
  2
ColorChange
 70
    16
 71
     2
 72
     2
 73
     3
 90
        0
 40
-0.6
 41
-30.0
 62
     5
 63
     8
 74
     1
 91
        4
 64
     7
 65
   257
 75
     1
175
     1
 42
1.0
 92
        8
 66
     8
 43
1.0
 76
     1
 77
     6
 78
     2
 67
     7
 79
     5
170
     0
171
     0
290
     0
174
     0
 93
        1
 44
0.0
173
     0
291
     1
 45
0.0
1001
ACAD
1000
AcDbSavedByObjectVersion
1070
     0
  0
VISUALSTYLE
  5
34
102
{ACAD_REACTORS
330
2A
102
}
330
2A
100
AcDbVisualStyle
  2
Conceptual
 70
     9
 71
     3
 72
     2
 73
     0
 90
        0
 40
-0.6
 41
-30.0
 62
     5
 63
     7
 74
     2
 91
        2
 64
     7
 65
   257
 75
     1
175
     1
 42
40.0
 92
        8
 66
     7
 43
1.0
 76
     1
 77
     6
 78
     2
 67
     7
 79
     3
170
     0
171
     0
290
     0
174
     0
 93
        1
 44
0.0
173
     0
291
     0
 45
0.0
1001
ACAD
1000
AcDbSavedByObjectVersion
1070
     0
  0
VISUALSTYLE
  5
35
102
{ACAD_REACTORS
330
2A
102
}
330
2A
100
AcDbVisualStyle
  2
Dim
 70
    11
 71
     2
 72
     2
 73
     0
 90
        0
 40
-0.6
 41
-30.0
 62
     5
 63
     7
 74
     1
 91
        4
 64
     7
 65
   257
 75
     1
175
     1
 42
1.0
 92
        8
 66
     7
 43
1.0
 76
     1
 77
     6
 78
     2
 67
     7
 79
     5
170
     0
171
     0
290
     0
174
     0
 93
        1
 44
-50.0
173
     0
291
     1
 45
0.0
1001
ACAD
1000
AcDbSavedByObjectVersion
1070
     0
  0
VISUALSTYLE
  5
39
102
{ACAD_REACTORS
330
2A
102
}
330
2A
100
AcDbVisualStyle
  2
Facepattern
 70
    15
 71
     2
 72
     2
 73
     0
 90
        0
 40
-0.6
 41
-30.0
 62
     5
 63
     7
 74
     1
 91
        4
 64
     7
 65
   257
 75
     1
175
     1
 42
1.0
 92
        8
 66
     7
 43
1.0
 76
     1
 77
     6
 78
     2
 67
     7
 79
     5
170
     0
171
     0
290
     0
174
     0
 93
        1
 44
0.0
173
     0
291
     1
 45
0.0
1001
ACAD
1000
AcDbSavedByObjectVersion
1070
     0
  0
VISUALSTYLE
  5
2B
102
{ACAD_REACTORS
330
2A
102
}
330
2A
100
AcDbVisualStyle
  2
Flat
 70
     0
 71
     2
 72
     1
 73
     1
 90
        2
 40
-0.6
 41
30.0
 62
     5
 63
     7
 74
     0
 91
        4
 64
     7
 65
   257
 75
     1
175
     1
 42
1.0
 92
        8
 66
     7
 43
1.0
 76
     1
 77
     6
 78
     2
 67
     7
 79
     5
170
     0
171
     0
290
     0
174
     0
 93
       13
 44
0.0
173
     0
291
     1
 45
0.0
1001
ACAD
1000
AcDbSavedByObjectVersion
1070
     0
  0
VISUALSTYLE
  5
2C
102
{ACAD_REACTORS
330
2A
102
}
330
2A
100
AcDbVisualStyle
  2
FlatWithEdges
 70
     1
 71
     2
 72
     1
 73
     1
 90
        2
 40
-0.6
 41
30.0
 62
     5
 63
     7
 74
     1
 91
        4
 64
     7
 65
   257
 75
     1
175
     1
 42
1.0
 92
        0
 66
   257
 43
1.0
 76
     1
 77
     6
 78
     2
 67
     7
 79
     5
170
     0
171
     0
290
     0
174
     0
 93
       13
 44
0.0
173
     0
291
     1
 45
0.0
1001
ACAD
1000
AcDbSavedByObjectVersion
1070
     0
  0
VISUALSTYLE
  5
2D
102
{ACAD_REACTORS
330
2A
102
}
330
2A
100
AcDbVisualStyle
  2
Gouraud
 70
     2
 71
     2
 72
     2
 73
     1
 90
        2
 40
-0.6
 41
30.0
 62
     5
 63
     7
 74
     0
 91
        4
 64
     7
 65
   257
 75
     1
175
     1
 42
1.0
 92
        0
 66
     7
 43
1.0
 76
     1
 77
     6
 78
     2
 67
     7
 79
     5
170
     0
171
     0
290
     0
174
     0
 93
       13
 44
0.0
173
     0
291
     1
 45
0.0
1001
ACAD
1000
AcDbSavedByObjectVersion
1070
     0
  0
VISUALSTYLE
  5
2E
102
{ACAD_REACTORS
330
2A
102
}
330
2A
100
AcDbVisualStyle
  2
GouraudWithEdges
 70
     3
 71
     2
 72
     2
 73
     1
 90
        2
 40
-0.6
 41
30.0
 62
     5
 63
     7
 74
     1
 91
        4
 64
     7
 65
   257
 75
     1
175
     1
 42
1.0
 92
        0
 66
   257
 43
1.0
 76
     1
 77
     6
 78
     2
 67
     7
 79
     5
170
     0
171
     0
290
     0
174
     0
 93
       13
 44
0.0
173
     0
291
     1
 45
0.0
1001
ACAD
1000
AcDbSavedByObjectVersion
1070
     0
  0
VISUALSTYLE
  5
38
102
{ACAD_REACTORS
330
2A
102
}
330
2A
100
AcDbVisualStyle
  2
Linepattern
 70
    14
 71
     2
 72
     2
 73
     0
 90
        0
 40
-0.6
 41
-30.0
 62
     5
 63
     7
 74
     1
 91
        4
 64
     7
 65
   257
 75
     7
175
     7
 42
1.0
 92
        8
 66
     7
 43
1.0
 76
     1
 77
     6
 78
     2
 67
     7
 79
     5
170
     0
171
     0
290
     0
174
     0
 93
        1
 44
0.0
173
     0
291
     1
 45
0.0
1001
ACAD
1000
AcDbSavedByObjectVersion
1070
     0
  0
VISUALSTYLE
  5
33
102
{ACAD_REACTORS
330
2A
102
}
330
2A
100
AcDbVisualStyle
  2
Realistic
 70
     8
 71
     2
 72
     2
 73
     0
 90
        0
 40
-0.6
 41
-30.0
 62
     5
 63
     7
 74
     1
 91
        0
 64
     7
 65
   257
 75
     1
175
     1
 42
1.0
 92
        8
 66
     8
 43
1.0
 76
     1
 77
     6
 78
     2
 67
     7
 79
     5
170
     0
171
     0
290
     0
174
     0
 93
       13
 44
0.0
173
     0
291
     0
 45
0.0
1001
ACAD
1000
AcDbSavedByObjectVersion
1070
     0
  0
VISUALSTYLE
  5
37
102
{ACAD_REACTORS
330
2A
102
}
330
2A
100
AcDbVisualStyle
  2
Thicken
 70
    13
 71
     2
 72
     2
 73
     0
 90
        0
 40
-0.6
 41
-30.0
 62
     5
 63
     7
 74
     1
 91
        4
 64
     7
 65
   257
 75
     1
175
     1
 42
1.0
 92
       12
 66
     7
 43
1.0
 76
     1
 77
     6
 78
     2
 67
     7
 79
     5
170
     0
171
     0
290
     0
174
     0
 93
        1
 44
0.0
173
     0
291
     1
 45
0.0
1001
ACAD
1000
AcDbSavedByObjectVersion
1070
     0
  0
DICTIONARYVAR
  5
21B
102
{ACAD_REACTORS
330
21A
102
}
330
21A
100
DictionaryVariables
280
     0
  1
1:1
  0
DICTIONARYVAR
  5
21F
102
{ACAD_REACTORS
330
21A
102
}
330
21A
100
DictionaryVariables
280
     0
  1
80.000000
  0
DICTIONARYVAR
  5
21E
102
{ACAD_REACTORS
330
21A
102
}
330
21A
100
DictionaryVariables
280
     0
  1
5.000000
  0
ENDSEC
  0
EOF
