  0
SECTION
  2
HEADER
  9
$ACADVER
  1
AC1015
  9
$ACADMAINTVER
 70
     6
  9
$DWGCODEPAGE
  3
ANSI_1252
  9
$INSBASE
 10
0.0
 20
0.0
 30
0.0
  9
$EXTMIN
 10
0.0
 20
0.0
 30
0.0
  9
$EXTMAX
 10
1682.0
 20
2378.0
 30
0.0
  9
$LIMMIN
 10
0.0
 20
0.0
  9
$LIMMAX
 10
1682.0
 20
2378.0
  9
$ORTHOMODE
 70
     0
  9
$REGENMODE
 70
     1
  9
$FILLMODE
 70
     1
  9
$QTEXTMODE
 70
     0
  9
$MIRRTEXT
 70
     1
  9
$LTSCALE
 40
1.0
  9
$ATTMODE
 70
     1
  9
$TEXTSIZE
 40
2.5
  9
$TRACEWID
 40
1.0
  9
$TEXTSTYLE
  7
Standard
  9
$CLAYER
  8
0
  9
$CELTYPE
  6
ByLayer
  9
$CECOLOR
 62
   256
  9
$CELTSCALE
 40
1.0
  9
$DISPSILH
 70
     0
  9
$DIMSCALE
 40
1.0
  9
$DIMASZ
 40
2.5
  9
$DIMEXO
 40
0.625
  9
$DIMDLI
 40
3.75
  9
$DIMRND
 40
0.0
  9
$DIMDLE
 40
0.0
  9
$DIMEXE
 40
1.25
  9
$DIMTP
 40
0.0
  9
$DIMTM
 40
0.0
  9
$DIMTXT
 40
2.5
  9
$DIMCEN
 40
2.5
  9
$DIMTSZ
 40
0.0
  9
$DIMTOL
 70
     0
  9
$DIMLIM
 70
     0
  9
$DIMTIH
 70
     0
  9
$DIMTOH
 70
     0
  9
$DIMSE1
 70
     0
  9
$DIMSE2
 70
     0
  9
$DIMTAD
 70
     1
  9
$DIMZIN
 70
     8
  9
$DIMBLK
  1

  9
$DIMASO
 70
     1
  9
$DIMSHO
 70
     1
  9
$DIMPOST
  1

  9
$DIMAPOST
  1

  9
$DIMALT
 70
     0
  9
$DIMALTD
 70
     3
  9
$DIMALTF
 40
0.0393700787
  9
$DIMLFAC
 40
1.0
  9
$DIMTOFL
 70
     1
  9
$DIMTVP
 40
0.0
  9
$DIMTIX
 70
     0
  9
$DIMSOXD
 70
     0
  9
$DIMSAH
 70
     0
  9
$DIMBLK1
  1

  9
$DIMBLK2
  1

  9
$DIMSTYLE
  2
ISO-25
  9
$DIMCLRD
 70
     0
  9
$DIMCLRE
 70
     0
  9
$DIMCLRT
 70
     0
  9
$DIMTFAC
 40
1.0
  9
$DIMGAP
 40
0.625
  9
$DIMJUST
 70
     0
  9
$DIMSD1
 70
     0
  9
$DIMSD2
 70
     0
  9
$DIMTOLJ
 70
     0
  9
$DIMTZIN
 70
     8
  9
$DIMALTZ
 70
     0
  9
$DIMALTTZ
 70
     0
  9
$DIMUPT
 70
     0
  9
$DIMDEC
 70
     2
  9
$DIMTDEC
 70
     2
  9
$DIMALTU
 70
     2
  9
$DIMALTTD
 70
     3
  9
$DIMTXSTY
  7
Standard
  9
$DIMAUNIT
 70
     0
  9
$DIMADEC
 70
     0
  9
$DIMALTRND
 40
0.0
  9
$DIMAZIN
 70
     0
  9
$DIMDSEP
 70
    44
  9
$DIMATFIT
 70
     3
  9
$DIMFRAC
 70
     0
  9
$DIMLDRBLK
  1

  9
$DIMLUNIT
 70
     2
  9
$DIMLWD
 70
    -2
  9
$DIMLWE
 70
    -2
  9
$DIMTMOVE
 70
     0
  9
$LUNITS
 70
     2
  9
$LUPREC
 70
     4
  9
$SKETCHINC
 40
1.0
  9
$FILLETRAD
 40
10.0
  9
$AUNITS
 70
     0
  9
$AUPREC
 70
     0
  9
$MENU
  1
.
  9
$ELEVATION
 40
0.0
  9
$PELEVATION
 40
0.0
  9
$THICKNESS
 40
0.0
  9
$LIMCHECK
 70
     0
  9
$CHAMFERA
 40
10.0
  9
$CHAMFERB
 40
10.0
  9
$CHAMFERC
 40
20.0
  9
$CHAMFERD
 40
0.0
  9
$SKPOLY
 70
     0
  9
$TDCREATE
 40
2455545.606365093
  9
$TDUCREATE
 40
2455545.564698426
  9
$TDUPDATE
 40
2455545.606365104
  9
$TDUUPDATE
 40
2455545.564698438
  9
$TDINDWG
 40
0.0000000116
  9
$TDUSRTIMER
 40
0.0000000116
  9
$USRTIMER
 70
     1
  9
$ANGBASE
 50
0.0
  9
$ANGDIR
 70
     0
  9
$PDMODE
 70
     0
  9
$PDSIZE
 40
0.0
  9
$PLINEWID
 40
0.0
  9
$SPLFRAME
 70
     0
  9
$SPLINETYPE
 70
     6
  9
$SPLINESEGS
 70
     8
  9
$HANDSEED
  5
227
  9
$SURFTAB1
 70
     6
  9
$SURFTAB2
 70
     6
  9
$SURFTYPE
 70
     6
  9
$SURFU
 70
     6
  9
$SURFV
 70
     6
  9
$UCSBASE
  2

  9
$UCSNAME
  2

  9
$UCSORG
 10
0.0
 20
0.0
 30
0.0
  9
$UCSXDIR
 10
1.0
 20
0.0
 30
0.0
  9
$UCSYDIR
 10
0.0
 20
1.0
 30
0.0
  9
$UCSORTHOREF
  2

  9
$UCSORTHOVIEW
 70
     0
  9
$UCSORGTOP
 10
0.0
 20
0.0
 30
0.0
  9
$UCSORGBOTTOM
 10
0.0
 20
0.0
 30
0.0
  9
$UCSORGLEFT
 10
0.0
 20
0.0
 30
0.0
  9
$UCSORGRIGHT
 10
0.0
 20
0.0
 30
0.0
  9
$UCSORGFRONT
 10
0.0
 20
0.0
 30
0.0
  9
$UCSORGBACK
 10
0.0
 20
0.0
 30
0.0
  9
$PUCSBASE
  2

  9
$PUCSNAME
  2

  9
$PUCSORG
 10
0.0
 20
0.0
 30
0.0
  9
$PUCSXDIR
 10
1.0
 20
0.0
 30
0.0
  9
$PUCSYDIR
 10
0.0
 20
1.0
 30
0.0
  9
$PUCSORTHOREF
  2

  9
$PUCSORTHOVIEW
 70
     0
  9
$PUCSORGTOP
 10
0.0
 20
0.0
 30
0.0
  9
$PUCSORGBOTTOM
 10
0.0
 20
0.0
 30
0.0
  9
$PUCSORGLEFT
 10
0.0
 20
0.0
 30
0.0
  9
$PUCSORGRIGHT
 10
0.0
 20
0.0
 30
0.0
  9
$PUCSORGFRONT
 10
0.0
 20
0.0
 30
0.0
  9
$PUCSORGBACK
 10
0.0
 20
0.0
 30
0.0
  9
$USERI1
 70
     0
  9
$USERI2
 70
     0
  9
$USERI3
 70
     0
  9
$USERI4
 70
     0
  9
$USERI5
 70
     0
  9
$USERR1
 40
0.0
  9
$USERR2
 40
0.0
  9
$USERR3
 40
0.0
  9
$USERR4
 40
0.0
  9
$USERR5
 40
0.0
  9
$WORLDVIEW
 70
     1
  9
$SHADEDGE
 70
     3
  9
$SHADEDIF
 70
    70
  9
$TILEMODE
 70
     1
  9
$MAXACTVP
 70
    64
  9
$PINSBASE
 10
0.0
 20
0.0
 30
0.0
  9
$PLIMCHECK
 70
     0
  9
$PEXTMIN
 10
0.0
 20
0.0
 30
0.0
  9
$PEXTMAX
 10
1682.0
 20
2378.0
 30
0.0
  9
$PLIMMIN
 10
0.0
 20
0.0
  9
$PLIMMAX
 10
1682.0
 20
2378.0
  9
$UNITMODE
 70
     0
  9
$VISRETAIN
 70
     1
  9
$PLINEGEN
 70
     0
  9
$PSLTSCALE
 70
     1
  9
$TREEDEPTH
 70
  3020
  9
$CMLSTYLE
  2
Standard
  9
$CMLJUST
 70
     0
  9
$CMLSCALE
 40
20.0
  9
$PROXYGRAPHICS
 70
     1
  9
$MEASUREMENT
 70
     1
  9
$CELWEIGHT
370
    -1
  9
$ENDCAPS
280
     0
  9
$JOINSTYLE
280
     0
  9
$LWDISPLAY
290
     0
  9
$INSUNITS
 70
     4
  9
$HYPERLINKBASE
  1

  9
$STYLESHEET
  1

  9
$XEDIT
290
     1
  9
$CEPSNTYPE
380
     0
  9
$PSTYLEMODE
290
     1
  9
$FINGERPRINTGUID
  2
{EF7592E1-71A5-40A5-ABCF-8C353B66B53C}
  9
$VERSIONGUID
  2
{FAEB1C32-E019-11D5-929B-00C0DF256EC4}
  9
$EXTNAMES
290
     1
  9
$PSVPSCALE
 40
0.0
  9
$OLESTARTUP
290
     0
  0
ENDSEC
  0
SECTION
  2
CLASSES
  0
CLASS
  1
ACDBDICTIONARYWDFLT
  2
AcDbDictionaryWithDefault
  3
ObjectDBX Classes
 90
        0
280
     0
281
     0
  0
CLASS
  1
VISUALSTYLE
  2
AcDbVisualStyle
  3
ObjectDBX Classes
 90
     4095
280
     0
281
     0
  0
CLASS
  1
SCALE
  2
AcDbScale
  3
ObjectDBX Classes
 90
     1153
280
     0
281
     0
  0
CLASS
  1
DICTIONARYVAR
  2
AcDbDictionaryVar
  3
ObjectDBX Classes
 90
        0
280
     0
281
     0
  0
CLASS
  1
ACDBPLACEHOLDER
  2
AcDbPlaceHolder
  3
ObjectDBX Classes
 90
        0
280
     0
281
     0
  0
CLASS
  1
LAYOUT
  2
AcDbLayout
  3
ObjectDBX Classes
 90
        0
280
     0
281
     0
  0
ENDSEC
  0
SECTION
  2
TABLES
  0
TABLE
  2
VPORT
  5
8
330
0
100
AcDbSymbolTable
 70
     1
  0
VPORT
  5
29
330
8
100
AcDbSymbolTableRecord
100
AcDbViewportTableRecord
  2
*Active
 70
     0
 10
0.0
 20
0.0
 11
1.0
 21
1.0
 12
344.1869158879
 22
148.5
 13
0.0
 23
0.0
 14
10.0
 24
10.0
 15
10.0
 25
10.0
 16
0.0
 26
0.0
 36
1.0
 17
0.0
 27
0.0
 37
0.0
 40
297.0
 41
1.9729729729
 42
50.0
 43
0.0
 44
0.0
 50
0.0
 51
0.0
 71
     0
 72
   100
 73
     1
 74
     3
 75
     0
 76
     0
 77
     0
 78
     0
281
     0
 65
     1
110
0.0
120
0.0
130
0.0
111
1.0
121
0.0
131
0.0
112
0.0
122
1.0
132
0.0
 79
     0
146
0.0
  0
ENDTAB
  0
TABLE
  2
LTYPE
  5
5
330
0
100
AcDbSymbolTable
 70
     2
  0
LTYPE
  5
14
330
5
100
AcDbSymbolTableRecord
100
AcDbLinetypeTableRecord
  2
ByBlock
 70
     0
  3

 72
    65
 73
     0
 40
0.0
  0
LTYPE
  5
15
330
5
100
AcDbSymbolTableRecord
100
AcDbLinetypeTableRecord
  2
ByLayer
 70
     0
  3

 72
    65
 73
     0
 40
0.0
  0
LTYPE
  5
16
330
5
100
AcDbSymbolTableRecord
100
AcDbLinetypeTableRecord
  2
Continuous
 70
     0
  3
Solid line
 72
    65
 73
     0
 40
0.0
  0
LTYPE
  5
60
330
5
100
AcDbSymbolTableRecord
100
AcDbLinetypeTableRecord
  2
CENTER2
 70
     0
  3
Center (.5x) ___ _ ___ _ ___ _ ___ _ ___ _ ___
 72
    65
 73
     4
 40
28.575
 49
19.05
 74
     4
 75
     0
340
0
 46
0.0
 50
0.0
 44
0.0
 45
0.0
 49
-3.175
 74
     4
 75
     0
340
0
 46
0.0
 50
0.0
 44
0.0
 45
0.0
 49
3.175
 74
     4
 75
     0
340
0
 46
0.0
 50
0.0
 44
0.0
 45
0.0
 49
-3.175
 74
     4
 75
     0
340
0
 46
0.0
 50
0.0
 44
0.0
 45
0.0
  0
ENDTAB
  0
TABLE
  2
LAYER
  5
2
330
0
100
AcDbSymbolTable
 70
    12
  0
LAYER
  5
10
330
2
100
AcDbSymbolTableRecord
100
AcDbLayerTableRecord
  2
0
 70
     0
 62
     7
  6
Continuous
370
    -3
390
F
  0
LAYER
  5
5D
330
2
100
AcDbSymbolTableRecord
100
AcDbLayerTableRecord
  2
Default
 70
     0
 62
     7
  6
Continuous
370
    -3
390
F
  0
LAYER
  5
77
330
2
100
AcDbSymbolTableRecord
100
AcDbLayerTableRecord
  2
$DDT_AUDIT_GENERATED_(77)
 70
     0
 62
     7
  6
Continuous
370
    -3
390
F
  0
LAYER
  5
87
330
2
100
AcDbSymbolTableRecord
100
AcDbLayerTableRecord
  2
$DDT_AUDIT_GENERATED_(87)
 70
     0
 62
     7
  6
Continuous
370
    -3
390
F
  0
LAYER
  5
8F
330
2
100
AcDbSymbolTableRecord
100
AcDbLayerTableRecord
  2
$DDT_AUDIT_GENERATED_(8F)
 70
     0
 62
     7
  6
Continuous
370
    -3
390
F
  0
LAYER
  5
A7
330
2
100
AcDbSymbolTableRecord
100
AcDbLayerTableRecord
  2
02636038_GEHÄUSE
 70
     0
 62
     7
  6
Continuous
370
    -3
390
F
  0
LAYER
  5
B9
330
2
100
AcDbSymbolTableRecord
100
AcDbLayerTableRecord
  2
$DDT_AUDIT_GENERATED_(B9)
 70
     0
 62
     7
  6
Continuous
370
    -3
390
F
  0
LAYER
  5
168
330
2
100
AcDbSymbolTableRecord
100
AcDbLayerTableRecord
  2
$DDT_AUDIT_GENERATED_(168)
 70
     0
 62
     7
  6
Continuous
370
    -3
390
F
  0
LAYER
  5
178
330
2
100
AcDbSymbolTableRecord
100
AcDbLayerTableRecord
  2
DV1_Standard
 70
     0
 62
     7
  6
Continuous
370
    -3
390
F
  0
LAYER
  5
1BC
330
2
100
AcDbSymbolTableRecord
100
AcDbLayerTableRecord
  2
DV2_Standard
 70
     0
 62
     7
  6
Continuous
370
    -3
390
F
  0
LAYER
  5
1FA
330
2
100
AcDbSymbolTableRecord
100
AcDbLayerTableRecord
  2
$DDT_AUDIT_GENERATED_(1FA)
 70
     0
 62
     7
  6
Continuous
370
    -3
390
F
  0
LAYER
  5
20E
330
2
100
AcDbSymbolTableRecord
100
AcDbLayerTableRecord
  2
$DDT_AUDIT_GENERATED_(20E)
 70
     0
 62
     7
  6
Continuous
370
    -3
390
F
  0
ENDTAB
  0
TABLE
  2
STYLE
  5
3
330
0
100
AcDbSymbolTable
 70
     2
  0
STYLE
  5
11
330
3
100
AcDbSymbolTableRecord
100
AcDbTextStyleTableRecord
  2
Standard
 70
     0
 40
0.0
 41
1.0
 50
0.0
 71
     0
 42
2.5
  3
txt
  4

  0
STYLE
  5
216
330
3
100
AcDbSymbolTableRecord
100
AcDbTextStyleTableRecord
  2
SEACAD_seiso_ttf
 70
     0
 40
0.0
 41
1.0
 50
0.0
 71
     0
 42
0.2
  3
seiso.ttf
  4

  0
ENDTAB
  0
TABLE
  2
VIEW
  5
6
330
0
100
AcDbSymbolTable
 70
     0
  0
ENDTAB
  0
TABLE
  2
UCS
  5
7
330
0
100
AcDbSymbolTable
 70
     0
  0
ENDTAB
  0
TABLE
  2
APPID
  5
9
330
0
100
AcDbSymbolTable
 70
     1
  0
APPID
  5
12
330
9
100
AcDbSymbolTableRecord
100
AcDbRegAppTableRecord
  2
ACAD
 70
     0
  0
ENDTAB
  0
TABLE
  2
DIMSTYLE
  5
A
330
0
100
AcDbSymbolTable
 70
     1
100
AcDbDimStyleTable
  0
DIMSTYLE
105
27
330
A
100
AcDbSymbolTableRecord
100
AcDbDimStyleTableRecord
  2
ISO-25
 70
     0
 41
2.5
 42
0.625
 43
3.75
 44
1.25
 73
     0
 74
     0
 77
     1
 78
     8
140
2.5
141
2.5
143
0.0393700787
147
0.625
171
     3
172
     1
271
     2
272
     2
274
     3
278
    44
283
     0
284
     8
340
11
  0
ENDTAB
  0
TABLE
  2
BLOCK_RECORD
  5
1
330
0
100
AcDbSymbolTable
 70
     7
  0
BLOCK_RECORD
  5
1F
330
1
100
AcDbSymbolTableRecord
100
AcDbBlockTableRecord
  2
*Model_Space
340
22
  0
BLOCK_RECORD
  5
1B
330
1
100
AcDbSymbolTableRecord
100
AcDbBlockTableRecord
  2
*Paper_Space
340
1E
  0
BLOCK_RECORD
  5
5E
330
1
100
AcDbSymbolTableRecord
100
AcDbBlockTableRecord
  2
SEANNOT_GROUP
340
0
102
{BLKREFS
331
5F
102
}
  0
BLOCK_RECORD
  5
65
330
1
100
AcDbSymbolTableRecord
100
AcDbBlockTableRecord
  2
SEANNOT_GROUP1
340
0
102
{BLKREFS
331
66
102
}
  0
BLOCK_RECORD
  5
6B
330
1
100
AcDbSymbolTableRecord
100
AcDbBlockTableRecord
  2
SEANNOT_GROUP2
340
0
102
{BLKREFS
331
6C
102
}
  0
BLOCK_RECORD
  5
75
330
1
100
AcDbSymbolTableRecord
100
AcDbBlockTableRecord
  2
SE
340
0
102
{BLKREFS
331
76
102
}
  0
BLOCK_RECORD
  5
17C
330
1
100
AcDbSymbolTableRecord
100
AcDbBlockTableRecord
  2
SE1
340
0
102
{BLKREFS
331
17D
102
}
  0
BLOCK_RECORD
  5
1C0
330
1
100
AcDbSymbolTableRecord
100
AcDbBlockTableRecord
  2
SE2
340
0
102
{BLKREFS
331
1C1
102
}
  0
ENDTAB
  0
ENDSEC
  0
SECTION
  2
BLOCKS
  0
BLOCK
  5
20
330
1F
100
AcDbEntity
  8
0
100
AcDbBlockBegin
  2
*Model_Space
 70
     0
 10
0.0
 20
0.0
 30
0.0
  3
*Model_Space
  1

  0
ENDBLK
  5
21
330
1F
100
AcDbEntity
  8
0
100
AcDbBlockEnd
  0
BLOCK
  5
1C
330
1B
100
AcDbEntity
 67
     1
  8
0
100
AcDbBlockBegin
  2
*Paper_Space
 70
     0
 10
0.0
 20
0.0
 30
0.0
  3
*Paper_Space
  1

  0
ENDBLK
  5
1D
330
1B
100
AcDbEntity
 67
     1
  8
0
100
AcDbBlockEnd
  0
BLOCK
  5
63
330
5E
100
AcDbEntity
  8
0
100
AcDbBlockBegin
  2
SEANNOT_GROUP
 70
     0
 10
0.0
 20
0.0
 30
0.0
  3
SEANNOT_GROUP
  1

  0
LINE
  5
61
330
5E
100
AcDbEntity
  8
Default
  6
CENTER2
 62
     7
100
AcDbLine
 10
96.4936806022
 20
449.8958762963
 30
0.0
 11
56.4936814962
 21
449.8958762963
 31
0.0
  0
LINE
  5
62
330
5E
100
AcDbEntity
  8
Default
  6
CENTER2
 62
     7
100
AcDbLine
 10
76.4936810492
 20
469.8958758493
 30
0.0
 11
76.4936810492
 21
429.8958767434
 31
0.0
  0
ENDBLK
  5
64
330
5E
100
AcDbEntity
  8
0
100
AcDbBlockEnd
  0
BLOCK
  5
69
330
65
100
AcDbEntity
  8
0
100
AcDbBlockBegin
  2
SEANNOT_GROUP1
 70
     0
 10
0.0
 20
0.0
 30
0.0
  3
SEANNOT_GROUP1
  1

  0
LINE
  5
67
330
65
100
AcDbEntity
  8
Default
  6
CENTER2
 62
     7
100
AcDbLine
 10
279.0584374437
 20
449.7958762963
 30
0.0
 11
239.0584383378
 21
449.7958762963
 31
0.0
  0
LINE
  5
68
330
65
100
AcDbEntity
  8
Default
  6
CENTER2
 62
     7
100
AcDbLine
 10
259.0584378908
 20
469.7958758493
 30
0.0
 11
259.0584378908
 21
429.7958767434
 31
0.0
  0
ENDBLK
  5
6A
330
65
100
AcDbEntity
  8
0
100
AcDbBlockEnd
  0
BLOCK
  5
73
330
6B
100
AcDbEntity
  8
0
100
AcDbBlockBegin
  2
SEANNOT_GROUP2
 70
     0
 10
0.0
 20
0.0
 30
0.0
  3
SEANNOT_GROUP2
  1

  0
LINE
  5
6D
330
6B
100
AcDbEntity
  8
Default
  6
CENTER2
 62
     7
100
AcDbLine
 10
96.5936806022
 20
334.123832075
 30
0.0
 11
56.5936814962
 21
334.123832075
 31
0.0
  0
LINE
  5
6E
330
6B
100
AcDbEntity
  8
Default
  6
CENTER2
 62
     7
100
AcDbLine
 10
76.5936810492
 20
354.123831628
 30
0.0
 11
76.5936810492
 21
314.123832522
 31
0.0
  0
LINE
  5
6F
330
6B
100
AcDbEntity
  8
Default
  6
CENTER2
 62
     7
100
AcDbLine
 10
101.5936804904
 20
334.123832075
 30
0.0
 11
106.8936810492
 21
334.123832075
 31
0.0
  0
LINE
  5
70
330
6B
100
AcDbEntity
  8
Default
  6
CENTER2
 62
     7
100
AcDbLine
 10
76.5936810492
 20
359.1238315162
 30
0.0
 11
76.5936810492
 21
364.423832075
 31
0.0
  0
LINE
  5
71
330
6B
100
AcDbEntity
  8
Default
  6
CENTER2
 62
     7
100
AcDbLine
 10
51.593681608
 20
334.123832075
 30
0.0
 11
46.2936810492
 21
334.123832075
 31
0.0
  0
LINE
  5
72
330
6B
100
AcDbEntity
  8
Default
  6
CENTER2
 62
     7
100
AcDbLine
 10
76.5936810492
 20
309.1238326338
 30
0.0
 11
76.5936810492
 21
303.823832075
 31
0.0
  0
ENDBLK
  5
74
330
6B
100
AcDbEntity
  8
0
100
AcDbBlockEnd
  0
BLOCK
  5
17A
330
75
100
AcDbEntity
  8
0
100
AcDbBlockBegin
  2
SE
 70
     0
 10
0.0
 20
0.0
 30
0.0
  3
SE
  1

  0
LINE
  5
78
330
75
100
AcDbEntity
  8
$DDT_AUDIT_GENERATED_(77)
  6
Continuous
 62
     7
100
AcDbLine
 10
50.7936810492
 20
560.7958762963
 30
0.0
 11
102.3936810492
 21
560.7958762963
 31
0.0
  0
LINE
  5
79
330
75
100
AcDbEntity
  8
$DDT_AUDIT_GENERATED_(77)
  6
Continuous
 62
     7
100
AcDbLine
 10
130.247361099
 20
487.5458762963
 30
0.0
 11
130.247361099
 21
535.0458762963
 31
0.0
  0
LINE
  5
7A
330
75
100
AcDbEntity
  8
$DDT_AUDIT_GENERATED_(77)
  6
Continuous
 62
     7
100
AcDbLine
 10
103.3936810492
 20
538.5779002719
 30
0.0
 11
103.3936810492
 21
559.7958762963
 31
0.0
  0
LINE
  5
7B
330
75
100
AcDbEntity
  8
$DDT_AUDIT_GENERATED_(77)
  6
Continuous
 62
     7
100
AcDbLine
 10
103.3936810492
 20
449.9958762963
 30
0.0
 11
103.3936810492
 21
484.0113453
 31
0.0
  0
LINE
  5
7C
330
75
100
AcDbEntity
  8
$DDT_AUDIT_GENERATED_(77)
  6
Continuous
 62
     7
100
AcDbLine
 10
49.7936810492
 20
559.7958762963
 30
0.0
 11
49.7936810492
 21
449.9958762963
 31
0.0
  0
LINE
  5
7D
330
75
100
AcDbEntity
  8
$DDT_AUDIT_GENERATED_(77)
  6
Continuous
 62
     7
100
AcDbLine
 10
106.9243465673
 20
487.5458762963
 30
0.0
 11
130.247361099
 21
487.5458762963
 31
0.0
  0
LINE
  5
7E
330
75
100
AcDbEntity
  8
$DDT_AUDIT_GENERATED_(77)
  6
Continuous
 62
     7
100
AcDbLine
 10
130.247361099
 20
535.0458762963
 30
0.0
 11
106.9212558315
 21
535.0458762963
 31
0.0
  0
ARC
  5
7F
330
75
100
AcDbEntity
  8
$DDT_AUDIT_GENERATED_(77)
  6
Continuous
 62
     7
100
AcDbCircle
 10
106.9287184697
 20
538.5808886755
 30
0.0
 40
3.535899078300737
100
AcDbArc
 50
180.0060521781
 51
269.9942178814
  0
ARC
  5
80
330
75
100
AcDbEntity
  8
$DDT_AUDIT_GENERATED_(77)
  6
Continuous
 62
     7
100
AcDbCircle
 10
106.9296327192
 20
484.0098177154
 30
0.0
 40
3.535404924933485
100
AcDbArc
 50
89.9981458841
 51
180.0023674551
  0
ARC
  5
81
330
75
100
AcDbEntity
  8
$DDT_AUDIT_GENERATED_(77)
  6
Continuous
 62
     7
100
AcDbCircle
 10
103.1936810492
 20
449.9958762963
 30
0.0
 40
0.2000000000000028
100
AcDbArc
 50
270.0
 51
0.0
  0
ARC
  5
82
330
75
100
AcDbEntity
  8
$DDT_AUDIT_GENERATED_(77)
  6
Continuous
 62
     7
100
AcDbCircle
 10
49.9936810492
 20
449.9958762963
 30
0.0
 40
0.1999999999999988
100
AcDbArc
 50
180.0
 51
270.0
  0
ARC
  5
83
330
75
100
AcDbEntity
  8
$DDT_AUDIT_GENERATED_(77)
  6
Continuous
 62
     7
100
AcDbCircle
 10
102.3936810492
 20
559.7958762963
 30
0.0
 40
0.9999999999999974
100
AcDbArc
 50
0.0
 51
90.0
  0
ARC
  5
84
330
75
100
AcDbEntity
  8
$DDT_AUDIT_GENERATED_(77)
  6
Continuous
 62
     7
100
AcDbCircle
 10
50.7936810492
 20
559.7958762963
 30
0.0
 40
1.000000000000001
100
AcDbArc
 50
90.0
 51
180.0
  0
ARC
  5
85
330
75
100
AcDbEntity
  8
$DDT_AUDIT_GENERATED_(77)
  6
Continuous
 62
     7
100
AcDbCircle
 10
130.2475178955
 20
497.5459444439
 30
0.0
 40
10.0
100
AcDbArc
 50
269.9991016222
 51
292.5567075275
  0
ARC
  5
86
330
75
100
AcDbEntity
  8
$DDT_AUDIT_GENERATED_(77)
  6
Continuous
 62
     7
100
AcDbCircle
 10
130.2475178955
 20
525.0458081488
 30
0.0
 40
10.0
100
AcDbArc
 50
67.4053929569
 51
90.0008983778
  0
LINE
  5
88
330
75
100
AcDbEntity
  8
$DDT_AUDIT_GENERATED_(87)
  6
Continuous
 62
     7
100
AcDbLine
 10
64.1936810492
 20
667.9357302624
 30
0.0
 11
64.1936810492
 21
560.7958762963
 31
0.0
  0
LINE
  5
89
330
75
100
AcDbEntity
  8
$DDT_AUDIT_GENERATED_(87)
  6
Continuous
 62
     7
100
AcDbLine
 10
88.9936810492
 20
560.7958762963
 30
0.0
 11
88.9936810492
 21
667.9301668842
 31
0.0
  0
ARC
  5
8A
330
75
100
AcDbEntity
  8
$DDT_AUDIT_GENERATED_(87)
  6
Continuous
 62
     7
100
AcDbCircle
 10
76.5936810492
 20
798.1958762963
 30
0.0
 40
12.4
100
AcDbArc
 50
0.0
 51
180.0
  0
LINE
  5
8B
330
75
100
AcDbEntity
  8
$DDT_AUDIT_GENERATED_(87)
  6
Continuous
 62
     7
100
AcDbLine
 10
64.1936810492
 20
798.1958762963
 30
0.0
 11
64.1936810492
 21
712.2552867737
 31
0.0
  0
LINE
  5
8C
330
75
100
AcDbEntity
  8
$DDT_AUDIT_GENERATED_(87)
  6
Continuous
 62
     7
100
AcDbLine
 10
88.9936810492
 20
712.2552867737
 30
0.0
 11
88.9936810492
 21
798.1958762963
 31
0.0
  0
LINE
  5
8D
330
75
100
AcDbEntity
  8
$DDT_AUDIT_GENERATED_(87)
  6
Continuous
 62
     7
100
AcDbLine
 10
88.9936810492
 20
707.2786684861
 30
0.0
 11
88.9936810492
 21
712.2552867737
 31
0.0
  0
LINE
  5
8E
330
75
100
AcDbEntity
  8
$DDT_AUDIT_GENERATED_(87)
  6
Continuous
 62
     7
100
AcDbLine
 10
64.1936810492
 20
712.2552867737
 30
0.0
 11
64.1936810492
 21
707.284264743
 31
0.0
  0
LINE
  5
90
330
75
100
AcDbEntity
  8
$DDT_AUDIT_GENERATED_(8F)
  6
Continuous
 62
     7
100
AcDbLine
 10
167.054901599
 20
527.6049249008
 30
0.0
 11
167.0549014157
 21
486.7927060064
 31
0.0
  0
LINE
  5
91
330
75
100
AcDbEntity
  8
$DDT_AUDIT_GENERATED_(8F)
  6
Continuous
 62
     7
100
AcDbLine
 10
167.0549018961
 20
599.5178908583
 30
0.0
 11
167.0549016206
 21
533.0803442638
 31
0.0
  0
LINE
  5
92
330
75
100
AcDbEntity
  8
$DDT_AUDIT_GENERATED_(8F)
  6
Continuous
 62
     7
100
AcDbLine
 10
167.0549016206
 20
533.0803442638
 30
0.0
 11
167.054901599
 21
527.6049249008
 31
0.0
  0
ARC
  5
93
330
75
100
AcDbEntity
  8
$DDT_AUDIT_GENERATED_(8F)
  6
Continuous
 62
     7
100
AcDbCircle
 10
228.3046296966
 20
543.0174083669
 30
0.0
 40
66.53215916863594
100
AcDbArc
 50
184.4388113248
 51
184.4788924555
  0
LINE
  5
94
330
75
100
AcDbEntity
  8
$DDT_AUDIT_GENERATED_(8F)
  6
Continuous
 62
     7
100
AcDbLine
 10
134.0720096761
 20
486.5926460628
 30
0.0
 11
134.0720078061
 21
535.594346515
 31
0.0
  0
SPLINE
  5
95
330
75
100
AcDbEntity
  8
$DDT_AUDIT_GENERATED_(8F)
  6
Continuous
 62
     7
100
AcDbSpline
210
0.0
220
0.0
230
1.0
 70
     8
 71
     3
 72
    14
 73
    10
 74
     0
 42
0.0000000001632562
 43
0.0000000001
 40
0.0
 40
0.0
 40
0.0
 40
0.0
 40
0.0624999999999988
 40
0.0624999999999988
 40
0.1249999999999977
 40
0.1249999999999977
 40
0.1562499999999974
 40
0.1562499999999974
 40
0.1592559568293437
 40
0.1592559568293437
 40
0.1592559568293437
 40
0.1592559568293437
 10
162.4847300282348
 20
599.1349869102243
 30
0.0
 10
162.2684371508034
 20
597.8766274981906
 30
0.0
 10
162.073657292013
 20
596.615855144309
 30
0.0
 10
161.7659536119184
 20
594.085129304802
 30
0.0
 10
161.6584713120297
 20
592.814565487593
 30
0.0
 10
161.5703539096509
 20
590.900520045869
 30
0.0
 10
161.5532331314482
 20
590.2615252289652
 30
0.0
 10
161.5502023035543
 20
589.561684155143
 30
0.0
 10
161.5500720123135
 20
589.5002743746194
 30
0.0
 10
161.550075319849
 20
589.4388657803636
 30
0.0
  0
SPLINE
  5
96
330
75
100
AcDbEntity
  8
$DDT_AUDIT_GENERATED_(8F)
  6
Continuous
 62
     7
100
AcDbSpline
210
0.0
220
0.0
230
1.0
 70
     8
 71
     3
 72
    12
 73
     8
 74
     0
 42
0.0000000001629881
 43
0.0000000001
 40
0.3429732867787653
 40
0.3429732867787653
 40
0.3429732867787653
 40
0.3429732867787653
 40
0.3749999999999977
 40
0.3749999999999977
 40
0.499999999999998
 40
0.499999999999998
 40
1.0
 40
1.0
 40
1.0
 40
1.0
 10
161.9481016937127
 20
578.1794431005949
 30
0.0
 10
161.9541753583148
 20
577.524484900478
 30
0.0
 10
161.9579377021243
 20
576.8694731551822
 30
0.0
 10
161.9733878573835
 20
573.6580858787588
 30
0.0
 10
161.9716475118374
 20
571.1016622940062
 30
0.0
 10
161.9722642515343
 20
558.3195586723056
 30
0.0
 10
161.972030071337
 20
548.0938748670811
 30
0.0
 10
161.972030071334
 20
537.8681918635368
 30
0.0
  0
ARC
  5
97
330
75
100
AcDbEntity
  8
$DDT_AUDIT_GENERATED_(8F)
  6
Continuous
 62
     7
100
AcDbCircle
 10
-7204.5118061553
 20
559.3301451172
 30
0.0
 40
7367.104419802314
100
AcDbArc
 50
0.3095735466
 51
0.3105324199
  0
LINE
  5
98
330
75
100
AcDbEntity
  8
$DDT_AUDIT_GENERATED_(8F)
  6
Continuous
 62
     7
100
AcDbLine
 10
167.0549018954
 20
599.6980262241
 30
0.0
 11
167.0549018946
 21
599.5178908583
 31
0.0
  0
ARC
  5
99
330
75
100
AcDbEntity
  8
$DDT_AUDIT_GENERATED_(8F)
  6
Continuous
 62
     7
100
AcDbCircle
 10
43170.8992575071
 20
561.2148987155
 30
0.0
 40
43004.35085520526
100
AcDbArc
 50
179.948063928
 51
179.9480641054
  0
LINE
  5
9A
330
75
100
AcDbEntity
  8
$DDT_AUDIT_GENERATED_(8F)
  6
Continuous
 62
     7
100
AcDbLine
 10
134.0720078339
 20
535.594346515
 30
0.0
 11
134.0720078201
 21
535.9557723262
 31
0.0
  0
ARC
  5
9B
330
75
100
AcDbEntity
  8
$DDT_AUDIT_GENERATED_(8F)
  6
Continuous
 62
     7
100
AcDbCircle
 10
157.3687246173
 20
500.458722159
 30
0.0
 40
14.25358910931439
100
AcDbArc
 50
260.1477407512
 51
282.1408071202
  0
LINE
  5
9C
330
75
100
AcDbEntity
  8
$DDT_AUDIT_GENERATED_(8F)
  6
Continuous
 62
     7
100
AcDbLine
 10
134.3720096541
 20
486.4199707618
 30
0.0
 11
166.5549014181
 21
486.4199707618
 31
0.0
  0
ARC
  5
9D
330
75
100
AcDbEntity
  8
$DDT_AUDIT_GENERATED_(8F)
  6
Continuous
 62
     7
100
AcDbCircle
 10
-32.4467569664
 20
576.4935316581
 30
0.0
 40
194.4333759782225
100
AcDbArc
 50
359.2161368546
 51
3.8174557993
  0
ARC
  5
9E
330
75
100
AcDbEntity
  8
$DDT_AUDIT_GENERATED_(8F)
  6
Continuous
 62
     7
100
AcDbCircle
 10
166.5549014159
 20
486.7927356053
 30
0.0
 40
0.4999999998600308
100
AcDbArc
 50
270.3443903049
 51
359.8342264445
  0
ARC
  5
9F
330
75
100
AcDbEntity
  8
$DDT_AUDIT_GENERATED_(8F)
  6
Continuous
 62
     7
100
AcDbCircle
 10
134.3720096761
 20
486.5927350425
 30
0.0
 40
0.2999999998882675
100
AcDbArc
 50
180.0677968384
 51
270.1938966281
  0
ARC
  5
A0
330
75
100
AcDbEntity
  8
$DDT_AUDIT_GENERATED_(8F)
  6
Continuous
 62
     7
100
AcDbCircle
 10
163.6073952309
 20
599.0664877251
 30
0.0
 40
1.137070137735271
100
AcDbArc
 50
88.6015346465
 51
171.0253175565
  0
ARC
  5
A1
330
75
100
AcDbEntity
  8
$DDT_AUDIT_GENERATED_(8F)
  6
Continuous
 62
     7
100
AcDbCircle
 10
237.6390204894
 20
587.2200449555
 30
0.0
 40
76.10944724775031
100
AcDbArc
 50
170.9201144049
 51
172.6824018477
  0
ARC
  5
A2
330
75
100
AcDbEntity
  8
$DDT_AUDIT_GENERATED_(8F)
  6
Continuous
 62
     7
100
AcDbCircle
 10
237.6390204894
 20
587.2200449555
 30
0.0
 40
76.10944724775031
100
AcDbArc
 50
177.5282286422
 51
178.6187259871
  0
LINE
  5
A3
330
75
100
AcDbEntity
  8
$DDT_AUDIT_GENERATED_(8F)
  6
Continuous
 62
     7
100
AcDbLine
 10
166.5665759856
 20
600.1985068971
 30
0.0
 11
163.6393743362
 21
600.2639172197
 31
0.0
  0
ARC
  5
A4
330
75
100
AcDbEntity
  8
$DDT_AUDIT_GENERATED_(8F)
  6
Continuous
 62
     7
100
AcDbCircle
 10
166.5549022742
 20
599.6984989375
 30
0.0
 40
0.4999926977340919
100
AcDbArc
 50
359.9665605554
 51
88.3670680244
  0
LINE
  5
A5
330
75
100
AcDbEntity
  8
$DDT_AUDIT_GENERATED_(8F)
  6
Continuous
 62
     7
100
AcDbLine
 10
159.9897573554
 20
536.136033683
 30
0.0
 11
134.3719183079
 21
536.1283026576
 31
0.0
  0
ELLIPSE
  5
A6
330
75
100
AcDbEntity
  8
$DDT_AUDIT_GENERATED_(8F)
  6
Continuous
 62
     7
100
AcDbEllipse
 10
134.3720078227
 20
535.9528940873
 30
0.0
 11
0.2999999999998698
 21
1.401147808888226E-7
 31
0.0
210
0.0
220
0.0
230
1.0
 40
0.9998812059
 41
1.565880039987398
 42
3.161199914561365
  0
ELLIPSE
  5
A8
330
75
100
AcDbEntity
  8
02636038_GEHÄUSE
  6
Continuous
 62
     7
100
AcDbEllipse
 10
76.5936828783
 20
664.758004657
 30
0.0
 11
10.05000000000001
 21
0.0
 31
0.0
210
0.0
220
0.0
230
1.0
 40
0.1736481777
 41
5.698975414448011
 42
6.283185307179586
  0
ELLIPSE
  5
A9
330
75
100
AcDbEntity
  8
02636038_GEHÄUSE
  6
Continuous
 62
     7
100
AcDbEllipse
 10
76.5936828783
 20
664.758004657
 30
0.0
 11
10.05000000000001
 21
0.0
 31
0.0
210
0.0
220
0.0
230
1.0
 40
0.1736481777
 41
0.0
 42
3.725802546321369
  0
ELLIPSE
  5
AA
330
75
100
AcDbEntity
  8
02636038_GEHÄUSE
  6
Continuous
 62
     7
100
AcDbEllipse
 10
76.5936828783
 20
664.758004657
 30
0.0
 11
10.75000000000001
 21
0.0
 31
0.0
210
0.0
220
0.0
230
1.0
 40
0.1736481777
 41
5.331918206715113
 42
6.283185307179586
  0
ELLIPSE
  5
AB
330
75
100
AcDbEntity
  8
02636038_GEHÄUSE
  6
Continuous
 62
     7
100
AcDbEllipse
 10
76.5936828783
 20
664.758004657
 30
0.0
 11
10.75000000000001
 21
0.0
 31
0.0
210
0.0
220
0.0
230
1.0
 40
0.1736481777
 41
0.0
 42
4.092859754054267
  0
ARC
  5
AC
330
75
100
AcDbEntity
  8
02636038_GEHÄUSE
  6
Continuous
 62
     7
100
AcDbCircle
 10
76.5936828783
 20
686.5058571096
 30
0.0
 40
19.69557774286606
100
AcDbArc
 50
262.4538880464
 51
277.5461119536
  0
ELLIPSE
  5
AD
330
75
100
AcDbEntity
  8
02636038_GEHÄUSE
  6
Continuous
 62
     7
100
AcDbEllipse
 10
76.5936828783
 20
667.712427916
 30
0.0
 11
11.80000000000004
 21
0.0
 31
0.0
210
0.0
220
0.0
230
1.0
 40
0.1736481777
 41
1.200453694703181
 42
1.941138958886613
  0
LINE
  5
AE
330
75
100
AcDbEntity
  8
02636038_GEHÄUSE
  6
Continuous
 62
     7
100
AcDbLine
 10
80.8645141791
 20
669.6225578704
 30
0.0
 11
72.3228515775
 21
669.6225578704
 31
0.0
  0
LINE
  5
AF
330
75
100
AcDbEntity
  8
02636038_GEHÄUSE
  6
Continuous
 62
     7
100
AcDbLine
 10
80.8645141791
 20
669.6225578704
 30
0.0
 11
80.8645141791
 21
667.833721605
 31
0.0
  0
SPLINE
  5
B0
330
75
100
AcDbEntity
  8
02636038_GEHÄUSE
  6
Continuous
 62
     7
100
AcDbSpline
210
0.0
220
0.0
230
1.0
 70
     8
 71
     3
 72
    14
 73
    10
 74
     0
 42
0.0000000049511002
 43
0.0000000001
 40
0.0
 40
0.0
 40
0.0
 40
0.0
 40
0.1250000000000004
 40
0.1250000000000004
 40
0.2500000000000009
 40
0.2500000000000009
 40
0.5000000000000008
 40
0.5000000000000008
 40
1.0
 40
1.0
 40
1.0
 40
1.0
 10
80.86451417909512
 20
667.8337216050156
 30
0.0
 10
80.86451417909512
 20
667.75076012071
 30
0.0
 10
80.83238268781524
 20
667.6679011003589
 30
0.0
 10
80.73658508858418
 20
667.5308179280029
 30
0.0
 10
80.67345822429128
 20
667.4726991016377
 30
0.0
 10
80.47114827351054
 20
667.3238740590543
 30
0.0
 10
80.31515866325871
 20
667.2535541362869
 30
0.0
 10
79.84439257882431
 20
667.084785548147
 30
0.0
 10
79.5119793007867
 20
667.0240340690004
 30
0.0
 10
79.18018630955814
 20
666.9808530730633
 30
0.0
  0
SPLINE
  5
B1
330
75
100
AcDbEntity
  8
02636038_GEHÄUSE
  6
Continuous
 62
     7
100
AcDbSpline
210
0.0
220
0.0
230
1.0
 70
     8
 71
     3
 72
    18
 73
    14
 74
     0
 42
0.000000004959011
 43
0.0000000001
 40
0.0
 40
0.0
 40
0.0
 40
0.0
 40
0.2499999999999998
 40
0.2499999999999998
 40
0.4999999999999997
 40
0.4999999999999997
 40
0.6249999999999992
 40
0.6249999999999992
 40
0.7499999999999989
 40
0.7499999999999989
 40
0.8749999999999994
 40
0.8749999999999994
 40
1.0
 40
1.0
 40
1.0
 40
1.0
 10
74.00717944700698
 20
666.9808530730633
 30
0.0
 10
73.84078666684341
 20
667.0025081596807
 30
0.0
 10
73.6752341106266
 20
667.0291710984745
 30
0.0
 10
73.34686636408209
 20
667.098812059413
 30
0.0
 10
73.18409636642377
 20
667.1416047389914
 30
0.0
 10
72.94862440865468
 20
667.2262289285572
 30
0.0
 10
72.87145546670865
 20
667.2579088595431
 30
0.0
 10
72.7211295772863
 20
667.3318074233624
 30
0.0
 10
72.6475589843376
 20
667.3742880691458
 30
0.0
 10
72.51354080153553
 20
667.4730631539031
 30
0.0
 10
72.45116241766073
 20
667.5302895115752
 30
0.0
 10
72.35467874468313
 20
667.6683187376434
 30
0.0
 10
72.32285157746999
 20
667.7492733719072
 30
0.0
 10
72.32285157746999
 20
667.8337216050156
 30
0.0
  0
LINE
  5
B2
330
75
100
AcDbEntity
  8
02636038_GEHÄUSE
  6
Continuous
 62
     7
100
AcDbLine
 10
72.3228515775
 20
667.833721605
 30
0.0
 11
72.3228515775
 21
669.6225578704
 31
0.0
  0
LINE
  5
B3
330
75
100
AcDbEntity
  8
02636038_GEHÄUSE
  6
Continuous
 62
     7
100
AcDbLine
 10
65.833576353
 20
664.4714454813
 30
0.0
 11
66.357298352
 21
664.1878954002
 31
0.0
  0
LINE
  5
B4
330
75
100
AcDbEntity
  8
02636038_GEHÄUSE
  6
Continuous
 62
     7
100
AcDbLine
 10
86.8300674046
 20
664.1878954002
 30
0.0
 11
87.3537894036
 21
664.4714454813
 31
0.0
  0
SPLINE
  5
B5
330
75
100
AcDbEntity
  8
02636038_GEHÄUSE
  6
Continuous
 62
     7
100
AcDbSpline
210
0.0
220
0.0
230
1.0
 70
     8
 71
     3
 72
    13
 73
     9
 74
     0
 42
0.0000000051014884
 43
0.0000000001
 40
0.0
 40
0.0
 40
0.0
 40
0.0
 40
0.1116845187063531
 40
0.2782874455286545
 40
0.446722353290937
 40
0.6316450145980473
 40
0.8520204212325261
 40
1.0
 40
1.0
 40
1.0
 40
1.0
 10
64.80717203052392
 20
665.9254278333876
 30
0.0
 10
64.80602996448296
 20
665.831642419018
 30
0.0
 10
64.80519525198305
 20
665.6346894245196
 30
0.0
 10
64.92463927364822
 20
665.3156623771929
 30
0.0
 10
65.11308494252624
 20
665.0249501543641
 30
0.0
 10
65.3614938128778
 20
664.776682709471
 30
0.0
 10
65.62448964571433
 20
664.5832288152029
 30
0.0
 10
65.8092466891173
 20
664.4902647545346
 30
0.0
 10
65.89709759137735
 20
664.4471717035722
 30
0.0
  0
SPLINE
  5
B6
330
75
100
AcDbEntity
  8
02636038_GEHÄUSE
  6
Continuous
 62
     7
100
AcDbSpline
210
0.0
220
0.0
230
1.0
 70
     8
 71
     3
 72
    13
 73
     9
 74
     0
 42
0.0000000048830383
 43
0.0000000001
 40
0.0659872374733335
 40
0.0659872374733335
 40
0.0659872374733335
 40
0.0659872374733335
 40
0.2176342024298541
 40
0.4398349198857471
 40
0.6214834753482419
 40
0.784936279181526
 40
0.9402711183389156
 40
1.0
 40
1.0
 40
1.0
 40
1.0
 10
87.33086232965611
 20
664.4671572812308
 30
0.0
 10
87.41739462802488
 20
664.5104843966609
 30
0.0
 10
87.61125153888527
 20
664.6149163573549
 30
0.0
 10
87.88306750245768
 20
664.8240749186707
 30
0.0
 10
88.1338514348523
 20
665.0993004915655
 30
0.0
 10
88.30603107678498
 20
665.4132610756288
 30
0.0
 10
88.39603127850691
 20
665.710725646253
 30
0.0
 10
88.38428788627445
 20
665.8697781402191
 30
0.0
 10
88.38019372604123
 20
665.9217554679711
 30
0.0
  0
LINE
  5
B7
330
75
100
AcDbEntity
  8
02636038_GEHÄUSE
  6
Continuous
 62
     7
100
AcDbLine
 10
64.7936828783
 20
669.6977801224
 30
0.0
 11
64.7936828783
 21
665.9235916507
 31
0.0
  0
LINE
  5
B8
330
75
100
AcDbEntity
  8
02636038_GEHÄUSE
  6
Continuous
 62
     7
100
AcDbLine
 10
88.3936828783
 20
665.9235916507
 30
0.0
 11
88.3936828783
 21
669.6975300858
 31
0.0
  0
ELLIPSE
  5
BA
330
75
100
AcDbEntity
  8
$DDT_AUDIT_GENERATED_(B9)
  6
Continuous
 62
     7
100
AcDbEllipse
 10
76.5936828783
 20
664.3640815558
 30
0.0
 11
9.0
 21
0.0
 31
0.0
210
0.0
220
0.0
230
1.0
 40
0.1736481777
 41
0.0
 42
6.283185307179586
  0
ELLIPSE
  5
BB
330
75
100
AcDbEntity
  8
$DDT_AUDIT_GENERATED_(B9)
  6
Continuous
 62
     7
100
AcDbEllipse
 10
76.5936828783
 20
664.3640815558
 30
0.0
 11
5.250000000000003
 21
0.0
 31
0.0
210
0.0
220
0.0
230
1.0
 40
0.1736481777
 41
0.0
 42
6.283185307179586
  0
ELLIPSE
  5
BC
330
75
100
AcDbEntity
  8
$DDT_AUDIT_GENERATED_(B9)
  6
Continuous
 62
     7
100
AcDbEllipse
 10
76.5936828783
 20
664.3640815558
 30
0.0
 11
-6.25
 21
0.0
 31
0.0
210
0.0
220
0.0
230
1.0
 40
0.1736481777
 41
0.0
 42
6.283185307179586
  0
ELLIPSE
  5
BD
330
75
100
AcDbEntity
  8
$DDT_AUDIT_GENERATED_(B9)
  6
Continuous
 62
     7
100
AcDbEllipse
 10
76.5936828783
 20
664.3640815558
 30
0.0
 11
2.750000000000002
 21
0.0
 31
0.0
210
0.0
220
0.0
230
1.0
 40
0.1736481777
 41
0.0
 42
6.283185307179586
  0
ELLIPSE
  5
BE
330
75
100
AcDbEntity
  8
$DDT_AUDIT_GENERATED_(B9)
  6
Continuous
 62
     7
100
AcDbEllipse
 10
76.5936828783
 20
664.3640815558
 30
0.0
 11
-2.15
 21
0.0
 31
0.0
210
0.0
220
0.0
230
1.0
 40
0.1736481777
 41
0.0
 42
6.283185307179586
  0
ELLIPSE
  5
BF
330
75
100
AcDbEntity
  8
$DDT_AUDIT_GENERATED_(B9)
  6
Continuous
 62
     7
100
AcDbEllipse
 10
76.5936828783
 20
664.5610431064
 30
0.0
 11
-0.5196299438963559
 21
0.0
 31
0.0
210
0.0
220
0.0
230
1.0
 40
0.1736481777
 41
0.0
 42
6.283185307179586
  0
ELLIPSE
  5
C0
330
75
100
AcDbEntity
  8
$DDT_AUDIT_GENERATED_(B9)
  6
Continuous
 62
     7
100
AcDbEllipse
 10
76.5936828783
 20
664.3640815558
 30
0.0
 11
8.699999999999998
 21
0.0
 31
0.0
210
0.0
220
0.0
230
1.0
 40
0.1736481777
 41
0.0
 42
6.283185307179586
  0
ARC
  5
C1
330
75
100
AcDbEntity
  8
$DDT_AUDIT_GENERATED_(B9)
  6
Continuous
 62
     7
100
AcDbCircle
 10
76.5936828783
 20
712.0312972211
 30
0.0
 40
48.94626362829099
100
AcDbArc
 50
269.8829413828
 51
270.1170586172
  0
ELLIPSE
  5
C2
330
75
100
AcDbEntity
  8
$DDT_AUDIT_GENERATED_(B9)
  6
Continuous
 62
     7
100
AcDbEllipse
 10
76.5936828783
 20
664.5610431064
 30
0.0
 11
8.500000000014394
 21
-7.494005416219807E-13
 31
0.0
210
0.0
220
0.0
230
1.0
 40
0.1736481777
 41
4.724153957673209
 42
4.962423390895796
  0
LINE
  5
C3
330
75
100
AcDbEntity
  8
$DDT_AUDIT_GENERATED_(B9)
  6
Continuous
 62
     7
100
AcDbLine
 10
76.4936828783
 20
663.2789193728
 30
0.0
 11
76.4936828783
 21
663.0851357458
 31
0.0
  0
LINE
  5
C4
330
75
100
AcDbEntity
  8
$DDT_AUDIT_GENERATED_(B9)
  6
Continuous
 62
     7
100
AcDbLine
 10
76.6936828783
 20
663.2789193728
 30
0.0
 11
76.6936828783
 21
663.0851357458
 31
0.0
  0
LINE
  5
C5
330
75
100
AcDbEntity
  8
$DDT_AUDIT_GENERATED_(B9)
  6
Continuous
 62
     7
100
AcDbLine
 10
76.8436828783
 20
664.4337730906
 30
0.0
 11
76.8436828783
 21
664.4819396849
 31
0.0
  0
LINE
  5
C6
330
75
100
AcDbEntity
  8
$DDT_AUDIT_GENERATED_(B9)
  6
Continuous
 62
     7
100
AcDbLine
 10
76.3436828783
 20
664.4337730906
 30
0.0
 11
76.3436828783
 21
664.4819396849
 31
0.0
  0
ARC
  5
C7
330
75
100
AcDbEntity
  8
$DDT_AUDIT_GENERATED_(B9)
  6
Continuous
 62
     7
100
AcDbCircle
 10
76.5936828783
 20
676.7311417073
 30
0.0
 40
12.29990954833232
100
AcDbArc
 50
268.8353628735
 51
271.1646371265
  0
ELLIPSE
  5
C8
330
75
100
AcDbEntity
  8
$DDT_AUDIT_GENERATED_(B9)
  6
Continuous
 62
     7
100
AcDbEllipse
 10
76.5936827562
 20
664.5610430272
 30
0.0
 11
-8.499999748290017
 21
2.114763919536244E-8
 31
0.0
210
0.0
220
0.0
230
1.0
 40
0.1736481735
 41
1.297231968755101
 42
1.320761923984231
  0
ELLIPSE
  5
C9
330
75
100
AcDbEntity
  8
$DDT_AUDIT_GENERATED_(B9)
  6
Continuous
 62
     7
100
AcDbEllipse
 10
76.5936828783
 20
664.5610431064
 30
0.0
 11
-8.499999999996714
 21
4.718447854656915E-13
 31
0.0
210
0.0
220
0.0
230
1.0
 40
0.1736481777
 41
1.320761916283864
 42
1.559031349506906
  0
LINE
  5
CA
330
75
100
AcDbEntity
  8
$DDT_AUDIT_GENERATED_(B9)
  6
Continuous
 62
     7
100
AcDbLine
 10
74.297280664
 20
663.1399204151
 30
0.0
 11
74.297280664
 21
663.3546935581
 31
0.0
  0
LINE
  5
CB
330
75
100
AcDbEntity
  8
$DDT_AUDIT_GENERATED_(B9)
  6
Continuous
 62
     7
100
AcDbLine
 10
74.5991175426
 20
663.3355299762
 30
0.0
 11
74.297280664
 21
663.1399204151
 31
0.0
  0
LINE
  5
CC
330
75
100
AcDbEntity
  8
$DDT_AUDIT_GENERATED_(B9)
  6
Continuous
 62
     7
100
AcDbLine
 10
74.7898683237
 20
663.3249636487
 30
0.0
 11
74.4904658293
 21
663.130931724
 31
0.0
  0
ELLIPSE
  5
CD
330
75
100
AcDbEntity
  8
$DDT_AUDIT_GENERATED_(B9)
  6
Continuous
 62
     7
100
AcDbEllipse
 10
76.5936826425
 20
664.5610430355
 30
0.0
 11
-8.499999705258144
 21
3.657590896821716E-8
 31
0.0
210
0.0
220
0.0
230
1.0
 40
0.1736481753
 41
1.035432586343166
 42
1.058962541572116
  0
ELLIPSE
  5
CE
330
75
100
AcDbEntity
  8
$DDT_AUDIT_GENERATED_(B9)
  6
Continuous
 62
     7
100
AcDbEllipse
 10
76.5936828783
 20
664.5610431064
 30
0.0
 11
-8.500000000017021
 21
-2.026157019940911E-12
 31
0.0
210
0.0
220
0.0
230
1.0
 40
0.1736481777
 41
1.05896252848419
 42
1.297231961706754
  0
LINE
  5
CF
330
75
100
AcDbEntity
  8
$DDT_AUDIT_GENERATED_(B9)
  6
Continuous
 62
     7
100
AcDbLine
 10
72.2573744657
 20
663.2915522473
 30
0.0
 11
72.2573744657
 21
663.5824924902
 31
0.0
  0
LINE
  5
D0
330
75
100
AcDbEntity
  8
$DDT_AUDIT_GENERATED_(B9)
  6
Continuous
 62
     7
100
AcDbLine
 10
72.9087863246
 20
663.4874757417
 30
0.0
 11
72.2573744657
 21
663.2915522473
 31
0.0
  0
LINE
  5
D1
330
75
100
AcDbEntity
  8
$DDT_AUDIT_GENERATED_(B9)
  6
Continuous
 62
     7
100
AcDbLine
 10
73.072878579
 20
663.4673700822
 30
0.0
 11
72.4305795465
 21
663.2741874296
 31
0.0
  0
ELLIPSE
  5
D2
330
75
100
AcDbEntity
  8
$DDT_AUDIT_GENERATED_(B9)
  6
Continuous
 62
     7
100
AcDbEllipse
 10
76.5936825444
 20
664.5610430484
 30
0.0
 11
-8.499999645824593
 21
4.228339900436140E-8
 31
0.0
210
0.0
220
0.0
230
1.0
 40
0.1736481777
 41
0.7736332005383536
 42
0.7971631557681469
  0
ELLIPSE
  5
D3
330
75
100
AcDbEntity
  8
$DDT_AUDIT_GENERATED_(B9)
  6
Continuous
 62
     7
100
AcDbEllipse
 10
76.5936828783
 20
664.5610431064
 30
0.0
 11
-8.500000000020332
 21
-2.359223927328458E-12
 31
0.0
210
0.0
220
0.0
230
1.0
 40
0.1736481777
 41
0.7971631406848201
 42
1.035432573907394
  0
LINE
  5
D4
330
75
100
AcDbEntity
  8
$DDT_AUDIT_GENERATED_(B9)
  6
Continuous
 62
     7
100
AcDbLine
 10
70.5129805196
 20
663.5296977837
 30
0.0
 11
70.5129805196
 21
663.9313661279
 31
0.0
  0
LINE
  5
D5
330
75
100
AcDbEntity
  8
$DDT_AUDIT_GENERATED_(B9)
  6
Continuous
 62
     7
100
AcDbLine
 10
71.5826973721
 20
663.7154521657
 30
0.0
 11
70.5129805196
 21
663.5296977837
 31
0.0
  0
LINE
  5
D6
330
75
100
AcDbEntity
  8
$DDT_AUDIT_GENERATED_(B9)
  6
Continuous
 62
     7
100
AcDbLine
 10
71.7058169048
 20
663.6877165266
 30
0.0
 11
70.6544018759
 21
663.5051402229
 31
0.0
  0
ELLIPSE
  5
D7
330
75
100
AcDbEntity
  8
$DDT_AUDIT_GENERATED_(B9)
  6
Continuous
 62
     7
100
AcDbEllipse
 10
76.5936825286
 20
664.5610430713
 30
0.0
 11
-8.499999646657342
 21
3.137026749477911E-8
 31
0.0
210
0.0
220
0.0
230
1.0
 40
0.1736481797
 41
0.5118338089549087
 42
0.5353637640901735
  0
ELLIPSE
  5
D8
330
75
100
AcDbEntity
  8
$DDT_AUDIT_GENERATED_(B9)
  6
Continuous
 62
     7
100
AcDbEllipse
 10
76.5936828783
 20
664.5610431064
 30
0.0
 11
-8.500000000015136
 21
-1.193489751472043E-12
 31
0.0
210
0.0
220
0.0
230
1.0
 40
0.1736481777
 41
0.5353637528859407
 42
0.7736331861086503
  0
LINE
  5
D9
330
75
100
AcDbEntity
  8
$DDT_AUDIT_GENERATED_(B9)
  6
Continuous
 62
     7
100
AcDbLine
 10
69.1829763905
 20
663.8381277994
 30
0.0
 11
69.1829763905
 21
664.1982537848
 31
0.0
  0
LINE
  5
DA
330
75
100
AcDbEntity
  8
$DDT_AUDIT_GENERATED_(B9)
  6
Continuous
 62
     7
100
AcDbLine
 10
70.7216487257
 20
663.9923886593
 30
0.0
 11
69.1829763905
 21
663.8381277994
 31
0.0
  0
LINE
  5
DB
330
75
100
AcDbEntity
  8
$DDT_AUDIT_GENERATED_(B9)
  6
Continuous
 62
     7
100
AcDbLine
 10
70.7940802888
 20
663.9595480164
 30
0.0
 11
69.2829763905
 21
663.8080510528
 31
0.0
  0
ELLIPSE
  5
DC
330
75
100
AcDbEntity
  8
$DDT_AUDIT_GENERATED_(B9)
  6
Continuous
 62
     7
100
AcDbEllipse
 10
76.5936824884
 20
664.5610430882
 30
0.0
 11
-8.499999609927151
 21
1.815184114128954E-8
 31
0.0
210
0.0
220
0.0
230
1.0
 40
0.1736481812
 41
0.2500344165374929
 42
0.273564371672351
  0
ELLIPSE
  5
DD
330
75
100
AcDbEntity
  8
$DDT_AUDIT_GENERATED_(B9)
  6
Continuous
 62
     7
100
AcDbEllipse
 10
76.5936828783
 20
664.5610431064
 30
0.0
 11
-8.500000000035048
 21
-2.692290834716005E-12
 31
0.0
210
0.0
220
0.0
230
1.0
 40
0.1736481777
 41
0.2735643650866827
 42
0.5118337983091206
  0
LINE
  5
DE
330
75
100
AcDbEntity
  8
$DDT_AUDIT_GENERATED_(B9)
  6
Continuous
 62
     7
100
AcDbLine
 10
68.3579996616
 20
664.1958232986
 30
0.0
 11
68.3579996616
 21
664.5436782886
 31
0.0
  0
LINE
  5
DF
330
75
100
AcDbEntity
  8
$DDT_AUDIT_GENERATED_(B9)
  6
Continuous
 62
     7
100
AcDbLine
 10
70.3586914935
 20
664.2889132667
 30
0.0
 11
68.3579996616
 21
664.1958232986
 31
0.0
  0
LINE
  5
E0
330
75
100
AcDbEntity
  8
$DDT_AUDIT_GENERATED_(B9)
  6
Continuous
 62
     7
100
AcDbLine
 10
70.3760531709
 20
664.2537663219
 30
0.0
 11
68.4097634707
 21
664.1622770467
 31
0.0
  0
ARC
  5
E1
330
75
100
AcDbEntity
  8
$DDT_AUDIT_GENERATED_(B9)
  6
Continuous
 62
     7
100
AcDbCircle
 10
68.3505597575
 20
664.5610431064
 30
0.0
 40
0.2568762259793072
100
AcDbArc
 50
176.1238526717
 51
183.8761473283
  0
ELLIPSE
  5
E2
330
75
100
AcDbEntity
  8
$DDT_AUDIT_GENERATED_(B9)
  6
Continuous
 62
     7
100
AcDbEllipse
 10
76.5936828783
 20
664.5610431064
 30
0.0
 11
-8.500000000029253
 21
-1.276756478318930E-12
 31
0.0
210
0.0
220
0.0
230
1.0
 40
0.1736481777
 41
0.011764977288112
 42
0.2500344105106239
  0
ARC
  5
E3
330
75
100
AcDbEntity
  8
$DDT_AUDIT_GENERATED_(B9)
  6
Continuous
 62
     7
100
AcDbCircle
 10
70.532919365
 20
664.5610431064
 30
0.0
 40
0.1892348465219816
100
AcDbArc
 50
174.7349422714
 51
180.0
  0
LINE
  5
E4
330
75
100
AcDbEntity
  8
$DDT_AUDIT_GENERATED_(B9)
  6
Continuous
 62
     7
100
AcDbLine
 10
70.3444829295
 20
664.5784079242
 30
0.0
 11
70.3444829295
 21
664.8338340548
 31
0.0
  0
LINE
  5
E5
330
75
100
AcDbEntity
  8
$DDT_AUDIT_GENERATED_(B9)
  6
Continuous
 62
     7
100
AcDbLine
 10
70.3444829295
 20
664.5784079242
 30
0.0
 11
68.0942711339
 21
664.5784079242
 31
0.0
  0
LINE
  5
E6
330
75
100
AcDbEntity
  8
$DDT_AUDIT_GENERATED_(B9)
  6
Continuous
 62
     7
100
AcDbLine
 10
70.3436828783
 20
664.5436782886
 30
0.0
 11
68.0942711339
 21
664.5436782886
 31
0.0
  0
ELLIPSE
  5
E7
330
75
100
AcDbEntity
  8
$DDT_AUDIT_GENERATED_(B9)
  6
Continuous
 62
     7
100
AcDbEllipse
 10
76.5936828783
 20
664.5610431064
 30
0.0
 11
-8.50000000002648
 21
1.193489751472043E-12
 31
0.0
210
0.0
220
0.0
230
1.0
 40
0.1736481777
 41
6.171271384679133
 42
6.271420329891635
  0
ELLIPSE
  5
E8
330
75
100
AcDbEntity
  8
$DDT_AUDIT_GENERATED_(B9)
  6
Continuous
 62
     7
100
AcDbEllipse
 10
76.5936828839
 20
664.5610431061
 30
0.0
 11
-6.250000005621733
 21
2.813582700156303E-10
 31
0.0
210
0.0
220
0.0
230
1.0
 40
0.1736481776
 41
-0.2778000704127663
 42
-0.2457987049370418
  0
LINE
  5
E9
330
75
100
AcDbEntity
  8
$DDT_AUDIT_GENERATED_(B9)
  6
Continuous
 62
     7
100
AcDbLine
 10
70.5833011586
 20
664.8586768723
 30
0.0
 11
70.5833011586
 21
665.1435677025
 31
0.0
  0
LINE
  5
EA
330
75
100
AcDbEntity
  8
$DDT_AUDIT_GENERATED_(B9)
  6
Continuous
 62
     7
100
AcDbLine
 10
70.5833011586
 20
664.8586768723
 30
0.0
 11
68.5793069812
 21
664.9519204949
 31
0.0
  0
LINE
  5
EB
330
75
100
AcDbEntity
  8
$DDT_AUDIT_GENERATED_(B9)
  6
Continuous
 62
     7
100
AcDbLine
 10
70.5315373496
 20
664.8251306204
 30
0.0
 11
68.5030180912
 21
664.9195153678
 31
0.0
  0
ELLIPSE
  5
EC
330
75
100
AcDbEntity
  8
$DDT_AUDIT_GENERATED_(B9)
  6
Continuous
 62
     7
100
AcDbEllipse
 10
76.5936828816
 20
664.561043106
 30
0.0
 11
-6.250000003327236
 21
3.502753642692369E-10
 31
0.0
210
0.0
220
0.0
230
1.0
 40
0.1736481776
 41
-0.5395994581973591
 42
-0.507598092716461
  0
LINE
  5
ED
330
75
100
AcDbEntity
  8
$DDT_AUDIT_GENERATED_(B9)
  6
Continuous
 62
     7
100
AcDbLine
 10
71.2317169693
 20
665.1186625712
 30
0.0
 11
71.2317169693
 21
665.4675811544
 31
0.0
  0
LINE
  5
EE
330
75
100
AcDbEntity
  8
$DDT_AUDIT_GENERATED_(B9)
  6
Continuous
 62
     7
100
AcDbLine
 10
71.2317169693
 20
665.1186625712
 30
0.0
 11
69.6589371382
 21
665.2763429062
 31
0.0
  0
LINE
  5
EF
330
75
100
AcDbEntity
  8
$DDT_AUDIT_GENERATED_(B9)
  6
Continuous
 62
     7
100
AcDbLine
 10
71.1317169693
 20
665.0885858246
 30
0.0
 11
69.5392538035
 21
665.2482395285
 31
0.0
  0
ELLIPSE
  5
F0
330
75
100
AcDbEntity
  8
$DDT_AUDIT_GENERATED_(B9)
  6
Continuous
 62
     7
100
AcDbEllipse
 10
76.5936829014
 20
664.5610431024
 30
0.0
 11
-6.250000024478681
 21
2.920497177427706E-9
 31
0.0
210
0.0
220
0.0
230
1.0
 40
0.1736481777
 41
-0.8013988447137823
 42
-0.7693974793066714
  0
LINE
  5
F1
330
75
100
AcDbEntity
  8
$DDT_AUDIT_GENERATED_(B9)
  6
Continuous
 62
     7
100
AcDbLine
 10
72.2455418956
 20
665.3406474251
 30
0.0
 11
72.2455418956
 21
665.6726063587
 31
0.0
  0
LINE
  5
F2
330
75
100
AcDbEntity
  8
$DDT_AUDIT_GENERATED_(B9)
  6
Continuous
 62
     7
100
AcDbLine
 10
72.2455418956
 20
665.3406474251
 30
0.0
 11
71.1128485498
 21
665.5373375604
 31
0.0
  0
LINE
  5
F3
330
75
100
AcDbEntity
  8
$DDT_AUDIT_GENERATED_(B9)
  6
Continuous
 62
     7
100
AcDbLine
 10
72.1041205394
 20
665.3160898643
 30
0.0
 11
70.9583331277
 21
665.5150537603
 31
0.0
  0
ELLIPSE
  5
F4
330
75
100
AcDbEntity
  8
$DDT_AUDIT_GENERATED_(B9)
  6
Continuous
 62
     7
100
AcDbEllipse
 10
76.5936829071
 20
664.5610430977
 30
0.0
 11
-6.250000036019999
 21
4.468342362784483E-9
 31
0.0
210
0.0
220
0.0
230
1.0
 40
0.1736481781
 41
-1.063198231746123
 42
-1.031196866403004
  0
LINE
  5
F5
330
75
100
AcDbEntity
  8
$DDT_AUDIT_GENERATED_(B9)
  6
Continuous
 62
     7
100
AcDbLine
 10
73.5556854443
 20
665.509503533
 30
0.0
 11
73.5556854443
 21
665.7797197323
 31
0.0
  0
LINE
  5
F6
330
75
100
AcDbEntity
  8
$DDT_AUDIT_GENERATED_(B9)
  6
Continuous
 62
     7
100
AcDbLine
 10
73.5556854443
 20
665.509503533
 30
0.0
 11
72.8342407678
 21
665.7264906205
 31
0.0
  0
LINE
  5
F7
330
75
100
AcDbEntity
  8
$DDT_AUDIT_GENERATED_(B9)
  6
Continuous
 62
     7
100
AcDbLine
 10
73.3824803635
 20
665.4921387152
 30
0.0
 11
72.6545026425
 21
665.7110907299
 31
0.0
  0
ELLIPSE
  5
F8
330
75
100
AcDbEntity
  8
$DDT_AUDIT_GENERATED_(B9)
  6
Continuous
 62
     7
100
AcDbEllipse
 10
76.5936828932
 20
664.5610430967
 30
0.0
 11
-6.250000030770914
 21
2.588235181733012E-9
 31
0.0
210
0.0
220
0.0
230
1.0
 40
0.1736481784
 41
-1.324997620441403
 42
-1.292996255098499
  0
LINE
  5
F9
330
75
100
AcDbEntity
  8
$DDT_AUDIT_GENERATED_(B9)
  6
Continuous
 62
     7
100
AcDbLine
 10
75.0728634975
 20
665.6137236302
 30
0.0
 11
75.0728634975
 21
665.851559472
 31
0.0
  0
LINE
  5
FA
330
75
100
AcDbEntity
  8
$DDT_AUDIT_GENERATED_(B9)
  6
Continuous
 62
     7
100
AcDbLine
 10
75.0728634975
 20
665.6137236302
 30
0.0
 11
74.7244190511
 21
665.8395378698
 31
0.0
  0
LINE
  5
FB
330
75
100
AcDbEntity
  8
$DDT_AUDIT_GENERATED_(B9)
  6
Continuous
 62
     7
100
AcDbLine
 10
74.8796783323
 20
665.6047349391
 30
0.0
 11
74.5294860905
 21
665.8316818616
 31
0.0
  0
ARC
  5
FC
330
75
100
AcDbEntity
  8
$DDT_AUDIT_GENERATED_(B9)
  6
Continuous
 62
     7
100
AcDbCircle
 10
76.5936828783
 20
629.6584970815
 30
0.0
 40
35.98784714392355
100
AcDbArc
 50
89.8407911065
 51
90.1592088935
  0
LINE
  5
FD
330
75
100
AcDbEntity
  8
$DDT_AUDIT_GENERATED_(B9)
  6
Continuous
 62
     7
100
AcDbLine
 10
76.6936828783
 20
665.6462052894
 30
0.0
 11
76.6936828783
 21
665.8747209004
 31
0.0
  0
LINE
  5
FE
330
75
100
AcDbEntity
  8
$DDT_AUDIT_GENERATED_(B9)
  6
Continuous
 62
     7
100
AcDbLine
 10
76.4936828783
 20
665.6462052894
 30
0.0
 11
76.4936828783
 21
665.8747209004
 31
0.0
  0
ELLIPSE
  5
FF
330
75
100
AcDbEntity
  8
$DDT_AUDIT_GENERATED_(B9)
  6
Continuous
 62
     7
100
AcDbEllipse
 10
76.5936828634
 20
664.5610430968
 30
0.0
 11
6.250000030655344
 21
2.576994173608682E-9
 31
0.0
210
0.0
220
0.0
230
1.0
 40
0.1736481784
 41
1.292996255103291
 42
1.324997620446861
  0
LINE
  5
100
330
75
100
AcDbEntity
  8
$DDT_AUDIT_GENERATED_(B9)
  6
Continuous
 62
     7
100
AcDbLine
 10
78.3076874243
 20
665.6047349391
 30
0.0
 11
78.6578796661
 21
665.8316818616
 31
0.0
  0
LINE
  5
101
330
75
100
AcDbEntity
  8
$DDT_AUDIT_GENERATED_(B9)
  6
Continuous
 62
     7
100
AcDbLine
 10
78.1145022591
 20
665.6137236302
 30
0.0
 11
78.4629467055
 21
665.8395378698
 31
0.0
  0
LINE
  5
102
330
75
100
AcDbEntity
  8
$DDT_AUDIT_GENERATED_(B9)
  6
Continuous
 62
     7
100
AcDbLine
 10
78.1145022591
 20
665.6137236302
 30
0.0
 11
78.1145022591
 21
665.851559472
 31
0.0
  0
ELLIPSE
  5
103
330
75
100
AcDbEntity
  8
$DDT_AUDIT_GENERATED_(B9)
  6
Continuous
 62
     7
100
AcDbEllipse
 10
76.5936828486
 20
664.5610430975
 30
0.0
 11
6.250000037120441
 21
4.603928349666830E-9
 31
0.0
210
0.0
220
0.0
230
1.0
 40
0.1736481781
 41
1.031196866342657
 42
1.06319823168126
  0
LINE
  5
104
330
75
100
AcDbEntity
  8
$DDT_AUDIT_GENERATED_(B9)
  6
Continuous
 62
     7
100
AcDbLine
 10
79.8048853931
 20
665.4921387152
 30
0.0
 11
80.5328631141
 21
665.7110907299
 31
0.0
  0
LINE
  5
105
330
75
100
AcDbEntity
  8
$DDT_AUDIT_GENERATED_(B9)
  6
Continuous
 62
     7
100
AcDbLine
 10
79.6316803123
 20
665.509503533
 30
0.0
 11
80.3531249888
 21
665.7264906205
 31
0.0
  0
LINE
  5
106
330
75
100
AcDbEntity
  8
$DDT_AUDIT_GENERATED_(B9)
  6
Continuous
 62
     7
100
AcDbLine
 10
79.6316803123
 20
665.509503533
 30
0.0
 11
79.6316803123
 21
665.7797197323
 31
0.0
  0
ELLIPSE
  5
107
330
75
100
AcDbEntity
  8
$DDT_AUDIT_GENERATED_(B9)
  6
Continuous
 62
     7
100
AcDbEllipse
 10
76.5936828381
 20
664.5610430994
 30
0.0
 11
6.250000042622564
 21
5.085931675807842E-9
 31
0.0
210
0.0
220
0.0
230
1.0
 40
0.1736481777
 41
0.7693974783104173
 42
0.8013988436555702
  0
LINE
  5
108
330
75
100
AcDbEntity
  8
$DDT_AUDIT_GENERATED_(B9)
  6
Continuous
 62
     7
100
AcDbLine
 10
81.0832452172
 20
665.3160898643
 30
0.0
 11
82.2290326288
 21
665.5150537603
 31
0.0
  0
LINE
  5
109
330
75
100
AcDbEntity
  8
$DDT_AUDIT_GENERATED_(B9)
  6
Continuous
 62
     7
100
AcDbLine
 10
80.9418238609
 20
665.3406474251
 30
0.0
 11
82.0745172068
 21
665.5373375604
 31
0.0
  0
LINE
  5
10A
330
75
100
AcDbEntity
  8
$DDT_AUDIT_GENERATED_(B9)
  6
Continuous
 62
     7
100
AcDbLine
 10
80.9418238609
 20
665.3406474251
 30
0.0
 11
80.9418238609
 21
665.6726063587
 31
0.0
  0
ELLIPSE
  5
10B
330
75
100
AcDbEntity
  8
$DDT_AUDIT_GENERATED_(B9)
  6
Continuous
 62
     7
100
AcDbEllipse
 10
76.5936828291
 20
664.5610431015
 30
0.0
 11
6.250000049651643
 21
4.358624572375902E-9
 31
0.0
210
0.0
220
0.0
230
1.0
 40
0.1736481773
 41
0.5075980908386066
 42
0.5395994561839221
  0
LINE
  5
10C
330
75
100
AcDbEntity
  8
$DDT_AUDIT_GENERATED_(B9)
  6
Continuous
 62
     7
100
AcDbLine
 10
82.0556487873
 20
665.0885858246
 30
0.0
 11
83.648111953
 21
665.2482395285
 31
0.0
  0
LINE
  5
10D
330
75
100
AcDbEntity
  8
$DDT_AUDIT_GENERATED_(B9)
  6
Continuous
 62
     7
100
AcDbLine
 10
81.9556487873
 20
665.1186625712
 30
0.0
 11
83.5284286184
 21
665.2763429062
 31
0.0
  0
LINE
  5
10E
330
75
100
AcDbEntity
  8
$DDT_AUDIT_GENERATED_(B9)
  6
Continuous
 62
     7
100
AcDbLine
 10
81.9556487873
 20
665.1186625712
 30
0.0
 11
81.9556487873
 21
665.4675811544
 31
0.0
  0
ELLIPSE
  5
10F
330
75
100
AcDbEntity
  8
$DDT_AUDIT_GENERATED_(B9)
  6
Continuous
 62
     7
100
AcDbEllipse
 10
76.5936828471
 20
664.5610431049
 30
0.0
 11
6.250000031168114
 21
1.464578458509891E-9
 31
0.0
210
0.0
220
0.0
230
1.0
 40
0.1736481773
 41
0.2457987044094178
 42
0.2778000698175048
  0
LINE
  5
110
330
75
100
AcDbEntity
  8
$DDT_AUDIT_GENERATED_(B9)
  6
Continuous
 62
     7
100
AcDbLine
 10
82.655828407
 20
664.8251306204
 30
0.0
 11
84.6843476653
 21
664.9195153678
 31
0.0
  0
LINE
  5
111
330
75
100
AcDbEntity
  8
$DDT_AUDIT_GENERATED_(B9)
  6
Continuous
 62
     7
100
AcDbLine
 10
82.604064598
 20
664.8586768723
 30
0.0
 11
84.6080587754
 21
664.9519204949
 31
0.0
  0
LINE
  5
112
330
75
100
AcDbEntity
  8
$DDT_AUDIT_GENERATED_(B9)
  6
Continuous
 62
     7
100
AcDbLine
 10
82.604064598
 20
664.8586768723
 30
0.0
 11
82.604064598
 21
665.1435677025
 31
0.0
  0
ARC
  5
113
330
75
100
AcDbEntity
  8
$DDT_AUDIT_GENERATED_(B9)
  6
Continuous
 62
     7
100
AcDbCircle
 10
84.8368059991
 20
664.5610431064
 30
0.0
 40
0.2568762259794959
100
AcDbArc
 50
356.1238526717
 51
3.8761473283
  0
ELLIPSE
  5
114
330
75
100
AcDbEntity
  8
$DDT_AUDIT_GENERATED_(B9)
  6
Continuous
 62
     7
100
AcDbEllipse
 10
76.5936828783
 20
664.5610431064
 30
0.0
 11
8.500000000025574
 21
1.193489751472043E-12
 31
0.0
210
0.0
220
0.0
230
1.0
 40
0.1736481777
 41
0.0117649772879987
 42
0.1119139225004644
  0
ARC
  5
115
330
75
100
AcDbEntity
  8
$DDT_AUDIT_GENERATED_(B9)
  6
Continuous
 62
     7
100
AcDbCircle
 10
82.6544463915
 20
664.5610431064
 30
0.0
 40
0.1892348465220835
100
AcDbArc
 50
0.0
 51
5.2650577286
  0
LINE
  5
116
330
75
100
AcDbEntity
  8
$DDT_AUDIT_GENERATED_(B9)
  6
Continuous
 62
     7
100
AcDbLine
 10
82.8436828783
 20
664.5436782886
 30
0.0
 11
85.0930946226
 21
664.5436782886
 31
0.0
  0
LINE
  5
117
330
75
100
AcDbEntity
  8
$DDT_AUDIT_GENERATED_(B9)
  6
Continuous
 62
     7
100
AcDbLine
 10
82.8428828271
 20
664.5784079242
 30
0.0
 11
85.0930946226
 21
664.5784079242
 31
0.0
  0
LINE
  5
118
330
75
100
AcDbEntity
  8
$DDT_AUDIT_GENERATED_(B9)
  6
Continuous
 62
     7
100
AcDbLine
 10
82.8428828271
 20
664.5784079242
 30
0.0
 11
82.8428828271
 21
664.8338340548
 31
0.0
  0
ELLIPSE
  5
119
330
75
100
AcDbEntity
  8
$DDT_AUDIT_GENERATED_(B9)
  6
Continuous
 62
     7
100
AcDbEllipse
 10
76.5936833339
 20
664.5610430851
 30
0.0
 11
8.499999544124526
 21
2.119973641079298E-8
 31
0.0
210
0.0
220
0.0
230
1.0
 40
0.1736481818
 41
-0.2735643727836568
 42
-0.2500344175546045
  0
ELLIPSE
  5
11A
330
75
100
AcDbEntity
  8
$DDT_AUDIT_GENERATED_(B9)
  6
Continuous
 62
     7
100
AcDbEllipse
 10
76.5936828783
 20
664.5610431064
 30
0.0
 11
8.50000000002648
 21
-1.193489751472043E-12
 31
0.0
210
0.0
220
0.0
230
1.0
 40
0.1736481777
 41
6.033150896668908
 42
6.271420329891484
  0
LINE
  5
11B
330
75
100
AcDbEntity
  8
$DDT_AUDIT_GENERATED_(B9)
  6
Continuous
 62
     7
100
AcDbLine
 10
84.8293660949
 20
664.1958232986
 30
0.0
 11
84.8293660949
 21
664.5436782886
 31
0.0
  0
LINE
  5
11C
330
75
100
AcDbEntity
  8
$DDT_AUDIT_GENERATED_(B9)
  6
Continuous
 62
     7
100
AcDbLine
 10
82.8113125857
 20
664.2537663219
 30
0.0
 11
84.7776022859
 21
664.1622770467
 31
0.0
  0
LINE
  5
11D
330
75
100
AcDbEntity
  8
$DDT_AUDIT_GENERATED_(B9)
  6
Continuous
 62
     7
100
AcDbLine
 10
82.8286742631
 20
664.2889132667
 30
0.0
 11
84.8293660949
 21
664.1958232986
 31
0.0
  0
ELLIPSE
  5
11E
330
75
100
AcDbEntity
  8
$DDT_AUDIT_GENERATED_(B9)
  6
Continuous
 62
     7
100
AcDbEllipse
 10
76.5936832871
 20
664.5610430653
 30
0.0
 11
8.499999586913294
 21
3.666547621072880E-8
 31
0.0
210
0.0
220
0.0
230
1.0
 40
0.1736481801
 41
-0.5353637659880102
 42
-0.5118338107583842
  0
ELLIPSE
  5
11F
330
75
100
AcDbEntity
  8
$DDT_AUDIT_GENERATED_(B9)
  6
Continuous
 62
     7
100
AcDbEllipse
 10
76.5936828783
 20
664.5610431064
 30
0.0
 11
8.500000000027988
 21
-2.220446049250313E-12
 31
0.0
210
0.0
220
0.0
230
1.0
 40
0.1736481777
 41
-0.5118337983093113
 42
-0.2735643650868029
  0
LINE
  5
120
330
75
100
AcDbEntity
  8
$DDT_AUDIT_GENERATED_(B9)
  6
Continuous
 62
     7
100
AcDbLine
 10
84.0043893661
 20
663.8381277994
 30
0.0
 11
84.0043893661
 21
664.1982537848
 31
0.0
  0
LINE
  5
121
330
75
100
AcDbEntity
  8
$DDT_AUDIT_GENERATED_(B9)
  6
Continuous
 62
     7
100
AcDbLine
 10
82.3932854678
 20
663.9595480164
 30
0.0
 11
83.9043893661
 21
663.8080510528
 31
0.0
  0
LINE
  5
122
330
75
100
AcDbEntity
  8
$DDT_AUDIT_GENERATED_(B9)
  6
Continuous
 62
     7
100
AcDbLine
 10
82.4657170309
 20
663.9923886593
 30
0.0
 11
84.0043893661
 21
663.8381277994
 31
0.0
  0
ELLIPSE
  5
123
330
75
100
AcDbEntity
  8
$DDT_AUDIT_GENERATED_(B9)
  6
Continuous
 62
     7
100
AcDbEllipse
 10
76.5936832131
 20
664.5610430484
 30
0.0
 11
8.499999644869565
 21
4.232394990033583E-8
 31
0.0
210
0.0
220
0.0
230
1.0
 40
0.1736481777
 41
-0.7971631558050447
 42
-0.7736332005734523
  0
ELLIPSE
  5
124
330
75
100
AcDbEntity
  8
$DDT_AUDIT_GENERATED_(B9)
  6
Continuous
 62
     7
100
AcDbEllipse
 10
76.5936828783
 20
664.5610431064
 30
0.0
 11
8.500000000015252
 21
-1.221245327087672E-12
 31
0.0
210
0.0
220
0.0
230
1.0
 40
0.1736481777
 41
-0.7736331861086327
 42
-0.535363752885953
  0
LINE
  5
125
330
75
100
AcDbEntity
  8
$DDT_AUDIT_GENERATED_(B9)
  6
Continuous
 62
     7
100
AcDbLine
 10
82.6743852369
 20
663.5296977837
 30
0.0
 11
82.6743852369
 21
663.9313661279
 31
0.0
  0
LINE
  5
126
330
75
100
AcDbEntity
  8
$DDT_AUDIT_GENERATED_(B9)
  6
Continuous
 62
     7
100
AcDbLine
 10
81.4815488518
 20
663.6877165266
 30
0.0
 11
82.5329638807
 21
663.5051402229
 31
0.0
  0
LINE
  5
127
330
75
100
AcDbEntity
  8
$DDT_AUDIT_GENERATED_(B9)
  6
Continuous
 62
     7
100
AcDbLine
 10
81.6046683845
 20
663.7154521657
 30
0.0
 11
82.6743852369
 21
663.5296977837
 31
0.0
  0
ELLIPSE
  5
128
330
75
100
AcDbEntity
  8
$DDT_AUDIT_GENERATED_(B9)
  6
Continuous
 62
     7
100
AcDbEllipse
 10
76.5936830965
 20
664.5610430408
 30
0.0
 11
8.499999727265074
 21
3.385605684691484E-8
 31
0.0
210
0.0
220
0.0
230
1.0
 40
0.1736481754
 41
-1.058962540600381
 42
-1.035432585420299
  0
ELLIPSE
  5
129
330
75
100
AcDbEntity
  8
$DDT_AUDIT_GENERATED_(B9)
  6
Continuous
 62
     7
100
AcDbEllipse
 10
76.5936828783
 20
664.5610431064
 30
0.0
 11
8.500000000019288
 21
-2.220446049250313E-12
 31
0.0
210
0.0
220
0.0
230
1.0
 40
0.1736481777
 41
-1.035432573907455
 42
-0.7971631406848596
  0
LINE
  5
12A
330
75
100
AcDbEntity
  8
$DDT_AUDIT_GENERATED_(B9)
  6
Continuous
 62
     7
100
AcDbLine
 10
80.9299912908
 20
663.2915522473
 30
0.0
 11
80.9299912908
 21
663.5824924902
 31
0.0
  0
LINE
  5
12B
330
75
100
AcDbEntity
  8
$DDT_AUDIT_GENERATED_(B9)
  6
Continuous
 62
     7
100
AcDbLine
 10
80.1144871775
 20
663.4673700822
 30
0.0
 11
80.7567862101
 21
663.2741874296
 31
0.0
  0
LINE
  5
12C
330
75
100
AcDbEntity
  8
$DDT_AUDIT_GENERATED_(B9)
  6
Continuous
 62
     7
100
AcDbLine
 10
80.278579432
 20
663.4874757417
 30
0.0
 11
80.9299912908
 21
663.2915522473
 31
0.0
  0
ELLIPSE
  5
12D
330
75
100
AcDbEntity
  8
$DDT_AUDIT_GENERATED_(B9)
  6
Continuous
 62
     7
100
AcDbEllipse
 10
76.5936830001
 20
664.5610430276
 30
0.0
 11
8.499999748900359
 21
2.103744956016840E-8
 31
0.0
210
0.0
220
0.0
230
1.0
 40
0.1736481735
 41
-1.320761923961619
 42
-1.297231968733943
  0
ELLIPSE
  5
12E
330
75
100
AcDbEntity
  8
$DDT_AUDIT_GENERATED_(B9)
  6
Continuous
 62
     7
100
AcDbEllipse
 10
76.5936828783
 20
664.5610431064
 30
0.0
 11
8.499999999997733
 21
1.387778780781446E-13
 31
0.0
210
0.0
220
0.0
230
1.0
 40
0.1736481777
 41
-1.297231961707784
 42
-1.058962528484768
  0
LINE
  5
12F
330
75
100
AcDbEntity
  8
$DDT_AUDIT_GENERATED_(B9)
  6
Continuous
 62
     7
100
AcDbLine
 10
78.8900850925
 20
663.1399204151
 30
0.0
 11
78.8900850925
 21
663.3546935581
 31
0.0
  0
LINE
  5
130
330
75
100
AcDbEntity
  8
$DDT_AUDIT_GENERATED_(B9)
  6
Continuous
 62
     7
100
AcDbLine
 10
78.3974974328
 20
663.3249636487
 30
0.0
 11
78.6968999273
 21
663.130931724
 31
0.0
  0
LINE
  5
131
330
75
100
AcDbEntity
  8
$DDT_AUDIT_GENERATED_(B9)
  6
Continuous
 62
     7
100
AcDbLine
 10
78.5882482139
 20
663.3355299762
 30
0.0
 11
78.8900850925
 21
663.1399204151
 31
0.0
  0
ARC
  5
132
330
75
100
AcDbEntity
  8
$DDT_AUDIT_GENERATED_(B9)
  6
Continuous
 62
     7
100
AcDbCircle
 10
76.5936828783
 20
693.866640743
 30
0.0
 40
30.21725070590767
100
AcDbArc
 50
269.6681757198
 51
270.3318242802
  0
LINE
  5
133
330
75
100
AcDbEntity
  8
$DDT_AUDIT_GENERATED_(B9)
  6
Continuous
 62
     7
100
AcDbLine
 10
76.4186828783
 20
663.8875169527
 30
0.0
 11
76.4186828783
 21
663.6498967883
 31
0.0
  0
LINE
  5
134
330
75
100
AcDbEntity
  8
$DDT_AUDIT_GENERATED_(B9)
  6
Continuous
 62
     7
100
AcDbLine
 10
76.7686828783
 20
663.8875169527
 30
0.0
 11
76.7686828783
 21
663.6498967883
 31
0.0
  0
ELLIPSE
  5
135
330
75
100
AcDbEntity
  8
$DDT_AUDIT_GENERATED_(B9)
  6
Continuous
 62
     7
100
AcDbEllipse
 10
76.5936828764
 20
664.5610431058
 30
0.0
 11
-5.249999997682748
 21
2.894351425197783E-10
 31
0.0
210
0.0
220
0.0
230
1.0
 40
0.1736481776
 41
1.013858042086935
 42
1.080537060633011
  0
LINE
  5
136
330
75
100
AcDbEntity
  8
$DDT_AUDIT_GENERATED_(B9)
  6
Continuous
 62
     7
100
AcDbLine
 10
74.6269959594
 20
664.0303045269
 30
0.0
 11
73.8185871713
 21
663.7871614639
 31
0.0
  0
LINE
  5
137
330
75
100
AcDbEntity
  8
$DDT_AUDIT_GENERATED_(B9)
  6
Continuous
 62
     7
100
AcDbLine
 10
74.8931402897
 20
663.9887983584
 30
0.0
 11
74.1216960626
 21
663.7567730328
 31
0.0
  0
LINE
  5
138
330
75
100
AcDbEntity
  8
$DDT_AUDIT_GENERATED_(B9)
  6
Continuous
 62
     7
100
AcDbLine
 10
73.8185871713
 20
664.2477340671
 30
0.0
 11
73.8185871713
 21
663.7871614639
 31
0.0
  0
ELLIPSE
  5
139
330
75
100
AcDbEntity
  8
$DDT_AUDIT_GENERATED_(B9)
  6
Continuous
 62
     7
100
AcDbEllipse
 10
76.5936828803
 20
664.5610431066
 30
0.0
 11
-5.25000000203485
 21
-1.755817713444685E-10
 31
0.0
210
0.0
220
0.0
230
1.0
 40
0.1736481776
 41
0.4902592662426242
 42
0.5569382847504181
  0
LINE
  5
13A
330
75
100
AcDbEntity
  8
$DDT_AUDIT_GENERATED_(B9)
  6
Continuous
 62
     7
100
AcDbLine
 10
73.8546242743
 20
664.321526072
 30
0.0
 11
71.9620761179
 21
664.1317871006
 31
0.0
  0
LINE
  5
13B
330
75
100
AcDbEntity
  8
$DDT_AUDIT_GENERATED_(B9)
  6
Continuous
 62
     7
100
AcDbLine
 10
73.9133973084
 20
664.2572393353
 30
0.0
 11
72.1370761179
 21
664.079152794
 31
0.0
  0
LINE
  5
13C
330
75
100
AcDbEntity
  8
$DDT_AUDIT_GENERATED_(B9)
  6
Continuous
 62
     7
100
AcDbLine
 10
71.9620761179
 20
664.5306546753
 30
0.0
 11
71.9620761179
 21
664.1317871006
 31
0.0
  0
LINE
  5
13D
330
75
100
AcDbEntity
  8
$DDT_AUDIT_GENERATED_(B9)
  6
Continuous
 62
     7
100
AcDbLine
 10
73.8492567088
 20
664.8010982705
 30
0.0
 11
73.8492567088
 21
664.5914315375
 31
0.0
  0
ELLIPSE
  5
13E
330
75
100
AcDbEntity
  8
$DDT_AUDIT_GENERATED_(B9)
  6
Continuous
 62
     7
100
AcDbEllipse
 10
76.5936828783
 20
664.5610431064
 30
0.0
 11
2.750000000002432
 21
0.0
 31
0.0
210
0.0
220
0.0
230
1.0
 40
0.1736481777
 41
3.077913261332817
 42
3.141592653589793
  0
LINE
  5
13F
330
75
100
AcDbEntity
  8
$DDT_AUDIT_GENERATED_(B9)
  6
Continuous
 62
     7
100
AcDbLine
 10
73.8492567088
 20
664.5914315375
 30
0.0
 11
71.5095558368
 21
664.5914315375
 31
0.0
  0
LINE
  5
140
330
75
100
AcDbEntity
  8
$DDT_AUDIT_GENERATED_(B9)
  6
Continuous
 62
     7
100
AcDbLine
 10
73.8436828783
 20
664.5306546753
 30
0.0
 11
71.4320622773
 21
664.5306546753
 31
0.0
  0
LINE
  5
141
330
75
100
AcDbEntity
  8
$DDT_AUDIT_GENERATED_(B9)
  6
Continuous
 62
     7
100
AcDbLine
 10
74.3044400967
 20
665.1845001463
 30
0.0
 11
74.3044400967
 21
664.8256425613
 31
0.0
  0
ELLIPSE
  5
142
330
75
100
AcDbEntity
  8
$DDT_AUDIT_GENERATED_(B9)
  6
Continuous
 62
     7
100
AcDbEllipse
 10
76.5936828784
 20
664.5610431064
 30
0.0
 11
-2.750000000080025
 21
3.358424649491098E-12
 31
0.0
210
0.0
220
0.0
230
1.0
 40
0.1736481777
 41
-0.5872781678468755
 42
-0.4599193833348973
  0
LINE
  5
143
330
75
100
AcDbEntity
  8
$DDT_AUDIT_GENERATED_(B9)
  6
Continuous
 62
     7
100
AcDbLine
 10
74.3044400967
 20
664.8256425613
 30
0.0
 11
72.7375386934
 21
664.9827335496
 31
0.0
  0
LINE
  5
144
330
75
100
AcDbEntity
  8
$DDT_AUDIT_GENERATED_(B9)
  6
Continuous
 62
     7
100
AcDbLine
 10
74.1294400967
 20
664.7730082546
 30
0.0
 11
72.5047718553
 21
664.9358907048
 31
0.0
  0
LINE
  5
145
330
75
100
AcDbEntity
  8
$DDT_AUDIT_GENERATED_(B9)
  6
Continuous
 62
     7
100
AcDbLine
 10
75.3730242392
 20
665.2507505164
 30
0.0
 11
75.3730242392
 21
664.9889543748
 31
0.0
  0
ELLIPSE
  5
146
330
75
100
AcDbEntity
  8
$DDT_AUDIT_GENERATED_(B9)
  6
Continuous
 62
     7
100
AcDbEllipse
 10
76.5936828782
 20
664.5610431064
 30
0.0
 11
-2.749999999958272
 21
-5.107025913275720E-12
 31
0.0
210
0.0
220
0.0
230
1.0
 40
0.1736481777
 41
-1.110876943459911
 42
-0.9835181589443254
  0
LINE
  5
147
330
75
100
AcDbEntity
  8
$DDT_AUDIT_GENERATED_(B9)
  6
Continuous
 62
     7
100
AcDbLine
 10
75.3730242392
 20
664.9889543748
 30
0.0
 11
74.6377434686
 21
665.2101029092
 31
0.0
  0
LINE
  5
148
330
75
100
AcDbEntity
  8
$DDT_AUDIT_GENERATED_(B9)
  6
Continuous
 62
     7
100
AcDbLine
 10
75.0699153479
 20
664.9585659437
 30
0.0
 11
74.3156082056
 21
665.1854369917
 31
0.0
  0
ARC
  5
149
330
75
100
AcDbEntity
  8
$DDT_AUDIT_GENERATED_(B9)
  6
Continuous
 62
     7
100
AcDbCircle
 10
76.5936828783
 20
649.2330872912
 30
0.0
 40
15.80548925698534
100
AcDbArc
 50
89.3656022836
 51
90.6343977164
  0
LINE
  5
14A
330
75
100
AcDbEntity
  8
$DDT_AUDIT_GENERATED_(B9)
  6
Continuous
 62
     7
100
AcDbLine
 10
76.7686828783
 20
665.0376077095
 30
0.0
 11
76.7686828783
 21
665.2752278739
 31
0.0
  0
LINE
  5
14B
330
75
100
AcDbEntity
  8
$DDT_AUDIT_GENERATED_(B9)
  6
Continuous
 62
     7
100
AcDbLine
 10
76.4186828783
 20
665.0376077095
 30
0.0
 11
76.4186828783
 21
665.2752278739
 31
0.0
  0
ELLIPSE
  5
14C
330
75
100
AcDbEntity
  8
$DDT_AUDIT_GENERATED_(B9)
  6
Continuous
 62
     7
100
AcDbEllipse
 10
76.5936828783
 20
664.5610431064
 30
0.0
 11
2.749999999995521
 21
-5.273559366969494E-13
 31
0.0
210
0.0
220
0.0
230
1.0
 40
0.1736481777
 41
0.9835181589401714
 42
1.110876943454377
  0
LINE
  5
14D
330
75
100
AcDbEntity
  8
$DDT_AUDIT_GENERATED_(B9)
  6
Continuous
 62
     7
100
AcDbLine
 10
77.8143415174
 20
665.2507505164
 30
0.0
 11
77.8143415174
 21
664.9889543748
 31
0.0
  0
LINE
  5
14E
330
75
100
AcDbEntity
  8
$DDT_AUDIT_GENERATED_(B9)
  6
Continuous
 62
     7
100
AcDbLine
 10
78.1174504087
 20
664.9585659437
 30
0.0
 11
78.8717575509
 21
665.1854369917
 31
0.0
  0
LINE
  5
14F
330
75
100
AcDbEntity
  8
$DDT_AUDIT_GENERATED_(B9)
  6
Continuous
 62
     7
100
AcDbLine
 10
77.8143415174
 20
664.9889543748
 30
0.0
 11
78.549622288
 21
665.2101029092
 31
0.0
  0
ELLIPSE
  5
150
330
75
100
AcDbEntity
  8
$DDT_AUDIT_GENERATED_(B9)
  6
Continuous
 62
     7
100
AcDbEllipse
 10
76.5936828783
 20
664.5610431064
 30
0.0
 11
2.749999999995302
 21
1.942890293094024E-12
 31
0.0
210
0.0
220
0.0
230
1.0
 40
0.1736481777
 41
0.4599193833415723
 42
0.587278167855788
  0
LINE
  5
151
330
75
100
AcDbEntity
  8
$DDT_AUDIT_GENERATED_(B9)
  6
Continuous
 62
     7
100
AcDbLine
 10
78.8829256599
 20
665.1845001463
 30
0.0
 11
78.8829256599
 21
664.8256425613
 31
0.0
  0
LINE
  5
152
330
75
100
AcDbEntity
  8
$DDT_AUDIT_GENERATED_(B9)
  6
Continuous
 62
     7
100
AcDbLine
 10
79.0579256599
 20
664.7730082546
 30
0.0
 11
80.6825939012
 21
664.9358907048
 31
0.0
  0
LINE
  5
153
330
75
100
AcDbEntity
  8
$DDT_AUDIT_GENERATED_(B9)
  6
Continuous
 62
     7
100
AcDbLine
 10
78.8829256599
 20
664.8256425613
 30
0.0
 11
80.4498270632
 21
664.9827335496
 31
0.0
  0
ELLIPSE
  5
154
330
75
100
AcDbEntity
  8
$DDT_AUDIT_GENERATED_(B9)
  6
Continuous
 62
     7
100
AcDbEllipse
 10
76.5936828783
 20
664.5610431064
 30
0.0
 11
-2.750000000004553
 21
0.0
 31
0.0
210
0.0
220
0.0
230
1.0
 40
0.1736481777
 41
3.141592653589793
 42
3.205272045846765
  0
LINE
  5
155
330
75
100
AcDbEntity
  8
$DDT_AUDIT_GENERATED_(B9)
  6
Continuous
 62
     7
100
AcDbLine
 10
79.3381090478
 20
664.8010982705
 30
0.0
 11
79.3381090478
 21
664.5914315375
 31
0.0
  0
LINE
  5
156
330
75
100
AcDbEntity
  8
$DDT_AUDIT_GENERATED_(B9)
  6
Continuous
 62
     7
100
AcDbLine
 10
79.3436828783
 20
664.5306546753
 30
0.0
 11
81.7553034792
 21
664.5306546753
 31
0.0
  0
LINE
  5
157
330
75
100
AcDbEntity
  8
$DDT_AUDIT_GENERATED_(B9)
  6
Continuous
 62
     7
100
AcDbLine
 10
79.3381090478
 20
664.5914315375
 30
0.0
 11
81.6778099197
 21
664.5914315375
 31
0.0
  0
ELLIPSE
  5
158
330
75
100
AcDbEntity
  8
$DDT_AUDIT_GENERATED_(B9)
  6
Continuous
 62
     7
100
AcDbEllipse
 10
76.5936828789
 20
664.5610431063
 30
0.0
 11
5.249999999409146
 21
5.723199691942682E-11
 31
0.0
210
0.0
220
0.0
230
1.0
 40
0.1736481777
 41
-0.556938284891487
 42
-0.4902592663645766
  0
LINE
  5
159
330
75
100
AcDbEntity
  8
$DDT_AUDIT_GENERATED_(B9)
  6
Continuous
 62
     7
100
AcDbLine
 10
79.2739684482
 20
664.2572393353
 30
0.0
 11
81.0502896387
 21
664.079152794
 31
0.0
  0
LINE
  5
15A
330
75
100
AcDbEntity
  8
$DDT_AUDIT_GENERATED_(B9)
  6
Continuous
 62
     7
100
AcDbLine
 10
79.3327414823
 20
664.321526072
 30
0.0
 11
81.2252896387
 21
664.1317871006
 31
0.0
  0
LINE
  5
15B
330
75
100
AcDbEntity
  8
$DDT_AUDIT_GENERATED_(B9)
  6
Continuous
 62
     7
100
AcDbLine
 10
81.2252896387
 20
664.5306546753
 30
0.0
 11
81.2252896387
 21
664.1317871006
 31
0.0
  0
ELLIPSE
  5
15C
330
75
100
AcDbEntity
  8
$DDT_AUDIT_GENERATED_(B9)
  6
Continuous
 62
     7
100
AcDbEllipse
 10
76.59368288
 20
664.5610431059
 30
0.0
 11
5.24999999782387
 21
2.715883073989289E-10
 31
0.0
210
0.0
220
0.0
230
1.0
 40
0.1736481776
 41
-1.080537060621403
 42
-1.013858042076687
  0
LINE
  5
15D
330
75
100
AcDbEntity
  8
$DDT_AUDIT_GENERATED_(B9)
  6
Continuous
 62
     7
100
AcDbLine
 10
78.2942254669
 20
663.9887983584
 30
0.0
 11
79.065669694
 21
663.7567730328
 31
0.0
  0
LINE
  5
15E
330
75
100
AcDbEntity
  8
$DDT_AUDIT_GENERATED_(B9)
  6
Continuous
 62
     7
100
AcDbLine
 10
78.5603697972
 20
664.0303045269
 30
0.0
 11
79.3687785853
 21
663.7871614639
 31
0.0
  0
LINE
  5
15F
330
75
100
AcDbEntity
  8
$DDT_AUDIT_GENERATED_(B9)
  6
Continuous
 62
     7
100
AcDbLine
 10
79.3687785853
 20
664.2477340671
 30
0.0
 11
79.3687785853
 21
663.7871614639
 31
0.0
  0
LINE
  5
160
330
75
100
AcDbEntity
  8
$DDT_AUDIT_GENERATED_(B9)
  6
Continuous
 62
     7
100
AcDbLine
 10
67.5936828783
 20
665.5346314505
 30
0.0
 11
67.5936828783
 21
664.3640815558
 31
0.0
  0
LINE
  5
161
330
75
100
AcDbEntity
  8
$DDT_AUDIT_GENERATED_(B9)
  6
Continuous
 62
     7
100
AcDbLine
 10
85.5936828783
 20
664.3640815558
 30
0.0
 11
85.5936828783
 21
665.5346314505
 31
0.0
  0
LINE
  5
162
330
75
100
AcDbEntity
  8
$DDT_AUDIT_GENERATED_(B9)
  6
Continuous
 62
     7
100
AcDbLine
 10
70.3436828783
 20
664.5610431064
 30
0.0
 11
70.3436828783
 21
664.3640815558
 31
0.0
  0
LINE
  5
163
330
75
100
AcDbEntity
  8
$DDT_AUDIT_GENERATED_(B9)
  6
Continuous
 62
     7
100
AcDbLine
 10
82.8436828783
 20
664.3640815558
 30
0.0
 11
82.8436828783
 21
664.5610431064
 31
0.0
  0
LINE
  5
164
330
75
100
AcDbEntity
  8
$DDT_AUDIT_GENERATED_(B9)
  6
Continuous
 62
     7
100
AcDbLine
 10
73.8436828783
 20
664.5610431064
 30
0.0
 11
73.8436828783
 21
664.3640815558
 31
0.0
  0
LINE
  5
165
330
75
100
AcDbEntity
  8
$DDT_AUDIT_GENERATED_(B9)
  6
Continuous
 62
     7
100
AcDbLine
 10
79.3436828783
 20
664.3640815558
 30
0.0
 11
79.3436828783
 21
664.5610431064
 31
0.0
  0
LINE
  5
166
330
75
100
AcDbEntity
  8
$DDT_AUDIT_GENERATED_(B9)
  6
Continuous
 62
     7
100
AcDbLine
 10
76.0740529344
 20
664.7263569667
 30
0.0
 11
76.0740529344
 21
664.5610431064
 31
0.0
  0
LINE
  5
167
330
75
100
AcDbEntity
  8
$DDT_AUDIT_GENERATED_(B9)
  6
Continuous
 62
     7
100
AcDbLine
 10
77.1133128222
 20
664.5610431064
 30
0.0
 11
77.1133128222
 21
664.7263569667
 31
0.0
  0
ELLIPSE
  5
169
330
75
100
AcDbEntity
  8
$DDT_AUDIT_GENERATED_(168)
  6
Continuous
 62
     7
100
AcDbEllipse
 10
76.5936678932
 20
706.3202091077
 30
0.0
 11
-13.50002659623924
 21
-5.443978601249455E-10
 31
0.0
210
0.0
220
0.0
230
1.0
 40
0.1736481775
 41
4.134606114150062
 42
4.142959627126698
  0
ELLIPSE
  5
16A
330
75
100
AcDbEntity
  8
$DDT_AUDIT_GENERATED_(168)
  6
Continuous
 62
     7
100
AcDbEllipse
 10
76.5936623316
 20
668.8942061997
 30
0.0
 11
12.8
 21
0.0
 31
0.0
210
0.0
220
0.0
230
1.0
 40
0.1736481777
 41
0.4966128327746234
 42
2.651885750950685
  0
LINE
  5
16B
330
75
100
AcDbEntity
  8
$DDT_AUDIT_GENERATED_(168)
  6
Continuous
 62
     7
100
AcDbLine
 10
90.5936810492
 20
669.3866052817
 30
0.0
 11
90.5936810492
 21
705.8278050588
 31
0.0
  0
LINE
  5
16C
330
75
100
AcDbEntity
  8
$DDT_AUDIT_GENERATED_(168)
  6
Continuous
 62
     7
100
AcDbLine
 10
62.5936810492
 20
705.827805059
 30
0.0
 11
62.5936810492
 21
669.3866052381
 31
0.0
  0
SPLINE
  5
16D
330
75
100
AcDbEntity
  8
$DDT_AUDIT_GENERATED_(168)
  6
Continuous
 62
     7
100
AcDbSpline
210
0.0
220
0.0
230
1.0
 70
     8
 71
     3
 72
    14
 73
    10
 74
     0
 42
0.0000000017546444
 43
0.0000000001
 40
0.0
 40
0.0
 40
0.0
 40
0.0
 40
0.0968873989865603
 40
0.170664201798313
 40
0.226588647012602
 40
0.2949076127172313
 40
0.3695540004291863
 40
0.4933459305882039
 40
0.515258577133192
 40
0.515258577133192
 40
0.515258577133192
 40
0.515258577133192
 10
62.59361603284096
 20
669.3865671333657
 30
0.0
 10
62.61750171968109
 20
669.2168157295805
 30
0.0
 10
62.65609248973764
 20
668.9688971690364
 30
0.0
 10
62.90154298671125
 20
668.6552771448405
 30
0.0
 10
63.14903748268623
 20
668.4430065501061
 30
0.0
 10
63.45439464000064
 20
668.2477669950051
 30
0.0
 10
63.91225406900383
 20
668.0234231334025
 30
0.0
 10
64.37660422754705
 20
667.8524911646138
 30
0.0
 10
64.72725363849905
 20
667.7450247146621
 30
0.0
 10
64.78095307711101
 20
667.7289937680047
 30
0.0
  0
SPLINE
  5
16E
330
75
100
AcDbEntity
  8
$DDT_AUDIT_GENERATED_(168)
  6
Continuous
 62
     7
100
AcDbSpline
210
0.0
220
0.0
230
1.0
 70
     8
 71
     3
 72
    14
 73
    10
 74
     0
 42
0.0000000022249294
 43
0.0000000001
 40
0.3466157489284142
 40
0.3466157489284142
 40
0.3466157489284142
 40
0.3466157489284142
 40
0.4137744350198599
 40
0.5314279122765503
 40
0.6260664963569478
 40
0.7126776591220632
 40
0.783569097697836
 40
0.8771158128055502
 40
1.0
 40
1.0
 40
1.0
 40
1.0
 10
88.40606949143128
 20
667.7287833077892
 30
0.0
 10
88.53588633500718
 20
667.7675280785942
 30
0.0
 10
88.87782184920223
 20
667.8765145559807
 30
0.0
 10
89.32808934861525
 20
668.0494192408695
 30
0.0
 10
89.73298517265911
 20
668.2477837613831
 30
0.0
 10
90.0383239601471
 20
668.4429946114486
 30
0.0
 10
90.28573444714867
 20
668.6552662927241
 30
0.0
 10
90.53121117849322
 20
668.9689219005387
 30
0.0
 10
90.56981140737334
 20
669.2168673712107
 30
0.0
 10
90.59370910118736
 20
669.3866586848342
 30
0.0
  0
ARC
  5
16F
330
75
100
AcDbEntity
  8
$DDT_AUDIT_GENERATED_(168)
  6
Continuous
 62
     7
100
AcDbCircle
 10
76.666127165
 20
639.5235450607
 30
0.0
 40
69.14695032764786
100
AcDbArc
 50
87.9223348589
 51
90.060045016
  0
ARC
  5
170
330
75
100
AcDbEntity
  8
$DDT_AUDIT_GENERATED_(168)
  6
Continuous
 62
     7
100
AcDbCircle
 10
77.7724165826
 20
655.2851590925
 30
0.0
 40
53.3582639018006
100
AcDbArc
 50
83.3866954608
 51
88.4958988042
  0
ARC
  5
171
330
75
100
AcDbEntity
  8
$DDT_AUDIT_GENERATED_(168)
  6
Continuous
 62
     7
100
AcDbCircle
 10
82.0428643534
 20
686.9172304225
 30
0.0
 40
21.45321770024528
100
AcDbArc
 50
79.535212303
 51
84.986767176
  0
SPLINE
  5
172
330
75
100
AcDbEntity
  8
$DDT_AUDIT_GENERATED_(168)
  6
Continuous
 62
     7
100
AcDbSpline
210
0.0
220
0.0
230
1.0
 70
     8
 71
     3
 72
    16
 73
    12
 74
     0
 42
0.0000000018304486
 43
0.0000000001
 40
0.0
 40
0.0
 40
0.0
 40
0.0
 40
0.1228874814827739
 40
0.2164475333179935
 40
0.2873566340750525
 40
0.3739836552632304
 40
0.4686358110790493
 40
0.625601959366085
 40
0.7752874385295336
 40
0.9178801490717756
 40
1.0
 40
1.0
 40
1.0
 40
1.0
 10
90.59370863274728
 20
705.82776690712
 30
0.0
 10
90.5698157248067
 20
705.9975417094863
 30
0.0
 10
90.53122107354194
 20
706.2454755710148
 30
0.0
 10
90.28576097232461
 20
706.5591308819004
 30
0.0
 10
90.0383457384569
 20
706.7714089520463
 30
0.0
 10
89.73293137291802
 20
706.9666769704843
 30
0.0
 10
89.27505566670587
 20
707.1908751182085
 30
0.0
 10
88.60795099237154
 20
707.437279954633
 30
0.0
 10
87.68609734834156
 20
707.6862528909693
 30
0.0
 10
86.7915125348329
 20
707.885101297088
 30
0.0
 10
86.19609289067144
 20
707.9751595257194
 30
0.0
 10
85.93943827556232
 20
708.0136107130812
 30
0.0
  0
SPLINE
  5
173
330
75
100
AcDbEntity
  8
$DDT_AUDIT_GENERATED_(168)
  6
Continuous
 62
     7
100
AcDbSpline
210
0.0
220
0.0
230
1.0
 70
     8
 71
     3
 72
    18
 73
    14
 74
     0
 42
0.0000000012694877
 43
0.0000000001
 40
0.0
 40
0.0
 40
0.0
 40
0.0
 40
0.1077667506780374
 40
0.2761280156031426
 40
0.360447439967054
 40
0.4464372202403957
 40
0.5376893507256497
 40
0.6304818397301861
 40
0.7051213605073895
 40
0.7734310924189927
 40
0.8293439693536582
 40
0.9031127506997483
 40
1.0
 40
1.0
 40
1.0
 40
1.0
 10
69.6406022011641
 20
708.3290428667668
 30
0.0
 10
69.15470765336565
 20
708.279741228816
 30
0.0
 10
68.1017555282398
 20
708.1708404977725
 30
0.0
 10
66.80792762822875
 20
707.9597773257731
 30
0.0
 10
65.76616962511098
 20
707.74596382407
 30
0.0
 10
65.04251154413616
 20
707.5667485383528
 30
0.0
 10
64.38776964479626
 20
707.3680725931061
 30
0.0
 10
63.85920670557384
 20
707.1649693443727
 30
0.0
 10
63.45436320659457
 20
706.9666423253165
 30
0.0
 10
63.14906267782261
 20
706.7714276869694
 30
0.0
 10
62.90156741733971
 20
706.5591717667021
 30
0.0
 10
62.65610054332642
 20
706.245551000541
 30
0.0
 10
62.61750512617838
 20
705.9976240491674
 30
0.0
 10
62.59361556440106
 20
705.8278584610326
 30
0.0
  0
ARC
  5
174
330
75
100
AcDbEntity
  8
$DDT_AUDIT_GENERATED_(168)
  6
Continuous
 62
     7
100
AcDbCircle
 10
75.5718793626
 20
653.5103654718
 30
0.0
 40
55.13862022305135
100
AcDbArc
 50
91.2239182307
 51
96.1752720727
  0
ARC
  5
175
330
75
100
AcDbEntity
  8
$DDT_AUDIT_GENERATED_(168)
  6
Continuous
 62
     7
100
AcDbCircle
 10
76.5117409542
 20
642.9140474587
 30
0.0
 40
65.7564650061257
100
AcDbArc
 50
89.9286191779
 51
91.845462864
  0
SPLINE
  5
176
330
75
100
AcDbEntity
  8
$DDT_AUDIT_GENERATED_(168)
  6
Continuous
 62
     7
100
AcDbSpline
210
0.0
220
0.0
230
1.0
 70
     8
 71
     3
 72
    13
 73
     9
 74
     0
 42
0.0000000061746553
 43
0.0000000001
 40
0.0
 40
0.0
 40
0.0
 40
0.0
 40
0.1580439043753863
 40
0.3398748508038306
 40
0.5165257956042247
 40
0.6858008969543594
 40
0.8476387705406209
 40
0.8517995024141736
 40
0.8517995024141736
 40
0.8517995024141736
 40
0.8517995024141736
 10
87.68794171808891
 20
669.9694352587821
 30
0.0
 10
87.8482375666847
 20
669.9165626321031
 30
0.0
 10
88.13558402968172
 20
669.8207544116657
 30
0.0
 10
88.49474181702013
 20
669.6592508927918
 30
0.0
 10
88.74805140989425
 20
669.5083691652728
 30
0.0
 10
88.88253601787144
 20
669.3892541907294
 30
0.0
 10
88.89671276156746
 20
669.3547814834429
 30
0.0
 10
88.8989071413384
 20
669.3545784156112
 30
0.0
 10
88.89895913238016
 20
669.354583715128
 30
0.0
  0
SPLINE
  5
177
330
75
100
AcDbEntity
  8
$DDT_AUDIT_GENERATED_(168)
  6
Continuous
 62
     7
100
AcDbSpline
210
0.0
220
0.0
230
1.0
 70
     8
 71
     3
 72
    13
 73
     9
 74
     0
 42
0.0000000063173779
 43
0.0000000001
 40
0.1577323919893268
 40
0.1577323919893268
 40
0.1577323919893268
 40
0.1577323919893268
 40
0.1922935336580105
 40
0.3456507776989663
 40
0.5071068424165073
 40
0.6708728734446695
 40
0.8424414048435993
 40
1.0
 40
1.0
 40
1.0
 40
1.0
 10
64.28873122527439
 20
669.3559458791179
 30
0.0
 10
64.28863981912613
 20
669.3554619260349
 30
0.0
 10
64.28981210104446
 20
669.3563141188372
 30
0.0
 10
64.31846723449026
 20
669.4036023263753
 30
0.0
 10
64.4537530296796
 20
669.5174021780759
 30
0.0
 10
64.69396877682918
 20
669.6589822620981
 30
0.0
 10
65.03071844152288
 20
669.8116621446375
 30
0.0
 10
65.30172888818977
 20
669.9039716856568
 30
0.0
 10
65.45748215549122
 20
669.9564511695838
 30
0.0
  0
LINE
  5
179
330
75
100
AcDbEntity
  8
DV1_Standard
  6
Continuous
 62
     7
100
AcDbLine
 10
49.7936810492
 20
449.9958762963
 30
0.0
 11
103.1936810492
 21
449.7958762963
 31
0.0
  0
ENDBLK
  5
17B
330
75
100
AcDbEntity
  8
0
100
AcDbBlockEnd
  0
BLOCK
  5
1BE
330
17C
100
AcDbEntity
  8
0
100
AcDbBlockBegin
  2
SE1
 70
     0
 10
0.0
 20
0.0
 30
0.0
  3
SE1
  1

  0
LINE
  5
17E
330
17C
100
AcDbEntity
  8
$DDT_AUDIT_GENERATED_(77)
  6
Continuous
 62
     7
100
AcDbLine
 10
284.8584378908
 20
560.7958762963
 30
0.0
 11
233.2584378908
 21
560.7958762963
 31
0.0
  0
LINE
  5
17F
330
17C
100
AcDbEntity
  8
$DDT_AUDIT_GENERATED_(77)
  6
Continuous
 62
     7
100
AcDbLine
 10
285.8584378908
 20
449.9958762963
 30
0.0
 11
285.8584378908
 21
559.7958762963
 31
0.0
  0
LINE
  5
180
330
17C
100
AcDbEntity
  8
$DDT_AUDIT_GENERATED_(77)
  6
Continuous
 62
     7
100
AcDbLine
 10
232.2584378908
 20
559.7958762963
 30
0.0
 11
232.2584378908
 21
449.9958762963
 31
0.0
  0
ARC
  5
181
330
17C
100
AcDbEntity
  8
$DDT_AUDIT_GENERATED_(77)
  6
Continuous
 62
     7
100
AcDbCircle
 10
285.6584378908
 20
449.9958762963
 30
0.0
 40
0.2000000000000028
100
AcDbArc
 50
270.0
 51
0.0
  0
ARC
  5
182
330
17C
100
AcDbEntity
  8
$DDT_AUDIT_GENERATED_(77)
  6
Continuous
 62
     7
100
AcDbCircle
 10
232.4584378908
 20
449.9958762963
 30
0.0
 40
0.1999999999999988
100
AcDbArc
 50
180.0
 51
270.0
  0
ARC
  5
183
330
17C
100
AcDbEntity
  8
$DDT_AUDIT_GENERATED_(77)
  6
Continuous
 62
     7
100
AcDbCircle
 10
284.8584378908
 20
559.7958762963
 30
0.0
 40
0.9999999999999974
100
AcDbArc
 50
0.0
 51
90.0
  0
ARC
  5
184
330
17C
100
AcDbEntity
  8
$DDT_AUDIT_GENERATED_(77)
  6
Continuous
 62
     7
100
AcDbCircle
 10
233.2584378908
 20
559.7958762963
 30
0.0
 40
1.000000000000001
100
AcDbArc
 50
90.0
 51
180.0
  0
LINE
  5
185
330
17C
100
AcDbEntity
  8
$DDT_AUDIT_GENERATED_(87)
  6
Continuous
 62
     7
100
AcDbLine
 10
246.6584378908
 20
694.1958762963
 30
0.0
 11
246.6584378908
 21
560.7958762963
 31
0.0
  0
LINE
  5
186
330
17C
100
AcDbEntity
  8
$DDT_AUDIT_GENERATED_(87)
  6
Continuous
 62
     7
100
AcDbLine
 10
271.4584378908
 20
560.7958762963
 30
0.0
 11
271.4584378908
 21
694.1958762963
 31
0.0
  0
ARC
  5
187
330
17C
100
AcDbEntity
  8
$DDT_AUDIT_GENERATED_(87)
  6
Continuous
 62
     7
100
AcDbCircle
 10
363.0584378908
 20
694.1958762963
 30
0.0
 40
91.59999999999998
100
AcDbArc
 50
10.0
 51
180.0
  0
ARC
  5
188
330
17C
100
AcDbEntity
  8
$DDT_AUDIT_GENERATED_(87)
  6
Continuous
 62
     7
100
AcDbCircle
 10
363.0584378908
 20
694.1958762963
 30
0.0
 40
116.4
100
AcDbArc
 50
10.0
 51
180.0
  0
LINE
  5
189
330
17C
100
AcDbEntity
  8
$DDT_AUDIT_GENERATED_(87)
  6
Continuous
 62
     7
100
AcDbLine
 10
478.7365746974
 20
708.4734463357
 30
0.0
 11
477.6900603414
 21
714.4085241768
 31
0.0
  0
LINE
  5
18A
330
17C
100
AcDbEntity
  8
$DDT_AUDIT_GENERATED_(87)
  6
Continuous
 62
     7
100
AcDbLine
 10
453.2668280667
 20
710.1020493706
 30
0.0
 11
454.3133424218
 21
704.1669715345
 31
0.0
  0
SPLINE
  5
18B
330
17C
100
AcDbEntity
  8
$DDT_AUDIT_GENERATED_(8F)
  6
Continuous
 62
     7
100
AcDbSpline
210
0.0
220
0.0
230
1.0
 70
     8
 71
     3
 72
    12
 73
     8
 74
     0
 42
0.0000000001364667
 43
0.0000000001
 40
0.4077899100034686
 40
0.4077899100034686
 40
0.4077899100034686
 40
0.4077899100034686
 40
0.4999999999999996
 40
0.4999999999999996
 40
0.6249999999999997
 40
0.6249999999999997
 40
0.6750592730321751
 40
0.6750592730321751
 40
0.6750592730321751
 40
0.6750592730321751
 10
281.3810645035738
 20
562.4267586569498
 30
0.0
 10
281.7729085103045
 20
564.6447177425645
 30
0.0
 10
282.1661413555131
 20
566.8624325864793
 30
0.0
 10
283.0968886395935
 20
572.08569954364
 30
0.0
 10
283.6388778363148
 20
575.0904645221248
 30
0.0
 10
284.4033392959712
 20
579.2976070586813
 30
0.0
 10
284.6241989483704
 20
580.5002682578224
 30
0.0
 10
284.8357385745107
 20
581.7045687461472
 30
0.0
  0
SPLINE
  5
18C
330
17C
100
AcDbEntity
  8
$DDT_AUDIT_GENERATED_(8F)
  6
Continuous
 62
     7
100
AcDbSpline
210
0.0
220
0.0
230
1.0
 70
     8
 71
     3
 72
    17
 73
    13
 74
     0
 42
0.0000000001353189
 43
0.0000000001
 40
0.0
 40
0.0
 40
0.0
 40
0.0
 40
0.0007154813958516
 40
0.0448441840374073
 40
0.0765925348497129
 40
0.1084561876321069
 40
0.1521386416734557
 40
0.2090306736970117
 40
0.2659452488997441
 40
0.2766197814474142
 40
0.2974285944012414
 40
0.3261174511821889
 40
0.3261174511821889
 40
0.3261174511821889
 40
0.3261174511821889
 10
274.7126846264655
 20
600.0755212098813
 30
0.0
 10
274.7298773071475
 20
600.0724697439758
 30
0.0
 10
275.8074118468748
 20
599.8809293259484
 30
0.0
 10
277.6117045846105
 20
599.3000186677366
 30
0.0
 10
279.8941026701996
 20
597.9724436312644
 30
0.0
 10
281.9128550475806
 20
596.2843459680543
 30
0.0
 10
283.9565833081401
 20
593.751316548582
 30
0.0
 10
285.5403684340125
 20
590.1544817143638
 30
0.0
 10
285.61198675748
 20
587.0527284793375
 30
0.0
 10
285.3614255037712
 20
584.9114641536361
 30
0.0
 10
285.1426443435539
 20
583.4585954737269
 30
0.0
 10
284.935379437056
 20
582.2685699417866
 30
0.0
 10
284.8131145616122
 20
581.5791937649512
 30
0.0
  0
SPLINE
  5
18D
330
17C
100
AcDbEntity
  8
$DDT_AUDIT_GENERATED_(8F)
  6
Continuous
 62
     7
100
AcDbSpline
210
0.0
220
0.0
230
1.0
 70
     8
 71
     3
 72
     8
 73
     4
 74
     0
 42
0.0000000001365798
 43
0.0000000001
 40
0.5857302908626891
 40
0.5857302908626891
 40
0.5857302908626891
 40
0.5857302908626891
 40
0.6144824245765594
 40
0.6144824245765594
 40
0.6144824245765594
 40
0.6144824245765594
 10
281.4607004292726
 20
562.8690929204682
 30
0.0
 10
281.3388090392108
 20
562.1780435431804
 30
0.0
 10
281.2170532749481
 20
561.4869697152445
 30
0.0
 10
281.0953902484237
 20
560.7958793579421
 30
0.0
  0
SPLINE
  5
18E
330
17C
100
AcDbEntity
  8
$DDT_AUDIT_GENERATED_(8F)
  6
Continuous
 62
     7
100
AcDbSpline
210
0.0
220
0.0
230
1.0
 70
    12
 71
     3
 72
    10
 73
     6
 74
     0
 42
0.0000000001275264
 43
0.0000000001
 40
0.0
 40
0.0
 40
0.0
 40
0.0
 40
0.0006722167304876
 40
0.0006722167304876
 40
0.041787068975119
 40
0.041787068975119
 40
0.041787068975119
 40
0.041787068975119
 10
274.7126846264655
 20
600.0755212098813
 30
0.0
 41
1.0
 10
274.6954866103344
 20
600.0785568411161
 30
0.0
 41
1.0
 10
274.6782838936358
 20
600.0815542010522
 30
0.0
 41
1.0
 10
273.6086288624181
 20
600.2654934742034
 30
0.0
 41
1.0
 10
272.5240786543929
 20
600.3052209218679
 30
0.0
 41
1.0
 10
271.4567186401467
 20
600.214833791594
 30
0.0
 41
1.0
  0
SPLINE
  5
18F
330
17C
100
AcDbEntity
  8
$DDT_AUDIT_GENERATED_(8F)
  6
Continuous
 62
     7
100
AcDbSpline
210
0.0
220
0.0
230
1.0
 70
     8
 71
     3
 72
     9
 73
     5
 74
     0
 42
0.0000000001390931
 43
0.0000000001
 40
0.9568068747733964
 40
0.9568068747733964
 40
0.9568068747733964
 40
0.9568068747733964
 40
0.9685715888639983
 40
1.0
 40
1.0
 40
1.0
 40
1.0
 10
271.4559760578432
 20
599.2536278036274
 30
0.0
 10
271.7363875107068
 20
599.2805816851275
 30
0.0
 10
272.7685030851536
 20
599.3381918951343
 30
0.0
 10
273.7978582058755
 20
599.2205708859389
 30
0.0
 10
274.5468430531574
 20
599.1349869102243
 30
0.0
  0
LINE
  5
190
330
17C
100
AcDbEntity
  8
$DDT_AUDIT_GENERATED_(8F)
  6
Continuous
 62
     7
100
AcDbLine
 10
284.8353050128
 20
581.7047963462
 30
0.0
 11
284.8467245817
 21
581.7695599631
 31
0.0
  0
LINE
  5
191
330
17C
100
AcDbEntity
  8
02636038_GEHÄUSE
  6
Continuous
 62
     7
100
AcDbLine
 10
484.4401554014
 20
666.6247225669
 30
0.0
 11
463.2667887116
 21
662.8912867471
 31
0.0
  0
LINE
  5
192
330
17C
100
AcDbEntity
  8
02636038_GEHÄUSE
  6
Continuous
 62
     7
100
AcDbLine
 10
484.1654128066
 20
669.6225578704
 30
0.0
 11
484.953259009
 21
669.7614764125
 31
0.0
  0
LINE
  5
193
330
17C
100
AcDbEntity
  8
02636038_GEHÄUSE
  6
Continuous
 62
     7
100
AcDbLine
 10
484.6312166375
 20
666.9808530731
 30
0.0
 11
484.4808329043
 21
667.833721605
 31
0.0
  0
LINE
  5
194
330
17C
100
AcDbEntity
  8
02636038_GEHÄUSE
  6
Continuous
 62
     7
100
AcDbLine
 10
484.4808329043
 20
667.833721605
 30
0.0
 11
484.1654128066
 21
669.6225578704
 31
0.0
  0
LINE
  5
195
330
17C
100
AcDbEntity
  8
02636038_GEHÄUSE
  6
Continuous
 62
     7
100
AcDbLine
 10
462.4996422404
 20
665.8022979617
 30
0.0
 11
461.7117960379
 21
665.6633794196
 31
0.0
  0
LINE
  5
196
330
17C
100
AcDbEntity
  8
02636038_GEHÄUSE
  6
Continuous
 62
     7
100
AcDbLine
 10
462.4996422404
 20
665.8022979617
 30
0.0
 11
462.815062338
 21
664.0134616963
 31
0.0
  0
LINE
  5
197
330
17C
100
AcDbEntity
  8
02636038_GEHÄUSE
  6
Continuous
 62
     7
100
AcDbLine
 10
462.815062338
 20
664.0134616963
 30
0.0
 11
462.9654460712
 21
663.1605931644
 31
0.0
  0
LINE
  5
198
330
17C
100
AcDbEntity
  8
02636038_GEHÄUSE
  6
Continuous
 62
     7
100
AcDbLine
 10
462.9955228178
 20
662.990019458
 30
0.0
 11
463.2667887116
 21
662.8912867471
 31
0.0
  0
LINE
  5
199
330
17C
100
AcDbEntity
  8
02636038_GEHÄUSE
  6
Continuous
 62
     7
100
AcDbLine
 10
484.4401554014
 20
666.6247225669
 30
0.0
 11
484.6612933841
 21
666.8102793667
 31
0.0
  0
LINE
  5
19A
330
17C
100
AcDbEntity
  8
02636038_GEHÄUSE
  6
Continuous
 62
     7
100
AcDbLine
 10
461.503418225
 20
666.845148722
 30
0.0
 11
461.7117960379
 21
665.6633794196
 31
0.0
  0
LINE
  5
19B
330
17C
100
AcDbEntity
  8
02636038_GEHÄUSE
  6
Continuous
 62
     7
100
AcDbLine
 10
484.953259009
 20
669.7614764125
 30
0.0
 11
484.7448811969
 21
670.9432457102
 31
0.0
  0
LINE
  5
19C
330
17C
100
AcDbEntity
  8
$DDT_AUDIT_GENERATED_(B9)
  6
Continuous
 62
     7
100
AcDbLine
 10
482.7862011047
 20
665.9269151548
 30
0.0
 11
465.0596615505
 21
662.8012479568
 31
0.0
  0
LINE
  5
19D
330
17C
100
AcDbEntity
  8
$DDT_AUDIT_GENERATED_(B9)
  6
Continuous
 62
     7
100
AcDbLine
 10
464.9902022794
 20
663.195171058
 30
0.0
 11
465.0596615505
 21
662.8012479568
 31
0.0
  0
LINE
  5
19E
330
17C
100
AcDbEntity
  8
$DDT_AUDIT_GENERATED_(B9)
  6
Continuous
 62
     7
100
AcDbLine
 10
482.7862011047
 20
665.9269151548
 30
0.0
 11
482.7167418336
 21
666.320838256
 31
0.0
  0
LINE
  5
19F
330
17C
100
AcDbEntity
  8
$DDT_AUDIT_GENERATED_(168)
  6
Continuous
 62
     7
100
AcDbLine
 10
486.8246714799
 20
671.8176822893
 30
0.0
 11
486.808589355
 21
671.8148465767
 31
0.0
  0
LINE
  5
1A0
330
17C
100
AcDbEntity
  8
$DDT_AUDIT_GENERATED_(168)
  6
Continuous
 62
     7
100
AcDbLine
 10
486.4191052956
 20
671.2384565905
 30
0.0
 11
459.8292435788
 21
666.5499465621
 31
0.0
  0
LINE
  5
1A1
330
17C
100
AcDbEntity
  8
$DDT_AUDIT_GENERATED_(168)
  6
Continuous
 62
     7
100
AcDbLine
 10
486.8086035714
 20
671.8148490835
 30
0.0
 11
486.8246714799
 21
671.8176822893
 31
0.0
  0
ARC
  5
1A2
330
17C
100
AcDbEntity
  8
$DDT_AUDIT_GENERATED_(168)
  6
Continuous
 62
     7
100
AcDbCircle
 10
459.7424107563
 20
667.0423233936
 30
0.0
 40
0.4999748826453334
100
AcDbArc
 50
189.9971155769
 51
280.0015238293
  0
ARC
  5
1A3
330
17C
100
AcDbEntity
  8
$DDT_AUDIT_GENERATED_(168)
  6
Continuous
 62
     7
100
AcDbCircle
 10
486.3322835788
 20
671.7308470148
 30
0.0
 40
0.4999863402363416
100
AcDbArc
 50
279.9999999884
 51
301.1595351435
  0
ARC
  5
1A4
330
17C
100
AcDbEntity
  8
$DDT_AUDIT_GENERATED_(168)
  6
Continuous
 62
     7
100
AcDbCircle
 10
486.3322835788
 20
671.7308470148
 30
0.0
 40
0.4999863402363416
100
AcDbArc
 50
319.9549043242
 51
10.001580246
  0
LINE
  5
1A5
330
17C
100
AcDbEntity
  8
$DDT_AUDIT_GENERATED_(168)
  6
Continuous
 62
     7
100
AcDbLine
 10
453.2300286788
 20
703.9759540935
 30
0.0
 11
479.8198903954
 21
708.6644641218
 31
0.0
  0
ARC
  5
1A6
330
17C
100
AcDbEntity
  8
$DDT_AUDIT_GENERATED_(168)
  6
Continuous
 62
     7
100
AcDbCircle
 10
453.3168503855
 20
703.483563726
 30
0.0
 40
0.4999862825645685
100
AcDbArc
 50
99.9999999883
 51
121.1891693737
  0
ARC
  5
1A7
330
17C
100
AcDbEntity
  8
$DDT_AUDIT_GENERATED_(168)
  6
Continuous
 62
     7
100
AcDbCircle
 10
479.9067121062
 20
708.1720737311
 30
0.0
 40
0.4999863061449742
100
AcDbArc
 50
78.8953644671
 51
99.9999999883
  0
ARC
  5
1A8
330
17C
100
AcDbEntity
  8
$DDT_AUDIT_GENERATED_(168)
  6
Continuous
 62
     7
100
AcDbCircle
 10
479.9067121062
 20
708.1720737311
 30
0.0
 40
0.4999863061449742
100
AcDbArc
 50
9.9984195004
 51
60.006619417
  0
LINE
  5
1A9
330
17C
100
AcDbEntity
  8
$DDT_AUDIT_GENERATED_(168)
  6
Continuous
 62
     7
100
AcDbLine
 10
480.3991047949
 20
708.2588818424
 30
0.0
 11
480.3830212298
 21
708.256045876
 31
0.0
  0
LINE
  5
1AA
330
17C
100
AcDbEntity
  8
$DDT_AUDIT_GENERATED_(168)
  6
Continuous
 62
     7
100
AcDbLine
 10
452.8405173569
 20
703.3995593598
 30
0.0
 11
452.8244605426
 21
703.3967281102
 31
0.0
  0
LINE
  5
1AB
330
17C
100
AcDbEntity
  8
$DDT_AUDIT_GENERATED_(168)
  6
Continuous
 62
     7
100
AcDbLine
 10
455.0678091321
 20
694.2032479318
 30
0.0
 11
455.4433416186
 21
692.3807709432
 31
0.0
  0
LINE
  5
1AC
330
17C
100
AcDbEntity
  8
$DDT_AUDIT_GENERATED_(168)
  6
Continuous
 62
     7
100
AcDbLine
 10
457.943875377
 20
678.1995392998
 30
0.0
 11
458.2143141114
 21
676.3585314472
 31
0.0
  0
LINE
  5
1AD
330
17C
100
AcDbEntity
  8
$DDT_AUDIT_GENERATED_(168)
  6
Continuous
 62
     7
100
AcDbLine
 10
455.4199109419
 20
692.3766394827
 30
0.0
 11
455.4433416186
 21
692.3807709432
 31
0.0
  0
LINE
  5
1AE
330
17C
100
AcDbEntity
  8
$DDT_AUDIT_GENERATED_(168)
  6
Continuous
 62
     7
100
AcDbLine
 10
457.9204447003
 20
678.1954078393
 30
0.0
 11
457.943875377
 21
678.1995392998
 31
0.0
  0
ELLIPSE
  5
1AF
330
17C
100
AcDbEntity
  8
$DDT_AUDIT_GENERATED_(168)
  6
Continuous
 62
     7
100
AcDbEllipse
 10
458.6851639853
 20
676.4415549838
 30
0.0
 11
0.4964421330040658
 21
0.05954165414484569
 31
0.0
210
0.0
220
0.0
230
0.9999999999999999
 40
0.1773228213
 41
3.12933729810494
 42
3.443495946028367
  0
LINE
  5
1B0
330
17C
100
AcDbEntity
  8
$DDT_AUDIT_GENERATED_(168)
  6
Continuous
 62
     7
100
AcDbLine
 10
486.8276714799
 20
671.8005890252
 30
0.0
 11
480.3985618047
 21
708.2618818424
 31
0.0
  0
LINE
  5
1B1
330
17C
100
AcDbEntity
  8
$DDT_AUDIT_GENERATED_(168)
  6
Continuous
 62
     7
100
AcDbLine
 10
458.1458390003
 20
673.2177705921
 30
0.0
 11
459.2505702299
 21
666.9525284541
 31
0.0
  0
LINE
  5
1B2
330
17C
100
AcDbEntity
  8
$DDT_AUDIT_GENERATED_(168)
  6
Continuous
 62
     7
100
AcDbLine
 10
452.8214605426
 20
703.4138213403
 30
0.0
 11
453.9292601189
 21
697.1311777429
 31
0.0
  0
ARC
  5
1B3
330
17C
100
AcDbEntity
  8
$DDT_AUDIT_GENERATED_(168)
  6
Continuous
 62
     7
100
AcDbCircle
 10
486.351800255
 20
671.7063644532
 30
0.0
 40
0.4689584271497634
100
AcDbArc
 50
300.6290935594
 51
13.363416181
  0
ARC
  5
1B4
330
17C
100
AcDbEntity
  8
$DDT_AUDIT_GENERATED_(168)
  6
Continuous
 62
     7
100
AcDbCircle
 10
459.7324485366
 20
667.0126367462
 30
0.0
 40
0.4689362255231234
100
AcDbArc
 50
186.6342793816
 51
259.3373244466
  0
ARC
  5
1B5
330
17C
100
AcDbEntity
  8
$DDT_AUDIT_GENERATED_(168)
  6
Continuous
 62
     7
100
AcDbCircle
 10
453.2973204597
 20
703.5080616858
 30
0.0
 40
0.4689362300063797
100
AcDbArc
 50
120.6626689473
 51
193.3657202551
  0
ARC
  5
1B6
330
17C
100
AcDbEntity
  8
$DDT_AUDIT_GENERATED_(168)
  6
Continuous
 62
     7
100
AcDbCircle
 10
479.9166706543
 20
708.2017543126
 30
0.0
 40
0.4689648267103756
100
AcDbArc
 50
6.6365360577
 51
79.4327566887
  0
SPLINE
  5
1B7
330
17C
100
AcDbEntity
  8
$DDT_AUDIT_GENERATED_(168)
  6
Continuous
 62
     7
100
AcDbSpline
210
0.0
220
0.0
230
1.0
 70
     8
 71
     3
 72
    24
 73
    20
 74
     0
 42
0.0000000030106563
 43
0.0000000001
 40
0.0
 40
0.0
 40
0.0
 40
0.0
 40
0.00156237249581
 40
0.0165835743649323
 40
0.0280752979685059
 40
0.035525582584561
 40
0.0381432071004205
 40
0.0401005611179599
 40
0.0425453594050388
 40
0.0468492111496712
 40
0.0573331598412692
 40
0.0959852164112426
 40
0.211105408165935
 40
0.3676229108547391
 40
0.5254531538145406
 40
0.6751798894181111
 40
0.8218735451061286
 40
0.9660986754772379
 40
1.0
 40
1.0
 40
1.0
 40
1.0
 10
454.1320209849606
 20
696.854828232387
 30
0.0
 10
454.1291890221866
 20
696.8563873016182
 30
0.0
 10
454.1033375596426
 20
696.8706468096781
 30
0.0
 10
454.0628923459736
 20
696.9089406960749
 30
0.0
 10
454.0209229150541
 20
696.9553953306527
 30
0.0
 10
453.9971251325199
 20
696.989526889682
 30
0.0
 10
453.9870947056715
 20
697.0055665428256
 30
0.0
 10
453.9833546694293
 20
697.0117885050518
 30
0.0
 10
453.9806493857484
 20
697.0164028119458
 30
0.0
 10
453.9782518557358
 20
697.0205962643347
 30
0.0
 10
453.9768884441542
 20
697.0230604795133
 30
0.0
 10
453.9838192248412
 20
697.0105443356853
 30
0.0
 10
454.0256926715908
 20
696.9336153622687
 30
0.0
 10
454.1455012423382
 20
696.707866372996
 30
0.0
 10
454.3409532621571
 20
696.3010922888479
 30
0.0
 10
454.5751642170465
 20
695.7467841473699
 30
0.0
 10
454.8055155959938
 20
695.0860634112419
 30
0.0
 10
454.9765108219364
 20
694.5162543642396
 30
0.0
 10
455.040315806505
 20
694.2080747043602
 30
0.0
 10
455.0544210493811
 20
694.1396903731821
 30
0.0
  0
SPLINE
  5
1B8
330
17C
100
AcDbEntity
  8
$DDT_AUDIT_GENERATED_(168)
  6
Continuous
 62
     7
100
AcDbSpline
210
0.0
220
0.0
230
1.0
 70
     8
 71
     3
 72
    16
 73
    12
 74
     0
 42
0.0000000426770409
 43
0.0000000001
 40
0.0
 40
0.0
 40
0.0
 40
0.0
 40
0.0442823201840867
 40
0.075737441480332
 40
0.0905914521494923
 40
0.1015528823659159
 40
0.1166243118386016
 40
0.1455492482391199
 40
0.2287028840211363
 40
0.66428487579555
 40
1.0
 40
1.0
 40
1.0
 40
1.0
 10
453.9329458263164
 20
697.1303546859108
 30
0.0
 10
453.9376202338585
 20
697.114287775836
 30
0.0
 10
453.9442856918916
 20
697.0914533358699
 30
0.0
 10
453.9570122917017
 20
697.0621455487178
 30
0.0
 10
453.9638174445148
 20
697.0478989831979
 30
0.0
 10
453.9670257285846
 20
697.0414775047049
 30
0.0
 10
453.9696361109894
 20
697.0363845340418
 30
0.0
 10
453.9725671711331
 20
697.030819336313
 30
0.0
 10
453.9780490081305
 20
697.0206031776445
 30
0.0
 10
453.9878409615043
 20
697.0035398356844
 30
0.0
 10
454.0174293440929
 20
696.9477314148191
 30
0.0
 10
454.0326446274262
 20
696.9190899670652
 30
0.0
  0
LINE
  5
1B9
330
17C
100
AcDbEntity
  8
$DDT_AUDIT_GENERATED_(168)
  6
Continuous
 62
     7
100
AcDbLine
 10
455.4199109419
 20
692.3766394827
 30
0.0
 11
457.9204447003
 21
678.1954078393
 31
0.0
  0
ARC
  5
1BA
330
17C
100
AcDbEntity
  8
$DDT_AUDIT_GENERATED_(168)
  6
Continuous
 62
     7
100
AcDbCircle
 10
447.2400702663
 20
674.923469014
 30
0.0
 40
11.04369303023682
100
AcDbArc
 50
351.1178845754
 51
7.5925747925
  0
SPLINE
  5
1BB
330
17C
100
AcDbEntity
  8
$DDT_AUDIT_GENERATED_(168)
  6
Continuous
 62
     7
100
AcDbSpline
210
0.0
220
0.0
230
1.0
 70
     8
 71
     3
 72
     8
 73
     4
 74
     0
 42
0.0000000139934828
 43
0.0000000001
 40
0.8191614606892302
 40
0.8191614606892302
 40
0.8191614606892302
 40
0.8191614606892302
 40
0.9013594127654979
 40
0.9013594127654979
 40
0.9013594127654979
 40
0.9013594127654979
 10
458.1639508619587
 20
673.4041328533747
 30
0.0
 10
458.1598347778096
 20
673.3761948600569
 30
0.0
 10
458.1568117153312
 20
673.3565043313391
 30
0.0
 10
458.155232684661
 20
673.3460434835708
 30
0.0
  0
LINE
  5
1BD
330
17C
100
AcDbEntity
  8
DV2_Standard
  6
Continuous
 62
     7
100
AcDbLine
 10
285.6584378908
 20
449.7958762963
 30
0.0
 11
232.4584378908
 21
449.7958762963
 31
0.0
  0
ENDBLK
  5
1BF
330
17C
100
AcDbEntity
  8
0
100
AcDbBlockEnd
  0
BLOCK
  5
214
330
1C0
100
AcDbEntity
  8
0
100
AcDbBlockBegin
  2
SE2
 70
     0
 10
0.0
 20
0.0
 30
0.0
  3
SE2
  1

  0
ARC
  5
1C2
330
1C0
100
AcDbEntity
  8
$DDT_AUDIT_GENERATED_(77)
  6
Continuous
 62
     7
100
AcDbCircle
 10
76.5936810492
 20
334.123832075
 30
0.0
 40
26.8
100
AcDbArc
 50
297.5606031053
 51
0.0
  0
ARC
  5
1C3
330
1C0
100
AcDbEntity
  8
$DDT_AUDIT_GENERATED_(77)
  6
Continuous
 62
     7
100
AcDbCircle
 10
76.5936810492
 20
334.123832075
 30
0.0
 40
26.8
100
AcDbArc
 50
0.0
 51
242.4393968947
  0
LINE
  5
1C4
330
1C0
100
AcDbEntity
  8
$DDT_AUDIT_GENERATED_(77)
  6
Continuous
 62
     7
100
AcDbLine
 10
130.247361099
 20
357.873832075
 30
0.0
 11
130.247361099
 21
310.373832075
 31
0.0
  0
ARC
  5
1C5
330
1C0
100
AcDbEntity
  8
$DDT_AUDIT_GENERATED_(77)
  6
Continuous
 62
     7
100
AcDbCircle
 10
76.5936810492
 20
334.123832075
 30
0.0
 40
12.75
100
AcDbArc
 50
346.5440277692
 51
0.0
  0
ARC
  5
1C6
330
1C0
100
AcDbEntity
  8
$DDT_AUDIT_GENERATED_(77)
  6
Continuous
 62
     7
100
AcDbCircle
 10
76.5936810492
 20
334.123832075
 30
0.0
 40
12.75
100
AcDbArc
 50
0.0
 51
193.4559722308
  0
LINE
  5
1C7
330
1C0
100
AcDbEntity
  8
$DDT_AUDIT_GENERATED_(77)
  6
Continuous
 62
     7
100
AcDbLine
 10
91.8233506786
 20
310.373832075
 30
0.0
 11
130.247361099
 21
310.373832075
 31
0.0
  0
LINE
  5
1C8
330
1C0
100
AcDbEntity
  8
$DDT_AUDIT_GENERATED_(77)
  6
Continuous
 62
     7
100
AcDbLine
 10
130.247361099
 20
357.873832075
 30
0.0
 11
91.8258300861
 21
357.873832075
 31
0.0
  0
ARC
  5
1C9
330
1C0
100
AcDbEntity
  8
$DDT_AUDIT_GENERATED_(77)
  6
Continuous
 62
     7
100
AcDbCircle
 10
91.6767826759
 20
369.905653836
 30
0.0
 40
12.03265789232139
100
AcDbArc
 50
247.9628962101
 51
270.6783391757
  0
ARC
  5
1CA
330
1C0
100
AcDbEntity
  8
$DDT_AUDIT_GENERATED_(77)
  6
Continuous
 62
     7
100
AcDbCircle
 10
91.6672455338
 20
298.3878006901
 30
0.0
 40
11.986994644529
100
AcDbArc
 50
89.2734547638
 51
102.9364525018
  0
ARC
  5
1CB
330
1C0
100
AcDbEntity
  8
$DDT_AUDIT_GENERATED_(77)
  6
Continuous
 62
     7
100
AcDbCircle
 10
130.2475178955
 20
320.3739002225
 30
0.0
 40
10.0
100
AcDbArc
 50
269.9991016222
 51
292.5566997254
  0
ARC
  5
1CC
330
1C0
100
AcDbEntity
  8
$DDT_AUDIT_GENERATED_(77)
  6
Continuous
 62
     7
100
AcDbCircle
 10
130.2475178955
 20
347.8737639274
 30
0.0
 40
10.0
100
AcDbArc
 50
67.4053884694
 51
90.0008983778
  0
ARC
  5
1CD
330
1C0
100
AcDbEntity
  8
$DDT_AUDIT_GENERATED_(87)
  6
Continuous
 62
     7
100
AcDbCircle
 10
76.5936810492
 20
334.123832075
 30
0.0
 40
12.4
100
AcDbArc
 50
0.0
 51
180.0
  0
ELLIPSE
  5
1CE
330
1C0
100
AcDbEntity
  8
$DDT_AUDIT_GENERATED_(87)
  6
Continuous
 62
     7
100
AcDbEllipse
 10
76.5936810492
 20
125.9673439851
 30
0.0
 11
-12.40000000000003
 21
-1.276756478318930E-12
 31
0.0
210
0.0
220
0.0
230
1.0
 40
0.984807753
 41
2.610215455207333
 42
3.141592653589793
  0
ELLIPSE
  5
1CF
330
1C0
100
AcDbEntity
  8
$DDT_AUDIT_GENERATED_(87)
  6
Continuous
 62
     7
100
AcDbEllipse
 10
76.5936810492
 20
125.9673439851
 30
0.0
 11
-12.40000000000003
 21
-1.276756478318930E-12
 31
0.0
210
0.0
220
0.0
230
1.0
 40
0.984807753
 41
0.0000000000000002
 42
0.5313713877734915
  0
LINE
  5
1D0
330
1C0
100
AcDbEntity
  8
$DDT_AUDIT_GENERATED_(87)
  6
Continuous
 62
     7
100
AcDbLine
 10
64.1936810492
 20
334.123832075
 30
0.0
 11
64.1936810492
 21
127.7038257617
 31
0.0
  0
LINE
  5
1D1
330
1C0
100
AcDbEntity
  8
$DDT_AUDIT_GENERATED_(87)
  6
Continuous
 62
     7
100
AcDbLine
 10
88.9936810492
 20
127.7038257617
 30
0.0
 11
88.9936810492
 21
334.123832075
 31
0.0
  0
LINE
  5
1D2
330
1C0
100
AcDbEntity
  8
$DDT_AUDIT_GENERATED_(87)
  6
Continuous
 62
     7
100
AcDbLine
 10
88.9936810492
 20
125.9673439851
 30
0.0
 11
88.9936810492
 21
127.7038257617
 31
0.0
  0
LINE
  5
1D3
330
1C0
100
AcDbEntity
  8
$DDT_AUDIT_GENERATED_(87)
  6
Continuous
 62
     7
100
AcDbLine
 10
64.1936810492
 20
127.7038257617
 30
0.0
 11
64.1936810492
 21
125.9673439851
 31
0.0
  0
SPLINE
  5
1D4
330
1C0
100
AcDbEntity
  8
$DDT_AUDIT_GENERATED_(8F)
  6
Continuous
 62
     7
100
AcDbSpline
210
0.0
220
0.0
230
1.0
 70
     8
 71
     3
 72
     8
 73
     4
 74
     0
 42
0.0000000086486581
 43
0.0000000001
 40
0.7651022478898838
 40
0.7651022478898838
 40
0.7651022478898838
 40
0.7651022478898838
 40
0.7686870363736934
 40
0.7686870363736934
 40
0.7686870363736934
 40
0.7686870363736934
 10
162.5176195750016
 20
308.6164124609425
 30
0.0
 10
162.5180517040538
 20
308.6142819391883
 30
0.0
 10
162.5185182060606
 20
308.6129969906759
 30
0.0
 10
162.5190017436981
 20
308.6126350529448
 30
0.0
  0
LINE
  5
1D5
330
1C0
100
AcDbEntity
  8
$DDT_AUDIT_GENERATED_(8F)
  6
Continuous
 62
     7
100
AcDbLine
 10
167.0549018961
 20
318.5679106155
 30
0.0
 11
167.0549018533
 21
308.1387574114
 31
0.0
  0
ARC
  5
1D6
330
1C0
100
AcDbEntity
  8
$DDT_AUDIT_GENERATED_(8F)
  6
Continuous
 62
     7
100
AcDbCircle
 10
-145.5285973424
 20
312.9248109799
 30
0.0
 40
309.2197091441926
100
AcDbArc
 50
359.0196973683
 51
359.0197370209
  0
LINE
  5
1D7
330
1C0
100
AcDbEntity
  8
$DDT_AUDIT_GENERATED_(8F)
  6
Continuous
 62
     7
100
AcDbLine
 10
134.072009364
 20
329.8393561856
 30
0.0
 11
134.0720085887
 21
309.4489962917
 31
0.0
  0
SPLINE
  5
1D8
330
1C0
100
AcDbEntity
  8
$DDT_AUDIT_GENERATED_(8F)
  6
Continuous
 62
     7
100
AcDbSpline
210
0.0
220
0.0
230
1.0
 70
     8
 71
     3
 72
    30
 73
    26
 74
     0
 42
0.0000000004310853
 43
0.0000000001
 40
0.0
 40
0.0
 40
0.0
 40
0.0
 40
0.4058240398399118
 40
0.4765642171080965
 40
0.5348446445932828
 40
0.615243285939719
 40
0.6656184545043052
 40
0.6966073668939596
 40
0.7119221353648865
 40
0.7329499420477197
 40
0.7371283399429577
 40
0.7432605239682745
 40
0.7513574869851322
 40
0.7613899903113829
 40
0.7733336430176813
 40
0.7872228442531274
 40
0.8031325356618412
 40
0.8208977020058279
 40
0.840588036800005
 40
0.8622523665897741
 40
0.8858840037306708
 40
0.9115334858269099
 40
0.939044524299942
 40
0.9685715888639983
 40
1.0
 40
1.0
 40
1.0
 40
1.0
 10
162.5599072390129
 20
341.8317217024584
 30
0.0
 10
162.5586564440524
 20
340.130968545957
 30
0.0
 10
162.5571876199745
 20
338.1337529624693
 30
0.0
 10
162.5575416687829
 20
335.9209177207104
 30
0.0
 10
162.5583386195127
 20
335.0594832962199
 30
0.0
 10
162.558213303356
 20
334.2863406361456
 30
0.0
 10
162.5526317257393
 20
333.6463316790141
 30
0.0
 10
162.5441608360239
 20
333.2772958805169
 30
0.0
 10
162.5305969510003
 20
332.9975360725956
 30
0.0
 10
162.5223078192692
 20
332.8064533420392
 30
0.0
 10
162.5179545822142
 20
332.6409529632978
 30
0.0
 10
162.5160986319866
 20
332.5397045601368
 30
0.0
 10
162.5148370909106
 20
332.3969620384059
 30
0.0
 10
162.5164796817516
 20
332.1961462766215
 30
0.0
 10
162.5212338158035
 20
331.9125255340755
 30
0.0
 10
162.5277028028717
 20
331.5045389517826
 30
0.0
 10
162.5315864351698
 20
330.9325888281062
 30
0.0
 10
162.5302495063894
 20
330.1670636161452
 30
0.0
 10
162.5253839132065
 20
329.1885018587982
 30
0.0
 10
162.51698045585
 20
327.982004240897
 30
0.0
 10
162.505788806143
 20
326.5389923520679
 30
0.0
 10
162.4940426156922
 20
324.8600402079732
 30
0.0
 10
162.485093192598
 20
322.9533344324104
 30
0.0
 10
162.4838243044867
 20
320.8370695779751
 30
0.0
 10
162.4844220950785
 20
319.3844117598914
 30
0.0
 10
162.4847300282348
 20
318.6354269126095
 30
0.0
  0
LINE
  5
1D9
330
1C0
100
AcDbEntity
  8
$DDT_AUDIT_GENERATED_(8F)
  6
Continuous
 62
     7
100
AcDbLine
 10
167.0549018961
 20
318.5679106155
 30
0.0
 11
167.0549016206
 21
342.3375665937
 31
0.0
  0
LINE
  5
1DA
330
1C0
100
AcDbEntity
  8
$DDT_AUDIT_GENERATED_(8F)
  6
Continuous
 62
     7
100
AcDbLine
 10
167.0549015002
 20
358.6072199474
 30
0.0
 11
167.0549014453
 21
345.689312533
 31
0.0
  0
LINE
  5
1DB
330
1C0
100
AcDbEntity
  8
$DDT_AUDIT_GENERATED_(8F)
  6
Continuous
 62
     7
100
AcDbLine
 10
167.0549016206
 20
342.3375665937
 30
0.0
 11
167.054901599
 21
345.689312533
 31
0.0
  0
ARC
  5
1DC
330
1C0
100
AcDbEntity
  8
$DDT_AUDIT_GENERATED_(8F)
  6
Continuous
 62
     7
100
AcDbCircle
 10
320.7257717411
 20
328.1886312636
 30
0.0
 40
158.7586610613634
100
AcDbArc
 50
175.0436202188
 51
179.5489489107
  0
LINE
  5
1DD
330
1C0
100
AcDbEntity
  8
$DDT_AUDIT_GENERATED_(8F)
  6
Continuous
 62
     7
100
AcDbLine
 10
134.0720089073
 20
358.8057465162
 30
0.0
 11
134.0720078061
 21
329.8393561856
 31
0.0
  0
LINE
  5
1DE
330
1C0
100
AcDbEntity
  8
$DDT_AUDIT_GENERATED_(8F)
  6
Continuous
 62
     7
100
AcDbLine
 10
134.0720085881
 20
309.9165534855
 30
0.0
 11
134.0720085961
 21
311.1341346031
 31
0.0
  0
LINE
  5
1DF
330
1C0
100
AcDbEntity
  8
$DDT_AUDIT_GENERATED_(8F)
  6
Continuous
 62
     7
100
AcDbLine
 10
134.0720089007
 20
357.1135294203
 30
0.0
 11
134.0720089089
 21
358.3421211125
 31
0.0
  0
LINE
  5
1E0
330
1C0
100
AcDbEntity
  8
$DDT_AUDIT_GENERATED_(8F)
  6
Continuous
 62
     7
100
AcDbLine
 10
163.6498537944
 20
307.6243626921
 30
0.0
 11
166.5570565988
 21
307.6358174944
 31
0.0
  0
LINE
  5
1E1
330
1C0
100
AcDbEntity
  8
$DDT_AUDIT_GENERATED_(8F)
  6
Continuous
 62
     7
100
AcDbLine
 10
134.3720085332
 20
309.1491335972
 30
0.0
 11
162.4530145262
 21
309.1491305887
 31
0.0
  0
ARC
  5
1E2
330
1C0
100
AcDbEntity
  8
$DDT_AUDIT_GENERATED_(8F)
  6
Continuous
 62
     7
100
AcDbCircle
 10
250.9388126809
 20
321.8143272142
 30
0.0
 40
89.39969067206893
100
AcDbArc
 50
180.9016355029
 51
188.4869789215
  0
LINE
  5
1E3
330
1C0
100
AcDbEntity
  8
$DDT_AUDIT_GENERATED_(8F)
  6
Continuous
 62
     7
100
AcDbLine
 10
161.972642192
 20
329.1212304568
 30
0.0
 11
161.9723061817
 21
327.080168948
 31
0.0
  0
ARC
  5
1E4
330
1C0
100
AcDbEntity
  8
$DDT_AUDIT_GENERATED_(8F)
  6
Continuous
 62
     7
100
AcDbCircle
 10
163.6415862999
 20
308.7572323162
 30
0.0
 40
1.131853714190501
100
AcDbArc
 50
187.1761085365
 51
270.2456569544
  0
ARC
  5
1E5
330
1C0
100
AcDbEntity
  8
$DDT_AUDIT_GENERATED_(8F)
  6
Continuous
 62
     7
100
AcDbCircle
 10
166.5549018618
 20
308.1358208649
 30
0.0
 40
0.4999999918157434
100
AcDbArc
 50
270.7384987497
 51
0.0018275876
  0
LINE
  5
1E6
330
1C0
100
AcDbEntity
  8
$DDT_AUDIT_GENERATED_(8F)
  6
Continuous
 62
     7
100
AcDbLine
 10
167.0549016201
 20
317.465337372
 30
0.0
 11
167.0549016162
 21
317.5533248677
 31
0.0
  0
ARC
  5
1E7
330
1C0
100
AcDbEntity
  8
$DDT_AUDIT_GENERATED_(8F)
  6
Continuous
 62
     7
100
AcDbCircle
 10
134.3720085897
 20
309.4488834854
 30
0.0
 40
0.2999999739466904
100
AcDbArc
 50
179.9991882799
 51
270.3950201653
  0
SPLINE
  5
1E8
330
1C0
100
AcDbEntity
  8
$DDT_AUDIT_GENERATED_(8F)
  6
Continuous
 62
     7
100
AcDbSpline
210
0.0
220
0.0
230
1.0
 70
     8
 71
     3
 72
    12
 73
     8
 74
     0
 42
0.0000000010130197
 43
0.0000000001
 40
0.0
 40
0.0
 40
0.0
 40
0.0
 40
0.0168157303869012
 40
0.0947238295553086
 40
0.1651536181620931
 40
0.2278265400214242
 40
0.2767877640626484
 40
0.2767877640626484
 40
0.2767877640626484
 40
0.2767877640626484
 10
161.9727677530128
 20
329.8184120546171
 30
0.0
 10
161.9727697583184
 20
329.7566069061476
 30
0.0
 10
161.9727796022151
 20
329.458477737744
 30
0.0
 10
161.972813751157
 20
328.8931899686136
 30
0.0
 10
161.9728719772008
 20
328.2021973337506
 30
0.0
 10
161.9729474598194
 20
327.6052705485927
 30
0.0
 10
161.9730097681866
 20
327.2437567799749
 30
0.0
 10
161.9730411769225
 20
327.0861082487398
 30
0.0
  0
SPLINE
  5
1E9
330
1C0
100
AcDbEntity
  8
$DDT_AUDIT_GENERATED_(8F)
  6
Continuous
 62
     7
100
AcDbSpline
210
0.0
220
0.0
230
1.0
 70
     8
 71
     3
 72
    18
 73
    14
 74
     0
 42
0.0000000002710102
 43
0.0000000001
 40
0.7675504546354432
 40
0.7675504546354432
 40
0.7675504546354432
 40
0.7675504546354432
 40
0.7676538853081227
 40
0.7776134241092305
 40
0.8019270877340605
 40
0.8298899303618602
 40
0.8553996197203678
 40
0.8773209585718357
 40
0.8979128574997252
 40
0.9185738787679487
 40
0.9409313485128777
 40
0.9678502697200507
 40
1.0
 40
1.0
 40
1.0
 40
1.0
 10
162.1496896817842
 20
328.8014728711694
 30
0.0
 10
162.1496916230925
 20
328.8014741202182
 30
0.0
 10
162.1498691857867
 20
328.8014312082764
 30
0.0
 10
162.1467439905289
 20
328.747159169034
 30
0.0
 10
162.1255643930319
 20
328.4725129330375
 30
0.0
 10
162.0729885525112
 20
327.9406099489879
 30
0.0
 10
161.9944338485908
 20
327.2651714374254
 30
0.0
 10
161.9017165268107
 20
326.4896264791832
 30
0.0
 10
161.8079571174371
 20
325.6356757920878
 30
0.0
 10
161.7200629515731
 20
324.7091485250771
 30
0.0
 10
161.6383119040013
 20
323.5552553437695
 30
0.0
 10
161.565462195116
 20
321.9921751411891
 30
0.0
 10
161.5555726752505
 20
320.9361925822139
 30
0.0
 10
161.5502443647739
 20
320.2519862894079
 30
0.0
  0
LINE
  5
1EA
330
1C0
100
AcDbEntity
  8
$DDT_AUDIT_GENERATED_(8F)
  6
Continuous
 62
     7
100
AcDbLine
 10
166.5549015
 20
359.1069808151
 30
0.0
 11
134.3720089112
 21
359.1069809188
 31
0.0
  0
ARC
  5
1EB
330
1C0
100
AcDbEntity
  8
$DDT_AUDIT_GENERATED_(8F)
  6
Continuous
 62
     7
100
AcDbCircle
 10
166.5549015002
 20
358.6072324959
 30
0.0
 40
0.4999999997322305
100
AcDbArc
 50
0.0
 51
90.3870335736
  0
ARC
  5
1EC
330
1C0
100
AcDbEntity
  8
$DDT_AUDIT_GENERATED_(8F)
  6
Continuous
 62
     7
100
AcDbCircle
 10
134.3720089049
 20
358.8072213351
 30
0.0
 40
0.2999999983240349
100
AcDbArc
 50
90.350678074
 51
180.0042690422
  0
ARC
  5
1ED
330
1C0
100
AcDbEntity
  8
$DDT_AUDIT_GENERATED_(168)
  6
Continuous
 62
     7
100
AcDbCircle
 10
76.7994694541
 20
126.5704872887
 30
0.0
 40
13.78885796213236
100
AcDbArc
 50
0.0000169737
 51
27.4818868846
  0
ARC
  5
1EE
330
1C0
100
AcDbEntity
  8
$DDT_AUDIT_GENERATED_(168)
  6
Continuous
 62
     7
100
AcDbCircle
 10
76.7994694311
 20
120.144920625
 30
0.0
 40
13.78885798313665
100
AcDbArc
 50
304.3589661904
 51
0.0
  0
ARC
  5
1EF
330
1C0
100
AcDbEntity
  8
$DDT_AUDIT_GENERATED_(168)
  6
Continuous
 62
     7
100
AcDbCircle
 10
76.387892329
 20
120.1449205812
 30
0.0
 40
13.78885766496535
100
AcDbArc
 50
180.0000060178
 51
235.6473937219
  0
ARC
  5
1F0
330
1C0
100
AcDbEntity
  8
$DDT_AUDIT_GENERATED_(168)
  6
Continuous
 62
     7
100
AcDbCircle
 10
76.3878923686
 20
126.5704873054
 30
0.0
 40
13.78885770360403
100
AcDbArc
 50
152.5181106252
 51
180.0012355639
  0
ELLIPSE
  5
1F1
330
1C0
100
AcDbEntity
  8
$DDT_AUDIT_GENERATED_(168)
  6
Continuous
 62
     7
100
AcDbEllipse
 10
76.5936828816
 20
126.0017943072
 30
0.0
 11
12.70173014249383
 21
-8.326672684688674E-14
 31
0.0
210
0.0
220
0.0
230
1.0
 40
0.984807753
 41
6.257083443163889
 42
6.283185307179586
  0
ELLIPSE
  5
1F2
330
1C0
100
AcDbEntity
  8
$DDT_AUDIT_GENERATED_(168)
  6
Continuous
 62
     7
100
AcDbEllipse
 10
76.5936828816
 20
126.0017943072
 30
0.0
 11
12.70173014249383
 21
-8.326672684688674E-14
 31
0.0
210
0.0
220
0.0
230
1.0
 40
0.984807753
 41
2.923191426321207
 42
3.167694517605485
  0
ELLIPSE
  5
1F3
330
1C0
100
AcDbEntity
  8
$DDT_AUDIT_GENERATED_(168)
  6
Continuous
 62
     7
100
AcDbEllipse
 10
76.5936828816
 20
126.0017943072
 30
0.0
 11
12.70173014249383
 21
-8.326672684688674E-14
 31
0.0
210
0.0
220
0.0
230
1.0
 40
0.984807753
 41
0.0
 42
0.2184025589401804
  0
ELLIPSE
  5
1F4
330
1C0
100
AcDbEntity
  8
$DDT_AUDIT_GENERATED_(168)
  6
Continuous
 62
     7
100
AcDbEllipse
 10
76.5936828816
 20
126.5884820303
 30
0.0
 11
12.73121473751266
 21
1.082467449009528E-12
 31
0.0
210
0.0
220
0.0
230
1.0
 40
0.984807753
 41
0.0
 42
0.2286031346354818
  0
ELLIPSE
  5
1F5
330
1C0
100
AcDbEntity
  8
$DDT_AUDIT_GENERATED_(168)
  6
Continuous
 62
     7
100
AcDbEllipse
 10
76.5936828816
 20
126.5884820303
 30
0.0
 11
12.73121473751266
 21
1.082467449009528E-12
 31
0.0
210
0.0
220
0.0
230
1.0
 40
0.984807753
 41
2.912990789226193
 42
6.283185307179586
  0
LINE
  5
1F6
330
1C0
100
AcDbEntity
  8
$DDT_AUDIT_GENERATED_(168)
  6
Continuous
 62
     7
100
AcDbLine
 10
90.5936810492
 20
120.1449205873
 30
0.0
 11
90.5936810492
 21
126.5704873174
 31
0.0
  0
LINE
  5
1F7
330
1C0
100
AcDbEntity
  8
$DDT_AUDIT_GENERATED_(168)
  6
Continuous
 62
     7
100
AcDbLine
 10
62.5936810492
 20
126.5704873174
 30
0.0
 11
62.5936810492
 21
120.1449205796
 31
0.0
  0
ARC
  5
1F8
330
1C0
100
AcDbEntity
  8
$DDT_AUDIT_GENERATED_(168)
  6
Continuous
 62
     7
100
AcDbCircle
 10
76.5139586891
 20
120.077491606
 30
0.0
 40
13.72584187837128
100
AcDbArc
 50
235.1051082419
 51
270.3327087717
  0
ARC
  5
1F9
330
1C0
100
AcDbEntity
  8
$DDT_AUDIT_GENERATED_(168)
  6
Continuous
 62
     7
100
AcDbCircle
 10
76.6731673835
 20
120.078753102
 30
0.0
 40
13.72710135891848
100
AcDbArc
 50
269.6681506699
 51
304.8990334383
  0
ARC
  5
1FB
330
1C0
100
AcDbEntity
  8
$DDT_AUDIT_GENERATED_(1FA)
  6
Continuous
 62
     7
100
AcDbCircle
 10
48.1123308225
 20
341.2414004641
 30
0.0
 40
0.9999999999999974
100
AcDbArc
 50
123.0
 51
180.0
  0
LINE
  5
1FC
330
1C0
100
AcDbEntity
  8
$DDT_AUDIT_GENERATED_(1FA)
  6
Continuous
 62
     7
100
AcDbLine
 10
47.5676917874
 20
342.0800710321
 30
0.0
 11
52.1143835101
 21
345.0327271607
 31
0.0
  0
LINE
  5
1FD
330
1C0
100
AcDbEntity
  8
$DDT_AUDIT_GENERATED_(1FA)
  6
Continuous
 62
     7
100
AcDbLine
 10
76.5845368017
 20
360.923830515
 30
0.0
 11
82.4753166199
 21
364.7493476588
 31
0.0
  0
ARC
  5
1FE
330
1C0
100
AcDbEntity
  8
$DDT_AUDIT_GENERATED_(1FA)
  6
Continuous
 62
     7
100
AcDbCircle
 10
83.0199556549
 20
363.9106770908
 30
0.0
 40
1.000000000000002
100
AcDbArc
 50
57.0
 51
123.0
  0
LINE
  5
1FF
330
1C0
100
AcDbEntity
  8
$DDT_AUDIT_GENERATED_(1FA)
  6
Continuous
 62
     7
100
AcDbLine
 10
83.5645946899
 20
364.7493476588
 30
0.0
 11
94.1519602455
 21
357.873832075
 31
0.0
  0
LINE
  5
200
330
1C0
100
AcDbEntity
  8
$DDT_AUDIT_GENERATED_(1FA)
  6
Continuous
 62
     7
100
AcDbLine
 10
94.1519602455
 20
310.373832075
 30
0.0
 11
88.9936810492
 21
307.0240063971
 31
0.0
  0
LINE
  5
201
330
1C0
100
AcDbEntity
  8
$DDT_AUDIT_GENERATED_(1FA)
  6
Continuous
 62
     7
100
AcDbLine
 10
52.1143835101
 20
323.2149369893
 30
0.0
 11
47.5676917874
 21
326.1675931179
 31
0.0
  0
ARC
  5
202
330
1C0
100
AcDbEntity
  8
$DDT_AUDIT_GENERATED_(1FA)
  6
Continuous
 62
     7
100
AcDbCircle
 10
48.1123308225
 20
327.0062636858
 30
0.0
 40
0.9999999999999961
100
AcDbArc
 50
180.0
 51
237.0
  0
LINE
  5
203
330
1C0
100
AcDbEntity
  8
$DDT_AUDIT_GENERATED_(1FA)
  6
Continuous
 62
     7
100
AcDbLine
 10
47.1123308225
 20
327.0062636858
 30
0.0
 11
47.1123308225
 21
341.2414004641
 31
0.0
  0
LINE
  5
204
330
1C0
100
AcDbEntity
  8
$DDT_AUDIT_GENERATED_(1FA)
  6
Continuous
 62
     7
100
AcDbLine
 10
42.9827415926
 20
323.1629637277
 30
0.0
 11
64.1936810492
 21
309.3884185857
 31
0.0
  0
SPLINE
  5
205
330
1C0
100
AcDbEntity
  8
$DDT_AUDIT_GENERATED_(1FA)
  6
Continuous
 62
     7
100
AcDbSpline
210
0.0
220
0.0
230
1.0
 70
     8
 71
     3
 72
    12
 73
     8
 74
     0
 42
0.0000000051281675
 43
0.0000000001
 40
0.0
 40
0.0
 40
0.0
 40
0.0
 40
0.145918849539765
 40
0.3869420729579127
 40
0.6271770755141725
 40
0.8672763930219256
 40
1.0
 40
1.0
 40
1.0
 40
1.0
 10
42.09529373559992
 20
324.7974393536394
 30
0.0
 10
42.09897697093744
 20
324.6939474916274
 30
0.0
 10
42.11017279622982
 20
324.4608197398282
 30
0.0
 10
42.22081957804088
 20
324.0557995782668
 30
0.0
 10
42.44474765416759
 20
323.6501158883937
 30
0.0
 10
42.72231146580167
 20
323.3475119236239
 30
0.0
 10
42.90544537834855
 20
323.2167929448501
 30
0.0
 10
42.98274159263676
 20
323.1629637276763
 30
0.0
  0
LINE
  5
206
330
1C0
100
AcDbEntity
  8
$DDT_AUDIT_GENERATED_(1FA)
  6
Continuous
 62
     7
100
AcDbLine
 10
88.9936810492
 20
301.0418755359
 30
0.0
 11
103.2046205057
 21
310.2705675254
 31
0.0
  0
LINE
  5
207
330
1C0
100
AcDbEntity
  8
$DDT_AUDIT_GENERATED_(1FA)
  6
Continuous
 62
     7
100
AcDbLine
 10
42.0952937356
 20
343.4502247964
 30
0.0
 11
42.0952937356
 21
324.7974393536
 31
0.0
  0
SPLINE
  5
208
330
1C0
100
AcDbEntity
  8
$DDT_AUDIT_GENERATED_(1FA)
  6
Continuous
 62
     7
100
AcDbSpline
210
0.0
220
0.0
230
1.0
 70
     8
 71
     3
 72
     8
 73
     4
 74
     0
 42
0.0000000050397605
 43
0.0000000001
 40
0.0
 40
0.0
 40
0.0
 40
0.0
 40
0.0862971160012961
 40
0.0862971160012961
 40
0.0862971160012961
 40
0.0862971160012961
 10
103.2046205057334
 20
310.270567525446
 30
0.0
 10
103.2547654542404
 20
310.3057293407668
 30
0.0
 10
103.3002383440144
 20
310.3380817859126
 30
0.0
 10
103.3433012455368
 20
310.3709626433421
 30
0.0
  0
SPLINE
  5
209
330
1C0
100
AcDbEntity
  8
$DDT_AUDIT_GENERATED_(1FA)
  6
Continuous
 62
     7
100
AcDbSpline
210
0.0
220
0.0
230
1.0
 70
     8
 71
     3
 72
    12
 73
     8
 74
     0
 42
0.0000000051281675
 43
0.0000000001
 40
0.0
 40
0.0
 40
0.0
 40
0.0
 40
0.1459188495397641
 40
0.3869420729579113
 40
0.6271770755141592
 40
0.8672763930219072
 40
1.0
 40
1.0
 40
1.0
 40
1.0
 10
42.98274159263676
 20
345.0847004223213
 30
0.0
 10
42.89795204768528
 20
345.0252456933907
 30
0.0
 10
42.7085323471635
 20
344.888885610459
 30
0.0
 10
42.42911641471057
 20
344.5754996211618
 30
0.0
 10
42.21084141541284
 20
344.1667465610038
 30
0.0
 10
42.10822846294035
 20
343.7691520300957
 30
0.0
 10
42.09834018017892
 20
343.5443683491924
 30
0.0
 10
42.09529373559992
 20
343.450224796358
 30
0.0
  0
LINE
  5
20A
330
1C0
100
AcDbEntity
  8
$DDT_AUDIT_GENERATED_(1FA)
  6
Continuous
 62
     7
100
AcDbLine
 10
81.9585147725
 20
370.3958634761
 30
0.0
 11
42.9827415926
 21
345.0847004223
 31
0.0
  0
SPLINE
  5
20B
330
1C0
100
AcDbEntity
  8
$DDT_AUDIT_GENERATED_(1FA)
  6
Continuous
 62
     7
100
AcDbSpline
210
0.0
220
0.0
230
1.0
 70
     8
 71
     3
 72
     8
 73
     4
 74
     0
 42
0.0000000050670979
 43
0.0000000001
 40
0.912475200439203
 40
0.912475200439203
 40
0.912475200439203
 40
0.912475200439203
 40
1.0
 40
1.0
 40
1.0
 40
1.0
 10
103.3447015640932
 20
357.8760898837792
 30
0.0
 10
103.3013042055811
 20
357.9092729679206
 30
0.0
 10
103.2555936205878
 20
357.9415988593012
 30
0.0
 10
103.2046205057334
 20
357.9770966245512
 30
0.0
  0
SPLINE
  5
20C
330
1C0
100
AcDbEntity
  8
$DDT_AUDIT_GENERATED_(1FA)
  6
Continuous
 62
     7
100
AcDbSpline
210
0.0
220
0.0
230
1.0
 70
     8
 71
     3
 72
    13
 73
     9
 74
     0
 42
0.0000000044268206
 43
0.0000000001
 40
0.0
 40
0.0
 40
0.0
 40
0.0
 40
0.1262567811527747
 40
0.3347865153208399
 40
0.5422370740268697
 40
0.749178921274096
 40
0.9468149105145441
 40
1.0
 40
1.0
 40
1.0
 40
1.0
 10
84.0813965372965
 20
370.3958634760704
 30
0.0
 10
83.99242658979543
 20
370.4492655788649
 30
0.0
 10
83.79028316083595
 20
370.5670828580421
 30
0.0
 10
83.39103246963805
 20
370.6954868714836
 30
0.0
 10
82.92447422342825
 20
370.7280640599668
 30
0.0
 10
82.47208105817069
 20
370.6517816528966
 30
0.0
 10
82.1454109688842
 20
370.5119518203275
 30
0.0
 10
81.9955241958078
 20
370.4191220080899
 30
0.0
 10
81.95851477250298
 20
370.3958634760704
 30
0.0
  0
LINE
  5
20D
330
1C0
100
AcDbEntity
  8
$DDT_AUDIT_GENERATED_(1FA)
  6
Continuous
 62
     7
100
AcDbLine
 10
103.2046205057
 20
357.9770966246
 30
0.0
 11
84.0813965373
 21
370.3958634761
 31
0.0
  0
SPLINE
  5
20F
330
1C0
100
AcDbEntity
  8
$DDT_AUDIT_GENERATED_(20E)
  6
Continuous
 62
     7
100
AcDbSpline
210
0.0
220
0.0
230
1.0
 70
     8
 71
     3
 72
    20
 73
    16
 74
     0
 42
0.0000000000692991
 43
0.0000000001
 40
0.0
 40
0.0
 40
0.0
 40
0.0
 40
0.0142218645527586
 40
0.0277911985142886
 40
0.0407057241032622
 40
0.0529741062886312
 40
0.0644943707494779
 40
0.0753642793621136
 40
0.0855880457630956
 40
0.0951658064032096
 40
0.1039989953358701
 40
0.1131243081576586
 40
0.1229931499335385
 40
0.1324545337096244
 40
0.1430511140276317
 40
0.1430511140276317
 40
0.1430511140276317
 40
0.1430511140276317
 10
21.59980342381184
 20
327.1238320749989
 30
0.0
 10
21.59980342381184
 20
327.1238320749989
 30
0.0
 10
21.61852740729983
 20
327.1238320750019
 30
0.0
 10
21.546349592113
 20
327.1238320749933
 30
0.0
 10
21.99837432839564
 20
327.1238320750087
 30
0.0
 10
23.03845262863359
 20
327.1238320749806
 30
0.0
 10
24.44883403545807
 20
327.1238320750335
 30
0.0
 10
26.17017690692833
 20
327.1238320749339
 30
0.0
 10
28.07591413294312
 20
327.1238320751178
 30
0.0
 10
30.08660883367273
 20
327.1238320747815
 30
0.0
 10
32.18432794029471
 20
327.1238320754105
 30
0.0
 10
34.44231950720093
 20
327.1238320741977
 30
0.0
 10
36.85182815930688
 20
327.1238320762918
 30
0.0
 10
39.46285257124411
 20
327.1238320730279
 30
0.0
 10
41.19397319933892
 20
327.1238320759602
 30
0.0
 10
42.09800748250732
 20
327.1238320763484
 30
0.0
  0
SPLINE
  5
210
330
1C0
100
AcDbEntity
  8
$DDT_AUDIT_GENERATED_(20E)
  6
Continuous
 62
     7
100
AcDbSpline
210
0.0
220
0.0
230
1.0
 70
     8
 71
     3
 72
    22
 73
    18
 74
     0
 42
0.0000000000693311
 43
0.0000000001
 40
0.8569423383446857
 40
0.8569423383446857
 40
0.8569423383446857
 40
0.8569423383446857
 40
0.8622869491490726
 40
0.8719470126894665
 40
0.8800977603846749
 40
0.8878001330492432
 40
0.8941142395734925
 40
0.9014010231282499
 40
0.9100818077236696
 40
0.9203484684591356
 40
0.9302435127714885
 40
0.9386430055037185
 40
0.9476751221381996
 40
0.9594289105156045
 40
0.9720635896673149
 40
0.9855878823035811
 40
1.0
 40
1.0
 40
1.0
 40
1.0
 10
42.09707963244111
 20
341.1238320747019
 30
0.0
 10
41.64142771735993
 20
341.1238320752583
 30
0.0
 10
40.35423788532626
 20
341.1238320768762
 30
0.0
 10
38.33715852629695
 20
341.1238320736598
 30
0.0
 10
36.1316826326658
 20
341.1238320756795
 30
0.0
 10
34.2706112617303
 20
341.1238320747069
 30
0.0
 10
32.54078561462428
 20
341.1238320751457
 30
0.0
 10
30.80857423429207
 20
341.1238320749184
 30
0.0
 10
28.89845830952105
 20
341.1238320750445
 30
0.0
 10
26.99762288658653
 20
341.1238320749729
 30
0.0
 10
25.36998896390123
 20
341.1238320750099
 30
0.0
 10
24.04957401528331
 20
341.1238320749935
 30
0.0
 10
22.92438989691424
 20
341.123832075002
 30
0.0
 10
21.9915970151548
 20
341.1238320749972
 30
0.0
 10
21.54870197572149
 20
341.1238320749998
 30
0.0
 10
21.61704943515365
 20
341.1238320749983
 30
0.0
 10
21.59980342381184
 20
341.1238320749989
 30
0.0
 10
21.59980342381184
 20
341.1238320749989
 30
0.0
  0
SPLINE
  5
211
330
1C0
100
AcDbEntity
  8
$DDT_AUDIT_GENERATED_(20E)
  6
Continuous
 62
     7
100
AcDbSpline
210
0.0
220
0.0
230
1.0
 70
    24
 71
     3
 72
     9
 73
     5
 74
     0
 42
0.0000000247287426
 43
0.0000000001
 40
0.0
 40
0.0
 40
0.0
 40
0.0
 40
0.0148747479331203
 40
0.0268683831123858
 40
0.0268683831123858
 40
0.0268683831123858
 40
0.0268683831123858
 10
21.59980342381184
 20
327.1238320749989
 30
0.0
 10
21.59980342381184
 20
327.1238320749989
 30
0.0
 10
21.60172487519594
 20
327.1238320749988
 30
0.0
 10
21.5961862091667
 20
327.1238320749989
 30
0.0
 10
21.59959133609467
 20
327.1238320749989
 30
0.0
  0
SPLINE
  5
212
330
1C0
100
AcDbEntity
  8
$DDT_AUDIT_GENERATED_(20E)
  6
Continuous
 62
     7
100
AcDbSpline
210
0.0
220
0.0
230
1.0
 70
    24
 71
     3
 72
     9
 73
     5
 74
     0
 42
0.0000001383673161
 43
0.0000000001
 40
0.9751169428644737
 40
0.9751169428644737
 40
0.9751169428644737
 40
0.9751169428644737
 40
0.9862894074832328
 40
1.0
 40
1.0
 40
1.0
 40
1.0
 10
21.59968610499367
 20
341.1238320749989
 30
0.0
 10
21.60044379932879
 20
341.1238320749989
 30
0.0
 10
21.59960329201829
 20
341.1238320749989
 30
0.0
 10
21.59980342381184
 20
341.1238320749989
 30
0.0
 10
21.59980342381184
 20
341.1238320749989
 30
0.0
  0
SPLINE
  5
213
330
1C0
100
AcDbEntity
  8
$DDT_AUDIT_GENERATED_(20E)
  6
Continuous
 62
     7
100
AcDbSpline
210
0.0
220
0.0
230
1.0
 70
     8
 71
     3
 72
    28
 73
    24
 74
     0
 42
0.0000000004533965
 43
0.0000000001
 40
0.0
 40
0.0
 40
0.0
 40
0.0
 40
0.0524055643151835
 40
0.0955408151756331
 40
0.129400388136722
 40
0.1556607523715981
 40
0.2113903394019799
 40
0.2730157238896594
 40
0.3335298133847128
 40
0.3896754883774479
 40
0.4423898558807841
 40
0.4920595299079177
 40
0.5395182477730999
 40
0.5917264707854782
 40
0.6471307365242228
 40
0.7043392251009155
 40
0.7424659468228529
 40
0.7799317543347135
 40
0.8182032352219825
 40
0.8535022041804866
 40
0.8955500088185435
 40
0.9444586110775923
 40
1.0
 40
1.0
 40
1.0
 40
1.0
 10
21.59980342381184
 20
341.1238320749989
 30
0.0
 10
21.17803303644138
 20
341.1064609954699
 30
0.0
 10
20.52950108022174
 20
341.072659615691
 30
0.0
 10
19.5875237179705
 20
340.8458285806728
 30
0.0
 10
18.87992679612173
 20
340.5851649547199
 30
0.0
 10
18.1137486914732
 20
340.2173224930022
 30
0.0
 10
17.22746059147609
 20
339.6412484936204
 30
0.0
 10
16.27811940567597
 20
338.7374420779184
 30
0.0
 10
15.51712755798149
 20
337.6668898092298
 30
0.0
 10
14.9921429899622
 20
336.536097844949
 30
0.0
 10
14.68823987209224
 20
335.4102033118469
 30
0.0
 10
14.57518209967147
 20
334.3142837696689
 30
0.0
 10
14.62973114834569
 20
333.2181175335
 30
0.0
 10
14.86336193306766
 20
332.1015852698048
 30
0.0
 10
15.30797763619078
 20
330.9730530898406
 30
0.0
 10
15.89048595433634
 20
330.0279743680358
 30
0.0
 10
16.51988533031516
 20
329.2839006001872
 30
0.0
 10
17.13140494476516
 20
328.7141338900004
 30
0.0
 10
17.78922407639887
 20
328.2333041612299
 30
0.0
 10
18.52814225062756
 20
327.8145551173923
 30
0.0
 10
19.3800487286845
 20
327.4604746583829
 30
0.0
 10
20.44292111589609
 20
327.1828738484155
 30
0.0
 10
21.152842118857
 20
327.1433462847539
 30
0.0
 10
21.59980342381184
 20
327.1238320749989
 30
0.0
  0
ENDBLK
  5
215
330
1C0
100
AcDbEntity
  8
0
100
AcDbBlockEnd
  0
ENDSEC
  0
SECTION
  2
ENTITIES
  0
INSERT
  5
5F
330
1F
100
AcDbEntity
  8
Default
100
AcDbBlockReference
  2
SEANNOT_GROUP
 10
0.0
 20
0.0
 30
0.0
  0
INSERT
  5
66
330
1F
100
AcDbEntity
  8
Default
100
AcDbBlockReference
  2
SEANNOT_GROUP1
 10
0.0
 20
0.0
 30
0.0
  0
INSERT
  5
6C
330
1F
100
AcDbEntity
  8
Default
100
AcDbBlockReference
  2
SEANNOT_GROUP2
 10
0.0
 20
0.0
 30
0.0
  0
INSERT
  5
76
330
1F
100
AcDbEntity
  8
Default
100
AcDbBlockReference
  2
SE
 10
0.0
 20
0.0
 30
0.0
  0
INSERT
  5
17D
330
1F
100
AcDbEntity
  8
Default
100
AcDbBlockReference
  2
SE1
 10
0.0
 20
0.0
 30
0.0
  0
INSERT
  5
1C1
330
1F
100
AcDbEntity
  8
Default
100
AcDbBlockReference
  2
SE2
 10
0.0
 20
0.0
 30
0.0
  0
TEXT
  5
217
330
1F
100
AcDbEntity
  8
Default
  6
Continuous
 62
     7
100
AcDbText
 10
5.9362635081
 20
53.4225120485
 30
0.0
 40
10.0
  1
Grohe AG^J
  7
SEACAD_seiso_ttf
 11
5.9362635081
 21
63.4225120485
 31
0.0
100
AcDbText
 73
     3
  0
TEXT
  5
218
330
1F
100
AcDbEntity
  8
Default
  6
Continuous
 62
     7
100
AcDbText
 10
5.9362635081
 20
37.0588756849
 30
0.0
 40
10.0
  1
 
  7
SEACAD_seiso_ttf
 11
5.9362635081
 21
47.0588756849
 31
0.0
100
AcDbText
 73
     3
  0
TEXT
  5
219
330
1F
100
AcDbEntity
  8
Default
  6
Continuous
 62
     7
100
AcDbText
 10
5.9362635081
 20
20.6952393213
 30
0.0
 40
10.0
  1
ecn: 
  7
SEACAD_seiso_ttf
 11
5.9362635081
 21
30.6952393213
 31
0.0
100
AcDbText
 73
     3
  0
TEXT
  5
21A
330
1F
100
AcDbEntity
  8
Default
  6
Continuous
 62
     7
100
AcDbText
 10
5.9362635081
 20
4.3316029576
 30
0.0
 40
10.0
  1
unit: mm
  7
SEACAD_seiso_ttf
 11
5.9362635081
 21
14.3316029576
 31
0.0
100
AcDbText
 73
     3
  0
LINE
  5
21B
330
1F
100
AcDbEntity
  8
Default
  6
Continuous
 62
     7
100
AcDbLine
 10
0.0
 20
0.0
 30
0.0
 11
100.0
 21
0.0
 31
0.0
  0
LINE
  5
21C
330
1F
100
AcDbEntity
  8
Default
  6
Continuous
 62
     7
100
AcDbLine
 10
0.0
 20
0.0
 30
0.0
 11
0.0
 21
100.0
 31
0.0
  0
TEXT
  5
21D
330
1F
100
AcDbEntity
  8
Default
  6
Continuous
 62
     7
100
AcDbText
 10
24.3923665681
 20
-18.2375342018
 30
0.0
 40
10.0
  1
100 mm
  7
SEACAD_seiso_ttf
 11
24.3923665681
 21
-8.2375342018
 31
0.0
100
AcDbText
 73
     3
  0
TEXT
  5
21E
330
1F
100
AcDbEntity
  8
Default
  6
Continuous
 62
     7
100
AcDbText
 10
-7.6150308803
 20
24.6231930421
 30
0.0
 40
10.0
  1
100 mm
 50
90.0
  7
SEACAD_seiso_ttf
 11
-17.6150308803
 21
24.6231930421
 31
0.0
100
AcDbText
 73
     3
  0
TEXT
  5
21F
330
1F
100
AcDbEntity
  8
Default
  6
Continuous
 62
     7
100
AcDbText
 10
28.4878128572
 20
20.0907663715
 30
0.0
 40
10.0
  1
219668
  7
SEACAD_seiso_ttf
 11
28.4878128572
 21
30.0907663715
 31
0.0
100
AcDbText
 73
     3
  0
TEXT
  5
220
330
1F
100
AcDbEntity
  8
Default
  6
Continuous
 62
     7
100
AcDbText
 10
5.9012241913
 20
36.7242780188
 30
0.0
 40
10.0
  1
31126002
  7
SEACAD_seiso_ttf
 11
5.9012241913
 21
46.7242780188
 31
0.0
100
AcDbText
 73
     3
  0
ENDSEC
  0
SECTION
  2
OBJECTS
  0
DICTIONARY
  5
C
330
0
100
AcDbDictionary
281
     1
  3
ACAD_GROUP
350
D
  3
ACAD_LAYOUT
350
1A
  3
ACAD_MLEADERSTYLE
350
224
  3
ACAD_MLINESTYLE
350
17
  3
ACAD_PLOTSETTINGS
350
19
  3
ACAD_PLOTSTYLENAME
350
E
  3
ACAD_SCALELIST
350
3B
  3
ACAD_TABLESTYLE
350
223
  3
ACAD_VISUALSTYLE
350
2A
  3
AcDbVariableDictionary
350
221
  0
DICTIONARY
  5
D
102
{ACAD_REACTORS
330
C
102
}
330
C
100
AcDbDictionary
281
     1
  0
DICTIONARY
  5
1A
102
{ACAD_REACTORS
330
C
102
}
330
C
100
AcDbDictionary
281
     1
  3
Layout1
350
1E
  3
Model
350
22
  0
DICTIONARY
  5
224
102
{ACAD_REACTORS
330
C
102
}
330
C
100
AcDbDictionary
281
     1
  0
DICTIONARY
  5
17
102
{ACAD_REACTORS
330
C
102
}
330
C
100
AcDbDictionary
281
     1
  3
Standard
350
18
  0
DICTIONARY
  5
19
102
{ACAD_REACTORS
330
C
102
}
330
C
100
AcDbDictionary
281
     1
  0
ACDBDICTIONARYWDFLT
  5
E
102
{ACAD_REACTORS
330
C
102
}
330
C
100
AcDbDictionary
281
     1
  3
Normal
350
F
100
AcDbDictionaryWithDefault
340
F
  0
DICTIONARY
  5
3B
102
{ACAD_REACTORS
330
C
102
}
330
C
100
AcDbDictionary
281
     1
  3
A0
350
3C
  3
A1
350
3D
  3
A2
350
3E
  3
A3
350
3F
  3
A4
350
40
  3
A5
350
41
  3
A6
350
42
  3
A7
350
43
  3
A8
350
44
  3
A9
350
45
  3
B0
350
46
  3
B1
350
47
  3
B2
350
48
  3
B3
350
49
  3
B4
350
4A
  3
B5
350
4B
  3
B6
350
4C
  3
B7
350
4D
  3
B8
350
4E
  3
B9
350
4F
  3
C0
350
50
  3
C1
350
51
  3
C2
350
52
  3
C3
350
53
  3
C4
350
54
  3
C5
350
55
  3
C6
350
56
  3
C7
350
57
  3
C8
350
58
  3
C9
350
59
  3
D0
350
5A
  3
D1
350
5B
  3
D2
350
5C
  0
DICTIONARY
  5
223
102
{ACAD_REACTORS
330
C
102
}
330
C
100
AcDbDictionary
281
     1
  0
DICTIONARY
  5
2A
102
{ACAD_REACTORS
330
C
102
}
330
C
100
AcDbDictionary
281
     1
  3
2dWireframe
350
2F
  3
3D Hidden
350
31
  3
3dWireframe
350
30
  3
Basic
350
32
  3
Brighten
350
36
  3
ColorChange
350
3A
  3
Conceptual
350
34
  3
Dim
350
35
  3
Facepattern
350
39
  3
Flat
350
2B
  3
FlatWithEdges
350
2C
  3
Gouraud
350
2D
  3
GouraudWithEdges
350
2E
  3
Linepattern
350
38
  3
Realistic
350
33
  3
Thicken
350
37
  0
DICTIONARY
  5
221
102
{ACAD_REACTORS
330
C
102
}
330
C
100
AcDbDictionary
281
     1
  3
CANNOSCALE
350
222
  3
PSOLHEIGHT
350
226
  3
PSOLWIDTH
350
225
  0
LAYOUT
  5
1E
102
{ACAD_REACTORS
330
1A
102
}
330
1A
100
AcDbPlotSettings
  1

  2
none_device
  4

  6

 40
0.0
 41
0.0
 42
0.0
 43
0.0
 44
0.0
 45
0.0
 46
0.0
 47
0.0
 48
0.0
 49
0.0
140
0.0
141
0.0
142
1.0
143
1.0
 70
   688
 72
     0
 73
     0
 74
     5
  7

 75
    16
147
1.0
148
0.0
149
0.0
100
AcDbLayout
  1
Layout1
 70
     1
 71
     1
 10
0.0
 20
0.0
 11
1682.0
 21
2378.0
 12
0.0
 22
0.0
 32
0.0
 14
0.0
 24
0.0
 34
0.0
 15
1682.0
 25
2378.0
 35
0.0
146
0.0
 13
0.0
 23
0.0
 33
0.0
 16
1.0
 26
0.0
 36
0.0
 17
0.0
 27
1.0
 37
0.0
 76
     0
330
1B
  0
LAYOUT
  5
22
102
{ACAD_REACTORS
330
1A
102
}
330
1A
100
AcDbPlotSettings
  1

  2
none_device
  4

  6

 40
0.0
 41
0.0
 42
0.0
 43
0.0
 44
0.0
 45
0.0
 46
0.0
 47
0.0
 48
0.0
 49
0.0
140
0.0
141
0.0
142
1.0
143
1.0
 70
  1712
 72
     0
 73
     0
 74
     0
  7

 75
     0
147
1.0
148
0.0
149
0.0
100
AcDbLayout
  1
Model
 70
     1
 71
     0
 10
0.0
 20
0.0
 11
1682.0
 21
2378.0
 12
0.0
 22
0.0
 32
0.0
 14
0.0
 24
0.0
 34
0.0
 15
1682.0
 25
2378.0
 35
0.0
146
0.0
 13
0.0
 23
0.0
 33
0.0
 16
1.0
 26
0.0
 36
0.0
 17
0.0
 27
1.0
 37
0.0
 76
     0
330
1F
331
29
  0
MLINESTYLE
  5
18
102
{ACAD_REACTORS
330
17
102
}
330
17
100
AcDbMlineStyle
  2
Standard
 70
     0
  3

 62
   256
 51
90.0
 52
90.0
 71
     2
 49
0.5
 62
   256
  6
BYLAYER
 49
-0.5
 62
   256
  6
BYLAYER
  0
ACDBPLACEHOLDER
  5
F
102
{ACAD_REACTORS
330
E
102
}
330
E
  0
SCALE
  5
3C
102
{ACAD_REACTORS
330
3B
102
}
330
3B
100
AcDbScale
 70
     0
300
1:1
140
1.0
141
1.0
290
     1
  0
SCALE
  5
3D
102
{ACAD_REACTORS
330
3B
102
}
330
3B
100
AcDbScale
 70
     0
300
1:2
140
1.0
141
2.0
290
     0
  0
SCALE
  5
3E
102
{ACAD_REACTORS
330
3B
102
}
330
3B
100
AcDbScale
 70
     0
300
1:4
140
1.0
141
4.0
290
     0
  0
SCALE
  5
3F
102
{ACAD_REACTORS
330
3B
102
}
330
3B
100
AcDbScale
 70
     0
300
1:5
140
1.0
141
5.0
290
     0
  0
SCALE
  5
40
102
{ACAD_REACTORS
330
3B
102
}
330
3B
100
AcDbScale
 70
     0
300
1:8
140
1.0
141
8.0
290
     0
  0
SCALE
  5
41
102
{ACAD_REACTORS
330
3B
102
}
330
3B
100
AcDbScale
 70
     0
300
1:10
140
1.0
141
10.0
290
     0
  0
SCALE
  5
42
102
{ACAD_REACTORS
330
3B
102
}
330
3B
100
AcDbScale
 70
     0
300
1:16
140
1.0
141
16.0
290
     0
  0
SCALE
  5
43
102
{ACAD_REACTORS
330
3B
102
}
330
3B
100
AcDbScale
 70
     0
300
1:20
140
1.0
141
20.0
290
     0
  0
SCALE
  5
44
102
{ACAD_REACTORS
330
3B
102
}
330
3B
100
AcDbScale
 70
     0
300
1:30
140
1.0
141
30.0
290
     0
  0
SCALE
  5
45
102
{ACAD_REACTORS
330
3B
102
}
330
3B
100
AcDbScale
 70
     0
300
1:40
140
1.0
141
40.0
290
     0
  0
SCALE
  5
46
102
{ACAD_REACTORS
330
3B
102
}
330
3B
100
AcDbScale
 70
     0
300
1:50
140
1.0
141
50.0
290
     0
  0
SCALE
  5
47
102
{ACAD_REACTORS
330
3B
102
}
330
3B
100
AcDbScale
 70
     0
300
1:100
140
1.0
141
100.0
290
     0
  0
SCALE
  5
48
102
{ACAD_REACTORS
330
3B
102
}
330
3B
100
AcDbScale
 70
     0
300
2:1
140
2.0
141
1.0
290
     0
  0
SCALE
  5
49
102
{ACAD_REACTORS
330
3B
102
}
330
3B
100
AcDbScale
 70
     0
300
4:1
140
4.0
141
1.0
290
     0
  0
SCALE
  5
4A
102
{ACAD_REACTORS
330
3B
102
}
330
3B
100
AcDbScale
 70
     0
300
8:1
140
8.0
141
1.0
290
     0
  0
SCALE
  5
4B
102
{ACAD_REACTORS
330
3B
102
}
330
3B
100
AcDbScale
 70
     0
300
10:1
140
10.0
141
1.0
290
     0
  0
SCALE
  5
4C
102
{ACAD_REACTORS
330
3B
102
}
330
3B
100
AcDbScale
 70
     0
300
100:1
140
100.0
141
1.0
290
     0
  0
SCALE
  5
4D
102
{ACAD_REACTORS
330
3B
102
}
330
3B
100
AcDbScale
 70
     0
300
1/128" = 1'-0"
140
0.0078125
141
12.0
290
     0
  0
SCALE
  5
4E
102
{ACAD_REACTORS
330
3B
102
}
330
3B
100
AcDbScale
 70
     0
300
1/64" = 1'-0"
140
0.015625
141
12.0
290
     0
  0
SCALE
  5
4F
102
{ACAD_REACTORS
330
3B
102
}
330
3B
100
AcDbScale
 70
     0
300
1/32" = 1'-0"
140
0.03125
141
12.0
290
     0
  0
SCALE
  5
50
102
{ACAD_REACTORS
330
3B
102
}
330
3B
100
AcDbScale
 70
     0
300
1/16" = 1'-0"
140
0.0625
141
12.0
290
     0
  0
SCALE
  5
51
102
{ACAD_REACTORS
330
3B
102
}
330
3B
100
AcDbScale
 70
     0
300
3/32" = 1'-0"
140
0.09375
141
12.0
290
     0
  0
SCALE
  5
52
102
{ACAD_REACTORS
330
3B
102
}
330
3B
100
AcDbScale
 70
     0
300
1/8" = 1'-0"
140
0.125
141
12.0
290
     0
  0
SCALE
  5
53
102
{ACAD_REACTORS
330
3B
102
}
330
3B
100
AcDbScale
 70
     0
300
3/16" = 1'-0"
140
0.1875
141
12.0
290
     0
  0
SCALE
  5
54
102
{ACAD_REACTORS
330
3B
102
}
330
3B
100
AcDbScale
 70
     0
300
1/4" = 1'-0"
140
0.25
141
12.0
290
     0
  0
SCALE
  5
55
102
{ACAD_REACTORS
330
3B
102
}
330
3B
100
AcDbScale
 70
     0
300
3/8" = 1'-0"
140
0.375
141
12.0
290
     0
  0
SCALE
  5
56
102
{ACAD_REACTORS
330
3B
102
}
330
3B
100
AcDbScale
 70
     0
300
1/2" = 1'-0"
140
0.5
141
12.0
290
     0
  0
SCALE
  5
57
102
{ACAD_REACTORS
330
3B
102
}
330
3B
100
AcDbScale
 70
     0
300
3/4" = 1'-0"
140
0.75
141
12.0
290
     0
  0
SCALE
  5
58
102
{ACAD_REACTORS
330
3B
102
}
330
3B
100
AcDbScale
 70
     0
300
1" = 1'-0"
140
1.0
141
12.0
290
     0
  0
SCALE
  5
59
102
{ACAD_REACTORS
330
3B
102
}
330
3B
100
AcDbScale
 70
     0
300
1-1/2" = 1'-0"
140
1.5
141
12.0
290
     0
  0
SCALE
  5
5A
102
{ACAD_REACTORS
330
3B
102
}
330
3B
100
AcDbScale
 70
     0
300
3" = 1'-0"
140
3.0
141
12.0
290
     0
  0
SCALE
  5
5B
102
{ACAD_REACTORS
330
3B
102
}
330
3B
100
AcDbScale
 70
     0
300
6" = 1'-0"
140
6.0
141
12.0
290
     0
  0
SCALE
  5
5C
102
{ACAD_REACTORS
330
3B
102
}
330
3B
100
AcDbScale
 70
     0
300
1'-0" = 1'-0"
140
12.0
141
12.0
290
     0
  0
VISUALSTYLE
  5
2F
102
{ACAD_REACTORS
330
2A
102
}
330
2A
100
AcDbVisualStyle
  2
2dWireframe
 70
     4
 71
     0
 72
     2
 73
     0
 90
        0
 40
-0.6
 41
-30.0
 62
     5
 63
     7
 74
     1
 91
        4
 64
     7
 65
   257
 75
     1
175
     1
 42
1.0
 92
        0
 66
   257
 43
1.0
 76
     1
 77
     6
 78
     2
 67
     7
 79
     5
170
     0
171
     0
290
     0
174
     0
 93
        1
 44
0.0
173
     0
291
     0
 45
0.0
1001
ACAD
1000
AcDbSavedByObjectVersion
1070
     0
  0
VISUALSTYLE
  5
31
102
{ACAD_REACTORS
330
2A
102
}
330
2A
100
AcDbVisualStyle
  2
3D Hidden
 70
     6
 71
     1
 72
     2
 73
     2
 90
        0
 40
-0.6
 41
-30.0
 62
     5
 63
     7
 74
     2
 91
        2
 64
     7
 65
   257
 75
     2
175
     1
 42
40.0
 92
        0
 66
   257
 43
1.0
 76
     1
 77
     6
 78
     2
 67
     7
 79
     3
170
     0
171
     0
290
     0
174
     0
 93
        1
 44
0.0
173
     0
291
     0
 45
0.0
1001
ACAD
1000
AcDbSavedByObjectVersion
1070
     0
  0
VISUALSTYLE
  5
30
102
{ACAD_REACTORS
330
2A
102
}
330
2A
100
AcDbVisualStyle
  2
3dWireframe
 70
     5
 71
     0
 72
     2
 73
     0
 90
        0
 40
-0.6
 41
-30.0
 62
     5
 63
     7
 74
     1
 91
        4
 64
     7
 65
   257
 75
     1
175
     1
 42
1.0
 92
        0
 66
   257
 43
1.0
 76
     1
 77
     6
 78
     2
 67
     7
 79
     5
170
     0
171
     0
290
     0
174
     0
 93
        1
 44
0.0
173
     0
291
     0
 45
0.0
1001
ACAD
1000
AcDbSavedByObjectVersion
1070
     0
  0
VISUALSTYLE
  5
32
102
{ACAD_REACTORS
330
2A
102
}
330
2A
100
AcDbVisualStyle
  2
Basic
 70
     7
 71
     1
 72
     0
 73
     1
 90
        0
 40
-0.6
 41
-30.0
 62
     5
 63
     7
 74
     0
 91
        4
 64
     7
 65
   257
 75
     1
175
     1
 42
1.0
 92
        8
 66
     7
 43
1.0
 76
     1
 77
     6
 78
     2
 67
     7
 79
     5
170
     0
171
     0
290
     0
174
     0
 93
        1
 44
0.0
173
     0
291
     1
 45
0.0
1001
ACAD
1000
AcDbSavedByObjectVersion
1070
     0
  0
VISUALSTYLE
  5
36
102
{ACAD_REACTORS
330
2A
102
}
330
2A
100
AcDbVisualStyle
  2
Brighten
 70
    12
 71
     2
 72
     2
 73
     0
 90
        0
 40
-0.6
 41
-30.0
 62
     5
 63
     7
 74
     1
 91
        4
 64
     7
 65
   257
 75
     1
175
     1
 42
1.0
 92
        8
 66
     7
 43
1.0
 76
     1
 77
     6
 78
     2
 67
     7
 79
     5
170
     0
171
     0
290
     0
174
     0
 93
        1
 44
50.0
173
     0
291
     1
 45
0.0
1001
ACAD
1000
AcDbSavedByObjectVersion
1070
     0
  0
VISUALSTYLE
  5
3A
102
{ACAD_REACTORS
330
2A
102
}
330
2A
100
AcDbVisualStyle
  2
ColorChange
 70
    16
 71
     2
 72
     2
 73
     3
 90
        0
 40
-0.6
 41
-30.0
 62
     5
 63
     8
 74
     1
 91
        4
 64
     7
 65
   257
 75
     1
175
     1
 42
1.0
 92
        8
 66
     8
 43
1.0
 76
     1
 77
     6
 78
     2
 67
     7
 79
     5
170
     0
171
     0
290
     0
174
     0
 93
        1
 44
0.0
173
     0
291
     1
 45
0.0
1001
ACAD
1000
AcDbSavedByObjectVersion
1070
     0
  0
VISUALSTYLE
  5
34
102
{ACAD_REACTORS
330
2A
102
}
330
2A
100
AcDbVisualStyle
  2
Conceptual
 70
     9
 71
     3
 72
     2
 73
     0
 90
        0
 40
-0.6
 41
-30.0
 62
     5
 63
     7
 74
     2
 91
        2
 64
     7
 65
   257
 75
     1
175
     1
 42
40.0
 92
        8
 66
     7
 43
1.0
 76
     1
 77
     6
 78
     2
 67
     7
 79
     3
170
     0
171
     0
290
     0
174
     0
 93
        1
 44
0.0
173
     0
291
     0
 45
0.0
1001
ACAD
1000
AcDbSavedByObjectVersion
1070
     0
  0
VISUALSTYLE
  5
35
102
{ACAD_REACTORS
330
2A
102
}
330
2A
100
AcDbVisualStyle
  2
Dim
 70
    11
 71
     2
 72
     2
 73
     0
 90
        0
 40
-0.6
 41
-30.0
 62
     5
 63
     7
 74
     1
 91
        4
 64
     7
 65
   257
 75
     1
175
     1
 42
1.0
 92
        8
 66
     7
 43
1.0
 76
     1
 77
     6
 78
     2
 67
     7
 79
     5
170
     0
171
     0
290
     0
174
     0
 93
        1
 44
-50.0
173
     0
291
     1
 45
0.0
1001
ACAD
1000
AcDbSavedByObjectVersion
1070
     0
  0
VISUALSTYLE
  5
39
102
{ACAD_REACTORS
330
2A
102
}
330
2A
100
AcDbVisualStyle
  2
Facepattern
 70
    15
 71
     2
 72
     2
 73
     0
 90
        0
 40
-0.6
 41
-30.0
 62
     5
 63
     7
 74
     1
 91
        4
 64
     7
 65
   257
 75
     1
175
     1
 42
1.0
 92
        8
 66
     7
 43
1.0
 76
     1
 77
     6
 78
     2
 67
     7
 79
     5
170
     0
171
     0
290
     0
174
     0
 93
        1
 44
0.0
173
     0
291
     1
 45
0.0
1001
ACAD
1000
AcDbSavedByObjectVersion
1070
     0
  0
VISUALSTYLE
  5
2B
102
{ACAD_REACTORS
330
2A
102
}
330
2A
100
AcDbVisualStyle
  2
Flat
 70
     0
 71
     2
 72
     1
 73
     1
 90
        2
 40
-0.6
 41
30.0
 62
     5
 63
     7
 74
     0
 91
        4
 64
     7
 65
   257
 75
     1
175
     1
 42
1.0
 92
        8
 66
     7
 43
1.0
 76
     1
 77
     6
 78
     2
 67
     7
 79
     5
170
     0
171
     0
290
     0
174
     0
 93
       13
 44
0.0
173
     0
291
     1
 45
0.0
1001
ACAD
1000
AcDbSavedByObjectVersion
1070
     0
  0
VISUALSTYLE
  5
2C
102
{ACAD_REACTORS
330
2A
102
}
330
2A
100
AcDbVisualStyle
  2
FlatWithEdges
 70
     1
 71
     2
 72
     1
 73
     1
 90
        2
 40
-0.6
 41
30.0
 62
     5
 63
     7
 74
     1
 91
        4
 64
     7
 65
   257
 75
     1
175
     1
 42
1.0
 92
        0
 66
   257
 43
1.0
 76
     1
 77
     6
 78
     2
 67
     7
 79
     5
170
     0
171
     0
290
     0
174
     0
 93
       13
 44
0.0
173
     0
291
     1
 45
0.0
1001
ACAD
1000
AcDbSavedByObjectVersion
1070
     0
  0
VISUALSTYLE
  5
2D
102
{ACAD_REACTORS
330
2A
102
}
330
2A
100
AcDbVisualStyle
  2
Gouraud
 70
     2
 71
     2
 72
     2
 73
     1
 90
        2
 40
-0.6
 41
30.0
 62
     5
 63
     7
 74
     0
 91
        4
 64
     7
 65
   257
 75
     1
175
     1
 42
1.0
 92
        0
 66
     7
 43
1.0
 76
     1
 77
     6
 78
     2
 67
     7
 79
     5
170
     0
171
     0
290
     0
174
     0
 93
       13
 44
0.0
173
     0
291
     1
 45
0.0
1001
ACAD
1000
AcDbSavedByObjectVersion
1070
     0
  0
VISUALSTYLE
  5
2E
102
{ACAD_REACTORS
330
2A
102
}
330
2A
100
AcDbVisualStyle
  2
GouraudWithEdges
 70
     3
 71
     2
 72
     2
 73
     1
 90
        2
 40
-0.6
 41
30.0
 62
     5
 63
     7
 74
     1
 91
        4
 64
     7
 65
   257
 75
     1
175
     1
 42
1.0
 92
        0
 66
   257
 43
1.0
 76
     1
 77
     6
 78
     2
 67
     7
 79
     5
170
     0
171
     0
290
     0
174
     0
 93
       13
 44
0.0
173
     0
291
     1
 45
0.0
1001
ACAD
1000
AcDbSavedByObjectVersion
1070
     0
  0
VISUALSTYLE
  5
38
102
{ACAD_REACTORS
330
2A
102
}
330
2A
100
AcDbVisualStyle
  2
Linepattern
 70
    14
 71
     2
 72
     2
 73
     0
 90
        0
 40
-0.6
 41
-30.0
 62
     5
 63
     7
 74
     1
 91
        4
 64
     7
 65
   257
 75
     7
175
     7
 42
1.0
 92
        8
 66
     7
 43
1.0
 76
     1
 77
     6
 78
     2
 67
     7
 79
     5
170
     0
171
     0
290
     0
174
     0
 93
        1
 44
0.0
173
     0
291
     1
 45
0.0
1001
ACAD
1000
AcDbSavedByObjectVersion
1070
     0
  0
VISUALSTYLE
  5
33
102
{ACAD_REACTORS
330
2A
102
}
330
2A
100
AcDbVisualStyle
  2
Realistic
 70
     8
 71
     2
 72
     2
 73
     0
 90
        0
 40
-0.6
 41
-30.0
 62
     5
 63
     7
 74
     1
 91
        0
 64
     7
 65
   257
 75
     1
175
     1
 42
1.0
 92
        8
 66
     8
 43
1.0
 76
     1
 77
     6
 78
     2
 67
     7
 79
     5
170
     0
171
     0
290
     0
174
     0
 93
       13
 44
0.0
173
     0
291
     0
 45
0.0
1001
ACAD
1000
AcDbSavedByObjectVersion
1070
     0
  0
VISUALSTYLE
  5
37
102
{ACAD_REACTORS
330
2A
102
}
330
2A
100
AcDbVisualStyle
  2
Thicken
 70
    13
 71
     2
 72
     2
 73
     0
 90
        0
 40
-0.6
 41
-30.0
 62
     5
 63
     7
 74
     1
 91
        4
 64
     7
 65
   257
 75
     1
175
     1
 42
1.0
 92
       12
 66
     7
 43
1.0
 76
     1
 77
     6
 78
     2
 67
     7
 79
     5
170
     0
171
     0
290
     0
174
     0
 93
        1
 44
0.0
173
     0
291
     1
 45
0.0
1001
ACAD
1000
AcDbSavedByObjectVersion
1070
     0
  0
DICTIONARYVAR
  5
222
102
{ACAD_REACTORS
330
221
102
}
330
221
100
DictionaryVariables
280
     0
  1
1:1
  0
DICTIONARYVAR
  5
226
102
{ACAD_REACTORS
330
221
102
}
330
221
100
DictionaryVariables
280
     0
  1
80.000000
  0
DICTIONARYVAR
  5
225
102
{ACAD_REACTORS
330
221
102
}
330
221
100
DictionaryVariables
280
     0
  1
5.000000
  0
ENDSEC
  0
EOF
