  0
SECTION
  2
HEADER
  9
$ACADVER
  1
AC1015
  9
$ACADMAINTVER
 70
     6
  9
$DWGCODEPAGE
  3
ANSI_1252
  9
$INSBASE
 10
0.0
 20
0.0
 30
0.0
  9
$EXTMIN
 10
0.0
 20
0.0
 30
0.0
  9
$EXTMAX
 10
1682.0
 20
2378.0
 30
0.0
  9
$LIMMIN
 10
0.0
 20
0.0
  9
$LIMMAX
 10
1682.0
 20
2378.0
  9
$ORTHOMODE
 70
     0
  9
$REGENMODE
 70
     1
  9
$FILLMODE
 70
     1
  9
$QTEXTMODE
 70
     0
  9
$MIRRTEXT
 70
     1
  9
$LTSCALE
 40
1.0
  9
$ATTMODE
 70
     1
  9
$TEXTSIZE
 40
2.5
  9
$TRACEWID
 40
1.0
  9
$TEXTSTYLE
  7
Standard
  9
$CLAYER
  8
0
  9
$CELTYPE
  6
ByLayer
  9
$CECOLOR
 62
   256
  9
$CELTSCALE
 40
1.0
  9
$DISPSILH
 70
     0
  9
$DIMSCALE
 40
1.0
  9
$DIMASZ
 40
2.5
  9
$DIMEXO
 40
0.625
  9
$DIMDLI
 40
3.75
  9
$DIMRND
 40
0.0
  9
$DIMDLE
 40
0.0
  9
$DIMEXE
 40
1.25
  9
$DIMTP
 40
0.0
  9
$DIMTM
 40
0.0
  9
$DIMTXT
 40
2.5
  9
$DIMCEN
 40
2.5
  9
$DIMTSZ
 40
0.0
  9
$DIMTOL
 70
     0
  9
$DIMLIM
 70
     0
  9
$DIMTIH
 70
     0
  9
$DIMTOH
 70
     0
  9
$DIMSE1
 70
     0
  9
$DIMSE2
 70
     0
  9
$DIMTAD
 70
     1
  9
$DIMZIN
 70
     8
  9
$DIMBLK
  1

  9
$DIMASO
 70
     1
  9
$DIMSHO
 70
     1
  9
$DIMPOST
  1

  9
$DIMAPOST
  1

  9
$DIMALT
 70
     0
  9
$DIMALTD
 70
     3
  9
$DIMALTF
 40
0.0393700787
  9
$DIMLFAC
 40
1.0
  9
$DIMTOFL
 70
     1
  9
$DIMTVP
 40
0.0
  9
$DIMTIX
 70
     0
  9
$DIMSOXD
 70
     0
  9
$DIMSAH
 70
     0
  9
$DIMBLK1
  1

  9
$DIMBLK2
  1

  9
$DIMSTYLE
  2
ISO-25
  9
$DIMCLRD
 70
     0
  9
$DIMCLRE
 70
     0
  9
$DIMCLRT
 70
     0
  9
$DIMTFAC
 40
1.0
  9
$DIMGAP
 40
0.625
  9
$DIMJUST
 70
     0
  9
$DIMSD1
 70
     0
  9
$DIMSD2
 70
     0
  9
$DIMTOLJ
 70
     0
  9
$DIMTZIN
 70
     8
  9
$DIMALTZ
 70
     0
  9
$DIMALTTZ
 70
     0
  9
$DIMUPT
 70
     0
  9
$DIMDEC
 70
     2
  9
$DIMTDEC
 70
     2
  9
$DIMALTU
 70
     2
  9
$DIMALTTD
 70
     3
  9
$DIMTXSTY
  7
Standard
  9
$DIMAUNIT
 70
     0
  9
$DIMADEC
 70
     0
  9
$DIMALTRND
 40
0.0
  9
$DIMAZIN
 70
     0
  9
$DIMDSEP
 70
    44
  9
$DIMATFIT
 70
     3
  9
$DIMFRAC
 70
     0
  9
$DIMLDRBLK
  1

  9
$DIMLUNIT
 70
     2
  9
$DIMLWD
 70
    -2
  9
$DIMLWE
 70
    -2
  9
$DIMTMOVE
 70
     0
  9
$LUNITS
 70
     2
  9
$LUPREC
 70
     4
  9
$SKETCHINC
 40
1.0
  9
$FILLETRAD
 40
10.0
  9
$AUNITS
 70
     0
  9
$AUPREC
 70
     0
  9
$MENU
  1
.
  9
$ELEVATION
 40
0.0
  9
$PELEVATION
 40
0.0
  9
$THICKNESS
 40
0.0
  9
$LIMCHECK
 70
     0
  9
$CHAMFERA
 40
10.0
  9
$CHAMFERB
 40
10.0
  9
$CHAMFERC
 40
20.0
  9
$CHAMFERD
 40
0.0
  9
$SKPOLY
 70
     0
  9
$TDCREATE
 40
2455545.570726817
  9
$TDUCREATE
 40
2455545.52906015
  9
$TDUPDATE
 40
2455545.570726829
  9
$TDUUPDATE
 40
2455545.529060162
  9
$TDINDWG
 40
0.0000000116
  9
$TDUSRTIMER
 40
0.0000000116
  9
$USRTIMER
 70
     1
  9
$ANGBASE
 50
0.0
  9
$ANGDIR
 70
     0
  9
$PDMODE
 70
     0
  9
$PDSIZE
 40
0.0
  9
$PLINEWID
 40
0.0
  9
$SPLFRAME
 70
     0
  9
$SPLINETYPE
 70
     6
  9
$SPLINESEGS
 70
     8
  9
$HANDSEED
  5
2F3
  9
$SURFTAB1
 70
     6
  9
$SURFTAB2
 70
     6
  9
$SURFTYPE
 70
     6
  9
$SURFU
 70
     6
  9
$SURFV
 70
     6
  9
$UCSBASE
  2

  9
$UCSNAME
  2

  9
$UCSORG
 10
0.0
 20
0.0
 30
0.0
  9
$UCSXDIR
 10
1.0
 20
0.0
 30
0.0
  9
$UCSYDIR
 10
0.0
 20
1.0
 30
0.0
  9
$UCSORTHOREF
  2

  9
$UCSORTHOVIEW
 70
     0
  9
$UCSORGTOP
 10
0.0
 20
0.0
 30
0.0
  9
$UCSORGBOTTOM
 10
0.0
 20
0.0
 30
0.0
  9
$UCSORGLEFT
 10
0.0
 20
0.0
 30
0.0
  9
$UCSORGRIGHT
 10
0.0
 20
0.0
 30
0.0
  9
$UCSORGFRONT
 10
0.0
 20
0.0
 30
0.0
  9
$UCSORGBACK
 10
0.0
 20
0.0
 30
0.0
  9
$PUCSBASE
  2

  9
$PUCSNAME
  2

  9
$PUCSORG
 10
0.0
 20
0.0
 30
0.0
  9
$PUCSXDIR
 10
1.0
 20
0.0
 30
0.0
  9
$PUCSYDIR
 10
0.0
 20
1.0
 30
0.0
  9
$PUCSORTHOREF
  2

  9
$PUCSORTHOVIEW
 70
     0
  9
$PUCSORGTOP
 10
0.0
 20
0.0
 30
0.0
  9
$PUCSORGBOTTOM
 10
0.0
 20
0.0
 30
0.0
  9
$PUCSORGLEFT
 10
0.0
 20
0.0
 30
0.0
  9
$PUCSORGRIGHT
 10
0.0
 20
0.0
 30
0.0
  9
$PUCSORGFRONT
 10
0.0
 20
0.0
 30
0.0
  9
$PUCSORGBACK
 10
0.0
 20
0.0
 30
0.0
  9
$USERI1
 70
     0
  9
$USERI2
 70
     0
  9
$USERI3
 70
     0
  9
$USERI4
 70
     0
  9
$USERI5
 70
     0
  9
$USERR1
 40
0.0
  9
$USERR2
 40
0.0
  9
$USERR3
 40
0.0
  9
$USERR4
 40
0.0
  9
$USERR5
 40
0.0
  9
$WORLDVIEW
 70
     1
  9
$SHADEDGE
 70
     3
  9
$SHADEDIF
 70
    70
  9
$TILEMODE
 70
     1
  9
$MAXACTVP
 70
    64
  9
$PINSBASE
 10
0.0
 20
0.0
 30
0.0
  9
$PLIMCHECK
 70
     0
  9
$PEXTMIN
 10
0.0
 20
0.0
 30
0.0
  9
$PEXTMAX
 10
1682.0
 20
2378.0
 30
0.0
  9
$PLIMMIN
 10
0.0
 20
0.0
  9
$PLIMMAX
 10
1682.0
 20
2378.0
  9
$UNITMODE
 70
     0
  9
$VISRETAIN
 70
     1
  9
$PLINEGEN
 70
     0
  9
$PSLTSCALE
 70
     1
  9
$TREEDEPTH
 70
  3020
  9
$CMLSTYLE
  2
Standard
  9
$CMLJUST
 70
     0
  9
$CMLSCALE
 40
20.0
  9
$PROXYGRAPHICS
 70
     1
  9
$MEASUREMENT
 70
     1
  9
$CELWEIGHT
370
    -1
  9
$ENDCAPS
280
     0
  9
$JOINSTYLE
280
     0
  9
$LWDISPLAY
290
     0
  9
$INSUNITS
 70
     4
  9
$HYPERLINKBASE
  1

  9
$STYLESHEET
  1

  9
$XEDIT
290
     1
  9
$CEPSNTYPE
380
     0
  9
$PSTYLEMODE
290
     1
  9
$FINGERPRINTGUID
  2
{25EA7941-F81C-46C0-8D52-DFA1C671DFE7}
  9
$VERSIONGUID
  2
{FAEB1C32-E019-11D5-929B-00C0DF256EC4}
  9
$EXTNAMES
290
     1
  9
$PSVPSCALE
 40
0.0
  9
$OLESTARTUP
290
     0
  0
ENDSEC
  0
SECTION
  2
CLASSES
  0
CLASS
  1
ACDBDICTIONARYWDFLT
  2
AcDbDictionaryWithDefault
  3
ObjectDBX Classes
 90
        0
280
     0
281
     0
  0
CLASS
  1
VISUALSTYLE
  2
AcDbVisualStyle
  3
ObjectDBX Classes
 90
     4095
280
     0
281
     0
  0
CLASS
  1
SCALE
  2
AcDbScale
  3
ObjectDBX Classes
 90
     1153
280
     0
281
     0
  0
CLASS
  1
DICTIONARYVAR
  2
AcDbDictionaryVar
  3
ObjectDBX Classes
 90
        0
280
     0
281
     0
  0
CLASS
  1
ACDBPLACEHOLDER
  2
AcDbPlaceHolder
  3
ObjectDBX Classes
 90
        0
280
     0
281
     0
  0
CLASS
  1
LAYOUT
  2
AcDbLayout
  3
ObjectDBX Classes
 90
        0
280
     0
281
     0
  0
ENDSEC
  0
SECTION
  2
TABLES
  0
TABLE
  2
VPORT
  5
8
330
0
100
AcDbSymbolTable
 70
     1
  0
VPORT
  5
29
330
8
100
AcDbSymbolTableRecord
100
AcDbViewportTableRecord
  2
*Active
 70
     0
 10
0.0
 20
0.0
 11
1.0
 21
1.0
 12
344.1869158879
 22
148.5
 13
0.0
 23
0.0
 14
10.0
 24
10.0
 15
10.0
 25
10.0
 16
0.0
 26
0.0
 36
1.0
 17
0.0
 27
0.0
 37
0.0
 40
297.0
 41
1.9729729729
 42
50.0
 43
0.0
 44
0.0
 50
0.0
 51
0.0
 71
     0
 72
   100
 73
     1
 74
     3
 75
     0
 76
     0
 77
     0
 78
     0
281
     0
 65
     1
110
0.0
120
0.0
130
0.0
111
1.0
121
0.0
131
0.0
112
0.0
122
1.0
132
0.0
 79
     0
146
0.0
  0
ENDTAB
  0
TABLE
  2
LTYPE
  5
5
330
0
100
AcDbSymbolTable
 70
     2
  0
LTYPE
  5
14
330
5
100
AcDbSymbolTableRecord
100
AcDbLinetypeTableRecord
  2
ByBlock
 70
     0
  3

 72
    65
 73
     0
 40
0.0
  0
LTYPE
  5
15
330
5
100
AcDbSymbolTableRecord
100
AcDbLinetypeTableRecord
  2
ByLayer
 70
     0
  3

 72
    65
 73
     0
 40
0.0
  0
LTYPE
  5
16
330
5
100
AcDbSymbolTableRecord
100
AcDbLinetypeTableRecord
  2
Continuous
 70
     0
  3
Solid line
 72
    65
 73
     0
 40
0.0
  0
LTYPE
  5
60
330
5
100
AcDbSymbolTableRecord
100
AcDbLinetypeTableRecord
  2
CENTER2
 70
     0
  3
Center (.5x) ___ _ ___ _ ___ _ ___ _ ___ _ ___
 72
    65
 73
     4
 40
28.575
 49
19.05
 74
     4
 75
     0
340
0
 46
0.0
 50
0.0
 44
0.0
 45
0.0
 49
-3.175
 74
     4
 75
     0
340
0
 46
0.0
 50
0.0
 44
0.0
 45
0.0
 49
3.175
 74
     4
 75
     0
340
0
 46
0.0
 50
0.0
 44
0.0
 45
0.0
 49
-3.175
 74
     4
 75
     0
340
0
 46
0.0
 50
0.0
 44
0.0
 45
0.0
  0
ENDTAB
  0
TABLE
  2
LAYER
  5
2
330
0
100
AcDbSymbolTable
 70
    17
  0
LAYER
  5
10
330
2
100
AcDbSymbolTableRecord
100
AcDbLayerTableRecord
  2
0
 70
     0
 62
     7
  6
Continuous
370
    -3
390
F
  0
LAYER
  5
5D
330
2
100
AcDbSymbolTableRecord
100
AcDbLayerTableRecord
  2
Default
 70
     0
 62
     7
  6
Continuous
370
    -3
390
F
  0
LAYER
  5
91
330
2
100
AcDbSymbolTableRecord
100
AcDbLayerTableRecord
  2
$DDT_AUDIT_GENERATED_(91)
 70
     0
 62
     7
  6
Continuous
370
    -3
390
F
  0
LAYER
  5
A9
330
2
100
AcDbSymbolTableRecord
100
AcDbLayerTableRecord
  2
$DDT_AUDIT_GENERATED_(A9)
 70
     0
 62
     7
  6
Continuous
370
    -3
390
F
  0
LAYER
  5
CF
330
2
100
AcDbSymbolTableRecord
100
AcDbLayerTableRecord
  2
$DDT_AUDIT_GENERATED_(CF)
 70
     0
 62
     7
  6
Continuous
370
    -3
390
F
  0
LAYER
  5
D5
330
2
100
AcDbSymbolTableRecord
100
AcDbLayerTableRecord
  2
09421031_AUSL_RO
 70
     0
 62
     7
  6
Continuous
370
    -3
390
F
  0
LAYER
  5
DF
330
2
100
AcDbSymbolTableRecord
100
AcDbLayerTableRecord
  2
$DDT_AUDIT_GENERATED_(DF)
 70
     0
 62
     7
  6
Continuous
370
    -3
390
F
  0
LAYER
  5
EA
330
2
100
AcDbSymbolTableRecord
100
AcDbLayerTableRecord
  2
$DDT_AUDIT_GENERATED_(EA)
 70
     0
 62
     7
  6
Continuous
370
    -3
390
F
  0
LAYER
  5
1BD
330
2
100
AcDbSymbolTableRecord
100
AcDbLayerTableRecord
  2
$DDT_AUDIT_GENERATED_(1BD)
 70
     0
 62
     7
  6
Continuous
370
    -3
390
F
  0
LAYER
  5
1BF
330
2
100
AcDbSymbolTableRecord
100
AcDbLayerTableRecord
  2
$DDT_AUDIT_GENERATED_(1BF)
 70
     0
 62
     7
  6
Continuous
370
    -3
390
F
  0
LAYER
  5
1E1
330
2
100
AcDbSymbolTableRecord
100
AcDbLayerTableRecord
  2
$DDT_AUDIT_GENERATED_(1E1)
 70
     0
 62
     7
  6
Continuous
370
    -3
390
F
  0
LAYER
  5
1F2
330
2
100
AcDbSymbolTableRecord
100
AcDbLayerTableRecord
  2
$DDT_AUDIT_GENERATED_(1F2)
 70
     0
 62
     7
  6
Continuous
370
    -3
390
F
  0
LAYER
  5
20F
330
2
100
AcDbSymbolTableRecord
100
AcDbLayerTableRecord
  2
$DDT_AUDIT_GENERATED_(20F)
 70
     0
 62
     7
  6
Continuous
370
    -3
390
F
  0
LAYER
  5
213
330
2
100
AcDbSymbolTableRecord
100
AcDbLayerTableRecord
  2
$DDT_AUDIT_GENERATED_(213)
 70
     0
 62
     7
  6
Continuous
370
    -3
390
F
  0
LAYER
  5
217
330
2
100
AcDbSymbolTableRecord
100
AcDbLayerTableRecord
  2
$DDT_AUDIT_GENERATED_(217)
 70
     0
 62
     7
  6
Continuous
370
    -3
390
F
  0
LAYER
  5
21F
330
2
100
AcDbSymbolTableRecord
100
AcDbLayerTableRecord
  2
$DDT_AUDIT_GENERATED_(21F)
 70
     0
 62
     7
  6
Continuous
370
    -3
390
F
  0
LAYER
  5
226
330
2
100
AcDbSymbolTableRecord
100
AcDbLayerTableRecord
  2
09422131_NIPPEL_
 70
     0
 62
     7
  6
Continuous
370
    -3
390
F
  0
ENDTAB
  0
TABLE
  2
STYLE
  5
3
330
0
100
AcDbSymbolTable
 70
     2
  0
STYLE
  5
11
330
3
100
AcDbSymbolTableRecord
100
AcDbTextStyleTableRecord
  2
Standard
 70
     0
 40
0.0
 41
1.0
 50
0.0
 71
     0
 42
2.5
  3
txt
  4

  0
STYLE
  5
2E2
330
3
100
AcDbSymbolTableRecord
100
AcDbTextStyleTableRecord
  2
SEACAD_seiso_ttf
 70
     0
 40
0.0
 41
1.0
 50
0.0
 71
     0
 42
0.2
  3
seiso.ttf
  4

  0
ENDTAB
  0
TABLE
  2
VIEW
  5
6
330
0
100
AcDbSymbolTable
 70
     0
  0
ENDTAB
  0
TABLE
  2
UCS
  5
7
330
0
100
AcDbSymbolTable
 70
     0
  0
ENDTAB
  0
TABLE
  2
APPID
  5
9
330
0
100
AcDbSymbolTable
 70
     1
  0
APPID
  5
12
330
9
100
AcDbSymbolTableRecord
100
AcDbRegAppTableRecord
  2
ACAD
 70
     0
  0
ENDTAB
  0
TABLE
  2
DIMSTYLE
  5
A
330
0
100
AcDbSymbolTable
 70
     1
100
AcDbDimStyleTable
  0
DIMSTYLE
105
27
330
A
100
AcDbSymbolTableRecord
100
AcDbDimStyleTableRecord
  2
ISO-25
 70
     0
 41
2.5
 42
0.625
 43
3.75
 44
1.25
 73
     0
 74
     0
 77
     1
 78
     8
140
2.5
141
2.5
143
0.0393700787
147
0.625
171
     3
172
     1
271
     2
272
     2
274
     3
278
    44
283
     0
284
     8
340
11
  0
ENDTAB
  0
TABLE
  2
BLOCK_RECORD
  5
1
330
0
100
AcDbSymbolTable
 70
    10
  0
BLOCK_RECORD
  5
1F
330
1
100
AcDbSymbolTableRecord
100
AcDbBlockTableRecord
  2
*Model_Space
340
22
  0
BLOCK_RECORD
  5
1B
330
1
100
AcDbSymbolTableRecord
100
AcDbBlockTableRecord
  2
*Paper_Space
340
1E
  0
BLOCK_RECORD
  5
5E
330
1
100
AcDbSymbolTableRecord
100
AcDbBlockTableRecord
  2
SEANNOT_GROUP
340
0
102
{BLKREFS
331
5F
102
}
  0
BLOCK_RECORD
  5
69
330
1
100
AcDbSymbolTableRecord
100
AcDbBlockTableRecord
  2
SEANNOT_GROUP1
340
0
102
{BLKREFS
331
6A
102
}
  0
BLOCK_RECORD
  5
73
330
1
100
AcDbSymbolTableRecord
100
AcDbBlockTableRecord
  2
SEANNOT_GROUP2
340
0
102
{BLKREFS
331
74
102
}
  0
BLOCK_RECORD
  5
7D
330
1
100
AcDbSymbolTableRecord
100
AcDbBlockTableRecord
  2
SEANNOT_GROUP3
340
0
102
{BLKREFS
331
7E
102
}
  0
BLOCK_RECORD
  5
83
330
1
100
AcDbSymbolTableRecord
100
AcDbBlockTableRecord
  2
SEANNOT_GROUP4
340
0
102
{BLKREFS
331
84
102
}
  0
BLOCK_RECORD
  5
89
330
1
100
AcDbSymbolTableRecord
100
AcDbBlockTableRecord
  2
SEANNOT_GROUP5
340
0
102
{BLKREFS
331
8A
102
}
  0
BLOCK_RECORD
  5
8F
330
1
100
AcDbSymbolTableRecord
100
AcDbBlockTableRecord
  2
SE
340
0
102
{BLKREFS
331
90
102
}
  0
BLOCK_RECORD
  5
19C
330
1
100
AcDbSymbolTableRecord
100
AcDbBlockTableRecord
  2
SE1
340
0
102
{BLKREFS
331
19D
102
}
  0
BLOCK_RECORD
  5
246
330
1
100
AcDbSymbolTableRecord
100
AcDbBlockTableRecord
  2
SE2
340
0
102
{BLKREFS
331
247
102
}
  0
ENDTAB
  0
ENDSEC
  0
SECTION
  2
BLOCKS
  0
BLOCK
  5
20
330
1F
100
AcDbEntity
  8
0
100
AcDbBlockBegin
  2
*Model_Space
 70
     0
 10
0.0
 20
0.0
 30
0.0
  3
*Model_Space
  1

  0
ENDBLK
  5
21
330
1F
100
AcDbEntity
  8
0
100
AcDbBlockEnd
  0
BLOCK
  5
1C
330
1B
100
AcDbEntity
 67
     1
  8
0
100
AcDbBlockBegin
  2
*Paper_Space
 70
     0
 10
0.0
 20
0.0
 30
0.0
  3
*Paper_Space
  1

  0
ENDBLK
  5
1D
330
1B
100
AcDbEntity
 67
     1
  8
0
100
AcDbBlockEnd
  0
BLOCK
  5
67
330
5E
100
AcDbEntity
  8
0
100
AcDbBlockBegin
  2
SEANNOT_GROUP
 70
     0
 10
0.0
 20
0.0
 30
0.0
  3
SEANNOT_GROUP
  1

  0
LINE
  5
61
330
5E
100
AcDbEntity
  8
Default
  6
CENTER2
 62
     7
100
AcDbLine
 10
212.0818340232
 20
663.9592281377
 30
0.0
 11
172.0818349172
 21
663.9592281377
 31
0.0
  0
LINE
  5
62
330
5E
100
AcDbEntity
  8
Default
  6
CENTER2
 62
     7
100
AcDbLine
 10
192.0818344702
 20
683.9592276907
 30
0.0
 11
192.0818344702
 21
643.9592285847
 31
0.0
  0
LINE
  5
63
330
5E
100
AcDbEntity
  8
Default
  6
CENTER2
 62
     7
100
AcDbLine
 10
217.0818339114
 20
663.9592281377
 30
0.0
 11
230.5818344702
 21
663.9592281377
 31
0.0
  0
LINE
  5
64
330
5E
100
AcDbEntity
  8
Default
  6
CENTER2
 62
     7
100
AcDbLine
 10
192.0818344702
 20
688.9592275789
 30
0.0
 11
192.0818344702
 21
702.4592281377
 31
0.0
  0
LINE
  5
65
330
5E
100
AcDbEntity
  8
Default
  6
CENTER2
 62
     7
100
AcDbLine
 10
167.081835029
 20
663.9592281377
 30
0.0
 11
153.5818344702
 21
663.9592281377
 31
0.0
  0
LINE
  5
66
330
5E
100
AcDbEntity
  8
Default
  6
CENTER2
 62
     7
100
AcDbLine
 10
192.0818344702
 20
638.9592286965
 30
0.0
 11
192.0818344702
 21
625.4592281377
 31
0.0
  0
ENDBLK
  5
68
330
5E
100
AcDbEntity
  8
0
100
AcDbBlockEnd
  0
BLOCK
  5
71
330
69
100
AcDbEntity
  8
0
100
AcDbBlockBegin
  2
SEANNOT_GROUP1
 70
     0
 10
0.0
 20
0.0
 30
0.0
  3
SEANNOT_GROUP1
  1

  0
LINE
  5
6B
330
69
100
AcDbEntity
  8
Default
  6
CENTER2
 62
     7
100
AcDbLine
 10
62.0818340232
 20
663.9592281377
 30
0.0
 11
22.0818349172
 21
663.9592281377
 31
0.0
  0
LINE
  5
6C
330
69
100
AcDbEntity
  8
Default
  6
CENTER2
 62
     7
100
AcDbLine
 10
42.0818344702
 20
683.9592276907
 30
0.0
 11
42.0818344702
 21
643.9592285847
 31
0.0
  0
LINE
  5
6D
330
69
100
AcDbEntity
  8
Default
  6
CENTER2
 62
     7
100
AcDbLine
 10
67.0818339114
 20
663.9592281377
 30
0.0
 11
80.5818344702
 21
663.9592281377
 31
0.0
  0
LINE
  5
6E
330
69
100
AcDbEntity
  8
Default
  6
CENTER2
 62
     7
100
AcDbLine
 10
42.0818344702
 20
688.9592275789
 30
0.0
 11
42.0818344702
 21
702.4592281377
 31
0.0
  0
LINE
  5
6F
330
69
100
AcDbEntity
  8
Default
  6
CENTER2
 62
     7
100
AcDbLine
 10
17.081835029
 20
663.9592281377
 30
0.0
 11
3.5818344702
 21
663.9592281377
 31
0.0
  0
LINE
  5
70
330
69
100
AcDbEntity
  8
Default
  6
CENTER2
 62
     7
100
AcDbLine
 10
42.0818344702
 20
638.9592286965
 30
0.0
 11
42.0818344702
 21
625.4592281377
 31
0.0
  0
ENDBLK
  5
72
330
69
100
AcDbEntity
  8
0
100
AcDbBlockEnd
  0
BLOCK
  5
7B
330
73
100
AcDbEntity
  8
0
100
AcDbBlockBegin
  2
SEANNOT_GROUP2
 70
     0
 10
0.0
 20
0.0
 30
0.0
  3
SEANNOT_GROUP2
  1

  0
LINE
  5
75
330
73
100
AcDbEntity
  8
Default
  6
CENTER2
 62
     7
100
AcDbLine
 10
137.082006708
 20
656.1376592942
 30
0.0
 11
97.082007602
 21
656.1376592942
 31
0.0
  0
LINE
  5
76
330
73
100
AcDbEntity
  8
Default
  6
CENTER2
 62
     7
100
AcDbLine
 10
117.082007155
 20
676.1376588472
 30
0.0
 11
117.082007155
 21
636.1376597412
 31
0.0
  0
LINE
  5
77
330
73
100
AcDbEntity
  8
Default
  6
CENTER2
 62
     7
100
AcDbLine
 10
142.0820065962
 20
656.1376592942
 30
0.0
 11
147.2811531701
 21
656.1376592942
 31
0.0
  0
LINE
  5
78
330
73
100
AcDbEntity
  8
Default
  6
CENTER2
 62
     7
100
AcDbLine
 10
117.082007155
 20
681.1376587354
 30
0.0
 11
117.082007155
 21
686.3368053093
 31
0.0
  0
LINE
  5
79
330
73
100
AcDbEntity
  8
Default
  6
CENTER2
 62
     7
100
AcDbLine
 10
92.0820077138
 20
656.1376592942
 30
0.0
 11
86.8828611399
 21
656.1376592942
 31
0.0
  0
LINE
  5
7A
330
73
100
AcDbEntity
  8
Default
  6
CENTER2
 62
     7
100
AcDbLine
 10
117.082007155
 20
631.137659853
 30
0.0
 11
117.082007155
 21
625.9385132791
 31
0.0
  0
ENDBLK
  5
7C
330
73
100
AcDbEntity
  8
0
100
AcDbBlockEnd
  0
BLOCK
  5
81
330
7D
100
AcDbEntity
  8
0
100
AcDbBlockBegin
  2
SEANNOT_GROUP3
 70
     0
 10
0.0
 20
0.0
 30
0.0
  3
SEANNOT_GROUP3
  1

  0
LINE
  5
7F
330
7D
100
AcDbEntity
  8
Default
  6
CENTER2
 62
     7
100
AcDbLine
 10
330.5283331059
 20
663.9592281377
 30
0.0
 11
290.5283339999
 21
663.9592281377
 31
0.0
  0
LINE
  5
80
330
7D
100
AcDbEntity
  8
Default
  6
CENTER2
 62
     7
100
AcDbLine
 10
310.5283335529
 20
683.9592276907
 30
0.0
 11
310.5283335529
 21
643.9592285847
 31
0.0
  0
ENDBLK
  5
82
330
7D
100
AcDbEntity
  8
0
100
AcDbBlockEnd
  0
BLOCK
  5
87
330
83
100
AcDbEntity
  8
0
100
AcDbBlockBegin
  2
SEANNOT_GROUP4
 70
     0
 10
0.0
 20
0.0
 30
0.0
  3
SEANNOT_GROUP4
  1

  0
LINE
  5
85
330
83
100
AcDbEntity
  8
Default
  6
CENTER2
 62
     7
100
AcDbLine
 10
212.0818340232
 20
387.893255115
 30
0.0
 11
172.0818349172
 21
387.893255115
 31
0.0
  0
LINE
  5
86
330
83
100
AcDbEntity
  8
Default
  6
CENTER2
 62
     7
100
AcDbLine
 10
192.0818344702
 20
407.893254668
 30
0.0
 11
192.0818344702
 21
367.893255562
 31
0.0
  0
ENDBLK
  5
88
330
83
100
AcDbEntity
  8
0
100
AcDbBlockEnd
  0
BLOCK
  5
8D
330
89
100
AcDbEntity
  8
0
100
AcDbBlockBegin
  2
SEANNOT_GROUP5
 70
     0
 10
0.0
 20
0.0
 30
0.0
  3
SEANNOT_GROUP5
  1

  0
LINE
  5
8B
330
89
100
AcDbEntity
  8
Default
  6
CENTER2
 62
     7
100
AcDbLine
 10
62.0818340232
 20
387.6932516588
 30
0.0
 11
22.0818349172
 21
387.6932516588
 31
0.0
  0
LINE
  5
8C
330
89
100
AcDbEntity
  8
Default
  6
CENTER2
 62
     7
100
AcDbLine
 10
42.0818344702
 20
407.6932512117
 30
0.0
 11
42.0818344702
 21
367.6932521058
 31
0.0
  0
ENDBLK
  5
8E
330
89
100
AcDbEntity
  8
0
100
AcDbBlockEnd
  0
BLOCK
  5
19A
330
8F
100
AcDbEntity
  8
0
100
AcDbBlockBegin
  2
SE
 70
     0
 10
0.0
 20
0.0
 30
0.0
  3
SE
  1

  0
LINE
  5
92
330
8F
100
AcDbEntity
  8
$DDT_AUDIT_GENERATED_(91)
  6
Continuous
 62
     7
100
AcDbLine
 10
86.5334220445
 20
673.9441347202
 30
0.0
 11
97.2426147594
 21
673.944134383
 31
0.0
  0
LINE
  5
93
330
8F
100
AcDbEntity
  8
$DDT_AUDIT_GENERATED_(91)
  6
Continuous
 62
     7
100
AcDbLine
 10
206.0319745346
 20
673.9441308959
 30
0.0
 11
147.6302468968
 21
673.944134535
 31
0.0
  0
SPLINE
  5
94
330
8F
100
AcDbEntity
  8
$DDT_AUDIT_GENERATED_(91)
  6
Continuous
 62
     7
100
AcDbSpline
210
0.0
220
0.0
230
1.0
 70
     8
 71
     3
 72
    17
 73
    13
 74
     0
 42
0.000000001126105
 43
0.0000000001
 40
0.0
 40
0.0
 40
0.0
 40
0.0
 40
0.25
 40
0.25
 40
0.25
 40
0.5
 40
0.5
 40
0.5
 40
0.75
 40
0.75
 40
0.75
 40
1.0
 40
1.0
 40
1.0
 40
1.0
 10
214.9121408766896
 20
673.9440354092278
 30
0.0
 10
214.1991391368547
 20
673.9441343460902
 30
0.0
 10
213.468320153357
 20
673.9441343466339
 30
0.0
 10
212.7306305329732
 20
673.9441343471424
 30
0.0
 10
211.9929409125893
 20
673.944134347651
 30
0.0
 10
211.2497178549673
 20
673.9441343481234
 30
0.0
 10
210.5054429385375
 20
673.9441343485269
 30
0.0
 10
209.7611680221076
 20
673.9441343489302
 30
0.0
 10
209.0153071916007
 20
673.9441343492657
 30
0.0
 10
208.269531020122
 20
673.9441343495014
 30
0.0
 10
207.5237548486432
 20
673.944134349737
 30
0.0
 10
206.7777942470834
 20
673.9441343498725
 30
0.0
 10
206.0319745346468
 20
673.9441308959109
 30
0.0
  0
SPLINE
  5
95
330
8F
100
AcDbEntity
  8
$DDT_AUDIT_GENERATED_(91)
  6
Continuous
 62
     7
100
AcDbSpline
210
0.0
220
0.0
230
1.0
 70
     8
 71
     3
 72
    53
 73
    49
 74
     0
 42
0.0000000003873144
 43
0.0000000001
 40
0.5006852488705424
 40
0.5006852488705424
 40
0.5006852488705424
 40
0.5006852488705424
 40
0.5316770928966683
 40
0.5316770928966683
 40
0.5316770928966683
 40
0.5633574722789788
 40
0.5633574722789788
 40
0.5633574722789788
 40
0.5950378516612892
 40
0.5950378516612892
 40
0.5950378516612892
 40
0.6267182310435996
 40
0.6267182310435996
 40
0.6267182310435996
 40
0.6583986104259101
 40
0.6583986104259101
 40
0.6583986104259101
 40
0.6900789898082205
 40
0.6900789898082205
 40
0.6900789898082205
 40
0.7534397485728414
 40
0.7534397485728414
 40
0.7534397485728414
 40
0.7851201279551517
 40
0.7851201279551517
 40
0.7851201279551517
 40
0.8168005073374622
 40
0.8168005073374622
 40
0.8168005073374622
 40
0.8484808867197726
 40
0.8484808867197726
 40
0.8484808867197726
 40
0.8801612661020831
 40
0.8801612661020831
 40
0.8801612661020831
 40
0.9118416454843935
 40
0.9118416454843935
 40
0.9118416454843935
 40
0.9435220248667039
 40
0.9435220248667039
 40
0.9435220248667039
 40
0.9593622145578592
 40
0.9593622145578592
 40
0.9593622145578592
 40
0.9752024042490144
 40
0.9752024042490144
 40
0.9752024042490144
 40
1.0
 40
1.0
 40
1.0
 40
1.0
 10
227.8038574457821
 20
673.9441324376274
 30
0.0
 10
227.8030096161947
 20
673.9441324377242
 30
0.0
 10
227.7833007313022
 20
673.9441324399558
 30
0.0
 10
227.7445303360854
 20
673.9441324442938
 30
0.0
 10
227.7048985920621
 20
673.9441324487283
 30
0.0
 10
227.645575931832
 20
673.9441324553596
 30
0.0
 10
227.5668239133884
 20
673.9441324641951
 30
0.0
 10
227.488071894945
 20
673.9441324730305
 30
0.0
 10
227.38942824979
 20
673.9441324841122
 30
0.0
 10
227.2716070744308
 20
673.9441324973529
 30
0.0
 10
227.1537858990714
 20
673.9441325105937
 30
0.0
 10
227.0173583914449
 20
673.9441325259404
 30
0.0
 10
226.8616310649657
 20
673.9441325433944
 30
0.0
 10
226.7059037384868
 20
673.9441325608482
 30
0.0
 10
226.5306589638446
 20
673.944132580423
 30
0.0
 10
226.3378506681281
 20
673.9441326020284
 30
0.0
 10
226.1450423724115
 20
673.9441326236338
 30
0.0
 10
225.9346947701366
 20
673.9441326472668
 30
0.0
 10
225.7070312296358
 20
673.9441326728572
 30
0.0
 10
225.251704148634
 20
673.944132724038
 30
0.0
 10
224.7215549832127
 20
673.9441327832214
 30
0.0
 10
224.1318830812388
 20
673.9441328490208
 30
0.0
 10
223.8370471302517
 20
673.9441328819204
 30
0.0
 10
223.5282625285254
 20
673.9441329164913
 30
0.0
 10
223.2023940363241
 20
673.9441329525815
 30
0.0
 10
222.8765255441226
 20
673.9441329886718
 30
0.0
 10
222.5348694282089
 20
673.9441330263014
 30
0.0
 10
222.1814288468742
 20
673.9441330652783
 30
0.0
 10
221.8279882655398
 20
673.944133104255
 30
0.0
 10
221.4600485570221
 20
673.9441331444693
 30
0.0
 10
221.0785660033624
 20
673.9441331857347
 30
0.0
 10
220.6970834497027
 20
673.9441332270001
 30
0.0
 10
220.304703393533
 20
673.944133269494
 30
0.0
 10
219.9015853347007
 20
673.9441333127818
 30
0.0
 10
219.4984672758682
 20
673.9441333560695
 30
0.0
 10
219.0835876958193
 20
673.9441334000373
 30
0.0
 10
218.6584812974342
 20
673.9441334446226
 30
0.0
 10
218.233374899049
 20
673.9441334892078
 30
0.0
 10
217.798237701784
 20
673.9441335343928
 30
0.0
 10
217.3550976012126
 20
673.9441335798526
 30
0.0
 10
217.1335275509269
 20
673.9441336025825
 30
0.0
 10
216.9098754606946
 20
673.9441336253913
 30
0.0
 10
216.6841446888904
 20
673.944133648269
 30
0.0
 10
216.4584139170862
 20
673.9441336711467
 30
0.0
 10
216.2305592787039
 20
673.9441336940888
 30
0.0
 10
216.0010039234656
 20
673.9441337171289
 30
0.0
 10
215.6416382206135
 20
673.9441337531979
 30
0.0
 10
215.2785096237512
 20
673.9441337895737
 30
0.0
 10
214.9121408766896
 20
673.9440354092278
 30
0.0
  0
LINE
  5
96
330
8F
100
AcDbEntity
  8
$DDT_AUDIT_GENERATED_(91)
  6
Continuous
 62
     7
100
AcDbLine
 10
28.1316944057
 20
673.9441308959
 30
0.0
 11
86.5334220436
 21
673.944134535
 31
0.0
  0
SPLINE
  5
97
330
8F
100
AcDbEntity
  8
$DDT_AUDIT_GENERATED_(91)
  6
Continuous
 62
     7
100
AcDbSpline
210
0.0
220
0.0
230
1.0
 70
     8
 71
     3
 72
    15
 73
    11
 74
     0
 42
0.000000001126105
 43
0.0000000001
 40
0.0
 40
0.0
 40
0.0
 40
0.0
 40
0.0519127174970746
 40
0.157616747832526
 40
0.3690248085034288
 40
0.5804328691743316
 40
0.686136899509783
 40
0.7918409298452345
 40
0.8446929450129601
 40
1.0
 40
1.0
 40
1.0
 40
1.0
 10
19.25152806369282
 20
673.9440354092278
 30
0.0
 10
19.39975622121926
 20
673.9439376471219
 30
0.0
 10
19.85244189518809
 20
673.9439415992088
 30
0.0
 10
20.9248097495914
 20
673.9439555077057
 30
0.0
 10
22.48807679567841
 20
673.9439908690943
 30
0.0
 10
24.06173118428592
 20
673.9440420555309
 30
0.0
 10
25.32262771418342
 20
673.9440803664338
 30
0.0
 10
26.1110645746708
 20
673.9441002280627
 30
0.0
 10
27.04743374313639
 20
673.9441175234898
 30
0.0
 10
27.66840308299742
 20
673.9441241508878
 30
0.0
 10
28.13169440573563
 20
673.9441308959109
 30
0.0
  0
SPLINE
  5
98
330
8F
100
AcDbEntity
  8
$DDT_AUDIT_GENERATED_(91)
  6
Continuous
 62
     7
100
AcDbSpline
210
0.0
220
0.0
230
1.0
 70
     8
 71
     3
 72
    26
 73
    22
 74
     0
 42
0.0000000003870533
 43
0.0000000001
 40
0.5007331344337298
 40
0.5007331344337298
 40
0.5007331344337298
 40
0.5007331344337298
 40
0.5101940965353785
 40
0.5203946094041302
 40
0.5407956351416336
 40
0.5611966608791372
 40
0.5815976866166407
 40
0.6223997380916476
 40
0.6632017895666547
 40
0.7040038410416616
 40
0.7448058925166685
 40
0.765206918254172
 40
0.7856079439916756
 40
0.806008969729179
 40
0.8264099954666825
 40
0.8672120469416894
 40
0.9080140984166964
 40
0.9488161498917034
 40
0.9692171756292068
 40
0.9896182013667103
 40
1.0
 40
1.0
 40
1.0
 40
1.0
 10
6.352353641042752
 20
673.9440246495008
 30
0.0
 10
6.352395022789961
 20
673.9440240508115
 30
0.0
 10
6.356727882916815
 20
673.9440228006591
 30
0.0
 10
6.382968845211612
 20
673.94402022261
 30
0.0
 10
6.449656879502608
 20
673.9440168681132
 30
0.0
 10
6.578572004003219
 20
673.9440126997928
 30
0.0
 10
6.811771134201811
 20
673.9440070475856
 30
0.0
 10
7.210967454311823
 20
673.9439999854642
 30
0.0
 10
7.870717757293005
 20
673.9439917361804
 30
0.0
 10
8.735955826751795
 20
673.9439841106275
 30
0.0
 10
9.602421407448213
 20
673.9439779615675
 30
0.0
 10
10.3673706161434
 20
673.943972977135
 30
0.0
 10
10.97614651375381
 20
673.9439691253291
 30
0.0
 10
11.61916202147301
 20
673.9439650791523
 30
0.0
 10
12.52373174313282
 20
673.9439592954311
 30
0.0
 10
13.74590378756402
 20
673.9439510936365
 30
0.0
 10
15.34174613986419
 20
673.9439407972324
 30
0.0
 10
16.73985469890321
 20
673.9439328014569
 30
0.0
 10
17.8997870338922
 20
673.9439309552582
 30
0.0
 10
18.64345458202304
 20
673.9439326534555
 30
0.0
 10
19.09748554075655
 20
673.9439354033261
 30
0.0
 10
19.25152806369282
 20
673.9440354092278
 30
0.0
  0
ARC
  5
99
330
8F
100
AcDbEntity
  8
$DDT_AUDIT_GENERATED_(91)
  6
Continuous
 62
     7
100
AcDbCircle
 10
66.5308195974
 20
4462.5224733295
 30
0.0
 40
3777.477845990883
100
AcDbArc
 50
269.1592152019
 51
269.1592177525
  0
LINE
  5
9A
330
8F
100
AcDbEntity
  8
$DDT_AUDIT_GENERATED_(91)
  6
Continuous
 62
     7
100
AcDbLine
 10
117.081834445
 20
685.7610705148
 30
0.0
 11
222.601545077
 21
685.7610697143
 31
0.0
  0
LINE
  5
9B
330
8F
100
AcDbEntity
  8
$DDT_AUDIT_GENERATED_(91)
  6
Continuous
 62
     7
100
AcDbLine
 10
117.081834532
 20
685.7610689023
 30
0.0
 11
11.5618531057
 21
685.7610697141
 31
0.0
  0
LINE
  5
9C
330
8F
100
AcDbEntity
  8
$DDT_AUDIT_GENERATED_(91)
  6
Continuous
 62
     7
100
AcDbLine
 10
136.9253131013
 20
673.9441343832
 30
0.0
 11
147.6302468959
 21
673.9441347202
 31
0.0
  0
ARC
  5
9D
330
8F
100
AcDbEntity
  8
$DDT_AUDIT_GENERATED_(91)
  6
Continuous
 62
     7
100
AcDbCircle
 10
197.2301006376
 20
673.3594141971
 30
0.0
 40
30.57937623506242
100
AcDbArc
 50
305.3110726852
 51
1.0956416456
  0
ARC
  5
9E
330
8F
100
AcDbEntity
  8
$DDT_AUDIT_GENERATED_(91)
  6
Continuous
 62
     7
100
AcDbCircle
 10
36.9335683028
 20
673.3594141971
 30
0.0
 40
30.57937623506246
100
AcDbArc
 50
178.9043583544
 51
234.6889273148
  0
ELLIPSE
  5
9F
330
8F
100
AcDbEntity
  8
$DDT_AUDIT_GENERATED_(91)
  6
Continuous
 62
     7
100
AcDbEllipse
 10
222.601339713
 20
685.2610697067
 30
0.0
 11
0.0
 21
0.4999373068537461
 31
0.0
210
0.0
220
0.0
230
1.0
 40
1.0
 41
-1.056651071279225
 42
-0.0140256923069721
  0
ELLIPSE
  5
A0
330
8F
100
AcDbEntity
  8
$DDT_AUDIT_GENERATED_(91)
  6
Continuous
 62
     7
100
AcDbEllipse
 10
11.5623292274
 20
685.2610697067
 30
0.0
 11
0.0
 21
0.499999983724436
 31
0.0
210
0.0
220
0.0
230
1.0
 40
1.0
 41
0.0140256923260884
 42
1.150072552623377
  0
ARC
  5
A1
330
8F
100
AcDbEntity
  8
$DDT_AUDIT_GENERATED_(91)
  6
Continuous
 62
     7
100
AcDbCircle
 10
197.4236371009
 20
672.8103544218
 30
0.0
 40
30.03015622033394
100
AcDbArc
 50
286.6578865753
 51
305.6165188932
  0
SPLINE
  5
A2
330
8F
100
AcDbEntity
  8
$DDT_AUDIT_GENERATED_(91)
  6
Continuous
 62
     7
100
AcDbSpline
210
0.0
220
0.0
230
1.0
 70
     8
 71
     3
 72
     8
 73
     4
 74
     0
 42
0.0000000007978826
 43
0.0000000001
 40
0.0
 40
0.0
 40
0.0
 40
0.0
 40
1.0
 40
1.0
 40
1.0
 40
1.0
 10
227.811315206988
 20
673.9440246482104
 30
0.0
 10
226.2181115802037
 20
677.806369182182
 30
0.0
 10
224.6255698804684
 20
681.6686468756593
 30
0.0
 10
223.033690107782
 20
685.5308577286423
 30
0.0
  0
SPLINE
  5
A3
330
8F
100
AcDbEntity
  8
$DDT_AUDIT_GENERATED_(91)
  6
Continuous
 62
     7
100
AcDbSpline
210
0.0
220
0.0
230
1.0
 70
     8
 71
     3
 72
    13
 73
     9
 74
     0
 42
0.0000000002095715
 43
0.0000000001
 40
0.0
 40
0.0
 40
0.0
 40
0.0
 40
0.5054547916827961
 40
0.6078347333341132
 40
0.7105637382183737
 40
0.8136063812879843
 40
0.9162250326207262
 40
1.0
 40
1.0
 40
1.0
 40
1.0
 10
158.8196664356281
 20
637.4259939177543
 30
0.0
 10
167.5943851314393
 20
638.5111049837287
 30
0.0
 10
176.321316199355
 20
639.5899286993628
 30
0.0
 10
187.6110432414159
 20
640.9697458152914
 30
0.0
 10
192.47399021028
 20
641.5625797362062
 30
0.0
 10
197.3131397704424
 20
642.1684580878447
 30
0.0
 10
201.9615513864311
 20
642.9136855209525
 30
0.0
 10
204.6135972209886
 20
643.6733434271946
 30
0.0
 10
206.0214897035309
 20
644.0798913481066
 30
0.0
  0
ARC
  5
A4
330
8F
100
AcDbEntity
  8
$DDT_AUDIT_GENERATED_(91)
  6
Continuous
 62
     7
100
AcDbCircle
 10
36.7382876066
 20
672.8067998434
 30
0.0
 40
30.02625082680871
100
AcDbArc
 50
234.3822367941
 51
253.3433577374
  0
SPLINE
  5
A5
330
8F
100
AcDbEntity
  8
$DDT_AUDIT_GENERATED_(91)
  6
Continuous
 62
     7
100
AcDbSpline
210
0.0
220
0.0
230
1.0
 70
     8
 71
     3
 72
     8
 73
     4
 74
     0
 42
0.0000000007978826
 43
0.0000000001
 40
0.0
 40
0.0
 40
0.0
 40
0.0
 40
1.0
 40
1.0
 40
1.0
 40
1.0
 10
11.12997883260067
 20
685.530857728643
 30
0.0
 10
9.53809905991415
 20
681.6686468756596
 30
0.0
 10
7.945557360178768
 20
677.8063691821822
 30
0.0
 10
6.352353733394489
 20
673.9440246482104
 30
0.0
  0
SPLINE
  5
A6
330
8F
100
AcDbEntity
  8
$DDT_AUDIT_GENERATED_(91)
  6
Continuous
 62
     7
100
AcDbSpline
210
0.0
220
0.0
230
1.0
 70
     8
 71
     3
 72
    13
 73
     9
 74
     0
 42
0.0000000002095715
 43
0.0000000001
 40
0.0
 40
0.0
 40
0.0
 40
0.0
 40
0.083774966409425
 40
0.1863936165541679
 40
0.2894362584308713
 40
0.3921652621258553
 40
0.4945452025919371
 40
1.0
 40
1.0
 40
1.0
 40
1.0
 10
28.14217923685155
 20
644.0798913481066
 30
0.0
 10
29.55007171939381
 20
643.6733434271946
 30
0.0
 10
32.20211755394906
 20
642.9136855209528
 30
0.0
 10
36.85052916994963
 20
642.1684580878435
 30
0.0
 10
41.68967873006682
 20
641.5625797362101
 30
0.0
 10
46.55262569909829
 20
640.9697458152772
 30
0.0
 10
57.84235292365949
 20
639.5899286770235
 30
0.0
 10
66.56928415610994
 20
638.5111049410382
 30
0.0
 10
75.34400305289404
 20
637.4259938501989
 30
0.0
  0
SPLINE
  5
A7
330
8F
100
AcDbEntity
  8
$DDT_AUDIT_GENERATED_(91)
  6
Continuous
 62
     7
100
AcDbSpline
210
0.0
220
0.0
230
1.0
 70
     8
 71
     3
 72
    19
 73
    15
 74
     0
 42
0.0000000002962667
 43
0.0000000001
 40
0.2747249336494397
 40
0.2747249336494397
 40
0.2747249336494397
 40
0.2747249336494397
 40
0.3473729907128724
 40
0.4311343519090612
 40
0.5075909915376018
 40
0.5419382782050388
 40
0.573737294113644
 40
0.6118270051289926
 40
0.6630915891821613
 40
0.7275403393434052
 40
0.8051675354358108
 40
0.8642641803669276
 40
0.929211351045291
 40
1.0
 40
1.0
 40
1.0
 40
1.0
 10
139.187705198854
 20
623.740050734029
 30
0.0
 10
139.8218757658472
 20
624.2533438488223
 30
0.0
 10
141.1454750199093
 20
625.4149468683576
 30
0.0
 10
142.9833420157734
 20
627.2821275435349
 30
0.0
 10
144.4667608095886
 20
628.8862469671129
 30
0.0
 10
145.5700117793661
 20
630.0462974762396
 30
0.0
 10
146.3903238721158
 20
630.8786223959291
 30
0.0
 10
147.371474851124
 20
631.8213263374008
 30
0.0
 10
148.6733880200433
 20
632.9605971550263
 30
0.0
 10
150.4151770816728
 20
634.2645350059967
 30
0.0
 10
152.3716939698077
 20
635.419339733998
 30
0.0
 10
154.4348607216019
 20
636.3415441884777
 30
0.0
 10
156.5596934327158
 20
637.0466053627106
 30
0.0
 10
157.9560557226104
 20
637.2855584320332
 30
0.0
 10
158.8202630323264
 20
637.4261760598137
 30
0.0
  0
SPLINE
  5
A8
330
8F
100
AcDbEntity
  8
$DDT_AUDIT_GENERATED_(91)
  6
Continuous
 62
     7
100
AcDbSpline
210
0.0
220
0.0
230
1.0
 70
     8
 71
     3
 72
    20
 73
    16
 74
     0
 42
0.0000000002966356
 43
0.0000000001
 40
0.0
 40
0.0
 40
0.0
 40
0.0
 40
0.0674532501273896
 40
0.1259878659305912
 40
0.175596559501321
 40
0.227297201382936
 40
0.2634995654906823
 40
0.2871006015144654
 40
0.3123622096823402
 40
0.3412034263891572
 40
0.4082559845745089
 40
0.4879759168967773
 40
0.585736318170664
 40
0.6835034618070633
 40
0.7252618415300865
 40
0.7252618415300865
 40
0.7252618415300865
 40
0.7252618415300865
 10
75.34340926194315
 20
637.4261867919472
 30
0.0
 10
76.16615528100823
 20
637.2938450466878
 30
0.0
 10
77.45986713684074
 20
637.075640007486
 30
0.0
 10
79.37847192044642
 20
636.4639653495244
 30
0.0
 10
81.02882786668242
 20
635.7742494296313
 30
0.0
 10
82.40218923227874
 20
635.0590347176176
 30
0.0
 10
83.46960603464684
 20
634.403544633093
 30
0.0
 10
84.259892309272
 20
633.8664683695357
 30
0.0
 10
84.96333266954586
 20
633.3501357057554
 30
0.0
 10
86.02850422197646
 20
632.5039859843405
 30
0.0
 10
87.4940941370284
 20
631.1829457165688
 30
0.0
 10
89.40297920999194
 20
629.2120897030836
 30
0.0
 10
91.49462947899167
 20
626.9365285347704
 30
0.0
 10
93.39785292392567
 20
625.0668010730503
 30
0.0
 10
94.59345995054342
 20
624.0526807999198
 30
0.0
 10
94.95779187523742
 20
623.757468490835
 30
0.0
  0
LINE
  5
AA
330
8F
100
AcDbEntity
  8
$DDT_AUDIT_GENERATED_(A9)
  6
Continuous
 62
     7
100
AcDbLine
 10
92.4624500594
 20
653.1947613725
 30
0.0
 11
92.4828527595
 21
653.1739498943
 31
0.0
  0
LINE
  5
AB
330
8F
100
AcDbEntity
  8
$DDT_AUDIT_GENERATED_(A9)
  6
Continuous
 62
     7
100
AcDbLine
 10
92.4828527595
 20
653.1739498943
 30
0.0
 11
92.6533480014
 21
653.0002427612
 31
0.0
  0
LINE
  5
AC
330
8F
100
AcDbEntity
  8
$DDT_AUDIT_GENERATED_(A9)
  6
Continuous
 62
     7
100
AcDbLine
 10
92.6533480014
 20
653.0002427612
 30
0.0
 11
92.7000793789
 21
652.9526951084
 31
0.0
  0
LINE
  5
AD
330
8F
100
AcDbEntity
  8
$DDT_AUDIT_GENERATED_(A9)
  6
Continuous
 62
     7
100
AcDbLine
 10
141.5103140644
 20
653.0001969022
 30
0.0
 11
141.6808053461
 21
653.173875488
 31
0.0
  0
LINE
  5
AE
330
8F
100
AcDbEntity
  8
$DDT_AUDIT_GENERATED_(A9)
  6
Continuous
 62
     7
100
AcDbLine
 10
141.6808053461
 20
653.173875488
 30
0.0
 11
141.7017988836
 21
653.1952866828
 31
0.0
  0
LINE
  5
AF
330
8F
100
AcDbEntity
  8
$DDT_AUDIT_GENERATED_(A9)
  6
Continuous
 62
     7
100
AcDbLine
 10
141.6952878218
 20
653.18673266
 30
0.0
 11
141.6961098841
 21
653.1878069081
 31
0.0
  0
LINE
  5
B0
330
8F
100
AcDbEntity
  8
$DDT_AUDIT_GENERATED_(A9)
  6
Continuous
 62
     7
100
AcDbLine
 10
92.6547226462
 20
652.9984917566
 30
0.0
 11
92.7000936006
 21
652.9526569524
 31
0.0
  0
LINE
  5
B1
330
8F
100
AcDbEntity
  8
$DDT_AUDIT_GENERATED_(A9)
  6
Continuous
 62
     7
100
AcDbLine
 10
141.5089427282
 20
652.9984493285
 30
0.0
 11
141.4635721922
 21
652.9526214969
 31
0.0
  0
ARC
  5
B2
330
8F
100
AcDbEntity
  8
$DDT_AUDIT_GENERATED_(A9)
  6
Continuous
 62
     7
100
AcDbCircle
 10
5458.0009861497
 20
1083.8172737168
 30
0.0
 40
5382.785254492504
100
AcDbArc
 50
184.5886536542
 51
185.3405444404
  0
SPLINE
  5
B3
330
8F
100
AcDbEntity
  8
$DDT_AUDIT_GENERATED_(A9)
  6
Continuous
 62
     7
100
AcDbSpline
210
0.0
220
0.0
230
1.0
 70
     8
 71
     3
 72
     8
 73
     4
 74
     0
 42
0.0000000002889214
 43
0.0000000001
 40
0.0
 40
0.0
 40
0.0
 40
0.0
 40
0.2469396891786881
 40
0.2469396891786881
 40
0.2469396891786881
 40
0.2469396891786881
 10
98.5819485634316
 20
582.813605526394
 30
0.0
 10
98.83991272475001
 20
579.9770410665279
 30
0.0
 10
99.074629583938
 20
577.1293253799446
 30
0.0
 10
99.58103385246737
 20
574.3335092682546
 30
0.0
  0
LINE
  5
B4
330
8F
100
AcDbEntity
  8
$DDT_AUDIT_GENERATED_(A9)
  6
Continuous
 62
     7
100
AcDbLine
 10
92.4827526472
 20
653.1722724026
 30
0.0
 11
92.4810930156
 21
653.173949897
 31
0.0
  0
SPLINE
  5
B5
330
8F
100
AcDbEntity
  8
$DDT_AUDIT_GENERATED_(A9)
  6
Continuous
 62
     7
100
AcDbSpline
210
0.0
220
0.0
230
1.0
 70
     8
 71
     3
 72
    10
 73
     6
 74
     0
 42
0.0000000002889311
 43
0.0000000001
 40
0.7074677539602141
 40
0.7074677539602141
 40
0.7074677539602141
 40
0.7074677539602141
 40
0.75
 40
0.75
 40
0.9999978746049526
 40
0.9999978746049526
 40
0.9999978746049526
 40
0.9999978746049526
 10
134.2530166709118
 20
572.7904992239185
 30
0.0
 10
134.3600062843413
 20
573.2689203626462
 30
0.0
 10
134.4575684174656
 20
573.7496899718715
 30
0.0
 10
135.0797297488467
 20
577.0641936584173
 30
0.0
 10
135.3201897577922
 20
579.9387803490015
 30
0.0
 10
135.5817244492132
 20
582.8136476322371
 30
0.0
  0
ARC
  5
B6
330
8F
100
AcDbEntity
  8
$DDT_AUDIT_GENERATED_(A9)
  6
Continuous
 62
     7
100
AcDbCircle
 10
-5275.0218757315
 20
1088.3043807678
 30
0.0
 40
5434.165271467927
100
AcDbArc
 50
354.6625817292
 51
355.4073679735
  0
LINE
  5
B7
330
8F
100
AcDbEntity
  8
$DDT_AUDIT_GENERATED_(A9)
  6
Continuous
 62
     7
100
AcDbLine
 10
141.6952878218
 20
653.18673266
 30
0.0
 11
141.6825659214
 21
653.1738754853
 31
0.0
  0
LINE
  5
B8
330
8F
100
AcDbEntity
  8
$DDT_AUDIT_GENERATED_(A9)
  6
Continuous
 62
     7
100
AcDbLine
 10
141.6825659214
 20
653.1738754853
 30
0.0
 11
141.6809113809
 21
653.1722033827
 31
0.0
  0
LINE
  5
B9
330
8F
100
AcDbEntity
  8
$DDT_AUDIT_GENERATED_(A9)
  6
Continuous
 62
     7
100
AcDbLine
 10
92.4827526472
 20
653.1722724026
 30
0.0
 11
92.6529894786
 21
653.0002427615
 31
0.0
  0
LINE
  5
BA
330
8F
100
AcDbEntity
  8
$DDT_AUDIT_GENERATED_(A9)
  6
Continuous
 62
     7
100
AcDbLine
 10
92.4689536606
 20
653.1862201277
 30
0.0
 11
92.4810930156
 21
653.173949897
 31
0.0
  0
LINE
  5
BB
330
8F
100
AcDbEntity
  8
$DDT_AUDIT_GENERATED_(A9)
  6
Continuous
 62
     7
100
AcDbLine
 10
141.6809113809
 20
653.1722033827
 30
0.0
 11
141.5106727472
 21
653.0001969019
 31
0.0
  0
LINE
  5
BC
330
8F
100
AcDbEntity
  8
$DDT_AUDIT_GENERATED_(A9)
  6
Continuous
 62
     7
100
AcDbLine
 10
141.5106727472
 20
653.0001969019
 30
0.0
 11
141.5089427282
 21
652.9984493285
 31
0.0
  0
LINE
  5
BD
330
8F
100
AcDbEntity
  8
$DDT_AUDIT_GENERATED_(A9)
  6
Continuous
 62
     7
100
AcDbLine
 10
92.6547226462
 20
652.9984917566
 30
0.0
 11
92.6529894786
 21
653.0002427615
 31
0.0
  0
ARC
  5
BE
330
8F
100
AcDbEntity
  8
$DDT_AUDIT_GENERATED_(A9)
  6
Continuous
 62
     7
100
AcDbCircle
 10
-2.6489876271
 20
663.224100213
 30
0.0
 40
144.6935878290105
100
AcDbArc
 50
355.8965180526
 51
356.0226340663
  0
LINE
  5
BF
330
8F
100
AcDbEntity
  8
$DDT_AUDIT_GENERATED_(A9)
  6
Continuous
 62
     7
100
AcDbLine
 10
92.4681327397
 20
653.1872925204
 30
0.0
 11
92.4689536606
 21
653.1862201277
 31
0.0
  0
ARC
  5
C0
330
8F
100
AcDbEntity
  8
$DDT_AUDIT_GENERATED_(A9)
  6
Continuous
 62
     7
100
AcDbCircle
 10
236.8976636377
 20
663.2290614278
 30
0.0
 40
144.7781976617822
100
AcDbArc
 50
183.9772099743
 51
184.1348075432
  0
LINE
  5
C1
330
8F
100
AcDbEntity
  8
$DDT_AUDIT_GENERATED_(A9)
  6
Continuous
 62
     7
100
AcDbLine
 10
141.6961098841
 20
653.1878069081
 30
0.0
 11
141.7017988836
 21
653.1952866828
 31
0.0
  0
LINE
  5
C2
330
8F
100
AcDbEntity
  8
$DDT_AUDIT_GENERATED_(A9)
  6
Continuous
 62
     7
100
AcDbLine
 10
92.4624500594
 20
653.1947613725
 30
0.0
 11
92.4681327397
 21
653.1872925204
 31
0.0
  0
LINE
  5
C3
330
8F
100
AcDbEntity
  8
$DDT_AUDIT_GENERATED_(A9)
  6
Continuous
 62
     7
100
AcDbLine
 10
141.4635863667
 20
652.9526596664
 30
0.0
 11
141.5103140644
 21
653.0001969022
 31
0.0
  0
ARC
  5
C4
330
8F
100
AcDbEntity
  8
$DDT_AUDIT_GENERATED_(A9)
  6
Continuous
 62
     7
100
AcDbCircle
 10
93.0979129471
 20
654.9189816676
 30
0.0
 40
2.006129203454327
100
AcDbArc
 50
258.56190597
 51
273.2486070396
  0
ARC
  5
C5
330
8F
100
AcDbEntity
  8
$DDT_AUDIT_GENERATED_(A9)
  6
Continuous
 62
     7
100
AcDbCircle
 10
141.0657893962
 20
654.9187755096
 30
0.0
 40
2.005954620260991
100
AcDbArc
 50
266.7500801519
 51
281.4380364381
  0
ARC
  5
C6
330
8F
100
AcDbEntity
  8
$DDT_AUDIT_GENERATED_(A9)
  6
Continuous
 62
     7
100
AcDbCircle
 10
141.0659591501
 20
654.9182991748
 30
0.0
 40
2.005488684796024
100
AcDbArc
 50
266.7444666774
 51
281.4353685103
  0
ARC
  5
C7
330
8F
100
AcDbEntity
  8
$DDT_AUDIT_GENERATED_(A9)
  6
Continuous
 62
     7
100
AcDbCircle
 10
93.0976360393
 20
654.9170060177
 30
0.0
 40
2.004172457860564
100
AcDbArc
 50
258.5590793062
 51
273.2597112867
  0
ARC
  5
C8
330
8F
100
AcDbEntity
  8
$DDT_AUDIT_GENERATED_(A9)
  6
Continuous
 62
     7
100
AcDbCircle
 10
117.081979111
 20
656.1379763994
 30
0.0
 40
26.69917405257661
100
AcDbArc
 50
333.4964365943
 51
0.0008388579
  0
ARC
  5
C9
330
8F
100
AcDbEntity
  8
$DDT_AUDIT_GENERATED_(A9)
  6
Continuous
 62
     7
100
AcDbCircle
 10
117.0816586168
 20
656.1379451871
 30
0.0
 40
26.69914284043939
100
AcDbArc
 50
179.9990941602
 51
206.3752804722
  0
ARC
  5
CA
330
8F
100
AcDbEntity
  8
$DDT_AUDIT_GENERATED_(A9)
  6
Continuous
 62
     7
100
AcDbCircle
 10
117.082007155
 20
656.1376592942
 30
0.0
 40
26.69914601507092
100
AcDbArc
 50
0.0015193595
 51
90.0003705778
  0
ARC
  5
CB
330
8F
100
AcDbEntity
  8
$DDT_AUDIT_GENERATED_(A9)
  6
Continuous
 62
     7
100
AcDbCircle
 10
117.0816925783
 20
656.1376285003
 30
0.0
 40
26.69917680879881
100
AcDbArc
 50
89.9996955035
 51
179.9984145593
  0
ARC
  5
CC
330
8F
100
AcDbEntity
  8
$DDT_AUDIT_GENERATED_(A9)
  6
Continuous
 62
     7
100
AcDbCircle
 10
117.3101993629
 20
574.9668530046
 30
0.0
 40
17.0957533337209
100
AcDbArc
 50
269.2344013466
 51
352.5665201993
  0
SPLINE
  5
CD
330
8F
100
AcDbEntity
  8
$DDT_AUDIT_GENERATED_(A9)
  6
Continuous
 62
     7
100
AcDbSpline
210
0.0
220
0.0
230
1.0
 70
     8
 71
     3
 72
    24
 73
    20
 74
     0
 42
0.0000000003778305
 43
0.0000000001
 40
0.0
 40
0.0
 40
0.0
 40
0.0
 40
0.0512654135021367
 40
0.128596677547717
 40
0.1994840188871319
 40
0.2659740444633529
 40
0.3225843747272544
 40
0.3831684952360699
 40
0.441573641327686
 40
0.5010011467772796
 40
0.5614486324442478
 40
0.6228474762741647
 40
0.6850369761319666
 40
0.7477826673819545
 40
0.8108050088701749
 40
0.8737429517749037
 40
0.9359326309523747
 40
0.9984758087369849
 40
1.0
 40
1.0
 40
1.0
 40
1.0
 10
99.5402894684002
 20
574.2970027632063
 30
0.0
 10
99.6212056950435
 20
573.8109014441059
 30
0.0
 10
99.79717034616367
 20
572.7783606356979
 30
0.0
 10
100.2226980006206
 20
571.0417262849993
 30
0.0
 10
100.7841140812425
 20
569.2575350670245
 30
0.0
 10
101.4219209798579
 20
567.6760493016028
 30
0.0
 10
102.1360349929401
 20
566.2284231991208
 30
0.0
 10
102.9642962153879
 20
564.9215936159335
 30
0.0
 10
103.9370591330538
 20
563.6856745672217
 30
0.0
 10
105.0270566105596
 20
562.5506681541121
 30
0.0
 10
106.2428450208482
 20
561.5078797927432
 30
0.0
 10
107.5739232545047
 20
560.5707621117632
 30
0.0
 10
109.006608699189
 20
559.753028060746
 30
0.0
 10
110.5248705474407
 20
559.0674651388221
 30
0.0
 10
112.1071728087489
 20
558.5271655587527
 30
0.0
 10
113.735490653937
 20
558.1378398667192
 30
0.0
 10
115.369745418518
 20
557.9201423799464
 30
0.0
 10
116.5279683672597
 20
557.8353270123368
 30
0.0
 10
117.0669128295127
 20
557.8357221878861
 30
0.0
 10
117.0817750252331
 20
557.8357356721109
 30
0.0
  0
ARC
  5
CE
330
8F
100
AcDbEntity
  8
$DDT_AUDIT_GENERATED_(A9)
  6
Continuous
 62
     7
100
AcDbCircle
 10
113.1341538695
 20
653.9310584658
 30
0.0
 40
20.67882507632754
100
AcDbArc
 50
181.8723280798
 51
183.1214362327
  0
ARC
  5
D0
330
8F
100
AcDbEntity
  8
$DDT_AUDIT_GENERATED_(CF)
  6
Continuous
 62
     7
100
AcDbCircle
 10
42.0818344702
 20
663.9592281377
 30
0.0
 40
35.0
100
AcDbArc
 50
176.3481092437
 51
313.3992444065
  0
ARC
  5
D1
330
8F
100
AcDbEntity
  8
$DDT_AUDIT_GENERATED_(CF)
  6
Continuous
 62
     7
100
AcDbCircle
 10
42.0818344702
 20
663.9592281377
 30
0.0
 40
35.0
100
AcDbArc
 50
38.6348065323
 51
141.3911953747
  0
ARC
  5
D2
330
8F
100
AcDbEntity
  8
$DDT_AUDIT_GENERATED_(CF)
  6
Continuous
 62
     7
100
AcDbCircle
 10
192.0818344702
 20
663.9592281377
 30
0.0
 40
35.0
100
AcDbArc
 50
226.633271783
 51
0.0
  0
ARC
  5
D3
330
8F
100
AcDbEntity
  8
$DDT_AUDIT_GENERATED_(CF)
  6
Continuous
 62
     7
100
AcDbCircle
 10
192.0818344702
 20
663.9592281377
 30
0.0
 40
35.0
100
AcDbArc
 50
38.6348058656
 51
141.3911947147
  0
ARC
  5
D4
330
8F
100
AcDbEntity
  8
$DDT_AUDIT_GENERATED_(CF)
  6
Continuous
 62
     7
100
AcDbCircle
 10
192.0818344702
 20
663.9592281377
 30
0.0
 40
35.0
100
AcDbArc
 50
0.0
 51
3.6900611997
  0
ARC
  5
D6
330
8F
100
AcDbEntity
  8
09421031_AUSL_RO
  6
Continuous
 62
     7
100
AcDbCircle
 10
117.0818344702
 20
534.8592281377
 30
0.0
 40
12.0
100
AcDbArc
 50
0.0
 51
180.0
  0
LINE
  5
D7
330
8F
100
AcDbEntity
  8
09421031_AUSL_RO
  6
Continuous
 62
     7
100
AcDbLine
 10
105.0818344702
 20
534.8592281377
 30
0.0
 11
105.0818344702
 21
493.541637021
 31
0.0
  0
LINE
  5
D8
330
8F
100
AcDbEntity
  8
09421031_AUSL_RO
  6
Continuous
 62
     7
100
AcDbLine
 10
129.0818344702
 20
493.541637021
 30
0.0
 11
129.0818344702
 21
534.8592281377
 31
0.0
  0
LINE
  5
D9
330
8F
100
AcDbEntity
  8
09421031_AUSL_RO
  6
Continuous
 62
     7
100
AcDbLine
 10
105.0818344702
 20
562.5225087845
 30
0.0
 11
105.0818344702
 21
534.8592281377
 31
0.0
  0
LINE
  5
DA
330
8F
100
AcDbEntity
  8
09421031_AUSL_RO
  6
Continuous
 62
     7
100
AcDbLine
 10
129.0818344702
 20
534.8592281377
 30
0.0
 11
129.0818344702
 21
562.5611182223
 31
0.0
  0
LINE
  5
DB
330
8F
100
AcDbEntity
  8
09421031_AUSL_RO
  6
Continuous
 62
     7
100
AcDbLine
 10
105.0818344702
 20
493.541637021
 30
0.0
 11
105.0818344702
 21
490.6835915069
 31
0.0
  0
LINE
  5
DC
330
8F
100
AcDbEntity
  8
09421031_AUSL_RO
  6
Continuous
 62
     7
100
AcDbLine
 10
129.0818344702
 20
490.6835915069
 30
0.0
 11
129.0818344702
 21
493.541637021
 31
0.0
  0
SPLINE
  5
DD
330
8F
100
AcDbEntity
  8
09421031_AUSL_RO
  6
Continuous
 62
     7
100
AcDbSpline
210
0.0
220
0.0
230
1.0
 70
     8
 71
     3
 72
    12
 73
     8
 74
     0
 42
0.0000000033019634
 43
0.0000000001
 40
0.0
 40
0.0
 40
0.0
 40
0.0
 40
0.007427603649851
 40
0.1680803525887831
 40
0.32103239585856
 40
0.4769422511739236
 40
0.6221416404542686
 40
0.6221416404542686
 40
0.6221416404542686
 40
0.6221416404542686
 10
105.0851949344867
 20
490.6997978400201
 30
0.0
 10
105.0839129642882
 20
490.6908042859667
 30
0.0
 10
105.0590303256206
 20
490.5154412814328
 30
0.0
 10
105.1482119229093
 20
490.1371924604042
 30
0.0
 10
105.3484891751575
 20
489.6911309111021
 30
0.0
 10
105.6230934938454
 20
489.3482447255121
 30
0.0
 10
105.8176546739684
 20
489.1770369813287
 30
0.0
 10
105.9137907250696
 20
489.102062538109
 30
0.0
  0
SPLINE
  5
DE
330
8F
100
AcDbEntity
  8
09421031_AUSL_RO
  6
Continuous
 62
     7
100
AcDbSpline
210
0.0
220
0.0
230
1.0
 70
     8
 71
     3
 72
    11
 73
     7
 74
     0
 42
0.0000000030078584
 43
0.0000000001
 40
0.5316461887282947
 40
0.5316461887282947
 40
0.5316461887282947
 40
0.5316461887282947
 40
0.6676328605990094
 40
0.8156061591859456
 40
0.9594710568938847
 40
1.0
 40
1.0
 40
1.0
 40
1.0
 10
128.4905375320421
 20
489.3136412674113
 30
0.0
 10
128.5823014566529
 20
489.4053029081475
 30
0.0
 10
128.7670735319429
 20
489.6216951883682
 30
0.0
 10
128.9819919782725
 20
490.0364647215388
 30
0.0
 10
129.0932842691741
 20
490.4380960321544
 30
0.0
 10
129.071534242819
 20
490.6428689846805
 30
0.0
 10
129.0657272251142
 20
490.6955685424301
 30
0.0
  0
ELLIPSE
  5
E0
330
8F
100
AcDbEntity
  8
$DDT_AUDIT_GENERATED_(DF)
  6
Continuous
 62
     7
100
AcDbEllipse
 10
117.0818344702
 20
472.549131225
 30
0.0
 11
-10.5
 21
0.0
 31
0.0
210
0.0
220
0.0
230
1.0
 40
0.1736481777
 41
0.0
 42
0.7305796394322156
  0
ELLIPSE
  5
E1
330
8F
100
AcDbEntity
  8
$DDT_AUDIT_GENERATED_(DF)
  6
Continuous
 62
     7
100
AcDbEllipse
 10
117.0818344702
 20
472.549131225
 30
0.0
 11
-10.5
 21
0.0
 31
0.0
210
0.0
220
0.0
230
1.0
 40
0.1736481777
 41
2.411013014157577
 42
6.283185307179586
  0
ELLIPSE
  5
E2
330
8F
100
AcDbEntity
  8
$DDT_AUDIT_GENERATED_(DF)
  6
Continuous
 62
     7
100
AcDbEllipse
 10
117.0818344702
 20
472.549131225
 30
0.0
 11
10.05000000000001
 21
0.0
 31
0.0
210
0.0
220
0.0
230
1.0
 40
0.1736481777
 41
5.739952595301555
 42
6.283185307179586
  0
ELLIPSE
  5
E3
330
8F
100
AcDbEntity
  8
$DDT_AUDIT_GENERATED_(DF)
  6
Continuous
 62
     7
100
AcDbEllipse
 10
117.0818344702
 20
472.549131225
 30
0.0
 11
10.05000000000001
 21
0.0
 31
0.0
210
0.0
220
0.0
230
1.0
 40
0.1736481777
 41
0.0
 42
3.684825365467821
  0
ELLIPSE
  5
E4
330
8F
100
AcDbEntity
  8
$DDT_AUDIT_GENERATED_(DF)
  6
Continuous
 62
     7
100
AcDbEllipse
 10
117.0818344702
 20
489.1431418633
 30
0.0
 11
-11.49999999999999
 21
0.0
 31
0.0
210
0.0
220
0.0
230
1.0
 40
0.1736481777
 41
3.141592653589793
 42
6.283185307179586
  0
ELLIPSE
  5
E5
330
8F
100
AcDbEntity
  8
$DDT_AUDIT_GENERATED_(DF)
  6
Continuous
 62
     7
100
AcDbEllipse
 10
117.0818344702
 20
489.2908630262
 30
0.0
 11
-11.34999999999999
 21
0.0
 31
0.0
210
0.0
220
0.0
230
1.0
 40
0.1736481777
 41
3.282070940309006
 42
6.117774191998373
  0
ARC
  5
E6
330
8F
100
AcDbEntity
  8
$DDT_AUDIT_GENERATED_(DF)
  6
Continuous
 62
     7
100
AcDbCircle
 10
121.5422592366
 20
478.0706094085
 30
0.0
 40
15.94990068028122
100
AcDbArc
 50
179.5140759246
 51
200.7508942831
  0
ARC
  5
E7
330
8F
100
AcDbEntity
  8
$DDT_AUDIT_GENERATED_(DF)
  6
Continuous
 62
     7
100
AcDbCircle
 10
112.5426617057
 20
478.0655076842
 30
0.0
 40
16.02858798434797
100
AcDbArc
 50
339.3901296668
 51
0.4962876153
  0
LINE
  5
E8
330
8F
100
AcDbEntity
  8
$DDT_AUDIT_GENERATED_(DF)
  6
Continuous
 62
     7
100
AcDbLine
 10
128.5818344702
 20
478.206421057
 30
0.0
 11
128.5818344702
 21
489.1431418633
 31
0.0
  0
LINE
  5
E9
330
8F
100
AcDbEntity
  8
$DDT_AUDIT_GENERATED_(DF)
  6
Continuous
 62
     7
100
AcDbLine
 10
105.5818344702
 20
489.1431418633
 30
0.0
 11
105.5818344702
 21
478.206421057
 31
0.0
  0
ELLIPSE
  5
EB
330
8F
100
AcDbEntity
  8
$DDT_AUDIT_GENERATED_(EA)
  6
Continuous
 62
     7
100
AcDbEllipse
 10
117.0818344702
 20
472.1059677362
 30
0.0
 11
-9.0
 21
0.0
 31
0.0
210
0.0
220
0.0
230
1.0
 40
0.1736481777
 41
0.0
 42
6.283185307179586
  0
ELLIPSE
  5
EC
330
8F
100
AcDbEntity
  8
$DDT_AUDIT_GENERATED_(EA)
  6
Continuous
 62
     7
100
AcDbEllipse
 10
117.0818344702
 20
472.1059677362
 30
0.0
 11
-5.249999999999998
 21
0.0
 31
0.0
210
0.0
220
0.0
230
1.0
 40
0.1736481777
 41
0.0
 42
6.283185307179586
  0
ELLIPSE
  5
ED
330
8F
100
AcDbEntity
  8
$DDT_AUDIT_GENERATED_(EA)
  6
Continuous
 62
     7
100
AcDbEllipse
 10
117.0818344702
 20
472.1059677362
 30
0.0
 11
-6.25
 21
0.0
 31
0.0
210
0.0
220
0.0
230
1.0
 40
0.1736481777
 41
0.0
 42
6.283185307179586
  0
ELLIPSE
  5
EE
330
8F
100
AcDbEntity
  8
$DDT_AUDIT_GENERATED_(EA)
  6
Continuous
 62
     7
100
AcDbEllipse
 10
117.0818344702
 20
472.1059677362
 30
0.0
 11
2.750000000000002
 21
0.0
 31
0.0
210
0.0
220
0.0
230
1.0
 40
0.1736481777
 41
0.0
 42
6.283185307179586
  0
ELLIPSE
  5
EF
330
8F
100
AcDbEntity
  8
$DDT_AUDIT_GENERATED_(EA)
  6
Continuous
 62
     7
100
AcDbEllipse
 10
117.0818344702
 20
472.1059677362
 30
0.0
 11
2.150000000000001
 21
0.0
 31
0.0
210
0.0
220
0.0
230
1.0
 40
0.1736481777
 41
0.0
 42
6.283185307179586
  0
ELLIPSE
  5
F0
330
8F
100
AcDbEntity
  8
$DDT_AUDIT_GENERATED_(EA)
  6
Continuous
 62
     7
100
AcDbEllipse
 10
117.0818344702
 20
472.3029292868
 30
0.0
 11
-0.5196299438963558
 21
0.0
 31
0.0
210
0.0
220
0.0
230
1.0
 40
0.1736481777
 41
0.0
 42
6.283185307179586
  0
ELLIPSE
  5
F1
330
8F
100
AcDbEntity
  8
$DDT_AUDIT_GENERATED_(EA)
  6
Continuous
 62
     7
100
AcDbEllipse
 10
117.0818344702
 20
472.1059677362
 30
0.0
 11
-8.699999999999996
 21
0.0
 31
0.0
210
0.0
220
0.0
230
1.0
 40
0.1736481777
 41
0.0
 42
6.283185307179586
  0
ARC
  5
F2
330
8F
100
AcDbEntity
  8
$DDT_AUDIT_GENERATED_(EA)
  6
Continuous
 62
     7
100
AcDbCircle
 10
125.324957591
 20
472.3029292868
 30
0.0
 40
0.2568762259794959
100
AcDbArc
 50
356.1238526717
 51
3.8761473283
  0
ARC
  5
F3
330
8F
100
AcDbEntity
  8
$DDT_AUDIT_GENERATED_(EA)
  6
Continuous
 62
     7
100
AcDbCircle
 10
123.1425979834
 20
472.3029292868
 30
0.0
 40
0.1892348465220819
100
AcDbArc
 50
0.0
 51
5.2650577286
  0
ELLIPSE
  5
F4
330
8F
100
AcDbEntity
  8
$DDT_AUDIT_GENERATED_(EA)
  6
Continuous
 62
     7
100
AcDbEllipse
 10
117.0818344702
 20
472.3029292868
 30
0.0
 11
8.50000000003023
 21
1.304512053934559E-12
 31
0.0
210
0.0
220
0.0
230
1.0
 40
0.1736481777
 41
0.0117649772879327
 42
0.1119139221627743
  0
LINE
  5
F5
330
8F
100
AcDbEntity
  8
$DDT_AUDIT_GENERATED_(EA)
  6
Continuous
 62
     7
100
AcDbLine
 10
123.3318344702
 20
472.285564469
 30
0.0
 11
125.5812462145
 21
472.285564469
 31
0.0
  0
LINE
  5
F6
330
8F
100
AcDbEntity
  8
$DDT_AUDIT_GENERATED_(EA)
  6
Continuous
 62
     7
100
AcDbLine
 10
123.331034419
 20
472.3202941046
 30
0.0
 11
125.5812462145
 21
472.3202941046
 31
0.0
  0
LINE
  5
F7
330
8F
100
AcDbEntity
  8
$DDT_AUDIT_GENERATED_(EA)
  6
Continuous
 62
     7
100
AcDbLine
 10
123.331034419
 20
472.3202941046
 30
0.0
 11
123.331034419
 21
472.5757202352
 31
0.0
  0
LINE
  5
F8
330
8F
100
AcDbEntity
  8
$DDT_AUDIT_GENERATED_(EA)
  6
Continuous
 62
     7
100
AcDbLine
 10
116.2306329959
 20
472.2036325076
 30
0.0
 11
116.5622045263
 21
472.3033584367
 31
0.0
  0
LINE
  5
F9
330
8F
100
AcDbEntity
  8
$DDT_AUDIT_GENERATED_(EA)
  6
Continuous
 62
     7
100
AcDbLine
 10
115.797620294
 20
472.247044552
 30
0.0
 11
116.5279718496
 21
472.4667105389
 31
0.0
  0
ELLIPSE
  5
FA
330
8F
100
AcDbEntity
  8
$DDT_AUDIT_GENERATED_(EA)
  6
Continuous
 62
     7
100
AcDbEllipse
 10
117.0818344702
 20
472.5464703072
 30
0.0
 11
-2.149999999994953
 21
1.110223024625157E-12
 31
0.0
210
0.0
220
0.0
230
1.0
 40
0.1736481777
 41
0.9306548427480106
 42
1.163740259647079
  0
LINE
  5
FB
330
8F
100
AcDbEntity
  8
$DDT_AUDIT_GENERATED_(EA)
  6
Continuous
 62
     7
100
AcDbLine
 10
115.797620294
 20
472.4053934914
 30
0.0
 11
115.797620294
 21
472.247044552
 31
0.0
  0
ELLIPSE
  5
FC
330
8F
100
AcDbEntity
  8
$DDT_AUDIT_GENERATED_(EA)
  6
Continuous
 62
     7
100
AcDbEllipse
 10
117.0818349919
 20
472.3029292624
 30
0.0
 11
8.49999947797207
 21
2.426353562512418E-8
 31
0.0
210
0.0
220
0.0
230
1.0
 40
0.1736481824
 41
-0.2735643738992435
 42
-0.2500344185753942
  0
ELLIPSE
  5
FD
330
8F
100
AcDbEntity
  8
$DDT_AUDIT_GENERATED_(EA)
  6
Continuous
 62
     7
100
AcDbEllipse
 10
117.0818344702
 20
472.3029292868
 30
0.0
 11
8.50000000002475
 21
-1.165734175856414E-12
 31
0.0
210
0.0
220
0.0
230
1.0
 40
0.1736481777
 41
6.033150896668913
 42
6.271420329891588
  0
LINE
  5
FE
330
8F
100
AcDbEntity
  8
$DDT_AUDIT_GENERATED_(EA)
  6
Continuous
 62
     7
100
AcDbLine
 10
125.3175176868
 20
471.937709479
 30
0.0
 11
125.3175176868
 21
472.285564469
 31
0.0
  0
LINE
  5
FF
330
8F
100
AcDbEntity
  8
$DDT_AUDIT_GENERATED_(EA)
  6
Continuous
 62
     7
100
AcDbLine
 10
123.2994641776
 20
471.9956525022
 30
0.0
 11
125.2657538778
 21
471.9041632271
 31
0.0
  0
LINE
  5
100
330
8F
100
AcDbEntity
  8
$DDT_AUDIT_GENERATED_(EA)
  6
Continuous
 62
     7
100
AcDbLine
 10
123.316825855
 20
472.0307994471
 30
0.0
 11
125.3175176868
 21
471.937709479
 31
0.0
  0
ELLIPSE
  5
101
330
8F
100
AcDbEntity
  8
$DDT_AUDIT_GENERATED_(EA)
  6
Continuous
 62
     7
100
AcDbEllipse
 10
117.08183482
 20
472.3029292517
 30
0.0
 11
8.499999646588146
 21
3.137862192303942E-8
 31
0.0
210
0.0
220
0.0
230
1.0
 40
0.1736481797
 41
-0.5353637640986548
 42
-0.5118338089635577
  0
ELLIPSE
  5
102
330
8F
100
AcDbEntity
  8
$DDT_AUDIT_GENERATED_(EA)
  6
Continuous
 62
     7
100
AcDbEllipse
 10
117.0818344702
 20
472.3029292868
 30
0.0
 11
8.500000000005148
 21
-6.661338147750939E-13
 31
0.0
210
0.0
220
0.0
230
1.0
 40
0.1736481777
 41
-0.5118337983100281
 42
-0.2735643650871342
  0
LINE
  5
103
330
8F
100
AcDbEntity
  8
$DDT_AUDIT_GENERATED_(EA)
  6
Continuous
 62
     7
100
AcDbLine
 10
124.492540958
 20
471.5800139798
 30
0.0
 11
124.492540958
 21
471.9401399652
 31
0.0
  0
LINE
  5
104
330
8F
100
AcDbEntity
  8
$DDT_AUDIT_GENERATED_(EA)
  6
Continuous
 62
     7
100
AcDbLine
 10
122.8814370597
 20
471.7014341968
 30
0.0
 11
124.392540958
 21
471.5499372331
 31
0.0
  0
LINE
  5
105
330
8F
100
AcDbEntity
  8
$DDT_AUDIT_GENERATED_(EA)
  6
Continuous
 62
     7
100
AcDbLine
 10
122.9538686228
 20
471.7342748397
 30
0.0
 11
124.492540958
 21
471.5800139798
 31
0.0
  0
ELLIPSE
  5
106
330
8F
100
AcDbEntity
  8
$DDT_AUDIT_GENERATED_(EA)
  6
Continuous
 62
     7
100
AcDbEllipse
 10
117.0818347792
 20
472.3029292331
 30
0.0
 11
8.499999672297417
 21
3.912550838869323E-8
 31
0.0
210
0.0
220
0.0
230
1.0
 40
0.1736481777
 41
-0.7971631546434796
 42
-0.7736331994626235
  0
ELLIPSE
  5
107
330
8F
100
AcDbEntity
  8
$DDT_AUDIT_GENERATED_(EA)
  6
Continuous
 62
     7
100
AcDbEllipse
 10
117.0818344702
 20
472.3029292868
 30
0.0
 11
8.500000000018305
 21
-1.554312234475219E-12
 31
0.0
210
0.0
220
0.0
230
1.0
 40
0.1736481777
 41
-0.7736331861085146
 42
-0.5353637528858535
  0
LINE
  5
108
330
8F
100
AcDbEntity
  8
$DDT_AUDIT_GENERATED_(EA)
  6
Continuous
 62
     7
100
AcDbLine
 10
123.1625368288
 20
471.2715839641
 30
0.0
 11
123.1625368288
 21
471.6732523083
 31
0.0
  0
LINE
  5
109
330
8F
100
AcDbEntity
  8
$DDT_AUDIT_GENERATED_(EA)
  6
Continuous
 62
     7
100
AcDbLine
 10
121.9697004437
 20
471.429602707
 30
0.0
 11
123.0211154726
 21
471.2470264033
 31
0.0
  0
LINE
  5
10A
330
8F
100
AcDbEntity
  8
$DDT_AUDIT_GENERATED_(EA)
  6
Continuous
 62
     7
100
AcDbLine
 10
122.0928199764
 20
471.4573383461
 30
0.0
 11
123.1625368288
 21
471.2715839641
 31
0.0
  0
ELLIPSE
  5
10B
330
8F
100
AcDbEntity
  8
$DDT_AUDIT_GENERATED_(EA)
  6
Continuous
 62
     7
100
AcDbEllipse
 10
117.08183469
 20
472.3029292207
 30
0.0
 11
8.499999725269182
 21
3.410147164650823E-8
 31
0.0
210
0.0
220
0.0
230
1.0
 40
0.1736481754
 41
-1.058962540690342
 42
-1.035432585505854
  0
ELLIPSE
  5
10C
330
8F
100
AcDbEntity
  8
$DDT_AUDIT_GENERATED_(EA)
  6
Continuous
 62
     7
100
AcDbEllipse
 10
117.0818344702
 20
472.3029292868
 30
0.0
 11
8.500000000013616
 21
-1.498801083243961E-12
 31
0.0
210
0.0
220
0.0
230
1.0
 40
0.1736481777
 41
-1.035432573907755
 42
-0.7971631406850523
  0
LINE
  5
10D
330
8F
100
AcDbEntity
  8
$DDT_AUDIT_GENERATED_(EA)
  6
Continuous
 62
     7
100
AcDbLine
 10
121.4181428827
 20
471.0334384277
 30
0.0
 11
121.4181428827
 21
471.3243786706
 31
0.0
  0
LINE
  5
10E
330
8F
100
AcDbEntity
  8
$DDT_AUDIT_GENERATED_(EA)
  6
Continuous
 62
     7
100
AcDbLine
 10
120.6026387694
 20
471.2092562626
 30
0.0
 11
121.244937802
 21
471.0160736099
 31
0.0
  0
LINE
  5
10F
330
8F
100
AcDbEntity
  8
$DDT_AUDIT_GENERATED_(EA)
  6
Continuous
 62
     7
100
AcDbLine
 10
120.7667310239
 20
471.2293619221
 30
0.0
 11
121.4181428827
 21
471.0334384277
 31
0.0
  0
ELLIPSE
  5
110
330
8F
100
AcDbEntity
  8
$DDT_AUDIT_GENERATED_(EA)
  6
Continuous
 62
     7
100
AcDbEllipse
 10
117.0818345872
 20
472.3029292111
 30
0.0
 11
8.499999758849182
 21
2.021169343002782E-8
 31
0.0
210
0.0
220
0.0
230
1.0
 40
0.1736481737
 41
-1.32076192366188
 42
-1.29723196845996
  0
ELLIPSE
  5
111
330
8F
100
AcDbEntity
  8
$DDT_AUDIT_GENERATED_(EA)
  6
Continuous
 62
     7
100
AcDbEllipse
 10
117.0818344702
 20
472.3029292868
 30
0.0
 11
8.499999999998344
 21
5.551115123125783E-14
 31
0.0
210
0.0
220
0.0
230
1.0
 40
0.1736481777
 41
-1.297231961707746
 42
-1.058962528484743
  0
LINE
  5
112
330
8F
100
AcDbEntity
  8
$DDT_AUDIT_GENERATED_(EA)
  6
Continuous
 62
     7
100
AcDbLine
 10
119.3782366844
 20
470.8818065955
 30
0.0
 11
119.3782366844
 21
471.0965797385
 31
0.0
  0
LINE
  5
113
330
8F
100
AcDbEntity
  8
$DDT_AUDIT_GENERATED_(EA)
  6
Continuous
 62
     7
100
AcDbLine
 10
118.8856490248
 20
471.0668498291
 30
0.0
 11
119.1850515192
 21
470.8728179044
 31
0.0
  0
LINE
  5
114
330
8F
100
AcDbEntity
  8
$DDT_AUDIT_GENERATED_(EA)
  6
Continuous
 62
     7
100
AcDbLine
 10
119.0763998058
 20
471.0774161565
 30
0.0
 11
119.3782366844
 21
470.8818065955
 31
0.0
  0
ARC
  5
115
330
8F
100
AcDbEntity
  8
$DDT_AUDIT_GENERATED_(EA)
  6
Continuous
 62
     7
100
AcDbCircle
 10
117.0818344702
 20
519.7731834015
 30
0.0
 40
48.94626362829072
100
AcDbArc
 50
269.8829413828
 51
270.1170586172
  0
ELLIPSE
  5
116
330
8F
100
AcDbEntity
  8
$DDT_AUDIT_GENERATED_(EA)
  6
Continuous
 62
     7
100
AcDbEllipse
 10
117.0818344702
 20
472.3029292868
 30
0.0
 11
8.500000000005146
 21
-3.053113317719180E-13
 31
0.0
210
0.0
220
0.0
230
1.0
 40
0.1736481777
 41
4.724153957672937
 42
4.962423390895771
  0
LINE
  5
117
330
8F
100
AcDbEntity
  8
$DDT_AUDIT_GENERATED_(EA)
  6
Continuous
 62
     7
100
AcDbLine
 10
116.9818344702
 20
471.0208055532
 30
0.0
 11
116.9818344702
 21
470.8270219261
 31
0.0
  0
LINE
  5
118
330
8F
100
AcDbEntity
  8
$DDT_AUDIT_GENERATED_(EA)
  6
Continuous
 62
     7
100
AcDbLine
 10
117.1818344702
 20
471.0208055532
 30
0.0
 11
117.1818344702
 21
470.8270219261
 31
0.0
  0
ELLIPSE
  5
119
330
8F
100
AcDbEntity
  8
$DDT_AUDIT_GENERATED_(EA)
  6
Continuous
 62
     7
100
AcDbEllipse
 10
117.081834357
 20
472.3029292133
 30
0.0
 11
-8.499999766558616
 21
1.960451245786032E-8
 31
0.0
210
0.0
220
0.0
230
1.0
 40
0.1736481738
 41
1.297231968229873
 42
1.320761923411869
  0
ELLIPSE
  5
11A
330
8F
100
AcDbEntity
  8
$DDT_AUDIT_GENERATED_(EA)
  6
Continuous
 62
     7
100
AcDbEllipse
 10
117.0818344702
 20
472.3029292868
 30
0.0
 11
-8.50000000000618
 21
-2.775557561562891E-13
 31
0.0
210
0.0
220
0.0
230
1.0
 40
0.1736481777
 41
1.320761916283793
 42
1.559031349506616
  0
LINE
  5
11B
330
8F
100
AcDbEntity
  8
$DDT_AUDIT_GENERATED_(EA)
  6
Continuous
 62
     7
100
AcDbLine
 10
114.785432256
 20
470.8818065955
 30
0.0
 11
114.785432256
 21
471.0965797385
 31
0.0
  0
LINE
  5
11C
330
8F
100
AcDbEntity
  8
$DDT_AUDIT_GENERATED_(EA)
  6
Continuous
 62
     7
100
AcDbLine
 10
115.0872691345
 20
471.0774161565
 30
0.0
 11
114.785432256
 21
470.8818065955
 31
0.0
  0
LINE
  5
11D
330
8F
100
AcDbEntity
  8
$DDT_AUDIT_GENERATED_(EA)
  6
Continuous
 62
     7
100
AcDbLine
 10
115.2780199156
 20
471.0668498291
 30
0.0
 11
114.9786174212
 21
470.8728179044
 31
0.0
  0
ELLIPSE
  5
11E
330
8F
100
AcDbEntity
  8
$DDT_AUDIT_GENERATED_(EA)
  6
Continuous
 62
     7
100
AcDbEllipse
 10
117.081834269
 20
472.3029292262
 30
0.0
 11
-8.499999748443086
 21
3.120534386447105E-8
 31
0.0
210
0.0
220
0.0
230
1.0
 40
0.1736481756
 41
1.035432584505967
 42
1.058962539639415
  0
ELLIPSE
  5
11F
330
8F
100
AcDbEntity
  8
$DDT_AUDIT_GENERATED_(EA)
  6
Continuous
 62
     7
100
AcDbEllipse
 10
117.0818344702
 20
472.3029292868
 30
0.0
 11
-8.500000000018296
 21
-2.192690473634684E-12
 31
0.0
210
0.0
220
0.0
230
1.0
 40
0.1736481777
 41
1.058962528484211
 42
1.297231961706717
  0
LINE
  5
120
330
8F
100
AcDbEntity
  8
$DDT_AUDIT_GENERATED_(EA)
  6
Continuous
 62
     7
100
AcDbLine
 10
112.7455260576
 20
471.0334384277
 30
0.0
 11
112.7455260576
 21
471.3243786706
 31
0.0
  0
LINE
  5
121
330
8F
100
AcDbEntity
  8
$DDT_AUDIT_GENERATED_(EA)
  6
Continuous
 62
     7
100
AcDbLine
 10
113.3969379165
 20
471.2293619221
 30
0.0
 11
112.7455260576
 21
471.0334384277
 31
0.0
  0
LINE
  5
122
330
8F
100
AcDbEntity
  8
$DDT_AUDIT_GENERATED_(EA)
  6
Continuous
 62
     7
100
AcDbLine
 10
113.5610301709
 20
471.2092562626
 30
0.0
 11
112.9187311384
 21
471.0160736099
 31
0.0
  0
ELLIPSE
  5
123
330
8F
100
AcDbEntity
  8
$DDT_AUDIT_GENERATED_(EA)
  6
Continuous
 62
     7
100
AcDbEllipse
 10
117.0818341604
 20
472.302929233
 30
0.0
 11
-8.49999967143952
 21
3.922176472492822E-8
 31
0.0
210
0.0
220
0.0
230
1.0
 40
0.1736481777
 41
0.7736331994885487
 42
0.7971631546711744
  0
ELLIPSE
  5
124
330
8F
100
AcDbEntity
  8
$DDT_AUDIT_GENERATED_(EA)
  6
Continuous
 62
     7
100
AcDbEllipse
 10
117.0818344702
 20
472.3029292868
 30
0.0
 11
-8.499999999983617
 21
2.331468351712829E-12
 31
0.0
210
0.0
220
0.0
230
1.0
 40
0.1736481777
 41
0.797163140686107
 42
1.035432573909413
  0
LINE
  5
125
330
8F
100
AcDbEntity
  8
$DDT_AUDIT_GENERATED_(EA)
  6
Continuous
 62
     7
100
AcDbLine
 10
111.0011321115
 20
471.2715839641
 30
0.0
 11
111.0011321115
 21
471.6732523083
 31
0.0
  0
LINE
  5
126
330
8F
100
AcDbEntity
  8
$DDT_AUDIT_GENERATED_(EA)
  6
Continuous
 62
     7
100
AcDbLine
 10
112.070848964
 20
471.4573383461
 30
0.0
 11
111.0011321115
 21
471.2715839641
 31
0.0
  0
LINE
  5
127
330
8F
100
AcDbEntity
  8
$DDT_AUDIT_GENERATED_(EA)
  6
Continuous
 62
     7
100
AcDbLine
 10
112.1939684967
 20
471.429602707
 30
0.0
 11
111.1425534678
 21
471.2470264033
 31
0.0
  0
ELLIPSE
  5
128
330
8F
100
AcDbEntity
  8
$DDT_AUDIT_GENERATED_(EA)
  6
Continuous
 62
     7
100
AcDbEllipse
 10
117.0818340608
 20
472.3029292459
 30
0.0
 11
-8.49999958634133
 21
3.653724545138459E-8
 31
0.0
210
0.0
220
0.0
230
1.0
 40
0.1736481801
 41
0.5118338107722806
 42
0.5353637660027928
  0
ELLIPSE
  5
129
330
8F
100
AcDbEntity
  8
$DDT_AUDIT_GENERATED_(EA)
  6
Continuous
 62
     7
100
AcDbEllipse
 10
117.0818344702
 20
472.3029292868
 30
0.0
 11
-8.500000000020526
 21
-1.776356839400250E-12
 31
0.0
210
0.0
220
0.0
230
1.0
 40
0.1736481777
 41
0.5353637528858047
 42
0.7736331861084188
  0
LINE
  5
12A
330
8F
100
AcDbEntity
  8
$DDT_AUDIT_GENERATED_(EA)
  6
Continuous
 62
     7
100
AcDbLine
 10
109.6711279824
 20
471.5800139798
 30
0.0
 11
109.6711279824
 21
471.9401399652
 31
0.0
  0
LINE
  5
12B
330
8F
100
AcDbEntity
  8
$DDT_AUDIT_GENERATED_(EA)
  6
Continuous
 62
     7
100
AcDbLine
 10
111.2098003176
 20
471.7342748397
 30
0.0
 11
109.6711279824
 21
471.5800139798
 31
0.0
  0
LINE
  5
12C
330
8F
100
AcDbEntity
  8
$DDT_AUDIT_GENERATED_(EA)
  6
Continuous
 62
     7
100
AcDbLine
 10
111.2822318807
 20
471.7014341968
 30
0.0
 11
109.7711279824
 21
471.5499372331
 31
0.0
  0
ELLIPSE
  5
12D
330
8F
100
AcDbEntity
  8
$DDT_AUDIT_GENERATED_(EA)
  6
Continuous
 62
     7
100
AcDbEllipse
 10
117.08183408
 20
472.3029292685
 30
0.0
 11
-8.499999609531399
 21
1.817018757677147E-8
 31
0.0
210
0.0
220
0.0
230
1.0
 40
0.1736481812
 41
0.2500344165436009
 42
0.2735643716790074
  0
ELLIPSE
  5
12E
330
8F
100
AcDbEntity
  8
$DDT_AUDIT_GENERATED_(EA)
  6
Continuous
 62
     7
100
AcDbEllipse
 10
117.0818344702
 20
472.3029292868
 30
0.0
 11
-8.500000000001467
 21
-3.885780586188048E-13
 31
0.0
210
0.0
220
0.0
230
1.0
 40
0.1736481777
 41
0.2735643650872062
 42
0.5118337983101672
  0
LINE
  5
12F
330
8F
100
AcDbEntity
  8
$DDT_AUDIT_GENERATED_(EA)
  6
Continuous
 62
     7
100
AcDbLine
 10
108.8461512535
 20
471.937709479
 30
0.0
 11
108.8461512535
 21
472.285564469
 31
0.0
  0
LINE
  5
130
330
8F
100
AcDbEntity
  8
$DDT_AUDIT_GENERATED_(EA)
  6
Continuous
 62
     7
100
AcDbLine
 10
110.8468430854
 20
472.0307994471
 30
0.0
 11
108.8461512535
 21
471.937709479
 31
0.0
  0
LINE
  5
131
330
8F
100
AcDbEntity
  8
$DDT_AUDIT_GENERATED_(EA)
  6
Continuous
 62
     7
100
AcDbLine
 10
110.8642047628
 20
471.9956525022
 30
0.0
 11
108.8979150626
 21
471.9041632271
 31
0.0
  0
ARC
  5
132
330
8F
100
AcDbEntity
  8
$DDT_AUDIT_GENERATED_(EA)
  6
Continuous
 62
     7
100
AcDbCircle
 10
108.8387113494
 20
472.3029292868
 30
0.0
 40
0.2568762259793072
100
AcDbArc
 50
176.1238526717
 51
183.8761473283
  0
ELLIPSE
  5
133
330
8F
100
AcDbEntity
  8
$DDT_AUDIT_GENERATED_(EA)
  6
Continuous
 62
     7
100
AcDbEllipse
 10
117.0818344702
 20
472.3029292868
 30
0.0
 11
-8.50000000003029
 21
-1.304512053934559E-12
 31
0.0
210
0.0
220
0.0
230
1.0
 40
0.1736481777
 41
0.0117649772879799
 42
0.2500344105105875
  0
ARC
  5
134
330
8F
100
AcDbEntity
  8
$DDT_AUDIT_GENERATED_(EA)
  6
Continuous
 62
     7
100
AcDbCircle
 10
111.0210709569
 20
472.3029292868
 30
0.0
 40
0.1892348465220835
100
AcDbArc
 50
174.7349422714
 51
180.0
  0
LINE
  5
135
330
8F
100
AcDbEntity
  8
$DDT_AUDIT_GENERATED_(EA)
  6
Continuous
 62
     7
100
AcDbLine
 10
110.8326345214
 20
472.3202941046
 30
0.0
 11
110.8326345214
 21
472.5757202352
 31
0.0
  0
LINE
  5
136
330
8F
100
AcDbEntity
  8
$DDT_AUDIT_GENERATED_(EA)
  6
Continuous
 62
     7
100
AcDbLine
 10
110.8326345214
 20
472.3202941046
 30
0.0
 11
108.5824227258
 21
472.3202941046
 31
0.0
  0
LINE
  5
137
330
8F
100
AcDbEntity
  8
$DDT_AUDIT_GENERATED_(EA)
  6
Continuous
 62
     7
100
AcDbLine
 10
110.8318344702
 20
472.285564469
 30
0.0
 11
108.5824227258
 21
472.285564469
 31
0.0
  0
ELLIPSE
  5
138
330
8F
100
AcDbEntity
  8
$DDT_AUDIT_GENERATED_(EA)
  6
Continuous
 62
     7
100
AcDbEllipse
 10
117.0818344702
 20
472.3029292868
 30
0.0
 11
-8.500000000036374
 21
1.443289932012704E-12
 31
0.0
210
0.0
220
0.0
230
1.0
 40
0.1736481777
 41
6.171271385016849
 42
6.271420329891465
  0
ELLIPSE
  5
139
330
8F
100
AcDbEntity
  8
$DDT_AUDIT_GENERATED_(EA)
  6
Continuous
 62
     7
100
AcDbEllipse
 10
117.0818344489
 20
472.3029292878
 30
0.0
 11
-6.24999997873637
 21
-9.640621634332547E-10
 31
0.0
210
0.0
220
0.0
230
1.0
 40
0.1736481779
 41
-0.2778000710394624
 42
-0.2457987054924597
  0
LINE
  5
13A
330
8F
100
AcDbEntity
  8
$DDT_AUDIT_GENERATED_(EA)
  6
Continuous
 62
     7
100
AcDbLine
 10
111.0714527505
 20
472.6005630527
 30
0.0
 11
111.0714527505
 21
472.8854538829
 31
0.0
  0
LINE
  5
13B
330
8F
100
AcDbEntity
  8
$DDT_AUDIT_GENERATED_(EA)
  6
Continuous
 62
     7
100
AcDbLine
 10
111.0714527505
 20
472.6005630527
 30
0.0
 11
109.0674585731
 21
472.6938066753
 31
0.0
  0
LINE
  5
13C
330
8F
100
AcDbEntity
  8
$DDT_AUDIT_GENERATED_(EA)
  6
Continuous
 62
     7
100
AcDbLine
 10
111.0196889415
 20
472.5670168008
 30
0.0
 11
108.9911696831
 21
472.6614015482
 31
0.0
  0
ELLIPSE
  5
13D
330
8F
100
AcDbEntity
  8
$DDT_AUDIT_GENERATED_(EA)
  6
Continuous
 62
     7
100
AcDbEllipse
 10
117.0818345201
 20
472.3029292817
 30
0.0
 11
-6.250000050405385
 21
4.522271446205650E-9
 31
0.0
210
0.0
220
0.0
230
1.0
 40
0.1736481773
 41
-0.5395994561484763
 42
-0.5075980908052893
  0
LINE
  5
13E
330
8F
100
AcDbEntity
  8
$DDT_AUDIT_GENERATED_(EA)
  6
Continuous
 62
     7
100
AcDbLine
 10
111.7198685612
 20
472.8605487516
 30
0.0
 11
111.7198685612
 21
473.2094673348
 31
0.0
  0
LINE
  5
13F
330
8F
100
AcDbEntity
  8
$DDT_AUDIT_GENERATED_(EA)
  6
Continuous
 62
     7
100
AcDbLine
 10
111.7198685612
 20
472.8605487516
 30
0.0
 11
110.1470887301
 21
473.0182290866
 31
0.0
  0
LINE
  5
140
330
8F
100
AcDbEntity
  8
$DDT_AUDIT_GENERATED_(EA)
  6
Continuous
 62
     7
100
AcDbLine
 10
111.6198685612
 20
472.830472005
 30
0.0
 11
110.0274053954
 21
472.9901257088
 31
0.0
  0
ELLIPSE
  5
141
330
8F
100
AcDbEntity
  8
$DDT_AUDIT_GENERATED_(EA)
  6
Continuous
 62
     7
100
AcDbEllipse
 10
117.0818344927
 20
472.3029292829
 30
0.0
 11
-6.250000023859741
 21
2.846473057260823E-9
 31
0.0
210
0.0
220
0.0
230
1.0
 40
0.1736481777
 41
-0.801398844749686
 42
-0.7693974793404621
  0
LINE
  5
142
330
8F
100
AcDbEntity
  8
$DDT_AUDIT_GENERATED_(EA)
  6
Continuous
 62
     7
100
AcDbLine
 10
112.7336934875
 20
473.0825336055
 30
0.0
 11
112.7336934875
 21
473.4144925391
 31
0.0
  0
LINE
  5
143
330
8F
100
AcDbEntity
  8
$DDT_AUDIT_GENERATED_(EA)
  6
Continuous
 62
     7
100
AcDbLine
 10
112.7336934875
 20
473.0825336055
 30
0.0
 11
111.6010001417
 21
473.2792237408
 31
0.0
  0
LINE
  5
144
330
8F
100
AcDbEntity
  8
$DDT_AUDIT_GENERATED_(EA)
  6
Continuous
 62
     7
100
AcDbLine
 10
112.5922721313
 20
473.0579760447
 30
0.0
 11
111.4464847197
 21
473.2569399407
 31
0.0
  0
ELLIPSE
  5
145
330
8F
100
AcDbEntity
  8
$DDT_AUDIT_GENERATED_(EA)
  6
Continuous
 62
     7
100
AcDbEllipse
 10
117.0818344995
 20
472.302929278
 30
0.0
 11
-6.250000036580331
 21
4.538508457940793E-9
 31
0.0
210
0.0
220
0.0
230
1.0
 40
0.1736481781
 41
-1.063198231711967
 42
-1.03119686637113
  0
LINE
  5
146
330
8F
100
AcDbEntity
  8
$DDT_AUDIT_GENERATED_(EA)
  6
Continuous
 62
     7
100
AcDbLine
 10
114.0438370362
 20
473.2513897134
 30
0.0
 11
114.0438370362
 21
473.5216059127
 31
0.0
  0
LINE
  5
147
330
8F
100
AcDbEntity
  8
$DDT_AUDIT_GENERATED_(EA)
  6
Continuous
 62
     7
100
AcDbLine
 10
114.0438370362
 20
473.2513897134
 30
0.0
 11
113.3223923597
 21
473.4683768008
 31
0.0
  0
LINE
  5
148
330
8F
100
AcDbEntity
  8
$DDT_AUDIT_GENERATED_(EA)
  6
Continuous
 62
     7
100
AcDbLine
 10
113.8706319554
 20
473.2340248956
 30
0.0
 11
113.1426542344
 21
473.4529769103
 31
0.0
  0
ELLIPSE
  5
149
330
8F
100
AcDbEntity
  8
$DDT_AUDIT_GENERATED_(EA)
  6
Continuous
 62
     7
100
AcDbEllipse
 10
117.0818344849
 20
472.3029292772
 30
0.0
 11
-6.250000030296809
 21
2.548933286661281E-9
 31
0.0
210
0.0
220
0.0
230
1.0
 40
0.1736481784
 41
-1.32499762046144
 42
-1.292996255116201
  0
LINE
  5
14A
330
8F
100
AcDbEntity
  8
$DDT_AUDIT_GENERATED_(EA)
  6
Continuous
 62
     7
100
AcDbLine
 10
115.5610150894
 20
473.3556098106
 30
0.0
 11
115.5610150894
 21
473.5934456524
 31
0.0
  0
LINE
  5
14B
330
8F
100
AcDbEntity
  8
$DDT_AUDIT_GENERATED_(EA)
  6
Continuous
 62
     7
100
AcDbLine
 10
115.5610150894
 20
473.3556098106
 30
0.0
 11
115.212570643
 21
473.5814240502
 31
0.0
  0
LINE
  5
14C
330
8F
100
AcDbEntity
  8
$DDT_AUDIT_GENERATED_(EA)
  6
Continuous
 62
     7
100
AcDbLine
 10
115.3678299242
 20
473.3466211195
 30
0.0
 11
115.0176376824
 21
473.573568042
 31
0.0
  0
ARC
  5
14D
330
8F
100
AcDbEntity
  8
$DDT_AUDIT_GENERATED_(EA)
  6
Continuous
 62
     7
100
AcDbCircle
 10
117.0818344702
 20
437.4003832619
 30
0.0
 40
35.98784714392389
100
AcDbArc
 50
89.8407911065
 51
90.1592088935
  0
LINE
  5
14E
330
8F
100
AcDbEntity
  8
$DDT_AUDIT_GENERATED_(EA)
  6
Continuous
 62
     7
100
AcDbLine
 10
117.1818344702
 20
473.3880914698
 30
0.0
 11
117.1818344702
 21
473.6166070808
 31
0.0
  0
LINE
  5
14F
330
8F
100
AcDbEntity
  8
$DDT_AUDIT_GENERATED_(EA)
  6
Continuous
 62
     7
100
AcDbLine
 10
116.9818344702
 20
473.3880914698
 30
0.0
 11
116.9818344702
 21
473.6166070808
 31
0.0
  0
ELLIPSE
  5
150
330
8F
100
AcDbEntity
  8
$DDT_AUDIT_GENERATED_(EA)
  6
Continuous
 62
     7
100
AcDbEllipse
 10
117.0818344568
 20
472.3029292781
 30
0.0
 11
6.250000027524362
 21
2.316591363182852E-9
 31
0.0
210
0.0
220
0.0
230
1.0
 40
0.1736481783
 41
1.292996255217754
 42
1.324997620576279
  0
LINE
  5
151
330
8F
100
AcDbEntity
  8
$DDT_AUDIT_GENERATED_(EA)
  6
Continuous
 62
     7
100
AcDbLine
 10
118.7958390162
 20
473.3466211195
 30
0.0
 11
119.146031258
 21
473.573568042
 31
0.0
  0
LINE
  5
152
330
8F
100
AcDbEntity
  8
$DDT_AUDIT_GENERATED_(EA)
  6
Continuous
 62
     7
100
AcDbLine
 10
118.602653851
 20
473.3556098106
 30
0.0
 11
118.9510982974
 21
473.5814240502
 31
0.0
  0
LINE
  5
153
330
8F
100
AcDbEntity
  8
$DDT_AUDIT_GENERATED_(EA)
  6
Continuous
 62
     7
100
AcDbLine
 10
118.602653851
 20
473.3556098106
 30
0.0
 11
118.602653851
 21
473.5934456524
 31
0.0
  0
ELLIPSE
  5
154
330
8F
100
AcDbEntity
  8
$DDT_AUDIT_GENERATED_(EA)
  6
Continuous
 62
     7
100
AcDbEllipse
 10
117.0818344943
 20
472.302929294
 30
0.0
 11
6.249999969872555
 21
-3.740702192445156E-9
 31
0.0
210
0.0
220
0.0
230
1.0
 40
0.1736481773
 41
1.031196870165049
 42
1.063198235779029
  0
LINE
  5
155
330
8F
100
AcDbEntity
  8
$DDT_AUDIT_GENERATED_(EA)
  6
Continuous
 62
     7
100
AcDbLine
 10
120.293036985
 20
473.2340248956
 30
0.0
 11
121.021014706
 21
473.4529769103
 31
0.0
  0
LINE
  5
156
330
8F
100
AcDbEntity
  8
$DDT_AUDIT_GENERATED_(EA)
  6
Continuous
 62
     7
100
AcDbLine
 10
120.1198319042
 20
473.2513897134
 30
0.0
 11
120.8412765807
 21
473.4683768008
 31
0.0
  0
LINE
  5
157
330
8F
100
AcDbEntity
  8
$DDT_AUDIT_GENERATED_(EA)
  6
Continuous
 62
     7
100
AcDbLine
 10
120.1198319042
 20
473.2513897134
 30
0.0
 11
120.1198319042
 21
473.5216059127
 31
0.0
  0
ELLIPSE
  5
158
330
8F
100
AcDbEntity
  8
$DDT_AUDIT_GENERATED_(EA)
  6
Continuous
 62
     7
100
AcDbEllipse
 10
117.0818344199
 20
472.302929278
 30
0.0
 11
6.250000053400056
 21
6.371098093538307E-9
 31
0.0
210
0.0
220
0.0
230
1.0
 40
0.1736481777
 41
0.7693974777211571
 42
0.801398843029425
  0
LINE
  5
159
330
8F
100
AcDbEntity
  8
$DDT_AUDIT_GENERATED_(EA)
  6
Continuous
 62
     7
100
AcDbLine
 10
121.5713968091
 20
473.0579760447
 30
0.0
 11
122.7171842207
 21
473.2569399407
 31
0.0
  0
LINE
  5
15A
330
8F
100
AcDbEntity
  8
$DDT_AUDIT_GENERATED_(EA)
  6
Continuous
 62
     7
100
AcDbLine
 10
121.4299754529
 20
473.0825336055
 30
0.0
 11
122.5626687987
 21
473.2792237408
 31
0.0
  0
LINE
  5
15B
330
8F
100
AcDbEntity
  8
$DDT_AUDIT_GENERATED_(EA)
  6
Continuous
 62
     7
100
AcDbLine
 10
121.4299754529
 20
473.0825336055
 30
0.0
 11
121.4299754529
 21
473.4144925391
 31
0.0
  0
ELLIPSE
  5
15C
330
8F
100
AcDbEntity
  8
$DDT_AUDIT_GENERATED_(EA)
  6
Continuous
 62
     7
100
AcDbEllipse
 10
117.0818344894
 20
472.3029292887
 30
0.0
 11
6.249999980617807
 21
-1.711131236703523E-9
 31
0.0
210
0.0
220
0.0
230
1.0
 40
0.1736481778
 41
0.5075980936397501
 42
0.5395994591871013
  0
LINE
  5
15D
330
8F
100
AcDbEntity
  8
$DDT_AUDIT_GENERATED_(EA)
  6
Continuous
 62
     7
100
AcDbLine
 10
122.5438003792
 20
472.830472005
 30
0.0
 11
124.136263545
 21
472.9901257088
 31
0.0
  0
LINE
  5
15E
330
8F
100
AcDbEntity
  8
$DDT_AUDIT_GENERATED_(EA)
  6
Continuous
 62
     7
100
AcDbLine
 10
122.4438003792
 20
472.8605487516
 30
0.0
 11
124.0165802103
 21
473.0182290866
 31
0.0
  0
LINE
  5
15F
330
8F
100
AcDbEntity
  8
$DDT_AUDIT_GENERATED_(EA)
  6
Continuous
 62
     7
100
AcDbLine
 10
122.4438003792
 20
472.8605487516
 30
0.0
 11
122.4438003792
 21
473.2094673348
 31
0.0
  0
ELLIPSE
  5
160
330
8F
100
AcDbEntity
  8
$DDT_AUDIT_GENERATED_(EA)
  6
Continuous
 62
     7
100
AcDbEllipse
 10
117.0818343884
 20
472.302929283
 30
0.0
 11
6.250000081875192
 21
3.813338533831256E-9
 31
0.0
210
0.0
220
0.0
230
1.0
 40
0.1736481766
 41
0.2457987033619461
 42
0.2778000686356928
  0
LINE
  5
161
330
8F
100
AcDbEntity
  8
$DDT_AUDIT_GENERATED_(EA)
  6
Continuous
 62
     7
100
AcDbLine
 10
123.1439799989
 20
472.5670168008
 30
0.0
 11
125.1724992572
 21
472.6614015482
 31
0.0
  0
LINE
  5
162
330
8F
100
AcDbEntity
  8
$DDT_AUDIT_GENERATED_(EA)
  6
Continuous
 62
     7
100
AcDbLine
 10
123.0922161899
 20
472.6005630527
 30
0.0
 11
125.0962103673
 21
472.6938066753
 31
0.0
  0
LINE
  5
163
330
8F
100
AcDbEntity
  8
$DDT_AUDIT_GENERATED_(EA)
  6
Continuous
 62
     7
100
AcDbLine
 10
123.0922161899
 20
472.6005630527
 30
0.0
 11
123.0922161899
 21
472.8854538829
 31
0.0
  0
ELLIPSE
  5
164
330
8F
100
AcDbEntity
  8
$DDT_AUDIT_GENERATED_(EA)
  6
Continuous
 62
     7
100
AcDbEllipse
 10
117.0818344702
 20
472.3029292868
 30
0.0
 11
-2.750000000006326
 21
0.0
 31
0.0
210
0.0
220
0.0
230
1.0
 40
0.1736481777
 41
3.141592653589793
 42
3.205272045846729
  0
LINE
  5
165
330
8F
100
AcDbEntity
  8
$DDT_AUDIT_GENERATED_(EA)
  6
Continuous
 62
     7
100
AcDbLine
 10
119.8262606397
 20
472.5429844509
 30
0.0
 11
119.8262606397
 21
472.3333177179
 31
0.0
  0
LINE
  5
166
330
8F
100
AcDbEntity
  8
$DDT_AUDIT_GENERATED_(EA)
  6
Continuous
 62
     7
100
AcDbLine
 10
119.8318344702
 20
472.2725408557
 30
0.0
 11
122.2434550712
 21
472.2725408557
 31
0.0
  0
LINE
  5
167
330
8F
100
AcDbEntity
  8
$DDT_AUDIT_GENERATED_(EA)
  6
Continuous
 62
     7
100
AcDbLine
 10
119.8262606397
 20
472.3333177179
 30
0.0
 11
122.1659615116
 21
472.3333177179
 31
0.0
  0
ELLIPSE
  5
168
330
8F
100
AcDbEntity
  8
$DDT_AUDIT_GENERATED_(EA)
  6
Continuous
 62
     7
100
AcDbEllipse
 10
117.0818344712
 20
472.3029292867
 30
0.0
 11
5.249999998989765
 21
9.442446824436955E-11
 31
0.0
210
0.0
220
0.0
230
1.0
 40
0.1736481777
 41
-0.5569382849138638
 42
-0.4902592663839309
  0
LINE
  5
169
330
8F
100
AcDbEntity
  8
$DDT_AUDIT_GENERATED_(EA)
  6
Continuous
 62
     7
100
AcDbLine
 10
119.7621200401
 20
471.9991255157
 30
0.0
 11
121.5384412306
 21
471.8210389744
 31
0.0
  0
LINE
  5
16A
330
8F
100
AcDbEntity
  8
$DDT_AUDIT_GENERATED_(EA)
  6
Continuous
 62
     7
100
AcDbLine
 10
119.8208930742
 20
472.0634122523
 30
0.0
 11
121.7134412306
 21
471.873673281
 31
0.0
  0
LINE
  5
16B
330
8F
100
AcDbEntity
  8
$DDT_AUDIT_GENERATED_(EA)
  6
Continuous
 62
     7
100
AcDbLine
 10
121.7134412306
 20
472.2725408557
 30
0.0
 11
121.7134412306
 21
471.873673281
 31
0.0
  0
ELLIPSE
  5
16C
330
8F
100
AcDbEntity
  8
$DDT_AUDIT_GENERATED_(EA)
  6
Continuous
 62
     7
100
AcDbEllipse
 10
117.081834472
 20
472.3029292862
 30
0.0
 11
5.249999997687351
 21
2.883526750707688E-10
 31
0.0
210
0.0
220
0.0
230
1.0
 40
0.1736481776
 41
-1.080537060631698
 42
-1.013858042085593
  0
LINE
  5
16D
330
8F
100
AcDbEntity
  8
$DDT_AUDIT_GENERATED_(EA)
  6
Continuous
 62
     7
100
AcDbLine
 10
118.7823770588
 20
471.7306845388
 30
0.0
 11
119.5538212859
 21
471.4986592132
 31
0.0
  0
LINE
  5
16E
330
8F
100
AcDbEntity
  8
$DDT_AUDIT_GENERATED_(EA)
  6
Continuous
 62
     7
100
AcDbLine
 10
119.0485213891
 20
471.7721907072
 30
0.0
 11
119.8569301772
 21
471.5290476443
 31
0.0
  0
LINE
  5
16F
330
8F
100
AcDbEntity
  8
$DDT_AUDIT_GENERATED_(EA)
  6
Continuous
 62
     7
100
AcDbLine
 10
119.8569301772
 20
471.9896202475
 30
0.0
 11
119.8569301772
 21
471.5290476443
 31
0.0
  0
ARC
  5
170
330
8F
100
AcDbEntity
  8
$DDT_AUDIT_GENERATED_(EA)
  6
Continuous
 62
     7
100
AcDbCircle
 10
117.0818344702
 20
501.6085269233
 30
0.0
 40
30.21725070590848
100
AcDbArc
 50
269.6681757198
 51
270.3318242802
  0
LINE
  5
171
330
8F
100
AcDbEntity
  8
$DDT_AUDIT_GENERATED_(EA)
  6
Continuous
 62
     7
100
AcDbLine
 10
116.9068344702
 20
471.6294031331
 30
0.0
 11
116.9068344702
 21
471.3917829686
 31
0.0
  0
LINE
  5
172
330
8F
100
AcDbEntity
  8
$DDT_AUDIT_GENERATED_(EA)
  6
Continuous
 62
     7
100
AcDbLine
 10
117.2568344702
 20
471.6294031331
 30
0.0
 11
117.2568344702
 21
471.3917829686
 31
0.0
  0
ELLIPSE
  5
173
330
8F
100
AcDbEntity
  8
$DDT_AUDIT_GENERATED_(EA)
  6
Continuous
 62
     7
100
AcDbEllipse
 10
117.0818344684
 20
472.3029292863
 30
0.0
 11
-5.249999997799488
 21
2.747246874434950E-10
 31
0.0
210
0.0
220
0.0
230
1.0
 40
0.1736481776
 41
1.013858042078994
 42
1.080537060623931
  0
LINE
  5
174
330
8F
100
AcDbEntity
  8
$DDT_AUDIT_GENERATED_(EA)
  6
Continuous
 62
     7
100
AcDbLine
 10
115.1151475513
 20
471.7721907072
 30
0.0
 11
114.3067387632
 21
471.5290476443
 31
0.0
  0
LINE
  5
175
330
8F
100
AcDbEntity
  8
$DDT_AUDIT_GENERATED_(EA)
  6
Continuous
 62
     7
100
AcDbLine
 10
115.3812918816
 20
471.7306845388
 30
0.0
 11
114.6098476545
 21
471.4986592132
 31
0.0
  0
LINE
  5
176
330
8F
100
AcDbEntity
  8
$DDT_AUDIT_GENERATED_(EA)
  6
Continuous
 62
     7
100
AcDbLine
 10
114.3067387632
 20
471.9896202475
 30
0.0
 11
114.3067387632
 21
471.5290476443
 31
0.0
  0
ELLIPSE
  5
177
330
8F
100
AcDbEntity
  8
$DDT_AUDIT_GENERATED_(EA)
  6
Continuous
 62
     7
100
AcDbEllipse
 10
117.0818344671
 20
472.3029292865
 30
0.0
 11
-5.249999996860678
 21
2.832178935818774E-10
 31
0.0
210
0.0
220
0.0
230
1.0
 40
0.1736481777
 41
0.4902592664830308
 42
0.5569382850284046
  0
LINE
  5
178
330
8F
100
AcDbEntity
  8
$DDT_AUDIT_GENERATED_(EA)
  6
Continuous
 62
     7
100
AcDbLine
 10
114.3427758662
 20
472.0634122523
 30
0.0
 11
112.4502277098
 21
471.873673281
 31
0.0
  0
LINE
  5
179
330
8F
100
AcDbEntity
  8
$DDT_AUDIT_GENERATED_(EA)
  6
Continuous
 62
     7
100
AcDbLine
 10
114.4015489003
 20
471.9991255157
 30
0.0
 11
112.6252277098
 21
471.8210389744
 31
0.0
  0
LINE
  5
17A
330
8F
100
AcDbEntity
  8
$DDT_AUDIT_GENERATED_(EA)
  6
Continuous
 62
     7
100
AcDbLine
 10
112.4502277098
 20
472.2725408557
 30
0.0
 11
112.4502277098
 21
471.873673281
 31
0.0
  0
LINE
  5
17B
330
8F
100
AcDbEntity
  8
$DDT_AUDIT_GENERATED_(EA)
  6
Continuous
 62
     7
100
AcDbLine
 10
114.3374083007
 20
472.5429844509
 30
0.0
 11
114.3374083007
 21
472.3333177179
 31
0.0
  0
ELLIPSE
  5
17C
330
8F
100
AcDbEntity
  8
$DDT_AUDIT_GENERATED_(EA)
  6
Continuous
 62
     7
100
AcDbEllipse
 10
117.0818344702
 20
472.3029292868
 30
0.0
 11
2.750000000002601
 21
0.0
 31
0.0
210
0.0
220
0.0
230
1.0
 40
0.1736481777
 41
3.077913261332822
 42
3.141592653589793
  0
LINE
  5
17D
330
8F
100
AcDbEntity
  8
$DDT_AUDIT_GENERATED_(EA)
  6
Continuous
 62
     7
100
AcDbLine
 10
114.3374083007
 20
472.3333177179
 30
0.0
 11
111.9977074287
 21
472.3333177179
 31
0.0
  0
LINE
  5
17E
330
8F
100
AcDbEntity
  8
$DDT_AUDIT_GENERATED_(EA)
  6
Continuous
 62
     7
100
AcDbLine
 10
114.3318344702
 20
472.2725408557
 30
0.0
 11
111.9202138692
 21
472.2725408557
 31
0.0
  0
LINE
  5
17F
330
8F
100
AcDbEntity
  8
$DDT_AUDIT_GENERATED_(EA)
  6
Continuous
 62
     7
100
AcDbLine
 10
114.7925916886
 20
472.9263863267
 30
0.0
 11
114.7925916886
 21
472.5675287416
 31
0.0
  0
ELLIPSE
  5
180
330
8F
100
AcDbEntity
  8
$DDT_AUDIT_GENERATED_(EA)
  6
Continuous
 62
     7
100
AcDbEllipse
 10
117.0818344701
 20
472.3029292868
 30
0.0
 11
-2.749999999926253
 21
-4.163336342344337E-12
 31
0.0
210
0.0
220
0.0
230
1.0
 40
0.1736481777
 41
-0.58727816786317
 42
-0.4599193833471853
  0
LINE
  5
181
330
8F
100
AcDbEntity
  8
$DDT_AUDIT_GENERATED_(EA)
  6
Continuous
 62
     7
100
AcDbLine
 10
114.7925916886
 20
472.5675287416
 30
0.0
 11
113.2256902853
 21
472.72461973
 31
0.0
  0
LINE
  5
182
330
8F
100
AcDbEntity
  8
$DDT_AUDIT_GENERATED_(EA)
  6
Continuous
 62
     7
100
AcDbLine
 10
114.6175916886
 20
472.514894435
 30
0.0
 11
112.9929234472
 21
472.6777768852
 31
0.0
  0
LINE
  5
183
330
8F
100
AcDbEntity
  8
$DDT_AUDIT_GENERATED_(EA)
  6
Continuous
 62
     7
100
AcDbLine
 10
115.8611758311
 20
472.9926366968
 30
0.0
 11
115.8611758311
 21
472.7308405551
 31
0.0
  0
ELLIPSE
  5
184
330
8F
100
AcDbEntity
  8
$DDT_AUDIT_GENERATED_(EA)
  6
Continuous
 62
     7
100
AcDbEllipse
 10
117.0818344702
 20
472.3029292868
 30
0.0
 11
-2.750000000005584
 21
7.771561172376096E-13
 31
0.0
210
0.0
220
0.0
230
1.0
 40
0.1736481777
 41
-1.110876943452745
 42
-0.9835181589389554
  0
LINE
  5
185
330
8F
100
AcDbEntity
  8
$DDT_AUDIT_GENERATED_(EA)
  6
Continuous
 62
     7
100
AcDbLine
 10
115.8611758311
 20
472.7308405551
 30
0.0
 11
115.1258950605
 21
472.9519890896
 31
0.0
  0
LINE
  5
186
330
8F
100
AcDbEntity
  8
$DDT_AUDIT_GENERATED_(EA)
  6
Continuous
 62
     7
100
AcDbLine
 10
115.5580669398
 20
472.7004521241
 30
0.0
 11
114.8037597976
 21
472.9273231721
 31
0.0
  0
ARC
  5
187
330
8F
100
AcDbEntity
  8
$DDT_AUDIT_GENERATED_(EA)
  6
Continuous
 62
     7
100
AcDbCircle
 10
117.0818344702
 20
456.9749734716
 30
0.0
 40
15.80548925698495
100
AcDbArc
 50
89.3656022836
 51
90.6343977164
  0
LINE
  5
188
330
8F
100
AcDbEntity
  8
$DDT_AUDIT_GENERATED_(EA)
  6
Continuous
 62
     7
100
AcDbLine
 10
117.2568344702
 20
472.7794938899
 30
0.0
 11
117.2568344702
 21
473.0171140543
 31
0.0
  0
LINE
  5
189
330
8F
100
AcDbEntity
  8
$DDT_AUDIT_GENERATED_(EA)
  6
Continuous
 62
     7
100
AcDbLine
 10
116.9068344702
 20
472.7794938899
 30
0.0
 11
116.9068344702
 21
473.0171140543
 31
0.0
  0
ELLIPSE
  5
18A
330
8F
100
AcDbEntity
  8
$DDT_AUDIT_GENERATED_(EA)
  6
Continuous
 62
     7
100
AcDbEllipse
 10
117.0818344702
 20
472.3029292868
 30
0.0
 11
2.750000000030247
 21
3.830269434956790E-12
 31
0.0
210
0.0
220
0.0
230
1.0
 40
0.1736481777
 41
0.9835181589360104
 42
1.110876943448944
  0
LINE
  5
18B
330
8F
100
AcDbEntity
  8
$DDT_AUDIT_GENERATED_(EA)
  6
Continuous
 62
     7
100
AcDbLine
 10
118.3024931093
 20
472.9926366968
 30
0.0
 11
118.3024931093
 21
472.7308405551
 31
0.0
  0
LINE
  5
18C
330
8F
100
AcDbEntity
  8
$DDT_AUDIT_GENERATED_(EA)
  6
Continuous
 62
     7
100
AcDbLine
 10
118.6056020006
 20
472.7004521241
 30
0.0
 11
119.3599091428
 21
472.9273231721
 31
0.0
  0
LINE
  5
18D
330
8F
100
AcDbEntity
  8
$DDT_AUDIT_GENERATED_(EA)
  6
Continuous
 62
     7
100
AcDbLine
 10
118.3024931093
 20
472.7308405551
 30
0.0
 11
119.0377738799
 21
472.9519890896
 31
0.0
  0
ELLIPSE
  5
18E
330
8F
100
AcDbEntity
  8
$DDT_AUDIT_GENERATED_(EA)
  6
Continuous
 62
     7
100
AcDbEllipse
 10
117.0818344702
 20
472.3029292868
 30
0.0
 11
2.749999999992433
 21
1.693090112553364E-12
 31
0.0
210
0.0
220
0.0
230
1.0
 40
0.1736481777
 41
0.4599193833417748
 42
0.587278167856008
  0
LINE
  5
18F
330
8F
100
AcDbEntity
  8
$DDT_AUDIT_GENERATED_(EA)
  6
Continuous
 62
     7
100
AcDbLine
 10
119.3710772518
 20
472.9263863267
 30
0.0
 11
119.3710772518
 21
472.5675287416
 31
0.0
  0
LINE
  5
190
330
8F
100
AcDbEntity
  8
$DDT_AUDIT_GENERATED_(EA)
  6
Continuous
 62
     7
100
AcDbLine
 10
119.5460772518
 20
472.514894435
 30
0.0
 11
121.1707454931
 21
472.6777768852
 31
0.0
  0
LINE
  5
191
330
8F
100
AcDbEntity
  8
$DDT_AUDIT_GENERATED_(EA)
  6
Continuous
 62
     7
100
AcDbLine
 10
119.3710772518
 20
472.5675287416
 30
0.0
 11
120.9379786551
 21
472.72461973
 31
0.0
  0
LINE
  5
192
330
8F
100
AcDbEntity
  8
$DDT_AUDIT_GENERATED_(EA)
  6
Continuous
 62
     7
100
AcDbLine
 10
108.0818344702
 20
473.3257580185
 30
0.0
 11
108.0818344702
 21
472.1059677362
 31
0.0
  0
LINE
  5
193
330
8F
100
AcDbEntity
  8
$DDT_AUDIT_GENERATED_(EA)
  6
Continuous
 62
     7
100
AcDbLine
 10
126.0818344702
 20
472.1059677362
 30
0.0
 11
126.0818344702
 21
473.3257580185
 31
0.0
  0
LINE
  5
194
330
8F
100
AcDbEntity
  8
$DDT_AUDIT_GENERATED_(EA)
  6
Continuous
 62
     7
100
AcDbLine
 10
110.8318344702
 20
472.3029292868
 30
0.0
 11
110.8318344702
 21
472.1059677362
 31
0.0
  0
LINE
  5
195
330
8F
100
AcDbEntity
  8
$DDT_AUDIT_GENERATED_(EA)
  6
Continuous
 62
     7
100
AcDbLine
 10
123.3318344702
 20
472.1059677362
 30
0.0
 11
123.3318344702
 21
472.3029292868
 31
0.0
  0
LINE
  5
196
330
8F
100
AcDbEntity
  8
$DDT_AUDIT_GENERATED_(EA)
  6
Continuous
 62
     7
100
AcDbLine
 10
114.3318344702
 20
472.3029292868
 30
0.0
 11
114.3318344702
 21
472.1059677362
 31
0.0
  0
LINE
  5
197
330
8F
100
AcDbEntity
  8
$DDT_AUDIT_GENERATED_(EA)
  6
Continuous
 62
     7
100
AcDbLine
 10
119.8318344702
 20
472.1059677362
 30
0.0
 11
119.8318344702
 21
472.3029292868
 31
0.0
  0
LINE
  5
198
330
8F
100
AcDbEntity
  8
$DDT_AUDIT_GENERATED_(EA)
  6
Continuous
 62
     7
100
AcDbLine
 10
116.5622045263
 20
472.468243147
 30
0.0
 11
116.5622045263
 21
472.3029292868
 31
0.0
  0
LINE
  5
199
330
8F
100
AcDbEntity
  8
$DDT_AUDIT_GENERATED_(EA)
  6
Continuous
 62
     7
100
AcDbLine
 10
117.6014644141
 20
472.3029292868
 30
0.0
 11
117.6014644141
 21
472.468243147
 31
0.0
  0
ENDBLK
  5
19B
330
8F
100
AcDbEntity
  8
0
100
AcDbBlockEnd
  0
BLOCK
  5
244
330
19C
100
AcDbEntity
  8
0
100
AcDbBlockBegin
  2
SE1
 70
     0
 10
0.0
 20
0.0
 30
0.0
  3
SE1
  1

  0
LINE
  5
19E
330
19C
100
AcDbEntity
  8
$DDT_AUDIT_GENERATED_(91)
  6
Continuous
 62
     7
100
AcDbLine
 10
389.6759327232
 20
673.9441347202
 30
0.0
 11
389.6760423187
 21
673.9441343604
 31
0.0
  0
LINE
  5
19F
330
19C
100
AcDbEntity
  8
$DDT_AUDIT_GENERATED_(91)
  6
Continuous
 62
     7
100
AcDbLine
 10
389.6769893193
 20
673.94413271
 30
0.0
 11
389.6755469307
 21
673.9441362217
 31
0.0
  0
ARC
  5
1A0
330
19C
100
AcDbEntity
  8
$DDT_AUDIT_GENERATED_(91)
  6
Continuous
 62
     7
100
AcDbCircle
 10
389.2259203029
 20
1180.4715140068
 30
0.0
 40
506.5275871820005
100
AcDbArc
 50
269.9624837084
 51
270.0498361441
  0
SPLINE
  5
1A1
330
19C
100
AcDbEntity
  8
$DDT_AUDIT_GENERATED_(91)
  6
Continuous
 62
     7
100
AcDbSpline
210
0.0
220
0.0
230
1.0
 70
     8
 71
     3
 72
    50
 73
    46
 74
     0
 42
0.0000000002875951
 43
0.0000000001
 40
0.0
 40
0.0
 40
0.0
 40
0.0
 40
0.0103689659665431
 40
0.0307699917040466
 40
0.0511710174415501
 40
0.091973068916557
 40
0.1123740946540605
 40
0.132775120391564
 40
0.1531761461290675
 40
0.173577171866571
 40
0.1939781976040744
 40
0.2143792233415779
 40
0.2551812748165849
 40
0.2755823005540884
 40
0.2959833262915919
 40
0.3163843520290954
 40
0.3367853777665988
 40
0.3571864035041023
 40
0.3775874292416058
 40
0.3979884549791093
 40
0.4183894807166128
 40
0.4387905064541163
 40
0.4591915321916197
 40
0.4795925579291233
 40
0.489793070797875
 40
0.4999935836666267
 40
0.5101940965353785
 40
0.5203946094041302
 40
0.5407956351416336
 40
0.5611966608791372
 40
0.5815976866166407
 40
0.6223997380916476
 40
0.6632017895666547
 40
0.7040038410416616
 40
0.7448058925166685
 40
0.765206918254172
 40
0.7856079439916756
 40
0.806008969729179
 40
0.8264099954666825
 40
0.8672120469416894
 40
0.9080140984166964
 40
0.9488161498917034
 40
0.9692171756292068
 40
0.9896182013667103
 40
1.0
 40
1.0
 40
1.0
 40
1.0
 10
354.1231471311197
 20
673.944133841839
 30
0.0
 10
354.1679754308406
 20
673.9441331469827
 30
0.0
 10
354.3158797891755
 20
673.944131584385
 30
0.0
 10
354.5898229095249
 20
673.9441281564309
 30
0.0
 10
355.0822173435349
 20
673.9441217601777
 30
0.0
 10
355.6524578457885
 20
673.9441152058092
 30
0.0
 10
356.3168813946687
 20
673.9441091415131
 30
0.0
 10
356.8590220207745
 20
673.9441047481669
 30
0.0
 10
357.4417170524583
 20
673.9441004195367
 30
0.0
 10
358.0616979308525
 20
673.9440960654623
 30
0.0
 10
358.7156960970893
 20
673.9440915957837
 30
0.0
 10
359.6321403202458
 20
673.9440855335291
 30
0.0
 10
360.6138899722392
 20
673.9440793944337
 30
0.0
 10
361.6582159062207
 20
673.9440733328655
 30
0.0
 10
362.4684609504893
 20
673.9440688194122
 30
0.0
 10
363.3014190413283
 20
673.9440643326413
 30
0.0
 10
364.1557656574699
 20
673.9440598793859
 30
0.0
 10
365.0301762776459
 20
673.9440554664794
 30
0.0
 10
365.9223404369809
 20
673.9440510388603
 30
0.0
 10
366.8299476705995
 20
673.944046541467
 30
0.0
 10
367.7506875136262
 20
673.9440419192377
 30
0.0
 10
368.6822495011857
 20
673.9440371171113
 30
0.0
 10
369.6210166052147
 20
673.9440325501952
 30
0.0
 10
370.4063125989112
 20
673.9440292863638
 30
0.0
 10
371.0363408068275
 20
673.9440267182938
 30
0.0
 10
371.5093067807442
 20
673.944024793131
 30
0.0
 10
371.9822666841401
 20
673.9440228482497
 30
0.0
 10
372.612391393983
 20
673.94402022261
 30
0.0
 10
373.3982306025195
 20
673.9440168681132
 30
0.0
 10
374.3356159029432
 20
673.9440126997928
 30
0.0
 10
375.5755965421572
 20
673.9440070475856
 30
0.0
 10
377.1026276106597
 20
673.9439999854642
 30
0.0
 10
378.8793182397171
 20
673.9439917361804
 30
0.0
 10
380.5637371909475
 20
673.9439841106275
 30
0.0
 10
381.8845755432294
 20
673.9439779615675
 30
0.0
 10
382.8879691354761
 20
673.943972977135
 30
0.0
 10
383.6122231001973
 20
673.9439691253291
 30
0.0
 10
384.3065331507798
 20
673.9439650791523
 30
0.0
 10
385.185965329947
 20
673.9439592954311
 30
0.0
 10
386.1864357582162
 20
673.9439510936365
 30
0.0
 10
387.2072302069413
 20
673.9439407972324
 30
0.0
 10
387.9394595589786
 20
673.9439328014569
 30
0.0
 10
388.4362141360808
 20
673.9439309552582
 30
0.0
 10
388.7068228616152
 20
673.9439326534555
 30
0.0
 10
388.8492869766035
 20
673.9439354033261
 30
0.0
 10
388.8942547686631
 20
673.9440354092278
 30
0.0
  0
LINE
  5
1A2
330
19C
100
AcDbEntity
  8
$DDT_AUDIT_GENERATED_(91)
  6
Continuous
 62
     7
100
AcDbLine
 10
353.3444398521
 20
685.2611321864
 30
0.0
 11
353.3440019003
 21
681.8009261102
 31
0.0
  0
ARC
  5
1A3
330
19C
100
AcDbEntity
  8
$DDT_AUDIT_GENERATED_(91)
  6
Continuous
 62
     7
100
AcDbCircle
 10
373.7169866911
 20
-318.3567317002
 30
0.0
 40
1003.823981257341
100
AcDbArc
 50
89.2531087081
 51
91.1629097259
  0
LINE
  5
1A4
330
19C
100
AcDbEntity
  8
$DDT_AUDIT_GENERATED_(91)
  6
Continuous
 62
     7
100
AcDbLine
 10
353.8312973765
 20
685.7610689016
 30
0.0
 11
386.3232048984
 21
685.7610705151
 31
0.0
  0
ARC
  5
1A5
330
19C
100
AcDbEntity
  8
$DDT_AUDIT_GENERATED_(91)
  6
Continuous
 62
     7
100
AcDbCircle
 10
373.7166478836
 20
-318.640085411
 30
0.0
 40
1004.107274928873
100
AcDbArc
 50
91.1623442782
 51
91.1628186063
  0
ARC
  5
1A6
330
19C
100
AcDbEntity
  8
$DDT_AUDIT_GENERATED_(91)
  6
Continuous
 62
     7
100
AcDbCircle
 10
373.7166478836
 20
-318.640085411
 30
0.0
 40
1004.107274928873
100
AcDbArc
 50
89.2530330078
 51
89.2596231287
  0
ARC
  5
1A7
330
19C
100
AcDbEntity
  8
$DDT_AUDIT_GENERATED_(91)
  6
Continuous
 62
     7
100
AcDbCircle
 10
386.3177269012
 20
685.2610705148
 30
0.0
 40
0.4999999999999987
100
AcDbArc
 50
14.1007914427
 51
90.0000028451
  0
ARC
  5
1A8
330
19C
100
AcDbEntity
  8
$DDT_AUDIT_GENERATED_(91)
  6
Continuous
 62
     7
100
AcDbCircle
 10
353.8444398481
 20
685.2610689023
 30
0.0
 40
0.4999999999999976
100
AcDbArc
 50
92.6182099793
 51
111.0807924514
  0
ARC
  5
1A9
330
19C
100
AcDbEntity
  8
$DDT_AUDIT_GENERATED_(91)
  6
Continuous
 62
     7
100
AcDbCircle
 10
-52.4767267875
 20
658.8242972915
 30
0.0
 40
442.4092105238511
100
AcDbArc
 50
356.2266222411
 51
358.756101333
  0
LINE
  5
1AA
330
19C
100
AcDbEntity
  8
$DDT_AUDIT_GENERATED_(91)
  6
Continuous
 62
     7
100
AcDbLine
 10
353.3544389358
 20
673.9441343509
 30
0.0
 11
354.1231471311
 21
673.9441338418
 31
0.0
  0
SPLINE
  5
1AB
330
19C
100
AcDbEntity
  8
$DDT_AUDIT_GENERATED_(91)
  6
Continuous
 62
     7
100
AcDbSpline
210
0.0
220
0.0
230
1.0
 70
     8
 71
     3
 72
     8
 73
     4
 74
     0
 42
0.0000000001630327
 43
0.0000000001
 40
0.812675821917431
 40
0.812675821917431
 40
0.812675821917431
 40
0.812675821917431
 40
0.8209654713364785
 40
0.8209654713364785
 40
0.8209654713364785
 40
0.8209654713364785
 10
389.6764897178988
 20
662.4380425366662
 30
0.0
 10
389.6789824169565
 20
662.6075497770438
 30
0.0
 10
389.6801959096939
 20
662.7770288626924
 30
0.0
 10
389.6806387853562
 20
662.9464847110896
 30
0.0
  0
SPLINE
  5
1AC
330
19C
100
AcDbEntity
  8
$DDT_AUDIT_GENERATED_(91)
  6
Continuous
 62
     7
100
AcDbSpline
210
0.0
220
0.0
230
1.0
 70
     8
 71
     3
 72
    26
 73
    22
 74
     0
 42
0.0000000005401612
 43
0.0000000001
 40
0.0
 40
0.0
 40
0.0
 40
0.0
 40
0.1250000000000003
 40
0.1250000000000003
 40
0.2500000000000004
 40
0.2500000000000004
 40
0.3750000000000006
 40
0.3750000000000006
 40
0.5000000000000007
 40
0.5000000000000007
 40
0.5625000000000008
 40
0.5625000000000008
 40
0.6250000000000009
 40
0.6250000000000009
 40
0.7500000000000008
 40
0.7500000000000008
 40
0.8125000000000006
 40
0.8125000000000006
 40
0.8750000000000004
 40
0.8750000000000004
 40
1.0
 40
1.0
 40
1.0
 40
1.0
 10
353.3418155514265
 20
673.9441343592225
 30
0.0
 10
353.3387213404262
 20
673.265394100916
 30
0.0
 10
353.3320065794258
 20
672.5625116244157
 30
0.0
 10
353.3252972042685
 20
671.1098496668368
 30
0.0
 10
353.3266783669592
 20
670.3600677622823
 30
0.0
 10
353.3413342212601
 20
668.8123900505329
 30
0.0
 10
353.3536248814416
 20
668.0262530459912
 30
0.0
 10
353.3787245379191
 20
666.4432858781993
 30
0.0
 10
353.3890635419273
 20
665.6442843775818
 30
0.0
 10
353.4036427814645
 20
664.4344283600329
 30
0.0
 10
353.4082830800893
 20
664.0292435240444
 30
0.0
 10
353.4226836262984
 20
663.2150555199884
 30
0.0
 10
353.4332184368883
 20
662.80825197288
 30
0.0
 10
353.4905872333244
 20
661.6009071865675
 30
0.0
 10
353.568526460472
 20
660.8096827817067
 30
0.0
 10
353.7488948368734
 20
659.6432311894712
 30
0.0
 10
353.8194421675061
 20
659.2578014674772
 30
0.0
 10
353.9798781214022
 20
658.4935486390827
 30
0.0
 10
354.0698025846038
 20
658.1145353355531
 30
0.0
 10
354.3619554605798
 20
657.0026587458673
 30
0.0
 10
354.5869983906189
 20
656.2891837471358
 30
0.0
 10
354.8379733503536
 20
655.6013988671403
 30
0.0
  0
SPLINE
  5
1AD
330
19C
100
AcDbEntity
  8
$DDT_AUDIT_GENERATED_(91)
  6
Continuous
 62
     7
100
AcDbSpline
210
0.0
220
0.0
230
1.0
 70
     8
 71
     3
 72
     8
 73
     4
 74
     0
 42
0.0000000005190811
 43
0.0000000001
 40
0.0
 40
0.0
 40
0.0
 40
0.0
 40
0.1130954279782009
 40
0.1130954279782009
 40
0.1130954279782009
 40
0.1130954279782009
 10
354.8379733503536
 20
651.3882581582322
 30
0.0
 10
354.5645475260994
 20
652.0303618397538
 30
0.0
 10
354.335563542976
 20
652.717908429907
 30
0.0
 10
354.1627431021414
 20
653.4540865993298
 30
0.0
  0
SPLINE
  5
1AE
330
19C
100
AcDbEntity
  8
$DDT_AUDIT_GENERATED_(91)
  6
Continuous
 62
     7
100
AcDbSpline
210
0.0
220
0.0
230
1.0
 70
     8
 71
     3
 72
    14
 73
    10
 74
     0
 42
0.0000000006235341
 43
0.0000000001
 40
0.0
 40
0.0
 40
0.0
 40
0.0
 40
0.1250000000000001
 40
0.1250000000000001
 40
0.2500000000000001
 40
0.2500000000000001
 40
0.3750000000000002
 40
0.3750000000000002
 40
0.4997715693591906
 40
0.4997715693591906
 40
0.4997715693591906
 40
0.4997715693591906
 10
353.3418155514265
 20
673.9441343592225
 30
0.0
 10
353.3425926359083
 20
675.1818673648949
 30
0.0
 10
353.3420660172185
 20
676.2966334185404
 30
0.0
 10
353.3412352676124
 20
678.2843862318347
 30
0.0
 10
353.3422088444374
 20
679.1403423440614
 30
0.0
 10
353.3447047023556
 20
680.5240826888604
 30
0.0
 10
353.3428792523989
 20
681.0648085907851
 30
0.0
 10
353.3437380817661
 20
681.7771241400973
 30
0.0
 10
353.3444669132104
 20
681.9591050784315
 30
0.0
 10
353.3443569653919
 20
681.9592280812126
 30
0.0
  0
LINE
  5
1AF
330
19C
100
AcDbEntity
  8
$DDT_AUDIT_GENERATED_(91)
  6
Continuous
 62
     7
100
AcDbLine
 10
354.8379733504
 20
655.6013988671
 30
0.0
 11
354.8379733504
 21
655.1697344644
 31
0.0
  0
LINE
  5
1B0
330
19C
100
AcDbEntity
  8
$DDT_AUDIT_GENERATED_(91)
  6
Continuous
 62
     7
100
AcDbLine
 10
354.8379733433
 20
655.1697768751
 30
0.0
 11
354.8379733504
 21
651.3882581582
 31
0.0
  0
ARC
  5
1B1
330
19C
100
AcDbEntity
  8
$DDT_AUDIT_GENERATED_(91)
  6
Continuous
 62
     7
100
AcDbCircle
 10
400.5908185598
 20
636.0595467339
 30
0.0
 40
47.60113061199045
100
AcDbArc
 50
187.8232100716
 51
191.7839625741
  0
ARC
  5
1B2
330
19C
100
AcDbEntity
  8
$DDT_AUDIT_GENERATED_(91)
  6
Continuous
 62
     7
100
AcDbCircle
 10
371.0759646362
 20
664.9496747882
 30
0.0
 40
45.7966562715469
100
AcDbArc
 50
250.6126793932
 51
287.3583535976
  0
ARC
  5
1B3
330
19C
100
AcDbEntity
  8
$DDT_AUDIT_GENERATED_(91)
  6
Continuous
 62
     7
100
AcDbCircle
 10
353.8443216851
 20
685.2610689023
 30
0.0
 40
0.4999999994616058
100
AcDbArc
 50
90.0629194219
 51
179.9820528504
  0
LINE
  5
1B4
330
19C
100
AcDbEntity
  8
$DDT_AUDIT_GENERATED_(91)
  6
Continuous
 62
     7
100
AcDbLine
 10
353.3536870884
 20
673.9441343492
 30
0.0
 11
353.340218664
 21
672.2558961956
 31
0.0
  0
ARC
  5
1B5
330
19C
100
AcDbEntity
  8
$DDT_AUDIT_GENERATED_(91)
  6
Continuous
 62
     7
100
AcDbCircle
 10
-1240.2493346942
 20
666.626333313
 30
0.0
 40
1629.931151666005
100
AcDbArc
 50
359.8526166198
 51
0.2572381802
  0
SPLINE
  5
1B6
330
19C
100
AcDbEntity
  8
$DDT_AUDIT_GENERATED_(91)
  6
Continuous
 62
     7
100
AcDbSpline
210
0.0
220
0.0
230
1.0
 70
     8
 71
     3
 72
     8
 73
     4
 74
     0
 42
0.0000000008479113
 43
0.0000000001
 40
0.0
 40
0.0
 40
0.0
 40
0.0
 40
1.0
 40
1.0
 40
1.0
 40
1.0
 10
389.6761279941703
 20
673.944134078399
 30
0.0
 10
388.726768092829
 20
677.7237132013431
 30
0.0
 10
387.768991446579
 20
681.5364841949771
 30
0.0
 10
386.8027980554202
 20
685.3824470593008
 30
0.0
  0
ARC
  5
1B7
330
19C
100
AcDbEntity
  8
$DDT_AUDIT_GENERATED_(91)
  6
Continuous
 62
     7
100
AcDbCircle
 10
35.8252037778
 20
652.8561388147
 30
0.0
 40
353.9749326551133
100
AcDbArc
 50
359.4123013125
 51
1.5184660639
  0
ARC
  5
1B8
330
19C
100
AcDbEntity
  8
$DDT_AUDIT_GENERATED_(91)
  6
Continuous
 62
     7
100
AcDbCircle
 10
374.3895016167
 20
631.7150514455
 30
0.0
 40
14.6864974055694
100
AcDbArc
 50
314.6024223444
 51
352.2588008965
  0
ARC
  5
1B9
330
19C
100
AcDbEntity
  8
$DDT_AUDIT_GENERATED_(91)
  6
Continuous
 62
     7
100
AcDbCircle
 10
367.6191251218
 20
629.2647581957
 30
0.0
 40
13.92755634246438
100
AcDbArc
 50
192.0411909151
 51
212.7599733659
  0
ARC
  5
1BA
330
19C
100
AcDbEntity
  8
$DDT_AUDIT_GENERATED_(91)
  6
Continuous
 62
     7
100
AcDbCircle
 10
471.1090567955
 20
639.1160377466
 30
0.0
 40
118.0507129262166
100
AcDbArc
 50
177.645896626
 51
184.6338092066
  0
SPLINE
  5
1BB
330
19C
100
AcDbEntity
  8
$DDT_AUDIT_GENERATED_(91)
  6
Continuous
 62
     7
100
AcDbSpline
210
0.0
220
0.0
230
1.0
 70
     8
 71
     3
 72
    10
 73
     6
 74
     0
 42
0.0000000283383315
 43
0.0000000001
 40
0.0
 40
0.0
 40
0.0
 40
0.0
 40
0.0622667377701252
 40
0.4066054175999851
 40
0.5194712339509915
 40
0.5194712339509915
 40
0.5194712339509915
 40
0.5194712339509915
 10
384.3359509125945
 20
620.9773736059149
 30
0.0
 10
384.350733699342
 20
620.9839040412703
 30
0.0
 10
384.433000145067
 20
621.0202396298257
 30
0.0
 10
384.4840114257216
 20
621.0400711045552
 30
0.0
 10
384.5053323788351
 20
621.0468779520858
 30
0.0
 10
384.505236595699
 20
621.0469188943575
 30
0.0
  0
ARC
  5
1BC
330
19C
100
AcDbEntity
  8
$DDT_AUDIT_GENERATED_(91)
  6
Continuous
 62
     7
100
AcDbCircle
 10
356.2925356064
 20
622.0209210506
 30
0.0
 40
0.4988419895164921
100
AcDbArc
 50
238.0317030108
 51
238.6303778498
  0
LINE
  5
1BE
330
19C
100
AcDbEntity
  8
$DDT_AUDIT_GENERATED_(1BD)
  6
Continuous
 62
     7
100
AcDbLine
 10
362.9914497614
 20
591.1092281377
 30
0.0
 11
362.9914497614
 21
591.0592281377
 31
0.0
  0
ARC
  5
1C0
330
19C
100
AcDbEntity
  8
$DDT_AUDIT_GENERATED_(1BF)
  6
Continuous
 62
     7
100
AcDbCircle
 10
419.9125987891
 20
655.9592281377
 30
0.0
 40
26.0
100
AcDbArc
 50
270.0
 51
293.6474045192
  0
ARC
  5
1C1
330
19C
100
AcDbEntity
  8
$DDT_AUDIT_GENERATED_(1BF)
  6
Continuous
 62
     7
100
AcDbCircle
 10
419.9125987891
 20
655.9592281377
 30
0.0
 40
26.0
100
AcDbArc
 50
66.4064444248
 51
90.0
  0
LINE
  5
1C2
330
19C
100
AcDbEntity
  8
$DDT_AUDIT_GENERATED_(1BF)
  6
Continuous
 62
     7
100
AcDbLine
 10
419.9125987891
 20
681.9592281377
 30
0.0
 11
387.662754207
 21
681.9592281377
 31
0.0
  0
LINE
  5
1C3
330
19C
100
AcDbEntity
  8
$DDT_AUDIT_GENERATED_(1BF)
  6
Continuous
 62
     7
100
AcDbLine
 10
388.9730909493
 20
629.9592281377
 30
0.0
 11
419.9125987891
 21
629.9592281377
 31
0.0
  0
ARC
  5
1C4
330
19C
100
AcDbEntity
  8
$DDT_AUDIT_GENERATED_(A9)
  6
Continuous
 62
     7
100
AcDbCircle
 10
475.2185536086
 20
558.2579581409
 30
0.0
 40
0.3999999993780221
100
AcDbArc
 50
195.6491713598
 51
332.2774688361
  0
LINE
  5
1C5
330
19C
100
AcDbEntity
  8
$DDT_AUDIT_GENERATED_(A9)
  6
Continuous
 62
     7
100
AcDbLine
 10
461.487923791
 20
652.9984917566
 30
0.0
 11
462.0969157313
 21
652.9526569524
 31
0.0
  0
LINE
  5
1C6
330
19C
100
AcDbEntity
  8
$DDT_AUDIT_GENERATED_(A9)
  6
Continuous
 62
     7
100
AcDbLine
 10
459.1789576244
 20
653.1722724026
 30
0.0
 11
459.1566693093
 21
653.173949897
 31
0.0
  0
LINE
  5
1C7
330
19C
100
AcDbEntity
  8
$DDT_AUDIT_GENERATED_(A9)
  6
Continuous
 62
     7
100
AcDbLine
 10
475.7377359862
 20
558.3860473389
 30
0.0
 11
475.5726379126
 21
558.0718820673
 31
0.0
  0
LINE
  5
1C8
330
19C
100
AcDbEntity
  8
$DDT_AUDIT_GENERATED_(A9)
  6
Continuous
 62
     7
100
AcDbLine
 10
459.1789576244
 20
653.1722724026
 30
0.0
 11
461.4646587648
 21
653.0002427615
 31
0.0
  0
LINE
  5
1C9
330
19C
100
AcDbEntity
  8
$DDT_AUDIT_GENERATED_(A9)
  6
Continuous
 62
     7
100
AcDbLine
 10
458.9936387984
 20
653.1862201277
 30
0.0
 11
459.1566693093
 21
653.173949897
 31
0.0
  0
LINE
  5
1CA
330
19C
100
AcDbEntity
  8
$DDT_AUDIT_GENERATED_(A9)
  6
Continuous
 62
     7
100
AcDbLine
 10
477.3798619923
 20
561.5108511958
 30
0.0
 11
475.7377359862
 21
558.3860473389
 31
0.0
  0
LINE
  5
1CB
330
19C
100
AcDbEntity
  8
$DDT_AUDIT_GENERATED_(A9)
  6
Continuous
 62
     7
100
AcDbLine
 10
461.487923791
 20
652.9984917566
 30
0.0
 11
461.4646587648
 21
653.0002427615
 31
0.0
  0
ARC
  5
1CC
330
19C
100
AcDbEntity
  8
$DDT_AUDIT_GENERATED_(A9)
  6
Continuous
 62
     7
100
AcDbCircle
 10
4980.0759917288
 20
1384.3569342435
 30
0.0
 40
4580.031026737214
100
AcDbArc
 50
189.5490997712
 51
190.0799014932
  0
LINE
  5
1CD
330
19C
100
AcDbEntity
  8
$DDT_AUDIT_GENERATED_(A9)
  6
Continuous
 62
     7
100
AcDbLine
 10
458.9793902655
 20
653.1872925204
 30
0.0
 11
458.9936387984
 21
653.1862201277
 31
0.0
  0
LINE
  5
1CE
330
19C
100
AcDbEntity
  8
$DDT_AUDIT_GENERATED_(A9)
  6
Continuous
 62
     7
100
AcDbLine
 10
458.8801540575
 20
653.1947613725
 30
0.0
 11
458.9793902655
 21
653.1872925204
 31
0.0
  0
ARC
  5
1CF
330
19C
100
AcDbEntity
  8
$DDT_AUDIT_GENERATED_(A9)
  6
Continuous
 62
     7
100
AcDbCircle
 10
457.0333675039
 20
627.256941349
 30
0.0
 40
2.999999999999997
100
AcDbArc
 50
11.3148241793
 51
91.76997403
  0
LINE
  5
1D0
330
19C
100
AcDbEntity
  8
$DDT_AUDIT_GENERATED_(A9)
  6
Continuous
 62
     7
100
AcDbLine
 10
462.2294903654
 20
654.9697948417
 30
0.0
 11
462.5829484713
 21
652.9160761879
 31
0.0
  0
LINE
  5
1D1
330
19C
100
AcDbEntity
  8
$DDT_AUDIT_GENERATED_(A9)
  6
Continuous
 62
     7
100
AcDbLine
 10
458.0217361022
 20
679.4183596824
 30
0.0
 11
462.2294903654
 21
654.9697948417
 31
0.0
  0
LINE
  5
1D2
330
19C
100
AcDbEntity
  8
$DDT_AUDIT_GENERATED_(A9)
  6
Continuous
 62
     7
100
AcDbLine
 10
457.584196467
 20
679.8304951965
 30
0.0
 11
430.5274054706
 21
682.8368053087
 31
0.0
  0
ARC
  5
1D3
330
19C
100
AcDbEntity
  8
$DDT_AUDIT_GENERATED_(A9)
  6
Continuous
 62
     7
100
AcDbCircle
 10
457.528980704
 20
679.3335533291
 30
0.0
 40
0.500000000003587
100
AcDbArc
 50
9.7653017705
 51
83.6598082526
  0
LINE
  5
1D4
330
19C
100
AcDbEntity
  8
$DDT_AUDIT_GENERATED_(A9)
  6
Continuous
 62
     7
100
AcDbLine
 10
462.5829480992
 20
652.9160762164
 30
0.0
 11
478.0550455664
 21
563.017630273
 31
0.0
  0
LINE
  5
1D5
330
19C
100
AcDbEntity
  8
$DDT_AUDIT_GENERATED_(A9)
  6
Continuous
 62
     7
100
AcDbLine
 10
478.0048956224
 20
562.7002289673
 30
0.0
 11
477.3798619923
 21
561.5108511958
 31
0.0
  0
LINE
  5
1D6
330
19C
100
AcDbEntity
  8
$DDT_AUDIT_GENERATED_(A9)
  6
Continuous
 62
     7
100
AcDbLine
 10
462.0969157313
 20
652.9526569524
 30
0.0
 11
462.5829480992
 21
652.9160762164
 31
0.0
  0
ARC
  5
1D7
330
19C
100
AcDbEntity
  8
$DDT_AUDIT_GENERATED_(A9)
  6
Continuous
 62
     7
100
AcDbCircle
 10
477.5622901682
 20
562.9328239197
 30
0.0
 40
0.5000000000000414
100
AcDbArc
 50
332.277486939
 51
9.7653017702
  0
LINE
  5
1D8
330
19C
100
AcDbEntity
  8
$DDT_AUDIT_GENERATED_(A9)
  6
Continuous
 62
     7
100
AcDbLine
 10
447.38614311
 20
629.9602576976
 30
0.0
 11
456.9407066199
 21
630.255510001
 31
0.0
  0
LINE
  5
1D9
330
19C
100
AcDbEntity
  8
$DDT_AUDIT_GENERATED_(A9)
  6
Continuous
 62
     7
100
AcDbLine
 10
430.3053191654
 20
656.1383672975
 30
0.0
 11
430.3053191654
 21
682.6380285618
 31
0.0
  0
LINE
  5
1DA
330
19C
100
AcDbEntity
  8
$DDT_AUDIT_GENERATED_(A9)
  6
Continuous
 62
     7
100
AcDbLine
 10
430.3053191654
 20
629.638706924
 30
0.0
 11
430.3053191654
 21
656.1383672975
 31
0.0
  0
LINE
  5
1DB
330
19C
100
AcDbEntity
  8
$DDT_AUDIT_GENERATED_(A9)
  6
Continuous
 62
     7
100
AcDbLine
 10
430.5114965577
 20
629.4388023472
 30
0.0
 11
439.6950919023
 21
629.7225911018
 31
0.0
  0
ARC
  5
1DC
330
19C
100
AcDbEntity
  8
$DDT_AUDIT_GENERATED_(A9)
  6
Continuous
 62
     7
100
AcDbCircle
 10
430.5053191654
 20
682.6380285618
 30
0.0
 40
0.1999999999999872
100
AcDbArc
 50
83.6598082542
 51
179.9999999961
  0
ARC
  5
1DD
330
19C
100
AcDbEntity
  8
$DDT_AUDIT_GENERATED_(A9)
  6
Continuous
 62
     7
100
AcDbCircle
 10
430.5053191654
 20
629.638706924
 30
0.0
 40
0.1999999999999924
100
AcDbArc
 50
180.0000000039
 51
271.7699740268
  0
LINE
  5
1DE
330
19C
100
AcDbEntity
  8
$DDT_AUDIT_GENERATED_(A9)
  6
Continuous
 62
     7
100
AcDbLine
 10
459.9750611298
 20
627.8455318694
 30
0.0
 11
469.0538861588
 21
582.4715559111
 31
0.0
  0
ARC
  5
1DF
330
19C
100
AcDbEntity
  8
$DDT_AUDIT_GENERATED_(A9)
  6
Continuous
 62
     7
100
AcDbCircle
 10
782.4712853086
 20
644.1121272727
 30
0.0
 40
319.4213927202067
100
AcDbArc
 50
191.1264946459
 51
195.6118873597
  0
ARC
  5
1E0
330
19C
100
AcDbEntity
  8
$DDT_AUDIT_GENERATED_(A9)
  6
Continuous
 62
     7
100
AcDbCircle
 10
457.5304833303
 20
679.3345784469
 30
0.0
 40
0.4981912166958309
100
AcDbArc
 50
28.2166526963
 51
83.7980904367
  0
LINE
  5
1E2
330
19C
100
AcDbEntity
  8
$DDT_AUDIT_GENERATED_(1E1)
  6
Continuous
 62
     7
100
AcDbLine
 10
336.8379733433
 20
677.1792281377
 30
0.0
 11
336.3341045252
 21
677.1792281377
 31
0.0
  0
LINE
  5
1E3
330
19C
100
AcDbEntity
  8
$DDT_AUDIT_GENERATED_(1E1)
  6
Continuous
 62
     7
100
AcDbLine
 10
336.3341045252
 20
650.7392281377
 30
0.0
 11
336.8379733433
 21
650.7392281377
 31
0.0
  0
LINE
  5
1E4
330
19C
100
AcDbEntity
  8
$DDT_AUDIT_GENERATED_(1E1)
  6
Continuous
 62
     7
100
AcDbLine
 10
336.3341045252
 20
676.0092281377
 30
0.0
 11
336.8379733433
 21
676.0092281377
 31
0.0
  0
LINE
  5
1E5
330
19C
100
AcDbEntity
  8
$DDT_AUDIT_GENERATED_(1E1)
  6
Continuous
 62
     7
100
AcDbLine
 10
336.3341045252
 20
651.9092281377
 30
0.0
 11
336.8379733433
 21
651.9092281377
 31
0.0
  0
LINE
  5
1E6
330
19C
100
AcDbEntity
  8
$DDT_AUDIT_GENERATED_(CF)
  6
Continuous
 62
     7
100
AcDbLine
 10
310.5283335529
 20
698.9592281377
 30
0.0
 11
310.5283335529
 21
628.9592281377
 31
0.0
  0
LINE
  5
1E7
330
19C
100
AcDbEntity
  8
$DDT_AUDIT_GENERATED_(CF)
  6
Continuous
 62
     7
100
AcDbLine
 10
310.5283335529
 20
628.9592281377
 30
0.0
 11
333.3112786168
 21
628.9592281377
 31
0.0
  0
LINE
  5
1E8
330
19C
100
AcDbEntity
  8
$DDT_AUDIT_GENERATED_(CF)
  6
Continuous
 62
     7
100
AcDbLine
 10
333.3112786168
 20
698.9592281377
 30
0.0
 11
310.5283335529
 21
698.9592281377
 31
0.0
  0
ARC
  5
1E9
330
19C
100
AcDbEntity
  8
$DDT_AUDIT_GENERATED_(CF)
  6
Continuous
 62
     7
100
AcDbCircle
 10
-113.4716664471
 20
663.9592281377
 30
0.0
 40
450.0000000000002
100
AcDbArc
 50
355.7757259843
 51
358.3165351092
  0
ARC
  5
1EA
330
19C
100
AcDbEntity
  8
$DDT_AUDIT_GENERATED_(CF)
  6
Continuous
 62
     7
100
AcDbCircle
 10
-113.4716664471
 20
663.9592281377
 30
0.0
 40
450.0000000000001
100
AcDbArc
 50
1.6834648908
 51
4.2242740157
  0
ARC
  5
1EB
330
19C
100
AcDbEntity
  8
$DDT_AUDIT_GENERATED_(CF)
  6
Continuous
 62
     7
100
AcDbCircle
 10
333.3112786168
 20
630.9592281377
 30
0.0
 40
1.999999999999995
100
AcDbArc
 50
270.0
 51
355.7757259844
  0
ARC
  5
1EC
330
19C
100
AcDbEntity
  8
$DDT_AUDIT_GENERATED_(CF)
  6
Continuous
 62
     7
100
AcDbCircle
 10
333.3112786168
 20
696.9592281377
 30
0.0
 40
2.000000000000141
100
AcDbArc
 50
4.2242740156
 51
90.0
  0
LINE
  5
1ED
330
19C
100
AcDbEntity
  8
$DDT_AUDIT_GENERATED_(CF)
  6
Continuous
 62
     7
100
AcDbLine
 10
336.3383998145
 20
650.9007281377
 30
0.0
 11
336.3383998145
 21
677.0177281377
 31
0.0
  0
LINE
  5
1EE
330
19C
100
AcDbEntity
  8
$DDT_AUDIT_GENERATED_(CF)
  6
Continuous
 62
     7
100
AcDbLine
 10
310.3283300967
 20
628.9592281377
 30
0.0
 11
310.3283300967
 21
658.8822154705
 31
0.0
  0
LINE
  5
1EF
330
19C
100
AcDbEntity
  8
$DDT_AUDIT_GENERATED_(CF)
  6
Continuous
 62
     7
100
AcDbLine
 10
310.3283300967
 20
675.1392196551
 30
0.0
 11
310.3283300967
 21
698.9592281377
 31
0.0
  0
LINE
  5
1F0
330
19C
100
AcDbEntity
  8
$DDT_AUDIT_GENERATED_(CF)
  6
Continuous
 62
     7
100
AcDbLine
 10
310.3283300967
 20
628.9592281377
 30
0.0
 11
310.5283335529
 21
628.9592281377
 31
0.0
  0
LINE
  5
1F1
330
19C
100
AcDbEntity
  8
$DDT_AUDIT_GENERATED_(CF)
  6
Continuous
 62
     7
100
AcDbLine
 10
310.5283335529
 20
698.9592281377
 30
0.0
 11
310.3283300967
 21
698.9592281377
 31
0.0
  0
LINE
  5
1F3
330
19C
100
AcDbEntity
  8
$DDT_AUDIT_GENERATED_(1F2)
  6
Continuous
 62
     7
100
AcDbLine
 10
350.3379733433
 20
673.8246091945
 30
0.0
 11
350.3379733433
 21
670.2092281377
 31
0.0
  0
LINE
  5
1F4
330
19C
100
AcDbEntity
  8
$DDT_AUDIT_GENERATED_(1F2)
  6
Continuous
 62
     7
100
AcDbLine
 10
353.8379733433
 20
649.4592281377
 30
0.0
 11
353.8379733433
 21
659.3120365738
 31
0.0
  0
LINE
  5
1F5
330
19C
100
AcDbEntity
  8
$DDT_AUDIT_GENERATED_(1F2)
  6
Continuous
 62
     7
100
AcDbLine
 10
336.8379733433
 20
649.4592281377
 30
0.0
 11
336.8379733433
 21
678.4592281377
 31
0.0
  0
LINE
  5
1F6
330
19C
100
AcDbEntity
  8
$DDT_AUDIT_GENERATED_(1F2)
  6
Continuous
 62
     7
100
AcDbLine
 10
340.3379733433
 20
673.8246091945
 30
0.0
 11
340.3379733433
 21
670.2092281377
 31
0.0
  0
LINE
  5
1F7
330
19C
100
AcDbEntity
  8
$DDT_AUDIT_GENERATED_(1F2)
  6
Continuous
 62
     7
100
AcDbLine
 10
340.3379733433
 20
657.7092281377
 30
0.0
 11
340.3379733433
 21
654.0938470809
 31
0.0
  0
LINE
  5
1F8
330
19C
100
AcDbEntity
  8
$DDT_AUDIT_GENERATED_(1F2)
  6
Continuous
 62
     7
100
AcDbLine
 10
340.3379733433
 20
647.8438470809
 30
0.0
 11
340.3379733433
 21
647.7092281377
 31
0.0
  0
LINE
  5
1F9
330
19C
100
AcDbEntity
  8
$DDT_AUDIT_GENERATED_(1F2)
  6
Continuous
 62
     7
100
AcDbLine
 10
340.3379733433
 20
680.0746091945
 30
0.0
 11
340.3379733433
 21
680.2092281377
 31
0.0
  0
SPLINE
  5
1FA
330
19C
100
AcDbEntity
  8
$DDT_AUDIT_GENERATED_(1F2)
  6
Continuous
 62
     7
100
AcDbSpline
210
0.0
220
0.0
230
1.0
 70
     8
 71
     3
 72
    14
 73
    10
 74
     0
 42
0.0000000011014719
 43
0.0000000001
 40
0.0
 40
0.0
 40
0.0
 40
0.0
 40
0.25
 40
0.25
 40
0.5
 40
0.5
 40
0.75
 40
0.75
 40
1.0
 40
1.0
 40
1.0
 40
1.0
 10
340.3379733432843
 20
680.074609194455
 30
0.0
 10
339.3601667748312
 20
679.7272913458278
 30
0.0
 10
338.6633082806503
 20
679.2293640332443
 30
0.0
 10
337.7566263287806
 20
678.1394559686761
 30
0.0
 10
337.5426792284615
 20
677.5455817872711
 30
0.0
 10
337.5418120754196
 20
676.3571766838821
 30
0.0
 10
337.7491306336887
 20
675.7716229014852
 30
0.0
 10
338.6597291296121
 20
674.6713411583787
 30
0.0
 10
339.3612439421278
 20
674.1715444322049
 30
0.0
 10
340.3379733432843
 20
673.824609194455
 30
0.0
  0
SPLINE
  5
1FB
330
19C
100
AcDbEntity
  8
$DDT_AUDIT_GENERATED_(1F2)
  6
Continuous
 62
     7
100
AcDbSpline
210
0.0
220
0.0
230
1.0
 70
     8
 71
     3
 72
    14
 73
    10
 74
     0
 42
0.0000000011014719
 43
0.0000000001
 40
0.0
 40
0.0
 40
0.0
 40
0.0
 40
0.25
 40
0.25
 40
0.5
 40
0.5
 40
0.75
 40
0.75
 40
1.0
 40
1.0
 40
1.0
 40
1.0
 10
340.3379733432843
 20
654.0938470809219
 30
0.0
 10
339.3601667748312
 20
653.7465292322946
 30
0.0
 10
338.6633082806503
 20
653.2486019197113
 30
0.0
 10
337.7566263287806
 20
652.1586938551429
 30
0.0
 10
337.5426792284615
 20
651.5648196737379
 30
0.0
 10
337.5418120754196
 20
650.376414570349
 30
0.0
 10
337.7491306336887
 20
649.790860787952
 30
0.0
 10
338.6597291296121
 20
648.6905790448455
 30
0.0
 10
339.3612439421278
 20
648.1907823186716
 30
0.0
 10
340.3379733432843
 20
647.8438470809218
 30
0.0
  0
SPLINE
  5
1FC
330
19C
100
AcDbEntity
  8
$DDT_AUDIT_GENERATED_(1F2)
  6
Continuous
 62
     7
100
AcDbSpline
210
0.0
220
0.0
230
1.0
 70
     8
 71
     3
 72
    14
 73
    10
 74
     0
 42
0.0000000006969408
 43
0.0000000001
 40
0.0
 40
0.0
 40
0.0
 40
0.0
 40
0.25
 40
0.25
 40
0.5
 40
0.5
 40
0.75
 40
0.75
 40
1.0
 40
1.0
 40
1.0
 40
1.0
 10
340.3379733432843
 20
670.2092281376885
 30
0.0
 10
339.3623449005145
 20
669.5161397851763
 30
0.0
 10
338.6563662118671
 20
668.5085796173454
 30
0.0
 10
337.7506524474709
 20
666.3179341649717
 30
0.0
 10
337.540350050781
 20
665.1337198614823
 30
0.0
 10
337.544164888918
 20
662.7536318526578
 30
0.0
 10
337.7594641314677
 20
661.5706082431142
 30
0.0
 10
338.664650446106
 20
659.3986052032718
 30
0.0
 10
339.3696844075779
 20
658.3971024900384
 30
0.0
 10
340.3379733432843
 20
657.7092281376883
 30
0.0
  0
LINE
  5
1FD
330
19C
100
AcDbEntity
  8
$DDT_AUDIT_GENERATED_(1F2)
  6
Continuous
 62
     7
100
AcDbLine
 10
350.3379733433
 20
657.7092281377
 30
0.0
 11
350.3379733433
 21
654.0938470809
 31
0.0
  0
LINE
  5
1FE
330
19C
100
AcDbEntity
  8
$DDT_AUDIT_GENERATED_(1F2)
  6
Continuous
 62
     7
100
AcDbLine
 10
350.3379733433
 20
647.8438470809
 30
0.0
 11
350.3379733433
 21
647.7092281377
 31
0.0
  0
LINE
  5
1FF
330
19C
100
AcDbEntity
  8
$DDT_AUDIT_GENERATED_(1F2)
  6
Continuous
 62
     7
100
AcDbLine
 10
350.3379733433
 20
680.0746091945
 30
0.0
 11
350.3379733433
 21
680.2092281377
 31
0.0
  0
LINE
  5
200
330
19C
100
AcDbEntity
  8
$DDT_AUDIT_GENERATED_(1F2)
  6
Continuous
 62
     7
100
AcDbLine
 10
340.3379733433
 20
670.2092281377
 30
0.0
 11
350.3379733433
 21
670.2092281377
 31
0.0
  0
SPLINE
  5
201
330
19C
100
AcDbEntity
  8
$DDT_AUDIT_GENERATED_(1F2)
  6
Continuous
 62
     7
100
AcDbSpline
210
0.0
220
0.0
230
1.0
 70
     8
 71
     3
 72
    14
 73
    10
 74
     0
 42
0.0000000006969408
 43
0.0000000001
 40
0.0
 40
0.0
 40
0.0
 40
0.0
 40
0.25
 40
0.25
 40
0.5
 40
0.5
 40
0.75
 40
0.75
 40
1.0
 40
1.0
 40
1.0
 40
1.0
 10
350.3379733432843
 20
670.2092281376885
 30
0.0
 10
351.313601786054
 20
669.5161397851763
 30
0.0
 10
352.0195804747014
 20
668.5085796173454
 30
0.0
 10
352.9252942390976
 20
666.3179341649717
 30
0.0
 10
353.1355966357875
 20
665.1337198614823
 30
0.0
 10
353.1317817976506
 20
662.7536318526578
 30
0.0
 10
352.9164825551009
 20
661.5706082431142
 30
0.0
 10
352.0112962404626
 20
659.3986052032717
 30
0.0
 10
351.3062622789906
 20
658.3971024900384
 30
0.0
 10
350.3379733432843
 20
657.7092281376883
 30
0.0
  0
LINE
  5
202
330
19C
100
AcDbEntity
  8
$DDT_AUDIT_GENERATED_(1F2)
  6
Continuous
 62
     7
100
AcDbLine
 10
350.3379733433
 20
657.7092281377
 30
0.0
 11
340.3379733433
 21
657.7092281377
 31
0.0
  0
LINE
  5
203
330
19C
100
AcDbEntity
  8
$DDT_AUDIT_GENERATED_(1F2)
  6
Continuous
 62
     7
100
AcDbLine
 10
340.3379733433
 20
654.0938470809
 30
0.0
 11
350.3379733433
 21
654.0938470809
 31
0.0
  0
SPLINE
  5
204
330
19C
100
AcDbEntity
  8
$DDT_AUDIT_GENERATED_(1F2)
  6
Continuous
 62
     7
100
AcDbSpline
210
0.0
220
0.0
230
1.0
 70
     8
 71
     3
 72
    14
 73
    10
 74
     0
 42
0.0000000011014719
 43
0.0000000001
 40
0.0
 40
0.0
 40
0.0
 40
0.0
 40
0.2500000000000001
 40
0.2500000000000001
 40
0.5000000000000001
 40
0.5000000000000001
 40
0.7500000000000002
 40
0.7500000000000002
 40
1.0
 40
1.0
 40
1.0
 40
1.0
 10
350.3379733432843
 20
654.0938470809219
 30
0.0
 10
351.3157799117374
 20
653.7465292322946
 30
0.0
 10
352.0126384059182
 20
653.2486019197113
 30
0.0
 10
352.919320357788
 20
652.1586938551429
 30
0.0
 10
353.133267458107
 20
651.5648196737379
 30
0.0
 10
353.134134611149
 20
650.376414570349
 30
0.0
 10
352.9268160528799
 20
649.790860787952
 30
0.0
 10
352.0162175569565
 20
648.6905790448455
 30
0.0
 10
351.3147027444406
 20
648.1907823186716
 30
0.0
 10
350.3379733432843
 20
647.8438470809218
 30
0.0
  0
LINE
  5
205
330
19C
100
AcDbEntity
  8
$DDT_AUDIT_GENERATED_(1F2)
  6
Continuous
 62
     7
100
AcDbLine
 10
350.3379733433
 20
647.8438470809
 30
0.0
 11
340.3379733433
 21
647.8438470809
 31
0.0
  0
LINE
  5
206
330
19C
100
AcDbEntity
  8
$DDT_AUDIT_GENERATED_(1F2)
  6
Continuous
 62
     7
100
AcDbLine
 10
340.3379733433
 20
680.0746091945
 30
0.0
 11
350.3379733433
 21
680.0746091945
 31
0.0
  0
SPLINE
  5
207
330
19C
100
AcDbEntity
  8
$DDT_AUDIT_GENERATED_(1F2)
  6
Continuous
 62
     7
100
AcDbSpline
210
0.0
220
0.0
230
1.0
 70
     8
 71
     3
 72
    14
 73
    10
 74
     0
 42
0.0000000011014719
 43
0.0000000001
 40
0.0
 40
0.0
 40
0.0
 40
0.0
 40
0.2499999999999999
 40
0.2499999999999999
 40
0.4999999999999999
 40
0.4999999999999999
 40
0.7499999999999999
 40
0.7499999999999999
 40
1.0
 40
1.0
 40
1.0
 40
1.0
 10
350.3379733432843
 20
680.074609194455
 30
0.0
 10
351.3157799117374
 20
679.7272913458278
 30
0.0
 10
352.0126384059182
 20
679.2293640332443
 30
0.0
 10
352.919320357788
 20
678.1394559686761
 30
0.0
 10
353.133267458107
 20
677.5455817872711
 30
0.0
 10
353.134134611149
 20
676.3571766838821
 30
0.0
 10
352.9268160528799
 20
675.7716229014852
 30
0.0
 10
352.0162175569565
 20
674.6713411583787
 30
0.0
 10
351.3147027444406
 20
674.1715444322049
 30
0.0
 10
350.3379733432843
 20
673.824609194455
 30
0.0
  0
LINE
  5
208
330
19C
100
AcDbEntity
  8
$DDT_AUDIT_GENERATED_(1F2)
  6
Continuous
 62
     7
100
AcDbLine
 10
350.3379733433
 20
673.8246091945
 30
0.0
 11
340.3379733433
 21
673.8246091945
 31
0.0
  0
LINE
  5
209
330
19C
100
AcDbEntity
  8
$DDT_AUDIT_GENERATED_(1F2)
  6
Continuous
 62
     7
100
AcDbLine
 10
350.3379733433
 20
680.2092281377
 30
0.0
 11
340.3379733433
 21
680.2092281377
 31
0.0
  0
ARC
  5
20A
330
19C
100
AcDbEntity
  8
$DDT_AUDIT_GENERATED_(1F2)
  6
Continuous
 62
     7
100
AcDbCircle
 10
347.7022721451
 20
670.5628257413
 30
0.0
 40
9.999999999999995
100
AcDbArc
 50
55.2999119138
 51
74.7179936136
  0
ARC
  5
20B
330
19C
100
AcDbEntity
  8
$DDT_AUDIT_GENERATED_(1F2)
  6
Continuous
 62
     7
100
AcDbCircle
 10
347.7022721451
 20
657.3556305341
 30
0.0
 40
9.999999999999998
100
AcDbArc
 50
285.2820063864
 51
307.8480959678
  0
ARC
  5
20C
330
19C
100
AcDbEntity
  8
$DDT_AUDIT_GENERATED_(1F2)
  6
Continuous
 62
     7
100
AcDbCircle
 10
342.9736745415
 20
670.5628257413
 30
0.0
 40
9.999999999999998
100
AcDbArc
 50
105.2820063864
 51
127.8480959678
  0
ARC
  5
20D
330
19C
100
AcDbEntity
  8
$DDT_AUDIT_GENERATED_(1F2)
  6
Continuous
 62
     7
100
AcDbCircle
 10
342.9736745415
 20
657.3556305341
 30
0.0
 40
9.999999999999995
100
AcDbArc
 50
232.1519040322
 51
254.7179936136
  0
LINE
  5
20E
330
19C
100
AcDbEntity
  8
$DDT_AUDIT_GENERATED_(1F2)
  6
Continuous
 62
     7
100
AcDbLine
 10
340.3379733433
 20
647.7092281377
 30
0.0
 11
350.3379733433
 21
647.7092281377
 31
0.0
  0
LINE
  5
210
330
19C
100
AcDbEntity
  8
$DDT_AUDIT_GENERATED_(20F)
  6
Continuous
 62
     7
100
AcDbLine
 10
354.8379733433
 20
653.4592281377
 30
0.0
 11
354.8379733433
 21
654.9592747078
 31
0.0
  0
LINE
  5
211
330
19C
100
AcDbEntity
  8
$DDT_AUDIT_GENERATED_(20F)
  6
Continuous
 62
     7
100
AcDbLine
 10
353.8379733433
 20
653.4592281377
 30
0.0
 11
354.8379733433
 21
653.4592281377
 31
0.0
  0
ARC
  5
212
330
19C
100
AcDbEntity
  8
$DDT_AUDIT_GENERATED_(20F)
  6
Continuous
 62
     7
100
AcDbCircle
 10
355.8379733433
 20
655.1092281377
 30
0.0
 40
1.000000000000001
100
AcDbArc
 50
154.8055142198
 51
180.0
  0
LINE
  5
214
330
19C
100
AcDbEntity
  8
$DDT_AUDIT_GENERATED_(213)
  6
Continuous
 62
     7
100
AcDbLine
 10
439.587945006
 20
629.487478696
 30
0.0
 11
447.2622676951
 21
629.6884379081
 31
0.0
  0
LINE
  5
215
330
19C
100
AcDbEntity
  8
$DDT_AUDIT_GENERATED_(213)
  6
Continuous
 62
     7
100
AcDbLine
 10
439.6950919023
 20
629.7225911018
 30
0.0
 11
439.587945006
 21
629.487478696
 31
0.0
  0
LINE
  5
216
330
19C
100
AcDbEntity
  8
$DDT_AUDIT_GENERATED_(213)
  6
Continuous
 62
     7
100
AcDbLine
 10
447.2622676951
 20
629.6884379081
 30
0.0
 11
447.38614311
 21
629.9602576976
 31
0.0
  0
LINE
  5
218
330
19C
100
AcDbEntity
  8
$DDT_AUDIT_GENERATED_(217)
  6
Continuous
 62
     7
100
AcDbLine
 10
383.8414497614
 20
586.7592281377
 30
0.0
 11
356.8414497614
 21
586.7592281377
 31
0.0
  0
LINE
  5
219
330
19C
100
AcDbEntity
  8
$DDT_AUDIT_GENERATED_(217)
  6
Continuous
 62
     7
100
AcDbLine
 10
356.8414497614
 20
589.5592281377
 30
0.0
 11
367.4414497614
 21
589.5592281377
 31
0.0
  0
LINE
  5
21A
330
19C
100
AcDbEntity
  8
$DDT_AUDIT_GENERATED_(217)
  6
Continuous
 62
     7
100
AcDbLine
 10
367.4414497614
 20
591.1092281377
 30
0.0
 11
367.4414497614
 21
589.5592281377
 31
0.0
  0
LINE
  5
21B
330
19C
100
AcDbEntity
  8
$DDT_AUDIT_GENERATED_(217)
  6
Continuous
 62
     7
100
AcDbLine
 10
356.8414497614
 20
591.1092281377
 30
0.0
 11
367.4414497614
 21
591.1092281377
 31
0.0
  0
LINE
  5
21C
330
19C
100
AcDbEntity
  8
$DDT_AUDIT_GENERATED_(217)
  6
Continuous
 62
     7
100
AcDbLine
 10
383.8414497614
 20
586.7592281377
 30
0.0
 11
383.8414497614
 21
620.7748688499
 31
0.0
  0
LINE
  5
21D
330
19C
100
AcDbEntity
  8
$DDT_AUDIT_GENERATED_(217)
  6
Continuous
 62
     7
100
AcDbLine
 10
356.8414497614
 20
589.5592281377
 30
0.0
 11
356.8414497614
 21
586.7592281377
 31
0.0
  0
LINE
  5
21E
330
19C
100
AcDbEntity
  8
$DDT_AUDIT_GENERATED_(217)
  6
Continuous
 62
     7
100
AcDbLine
 10
356.8414497614
 20
621.1485914042
 30
0.0
 11
356.8414497614
 21
591.1092281377
 31
0.0
  0
LINE
  5
220
330
19C
100
AcDbEntity
  8
$DDT_AUDIT_GENERATED_(21F)
  6
Continuous
 62
     7
100
AcDbLine
 10
366.8438021362
 20
589.5592281377
 30
0.0
 11
356.8414497614
 21
589.5592281377
 31
0.0
  0
LINE
  5
221
330
19C
100
AcDbEntity
  8
$DDT_AUDIT_GENERATED_(21F)
  6
Continuous
 62
     7
100
AcDbLine
 10
366.8438021362
 20
591.0592281377
 30
0.0
 11
356.8414497614
 21
591.0592281377
 31
0.0
  0
LINE
  5
222
330
19C
100
AcDbEntity
  8
$DDT_AUDIT_GENERATED_(21F)
  6
Continuous
 62
     7
100
AcDbLine
 10
367.3438021362
 20
591.0592281377
 30
0.0
 11
366.8438021362
 21
591.0592281377
 31
0.0
  0
LINE
  5
223
330
19C
100
AcDbEntity
  8
$DDT_AUDIT_GENERATED_(21F)
  6
Continuous
 62
     7
100
AcDbLine
 10
366.8438021362
 20
589.5592281377
 30
0.0
 11
366.8438021362
 21
591.0592281377
 31
0.0
  0
LINE
  5
224
330
19C
100
AcDbEntity
  8
$DDT_AUDIT_GENERATED_(21F)
  6
Continuous
 62
     7
100
AcDbLine
 10
367.3438021362
 20
589.5592281377
 30
0.0
 11
367.3438021362
 21
591.0592281377
 31
0.0
  0
LINE
  5
225
330
19C
100
AcDbEntity
  8
$DDT_AUDIT_GENERATED_(21F)
  6
Continuous
 62
     7
100
AcDbLine
 10
356.8414497614
 20
591.0592281377
 30
0.0
 11
356.8414497614
 21
589.5592281377
 31
0.0
  0
LINE
  5
227
330
19C
100
AcDbEntity
  8
09422131_NIPPEL_
  6
Continuous
 62
     7
100
AcDbLine
 10
358.3414497614
 20
582.8592281377
 30
0.0
 11
382.3414497614
 21
582.8592281377
 31
0.0
  0
ARC
  5
228
330
19C
100
AcDbEntity
  8
09422131_NIPPEL_
  6
Continuous
 62
     7
100
AcDbCircle
 10
361.8312434492
 20
586.4399180176
 30
0.0
 40
4.999999999999999
100
AcDbArc
 50
178.5756936574
 51
225.7365382089
  0
ARC
  5
229
330
19C
100
AcDbEntity
  8
09422131_NIPPEL_
  6
Continuous
 62
     7
100
AcDbCircle
 10
378.8516560735
 20
586.4399180176
 30
0.0
 40
5.00000000000001
100
AcDbArc
 50
314.2634617911
 51
1.4243063426
  0
ARC
  5
22A
330
19C
100
AcDbEntity
  8
09422131_NIPPEL_
  6
Continuous
 62
     7
100
AcDbCircle
 10
383.6501730419
 20
586.5592281377
 30
0.0
 40
0.2000000000000001
100
AcDbArc
 50
1.4243063426
 51
90.0
  0
ARC
  5
22B
330
19C
100
AcDbEntity
  8
09422131_NIPPEL_
  6
Continuous
 62
     7
100
AcDbCircle
 10
357.0327264809
 20
586.5592281377
 30
0.0
 40
0.2000000000000057
100
AcDbArc
 50
90.0
 51
178.5756936574
  0
LINE
  5
22C
330
19C
100
AcDbEntity
  8
09421031_AUSL_RO
  6
Continuous
 62
     7
100
AcDbLine
 10
382.3414497614
 20
582.8592281377
 30
0.0
 11
358.3414497614
 21
582.8592281377
 31
0.0
  0
LINE
  5
22D
330
19C
100
AcDbEntity
  8
09421031_AUSL_RO
  6
Continuous
 62
     7
100
AcDbLine
 10
410.3414497614
 20
522.8592281377
 30
0.0
 11
528.3414497614
 21
522.8592281377
 31
0.0
  0
LINE
  5
22E
330
19C
100
AcDbEntity
  8
09421031_AUSL_RO
  6
Continuous
 62
     7
100
AcDbLine
 10
528.3414497614
 20
546.8592281377
 30
0.0
 11
410.3414497614
 21
546.8592281377
 31
0.0
  0
ARC
  5
22F
330
19C
100
AcDbEntity
  8
09421031_AUSL_RO
  6
Continuous
 62
     7
100
AcDbCircle
 10
528.3414497614
 20
484.8592281377
 30
0.0
 40
38.00000000000001
100
AcDbArc
 50
10.0
 51
90.0
  0
ARC
  5
230
330
19C
100
AcDbEntity
  8
09421031_AUSL_RO
  6
Continuous
 62
     7
100
AcDbCircle
 10
528.3414497614
 20
484.8592281377
 30
0.0
 40
61.99999999999999
100
AcDbArc
 50
10.0
 51
90.0
  0
ARC
  5
231
330
19C
100
AcDbEntity
  8
09421031_AUSL_RO
  6
Continuous
 62
     7
100
AcDbCircle
 10
410.3414497614
 20
574.8592281377
 30
0.0
 40
28.0
100
AcDbArc
 50
180.0
 51
270.0
  0
ARC
  5
232
330
19C
100
AcDbEntity
  8
09421031_AUSL_RO
  6
Continuous
 62
     7
100
AcDbCircle
 10
410.3414497614
 20
574.8592281377
 30
0.0
 40
52.00000000000001
100
AcDbArc
 50
180.0
 51
270.0
  0
LINE
  5
233
330
19C
100
AcDbEntity
  8
09421031_AUSL_RO
  6
Continuous
 62
     7
100
AcDbLine
 10
358.3414497614
 20
582.8592281377
 30
0.0
 11
358.3414497614
 21
574.8592281377
 31
0.0
  0
LINE
  5
234
330
19C
100
AcDbEntity
  8
09421031_AUSL_RO
  6
Continuous
 62
     7
100
AcDbLine
 10
382.3414497614
 20
574.8592281377
 30
0.0
 11
382.3414497614
 21
582.8592281377
 31
0.0
  0
LINE
  5
235
330
19C
100
AcDbEntity
  8
09421031_AUSL_RO
  6
Continuous
 62
     7
100
AcDbLine
 10
565.7641443758
 20
491.457858889
 30
0.0
 11
566.2680949121
 21
488.5998133749
 31
0.0
  0
LINE
  5
236
330
19C
100
AcDbEntity
  8
09421031_AUSL_RO
  6
Continuous
 62
     7
100
AcDbLine
 10
589.9034809844
 20
492.7673696389
 30
0.0
 11
589.3995304481
 21
495.625415153
 31
0.0
  0
ARC
  5
237
330
19C
100
AcDbEntity
  8
09421031_AUSL_RO
  6
Continuous
 62
     7
100
AcDbCircle
 10
588.4262693549
 20
492.5068973724
 30
0.0
 40
1.500000000000239
100
AcDbArc
 50
299.4712206345
 51
10.0
  0
ARC
  5
238
330
19C
100
AcDbEntity
  8
09421031_AUSL_RO
  6
Continuous
 62
     7
100
AcDbCircle
 10
567.7453065416
 20
488.8602856414
 30
0.0
 40
1.499999999999996
100
AcDbArc
 50
190.0
 51
260.5287793655
  0
LINE
  5
239
330
19C
100
AcDbEntity
  8
$DDT_AUDIT_GENERATED_(DF)
  6
Continuous
 62
     7
100
AcDbLine
 10
591.6238639831
 20
474.3724370905
 30
0.0
 11
570.9429011699
 21
470.7258253595
 31
0.0
  0
LINE
  5
23A
330
19C
100
AcDbEntity
  8
$DDT_AUDIT_GENERATED_(DF)
  6
Continuous
 62
     7
100
AcDbLine
 10
567.1537955595
 20
487.3199562097
 30
0.0
 11
589.5089315529
 21
491.2617698428
 31
0.0
  0
ARC
  5
23B
330
19C
100
AcDbEntity
  8
$DDT_AUDIT_GENERATED_(DF)
  6
Continuous
 62
     7
100
AcDbCircle
 10
585.702292383
 20
479.1614860342
 30
0.0
 40
16.99999999999979
100
AcDbArc
 50
190.0
 51
209.7499227956
  0
ARC
  5
23C
330
19C
100
AcDbEntity
  8
$DDT_AUDIT_GENERATED_(DF)
  6
Continuous
 62
     7
100
AcDbCircle
 10
574.8694070999
 20
477.2513560798
 30
0.0
 40
16.99999999999982
100
AcDbArc
 50
350.2500772044
 51
10.0
  0
LINE
  5
23D
330
19C
100
AcDbEntity
  8
$DDT_AUDIT_GENERATED_(DF)
  6
Continuous
 62
     7
100
AcDbLine
 10
591.6111389011
 20
480.2033751002
 30
0.0
 11
589.6826999425
 21
491.1400959065
 31
0.0
  0
LINE
  5
23E
330
19C
100
AcDbEntity
  8
$DDT_AUDIT_GENERATED_(DF)
  6
Continuous
 62
     7
100
AcDbLine
 10
567.0321216232
 20
487.1461878201
 30
0.0
 11
568.9605605818
 21
476.2094670138
 31
0.0
  0
ARC
  5
23F
330
19C
100
AcDbEntity
  8
$DDT_AUDIT_GENERATED_(DF)
  6
Continuous
 62
     7
100
AcDbCircle
 10
589.5349787795
 20
491.1140486798
 30
0.0
 40
0.1500000000000037
100
AcDbArc
 50
10.0
 51
100.0
  0
ARC
  5
240
330
19C
100
AcDbEntity
  8
$DDT_AUDIT_GENERATED_(DF)
  6
Continuous
 62
     7
100
AcDbCircle
 10
567.1798427861
 20
487.1722350468
 30
0.0
 40
0.1500000000000085
100
AcDbArc
 50
100.0
 51
190.0
  0
LINE
  5
241
330
19C
100
AcDbEntity
  8
$DDT_AUDIT_GENERATED_(EA)
  6
Continuous
 62
     7
100
AcDbLine
 10
572.4982544793
 20
470.5431341372
 30
0.0
 11
590.2247940336
 21
473.6688013352
 31
0.0
  0
LINE
  5
242
330
19C
100
AcDbEntity
  8
$DDT_AUDIT_GENERATED_(EA)
  6
Continuous
 62
     7
100
AcDbLine
 10
572.4201127994
 20
470.986297626
 30
0.0
 11
572.4982544793
 21
470.5431341372
 31
0.0
  0
LINE
  5
243
330
19C
100
AcDbEntity
  8
$DDT_AUDIT_GENERATED_(EA)
  6
Continuous
 62
     7
100
AcDbLine
 10
590.2247940336
 20
473.6688013352
 30
0.0
 11
590.1466523536
 21
474.111964824
 31
0.0
  0
ENDBLK
  5
245
330
19C
100
AcDbEntity
  8
0
100
AcDbBlockEnd
  0
BLOCK
  5
2E0
330
246
100
AcDbEntity
  8
0
100
AcDbBlockBegin
  2
SE2
 70
     0
 10
0.0
 20
0.0
 30
0.0
  3
SE2
  1

  0
SPLINE
  5
248
330
246
100
AcDbEntity
  8
$DDT_AUDIT_GENERATED_(91)
  6
Continuous
 62
     7
100
AcDbSpline
210
0.0
220
0.0
230
1.0
 70
     8
 71
     3
 72
     8
 73
     4
 74
     0
 42
0.0000000003508948
 43
0.0000000001
 40
0.0
 40
0.0
 40
0.0
 40
0.0
 40
0.033460336282386
 40
0.033460336282386
 40
0.033460336282386
 40
0.033460336282386
 10
147.6302468968215
 20
308.5455963940456
 30
0.0
 10
147.9481365833766
 20
308.545632060055
 30
0.0
 10
148.2660262696687
 20
308.5456837487844
 30
0.0
 10
148.5838186785088
 20
308.5456865429067
 30
0.0
  0
SPLINE
  5
249
330
246
100
AcDbEntity
  8
$DDT_AUDIT_GENERATED_(91)
  6
Continuous
 62
     7
100
AcDbSpline
210
0.0
220
0.0
230
1.0
 70
     8
 71
     3
 72
     9
 73
     5
 74
     0
 42
0.0000000003273493
 43
0.0000000001
 40
0.0
 40
0.0
 40
0.0
 40
0.0
 40
0.9909198700046015
 40
1.0
 40
1.0
 40
1.0
 40
1.0
 10
117.0818344702661
 20
344.8785777308556
 30
0.0
 10
106.991491512706
 20
344.8785531337505
 30
0.0
 10
96.80868737567562
 20
344.8783930082837
 30
0.0
 10
86.62588322857884
 20
344.8786036773573
 30
0.0
 10
86.533422042929
 20
344.8785915696682
 30
0.0
  0
SPLINE
  5
24A
330
246
100
AcDbEntity
  8
$DDT_AUDIT_GENERATED_(91)
  6
Continuous
 62
     7
100
AcDbSpline
210
0.0
220
0.0
230
1.0
 70
     8
 71
     3
 72
     8
 73
     4
 74
     0
 42
0.0000000003508948
 43
0.0000000001
 40
0.9665335398962731
 40
0.9665335398962731
 40
0.9665335398962731
 40
0.9665335398962731
 40
1.0
 40
1.0
 40
1.0
 40
1.0
 10
85.57967577733083
 20
308.5456865444359
 30
0.0
 10
85.89752631207173
 20
308.5456837677049
 30
0.0
 10
86.21547417768474
 20
308.5456320665825
 30
0.0
 10
86.53342204356086
 20
308.5455963940456
 30
0.0
  0
LINE
  5
24B
330
246
100
AcDbEntity
  8
$DDT_AUDIT_GENERATED_(91)
  6
Continuous
 62
     7
100
AcDbLine
 10
86.5334220445
 20
308.5456524885
 30
0.0
 11
97.9610256053
 21
308.545542893
 31
0.0
  0
SPLINE
  5
24C
330
246
100
AcDbEntity
  8
$DDT_AUDIT_GENERATED_(91)
  6
Continuous
 62
     7
100
AcDbSpline
210
0.0
220
0.0
230
1.0
 70
     8
 71
     3
 72
    23
 73
    19
 74
     0
 42
0.0000000001712278
 43
0.0000000001
 40
0.0
 40
0.0
 40
0.0
 40
0.0
 40
0.251494397423661
 40
0.251494397423661
 40
0.251494397423661
 40
0.3143723550923253
 40
0.3143723550923253
 40
0.3143723550923253
 40
0.3772503127609897
 40
0.3772503127609897
 40
0.3772503127609897
 40
0.5030062280983185
 40
0.5030062280983185
 40
0.5030062280983185
 40
0.7545180587729761
 40
0.7545180587729761
 40
0.7545180587729761
 40
1.0
 40
1.0
 40
1.0
 40
1.0
 10
206.0319745346468
 20
308.5450872487942
 30
0.0
 10
201.1360719255526
 20
308.5455404815282
 30
0.0
 10
196.2401695081039
 20
308.5455404648789
 30
0.0
 10
191.3442670906551
 20
308.5455404482295
 30
0.0
 10
190.1202066419618
 20
308.5455404440669
 30
0.0
 10
188.8961461932685
 20
308.5455404399043
 30
0.0
 10
187.6720857445752
 20
308.5455404357417
 30
0.0
 10
186.4480252958819
 20
308.5455404315791
 30
0.0
 10
185.2239648471886
 20
308.5455404274164
 30
0.0
 10
183.9999043984953
 20
308.5455404232538
 30
0.0
 10
181.5517835011088
 20
308.5455404149286
 30
0.0
 10
179.1036626037222
 20
308.5455404066033
 30
0.0
 10
176.6555417063356
 20
308.5455403982781
 30
0.0
 10
171.7592999115624
 20
308.5455403816276
 30
0.0
 10
166.8630581167892
 20
308.5455403649771
 30
0.0
 10
161.9668163220161
 20
308.5455403483266
 30
0.0
 10
157.1879598472581
 20
308.5455403320753
 30
0.0
 10
152.4091033725002
 20
308.545540315824
 30
0.0
 10
147.6302468968215
 20
308.5455963940456
 30
0.0
  0
ARC
  5
24D
330
246
100
AcDbEntity
  8
$DDT_AUDIT_GENERATED_(91)
  6
Continuous
 62
     7
100
AcDbCircle
 10
207.9469919959
 20
337.6012118695
 30
0.0
 40
29.11916327522414
100
AcDbArc
 50
266.2292300991
 51
283.8390144873
  0
ARC
  5
24E
330
246
100
AcDbEntity
  8
$DDT_AUDIT_GENERATED_(91)
  6
Continuous
 62
     7
100
AcDbCircle
 10
209.6366377781
 20
326.7129614986
 30
0.0
 40
18.16840940051566
100
AcDbArc
 50
286.8799177343
 51
73.118404651
  0
SPLINE
  5
24F
330
246
100
AcDbEntity
  8
$DDT_AUDIT_GENERATED_(91)
  6
Continuous
 62
     7
100
AcDbSpline
210
0.0
220
0.0
230
1.0
 70
     8
 71
     3
 72
    12
 73
     8
 74
     0
 42
0.0000000001712278
 43
0.0000000001
 40
0.0
 40
0.0
 40
0.0
 40
0.0
 40
0.0328930770763578
 40
0.0976835099622742
 40
0.227264375734107
 40
0.4864261072777727
 40
1.0
 40
1.0
 40
1.0
 40
1.0
 10
28.13169440573563
 20
308.5450872487942
 30
0.0
 10
28.77203027641364
 20
308.5443632142987
 30
0.0
 10
30.67358183667138
 20
308.5450387026704
 30
0.0
 10
35.09779748665282
 20
308.5466386895694
 30
0.0
 10
43.92684837073729
 20
308.5443225151749
 30
0.0
 10
61.49248681975559
 20
308.5463617352348
 30
0.0
 10
76.53554021322306
 20
308.5458165986724
 30
0.0
 10
86.53342204356086
 20
308.5455963940456
 30
0.0
  0
SPLINE
  5
250
330
246
100
AcDbEntity
  8
$DDT_AUDIT_GENERATED_(91)
  6
Continuous
 62
     7
100
AcDbSpline
210
0.0
220
0.0
230
1.0
 70
     8
 71
     3
 72
     9
 73
     5
 74
     0
 42
0.0000000003392719
 43
0.0000000001
 40
0.0
 40
0.0
 40
0.0
 40
0.0
 40
0.5040946333375992
 40
1.0
 40
1.0
 40
1.0
 40
1.0
 10
86.533422042929
 20
344.8785915696682
 30
0.0
 10
81.58071174767666
 20
344.8787096425159
 30
0.0
 10
71.75575038107138
 20
344.8790815512892
 30
0.0
 10
61.93078905974575
 20
344.8788832412131
 30
0.0
 10
57.0585379774537
 20
344.8786258912251
 30
0.0
  0
ARC
  5
251
330
246
100
AcDbEntity
  8
$DDT_AUDIT_GENERATED_(91)
  6
Continuous
 62
     7
100
AcDbCircle
 10
26.291175328
 20
338.446931005
 30
0.0
 40
29.95843404615398
100
AcDbArc
 50
256.4095277575
 51
273.5222276562
  0
ARC
  5
252
330
246
100
AcDbEntity
  8
$DDT_AUDIT_GENERATED_(91)
  6
Continuous
 62
     7
100
AcDbCircle
 10
24.5260672742
 20
326.7129614845
 30
0.0
 40
18.16812952931067
100
AcDbArc
 50
106.8786865705
 51
253.1229910442
  0
SPLINE
  5
253
330
246
100
AcDbEntity
  8
$DDT_AUDIT_GENERATED_(91)
  6
Continuous
 62
     7
100
AcDbSpline
210
0.0
220
0.0
230
1.0
 70
     8
 71
     3
 72
     9
 73
     5
 74
     0
 42
0.0000000003273493
 43
0.0000000001
 40
0.0
 40
0.0
 40
0.0
 40
0.0
 40
0.0090801299953985
 40
1.0
 40
1.0
 40
1.0
 40
1.0
 10
147.6302468974534
 20
344.8785915696681
 30
0.0
 10
147.5377857118036
 20
344.8786036773573
 30
0.0
 10
137.3549815647068
 20
344.8783930082837
 30
0.0
 10
127.1721774276764
 20
344.8785531337505
 30
0.0
 10
117.0818344702661
 20
344.8785777308556
 30
0.0
  0
SPLINE
  5
254
330
246
100
AcDbEntity
  8
$DDT_AUDIT_GENERATED_(91)
  6
Continuous
 62
     7
100
AcDbSpline
210
0.0
220
0.0
230
1.0
 70
     8
 71
     3
 72
    52
 73
    48
 74
     0
 42
0.000000000043227
 43
0.0000000001
 40
0.0
 40
0.0
 40
0.0
 40
0.0
 40
0.2499999999999992
 40
0.2499999999999992
 40
0.3749999999999988
 40
0.3749999999999988
 40
0.3906249999999988
 40
0.3906249999999988
 40
0.4062499999999987
 40
0.4062499999999987
 40
0.4218749999999987
 40
0.4218749999999987
 40
0.4374999999999987
 40
0.4374999999999987
 40
0.4531249999999986
 40
0.4531249999999986
 40
0.4687499999999986
 40
0.4687499999999986
 40
0.4843749999999985
 40
0.4843749999999985
 40
0.4921874999999984
 40
0.4921874999999984
 40
0.4999999999999984
 40
0.4999999999999984
 40
0.5156249999999984
 40
0.5156249999999984
 40
0.5234374999999983
 40
0.5234374999999983
 40
0.5312499999999983
 40
0.5312499999999983
 40
0.5390624999999983
 40
0.5390624999999983
 40
0.5468749999999983
 40
0.5468749999999983
 40
0.5546874999999982
 40
0.5546874999999982
 40
0.5624999999999982
 40
0.5624999999999982
 40
0.5937499999999982
 40
0.5937499999999982
 40
0.6093749999999983
 40
0.6093749999999983
 40
0.6249999999999983
 40
0.6249999999999983
 40
0.7499999999999989
 40
0.7499999999999989
 40
1.0
 40
1.0
 40
1.0
 40
1.0
 10
117.0818344701912
 20
311.4189239854387
 30
0.0
 10
97.74732458509365
 20
311.4189230269595
 30
0.0
 10
78.4128146985745
 20
311.4186682817338
 30
0.0
 10
49.41104987339598
 20
311.4190418190399
 30
0.0
 10
39.74400129504899
 20
311.4320387935967
 30
0.0
 10
28.86809646573529
 20
311.4168804867636
 30
0.0
 10
27.65930861186816
 20
311.3941737524066
 30
0.0
 10
25.2449152037412
 20
311.5373998324254
 30
0.0
 10
24.05501823629205
 20
311.751081927385
 30
0.0
 10
21.76925399932694
 20
312.443404188533
 30
0.0
 10
20.63961557184935
 20
312.8998451548188
 30
0.0
 10
18.56048424043488
 20
314.0819123884611
 30
0.0
 10
17.59462546576149
 20
314.7766722807544
 30
0.0
 10
15.80038858537483
 20
316.3595864586679
 30
0.0
 10
15.00334074343476
 20
317.2792399464724
 30
0.0
 10
13.59227894508966
 20
319.1996534395079
 30
0.0
 10
13.01177863651634
 20
320.2480015486637
 30
0.0
 10
12.04760699719637
 20
322.4655314518327
 30
0.0
 10
11.66438995637975
 20
323.6007725248962
 30
0.0
 10
11.32417251927645
 20
325.3664640294668
 30
0.0
 10
11.24942703351048
 20
325.9661167448967
 30
0.0
 10
11.11570574787751
 20
327.1664929157383
 30
0.0
 10
11.08838375666038
 20
327.7643321632314
 30
0.0
 10
11.13386359532725
 20
329.5503403770178
 30
0.0
 10
11.23981429139109
 20
330.7365246489742
 30
0.0
 10
11.65341898890657
 20
332.5007460155122
 30
0.0
 10
11.81007621630409
 20
333.0826767064202
 30
0.0
 10
12.18723037013969
 20
334.2175800834322
 30
0.0
 10
12.42109017420318
 20
334.7657842983081
 30
0.0
 10
12.92104640018482
 20
335.8485202504334
 30
0.0
 10
13.18465702186763
 20
336.3840733467227
 30
0.0
 10
13.80650316661686
 20
337.4149423768054
 30
0.0
 10
14.16034567451266
 20
337.9119313169834
 30
0.0
 10
14.8856413026407
 20
338.8765640176837
 30
0.0
 10
15.26345395385026
 20
339.3449251770354
 30
0.0
 10
16.09004800286409
 20
340.2164966367531
 30
0.0
 10
16.53519693467806
 20
340.6230809888908
 30
0.0
 10
18.83576033685813
 20
342.5873161682313
 30
0.0
 10
20.99017518059024
 20
343.7039692567895
 30
0.0
 10
24.48995640981971
 20
344.6513704727403
 30
0.0
 10
25.67413799477517
 20
344.8080369683909
 30
0.0
 10
28.06654710569126
 20
344.9065366552327
 30
0.0
 10
29.27151839205566
 20
344.872009287336
 30
0.0
 10
40.09744785582259
 20
344.8797027985028
 30
0.0
 10
49.7204967193402
 20
344.8764314612672
 30
0.0
 10
78.5896414549302
 20
344.8783953904203
 30
0.0
 10
97.83573796786419
 20
344.8771429781512
 30
0.0
 10
117.0818344702261
 20
344.8771453595514
 30
0.0
  0
SPLINE
  5
255
330
246
100
AcDbEntity
  8
$DDT_AUDIT_GENERATED_(91)
  6
Continuous
 62
     7
100
AcDbSpline
210
0.0
220
0.0
230
1.0
 70
     8
 71
     3
 72
    52
 73
    48
 74
     0
 42
0.0000000000432271
 43
0.0000000001
 40
0.0
 40
0.0
 40
0.0
 40
0.0
 40
0.2499999999999987
 40
0.2499999999999987
 40
0.3749999999999979
 40
0.3749999999999979
 40
0.3906249999999978
 40
0.3906249999999978
 40
0.4062499999999976
 40
0.4062499999999976
 40
0.4374999999999973
 40
0.4374999999999973
 40
0.4453124999999973
 40
0.4453124999999973
 40
0.4531249999999974
 40
0.4531249999999974
 40
0.4609374999999974
 40
0.4609374999999974
 40
0.4687499999999974
 40
0.4687499999999974
 40
0.4765624999999974
 40
0.4765624999999974
 40
0.4843749999999974
 40
0.4843749999999974
 40
0.4999999999999974
 40
0.4999999999999974
 40
0.5078124999999976
 40
0.5078124999999976
 40
0.5156249999999976
 40
0.5156249999999976
 40
0.5312499999999976
 40
0.5312499999999976
 40
0.5468749999999977
 40
0.5468749999999977
 40
0.5624999999999977
 40
0.5624999999999977
 40
0.5781249999999977
 40
0.5781249999999977
 40
0.5937499999999977
 40
0.5937499999999977
 40
0.6093749999999978
 40
0.6093749999999978
 40
0.6249999999999978
 40
0.6249999999999978
 40
0.7499999999999986
 40
0.7499999999999986
 40
1.0
 40
1.0
 40
1.0
 40
1.0
 10
117.0818344702261
 20
344.8771453595514
 30
0.0
 10
136.3369714006158
 20
344.8771429770326
 30
0.0
 10
155.5921083307033
 20
344.8783980277526
 30
0.0
 10
184.4748137266492
 20
344.8764273709766
 30
0.0
 10
194.1024183043939
 20
344.8778955252222
 30
0.0
 10
204.9333903377688
 20
344.872206892882
 30
0.0
 10
206.1388776928222
 20
344.9066470404063
 30
0.0
 10
208.5319703701211
 20
344.8043947221033
 30
0.0
 10
209.7161708831138
 20
344.6429518028182
 30
0.0
 10
213.2165464058469
 20
343.6859929062201
 30
0.0
 10
215.3669046586614
 20
342.5605053002729
 30
0.0
 10
217.6639056755399
 20
340.5911256229161
 30
0.0
 10
218.1082002102106
 20
340.1833862467834
 30
0.0
 10
218.931632929511
 20
339.3081689633851
 30
0.0
 10
219.3081434201856
 20
338.8382357921574
 30
0.0
 10
220.0321721284671
 20
337.8716901381969
 30
0.0
 10
220.3851448696709
 20
337.3735344833674
 30
0.0
 10
221.0022927722576
 20
336.3400770486047
 30
0.0
 10
221.264332202686
 20
335.8035568210867
 30
0.0
 10
221.7628636393347
 20
334.7196199946595
 30
0.0
 10
221.9945385697128
 20
334.1701927466988
 30
0.0
 10
222.367559549542
 20
333.0329387791566
 30
0.0
 10
222.5240204631874
 20
332.4500296143877
 30
0.0
 10
222.93199889702
 20
330.6846569029989
 30
0.0
 10
223.033978907435
 20
329.4976903767483
 30
0.0
 10
223.0751398304371
 20
327.7106071588066
 30
0.0
 10
223.042869713186
 20
327.1122024809754
 30
0.0
 10
222.9070711915303
 20
325.9111560837364
 30
0.0
 10
222.8312935339034
 20
325.3117647865718
 30
0.0
 10
222.4839325363194
 20
323.5471356841924
 30
0.0
 10
222.0966285397631
 20
322.4124219091615
 30
0.0
 10
221.1253017644111
 20
320.1956737694413
 30
0.0
 10
220.5407934134955
 20
319.1506461800984
 30
0.0
 10
219.1216849018748
 20
317.2343833362276
 30
0.0
 10
218.3212285006043
 20
316.3163621630895
 30
0.0
 10
216.5206788335092
 20
314.7404462200278
 30
0.0
 10
215.5529027455226
 20
314.0474437891712
 30
0.0
 10
213.4667073730989
 20
312.8734342464745
 30
0.0
 10
212.3354134895658
 20
312.4212554012782
 30
0.0
 10
210.0462979222766
 20
311.7367073851474
 30
0.0
 10
208.8532373691039
 20
311.5298226483366
 30
0.0
 10
206.4388982779438
 20
311.394187854158
 30
0.0
 10
205.2312520639983
 20
311.4170738790933
 30
0.0
 10
194.3634422115406
 20
311.4312627064475
 30
0.0
 10
184.7032999546321
 20
311.4190406498026
 30
0.0
 10
155.7226718899207
 20
311.4186689902821
 30
0.0
 10
136.4022531800368
 20
311.4189230276581
 30
0.0
 10
117.0818344701912
 20
311.4189239854387
 30
0.0
  0
LINE
  5
256
330
246
100
AcDbEntity
  8
$DDT_AUDIT_GENERATED_(91)
  6
Continuous
 62
     7
100
AcDbLine
 10
136.2026433302
 20
308.545542893
 30
0.0
 11
147.6302468959
 21
308.5456524885
 31
0.0
  0
SPLINE
  5
257
330
246
100
AcDbEntity
  8
$DDT_AUDIT_GENERATED_(91)
  6
Continuous
 62
     7
100
AcDbSpline
210
0.0
220
0.0
230
1.0
 70
     8
 71
     3
 72
    10
 73
     6
 74
     0
 42
0.0000000011689319
 43
0.0000000001
 40
0.1621959891042986
 40
0.1621959891042986
 40
0.1621959891042986
 40
0.1621959891042986
 40
0.1874999999999999
 40
0.1874999999999999
 40
0.1905448167367786
 40
0.1905448167367786
 40
0.1905448167367786
 40
0.1905448167367786
 10
143.331869600197
 20
308.4873852116415
 30
0.0
 10
143.3319408308689
 20
308.4733430784617
 30
0.0
 10
143.271524800456
 20
308.4592826125721
 30
0.0
 10
143.137102789249
 20
308.4482271993775
 30
0.0
 10
143.1217967246865
 20
308.4470395751094
 30
0.0
 10
143.1056201974027
 20
308.4458773109379
 30
0.0
  0
SPLINE
  5
258
330
246
100
AcDbEntity
  8
$DDT_AUDIT_GENERATED_(91)
  6
Continuous
 62
     7
100
AcDbSpline
210
0.0
220
0.0
230
1.0
 70
     8
 71
     3
 72
    10
 73
     6
 74
     0
 42
0.0000000006744821
 43
0.0000000001
 40
0.8093338841337078
 40
0.8093338841337078
 40
0.8093338841337078
 40
0.8093338841337078
 40
0.8125
 40
0.8125
 40
0.8144327241711111
 40
0.8144327241711111
 40
0.8144327241711111
 40
0.8144327241711111
 10
91.06375051588418
 20
308.4455008456273
 30
0.0
 10
91.04658764463197
 20
308.4467022576815
 30
0.0
 10
91.03039712830623
 20
308.4479332158731
 30
0.0
 10
91.00590484932809
 20
308.4499161782518
 30
0.0
 10
90.99697277165112
 20
308.4506876629926
 30
0.0
 10
90.98839255808964
 20
308.4514776753491
 30
0.0
  0
ARC
  5
259
330
246
100
AcDbEntity
  8
$DDT_AUDIT_GENERATED_(91)
  6
Continuous
 62
     7
100
AcDbCircle
 10
115.9284835808
 20
232.0837273465
 30
0.0
 40
78.54645077428155
100
AcDbArc
 50
89.1586569157
 51
103.2234582193
  0
ARC
  5
25A
330
246
100
AcDbEntity
  8
$DDT_AUDIT_GENERATED_(91)
  6
Continuous
 62
     7
100
AcDbCircle
 10
118.2381905034
 20
232.1113878144
 30
0.0
 40
78.51883748913846
100
AcDbArc
 50
76.7740596196
 51
90.8438320998
  0
ARC
  5
25B
330
246
100
AcDbEntity
  8
$DDT_AUDIT_GENERATED_(91)
  6
Continuous
 62
     7
100
AcDbCircle
 10
208.4576749854
 20
319.0779262324
 30
0.0
 40
25.83975066831776
100
AcDbArc
 50
75.5338525166
 51
93.103899489
  0
SPLINE
  5
25C
330
246
100
AcDbEntity
  8
$DDT_AUDIT_GENERATED_(91)
  6
Continuous
 62
     7
100
AcDbSpline
210
0.0
220
0.0
230
1.0
 70
     8
 71
     3
 72
    12
 73
     8
 74
     0
 42
0.0000000012891979
 43
0.0000000001
 40
0.6747593686901073
 40
0.6747593686901073
 40
0.6747593686901073
 40
0.6747593686901073
 40
0.7500000000000004
 40
0.7500000000000004
 40
0.8750000000000003
 40
0.8750000000000003
 40
1.0
 40
1.0
 40
1.0
 40
1.0
 10
209.5807222247281
 20
344.8699772641481
 30
0.0
 10
209.4671525144003
 20
344.8769291827012
 30
0.0
 10
209.3345379411153
 20
344.8830909840967
 30
0.0
 10
208.9308187507136
 20
344.8947932237108
 30
0.0
 10
208.6239182534545
 20
344.8963100282829
 30
0.0
 10
207.9138273844404
 20
344.8895955843027
 30
0.0
 10
207.5105741189737
 20
344.8828609897637
 30
0.0
 10
207.0585358925219
 20
344.8797696626713
 30
0.0
  0
ARC
  5
25D
330
246
100
AcDbEntity
  8
$DDT_AUDIT_GENERATED_(91)
  6
Continuous
 62
     7
100
AcDbCircle
 10
25.7149707961
 20
318.9876890037
 30
0.0
 40
25.92937314730192
100
AcDbArc
 50
86.9267040628
 51
104.4355438965
  0
SPLINE
  5
25E
330
246
100
AcDbEntity
  8
$DDT_AUDIT_GENERATED_(91)
  6
Continuous
 62
     7
100
AcDbSpline
210
0.0
220
0.0
230
1.0
 70
     8
 71
     3
 72
    16
 73
    12
 74
     0
 42
0.0000000017983622
 43
0.0000000001
 40
0.0
 40
0.0
 40
0.0
 40
0.0
 40
0.1249999999999999
 40
0.1249999999999999
 40
0.2500000000000001
 40
0.2500000000000001
 40
0.3750000000000003
 40
0.3750000000000003
 40
0.5000000000000004
 40
0.5000000000000004
 40
0.5453357360982037
 40
0.5453357360982037
 40
0.5453357360982037
 40
0.5453357360982037
 10
27.10513304787013
 20
344.8797696602438
 30
0.0
 10
26.65261764985036
 20
344.8828638712442
 30
0.0
 10
26.25034600228915
 20
344.8895786322445
 30
0.0
 10
25.54336036859431
 20
344.8962880074018
 30
0.0
 10
25.23864778085036
 20
344.8949068447112
 30
0.0
 10
24.72929848263378
 20
344.8802509904102
 30
0.0
 10
24.52885154039819
 20
344.8679603302287
 30
0.0
 10
24.23590052208507
 20
344.8428606737513
 30
0.0
 10
24.14269583451964
 20
344.832521669743
 30
0.0
 10
24.08899041020437
 20
344.8192770537519
 30
0.0
 10
24.08179604985378
 20
344.8158673964114
 30
0.0
 10
24.08183268640018
 20
344.8115123973691
 30
0.0
  0
SPLINE
  5
25F
330
246
100
AcDbEntity
  8
$DDT_AUDIT_GENERATED_(91)
  6
Continuous
 62
     7
100
AcDbSpline
210
0.0
220
0.0
230
1.0
 70
     8
 71
     3
 72
    10
 73
     6
 74
     0
 42
0.0000000049921759
 43
0.0000000001
 40
0.5705261552475387
 40
0.5705261552475387
 40
0.5705261552475387
 40
0.5705261552475387
 40
0.625
 40
0.625
 40
0.6890694599028572
 40
0.6890694599028572
 40
0.6890694599028572
 40
0.6890694599028572
 10
60.08194906618029
 20
344.8801264503723
 30
0.0
 10
60.08192288249049
 20
344.8793164046725
 30
0.0
 10
60.06532373111883
 20
344.878029149322
 30
0.0
 10
59.9932668717854
 20
344.8782078750633
 30
0.0
 10
59.93067042893436
 20
344.8783483624804
 30
0.0
 10
59.8453254407488
 20
344.8784506187453
 30
0.0
  0
SPLINE
  5
260
330
246
100
AcDbEntity
  8
$DDT_AUDIT_GENERATED_(91)
  6
Continuous
 62
     7
100
AcDbSpline
210
0.0
220
0.0
230
1.0
 70
     8
 71
     3
 72
    22
 73
    18
 74
     0
 42
0.0000000003338518
 43
0.0000000001
 40
0.0
 40
0.0
 40
0.0
 40
0.0
 40
0.1250000000000001
 40
0.1250000000000001
 40
0.2500000000000001
 40
0.2500000000000001
 40
0.3750000000000002
 40
0.3750000000000002
 40
0.5000000000000002
 40
0.5000000000000002
 40
0.6250000000000002
 40
0.6250000000000002
 40
0.7500000000000003
 40
0.7500000000000003
 40
0.8750000000000004
 40
0.8750000000000004
 40
1.0
 40
1.0
 40
1.0
 40
1.0
 10
27.10513304787013
 20
344.8797696602438
 30
0.0
 10
27.93032244365801
 20
344.878992575762
 30
0.0
 10
28.89182448011315
 20
344.8795191944519
 30
0.0
 10
31.08284459929528
 20
344.8803499440579
 30
0.0
 10
32.29989167216537
 20
344.8793763672329
 30
0.0
 10
34.88751538154206
 20
344.8768805093147
 30
0.0
 10
36.28895056727607
 20
344.8787059592714
 30
0.0
 10
39.13942846619126
 20
344.8778463444548
 30
0.0
 10
40.60480871607761
 20
344.8771156287792
 30
0.0
 10
43.57205803894914
 20
344.877342088409
 30
0.0
 10
45.02790521465416
 20
344.87729633141
 30
0.0
 10
47.88524814587083
 20
344.8772890029109
 30
0.0
 10
49.28198285635263
 20
344.8773168327831
 30
0.0
 10
51.86792297291112
 20
344.8775754797933
 30
0.0
 10
53.0922816651338
 20
344.8777912602529
 30
0.0
 10
55.27351042416976
 20
344.8782317063005
 30
0.0
 10
56.23334646953641
 20
344.8784553548147
 30
0.0
 10
57.0585379774537
 20
344.8786258912251
 30
0.0
  0
ARC
  5
261
330
246
100
AcDbEntity
  8
$DDT_AUDIT_GENERATED_(91)
  6
Continuous
 62
     7
100
AcDbCircle
 10
208.9930951823
 20
317.9388918389
 30
0.0
 40
26.93497957933629
100
AcDbArc
 50
77.3059490885
 51
88.7630858268
  0
ARC
  5
262
330
246
100
AcDbEntity
  8
$DDT_AUDIT_GENERATED_(91)
  6
Continuous
 62
     7
100
AcDbCircle
 10
208.1348371976
 20
341.5849899347
 30
0.0
 40
33.07614900634508
100
AcDbArc
 50
267.3253590462
 51
281.8232554616
  0
ARC
  5
263
330
246
100
AcDbEntity
  8
$DDT_AUDIT_GENERATED_(91)
  6
Continuous
 62
     7
100
AcDbCircle
 10
25.9766256568
 20
340.9324691606
 30
0.0
 40
32.42688043263513
100
AcDbArc
 50
258.030798955
 51
272.8205865372
  0
ARC
  5
264
330
246
100
AcDbEntity
  8
$DDT_AUDIT_GENERATED_(91)
  6
Continuous
 62
     7
100
AcDbCircle
 10
25.0940862007
 20
318.1991689078
 30
0.0
 40
26.66426230868025
100
AcDbArc
 50
91.4387457995
 51
102.6566116777
  0
ARC
  5
265
330
246
100
AcDbEntity
  8
$DDT_AUDIT_GENERATED_(91)
  6
Continuous
 62
     7
100
AcDbCircle
 10
86.3444418678
 20
223.4524551825
 30
0.0
 40
85.13046342858175
100
AcDbArc
 50
86.899793291
 51
91.8193742077
  0
ARC
  5
266
330
246
100
AcDbEntity
  8
$DDT_AUDIT_GENERATED_(91)
  6
Continuous
 62
     7
100
AcDbCircle
 10
147.7145086168
 20
231.3137299933
 30
0.0
 40
77.27456603250444
100
AcDbArc
 50
87.97207396
 51
93.3369571821
  0
ARC
  5
267
330
246
100
AcDbEntity
  8
$DDT_AUDIT_GENERATED_(91)
  6
Continuous
 62
     7
100
AcDbCircle
 10
117.3401988483
 20
-2461.4434103919
 30
0.0
 40
2806.518906192065
100
AcDbArc
 50
89.3336159198
 51
90.6683998162
  0
ARC
  5
268
330
246
100
AcDbEntity
  8
$DDT_AUDIT_GENERATED_(1BF)
  6
Continuous
 62
     7
100
AcDbCircle
 10
117.0818344702
 20
278.3089864226
 30
0.0
 40
26.0
100
AcDbArc
 50
180.0
 51
203.5679652854
  0
ARC
  5
269
330
246
100
AcDbEntity
  8
$DDT_AUDIT_GENERATED_(1BF)
  6
Continuous
 62
     7
100
AcDbCircle
 10
117.0818344702
 20
278.3089864226
 30
0.0
 40
26.0
100
AcDbArc
 50
336.4335744413
 51
0.0
  0
LINE
  5
26A
330
246
100
AcDbEntity
  8
$DDT_AUDIT_GENERATED_(1BF)
  6
Continuous
 62
     7
100
AcDbLine
 10
143.0818344702
 20
278.3089864226
 30
0.0
 11
143.0818344702
 21
308.5290514598
 31
0.0
  0
LINE
  5
26B
330
246
100
AcDbEntity
  8
$DDT_AUDIT_GENERATED_(1BF)
  6
Continuous
 62
     7
100
AcDbLine
 10
91.0818344702
 20
308.5311402958
 30
0.0
 11
91.0818344702
 21
278.3089864226
 31
0.0
  0
LINE
  5
26C
330
246
100
AcDbEntity
  8
$DDT_AUDIT_GENERATED_(A9)
  6
Continuous
 62
     7
100
AcDbLine
 10
141.4733568354
 20
236.2559988478
 30
0.0
 11
141.4635721922
 21
236.1246632774
 31
0.0
  0
LINE
  5
26D
330
246
100
AcDbEntity
  8
$DDT_AUDIT_GENERATED_(A9)
  6
Continuous
 62
     7
100
AcDbLine
 10
141.5620388009
 20
236.4494366032
 30
0.0
 11
143.7811531607
 21
267.7021005897
 31
0.0
  0
LINE
  5
26E
330
246
100
AcDbEntity
  8
$DDT_AUDIT_GENERATED_(A9)
  6
Continuous
 62
     7
100
AcDbLine
 10
92.6016301395
 20
236.4494366032
 30
0.0
 11
90.3825157797
 21
267.7021005897
 31
0.0
  0
ELLIPSE
  5
26F
330
246
100
AcDbEntity
  8
$DDT_AUDIT_GENERATED_(A9)
  6
Continuous
 62
     7
100
AcDbEllipse
 10
93.1003744367
 20
236.4848502445
 30
0.0
 11
0.4987442972210105
 21
0.03541364129146241
 31
0.0
210
0.0
220
0.0
230
0.9999999999999999
 40
0.9854393326
 41
3.141592653589793
 42
3.340524281525775
  0
ARC
  5
270
330
246
100
AcDbEntity
  8
$DDT_AUDIT_GENERATED_(A9)
  6
Continuous
 62
     7
100
AcDbCircle
 10
93.2203951418
 20
236.160045742
 30
0.0
 40
0.5214828481139838
100
AcDbArc
 50
212.9010288051
 51
269.033328589
  0
SPLINE
  5
271
330
246
100
AcDbEntity
  8
$DDT_AUDIT_GENERATED_(A9)
  6
Continuous
 62
     7
100
AcDbSpline
210
0.0
220
0.0
230
1.0
 70
     8
 71
     3
 72
    14
 73
    10
 74
     0
 42
0.0000000001195808
 43
0.0000000001
 40
0.8282733000481426
 40
0.8282733000481426
 40
0.8282733000481426
 40
0.8282733000481426
 40
0.8437499999999998
 40
0.8437499999999998
 40
0.8749999999999997
 40
0.8749999999999997
 40
0.9374999999999999
 40
0.9374999999999999
 40
1.0
 40
1.0
 40
1.0
 40
1.0
 10
102.8374026033342
 20
221.5757086895678
 30
0.0
 10
103.0769969837182
 20
221.4968377975719
 30
0.0
 10
103.3385179921176
 20
221.4198877303685
 30
0.0
 10
104.198182727726
 20
221.1968966030578
 30
0.0
 10
104.8688676864586
 20
221.0609049103416
 30
0.0
 10
107.1402844875526
 20
220.6885227449857
 30
0.0
 10
108.9546035879711
 20
220.494190036408
 30
0.0
 10
112.8771220476234
 20
220.2325770881357
 30
0.0
 10
114.9626310295892
 20
220.1665396452614
 30
0.0
 10
117.0818344702138
 20
220.1665396452618
 30
0.0
  0
SPLINE
  5
272
330
246
100
AcDbEntity
  8
$DDT_AUDIT_GENERATED_(A9)
  6
Continuous
 62
     7
100
AcDbSpline
210
0.0
220
0.0
230
1.0
 70
     8
 71
     3
 72
    16
 73
    12
 74
     0
 42
0.0000000001172752
 43
0.0000000001
 40
0.0
 40
0.0
 40
0.0
 40
0.0
 40
0.0625000000000002
 40
0.0625000000000002
 40
0.0937500000000002
 40
0.0937500000000002
 40
0.1250000000000003
 40
0.1250000000000003
 40
0.1562500000000004
 40
0.1562500000000004
 40
0.1642213546718482
 40
0.1642213546718482
 40
0.1642213546718482
 40
0.1642213546718482
 10
117.0818344702138
 20
220.1665396452618
 30
0.0
 10
119.2070734187635
 20
220.1665396452614
 30
0.0
 10
121.3197933286421
 20
220.2341714532561
 30
0.0
 10
124.2494722182228
 20
220.4305073790192
 30
0.0
 10
125.2016444051708
 20
220.5130021047188
 30
0.0
 10
126.976578625776
 20
220.70575984204
 30
0.0
 10
127.8016392546014
 20
220.8156332456481
 30
0.0
 10
129.31564220081
 20
221.0648137473661
 30
0.0
 10
129.9991742657061
 20
221.204454591738
 30
0.0
 10
130.7143585706794
 20
221.3914881087375
 30
0.0
 10
130.8533814181854
 20
221.430206786361
 30
0.0
 10
130.9864481571737
 20
221.4695607382546
 30
0.0
  0
ARC
  5
273
330
246
100
AcDbEntity
  8
$DDT_AUDIT_GENERATED_(A9)
  6
Continuous
 62
     7
100
AcDbCircle
 10
140.9432700145
 20
236.1600413821
 30
0.0
 40
0.5214835421683737
100
AcDbArc
 50
270.9668011185
 51
326.5345142388
  0
ARC
  5
274
330
246
100
AcDbEntity
  8
$DDT_AUDIT_GENERATED_(A9)
  6
Continuous
 62
     7
100
AcDbCircle
 10
140.9439627202
 20
236.1593338548
 30
0.0
 40
0.5207648723479519
100
AcDbArc
 50
329.9305712508
 51
356.1826377447
  0
SPLINE
  5
275
330
246
100
AcDbEntity
  8
$DDT_AUDIT_GENERATED_(A9)
  6
Continuous
 62
     7
100
AcDbSpline
210
0.0
220
0.0
230
1.0
 70
     8
 71
     3
 72
    14
 73
    10
 74
     0
 42
0.0000000004978279
 43
0.0000000001
 40
0.2703118157428026
 40
0.2703118157428026
 40
0.2703118157428026
 40
0.2703118157428026
 40
0.5
 40
0.5
 40
0.625
 40
0.625
 40
0.6875000000000002
 40
0.6875000000000002
 40
0.7466494570945552
 40
0.7466494570945552
 40
0.7466494570945552
 40
0.7466494570945552
 10
138.8816292665606
 20
231.4391015162931
 30
0.0
 10
138.1408461352953
 20
230.1134338129602
 30
0.0
 10
137.4005305096584
 20
228.7877376115377
 30
0.0
 10
136.2593016635117
 20
226.7402529546135
 30
0.0
 10
135.8553774582781
 20
226.0194096930245
 30
0.0
 10
135.2545810289435
 20
224.9365766593549
 30
0.0
 10
135.0540884127767
 20
224.5751632074271
 30
0.0
 10
134.6453753240059
 20
223.8713174141405
 30
0.0
 10
134.4450073552573
 20
223.5213363649128
 30
0.0
 10
134.1035079054643
 20
223.1669674574923
 30
0.0
  0
SPLINE
  5
276
330
246
100
AcDbEntity
  8
$DDT_AUDIT_GENERATED_(A9)
  6
Continuous
 62
     7
100
AcDbSpline
210
0.0
220
0.0
230
1.0
 70
     8
 71
     3
 72
    14
 73
    10
 74
     0
 42
0.0000000005004234
 43
0.0000000001
 40
0.2662896086841607
 40
0.2662896086841607
 40
0.2662896086841607
 40
0.2662896086841607
 40
0.3124999999999989
 40
0.3124999999999989
 40
0.374999999999999
 40
0.374999999999999
 40
0.4999999999999992
 40
0.4999999999999992
 40
0.712764595908743
 40
0.712764595908743
 40
0.712764595908743
 40
0.712764595908743
 10
99.85739789317752
 20
223.3956006174602
 30
0.0
 10
99.63246991202679
 20
223.6714704999911
 30
0.0
 10
99.47659969442957
 20
223.9431870916377
 30
0.0
 10
99.11119649126695
 20
224.5722886215534
 30
0.0
 10
98.91062342609662
 20
224.9338116964067
 30
0.0
 10
98.30966929935487
 20
226.0169213599943
 30
0.0
 10
97.90565762378417
 20
226.7379403809928
 30
0.0
 10
96.81860768101333
 20
228.6882157875794
 30
0.0
 10
96.13275875737966
 20
229.9165537460867
 30
0.0
 10
95.44645560019926
 20
231.1448556109608
 30
0.0
  0
ARC
  5
277
330
246
100
AcDbEntity
  8
$DDT_AUDIT_GENERATED_(A9)
  6
Continuous
 62
     7
100
AcDbCircle
 10
93.2197081635
 20
236.1593441724
 30
0.0
 40
0.5207702259762407
100
AcDbArc
 50
183.8177766652
 51
269.1075978351
  0
LINE
  5
278
330
246
100
AcDbEntity
  8
$DDT_AUDIT_GENERATED_(A9)
  6
Continuous
 62
     7
100
AcDbLine
 10
121.4161023837
 20
258.0659094625
 30
0.0
 11
112.7475665567
 21
258.0659094625
 31
0.0
  0
LINE
  5
279
330
246
100
AcDbEntity
  8
$DDT_AUDIT_GENERATED_(A9)
  6
Continuous
 62
     7
100
AcDbLine
 10
90.5820134986
 20
267.9162660462
 30
0.0
 11
117.0818481751
 21
267.9162660462
 31
0.0
  0
LINE
  5
27A
330
246
100
AcDbEntity
  8
$DDT_AUDIT_GENERATED_(A9)
  6
Continuous
 62
     7
100
AcDbLine
 10
117.0818481751
 20
267.9162660462
 30
0.0
 11
143.5816554418
 21
267.9162660462
 31
0.0
  0
ARC
  5
27B
330
246
100
AcDbEntity
  8
$DDT_AUDIT_GENERATED_(A9)
  6
Continuous
 62
     7
100
AcDbCircle
 10
90.5820134986
 20
267.7162660462
 30
0.0
 40
0.1999999999999929
100
AcDbArc
 50
90.0
 51
184.0615049647
  0
ARC
  5
27C
330
246
100
AcDbEntity
  8
$DDT_AUDIT_GENERATED_(A9)
  6
Continuous
 62
     7
100
AcDbCircle
 10
143.5816554418
 20
267.7162660462
 30
0.0
 40
0.1999999999999988
100
AcDbArc
 50
355.9384950353
 51
90.0
  0
ARC
  5
27D
330
246
100
AcDbEntity
  8
$DDT_AUDIT_GENERATED_(A9)
  6
Continuous
 62
     7
100
AcDbCircle
 10
93.8185691075
 20
236.5851956314
 30
0.0
 40
1.188853430253033
100
AcDbArc
 50
190.8937799532
 51
214.7879165319
  0
ARC
  5
27E
330
246
100
AcDbEntity
  8
$DDT_AUDIT_GENERATED_(A9)
  6
Continuous
 62
     7
100
AcDbCircle
 10
140.3523555178
 20
236.5670328823
 30
0.0
 40
1.175883994205301
100
AcDbArc
 50
325.8579708107
 51
350.2430815916
  0
ARC
  5
27F
330
246
100
AcDbEntity
  8
$DDT_AUDIT_GENERATED_(A9)
  6
Continuous
 62
     7
100
AcDbCircle
 10
104.0514378719
 20
226.9591556162
 30
0.0
 40
5.527699352670258
100
AcDbArc
 50
222.2123520413
 51
255.9531407746
  0
ARC
  5
280
330
246
100
AcDbEntity
  8
$DDT_AUDIT_GENERATED_(A9)
  6
Continuous
 62
     7
100
AcDbCircle
 10
259.4290997979
 20
323.5519663401
 30
0.0
 40
188.2469919786537
100
AcDbArc
 50
207.745281558
 51
209.4545863835
  0
ARC
  5
281
330
246
100
AcDbEntity
  8
$DDT_AUDIT_GENERATED_(A9)
  6
Continuous
 62
     7
100
AcDbCircle
 10
-32.5624961846
 20
327.777714205
 30
0.0
 40
196.6878620825938
100
AcDbArc
 50
330.6174253378
 51
332.1574196337
  0
ARC
  5
282
330
246
100
AcDbEntity
  8
$DDT_AUDIT_GENERATED_(A9)
  6
Continuous
 62
     7
100
AcDbCircle
 10
129.7315442172
 20
227.5910984461
 30
0.0
 40
6.259525397248682
100
AcDbArc
 50
282.7486092726
 51
312.8519186933
  0
LINE
  5
283
330
246
100
AcDbEntity
  8
$DDT_AUDIT_GENERATED_(1E1)
  6
Continuous
 62
     7
100
AcDbLine
 10
28.8618344702
 20
361.5091271563
 30
0.0
 11
31.0818344702
 21
362.3836084122
 31
0.0
  0
LINE
  5
284
330
246
100
AcDbEntity
  8
$DDT_AUDIT_GENERATED_(1E1)
  6
Continuous
 62
     7
100
AcDbLine
 10
53.0818344702
 20
362.3836084122
 30
0.0
 11
55.3018344702
 21
361.5091271563
 31
0.0
  0
LINE
  5
285
330
246
100
AcDbEntity
  8
$DDT_AUDIT_GENERATED_(1E1)
  6
Continuous
 62
     7
100
AcDbLine
 10
55.3018344702
 20
361.3836118684
 30
0.0
 11
55.3018344702
 21
361.5091271563
 31
0.0
  0
LINE
  5
286
330
246
100
AcDbEntity
  8
$DDT_AUDIT_GENERATED_(1E1)
  6
Continuous
 62
     7
100
AcDbLine
 10
28.8618344702
 20
361.5091271563
 30
0.0
 11
28.8618344702
 21
361.3836118684
 31
0.0
  0
LINE
  5
287
330
246
100
AcDbEntity
  8
$DDT_AUDIT_GENERATED_(1E1)
  6
Continuous
 62
     7
100
AcDbLine
 10
54.1318344702
 20
361.9700024128
 30
0.0
 11
54.1318344702
 21
361.3836118684
 31
0.0
  0
LINE
  5
288
330
246
100
AcDbEntity
  8
$DDT_AUDIT_GENERATED_(1E1)
  6
Continuous
 62
     7
100
AcDbLine
 10
30.0318344702
 20
361.9700024128
 30
0.0
 11
30.0318344702
 21
361.3836118684
 31
0.0
  0
LINE
  5
289
330
246
100
AcDbEntity
  8
$DDT_AUDIT_GENERATED_(CF)
  6
Continuous
 62
     7
100
AcDbLine
 10
77.0818344702
 20
387.6932516588
 30
0.0
 11
7.0818344702
 21
387.6932516588
 31
0.0
  0
LINE
  5
28A
330
246
100
AcDbEntity
  8
$DDT_AUDIT_GENERATED_(CF)
  6
Continuous
 62
     7
100
AcDbLine
 10
7.0818344702
 20
387.6932516588
 30
0.0
 11
7.0818344702
 21
364.9103065948
 31
0.0
  0
LINE
  5
28B
330
246
100
AcDbEntity
  8
$DDT_AUDIT_GENERATED_(CF)
  6
Continuous
 62
     7
100
AcDbLine
 10
77.0818344702
 20
364.9103065948
 30
0.0
 11
77.0818344702
 21
387.6932516588
 31
0.0
  0
ARC
  5
28C
330
246
100
AcDbEntity
  8
$DDT_AUDIT_GENERATED_(CF)
  6
Continuous
 62
     7
100
AcDbCircle
 10
42.0818344702
 20
811.6932516588
 30
0.0
 40
450.0000000000001
100
AcDbArc
 50
271.6665978934
 51
274.2242740157
  0
ARC
  5
28D
330
246
100
AcDbEntity
  8
$DDT_AUDIT_GENERATED_(CF)
  6
Continuous
 62
     7
100
AcDbCircle
 10
42.0818344702
 20
811.6932516588
 30
0.0
 40
450.0000000000002
100
AcDbArc
 50
265.7757259843
 51
268.3334021066
  0
ARC
  5
28E
330
246
100
AcDbEntity
  8
$DDT_AUDIT_GENERATED_(CF)
  6
Continuous
 62
     7
100
AcDbCircle
 10
9.0818344702
 20
364.9103065948
 30
0.0
 40
2.000000000000002
100
AcDbArc
 50
180.0
 51
265.7757259844
  0
ARC
  5
28F
330
246
100
AcDbEntity
  8
$DDT_AUDIT_GENERATED_(CF)
  6
Continuous
 62
     7
100
AcDbCircle
 10
75.0818344702
 20
364.9103065948
 30
0.0
 40
2.000000000000142
100
AcDbArc
 50
274.2242740156
 51
0.0
  0
ARC
  5
290
330
246
100
AcDbEntity
  8
$DDT_AUDIT_GENERATED_(CF)
  6
Continuous
 62
     7
100
AcDbCircle
 10
29.0233344702
 20
362.8831853972
 30
0.0
 40
1.000000000000043
100
AcDbArc
 50
268.3334021067
 51
270.0
  0
ARC
  5
291
330
246
100
AcDbEntity
  8
$DDT_AUDIT_GENERATED_(CF)
  6
Continuous
 62
     7
100
AcDbCircle
 10
55.1403344702
 20
362.8831853972
 30
0.0
 40
1.000000000000001
100
AcDbArc
 50
270.0
 51
271.6665978933
  0
LINE
  5
292
330
246
100
AcDbEntity
  8
$DDT_AUDIT_GENERATED_(CF)
  6
Continuous
 62
     7
100
AcDbLine
 10
29.0233344702
 20
361.8831853972
 30
0.0
 11
29.8114366362
 21
361.8831853972
 31
0.0
  0
LINE
  5
293
330
246
100
AcDbEntity
  8
$DDT_AUDIT_GENERATED_(CF)
  6
Continuous
 62
     7
100
AcDbLine
 10
54.3522323042
 20
361.8831853972
 30
0.0
 11
55.1403344702
 21
361.8831853972
 31
0.0
  0
LINE
  5
294
330
246
100
AcDbEntity
  8
$DDT_AUDIT_GENERATED_(1E1)
  6
Continuous
 62
     7
100
AcDbLine
 10
181.0818344702
 20
362.5836118684
 30
0.0
 11
178.8618344702
 21
361.7091306125
 31
0.0
  0
LINE
  5
295
330
246
100
AcDbEntity
  8
$DDT_AUDIT_GENERATED_(1E1)
  6
Continuous
 62
     7
100
AcDbLine
 10
203.0818344702
 20
362.5836118684
 30
0.0
 11
205.3018344702
 21
361.7091306125
 31
0.0
  0
LINE
  5
296
330
246
100
AcDbEntity
  8
$DDT_AUDIT_GENERATED_(1E1)
  6
Continuous
 62
     7
100
AcDbLine
 10
205.3018344702
 20
361.3836118684
 30
0.0
 11
205.3018344702
 21
361.7091306125
 31
0.0
  0
LINE
  5
297
330
246
100
AcDbEntity
  8
$DDT_AUDIT_GENERATED_(1E1)
  6
Continuous
 62
     7
100
AcDbLine
 10
178.8618344702
 20
361.7091306125
 30
0.0
 11
178.8618344702
 21
361.3836118684
 31
0.0
  0
LINE
  5
298
330
246
100
AcDbEntity
  8
$DDT_AUDIT_GENERATED_(1E1)
  6
Continuous
 62
     7
100
AcDbLine
 10
204.1318344702
 20
362.170005869
 30
0.0
 11
204.1318344702
 21
361.3836118684
 31
0.0
  0
LINE
  5
299
330
246
100
AcDbEntity
  8
$DDT_AUDIT_GENERATED_(1E1)
  6
Continuous
 62
     7
100
AcDbLine
 10
180.0318344702
 20
362.170005869
 30
0.0
 11
180.0318344702
 21
361.3836118684
 31
0.0
  0
LINE
  5
29A
330
246
100
AcDbEntity
  8
$DDT_AUDIT_GENERATED_(CF)
  6
Continuous
 62
     7
100
AcDbLine
 10
227.0818344702
 20
387.893255115
 30
0.0
 11
157.0818344702
 21
387.893255115
 31
0.0
  0
LINE
  5
29B
330
246
100
AcDbEntity
  8
$DDT_AUDIT_GENERATED_(CF)
  6
Continuous
 62
     7
100
AcDbLine
 10
157.0818344702
 20
387.893255115
 30
0.0
 11
157.0818344702
 21
365.1103100511
 31
0.0
  0
LINE
  5
29C
330
246
100
AcDbEntity
  8
$DDT_AUDIT_GENERATED_(CF)
  6
Continuous
 62
     7
100
AcDbLine
 10
227.0818344702
 20
365.1103100511
 30
0.0
 11
227.0818344702
 21
387.893255115
 31
0.0
  0
ARC
  5
29D
330
246
100
AcDbEntity
  8
$DDT_AUDIT_GENERATED_(CF)
  6
Continuous
 62
     7
100
AcDbCircle
 10
192.0818344702
 20
811.893255115
 30
0.0
 40
450.0000000000001
100
AcDbArc
 50
271.6665978934
 51
274.2242740157
  0
ARC
  5
29E
330
246
100
AcDbEntity
  8
$DDT_AUDIT_GENERATED_(CF)
  6
Continuous
 62
     7
100
AcDbCircle
 10
192.0818344702
 20
811.893255115
 30
0.0
 40
450.0000000000002
100
AcDbArc
 50
265.7757259843
 51
268.3334021066
  0
ARC
  5
29F
330
246
100
AcDbEntity
  8
$DDT_AUDIT_GENERATED_(CF)
  6
Continuous
 62
     7
100
AcDbCircle
 10
159.0818344702
 20
365.1103100511
 30
0.0
 40
2.000000000000002
100
AcDbArc
 50
180.0
 51
265.7757259844
  0
ARC
  5
2A0
330
246
100
AcDbEntity
  8
$DDT_AUDIT_GENERATED_(CF)
  6
Continuous
 62
     7
100
AcDbCircle
 10
225.0818344702
 20
365.1103100511
 30
0.0
 40
2.000000000000141
100
AcDbArc
 50
274.2242740156
 51
0.0
  0
ARC
  5
2A1
330
246
100
AcDbEntity
  8
$DDT_AUDIT_GENERATED_(CF)
  6
Continuous
 62
     7
100
AcDbCircle
 10
179.0233344702
 20
363.0831888534
 30
0.0
 40
1.000000000000043
100
AcDbArc
 50
268.3334021067
 51
270.0
  0
ARC
  5
2A2
330
246
100
AcDbEntity
  8
$DDT_AUDIT_GENERATED_(CF)
  6
Continuous
 62
     7
100
AcDbCircle
 10
205.1403344702
 20
363.0831888534
 30
0.0
 40
1.000000000000001
100
AcDbArc
 50
270.0
 51
271.6665978933
  0
LINE
  5
2A3
330
246
100
AcDbEntity
  8
$DDT_AUDIT_GENERATED_(CF)
  6
Continuous
 62
     7
100
AcDbLine
 10
179.0233344702
 20
362.0831888534
 30
0.0
 11
179.8114366362
 21
362.0831888534
 31
0.0
  0
LINE
  5
2A4
330
246
100
AcDbEntity
  8
$DDT_AUDIT_GENERATED_(CF)
  6
Continuous
 62
     7
100
AcDbLine
 10
204.3522323042
 20
362.0831888534
 30
0.0
 11
205.1403344702
 21
362.0831888534
 31
0.0
  0
LINE
  5
2A5
330
246
100
AcDbEntity
  8
$DDT_AUDIT_GENERATED_(1F2)
  6
Continuous
 62
     7
100
AcDbLine
 10
29.1691756965
 20
347.8836118684
 30
0.0
 11
27.0818344702
 21
347.8836118684
 31
0.0
  0
LINE
  5
2A6
330
246
100
AcDbEntity
  8
$DDT_AUDIT_GENERATED_(1F2)
  6
Continuous
 62
     7
100
AcDbLine
 10
27.5818344702
 20
361.3836118684
 30
0.0
 11
56.5818344702
 21
361.3836118684
 31
0.0
  0
LINE
  5
2A7
330
246
100
AcDbEntity
  8
$DDT_AUDIT_GENERATED_(1F2)
  6
Continuous
 62
     7
100
AcDbLine
 10
29.1691756965
 20
357.8836118684
 30
0.0
 11
27.0818344702
 21
357.8836118684
 31
0.0
  0
LINE
  5
2A8
330
246
100
AcDbEntity
  8
$DDT_AUDIT_GENERATED_(1F2)
  6
Continuous
 62
     7
100
AcDbLine
 10
57.0818344702
 20
357.8836118684
 30
0.0
 11
54.9944932438
 21
357.8836118684
 31
0.0
  0
LINE
  5
2A9
330
246
100
AcDbEntity
  8
$DDT_AUDIT_GENERATED_(1F2)
  6
Continuous
 62
     7
100
AcDbLine
 10
44.1691756965
 20
357.8836118684
 30
0.0
 11
39.9944932438
 21
357.8836118684
 31
0.0
  0
ARC
  5
2AA
330
246
100
AcDbEntity
  8
$DDT_AUDIT_GENERATED_(1F2)
  6
Continuous
 62
     7
100
AcDbCircle
 10
34.5818344702
 20
354.1050523492
 30
0.0
 40
6.601089837288617
100
AcDbArc
 50
34.9187681795
 51
145.0812318204
  0
ARC
  5
2AB
330
246
100
AcDbEntity
  8
$DDT_AUDIT_GENERATED_(1F2)
  6
Continuous
 62
     7
100
AcDbCircle
 10
49.5818344702
 20
354.1050523492
 30
0.0
 40
6.601089837288626
100
AcDbArc
 50
34.9187681795
 51
145.0812318205
  0
LINE
  5
2AC
330
246
100
AcDbEntity
  8
$DDT_AUDIT_GENERATED_(1F2)
  6
Continuous
 62
     7
100
AcDbLine
 10
57.0818344702
 20
360.6793405975
 30
0.0
 11
57.0818344702
 21
357.8836118684
 31
0.0
  0
LINE
  5
2AD
330
246
100
AcDbEntity
  8
$DDT_AUDIT_GENERATED_(1F2)
  6
Continuous
 62
     7
100
AcDbLine
 10
27.0818344702
 20
357.8836118684
 30
0.0
 11
27.0818344702
 21
360.6793405975
 31
0.0
  0
LINE
  5
2AE
330
246
100
AcDbEntity
  8
$DDT_AUDIT_GENERATED_(1F2)
  6
Continuous
 62
     7
100
AcDbLine
 10
57.0818344702
 20
347.8836118684
 30
0.0
 11
54.9944932438
 21
347.8836118684
 31
0.0
  0
LINE
  5
2AF
330
246
100
AcDbEntity
  8
$DDT_AUDIT_GENERATED_(1F2)
  6
Continuous
 62
     7
100
AcDbLine
 10
44.1691756965
 20
347.8836118684
 30
0.0
 11
39.9944932438
 21
347.8836118684
 31
0.0
  0
LINE
  5
2B0
330
246
100
AcDbEntity
  8
$DDT_AUDIT_GENERATED_(1F2)
  6
Continuous
 62
     7
100
AcDbLine
 10
27.0818344702
 20
357.8836118684
 30
0.0
 11
27.0818344702
 21
347.8836118684
 31
0.0
  0
LINE
  5
2B1
330
246
100
AcDbEntity
  8
$DDT_AUDIT_GENERATED_(1F2)
  6
Continuous
 62
     7
100
AcDbLine
 10
27.0818344702
 20
347.8836118684
 30
0.0
 11
27.0818344702
 21
345.0878831393
 31
0.0
  0
LINE
  5
2B2
330
246
100
AcDbEntity
  8
$DDT_AUDIT_GENERATED_(1F2)
  6
Continuous
 62
     7
100
AcDbLine
 10
57.0818344702
 20
347.8836118684
 30
0.0
 11
57.0818344702
 21
345.0878831393
 31
0.0
  0
LINE
  5
2B3
330
246
100
AcDbEntity
  8
$DDT_AUDIT_GENERATED_(1F2)
  6
Continuous
 62
     7
100
AcDbLine
 10
57.0818344702
 20
347.8836118684
 30
0.0
 11
57.0818344702
 21
357.8836118684
 31
0.0
  0
LINE
  5
2B4
330
246
100
AcDbEntity
  8
$DDT_AUDIT_GENERATED_(1F2)
  6
Continuous
 62
     7
100
AcDbLine
 10
54.9944932438
 20
357.8836118684
 30
0.0
 11
54.9944932438
 21
347.8836118684
 31
0.0
  0
ARC
  5
2B5
330
246
100
AcDbEntity
  8
$DDT_AUDIT_GENERATED_(1F2)
  6
Continuous
 62
     7
100
AcDbCircle
 10
49.5818344702
 20
351.6621713876
 30
0.0
 40
6.601089837288602
100
AcDbArc
 50
214.9187681796
 51
325.0812318204
  0
LINE
  5
2B6
330
246
100
AcDbEntity
  8
$DDT_AUDIT_GENERATED_(1F2)
  6
Continuous
 62
     7
100
AcDbLine
 10
44.1691756965
 20
347.8836118684
 30
0.0
 11
44.1691756965
 21
357.8836118684
 31
0.0
  0
LINE
  5
2B7
330
246
100
AcDbEntity
  8
$DDT_AUDIT_GENERATED_(1F2)
  6
Continuous
 62
     7
100
AcDbLine
 10
39.9944932438
 20
357.8836118684
 30
0.0
 11
39.9944932438
 21
347.8836118684
 31
0.0
  0
ARC
  5
2B8
330
246
100
AcDbEntity
  8
$DDT_AUDIT_GENERATED_(1F2)
  6
Continuous
 62
     7
100
AcDbCircle
 10
34.5818344702
 20
351.6621713876
 30
0.0
 40
6.601089837288614
100
AcDbArc
 50
214.9187681795
 51
325.0812318205
  0
LINE
  5
2B9
330
246
100
AcDbEntity
  8
$DDT_AUDIT_GENERATED_(1F2)
  6
Continuous
 62
     7
100
AcDbLine
 10
29.1691756965
 20
347.8836118684
 30
0.0
 11
29.1691756965
 21
357.8836118684
 31
0.0
  0
ARC
  5
2BA
330
246
100
AcDbEntity
  8
$DDT_AUDIT_GENERATED_(1F2)
  6
Continuous
 62
     7
100
AcDbCircle
 10
48.6854320738
 20
350.5193130666
 30
0.0
 40
9.99999999999999
100
AcDbArc
 50
326.5724358816
 51
327.1116650868
  0
ARC
  5
2BB
330
246
100
AcDbEntity
  8
$DDT_AUDIT_GENERATED_(1F2)
  6
Continuous
 62
     7
100
AcDbCircle
 10
35.4782368666
 20
350.5193130666
 30
0.0
 40
9.999999999999996
100
AcDbArc
 50
212.8937041501
 51
214.5419641895
  0
ARC
  5
2BC
330
246
100
AcDbEntity
  8
$DDT_AUDIT_GENERATED_(1F2)
  6
Continuous
 62
     7
100
AcDbCircle
 10
48.6854320738
 20
355.2479106702
 30
0.0
 40
9.999999999999996
100
AcDbArc
 50
32.8937041501
 51
37.8480959678
  0
ARC
  5
2BD
330
246
100
AcDbEntity
  8
$DDT_AUDIT_GENERATED_(1F2)
  6
Continuous
 62
     7
100
AcDbCircle
 10
35.4782368666
 20
355.2479106702
 30
0.0
 40
9.999999999999995
100
AcDbArc
 50
142.1519040322
 51
147.1116650868
  0
LINE
  5
2BE
330
246
100
AcDbEntity
  8
$DDT_AUDIT_GENERATED_(1F2)
  6
Continuous
 62
     7
100
AcDbLine
 10
179.1691756965
 20
347.8836118684
 30
0.0
 11
177.0818344702
 21
347.8836118684
 31
0.0
  0
LINE
  5
2BF
330
246
100
AcDbEntity
  8
$DDT_AUDIT_GENERATED_(1F2)
  6
Continuous
 62
     7
100
AcDbLine
 10
177.5818344702
 20
361.3836118684
 30
0.0
 11
206.5818344702
 21
361.3836118684
 31
0.0
  0
LINE
  5
2C0
330
246
100
AcDbEntity
  8
$DDT_AUDIT_GENERATED_(1F2)
  6
Continuous
 62
     7
100
AcDbLine
 10
179.1691756965
 20
357.8836118684
 30
0.0
 11
177.0818344702
 21
357.8836118684
 31
0.0
  0
LINE
  5
2C1
330
246
100
AcDbEntity
  8
$DDT_AUDIT_GENERATED_(1F2)
  6
Continuous
 62
     7
100
AcDbLine
 10
207.0818344702
 20
357.8836118684
 30
0.0
 11
204.9944932438
 21
357.8836118684
 31
0.0
  0
LINE
  5
2C2
330
246
100
AcDbEntity
  8
$DDT_AUDIT_GENERATED_(1F2)
  6
Continuous
 62
     7
100
AcDbLine
 10
194.1691756965
 20
357.8836118684
 30
0.0
 11
189.9944932438
 21
357.8836118684
 31
0.0
  0
ARC
  5
2C3
330
246
100
AcDbEntity
  8
$DDT_AUDIT_GENERATED_(1F2)
  6
Continuous
 62
     7
100
AcDbCircle
 10
184.5818344702
 20
354.1050523492
 30
0.0
 40
6.60108983728861
100
AcDbArc
 50
34.9187681795
 51
145.0812318205
  0
ARC
  5
2C4
330
246
100
AcDbEntity
  8
$DDT_AUDIT_GENERATED_(1F2)
  6
Continuous
 62
     7
100
AcDbCircle
 10
199.5818344702
 20
354.1050523492
 30
0.0
 40
6.601089837288629
100
AcDbArc
 50
34.9187681796
 51
145.0812318204
  0
LINE
  5
2C5
330
246
100
AcDbEntity
  8
$DDT_AUDIT_GENERATED_(1F2)
  6
Continuous
 62
     7
100
AcDbLine
 10
207.0818344702
 20
357.8836118684
 30
0.0
 11
207.0818344702
 21
360.6793405975
 31
0.0
  0
LINE
  5
2C6
330
246
100
AcDbEntity
  8
$DDT_AUDIT_GENERATED_(1F2)
  6
Continuous
 62
     7
100
AcDbLine
 10
177.0818344702
 20
357.8836118684
 30
0.0
 11
177.0818344702
 21
360.6793405975
 31
0.0
  0
LINE
  5
2C7
330
246
100
AcDbEntity
  8
$DDT_AUDIT_GENERATED_(1F2)
  6
Continuous
 62
     7
100
AcDbLine
 10
207.0818344702
 20
347.8836118684
 30
0.0
 11
204.9944932438
 21
347.8836118684
 31
0.0
  0
LINE
  5
2C8
330
246
100
AcDbEntity
  8
$DDT_AUDIT_GENERATED_(1F2)
  6
Continuous
 62
     7
100
AcDbLine
 10
194.1691756965
 20
347.8836118684
 30
0.0
 11
189.9944932438
 21
347.8836118684
 31
0.0
  0
LINE
  5
2C9
330
246
100
AcDbEntity
  8
$DDT_AUDIT_GENERATED_(1F2)
  6
Continuous
 62
     7
100
AcDbLine
 10
177.0818344702
 20
357.8836118684
 30
0.0
 11
177.0818344702
 21
347.8836118684
 31
0.0
  0
LINE
  5
2CA
330
246
100
AcDbEntity
  8
$DDT_AUDIT_GENERATED_(1F2)
  6
Continuous
 62
     7
100
AcDbLine
 10
177.0818344702
 20
347.8836118684
 30
0.0
 11
177.0818344702
 21
345.0878831393
 31
0.0
  0
LINE
  5
2CB
330
246
100
AcDbEntity
  8
$DDT_AUDIT_GENERATED_(1F2)
  6
Continuous
 62
     7
100
AcDbLine
 10
207.0818344702
 20
345.0878831393
 30
0.0
 11
207.0818344702
 21
347.8836118684
 31
0.0
  0
LINE
  5
2CC
330
246
100
AcDbEntity
  8
$DDT_AUDIT_GENERATED_(1F2)
  6
Continuous
 62
     7
100
AcDbLine
 10
207.0818344702
 20
347.8836118684
 30
0.0
 11
207.0818344702
 21
357.8836118684
 31
0.0
  0
LINE
  5
2CD
330
246
100
AcDbEntity
  8
$DDT_AUDIT_GENERATED_(1F2)
  6
Continuous
 62
     7
100
AcDbLine
 10
204.9944932438
 20
357.8836118684
 30
0.0
 11
204.9944932438
 21
347.8836118684
 31
0.0
  0
ARC
  5
2CE
330
246
100
AcDbEntity
  8
$DDT_AUDIT_GENERATED_(1F2)
  6
Continuous
 62
     7
100
AcDbCircle
 10
199.5818344702
 20
351.6621713876
 30
0.0
 40
6.601089837288602
100
AcDbArc
 50
214.9187681795
 51
325.0812318205
  0
LINE
  5
2CF
330
246
100
AcDbEntity
  8
$DDT_AUDIT_GENERATED_(1F2)
  6
Continuous
 62
     7
100
AcDbLine
 10
194.1691756965
 20
347.8836118684
 30
0.0
 11
194.1691756965
 21
357.8836118684
 31
0.0
  0
LINE
  5
2D0
330
246
100
AcDbEntity
  8
$DDT_AUDIT_GENERATED_(1F2)
  6
Continuous
 62
     7
100
AcDbLine
 10
189.9944932438
 20
357.8836118684
 30
0.0
 11
189.9944932438
 21
347.8836118684
 31
0.0
  0
ARC
  5
2D1
330
246
100
AcDbEntity
  8
$DDT_AUDIT_GENERATED_(1F2)
  6
Continuous
 62
     7
100
AcDbCircle
 10
184.5818344702
 20
351.6621713876
 30
0.0
 40
6.601089837288617
100
AcDbArc
 50
214.9187681796
 51
325.0812318204
  0
LINE
  5
2D2
330
246
100
AcDbEntity
  8
$DDT_AUDIT_GENERATED_(1F2)
  6
Continuous
 62
     7
100
AcDbLine
 10
179.1691756965
 20
347.8836118684
 30
0.0
 11
179.1691756965
 21
357.8836118684
 31
0.0
  0
ARC
  5
2D3
330
246
100
AcDbEntity
  8
$DDT_AUDIT_GENERATED_(1F2)
  6
Continuous
 62
     7
100
AcDbCircle
 10
198.6854320738
 20
350.5193130666
 30
0.0
 40
9.999999999999995
100
AcDbArc
 50
326.5747656528
 51
327.1116650868
  0
ARC
  5
2D4
330
246
100
AcDbEntity
  8
$DDT_AUDIT_GENERATED_(1F2)
  6
Continuous
 62
     7
100
AcDbCircle
 10
198.6854320738
 20
355.2479106702
 30
0.0
 40
9.999999999999996
100
AcDbArc
 50
32.8937041501
 51
37.8480959678
  0
ARC
  5
2D5
330
246
100
AcDbEntity
  8
$DDT_AUDIT_GENERATED_(1F2)
  6
Continuous
 62
     7
100
AcDbCircle
 10
185.4782368666
 20
355.2479106702
 30
0.0
 40
9.999999999999995
100
AcDbArc
 50
142.1519040322
 51
147.1116650868
  0
ELLIPSE
  5
2D6
330
246
100
AcDbEntity
  8
09421031_AUSL_RO
  6
Continuous
 62
     7
100
AcDbEllipse
 10
117.0818344702
 20
120.1357972634
 30
0.0
 11
12.00000000000001
 21
8.049116928532385E-13
 31
0.0
210
0.0
220
0.0
230
1.0
 40
0.984807753
 41
3.141592653589727
 42
3.827914686935411
  0
ELLIPSE
  5
2D7
330
246
100
AcDbEntity
  8
09421031_AUSL_RO
  6
Continuous
 62
     7
100
AcDbEllipse
 10
117.0818344702
 20
120.1357972634
 30
0.0
 11
12.00000000000001
 21
8.049116928532385E-13
 31
0.0
210
0.0
220
0.0
230
1.0
 40
0.984807753
 41
5.598299301736176
 42
6.283185307179586
  0
LINE
  5
2D8
330
246
100
AcDbEntity
  8
09421031_AUSL_RO
  6
Continuous
 62
     7
100
AcDbLine
 10
105.0818344702
 20
221.0437516506
 30
0.0
 11
105.0818344702
 21
169.8801354503
 31
0.0
  0
LINE
  5
2D9
330
246
100
AcDbEntity
  8
09421031_AUSL_RO
  6
Continuous
 62
     7
100
AcDbLine
 10
129.0818344702
 20
169.8801354503
 30
0.0
 11
129.0818344702
 21
221.0344998927
 31
0.0
  0
LINE
  5
2DA
330
246
100
AcDbEntity
  8
09421031_AUSL_RO
  6
Continuous
 62
     7
100
AcDbLine
 10
105.0818344702
 20
169.8801354503
 30
0.0
 11
105.0818344702
 21
120.6397477997
 31
0.0
  0
LINE
  5
2DB
330
246
100
AcDbEntity
  8
09421031_AUSL_RO
  6
Continuous
 62
     7
100
AcDbLine
 10
129.0818344702
 20
120.6397477997
 30
0.0
 11
129.0818344702
 21
169.8801354503
 31
0.0
  0
LINE
  5
2DC
330
246
100
AcDbEntity
  8
09421031_AUSL_RO
  6
Continuous
 62
     7
100
AcDbLine
 10
105.0818344702
 20
120.6397477997
 30
0.0
 11
105.0818344702
 21
120.1357972634
 31
0.0
  0
LINE
  5
2DD
330
246
100
AcDbEntity
  8
09421031_AUSL_RO
  6
Continuous
 62
     7
100
AcDbLine
 10
129.0818344702
 20
120.1357972634
 30
0.0
 11
129.0818344702
 21
120.6397477997
 31
0.0
  0
ARC
  5
2DE
330
246
100
AcDbEntity
  8
09421031_AUSL_RO
  6
Continuous
 62
     7
100
AcDbCircle
 10
117.0724089404
 20
120.3847382913
 30
0.0
 40
12.0854564870816
100
AcDbArc
 50
219.9506862161
 51
320.1895463048
  0
ARC
  5
2DF
330
246
100
AcDbEntity
  8
$DDT_AUDIT_GENERATED_(DF)
  6
Continuous
 62
     7
100
AcDbCircle
 10
117.0765811495
 20
117.8451039704
 30
0.0
 40
11.49510397036966
100
AcDbArc
 50
184.7305374338
 51
354.3009525955
  0
ENDBLK
  5
2E1
330
246
100
AcDbEntity
  8
0
100
AcDbBlockEnd
  0
ENDSEC
  0
SECTION
  2
ENTITIES
  0
INSERT
  5
5F
330
1F
100
AcDbEntity
  8
Default
100
AcDbBlockReference
  2
SEANNOT_GROUP
 10
0.0
 20
0.0
 30
0.0
  0
INSERT
  5
6A
330
1F
100
AcDbEntity
  8
Default
100
AcDbBlockReference
  2
SEANNOT_GROUP1
 10
0.0
 20
0.0
 30
0.0
  0
INSERT
  5
74
330
1F
100
AcDbEntity
  8
Default
100
AcDbBlockReference
  2
SEANNOT_GROUP2
 10
0.0
 20
0.0
 30
0.0
  0
INSERT
  5
7E
330
1F
100
AcDbEntity
  8
Default
100
AcDbBlockReference
  2
SEANNOT_GROUP3
 10
0.0
 20
0.0
 30
0.0
  0
INSERT
  5
84
330
1F
100
AcDbEntity
  8
Default
100
AcDbBlockReference
  2
SEANNOT_GROUP4
 10
0.0
 20
0.0
 30
0.0
  0
INSERT
  5
8A
330
1F
100
AcDbEntity
  8
Default
100
AcDbBlockReference
  2
SEANNOT_GROUP5
 10
0.0
 20
0.0
 30
0.0
  0
INSERT
  5
90
330
1F
100
AcDbEntity
  8
Default
100
AcDbBlockReference
  2
SE
 10
0.0
 20
0.0
 30
0.0
  0
INSERT
  5
19D
330
1F
100
AcDbEntity
  8
Default
100
AcDbBlockReference
  2
SE1
 10
0.0
 20
0.0
 30
0.0
  0
INSERT
  5
247
330
1F
100
AcDbEntity
  8
Default
100
AcDbBlockReference
  2
SE2
 10
0.0
 20
0.0
 30
0.0
  0
TEXT
  5
2E3
330
1F
100
AcDbEntity
  8
Default
  6
Continuous
 62
     7
100
AcDbText
 10
5.9362635081
 20
53.4225120485
 30
0.0
 40
10.0
  1
Grohe AG^J
  7
SEACAD_seiso_ttf
 11
5.9362635081
 21
63.4225120485
 31
0.0
100
AcDbText
 73
     3
  0
TEXT
  5
2E4
330
1F
100
AcDbEntity
  8
Default
  6
Continuous
 62
     7
100
AcDbText
 10
5.9362635081
 20
37.0588756849
 30
0.0
 40
10.0
  1
 
  7
SEACAD_seiso_ttf
 11
5.9362635081
 21
47.0588756849
 31
0.0
100
AcDbText
 73
     3
  0
TEXT
  5
2E5
330
1F
100
AcDbEntity
  8
Default
  6
Continuous
 62
     7
100
AcDbText
 10
5.9362635081
 20
20.6952393213
 30
0.0
 40
10.0
  1
ecn: 
  7
SEACAD_seiso_ttf
 11
5.9362635081
 21
30.6952393213
 31
0.0
100
AcDbText
 73
     3
  0
TEXT
  5
2E6
330
1F
100
AcDbEntity
  8
Default
  6
Continuous
 62
     7
100
AcDbText
 10
5.9362635081
 20
4.3316029576
 30
0.0
 40
10.0
  1
unit: mm
  7
SEACAD_seiso_ttf
 11
5.9362635081
 21
14.3316029576
 31
0.0
100
AcDbText
 73
     3
  0
LINE
  5
2E7
330
1F
100
AcDbEntity
  8
Default
  6
Continuous
 62
     7
100
AcDbLine
 10
0.0
 20
0.0
 30
0.0
 11
100.0
 21
0.0
 31
0.0
  0
LINE
  5
2E8
330
1F
100
AcDbEntity
  8
Default
  6
Continuous
 62
     7
100
AcDbLine
 10
0.0
 20
0.0
 30
0.0
 11
0.0
 21
100.0
 31
0.0
  0
TEXT
  5
2E9
330
1F
100
AcDbEntity
  8
Default
  6
Continuous
 62
     7
100
AcDbText
 10
24.3923665681
 20
-18.2375342018
 30
0.0
 40
10.0
  1
100 mm
  7
SEACAD_seiso_ttf
 11
24.3923665681
 21
-8.2375342018
 31
0.0
100
AcDbText
 73
     3
  0
TEXT
  5
2EA
330
1F
100
AcDbEntity
  8
Default
  6
Continuous
 62
     7
100
AcDbText
 10
-7.6150308803
 20
24.6231930421
 30
0.0
 40
10.0
  1
100 mm
 50
90.0
  7
SEACAD_seiso_ttf
 11
-17.6150308803
 21
24.6231930421
 31
0.0
100
AcDbText
 73
     3
  0
TEXT
  5
2EB
330
1F
100
AcDbEntity
  8
Default
  6
Continuous
 62
     7
100
AcDbText
 10
28.4878128572
 20
20.0907663715
 30
0.0
 40
10.0
  1
220283
  7
SEACAD_seiso_ttf
 11
28.4878128572
 21
30.0907663715
 31
0.0
100
AcDbText
 73
     3
  0
TEXT
  5
2EC
330
1F
100
AcDbEntity
  8
Default
  6
Continuous
 62
     7
100
AcDbText
 10
5.9012241913
 20
36.7242780188
 30
0.0
 40
10.0
  1
33772002
  7
SEACAD_seiso_ttf
 11
5.9012241913
 21
46.7242780188
 31
0.0
100
AcDbText
 73
     3
  0
ENDSEC
  0
SECTION
  2
OBJECTS
  0
DICTIONARY
  5
C
330
0
100
AcDbDictionary
281
     1
  3
ACAD_GROUP
350
D
  3
ACAD_LAYOUT
350
1A
  3
ACAD_MLEADERSTYLE
350
2F0
  3
ACAD_MLINESTYLE
350
17
  3
ACAD_PLOTSETTINGS
350
19
  3
ACAD_PLOTSTYLENAME
350
E
  3
ACAD_SCALELIST
350
3B
  3
ACAD_TABLESTYLE
350
2EF
  3
ACAD_VISUALSTYLE
350
2A
  3
AcDbVariableDictionary
350
2ED
  0
DICTIONARY
  5
D
102
{ACAD_REACTORS
330
C
102
}
330
C
100
AcDbDictionary
281
     1
  0
DICTIONARY
  5
1A
102
{ACAD_REACTORS
330
C
102
}
330
C
100
AcDbDictionary
281
     1
  3
Layout1
350
1E
  3
Model
350
22
  0
DICTIONARY
  5
2F0
102
{ACAD_REACTORS
330
C
102
}
330
C
100
AcDbDictionary
281
     1
  0
DICTIONARY
  5
17
102
{ACAD_REACTORS
330
C
102
}
330
C
100
AcDbDictionary
281
     1
  3
Standard
350
18
  0
DICTIONARY
  5
19
102
{ACAD_REACTORS
330
C
102
}
330
C
100
AcDbDictionary
281
     1
  0
ACDBDICTIONARYWDFLT
  5
E
102
{ACAD_REACTORS
330
C
102
}
330
C
100
AcDbDictionary
281
     1
  3
Normal
350
F
100
AcDbDictionaryWithDefault
340
F
  0
DICTIONARY
  5
3B
102
{ACAD_REACTORS
330
C
102
}
330
C
100
AcDbDictionary
281
     1
  3
A0
350
3C
  3
A1
350
3D
  3
A2
350
3E
  3
A3
350
3F
  3
A4
350
40
  3
A5
350
41
  3
A6
350
42
  3
A7
350
43
  3
A8
350
44
  3
A9
350
45
  3
B0
350
46
  3
B1
350
47
  3
B2
350
48
  3
B3
350
49
  3
B4
350
4A
  3
B5
350
4B
  3
B6
350
4C
  3
B7
350
4D
  3
B8
350
4E
  3
B9
350
4F
  3
C0
350
50
  3
C1
350
51
  3
C2
350
52
  3
C3
350
53
  3
C4
350
54
  3
C5
350
55
  3
C6
350
56
  3
C7
350
57
  3
C8
350
58
  3
C9
350
59
  3
D0
350
5A
  3
D1
350
5B
  3
D2
350
5C
  0
DICTIONARY
  5
2EF
102
{ACAD_REACTORS
330
C
102
}
330
C
100
AcDbDictionary
281
     1
  0
DICTIONARY
  5
2A
102
{ACAD_REACTORS
330
C
102
}
330
C
100
AcDbDictionary
281
     1
  3
2dWireframe
350
2F
  3
3D Hidden
350
31
  3
3dWireframe
350
30
  3
Basic
350
32
  3
Brighten
350
36
  3
ColorChange
350
3A
  3
Conceptual
350
34
  3
Dim
350
35
  3
Facepattern
350
39
  3
Flat
350
2B
  3
FlatWithEdges
350
2C
  3
Gouraud
350
2D
  3
GouraudWithEdges
350
2E
  3
Linepattern
350
38
  3
Realistic
350
33
  3
Thicken
350
37
  0
DICTIONARY
  5
2ED
102
{ACAD_REACTORS
330
C
102
}
330
C
100
AcDbDictionary
281
     1
  3
CANNOSCALE
350
2EE
  3
PSOLHEIGHT
350
2F2
  3
PSOLWIDTH
350
2F1
  0
LAYOUT
  5
1E
102
{ACAD_REACTORS
330
1A
102
}
330
1A
100
AcDbPlotSettings
  1

  2
none_device
  4

  6

 40
0.0
 41
0.0
 42
0.0
 43
0.0
 44
0.0
 45
0.0
 46
0.0
 47
0.0
 48
0.0
 49
0.0
140
0.0
141
0.0
142
1.0
143
1.0
 70
   688
 72
     0
 73
     0
 74
     5
  7

 75
    16
147
1.0
148
0.0
149
0.0
100
AcDbLayout
  1
Layout1
 70
     1
 71
     1
 10
0.0
 20
0.0
 11
1682.0
 21
2378.0
 12
0.0
 22
0.0
 32
0.0
 14
0.0
 24
0.0
 34
0.0
 15
1682.0
 25
2378.0
 35
0.0
146
0.0
 13
0.0
 23
0.0
 33
0.0
 16
1.0
 26
0.0
 36
0.0
 17
0.0
 27
1.0
 37
0.0
 76
     0
330
1B
  0
LAYOUT
  5
22
102
{ACAD_REACTORS
330
1A
102
}
330
1A
100
AcDbPlotSettings
  1

  2
none_device
  4

  6

 40
0.0
 41
0.0
 42
0.0
 43
0.0
 44
0.0
 45
0.0
 46
0.0
 47
0.0
 48
0.0
 49
0.0
140
0.0
141
0.0
142
1.0
143
1.0
 70
  1712
 72
     0
 73
     0
 74
     0
  7

 75
     0
147
1.0
148
0.0
149
0.0
100
AcDbLayout
  1
Model
 70
     1
 71
     0
 10
0.0
 20
0.0
 11
1682.0
 21
2378.0
 12
0.0
 22
0.0
 32
0.0
 14
0.0
 24
0.0
 34
0.0
 15
1682.0
 25
2378.0
 35
0.0
146
0.0
 13
0.0
 23
0.0
 33
0.0
 16
1.0
 26
0.0
 36
0.0
 17
0.0
 27
1.0
 37
0.0
 76
     0
330
1F
331
29
  0
MLINESTYLE
  5
18
102
{ACAD_REACTORS
330
17
102
}
330
17
100
AcDbMlineStyle
  2
Standard
 70
     0
  3

 62
   256
 51
90.0
 52
90.0
 71
     2
 49
0.5
 62
   256
  6
BYLAYER
 49
-0.5
 62
   256
  6
BYLAYER
  0
ACDBPLACEHOLDER
  5
F
102
{ACAD_REACTORS
330
E
102
}
330
E
  0
SCALE
  5
3C
102
{ACAD_REACTORS
330
3B
102
}
330
3B
100
AcDbScale
 70
     0
300
1:1
140
1.0
141
1.0
290
     1
  0
SCALE
  5
3D
102
{ACAD_REACTORS
330
3B
102
}
330
3B
100
AcDbScale
 70
     0
300
1:2
140
1.0
141
2.0
290
     0
  0
SCALE
  5
3E
102
{ACAD_REACTORS
330
3B
102
}
330
3B
100
AcDbScale
 70
     0
300
1:4
140
1.0
141
4.0
290
     0
  0
SCALE
  5
3F
102
{ACAD_REACTORS
330
3B
102
}
330
3B
100
AcDbScale
 70
     0
300
1:5
140
1.0
141
5.0
290
     0
  0
SCALE
  5
40
102
{ACAD_REACTORS
330
3B
102
}
330
3B
100
AcDbScale
 70
     0
300
1:8
140
1.0
141
8.0
290
     0
  0
SCALE
  5
41
102
{ACAD_REACTORS
330
3B
102
}
330
3B
100
AcDbScale
 70
     0
300
1:10
140
1.0
141
10.0
290
     0
  0
SCALE
  5
42
102
{ACAD_REACTORS
330
3B
102
}
330
3B
100
AcDbScale
 70
     0
300
1:16
140
1.0
141
16.0
290
     0
  0
SCALE
  5
43
102
{ACAD_REACTORS
330
3B
102
}
330
3B
100
AcDbScale
 70
     0
300
1:20
140
1.0
141
20.0
290
     0
  0
SCALE
  5
44
102
{ACAD_REACTORS
330
3B
102
}
330
3B
100
AcDbScale
 70
     0
300
1:30
140
1.0
141
30.0
290
     0
  0
SCALE
  5
45
102
{ACAD_REACTORS
330
3B
102
}
330
3B
100
AcDbScale
 70
     0
300
1:40
140
1.0
141
40.0
290
     0
  0
SCALE
  5
46
102
{ACAD_REACTORS
330
3B
102
}
330
3B
100
AcDbScale
 70
     0
300
1:50
140
1.0
141
50.0
290
     0
  0
SCALE
  5
47
102
{ACAD_REACTORS
330
3B
102
}
330
3B
100
AcDbScale
 70
     0
300
1:100
140
1.0
141
100.0
290
     0
  0
SCALE
  5
48
102
{ACAD_REACTORS
330
3B
102
}
330
3B
100
AcDbScale
 70
     0
300
2:1
140
2.0
141
1.0
290
     0
  0
SCALE
  5
49
102
{ACAD_REACTORS
330
3B
102
}
330
3B
100
AcDbScale
 70
     0
300
4:1
140
4.0
141
1.0
290
     0
  0
SCALE
  5
4A
102
{ACAD_REACTORS
330
3B
102
}
330
3B
100
AcDbScale
 70
     0
300
8:1
140
8.0
141
1.0
290
     0
  0
SCALE
  5
4B
102
{ACAD_REACTORS
330
3B
102
}
330
3B
100
AcDbScale
 70
     0
300
10:1
140
10.0
141
1.0
290
     0
  0
SCALE
  5
4C
102
{ACAD_REACTORS
330
3B
102
}
330
3B
100
AcDbScale
 70
     0
300
100:1
140
100.0
141
1.0
290
     0
  0
SCALE
  5
4D
102
{ACAD_REACTORS
330
3B
102
}
330
3B
100
AcDbScale
 70
     0
300
1/128" = 1'-0"
140
0.0078125
141
12.0
290
     0
  0
SCALE
  5
4E
102
{ACAD_REACTORS
330
3B
102
}
330
3B
100
AcDbScale
 70
     0
300
1/64" = 1'-0"
140
0.015625
141
12.0
290
     0
  0
SCALE
  5
4F
102
{ACAD_REACTORS
330
3B
102
}
330
3B
100
AcDbScale
 70
     0
300
1/32" = 1'-0"
140
0.03125
141
12.0
290
     0
  0
SCALE
  5
50
102
{ACAD_REACTORS
330
3B
102
}
330
3B
100
AcDbScale
 70
     0
300
1/16" = 1'-0"
140
0.0625
141
12.0
290
     0
  0
SCALE
  5
51
102
{ACAD_REACTORS
330
3B
102
}
330
3B
100
AcDbScale
 70
     0
300
3/32" = 1'-0"
140
0.09375
141
12.0
290
     0
  0
SCALE
  5
52
102
{ACAD_REACTORS
330
3B
102
}
330
3B
100
AcDbScale
 70
     0
300
1/8" = 1'-0"
140
0.125
141
12.0
290
     0
  0
SCALE
  5
53
102
{ACAD_REACTORS
330
3B
102
}
330
3B
100
AcDbScale
 70
     0
300
3/16" = 1'-0"
140
0.1875
141
12.0
290
     0
  0
SCALE
  5
54
102
{ACAD_REACTORS
330
3B
102
}
330
3B
100
AcDbScale
 70
     0
300
1/4" = 1'-0"
140
0.25
141
12.0
290
     0
  0
SCALE
  5
55
102
{ACAD_REACTORS
330
3B
102
}
330
3B
100
AcDbScale
 70
     0
300
3/8" = 1'-0"
140
0.375
141
12.0
290
     0
  0
SCALE
  5
56
102
{ACAD_REACTORS
330
3B
102
}
330
3B
100
AcDbScale
 70
     0
300
1/2" = 1'-0"
140
0.5
141
12.0
290
     0
  0
SCALE
  5
57
102
{ACAD_REACTORS
330
3B
102
}
330
3B
100
AcDbScale
 70
     0
300
3/4" = 1'-0"
140
0.75
141
12.0
290
     0
  0
SCALE
  5
58
102
{ACAD_REACTORS
330
3B
102
}
330
3B
100
AcDbScale
 70
     0
300
1" = 1'-0"
140
1.0
141
12.0
290
     0
  0
SCALE
  5
59
102
{ACAD_REACTORS
330
3B
102
}
330
3B
100
AcDbScale
 70
     0
300
1-1/2" = 1'-0"
140
1.5
141
12.0
290
     0
  0
SCALE
  5
5A
102
{ACAD_REACTORS
330
3B
102
}
330
3B
100
AcDbScale
 70
     0
300
3" = 1'-0"
140
3.0
141
12.0
290
     0
  0
SCALE
  5
5B
102
{ACAD_REACTORS
330
3B
102
}
330
3B
100
AcDbScale
 70
     0
300
6" = 1'-0"
140
6.0
141
12.0
290
     0
  0
SCALE
  5
5C
102
{ACAD_REACTORS
330
3B
102
}
330
3B
100
AcDbScale
 70
     0
300
1'-0" = 1'-0"
140
12.0
141
12.0
290
     0
  0
VISUALSTYLE
  5
2F
102
{ACAD_REACTORS
330
2A
102
}
330
2A
100
AcDbVisualStyle
  2
2dWireframe
 70
     4
 71
     0
 72
     2
 73
     0
 90
        0
 40
-0.6
 41
-30.0
 62
     5
 63
     7
 74
     1
 91
        4
 64
     7
 65
   257
 75
     1
175
     1
 42
1.0
 92
        0
 66
   257
 43
1.0
 76
     1
 77
     6
 78
     2
 67
     7
 79
     5
170
     0
171
     0
290
     0
174
     0
 93
        1
 44
0.0
173
     0
291
     0
 45
0.0
1001
ACAD
1000
AcDbSavedByObjectVersion
1070
     0
  0
VISUALSTYLE
  5
31
102
{ACAD_REACTORS
330
2A
102
}
330
2A
100
AcDbVisualStyle
  2
3D Hidden
 70
     6
 71
     1
 72
     2
 73
     2
 90
        0
 40
-0.6
 41
-30.0
 62
     5
 63
     7
 74
     2
 91
        2
 64
     7
 65
   257
 75
     2
175
     1
 42
40.0
 92
        0
 66
   257
 43
1.0
 76
     1
 77
     6
 78
     2
 67
     7
 79
     3
170
     0
171
     0
290
     0
174
     0
 93
        1
 44
0.0
173
     0
291
     0
 45
0.0
1001
ACAD
1000
AcDbSavedByObjectVersion
1070
     0
  0
VISUALSTYLE
  5
30
102
{ACAD_REACTORS
330
2A
102
}
330
2A
100
AcDbVisualStyle
  2
3dWireframe
 70
     5
 71
     0
 72
     2
 73
     0
 90
        0
 40
-0.6
 41
-30.0
 62
     5
 63
     7
 74
     1
 91
        4
 64
     7
 65
   257
 75
     1
175
     1
 42
1.0
 92
        0
 66
   257
 43
1.0
 76
     1
 77
     6
 78
     2
 67
     7
 79
     5
170
     0
171
     0
290
     0
174
     0
 93
        1
 44
0.0
173
     0
291
     0
 45
0.0
1001
ACAD
1000
AcDbSavedByObjectVersion
1070
     0
  0
VISUALSTYLE
  5
32
102
{ACAD_REACTORS
330
2A
102
}
330
2A
100
AcDbVisualStyle
  2
Basic
 70
     7
 71
     1
 72
     0
 73
     1
 90
        0
 40
-0.6
 41
-30.0
 62
     5
 63
     7
 74
     0
 91
        4
 64
     7
 65
   257
 75
     1
175
     1
 42
1.0
 92
        8
 66
     7
 43
1.0
 76
     1
 77
     6
 78
     2
 67
     7
 79
     5
170
     0
171
     0
290
     0
174
     0
 93
        1
 44
0.0
173
     0
291
     1
 45
0.0
1001
ACAD
1000
AcDbSavedByObjectVersion
1070
     0
  0
VISUALSTYLE
  5
36
102
{ACAD_REACTORS
330
2A
102
}
330
2A
100
AcDbVisualStyle
  2
Brighten
 70
    12
 71
     2
 72
     2
 73
     0
 90
        0
 40
-0.6
 41
-30.0
 62
     5
 63
     7
 74
     1
 91
        4
 64
     7
 65
   257
 75
     1
175
     1
 42
1.0
 92
        8
 66
     7
 43
1.0
 76
     1
 77
     6
 78
     2
 67
     7
 79
     5
170
     0
171
     0
290
     0
174
     0
 93
        1
 44
50.0
173
     0
291
     1
 45
0.0
1001
ACAD
1000
AcDbSavedByObjectVersion
1070
     0
  0
VISUALSTYLE
  5
3A
102
{ACAD_REACTORS
330
2A
102
}
330
2A
100
AcDbVisualStyle
  2
ColorChange
 70
    16
 71
     2
 72
     2
 73
     3
 90
        0
 40
-0.6
 41
-30.0
 62
     5
 63
     8
 74
     1
 91
        4
 64
     7
 65
   257
 75
     1
175
     1
 42
1.0
 92
        8
 66
     8
 43
1.0
 76
     1
 77
     6
 78
     2
 67
     7
 79
     5
170
     0
171
     0
290
     0
174
     0
 93
        1
 44
0.0
173
     0
291
     1
 45
0.0
1001
ACAD
1000
AcDbSavedByObjectVersion
1070
     0
  0
VISUALSTYLE
  5
34
102
{ACAD_REACTORS
330
2A
102
}
330
2A
100
AcDbVisualStyle
  2
Conceptual
 70
     9
 71
     3
 72
     2
 73
     0
 90
        0
 40
-0.6
 41
-30.0
 62
     5
 63
     7
 74
     2
 91
        2
 64
     7
 65
   257
 75
     1
175
     1
 42
40.0
 92
        8
 66
     7
 43
1.0
 76
     1
 77
     6
 78
     2
 67
     7
 79
     3
170
     0
171
     0
290
     0
174
     0
 93
        1
 44
0.0
173
     0
291
     0
 45
0.0
1001
ACAD
1000
AcDbSavedByObjectVersion
1070
     0
  0
VISUALSTYLE
  5
35
102
{ACAD_REACTORS
330
2A
102
}
330
2A
100
AcDbVisualStyle
  2
Dim
 70
    11
 71
     2
 72
     2
 73
     0
 90
        0
 40
-0.6
 41
-30.0
 62
     5
 63
     7
 74
     1
 91
        4
 64
     7
 65
   257
 75
     1
175
     1
 42
1.0
 92
        8
 66
     7
 43
1.0
 76
     1
 77
     6
 78
     2
 67
     7
 79
     5
170
     0
171
     0
290
     0
174
     0
 93
        1
 44
-50.0
173
     0
291
     1
 45
0.0
1001
ACAD
1000
AcDbSavedByObjectVersion
1070
     0
  0
VISUALSTYLE
  5
39
102
{ACAD_REACTORS
330
2A
102
}
330
2A
100
AcDbVisualStyle
  2
Facepattern
 70
    15
 71
     2
 72
     2
 73
     0
 90
        0
 40
-0.6
 41
-30.0
 62
     5
 63
     7
 74
     1
 91
        4
 64
     7
 65
   257
 75
     1
175
     1
 42
1.0
 92
        8
 66
     7
 43
1.0
 76
     1
 77
     6
 78
     2
 67
     7
 79
     5
170
     0
171
     0
290
     0
174
     0
 93
        1
 44
0.0
173
     0
291
     1
 45
0.0
1001
ACAD
1000
AcDbSavedByObjectVersion
1070
     0
  0
VISUALSTYLE
  5
2B
102
{ACAD_REACTORS
330
2A
102
}
330
2A
100
AcDbVisualStyle
  2
Flat
 70
     0
 71
     2
 72
     1
 73
     1
 90
        2
 40
-0.6
 41
30.0
 62
     5
 63
     7
 74
     0
 91
        4
 64
     7
 65
   257
 75
     1
175
     1
 42
1.0
 92
        8
 66
     7
 43
1.0
 76
     1
 77
     6
 78
     2
 67
     7
 79
     5
170
     0
171
     0
290
     0
174
     0
 93
       13
 44
0.0
173
     0
291
     1
 45
0.0
1001
ACAD
1000
AcDbSavedByObjectVersion
1070
     0
  0
VISUALSTYLE
  5
2C
102
{ACAD_REACTORS
330
2A
102
}
330
2A
100
AcDbVisualStyle
  2
FlatWithEdges
 70
     1
 71
     2
 72
     1
 73
     1
 90
        2
 40
-0.6
 41
30.0
 62
     5
 63
     7
 74
     1
 91
        4
 64
     7
 65
   257
 75
     1
175
     1
 42
1.0
 92
        0
 66
   257
 43
1.0
 76
     1
 77
     6
 78
     2
 67
     7
 79
     5
170
     0
171
     0
290
     0
174
     0
 93
       13
 44
0.0
173
     0
291
     1
 45
0.0
1001
ACAD
1000
AcDbSavedByObjectVersion
1070
     0
  0
VISUALSTYLE
  5
2D
102
{ACAD_REACTORS
330
2A
102
}
330
2A
100
AcDbVisualStyle
  2
Gouraud
 70
     2
 71
     2
 72
     2
 73
     1
 90
        2
 40
-0.6
 41
30.0
 62
     5
 63
     7
 74
     0
 91
        4
 64
     7
 65
   257
 75
     1
175
     1
 42
1.0
 92
        0
 66
     7
 43
1.0
 76
     1
 77
     6
 78
     2
 67
     7
 79
     5
170
     0
171
     0
290
     0
174
     0
 93
       13
 44
0.0
173
     0
291
     1
 45
0.0
1001
ACAD
1000
AcDbSavedByObjectVersion
1070
     0
  0
VISUALSTYLE
  5
2E
102
{ACAD_REACTORS
330
2A
102
}
330
2A
100
AcDbVisualStyle
  2
GouraudWithEdges
 70
     3
 71
     2
 72
     2
 73
     1
 90
        2
 40
-0.6
 41
30.0
 62
     5
 63
     7
 74
     1
 91
        4
 64
     7
 65
   257
 75
     1
175
     1
 42
1.0
 92
        0
 66
   257
 43
1.0
 76
     1
 77
     6
 78
     2
 67
     7
 79
     5
170
     0
171
     0
290
     0
174
     0
 93
       13
 44
0.0
173
     0
291
     1
 45
0.0
1001
ACAD
1000
AcDbSavedByObjectVersion
1070
     0
  0
VISUALSTYLE
  5
38
102
{ACAD_REACTORS
330
2A
102
}
330
2A
100
AcDbVisualStyle
  2
Linepattern
 70
    14
 71
     2
 72
     2
 73
     0
 90
        0
 40
-0.6
 41
-30.0
 62
     5
 63
     7
 74
     1
 91
        4
 64
     7
 65
   257
 75
     7
175
     7
 42
1.0
 92
        8
 66
     7
 43
1.0
 76
     1
 77
     6
 78
     2
 67
     7
 79
     5
170
     0
171
     0
290
     0
174
     0
 93
        1
 44
0.0
173
     0
291
     1
 45
0.0
1001
ACAD
1000
AcDbSavedByObjectVersion
1070
     0
  0
VISUALSTYLE
  5
33
102
{ACAD_REACTORS
330
2A
102
}
330
2A
100
AcDbVisualStyle
  2
Realistic
 70
     8
 71
     2
 72
     2
 73
     0
 90
        0
 40
-0.6
 41
-30.0
 62
     5
 63
     7
 74
     1
 91
        0
 64
     7
 65
   257
 75
     1
175
     1
 42
1.0
 92
        8
 66
     8
 43
1.0
 76
     1
 77
     6
 78
     2
 67
     7
 79
     5
170
     0
171
     0
290
     0
174
     0
 93
       13
 44
0.0
173
     0
291
     0
 45
0.0
1001
ACAD
1000
AcDbSavedByObjectVersion
1070
     0
  0
VISUALSTYLE
  5
37
102
{ACAD_REACTORS
330
2A
102
}
330
2A
100
AcDbVisualStyle
  2
Thicken
 70
    13
 71
     2
 72
     2
 73
     0
 90
        0
 40
-0.6
 41
-30.0
 62
     5
 63
     7
 74
     1
 91
        4
 64
     7
 65
   257
 75
     1
175
     1
 42
1.0
 92
       12
 66
     7
 43
1.0
 76
     1
 77
     6
 78
     2
 67
     7
 79
     5
170
     0
171
     0
290
     0
174
     0
 93
        1
 44
0.0
173
     0
291
     1
 45
0.0
1001
ACAD
1000
AcDbSavedByObjectVersion
1070
     0
  0
DICTIONARYVAR
  5
2EE
102
{ACAD_REACTORS
330
2ED
102
}
330
2ED
100
DictionaryVariables
280
     0
  1
1:1
  0
DICTIONARYVAR
  5
2F2
102
{ACAD_REACTORS
330
2ED
102
}
330
2ED
100
DictionaryVariables
280
     0
  1
80.000000
  0
DICTIONARYVAR
  5
2F1
102
{ACAD_REACTORS
330
2ED
102
}
330
2ED
100
DictionaryVariables
280
     0
  1
5.000000
  0
ENDSEC
  0
EOF
