  0
SECTION
  2
HEADER
  9
$ACADVER
  1
AC1009
  9
$DWGCODEPAGE
  3
ansi_1252
  9
$INSBASE
 10
0.0
 20
0.0
 30
0.0
  9
$EXTMIN
 10
1.000000000000000E+20
 20
1.000000000000000E+20
 30
1.000000000000000E+20
  9
$EXTMAX
 10
-1.000000000000000E+20
 20
-1.000000000000000E+20
 30
-1.000000000000000E+20
  9
$LIMMIN
 10
0.0
 20
0.0
  9
$LIMMAX
 10
12.0
 20
9.0
  9
$ORTHOMODE
 70
     0
  9
$REGENMODE
 70
     1
  9
$FILLMODE
 70
     1
  9
$QTEXTMODE
 70
     0
  9
$MIRRTEXT
 70
     1
  9
$DRAGMODE
 70
     2
  9
$LTSCALE
 40
1.0
  9
$OSMODE
 70
    37
  9
$ATTMODE
 70
     1
  9
$TEXTSIZE
 40
0.2
  9
$TRACEWID
 40
0.05
  9
$TEXTSTYLE
  7
STANDARD
  9
$CLAYER
  8
0
  9
$CELTYPE
  6
BYLAYER
  9
$CECOLOR
 62
   256
  9
$DIMSCALE
 40
1.0
  9
$DIMASZ
 40
0.18
  9
$DIMEXO
 40
0.0625
  9
$DIMDLI
 40
0.38
  9
$DIMRND
 40
0.0
  9
$DIMDLE
 40
0.0
  9
$DIMEXE
 40
0.18
  9
$DIMTP
 40
0.0
  9
$DIMTM
 40
0.0
  9
$DIMTXT
 40
0.18
  9
$DIMCEN
 40
0.09
  9
$DIMTSZ
 40
0.0
  9
$DIMTOL
 70
     0
  9
$DIMLIM
 70
     0
  9
$DIMTIH
 70
     1
  9
$DIMTOH
 70
     1
  9
$DIMSE1
 70
     0
  9
$DIMSE2
 70
     0
  9
$DIMTAD
 70
     0
  9
$DIMZIN
 70
     0
  9
$DIMBLK
  1

  9
$DIMASO
 70
     1
  9
$DIMSHO
 70
     1
  9
$DIMPOST
  1

  9
$DIMAPOST
  1

  9
$DIMALT
 70
     0
  9
$DIMALTD
 70
     2
  9
$DIMALTF
 40
25.4
  9
$DIMLFAC
 40
1.0
  9
$DIMTOFL
 70
     0
  9
$DIMTVP
 40
0.0
  9
$DIMTIX
 70
     0
  9
$DIMSOXD
 70
     0
  9
$DIMSAH
 70
     0
  9
$DIMBLK1
  1

  9
$DIMBLK2
  1

  9
$DIMSTYLE
  2
STANDARD
  9
$DIMCLRD
 70
     0
  9
$DIMCLRE
 70
     0
  9
$DIMCLRT
 70
     0
  9
$DIMTFAC
 40
1.0
  9
$DIMGAP
 40
0.09
  9
$LUNITS
 70
     2
  9
$LUPREC
 70
     4
  9
$SKETCHINC
 40
0.1
  9
$FILLETRAD
 40
0.5
  9
$AUNITS
 70
     0
  9
$AUPREC
 70
     0
  9
$MENU
  1
.
  9
$ELEVATION
 40
0.0
  9
$PELEVATION
 40
0.0
  9
$THICKNESS
 40
0.0
  9
$LIMCHECK
 70
     0
  9
$CHAMFERA
 40
0.5
  9
$CHAMFERB
 40
0.5
  9
$SKPOLY
 70
     0
  9
$TDCREATE
 40
2455541.635836759
  9
$TDUPDATE
 40
2455541.635836759
  9
$TDINDWG
 40
0.0000000116
  9
$TDUSRTIMER
 40
0.0000000116
  9
$USRTIMER
 70
     1
  9
$ANGBASE
 50
0.0
  9
$ANGDIR
 70
     0
  9
$PDMODE
 70
     0
  9
$PDSIZE
 40
0.0
  9
$PLINEWID
 40
0.0
  9
$COORDS
 70
     1
  9
$SPLFRAME
 70
     0
  9
$SPLINETYPE
 70
     6
  9
$SPLINESEGS
 70
     8
  9
$ATTDIA
 70
     0
  9
$ATTREQ
 70
     1
  9
$HANDLING
 70
     1
  9
$HANDSEED
  5
95E
  9
$SURFTAB1
 70
     6
  9
$SURFTAB2
 70
     6
  9
$SURFTYPE
 70
     6
  9
$SURFU
 70
     6
  9
$SURFV
 70
     6
  9
$UCSNAME
  2

  9
$UCSORG
 10
0.0
 20
0.0
 30
0.0
  9
$UCSXDIR
 10
1.0
 20
0.0
 30
0.0
  9
$UCSYDIR
 10
0.0
 20
1.0
 30
0.0
  9
$PUCSNAME
  2

  9
$PUCSORG
 10
0.0
 20
0.0
 30
0.0
  9
$PUCSXDIR
 10
1.0
 20
0.0
 30
0.0
  9
$PUCSYDIR
 10
0.0
 20
1.0
 30
0.0
  9
$USERI1
 70
     0
  9
$USERI2
 70
     0
  9
$USERI3
 70
     0
  9
$USERI4
 70
     0
  9
$USERI5
 70
     0
  9
$USERR1
 40
0.0
  9
$USERR2
 40
0.0
  9
$USERR3
 40
0.0
  9
$USERR4
 40
0.0
  9
$USERR5
 40
0.0
  9
$WORLDVIEW
 70
     1
  9
$SHADEDGE
 70
     3
  9
$SHADEDIF
 70
    70
  9
$TILEMODE
 70
     1
  9
$MAXACTVP
 70
    64
  9
$PLIMCHECK
 70
     0
  9
$PEXTMIN
 10
1.000000000000000E+20
 20
1.000000000000000E+20
 30
1.000000000000000E+20
  9
$PEXTMAX
 10
-1.000000000000000E+20
 20
-1.000000000000000E+20
 30
-1.000000000000000E+20
  9
$PLIMMIN
 10
0.0
 20
0.0
  9
$PLIMMAX
 10
12.0
 20
9.0
  9
$UNITMODE
 70
     0
  9
$VISRETAIN
 70
     1
  9
$PLINEGEN
 70
     0
  9
$PSLTSCALE
 70
     1
  0
ENDSEC
  0
SECTION
  2
TABLES
  0
TABLE
  2
VPORT
 70
     1
  0
VPORT
  2
*ACTIVE
 70
     0
 10
0.0
 20
0.0
 11
1.0
 21
1.0
 12
0.0
 22
0.0
 13
0.0
 23
0.0
 14
0.5
 24
0.5
 15
0.5
 25
0.5
 16
1297.612060546875
 26
741.4287109375
 36
1297.612060546875
 17
-12.0
 27
0.0
 37
-272.5
 40
710.0992933740856
 41
1.972972972850329
 42
50.0
 43
0.0
 44
0.0
 50
0.0
 51
0.0
 71
     0
 72
   100
 73
     1
 74
     3
 75
     0
 76
     0
 77
     0
 78
     0
  0
ENDTAB
  0
TABLE
  2
LTYPE
 70
     1
  0
LTYPE
  2
CONTINUOUS
 70
     0
  3
Solid line
 72
    65
 73
     0
 40
0.0
  0
ENDTAB
  0
TABLE
  2
LAYER
 70
     2
  0
LAYER
  2
0
 70
     0
 62
     7
  6
CONTINUOUS
  0
LAYER
  2
LAYER_1
 70
     0
 62
     7
  6
CONTINUOUS
  0
ENDTAB
  0
TABLE
  2
STYLE
 70
     1
  0
STYLE
  2
STANDARD
 70
     0
 40
0.0
 41
1.0
 50
0.0
 71
     0
 42
0.2
  3
txt
  4

  0
ENDTAB
  0
TABLE
  2
VIEW
 70
     0
  0
ENDTAB
  0
TABLE
  2
UCS
 70
     0
  0
ENDTAB
  0
TABLE
  2
APPID
 70
     1
  0
APPID
  2
ACAD
 70
     0
  0
ENDTAB
  0
TABLE
  2
DIMSTYLE
 70
     1
  0
DIMSTYLE
  2
STANDARD
 70
     0
  3

  4

  5

  6

  7

 40
1.0
 41
0.18
 42
0.0625
 43
0.38
 44
0.18
 45
0.0
 46
0.0
 47
0.0
 48
0.0
140
0.18
141
0.09
142
0.0
143
25.4
144
1.0
145
0.0
146
1.0
147
0.09
 71
     0
 72
     0
 73
     1
 74
     1
 75
     0
 76
     0
 77
     0
 78
     0
170
     0
171
     2
172
     0
173
     0
174
     0
175
     0
176
     0
177
     0
178
     0
  0
ENDTAB
  0
ENDSEC
  0
SECTION
  2
BLOCKS
  0
BLOCK
  8
0
  2
$MODEL_SPACE
 70
     0
 10
0.0
 20
0.0
 30
0.0
  3
$MODEL_SPACE
  1

  0
ENDBLK
  5
21
  8
0
  0
BLOCK
 67
     1
  8
0
  2
$PAPER_SPACE
 70
     0
 10
0.0
 20
0.0
 30
0.0
  3
$PAPER_SPACE
  1

  0
ENDBLK
  5
1D
 67
     1
  8
0
  0
BLOCK
  8
0
  2
E3_NODE
 70
     0
 10
0.0
 20
0.0
 30
0.0
  3
E3_NODE
  1

  0
POLYLINE
  5
3C
  8
0
 62
     9
 66
     1
 10
0.0
 20
0.0
 30
0.0
 70
    64
 71
     7
 72
     5
  0
VERTEX
  5
3D
  8
0
 10
-132.7420043945312
 20
70.4530029296875
 30
-10.0
 70
   192
  0
VERTEX
  5
3E
  8
0
 10
-132.7420043945312
 20
79.5469970703125
 30
-10.0
 70
   192
  0
VERTEX
  5
3F
  8
0
 10
-125.6320037841797
 20
85.21700286865234
 30
-10.0
 70
   192
  0
VERTEX
  5
40
  8
0
 10
-116.765998840332
 20
83.19400024414062
 30
-10.0
 70
   192
  0
VERTEX
  5
41
  8
0
 10
-112.8199996948242
 20
75.0
 30
-10.0
 70
   192
  0
VERTEX
  5
42
  8
0
 10
-116.765998840332
 20
66.80599975585938
 30
-10.0
 70
   192
  0
VERTEX
  5
43
  8
0
 10
-125.6320037841797
 20
64.78299713134766
 30
-10.0
 70
   192
  0
VERTEX
  5
44
  8
0
 62
     9
 10
0.0
 20
0.0
 30
0.0
 70
   128
 71
     3
 72
     2
 73
     1
  0
VERTEX
  5
45
  8
0
 62
     9
 10
0.0
 20
0.0
 30
0.0
 70
   128
 71
     1
 72
     4
 73
     3
  0
VERTEX
  5
46
  8
0
 62
     9
 10
0.0
 20
0.0
 30
0.0
 70
   128
 71
     6
 72
     5
 73
     1
  0
VERTEX
  5
47
  8
0
 62
     9
 10
0.0
 20
0.0
 30
0.0
 70
   128
 71
     1
 72
     7
 73
     6
  0
VERTEX
  5
48
  8
0
 62
     9
 10
0.0
 20
0.0
 30
0.0
 70
   128
 71
     1
 72
     5
 73
     4
  0
SEQEND
  5
49
  8
0
 62
     9
  0
ENDBLK
  5
4D
  8
0
  0
BLOCK
  8
0
  2
E3_NODE_1_
 70
     0
 10
0.0
 20
0.0
 30
0.0
  3
E3_NODE_1_
  1

  0
POLYLINE
  5
4F
  8
0
 62
     9
 66
     1
 10
0.0
 20
0.0
 30
0.0
 70
    64
 71
    14
 72
    14
  0
VERTEX
  5
50
  8
0
 10
-116.765998840332
 20
66.80599975585938
 30
0.0
 70
   192
  0
VERTEX
  5
51
  8
0
 10
-116.765998840332
 20
66.80599975585938
 30
-10.0
 70
   192
  0
VERTEX
  5
52
  8
0
 10
-112.8199996948242
 20
75.0
 30
-10.0
 70
   192
  0
VERTEX
  5
53
  8
0
 10
-125.6320037841797
 20
64.78299713134766
 30
0.0
 70
   192
  0
VERTEX
  5
54
  8
0
 10
-125.6320037841797
 20
64.78299713134766
 30
-10.0
 70
   192
  0
VERTEX
  5
55
  8
0
 10
-132.7420043945312
 20
70.4530029296875
 30
-10.0
 70
   192
  0
VERTEX
  5
56
  8
0
 10
-132.7420043945312
 20
79.5469970703125
 30
-10.0
 70
   192
  0
VERTEX
  5
57
  8
0
 10
-132.7420043945312
 20
70.4530029296875
 30
0.0
 70
   192
  0
VERTEX
  5
58
  8
0
 10
-125.6320037841797
 20
85.21700286865234
 30
0.0
 70
   192
  0
VERTEX
  5
59
  8
0
 10
-125.6320037841797
 20
85.21700286865234
 30
-10.0
 70
   192
  0
VERTEX
  5
5A
  8
0
 10
-116.765998840332
 20
83.19400024414062
 30
0.0
 70
   192
  0
VERTEX
  5
5B
  8
0
 10
-116.765998840332
 20
83.19400024414062
 30
-10.0
 70
   192
  0
VERTEX
  5
5C
  8
0
 10
-112.8199996948242
 20
75.0
 30
0.0
 70
   192
  0
VERTEX
  5
5D
  8
0
 10
-132.7420043945312
 20
79.5469970703125
 30
0.0
 70
   192
  0
VERTEX
  5
5E
  8
0
 62
     9
 10
0.0
 20
0.0
 30
0.0
 70
   128
 71
     3
 72
     2
 73
     1
  0
VERTEX
  5
5F
  8
0
 62
     9
 10
0.0
 20
0.0
 30
0.0
 70
   128
 71
     5
 72
     4
 73
     1
  0
VERTEX
  5
60
  8
0
 62
     9
 10
0.0
 20
0.0
 30
0.0
 70
   128
 71
     4
 72
     5
 73
     6
  0
VERTEX
  5
61
  8
0
 62
     9
 10
0.0
 20
0.0
 30
0.0
 70
   128
 71
     8
 72
     6
 73
     7
  0
VERTEX
  5
62
  8
0
 62
     9
 10
0.0
 20
0.0
 30
0.0
 70
   128
 71
     7
 72
    10
 73
     9
  0
VERTEX
  5
63
  8
0
 62
     9
 10
0.0
 20
0.0
 30
0.0
 70
   128
 71
    10
 72
    12
 73
    11
  0
VERTEX
  5
64
  8
0
 62
     9
 10
0.0
 20
0.0
 30
0.0
 70
   128
 71
    12
 72
     3
 73
    13
  0
VERTEX
  5
65
  8
0
 62
     9
 10
0.0
 20
0.0
 30
0.0
 70
   128
 71
    13
 72
    11
 73
    12
  0
VERTEX
  5
66
  8
0
 62
     9
 10
0.0
 20
0.0
 30
0.0
 70
   128
 71
    11
 72
     9
 73
    10
  0
VERTEX
  5
67
  8
0
 62
     9
 10
0.0
 20
0.0
 30
0.0
 70
   128
 71
     9
 72
    14
 73
     7
  0
VERTEX
  5
68
  8
0
 62
     9
 10
0.0
 20
0.0
 30
0.0
 70
   128
 71
     7
 72
    14
 73
     8
  0
VERTEX
  5
69
  8
0
 62
     9
 10
0.0
 20
0.0
 30
0.0
 70
   128
 71
     6
 72
     8
 73
     4
  0
VERTEX
  5
6A
  8
0
 62
     9
 10
0.0
 20
0.0
 30
0.0
 70
   128
 71
     1
 72
     2
 73
     5
  0
VERTEX
  5
6B
  8
0
 62
     9
 10
0.0
 20
0.0
 30
0.0
 70
   128
 71
     1
 72
    13
 73
     3
  0
SEQEND
  5
6C
  8
0
 62
     9
  0
ENDBLK
  5
6F
  8
0
  0
BLOCK
  8
0
  2
E3_NODE_2_
 70
     0
 10
0.0
 20
0.0
 30
0.0
  3
E3_NODE_2_
  1

  0
POLYLINE
  5
71
  8
0
 62
     9
 66
     1
 10
0.0
 20
0.0
 30
0.0
 70
    64
 71
    12
 72
    10
  0
VERTEX
  5
72
  8
0
 10
-139.7209930419922
 20
122.0230026245117
 30
-730.0
 70
   192
  0
VERTEX
  5
73
  8
0
 10
-139.7209930419922
 20
122.0230026245117
 30
-750.0
 70
   192
  0
VERTEX
  5
74
  8
0
 10
-155.0
 20
75.0
 30
-750.0
 70
   192
  0
VERTEX
  5
75
  8
0
 10
-99.72100067138672
 20
151.0850067138672
 30
-730.0
 70
   192
  0
VERTEX
  5
76
  8
0
 10
-99.72100067138672
 20
151.0850067138672
 30
-750.0
 70
   192
  0
VERTEX
  5
77
  8
0
 10
-50.27899932861328
 20
151.0850067138672
 30
-730.0
 70
   192
  0
VERTEX
  5
78
  8
0
 10
-50.27899932861328
 20
151.0850067138672
 30
-750.0
 70
   192
  0
VERTEX
  5
79
  8
0
 10
-10.2790002822876
 20
122.0230026245117
 30
-730.0
 70
   192
  0
VERTEX
  5
7A
  8
0
 10
-10.2790002822876
 20
122.0230026245117
 30
-750.0
 70
   192
  0
VERTEX
  5
7B
  8
0
 10
5.0
 20
75.0
 30
-730.0
 70
   192
  0
VERTEX
  5
7C
  8
0
 10
5.0
 20
75.0
 30
-750.0
 70
   192
  0
VERTEX
  5
7D
  8
0
 10
-155.0
 20
75.0
 30
-730.0
 70
   192
  0
VERTEX
  5
7E
  8
0
 62
     9
 10
0.0
 20
0.0
 30
0.0
 70
   128
 71
     3
 72
     2
 73
     1
  0
VERTEX
  5
7F
  8
0
 62
     9
 10
0.0
 20
0.0
 30
0.0
 70
   128
 71
     2
 72
     5
 73
     4
  0
VERTEX
  5
80
  8
0
 62
     9
 10
0.0
 20
0.0
 30
0.0
 70
   128
 71
     5
 72
     7
 73
     6
  0
VERTEX
  5
81
  8
0
 62
     9
 10
0.0
 20
0.0
 30
0.0
 70
   128
 71
     7
 72
     9
 73
     8
  0
VERTEX
  5
82
  8
0
 62
     9
 10
0.0
 20
0.0
 30
0.0
 70
   128
 71
     9
 72
    11
 73
    10
  0
VERTEX
  5
83
  8
0
 62
     9
 10
0.0
 20
0.0
 30
0.0
 70
   128
 71
    10
 72
     8
 73
     9
  0
VERTEX
  5
84
  8
0
 62
     9
 10
0.0
 20
0.0
 30
0.0
 70
   128
 71
     8
 72
     6
 73
     7
  0
VERTEX
  5
85
  8
0
 62
     9
 10
0.0
 20
0.0
 30
0.0
 70
   128
 71
     6
 72
     4
 73
     5
  0
VERTEX
  5
86
  8
0
 62
     9
 10
0.0
 20
0.0
 30
0.0
 70
   128
 71
     4
 72
     1
 73
     2
  0
VERTEX
  5
87
  8
0
 62
     9
 10
0.0
 20
0.0
 30
0.0
 70
   128
 71
     1
 72
    12
 73
     3
  0
SEQEND
  5
88
  8
0
 62
     9
  0
ENDBLK
  5
8B
  8
0
  0
BLOCK
  8
0
  2
E3_NODE_3_
 70
     0
 10
0.0
 20
0.0
 30
0.0
  3
E3_NODE_3_
  1

  0
POLYLINE
  5
8D
  8
0
 62
     9
 66
     1
 10
0.0
 20
0.0
 30
0.0
 70
    64
 71
    12
 72
    10
  0
VERTEX
  5
8E
  8
0
 10
5.0
 20
-75.0
 30
-750.0
 70
   192
  0
VERTEX
  5
8F
  8
0
 10
-99.72100067138672
 20
-151.0850067138672
 30
-750.0
 70
   192
  0
VERTEX
  5
90
  8
0
 10
-139.7209930419922
 20
-122.0230026245117
 30
-750.0
 70
   192
  0
VERTEX
  5
91
  8
0
 10
-10.2790002822876
 20
-122.0230026245117
 30
-750.0
 70
   192
  0
VERTEX
  5
92
  8
0
 10
-155.0
 20
75.0
 30
-750.0
 70
   192
  0
VERTEX
  5
93
  8
0
 10
-50.27899932861328
 20
151.0850067138672
 30
-750.0
 70
   192
  0
VERTEX
  5
94
  8
0
 10
-10.2790002822876
 20
122.0230026245117
 30
-750.0
 70
   192
  0
VERTEX
  5
95
  8
0
 10
-139.7209930419922
 20
122.0230026245117
 30
-750.0
 70
   192
  0
VERTEX
  5
96
  8
0
 10
-50.27899932861328
 20
-151.0850067138672
 30
-750.0
 70
   192
  0
VERTEX
  5
97
  8
0
 10
5.0
 20
75.0
 30
-750.0
 70
   192
  0
VERTEX
  5
98
  8
0
 10
-99.72100067138672
 20
151.0850067138672
 30
-750.0
 70
   192
  0
VERTEX
  5
99
  8
0
 10
-155.0
 20
-75.0
 30
-750.0
 70
   192
  0
VERTEX
  5
9A
  8
0
 62
     9
 10
0.0
 20
0.0
 30
0.0
 70
   128
 71
     3
 72
     2
 73
     1
  0
VERTEX
  5
9B
  8
0
 62
     9
 10
0.0
 20
0.0
 30
0.0
 70
   128
 71
     4
 72
     1
 73
     2
  0
VERTEX
  5
9C
  8
0
 62
     9
 10
0.0
 20
0.0
 30
0.0
 70
   128
 71
     7
 72
     6
 73
     5
  0
VERTEX
  5
9D
  8
0
 62
     9
 10
0.0
 20
0.0
 30
0.0
 70
   128
 71
     8
 72
     5
 73
     6
  0
VERTEX
  5
9E
  8
0
 62
     9
 10
0.0
 20
0.0
 30
0.0
 70
   128
 71
     2
 72
     9
 73
     4
  0
VERTEX
  5
9F
  8
0
 62
     9
 10
0.0
 20
0.0
 30
0.0
 70
   128
 71
     1
 72
    10
 73
     5
  0
VERTEX
  5
A0
  8
0
 62
     9
 10
0.0
 20
0.0
 30
0.0
 70
   128
 71
     6
 72
    11
 73
     8
  0
VERTEX
  5
A1
  8
0
 62
     9
 10
0.0
 20
0.0
 30
0.0
 70
   128
 71
     5
 72
    12
 73
     1
  0
VERTEX
  5
A2
  8
0
 62
     9
 10
0.0
 20
0.0
 30
0.0
 70
   128
 71
     1
 72
    12
 73
     3
  0
VERTEX
  5
A3
  8
0
 62
     9
 10
0.0
 20
0.0
 30
0.0
 70
   128
 71
     5
 72
    10
 73
     7
  0
SEQEND
  5
A4
  8
0
 62
     9
  0
ENDBLK
  5
A7
  8
0
  0
BLOCK
  8
0
  2
E3_NODE_4_
 70
     0
 10
0.0
 20
0.0
 30
0.0
  3
E3_NODE_4_
  1

  0
POLYLINE
  5
A9
  8
0
 62
     9
 66
     1
 10
0.0
 20
0.0
 30
0.0
 70
    64
 71
     4
 72
     2
  0
VERTEX
  5
AA
  8
0
 10
5.0
 20
-75.0
 30
-750.0
 70
   192
  0
VERTEX
  5
AB
  8
0
 10
5.0
 20
75.0
 30
-750.0
 70
   192
  0
VERTEX
  5
AC
  8
0
 10
5.0
 20
75.0
 30
-730.0
 70
   192
  0
VERTEX
  5
AD
  8
0
 10
5.0
 20
-75.0
 30
-730.0
 70
   192
  0
VERTEX
  5
AE
  8
0
 62
     9
 10
0.0
 20
0.0
 30
0.0
 70
   128
 71
     3
 72
     2
 73
     1
  0
VERTEX
  5
AF
  8
0
 62
     9
 10
0.0
 20
0.0
 30
0.0
 70
   128
 71
     1
 72
     4
 73
     3
  0
SEQEND
  5
B0
  8
0
 62
     9
  0
ENDBLK
  5
B3
  8
0
  0
BLOCK
  8
0
  2
E3_NODE_5_
 70
     0
 10
0.0
 20
0.0
 30
0.0
  3
E3_NODE_5_
  1

  0
POLYLINE
  5
B5
  8
0
 62
     9
 66
     1
 10
0.0
 20
0.0
 30
0.0
 70
    64
 71
    12
 72
    10
  0
VERTEX
  5
B6
  8
0
 10
-10.2790002822876
 20
-122.0230026245117
 30
-730.0
 70
   192
  0
VERTEX
  5
B7
  8
0
 10
-10.2790002822876
 20
-122.0230026245117
 30
-750.0
 70
   192
  0
VERTEX
  5
B8
  8
0
 10
5.0
 20
-75.0
 30
-750.0
 70
   192
  0
VERTEX
  5
B9
  8
0
 10
-50.27899932861328
 20
-151.0850067138672
 30
-730.0
 70
   192
  0
VERTEX
  5
BA
  8
0
 10
-50.27899932861328
 20
-151.0850067138672
 30
-750.0
 70
   192
  0
VERTEX
  5
BB
  8
0
 10
-99.72100067138672
 20
-151.0850067138672
 30
-730.0
 70
   192
  0
VERTEX
  5
BC
  8
0
 10
-99.72100067138672
 20
-151.0850067138672
 30
-750.0
 70
   192
  0
VERTEX
  5
BD
  8
0
 10
-139.7209930419922
 20
-122.0230026245117
 30
-730.0
 70
   192
  0
VERTEX
  5
BE
  8
0
 10
-139.7209930419922
 20
-122.0230026245117
 30
-750.0
 70
   192
  0
VERTEX
  5
BF
  8
0
 10
-155.0
 20
-75.0
 30
-730.0
 70
   192
  0
VERTEX
  5
C0
  8
0
 10
-155.0
 20
-75.0
 30
-750.0
 70
   192
  0
VERTEX
  5
C1
  8
0
 10
5.0
 20
-75.0
 30
-730.0
 70
   192
  0
VERTEX
  5
C2
  8
0
 62
     9
 10
0.0
 20
0.0
 30
0.0
 70
   128
 71
     3
 72
     2
 73
     1
  0
VERTEX
  5
C3
  8
0
 62
     9
 10
0.0
 20
0.0
 30
0.0
 70
   128
 71
     2
 72
     5
 73
     4
  0
VERTEX
  5
C4
  8
0
 62
     9
 10
0.0
 20
0.0
 30
0.0
 70
   128
 71
     5
 72
     7
 73
     6
  0
VERTEX
  5
C5
  8
0
 62
     9
 10
0.0
 20
0.0
 30
0.0
 70
   128
 71
     7
 72
     9
 73
     8
  0
VERTEX
  5
C6
  8
0
 62
     9
 10
0.0
 20
0.0
 30
0.0
 70
   128
 71
     9
 72
    11
 73
    10
  0
VERTEX
  5
C7
  8
0
 62
     9
 10
0.0
 20
0.0
 30
0.0
 70
   128
 71
    10
 72
     8
 73
     9
  0
VERTEX
  5
C8
  8
0
 62
     9
 10
0.0
 20
0.0
 30
0.0
 70
   128
 71
     8
 72
     6
 73
     7
  0
VERTEX
  5
C9
  8
0
 62
     9
 10
0.0
 20
0.0
 30
0.0
 70
   128
 71
     6
 72
     4
 73
     5
  0
VERTEX
  5
CA
  8
0
 62
     9
 10
0.0
 20
0.0
 30
0.0
 70
   128
 71
     4
 72
     1
 73
     2
  0
VERTEX
  5
CB
  8
0
 62
     9
 10
0.0
 20
0.0
 30
0.0
 70
   128
 71
     1
 72
    12
 73
     3
  0
SEQEND
  5
CC
  8
0
 62
     9
  0
ENDBLK
  5
CF
  8
0
  0
BLOCK
  8
0
  2
E3_NODE_6_
 70
     0
 10
0.0
 20
0.0
 30
0.0
  3
E3_NODE_6_
  1

  0
POLYLINE
  5
D1
  8
0
 62
     9
 66
     1
 10
0.0
 20
0.0
 30
0.0
 70
    64
 71
     4
 72
     2
  0
VERTEX
  5
D2
  8
0
 10
-155.0
 20
75.0
 30
-730.0
 70
   192
  0
VERTEX
  5
D3
  8
0
 10
-155.0
 20
75.0
 30
-750.0
 70
   192
  0
VERTEX
  5
D4
  8
0
 10
-155.0
 20
-75.0
 30
-750.0
 70
   192
  0
VERTEX
  5
D5
  8
0
 10
-155.0
 20
-75.0
 30
-730.0
 70
   192
  0
VERTEX
  5
D6
  8
0
 62
     9
 10
0.0
 20
0.0
 30
0.0
 70
   128
 71
     3
 72
     2
 73
     1
  0
VERTEX
  5
D7
  8
0
 62
     9
 10
0.0
 20
0.0
 30
0.0
 70
   128
 71
     1
 72
     4
 73
     3
  0
SEQEND
  5
D8
  8
0
 62
     9
  0
ENDBLK
  5
DB
  8
0
  0
BLOCK
  8
0
  2
E3_NODE_7_
 70
     0
 10
0.0
 20
0.0
 30
0.0
  3
E3_NODE_7_
  1

  0
POLYLINE
  5
DD
  8
0
 62
     9
 66
     1
 10
0.0
 20
0.0
 30
0.0
 70
    64
 71
     4
 72
     2
  0
VERTEX
  5
DE
  8
0
 10
-25.0
 20
-75.0
 30
-728.427978515625
 70
   192
  0
VERTEX
  5
DF
  8
0
 10
5.0
 20
-75.0
 30
-730.0
 70
   192
  0
VERTEX
  5
E0
  8
0
 10
5.0
 20
75.0
 30
-730.0
 70
   192
  0
VERTEX
  5
E1
  8
0
 10
-25.0
 20
75.0
 30
-728.427978515625
 70
   192
  0
VERTEX
  5
E2
  8
0
 62
     9
 10
0.0
 20
0.0
 30
0.0
 70
   128
 71
     3
 72
     2
 73
     1
  0
VERTEX
  5
E3
  8
0
 62
     9
 10
0.0
 20
0.0
 30
0.0
 70
   128
 71
     1
 72
     4
 73
     3
  0
SEQEND
  5
E4
  8
0
 62
     9
  0
ENDBLK
  5
E7
  8
0
  0
BLOCK
  8
0
  2
E3_NODE_8_
 70
     0
 10
0.0
 20
0.0
 30
0.0
  3
E3_NODE_8_
  1

  0
POLYLINE
  5
E9
  8
0
 62
     9
 66
     1
 10
0.0
 20
0.0
 30
0.0
 70
    64
 71
    15
 72
    13
  0
VERTEX
  5
EA
  8
0
 10
-155.0
 20
75.0
 30
-730.0
 70
   192
  0
VERTEX
  5
EB
  8
0
 10
-125.0
 20
75.0
 30
-728.427978515625
 70
   192
  0
VERTEX
  5
EC
  8
0
 10
-115.4509963989258
 20
104.3889999389648
 30
-728.427978515625
 70
   192
  0
VERTEX
  5
ED
  8
0
 10
-99.72100067138672
 20
151.0850067138672
 30
-730.0
 70
   192
  0
VERTEX
  5
EE
  8
0
 10
-139.7209930419922
 20
122.0230026245117
 30
-730.0
 70
   192
  0
VERTEX
  5
EF
  8
0
 10
-109.2789993286133
 20
108.8740005493164
 30
-728.427978515625
 70
   192
  0
VERTEX
  5
F0
  8
0
 10
-90.45099639892578
 20
122.5530014038086
 30
-728.427978515625
 70
   192
  0
VERTEX
  5
F1
  8
0
 10
-75.0
 20
122.5530014038086
 30
-728.427978515625
 70
   192
  0
VERTEX
  5
F2
  8
0
 10
-50.27899932861328
 20
151.0850067138672
 30
-730.0
 70
   192
  0
VERTEX
  5
F3
  8
0
 10
-59.54899978637695
 20
122.5530014038086
 30
-728.427978515625
 70
   192
  0
VERTEX
  5
F4
  8
0
 10
-40.72100067138672
 20
108.8740005493164
 30
-728.427978515625
 70
   192
  0
VERTEX
  5
F5
  8
0
 10
-10.2790002822876
 20
122.0230026245117
 30
-730.0
 70
   192
  0
VERTEX
  5
F6
  8
0
 10
-34.54899978637695
 20
104.3889999389648
 30
-728.427978515625
 70
   192
  0
VERTEX
  5
F7
  8
0
 10
-25.0
 20
75.0
 30
-728.427978515625
 70
   192
  0
VERTEX
  5
F8
  8
0
 10
5.0
 20
75.0
 30
-730.0
 70
   192
  0
VERTEX
  5
F9
  8
0
 62
     9
 10
0.0
 20
0.0
 30
0.0
 70
   128
 71
     3
 72
     2
 73
     1
  0
VERTEX
  5
FA
  8
0
 62
     9
 10
0.0
 20
0.0
 30
0.0
 70
   128
 71
     6
 72
     5
 73
     4
  0
VERTEX
  5
FB
  8
0
 62
     9
 10
0.0
 20
0.0
 30
0.0
 70
   128
 71
     6
 72
     3
 73
     5
  0
VERTEX
  5
FC
  8
0
 62
     9
 10
0.0
 20
0.0
 30
0.0
 70
   128
 71
     8
 72
     7
 73
     4
  0
VERTEX
  5
FD
  8
0
 62
     9
 10
0.0
 20
0.0
 30
0.0
 70
   128
 71
     4
 72
     9
 73
     8
  0
VERTEX
  5
FE
  8
0
 62
     9
 10
0.0
 20
0.0
 30
0.0
 70
   128
 71
    11
 72
    10
 73
     9
  0
VERTEX
  5
FF
  8
0
 62
     9
 10
0.0
 20
0.0
 30
0.0
 70
   128
 71
     9
 72
    12
 73
    11
  0
VERTEX
  5
100
  8
0
 62
     9
 10
0.0
 20
0.0
 30
0.0
 70
   128
 71
    14
 72
    13
 73
    12
  0
VERTEX
  5
101
  8
0
 62
     9
 10
0.0
 20
0.0
 30
0.0
 70
   128
 71
    12
 72
    15
 73
    14
  0
VERTEX
  5
102
  8
0
 62
     9
 10
0.0
 20
0.0
 30
0.0
 70
   128
 71
    12
 72
    13
 73
    11
  0
VERTEX
  5
103
  8
0
 62
     9
 10
0.0
 20
0.0
 30
0.0
 70
   128
 71
     9
 72
    10
 73
     8
  0
VERTEX
  5
104
  8
0
 62
     9
 10
0.0
 20
0.0
 30
0.0
 70
   128
 71
     4
 72
     7
 73
     6
  0
VERTEX
  5
105
  8
0
 62
     9
 10
0.0
 20
0.0
 30
0.0
 70
   128
 71
     1
 72
     5
 73
     3
  0
SEQEND
  5
106
  8
0
 62
     9
  0
ENDBLK
  5
109
  8
0
  0
BLOCK
  8
0
  2
E3_NODE_9_
 70
     0
 10
0.0
 20
0.0
 30
0.0
  3
E3_NODE_9_
  1

  0
POLYLINE
  5
10B
  8
0
 62
     9
 66
     1
 10
0.0
 20
0.0
 30
0.0
 70
    64
 71
     4
 72
     2
  0
VERTEX
  5
10C
  8
0
 10
-155.0
 20
-75.0
 30
-730.0
 70
   192
  0
VERTEX
  5
10D
  8
0
 10
-125.0
 20
-75.0
 30
-728.427978515625
 70
   192
  0
VERTEX
  5
10E
  8
0
 10
-125.0
 20
75.0
 30
-728.427978515625
 70
   192
  0
VERTEX
  5
10F
  8
0
 10
-155.0
 20
75.0
 30
-730.0
 70
   192
  0
VERTEX
  5
110
  8
0
 62
     9
 10
0.0
 20
0.0
 30
0.0
 70
   128
 71
     3
 72
     2
 73
     1
  0
VERTEX
  5
111
  8
0
 62
     9
 10
0.0
 20
0.0
 30
0.0
 70
   128
 71
     1
 72
     4
 73
     3
  0
SEQEND
  5
112
  8
0
 62
     9
  0
ENDBLK
  5
115
  8
0
  0
BLOCK
  8
0
  2
E3_NODE_10_
 70
     0
 10
0.0
 20
0.0
 30
0.0
  3
E3_NODE_10_
  1

  0
POLYLINE
  5
117
  8
0
 62
     9
 66
     1
 10
0.0
 20
0.0
 30
0.0
 70
    64
 71
    15
 72
    13
  0
VERTEX
  5
118
  8
0
 10
-10.2790002822876
 20
-122.0230026245117
 30
-730.0
 70
   192
  0
VERTEX
  5
119
  8
0
 10
5.0
 20
-75.0
 30
-730.0
 70
   192
  0
VERTEX
  5
11A
  8
0
 10
-25.0
 20
-75.0
 30
-728.427978515625
 70
   192
  0
VERTEX
  5
11B
  8
0
 10
-50.27899932861328
 20
-151.0850067138672
 30
-730.0
 70
   192
  0
VERTEX
  5
11C
  8
0
 10
-40.72100067138672
 20
-108.8740005493164
 30
-728.427978515625
 70
   192
  0
VERTEX
  5
11D
  8
0
 10
-34.54899978637695
 20
-104.3889999389648
 30
-728.427978515625
 70
   192
  0
VERTEX
  5
11E
  8
0
 10
-59.54899978637695
 20
-122.5530014038086
 30
-728.427978515625
 70
   192
  0
VERTEX
  5
11F
  8
0
 10
-75.0
 20
-122.5530014038086
 30
-728.427978515625
 70
   192
  0
VERTEX
  5
120
  8
0
 10
-99.72100067138672
 20
-151.0850067138672
 30
-730.0
 70
   192
  0
VERTEX
  5
121
  8
0
 10
-90.45099639892578
 20
-122.5530014038086
 30
-728.427978515625
 70
   192
  0
VERTEX
  5
122
  8
0
 10
-109.2789993286133
 20
-108.8740005493164
 30
-728.427978515625
 70
   192
  0
VERTEX
  5
123
  8
0
 10
-139.7209930419922
 20
-122.0230026245117
 30
-730.0
 70
   192
  0
VERTEX
  5
124
  8
0
 10
-155.0
 20
-75.0
 30
-730.0
 70
   192
  0
VERTEX
  5
125
  8
0
 10
-115.4509963989258
 20
-104.3889999389648
 30
-728.427978515625
 70
   192
  0
VERTEX
  5
126
  8
0
 10
-125.0
 20
-75.0
 30
-728.427978515625
 70
   192
  0
VERTEX
  5
127
  8
0
 62
     9
 10
0.0
 20
0.0
 30
0.0
 70
   128
 71
     3
 72
     2
 73
     1
  0
VERTEX
  5
128
  8
0
 62
     9
 10
0.0
 20
0.0
 30
0.0
 70
   128
 71
     5
 72
     1
 73
     4
  0
VERTEX
  5
129
  8
0
 62
     9
 10
0.0
 20
0.0
 30
0.0
 70
   128
 71
     5
 72
     6
 73
     1
  0
VERTEX
  5
12A
  8
0
 62
     9
 10
0.0
 20
0.0
 30
0.0
 70
   128
 71
     8
 72
     7
 73
     4
  0
VERTEX
  5
12B
  8
0
 62
     9
 10
0.0
 20
0.0
 30
0.0
 70
   128
 71
     4
 72
     9
 73
     8
  0
VERTEX
  5
12C
  8
0
 62
     9
 10
0.0
 20
0.0
 30
0.0
 70
   128
 71
    11
 72
    10
 73
     9
  0
VERTEX
  5
12D
  8
0
 62
     9
 10
0.0
 20
0.0
 30
0.0
 70
   128
 71
     9
 72
    12
 73
    11
  0
VERTEX
  5
12E
  8
0
 62
     9
 10
0.0
 20
0.0
 30
0.0
 70
   128
 71
    14
 72
    12
 73
    13
  0
VERTEX
  5
12F
  8
0
 62
     9
 10
0.0
 20
0.0
 30
0.0
 70
   128
 71
    13
 72
    15
 73
    14
  0
VERTEX
  5
130
  8
0
 62
     9
 10
0.0
 20
0.0
 30
0.0
 70
   128
 71
    12
 72
    14
 73
    11
  0
VERTEX
  5
131
  8
0
 62
     9
 10
0.0
 20
0.0
 30
0.0
 70
   128
 71
     9
 72
    10
 73
     8
  0
VERTEX
  5
132
  8
0
 62
     9
 10
0.0
 20
0.0
 30
0.0
 70
   128
 71
     4
 72
     7
 73
     5
  0
VERTEX
  5
133
  8
0
 62
     9
 10
0.0
 20
0.0
 30
0.0
 70
   128
 71
     1
 72
     6
 73
     3
  0
SEQEND
  5
134
  8
0
 62
     9
  0
ENDBLK
  5
137
  8
0
  0
BLOCK
  8
0
  2
E3_NODE_11_
 70
     0
 10
0.0
 20
0.0
 30
0.0
  3
E3_NODE_11_
  1

  0
POLYLINE
  5
139
  8
0
 62
     9
 66
     1
 10
0.0
 20
0.0
 30
0.0
 70
    64
 71
     4
 72
     2
  0
VERTEX
  5
13A
  8
0
 10
-125.0
 20
-75.0
 30
-718.0
 70
   192
  0
VERTEX
  5
13B
  8
0
 10
-125.0
 20
75.0
 30
-718.0
 70
   192
  0
VERTEX
  5
13C
  8
0
 10
-125.0
 20
75.0
 30
-728.427978515625
 70
   192
  0
VERTEX
  5
13D
  8
0
 10
-125.0
 20
-75.0
 30
-728.427978515625
 70
   192
  0
VERTEX
  5
13E
  8
0
 62
     9
 10
0.0
 20
0.0
 30
0.0
 70
   128
 71
     3
 72
     2
 73
     1
  0
VERTEX
  5
13F
  8
0
 62
     9
 10
0.0
 20
0.0
 30
0.0
 70
   128
 71
     1
 72
     4
 73
     3
  0
SEQEND
  5
140
  8
0
 62
     9
  0
ENDBLK
  5
143
  8
0
  0
BLOCK
  8
0
  2
E3_NODE_12_
 70
     0
 10
0.0
 20
0.0
 30
0.0
  3
E3_NODE_12_
  1

  0
POLYLINE
  5
145
  8
0
 62
     9
 66
     1
 10
0.0
 20
0.0
 30
0.0
 70
    64
 71
    10
 72
     8
  0
VERTEX
  5
146
  8
0
 10
-125.0
 20
75.0
 30
-718.0
 70
   192
  0
VERTEX
  5
147
  8
0
 10
-25.0
 20
75.0
 30
-718.0
 70
   192
  0
VERTEX
  5
148
  8
0
 10
-39.64500045776367
 20
110.3550033569336
 30
-718.0
 70
   192
  0
VERTEX
  5
149
  8
0
 10
-75.0
 20
125.0
 30
-718.0
 70
   192
  0
VERTEX
  5
14A
  8
0
 10
-25.0
 20
-75.0
 30
-718.0
 70
   192
  0
VERTEX
  5
14B
  8
0
 10
-110.3550033569336
 20
-110.3550033569336
 30
-718.0
 70
   192
  0
VERTEX
  5
14C
  8
0
 10
-75.0
 20
-125.0
 30
-718.0
 70
   192
  0
VERTEX
  5
14D
  8
0
 10
-125.0
 20
-75.0
 30
-718.0
 70
   192
  0
VERTEX
  5
14E
  8
0
 10
-39.64500045776367
 20
-110.3550033569336
 30
-718.0
 70
   192
  0
VERTEX
  5
14F
  8
0
 10
-110.3550033569336
 20
110.3550033569336
 30
-718.0
 70
   192
  0
VERTEX
  5
150
  8
0
 62
     9
 10
0.0
 20
0.0
 30
0.0
 70
   128
 71
     3
 72
     2
 73
     1
  0
VERTEX
  5
151
  8
0
 62
     9
 10
0.0
 20
0.0
 30
0.0
 70
   128
 71
     1
 72
     4
 73
     3
  0
VERTEX
  5
152
  8
0
 62
     9
 10
0.0
 20
0.0
 30
0.0
 70
   128
 71
     1
 72
     2
 73
     5
  0
VERTEX
  5
153
  8
0
 62
     9
 10
0.0
 20
0.0
 30
0.0
 70
   128
 71
     7
 72
     6
 73
     5
  0
VERTEX
  5
154
  8
0
 62
     9
 10
0.0
 20
0.0
 30
0.0
 70
   128
 71
     5
 72
     8
 73
     1
  0
VERTEX
  5
155
  8
0
 62
     9
 10
0.0
 20
0.0
 30
0.0
 70
   128
 71
     6
 72
     8
 73
     5
  0
VERTEX
  5
156
  8
0
 62
     9
 10
0.0
 20
0.0
 30
0.0
 70
   128
 71
     5
 72
     9
 73
     7
  0
VERTEX
  5
157
  8
0
 62
     9
 10
0.0
 20
0.0
 30
0.0
 70
   128
 71
     1
 72
    10
 73
     4
  0
SEQEND
  5
158
  8
0
 62
     9
  0
ENDBLK
  5
15B
  8
0
  0
BLOCK
  8
0
  2
E3_NODE_13_
 70
     0
 10
0.0
 20
0.0
 30
0.0
  3
E3_NODE_13_
  1

  0
POLYLINE
  5
15D
  8
0
 62
     9
 66
     1
 10
0.0
 20
0.0
 30
0.0
 70
    64
 71
    14
 72
    12
  0
VERTEX
  5
15E
  8
0
 10
-125.0
 20
75.0
 30
-718.0
 70
   192
  0
VERTEX
  5
15F
  8
0
 10
-110.3550033569336
 20
110.3550033569336
 30
-718.0
 70
   192
  0
VERTEX
  5
160
  8
0
 10
-115.4509963989258
 20
104.3889999389648
 30
-728.427978515625
 70
   192
  0
VERTEX
  5
161
  8
0
 10
-109.2789993286133
 20
108.8740005493164
 30
-728.427978515625
 70
   192
  0
VERTEX
  5
162
  8
0
 10
-75.0
 20
125.0
 30
-718.0
 70
   192
  0
VERTEX
  5
163
  8
0
 10
-90.45099639892578
 20
122.5530014038086
 30
-728.427978515625
 70
   192
  0
VERTEX
  5
164
  8
0
 10
-75.0
 20
122.5530014038086
 30
-728.427978515625
 70
   192
  0
VERTEX
  5
165
  8
0
 10
-39.64500045776367
 20
110.3550033569336
 30
-718.0
 70
   192
  0
VERTEX
  5
166
  8
0
 10
-40.72100067138672
 20
108.8740005493164
 30
-728.427978515625
 70
   192
  0
VERTEX
  5
167
  8
0
 10
-59.54899978637695
 20
122.5530014038086
 30
-728.427978515625
 70
   192
  0
VERTEX
  5
168
  8
0
 10
-25.0
 20
75.0
 30
-718.0
 70
   192
  0
VERTEX
  5
169
  8
0
 10
-25.0
 20
75.0
 30
-728.427978515625
 70
   192
  0
VERTEX
  5
16A
  8
0
 10
-34.54899978637695
 20
104.3889999389648
 30
-728.427978515625
 70
   192
  0
VERTEX
  5
16B
  8
0
 10
-125.0
 20
75.0
 30
-728.427978515625
 70
   192
  0
VERTEX
  5
16C
  8
0
 62
     9
 10
0.0
 20
0.0
 30
0.0
 70
   128
 71
     3
 72
     2
 73
     1
  0
VERTEX
  5
16D
  8
0
 62
     9
 10
0.0
 20
0.0
 30
0.0
 70
   128
 71
     3
 72
     4
 73
     2
  0
VERTEX
  5
16E
  8
0
 62
     9
 10
0.0
 20
0.0
 30
0.0
 70
   128
 71
     6
 72
     5
 73
     2
  0
VERTEX
  5
16F
  8
0
 62
     9
 10
0.0
 20
0.0
 30
0.0
 70
   128
 71
     6
 72
     7
 73
     5
  0
VERTEX
  5
170
  8
0
 62
     9
 10
0.0
 20
0.0
 30
0.0
 70
   128
 71
    10
 72
     9
 73
     8
  0
VERTEX
  5
171
  8
0
 62
     9
 10
0.0
 20
0.0
 30
0.0
 70
   128
 71
     8
 72
     5
 73
    10
  0
VERTEX
  5
172
  8
0
 62
     9
 10
0.0
 20
0.0
 30
0.0
 70
   128
 71
    13
 72
    12
 73
    11
  0
VERTEX
  5
173
  8
0
 62
     9
 10
0.0
 20
0.0
 30
0.0
 70
   128
 71
    11
 72
     8
 73
    13
  0
VERTEX
  5
174
  8
0
 62
     9
 10
0.0
 20
0.0
 30
0.0
 70
   128
 71
     8
 72
     9
 73
    13
  0
VERTEX
  5
175
  8
0
 62
     9
 10
0.0
 20
0.0
 30
0.0
 70
   128
 71
     5
 72
     7
 73
    10
  0
VERTEX
  5
176
  8
0
 62
     9
 10
0.0
 20
0.0
 30
0.0
 70
   128
 71
     2
 72
     4
 73
     6
  0
VERTEX
  5
177
  8
0
 62
     9
 10
0.0
 20
0.0
 30
0.0
 70
   128
 71
     1
 72
    14
 73
     3
  0
SEQEND
  5
178
  8
0
 62
     9
  0
ENDBLK
  5
17B
  8
0
  0
BLOCK
  8
0
  2
E3_NODE_14_
 70
     0
 10
0.0
 20
0.0
 30
0.0
  3
E3_NODE_14_
  1

  0
POLYLINE
  5
17D
  8
0
 62
     9
 66
     1
 10
0.0
 20
0.0
 30
0.0
 70
    64
 71
     4
 72
     2
  0
VERTEX
  5
17E
  8
0
 10
-25.0
 20
75.0
 30
-718.0
 70
   192
  0
VERTEX
  5
17F
  8
0
 10
-25.0
 20
-75.0
 30
-718.0
 70
   192
  0
VERTEX
  5
180
  8
0
 10
-25.0
 20
-75.0
 30
-728.427978515625
 70
   192
  0
VERTEX
  5
181
  8
0
 10
-25.0
 20
75.0
 30
-728.427978515625
 70
   192
  0
VERTEX
  5
182
  8
0
 62
     9
 10
0.0
 20
0.0
 30
0.0
 70
   128
 71
     3
 72
     2
 73
     1
  0
VERTEX
  5
183
  8
0
 62
     9
 10
0.0
 20
0.0
 30
0.0
 70
   128
 71
     1
 72
     4
 73
     3
  0
SEQEND
  5
184
  8
0
 62
     9
  0
ENDBLK
  5
187
  8
0
  0
BLOCK
  8
0
  2
E3_NODE_15_
 70
     0
 10
0.0
 20
0.0
 30
0.0
  3
E3_NODE_15_
  1

  0
POLYLINE
  5
189
  8
0
 62
     9
 66
     1
 10
0.0
 20
0.0
 30
0.0
 70
    64
 71
    14
 72
    12
  0
VERTEX
  5
18A
  8
0
 10
-25.0
 20
-75.0
 30
-718.0
 70
   192
  0
VERTEX
  5
18B
  8
0
 10
-39.64500045776367
 20
-110.3550033569336
 30
-718.0
 70
   192
  0
VERTEX
  5
18C
  8
0
 10
-34.54899978637695
 20
-104.3889999389648
 30
-728.427978515625
 70
   192
  0
VERTEX
  5
18D
  8
0
 10
-40.72100067138672
 20
-108.8740005493164
 30
-728.427978515625
 70
   192
  0
VERTEX
  5
18E
  8
0
 10
-75.0
 20
-125.0
 30
-718.0
 70
   192
  0
VERTEX
  5
18F
  8
0
 10
-59.54899978637695
 20
-122.5530014038086
 30
-728.427978515625
 70
   192
  0
VERTEX
  5
190
  8
0
 10
-75.0
 20
-122.5530014038086
 30
-728.427978515625
 70
   192
  0
VERTEX
  5
191
  8
0
 10
-110.3550033569336
 20
-110.3550033569336
 30
-718.0
 70
   192
  0
VERTEX
  5
192
  8
0
 10
-109.2789993286133
 20
-108.8740005493164
 30
-728.427978515625
 70
   192
  0
VERTEX
  5
193
  8
0
 10
-90.45099639892578
 20
-122.5530014038086
 30
-728.427978515625
 70
   192
  0
VERTEX
  5
194
  8
0
 10
-125.0
 20
-75.0
 30
-718.0
 70
   192
  0
VERTEX
  5
195
  8
0
 10
-125.0
 20
-75.0
 30
-728.427978515625
 70
   192
  0
VERTEX
  5
196
  8
0
 10
-115.4509963989258
 20
-104.3889999389648
 30
-728.427978515625
 70
   192
  0
VERTEX
  5
197
  8
0
 10
-25.0
 20
-75.0
 30
-728.427978515625
 70
   192
  0
VERTEX
  5
198
  8
0
 62
     9
 10
0.0
 20
0.0
 30
0.0
 70
   128
 71
     3
 72
     2
 73
     1
  0
VERTEX
  5
199
  8
0
 62
     9
 10
0.0
 20
0.0
 30
0.0
 70
   128
 71
     3
 72
     4
 73
     2
  0
VERTEX
  5
19A
  8
0
 62
     9
 10
0.0
 20
0.0
 30
0.0
 70
   128
 71
     6
 72
     5
 73
     2
  0
VERTEX
  5
19B
  8
0
 62
     9
 10
0.0
 20
0.0
 30
0.0
 70
   128
 71
     6
 72
     7
 73
     5
  0
VERTEX
  5
19C
  8
0
 62
     9
 10
0.0
 20
0.0
 30
0.0
 70
   128
 71
    10
 72
     9
 73
     8
  0
VERTEX
  5
19D
  8
0
 62
     9
 10
0.0
 20
0.0
 30
0.0
 70
   128
 71
     8
 72
     5
 73
    10
  0
VERTEX
  5
19E
  8
0
 62
     9
 10
0.0
 20
0.0
 30
0.0
 70
   128
 71
    13
 72
    12
 73
    11
  0
VERTEX
  5
19F
  8
0
 62
     9
 10
0.0
 20
0.0
 30
0.0
 70
   128
 71
    11
 72
     8
 73
    13
  0
VERTEX
  5
1A0
  8
0
 62
     9
 10
0.0
 20
0.0
 30
0.0
 70
   128
 71
     8
 72
     9
 73
    13
  0
VERTEX
  5
1A1
  8
0
 62
     9
 10
0.0
 20
0.0
 30
0.0
 70
   128
 71
     5
 72
     7
 73
    10
  0
VERTEX
  5
1A2
  8
0
 62
     9
 10
0.0
 20
0.0
 30
0.0
 70
   128
 71
     2
 72
     4
 73
     6
  0
VERTEX
  5
1A3
  8
0
 62
     9
 10
0.0
 20
0.0
 30
0.0
 70
   128
 71
     1
 72
    14
 73
     3
  0
SEQEND
  5
1A4
  8
0
 62
     9
  0
ENDBLK
  5
1A7
  8
0
  0
BLOCK
  8
0
  2
E3_NODE_16_
 70
     0
 10
0.0
 20
0.0
 30
0.0
  3
E3_NODE_16_
  1

  0
POLYLINE
  5
1A9
  8
0
 62
     9
 66
     1
 10
0.0
 20
0.0
 30
0.0
 70
    64
 71
     8
 72
     8
  0
VERTEX
  5
1AA
  8
0
 10
12.85999965667725
 20
119.0
 30
-7.425000190734863
 70
   192
  0
VERTEX
  5
1AB
  8
0
 10
-7.425000190734863
 20
119.0
 30
-12.85999965667725
 70
   192
  0
VERTEX
  5
1AC
  8
0
 10
-3.75
 20
119.0
 30
-6.494999885559082
 70
   192
  0
VERTEX
  5
1AD
  8
0
 10
6.494999885559082
 20
119.0
 30
-3.75
 70
   192
  0
VERTEX
  5
1AE
  8
0
 10
-12.85999965667725
 20
119.0
 30
7.425000190734863
 70
   192
  0
VERTEX
  5
1AF
  8
0
 10
-6.494999885559082
 20
119.0
 30
3.75
 70
   192
  0
VERTEX
  5
1B0
  8
0
 10
7.425000190734863
 20
119.0
 30
12.85999965667725
 70
   192
  0
VERTEX
  5
1B1
  8
0
 10
3.75
 20
119.0
 30
6.494999885559082
 70
   192
  0
VERTEX
  5
1B2
  8
0
 62
     9
 10
0.0
 20
0.0
 30
0.0
 70
   128
 71
     3
 72
     2
 73
     1
  0
VERTEX
  5
1B3
  8
0
 62
     9
 10
0.0
 20
0.0
 30
0.0
 70
   128
 71
     1
 72
     4
 73
     3
  0
VERTEX
  5
1B4
  8
0
 62
     9
 10
0.0
 20
0.0
 30
0.0
 70
   128
 71
     3
 72
     6
 73
     5
  0
VERTEX
  5
1B5
  8
0
 62
     9
 10
0.0
 20
0.0
 30
0.0
 70
   128
 71
     5
 72
     2
 73
     3
  0
VERTEX
  5
1B6
  8
0
 62
     9
 10
0.0
 20
0.0
 30
0.0
 70
   128
 71
     6
 72
     8
 73
     7
  0
VERTEX
  5
1B7
  8
0
 62
     9
 10
0.0
 20
0.0
 30
0.0
 70
   128
 71
     7
 72
     5
 73
     6
  0
VERTEX
  5
1B8
  8
0
 62
     9
 10
0.0
 20
0.0
 30
0.0
 70
   128
 71
     1
 72
     8
 73
     4
  0
VERTEX
  5
1B9
  8
0
 62
     9
 10
0.0
 20
0.0
 30
0.0
 70
   128
 71
     1
 72
     7
 73
     8
  0
SEQEND
  5
1BA
  8
0
 62
     9
  0
ENDBLK
  5
1BD
  8
0
  0
BLOCK
  8
0
  2
E3_NODE_17_
 70
     0
 10
0.0
 20
0.0
 30
0.0
  3
E3_NODE_17_
  1

  0
POLYLINE
  5
1BF
  8
0
 62
     9
 66
     1
 10
0.0
 20
0.0
 30
0.0
 70
    64
 71
     8
 72
     8
  0
VERTEX
  5
1C0
  8
0
 10
12.85999965667725
 20
114.0
 30
-7.425000190734863
 70
   192
  0
VERTEX
  5
1C1
  8
0
 10
-7.425000190734863
 20
114.0
 30
-12.85999965667725
 70
   192
  0
VERTEX
  5
1C2
  8
0
 10
-7.425000190734863
 20
119.0
 30
-12.85999965667725
 70
   192
  0
VERTEX
  5
1C3
  8
0
 10
7.425000190734863
 20
114.0
 30
12.85999965667725
 70
   192
  0
VERTEX
  5
1C4
  8
0
 10
12.85999965667725
 20
119.0
 30
-7.425000190734863
 70
   192
  0
VERTEX
  5
1C5
  8
0
 10
-12.85999965667725
 20
119.0
 30
7.425000190734863
 70
   192
  0
VERTEX
  5
1C6
  8
0
 10
-12.85999965667725
 20
114.0
 30
7.425000190734863
 70
   192
  0
VERTEX
  5
1C7
  8
0
 10
7.425000190734863
 20
119.0
 30
12.85999965667725
 70
   192
  0
VERTEX
  5
1C8
  8
0
 62
     9
 10
0.0
 20
0.0
 30
0.0
 70
   128
 71
     3
 72
     2
 73
     1
  0
VERTEX
  5
1C9
  8
0
 62
     9
 10
0.0
 20
0.0
 30
0.0
 70
   128
 71
     5
 72
     1
 73
     4
  0
VERTEX
  5
1CA
  8
0
 62
     9
 10
0.0
 20
0.0
 30
0.0
 70
   128
 71
     4
 72
     7
 73
     6
  0
VERTEX
  5
1CB
  8
0
 62
     9
 10
0.0
 20
0.0
 30
0.0
 70
   128
 71
     7
 72
     2
 73
     3
  0
VERTEX
  5
1CC
  8
0
 62
     9
 10
0.0
 20
0.0
 30
0.0
 70
   128
 71
     3
 72
     6
 73
     7
  0
VERTEX
  5
1CD
  8
0
 62
     9
 10
0.0
 20
0.0
 30
0.0
 70
   128
 71
     6
 72
     8
 73
     4
  0
VERTEX
  5
1CE
  8
0
 62
     9
 10
0.0
 20
0.0
 30
0.0
 70
   128
 71
     4
 72
     8
 73
     5
  0
VERTEX
  5
1CF
  8
0
 62
     9
 10
0.0
 20
0.0
 30
0.0
 70
   128
 71
     1
 72
     5
 73
     3
  0
SEQEND
  5
1D0
  8
0
 62
     9
  0
ENDBLK
  5
1D3
  8
0
  0
BLOCK
  8
0
  2
E3_NODE_18_
 70
     0
 10
0.0
 20
0.0
 30
0.0
  3
E3_NODE_18_
  1

  0
POLYLINE
  5
1D5
  8
0
 62
     9
 66
     1
 10
0.0
 20
0.0
 30
0.0
 70
    64
 71
     5
 72
     3
  0
VERTEX
  5
1D6
  8
0
 10
-80.87100219726562
 20
93.06999969482422
 30
0.0
 70
   192
  0
VERTEX
  5
1D7
  8
0
 10
-80.87100219726562
 20
56.93000030517578
 30
0.0
 70
   192
  0
VERTEX
  5
1D8
  8
0
 10
-59.62900161743164
 20
63.83200073242188
 30
0.0
 70
   192
  0
VERTEX
  5
1D9
  8
0
 10
-59.62900161743164
 20
86.16799926757812
 30
0.0
 70
   192
  0
VERTEX
  5
1DA
  8
0
 10
-94.0
 20
75.0
 30
0.0
 70
   192
  0
VERTEX
  5
1DB
  8
0
 62
     9
 10
0.0
 20
0.0
 30
0.0
 70
   128
 71
     3
 72
     2
 73
     1
  0
VERTEX
  5
1DC
  8
0
 62
     9
 10
0.0
 20
0.0
 30
0.0
 70
   128
 71
     1
 72
     4
 73
     3
  0
VERTEX
  5
1DD
  8
0
 62
     9
 10
0.0
 20
0.0
 30
0.0
 70
   128
 71
     2
 72
     5
 73
     1
  0
SEQEND
  5
1DE
  8
0
 62
     9
  0
ENDBLK
  5
1E1
  8
0
  0
BLOCK
  8
0
  2
E3_NODE_19_
 70
     0
 10
0.0
 20
0.0
 30
0.0
  3
E3_NODE_19_
  1

  0
POLYLINE
  5
1E3
  8
0
 62
     9
 66
     1
 10
0.0
 20
0.0
 30
0.0
 70
    64
 71
    10
 72
    10
  0
VERTEX
  5
1E4
  8
0
 10
-80.87100219726562
 20
56.93000030517578
 30
0.0
 70
   192
  0
VERTEX
  5
1E5
  8
0
 10
-94.0
 20
75.0
 30
0.0
 70
   192
  0
VERTEX
  5
1E6
  8
0
 10
-94.0
 20
75.0
 30
-739.0
 70
   192
  0
VERTEX
  5
1E7
  8
0
 10
-59.62900161743164
 20
63.83200073242188
 30
0.0
 70
   192
  0
VERTEX
  5
1E8
  8
0
 10
-80.87100219726562
 20
56.93000030517578
 30
-739.0
 70
   192
  0
VERTEX
  5
1E9
  8
0
 10
-59.62900161743164
 20
86.16799926757812
 30
0.0
 70
   192
  0
VERTEX
  5
1EA
  8
0
 10
-59.62900161743164
 20
63.83200073242188
 30
-739.0
 70
   192
  0
VERTEX
  5
1EB
  8
0
 10
-80.87100219726562
 20
93.06999969482422
 30
-739.0
 70
   192
  0
VERTEX
  5
1EC
  8
0
 10
-80.87100219726562
 20
93.06999969482422
 30
0.0
 70
   192
  0
VERTEX
  5
1ED
  8
0
 10
-59.62900161743164
 20
86.16799926757812
 30
-739.0
 70
   192
  0
VERTEX
  5
1EE
  8
0
 62
     9
 10
0.0
 20
0.0
 30
0.0
 70
   128
 71
     3
 72
     2
 73
     1
  0
VERTEX
  5
1EF
  8
0
 62
     9
 10
0.0
 20
0.0
 30
0.0
 70
   128
 71
     5
 72
     1
 73
     4
  0
VERTEX
  5
1F0
  8
0
 62
     9
 10
0.0
 20
0.0
 30
0.0
 70
   128
 71
     7
 72
     4
 73
     6
  0
VERTEX
  5
1F1
  8
0
 62
     9
 10
0.0
 20
0.0
 30
0.0
 70
   128
 71
     6
 72
     9
 73
     8
  0
VERTEX
  5
1F2
  8
0
 62
     9
 10
0.0
 20
0.0
 30
0.0
 70
   128
 71
     9
 72
     2
 73
     3
  0
VERTEX
  5
1F3
  8
0
 62
     9
 10
0.0
 20
0.0
 30
0.0
 70
   128
 71
     3
 72
     8
 73
     9
  0
VERTEX
  5
1F4
  8
0
 62
     9
 10
0.0
 20
0.0
 30
0.0
 70
   128
 71
     8
 72
    10
 73
     6
  0
VERTEX
  5
1F5
  8
0
 62
     9
 10
0.0
 20
0.0
 30
0.0
 70
   128
 71
     6
 72
    10
 73
     7
  0
VERTEX
  5
1F6
  8
0
 62
     9
 10
0.0
 20
0.0
 30
0.0
 70
   128
 71
     4
 72
     7
 73
     5
  0
VERTEX
  5
1F7
  8
0
 62
     9
 10
0.0
 20
0.0
 30
0.0
 70
   128
 71
     1
 72
     5
 73
     3
  0
SEQEND
  5
1F8
  8
0
 62
     9
  0
ENDBLK
  5
1FB
  8
0
  0
BLOCK
  8
0
  2
E3_NODE_20_
 70
     0
 10
0.0
 20
0.0
 30
0.0
  3
E3_NODE_20_
  1

  0
POLYLINE
  5
1FD
  8
0
 62
     9
 66
     1
 10
0.0
 20
0.0
 30
0.0
 70
    64
 71
     4
 72
     2
  0
VERTEX
  5
1FE
  8
0
 10
-123.3000030517578
 20
63.0
 30
0.0
 70
   192
  0
VERTEX
  5
1FF
  8
0
 10
-135.3000030517578
 20
75.0
 30
0.0
 70
   192
  0
VERTEX
  5
200
  8
0
 10
-123.3000030517578
 20
87.0
 30
0.0
 70
   192
  0
VERTEX
  5
201
  8
0
 10
-111.3000030517578
 20
75.0
 30
0.0
 70
   192
  0
VERTEX
  5
202
  8
0
 62
     9
 10
0.0
 20
0.0
 30
0.0
 70
   128
 71
     3
 72
     2
 73
     1
  0
VERTEX
  5
203
  8
0
 62
     9
 10
0.0
 20
0.0
 30
0.0
 70
   128
 71
     1
 72
     4
 73
     3
  0
SEQEND
  5
204
  8
0
 62
     9
  0
ENDBLK
  5
207
  8
0
  0
BLOCK
  8
0
  2
E3_NODE_21_
 70
     0
 10
0.0
 20
0.0
 30
0.0
  3
E3_NODE_21_
  1

  0
POLYLINE
  5
209
  8
0
 62
     9
 66
     1
 10
0.0
 20
0.0
 30
0.0
 70
    64
 71
     8
 72
     8
  0
VERTEX
  5
20A
  8
0
 10
-123.3000030517578
 20
63.0
 30
0.0
 70
   192
  0
VERTEX
  5
20B
  8
0
 10
-111.3000030517578
 20
75.0
 30
0.0
 70
   192
  0
VERTEX
  5
20C
  8
0
 10
-111.3000030517578
 20
75.0
 30
130.0
 70
   192
  0
VERTEX
  5
20D
  8
0
 10
-135.3000030517578
 20
75.0
 30
130.0
 70
   192
  0
VERTEX
  5
20E
  8
0
 10
-135.3000030517578
 20
75.0
 30
0.0
 70
   192
  0
VERTEX
  5
20F
  8
0
 10
-123.3000030517578
 20
87.0
 30
130.0
 70
   192
  0
VERTEX
  5
210
  8
0
 10
-123.3000030517578
 20
87.0
 30
0.0
 70
   192
  0
VERTEX
  5
211
  8
0
 10
-123.3000030517578
 20
63.0
 30
130.0
 70
   192
  0
VERTEX
  5
212
  8
0
 62
     9
 10
0.0
 20
0.0
 30
0.0
 70
   128
 71
     3
 72
     2
 73
     1
  0
VERTEX
  5
213
  8
0
 62
     9
 10
0.0
 20
0.0
 30
0.0
 70
   128
 71
     1
 72
     5
 73
     4
  0
VERTEX
  5
214
  8
0
 62
     9
 10
0.0
 20
0.0
 30
0.0
 70
   128
 71
     5
 72
     7
 73
     6
  0
VERTEX
  5
215
  8
0
 62
     9
 10
0.0
 20
0.0
 30
0.0
 70
   128
 71
     6
 72
     7
 73
     2
  0
VERTEX
  5
216
  8
0
 62
     9
 10
0.0
 20
0.0
 30
0.0
 70
   128
 71
     2
 72
     3
 73
     6
  0
VERTEX
  5
217
  8
0
 62
     9
 10
0.0
 20
0.0
 30
0.0
 70
   128
 71
     6
 72
     4
 73
     5
  0
VERTEX
  5
218
  8
0
 62
     9
 10
0.0
 20
0.0
 30
0.0
 70
   128
 71
     4
 72
     8
 73
     1
  0
VERTEX
  5
219
  8
0
 62
     9
 10
0.0
 20
0.0
 30
0.0
 70
   128
 71
     1
 72
     8
 73
     3
  0
SEQEND
  5
21A
  8
0
 62
     9
  0
ENDBLK
  5
21D
  8
0
  0
BLOCK
  8
0
  2
E3_NODE_22_
 70
     0
 10
0.0
 20
0.0
 30
0.0
  3
E3_NODE_22_
  1

  0
POLYLINE
  5
21F
  8
0
 62
     9
 66
     1
 10
0.0
 20
0.0
 30
0.0
 70
    64
 71
     8
 72
     8
  0
VERTEX
  5
220
  8
0
 10
-139.3000030517578
 20
75.0
 30
130.0
 70
   192
  0
VERTEX
  5
221
  8
0
 10
-123.3000030517578
 20
91.0
 30
130.0
 70
   192
  0
VERTEX
  5
222
  8
0
 10
-123.3000030517578
 20
87.0
 30
130.0
 70
   192
  0
VERTEX
  5
223
  8
0
 10
-107.3000030517578
 20
75.0
 30
130.0
 70
   192
  0
VERTEX
  5
224
  8
0
 10
-111.3000030517578
 20
75.0
 30
130.0
 70
   192
  0
VERTEX
  5
225
  8
0
 10
-123.3000030517578
 20
59.0
 30
130.0
 70
   192
  0
VERTEX
  5
226
  8
0
 10
-123.3000030517578
 20
63.0
 30
130.0
 70
   192
  0
VERTEX
  5
227
  8
0
 10
-135.3000030517578
 20
75.0
 30
130.0
 70
   192
  0
VERTEX
  5
228
  8
0
 62
     9
 10
0.0
 20
0.0
 30
0.0
 70
   128
 71
     3
 72
     2
 73
     1
  0
VERTEX
  5
229
  8
0
 62
     9
 10
0.0
 20
0.0
 30
0.0
 70
   128
 71
     5
 72
     4
 73
     2
  0
VERTEX
  5
22A
  8
0
 62
     9
 10
0.0
 20
0.0
 30
0.0
 70
   128
 71
     2
 72
     3
 73
     5
  0
VERTEX
  5
22B
  8
0
 62
     9
 10
0.0
 20
0.0
 30
0.0
 70
   128
 71
     7
 72
     6
 73
     4
  0
VERTEX
  5
22C
  8
0
 62
     9
 10
0.0
 20
0.0
 30
0.0
 70
   128
 71
     4
 72
     5
 73
     7
  0
VERTEX
  5
22D
  8
0
 62
     9
 10
0.0
 20
0.0
 30
0.0
 70
   128
 71
     8
 72
     1
 73
     6
  0
VERTEX
  5
22E
  8
0
 62
     9
 10
0.0
 20
0.0
 30
0.0
 70
   128
 71
     6
 72
     7
 73
     8
  0
VERTEX
  5
22F
  8
0
 62
     9
 10
0.0
 20
0.0
 30
0.0
 70
   128
 71
     1
 72
     8
 73
     3
  0
SEQEND
  5
230
  8
0
 62
     9
  0
ENDBLK
  5
233
  8
0
  0
BLOCK
  8
0
  2
E3_NODE_23_
 70
     0
 10
0.0
 20
0.0
 30
0.0
  3
E3_NODE_23_
  1

  0
POLYLINE
  5
235
  8
0
 62
     9
 66
     1
 10
0.0
 20
0.0
 30
0.0
 70
    64
 71
     8
 72
     8
  0
VERTEX
  5
236
  8
0
 10
-123.3000030517578
 20
59.0
 30
130.0
 70
   192
  0
VERTEX
  5
237
  8
0
 10
-107.3000030517578
 20
75.0
 30
130.0
 70
   192
  0
VERTEX
  5
238
  8
0
 10
-107.3000030517578
 20
75.0
 30
205.0
 70
   192
  0
VERTEX
  5
239
  8
0
 10
-123.3000030517578
 20
59.0
 30
205.0
 70
   192
  0
VERTEX
  5
23A
  8
0
 10
-139.3000030517578
 20
75.0
 30
205.0
 70
   192
  0
VERTEX
  5
23B
  8
0
 10
-139.3000030517578
 20
75.0
 30
130.0
 70
   192
  0
VERTEX
  5
23C
  8
0
 10
-123.3000030517578
 20
91.0
 30
205.0
 70
   192
  0
VERTEX
  5
23D
  8
0
 10
-123.3000030517578
 20
91.0
 30
130.0
 70
   192
  0
VERTEX
  5
23E
  8
0
 62
     9
 10
0.0
 20
0.0
 30
0.0
 70
   128
 71
     3
 72
     2
 73
     1
  0
VERTEX
  5
23F
  8
0
 62
     9
 10
0.0
 20
0.0
 30
0.0
 70
   128
 71
     6
 72
     5
 73
     4
  0
VERTEX
  5
240
  8
0
 62
     9
 10
0.0
 20
0.0
 30
0.0
 70
   128
 71
     6
 72
     8
 73
     7
  0
VERTEX
  5
241
  8
0
 62
     9
 10
0.0
 20
0.0
 30
0.0
 70
   128
 71
     8
 72
     2
 73
     3
  0
VERTEX
  5
242
  8
0
 62
     9
 10
0.0
 20
0.0
 30
0.0
 70
   128
 71
     3
 72
     7
 73
     8
  0
VERTEX
  5
243
  8
0
 62
     9
 10
0.0
 20
0.0
 30
0.0
 70
   128
 71
     7
 72
     5
 73
     6
  0
VERTEX
  5
244
  8
0
 62
     9
 10
0.0
 20
0.0
 30
0.0
 70
   128
 71
     4
 72
     1
 73
     6
  0
VERTEX
  5
245
  8
0
 62
     9
 10
0.0
 20
0.0
 30
0.0
 70
   128
 71
     1
 72
     4
 73
     3
  0
SEQEND
  5
246
  8
0
 62
     9
  0
ENDBLK
  5
249
  8
0
  0
BLOCK
  8
0
  2
E3_NODE_24_
 70
     0
 10
0.0
 20
0.0
 30
0.0
  3
E3_NODE_24_
  1

  0
POLYLINE
  5
24B
  8
0
 62
     9
 66
     1
 10
0.0
 20
0.0
 30
0.0
 70
    64
 71
     4
 72
     2
  0
VERTEX
  5
24C
  8
0
 10
-123.3000030517578
 20
59.0
 30
205.0
 70
   192
  0
VERTEX
  5
24D
  8
0
 10
-107.3000030517578
 20
75.0
 30
205.0
 70
   192
  0
VERTEX
  5
24E
  8
0
 10
-123.3000030517578
 20
91.0
 30
205.0
 70
   192
  0
VERTEX
  5
24F
  8
0
 10
-139.3000030517578
 20
75.0
 30
205.0
 70
   192
  0
VERTEX
  5
250
  8
0
 62
     9
 10
0.0
 20
0.0
 30
0.0
 70
   128
 71
     3
 72
     2
 73
     1
  0
VERTEX
  5
251
  8
0
 62
     9
 10
0.0
 20
0.0
 30
0.0
 70
   128
 71
     1
 72
     4
 73
     3
  0
SEQEND
  5
252
  8
0
 62
     9
  0
ENDBLK
  5
255
  8
0
  0
BLOCK
  8
0
  2
E3_NODE_25_
 70
     0
 10
0.0
 20
0.0
 30
0.0
  3
E3_NODE_25_
  1

  0
POLYLINE
  5
257
  8
0
 62
     9
 66
     1
 10
0.0
 20
0.0
 30
0.0
 70
    64
 71
     8
 72
     8
  0
VERTEX
  5
258
  8
0
 10
25.04700088500977
 20
7.5
 30
0.0
 70
   192
  0
VERTEX
  5
259
  8
0
 10
18.0
 20
7.5
 30
0.0
 70
   192
  0
VERTEX
  5
25A
  8
0
 10
18.0
 20
0.0
 30
7.5
 70
   192
  0
VERTEX
  5
25B
  8
0
 10
25.04700088500977
 20
0.0
 30
-7.5
 70
   192
  0
VERTEX
  5
25C
  8
0
 10
18.0
 20
0.0
 30
-7.5
 70
   192
  0
VERTEX
  5
25D
  8
0
 10
25.04700088500977
 20
-7.5
 30
0.0
 70
   192
  0
VERTEX
  5
25E
  8
0
 10
18.0
 20
-7.5
 30
0.0
 70
   192
  0
VERTEX
  5
25F
  8
0
 10
25.04700088500977
 20
0.0
 30
7.5
 70
   192
  0
VERTEX
  5
260
  8
0
 62
     9
 10
0.0
 20
0.0
 30
0.0
 70
   128
 71
     3
 72
     2
 73
     1
  0
VERTEX
  5
261
  8
0
 62
     9
 10
0.0
 20
0.0
 30
0.0
 70
   128
 71
     2
 72
     5
 73
     4
  0
VERTEX
  5
262
  8
0
 62
     9
 10
0.0
 20
0.0
 30
0.0
 70
   128
 71
     5
 72
     7
 73
     6
  0
VERTEX
  5
263
  8
0
 62
     9
 10
0.0
 20
0.0
 30
0.0
 70
   128
 71
     7
 72
     3
 73
     8
  0
VERTEX
  5
264
  8
0
 62
     9
 10
0.0
 20
0.0
 30
0.0
 70
   128
 71
     8
 72
     6
 73
     7
  0
VERTEX
  5
265
  8
0
 62
     9
 10
0.0
 20
0.0
 30
0.0
 70
   128
 71
     6
 72
     4
 73
     5
  0
VERTEX
  5
266
  8
0
 62
     9
 10
0.0
 20
0.0
 30
0.0
 70
   128
 71
     4
 72
     1
 73
     2
  0
VERTEX
  5
267
  8
0
 62
     9
 10
0.0
 20
0.0
 30
0.0
 70
   128
 71
     1
 72
     8
 73
     3
  0
SEQEND
  5
268
  8
0
 62
     9
  0
ENDBLK
  5
26B
  8
0
  0
BLOCK
  8
0
  2
E3_NODE_26_
 70
     0
 10
0.0
 20
0.0
 30
0.0
  3
E3_NODE_26_
  1

  0
POLYLINE
  5
26D
  8
0
 62
     9
 66
     1
 10
0.0
 20
0.0
 30
0.0
 70
    64
 71
     5
 72
     4
  0
VERTEX
  5
26E
  8
0
 10
25.04700088500977
 20
0.0
 30
7.5
 70
   192
  0
VERTEX
  5
26F
  8
0
 10
25.04700088500977
 20
-7.5
 30
0.0
 70
   192
  0
VERTEX
  5
270
  8
0
 10
26.0
 20
0.0
 30
0.0
 70
   192
  0
VERTEX
  5
271
  8
0
 10
25.04700088500977
 20
0.0
 30
-7.5
 70
   192
  0
VERTEX
  5
272
  8
0
 10
25.04700088500977
 20
7.5
 30
0.0
 70
   192
  0
VERTEX
  5
273
  8
0
 62
     9
 10
0.0
 20
0.0
 30
0.0
 70
   128
 71
     3
 72
     2
 73
     1
  0
VERTEX
  5
274
  8
0
 62
     9
 10
0.0
 20
0.0
 30
0.0
 70
   128
 71
     3
 72
     4
 73
     2
  0
VERTEX
  5
275
  8
0
 62
     9
 10
0.0
 20
0.0
 30
0.0
 70
   128
 71
     3
 72
     5
 73
     4
  0
VERTEX
  5
276
  8
0
 62
     9
 10
0.0
 20
0.0
 30
0.0
 70
   128
 71
     3
 72
     1
 73
     5
  0
SEQEND
  5
277
  8
0
 62
     9
  0
ENDBLK
  5
27A
  8
0
  0
BLOCK
  8
0
  2
E3_NODE_27_
 70
     0
 10
0.0
 20
0.0
 30
0.0
  3
E3_NODE_27_
  1

  0
POLYLINE
  5
27C
  8
0
 62
     9
 66
     1
 10
0.0
 20
0.0
 30
0.0
 70
    64
 71
     8
 72
     8
  0
VERTEX
  5
27D
  8
0
 10
18.0
 20
12.94999980926514
 30
0.0
 70
   192
  0
VERTEX
  5
27E
  8
0
 10
5.0
 20
12.94999980926514
 30
0.0
 70
   192
  0
VERTEX
  5
27F
  8
0
 10
5.0
 20
0.0
 30
12.94999980926514
 70
   192
  0
VERTEX
  5
280
  8
0
 10
18.0
 20
0.0
 30
-12.94999980926514
 70
   192
  0
VERTEX
  5
281
  8
0
 10
5.0
 20
0.0
 30
-12.94999980926514
 70
   192
  0
VERTEX
  5
282
  8
0
 10
5.0
 20
-12.94999980926514
 30
0.0
 70
   192
  0
VERTEX
  5
283
  8
0
 10
18.0
 20
-12.94999980926514
 30
0.0
 70
   192
  0
VERTEX
  5
284
  8
0
 10
18.0
 20
0.0
 30
12.94999980926514
 70
   192
  0
VERTEX
  5
285
  8
0
 62
     9
 10
0.0
 20
0.0
 30
0.0
 70
   128
 71
     3
 72
     2
 73
     1
  0
VERTEX
  5
286
  8
0
 62
     9
 10
0.0
 20
0.0
 30
0.0
 70
   128
 71
     2
 72
     5
 73
     4
  0
VERTEX
  5
287
  8
0
 62
     9
 10
0.0
 20
0.0
 30
0.0
 70
   128
 71
     4
 72
     5
 73
     6
  0
VERTEX
  5
288
  8
0
 62
     9
 10
0.0
 20
0.0
 30
0.0
 70
   128
 71
     7
 72
     6
 73
     3
  0
VERTEX
  5
289
  8
0
 62
     9
 10
0.0
 20
0.0
 30
0.0
 70
   128
 71
     3
 72
     8
 73
     7
  0
VERTEX
  5
28A
  8
0
 62
     9
 10
0.0
 20
0.0
 30
0.0
 70
   128
 71
     6
 72
     7
 73
     4
  0
VERTEX
  5
28B
  8
0
 62
     9
 10
0.0
 20
0.0
 30
0.0
 70
   128
 71
     4
 72
     1
 73
     2
  0
VERTEX
  5
28C
  8
0
 62
     9
 10
0.0
 20
0.0
 30
0.0
 70
   128
 71
     1
 72
     8
 73
     3
  0
SEQEND
  5
28D
  8
0
 62
     9
  0
ENDBLK
  5
290
  8
0
  0
BLOCK
  8
0
  2
E3_NODE_28_
 70
     0
 10
0.0
 20
0.0
 30
0.0
  3
E3_NODE_28_
  1

  0
POLYLINE
  5
292
  8
0
 62
     9
 66
     1
 10
0.0
 20
0.0
 30
0.0
 70
    64
 71
     4
 72
     2
  0
VERTEX
  5
293
  8
0
 10
18.0
 20
12.94999980926514
 30
0.0
 70
   192
  0
VERTEX
  5
294
  8
0
 10
18.0
 20
0.0
 30
12.94999980926514
 70
   192
  0
VERTEX
  5
295
  8
0
 10
18.0
 20
-12.94999980926514
 30
0.0
 70
   192
  0
VERTEX
  5
296
  8
0
 10
18.0
 20
0.0
 30
-12.94999980926514
 70
   192
  0
VERTEX
  5
297
  8
0
 62
     9
 10
0.0
 20
0.0
 30
0.0
 70
   128
 71
     3
 72
     2
 73
     1
  0
VERTEX
  5
298
  8
0
 62
     9
 10
0.0
 20
0.0
 30
0.0
 70
   128
 71
     1
 72
     4
 73
     3
  0
SEQEND
  5
299
  8
0
 62
     9
  0
ENDBLK
  5
29C
  8
0
  0
BLOCK
  8
0
  2
E3_NODE_29_
 70
     0
 10
0.0
 20
0.0
 30
0.0
  3
E3_NODE_29_
  1

  0
POLYLINE
  5
29E
  8
0
 62
     9
 66
     1
 10
0.0
 20
0.0
 30
0.0
 70
    64
 71
    17
 72
    17
  0
VERTEX
  5
29F
  8
0
 10
5.0
 20
13.0
 30
0.0
 70
   192
  0
VERTEX
  5
2A0
  8
0
 10
15.62399959564209
 20
7.218999862670898
 30
-10.81099987030029
 70
   192
  0
VERTEX
  5
2A1
  8
0
 10
18.94899940490723
 20
12.92500019073486
 30
-1.39300000667572
 70
   192
  0
VERTEX
  5
2A2
  8
0
 10
5.0
 20
0.0
 30
-13.0
 70
   192
  0
VERTEX
  5
2A3
  8
0
 10
14.14099979400635
 20
2.823999881744385
 30
-12.6899995803833
 70
   192
  0
VERTEX
  5
2A4
  8
0
 10
13.85599994659424
 20
0.0
 30
-13.0
 70
   192
  0
VERTEX
  5
2A5
  8
0
 10
5.0
 20
0.0
 30
13.0
 70
   192
  0
VERTEX
  5
2A6
  8
0
 10
16.32999992370605
 20
8.640000343322754
 30
9.713000297546387
 70
   192
  0
VERTEX
  5
2A7
  8
0
 10
17.28000068664551
 20
10.19600009918213
 30
5.682000160217285
 70
   192
  0
VERTEX
  5
2A8
  8
0
 10
18.66799926757812
 20
12.46599960327148
 30
-0.2029999941587448
 70
   192
  0
VERTEX
  5
2A9
  8
0
 10
5.0
 20
-13.0
 30
0.0
 70
   192
  0
VERTEX
  5
2AA
  8
0
 10
17.52799987792969
 20
-9.869999885559082
 30
5.620999813079834
 70
   192
  0
VERTEX
  5
2AB
  8
0
 10
18.73600006103516
 20
-12.61100006103516
 30
3.157000064849854
 70
   192
  0
VERTEX
  5
2AC
  8
0
 10
13.97399997711182
 20
-1.805999994277954
 30
12.87399959564209
 70
   192
  0
VERTEX
  5
2AD
  8
0
 10
14.34000015258789
 20
-0.1840000003576279
 30
12.38300037384033
 70
   192
  0
VERTEX
  5
2AE
  8
0
 10
17.07099914550781
 20
-9.970999717712402
 30
-8.342000007629395
 70
   192
  0
VERTEX
  5
2AF
  8
0
 10
18.31399917602539
 20
-11.94200038909912
 30
0.2409999966621399
 70
   192
  0
VERTEX
  5
2B0
  8
0
 62
     9
 10
0.0
 20
0.0
 30
0.0
 70
   128
 71
     3
 72
     2
 73
     1
  0
VERTEX
  5
2B1
  8
0
 62
     9
 10
0.0
 20
0.0
 30
0.0
 70
   128
 71
     5
 72
     4
 73
     1
  0
VERTEX
  5
2B2
  8
0
 62
     9
 10
0.0
 20
0.0
 30
0.0
 70
   128
 71
     1
 72
     2
 73
     5
  0
VERTEX
  5
2B3
  8
0
 62
     9
 10
0.0
 20
0.0
 30
0.0
 70
   128
 71
     5
 72
     6
 73
     4
  0
VERTEX
  5
2B4
  8
0
 62
     9
 10
0.0
 20
0.0
 30
0.0
 70
   128
 71
     8
 72
     1
 73
     7
  0
VERTEX
  5
2B5
  8
0
 62
     9
 10
0.0
 20
0.0
 30
0.0
 70
   128
 71
     8
 72
     9
 73
     1
  0
VERTEX
  5
2B6
  8
0
 62
     9
 10
0.0
 20
0.0
 30
0.0
 70
   128
 71
     9
 72
    10
 73
     1
  0
VERTEX
  5
2B7
  8
0
 62
     9
 10
0.0
 20
0.0
 30
0.0
 70
   128
 71
    13
 72
    12
 73
    11
  0
VERTEX
  5
2B8
  8
0
 62
     9
 10
0.0
 20
0.0
 30
0.0
 70
   128
 71
    14
 72
     7
 73
    11
  0
VERTEX
  5
2B9
  8
0
 62
     9
 10
0.0
 20
0.0
 30
0.0
 70
   128
 71
    11
 72
    12
 73
    14
  0
VERTEX
  5
2BA
  8
0
 62
     9
 10
0.0
 20
0.0
 30
0.0
 70
   128
 71
    14
 72
    15
 73
     7
  0
VERTEX
  5
2BB
  8
0
 62
     9
 10
0.0
 20
0.0
 30
0.0
 70
   128
 71
     6
 72
    16
 73
    11
  0
VERTEX
  5
2BC
  8
0
 62
     9
 10
0.0
 20
0.0
 30
0.0
 70
   128
 71
    16
 72
    17
 73
    11
  0
VERTEX
  5
2BD
  8
0
 62
     9
 10
0.0
 20
0.0
 30
0.0
 70
   128
 71
    11
 72
     4
 73
     6
  0
VERTEX
  5
2BE
  8
0
 62
     9
 10
0.0
 20
0.0
 30
0.0
 70
   128
 71
    11
 72
    17
 73
    13
  0
VERTEX
  5
2BF
  8
0
 62
     9
 10
0.0
 20
0.0
 30
0.0
 70
   128
 71
     7
 72
    15
 73
     8
  0
VERTEX
  5
2C0
  8
0
 62
     9
 10
0.0
 20
0.0
 30
0.0
 70
   128
 71
     1
 72
    10
 73
     3
  0
SEQEND
  5
2C1
  8
0
 62
     9
  0
ENDBLK
  5
2C4
  8
0
  0
BLOCK
  8
0
  2
E3_NODE_30_
 70
     0
 10
0.0
 20
0.0
 30
0.0
  3
E3_NODE_30_
  1

  0
POLYLINE
  5
2C6
  8
0
 62
     9
 66
     1
 10
0.0
 20
0.0
 30
0.0
 70
    64
 71
    75
 72
    83
  0
VERTEX
  5
2C7
  8
0
 10
-18.06999969482422
 20
-117.0
 30
5.870999813079834
 70
   192
  0
VERTEX
  5
2C8
  8
0
 10
0.0
 20
-117.0
 30
19.0
 70
   192
  0
VERTEX
  5
2C9
  8
0
 10
-15.96700000762939
 20
-90.96700286865234
 30
10.29800033569336
 70
   192
  0
VERTEX
  5
2CA
  8
0
 10
0.0
 20
-75.0
 30
19.0
 70
   192
  0
VERTEX
  5
2CB
  8
0
 10
-10.09899997711182
 20
-85.0989990234375
 30
13.49600028991699
 70
   192
  0
VERTEX
  5
2CC
  8
0
 10
-17.16799926757812
 20
-92.16799926757812
 30
-5.936999797821045
 70
   192
  0
VERTEX
  5
2CD
  8
0
 10
-17.30900001525879
 20
-92.30899810791016
 30
-7.836999893188477
 70
   192
  0
VERTEX
  5
2CE
  8
0
 10
-16.30400085449219
 20
-91.30400085449219
 30
5.739999771118164
 70
   192
  0
VERTEX
  5
2CF
  8
0
 10
-11.16800022125244
 20
-117.0
 30
-15.37100028991699
 70
   192
  0
VERTEX
  5
2D0
  8
0
 10
-16.30400085449219
 20
-58.69599914550781
 30
-5.739999771118164
 70
   192
  0
VERTEX
  5
2D1
  8
0
 10
-17.16799926757812
 20
-57.83200073242188
 30
5.936999797821045
 70
   192
  0
VERTEX
  5
2D2
  8
0
 10
-18.74200057983398
 20
-15.80599975585938
 30
3.11899995803833
 70
   192
  0
VERTEX
  5
2D3
  8
0
 10
-15.1870002746582
 20
-13.88199996948242
 30
-11.41699981689453
 70
   192
  0
VERTEX
  5
2D4
  8
0
 10
-15.96700000762939
 20
-59.03300094604492
 30
-10.29800033569336
 70
   192
  0
VERTEX
  5
2D5
  8
0
 10
-17.30999946594238
 20
-14.66699981689453
 30
5.408999919891357
 70
   192
  0
VERTEX
  5
2D6
  8
0
 10
-10.59799957275391
 20
-10.89200019836426
 30
-14.53699970245361
 70
   192
  0
VERTEX
  5
2D7
  8
0
 10
-10.09899997711182
 20
-64.9010009765625
 30
-13.49600028991699
 70
   192
  0
VERTEX
  5
2D8
  8
0
 10
-11.00599956512451
 20
-9.652000427246094
 30
15.48799991607666
 70
   192
  0
VERTEX
  5
2D9
  8
0
 10
-17.30900001525879
 20
-57.69100189208984
 30
7.836999893188477
 70
   192
  0
VERTEX
  5
2DA
  8
0
 10
-9.777999877929688
 20
-65.22200012207031
 30
13.52200031280518
 70
   192
  0
VERTEX
  5
2DB
  8
0
 10
-2.796000003814697
 20
-72.2040023803711
 30
18.79299926757812
 70
   192
  0
VERTEX
  5
2DC
  8
0
 10
-11.32400035858154
 20
-9.904999732971191
 30
14.97900009155273
 70
   192
  0
VERTEX
  5
2DD
  8
0
 10
0.0
 20
75.0
 30
19.0
 70
   192
  0
VERTEX
  5
2DE
  8
0
 10
-8.470000267028809
 20
3.970999956130981
 30
17.00699996948242
 70
   192
  0
VERTEX
  5
2DF
  8
0
 10
-15.72000026702881
 20
14.24400043487549
 30
10.67099952697754
 70
   192
  0
VERTEX
  5
2E0
  8
0
 10
-12.22900009155273
 20
9.29699993133545
 30
13.72200012207031
 70
   192
  0
VERTEX
  5
2E1
  8
0
 10
-15.96700000762939
 20
59.03300094604492
 30
10.29800033569336
 70
   192
  0
VERTEX
  5
2E2
  8
0
 10
-16.30400085449219
 20
58.69599914550781
 30
5.739999771118164
 70
   192
  0
VERTEX
  5
2E3
  8
0
 10
-16.66500091552734
 20
14.74100017547607
 30
5.609000205993652
 70
   192
  0
VERTEX
  5
2E4
  8
0
 10
-10.09899997711182
 20
64.9010009765625
 30
13.49600028991699
 70
   192
  0
VERTEX
  5
2E5
  8
0
 10
-17.16799926757812
 20
57.83200073242188
 30
-5.936999797821045
 70
   192
  0
VERTEX
  5
2E6
  8
0
 10
-18.51099967956543
 20
15.71300029754639
 30
-4.284999847412109
 70
   192
  0
VERTEX
  5
2E7
  8
0
 10
-17.30900001525879
 20
57.69100189208984
 30
-7.836999893188477
 70
   192
  0
VERTEX
  5
2E8
  8
0
 10
-12.88000011444092
 20
13.38000011444092
 30
-13.9680004119873
 70
   192
  0
VERTEX
  5
2E9
  8
0
 10
-15.1870002746582
 20
13.88199996948242
 30
-11.41699981689453
 70
   192
  0
VERTEX
  5
2EA
  8
0
 10
-16.33399963378906
 20
14.625
 30
-9.706000328063965
 70
   192
  0
VERTEX
  5
2EB
  8
0
 10
-10.95300006866455
 20
11.6569995880127
 30
-14.97900009155273
 70
   192
  0
VERTEX
  5
2EC
  8
0
 10
11.16800022125244
 20
117.0
 30
-15.37100028991699
 70
   192
  0
VERTEX
  5
2ED
  8
0
 10
0.0
 20
75.0
 30
-19.0
 70
   192
  0
VERTEX
  5
2EE
  8
0
 10
-10.09899997711182
 20
85.0989990234375
 30
-13.49600028991699
 70
   192
  0
VERTEX
  5
2EF
  8
0
 10
-4.165999889373779
 20
5.592999935150146
 30
-18.53800010681152
 70
   192
  0
VERTEX
  5
2F0
  8
0
 10
-9.777999877929688
 20
65.22200012207031
 30
-13.52200031280518
 70
   192
  0
VERTEX
  5
2F1
  8
0
 10
-2.796000003814697
 20
72.2040023803711
 30
-18.79299926757812
 70
   192
  0
VERTEX
  5
2F2
  8
0
 10
11.16800022125244
 20
-117.0
 30
-15.37100028991699
 70
   192
  0
VERTEX
  5
2F3
  8
0
 10
-4.535999774932861
 20
0.1040000021457672
 30
-18.44499969482422
 70
   192
  0
VERTEX
  5
2F4
  8
0
 10
-5.032999992370605
 20
-7.264999866485596
 30
-18.32099914550781
 70
   192
  0
VERTEX
  5
2F5
  8
0
 10
0.0
 20
-75.0
 30
-19.0
 70
   192
  0
VERTEX
  5
2F6
  8
0
 10
-9.777999877929688
 20
-84.77799987792969
 30
-13.52200031280518
 70
   192
  0
VERTEX
  5
2F7
  8
0
 10
-2.796000003814697
 20
-77.7959976196289
 30
-18.79299926757812
 70
   192
  0
VERTEX
  5
2F8
  8
0
 10
-18.06999969482422
 20
117.0
 30
5.870999813079834
 70
   192
  0
VERTEX
  5
2F9
  8
0
 10
-11.16800022125244
 20
117.0
 30
-15.37100028991699
 70
   192
  0
VERTEX
  5
2FA
  8
0
 10
-16.30400085449219
 20
91.30400085449219
 30
-5.739999771118164
 70
   192
  0
VERTEX
  5
2FB
  8
0
 10
-15.96700000762939
 20
90.96700286865234
 30
-10.29800033569336
 70
   192
  0
VERTEX
  5
2FC
  8
0
 10
0.0
 20
117.0
 30
19.0
 70
   192
  0
VERTEX
  5
2FD
  8
0
 10
-17.30900001525879
 20
92.30899810791016
 30
7.836999893188477
 70
   192
  0
VERTEX
  5
2FE
  8
0
 10
-9.777999877929688
 20
84.77799987792969
 30
13.52200031280518
 70
   192
  0
VERTEX
  5
2FF
  8
0
 10
-2.796000003814697
 20
77.7959976196289
 30
18.79299926757812
 70
   192
  0
VERTEX
  5
300
  8
0
 10
-17.16799926757812
 20
92.16799926757812
 30
5.936999797821045
 70
   192
  0
VERTEX
  5
301
  8
0
 10
17.28000068664551
 20
10.19600009918213
 30
5.682000160217285
 70
   192
  0
VERTEX
  5
302
  8
0
 10
18.06999969482422
 20
117.0
 30
5.870999813079834
 70
   192
  0
VERTEX
  5
303
  8
0
 10
13.97399997711182
 20
-1.805999994277954
 30
12.87399959564209
 70
   192
  0
VERTEX
  5
304
  8
0
 10
14.34000015258789
 20
-0.1840000003576279
 30
12.38300037384033
 70
   192
  0
VERTEX
  5
305
  8
0
 10
16.32999992370605
 20
8.640000343322754
 30
9.713000297546387
 70
   192
  0
VERTEX
  5
306
  8
0
 10
17.52799987792969
 20
-9.869999885559082
 30
5.620999813079834
 70
   192
  0
VERTEX
  5
307
  8
0
 10
18.06999969482422
 20
-117.0
 30
5.870999813079834
 70
   192
  0
VERTEX
  5
308
  8
0
 10
17.07099914550781
 20
-9.970999717712402
 30
-8.342000007629395
 70
   192
  0
VERTEX
  5
309
  8
0
 10
18.31399917602539
 20
-11.94200038909912
 30
0.2409999966621399
 70
   192
  0
VERTEX
  5
30A
  8
0
 10
19.0
 20
-117.0
 30
0.0
 70
   192
  0
VERTEX
  5
30B
  8
0
 10
18.73600006103516
 20
-12.61100006103516
 30
3.157000064849854
 70
   192
  0
VERTEX
  5
30C
  8
0
 10
14.14099979400635
 20
2.823999881744385
 30
-12.6899995803833
 70
   192
  0
VERTEX
  5
30D
  8
0
 10
13.85599994659424
 20
0.0
 30
-13.0
 70
   192
  0
VERTEX
  5
30E
  8
0
 10
15.62399959564209
 20
7.218999862670898
 30
-10.81099987030029
 70
   192
  0
VERTEX
  5
30F
  8
0
 10
19.0
 20
117.0
 30
0.0
 70
   192
  0
VERTEX
  5
310
  8
0
 10
18.94899940490723
 20
12.92500019073486
 30
-1.39300000667572
 70
   192
  0
VERTEX
  5
311
  8
0
 10
18.66799926757812
 20
12.46599960327148
 30
-0.2029999941587448
 70
   192
  0
VERTEX
  5
312
  8
0
 62
     9
 10
0.0
 20
0.0
 30
0.0
 70
   128
 71
     3
 72
     2
 73
     1
  0
VERTEX
  5
313
  8
0
 62
     9
 10
0.0
 20
0.0
 30
0.0
 70
   128
 71
     5
 72
     4
 73
     2
  0
VERTEX
  5
314
  8
0
 62
     9
 10
0.0
 20
0.0
 30
0.0
 70
   128
 71
     2
 72
     3
 73
     5
  0
VERTEX
  5
315
  8
0
 62
     9
 10
0.0
 20
0.0
 30
0.0
 70
   128
 71
     7
 72
     6
 73
     1
  0
VERTEX
  5
316
  8
0
 62
     9
 10
0.0
 20
0.0
 30
0.0
 70
   128
 71
     6
 72
     8
 73
     1
  0
VERTEX
  5
317
  8
0
 62
     9
 10
0.0
 20
0.0
 30
0.0
 70
   128
 71
     1
 72
     9
 73
     7
  0
VERTEX
  5
318
  8
0
 62
     9
 10
0.0
 20
0.0
 30
0.0
 70
   128
 71
    12
 72
    11
 73
    10
  0
VERTEX
  5
319
  8
0
 62
     9
 10
0.0
 20
0.0
 30
0.0
 70
   128
 71
    10
 72
    14
 73
    13
  0
VERTEX
  5
31A
  8
0
 62
     9
 10
0.0
 20
0.0
 30
0.0
 70
   128
 71
    10
 72
    13
 73
    12
  0
VERTEX
  5
31B
  8
0
 62
     9
 10
0.0
 20
0.0
 30
0.0
 70
   128
 71
    12
 72
    15
 73
    11
  0
VERTEX
  5
31C
  8
0
 62
     9
 10
0.0
 20
0.0
 30
0.0
 70
   128
 71
    14
 72
    17
 73
    16
  0
VERTEX
  5
31D
  8
0
 62
     9
 10
0.0
 20
0.0
 30
0.0
 70
   128
 71
    20
 72
    19
 73
    18
  0
VERTEX
  5
31E
  8
0
 62
     9
 10
0.0
 20
0.0
 30
0.0
 70
   128
 71
    18
 72
    21
 73
    20
  0
VERTEX
  5
31F
  8
0
 62
     9
 10
0.0
 20
0.0
 30
0.0
 70
   128
 71
    15
 72
    22
 73
    19
  0
VERTEX
  5
320
  8
0
 62
     9
 10
0.0
 20
0.0
 30
0.0
 70
   128
 71
    22
 72
    18
 73
    19
  0
VERTEX
  5
321
  8
0
 62
     9
 10
0.0
 20
0.0
 30
0.0
 70
   128
 71
    19
 72
    11
 73
    15
  0
VERTEX
  5
322
  8
0
 62
     9
 10
0.0
 20
0.0
 30
0.0
 70
   128
 71
    24
 72
    23
 73
     4
  0
VERTEX
  5
323
  8
0
 62
     9
 10
0.0
 20
0.0
 30
0.0
 70
   128
 71
     4
 72
    18
 73
    24
  0
VERTEX
  5
324
  8
0
 62
     9
 10
0.0
 20
0.0
 30
0.0
 70
   128
 71
    26
 72
    25
 73
    23
  0
VERTEX
  5
325
  8
0
 62
     9
 10
0.0
 20
0.0
 30
0.0
 70
   128
 71
    29
 72
    28
 73
    27
  0
VERTEX
  5
326
  8
0
 62
     9
 10
0.0
 20
0.0
 30
0.0
 70
   128
 71
    30
 72
    23
 73
    25
  0
VERTEX
  5
327
  8
0
 62
     9
 10
0.0
 20
0.0
 30
0.0
 70
   128
 71
    25
 72
    27
 73
    30
  0
VERTEX
  5
328
  8
0
 62
     9
 10
0.0
 20
0.0
 30
0.0
 70
   128
 71
    27
 72
    25
 73
    29
  0
VERTEX
  5
329
  8
0
 62
     9
 10
0.0
 20
0.0
 30
0.0
 70
   128
 71
    23
 72
    24
 73
    26
  0
VERTEX
  5
32A
  8
0
 62
     9
 10
0.0
 20
0.0
 30
0.0
 70
   128
 71
    32
 72
    31
 73
    28
  0
VERTEX
  5
32B
  8
0
 62
     9
 10
0.0
 20
0.0
 30
0.0
 70
   128
 71
    33
 72
    31
 73
    32
  0
VERTEX
  5
32C
  8
0
 62
     9
 10
0.0
 20
0.0
 30
0.0
 70
   128
 71
    35
 72
    34
 73
    33
  0
VERTEX
  5
32D
  8
0
 62
     9
 10
0.0
 20
0.0
 30
0.0
 70
   128
 71
    33
 72
    36
 73
    35
  0
VERTEX
  5
32E
  8
0
 62
     9
 10
0.0
 20
0.0
 30
0.0
 70
   128
 71
    32
 72
    36
 73
    33
  0
VERTEX
  5
32F
  8
0
 62
     9
 10
0.0
 20
0.0
 30
0.0
 70
   128
 71
    34
 72
    37
 73
    33
  0
VERTEX
  5
330
  8
0
 62
     9
 10
0.0
 20
0.0
 30
0.0
 70
   128
 71
    28
 72
    29
 73
    32
  0
VERTEX
  5
331
  8
0
 62
     9
 10
0.0
 20
0.0
 30
0.0
 70
   128
 71
    40
 72
    39
 73
    38
  0
VERTEX
  5
332
  8
0
 62
     9
 10
0.0
 20
0.0
 30
0.0
 70
   128
 71
    42
 72
    37
 73
    41
  0
VERTEX
  5
333
  8
0
 62
     9
 10
0.0
 20
0.0
 30
0.0
 70
   128
 71
    41
 72
    43
 73
    42
  0
VERTEX
  5
334
  8
0
 62
     9
 10
0.0
 20
0.0
 30
0.0
 70
   128
 71
    41
 72
    39
 73
    43
  0
VERTEX
  5
335
  8
0
 62
     9
 10
0.0
 20
0.0
 30
0.0
 70
   128
 71
    41
 72
    45
 73
    44
  0
VERTEX
  5
336
  8
0
 62
     9
 10
0.0
 20
0.0
 30
0.0
 70
   128
 71
    45
 72
    46
 73
    44
  0
VERTEX
  5
337
  8
0
 62
     9
 10
0.0
 20
0.0
 30
0.0
 70
   128
 71
    44
 72
    38
 73
    41
  0
VERTEX
  5
338
  8
0
 62
     9
 10
0.0
 20
0.0
 30
0.0
 70
   128
 71
    17
 72
    47
 73
    46
  0
VERTEX
  5
339
  8
0
 62
     9
 10
0.0
 20
0.0
 30
0.0
 70
   128
 71
    47
 72
    44
 73
    46
  0
VERTEX
  5
33A
  8
0
 62
     9
 10
0.0
 20
0.0
 30
0.0
 70
   128
 71
    46
 72
    16
 73
    17
  0
VERTEX
  5
33B
  8
0
 62
     9
 10
0.0
 20
0.0
 30
0.0
 70
   128
 71
    41
 72
    38
 73
    39
  0
VERTEX
  5
33C
  8
0
 62
     9
 10
0.0
 20
0.0
 30
0.0
 70
   128
 71
    48
 72
     9
 73
    44
  0
VERTEX
  5
33D
  8
0
 62
     9
 10
0.0
 20
0.0
 30
0.0
 70
   128
 71
    44
 72
    49
 73
    48
  0
VERTEX
  5
33E
  8
0
 62
     9
 10
0.0
 20
0.0
 30
0.0
 70
   128
 71
    44
 72
    47
 73
    49
  0
VERTEX
  5
33F
  8
0
 62
     9
 10
0.0
 20
0.0
 30
0.0
 70
   128
 71
    52
 72
    51
 73
    50
  0
VERTEX
  5
340
  8
0
 62
     9
 10
0.0
 20
0.0
 30
0.0
 70
   128
 71
    52
 72
    53
 73
    51
  0
VERTEX
  5
341
  8
0
 62
     9
 10
0.0
 20
0.0
 30
0.0
 70
   128
 71
    53
 72
    40
 73
    51
  0
VERTEX
  5
342
  8
0
 62
     9
 10
0.0
 20
0.0
 30
0.0
 70
   128
 71
    55
 72
    50
 73
    54
  0
VERTEX
  5
343
  8
0
 62
     9
 10
0.0
 20
0.0
 30
0.0
 70
   128
 71
    54
 72
    56
 73
    55
  0
VERTEX
  5
344
  8
0
 62
     9
 10
0.0
 20
0.0
 30
0.0
 70
   128
 71
    54
 72
    57
 73
    56
  0
VERTEX
  5
345
  8
0
 62
     9
 10
0.0
 20
0.0
 30
0.0
 70
   128
 71
    55
 72
    58
 73
    50
  0
VERTEX
  5
346
  8
0
 62
     9
 10
0.0
 20
0.0
 30
0.0
 70
   128
 71
    23
 72
    60
 73
    59
  0
VERTEX
  5
347
  8
0
 62
     9
 10
0.0
 20
0.0
 30
0.0
 70
   128
 71
    23
 72
    54
 73
    60
  0
VERTEX
  5
348
  8
0
 62
     9
 10
0.0
 20
0.0
 30
0.0
 70
   128
 71
    62
 72
    61
 73
    23
  0
VERTEX
  5
349
  8
0
 62
     9
 10
0.0
 20
0.0
 30
0.0
 70
   128
 71
    61
 72
     4
 73
    23
  0
VERTEX
  5
34A
  8
0
 62
     9
 10
0.0
 20
0.0
 30
0.0
 70
   128
 71
    23
 72
    63
 73
    62
  0
VERTEX
  5
34B
  8
0
 62
     9
 10
0.0
 20
0.0
 30
0.0
 70
   128
 71
     4
 72
    61
 73
    64
  0
VERTEX
  5
34C
  8
0
 62
     9
 10
0.0
 20
0.0
 30
0.0
 70
   128
 71
    64
 72
    65
 73
     4
  0
VERTEX
  5
34D
  8
0
 62
     9
 10
0.0
 20
0.0
 30
0.0
 70
   128
 71
    65
 72
     2
 73
     4
  0
VERTEX
  5
34E
  8
0
 62
     9
 10
0.0
 20
0.0
 30
0.0
 70
   128
 71
    67
 72
    66
 73
    44
  0
VERTEX
  5
34F
  8
0
 62
     9
 10
0.0
 20
0.0
 30
0.0
 70
   128
 71
    69
 72
    67
 73
    68
  0
VERTEX
  5
350
  8
0
 62
     9
 10
0.0
 20
0.0
 30
0.0
 70
   128
 71
    68
 72
    65
 73
    69
  0
VERTEX
  5
351
  8
0
 62
     9
 10
0.0
 20
0.0
 30
0.0
 70
   128
 71
    71
 72
    70
 73
    38
  0
VERTEX
  5
352
  8
0
 62
     9
 10
0.0
 20
0.0
 30
0.0
 70
   128
 71
    70
 72
    72
 73
    38
  0
VERTEX
  5
353
  8
0
 62
     9
 10
0.0
 20
0.0
 30
0.0
 70
   128
 71
    74
 72
    73
 73
    38
  0
VERTEX
  5
354
  8
0
 62
     9
 10
0.0
 20
0.0
 30
0.0
 70
   128
 71
    38
 72
    72
 73
    74
  0
VERTEX
  5
355
  8
0
 62
     9
 10
0.0
 20
0.0
 30
0.0
 70
   128
 71
    38
 72
    44
 73
    71
  0
VERTEX
  5
356
  8
0
 62
     9
 10
0.0
 20
0.0
 30
0.0
 70
   128
 71
    44
 72
    66
 73
    71
  0
VERTEX
  5
357
  8
0
 62
     9
 10
0.0
 20
0.0
 30
0.0
 70
   128
 71
    74
 72
    75
 73
    60
  0
VERTEX
  5
358
  8
0
 62
     9
 10
0.0
 20
0.0
 30
0.0
 70
   128
 71
    75
 72
    59
 73
    60
  0
VERTEX
  5
359
  8
0
 62
     9
 10
0.0
 20
0.0
 30
0.0
 70
   128
 71
    60
 72
    73
 73
    74
  0
VERTEX
  5
35A
  8
0
 62
     9
 10
0.0
 20
0.0
 30
0.0
 70
   128
 71
    44
 72
    68
 73
    67
  0
VERTEX
  5
35B
  8
0
 62
     9
 10
0.0
 20
0.0
 30
0.0
 70
   128
 71
    65
 72
    64
 73
    69
  0
VERTEX
  5
35C
  8
0
 62
     9
 10
0.0
 20
0.0
 30
0.0
 70
   128
 71
    59
 72
    63
 73
    23
  0
VERTEX
  5
35D
  8
0
 62
     9
 10
0.0
 20
0.0
 30
0.0
 70
   128
 71
    54
 72
    23
 73
    57
  0
VERTEX
  5
35E
  8
0
 62
     9
 10
0.0
 20
0.0
 30
0.0
 70
   128
 71
    50
 72
    58
 73
    52
  0
VERTEX
  5
35F
  8
0
 62
     9
 10
0.0
 20
0.0
 30
0.0
 70
   128
 71
    38
 72
    51
 73
    40
  0
VERTEX
  5
360
  8
0
 62
     9
 10
0.0
 20
0.0
 30
0.0
 70
   128
 71
    37
 72
    42
 73
    33
  0
VERTEX
  5
361
  8
0
 62
     9
 10
0.0
 20
0.0
 30
0.0
 70
   128
 71
    18
 72
     4
 73
    21
  0
VERTEX
  5
362
  8
0
 62
     9
 10
0.0
 20
0.0
 30
0.0
 70
   128
 71
    14
 72
    16
 73
    13
  0
VERTEX
  5
363
  8
0
 62
     9
 10
0.0
 20
0.0
 30
0.0
 70
   128
 71
     9
 72
    48
 73
     7
  0
VERTEX
  5
364
  8
0
 62
     9
 10
0.0
 20
0.0
 30
0.0
 70
   128
 71
     1
 72
     8
 73
     3
  0
SEQEND
  5
365
  8
0
 62
     9
  0
ENDBLK
  5
368
  8
0
  0
BLOCK
  8
0
  2
E3_NODE_31_
 70
     0
 10
0.0
 20
0.0
 30
0.0
  3
E3_NODE_31_
  1

  0
POLYLINE
  5
36A
  8
0
 62
     9
 66
     1
 10
0.0
 20
0.0
 30
0.0
 70
    64
 71
     6
 72
     4
  0
VERTEX
  5
36B
  8
0
 10
-18.06999969482422
 20
117.0
 30
5.870999813079834
 70
   192
  0
VERTEX
  5
36C
  8
0
 10
19.0
 20
117.0
 30
0.0
 70
   192
  0
VERTEX
  5
36D
  8
0
 10
11.16800022125244
 20
117.0
 30
-15.37100028991699
 70
   192
  0
VERTEX
  5
36E
  8
0
 10
0.0
 20
117.0
 30
19.0
 70
   192
  0
VERTEX
  5
36F
  8
0
 10
18.06999969482422
 20
117.0
 30
5.870999813079834
 70
   192
  0
VERTEX
  5
370
  8
0
 10
-11.16800022125244
 20
117.0
 30
-15.37100028991699
 70
   192
  0
VERTEX
  5
371
  8
0
 62
     9
 10
0.0
 20
0.0
 30
0.0
 70
   128
 71
     3
 72
     2
 73
     1
  0
VERTEX
  5
372
  8
0
 62
     9
 10
0.0
 20
0.0
 30
0.0
 70
   128
 71
     5
 72
     4
 73
     1
  0
VERTEX
  5
373
  8
0
 62
     9
 10
0.0
 20
0.0
 30
0.0
 70
   128
 71
     1
 72
     2
 73
     5
  0
VERTEX
  5
374
  8
0
 62
     9
 10
0.0
 20
0.0
 30
0.0
 70
   128
 71
     1
 72
     6
 73
     3
  0
SEQEND
  5
375
  8
0
 62
     9
  0
ENDBLK
  5
378
  8
0
  0
BLOCK
  8
0
  2
E3_NODE_32_
 70
     0
 10
0.0
 20
0.0
 30
0.0
  3
E3_NODE_32_
  1

  0
POLYLINE
  5
37A
  8
0
 62
     9
 66
     1
 10
0.0
 20
0.0
 30
0.0
 70
    64
 71
     6
 72
     4
  0
VERTEX
  5
37B
  8
0
 10
-18.06999969482422
 20
-117.0
 30
5.870999813079834
 70
   192
  0
VERTEX
  5
37C
  8
0
 10
19.0
 20
-117.0
 30
0.0
 70
   192
  0
VERTEX
  5
37D
  8
0
 10
18.06999969482422
 20
-117.0
 30
5.870999813079834
 70
   192
  0
VERTEX
  5
37E
  8
0
 10
-11.16800022125244
 20
-117.0
 30
-15.37100028991699
 70
   192
  0
VERTEX
  5
37F
  8
0
 10
11.16800022125244
 20
-117.0
 30
-15.37100028991699
 70
   192
  0
VERTEX
  5
380
  8
0
 10
0.0
 20
-117.0
 30
19.0
 70
   192
  0
VERTEX
  5
381
  8
0
 62
     9
 10
0.0
 20
0.0
 30
0.0
 70
   128
 71
     3
 72
     2
 73
     1
  0
VERTEX
  5
382
  8
0
 62
     9
 10
0.0
 20
0.0
 30
0.0
 70
   128
 71
     5
 72
     4
 73
     1
  0
VERTEX
  5
383
  8
0
 62
     9
 10
0.0
 20
0.0
 30
0.0
 70
   128
 71
     1
 72
     2
 73
     5
  0
VERTEX
  5
384
  8
0
 62
     9
 10
0.0
 20
0.0
 30
0.0
 70
   128
 71
     1
 72
     6
 73
     3
  0
SEQEND
  5
385
  8
0
 62
     9
  0
ENDBLK
  5
388
  8
0
  0
BLOCK
  8
0
  2
E3_NODE_33_
 70
     0
 10
0.0
 20
0.0
 30
0.0
  3
E3_NODE_33_
  1

  0
POLYLINE
  5
38A
  8
0
 62
     9
 66
     1
 10
0.0
 20
0.0
 30
0.0
 70
    64
 71
    26
 72
    26
  0
VERTEX
  5
38B
  8
0
 10
-24.29999923706055
 20
-56.0
 30
0.0
 70
   192
  0
VERTEX
  5
38C
  8
0
 10
-24.29999923706055
 20
-63.83200073242188
 30
15.37100028991699
 70
   192
  0
VERTEX
  5
38D
  8
0
 10
-17.30900001525879
 20
-57.69100189208984
 30
7.836999893188477
 70
   192
  0
VERTEX
  5
38E
  8
0
 10
-17.16799926757812
 20
-57.83200073242188
 30
5.936999797821045
 70
   192
  0
VERTEX
  5
38F
  8
0
 10
-16.30400085449219
 20
-58.69599914550781
 30
-5.739999771118164
 70
   192
  0
VERTEX
  5
390
  8
0
 10
-24.29999923706055
 20
-56.93000030517578
 30
-5.870999813079834
 70
   192
  0
VERTEX
  5
391
  8
0
 10
-9.777999877929688
 20
-65.22200012207031
 30
13.52200031280518
 70
   192
  0
VERTEX
  5
392
  8
0
 10
-10.09899997711182
 20
-64.9010009765625
 30
-13.49600028991699
 70
   192
  0
VERTEX
  5
393
  8
0
 10
-24.29999923706055
 20
-75.0
 30
-19.0
 70
   192
  0
VERTEX
  5
394
  8
0
 10
-24.29999923706055
 20
-63.83200073242188
 30
-15.37100028991699
 70
   192
  0
VERTEX
  5
395
  8
0
 10
-15.96700000762939
 20
-59.03300094604492
 30
-10.29800033569336
 70
   192
  0
VERTEX
  5
396
  8
0
 10
-2.796000003814697
 20
-77.7959976196289
 30
-18.79299926757812
 70
   192
  0
VERTEX
  5
397
  8
0
 10
-9.777999877929688
 20
-84.77799987792969
 30
-13.52200031280518
 70
   192
  0
VERTEX
  5
398
  8
0
 10
-24.29999923706055
 20
-86.16799926757812
 30
-15.37100028991699
 70
   192
  0
VERTEX
  5
399
  8
0
 10
-17.30900001525879
 20
-92.30899810791016
 30
-7.836999893188477
 70
   192
  0
VERTEX
  5
39A
  8
0
 10
-24.29999923706055
 20
-93.06999969482422
 30
-5.870999813079834
 70
   192
  0
VERTEX
  5
39B
  8
0
 10
0.0
 20
-75.0
 30
-19.0
 70
   192
  0
VERTEX
  5
39C
  8
0
 10
-24.29999923706055
 20
-93.06999969482422
 30
5.870999813079834
 70
   192
  0
VERTEX
  5
39D
  8
0
 10
-17.16799926757812
 20
-92.16799926757812
 30
-5.936999797821045
 70
   192
  0
VERTEX
  5
39E
  8
0
 10
-16.30400085449219
 20
-91.30400085449219
 30
5.739999771118164
 70
   192
  0
VERTEX
  5
39F
  8
0
 10
-15.96700000762939
 20
-90.96700286865234
 30
10.29800033569336
 70
   192
  0
VERTEX
  5
3A0
  8
0
 10
-24.29999923706055
 20
-86.16799926757812
 30
15.37100028991699
 70
   192
  0
VERTEX
  5
3A1
  8
0
 10
-24.29999923706055
 20
-75.0
 30
19.0
 70
   192
  0
VERTEX
  5
3A2
  8
0
 10
-2.796000003814697
 20
-72.2040023803711
 30
18.79299926757812
 70
   192
  0
VERTEX
  5
3A3
  8
0
 10
-10.09899997711182
 20
-85.0989990234375
 30
13.49600028991699
 70
   192
  0
VERTEX
  5
3A4
  8
0
 10
0.0
 20
-75.0
 30
19.0
 70
   192
  0
VERTEX
  5
3A5
  8
0
 62
     9
 10
0.0
 20
0.0
 30
0.0
 70
   128
 71
     3
 72
     2
 73
     1
  0
VERTEX
  5
3A6
  8
0
 62
     9
 10
0.0
 20
0.0
 30
0.0
 70
   128
 71
     1
 72
     4
 73
     3
  0
VERTEX
  5
3A7
  8
0
 62
     9
 10
0.0
 20
0.0
 30
0.0
 70
   128
 71
     1
 72
     6
 73
     5
  0
VERTEX
  5
3A8
  8
0
 62
     9
 10
0.0
 20
0.0
 30
0.0
 70
   128
 71
     3
 72
     7
 73
     2
  0
VERTEX
  5
3A9
  8
0
 62
     9
 10
0.0
 20
0.0
 30
0.0
 70
   128
 71
    10
 72
     9
 73
     8
  0
VERTEX
  5
3AA
  8
0
 62
     9
 10
0.0
 20
0.0
 30
0.0
 70
   128
 71
     8
 72
    11
 73
    10
  0
VERTEX
  5
3AB
  8
0
 62
     9
 10
0.0
 20
0.0
 30
0.0
 70
   128
 71
    11
 72
     5
 73
     6
  0
VERTEX
  5
3AC
  8
0
 62
     9
 10
0.0
 20
0.0
 30
0.0
 70
   128
 71
     6
 72
    10
 73
    11
  0
VERTEX
  5
3AD
  8
0
 62
     9
 10
0.0
 20
0.0
 30
0.0
 70
   128
 71
    13
 72
    12
 73
     9
  0
VERTEX
  5
3AE
  8
0
 62
     9
 10
0.0
 20
0.0
 30
0.0
 70
   128
 71
    15
 72
    13
 73
    14
  0
VERTEX
  5
3AF
  8
0
 62
     9
 10
0.0
 20
0.0
 30
0.0
 70
   128
 71
    14
 72
    16
 73
    15
  0
VERTEX
  5
3B0
  8
0
 62
     9
 10
0.0
 20
0.0
 30
0.0
 70
   128
 71
    12
 72
    17
 73
     9
  0
VERTEX
  5
3B1
  8
0
 62
     9
 10
0.0
 20
0.0
 30
0.0
 70
   128
 71
     9
 72
    14
 73
    13
  0
VERTEX
  5
3B2
  8
0
 62
     9
 10
0.0
 20
0.0
 30
0.0
 70
   128
 71
    19
 72
    16
 73
    18
  0
VERTEX
  5
3B3
  8
0
 62
     9
 10
0.0
 20
0.0
 30
0.0
 70
   128
 71
    21
 72
    20
 73
    18
  0
VERTEX
  5
3B4
  8
0
 62
     9
 10
0.0
 20
0.0
 30
0.0
 70
   128
 71
    18
 72
    22
 73
    21
  0
VERTEX
  5
3B5
  8
0
 62
     9
 10
0.0
 20
0.0
 30
0.0
 70
   128
 71
    18
 72
    20
 73
    19
  0
VERTEX
  5
3B6
  8
0
 62
     9
 10
0.0
 20
0.0
 30
0.0
 70
   128
 71
     7
 72
    24
 73
    23
  0
VERTEX
  5
3B7
  8
0
 62
     9
 10
0.0
 20
0.0
 30
0.0
 70
   128
 71
    23
 72
     2
 73
     7
  0
VERTEX
  5
3B8
  8
0
 62
     9
 10
0.0
 20
0.0
 30
0.0
 70
   128
 71
    25
 72
    22
 73
    24
  0
VERTEX
  5
3B9
  8
0
 62
     9
 10
0.0
 20
0.0
 30
0.0
 70
   128
 71
    24
 72
    26
 73
    25
  0
VERTEX
  5
3BA
  8
0
 62
     9
 10
0.0
 20
0.0
 30
0.0
 70
   128
 71
    24
 72
    22
 73
    23
  0
VERTEX
  5
3BB
  8
0
 62
     9
 10
0.0
 20
0.0
 30
0.0
 70
   128
 71
    22
 72
    25
 73
    21
  0
VERTEX
  5
3BC
  8
0
 62
     9
 10
0.0
 20
0.0
 30
0.0
 70
   128
 71
    16
 72
    19
 73
    15
  0
VERTEX
  5
3BD
  8
0
 62
     9
 10
0.0
 20
0.0
 30
0.0
 70
   128
 71
     9
 72
    17
 73
     8
  0
VERTEX
  5
3BE
  8
0
 62
     9
 10
0.0
 20
0.0
 30
0.0
 70
   128
 71
     1
 72
     5
 73
     4
  0
SEQEND
  5
3BF
  8
0
 62
     9
  0
ENDBLK
  5
3C2
  8
0
  0
BLOCK
  8
0
  2
E3_NODE_34_
 70
     0
 10
0.0
 20
0.0
 30
0.0
  3
E3_NODE_34_
  1

  0
POLYLINE
  5
3C4
  8
0
 62
     9
 66
     1
 10
0.0
 20
0.0
 30
0.0
 70
    64
 71
    19
 72
    19
  0
VERTEX
  5
3C5
  8
0
 10
-24.29999923706055
 20
-93.06999969482422
 30
-5.870999813079834
 70
   192
  0
VERTEX
  5
3C6
  8
0
 10
-24.29999923706055
 20
-92.0
 30
0.0
 70
   192
  0
VERTEX
  5
3C7
  8
0
 10
-24.29999923706055
 20
-88.75299835205078
 30
-9.991999626159668
 70
   192
  0
VERTEX
  5
3C8
  8
0
 10
-24.29999923706055
 20
-93.06999969482422
 30
5.870999813079834
 70
   192
  0
VERTEX
  5
3C9
  8
0
 10
-24.29999923706055
 20
-86.16799926757812
 30
15.37100028991699
 70
   192
  0
VERTEX
  5
3CA
  8
0
 10
-24.29999923706055
 20
-80.25299835205078
 30
16.16799926757812
 70
   192
  0
VERTEX
  5
3CB
  8
0
 10
-24.29999923706055
 20
-88.75299835205078
 30
9.991999626159668
 70
   192
  0
VERTEX
  5
3CC
  8
0
 10
-24.29999923706055
 20
-75.0
 30
-19.0
 70
   192
  0
VERTEX
  5
3CD
  8
0
 10
-24.29999923706055
 20
-80.25299835205078
 30
-16.16799926757812
 70
   192
  0
VERTEX
  5
3CE
  8
0
 10
-24.29999923706055
 20
-69.74700164794922
 30
-16.16799926757812
 70
   192
  0
VERTEX
  5
3CF
  8
0
 10
-24.29999923706055
 20
-86.16799926757812
 30
-15.37100028991699
 70
   192
  0
VERTEX
  5
3D0
  8
0
 10
-24.29999923706055
 20
-75.0
 30
19.0
 70
   192
  0
VERTEX
  5
3D1
  8
0
 10
-24.29999923706055
 20
-69.74700164794922
 30
16.16799926757812
 70
   192
  0
VERTEX
  5
3D2
  8
0
 10
-24.29999923706055
 20
-58.0
 30
0.0
 70
   192
  0
VERTEX
  5
3D3
  8
0
 10
-24.29999923706055
 20
-56.93000030517578
 30
-5.870999813079834
 70
   192
  0
VERTEX
  5
3D4
  8
0
 10
-24.29999923706055
 20
-63.83200073242188
 30
15.37100028991699
 70
   192
  0
VERTEX
  5
3D5
  8
0
 10
-24.29999923706055
 20
-56.0
 30
0.0
 70
   192
  0
VERTEX
  5
3D6
  8
0
 10
-24.29999923706055
 20
-61.24700164794922
 30
9.991999626159668
 70
   192
  0
VERTEX
  5
3D7
  8
0
 10
-24.29999923706055
 20
-63.83200073242188
 30
-15.37100028991699
 70
   192
  0
VERTEX
  5
3D8
  8
0
 62
     9
 10
0.0
 20
0.0
 30
0.0
 70
   128
 71
     3
 72
     2
 73
     1
  0
VERTEX
  5
3D9
  8
0
 62
     9
 10
0.0
 20
0.0
 30
0.0
 70
   128
 71
     2
 72
     4
 73
     1
  0
VERTEX
  5
3DA
  8
0
 62
     9
 10
0.0
 20
0.0
 30
0.0
 70
   128
 71
     7
 72
     6
 73
     5
  0
VERTEX
  5
3DB
  8
0
 62
     9
 10
0.0
 20
0.0
 30
0.0
 70
   128
 71
    10
 72
     9
 73
     8
  0
VERTEX
  5
3DC
  8
0
 62
     9
 10
0.0
 20
0.0
 30
0.0
 70
   128
 71
     1
 72
    11
 73
     3
  0
VERTEX
  5
3DD
  8
0
 62
     9
 10
0.0
 20
0.0
 30
0.0
 70
   128
 71
     5
 72
     4
 73
     7
  0
VERTEX
  5
3DE
  8
0
 62
     9
 10
0.0
 20
0.0
 30
0.0
 70
   128
 71
     9
 72
    11
 73
     8
  0
VERTEX
  5
3DF
  8
0
 62
     9
 10
0.0
 20
0.0
 30
0.0
 70
   128
 71
     4
 72
     2
 73
     7
  0
VERTEX
  5
3E0
  8
0
 62
     9
 10
0.0
 20
0.0
 30
0.0
 70
   128
 71
     6
 72
    13
 73
    12
  0
VERTEX
  5
3E1
  8
0
 62
     9
 10
0.0
 20
0.0
 30
0.0
 70
   128
 71
    15
 72
    14
 73
    10
  0
VERTEX
  5
3E2
  8
0
 62
     9
 10
0.0
 20
0.0
 30
0.0
 70
   128
 71
    11
 72
     9
 73
     3
  0
VERTEX
  5
3E3
  8
0
 62
     9
 10
0.0
 20
0.0
 30
0.0
 70
   128
 71
    13
 72
    16
 73
    12
  0
VERTEX
  5
3E4
  8
0
 62
     9
 10
0.0
 20
0.0
 30
0.0
 70
   128
 71
    18
 72
    14
 73
    17
  0
VERTEX
  5
3E5
  8
0
 62
     9
 10
0.0
 20
0.0
 30
0.0
 70
   128
 71
    15
 72
    17
 73
    14
  0
VERTEX
  5
3E6
  8
0
 62
     9
 10
0.0
 20
0.0
 30
0.0
 70
   128
 71
    12
 72
     5
 73
     6
  0
VERTEX
  5
3E7
  8
0
 62
     9
 10
0.0
 20
0.0
 30
0.0
 70
   128
 71
    17
 72
    16
 73
    18
  0
VERTEX
  5
3E8
  8
0
 62
     9
 10
0.0
 20
0.0
 30
0.0
 70
   128
 71
     8
 72
    19
 73
    10
  0
VERTEX
  5
3E9
  8
0
 62
     9
 10
0.0
 20
0.0
 30
0.0
 70
   128
 71
    10
 72
    19
 73
    15
  0
VERTEX
  5
3EA
  8
0
 62
     9
 10
0.0
 20
0.0
 30
0.0
 70
   128
 71
    16
 72
    13
 73
    18
  0
SEQEND
  5
3EB
  8
0
 62
     9
  0
ENDBLK
  5
3EE
  8
0
  0
BLOCK
  8
0
  2
E3_NODE_35_
 70
     0
 10
0.0
 20
0.0
 30
0.0
  3
E3_NODE_35_
  1

  0
POLYLINE
  5
3F0
  8
0
 62
     9
 66
     1
 10
0.0
 20
0.0
 30
0.0
 70
    64
 71
    26
 72
    26
  0
VERTEX
  5
3F1
  8
0
 10
-24.29999923706055
 20
94.0
 30
0.0
 70
   192
  0
VERTEX
  5
3F2
  8
0
 10
-24.29999923706055
 20
86.16799926757812
 30
15.37100028991699
 70
   192
  0
VERTEX
  5
3F3
  8
0
 10
-17.30900001525879
 20
92.30899810791016
 30
7.836999893188477
 70
   192
  0
VERTEX
  5
3F4
  8
0
 10
-17.16799926757812
 20
92.16799926757812
 30
5.936999797821045
 70
   192
  0
VERTEX
  5
3F5
  8
0
 10
-16.30400085449219
 20
91.30400085449219
 30
-5.739999771118164
 70
   192
  0
VERTEX
  5
3F6
  8
0
 10
-24.29999923706055
 20
93.06999969482422
 30
-5.870999813079834
 70
   192
  0
VERTEX
  5
3F7
  8
0
 10
-9.777999877929688
 20
84.77799987792969
 30
13.52200031280518
 70
   192
  0
VERTEX
  5
3F8
  8
0
 10
-10.09899997711182
 20
85.0989990234375
 30
-13.49600028991699
 70
   192
  0
VERTEX
  5
3F9
  8
0
 10
-24.29999923706055
 20
75.0
 30
-19.0
 70
   192
  0
VERTEX
  5
3FA
  8
0
 10
-24.29999923706055
 20
86.16799926757812
 30
-15.37100028991699
 70
   192
  0
VERTEX
  5
3FB
  8
0
 10
-15.96700000762939
 20
90.96700286865234
 30
-10.29800033569336
 70
   192
  0
VERTEX
  5
3FC
  8
0
 10
-2.796000003814697
 20
72.2040023803711
 30
-18.79299926757812
 70
   192
  0
VERTEX
  5
3FD
  8
0
 10
-9.777999877929688
 20
65.22200012207031
 30
-13.52200031280518
 70
   192
  0
VERTEX
  5
3FE
  8
0
 10
-24.29999923706055
 20
63.83200073242188
 30
-15.37100028991699
 70
   192
  0
VERTEX
  5
3FF
  8
0
 10
-17.30900001525879
 20
57.69100189208984
 30
-7.836999893188477
 70
   192
  0
VERTEX
  5
400
  8
0
 10
-24.29999923706055
 20
56.93000030517578
 30
-5.870999813079834
 70
   192
  0
VERTEX
  5
401
  8
0
 10
0.0
 20
75.0
 30
-19.0
 70
   192
  0
VERTEX
  5
402
  8
0
 10
-24.29999923706055
 20
56.93000030517578
 30
5.870999813079834
 70
   192
  0
VERTEX
  5
403
  8
0
 10
-17.16799926757812
 20
57.83200073242188
 30
-5.936999797821045
 70
   192
  0
VERTEX
  5
404
  8
0
 10
-16.30400085449219
 20
58.69599914550781
 30
5.739999771118164
 70
   192
  0
VERTEX
  5
405
  8
0
 10
-15.96700000762939
 20
59.03300094604492
 30
10.29800033569336
 70
   192
  0
VERTEX
  5
406
  8
0
 10
-24.29999923706055
 20
63.83200073242188
 30
15.37100028991699
 70
   192
  0
VERTEX
  5
407
  8
0
 10
-24.29999923706055
 20
75.0
 30
19.0
 70
   192
  0
VERTEX
  5
408
  8
0
 10
-2.796000003814697
 20
77.7959976196289
 30
18.79299926757812
 70
   192
  0
VERTEX
  5
409
  8
0
 10
-10.09899997711182
 20
64.9010009765625
 30
13.49600028991699
 70
   192
  0
VERTEX
  5
40A
  8
0
 10
0.0
 20
75.0
 30
19.0
 70
   192
  0
VERTEX
  5
40B
  8
0
 62
     9
 10
0.0
 20
0.0
 30
0.0
 70
   128
 71
     3
 72
     2
 73
     1
  0
VERTEX
  5
40C
  8
0
 62
     9
 10
0.0
 20
0.0
 30
0.0
 70
   128
 71
     1
 72
     4
 73
     3
  0
VERTEX
  5
40D
  8
0
 62
     9
 10
0.0
 20
0.0
 30
0.0
 70
   128
 71
     1
 72
     6
 73
     5
  0
VERTEX
  5
40E
  8
0
 62
     9
 10
0.0
 20
0.0
 30
0.0
 70
   128
 71
     3
 72
     7
 73
     2
  0
VERTEX
  5
40F
  8
0
 62
     9
 10
0.0
 20
0.0
 30
0.0
 70
   128
 71
    10
 72
     9
 73
     8
  0
VERTEX
  5
410
  8
0
 62
     9
 10
0.0
 20
0.0
 30
0.0
 70
   128
 71
     8
 72
    11
 73
    10
  0
VERTEX
  5
411
  8
0
 62
     9
 10
0.0
 20
0.0
 30
0.0
 70
   128
 71
    11
 72
     5
 73
     6
  0
VERTEX
  5
412
  8
0
 62
     9
 10
0.0
 20
0.0
 30
0.0
 70
   128
 71
     6
 72
    10
 73
    11
  0
VERTEX
  5
413
  8
0
 62
     9
 10
0.0
 20
0.0
 30
0.0
 70
   128
 71
    13
 72
    12
 73
     9
  0
VERTEX
  5
414
  8
0
 62
     9
 10
0.0
 20
0.0
 30
0.0
 70
   128
 71
    15
 72
    13
 73
    14
  0
VERTEX
  5
415
  8
0
 62
     9
 10
0.0
 20
0.0
 30
0.0
 70
   128
 71
    14
 72
    16
 73
    15
  0
VERTEX
  5
416
  8
0
 62
     9
 10
0.0
 20
0.0
 30
0.0
 70
   128
 71
    12
 72
    17
 73
     9
  0
VERTEX
  5
417
  8
0
 62
     9
 10
0.0
 20
0.0
 30
0.0
 70
   128
 71
     9
 72
    14
 73
    13
  0
VERTEX
  5
418
  8
0
 62
     9
 10
0.0
 20
0.0
 30
0.0
 70
   128
 71
    19
 72
    16
 73
    18
  0
VERTEX
  5
419
  8
0
 62
     9
 10
0.0
 20
0.0
 30
0.0
 70
   128
 71
    21
 72
    20
 73
    18
  0
VERTEX
  5
41A
  8
0
 62
     9
 10
0.0
 20
0.0
 30
0.0
 70
   128
 71
    18
 72
    22
 73
    21
  0
VERTEX
  5
41B
  8
0
 62
     9
 10
0.0
 20
0.0
 30
0.0
 70
   128
 71
    18
 72
    20
 73
    19
  0
VERTEX
  5
41C
  8
0
 62
     9
 10
0.0
 20
0.0
 30
0.0
 70
   128
 71
     7
 72
    24
 73
    23
  0
VERTEX
  5
41D
  8
0
 62
     9
 10
0.0
 20
0.0
 30
0.0
 70
   128
 71
    23
 72
     2
 73
     7
  0
VERTEX
  5
41E
  8
0
 62
     9
 10
0.0
 20
0.0
 30
0.0
 70
   128
 71
    25
 72
    22
 73
    24
  0
VERTEX
  5
41F
  8
0
 62
     9
 10
0.0
 20
0.0
 30
0.0
 70
   128
 71
    24
 72
    26
 73
    25
  0
VERTEX
  5
420
  8
0
 62
     9
 10
0.0
 20
0.0
 30
0.0
 70
   128
 71
    24
 72
    22
 73
    23
  0
VERTEX
  5
421
  8
0
 62
     9
 10
0.0
 20
0.0
 30
0.0
 70
   128
 71
    22
 72
    25
 73
    21
  0
VERTEX
  5
422
  8
0
 62
     9
 10
0.0
 20
0.0
 30
0.0
 70
   128
 71
    16
 72
    19
 73
    15
  0
VERTEX
  5
423
  8
0
 62
     9
 10
0.0
 20
0.0
 30
0.0
 70
   128
 71
     9
 72
    17
 73
     8
  0
VERTEX
  5
424
  8
0
 62
     9
 10
0.0
 20
0.0
 30
0.0
 70
   128
 71
     1
 72
     5
 73
     4
  0
SEQEND
  5
425
  8
0
 62
     9
  0
ENDBLK
  5
428
  8
0
  0
BLOCK
  8
0
  2
E3_NODE_36_
 70
     0
 10
0.0
 20
0.0
 30
0.0
  3
E3_NODE_36_
  1

  0
POLYLINE
  5
42A
  8
0
 62
     9
 66
     1
 10
0.0
 20
0.0
 30
0.0
 70
    64
 71
    19
 72
    19
  0
VERTEX
  5
42B
  8
0
 10
-24.29999923706055
 20
75.0
 30
-19.0
 70
   192
  0
VERTEX
  5
42C
  8
0
 10
-24.29999923706055
 20
69.74700164794922
 30
-16.16799926757812
 70
   192
  0
VERTEX
  5
42D
  8
0
 10
-24.29999923706055
 20
80.25299835205078
 30
-16.16799926757812
 70
   192
  0
VERTEX
  5
42E
  8
0
 10
-24.29999923706055
 20
56.93000030517578
 30
-5.870999813079834
 70
   192
  0
VERTEX
  5
42F
  8
0
 10
-24.29999923706055
 20
58.0
 30
0.0
 70
   192
  0
VERTEX
  5
430
  8
0
 10
-24.29999923706055
 20
61.24700164794922
 30
-9.991999626159668
 70
   192
  0
VERTEX
  5
431
  8
0
 10
-24.29999923706055
 20
63.83200073242188
 30
-15.37100028991699
 70
   192
  0
VERTEX
  5
432
  8
0
 10
-24.29999923706055
 20
56.93000030517578
 30
5.870999813079834
 70
   192
  0
VERTEX
  5
433
  8
0
 10
-24.29999923706055
 20
61.24700164794922
 30
9.991999626159668
 70
   192
  0
VERTEX
  5
434
  8
0
 10
-24.29999923706055
 20
63.83200073242188
 30
15.37100028991699
 70
   192
  0
VERTEX
  5
435
  8
0
 10
-24.29999923706055
 20
69.74700164794922
 30
16.16799926757812
 70
   192
  0
VERTEX
  5
436
  8
0
 10
-24.29999923706055
 20
75.0
 30
19.0
 70
   192
  0
VERTEX
  5
437
  8
0
 10
-24.29999923706055
 20
80.25299835205078
 30
16.16799926757812
 70
   192
  0
VERTEX
  5
438
  8
0
 10
-24.29999923706055
 20
92.0
 30
0.0
 70
   192
  0
VERTEX
  5
439
  8
0
 10
-24.29999923706055
 20
93.06999969482422
 30
-5.870999813079834
 70
   192
  0
VERTEX
  5
43A
  8
0
 10
-24.29999923706055
 20
86.16799926757812
 30
15.37100028991699
 70
   192
  0
VERTEX
  5
43B
  8
0
 10
-24.29999923706055
 20
94.0
 30
0.0
 70
   192
  0
VERTEX
  5
43C
  8
0
 10
-24.29999923706055
 20
88.75299835205078
 30
9.991999626159668
 70
   192
  0
VERTEX
  5
43D
  8
0
 10
-24.29999923706055
 20
86.16799926757812
 30
-15.37100028991699
 70
   192
  0
VERTEX
  5
43E
  8
0
 62
     9
 10
0.0
 20
0.0
 30
0.0
 70
   128
 71
     3
 72
     2
 73
     1
  0
VERTEX
  5
43F
  8
0
 62
     9
 10
0.0
 20
0.0
 30
0.0
 70
   128
 71
     6
 72
     5
 73
     4
  0
VERTEX
  5
440
  8
0
 62
     9
 10
0.0
 20
0.0
 30
0.0
 70
   128
 71
     2
 72
     7
 73
     1
  0
VERTEX
  5
441
  8
0
 62
     9
 10
0.0
 20
0.0
 30
0.0
 70
   128
 71
     4
 72
     7
 73
     6
  0
VERTEX
  5
442
  8
0
 62
     9
 10
0.0
 20
0.0
 30
0.0
 70
   128
 71
     5
 72
     9
 73
     8
  0
VERTEX
  5
443
  8
0
 62
     9
 10
0.0
 20
0.0
 30
0.0
 70
   128
 71
     9
 72
    11
 73
    10
  0
VERTEX
  5
444
  8
0
 62
     9
 10
0.0
 20
0.0
 30
0.0
 70
   128
 71
     7
 72
     2
 73
     6
  0
VERTEX
  5
445
  8
0
 62
     9
 10
0.0
 20
0.0
 30
0.0
 70
   128
 71
    10
 72
     8
 73
     9
  0
VERTEX
  5
446
  8
0
 62
     9
 10
0.0
 20
0.0
 30
0.0
 70
   128
 71
    11
 72
    13
 73
    12
  0
VERTEX
  5
447
  8
0
 62
     9
 10
0.0
 20
0.0
 30
0.0
 70
   128
 71
    15
 72
    14
 73
     3
  0
VERTEX
  5
448
  8
0
 62
     9
 10
0.0
 20
0.0
 30
0.0
 70
   128
 71
     8
 72
     4
 73
     5
  0
VERTEX
  5
449
  8
0
 62
     9
 10
0.0
 20
0.0
 30
0.0
 70
   128
 71
    13
 72
    16
 73
    12
  0
VERTEX
  5
44A
  8
0
 62
     9
 10
0.0
 20
0.0
 30
0.0
 70
   128
 71
    18
 72
    14
 73
    17
  0
VERTEX
  5
44B
  8
0
 62
     9
 10
0.0
 20
0.0
 30
0.0
 70
   128
 71
    15
 72
    17
 73
    14
  0
VERTEX
  5
44C
  8
0
 62
     9
 10
0.0
 20
0.0
 30
0.0
 70
   128
 71
    12
 72
    10
 73
    11
  0
VERTEX
  5
44D
  8
0
 62
     9
 10
0.0
 20
0.0
 30
0.0
 70
   128
 71
    17
 72
    16
 73
    18
  0
VERTEX
  5
44E
  8
0
 62
     9
 10
0.0
 20
0.0
 30
0.0
 70
   128
 71
     1
 72
    19
 73
     3
  0
VERTEX
  5
44F
  8
0
 62
     9
 10
0.0
 20
0.0
 30
0.0
 70
   128
 71
     3
 72
    19
 73
    15
  0
VERTEX
  5
450
  8
0
 62
     9
 10
0.0
 20
0.0
 30
0.0
 70
   128
 71
    16
 72
    13
 73
    18
  0
SEQEND
  5
451
  8
0
 62
     9
  0
ENDBLK
  5
454
  8
0
  0
BLOCK
  8
0
  2
E3_NODE_37_
 70
     0
 10
0.0
 20
0.0
 30
0.0
  3
E3_NODE_37_
  1

  0
POLYLINE
  5
456
  8
0
 62
     9
 66
     1
 10
0.0
 20
0.0
 30
0.0
 70
    64
 71
    23
 72
    23
  0
VERTEX
  5
457
  8
0
 10
-30.25300025939941
 20
16.16799926757812
 30
33.0
 70
   192
  0
VERTEX
  5
458
  8
0
 10
-30.25300025939941
 20
16.16799926757812
 30
-12.0
 70
   192
  0
VERTEX
  5
459
  8
0
 10
-42.0
 20
0.0
 30
-12.0
 70
   192
  0
VERTEX
  5
45A
  8
0
 10
-42.0
 20
0.0
 30
33.0
 70
   192
  0
VERTEX
  5
45B
  8
0
 10
-30.25300025939941
 20
-16.16799926757812
 30
-12.0
 70
   192
  0
VERTEX
  5
45C
  8
0
 10
-30.25300025939941
 20
-16.16799926757812
 30
33.0
 70
   192
  0
VERTEX
  5
45D
  8
0
 10
-17.30999946594238
 20
-14.66699981689453
 30
5.408999919891357
 70
   192
  0
VERTEX
  5
45E
  8
0
 10
-11.32400035858154
 20
-9.904999732971191
 30
14.97900009155273
 70
   192
  0
VERTEX
  5
45F
  8
0
 10
-18.74200057983398
 20
-15.80599975585938
 30
3.11899995803833
 70
   192
  0
VERTEX
  5
460
  8
0
 10
-15.1870002746582
 20
-13.88199996948242
 30
-12.0
 70
   192
  0
VERTEX
  5
461
  8
0
 10
-15.1870002746582
 20
-13.88199996948242
 30
-11.41699981689453
 70
   192
  0
VERTEX
  5
462
  8
0
 10
-11.00599956512451
 20
-9.652000427246094
 30
15.48799991607666
 70
   192
  0
VERTEX
  5
463
  8
0
 10
-8.470000267028809
 20
3.970999956130981
 30
17.00699996948242
 70
   192
  0
VERTEX
  5
464
  8
0
 10
-8.0
 20
0.0
 30
33.0
 70
   192
  0
VERTEX
  5
465
  8
0
 10
-11.24699974060059
 20
9.991999626159668
 30
33.0
 70
   192
  0
VERTEX
  5
466
  8
0
 10
-11.24699974060059
 20
-9.991999626159668
 30
33.0
 70
   192
  0
VERTEX
  5
467
  8
0
 10
-16.33399963378906
 20
14.625
 30
-9.706000328063965
 70
   192
  0
VERTEX
  5
468
  8
0
 10
-15.1870002746582
 20
13.88199996948242
 30
-11.41699981689453
 70
   192
  0
VERTEX
  5
469
  8
0
 10
-18.51099967956543
 20
15.71300029754639
 30
-4.284999847412109
 70
   192
  0
VERTEX
  5
46A
  8
0
 10
-16.66500091552734
 20
14.74100017547607
 30
5.609000205993652
 70
   192
  0
VERTEX
  5
46B
  8
0
 10
-15.72000026702881
 20
14.24400043487549
 30
10.67099952697754
 70
   192
  0
VERTEX
  5
46C
  8
0
 10
-12.22900009155273
 20
9.29699993133545
 30
13.72200012207031
 70
   192
  0
VERTEX
  5
46D
  8
0
 10
-15.1879997253418
 20
13.88199996948242
 30
-12.0
 70
   192
  0
VERTEX
  5
46E
  8
0
 62
     9
 10
0.0
 20
0.0
 30
0.0
 70
   128
 71
     3
 72
     2
 73
     1
  0
VERTEX
  5
46F
  8
0
 62
     9
 10
0.0
 20
0.0
 30
0.0
 70
   128
 71
     5
 72
     3
 73
     4
  0
VERTEX
  5
470
  8
0
 62
     9
 10
0.0
 20
0.0
 30
0.0
 70
   128
 71
     8
 72
     7
 73
     6
  0
VERTEX
  5
471
  8
0
 62
     9
 10
0.0
 20
0.0
 30
0.0
 70
   128
 71
     7
 72
     9
 73
     6
  0
VERTEX
  5
472
  8
0
 62
     9
 10
0.0
 20
0.0
 30
0.0
 70
   128
 71
    11
 72
    10
 73
     5
  0
VERTEX
  5
473
  8
0
 62
     9
 10
0.0
 20
0.0
 30
0.0
 70
   128
 71
     5
 72
     9
 73
    11
  0
VERTEX
  5
474
  8
0
 62
     9
 10
0.0
 20
0.0
 30
0.0
 70
   128
 71
     5
 72
     6
 73
     9
  0
VERTEX
  5
475
  8
0
 62
     9
 10
0.0
 20
0.0
 30
0.0
 70
   128
 71
    14
 72
    13
 73
    12
  0
VERTEX
  5
476
  8
0
 62
     9
 10
0.0
 20
0.0
 30
0.0
 70
   128
 71
    14
 72
    15
 73
    13
  0
VERTEX
  5
477
  8
0
 62
     9
 10
0.0
 20
0.0
 30
0.0
 70
   128
 71
    12
 72
    16
 73
    14
  0
VERTEX
  5
478
  8
0
 62
     9
 10
0.0
 20
0.0
 30
0.0
 70
   128
 71
    12
 72
     8
 73
    16
  0
VERTEX
  5
479
  8
0
 62
     9
 10
0.0
 20
0.0
 30
0.0
 70
   128
 71
    18
 72
    17
 73
     2
  0
VERTEX
  5
47A
  8
0
 62
     9
 10
0.0
 20
0.0
 30
0.0
 70
   128
 71
    17
 72
    19
 73
     2
  0
VERTEX
  5
47B
  8
0
 62
     9
 10
0.0
 20
0.0
 30
0.0
 70
   128
 71
    20
 72
     1
 73
     2
  0
VERTEX
  5
47C
  8
0
 62
     9
 10
0.0
 20
0.0
 30
0.0
 70
   128
 71
    20
 72
    21
 73
     1
  0
VERTEX
  5
47D
  8
0
 62
     9
 10
0.0
 20
0.0
 30
0.0
 70
   128
 71
     2
 72
    19
 73
    20
  0
VERTEX
  5
47E
  8
0
 62
     9
 10
0.0
 20
0.0
 30
0.0
 70
   128
 71
    22
 72
    15
 73
     1
  0
VERTEX
  5
47F
  8
0
 62
     9
 10
0.0
 20
0.0
 30
0.0
 70
   128
 71
     1
 72
    21
 73
    22
  0
VERTEX
  5
480
  8
0
 62
     9
 10
0.0
 20
0.0
 30
0.0
 70
   128
 71
     2
 72
    23
 73
    18
  0
VERTEX
  5
481
  8
0
 62
     9
 10
0.0
 20
0.0
 30
0.0
 70
   128
 71
    15
 72
    22
 73
    13
  0
VERTEX
  5
482
  8
0
 62
     9
 10
0.0
 20
0.0
 30
0.0
 70
   128
 71
     6
 72
    16
 73
     8
  0
VERTEX
  5
483
  8
0
 62
     9
 10
0.0
 20
0.0
 30
0.0
 70
   128
 71
     4
 72
     6
 73
     5
  0
VERTEX
  5
484
  8
0
 62
     9
 10
0.0
 20
0.0
 30
0.0
 70
   128
 71
     1
 72
     4
 73
     3
  0
SEQEND
  5
485
  8
0
 62
     9
  0
ENDBLK
  5
488
  8
0
  0
BLOCK
  8
0
  2
E3_NODE_38_
 70
     0
 10
0.0
 20
0.0
 30
0.0
  3
E3_NODE_38_
  1

  0
POLYLINE
  5
48A
  8
0
 62
     9
 66
     1
 10
0.0
 20
0.0
 30
0.0
 70
    64
 71
     8
 72
     6
  0
VERTEX
  5
48B
  8
0
 10
-30.25300025939941
 20
-16.16799926757812
 30
-12.0
 70
   192
  0
VERTEX
  5
48C
  8
0
 10
-42.0
 20
0.0
 30
-12.0
 70
   192
  0
VERTEX
  5
48D
  8
0
 10
-31.0
 20
0.0
 30
-12.0
 70
   192
  0
VERTEX
  5
48E
  8
0
 10
-30.25300025939941
 20
16.16799926757812
 30
-12.0
 70
   192
  0
VERTEX
  5
48F
  8
0
 10
-17.0
 20
14.0
 30
-12.0
 70
   192
  0
VERTEX
  5
490
  8
0
 10
-17.0
 20
-14.0
 30
-12.0
 70
   192
  0
VERTEX
  5
491
  8
0
 10
-15.1879997253418
 20
13.88199996948242
 30
-12.0
 70
   192
  0
VERTEX
  5
492
  8
0
 10
-15.1870002746582
 20
-13.88199996948242
 30
-12.0
 70
   192
  0
VERTEX
  5
493
  8
0
 62
     9
 10
0.0
 20
0.0
 30
0.0
 70
   128
 71
     3
 72
     2
 73
     1
  0
VERTEX
  5
494
  8
0
 62
     9
 10
0.0
 20
0.0
 30
0.0
 70
   128
 71
     3
 72
     5
 73
     4
  0
VERTEX
  5
495
  8
0
 62
     9
 10
0.0
 20
0.0
 30
0.0
 70
   128
 71
     1
 72
     6
 73
     3
  0
VERTEX
  5
496
  8
0
 62
     9
 10
0.0
 20
0.0
 30
0.0
 70
   128
 71
     5
 72
     7
 73
     4
  0
VERTEX
  5
497
  8
0
 62
     9
 10
0.0
 20
0.0
 30
0.0
 70
   128
 71
     4
 72
     2
 73
     3
  0
VERTEX
  5
498
  8
0
 62
     9
 10
0.0
 20
0.0
 30
0.0
 70
   128
 71
     1
 72
     8
 73
     6
  0
SEQEND
  5
499
  8
0
 62
     9
  0
ENDBLK
  5
49C
  8
0
  0
BLOCK
  8
0
  2
E3_NODE_39_
 70
     0
 10
0.0
 20
0.0
 30
0.0
  3
E3_NODE_39_
  1

  0
POLYLINE
  5
49E
  8
0
 62
     9
 66
     1
 10
0.0
 20
0.0
 30
0.0
 70
    64
 71
     6
 72
     4
  0
VERTEX
  5
49F
  8
0
 10
-42.0
 20
0.0
 30
33.0
 70
   192
  0
VERTEX
  5
4A0
  8
0
 10
-8.0
 20
0.0
 30
33.0
 70
   192
  0
VERTEX
  5
4A1
  8
0
 10
-11.24699974060059
 20
9.991999626159668
 30
33.0
 70
   192
  0
VERTEX
  5
4A2
  8
0
 10
-30.25300025939941
 20
-16.16799926757812
 30
33.0
 70
   192
  0
VERTEX
  5
4A3
  8
0
 10
-11.24699974060059
 20
-9.991999626159668
 30
33.0
 70
   192
  0
VERTEX
  5
4A4
  8
0
 10
-30.25300025939941
 20
16.16799926757812
 30
33.0
 70
   192
  0
VERTEX
  5
4A5
  8
0
 62
     9
 10
0.0
 20
0.0
 30
0.0
 70
   128
 71
     3
 72
     2
 73
     1
  0
VERTEX
  5
4A6
  8
0
 62
     9
 10
0.0
 20
0.0
 30
0.0
 70
   128
 71
     5
 72
     4
 73
     1
  0
VERTEX
  5
4A7
  8
0
 62
     9
 10
0.0
 20
0.0
 30
0.0
 70
   128
 71
     1
 72
     2
 73
     5
  0
VERTEX
  5
4A8
  8
0
 62
     9
 10
0.0
 20
0.0
 30
0.0
 70
   128
 71
     1
 72
     6
 73
     3
  0
SEQEND
  5
4A9
  8
0
 62
     9
  0
ENDBLK
  5
4AC
  8
0
  0
BLOCK
  8
0
  2
E3_NODE_40_
 70
     0
 10
0.0
 20
0.0
 30
0.0
  3
E3_NODE_40_
  1

  0
POLYLINE
  5
4AE
  8
0
 62
     9
 66
     1
 10
0.0
 20
0.0
 30
0.0
 70
    64
 71
    17
 72
    17
  0
VERTEX
  5
4AF
  8
0
 10
-17.0
 20
-14.0
 30
-33.0
 70
   192
  0
VERTEX
  5
4B0
  8
0
 10
-3.0
 20
0.0
 30
-33.0
 70
   192
  0
VERTEX
  5
4B1
  8
0
 10
-15.1870002746582
 20
-13.88199996948242
 30
-12.0
 70
   192
  0
VERTEX
  5
4B2
  8
0
 10
-10.59799957275391
 20
-10.89200019836426
 30
-14.53699970245361
 70
   192
  0
VERTEX
  5
4B3
  8
0
 10
-5.032999992370605
 20
-7.264999866485596
 30
-18.32099914550781
 70
   192
  0
VERTEX
  5
4B4
  8
0
 10
-4.535999774932861
 20
0.1040000021457672
 30
-18.44499969482422
 70
   192
  0
VERTEX
  5
4B5
  8
0
 10
-15.1870002746582
 20
-13.88199996948242
 30
-11.41699981689453
 70
   192
  0
VERTEX
  5
4B6
  8
0
 10
-17.0
 20
-14.0
 30
-12.0
 70
   192
  0
VERTEX
  5
4B7
  8
0
 10
-31.0
 20
0.0
 30
-12.0
 70
   192
  0
VERTEX
  5
4B8
  8
0
 10
-31.0
 20
0.0
 30
-33.0
 70
   192
  0
VERTEX
  5
4B9
  8
0
 10
-17.0
 20
14.0
 30
-12.0
 70
   192
  0
VERTEX
  5
4BA
  8
0
 10
-17.0
 20
14.0
 30
-33.0
 70
   192
  0
VERTEX
  5
4BB
  8
0
 10
-10.95300006866455
 20
11.6569995880127
 30
-14.97900009155273
 70
   192
  0
VERTEX
  5
4BC
  8
0
 10
-4.165999889373779
 20
5.592999935150146
 30
-18.53800010681152
 70
   192
  0
VERTEX
  5
4BD
  8
0
 10
-12.88000011444092
 20
13.38000011444092
 30
-13.9680004119873
 70
   192
  0
VERTEX
  5
4BE
  8
0
 10
-15.1870002746582
 20
13.88199996948242
 30
-12.0
 70
   192
  0
VERTEX
  5
4BF
  8
0
 10
-15.1870002746582
 20
13.88199996948242
 30
-11.41699981689453
 70
   192
  0
VERTEX
  5
4C0
  8
0
 62
     9
 10
0.0
 20
0.0
 30
0.0
 70
   128
 71
     3
 72
     2
 73
     1
  0
VERTEX
  5
4C1
  8
0
 62
     9
 10
0.0
 20
0.0
 30
0.0
 70
   128
 71
     4
 72
     2
 73
     3
  0
VERTEX
  5
4C2
  8
0
 62
     9
 10
0.0
 20
0.0
 30
0.0
 70
   128
 71
     4
 72
     5
 73
     2
  0
VERTEX
  5
4C3
  8
0
 62
     9
 10
0.0
 20
0.0
 30
0.0
 70
   128
 71
     5
 72
     6
 73
     2
  0
VERTEX
  5
4C4
  8
0
 62
     9
 10
0.0
 20
0.0
 30
0.0
 70
   128
 71
     3
 72
     7
 73
     4
  0
VERTEX
  5
4C5
  8
0
 62
     9
 10
0.0
 20
0.0
 30
0.0
 70
   128
 71
     9
 72
     8
 73
     1
  0
VERTEX
  5
4C6
  8
0
 62
     9
 10
0.0
 20
0.0
 30
0.0
 70
   128
 71
    11
 72
     9
 73
    10
  0
VERTEX
  5
4C7
  8
0
 62
     9
 10
0.0
 20
0.0
 30
0.0
 70
   128
 71
    14
 72
    13
 73
    12
  0
VERTEX
  5
4C8
  8
0
 62
     9
 10
0.0
 20
0.0
 30
0.0
 70
   128
 71
    13
 72
    15
 73
    12
  0
VERTEX
  5
4C9
  8
0
 62
     9
 10
0.0
 20
0.0
 30
0.0
 70
   128
 71
    16
 72
    11
 73
    12
  0
VERTEX
  5
4CA
  8
0
 62
     9
 10
0.0
 20
0.0
 30
0.0
 70
   128
 71
    12
 72
    15
 73
    16
  0
VERTEX
  5
4CB
  8
0
 62
     9
 10
0.0
 20
0.0
 30
0.0
 70
   128
 71
    12
 72
     2
 73
    14
  0
VERTEX
  5
4CC
  8
0
 62
     9
 10
0.0
 20
0.0
 30
0.0
 70
   128
 71
     2
 72
     6
 73
    14
  0
VERTEX
  5
4CD
  8
0
 62
     9
 10
0.0
 20
0.0
 30
0.0
 70
   128
 71
    15
 72
    17
 73
    16
  0
VERTEX
  5
4CE
  8
0
 62
     9
 10
0.0
 20
0.0
 30
0.0
 70
   128
 71
    10
 72
    12
 73
    11
  0
VERTEX
  5
4CF
  8
0
 62
     9
 10
0.0
 20
0.0
 30
0.0
 70
   128
 71
     1
 72
    10
 73
     9
  0
VERTEX
  5
4D0
  8
0
 62
     9
 10
0.0
 20
0.0
 30
0.0
 70
   128
 71
     1
 72
     8
 73
     3
  0
SEQEND
  5
4D1
  8
0
 62
     9
  0
ENDBLK
  5
4D4
  8
0
  0
BLOCK
  8
0
  2
E3_NODE_41_
 70
     0
 10
0.0
 20
0.0
 30
0.0
  3
E3_NODE_41_
  1

  0
POLYLINE
  5
4D6
  8
0
 62
     9
 66
     1
 10
0.0
 20
0.0
 30
0.0
 70
    64
 71
     4
 72
     2
  0
VERTEX
  5
4D7
  8
0
 10
-3.0
 20
0.0
 30
-33.0
 70
   192
  0
VERTEX
  5
4D8
  8
0
 10
-17.0
 20
-14.0
 30
-33.0
 70
   192
  0
VERTEX
  5
4D9
  8
0
 10
-31.0
 20
0.0
 30
-33.0
 70
   192
  0
VERTEX
  5
4DA
  8
0
 10
-17.0
 20
14.0
 30
-33.0
 70
   192
  0
VERTEX
  5
4DB
  8
0
 62
     9
 10
0.0
 20
0.0
 30
0.0
 70
   128
 71
     3
 72
     2
 73
     1
  0
VERTEX
  5
4DC
  8
0
 62
     9
 10
0.0
 20
0.0
 30
0.0
 70
   128
 71
     1
 72
     4
 73
     3
  0
SEQEND
  5
4DD
  8
0
 62
     9
  0
ENDBLK
  5
4E0
  8
0
  0
BLOCK
  8
0
  2
E3_NODE_42_
 70
     0
 10
0.0
 20
0.0
 30
0.0
  3
E3_NODE_42_
  1

  0
POLYLINE
  5
4E2
  8
0
 62
     9
 66
     1
 10
0.0
 20
0.0
 30
0.0
 70
    64
 71
     8
 72
     8
  0
VERTEX
  5
4E3
  8
0
 10
12.85999965667725
 20
-119.0
 30
7.425000190734863
 70
   192
  0
VERTEX
  5
4E4
  8
0
 10
-7.425000190734863
 20
-119.0
 30
12.85999965667725
 70
   192
  0
VERTEX
  5
4E5
  8
0
 10
-3.75
 20
-119.0
 30
6.494999885559082
 70
   192
  0
VERTEX
  5
4E6
  8
0
 10
-12.85999965667725
 20
-119.0
 30
-7.425000190734863
 70
   192
  0
VERTEX
  5
4E7
  8
0
 10
-6.494999885559082
 20
-119.0
 30
-3.75
 70
   192
  0
VERTEX
  5
4E8
  8
0
 10
7.425000190734863
 20
-119.0
 30
-12.85999965667725
 70
   192
  0
VERTEX
  5
4E9
  8
0
 10
3.75
 20
-119.0
 30
-6.494999885559082
 70
   192
  0
VERTEX
  5
4EA
  8
0
 10
6.494999885559082
 20
-119.0
 30
3.75
 70
   192
  0
VERTEX
  5
4EB
  8
0
 62
     9
 10
0.0
 20
0.0
 30
0.0
 70
   128
 71
     3
 72
     2
 73
     1
  0
VERTEX
  5
4EC
  8
0
 62
     9
 10
0.0
 20
0.0
 30
0.0
 70
   128
 71
     3
 72
     5
 73
     4
  0
VERTEX
  5
4ED
  8
0
 62
     9
 10
0.0
 20
0.0
 30
0.0
 70
   128
 71
     4
 72
     2
 73
     3
  0
VERTEX
  5
4EE
  8
0
 62
     9
 10
0.0
 20
0.0
 30
0.0
 70
   128
 71
     5
 72
     7
 73
     6
  0
VERTEX
  5
4EF
  8
0
 62
     9
 10
0.0
 20
0.0
 30
0.0
 70
   128
 71
     6
 72
     4
 73
     5
  0
VERTEX
  5
4F0
  8
0
 62
     9
 10
0.0
 20
0.0
 30
0.0
 70
   128
 71
     8
 72
     1
 73
     6
  0
VERTEX
  5
4F1
  8
0
 62
     9
 10
0.0
 20
0.0
 30
0.0
 70
   128
 71
     6
 72
     7
 73
     8
  0
VERTEX
  5
4F2
  8
0
 62
     9
 10
0.0
 20
0.0
 30
0.0
 70
   128
 71
     1
 72
     8
 73
     3
  0
SEQEND
  5
4F3
  8
0
 62
     9
  0
ENDBLK
  5
4F6
  8
0
  0
BLOCK
  8
0
  2
E3_NODE_43_
 70
     0
 10
0.0
 20
0.0
 30
0.0
  3
E3_NODE_43_
  1

  0
POLYLINE
  5
4F8
  8
0
 62
     9
 66
     1
 10
0.0
 20
0.0
 30
0.0
 70
    64
 71
     8
 72
     8
  0
VERTEX
  5
4F9
  8
0
 10
12.85999965667725
 20
-114.0
 30
7.425000190734863
 70
   192
  0
VERTEX
  5
4FA
  8
0
 10
-7.425000190734863
 20
-114.0
 30
12.85999965667725
 70
   192
  0
VERTEX
  5
4FB
  8
0
 10
-7.425000190734863
 20
-119.0
 30
12.85999965667725
 70
   192
  0
VERTEX
  5
4FC
  8
0
 10
7.425000190734863
 20
-119.0
 30
-12.85999965667725
 70
   192
  0
VERTEX
  5
4FD
  8
0
 10
7.425000190734863
 20
-114.0
 30
-12.85999965667725
 70
   192
  0
VERTEX
  5
4FE
  8
0
 10
-12.85999965667725
 20
-119.0
 30
-7.425000190734863
 70
   192
  0
VERTEX
  5
4FF
  8
0
 10
-12.85999965667725
 20
-114.0
 30
-7.425000190734863
 70
   192
  0
VERTEX
  5
500
  8
0
 10
12.85999965667725
 20
-119.0
 30
7.425000190734863
 70
   192
  0
VERTEX
  5
501
  8
0
 62
     9
 10
0.0
 20
0.0
 30
0.0
 70
   128
 71
     3
 72
     2
 73
     1
  0
VERTEX
  5
502
  8
0
 62
     9
 10
0.0
 20
0.0
 30
0.0
 70
   128
 71
     1
 72
     5
 73
     4
  0
VERTEX
  5
503
  8
0
 62
     9
 10
0.0
 20
0.0
 30
0.0
 70
   128
 71
     5
 72
     7
 73
     6
  0
VERTEX
  5
504
  8
0
 62
     9
 10
0.0
 20
0.0
 30
0.0
 70
   128
 71
     6
 72
     7
 73
     2
  0
VERTEX
  5
505
  8
0
 62
     9
 10
0.0
 20
0.0
 30
0.0
 70
   128
 71
     2
 72
     3
 73
     6
  0
VERTEX
  5
506
  8
0
 62
     9
 10
0.0
 20
0.0
 30
0.0
 70
   128
 71
     6
 72
     4
 73
     5
  0
VERTEX
  5
507
  8
0
 62
     9
 10
0.0
 20
0.0
 30
0.0
 70
   128
 71
     4
 72
     8
 73
     1
  0
VERTEX
  5
508
  8
0
 62
     9
 10
0.0
 20
0.0
 30
0.0
 70
   128
 71
     1
 72
     8
 73
     3
  0
SEQEND
  5
509
  8
0
 62
     9
  0
ENDBLK
  5
50C
  8
0
  0
BLOCK
  8
0
  2
E3_NODE_44_
 70
     0
 10
0.0
 20
0.0
 30
0.0
  3
E3_NODE_44_
  1

  0
POLYLINE
  5
50E
  8
0
 62
     9
 66
     1
 10
0.0
 20
0.0
 30
0.0
 70
    64
 71
    14
 72
    14
  0
VERTEX
  5
50F
  8
0
 10
-24.29999923706055
 20
58.04999923706055
 30
0.0
 70
   192
  0
VERTEX
  5
510
  8
0
 10
-28.10000038146973
 20
58.04999923706055
 30
0.0
 70
   192
  0
VERTEX
  5
511
  8
0
 10
-28.10000038146973
 20
61.2869987487793
 30
-9.963000297546387
 70
   192
  0
VERTEX
  5
512
  8
0
 10
-24.29999923706055
 20
69.76200103759766
 30
-16.1200008392334
 70
   192
  0
VERTEX
  5
513
  8
0
 10
-28.10000038146973
 20
69.76200103759766
 30
-16.1200008392334
 70
   192
  0
VERTEX
  5
514
  8
0
 10
-28.10000038146973
 20
80.23799896240234
 30
-16.1200008392334
 70
   192
  0
VERTEX
  5
515
  8
0
 10
-24.29999923706055
 20
88.71299743652344
 30
-9.963000297546387
 70
   192
  0
VERTEX
  5
516
  8
0
 10
-24.29999923706055
 20
88.71299743652344
 30
9.963000297546387
 70
   192
  0
VERTEX
  5
517
  8
0
 10
-28.10000038146973
 20
91.94999694824219
 30
0.0
 70
   192
  0
VERTEX
  5
518
  8
0
 10
-28.10000038146973
 20
88.71299743652344
 30
-9.963000297546387
 70
   192
  0
VERTEX
  5
519
  8
0
 10
-24.29999923706055
 20
69.76200103759766
 30
16.1200008392334
 70
   192
  0
VERTEX
  5
51A
  8
0
 10
-28.10000038146973
 20
80.23799896240234
 30
16.1200008392334
 70
   192
  0
VERTEX
  5
51B
  8
0
 10
-28.10000038146973
 20
88.71299743652344
 30
9.963000297546387
 70
   192
  0
VERTEX
  5
51C
  8
0
 10
-28.10000038146973
 20
69.76200103759766
 30
16.1200008392334
 70
   192
  0
VERTEX
  5
51D
  8
0
 62
     9
 10
0.0
 20
0.0
 30
0.0
 70
   128
 71
     3
 72
     2
 73
     1
  0
VERTEX
  5
51E
  8
0
 62
     9
 10
0.0
 20
0.0
 30
0.0
 70
   128
 71
     1
 72
     4
 73
     3
  0
VERTEX
  5
51F
  8
0
 62
     9
 10
0.0
 20
0.0
 30
0.0
 70
   128
 71
     6
 72
     5
 73
     4
  0
VERTEX
  5
520
  8
0
 62
     9
 10
0.0
 20
0.0
 30
0.0
 70
   128
 71
     4
 72
     7
 73
     6
  0
VERTEX
  5
521
  8
0
 62
     9
 10
0.0
 20
0.0
 30
0.0
 70
   128
 71
     9
 72
     7
 73
     8
  0
VERTEX
  5
522
  8
0
 62
     9
 10
0.0
 20
0.0
 30
0.0
 70
   128
 71
     9
 72
    10
 73
     7
  0
VERTEX
  5
523
  8
0
 62
     9
 10
0.0
 20
0.0
 30
0.0
 70
   128
 71
    12
 72
     8
 73
    11
  0
VERTEX
  5
524
  8
0
 62
     9
 10
0.0
 20
0.0
 30
0.0
 70
   128
 71
    12
 72
    13
 73
     8
  0
VERTEX
  5
525
  8
0
 62
     9
 10
0.0
 20
0.0
 30
0.0
 70
   128
 71
    11
 72
     1
 73
     2
  0
VERTEX
  5
526
  8
0
 62
     9
 10
0.0
 20
0.0
 30
0.0
 70
   128
 71
     2
 72
    14
 73
    11
  0
VERTEX
  5
527
  8
0
 62
     9
 10
0.0
 20
0.0
 30
0.0
 70
   128
 71
    11
 72
    14
 73
    12
  0
VERTEX
  5
528
  8
0
 62
     9
 10
0.0
 20
0.0
 30
0.0
 70
   128
 71
     8
 72
    13
 73
     9
  0
VERTEX
  5
529
  8
0
 62
     9
 10
0.0
 20
0.0
 30
0.0
 70
   128
 71
     7
 72
    10
 73
     6
  0
VERTEX
  5
52A
  8
0
 62
     9
 10
0.0
 20
0.0
 30
0.0
 70
   128
 71
     4
 72
     5
 73
     3
  0
SEQEND
  5
52B
  8
0
 62
     9
  0
ENDBLK
  5
52E
  8
0
  0
BLOCK
  8
0
  2
E3_NODE_45_
 70
     0
 10
0.0
 20
0.0
 30
0.0
  3
E3_NODE_45_
  1

  0
POLYLINE
  5
530
  8
0
 62
     9
 66
     1
 10
0.0
 20
0.0
 30
0.0
 70
    64
 71
    17
 72
    17
  0
VERTEX
  5
531
  8
0
 10
-28.10000038146973
 20
80.23799896240234
 30
16.1200008392334
 70
   192
  0
VERTEX
  5
532
  8
0
 10
-28.10000038146973
 20
88.71299743652344
 30
9.963000297546387
 70
   192
  0
VERTEX
  5
533
  8
0
 10
-28.10000038146973
 20
86.31400299072266
 30
11.31400012969971
 70
   192
  0
VERTEX
  5
534
  8
0
 10
-28.10000038146973
 20
91.94999694824219
 30
0.0
 70
   192
  0
VERTEX
  5
535
  8
0
 10
-28.10000038146973
 20
91.0
 30
0.0
 70
   192
  0
VERTEX
  5
536
  8
0
 10
-28.10000038146973
 20
89.78199768066406
 30
6.123000144958496
 70
   192
  0
VERTEX
  5
537
  8
0
 10
-28.10000038146973
 20
75.0
 30
16.0
 70
   192
  0
VERTEX
  5
538
  8
0
 10
-28.10000038146973
 20
88.71299743652344
 30
-9.963000297546387
 70
   192
  0
VERTEX
  5
539
  8
0
 10
-28.10000038146973
 20
75.0
 30
-16.0
 70
   192
  0
VERTEX
  5
53A
  8
0
 10
-28.10000038146973
 20
69.76200103759766
 30
-16.1200008392334
 70
   192
  0
VERTEX
  5
53B
  8
0
 10
-28.10000038146973
 20
61.2869987487793
 30
-9.963000297546387
 70
   192
  0
VERTEX
  5
53C
  8
0
 10
-28.10000038146973
 20
63.68600082397461
 30
-11.31400012969971
 70
   192
  0
VERTEX
  5
53D
  8
0
 10
-28.10000038146973
 20
58.04999923706055
 30
0.0
 70
   192
  0
VERTEX
  5
53E
  8
0
 10
-28.10000038146973
 20
59.0
 30
0.0
 70
   192
  0
VERTEX
  5
53F
  8
0
 10
-28.10000038146973
 20
60.21799850463867
 30
-6.123000144958496
 70
   192
  0
VERTEX
  5
540
  8
0
 10
-28.10000038146973
 20
80.23799896240234
 30
-16.1200008392334
 70
   192
  0
VERTEX
  5
541
  8
0
 10
-28.10000038146973
 20
69.76200103759766
 30
16.1200008392334
 70
   192
  0
VERTEX
  5
542
  8
0
 62
     9
 10
0.0
 20
0.0
 30
0.0
 70
   128
 71
     3
 72
     2
 73
     1
  0
VERTEX
  5
543
  8
0
 62
     9
 10
0.0
 20
0.0
 30
0.0
 70
   128
 71
     6
 72
     5
 73
     4
  0
VERTEX
  5
544
  8
0
 62
     9
 10
0.0
 20
0.0
 30
0.0
 70
   128
 71
     1
 72
     7
 73
     3
  0
VERTEX
  5
545
  8
0
 62
     9
 10
0.0
 20
0.0
 30
0.0
 70
   128
 71
     4
 72
     2
 73
     6
  0
VERTEX
  5
546
  8
0
 62
     9
 10
0.0
 20
0.0
 30
0.0
 70
   128
 71
     5
 72
     9
 73
     8
  0
VERTEX
  5
547
  8
0
 62
     9
 10
0.0
 20
0.0
 30
0.0
 70
   128
 71
    12
 72
    11
 73
    10
  0
VERTEX
  5
548
  8
0
 62
     9
 10
0.0
 20
0.0
 30
0.0
 70
   128
 71
    15
 72
    14
 73
    13
  0
VERTEX
  5
549
  8
0
 62
     9
 10
0.0
 20
0.0
 30
0.0
 70
   128
 71
     2
 72
     3
 73
     6
  0
VERTEX
  5
54A
  8
0
 62
     9
 10
0.0
 20
0.0
 30
0.0
 70
   128
 71
     8
 72
     4
 73
     5
  0
VERTEX
  5
54B
  8
0
 62
     9
 10
0.0
 20
0.0
 30
0.0
 70
   128
 71
    10
 72
     9
 73
    12
  0
VERTEX
  5
54C
  8
0
 62
     9
 10
0.0
 20
0.0
 30
0.0
 70
   128
 71
    13
 72
    11
 73
    15
  0
VERTEX
  5
54D
  8
0
 62
     9
 10
0.0
 20
0.0
 30
0.0
 70
   128
 71
     9
 72
    16
 73
     8
  0
VERTEX
  5
54E
  8
0
 62
     9
 10
0.0
 20
0.0
 30
0.0
 70
   128
 71
    11
 72
    12
 73
    15
  0
VERTEX
  5
54F
  8
0
 62
     9
 10
0.0
 20
0.0
 30
0.0
 70
   128
 71
    14
 72
     7
 73
    17
  0
VERTEX
  5
550
  8
0
 62
     9
 10
0.0
 20
0.0
 30
0.0
 70
   128
 71
    10
 72
    16
 73
     9
  0
VERTEX
  5
551
  8
0
 62
     9
 10
0.0
 20
0.0
 30
0.0
 70
   128
 71
     1
 72
    17
 73
     7
  0
VERTEX
  5
552
  8
0
 62
     9
 10
0.0
 20
0.0
 30
0.0
 70
   128
 71
    17
 72
    13
 73
    14
  0
SEQEND
  5
553
  8
0
 62
     9
  0
ENDBLK
  5
556
  8
0
  0
BLOCK
  8
0
  2
E3_NODE_46_
 70
     0
 10
0.0
 20
0.0
 30
0.0
  3
E3_NODE_46_
  1

  0
POLYLINE
  5
558
  8
0
 62
     9
 66
     1
 10
0.0
 20
0.0
 30
0.0
 70
    64
 71
    34
 72
    34
  0
VERTEX
  5
559
  8
0
 10
-28.10000038146973
 20
86.31400299072266
 30
11.31400012969971
 70
   192
  0
VERTEX
  5
55A
  8
0
 10
-113.9929962158203
 20
82.49400329589844
 30
13.6870002746582
 70
   192
  0
VERTEX
  5
55B
  8
0
 10
-112.2109985351562
 20
74.8280029296875
 30
14.85799980163574
 70
   192
  0
VERTEX
  5
55C
  8
0
 10
-28.10000038146973
 20
75.0
 30
16.0
 70
   192
  0
VERTEX
  5
55D
  8
0
 10
-28.10000038146973
 20
89.78199768066406
 30
6.123000144958496
 70
   192
  0
VERTEX
  5
55E
  8
0
 10
-114.2379989624023
 20
83.5479965209961
 30
13.52499961853027
 70
   192
  0
VERTEX
  5
55F
  8
0
 10
-28.10000038146973
 20
91.0
 30
0.0
 70
   192
  0
VERTEX
  5
560
  8
0
 10
-136.3000030517578
 20
91.0
 30
0.0
 70
   192
  0
VERTEX
  5
561
  8
0
 10
-120.4850006103516
 20
86.60900115966797
 30
11.01099967956543
 70
   192
  0
VERTEX
  5
562
  8
0
 10
-136.3000030517578
 20
85.0
 30
12.48999977111816
 70
   192
  0
VERTEX
  5
563
  8
0
 10
-128.468994140625
 20
85.0
 30
12.48999977111816
 70
   192
  0
VERTEX
  5
564
  8
0
 10
-128.3639984130859
 20
85.06400299072266
 30
12.4379997253418
 70
   192
  0
VERTEX
  5
565
  8
0
 10
-136.3000030517578
 20
59.0
 30
0.0
 70
   192
  0
VERTEX
  5
566
  8
0
 10
-119.120002746582
 20
63.6879997253418
 30
11.31599998474121
 70
   192
  0
VERTEX
  5
567
  8
0
 10
-128.468994140625
 20
65.0
 30
12.48999977111816
 70
   192
  0
VERTEX
  5
568
  8
0
 10
-28.10000038146973
 20
59.0
 30
0.0
 70
   192
  0
VERTEX
  5
569
  8
0
 10
-111.2949981689453
 20
70.88400268554688
 30
15.46100044250488
 70
   192
  0
VERTEX
  5
56A
  8
0
 10
-114.1809997558594
 20
68.2300033569336
 30
13.93200016021729
 70
   192
  0
VERTEX
  5
56B
  8
0
 10
-28.10000038146973
 20
75.0
 30
-16.0
 70
   192
  0
VERTEX
  5
56C
  8
0
 10
-28.10000038146973
 20
63.68600082397461
 30
-11.31400012969971
 70
   192
  0
VERTEX
  5
56D
  8
0
 10
-110.8300018310547
 20
72.45099639892578
 30
-15.79599952697754
 70
   192
  0
VERTEX
  5
56E
  8
0
 10
-111.4560012817383
 20
74.89199829101562
 30
-15.36900043487549
 70
   192
  0
VERTEX
  5
56F
  8
0
 10
-114.6829986572266
 20
68.69400024414062
 30
-13.82800006866455
 70
   192
  0
VERTEX
  5
570
  8
0
 10
-120.0429992675781
 20
63.46900177001953
 30
-11.09200000762939
 70
   192
  0
VERTEX
  5
571
  8
0
 10
-125.4800033569336
 20
63.6879997253418
 30
-11.31599998474121
 70
   192
  0
VERTEX
  5
572
  8
0
 10
-136.3000030517578
 20
65.0
 30
-12.48999977111816
 70
   192
  0
VERTEX
  5
573
  8
0
 10
-128.468994140625
 20
65.0
 30
-12.48999977111816
 70
   192
  0
VERTEX
  5
574
  8
0
 10
-28.10000038146973
 20
60.21799850463867
 30
-6.123000144958496
 70
   192
  0
VERTEX
  5
575
  8
0
 10
-124.1149978637695
 20
86.60900115966797
 30
-11.01099967956543
 70
   192
  0
VERTEX
  5
576
  8
0
 10
-128.468994140625
 20
85.0
 30
-12.48999977111816
 70
   192
  0
VERTEX
  5
577
  8
0
 10
-113.4710006713867
 20
82.75399780273438
 30
-13.99600028991699
 70
   192
  0
VERTEX
  5
578
  8
0
 10
-113.4380035400391
 20
82.62300109863281
 30
-14.01900005340576
 70
   192
  0
VERTEX
  5
579
  8
0
 10
-136.3000030517578
 20
85.0
 30
-12.48999977111816
 70
   192
  0
VERTEX
  5
57A
  8
0
 10
-136.3000030517578
 20
65.0
 30
12.48999977111816
 70
   192
  0
VERTEX
  5
57B
  8
0
 62
     9
 10
0.0
 20
0.0
 30
0.0
 70
   128
 71
     3
 72
     2
 73
     1
  0
VERTEX
  5
57C
  8
0
 62
     9
 10
0.0
 20
0.0
 30
0.0
 70
   128
 71
     1
 72
     4
 73
     3
  0
VERTEX
  5
57D
  8
0
 62
     9
 10
0.0
 20
0.0
 30
0.0
 70
   128
 71
     2
 72
     6
 73
     5
  0
VERTEX
  5
57E
  8
0
 62
     9
 10
0.0
 20
0.0
 30
0.0
 70
   128
 71
     2
 72
     5
 73
     1
  0
VERTEX
  5
57F
  8
0
 62
     9
 10
0.0
 20
0.0
 30
0.0
 70
   128
 71
     9
 72
     8
 73
     7
  0
VERTEX
  5
580
  8
0
 62
     9
 10
0.0
 20
0.0
 30
0.0
 70
   128
 71
     7
 72
     6
 73
     9
  0
VERTEX
  5
581
  8
0
 62
     9
 10
0.0
 20
0.0
 30
0.0
 70
   128
 71
    11
 72
    10
 73
     8
  0
VERTEX
  5
582
  8
0
 62
     9
 10
0.0
 20
0.0
 30
0.0
 70
   128
 71
     8
 72
    12
 73
    11
  0
VERTEX
  5
583
  8
0
 62
     9
 10
0.0
 20
0.0
 30
0.0
 70
   128
 71
     8
 72
     9
 73
    12
  0
VERTEX
  5
584
  8
0
 62
     9
 10
0.0
 20
0.0
 30
0.0
 70
   128
 71
    15
 72
    14
 73
    13
  0
VERTEX
  5
585
  8
0
 62
     9
 10
0.0
 20
0.0
 30
0.0
 70
   128
 71
    14
 72
    16
 73
    13
  0
VERTEX
  5
586
  8
0
 62
     9
 10
0.0
 20
0.0
 30
0.0
 70
   128
 71
    18
 72
    17
 73
    16
  0
VERTEX
  5
587
  8
0
 62
     9
 10
0.0
 20
0.0
 30
0.0
 70
   128
 71
    16
 72
    14
 73
    18
  0
VERTEX
  5
588
  8
0
 62
     9
 10
0.0
 20
0.0
 30
0.0
 70
   128
 71
    17
 72
     3
 73
     4
  0
VERTEX
  5
589
  8
0
 62
     9
 10
0.0
 20
0.0
 30
0.0
 70
   128
 71
     4
 72
    16
 73
    17
  0
VERTEX
  5
58A
  8
0
 62
     9
 10
0.0
 20
0.0
 30
0.0
 70
   128
 71
    21
 72
    20
 73
    19
  0
VERTEX
  5
58B
  8
0
 62
     9
 10
0.0
 20
0.0
 30
0.0
 70
   128
 71
    19
 72
    22
 73
    21
  0
VERTEX
  5
58C
  8
0
 62
     9
 10
0.0
 20
0.0
 30
0.0
 70
   128
 71
    21
 72
    23
 73
    16
  0
VERTEX
  5
58D
  8
0
 62
     9
 10
0.0
 20
0.0
 30
0.0
 70
   128
 71
    23
 72
    24
 73
    16
  0
VERTEX
  5
58E
  8
0
 62
     9
 10
0.0
 20
0.0
 30
0.0
 70
   128
 71
    24
 72
    25
 73
    13
  0
VERTEX
  5
58F
  8
0
 62
     9
 10
0.0
 20
0.0
 30
0.0
 70
   128
 71
    27
 72
    26
 73
    13
  0
VERTEX
  5
590
  8
0
 62
     9
 10
0.0
 20
0.0
 30
0.0
 70
   128
 71
    13
 72
    25
 73
    27
  0
VERTEX
  5
591
  8
0
 62
     9
 10
0.0
 20
0.0
 30
0.0
 70
   128
 71
    13
 72
    16
 73
    24
  0
VERTEX
  5
592
  8
0
 62
     9
 10
0.0
 20
0.0
 30
0.0
 70
   128
 71
    16
 72
    28
 73
    21
  0
VERTEX
  5
593
  8
0
 62
     9
 10
0.0
 20
0.0
 30
0.0
 70
   128
 71
    30
 72
    29
 73
     8
  0
VERTEX
  5
594
  8
0
 62
     9
 10
0.0
 20
0.0
 30
0.0
 70
   128
 71
    29
 72
    31
 73
     7
  0
VERTEX
  5
595
  8
0
 62
     9
 10
0.0
 20
0.0
 30
0.0
 70
   128
 71
    22
 72
    19
 73
     7
  0
VERTEX
  5
596
  8
0
 62
     9
 10
0.0
 20
0.0
 30
0.0
 70
   128
 71
     7
 72
    32
 73
    22
  0
VERTEX
  5
597
  8
0
 62
     9
 10
0.0
 20
0.0
 30
0.0
 70
   128
 71
     7
 72
    31
 73
    32
  0
VERTEX
  5
598
  8
0
 62
     9
 10
0.0
 20
0.0
 30
0.0
 70
   128
 71
     7
 72
     8
 73
    29
  0
VERTEX
  5
599
  8
0
 62
     9
 10
0.0
 20
0.0
 30
0.0
 70
   128
 71
     8
 72
    33
 73
    30
  0
VERTEX
  5
59A
  8
0
 62
     9
 10
0.0
 20
0.0
 30
0.0
 70
   128
 71
    21
 72
    28
 73
    20
  0
VERTEX
  5
59B
  8
0
 62
     9
 10
0.0
 20
0.0
 30
0.0
 70
   128
 71
    13
 72
    34
 73
    15
  0
VERTEX
  5
59C
  8
0
 62
     9
 10
0.0
 20
0.0
 30
0.0
 70
   128
 71
     6
 72
     7
 73
     5
  0
SEQEND
  5
59D
  8
0
 62
     9
  0
ENDBLK
  5
5A0
  8
0
  0
BLOCK
  8
0
  2
E3_NODE_47_
 70
     0
 10
0.0
 20
0.0
 30
0.0
  3
E3_NODE_47_
  1

  0
POLYLINE
  5
5A2
  8
0
 62
     9
 66
     1
 10
0.0
 20
0.0
 30
0.0
 70
    64
 71
     4
 72
     2
  0
VERTEX
  5
5A3
  8
0
 10
-128.468994140625
 20
65.0
 30
-12.48999977111816
 70
   192
  0
VERTEX
  5
5A4
  8
0
 10
-136.3000030517578
 20
65.0
 30
-12.48999977111816
 70
   192
  0
VERTEX
  5
5A5
  8
0
 10
-136.3000030517578
 20
65.0
 30
12.48999977111816
 70
   192
  0
VERTEX
  5
5A6
  8
0
 10
-128.468994140625
 20
65.0
 30
12.48999977111816
 70
   192
  0
VERTEX
  5
5A7
  8
0
 62
     9
 10
0.0
 20
0.0
 30
0.0
 70
   128
 71
     3
 72
     2
 73
     1
  0
VERTEX
  5
5A8
  8
0
 62
     9
 10
0.0
 20
0.0
 30
0.0
 70
   128
 71
     1
 72
     4
 73
     3
  0
SEQEND
  5
5A9
  8
0
 62
     9
  0
ENDBLK
  5
5AC
  8
0
  0
BLOCK
  8
0
  2
E3_NODE_48_
 70
     0
 10
0.0
 20
0.0
 30
0.0
  3
E3_NODE_48_
  1

  0
POLYLINE
  5
5AE
  8
0
 62
     9
 66
     1
 10
0.0
 20
0.0
 30
0.0
 70
    64
 71
     4
 72
     2
  0
VERTEX
  5
5AF
  8
0
 10
-128.468994140625
 20
85.0
 30
12.48999977111816
 70
   192
  0
VERTEX
  5
5B0
  8
0
 10
-136.3000030517578
 20
85.0
 30
12.48999977111816
 70
   192
  0
VERTEX
  5
5B1
  8
0
 10
-136.3000030517578
 20
85.0
 30
-12.48999977111816
 70
   192
  0
VERTEX
  5
5B2
  8
0
 10
-128.468994140625
 20
85.0
 30
-12.48999977111816
 70
   192
  0
VERTEX
  5
5B3
  8
0
 62
     9
 10
0.0
 20
0.0
 30
0.0
 70
   128
 71
     3
 72
     2
 73
     1
  0
VERTEX
  5
5B4
  8
0
 62
     9
 10
0.0
 20
0.0
 30
0.0
 70
   128
 71
     1
 72
     4
 73
     3
  0
SEQEND
  5
5B5
  8
0
 62
     9
  0
ENDBLK
  5
5B8
  8
0
  0
BLOCK
  8
0
  2
E3_NODE_49_
 70
     0
 10
0.0
 20
0.0
 30
0.0
  3
E3_NODE_49_
  1

  0
POLYLINE
  5
5BA
  8
0
 62
     9
 66
     1
 10
0.0
 20
0.0
 30
0.0
 70
    64
 71
    20
 72
    18
  0
VERTEX
  5
5BB
  8
0
 10
-124.1149978637695
 20
86.60900115966797
 30
-11.01099967956543
 70
   192
  0
VERTEX
  5
5BC
  8
0
 10
-113.4710006713867
 20
82.75399780273438
 30
-13.99600028991699
 70
   192
  0
VERTEX
  5
5BD
  8
0
 10
-120.4850006103516
 20
86.60900115966797
 30
11.01099967956543
 70
   192
  0
VERTEX
  5
5BE
  8
0
 10
-114.2379989624023
 20
83.5479965209961
 30
13.52499961853027
 70
   192
  0
VERTEX
  5
5BF
  8
0
 10
-113.4380035400391
 20
82.62300109863281
 30
-14.01900005340576
 70
   192
  0
VERTEX
  5
5C0
  8
0
 10
-113.9929962158203
 20
82.49400329589844
 30
13.6870002746582
 70
   192
  0
VERTEX
  5
5C1
  8
0
 10
-128.468994140625
 20
85.0
 30
-12.48999977111816
 70
   192
  0
VERTEX
  5
5C2
  8
0
 10
-128.3639984130859
 20
85.06400299072266
 30
12.4379997253418
 70
   192
  0
VERTEX
  5
5C3
  8
0
 10
-128.468994140625
 20
85.0
 30
12.48999977111816
 70
   192
  0
VERTEX
  5
5C4
  8
0
 10
-110.8300018310547
 20
72.45099639892578
 30
-15.79599952697754
 70
   192
  0
VERTEX
  5
5C5
  8
0
 10
-114.6829986572266
 20
68.69400024414062
 30
-13.82800006866455
 70
   192
  0
VERTEX
  5
5C6
  8
0
 10
-114.1809997558594
 20
68.2300033569336
 30
13.93200016021729
 70
   192
  0
VERTEX
  5
5C7
  8
0
 10
-111.2949981689453
 20
70.88400268554688
 30
15.46100044250488
 70
   192
  0
VERTEX
  5
5C8
  8
0
 10
-111.4560012817383
 20
74.89199829101562
 30
-15.36900043487549
 70
   192
  0
VERTEX
  5
5C9
  8
0
 10
-112.2109985351562
 20
74.8280029296875
 30
14.85799980163574
 70
   192
  0
VERTEX
  5
5CA
  8
0
 10
-119.120002746582
 20
63.6879997253418
 30
11.31599998474121
 70
   192
  0
VERTEX
  5
5CB
  8
0
 10
-120.0429992675781
 20
63.46900177001953
 30
-11.09200000762939
 70
   192
  0
VERTEX
  5
5CC
  8
0
 10
-125.4800033569336
 20
63.6879997253418
 30
-11.31599998474121
 70
   192
  0
VERTEX
  5
5CD
  8
0
 10
-128.468994140625
 20
65.0
 30
12.48999977111816
 70
   192
  0
VERTEX
  5
5CE
  8
0
 10
-128.468994140625
 20
65.0
 30
-12.48999977111816
 70
   192
  0
VERTEX
  5
5CF
  8
0
 62
     9
 10
0.0
 20
0.0
 30
0.0
 70
   128
 71
     3
 72
     2
 73
     1
  0
VERTEX
  5
5D0
  8
0
 62
     9
 10
0.0
 20
0.0
 30
0.0
 70
   128
 71
     2
 72
     3
 73
     4
  0
VERTEX
  5
5D1
  8
0
 62
     9
 10
0.0
 20
0.0
 30
0.0
 70
   128
 71
     4
 72
     6
 73
     5
  0
VERTEX
  5
5D2
  8
0
 62
     9
 10
0.0
 20
0.0
 30
0.0
 70
   128
 71
     4
 72
     5
 73
     2
  0
VERTEX
  5
5D3
  8
0
 62
     9
 10
0.0
 20
0.0
 30
0.0
 70
   128
 71
     8
 72
     1
 73
     7
  0
VERTEX
  5
5D4
  8
0
 62
     9
 10
0.0
 20
0.0
 30
0.0
 70
   128
 71
     7
 72
     9
 73
     8
  0
VERTEX
  5
5D5
  8
0
 62
     9
 10
0.0
 20
0.0
 30
0.0
 70
   128
 71
    12
 72
    11
 73
    10
  0
VERTEX
  5
5D6
  8
0
 62
     9
 10
0.0
 20
0.0
 30
0.0
 70
   128
 71
    10
 72
    14
 73
    13
  0
VERTEX
  5
5D7
  8
0
 62
     9
 10
0.0
 20
0.0
 30
0.0
 70
   128
 71
     5
 72
     6
 73
    15
  0
VERTEX
  5
5D8
  8
0
 62
     9
 10
0.0
 20
0.0
 30
0.0
 70
   128
 71
    15
 72
    13
 73
    14
  0
VERTEX
  5
5D9
  8
0
 62
     9
 10
0.0
 20
0.0
 30
0.0
 70
   128
 71
    15
 72
    14
 73
     5
  0
VERTEX
  5
5DA
  8
0
 62
     9
 10
0.0
 20
0.0
 30
0.0
 70
   128
 71
    18
 72
    17
 73
    16
  0
VERTEX
  5
5DB
  8
0
 62
     9
 10
0.0
 20
0.0
 30
0.0
 70
   128
 71
    16
 72
    19
 73
    18
  0
VERTEX
  5
5DC
  8
0
 62
     9
 10
0.0
 20
0.0
 30
0.0
 70
   128
 71
    17
 72
    11
 73
    16
  0
VERTEX
  5
5DD
  8
0
 62
     9
 10
0.0
 20
0.0
 30
0.0
 70
   128
 71
    19
 72
    20
 73
    18
  0
VERTEX
  5
5DE
  8
0
 62
     9
 10
0.0
 20
0.0
 30
0.0
 70
   128
 71
    11
 72
    12
 73
    16
  0
VERTEX
  5
5DF
  8
0
 62
     9
 10
0.0
 20
0.0
 30
0.0
 70
   128
 71
    10
 72
    13
 73
    12
  0
VERTEX
  5
5E0
  8
0
 62
     9
 10
0.0
 20
0.0
 30
0.0
 70
   128
 71
     1
 72
     8
 73
     3
  0
SEQEND
  5
5E1
  8
0
 62
     9
  0
ENDBLK
  5
5E4
  8
0
  0
BLOCK
  8
0
  2
E3_NODE_50_
 70
     0
 10
0.0
 20
0.0
 30
0.0
  3
E3_NODE_50_
  1

  0
POLYLINE
  5
5E6
  8
0
 62
     9
 66
     1
 10
0.0
 20
0.0
 30
0.0
 70
    64
 71
     3
 72
     1
  0
VERTEX
  5
5E7
  8
0
 10
-136.3000030517578
 20
85.0
 30
-12.48999977111816
 70
   192
  0
VERTEX
  5
5E8
  8
0
 10
-136.3000030517578
 20
85.0
 30
12.48999977111816
 70
   192
  0
VERTEX
  5
5E9
  8
0
 10
-136.3000030517578
 20
91.0
 30
0.0
 70
   192
  0
VERTEX
  5
5EA
  8
0
 62
     9
 10
0.0
 20
0.0
 30
0.0
 70
   128
 71
     3
 72
     2
 73
     1
  0
SEQEND
  5
5EB
  8
0
 62
     9
  0
ENDBLK
  5
5EE
  8
0
  0
BLOCK
  8
0
  2
E3_NODE_51_
 70
     0
 10
0.0
 20
0.0
 30
0.0
  3
E3_NODE_51_
  1

  0
POLYLINE
  5
5F0
  8
0
 62
     9
 66
     1
 10
0.0
 20
0.0
 30
0.0
 70
    64
 71
     3
 72
     1
  0
VERTEX
  5
5F1
  8
0
 10
-136.3000030517578
 20
65.0
 30
12.48999977111816
 70
   192
  0
VERTEX
  5
5F2
  8
0
 10
-136.3000030517578
 20
65.0
 30
-12.48999977111816
 70
   192
  0
VERTEX
  5
5F3
  8
0
 10
-136.3000030517578
 20
59.0
 30
0.0
 70
   192
  0
VERTEX
  5
5F4
  8
0
 62
     9
 10
0.0
 20
0.0
 30
0.0
 70
   128
 71
     3
 72
     2
 73
     1
  0
SEQEND
  5
5F5
  8
0
 62
     9
  0
ENDBLK
  5
5F8
  8
0
  0
BLOCK
  8
0
  2
E3_NODE_52_
 70
     0
 10
0.0
 20
0.0
 30
0.0
  3
E3_NODE_52_
  1

  0
POLYLINE
  5
5FA
  8
0
 62
     9
 66
     1
 10
0.0
 20
0.0
 30
0.0
 70
    64
 71
     4
 72
     2
  0
VERTEX
  5
5FB
  8
0
 10
37.5
 20
-134.6999969482422
 30
6.0
 70
   192
  0
VERTEX
  5
5FC
  8
0
 10
37.5
 20
-140.6999969482422
 30
0.0
 70
   192
  0
VERTEX
  5
5FD
  8
0
 10
37.5
 20
-134.6999969482422
 30
-6.0
 70
   192
  0
VERTEX
  5
5FE
  8
0
 10
37.5
 20
-128.6999969482422
 30
0.0
 70
   192
  0
VERTEX
  5
5FF
  8
0
 62
     9
 10
0.0
 20
0.0
 30
0.0
 70
   128
 71
     3
 72
     2
 73
     1
  0
VERTEX
  5
600
  8
0
 62
     9
 10
0.0
 20
0.0
 30
0.0
 70
   128
 71
     1
 72
     4
 73
     3
  0
SEQEND
  5
601
  8
0
 62
     9
  0
ENDBLK
  5
604
  8
0
  0
BLOCK
  8
0
  2
E3_NODE_53_
 70
     0
 10
0.0
 20
0.0
 30
0.0
  3
E3_NODE_53_
  1

  0
POLYLINE
  5
606
  8
0
 62
     9
 66
     1
 10
0.0
 20
0.0
 30
0.0
 70
    64
 71
    15
 72
    15
  0
VERTEX
  5
607
  8
0
 10
37.5
 20
-134.6999969482422
 30
6.0
 70
   192
  0
VERTEX
  5
608
  8
0
 10
7.701000213623047
 20
-135.1940002441406
 30
5.980000019073486
 70
   192
  0
VERTEX
  5
609
  8
0
 10
9.619999885559082
 20
-140.4869995117188
 30
1.585000038146973
 70
   192
  0
VERTEX
  5
60A
  8
0
 10
7.684999942779541
 20
-134.6999969482422
 30
6.0
 70
   192
  0
VERTEX
  5
60B
  8
0
 10
37.5
 20
-140.6999969482422
 30
0.0
 70
   192
  0
VERTEX
  5
60C
  8
0
 10
37.5
 20
-134.6999969482422
 30
-6.0
 70
   192
  0
VERTEX
  5
60D
  8
0
 10
8.322999954223633
 20
-137.8500061035156
 30
-4.848999977111816
 70
   192
  0
VERTEX
  5
60E
  8
0
 10
8.253999710083008
 20
-137.7100067138672
 30
-5.190000057220459
 70
   192
  0
VERTEX
  5
60F
  8
0
 10
9.361000061035156
 20
-139.9600067138672
 30
0.2989999949932098
 70
   192
  0
VERTEX
  5
610
  8
0
 10
8.494000434875488
 20
-131.0829925537109
 30
-4.787000179290771
 70
   192
  0
VERTEX
  5
611
  8
0
 10
9.326000213623047
 20
-129.4730072021484
 30
0.2450000047683716
 70
   192
  0
VERTEX
  5
612
  8
0
 10
8.442000389099121
 20
-132.5090026855469
 30
-4.874000072479248
 70
   192
  0
VERTEX
  5
613
  8
0
 10
8.361000061035156
 20
-134.7599945068359
 30
-5.011000156402588
 70
   192
  0
VERTEX
  5
614
  8
0
 10
37.5
 20
-128.6999969482422
 30
0.0
 70
   192
  0
VERTEX
  5
615
  8
0
 10
9.583000183105469
 20
-128.9759979248047
 30
1.797999978065491
 70
   192
  0
VERTEX
  5
616
  8
0
 62
     9
 10
0.0
 20
0.0
 30
0.0
 70
   128
 71
     3
 72
     2
 73
     1
  0
VERTEX
  5
617
  8
0
 62
     9
 10
0.0
 20
0.0
 30
0.0
 70
   128
 71
     2
 72
     4
 73
     1
  0
VERTEX
  5
618
  8
0
 62
     9
 10
0.0
 20
0.0
 30
0.0
 70
   128
 71
     1
 72
     5
 73
     3
  0
VERTEX
  5
619
  8
0
 62
     9
 10
0.0
 20
0.0
 30
0.0
 70
   128
 71
     8
 72
     7
 73
     6
  0
VERTEX
  5
61A
  8
0
 62
     9
 10
0.0
 20
0.0
 30
0.0
 70
   128
 71
     9
 72
     5
 73
     6
  0
VERTEX
  5
61B
  8
0
 62
     9
 10
0.0
 20
0.0
 30
0.0
 70
   128
 71
     6
 72
     7
 73
     9
  0
VERTEX
  5
61C
  8
0
 62
     9
 10
0.0
 20
0.0
 30
0.0
 70
   128
 71
    11
 72
    10
 73
     6
  0
VERTEX
  5
61D
  8
0
 62
     9
 10
0.0
 20
0.0
 30
0.0
 70
   128
 71
    10
 72
    12
 73
     6
  0
VERTEX
  5
61E
  8
0
 62
     9
 10
0.0
 20
0.0
 30
0.0
 70
   128
 71
    12
 72
    13
 73
     6
  0
VERTEX
  5
61F
  8
0
 62
     9
 10
0.0
 20
0.0
 30
0.0
 70
   128
 71
    15
 72
    14
 73
     1
  0
VERTEX
  5
620
  8
0
 62
     9
 10
0.0
 20
0.0
 30
0.0
 70
   128
 71
    15
 72
    11
 73
    14
  0
VERTEX
  5
621
  8
0
 62
     9
 10
0.0
 20
0.0
 30
0.0
 70
   128
 71
     1
 72
     4
 73
    15
  0
VERTEX
  5
622
  8
0
 62
     9
 10
0.0
 20
0.0
 30
0.0
 70
   128
 71
     6
 72
    14
 73
    11
  0
VERTEX
  5
623
  8
0
 62
     9
 10
0.0
 20
0.0
 30
0.0
 70
   128
 71
     6
 72
    13
 73
     8
  0
VERTEX
  5
624
  8
0
 62
     9
 10
0.0
 20
0.0
 30
0.0
 70
   128
 71
     5
 72
     9
 73
     3
  0
SEQEND
  5
625
  8
0
 62
     9
  0
ENDBLK
  5
628
  8
0
  0
BLOCK
  8
0
  2
E3_NODE_54_
 70
     0
 10
0.0
 20
0.0
 30
0.0
  3
E3_NODE_54_
  1

  0
POLYLINE
  5
62A
  8
0
 62
     9
 66
     1
 10
0.0
 20
0.0
 30
0.0
 70
    64
 71
    41
 72
    47
  0
VERTEX
  5
62B
  8
0
 10
4.875
 20
-142.1999969482422
 30
8.444000244140625
 70
   192
  0
VERTEX
  5
62C
  8
0
 10
-4.940000057220459
 20
-139.9600067138672
 30
7.956999778747559
 70
   192
  0
VERTEX
  5
62D
  8
0
 10
-6.183000087738037
 20
-140.4869995117188
 30
7.539000034332275
 70
   192
  0
VERTEX
  5
62E
  8
0
 10
0.3680000007152557
 20
-137.7100067138672
 30
9.743000030517578
 70
   192
  0
VERTEX
  5
62F
  8
0
 10
4.875
 20
-119.1999969482422
 30
8.444000244140625
 70
   192
  0
VERTEX
  5
630
  8
0
 10
-0.101000003516674
 20
-131.0829925537109
 30
9.74899959564209
 70
   192
  0
VERTEX
  5
631
  8
0
 10
0.1589999943971634
 20
-134.7599945068359
 30
9.746000289916992
 70
   192
  0
VERTEX
  5
632
  8
0
 10
-8.444000244140625
 20
-119.1999969482422
 30
4.875
 70
   192
  0
VERTEX
  5
633
  8
0
 10
-6.348999977111816
 20
-128.9759979248047
 30
7.400000095367432
 70
   192
  0
VERTEX
  5
634
  8
0
 10
-4.875
 20
-129.4730072021484
 30
7.953999996185303
 70
   192
  0
VERTEX
  5
635
  8
0
 10
-8.255999565124512
 20
-133.0339965820312
 30
4.745999813079834
 70
   192
  0
VERTEX
  5
636
  8
0
 10
-8.444000244140625
 20
-142.1999969482422
 30
4.875
 70
   192
  0
VERTEX
  5
637
  8
0
 10
-4.875
 20
-142.1999969482422
 30
-8.444000244140625
 70
   192
  0
VERTEX
  5
638
  8
0
 10
-8.392999649047852
 20
-138.3170013427734
 30
-4.961999893188477
 70
   192
  0
VERTEX
  5
639
  8
0
 10
-8.621999740600586
 20
-131.6900024414062
 30
-4.552999973297119
 70
   192
  0
VERTEX
  5
63A
  8
0
 10
-9.038999557495117
 20
-134.6999969482422
 30
3.655999898910522
 70
   192
  0
VERTEX
  5
63B
  8
0
 10
-8.520000457763672
 20
-134.6399993896484
 30
-4.735000133514404
 70
   192
  0
VERTEX
  5
63C
  8
0
 10
-9.029000282287598
 20
-135.1940002441406
 30
3.680000066757202
 70
   192
  0
VERTEX
  5
63D
  8
0
 10
-8.24899959564209
 20
-136.6450042724609
 30
4.736999988555908
 70
   192
  0
VERTEX
  5
63E
  8
0
 10
-4.875
 20
-119.1999969482422
 30
-8.444000244140625
 70
   192
  0
VERTEX
  5
63F
  8
0
 10
-4.586999893188477
 20
-129.5279998779297
 30
-8.111000061035156
 70
   192
  0
VERTEX
  5
640
  8
0
 10
-3.437999963760376
 20
-128.9129943847656
 30
-9.12399959564209
 70
   192
  0
VERTEX
  5
641
  8
0
 10
-4.421000003814697
 20
-129.4400024414062
 30
-8.256999969482422
 70
   192
  0
VERTEX
  5
642
  8
0
 10
8.253999710083008
 20
-137.7100067138672
 30
-5.190000057220459
 70
   192
  0
VERTEX
  5
643
  8
0
 10
8.322999954223633
 20
-137.8500061035156
 30
-4.848999977111816
 70
   192
  0
VERTEX
  5
644
  8
0
 10
8.444000244140625
 20
-119.1999969482422
 30
-4.875
 70
   192
  0
VERTEX
  5
645
  8
0
 10
8.442000389099121
 20
-132.5090026855469
 30
-4.874000072479248
 70
   192
  0
VERTEX
  5
646
  8
0
 10
1.327999949455261
 20
-134.2059936523438
 30
-9.659000396728516
 70
   192
  0
VERTEX
  5
647
  8
0
 10
8.361000061035156
 20
-134.7599945068359
 30
-5.011000156402588
 70
   192
  0
VERTEX
  5
648
  8
0
 10
1.353999972343445
 20
-134.6999969482422
 30
-9.656000137329102
 70
   192
  0
VERTEX
  5
649
  8
0
 10
-3.233999967575073
 20
-140.4239959716797
 30
-9.197999954223633
 70
   192
  0
VERTEX
  5
64A
  8
0
 10
-4.585999965667725
 20
-139.8719940185547
 30
-8.088000297546387
 70
   192
  0
VERTEX
  5
64B
  8
0
 10
-4.451000213623047
 20
-139.927001953125
 30
-8.199000358581543
 70
   192
  0
VERTEX
  5
64C
  8
0
 10
8.444000244140625
 20
-142.1999969482422
 30
-4.875
 70
   192
  0
VERTEX
  5
64D
  8
0
 10
9.583000183105469
 20
-128.9759979248047
 30
1.797999978065491
 70
   192
  0
VERTEX
  5
64E
  8
0
 10
9.326000213623047
 20
-129.4730072021484
 30
0.2450000047683716
 70
   192
  0
VERTEX
  5
64F
  8
0
 10
8.494000434875488
 20
-131.0829925537109
 30
-4.787000179290771
 70
   192
  0
VERTEX
  5
650
  8
0
 10
7.701000213623047
 20
-135.1940002441406
 30
5.980000019073486
 70
   192
  0
VERTEX
  5
651
  8
0
 10
7.684999942779541
 20
-134.6999969482422
 30
6.0
 70
   192
  0
VERTEX
  5
652
  8
0
 10
9.619999885559082
 20
-140.4869995117188
 30
1.585000038146973
 70
   192
  0
VERTEX
  5
653
  8
0
 10
9.361000061035156
 20
-139.9600067138672
 30
0.2989999949932098
 70
   192
  0
VERTEX
  5
654
  8
0
 62
     9
 10
0.0
 20
0.0
 30
0.0
 70
   128
 71
     3
 72
     2
 73
     1
  0
VERTEX
  5
655
  8
0
 62
     9
 10
0.0
 20
0.0
 30
0.0
 70
   128
 71
     2
 72
     4
 73
     1
  0
VERTEX
  5
656
  8
0
 62
     9
 10
0.0
 20
0.0
 30
0.0
 70
   128
 71
     6
 72
     5
 73
     1
  0
VERTEX
  5
657
  8
0
 62
     9
 10
0.0
 20
0.0
 30
0.0
 70
   128
 71
     1
 72
     7
 73
     6
  0
VERTEX
  5
658
  8
0
 62
     9
 10
0.0
 20
0.0
 30
0.0
 70
   128
 71
     9
 72
     8
 73
     5
  0
VERTEX
  5
659
  8
0
 62
     9
 10
0.0
 20
0.0
 30
0.0
 70
   128
 71
     5
 72
    10
 73
     9
  0
VERTEX
  5
65A
  8
0
 62
     9
 10
0.0
 20
0.0
 30
0.0
 70
   128
 71
     5
 72
     6
 73
    10
  0
VERTEX
  5
65B
  8
0
 62
     9
 10
0.0
 20
0.0
 30
0.0
 70
   128
 71
     1
 72
     4
 73
     7
  0
VERTEX
  5
65C
  8
0
 62
     9
 10
0.0
 20
0.0
 30
0.0
 70
   128
 71
     9
 72
    11
 73
     8
  0
VERTEX
  5
65D
  8
0
 62
     9
 10
0.0
 20
0.0
 30
0.0
 70
   128
 71
     1
 72
    12
 73
     3
  0
VERTEX
  5
65E
  8
0
 62
     9
 10
0.0
 20
0.0
 30
0.0
 70
   128
 71
    14
 72
    12
 73
    13
  0
VERTEX
  5
65F
  8
0
 62
     9
 10
0.0
 20
0.0
 30
0.0
 70
   128
 71
    11
 72
    16
 73
    15
  0
VERTEX
  5
660
  8
0
 62
     9
 10
0.0
 20
0.0
 30
0.0
 70
   128
 71
    16
 72
    18
 73
    17
  0
VERTEX
  5
661
  8
0
 62
     9
 10
0.0
 20
0.0
 30
0.0
 70
   128
 71
    17
 72
    15
 73
    16
  0
VERTEX
  5
662
  8
0
 62
     9
 10
0.0
 20
0.0
 30
0.0
 70
   128
 71
    19
 72
    12
 73
    14
  0
VERTEX
  5
663
  8
0
 62
     9
 10
0.0
 20
0.0
 30
0.0
 70
   128
 71
    14
 72
    18
 73
    19
  0
VERTEX
  5
664
  8
0
 62
     9
 10
0.0
 20
0.0
 30
0.0
 70
   128
 71
    18
 72
    14
 73
    17
  0
VERTEX
  5
665
  8
0
 62
     9
 10
0.0
 20
0.0
 30
0.0
 70
   128
 71
    15
 72
     8
 73
    11
  0
VERTEX
  5
666
  8
0
 62
     9
 10
0.0
 20
0.0
 30
0.0
 70
   128
 71
    21
 72
    20
 73
     8
  0
VERTEX
  5
667
  8
0
 62
     9
 10
0.0
 20
0.0
 30
0.0
 70
   128
 71
     8
 72
    15
 73
    21
  0
VERTEX
  5
668
  8
0
 62
     9
 10
0.0
 20
0.0
 30
0.0
 70
   128
 71
    23
 72
    22
 73
    20
  0
VERTEX
  5
669
  8
0
 62
     9
 10
0.0
 20
0.0
 30
0.0
 70
   128
 71
    25
 72
    24
 73
    13
  0
VERTEX
  5
66A
  8
0
 62
     9
 10
0.0
 20
0.0
 30
0.0
 70
   128
 71
    28
 72
    27
 73
    26
  0
VERTEX
  5
66B
  8
0
 62
     9
 10
0.0
 20
0.0
 30
0.0
 70
   128
 71
    26
 72
    22
 73
    28
  0
VERTEX
  5
66C
  8
0
 62
     9
 10
0.0
 20
0.0
 30
0.0
 70
   128
 71
    30
 72
    24
 73
    29
  0
VERTEX
  5
66D
  8
0
 62
     9
 10
0.0
 20
0.0
 30
0.0
 70
   128
 71
    29
 72
    27
 73
    28
  0
VERTEX
  5
66E
  8
0
 62
     9
 10
0.0
 20
0.0
 30
0.0
 70
   128
 71
    29
 72
    28
 73
    30
  0
VERTEX
  5
66F
  8
0
 62
     9
 10
0.0
 20
0.0
 30
0.0
 70
   128
 71
    31
 72
    13
 73
    24
  0
VERTEX
  5
670
  8
0
 62
     9
 10
0.0
 20
0.0
 30
0.0
 70
   128
 71
    24
 72
    30
 73
    31
  0
VERTEX
  5
671
  8
0
 62
     9
 10
0.0
 20
0.0
 30
0.0
 70
   128
 71
    26
 72
    20
 73
    22
  0
VERTEX
  5
672
  8
0
 62
     9
 10
0.0
 20
0.0
 30
0.0
 70
   128
 71
    33
 72
    32
 73
    13
  0
VERTEX
  5
673
  8
0
 62
     9
 10
0.0
 20
0.0
 30
0.0
 70
   128
 71
    13
 72
    31
 73
    33
  0
VERTEX
  5
674
  8
0
 62
     9
 10
0.0
 20
0.0
 30
0.0
 70
   128
 71
    13
 72
    34
 73
    25
  0
VERTEX
  5
675
  8
0
 62
     9
 10
0.0
 20
0.0
 30
0.0
 70
   128
 71
    35
 72
     5
 73
    26
  0
VERTEX
  5
676
  8
0
 62
     9
 10
0.0
 20
0.0
 30
0.0
 70
   128
 71
    26
 72
    36
 73
    35
  0
VERTEX
  5
677
  8
0
 62
     9
 10
0.0
 20
0.0
 30
0.0
 70
   128
 71
    26
 72
    37
 73
    36
  0
VERTEX
  5
678
  8
0
 62
     9
 10
0.0
 20
0.0
 30
0.0
 70
   128
 71
    39
 72
    38
 73
     1
  0
VERTEX
  5
679
  8
0
 62
     9
 10
0.0
 20
0.0
 30
0.0
 70
   128
 71
    38
 72
    40
 73
     1
  0
VERTEX
  5
67A
  8
0
 62
     9
 10
0.0
 20
0.0
 30
0.0
 70
   128
 71
     1
 72
     5
 73
    39
  0
VERTEX
  5
67B
  8
0
 62
     9
 10
0.0
 20
0.0
 30
0.0
 70
   128
 71
     5
 72
    35
 73
    39
  0
VERTEX
  5
67C
  8
0
 62
     9
 10
0.0
 20
0.0
 30
0.0
 70
   128
 71
    41
 72
    25
 73
    34
  0
VERTEX
  5
67D
  8
0
 62
     9
 10
0.0
 20
0.0
 30
0.0
 70
   128
 71
    34
 72
    40
 73
    41
  0
VERTEX
  5
67E
  8
0
 62
     9
 10
0.0
 20
0.0
 30
0.0
 70
   128
 71
    34
 72
     1
 73
    40
  0
VERTEX
  5
67F
  8
0
 62
     9
 10
0.0
 20
0.0
 30
0.0
 70
   128
 71
    26
 72
    27
 73
    37
  0
VERTEX
  5
680
  8
0
 62
     9
 10
0.0
 20
0.0
 30
0.0
 70
   128
 71
    20
 72
    21
 73
    23
  0
VERTEX
  5
681
  8
0
 62
     9
 10
0.0
 20
0.0
 30
0.0
 70
   128
 71
    13
 72
    32
 73
    14
  0
VERTEX
  5
682
  8
0
 62
     9
 10
0.0
 20
0.0
 30
0.0
 70
   128
 71
    12
 72
    19
 73
     3
  0
SEQEND
  5
683
  8
0
 62
     9
  0
ENDBLK
  5
686
  8
0
  0
BLOCK
  8
0
  2
E3_NODE_55_
 70
     0
 10
0.0
 20
0.0
 30
0.0
  3
E3_NODE_55_
  1

  0
POLYLINE
  5
688
  8
0
 62
     9
 66
     1
 10
0.0
 20
0.0
 30
0.0
 70
    64
 71
     4
 72
     2
  0
VERTEX
  5
689
  8
0
 10
-4.875
 20
-142.1999969482422
 30
-8.444000244140625
 70
   192
  0
VERTEX
  5
68A
  8
0
 10
8.444000244140625
 20
-142.1999969482422
 30
-4.875
 70
   192
  0
VERTEX
  5
68B
  8
0
 10
4.875
 20
-142.1999969482422
 30
8.444000244140625
 70
   192
  0
VERTEX
  5
68C
  8
0
 10
-8.444000244140625
 20
-142.1999969482422
 30
4.875
 70
   192
  0
VERTEX
  5
68D
  8
0
 62
     9
 10
0.0
 20
0.0
 30
0.0
 70
   128
 71
     3
 72
     2
 73
     1
  0
VERTEX
  5
68E
  8
0
 62
     9
 10
0.0
 20
0.0
 30
0.0
 70
   128
 71
     1
 72
     4
 73
     3
  0
SEQEND
  5
68F
  8
0
 62
     9
  0
ENDBLK
  5
692
  8
0
  0
BLOCK
  8
0
  2
E3_NODE_56_
 70
     0
 10
0.0
 20
0.0
 30
0.0
  3
E3_NODE_56_
  1

  0
POLYLINE
  5
694
  8
0
 62
     9
 66
     1
 10
0.0
 20
0.0
 30
0.0
 70
    64
 71
    15
 72
    15
  0
VERTEX
  5
695
  8
0
 10
-23.94599914550781
 20
-134.6999969482422
 30
29.47599983215332
 70
   192
  0
VERTEX
  5
696
  8
0
 10
-8.24899959564209
 20
-136.6450042724609
 30
4.736999988555908
 70
   192
  0
VERTEX
  5
697
  8
0
 10
-6.183000087738037
 20
-140.4869995117188
 30
7.539000034332275
 70
   192
  0
VERTEX
  5
698
  8
0
 10
-9.038999557495117
 20
-134.6999969482422
 30
3.655999898910522
 70
   192
  0
VERTEX
  5
699
  8
0
 10
-9.029000282287598
 20
-135.1940002441406
 30
3.680000066757202
 70
   192
  0
VERTEX
  5
69A
  8
0
 10
-18.75
 20
-140.6999969482422
 30
32.47600173950195
 70
   192
  0
VERTEX
  5
69B
  8
0
 10
-13.55399990081787
 20
-134.6999969482422
 30
35.47600173950195
 70
   192
  0
VERTEX
  5
69C
  8
0
 10
-4.940000057220459
 20
-139.9600067138672
 30
7.956999778747559
 70
   192
  0
VERTEX
  5
69D
  8
0
 10
0.3680000007152557
 20
-137.7100067138672
 30
9.743000030517578
 70
   192
  0
VERTEX
  5
69E
  8
0
 10
-0.101000003516674
 20
-131.0829925537109
 30
9.74899959564209
 70
   192
  0
VERTEX
  5
69F
  8
0
 10
-4.875
 20
-129.4730072021484
 30
7.953999996185303
 70
   192
  0
VERTEX
  5
6A0
  8
0
 10
0.1589999943971634
 20
-134.7599945068359
 30
9.746000289916992
 70
   192
  0
VERTEX
  5
6A1
  8
0
 10
-18.75
 20
-128.6999969482422
 30
32.47600173950195
 70
   192
  0
VERTEX
  5
6A2
  8
0
 10
-6.348999977111816
 20
-128.9759979248047
 30
7.400000095367432
 70
   192
  0
VERTEX
  5
6A3
  8
0
 10
-8.255999565124512
 20
-133.0339965820312
 30
4.745999813079834
 70
   192
  0
VERTEX
  5
6A4
  8
0
 62
     9
 10
0.0
 20
0.0
 30
0.0
 70
   128
 71
     3
 72
     2
 73
     1
  0
VERTEX
  5
6A5
  8
0
 62
     9
 10
0.0
 20
0.0
 30
0.0
 70
   128
 71
     5
 72
     4
 73
     1
  0
VERTEX
  5
6A6
  8
0
 62
     9
 10
0.0
 20
0.0
 30
0.0
 70
   128
 71
     1
 72
     2
 73
     5
  0
VERTEX
  5
6A7
  8
0
 62
     9
 10
0.0
 20
0.0
 30
0.0
 70
   128
 71
     1
 72
     6
 73
     3
  0
VERTEX
  5
6A8
  8
0
 62
     9
 10
0.0
 20
0.0
 30
0.0
 70
   128
 71
     8
 72
     6
 73
     7
  0
VERTEX
  5
6A9
  8
0
 62
     9
 10
0.0
 20
0.0
 30
0.0
 70
   128
 71
     7
 72
     9
 73
     8
  0
VERTEX
  5
6AA
  8
0
 62
     9
 10
0.0
 20
0.0
 30
0.0
 70
   128
 71
    11
 72
    10
 73
     7
  0
VERTEX
  5
6AB
  8
0
 62
     9
 10
0.0
 20
0.0
 30
0.0
 70
   128
 71
    10
 72
    12
 73
     7
  0
VERTEX
  5
6AC
  8
0
 62
     9
 10
0.0
 20
0.0
 30
0.0
 70
   128
 71
    14
 72
    13
 73
     1
  0
VERTEX
  5
6AD
  8
0
 62
     9
 10
0.0
 20
0.0
 30
0.0
 70
   128
 71
     1
 72
    15
 73
    14
  0
VERTEX
  5
6AE
  8
0
 62
     9
 10
0.0
 20
0.0
 30
0.0
 70
   128
 71
    14
 72
    11
 73
    13
  0
VERTEX
  5
6AF
  8
0
 62
     9
 10
0.0
 20
0.0
 30
0.0
 70
   128
 71
     1
 72
     4
 73
    15
  0
VERTEX
  5
6B0
  8
0
 62
     9
 10
0.0
 20
0.0
 30
0.0
 70
   128
 71
     7
 72
    13
 73
    11
  0
VERTEX
  5
6B1
  8
0
 62
     9
 10
0.0
 20
0.0
 30
0.0
 70
   128
 71
     7
 72
    12
 73
     9
  0
VERTEX
  5
6B2
  8
0
 62
     9
 10
0.0
 20
0.0
 30
0.0
 70
   128
 71
     6
 72
     8
 73
     3
  0
SEQEND
  5
6B3
  8
0
 62
     9
  0
ENDBLK
  5
6B6
  8
0
  0
BLOCK
  8
0
  2
E3_NODE_57_
 70
     0
 10
0.0
 20
0.0
 30
0.0
  3
E3_NODE_57_
  1

  0
POLYLINE
  5
6B8
  8
0
 62
     9
 66
     1
 10
0.0
 20
0.0
 30
0.0
 70
    64
 71
     4
 72
     2
  0
VERTEX
  5
6B9
  8
0
 10
-13.55399990081787
 20
-134.6999969482422
 30
35.47600173950195
 70
   192
  0
VERTEX
  5
6BA
  8
0
 10
-18.75
 20
-128.6999969482422
 30
32.47600173950195
 70
   192
  0
VERTEX
  5
6BB
  8
0
 10
-23.94599914550781
 20
-134.6999969482422
 30
29.47599983215332
 70
   192
  0
VERTEX
  5
6BC
  8
0
 10
-18.75
 20
-140.6999969482422
 30
32.47600173950195
 70
   192
  0
VERTEX
  5
6BD
  8
0
 62
     9
 10
0.0
 20
0.0
 30
0.0
 70
   128
 71
     3
 72
     2
 73
     1
  0
VERTEX
  5
6BE
  8
0
 62
     9
 10
0.0
 20
0.0
 30
0.0
 70
   128
 71
     1
 72
     4
 73
     3
  0
SEQEND
  5
6BF
  8
0
 62
     9
  0
ENDBLK
  5
6C2
  8
0
  0
BLOCK
  8
0
  2
E3_NODE_58_
 70
     0
 10
0.0
 20
0.0
 30
0.0
  3
E3_NODE_58_
  1

  0
POLYLINE
  5
6C4
  8
0
 62
     9
 66
     1
 10
0.0
 20
0.0
 30
0.0
 70
    64
 71
    15
 72
    15
  0
VERTEX
  5
6C5
  8
0
 10
-13.55399990081787
 20
-134.6999969482422
 30
-35.47600173950195
 70
   192
  0
VERTEX
  5
6C6
  8
0
 10
1.353999972343445
 20
-134.6999969482422
 30
-9.656000137329102
 70
   192
  0
VERTEX
  5
6C7
  8
0
 10
-3.233999967575073
 20
-140.4239959716797
 30
-9.197999954223633
 70
   192
  0
VERTEX
  5
6C8
  8
0
 10
-18.75
 20
-140.6999969482422
 30
-32.47600173950195
 70
   192
  0
VERTEX
  5
6C9
  8
0
 10
-23.94599914550781
 20
-134.6999969482422
 30
-29.47599983215332
 70
   192
  0
VERTEX
  5
6CA
  8
0
 10
-4.585999965667725
 20
-139.8719940185547
 30
-8.088000297546387
 70
   192
  0
VERTEX
  5
6CB
  8
0
 10
-8.392999649047852
 20
-138.3170013427734
 30
-4.961999893188477
 70
   192
  0
VERTEX
  5
6CC
  8
0
 10
-4.451000213623047
 20
-139.927001953125
 30
-8.199000358581543
 70
   192
  0
VERTEX
  5
6CD
  8
0
 10
-4.586999893188477
 20
-129.5279998779297
 30
-8.111000061035156
 70
   192
  0
VERTEX
  5
6CE
  8
0
 10
-4.421000003814697
 20
-129.4400024414062
 30
-8.256999969482422
 70
   192
  0
VERTEX
  5
6CF
  8
0
 10
-8.520000457763672
 20
-134.6399993896484
 30
-4.735000133514404
 70
   192
  0
VERTEX
  5
6D0
  8
0
 10
-8.621999740600586
 20
-131.6900024414062
 30
-4.552999973297119
 70
   192
  0
VERTEX
  5
6D1
  8
0
 10
-18.75
 20
-128.6999969482422
 30
-32.47600173950195
 70
   192
  0
VERTEX
  5
6D2
  8
0
 10
-3.437999963760376
 20
-128.9129943847656
 30
-9.12399959564209
 70
   192
  0
VERTEX
  5
6D3
  8
0
 10
1.327999949455261
 20
-134.2059936523438
 30
-9.659000396728516
 70
   192
  0
VERTEX
  5
6D4
  8
0
 62
     9
 10
0.0
 20
0.0
 30
0.0
 70
   128
 71
     3
 72
     2
 73
     1
  0
VERTEX
  5
6D5
  8
0
 62
     9
 10
0.0
 20
0.0
 30
0.0
 70
   128
 71
     1
 72
     4
 73
     3
  0
VERTEX
  5
6D6
  8
0
 62
     9
 10
0.0
 20
0.0
 30
0.0
 70
   128
 71
     7
 72
     6
 73
     5
  0
VERTEX
  5
6D7
  8
0
 62
     9
 10
0.0
 20
0.0
 30
0.0
 70
   128
 71
     8
 72
     4
 73
     5
  0
VERTEX
  5
6D8
  8
0
 62
     9
 10
0.0
 20
0.0
 30
0.0
 70
   128
 71
     5
 72
     6
 73
     8
  0
VERTEX
  5
6D9
  8
0
 62
     9
 10
0.0
 20
0.0
 30
0.0
 70
   128
 71
    10
 72
     9
 73
     5
  0
VERTEX
  5
6DA
  8
0
 62
     9
 10
0.0
 20
0.0
 30
0.0
 70
   128
 71
    12
 72
    11
 73
     5
  0
VERTEX
  5
6DB
  8
0
 62
     9
 10
0.0
 20
0.0
 30
0.0
 70
   128
 71
     5
 72
     9
 73
    12
  0
VERTEX
  5
6DC
  8
0
 62
     9
 10
0.0
 20
0.0
 30
0.0
 70
   128
 71
    14
 72
    13
 73
     1
  0
VERTEX
  5
6DD
  8
0
 62
     9
 10
0.0
 20
0.0
 30
0.0
 70
   128
 71
     1
 72
    15
 73
    14
  0
VERTEX
  5
6DE
  8
0
 62
     9
 10
0.0
 20
0.0
 30
0.0
 70
   128
 71
    14
 72
    10
 73
    13
  0
VERTEX
  5
6DF
  8
0
 62
     9
 10
0.0
 20
0.0
 30
0.0
 70
   128
 71
     1
 72
     2
 73
    15
  0
VERTEX
  5
6E0
  8
0
 62
     9
 10
0.0
 20
0.0
 30
0.0
 70
   128
 71
     5
 72
    13
 73
    10
  0
VERTEX
  5
6E1
  8
0
 62
     9
 10
0.0
 20
0.0
 30
0.0
 70
   128
 71
     5
 72
    11
 73
     7
  0
VERTEX
  5
6E2
  8
0
 62
     9
 10
0.0
 20
0.0
 30
0.0
 70
   128
 71
     4
 72
     8
 73
     3
  0
SEQEND
  5
6E3
  8
0
 62
     9
  0
ENDBLK
  5
6E6
  8
0
  0
BLOCK
  8
0
  2
E3_NODE_59_
 70
     0
 10
0.0
 20
0.0
 30
0.0
  3
E3_NODE_59_
  1

  0
POLYLINE
  5
6E8
  8
0
 62
     9
 66
     1
 10
0.0
 20
0.0
 30
0.0
 70
    64
 71
     4
 72
     2
  0
VERTEX
  5
6E9
  8
0
 10
-18.75
 20
-140.6999969482422
 30
-32.47600173950195
 70
   192
  0
VERTEX
  5
6EA
  8
0
 10
-23.94599914550781
 20
-134.6999969482422
 30
-29.47599983215332
 70
   192
  0
VERTEX
  5
6EB
  8
0
 10
-18.75
 20
-128.6999969482422
 30
-32.47600173950195
 70
   192
  0
VERTEX
  5
6EC
  8
0
 10
-13.55399990081787
 20
-134.6999969482422
 30
-35.47600173950195
 70
   192
  0
VERTEX
  5
6ED
  8
0
 62
     9
 10
0.0
 20
0.0
 30
0.0
 70
   128
 71
     3
 72
     2
 73
     1
  0
VERTEX
  5
6EE
  8
0
 62
     9
 10
0.0
 20
0.0
 30
0.0
 70
   128
 71
     1
 72
     4
 73
     3
  0
SEQEND
  5
6EF
  8
0
 62
     9
  0
ENDBLK
  5
6F2
  8
0
  0
BLOCK
  8
0
  2
E3_NODE_60_
 70
     0
 10
0.0
 20
0.0
 30
0.0
  3
E3_NODE_60_
  1

  0
POLYLINE
  5
6F4
  8
0
 62
     9
 66
     1
 10
0.0
 20
0.0
 30
0.0
 70
    64
 71
     5
 72
     3
  0
VERTEX
  5
6F5
  8
0
 10
-80.87100219726562
 20
-56.93000030517578
 30
0.0
 70
   192
  0
VERTEX
  5
6F6
  8
0
 10
-94.0
 20
-75.0
 30
0.0
 70
   192
  0
VERTEX
  5
6F7
  8
0
 10
-80.87100219726562
 20
-93.06999969482422
 30
0.0
 70
   192
  0
VERTEX
  5
6F8
  8
0
 10
-59.62900161743164
 20
-86.16799926757812
 30
0.0
 70
   192
  0
VERTEX
  5
6F9
  8
0
 10
-59.62900161743164
 20
-63.83200073242188
 30
0.0
 70
   192
  0
VERTEX
  5
6FA
  8
0
 62
     9
 10
0.0
 20
0.0
 30
0.0
 70
   128
 71
     3
 72
     2
 73
     1
  0
VERTEX
  5
6FB
  8
0
 62
     9
 10
0.0
 20
0.0
 30
0.0
 70
   128
 71
     1
 72
     4
 73
     3
  0
VERTEX
  5
6FC
  8
0
 62
     9
 10
0.0
 20
0.0
 30
0.0
 70
   128
 71
     1
 72
     5
 73
     4
  0
SEQEND
  5
6FD
  8
0
 62
     9
  0
ENDBLK
  5
700
  8
0
  0
BLOCK
  8
0
  2
E3_NODE_61_
 70
     0
 10
0.0
 20
0.0
 30
0.0
  3
E3_NODE_61_
  1

  0
POLYLINE
  5
702
  8
0
 62
     9
 66
     1
 10
0.0
 20
0.0
 30
0.0
 70
    64
 71
    10
 72
    10
  0
VERTEX
  5
703
  8
0
 10
-80.87100219726562
 20
-93.06999969482422
 30
-739.0
 70
   192
  0
VERTEX
  5
704
  8
0
 10
-80.87100219726562
 20
-93.06999969482422
 30
0.0
 70
   192
  0
VERTEX
  5
705
  8
0
 10
-94.0
 20
-75.0
 30
0.0
 70
   192
  0
VERTEX
  5
706
  8
0
 10
-59.62900161743164
 20
-86.16799926757812
 30
-739.0
 70
   192
  0
VERTEX
  5
707
  8
0
 10
-59.62900161743164
 20
-86.16799926757812
 30
0.0
 70
   192
  0
VERTEX
  5
708
  8
0
 10
-59.62900161743164
 20
-63.83200073242188
 30
-739.0
 70
   192
  0
VERTEX
  5
709
  8
0
 10
-59.62900161743164
 20
-63.83200073242188
 30
0.0
 70
   192
  0
VERTEX
  5
70A
  8
0
 10
-80.87100219726562
 20
-56.93000030517578
 30
0.0
 70
   192
  0
VERTEX
  5
70B
  8
0
 10
-80.87100219726562
 20
-56.93000030517578
 30
-739.0
 70
   192
  0
VERTEX
  5
70C
  8
0
 10
-94.0
 20
-75.0
 30
-739.0
 70
   192
  0
VERTEX
  5
70D
  8
0
 62
     9
 10
0.0
 20
0.0
 30
0.0
 70
   128
 71
     3
 72
     2
 73
     1
  0
VERTEX
  5
70E
  8
0
 62
     9
 10
0.0
 20
0.0
 30
0.0
 70
   128
 71
     2
 72
     5
 73
     4
  0
VERTEX
  5
70F
  8
0
 62
     9
 10
0.0
 20
0.0
 30
0.0
 70
   128
 71
     5
 72
     7
 73
     6
  0
VERTEX
  5
710
  8
0
 62
     9
 10
0.0
 20
0.0
 30
0.0
 70
   128
 71
     6
 72
     7
 73
     8
  0
VERTEX
  5
711
  8
0
 62
     9
 10
0.0
 20
0.0
 30
0.0
 70
   128
 71
     9
 72
     8
 73
     3
  0
VERTEX
  5
712
  8
0
 62
     9
 10
0.0
 20
0.0
 30
0.0
 70
   128
 71
     3
 72
    10
 73
     9
  0
VERTEX
  5
713
  8
0
 62
     9
 10
0.0
 20
0.0
 30
0.0
 70
   128
 71
     8
 72
     9
 73
     6
  0
VERTEX
  5
714
  8
0
 62
     9
 10
0.0
 20
0.0
 30
0.0
 70
   128
 71
     6
 72
     4
 73
     5
  0
VERTEX
  5
715
  8
0
 62
     9
 10
0.0
 20
0.0
 30
0.0
 70
   128
 71
     4
 72
     1
 73
     2
  0
VERTEX
  5
716
  8
0
 62
     9
 10
0.0
 20
0.0
 30
0.0
 70
   128
 71
     1
 72
    10
 73
     3
  0
SEQEND
  5
717
  8
0
 62
     9
  0
ENDBLK
  5
71A
  8
0
  0
BLOCK
  8
0
  2
E3_NODE_62_
 70
     0
 10
0.0
 20
0.0
 30
0.0
  3
E3_NODE_62_
  1

  0
POLYLINE
  5
71C
  8
0
 62
     9
 66
     1
 10
0.0
 20
0.0
 30
0.0
 70
    64
 71
     4
 72
     2
  0
VERTEX
  5
71D
  8
0
 10
115.0
 20
16.0
 30
34.40000152587891
 70
   192
  0
VERTEX
  5
71E
  8
0
 10
131.0
 20
0.0
 30
34.40000152587891
 70
   192
  0
VERTEX
  5
71F
  8
0
 10
115.0
 20
-16.0
 30
34.40000152587891
 70
   192
  0
VERTEX
  5
720
  8
0
 10
99.0
 20
0.0
 30
34.40000152587891
 70
   192
  0
VERTEX
  5
721
  8
0
 62
     9
 10
0.0
 20
0.0
 30
0.0
 70
   128
 71
     3
 72
     2
 73
     1
  0
VERTEX
  5
722
  8
0
 62
     9
 10
0.0
 20
0.0
 30
0.0
 70
   128
 71
     1
 72
     4
 73
     3
  0
SEQEND
  5
723
  8
0
 62
     9
  0
ENDBLK
  5
726
  8
0
  0
BLOCK
  8
0
  2
E3_NODE_63_
 70
     0
 10
0.0
 20
0.0
 30
0.0
  3
E3_NODE_63_
  1

  0
POLYLINE
  5
728
  8
0
 62
     9
 66
     1
 10
0.0
 20
0.0
 30
0.0
 70
    64
 71
    12
 72
    12
  0
VERTEX
  5
729
  8
0
 10
131.0
 20
0.0
 30
34.40000152587891
 70
   192
  0
VERTEX
  5
72A
  8
0
 10
115.0
 20
16.0
 30
34.40000152587891
 70
   192
  0
VERTEX
  5
72B
  8
0
 10
123.0
 20
13.85599994659424
 30
44.40000152587891
 70
   192
  0
VERTEX
  5
72C
  8
0
 10
115.0
 20
13.85599994659424
 30
44.40000152587891
 70
   192
  0
VERTEX
  5
72D
  8
0
 10
131.0
 20
0.0
 30
44.40000152587891
 70
   192
  0
VERTEX
  5
72E
  8
0
 10
123.0
 20
-13.85599994659424
 30
44.40000152587891
 70
   192
  0
VERTEX
  5
72F
  8
0
 10
115.0
 20
-16.0
 30
34.40000152587891
 70
   192
  0
VERTEX
  5
730
  8
0
 10
99.0
 20
0.0
 30
34.40000152587891
 70
   192
  0
VERTEX
  5
731
  8
0
 10
107.0
 20
-13.85599994659424
 30
44.40000152587891
 70
   192
  0
VERTEX
  5
732
  8
0
 10
115.0
 20
-16.0
 30
44.40000152587891
 70
   192
  0
VERTEX
  5
733
  8
0
 10
99.0
 20
0.0
 30
44.40000152587891
 70
   192
  0
VERTEX
  5
734
  8
0
 10
107.0
 20
13.85599994659424
 30
44.40000152587891
 70
   192
  0
VERTEX
  5
735
  8
0
 62
     9
 10
0.0
 20
0.0
 30
0.0
 70
   128
 71
     3
 72
     2
 73
     1
  0
VERTEX
  5
736
  8
0
 62
     9
 10
0.0
 20
0.0
 30
0.0
 70
   128
 71
     3
 72
     4
 73
     2
  0
VERTEX
  5
737
  8
0
 62
     9
 10
0.0
 20
0.0
 30
0.0
 70
   128
 71
     6
 72
     5
 73
     1
  0
VERTEX
  5
738
  8
0
 62
     9
 10
0.0
 20
0.0
 30
0.0
 70
   128
 71
     1
 72
     7
 73
     6
  0
VERTEX
  5
739
  8
0
 62
     9
 10
0.0
 20
0.0
 30
0.0
 70
   128
 71
     9
 72
     7
 73
     8
  0
VERTEX
  5
73A
  8
0
 62
     9
 10
0.0
 20
0.0
 30
0.0
 70
   128
 71
     9
 72
    10
 73
     7
  0
VERTEX
  5
73B
  8
0
 62
     9
 10
0.0
 20
0.0
 30
0.0
 70
   128
 71
    12
 72
    11
 73
     8
  0
VERTEX
  5
73C
  8
0
 62
     9
 10
0.0
 20
0.0
 30
0.0
 70
   128
 71
     8
 72
     2
 73
    12
  0
VERTEX
  5
73D
  8
0
 62
     9
 10
0.0
 20
0.0
 30
0.0
 70
   128
 71
     2
 72
     4
 73
    12
  0
VERTEX
  5
73E
  8
0
 62
     9
 10
0.0
 20
0.0
 30
0.0
 70
   128
 71
     8
 72
    11
 73
     9
  0
VERTEX
  5
73F
  8
0
 62
     9
 10
0.0
 20
0.0
 30
0.0
 70
   128
 71
     7
 72
    10
 73
     6
  0
VERTEX
  5
740
  8
0
 62
     9
 10
0.0
 20
0.0
 30
0.0
 70
   128
 71
     1
 72
     5
 73
     3
  0
SEQEND
  5
741
  8
0
 62
     9
  0
ENDBLK
  5
744
  8
0
  0
BLOCK
  8
0
  2
E3_NODE_64_
 70
     0
 10
0.0
 20
0.0
 30
0.0
  3
E3_NODE_64_
  1

  0
POLYLINE
  5
746
  8
0
 62
     9
 66
     1
 10
0.0
 20
0.0
 30
0.0
 70
    64
 71
    52
 72
    88
  0
VERTEX
  5
747
  8
0
 10
-10.85999965667725
 20
-13.85599994659424
 30
71.3010025024414
 70
   192
  0
VERTEX
  5
748
  8
0
 10
-17.0
 20
-13.85599994659424
 30
44.40000152587891
 70
   192
  0
VERTEX
  5
749
  8
0
 10
-9.0
 20
0.0
 30
44.40000152587891
 70
   192
  0
VERTEX
  5
74A
  8
0
 10
-3.651999950408936
 20
0.0
 30
67.83000183105469
 70
   192
  0
VERTEX
  5
74B
  8
0
 10
11.33199977874756
 20
0.0
 30
86.61900329589844
 70
   192
  0
VERTEX
  5
74C
  8
0
 10
6.343999862670898
 20
-13.85599994659424
 30
92.8740005493164
 70
   192
  0
VERTEX
  5
74D
  8
0
 10
32.98400115966797
 20
0.0
 30
97.0459976196289
 70
   192
  0
VERTEX
  5
74E
  8
0
 10
31.20400047302246
 20
-13.85599994659424
 30
104.8460006713867
 70
   192
  0
VERTEX
  5
74F
  8
0
 10
57.01599884033203
 20
0.0
 30
97.0459976196289
 70
   192
  0
VERTEX
  5
750
  8
0
 10
58.79600143432617
 20
-13.85599994659424
 30
104.8460006713867
 70
   192
  0
VERTEX
  5
751
  8
0
 10
78.66799926757812
 20
0.0
 30
86.61900329589844
 70
   192
  0
VERTEX
  5
752
  8
0
 10
83.65599822998047
 20
-13.85599994659424
 30
92.8740005493164
 70
   192
  0
VERTEX
  5
753
  8
0
 10
93.6520004272461
 20
0.0
 30
67.83000183105469
 70
   192
  0
VERTEX
  5
754
  8
0
 10
100.8600006103516
 20
-13.85599994659424
 30
71.3010025024414
 70
   192
  0
VERTEX
  5
755
  8
0
 10
107.0
 20
-13.85599994659424
 30
44.40000152587891
 70
   192
  0
VERTEX
  5
756
  8
0
 10
-25.0
 20
-16.0
 30
44.40000152587891
 70
   192
  0
VERTEX
  5
757
  8
0
 10
-25.27599906921387
 20
-13.85599994659424
 30
78.24299621582031
 70
   192
  0
VERTEX
  5
758
  8
0
 10
-33.0
 20
-13.85599994659424
 30
44.40000152587891
 70
   192
  0
VERTEX
  5
759
  8
0
 10
-3.631999969482422
 20
-13.85599994659424
 30
105.3830032348633
 70
   192
  0
VERTEX
  5
75A
  8
0
 10
27.64299964904785
 20
-13.85599994659424
 30
120.4440002441406
 70
   192
  0
VERTEX
  5
75B
  8
0
 10
62.35699844360352
 20
-13.85599994659424
 30
120.4440002441406
 70
   192
  0
VERTEX
  5
75C
  8
0
 10
93.63200378417969
 20
-13.85599994659424
 30
105.3830032348633
 70
   192
  0
VERTEX
  5
75D
  8
0
 10
115.2760009765625
 20
-13.85599994659424
 30
78.24299621582031
 70
   192
  0
VERTEX
  5
75E
  8
0
 10
115.0
 20
-16.0
 30
44.40000152587891
 70
   192
  0
VERTEX
  5
75F
  8
0
 10
-41.0
 20
0.0
 30
44.40000152587891
 70
   192
  0
VERTEX
  5
760
  8
0
 10
-8.619999885559082
 20
0.0
 30
111.6380004882812
 70
   192
  0
VERTEX
  5
761
  8
0
 10
25.86300086975098
 20
0.0
 30
128.2440032958984
 70
   192
  0
VERTEX
  5
762
  8
0
 10
64.13700103759766
 20
0.0
 30
128.2440032958984
 70
   192
  0
VERTEX
  5
763
  8
0
 10
98.62000274658203
 20
0.0
 30
111.6380004882812
 70
   192
  0
VERTEX
  5
764
  8
0
 10
122.4830017089844
 20
0.0
 30
81.71399688720703
 70
   192
  0
VERTEX
  5
765
  8
0
 10
131.0
 20
0.0
 30
44.40000152587891
 70
   192
  0
VERTEX
  5
766
  8
0
 10
-32.48300170898438
 20
0.0
 30
81.71399688720703
 70
   192
  0
VERTEX
  5
767
  8
0
 10
-25.27599906921387
 20
13.85599994659424
 30
78.24299621582031
 70
   192
  0
VERTEX
  5
768
  8
0
 10
-3.631999969482422
 20
13.85599994659424
 30
105.3830032348633
 70
   192
  0
VERTEX
  5
769
  8
0
 10
27.64299964904785
 20
13.85599994659424
 30
120.4440002441406
 70
   192
  0
VERTEX
  5
76A
  8
0
 10
62.35699844360352
 20
13.85599994659424
 30
120.4440002441406
 70
   192
  0
VERTEX
  5
76B
  8
0
 10
93.63200378417969
 20
13.85599994659424
 30
105.3830032348633
 70
   192
  0
VERTEX
  5
76C
  8
0
 10
115.2760009765625
 20
13.85599994659424
 30
78.24299621582031
 70
   192
  0
VERTEX
  5
76D
  8
0
 10
123.0
 20
13.85599994659424
 30
44.40000152587891
 70
   192
  0
VERTEX
  5
76E
  8
0
 10
-25.0
 20
13.85599994659424
 30
44.40000152587891
 70
   192
  0
VERTEX
  5
76F
  8
0
 10
-10.85999965667725
 20
13.85599994659424
 30
71.3010025024414
 70
   192
  0
VERTEX
  5
770
  8
0
 10
-17.0
 20
13.85599994659424
 30
44.40000152587891
 70
   192
  0
VERTEX
  5
771
  8
0
 10
6.343999862670898
 20
13.85599994659424
 30
92.8740005493164
 70
   192
  0
VERTEX
  5
772
  8
0
 10
31.20400047302246
 20
13.85599994659424
 30
104.8460006713867
 70
   192
  0
VERTEX
  5
773
  8
0
 10
58.79600143432617
 20
13.85599994659424
 30
104.8460006713867
 70
   192
  0
VERTEX
  5
774
  8
0
 10
83.65599822998047
 20
13.85599994659424
 30
92.8740005493164
 70
   192
  0
VERTEX
  5
775
  8
0
 10
100.8600006103516
 20
13.85599994659424
 30
71.3010025024414
 70
   192
  0
VERTEX
  5
776
  8
0
 10
115.0
 20
13.85599994659424
 30
44.40000152587891
 70
   192
  0
VERTEX
  5
777
  8
0
 10
107.0
 20
13.85599994659424
 30
44.40000152587891
 70
   192
  0
VERTEX
  5
778
  8
0
 10
99.0
 20
0.0
 30
44.40000152587891
 70
   192
  0
VERTEX
  5
779
  8
0
 10
-33.0
 20
13.85599994659424
 30
44.40000152587891
 70
   192
  0
VERTEX
  5
77A
  8
0
 10
123.0
 20
-13.85599994659424
 30
44.40000152587891
 70
   192
  0
VERTEX
  5
77B
  8
0
 62
     9
 10
0.0
 20
0.0
 30
0.0
 70
   128
 71
     3
 72
     2
 73
     1
  0
VERTEX
  5
77C
  8
0
 62
     9
 10
0.0
 20
0.0
 30
0.0
 70
   128
 71
     6
 72
     5
 73
     4
  0
VERTEX
  5
77D
  8
0
 62
     9
 10
0.0
 20
0.0
 30
0.0
 70
   128
 71
     8
 72
     7
 73
     5
  0
VERTEX
  5
77E
  8
0
 62
     9
 10
0.0
 20
0.0
 30
0.0
 70
   128
 71
    10
 72
     9
 73
     7
  0
VERTEX
  5
77F
  8
0
 62
     9
 10
0.0
 20
0.0
 30
0.0
 70
   128
 71
    12
 72
    11
 73
     9
  0
VERTEX
  5
780
  8
0
 62
     9
 10
0.0
 20
0.0
 30
0.0
 70
   128
 71
    14
 72
    13
 73
    11
  0
VERTEX
  5
781
  8
0
 62
     9
 10
0.0
 20
0.0
 30
0.0
 70
   128
 71
    13
 72
    14
 73
    15
  0
VERTEX
  5
782
  8
0
 62
     9
 10
0.0
 20
0.0
 30
0.0
 70
   128
 71
     1
 72
     2
 73
    16
  0
VERTEX
  5
783
  8
0
 62
     9
 10
0.0
 20
0.0
 30
0.0
 70
   128
 71
    16
 72
    18
 73
    17
  0
VERTEX
  5
784
  8
0
 62
     9
 10
0.0
 20
0.0
 30
0.0
 70
   128
 71
    19
 72
     6
 73
     1
  0
VERTEX
  5
785
  8
0
 62
     9
 10
0.0
 20
0.0
 30
0.0
 70
   128
 71
    20
 72
     8
 73
     6
  0
VERTEX
  5
786
  8
0
 62
     9
 10
0.0
 20
0.0
 30
0.0
 70
   128
 71
    21
 72
    10
 73
     8
  0
VERTEX
  5
787
  8
0
 62
     9
 10
0.0
 20
0.0
 30
0.0
 70
   128
 71
    22
 72
    12
 73
    10
  0
VERTEX
  5
788
  8
0
 62
     9
 10
0.0
 20
0.0
 30
0.0
 70
   128
 71
    23
 72
    14
 73
    12
  0
VERTEX
  5
789
  8
0
 62
     9
 10
0.0
 20
0.0
 30
0.0
 70
   128
 71
    14
 72
    23
 73
    24
  0
VERTEX
  5
78A
  8
0
 62
     9
 10
0.0
 20
0.0
 30
0.0
 70
   128
 71
    24
 72
    15
 73
    14
  0
VERTEX
  5
78B
  8
0
 62
     9
 10
0.0
 20
0.0
 30
0.0
 70
   128
 71
    17
 72
    18
 73
    25
  0
VERTEX
  5
78C
  8
0
 62
     9
 10
0.0
 20
0.0
 30
0.0
 70
   128
 71
    26
 72
    19
 73
    17
  0
VERTEX
  5
78D
  8
0
 62
     9
 10
0.0
 20
0.0
 30
0.0
 70
   128
 71
    27
 72
    20
 73
    19
  0
VERTEX
  5
78E
  8
0
 62
     9
 10
0.0
 20
0.0
 30
0.0
 70
   128
 71
    28
 72
    21
 73
    20
  0
VERTEX
  5
78F
  8
0
 62
     9
 10
0.0
 20
0.0
 30
0.0
 70
   128
 71
    29
 72
    22
 73
    21
  0
VERTEX
  5
790
  8
0
 62
     9
 10
0.0
 20
0.0
 30
0.0
 70
   128
 71
    30
 72
    23
 73
    22
  0
VERTEX
  5
791
  8
0
 62
     9
 10
0.0
 20
0.0
 30
0.0
 70
   128
 71
    23
 72
    30
 73
    31
  0
VERTEX
  5
792
  8
0
 62
     9
 10
0.0
 20
0.0
 30
0.0
 70
   128
 71
    33
 72
    32
 73
    25
  0
VERTEX
  5
793
  8
0
 62
     9
 10
0.0
 20
0.0
 30
0.0
 70
   128
 71
    34
 72
    26
 73
    32
  0
VERTEX
  5
794
  8
0
 62
     9
 10
0.0
 20
0.0
 30
0.0
 70
   128
 71
    35
 72
    27
 73
    26
  0
VERTEX
  5
795
  8
0
 62
     9
 10
0.0
 20
0.0
 30
0.0
 70
   128
 71
    36
 72
    28
 73
    27
  0
VERTEX
  5
796
  8
0
 62
     9
 10
0.0
 20
0.0
 30
0.0
 70
   128
 71
    37
 72
    29
 73
    28
  0
VERTEX
  5
797
  8
0
 62
     9
 10
0.0
 20
0.0
 30
0.0
 70
   128
 71
    38
 72
    30
 73
    29
  0
VERTEX
  5
798
  8
0
 62
     9
 10
0.0
 20
0.0
 30
0.0
 70
   128
 71
    38
 72
    39
 73
    31
  0
VERTEX
  5
799
  8
0
 62
     9
 10
0.0
 20
0.0
 30
0.0
 70
   128
 71
    41
 72
    33
 73
    40
  0
VERTEX
  5
79A
  8
0
 62
     9
 10
0.0
 20
0.0
 30
0.0
 70
   128
 71
    40
 72
    42
 73
    41
  0
VERTEX
  5
79B
  8
0
 62
     9
 10
0.0
 20
0.0
 30
0.0
 70
   128
 71
    43
 72
    34
 73
    33
  0
VERTEX
  5
79C
  8
0
 62
     9
 10
0.0
 20
0.0
 30
0.0
 70
   128
 71
    44
 72
    35
 73
    34
  0
VERTEX
  5
79D
  8
0
 62
     9
 10
0.0
 20
0.0
 30
0.0
 70
   128
 71
    45
 72
    36
 73
    35
  0
VERTEX
  5
79E
  8
0
 62
     9
 10
0.0
 20
0.0
 30
0.0
 70
   128
 71
    46
 72
    37
 73
    36
  0
VERTEX
  5
79F
  8
0
 62
     9
 10
0.0
 20
0.0
 30
0.0
 70
   128
 71
    47
 72
    38
 73
    37
  0
VERTEX
  5
7A0
  8
0
 62
     9
 10
0.0
 20
0.0
 30
0.0
 70
   128
 71
    47
 72
    49
 73
    48
  0
VERTEX
  5
7A1
  8
0
 62
     9
 10
0.0
 20
0.0
 30
0.0
 70
   128
 71
    48
 72
    39
 73
    38
  0
VERTEX
  5
7A2
  8
0
 62
     9
 10
0.0
 20
0.0
 30
0.0
 70
   128
 71
     4
 72
    41
 73
    42
  0
VERTEX
  5
7A3
  8
0
 62
     9
 10
0.0
 20
0.0
 30
0.0
 70
   128
 71
     5
 72
    43
 73
    41
  0
VERTEX
  5
7A4
  8
0
 62
     9
 10
0.0
 20
0.0
 30
0.0
 70
   128
 71
     7
 72
    44
 73
    43
  0
VERTEX
  5
7A5
  8
0
 62
     9
 10
0.0
 20
0.0
 30
0.0
 70
   128
 71
     9
 72
    45
 73
    44
  0
VERTEX
  5
7A6
  8
0
 62
     9
 10
0.0
 20
0.0
 30
0.0
 70
   128
 71
    11
 72
    46
 73
    45
  0
VERTEX
  5
7A7
  8
0
 62
     9
 10
0.0
 20
0.0
 30
0.0
 70
   128
 71
    13
 72
    47
 73
    46
  0
VERTEX
  5
7A8
  8
0
 62
     9
 10
0.0
 20
0.0
 30
0.0
 70
   128
 71
    50
 72
    49
 73
    47
  0
VERTEX
  5
7A9
  8
0
 62
     9
 10
0.0
 20
0.0
 30
0.0
 70
   128
 71
    47
 72
    13
 73
    50
  0
VERTEX
  5
7AA
  8
0
 62
     9
 10
0.0
 20
0.0
 30
0.0
 70
   128
 71
    46
 72
    11
 73
    13
  0
VERTEX
  5
7AB
  8
0
 62
     9
 10
0.0
 20
0.0
 30
0.0
 70
   128
 71
    45
 72
     9
 73
    11
  0
VERTEX
  5
7AC
  8
0
 62
     9
 10
0.0
 20
0.0
 30
0.0
 70
   128
 71
    44
 72
     7
 73
     9
  0
VERTEX
  5
7AD
  8
0
 62
     9
 10
0.0
 20
0.0
 30
0.0
 70
   128
 71
    43
 72
     5
 73
     7
  0
VERTEX
  5
7AE
  8
0
 62
     9
 10
0.0
 20
0.0
 30
0.0
 70
   128
 71
    41
 72
     4
 73
     5
  0
VERTEX
  5
7AF
  8
0
 62
     9
 10
0.0
 20
0.0
 30
0.0
 70
   128
 71
    42
 72
     3
 73
     4
  0
VERTEX
  5
7B0
  8
0
 62
     9
 10
0.0
 20
0.0
 30
0.0
 70
   128
 71
    48
 72
    38
 73
    47
  0
VERTEX
  5
7B1
  8
0
 62
     9
 10
0.0
 20
0.0
 30
0.0
 70
   128
 71
    37
 72
    46
 73
    47
  0
VERTEX
  5
7B2
  8
0
 62
     9
 10
0.0
 20
0.0
 30
0.0
 70
   128
 71
    36
 72
    45
 73
    46
  0
VERTEX
  5
7B3
  8
0
 62
     9
 10
0.0
 20
0.0
 30
0.0
 70
   128
 71
    35
 72
    44
 73
    45
  0
VERTEX
  5
7B4
  8
0
 62
     9
 10
0.0
 20
0.0
 30
0.0
 70
   128
 71
    34
 72
    43
 73
    44
  0
VERTEX
  5
7B5
  8
0
 62
     9
 10
0.0
 20
0.0
 30
0.0
 70
   128
 71
    33
 72
    41
 73
    43
  0
VERTEX
  5
7B6
  8
0
 62
     9
 10
0.0
 20
0.0
 30
0.0
 70
   128
 71
    33
 72
    51
 73
    40
  0
VERTEX
  5
7B7
  8
0
 62
     9
 10
0.0
 20
0.0
 30
0.0
 70
   128
 71
    31
 72
    30
 73
    38
  0
VERTEX
  5
7B8
  8
0
 62
     9
 10
0.0
 20
0.0
 30
0.0
 70
   128
 71
    29
 72
    37
 73
    38
  0
VERTEX
  5
7B9
  8
0
 62
     9
 10
0.0
 20
0.0
 30
0.0
 70
   128
 71
    28
 72
    36
 73
    37
  0
VERTEX
  5
7BA
  8
0
 62
     9
 10
0.0
 20
0.0
 30
0.0
 70
   128
 71
    27
 72
    35
 73
    36
  0
VERTEX
  5
7BB
  8
0
 62
     9
 10
0.0
 20
0.0
 30
0.0
 70
   128
 71
    26
 72
    34
 73
    35
  0
VERTEX
  5
7BC
  8
0
 62
     9
 10
0.0
 20
0.0
 30
0.0
 70
   128
 71
    32
 72
    33
 73
    34
  0
VERTEX
  5
7BD
  8
0
 62
     9
 10
0.0
 20
0.0
 30
0.0
 70
   128
 71
    25
 72
    51
 73
    33
  0
VERTEX
  5
7BE
  8
0
 62
     9
 10
0.0
 20
0.0
 30
0.0
 70
   128
 71
    31
 72
    52
 73
    23
  0
VERTEX
  5
7BF
  8
0
 62
     9
 10
0.0
 20
0.0
 30
0.0
 70
   128
 71
    22
 72
    29
 73
    30
  0
VERTEX
  5
7C0
  8
0
 62
     9
 10
0.0
 20
0.0
 30
0.0
 70
   128
 71
    21
 72
    28
 73
    29
  0
VERTEX
  5
7C1
  8
0
 62
     9
 10
0.0
 20
0.0
 30
0.0
 70
   128
 71
    20
 72
    27
 73
    28
  0
VERTEX
  5
7C2
  8
0
 62
     9
 10
0.0
 20
0.0
 30
0.0
 70
   128
 71
    19
 72
    26
 73
    27
  0
VERTEX
  5
7C3
  8
0
 62
     9
 10
0.0
 20
0.0
 30
0.0
 70
   128
 71
    17
 72
    32
 73
    26
  0
VERTEX
  5
7C4
  8
0
 62
     9
 10
0.0
 20
0.0
 30
0.0
 70
   128
 71
    25
 72
    32
 73
    17
  0
VERTEX
  5
7C5
  8
0
 62
     9
 10
0.0
 20
0.0
 30
0.0
 70
   128
 71
    23
 72
    52
 73
    24
  0
VERTEX
  5
7C6
  8
0
 62
     9
 10
0.0
 20
0.0
 30
0.0
 70
   128
 71
    12
 72
    22
 73
    23
  0
VERTEX
  5
7C7
  8
0
 62
     9
 10
0.0
 20
0.0
 30
0.0
 70
   128
 71
    10
 72
    21
 73
    22
  0
VERTEX
  5
7C8
  8
0
 62
     9
 10
0.0
 20
0.0
 30
0.0
 70
   128
 71
     8
 72
    20
 73
    21
  0
VERTEX
  5
7C9
  8
0
 62
     9
 10
0.0
 20
0.0
 30
0.0
 70
   128
 71
     6
 72
    19
 73
    20
  0
VERTEX
  5
7CA
  8
0
 62
     9
 10
0.0
 20
0.0
 30
0.0
 70
   128
 71
     1
 72
    17
 73
    19
  0
VERTEX
  5
7CB
  8
0
 62
     9
 10
0.0
 20
0.0
 30
0.0
 70
   128
 71
    16
 72
    17
 73
     1
  0
VERTEX
  5
7CC
  8
0
 62
     9
 10
0.0
 20
0.0
 30
0.0
 70
   128
 71
    15
 72
    50
 73
    13
  0
VERTEX
  5
7CD
  8
0
 62
     9
 10
0.0
 20
0.0
 30
0.0
 70
   128
 71
    11
 72
    12
 73
    14
  0
VERTEX
  5
7CE
  8
0
 62
     9
 10
0.0
 20
0.0
 30
0.0
 70
   128
 71
     9
 72
    10
 73
    12
  0
VERTEX
  5
7CF
  8
0
 62
     9
 10
0.0
 20
0.0
 30
0.0
 70
   128
 71
     7
 72
     8
 73
    10
  0
VERTEX
  5
7D0
  8
0
 62
     9
 10
0.0
 20
0.0
 30
0.0
 70
   128
 71
     5
 72
     6
 73
     8
  0
VERTEX
  5
7D1
  8
0
 62
     9
 10
0.0
 20
0.0
 30
0.0
 70
   128
 71
     4
 72
     1
 73
     6
  0
VERTEX
  5
7D2
  8
0
 62
     9
 10
0.0
 20
0.0
 30
0.0
 70
   128
 71
     1
 72
     4
 73
     3
  0
SEQEND
  5
7D3
  8
0
 62
     9
  0
ENDBLK
  5
7D6
  8
0
  0
BLOCK
  8
0
  2
E3_NODE_65_
 70
     0
 10
0.0
 20
0.0
 30
0.0
  3
E3_NODE_65_
  1

  0
POLYLINE
  5
7D8
  8
0
 62
     9
 66
     1
 10
0.0
 20
0.0
 30
0.0
 70
    64
 71
    12
 72
    12
  0
VERTEX
  5
7D9
  8
0
 10
-9.0
 20
0.0
 30
33.0
 70
   192
  0
VERTEX
  5
7DA
  8
0
 10
-9.0
 20
0.0
 30
44.40000152587891
 70
   192
  0
VERTEX
  5
7DB
  8
0
 10
-17.0
 20
-13.85599994659424
 30
44.40000152587891
 70
   192
  0
VERTEX
  5
7DC
  8
0
 10
-25.0
 20
-16.0
 30
33.0
 70
   192
  0
VERTEX
  5
7DD
  8
0
 10
-25.0
 20
16.0
 30
33.0
 70
   192
  0
VERTEX
  5
7DE
  8
0
 10
-17.0
 20
13.85599994659424
 30
44.40000152587891
 70
   192
  0
VERTEX
  5
7DF
  8
0
 10
-25.0
 20
13.85599994659424
 30
44.40000152587891
 70
   192
  0
VERTEX
  5
7E0
  8
0
 10
-41.0
 20
0.0
 30
33.0
 70
   192
  0
VERTEX
  5
7E1
  8
0
 10
-41.0
 20
0.0
 30
44.40000152587891
 70
   192
  0
VERTEX
  5
7E2
  8
0
 10
-33.0
 20
13.85599994659424
 30
44.40000152587891
 70
   192
  0
VERTEX
  5
7E3
  8
0
 10
-33.0
 20
-13.85599994659424
 30
44.40000152587891
 70
   192
  0
VERTEX
  5
7E4
  8
0
 10
-25.0
 20
-16.0
 30
44.40000152587891
 70
   192
  0
VERTEX
  5
7E5
  8
0
 62
     9
 10
0.0
 20
0.0
 30
0.0
 70
   128
 71
     3
 72
     2
 73
     1
  0
VERTEX
  5
7E6
  8
0
 62
     9
 10
0.0
 20
0.0
 30
0.0
 70
   128
 71
     1
 72
     4
 73
     3
  0
VERTEX
  5
7E7
  8
0
 62
     9
 10
0.0
 20
0.0
 30
0.0
 70
   128
 71
     6
 72
     5
 73
     1
  0
VERTEX
  5
7E8
  8
0
 62
     9
 10
0.0
 20
0.0
 30
0.0
 70
   128
 71
     6
 72
     7
 73
     5
  0
VERTEX
  5
7E9
  8
0
 62
     9
 10
0.0
 20
0.0
 30
0.0
 70
   128
 71
    10
 72
     9
 73
     8
  0
VERTEX
  5
7EA
  8
0
 62
     9
 10
0.0
 20
0.0
 30
0.0
 70
   128
 71
     8
 72
     5
 73
    10
  0
VERTEX
  5
7EB
  8
0
 62
     9
 10
0.0
 20
0.0
 30
0.0
 70
   128
 71
    11
 72
     4
 73
     8
  0
VERTEX
  5
7EC
  8
0
 62
     9
 10
0.0
 20
0.0
 30
0.0
 70
   128
 71
    11
 72
    12
 73
     4
  0
VERTEX
  5
7ED
  8
0
 62
     9
 10
0.0
 20
0.0
 30
0.0
 70
   128
 71
     8
 72
     9
 73
    11
  0
VERTEX
  5
7EE
  8
0
 62
     9
 10
0.0
 20
0.0
 30
0.0
 70
   128
 71
     5
 72
     7
 73
    10
  0
VERTEX
  5
7EF
  8
0
 62
     9
 10
0.0
 20
0.0
 30
0.0
 70
   128
 71
     1
 72
     2
 73
     6
  0
VERTEX
  5
7F0
  8
0
 62
     9
 10
0.0
 20
0.0
 30
0.0
 70
   128
 71
     4
 72
    12
 73
     3
  0
SEQEND
  5
7F1
  8
0
 62
     9
  0
ENDBLK
  5
7F4
  8
0
  0
BLOCK
  8
0
  2
E3_NODE_66_
 70
     0
 10
0.0
 20
0.0
 30
0.0
  3
E3_NODE_66_
  1

  0
POLYLINE
  5
7F6
  8
0
 62
     9
 66
     1
 10
0.0
 20
0.0
 30
0.0
 70
    64
 71
     4
 72
     2
  0
VERTEX
  5
7F7
  8
0
 10
37.5
 20
134.6999969482422
 30
-6.0
 70
   192
  0
VERTEX
  5
7F8
  8
0
 10
37.5
 20
140.6999969482422
 30
0.0
 70
   192
  0
VERTEX
  5
7F9
  8
0
 10
37.5
 20
134.6999969482422
 30
6.0
 70
   192
  0
VERTEX
  5
7FA
  8
0
 10
37.5
 20
128.6999969482422
 30
0.0
 70
   192
  0
VERTEX
  5
7FB
  8
0
 62
     9
 10
0.0
 20
0.0
 30
0.0
 70
   128
 71
     3
 72
     2
 73
     1
  0
VERTEX
  5
7FC
  8
0
 62
     9
 10
0.0
 20
0.0
 30
0.0
 70
   128
 71
     1
 72
     4
 73
     3
  0
SEQEND
  5
7FD
  8
0
 62
     9
  0
ENDBLK
  5
800
  8
0
  0
BLOCK
  8
0
  2
E3_NODE_67_
 70
     0
 10
0.0
 20
0.0
 30
0.0
  3
E3_NODE_67_
  1

  0
POLYLINE
  5
802
  8
0
 62
     9
 66
     1
 10
0.0
 20
0.0
 30
0.0
 70
    64
 71
    15
 72
    15
  0
VERTEX
  5
803
  8
0
 10
37.5
 20
134.6999969482422
 30
-6.0
 70
   192
  0
VERTEX
  5
804
  8
0
 10
7.701000213623047
 20
135.1940002441406
 30
-5.980000019073486
 70
   192
  0
VERTEX
  5
805
  8
0
 10
9.619999885559082
 20
140.4869995117188
 30
-1.585000038146973
 70
   192
  0
VERTEX
  5
806
  8
0
 10
7.684999942779541
 20
134.6999969482422
 30
-6.0
 70
   192
  0
VERTEX
  5
807
  8
0
 10
37.5
 20
140.6999969482422
 30
0.0
 70
   192
  0
VERTEX
  5
808
  8
0
 10
37.5
 20
134.6999969482422
 30
6.0
 70
   192
  0
VERTEX
  5
809
  8
0
 10
8.322999954223633
 20
137.8500061035156
 30
4.848999977111816
 70
   192
  0
VERTEX
  5
80A
  8
0
 10
8.253999710083008
 20
137.7100067138672
 30
5.190000057220459
 70
   192
  0
VERTEX
  5
80B
  8
0
 10
9.361000061035156
 20
139.9600067138672
 30
-0.2989999949932098
 70
   192
  0
VERTEX
  5
80C
  8
0
 10
8.494000434875488
 20
131.0829925537109
 30
4.787000179290771
 70
   192
  0
VERTEX
  5
80D
  8
0
 10
9.326000213623047
 20
129.4730072021484
 30
-0.2450000047683716
 70
   192
  0
VERTEX
  5
80E
  8
0
 10
8.442000389099121
 20
132.5090026855469
 30
4.874000072479248
 70
   192
  0
VERTEX
  5
80F
  8
0
 10
8.361000061035156
 20
134.7599945068359
 30
5.011000156402588
 70
   192
  0
VERTEX
  5
810
  8
0
 10
37.5
 20
128.6999969482422
 30
0.0
 70
   192
  0
VERTEX
  5
811
  8
0
 10
9.583000183105469
 20
128.9759979248047
 30
-1.797999978065491
 70
   192
  0
VERTEX
  5
812
  8
0
 62
     9
 10
0.0
 20
0.0
 30
0.0
 70
   128
 71
     3
 72
     2
 73
     1
  0
VERTEX
  5
813
  8
0
 62
     9
 10
0.0
 20
0.0
 30
0.0
 70
   128
 71
     2
 72
     4
 73
     1
  0
VERTEX
  5
814
  8
0
 62
     9
 10
0.0
 20
0.0
 30
0.0
 70
   128
 71
     1
 72
     5
 73
     3
  0
VERTEX
  5
815
  8
0
 62
     9
 10
0.0
 20
0.0
 30
0.0
 70
   128
 71
     8
 72
     7
 73
     6
  0
VERTEX
  5
816
  8
0
 62
     9
 10
0.0
 20
0.0
 30
0.0
 70
   128
 71
     9
 72
     5
 73
     6
  0
VERTEX
  5
817
  8
0
 62
     9
 10
0.0
 20
0.0
 30
0.0
 70
   128
 71
     6
 72
     7
 73
     9
  0
VERTEX
  5
818
  8
0
 62
     9
 10
0.0
 20
0.0
 30
0.0
 70
   128
 71
    11
 72
    10
 73
     6
  0
VERTEX
  5
819
  8
0
 62
     9
 10
0.0
 20
0.0
 30
0.0
 70
   128
 71
    10
 72
    12
 73
     6
  0
VERTEX
  5
81A
  8
0
 62
     9
 10
0.0
 20
0.0
 30
0.0
 70
   128
 71
    12
 72
    13
 73
     6
  0
VERTEX
  5
81B
  8
0
 62
     9
 10
0.0
 20
0.0
 30
0.0
 70
   128
 71
    15
 72
    14
 73
     1
  0
VERTEX
  5
81C
  8
0
 62
     9
 10
0.0
 20
0.0
 30
0.0
 70
   128
 71
    15
 72
    11
 73
    14
  0
VERTEX
  5
81D
  8
0
 62
     9
 10
0.0
 20
0.0
 30
0.0
 70
   128
 71
     1
 72
     4
 73
    15
  0
VERTEX
  5
81E
  8
0
 62
     9
 10
0.0
 20
0.0
 30
0.0
 70
   128
 71
     6
 72
    14
 73
    11
  0
VERTEX
  5
81F
  8
0
 62
     9
 10
0.0
 20
0.0
 30
0.0
 70
   128
 71
     6
 72
    13
 73
     8
  0
VERTEX
  5
820
  8
0
 62
     9
 10
0.0
 20
0.0
 30
0.0
 70
   128
 71
     5
 72
     9
 73
     3
  0
SEQEND
  5
821
  8
0
 62
     9
  0
ENDBLK
  5
824
  8
0
  0
BLOCK
  8
0
  2
E3_NODE_68_
 70
     0
 10
0.0
 20
0.0
 30
0.0
  3
E3_NODE_68_
  1

  0
POLYLINE
  5
826
  8
0
 62
     9
 66
     1
 10
0.0
 20
0.0
 30
0.0
 70
    64
 71
    41
 72
    47
  0
VERTEX
  5
827
  8
0
 10
4.875
 20
142.1999969482422
 30
-8.444000244140625
 70
   192
  0
VERTEX
  5
828
  8
0
 10
-4.940000057220459
 20
139.9600067138672
 30
-7.956999778747559
 70
   192
  0
VERTEX
  5
829
  8
0
 10
-6.183000087738037
 20
140.4869995117188
 30
-7.539000034332275
 70
   192
  0
VERTEX
  5
82A
  8
0
 10
0.3680000007152557
 20
137.7100067138672
 30
-9.743000030517578
 70
   192
  0
VERTEX
  5
82B
  8
0
 10
4.875
 20
119.1999969482422
 30
-8.444000244140625
 70
   192
  0
VERTEX
  5
82C
  8
0
 10
-0.101000003516674
 20
131.0829925537109
 30
-9.74899959564209
 70
   192
  0
VERTEX
  5
82D
  8
0
 10
0.1589999943971634
 20
134.7599945068359
 30
-9.746000289916992
 70
   192
  0
VERTEX
  5
82E
  8
0
 10
-8.444000244140625
 20
119.1999969482422
 30
-4.875
 70
   192
  0
VERTEX
  5
82F
  8
0
 10
-6.348999977111816
 20
128.9759979248047
 30
-7.400000095367432
 70
   192
  0
VERTEX
  5
830
  8
0
 10
-4.875
 20
129.4730072021484
 30
-7.953999996185303
 70
   192
  0
VERTEX
  5
831
  8
0
 10
-8.255999565124512
 20
133.0339965820312
 30
-4.745999813079834
 70
   192
  0
VERTEX
  5
832
  8
0
 10
-8.444000244140625
 20
142.1999969482422
 30
-4.875
 70
   192
  0
VERTEX
  5
833
  8
0
 10
-4.875
 20
142.1999969482422
 30
8.444000244140625
 70
   192
  0
VERTEX
  5
834
  8
0
 10
-8.392999649047852
 20
138.3170013427734
 30
4.961999893188477
 70
   192
  0
VERTEX
  5
835
  8
0
 10
-8.621999740600586
 20
131.6900024414062
 30
4.552999973297119
 70
   192
  0
VERTEX
  5
836
  8
0
 10
-9.038999557495117
 20
134.6999969482422
 30
-3.655999898910522
 70
   192
  0
VERTEX
  5
837
  8
0
 10
-8.520000457763672
 20
134.6399993896484
 30
4.735000133514404
 70
   192
  0
VERTEX
  5
838
  8
0
 10
-9.029000282287598
 20
135.1940002441406
 30
-3.680000066757202
 70
   192
  0
VERTEX
  5
839
  8
0
 10
-8.24899959564209
 20
136.6450042724609
 30
-4.736999988555908
 70
   192
  0
VERTEX
  5
83A
  8
0
 10
-4.875
 20
119.1999969482422
 30
8.444000244140625
 70
   192
  0
VERTEX
  5
83B
  8
0
 10
-4.586999893188477
 20
129.5279998779297
 30
8.111000061035156
 70
   192
  0
VERTEX
  5
83C
  8
0
 10
-3.437999963760376
 20
128.9129943847656
 30
9.12399959564209
 70
   192
  0
VERTEX
  5
83D
  8
0
 10
-4.421000003814697
 20
129.4400024414062
 30
8.256999969482422
 70
   192
  0
VERTEX
  5
83E
  8
0
 10
8.253999710083008
 20
137.7100067138672
 30
5.190000057220459
 70
   192
  0
VERTEX
  5
83F
  8
0
 10
8.322999954223633
 20
137.8500061035156
 30
4.848999977111816
 70
   192
  0
VERTEX
  5
840
  8
0
 10
8.444000244140625
 20
119.1999969482422
 30
4.875
 70
   192
  0
VERTEX
  5
841
  8
0
 10
8.442000389099121
 20
132.5090026855469
 30
4.874000072479248
 70
   192
  0
VERTEX
  5
842
  8
0
 10
1.327999949455261
 20
134.2059936523438
 30
9.659000396728516
 70
   192
  0
VERTEX
  5
843
  8
0
 10
8.361000061035156
 20
134.7599945068359
 30
5.011000156402588
 70
   192
  0
VERTEX
  5
844
  8
0
 10
1.353999972343445
 20
134.6999969482422
 30
9.656000137329102
 70
   192
  0
VERTEX
  5
845
  8
0
 10
-3.233999967575073
 20
140.4239959716797
 30
9.197999954223633
 70
   192
  0
VERTEX
  5
846
  8
0
 10
-4.585999965667725
 20
139.8719940185547
 30
8.088000297546387
 70
   192
  0
VERTEX
  5
847
  8
0
 10
-4.451000213623047
 20
139.927001953125
 30
8.199000358581543
 70
   192
  0
VERTEX
  5
848
  8
0
 10
8.444000244140625
 20
142.1999969482422
 30
4.875
 70
   192
  0
VERTEX
  5
849
  8
0
 10
9.583000183105469
 20
128.9759979248047
 30
-1.797999978065491
 70
   192
  0
VERTEX
  5
84A
  8
0
 10
9.326000213623047
 20
129.4730072021484
 30
-0.2450000047683716
 70
   192
  0
VERTEX
  5
84B
  8
0
 10
8.494000434875488
 20
131.0829925537109
 30
4.787000179290771
 70
   192
  0
VERTEX
  5
84C
  8
0
 10
7.701000213623047
 20
135.1940002441406
 30
-5.980000019073486
 70
   192
  0
VERTEX
  5
84D
  8
0
 10
7.684999942779541
 20
134.6999969482422
 30
-6.0
 70
   192
  0
VERTEX
  5
84E
  8
0
 10
9.619999885559082
 20
140.4869995117188
 30
-1.585000038146973
 70
   192
  0
VERTEX
  5
84F
  8
0
 10
9.361000061035156
 20
139.9600067138672
 30
-0.2989999949932098
 70
   192
  0
VERTEX
  5
850
  8
0
 62
     9
 10
0.0
 20
0.0
 30
0.0
 70
   128
 71
     3
 72
     2
 73
     1
  0
VERTEX
  5
851
  8
0
 62
     9
 10
0.0
 20
0.0
 30
0.0
 70
   128
 71
     2
 72
     4
 73
     1
  0
VERTEX
  5
852
  8
0
 62
     9
 10
0.0
 20
0.0
 30
0.0
 70
   128
 71
     6
 72
     5
 73
     1
  0
VERTEX
  5
853
  8
0
 62
     9
 10
0.0
 20
0.0
 30
0.0
 70
   128
 71
     1
 72
     7
 73
     6
  0
VERTEX
  5
854
  8
0
 62
     9
 10
0.0
 20
0.0
 30
0.0
 70
   128
 71
     9
 72
     8
 73
     5
  0
VERTEX
  5
855
  8
0
 62
     9
 10
0.0
 20
0.0
 30
0.0
 70
   128
 71
     5
 72
    10
 73
     9
  0
VERTEX
  5
856
  8
0
 62
     9
 10
0.0
 20
0.0
 30
0.0
 70
   128
 71
     5
 72
     6
 73
    10
  0
VERTEX
  5
857
  8
0
 62
     9
 10
0.0
 20
0.0
 30
0.0
 70
   128
 71
     1
 72
     4
 73
     7
  0
VERTEX
  5
858
  8
0
 62
     9
 10
0.0
 20
0.0
 30
0.0
 70
   128
 71
     9
 72
    11
 73
     8
  0
VERTEX
  5
859
  8
0
 62
     9
 10
0.0
 20
0.0
 30
0.0
 70
   128
 71
     1
 72
    12
 73
     3
  0
VERTEX
  5
85A
  8
0
 62
     9
 10
0.0
 20
0.0
 30
0.0
 70
   128
 71
    14
 72
    12
 73
    13
  0
VERTEX
  5
85B
  8
0
 62
     9
 10
0.0
 20
0.0
 30
0.0
 70
   128
 71
    11
 72
    16
 73
    15
  0
VERTEX
  5
85C
  8
0
 62
     9
 10
0.0
 20
0.0
 30
0.0
 70
   128
 71
    16
 72
    18
 73
    17
  0
VERTEX
  5
85D
  8
0
 62
     9
 10
0.0
 20
0.0
 30
0.0
 70
   128
 71
    17
 72
    15
 73
    16
  0
VERTEX
  5
85E
  8
0
 62
     9
 10
0.0
 20
0.0
 30
0.0
 70
   128
 71
    19
 72
    12
 73
    14
  0
VERTEX
  5
85F
  8
0
 62
     9
 10
0.0
 20
0.0
 30
0.0
 70
   128
 71
    14
 72
    18
 73
    19
  0
VERTEX
  5
860
  8
0
 62
     9
 10
0.0
 20
0.0
 30
0.0
 70
   128
 71
    18
 72
    14
 73
    17
  0
VERTEX
  5
861
  8
0
 62
     9
 10
0.0
 20
0.0
 30
0.0
 70
   128
 71
    15
 72
     8
 73
    11
  0
VERTEX
  5
862
  8
0
 62
     9
 10
0.0
 20
0.0
 30
0.0
 70
   128
 71
    21
 72
    20
 73
     8
  0
VERTEX
  5
863
  8
0
 62
     9
 10
0.0
 20
0.0
 30
0.0
 70
   128
 71
     8
 72
    15
 73
    21
  0
VERTEX
  5
864
  8
0
 62
     9
 10
0.0
 20
0.0
 30
0.0
 70
   128
 71
    23
 72
    22
 73
    20
  0
VERTEX
  5
865
  8
0
 62
     9
 10
0.0
 20
0.0
 30
0.0
 70
   128
 71
    25
 72
    24
 73
    13
  0
VERTEX
  5
866
  8
0
 62
     9
 10
0.0
 20
0.0
 30
0.0
 70
   128
 71
    28
 72
    27
 73
    26
  0
VERTEX
  5
867
  8
0
 62
     9
 10
0.0
 20
0.0
 30
0.0
 70
   128
 71
    26
 72
    22
 73
    28
  0
VERTEX
  5
868
  8
0
 62
     9
 10
0.0
 20
0.0
 30
0.0
 70
   128
 71
    30
 72
    24
 73
    29
  0
VERTEX
  5
869
  8
0
 62
     9
 10
0.0
 20
0.0
 30
0.0
 70
   128
 71
    29
 72
    27
 73
    28
  0
VERTEX
  5
86A
  8
0
 62
     9
 10
0.0
 20
0.0
 30
0.0
 70
   128
 71
    29
 72
    28
 73
    30
  0
VERTEX
  5
86B
  8
0
 62
     9
 10
0.0
 20
0.0
 30
0.0
 70
   128
 71
    31
 72
    13
 73
    24
  0
VERTEX
  5
86C
  8
0
 62
     9
 10
0.0
 20
0.0
 30
0.0
 70
   128
 71
    24
 72
    30
 73
    31
  0
VERTEX
  5
86D
  8
0
 62
     9
 10
0.0
 20
0.0
 30
0.0
 70
   128
 71
    26
 72
    20
 73
    22
  0
VERTEX
  5
86E
  8
0
 62
     9
 10
0.0
 20
0.0
 30
0.0
 70
   128
 71
    33
 72
    32
 73
    13
  0
VERTEX
  5
86F
  8
0
 62
     9
 10
0.0
 20
0.0
 30
0.0
 70
   128
 71
    13
 72
    31
 73
    33
  0
VERTEX
  5
870
  8
0
 62
     9
 10
0.0
 20
0.0
 30
0.0
 70
   128
 71
    13
 72
    34
 73
    25
  0
VERTEX
  5
871
  8
0
 62
     9
 10
0.0
 20
0.0
 30
0.0
 70
   128
 71
    35
 72
     5
 73
    26
  0
VERTEX
  5
872
  8
0
 62
     9
 10
0.0
 20
0.0
 30
0.0
 70
   128
 71
    26
 72
    36
 73
    35
  0
VERTEX
  5
873
  8
0
 62
     9
 10
0.0
 20
0.0
 30
0.0
 70
   128
 71
    26
 72
    37
 73
    36
  0
VERTEX
  5
874
  8
0
 62
     9
 10
0.0
 20
0.0
 30
0.0
 70
   128
 71
    39
 72
    38
 73
     1
  0
VERTEX
  5
875
  8
0
 62
     9
 10
0.0
 20
0.0
 30
0.0
 70
   128
 71
    38
 72
    40
 73
     1
  0
VERTEX
  5
876
  8
0
 62
     9
 10
0.0
 20
0.0
 30
0.0
 70
   128
 71
     1
 72
     5
 73
    39
  0
VERTEX
  5
877
  8
0
 62
     9
 10
0.0
 20
0.0
 30
0.0
 70
   128
 71
     5
 72
    35
 73
    39
  0
VERTEX
  5
878
  8
0
 62
     9
 10
0.0
 20
0.0
 30
0.0
 70
   128
 71
    41
 72
    25
 73
    34
  0
VERTEX
  5
879
  8
0
 62
     9
 10
0.0
 20
0.0
 30
0.0
 70
   128
 71
    34
 72
    40
 73
    41
  0
VERTEX
  5
87A
  8
0
 62
     9
 10
0.0
 20
0.0
 30
0.0
 70
   128
 71
    34
 72
     1
 73
    40
  0
VERTEX
  5
87B
  8
0
 62
     9
 10
0.0
 20
0.0
 30
0.0
 70
   128
 71
    26
 72
    27
 73
    37
  0
VERTEX
  5
87C
  8
0
 62
     9
 10
0.0
 20
0.0
 30
0.0
 70
   128
 71
    20
 72
    21
 73
    23
  0
VERTEX
  5
87D
  8
0
 62
     9
 10
0.0
 20
0.0
 30
0.0
 70
   128
 71
    13
 72
    32
 73
    14
  0
VERTEX
  5
87E
  8
0
 62
     9
 10
0.0
 20
0.0
 30
0.0
 70
   128
 71
    12
 72
    19
 73
     3
  0
SEQEND
  5
87F
  8
0
 62
     9
  0
ENDBLK
  5
882
  8
0
  0
BLOCK
  8
0
  2
E3_NODE_69_
 70
     0
 10
0.0
 20
0.0
 30
0.0
  3
E3_NODE_69_
  1

  0
POLYLINE
  5
884
  8
0
 62
     9
 66
     1
 10
0.0
 20
0.0
 30
0.0
 70
    64
 71
     4
 72
     2
  0
VERTEX
  5
885
  8
0
 10
4.875
 20
142.1999969482422
 30
-8.444000244140625
 70
   192
  0
VERTEX
  5
886
  8
0
 10
-8.444000244140625
 20
142.1999969482422
 30
-4.875
 70
   192
  0
VERTEX
  5
887
  8
0
 10
-4.875
 20
142.1999969482422
 30
8.444000244140625
 70
   192
  0
VERTEX
  5
888
  8
0
 10
8.444000244140625
 20
142.1999969482422
 30
4.875
 70
   192
  0
VERTEX
  5
889
  8
0
 62
     9
 10
0.0
 20
0.0
 30
0.0
 70
   128
 71
     3
 72
     2
 73
     1
  0
VERTEX
  5
88A
  8
0
 62
     9
 10
0.0
 20
0.0
 30
0.0
 70
   128
 71
     1
 72
     4
 73
     3
  0
SEQEND
  5
88B
  8
0
 62
     9
  0
ENDBLK
  5
88E
  8
0
  0
BLOCK
  8
0
  2
E3_NODE_70_
 70
     0
 10
0.0
 20
0.0
 30
0.0
  3
E3_NODE_70_
  1

  0
POLYLINE
  5
890
  8
0
 62
     9
 66
     1
 10
0.0
 20
0.0
 30
0.0
 70
    64
 71
    15
 72
    15
  0
VERTEX
  5
891
  8
0
 10
-23.94599914550781
 20
134.6999969482422
 30
-29.47599983215332
 70
   192
  0
VERTEX
  5
892
  8
0
 10
-8.24899959564209
 20
136.6450042724609
 30
-4.736999988555908
 70
   192
  0
VERTEX
  5
893
  8
0
 10
-6.183000087738037
 20
140.4869995117188
 30
-7.539000034332275
 70
   192
  0
VERTEX
  5
894
  8
0
 10
-9.038999557495117
 20
134.6999969482422
 30
-3.655999898910522
 70
   192
  0
VERTEX
  5
895
  8
0
 10
-9.029000282287598
 20
135.1940002441406
 30
-3.680000066757202
 70
   192
  0
VERTEX
  5
896
  8
0
 10
-18.75
 20
140.6999969482422
 30
-32.47600173950195
 70
   192
  0
VERTEX
  5
897
  8
0
 10
-13.55399990081787
 20
134.6999969482422
 30
-35.47600173950195
 70
   192
  0
VERTEX
  5
898
  8
0
 10
-4.940000057220459
 20
139.9600067138672
 30
-7.956999778747559
 70
   192
  0
VERTEX
  5
899
  8
0
 10
0.3680000007152557
 20
137.7100067138672
 30
-9.743000030517578
 70
   192
  0
VERTEX
  5
89A
  8
0
 10
-0.101000003516674
 20
131.0829925537109
 30
-9.74899959564209
 70
   192
  0
VERTEX
  5
89B
  8
0
 10
-4.875
 20
129.4730072021484
 30
-7.953999996185303
 70
   192
  0
VERTEX
  5
89C
  8
0
 10
0.1589999943971634
 20
134.7599945068359
 30
-9.746000289916992
 70
   192
  0
VERTEX
  5
89D
  8
0
 10
-18.75
 20
128.6999969482422
 30
-32.47600173950195
 70
   192
  0
VERTEX
  5
89E
  8
0
 10
-6.348999977111816
 20
128.9759979248047
 30
-7.400000095367432
 70
   192
  0
VERTEX
  5
89F
  8
0
 10
-8.255999565124512
 20
133.0339965820312
 30
-4.745999813079834
 70
   192
  0
VERTEX
  5
8A0
  8
0
 62
     9
 10
0.0
 20
0.0
 30
0.0
 70
   128
 71
     3
 72
     2
 73
     1
  0
VERTEX
  5
8A1
  8
0
 62
     9
 10
0.0
 20
0.0
 30
0.0
 70
   128
 71
     5
 72
     4
 73
     1
  0
VERTEX
  5
8A2
  8
0
 62
     9
 10
0.0
 20
0.0
 30
0.0
 70
   128
 71
     1
 72
     2
 73
     5
  0
VERTEX
  5
8A3
  8
0
 62
     9
 10
0.0
 20
0.0
 30
0.0
 70
   128
 71
     1
 72
     6
 73
     3
  0
VERTEX
  5
8A4
  8
0
 62
     9
 10
0.0
 20
0.0
 30
0.0
 70
   128
 71
     8
 72
     6
 73
     7
  0
VERTEX
  5
8A5
  8
0
 62
     9
 10
0.0
 20
0.0
 30
0.0
 70
   128
 71
     7
 72
     9
 73
     8
  0
VERTEX
  5
8A6
  8
0
 62
     9
 10
0.0
 20
0.0
 30
0.0
 70
   128
 71
    11
 72
    10
 73
     7
  0
VERTEX
  5
8A7
  8
0
 62
     9
 10
0.0
 20
0.0
 30
0.0
 70
   128
 71
    10
 72
    12
 73
     7
  0
VERTEX
  5
8A8
  8
0
 62
     9
 10
0.0
 20
0.0
 30
0.0
 70
   128
 71
    14
 72
    13
 73
     1
  0
VERTEX
  5
8A9
  8
0
 62
     9
 10
0.0
 20
0.0
 30
0.0
 70
   128
 71
     1
 72
    15
 73
    14
  0
VERTEX
  5
8AA
  8
0
 62
     9
 10
0.0
 20
0.0
 30
0.0
 70
   128
 71
    14
 72
    11
 73
    13
  0
VERTEX
  5
8AB
  8
0
 62
     9
 10
0.0
 20
0.0
 30
0.0
 70
   128
 71
     1
 72
     4
 73
    15
  0
VERTEX
  5
8AC
  8
0
 62
     9
 10
0.0
 20
0.0
 30
0.0
 70
   128
 71
     7
 72
    13
 73
    11
  0
VERTEX
  5
8AD
  8
0
 62
     9
 10
0.0
 20
0.0
 30
0.0
 70
   128
 71
     7
 72
    12
 73
     9
  0
VERTEX
  5
8AE
  8
0
 62
     9
 10
0.0
 20
0.0
 30
0.0
 70
   128
 71
     6
 72
     8
 73
     3
  0
SEQEND
  5
8AF
  8
0
 62
     9
  0
ENDBLK
  5
8B2
  8
0
  0
BLOCK
  8
0
  2
E3_NODE_71_
 70
     0
 10
0.0
 20
0.0
 30
0.0
  3
E3_NODE_71_
  1

  0
POLYLINE
  5
8B4
  8
0
 62
     9
 66
     1
 10
0.0
 20
0.0
 30
0.0
 70
    64
 71
     4
 72
     2
  0
VERTEX
  5
8B5
  8
0
 10
-13.55399990081787
 20
134.6999969482422
 30
-35.47600173950195
 70
   192
  0
VERTEX
  5
8B6
  8
0
 10
-18.75
 20
128.6999969482422
 30
-32.47600173950195
 70
   192
  0
VERTEX
  5
8B7
  8
0
 10
-23.94599914550781
 20
134.6999969482422
 30
-29.47599983215332
 70
   192
  0
VERTEX
  5
8B8
  8
0
 10
-18.75
 20
140.6999969482422
 30
-32.47600173950195
 70
   192
  0
VERTEX
  5
8B9
  8
0
 62
     9
 10
0.0
 20
0.0
 30
0.0
 70
   128
 71
     3
 72
     2
 73
     1
  0
VERTEX
  5
8BA
  8
0
 62
     9
 10
0.0
 20
0.0
 30
0.0
 70
   128
 71
     1
 72
     4
 73
     3
  0
SEQEND
  5
8BB
  8
0
 62
     9
  0
ENDBLK
  5
8BE
  8
0
  0
BLOCK
  8
0
  2
E3_NODE_72_
 70
     0
 10
0.0
 20
0.0
 30
0.0
  3
E3_NODE_72_
  1

  0
POLYLINE
  5
8C0
  8
0
 62
     9
 66
     1
 10
0.0
 20
0.0
 30
0.0
 70
    64
 71
    15
 72
    15
  0
VERTEX
  5
8C1
  8
0
 10
-13.55399990081787
 20
134.6999969482422
 30
35.47600173950195
 70
   192
  0
VERTEX
  5
8C2
  8
0
 10
1.353999972343445
 20
134.6999969482422
 30
9.656000137329102
 70
   192
  0
VERTEX
  5
8C3
  8
0
 10
-3.233999967575073
 20
140.4239959716797
 30
9.197999954223633
 70
   192
  0
VERTEX
  5
8C4
  8
0
 10
-18.75
 20
140.6999969482422
 30
32.47600173950195
 70
   192
  0
VERTEX
  5
8C5
  8
0
 10
-23.94599914550781
 20
134.6999969482422
 30
29.47599983215332
 70
   192
  0
VERTEX
  5
8C6
  8
0
 10
-4.585999965667725
 20
139.8719940185547
 30
8.088000297546387
 70
   192
  0
VERTEX
  5
8C7
  8
0
 10
-8.392999649047852
 20
138.3170013427734
 30
4.961999893188477
 70
   192
  0
VERTEX
  5
8C8
  8
0
 10
-4.451000213623047
 20
139.927001953125
 30
8.199000358581543
 70
   192
  0
VERTEX
  5
8C9
  8
0
 10
-4.586999893188477
 20
129.5279998779297
 30
8.111000061035156
 70
   192
  0
VERTEX
  5
8CA
  8
0
 10
-4.421000003814697
 20
129.4400024414062
 30
8.256999969482422
 70
   192
  0
VERTEX
  5
8CB
  8
0
 10
-8.520000457763672
 20
134.6399993896484
 30
4.735000133514404
 70
   192
  0
VERTEX
  5
8CC
  8
0
 10
-8.621999740600586
 20
131.6900024414062
 30
4.552999973297119
 70
   192
  0
VERTEX
  5
8CD
  8
0
 10
-18.75
 20
128.6999969482422
 30
32.47600173950195
 70
   192
  0
VERTEX
  5
8CE
  8
0
 10
-3.437999963760376
 20
128.9129943847656
 30
9.12399959564209
 70
   192
  0
VERTEX
  5
8CF
  8
0
 10
1.327999949455261
 20
134.2059936523438
 30
9.659000396728516
 70
   192
  0
VERTEX
  5
8D0
  8
0
 62
     9
 10
0.0
 20
0.0
 30
0.0
 70
   128
 71
     3
 72
     2
 73
     1
  0
VERTEX
  5
8D1
  8
0
 62
     9
 10
0.0
 20
0.0
 30
0.0
 70
   128
 71
     1
 72
     4
 73
     3
  0
VERTEX
  5
8D2
  8
0
 62
     9
 10
0.0
 20
0.0
 30
0.0
 70
   128
 71
     7
 72
     6
 73
     5
  0
VERTEX
  5
8D3
  8
0
 62
     9
 10
0.0
 20
0.0
 30
0.0
 70
   128
 71
     8
 72
     4
 73
     5
  0
VERTEX
  5
8D4
  8
0
 62
     9
 10
0.0
 20
0.0
 30
0.0
 70
   128
 71
     5
 72
     6
 73
     8
  0
VERTEX
  5
8D5
  8
0
 62
     9
 10
0.0
 20
0.0
 30
0.0
 70
   128
 71
    10
 72
     9
 73
     5
  0
VERTEX
  5
8D6
  8
0
 62
     9
 10
0.0
 20
0.0
 30
0.0
 70
   128
 71
    12
 72
    11
 73
     5
  0
VERTEX
  5
8D7
  8
0
 62
     9
 10
0.0
 20
0.0
 30
0.0
 70
   128
 71
     5
 72
     9
 73
    12
  0
VERTEX
  5
8D8
  8
0
 62
     9
 10
0.0
 20
0.0
 30
0.0
 70
   128
 71
    14
 72
    13
 73
     1
  0
VERTEX
  5
8D9
  8
0
 62
     9
 10
0.0
 20
0.0
 30
0.0
 70
   128
 71
     1
 72
    15
 73
    14
  0
VERTEX
  5
8DA
  8
0
 62
     9
 10
0.0
 20
0.0
 30
0.0
 70
   128
 71
    14
 72
    10
 73
    13
  0
VERTEX
  5
8DB
  8
0
 62
     9
 10
0.0
 20
0.0
 30
0.0
 70
   128
 71
     1
 72
     2
 73
    15
  0
VERTEX
  5
8DC
  8
0
 62
     9
 10
0.0
 20
0.0
 30
0.0
 70
   128
 71
     5
 72
    13
 73
    10
  0
VERTEX
  5
8DD
  8
0
 62
     9
 10
0.0
 20
0.0
 30
0.0
 70
   128
 71
     5
 72
    11
 73
     7
  0
VERTEX
  5
8DE
  8
0
 62
     9
 10
0.0
 20
0.0
 30
0.0
 70
   128
 71
     4
 72
     8
 73
     3
  0
SEQEND
  5
8DF
  8
0
 62
     9
  0
ENDBLK
  5
8E2
  8
0
  0
BLOCK
  8
0
  2
E3_NODE_73_
 70
     0
 10
0.0
 20
0.0
 30
0.0
  3
E3_NODE_73_
  1

  0
POLYLINE
  5
8E4
  8
0
 62
     9
 66
     1
 10
0.0
 20
0.0
 30
0.0
 70
    64
 71
     4
 72
     2
  0
VERTEX
  5
8E5
  8
0
 10
-18.75
 20
140.6999969482422
 30
32.47600173950195
 70
   192
  0
VERTEX
  5
8E6
  8
0
 10
-23.94599914550781
 20
134.6999969482422
 30
29.47599983215332
 70
   192
  0
VERTEX
  5
8E7
  8
0
 10
-18.75
 20
128.6999969482422
 30
32.47600173950195
 70
   192
  0
VERTEX
  5
8E8
  8
0
 10
-13.55399990081787
 20
134.6999969482422
 30
35.47600173950195
 70
   192
  0
VERTEX
  5
8E9
  8
0
 62
     9
 10
0.0
 20
0.0
 30
0.0
 70
   128
 71
     3
 72
     2
 73
     1
  0
VERTEX
  5
8EA
  8
0
 62
     9
 10
0.0
 20
0.0
 30
0.0
 70
   128
 71
     1
 72
     4
 73
     3
  0
SEQEND
  5
8EB
  8
0
 62
     9
  0
ENDBLK
  5
8EE
  8
0
  0
BLOCK
  8
0
  2
E3_NODE_74_
 70
     0
 10
0.0
 20
0.0
 30
0.0
  3
E3_NODE_74_
  1

  0
POLYLINE
  5
8F0
  8
0
 62
     9
 66
     1
 10
0.0
 20
0.0
 30
0.0
 70
    64
 71
    14
 72
    14
  0
VERTEX
  5
8F1
  8
0
 10
-24.29999923706055
 20
-58.88000106811523
 30
-5.23799991607666
 70
   192
  0
VERTEX
  5
8F2
  8
0
 10
-24.29999923706055
 20
-75.0
 30
-16.95000076293945
 70
   192
  0
VERTEX
  5
8F3
  8
0
 10
-28.10000038146973
 20
-75.0
 30
-16.95000076293945
 70
   192
  0
VERTEX
  5
8F4
  8
0
 10
-28.10000038146973
 20
-65.03700256347656
 30
13.71300029754639
 70
   192
  0
VERTEX
  5
8F5
  8
0
 10
-24.29999923706055
 20
-65.03700256347656
 30
13.71300029754639
 70
   192
  0
VERTEX
  5
8F6
  8
0
 10
-24.29999923706055
 20
-58.04999923706055
 30
0.0
 70
   192
  0
VERTEX
  5
8F7
  8
0
 10
-28.10000038146973
 20
-58.88000106811523
 30
-5.23799991607666
 70
   192
  0
VERTEX
  5
8F8
  8
0
 10
-28.10000038146973
 20
-58.04999923706055
 30
0.0
 70
   192
  0
VERTEX
  5
8F9
  8
0
 10
-28.10000038146973
 20
-75.0
 30
16.95000076293945
 70
   192
  0
VERTEX
  5
8FA
  8
0
 10
-24.29999923706055
 20
-84.96299743652344
 30
13.71300029754639
 70
   192
  0
VERTEX
  5
8FB
  8
0
 10
-24.29999923706055
 20
-91.12000274658203
 30
-5.23799991607666
 70
   192
  0
VERTEX
  5
8FC
  8
0
 10
-28.10000038146973
 20
-91.12000274658203
 30
5.23799991607666
 70
   192
  0
VERTEX
  5
8FD
  8
0
 10
-28.10000038146973
 20
-84.96299743652344
 30
13.71300029754639
 70
   192
  0
VERTEX
  5
8FE
  8
0
 10
-28.10000038146973
 20
-91.12000274658203
 30
-5.23799991607666
 70
   192
  0
VERTEX
  5
8FF
  8
0
 62
     9
 10
0.0
 20
0.0
 30
0.0
 70
   128
 71
     3
 72
     2
 73
     1
  0
VERTEX
  5
900
  8
0
 62
     9
 10
0.0
 20
0.0
 30
0.0
 70
   128
 71
     6
 72
     5
 73
     4
  0
VERTEX
  5
901
  8
0
 62
     9
 10
0.0
 20
0.0
 30
0.0
 70
   128
 71
     8
 72
     7
 73
     1
  0
VERTEX
  5
902
  8
0
 62
     9
 10
0.0
 20
0.0
 30
0.0
 70
   128
 71
     1
 72
     6
 73
     8
  0
VERTEX
  5
903
  8
0
 62
     9
 10
0.0
 20
0.0
 30
0.0
 70
   128
 71
     9
 72
     4
 73
     5
  0
VERTEX
  5
904
  8
0
 62
     9
 10
0.0
 20
0.0
 30
0.0
 70
   128
 71
     5
 72
    10
 73
     9
  0
VERTEX
  5
905
  8
0
 62
     9
 10
0.0
 20
0.0
 30
0.0
 70
   128
 71
    12
 72
    10
 73
    11
  0
VERTEX
  5
906
  8
0
 62
     9
 10
0.0
 20
0.0
 30
0.0
 70
   128
 71
    12
 72
    13
 73
    10
  0
VERTEX
  5
907
  8
0
 62
     9
 10
0.0
 20
0.0
 30
0.0
 70
   128
 71
    14
 72
    11
 73
     2
  0
VERTEX
  5
908
  8
0
 62
     9
 10
0.0
 20
0.0
 30
0.0
 70
   128
 71
     2
 72
     3
 73
    14
  0
VERTEX
  5
909
  8
0
 62
     9
 10
0.0
 20
0.0
 30
0.0
 70
   128
 71
    11
 72
    14
 73
    12
  0
VERTEX
  5
90A
  8
0
 62
     9
 10
0.0
 20
0.0
 30
0.0
 70
   128
 71
    10
 72
    13
 73
     9
  0
VERTEX
  5
90B
  8
0
 62
     9
 10
0.0
 20
0.0
 30
0.0
 70
   128
 71
     4
 72
     8
 73
     6
  0
VERTEX
  5
90C
  8
0
 62
     9
 10
0.0
 20
0.0
 30
0.0
 70
   128
 71
     1
 72
     7
 73
     3
  0
SEQEND
  5
90D
  8
0
 62
     9
  0
ENDBLK
  5
910
  8
0
  0
BLOCK
  8
0
  2
E3_NODE_75_
 70
     0
 10
0.0
 20
0.0
 30
0.0
  3
E3_NODE_75_
  1

  0
POLYLINE
  5
912
  8
0
 62
     9
 66
     1
 10
0.0
 20
0.0
 30
0.0
 70
    64
 71
    14
 72
    14
  0
VERTEX
  5
913
  8
0
 10
-28.10000038146973
 20
-91.12000274658203
 30
5.23799991607666
 70
   192
  0
VERTEX
  5
914
  8
0
 10
-28.10000038146973
 20
-84.96299743652344
 30
13.71300029754639
 70
   192
  0
VERTEX
  5
915
  8
0
 10
-28.10000038146973
 20
-86.31400299072266
 30
11.31400012969971
 70
   192
  0
VERTEX
  5
916
  8
0
 10
-28.10000038146973
 20
-75.0
 30
16.95000076293945
 70
   192
  0
VERTEX
  5
917
  8
0
 10
-28.10000038146973
 20
-75.0
 30
16.0
 70
   192
  0
VERTEX
  5
918
  8
0
 10
-28.10000038146973
 20
-81.12300109863281
 30
14.7819995880127
 70
   192
  0
VERTEX
  5
919
  8
0
 10
-28.10000038146973
 20
-91.0
 30
0.0
 70
   192
  0
VERTEX
  5
91A
  8
0
 10
-28.10000038146973
 20
-65.03700256347656
 30
13.71300029754639
 70
   192
  0
VERTEX
  5
91B
  8
0
 10
-28.10000038146973
 20
-59.0
 30
0.0
 70
   192
  0
VERTEX
  5
91C
  8
0
 10
-28.10000038146973
 20
-58.04999923706055
 30
0.0
 70
   192
  0
VERTEX
  5
91D
  8
0
 10
-28.10000038146973
 20
-58.88000106811523
 30
-5.23799991607666
 70
   192
  0
VERTEX
  5
91E
  8
0
 10
-28.10000038146973
 20
-75.0
 30
-16.0
 70
   192
  0
VERTEX
  5
91F
  8
0
 10
-28.10000038146973
 20
-75.0
 30
-16.95000076293945
 70
   192
  0
VERTEX
  5
920
  8
0
 10
-28.10000038146973
 20
-91.12000274658203
 30
-5.23799991607666
 70
   192
  0
VERTEX
  5
921
  8
0
 62
     9
 10
0.0
 20
0.0
 30
0.0
 70
   128
 71
     3
 72
     2
 73
     1
  0
VERTEX
  5
922
  8
0
 62
     9
 10
0.0
 20
0.0
 30
0.0
 70
   128
 71
     6
 72
     5
 73
     4
  0
VERTEX
  5
923
  8
0
 62
     9
 10
0.0
 20
0.0
 30
0.0
 70
   128
 71
     1
 72
     7
 73
     3
  0
VERTEX
  5
924
  8
0
 62
     9
 10
0.0
 20
0.0
 30
0.0
 70
   128
 71
     4
 72
     2
 73
     6
  0
VERTEX
  5
925
  8
0
 62
     9
 10
0.0
 20
0.0
 30
0.0
 70
   128
 71
     5
 72
     9
 73
     8
  0
VERTEX
  5
926
  8
0
 62
     9
 10
0.0
 20
0.0
 30
0.0
 70
   128
 71
     2
 72
     3
 73
     6
  0
VERTEX
  5
927
  8
0
 62
     9
 10
0.0
 20
0.0
 30
0.0
 70
   128
 71
     9
 72
    10
 73
     8
  0
VERTEX
  5
928
  8
0
 62
     9
 10
0.0
 20
0.0
 30
0.0
 70
   128
 71
     9
 72
    12
 73
    11
  0
VERTEX
  5
929
  8
0
 62
     9
 10
0.0
 20
0.0
 30
0.0
 70
   128
 71
     8
 72
     4
 73
     5
  0
VERTEX
  5
92A
  8
0
 62
     9
 10
0.0
 20
0.0
 30
0.0
 70
   128
 71
    12
 72
    13
 73
    11
  0
VERTEX
  5
92B
  8
0
 62
     9
 10
0.0
 20
0.0
 30
0.0
 70
   128
 71
    11
 72
    10
 73
     9
  0
VERTEX
  5
92C
  8
0
 62
     9
 10
0.0
 20
0.0
 30
0.0
 70
   128
 71
    12
 72
     7
 73
    14
  0
VERTEX
  5
92D
  8
0
 62
     9
 10
0.0
 20
0.0
 30
0.0
 70
   128
 71
    14
 72
    13
 73
    12
  0
VERTEX
  5
92E
  8
0
 62
     9
 10
0.0
 20
0.0
 30
0.0
 70
   128
 71
     1
 72
    14
 73
     7
  0
SEQEND
  5
92F
  8
0
 62
     9
  0
ENDBLK
  5
932
  8
0
  0
BLOCK
  8
0
  2
E3_NODE_76_
 70
     0
 10
0.0
 20
0.0
 30
0.0
  3
E3_NODE_76_
  1

  0
POLYLINE
  5
934
  8
0
 62
     9
 66
     1
 10
0.0
 20
0.0
 30
0.0
 70
    64
 71
    10
 72
    10
  0
VERTEX
  5
935
  8
0
 10
-28.10000038146973
 20
-59.0
 30
0.0
 70
   192
  0
VERTEX
  5
936
  8
0
 10
-99.30000305175781
 20
-59.0
 30
0.0
 70
   192
  0
VERTEX
  5
937
  8
0
 10
-99.30000305175781
 20
-75.0
 30
16.0
 70
   192
  0
VERTEX
  5
938
  8
0
 10
-28.10000038146973
 20
-75.0
 30
-16.0
 70
   192
  0
VERTEX
  5
939
  8
0
 10
-99.30000305175781
 20
-91.0
 30
0.0
 70
   192
  0
VERTEX
  5
93A
  8
0
 10
-99.30000305175781
 20
-75.0
 30
-16.0
 70
   192
  0
VERTEX
  5
93B
  8
0
 10
-28.10000038146973
 20
-91.0
 30
0.0
 70
   192
  0
VERTEX
  5
93C
  8
0
 10
-28.10000038146973
 20
-86.31400299072266
 30
11.31400012969971
 70
   192
  0
VERTEX
  5
93D
  8
0
 10
-28.10000038146973
 20
-81.12300109863281
 30
14.7819995880127
 70
   192
  0
VERTEX
  5
93E
  8
0
 10
-28.10000038146973
 20
-75.0
 30
16.0
 70
   192
  0
VERTEX
  5
93F
  8
0
 62
     9
 10
0.0
 20
0.0
 30
0.0
 70
   128
 71
     3
 72
     2
 73
     1
  0
VERTEX
  5
940
  8
0
 62
     9
 10
0.0
 20
0.0
 30
0.0
 70
   128
 71
     4
 72
     1
 73
     2
  0
VERTEX
  5
941
  8
0
 62
     9
 10
0.0
 20
0.0
 30
0.0
 70
   128
 71
     4
 72
     6
 73
     5
  0
VERTEX
  5
942
  8
0
 62
     9
 10
0.0
 20
0.0
 30
0.0
 70
   128
 71
     8
 72
     7
 73
     5
  0
VERTEX
  5
943
  8
0
 62
     9
 10
0.0
 20
0.0
 30
0.0
 70
   128
 71
     5
 72
     3
 73
     8
  0
VERTEX
  5
944
  8
0
 62
     9
 10
0.0
 20
0.0
 30
0.0
 70
   128
 71
     3
 72
     9
 73
     8
  0
VERTEX
  5
945
  8
0
 62
     9
 10
0.0
 20
0.0
 30
0.0
 70
   128
 71
     3
 72
    10
 73
     9
  0
VERTEX
  5
946
  8
0
 62
     9
 10
0.0
 20
0.0
 30
0.0
 70
   128
 71
     5
 72
     7
 73
     4
  0
VERTEX
  5
947
  8
0
 62
     9
 10
0.0
 20
0.0
 30
0.0
 70
   128
 71
     2
 72
     6
 73
     4
  0
VERTEX
  5
948
  8
0
 62
     9
 10
0.0
 20
0.0
 30
0.0
 70
   128
 71
     1
 72
    10
 73
     3
  0
SEQEND
  5
949
  8
0
 62
     9
  0
ENDBLK
  5
94C
  8
0
  0
BLOCK
  8
0
  2
E3_NODE_77_
 70
     0
 10
0.0
 20
0.0
 30
0.0
  3
E3_NODE_77_
  1

  0
POLYLINE
  5
94E
  8
0
 62
     9
 66
     1
 10
0.0
 20
0.0
 30
0.0
 70
    64
 71
     4
 72
     2
  0
VERTEX
  5
94F
  8
0
 10
-99.30000305175781
 20
-75.0
 30
16.0
 70
   192
  0
VERTEX
  5
950
  8
0
 10
-99.30000305175781
 20
-59.0
 30
0.0
 70
   192
  0
VERTEX
  5
951
  8
0
 10
-99.30000305175781
 20
-75.0
 30
-16.0
 70
   192
  0
VERTEX
  5
952
  8
0
 10
-99.30000305175781
 20
-91.0
 30
0.0
 70
   192
  0
VERTEX
  5
953
  8
0
 62
     9
 10
0.0
 20
0.0
 30
0.0
 70
   128
 71
     3
 72
     2
 73
     1
  0
VERTEX
  5
954
  8
0
 62
     9
 10
0.0
 20
0.0
 30
0.0
 70
   128
 71
     1
 72
     4
 73
     3
  0
SEQEND
  5
955
  8
0
 62
     9
  0
ENDBLK
  5
958
  8
0
  0
ENDSEC
  0
SECTION
  2
ENTITIES
  0
INSERT
  5
4A
  8
LAYER_1
  2
E3_NODE
 10
0.0
 20
0.0
 30
0.0
  0
INSERT
  5
6D
  8
LAYER_1
  2
E3_NODE_1_
 10
0.0
 20
0.0
 30
0.0
  0
INSERT
  5
89
  8
LAYER_1
  2
E3_NODE_2_
 10
0.0
 20
0.0
 30
0.0
  0
INSERT
  5
A5
  8
LAYER_1
  2
E3_NODE_3_
 10
0.0
 20
0.0
 30
0.0
  0
INSERT
  5
B1
  8
LAYER_1
  2
E3_NODE_4_
 10
0.0
 20
0.0
 30
0.0
  0
INSERT
  5
CD
  8
LAYER_1
  2
E3_NODE_5_
 10
0.0
 20
0.0
 30
0.0
  0
INSERT
  5
D9
  8
LAYER_1
  2
E3_NODE_6_
 10
0.0
 20
0.0
 30
0.0
  0
INSERT
  5
E5
  8
LAYER_1
  2
E3_NODE_7_
 10
0.0
 20
0.0
 30
0.0
  0
INSERT
  5
107
  8
LAYER_1
  2
E3_NODE_8_
 10
0.0
 20
0.0
 30
0.0
  0
INSERT
  5
113
  8
LAYER_1
  2
E3_NODE_9_
 10
0.0
 20
0.0
 30
0.0
  0
INSERT
  5
135
  8
LAYER_1
  2
E3_NODE_10_
 10
0.0
 20
0.0
 30
0.0
  0
INSERT
  5
141
  8
LAYER_1
  2
E3_NODE_11_
 10
0.0
 20
0.0
 30
0.0
  0
INSERT
  5
159
  8
LAYER_1
  2
E3_NODE_12_
 10
0.0
 20
0.0
 30
0.0
  0
INSERT
  5
179
  8
LAYER_1
  2
E3_NODE_13_
 10
0.0
 20
0.0
 30
0.0
  0
INSERT
  5
185
  8
LAYER_1
  2
E3_NODE_14_
 10
0.0
 20
0.0
 30
0.0
  0
INSERT
  5
1A5
  8
LAYER_1
  2
E3_NODE_15_
 10
0.0
 20
0.0
 30
0.0
  0
INSERT
  5
1BB
  8
LAYER_1
  2
E3_NODE_16_
 10
0.0
 20
0.0
 30
0.0
  0
INSERT
  5
1D1
  8
LAYER_1
  2
E3_NODE_17_
 10
0.0
 20
0.0
 30
0.0
  0
INSERT
  5
1DF
  8
LAYER_1
  2
E3_NODE_18_
 10
0.0
 20
0.0
 30
0.0
  0
INSERT
  5
1F9
  8
LAYER_1
  2
E3_NODE_19_
 10
0.0
 20
0.0
 30
0.0
  0
INSERT
  5
205
  8
LAYER_1
  2
E3_NODE_20_
 10
0.0
 20
0.0
 30
0.0
  0
INSERT
  5
21B
  8
LAYER_1
  2
E3_NODE_21_
 10
0.0
 20
0.0
 30
0.0
  0
INSERT
  5
231
  8
LAYER_1
  2
E3_NODE_22_
 10
0.0
 20
0.0
 30
0.0
  0
INSERT
  5
247
  8
LAYER_1
  2
E3_NODE_23_
 10
0.0
 20
0.0
 30
0.0
  0
INSERT
  5
253
  8
LAYER_1
  2
E3_NODE_24_
 10
0.0
 20
0.0
 30
0.0
  0
INSERT
  5
269
  8
LAYER_1
  2
E3_NODE_25_
 10
0.0
 20
0.0
 30
0.0
  0
INSERT
  5
278
  8
LAYER_1
  2
E3_NODE_26_
 10
0.0
 20
0.0
 30
0.0
  0
INSERT
  5
28E
  8
LAYER_1
  2
E3_NODE_27_
 10
0.0
 20
0.0
 30
0.0
  0
INSERT
  5
29A
  8
LAYER_1
  2
E3_NODE_28_
 10
0.0
 20
0.0
 30
0.0
  0
INSERT
  5
2C2
  8
LAYER_1
  2
E3_NODE_29_
 10
0.0
 20
0.0
 30
0.0
  0
INSERT
  5
366
  8
LAYER_1
  2
E3_NODE_30_
 10
0.0
 20
0.0
 30
0.0
  0
INSERT
  5
376
  8
LAYER_1
  2
E3_NODE_31_
 10
0.0
 20
0.0
 30
0.0
  0
INSERT
  5
386
  8
LAYER_1
  2
E3_NODE_32_
 10
0.0
 20
0.0
 30
0.0
  0
INSERT
  5
3C0
  8
LAYER_1
  2
E3_NODE_33_
 10
0.0
 20
0.0
 30
0.0
  0
INSERT
  5
3EC
  8
LAYER_1
  2
E3_NODE_34_
 10
0.0
 20
0.0
 30
0.0
  0
INSERT
  5
426
  8
LAYER_1
  2
E3_NODE_35_
 10
0.0
 20
0.0
 30
0.0
  0
INSERT
  5
452
  8
LAYER_1
  2
E3_NODE_36_
 10
0.0
 20
0.0
 30
0.0
  0
INSERT
  5
486
  8
LAYER_1
  2
E3_NODE_37_
 10
0.0
 20
0.0
 30
0.0
  0
INSERT
  5
49A
  8
LAYER_1
  2
E3_NODE_38_
 10
0.0
 20
0.0
 30
0.0
  0
INSERT
  5
4AA
  8
LAYER_1
  2
E3_NODE_39_
 10
0.0
 20
0.0
 30
0.0
  0
INSERT
  5
4D2
  8
LAYER_1
  2
E3_NODE_40_
 10
0.0
 20
0.0
 30
0.0
  0
INSERT
  5
4DE
  8
LAYER_1
  2
E3_NODE_41_
 10
0.0
 20
0.0
 30
0.0
  0
INSERT
  5
4F4
  8
LAYER_1
  2
E3_NODE_42_
 10
0.0
 20
0.0
 30
0.0
  0
INSERT
  5
50A
  8
LAYER_1
  2
E3_NODE_43_
 10
0.0
 20
0.0
 30
0.0
  0
INSERT
  5
52C
  8
LAYER_1
  2
E3_NODE_44_
 10
0.0
 20
0.0
 30
0.0
  0
INSERT
  5
554
  8
LAYER_1
  2
E3_NODE_45_
 10
0.0
 20
0.0
 30
0.0
  0
INSERT
  5
59E
  8
LAYER_1
  2
E3_NODE_46_
 10
0.0
 20
0.0
 30
0.0
  0
INSERT
  5
5AA
  8
LAYER_1
  2
E3_NODE_47_
 10
0.0
 20
0.0
 30
0.0
  0
INSERT
  5
5B6
  8
LAYER_1
  2
E3_NODE_48_
 10
0.0
 20
0.0
 30
0.0
  0
INSERT
  5
5E2
  8
LAYER_1
  2
E3_NODE_49_
 10
0.0
 20
0.0
 30
0.0
  0
INSERT
  5
5EC
  8
LAYER_1
  2
E3_NODE_50_
 10
0.0
 20
0.0
 30
0.0
  0
INSERT
  5
5F6
  8
LAYER_1
  2
E3_NODE_51_
 10
0.0
 20
0.0
 30
0.0
  0
INSERT
  5
602
  8
LAYER_1
  2
E3_NODE_52_
 10
0.0
 20
0.0
 30
0.0
  0
INSERT
  5
626
  8
LAYER_1
  2
E3_NODE_53_
 10
0.0
 20
0.0
 30
0.0
  0
INSERT
  5
684
  8
LAYER_1
  2
E3_NODE_54_
 10
0.0
 20
0.0
 30
0.0
  0
INSERT
  5
690
  8
LAYER_1
  2
E3_NODE_55_
 10
0.0
 20
0.0
 30
0.0
  0
INSERT
  5
6B4
  8
LAYER_1
  2
E3_NODE_56_
 10
0.0
 20
0.0
 30
0.0
  0
INSERT
  5
6C0
  8
LAYER_1
  2
E3_NODE_57_
 10
0.0
 20
0.0
 30
0.0
  0
INSERT
  5
6E4
  8
LAYER_1
  2
E3_NODE_58_
 10
0.0
 20
0.0
 30
0.0
  0
INSERT
  5
6F0
  8
LAYER_1
  2
E3_NODE_59_
 10
0.0
 20
0.0
 30
0.0
  0
INSERT
  5
6FE
  8
LAYER_1
  2
E3_NODE_60_
 10
0.0
 20
0.0
 30
0.0
  0
INSERT
  5
718
  8
LAYER_1
  2
E3_NODE_61_
 10
0.0
 20
0.0
 30
0.0
  0
INSERT
  5
724
  8
LAYER_1
  2
E3_NODE_62_
 10
0.0
 20
0.0
 30
0.0
  0
INSERT
  5
742
  8
LAYER_1
  2
E3_NODE_63_
 10
0.0
 20
0.0
 30
0.0
  0
INSERT
  5
7D4
  8
LAYER_1
  2
E3_NODE_64_
 10
0.0
 20
0.0
 30
0.0
  0
INSERT
  5
7F2
  8
LAYER_1
  2
E3_NODE_65_
 10
0.0
 20
0.0
 30
0.0
  0
INSERT
  5
7FE
  8
LAYER_1
  2
E3_NODE_66_
 10
0.0
 20
0.0
 30
0.0
  0
INSERT
  5
822
  8
LAYER_1
  2
E3_NODE_67_
 10
0.0
 20
0.0
 30
0.0
  0
INSERT
  5
880
  8
LAYER_1
  2
E3_NODE_68_
 10
0.0
 20
0.0
 30
0.0
  0
INSERT
  5
88C
  8
LAYER_1
  2
E3_NODE_69_
 10
0.0
 20
0.0
 30
0.0
  0
INSERT
  5
8B0
  8
LAYER_1
  2
E3_NODE_70_
 10
0.0
 20
0.0
 30
0.0
  0
INSERT
  5
8BC
  8
LAYER_1
  2
E3_NODE_71_
 10
0.0
 20
0.0
 30
0.0
  0
INSERT
  5
8E0
  8
LAYER_1
  2
E3_NODE_72_
 10
0.0
 20
0.0
 30
0.0
  0
INSERT
  5
8EC
  8
LAYER_1
  2
E3_NODE_73_
 10
0.0
 20
0.0
 30
0.0
  0
INSERT
  5
90E
  8
LAYER_1
  2
E3_NODE_74_
 10
0.0
 20
0.0
 30
0.0
  0
INSERT
  5
930
  8
LAYER_1
  2
E3_NODE_75_
 10
0.0
 20
0.0
 30
0.0
  0
INSERT
  5
94A
  8
LAYER_1
  2
E3_NODE_76_
 10
0.0
 20
0.0
 30
0.0
  0
INSERT
  5
956
  8
LAYER_1
  2
E3_NODE_77_
 10
0.0
 20
0.0
 30
0.0
  0
ENDSEC
  0
EOF
