  0
SECTION
  2
HEADER
  9
$ACADVER
  1
AC1009
  9
$DWGCODEPAGE
  3
ansi_1252
  9
$INSBASE
 10
0.0
 20
0.0
 30
0.0
  9
$EXTMIN
 10
1.000000000000000E+20
 20
1.000000000000000E+20
 30
1.000000000000000E+20
  9
$EXTMAX
 10
-1.000000000000000E+20
 20
-1.000000000000000E+20
 30
-1.000000000000000E+20
  9
$LIMMIN
 10
0.0
 20
0.0
  9
$LIMMAX
 10
12.0
 20
9.0
  9
$ORTHOMODE
 70
     0
  9
$REGENMODE
 70
     1
  9
$FILLMODE
 70
     1
  9
$QTEXTMODE
 70
     0
  9
$MIRRTEXT
 70
     1
  9
$DRAGMODE
 70
     2
  9
$LTSCALE
 40
1.0
  9
$OSMODE
 70
    37
  9
$ATTMODE
 70
     1
  9
$TEXTSIZE
 40
0.2
  9
$TRACEWID
 40
0.05
  9
$TEXTSTYLE
  7
STANDARD
  9
$CLAYER
  8
0
  9
$CELTYPE
  6
BYLAYER
  9
$CECOLOR
 62
   256
  9
$DIMSCALE
 40
1.0
  9
$DIMASZ
 40
0.18
  9
$DIMEXO
 40
0.0625
  9
$DIMDLI
 40
0.38
  9
$DIMRND
 40
0.0
  9
$DIMDLE
 40
0.0
  9
$DIMEXE
 40
0.18
  9
$DIMTP
 40
0.0
  9
$DIMTM
 40
0.0
  9
$DIMTXT
 40
0.18
  9
$DIMCEN
 40
0.09
  9
$DIMTSZ
 40
0.0
  9
$DIMTOL
 70
     0
  9
$DIMLIM
 70
     0
  9
$DIMTIH
 70
     1
  9
$DIMTOH
 70
     1
  9
$DIMSE1
 70
     0
  9
$DIMSE2
 70
     0
  9
$DIMTAD
 70
     0
  9
$DIMZIN
 70
     0
  9
$DIMBLK
  1

  9
$DIMASO
 70
     1
  9
$DIMSHO
 70
     1
  9
$DIMPOST
  1

  9
$DIMAPOST
  1

  9
$DIMALT
 70
     0
  9
$DIMALTD
 70
     2
  9
$DIMALTF
 40
25.4
  9
$DIMLFAC
 40
1.0
  9
$DIMTOFL
 70
     0
  9
$DIMTVP
 40
0.0
  9
$DIMTIX
 70
     0
  9
$DIMSOXD
 70
     0
  9
$DIMSAH
 70
     0
  9
$DIMBLK1
  1

  9
$DIMBLK2
  1

  9
$DIMSTYLE
  2
STANDARD
  9
$DIMCLRD
 70
     0
  9
$DIMCLRE
 70
     0
  9
$DIMCLRT
 70
     0
  9
$DIMTFAC
 40
1.0
  9
$DIMGAP
 40
0.09
  9
$LUNITS
 70
     2
  9
$LUPREC
 70
     4
  9
$SKETCHINC
 40
0.1
  9
$FILLETRAD
 40
0.5
  9
$AUNITS
 70
     0
  9
$AUPREC
 70
     0
  9
$MENU
  1
.
  9
$ELEVATION
 40
0.0
  9
$PELEVATION
 40
0.0
  9
$THICKNESS
 40
0.0
  9
$LIMCHECK
 70
     0
  9
$CHAMFERA
 40
0.5
  9
$CHAMFERB
 40
0.5
  9
$SKPOLY
 70
     0
  9
$TDCREATE
 40
2455541.625759178
  9
$TDUPDATE
 40
2455541.625759178
  9
$TDINDWG
 40
0.0000000116
  9
$TDUSRTIMER
 40
0.0000000116
  9
$USRTIMER
 70
     1
  9
$ANGBASE
 50
0.0
  9
$ANGDIR
 70
     0
  9
$PDMODE
 70
     0
  9
$PDSIZE
 40
0.0
  9
$PLINEWID
 40
0.0
  9
$COORDS
 70
     1
  9
$SPLFRAME
 70
     0
  9
$SPLINETYPE
 70
     6
  9
$SPLINESEGS
 70
     8
  9
$ATTDIA
 70
     0
  9
$ATTREQ
 70
     1
  9
$HANDLING
 70
     1
  9
$HANDSEED
  5
32F
  9
$SURFTAB1
 70
     6
  9
$SURFTAB2
 70
     6
  9
$SURFTYPE
 70
     6
  9
$SURFU
 70
     6
  9
$SURFV
 70
     6
  9
$UCSNAME
  2

  9
$UCSORG
 10
0.0
 20
0.0
 30
0.0
  9
$UCSXDIR
 10
1.0
 20
0.0
 30
0.0
  9
$UCSYDIR
 10
0.0
 20
1.0
 30
0.0
  9
$PUCSNAME
  2

  9
$PUCSORG
 10
0.0
 20
0.0
 30
0.0
  9
$PUCSXDIR
 10
1.0
 20
0.0
 30
0.0
  9
$PUCSYDIR
 10
0.0
 20
1.0
 30
0.0
  9
$USERI1
 70
     0
  9
$USERI2
 70
     0
  9
$USERI3
 70
     0
  9
$USERI4
 70
     0
  9
$USERI5
 70
     0
  9
$USERR1
 40
0.0
  9
$USERR2
 40
0.0
  9
$USERR3
 40
0.0
  9
$USERR4
 40
0.0
  9
$USERR5
 40
0.0
  9
$WORLDVIEW
 70
     1
  9
$SHADEDGE
 70
     3
  9
$SHADEDIF
 70
    70
  9
$TILEMODE
 70
     1
  9
$MAXACTVP
 70
    64
  9
$PLIMCHECK
 70
     0
  9
$PEXTMIN
 10
1.000000000000000E+20
 20
1.000000000000000E+20
 30
1.000000000000000E+20
  9
$PEXTMAX
 10
-1.000000000000000E+20
 20
-1.000000000000000E+20
 30
-1.000000000000000E+20
  9
$PLIMMIN
 10
0.0
 20
0.0
  9
$PLIMMAX
 10
12.0
 20
9.0
  9
$UNITMODE
 70
     0
  9
$VISRETAIN
 70
     1
  9
$PLINEGEN
 70
     0
  9
$PSLTSCALE
 70
     1
  0
ENDSEC
  0
SECTION
  2
TABLES
  0
TABLE
  2
VPORT
 70
     1
  0
VPORT
  2
*ACTIVE
 70
     0
 10
0.0
 20
0.0
 11
1.0
 21
1.0
 12
0.0
 22
0.0
 13
0.0
 23
0.0
 14
0.5
 24
0.5
 15
0.5
 25
0.5
 16
234.9622802734375
 26
134.2525939941406
 36
234.9622802734375
 17
72.39999389648438
 27
0.0
 37
-2.917495727539062
 40
128.5796960361927
 41
1.972972972850329
 42
50.0
 43
0.0
 44
0.0
 50
0.0
 51
0.0
 71
     0
 72
   100
 73
     1
 74
     3
 75
     0
 76
     0
 77
     0
 78
     0
  0
ENDTAB
  0
TABLE
  2
LTYPE
 70
     1
  0
LTYPE
  2
CONTINUOUS
 70
     0
  3
Solid line
 72
    65
 73
     0
 40
0.0
  0
ENDTAB
  0
TABLE
  2
LAYER
 70
     2
  0
LAYER
  2
0
 70
     0
 62
     7
  6
CONTINUOUS
  0
LAYER
  2
LAYER_1
 70
     0
 62
     7
  6
CONTINUOUS
  0
ENDTAB
  0
TABLE
  2
STYLE
 70
     1
  0
STYLE
  2
STANDARD
 70
     0
 40
0.0
 41
1.0
 50
0.0
 71
     0
 42
0.2
  3
txt
  4

  0
ENDTAB
  0
TABLE
  2
VIEW
 70
     0
  0
ENDTAB
  0
TABLE
  2
UCS
 70
     0
  0
ENDTAB
  0
TABLE
  2
APPID
 70
     1
  0
APPID
  2
ACAD
 70
     0
  0
ENDTAB
  0
TABLE
  2
DIMSTYLE
 70
     1
  0
DIMSTYLE
  2
STANDARD
 70
     0
  3

  4

  5

  6

  7

 40
1.0
 41
0.18
 42
0.0625
 43
0.38
 44
0.18
 45
0.0
 46
0.0
 47
0.0
 48
0.0
140
0.18
141
0.09
142
0.0
143
25.4
144
1.0
145
0.0
146
1.0
147
0.09
 71
     0
 72
     0
 73
     1
 74
     1
 75
     0
 76
     0
 77
     0
 78
     0
170
     0
171
     2
172
     0
173
     0
174
     0
175
     0
176
     0
177
     0
178
     0
  0
ENDTAB
  0
ENDSEC
  0
SECTION
  2
BLOCKS
  0
BLOCK
  8
0
  2
$MODEL_SPACE
 70
     0
 10
0.0
 20
0.0
 30
0.0
  3
$MODEL_SPACE
  1

  0
ENDBLK
  5
21
  8
0
  0
BLOCK
 67
     1
  8
0
  2
$PAPER_SPACE
 70
     0
 10
0.0
 20
0.0
 30
0.0
  3
$PAPER_SPACE
  1

  0
ENDBLK
  5
1D
 67
     1
  8
0
  0
BLOCK
  8
0
  2
E3_NODE
 70
     0
 10
0.0
 20
0.0
 30
0.0
  3
E3_NODE
  1

  0
POLYLINE
  5
3C
  8
0
 62
     9
 66
     1
 10
0.0
 20
0.0
 30
0.0
 70
    64
 71
    24
 72
    24
  0
VERTEX
  5
3D
  8
0
 10
92.30000305175781
 20
-16.41900062561035
 30
-14.64299964904785
 70
   192
  0
VERTEX
  5
3E
  8
0
 10
92.30000305175781
 20
-21.72900009155273
 30
-3.441999912261963
 70
   192
  0
VERTEX
  5
3F
  8
0
 10
32.79999923706055
 20
-21.72900009155273
 30
-3.441999912261963
 70
   192
  0
VERTEX
  5
40
  8
0
 10
32.79999923706055
 20
-5.895999908447266
 30
-21.19499969482422
 70
   192
  0
VERTEX
  5
41
  8
0
 10
92.30000305175781
 20
-5.895999908447266
 30
-21.19499969482422
 70
   192
  0
VERTEX
  5
42
  8
0
 10
32.79999923706055
 20
6.499000072479248
 30
-21.01799964904785
 70
   192
  0
VERTEX
  5
43
  8
0
 10
92.30000305175781
 20
6.499000072479248
 30
-21.01799964904785
 70
   192
  0
VERTEX
  5
44
  8
0
 10
92.30000305175781
 20
3.441999912261963
 30
-21.72900009155273
 70
   192
  0
VERTEX
  5
45
  8
0
 10
32.79999923706055
 20
3.441999912261963
 30
-21.72900009155273
 70
   192
  0
VERTEX
  5
46
  8
0
 10
32.79999923706055
 20
16.83099937438965
 30
-14.16800022125244
 70
   192
  0
VERTEX
  5
47
  8
0
 10
92.30000305175781
 20
16.83099937438965
 30
-14.16800022125244
 70
   192
  0
VERTEX
  5
48
  8
0
 10
32.79999923706055
 20
21.81900024414062
 30
-2.819999933242798
 70
   192
  0
VERTEX
  5
49
  8
0
 10
92.30000305175781
 20
21.81900024414062
 30
-2.819999933242798
 70
   192
  0
VERTEX
  5
4A
  8
0
 10
32.79999923706055
 20
19.87899971008301
 30
9.423999786376953
 70
   192
  0
VERTEX
  5
4B
  8
0
 10
92.30000305175781
 20
19.87899971008301
 30
9.423999786376953
 70
   192
  0
VERTEX
  5
4C
  8
0
 10
32.79999923706055
 20
11.62899971008301
 30
18.67600059509277
 70
   192
  0
VERTEX
  5
4D
  8
0
 10
92.30000305175781
 20
11.62899971008301
 30
18.67600059509277
 70
   192
  0
VERTEX
  5
4E
  8
0
 10
92.30000305175781
 20
-0.3140000104904175
 30
21.99799919128418
 70
   192
  0
VERTEX
  5
4F
  8
0
 10
92.30000305175781
 20
-12.1569995880127
 30
18.33600044250488
 70
   192
  0
VERTEX
  5
50
  8
0
 10
32.79999923706055
 20
-0.3140000104904175
 30
21.99799919128418
 70
   192
  0
VERTEX
  5
51
  8
0
 10
92.30000305175781
 20
-20.13999938964844
 30
8.85200023651123
 70
   192
  0
VERTEX
  5
52
  8
0
 10
32.79999923706055
 20
-12.1569995880127
 30
18.33600044250488
 70
   192
  0
VERTEX
  5
53
  8
0
 10
32.79999923706055
 20
-20.13999938964844
 30
8.85200023651123
 70
   192
  0
VERTEX
  5
54
  8
0
 10
32.79999923706055
 20
-16.41900062561035
 30
-14.64299964904785
 70
   192
  0
VERTEX
  5
55
  8
0
 62
     9
 10
0.0
 20
0.0
 30
0.0
 70
   128
 71
     3
 72
     2
 73
     1
  0
VERTEX
  5
56
  8
0
 62
     9
 10
0.0
 20
0.0
 30
0.0
 70
   128
 71
     1
 72
     5
 73
     4
  0
VERTEX
  5
57
  8
0
 62
     9
 10
0.0
 20
0.0
 30
0.0
 70
   128
 71
     8
 72
     7
 73
     6
  0
VERTEX
  5
58
  8
0
 62
     9
 10
0.0
 20
0.0
 30
0.0
 70
   128
 71
     9
 72
     4
 73
     5
  0
VERTEX
  5
59
  8
0
 62
     9
 10
0.0
 20
0.0
 30
0.0
 70
   128
 71
     5
 72
     8
 73
     9
  0
VERTEX
  5
5A
  8
0
 62
     9
 10
0.0
 20
0.0
 30
0.0
 70
   128
 71
     7
 72
    11
 73
    10
  0
VERTEX
  5
5B
  8
0
 62
     9
 10
0.0
 20
0.0
 30
0.0
 70
   128
 71
    11
 72
    13
 73
    12
  0
VERTEX
  5
5C
  8
0
 62
     9
 10
0.0
 20
0.0
 30
0.0
 70
   128
 71
    13
 72
    15
 73
    14
  0
VERTEX
  5
5D
  8
0
 62
     9
 10
0.0
 20
0.0
 30
0.0
 70
   128
 71
    15
 72
    17
 73
    16
  0
VERTEX
  5
5E
  8
0
 62
     9
 10
0.0
 20
0.0
 30
0.0
 70
   128
 71
    16
 72
    17
 73
    18
  0
VERTEX
  5
5F
  8
0
 62
     9
 10
0.0
 20
0.0
 30
0.0
 70
   128
 71
    20
 72
    18
 73
    19
  0
VERTEX
  5
60
  8
0
 62
     9
 10
0.0
 20
0.0
 30
0.0
 70
   128
 71
    22
 72
    19
 73
    21
  0
VERTEX
  5
61
  8
0
 62
     9
 10
0.0
 20
0.0
 30
0.0
 70
   128
 71
    23
 72
    21
 73
     2
  0
VERTEX
  5
62
  8
0
 62
     9
 10
0.0
 20
0.0
 30
0.0
 70
   128
 71
     2
 72
     3
 73
    23
  0
VERTEX
  5
63
  8
0
 62
     9
 10
0.0
 20
0.0
 30
0.0
 70
   128
 71
    21
 72
    23
 73
    22
  0
VERTEX
  5
64
  8
0
 62
     9
 10
0.0
 20
0.0
 30
0.0
 70
   128
 71
    19
 72
    22
 73
    20
  0
VERTEX
  5
65
  8
0
 62
     9
 10
0.0
 20
0.0
 30
0.0
 70
   128
 71
    18
 72
    20
 73
    16
  0
VERTEX
  5
66
  8
0
 62
     9
 10
0.0
 20
0.0
 30
0.0
 70
   128
 71
    16
 72
    14
 73
    15
  0
VERTEX
  5
67
  8
0
 62
     9
 10
0.0
 20
0.0
 30
0.0
 70
   128
 71
    14
 72
    12
 73
    13
  0
VERTEX
  5
68
  8
0
 62
     9
 10
0.0
 20
0.0
 30
0.0
 70
   128
 71
    12
 72
    10
 73
    11
  0
VERTEX
  5
69
  8
0
 62
     9
 10
0.0
 20
0.0
 30
0.0
 70
   128
 71
    10
 72
     6
 73
     7
  0
VERTEX
  5
6A
  8
0
 62
     9
 10
0.0
 20
0.0
 30
0.0
 70
   128
 71
     6
 72
     9
 73
     8
  0
VERTEX
  5
6B
  8
0
 62
     9
 10
0.0
 20
0.0
 30
0.0
 70
   128
 71
     4
 72
    24
 73
     1
  0
VERTEX
  5
6C
  8
0
 62
     9
 10
0.0
 20
0.0
 30
0.0
 70
   128
 71
     1
 72
    24
 73
     3
  0
SEQEND
  5
6D
  8
0
 62
     9
  0
ENDBLK
  5
71
  8
0
  0
BLOCK
  8
0
  2
E3_NODE_1_
 70
     0
 10
0.0
 20
0.0
 30
0.0
  3
E3_NODE_1_
  1

  0
POLYLINE
  5
73
  8
0
 62
     9
 66
     1
 10
0.0
 20
0.0
 30
0.0
 70
    64
 71
    12
 72
    10
  0
VERTEX
  5
74
  8
0
 10
92.30000305175781
 20
-12.1569995880127
 30
18.33600044250488
 70
   192
  0
VERTEX
  5
75
  8
0
 10
92.30000305175781
 20
-21.72900009155273
 30
-3.441999912261963
 70
   192
  0
VERTEX
  5
76
  8
0
 10
92.30000305175781
 20
-16.41900062561035
 30
-14.64299964904785
 70
   192
  0
VERTEX
  5
77
  8
0
 10
92.30000305175781
 20
-0.3140000104904175
 30
21.99799919128418
 70
   192
  0
VERTEX
  5
78
  8
0
 10
92.30000305175781
 20
21.81900024414062
 30
-2.819999933242798
 70
   192
  0
VERTEX
  5
79
  8
0
 10
92.30000305175781
 20
19.87899971008301
 30
9.423999786376953
 70
   192
  0
VERTEX
  5
7A
  8
0
 10
92.30000305175781
 20
6.499000072479248
 30
-21.01799964904785
 70
   192
  0
VERTEX
  5
7B
  8
0
 10
92.30000305175781
 20
16.83099937438965
 30
-14.16800022125244
 70
   192
  0
VERTEX
  5
7C
  8
0
 10
92.30000305175781
 20
-20.13999938964844
 30
8.85200023651123
 70
   192
  0
VERTEX
  5
7D
  8
0
 10
92.30000305175781
 20
-5.895999908447266
 30
-21.19499969482422
 70
   192
  0
VERTEX
  5
7E
  8
0
 10
92.30000305175781
 20
3.441999912261963
 30
-21.72900009155273
 70
   192
  0
VERTEX
  5
7F
  8
0
 10
92.30000305175781
 20
11.62899971008301
 30
18.67600059509277
 70
   192
  0
VERTEX
  5
80
  8
0
 62
     9
 10
0.0
 20
0.0
 30
0.0
 70
   128
 71
     3
 72
     2
 73
     1
  0
VERTEX
  5
81
  8
0
 62
     9
 10
0.0
 20
0.0
 30
0.0
 70
   128
 71
     6
 72
     5
 73
     4
  0
VERTEX
  5
82
  8
0
 62
     9
 10
0.0
 20
0.0
 30
0.0
 70
   128
 71
     8
 72
     7
 73
     4
  0
VERTEX
  5
83
  8
0
 62
     9
 10
0.0
 20
0.0
 30
0.0
 70
   128
 71
     2
 72
     9
 73
     1
  0
VERTEX
  5
84
  8
0
 62
     9
 10
0.0
 20
0.0
 30
0.0
 70
   128
 71
     4
 72
     5
 73
     8
  0
VERTEX
  5
85
  8
0
 62
     9
 10
0.0
 20
0.0
 30
0.0
 70
   128
 71
     1
 72
     4
 73
    10
  0
VERTEX
  5
86
  8
0
 62
     9
 10
0.0
 20
0.0
 30
0.0
 70
   128
 71
     7
 72
    11
 73
     4
  0
VERTEX
  5
87
  8
0
 62
     9
 10
0.0
 20
0.0
 30
0.0
 70
   128
 71
     1
 72
    10
 73
     3
  0
VERTEX
  5
88
  8
0
 62
     9
 10
0.0
 20
0.0
 30
0.0
 70
   128
 71
     4
 72
    11
 73
    10
  0
VERTEX
  5
89
  8
0
 62
     9
 10
0.0
 20
0.0
 30
0.0
 70
   128
 71
     4
 72
    12
 73
     6
  0
SEQEND
  5
8A
  8
0
 62
     9
  0
ENDBLK
  5
8D
  8
0
  0
BLOCK
  8
0
  2
E3_NODE_2_
 70
     0
 10
0.0
 20
0.0
 30
0.0
  3
E3_NODE_2_
  1

  0
POLYLINE
  5
8F
  8
0
 62
     9
 66
     1
 10
0.0
 20
0.0
 30
0.0
 70
    64
 71
    14
 72
    14
  0
VERTEX
  5
90
  8
0
 10
96.5
 20
-8.5
 30
0.0
 70
   192
  0
VERTEX
  5
91
  8
0
 10
96.5
 20
-5.300000190734863
 30
-6.644999980926514
 70
   192
  0
VERTEX
  5
92
  8
0
 10
97.5
 20
-5.300000190734863
 30
-6.644999980926514
 70
   192
  0
VERTEX
  5
93
  8
0
 10
97.5
 20
-8.5
 30
0.0
 70
   192
  0
VERTEX
  5
94
  8
0
 10
96.5
 20
1.891000032424927
 30
-8.286999702453613
 70
   192
  0
VERTEX
  5
95
  8
0
 10
97.5
 20
1.891000032424927
 30
-8.286999702453613
 70
   192
  0
VERTEX
  5
96
  8
0
 10
96.5
 20
7.657999992370605
 30
-3.687999963760376
 70
   192
  0
VERTEX
  5
97
  8
0
 10
97.5
 20
7.657999992370605
 30
-3.687999963760376
 70
   192
  0
VERTEX
  5
98
  8
0
 10
96.5
 20
7.657999992370605
 30
3.687999963760376
 70
   192
  0
VERTEX
  5
99
  8
0
 10
97.5
 20
7.657999992370605
 30
3.687999963760376
 70
   192
  0
VERTEX
  5
9A
  8
0
 10
96.5
 20
1.891999959945679
 30
8.286999702453613
 70
   192
  0
VERTEX
  5
9B
  8
0
 10
97.5
 20
1.891999959945679
 30
8.286999702453613
 70
   192
  0
VERTEX
  5
9C
  8
0
 10
96.5
 20
-5.298999786376953
 30
6.645999908447266
 70
   192
  0
VERTEX
  5
9D
  8
0
 10
97.5
 20
-5.298999786376953
 30
6.645999908447266
 70
   192
  0
VERTEX
  5
9E
  8
0
 62
     9
 10
0.0
 20
0.0
 30
0.0
 70
   128
 71
     3
 72
     2
 73
     1
  0
VERTEX
  5
9F
  8
0
 62
     9
 10
0.0
 20
0.0
 30
0.0
 70
   128
 71
     4
 72
     3
 73
     1
  0
VERTEX
  5
A0
  8
0
 62
     9
 10
0.0
 20
0.0
 30
0.0
 70
   128
 71
     6
 72
     5
 73
     2
  0
VERTEX
  5
A1
  8
0
 62
     9
 10
0.0
 20
0.0
 30
0.0
 70
   128
 71
     3
 72
     6
 73
     2
  0
VERTEX
  5
A2
  8
0
 62
     9
 10
0.0
 20
0.0
 30
0.0
 70
   128
 71
     8
 72
     7
 73
     5
  0
VERTEX
  5
A3
  8
0
 62
     9
 10
0.0
 20
0.0
 30
0.0
 70
   128
 71
     6
 72
     8
 73
     5
  0
VERTEX
  5
A4
  8
0
 62
     9
 10
0.0
 20
0.0
 30
0.0
 70
   128
 71
    10
 72
     9
 73
     7
  0
VERTEX
  5
A5
  8
0
 62
     9
 10
0.0
 20
0.0
 30
0.0
 70
   128
 71
     8
 72
    10
 73
     7
  0
VERTEX
  5
A6
  8
0
 62
     9
 10
0.0
 20
0.0
 30
0.0
 70
   128
 71
    12
 72
    11
 73
     9
  0
VERTEX
  5
A7
  8
0
 62
     9
 10
0.0
 20
0.0
 30
0.0
 70
   128
 71
    10
 72
    12
 73
     9
  0
VERTEX
  5
A8
  8
0
 62
     9
 10
0.0
 20
0.0
 30
0.0
 70
   128
 71
    14
 72
    13
 73
    11
  0
VERTEX
  5
A9
  8
0
 62
     9
 10
0.0
 20
0.0
 30
0.0
 70
   128
 71
    12
 72
    14
 73
    11
  0
VERTEX
  5
AA
  8
0
 62
     9
 10
0.0
 20
0.0
 30
0.0
 70
   128
 71
     4
 72
     1
 73
    13
  0
VERTEX
  5
AB
  8
0
 62
     9
 10
0.0
 20
0.0
 30
0.0
 70
   128
 71
    14
 72
     4
 73
    13
  0
SEQEND
  5
AC
  8
0
 62
     9
  0
ENDBLK
  5
AF
  8
0
  0
BLOCK
  8
0
  2
E3_NODE_3_
 70
     0
 10
0.0
 20
0.0
 30
0.0
  3
E3_NODE_3_
  1

  0
POLYLINE
  5
B1
  8
0
 62
     9
 66
     1
 10
0.0
 20
0.0
 30
0.0
 70
    64
 71
    19
 72
    19
  0
VERTEX
  5
B2
  8
0
 10
96.5
 20
-7.423999786376953
 30
12.86100006103516
 70
   192
  0
VERTEX
  5
B3
  8
0
 10
96.5
 20
-4.193999767303467
 30
6.217999935150146
 70
   192
  0
VERTEX
  5
B4
  8
0
 10
96.5
 20
0.7839999794960022
 30
7.459000110626221
 70
   192
  0
VERTEX
  5
B5
  8
0
 10
96.5
 20
-13.56599998474121
 30
6.040999889373779
 70
   192
  0
VERTEX
  5
B6
  8
0
 10
96.5
 20
-7.209000110626221
 30
2.068000078201294
 70
   192
  0
VERTEX
  5
B7
  8
0
 10
96.5
 20
-14.52600002288818
 30
-3.086999893188477
 70
   192
  0
VERTEX
  5
B8
  8
0
 10
96.5
 20
-6.85200023651123
 30
-3.049999952316284
 70
   192
  0
VERTEX
  5
B9
  8
0
 10
96.5
 20
-9.937000274658203
 30
-11.03499984741211
 70
   192
  0
VERTEX
  5
BA
  8
0
 10
96.5
 20
-3.288000106811523
 30
-6.741000175476074
 70
   192
  0
VERTEX
  5
BB
  8
0
 10
96.5
 20
-1.552999973297119
 30
-14.76900005340576
 70
   192
  0
VERTEX
  5
BC
  8
0
 10
96.5
 20
7.423999786376953
 30
-12.86100006103516
 70
   192
  0
VERTEX
  5
BD
  8
0
 10
96.5
 20
1.814000010490417
 30
-7.276999950408936
 70
   192
  0
VERTEX
  5
BE
  8
0
 10
96.5
 20
13.56599998474121
 30
-6.040999889373779
 70
   192
  0
VERTEX
  5
BF
  8
0
 10
96.5
 20
6.066999912261963
 30
-4.408999919891357
 70
   192
  0
VERTEX
  5
C0
  8
0
 10
96.5
 20
14.52600002288818
 30
3.086999893188477
 70
   192
  0
VERTEX
  5
C1
  8
0
 10
96.5
 20
7.48199987411499
 30
0.5230000019073486
 70
   192
  0
VERTEX
  5
C2
  8
0
 10
96.5
 20
9.937000274658203
 30
11.03499984741211
 70
   192
  0
VERTEX
  5
C3
  8
0
 10
96.5
 20
5.394999980926514
 30
5.210000038146973
 70
   192
  0
VERTEX
  5
C4
  8
0
 10
96.5
 20
1.552999973297119
 30
14.76900005340576
 70
   192
  0
VERTEX
  5
C5
  8
0
 62
     9
 10
0.0
 20
0.0
 30
0.0
 70
   128
 71
     3
 72
     2
 73
     1
  0
VERTEX
  5
C6
  8
0
 62
     9
 10
0.0
 20
0.0
 30
0.0
 70
   128
 71
     2
 72
     5
 73
     4
  0
VERTEX
  5
C7
  8
0
 62
     9
 10
0.0
 20
0.0
 30
0.0
 70
   128
 71
     5
 72
     7
 73
     6
  0
VERTEX
  5
C8
  8
0
 62
     9
 10
0.0
 20
0.0
 30
0.0
 70
   128
 71
     7
 72
     9
 73
     8
  0
VERTEX
  5
C9
  8
0
 62
     9
 10
0.0
 20
0.0
 30
0.0
 70
   128
 71
     4
 72
     1
 73
     2
  0
VERTEX
  5
CA
  8
0
 62
     9
 10
0.0
 20
0.0
 30
0.0
 70
   128
 71
     8
 72
     6
 73
     7
  0
VERTEX
  5
CB
  8
0
 62
     9
 10
0.0
 20
0.0
 30
0.0
 70
   128
 71
    12
 72
    11
 73
    10
  0
VERTEX
  5
CC
  8
0
 62
     9
 10
0.0
 20
0.0
 30
0.0
 70
   128
 71
     6
 72
     4
 73
     5
  0
VERTEX
  5
CD
  8
0
 62
     9
 10
0.0
 20
0.0
 30
0.0
 70
   128
 71
    10
 72
     8
 73
     9
  0
VERTEX
  5
CE
  8
0
 62
     9
 10
0.0
 20
0.0
 30
0.0
 70
   128
 71
    14
 72
    13
 73
    11
  0
VERTEX
  5
CF
  8
0
 62
     9
 10
0.0
 20
0.0
 30
0.0
 70
   128
 71
    16
 72
    15
 73
    13
  0
VERTEX
  5
D0
  8
0
 62
     9
 10
0.0
 20
0.0
 30
0.0
 70
   128
 71
    18
 72
    17
 73
    15
  0
VERTEX
  5
D1
  8
0
 62
     9
 10
0.0
 20
0.0
 30
0.0
 70
   128
 71
     3
 72
    19
 73
    17
  0
VERTEX
  5
D2
  8
0
 62
     9
 10
0.0
 20
0.0
 30
0.0
 70
   128
 71
    10
 72
     9
 73
    12
  0
VERTEX
  5
D3
  8
0
 62
     9
 10
0.0
 20
0.0
 30
0.0
 70
   128
 71
    13
 72
    14
 73
    16
  0
VERTEX
  5
D4
  8
0
 62
     9
 10
0.0
 20
0.0
 30
0.0
 70
   128
 71
    17
 72
    18
 73
     3
  0
VERTEX
  5
D5
  8
0
 62
     9
 10
0.0
 20
0.0
 30
0.0
 70
   128
 71
    11
 72
    12
 73
    14
  0
VERTEX
  5
D6
  8
0
 62
     9
 10
0.0
 20
0.0
 30
0.0
 70
   128
 71
     1
 72
    19
 73
     3
  0
VERTEX
  5
D7
  8
0
 62
     9
 10
0.0
 20
0.0
 30
0.0
 70
   128
 71
    15
 72
    16
 73
    18
  0
SEQEND
  5
D8
  8
0
 62
     9
  0
ENDBLK
  5
DB
  8
0
  0
BLOCK
  8
0
  2
E3_NODE_4_
 70
     0
 10
0.0
 20
0.0
 30
0.0
  3
E3_NODE_4_
  1

  0
POLYLINE
  5
DD
  8
0
 62
     9
 66
     1
 10
0.0
 20
0.0
 30
0.0
 70
    64
 71
    20
 72
    20
  0
VERTEX
  5
DE
  8
0
 10
74.5
 20
-1.552999973297119
 30
-14.76900005340576
 70
   192
  0
VERTEX
  5
DF
  8
0
 10
96.5
 20
-1.552999973297119
 30
-14.76900005340576
 70
   192
  0
VERTEX
  5
E0
  8
0
 10
96.5
 20
-9.937000274658203
 30
-11.03499984741211
 70
   192
  0
VERTEX
  5
E1
  8
0
 10
96.5
 20
-14.52600002288818
 30
-3.086999893188477
 70
   192
  0
VERTEX
  5
E2
  8
0
 10
74.5
 20
-14.52600002288818
 30
-3.086999893188477
 70
   192
  0
VERTEX
  5
E3
  8
0
 10
74.5
 20
-9.937000274658203
 30
-11.03499984741211
 70
   192
  0
VERTEX
  5
E4
  8
0
 10
96.5
 20
-13.56599998474121
 30
6.040999889373779
 70
   192
  0
VERTEX
  5
E5
  8
0
 10
74.5
 20
-13.56599998474121
 30
6.040999889373779
 70
   192
  0
VERTEX
  5
E6
  8
0
 10
96.5
 20
-7.423999786376953
 30
12.86100006103516
 70
   192
  0
VERTEX
  5
E7
  8
0
 10
74.5
 20
-7.423999786376953
 30
12.86100006103516
 70
   192
  0
VERTEX
  5
E8
  8
0
 10
74.5
 20
1.552999973297119
 30
14.76900005340576
 70
   192
  0
VERTEX
  5
E9
  8
0
 10
96.5
 20
1.552999973297119
 30
14.76900005340576
 70
   192
  0
VERTEX
  5
EA
  8
0
 10
96.5
 20
9.937000274658203
 30
11.03499984741211
 70
   192
  0
VERTEX
  5
EB
  8
0
 10
74.5
 20
9.937000274658203
 30
11.03499984741211
 70
   192
  0
VERTEX
  5
EC
  8
0
 10
74.5
 20
14.52600002288818
 30
3.086999893188477
 70
   192
  0
VERTEX
  5
ED
  8
0
 10
74.5
 20
13.56599998474121
 30
-6.040999889373779
 70
   192
  0
VERTEX
  5
EE
  8
0
 10
96.5
 20
14.52600002288818
 30
3.086999893188477
 70
   192
  0
VERTEX
  5
EF
  8
0
 10
96.5
 20
7.423999786376953
 30
-12.86100006103516
 70
   192
  0
VERTEX
  5
F0
  8
0
 10
74.5
 20
7.423999786376953
 30
-12.86100006103516
 70
   192
  0
VERTEX
  5
F1
  8
0
 10
96.5
 20
13.56599998474121
 30
-6.040999889373779
 70
   192
  0
VERTEX
  5
F2
  8
0
 62
     9
 10
0.0
 20
0.0
 30
0.0
 70
   128
 71
     3
 72
     2
 73
     1
  0
VERTEX
  5
F3
  8
0
 62
     9
 10
0.0
 20
0.0
 30
0.0
 70
   128
 71
     6
 72
     5
 73
     4
  0
VERTEX
  5
F4
  8
0
 62
     9
 10
0.0
 20
0.0
 30
0.0
 70
   128
 71
     5
 72
     8
 73
     7
  0
VERTEX
  5
F5
  8
0
 62
     9
 10
0.0
 20
0.0
 30
0.0
 70
   128
 71
     8
 72
    10
 73
     9
  0
VERTEX
  5
F6
  8
0
 62
     9
 10
0.0
 20
0.0
 30
0.0
 70
   128
 71
     9
 72
    10
 73
    11
  0
VERTEX
  5
F7
  8
0
 62
     9
 10
0.0
 20
0.0
 30
0.0
 70
   128
 71
    14
 72
    13
 73
    12
  0
VERTEX
  5
F8
  8
0
 62
     9
 10
0.0
 20
0.0
 30
0.0
 70
   128
 71
    13
 72
    14
 73
    15
  0
VERTEX
  5
F9
  8
0
 62
     9
 10
0.0
 20
0.0
 30
0.0
 70
   128
 71
    17
 72
    15
 73
    16
  0
VERTEX
  5
FA
  8
0
 62
     9
 10
0.0
 20
0.0
 30
0.0
 70
   128
 71
    16
 72
    19
 73
    18
  0
VERTEX
  5
FB
  8
0
 62
     9
 10
0.0
 20
0.0
 30
0.0
 70
   128
 71
    19
 72
     1
 73
     2
  0
VERTEX
  5
FC
  8
0
 62
     9
 10
0.0
 20
0.0
 30
0.0
 70
   128
 71
     2
 72
    18
 73
    19
  0
VERTEX
  5
FD
  8
0
 62
     9
 10
0.0
 20
0.0
 30
0.0
 70
   128
 71
    18
 72
    20
 73
    16
  0
VERTEX
  5
FE
  8
0
 62
     9
 10
0.0
 20
0.0
 30
0.0
 70
   128
 71
    16
 72
    20
 73
    17
  0
VERTEX
  5
FF
  8
0
 62
     9
 10
0.0
 20
0.0
 30
0.0
 70
   128
 71
    15
 72
    17
 73
    13
  0
VERTEX
  5
100
  8
0
 62
     9
 10
0.0
 20
0.0
 30
0.0
 70
   128
 71
    12
 72
    11
 73
    14
  0
VERTEX
  5
101
  8
0
 62
     9
 10
0.0
 20
0.0
 30
0.0
 70
   128
 71
    11
 72
    12
 73
     9
  0
VERTEX
  5
102
  8
0
 62
     9
 10
0.0
 20
0.0
 30
0.0
 70
   128
 71
     9
 72
     7
 73
     8
  0
VERTEX
  5
103
  8
0
 62
     9
 10
0.0
 20
0.0
 30
0.0
 70
   128
 71
     7
 72
     4
 73
     5
  0
VERTEX
  5
104
  8
0
 62
     9
 10
0.0
 20
0.0
 30
0.0
 70
   128
 71
     4
 72
     3
 73
     6
  0
VERTEX
  5
105
  8
0
 62
     9
 10
0.0
 20
0.0
 30
0.0
 70
   128
 71
     1
 72
     6
 73
     3
  0
SEQEND
  5
106
  8
0
 62
     9
  0
ENDBLK
  5
109
  8
0
  0
BLOCK
  8
0
  2
E3_NODE_5_
 70
     0
 10
0.0
 20
0.0
 30
0.0
  3
E3_NODE_5_
  1

  0
POLYLINE
  5
10B
  8
0
 62
     9
 66
     1
 10
0.0
 20
0.0
 30
0.0
 70
    64
 71
    18
 72
    16
  0
VERTEX
  5
10C
  8
0
 10
21.29999923706055
 20
-27.49799919128418
 30
47.63299942016602
 70
   192
  0
VERTEX
  5
10D
  8
0
 10
21.29999923706055
 20
42.13399887084961
 30
35.35100173950195
 70
   192
  0
VERTEX
  5
10E
  8
0
 10
21.29999923706055
 20
51.68399810791016
 30
18.80900001525879
 70
   192
  0
VERTEX
  5
10F
  8
0
 10
21.29999923706055
 20
-55.0
 30
0.003000000026077
 70
   192
  0
VERTEX
  5
110
  8
0
 10
21.29999923706055
 20
-51.68199920654297
 30
18.81399917602539
 70
   192
  0
VERTEX
  5
111
  8
0
 10
21.29999923706055
 20
-42.13399887084961
 30
-35.35100173950195
 70
   192
  0
VERTEX
  5
112
  8
0
 10
21.29999923706055
 20
-51.68399810791016
 30
-18.80900001525879
 70
   192
  0
VERTEX
  5
113
  8
0
 10
21.29999923706055
 20
-9.553000450134277
 30
-54.16400146484375
 70
   192
  0
VERTEX
  5
114
  8
0
 10
21.29999923706055
 20
-27.50200080871582
 30
-47.63000106811523
 70
   192
  0
VERTEX
  5
115
  8
0
 10
21.29999923706055
 20
27.49799919128418
 30
-47.63299942016602
 70
   192
  0
VERTEX
  5
116
  8
0
 10
21.29999923706055
 20
9.54800033569336
 30
-54.16500091552734
 70
   192
  0
VERTEX
  5
117
  8
0
 10
21.29999923706055
 20
51.68199920654297
 30
-18.81399917602539
 70
   192
  0
VERTEX
  5
118
  8
0
 10
21.29999923706055
 20
42.13100051879883
 30
-35.35499954223633
 70
   192
  0
VERTEX
  5
119
  8
0
 10
21.29999923706055
 20
27.50200080871582
 30
47.63000106811523
 70
   192
  0
VERTEX
  5
11A
  8
0
 10
21.29999923706055
 20
-9.54800033569336
 30
54.16500091552734
 70
   192
  0
VERTEX
  5
11B
  8
0
 10
21.29999923706055
 20
9.553000450134277
 30
54.16400146484375
 70
   192
  0
VERTEX
  5
11C
  8
0
 10
21.29999923706055
 20
55.0
 30
-0.003000000026077
 70
   192
  0
VERTEX
  5
11D
  8
0
 10
21.29999923706055
 20
-42.13100051879883
 30
35.35499954223633
 70
   192
  0
VERTEX
  5
11E
  8
0
 62
     9
 10
0.0
 20
0.0
 30
0.0
 70
   128
 71
     3
 72
     2
 73
     1
  0
VERTEX
  5
11F
  8
0
 62
     9
 10
0.0
 20
0.0
 30
0.0
 70
   128
 71
     5
 72
     4
 73
     1
  0
VERTEX
  5
120
  8
0
 62
     9
 10
0.0
 20
0.0
 30
0.0
 70
   128
 71
     7
 72
     6
 73
     1
  0
VERTEX
  5
121
  8
0
 62
     9
 10
0.0
 20
0.0
 30
0.0
 70
   128
 71
     9
 72
     8
 73
     1
  0
VERTEX
  5
122
  8
0
 62
     9
 10
0.0
 20
0.0
 30
0.0
 70
   128
 71
    11
 72
    10
 73
     1
  0
VERTEX
  5
123
  8
0
 62
     9
 10
0.0
 20
0.0
 30
0.0
 70
   128
 71
    13
 72
    12
 73
     1
  0
VERTEX
  5
124
  8
0
 62
     9
 10
0.0
 20
0.0
 30
0.0
 70
   128
 71
     2
 72
    14
 73
     1
  0
VERTEX
  5
125
  8
0
 62
     9
 10
0.0
 20
0.0
 30
0.0
 70
   128
 71
    16
 72
    15
 73
     1
  0
VERTEX
  5
126
  8
0
 62
     9
 10
0.0
 20
0.0
 30
0.0
 70
   128
 71
     1
 72
     4
 73
     7
  0
VERTEX
  5
127
  8
0
 62
     9
 10
0.0
 20
0.0
 30
0.0
 70
   128
 71
     1
 72
     8
 73
    11
  0
VERTEX
  5
128
  8
0
 62
     9
 10
0.0
 20
0.0
 30
0.0
 70
   128
 71
    12
 72
    17
 73
     1
  0
VERTEX
  5
129
  8
0
 62
     9
 10
0.0
 20
0.0
 30
0.0
 70
   128
 71
     1
 72
    14
 73
    16
  0
VERTEX
  5
12A
  8
0
 62
     9
 10
0.0
 20
0.0
 30
0.0
 70
   128
 71
     1
 72
     6
 73
     9
  0
VERTEX
  5
12B
  8
0
 62
     9
 10
0.0
 20
0.0
 30
0.0
 70
   128
 71
     1
 72
    17
 73
     3
  0
VERTEX
  5
12C
  8
0
 62
     9
 10
0.0
 20
0.0
 30
0.0
 70
   128
 71
     1
 72
    10
 73
    13
  0
VERTEX
  5
12D
  8
0
 62
     9
 10
0.0
 20
0.0
 30
0.0
 70
   128
 71
     1
 72
    18
 73
     5
  0
SEQEND
  5
12E
  8
0
 62
     9
  0
ENDBLK
  5
131
  8
0
  0
BLOCK
  8
0
  2
E3_NODE_6_
 70
     0
 10
0.0
 20
0.0
 30
0.0
  3
E3_NODE_6_
  1

  0
POLYLINE
  5
133
  8
0
 62
     9
 66
     1
 10
0.0
 20
0.0
 30
0.0
 70
    64
 71
    36
 72
    36
  0
VERTEX
  5
134
  8
0
 10
21.29999923706055
 20
-55.0
 30
0.003000000026077
 70
   192
  0
VERTEX
  5
135
  8
0
 10
30.29999923706055
 20
-55.0
 30
0.003000000026077
 70
   192
  0
VERTEX
  5
136
  8
0
 10
30.29999923706055
 20
-51.68199920654297
 30
18.81399917602539
 70
   192
  0
VERTEX
  5
137
  8
0
 10
30.29999923706055
 20
-42.13100051879883
 30
35.35499954223633
 70
   192
  0
VERTEX
  5
138
  8
0
 10
21.29999923706055
 20
-42.13100051879883
 30
35.35499954223633
 70
   192
  0
VERTEX
  5
139
  8
0
 10
21.29999923706055
 20
-51.68199920654297
 30
18.81399917602539
 70
   192
  0
VERTEX
  5
13A
  8
0
 10
30.29999923706055
 20
-27.49799919128418
 30
47.63299942016602
 70
   192
  0
VERTEX
  5
13B
  8
0
 10
21.29999923706055
 20
-27.49799919128418
 30
47.63299942016602
 70
   192
  0
VERTEX
  5
13C
  8
0
 10
30.29999923706055
 20
-9.54800033569336
 30
54.16500091552734
 70
   192
  0
VERTEX
  5
13D
  8
0
 10
21.29999923706055
 20
-9.54800033569336
 30
54.16500091552734
 70
   192
  0
VERTEX
  5
13E
  8
0
 10
30.29999923706055
 20
9.553000450134277
 30
54.16400146484375
 70
   192
  0
VERTEX
  5
13F
  8
0
 10
21.29999923706055
 20
9.553000450134277
 30
54.16400146484375
 70
   192
  0
VERTEX
  5
140
  8
0
 10
30.29999923706055
 20
27.50200080871582
 30
47.63000106811523
 70
   192
  0
VERTEX
  5
141
  8
0
 10
21.29999923706055
 20
27.50200080871582
 30
47.63000106811523
 70
   192
  0
VERTEX
  5
142
  8
0
 10
30.29999923706055
 20
42.13399887084961
 30
35.35100173950195
 70
   192
  0
VERTEX
  5
143
  8
0
 10
21.29999923706055
 20
42.13399887084961
 30
35.35100173950195
 70
   192
  0
VERTEX
  5
144
  8
0
 10
30.29999923706055
 20
51.68399810791016
 30
18.80900001525879
 70
   192
  0
VERTEX
  5
145
  8
0
 10
21.29999923706055
 20
51.68399810791016
 30
18.80900001525879
 70
   192
  0
VERTEX
  5
146
  8
0
 10
21.29999923706055
 20
55.0
 30
-0.003000000026077
 70
   192
  0
VERTEX
  5
147
  8
0
 10
30.29999923706055
 20
55.0
 30
-0.003000000026077
 70
   192
  0
VERTEX
  5
148
  8
0
 10
30.29999923706055
 20
51.68199920654297
 30
-18.81399917602539
 70
   192
  0
VERTEX
  5
149
  8
0
 10
21.29999923706055
 20
51.68199920654297
 30
-18.81399917602539
 70
   192
  0
VERTEX
  5
14A
  8
0
 10
21.29999923706055
 20
42.13100051879883
 30
-35.35499954223633
 70
   192
  0
VERTEX
  5
14B
  8
0
 10
30.29999923706055
 20
27.49799919128418
 30
-47.63299942016602
 70
   192
  0
VERTEX
  5
14C
  8
0
 10
21.29999923706055
 20
27.49799919128418
 30
-47.63299942016602
 70
   192
  0
VERTEX
  5
14D
  8
0
 10
30.29999923706055
 20
9.54800033569336
 30
-54.16500091552734
 70
   192
  0
VERTEX
  5
14E
  8
0
 10
21.29999923706055
 20
9.54800033569336
 30
-54.16500091552734
 70
   192
  0
VERTEX
  5
14F
  8
0
 10
30.29999923706055
 20
-9.553000450134277
 30
-54.16400146484375
 70
   192
  0
VERTEX
  5
150
  8
0
 10
21.29999923706055
 20
-9.553000450134277
 30
-54.16400146484375
 70
   192
  0
VERTEX
  5
151
  8
0
 10
21.29999923706055
 20
-27.50200080871582
 30
-47.63000106811523
 70
   192
  0
VERTEX
  5
152
  8
0
 10
21.29999923706055
 20
-42.13399887084961
 30
-35.35100173950195
 70
   192
  0
VERTEX
  5
153
  8
0
 10
30.29999923706055
 20
-27.50200080871582
 30
-47.63000106811523
 70
   192
  0
VERTEX
  5
154
  8
0
 10
21.29999923706055
 20
-51.68399810791016
 30
-18.80900001525879
 70
   192
  0
VERTEX
  5
155
  8
0
 10
30.29999923706055
 20
-42.13399887084961
 30
-35.35100173950195
 70
   192
  0
VERTEX
  5
156
  8
0
 10
30.29999923706055
 20
-51.68399810791016
 30
-18.80900001525879
 70
   192
  0
VERTEX
  5
157
  8
0
 10
30.29999923706055
 20
42.13100051879883
 30
-35.35499954223633
 70
   192
  0
VERTEX
  5
158
  8
0
 62
     9
 10
0.0
 20
0.0
 30
0.0
 70
   128
 71
     3
 72
     2
 73
     1
  0
VERTEX
  5
159
  8
0
 62
     9
 10
0.0
 20
0.0
 30
0.0
 70
   128
 71
     6
 72
     5
 73
     4
  0
VERTEX
  5
15A
  8
0
 62
     9
 10
0.0
 20
0.0
 30
0.0
 70
   128
 71
     5
 72
     8
 73
     7
  0
VERTEX
  5
15B
  8
0
 62
     9
 10
0.0
 20
0.0
 30
0.0
 70
   128
 71
     8
 72
    10
 73
     9
  0
VERTEX
  5
15C
  8
0
 62
     9
 10
0.0
 20
0.0
 30
0.0
 70
   128
 71
    10
 72
    12
 73
    11
  0
VERTEX
  5
15D
  8
0
 62
     9
 10
0.0
 20
0.0
 30
0.0
 70
   128
 71
    12
 72
    14
 73
    13
  0
VERTEX
  5
15E
  8
0
 62
     9
 10
0.0
 20
0.0
 30
0.0
 70
   128
 71
    14
 72
    16
 73
    15
  0
VERTEX
  5
15F
  8
0
 62
     9
 10
0.0
 20
0.0
 30
0.0
 70
   128
 71
    16
 72
    18
 73
    17
  0
VERTEX
  5
160
  8
0
 62
     9
 10
0.0
 20
0.0
 30
0.0
 70
   128
 71
    17
 72
    18
 73
    19
  0
VERTEX
  5
161
  8
0
 62
     9
 10
0.0
 20
0.0
 30
0.0
 70
   128
 71
    22
 72
    21
 73
    20
  0
VERTEX
  5
162
  8
0
 62
     9
 10
0.0
 20
0.0
 30
0.0
 70
   128
 71
    21
 72
    22
 73
    23
  0
VERTEX
  5
163
  8
0
 62
     9
 10
0.0
 20
0.0
 30
0.0
 70
   128
 71
    23
 72
    25
 73
    24
  0
VERTEX
  5
164
  8
0
 62
     9
 10
0.0
 20
0.0
 30
0.0
 70
   128
 71
    25
 72
    27
 73
    26
  0
VERTEX
  5
165
  8
0
 62
     9
 10
0.0
 20
0.0
 30
0.0
 70
   128
 71
    27
 72
    29
 73
    28
  0
VERTEX
  5
166
  8
0
 62
     9
 10
0.0
 20
0.0
 30
0.0
 70
   128
 71
    28
 72
    29
 73
    30
  0
VERTEX
  5
167
  8
0
 62
     9
 10
0.0
 20
0.0
 30
0.0
 70
   128
 71
    32
 72
    30
 73
    31
  0
VERTEX
  5
168
  8
0
 62
     9
 10
0.0
 20
0.0
 30
0.0
 70
   128
 71
    34
 72
    31
 73
    33
  0
VERTEX
  5
169
  8
0
 62
     9
 10
0.0
 20
0.0
 30
0.0
 70
   128
 71
    33
 72
     1
 73
     2
  0
VERTEX
  5
16A
  8
0
 62
     9
 10
0.0
 20
0.0
 30
0.0
 70
   128
 71
     2
 72
    35
 73
    33
  0
VERTEX
  5
16B
  8
0
 62
     9
 10
0.0
 20
0.0
 30
0.0
 70
   128
 71
    33
 72
    35
 73
    34
  0
VERTEX
  5
16C
  8
0
 62
     9
 10
0.0
 20
0.0
 30
0.0
 70
   128
 71
    31
 72
    34
 73
    32
  0
VERTEX
  5
16D
  8
0
 62
     9
 10
0.0
 20
0.0
 30
0.0
 70
   128
 71
    30
 72
    32
 73
    28
  0
VERTEX
  5
16E
  8
0
 62
     9
 10
0.0
 20
0.0
 30
0.0
 70
   128
 71
    28
 72
    26
 73
    27
  0
VERTEX
  5
16F
  8
0
 62
     9
 10
0.0
 20
0.0
 30
0.0
 70
   128
 71
    26
 72
    24
 73
    25
  0
VERTEX
  5
170
  8
0
 62
     9
 10
0.0
 20
0.0
 30
0.0
 70
   128
 71
    24
 72
    36
 73
    23
  0
VERTEX
  5
171
  8
0
 62
     9
 10
0.0
 20
0.0
 30
0.0
 70
   128
 71
    23
 72
    36
 73
    21
  0
VERTEX
  5
172
  8
0
 62
     9
 10
0.0
 20
0.0
 30
0.0
 70
   128
 71
    20
 72
    19
 73
    22
  0
VERTEX
  5
173
  8
0
 62
     9
 10
0.0
 20
0.0
 30
0.0
 70
   128
 71
    19
 72
    20
 73
    17
  0
VERTEX
  5
174
  8
0
 62
     9
 10
0.0
 20
0.0
 30
0.0
 70
   128
 71
    17
 72
    15
 73
    16
  0
VERTEX
  5
175
  8
0
 62
     9
 10
0.0
 20
0.0
 30
0.0
 70
   128
 71
    15
 72
    13
 73
    14
  0
VERTEX
  5
176
  8
0
 62
     9
 10
0.0
 20
0.0
 30
0.0
 70
   128
 71
    13
 72
    11
 73
    12
  0
VERTEX
  5
177
  8
0
 62
     9
 10
0.0
 20
0.0
 30
0.0
 70
   128
 71
    11
 72
     9
 73
    10
  0
VERTEX
  5
178
  8
0
 62
     9
 10
0.0
 20
0.0
 30
0.0
 70
   128
 71
     9
 72
     7
 73
     8
  0
VERTEX
  5
179
  8
0
 62
     9
 10
0.0
 20
0.0
 30
0.0
 70
   128
 71
     7
 72
     4
 73
     5
  0
VERTEX
  5
17A
  8
0
 62
     9
 10
0.0
 20
0.0
 30
0.0
 70
   128
 71
     4
 72
     3
 73
     6
  0
VERTEX
  5
17B
  8
0
 62
     9
 10
0.0
 20
0.0
 30
0.0
 70
   128
 71
     1
 72
     6
 73
     3
  0
SEQEND
  5
17C
  8
0
 62
     9
  0
ENDBLK
  5
17F
  8
0
  0
BLOCK
  8
0
  2
E3_NODE_7_
 70
     0
 10
0.0
 20
0.0
 30
0.0
  3
E3_NODE_7_
  1

  0
POLYLINE
  5
181
  8
0
 62
     9
 66
     1
 10
0.0
 20
0.0
 30
0.0
 70
    64
 71
    35
 72
    35
  0
VERTEX
  5
182
  8
0
 10
30.29999923706055
 20
9.553000450134277
 30
54.16400146484375
 70
   192
  0
VERTEX
  5
183
  8
0
 10
30.29999923706055
 20
-9.54800033569336
 30
54.16500091552734
 70
   192
  0
VERTEX
  5
184
  8
0
 10
30.29999923706055
 20
-4.150000095367432
 30
44.80799865722656
 70
   192
  0
VERTEX
  5
185
  8
0
 10
30.29999923706055
 20
-27.49799919128418
 30
47.63299942016602
 70
   192
  0
VERTEX
  5
186
  8
0
 10
30.29999923706055
 20
-20.05599975585938
 30
40.28300094604492
 70
   192
  0
VERTEX
  5
187
  8
0
 10
30.29999923706055
 20
-42.13399887084961
 30
-35.35100173950195
 70
   192
  0
VERTEX
  5
188
  8
0
 10
30.29999923706055
 20
-33.25699996948242
 30
-30.31500053405762
 70
   192
  0
VERTEX
  5
189
  8
0
 10
30.29999923706055
 20
-41.96200180053711
 30
-16.25399971008301
 70
   192
  0
VERTEX
  5
18A
  8
0
 10
30.29999923706055
 20
-27.50200080871582
 30
-47.63000106811523
 70
   192
  0
VERTEX
  5
18B
  8
0
 10
30.29999923706055
 20
-20.05999946594238
 30
-40.28099822998047
 70
   192
  0
VERTEX
  5
18C
  8
0
 10
30.29999923706055
 20
27.50200080871582
 30
47.63000106811523
 70
   192
  0
VERTEX
  5
18D
  8
0
 10
30.29999923706055
 20
12.31700038909912
 30
43.28200149536133
 70
   192
  0
VERTEX
  5
18E
  8
0
 10
30.29999923706055
 20
-9.553000450134277
 30
-54.16400146484375
 70
   192
  0
VERTEX
  5
18F
  8
0
 10
30.29999923706055
 20
-4.153999805450439
 30
-44.80799865722656
 70
   192
  0
VERTEX
  5
190
  8
0
 10
30.29999923706055
 20
42.13399887084961
 30
35.35100173950195
 70
   192
  0
VERTEX
  5
191
  8
0
 10
30.29999923706055
 20
27.1200008392334
 30
35.90999984741211
 70
   192
  0
VERTEX
  5
192
  8
0
 10
30.29999923706055
 20
9.54800033569336
 30
-54.16500091552734
 70
   192
  0
VERTEX
  5
193
  8
0
 10
30.29999923706055
 20
12.3129997253418
 30
-43.28300094604492
 70
   192
  0
VERTEX
  5
194
  8
0
 10
30.29999923706055
 20
-42.13100051879883
 30
35.35499954223633
 70
   192
  0
VERTEX
  5
195
  8
0
 10
30.29999923706055
 20
-33.25400161743164
 30
30.31800079345703
 70
   192
  0
VERTEX
  5
196
  8
0
 10
30.29999923706055
 20
-51.68199920654297
 30
18.81399917602539
 70
   192
  0
VERTEX
  5
197
  8
0
 10
30.29999923706055
 20
-41.95999908447266
 30
16.25799942016602
 70
   192
  0
VERTEX
  5
198
  8
0
 10
30.29999923706055
 20
-55.0
 30
0.003000000026077
 70
   192
  0
VERTEX
  5
199
  8
0
 10
30.29999923706055
 20
-45.0
 30
0.0020000000949949
 70
   192
  0
VERTEX
  5
19A
  8
0
 10
30.29999923706055
 20
27.49799919128418
 30
-47.63299942016602
 70
   192
  0
VERTEX
  5
19B
  8
0
 10
30.29999923706055
 20
27.11700057983398
 30
-35.9119987487793
 70
   192
  0
VERTEX
  5
19C
  8
0
 10
30.29999923706055
 20
55.0
 30
-0.003000000026077
 70
   192
  0
VERTEX
  5
19D
  8
0
 10
30.29999923706055
 20
51.68399810791016
 30
18.80900001525879
 70
   192
  0
VERTEX
  5
19E
  8
0
 10
30.29999923706055
 20
44.23400115966797
 30
8.267000198364258
 70
   192
  0
VERTEX
  5
19F
  8
0
 10
30.29999923706055
 20
42.13100051879883
 30
-35.35499954223633
 70
   192
  0
VERTEX
  5
1A0
  8
0
 10
30.29999923706055
 20
38.25899887084961
 30
-23.69099998474121
 70
   192
  0
VERTEX
  5
1A1
  8
0
 10
30.29999923706055
 20
51.68199920654297
 30
-18.81399917602539
 70
   192
  0
VERTEX
  5
1A2
  8
0
 10
30.29999923706055
 20
44.23300170898438
 30
-8.270999908447266
 70
   192
  0
VERTEX
  5
1A3
  8
0
 10
30.29999923706055
 20
-51.68399810791016
 30
-18.80900001525879
 70
   192
  0
VERTEX
  5
1A4
  8
0
 10
30.29999923706055
 20
38.26100158691406
 30
23.6879997253418
 70
   192
  0
VERTEX
  5
1A5
  8
0
 62
     9
 10
0.0
 20
0.0
 30
0.0
 70
   128
 71
     3
 72
     2
 73
     1
  0
VERTEX
  5
1A6
  8
0
 62
     9
 10
0.0
 20
0.0
 30
0.0
 70
   128
 71
     5
 72
     4
 73
     2
  0
VERTEX
  5
1A7
  8
0
 62
     9
 10
0.0
 20
0.0
 30
0.0
 70
   128
 71
     8
 72
     7
 73
     6
  0
VERTEX
  5
1A8
  8
0
 62
     9
 10
0.0
 20
0.0
 30
0.0
 70
   128
 71
     7
 72
    10
 73
     9
  0
VERTEX
  5
1A9
  8
0
 62
     9
 10
0.0
 20
0.0
 30
0.0
 70
   128
 71
    12
 72
     1
 73
    11
  0
VERTEX
  5
1AA
  8
0
 62
     9
 10
0.0
 20
0.0
 30
0.0
 70
   128
 71
     2
 72
     3
 73
     5
  0
VERTEX
  5
1AB
  8
0
 62
     9
 10
0.0
 20
0.0
 30
0.0
 70
   128
 71
     9
 72
     6
 73
     7
  0
VERTEX
  5
1AC
  8
0
 62
     9
 10
0.0
 20
0.0
 30
0.0
 70
   128
 71
    10
 72
    14
 73
    13
  0
VERTEX
  5
1AD
  8
0
 62
     9
 10
0.0
 20
0.0
 30
0.0
 70
   128
 71
    16
 72
    11
 73
    15
  0
VERTEX
  5
1AE
  8
0
 62
     9
 10
0.0
 20
0.0
 30
0.0
 70
   128
 71
     1
 72
    12
 73
     3
  0
VERTEX
  5
1AF
  8
0
 62
     9
 10
0.0
 20
0.0
 30
0.0
 70
   128
 71
    13
 72
     9
 73
    10
  0
VERTEX
  5
1B0
  8
0
 62
     9
 10
0.0
 20
0.0
 30
0.0
 70
   128
 71
    14
 72
    18
 73
    17
  0
VERTEX
  5
1B1
  8
0
 62
     9
 10
0.0
 20
0.0
 30
0.0
 70
   128
 71
    11
 72
    16
 73
    12
  0
VERTEX
  5
1B2
  8
0
 62
     9
 10
0.0
 20
0.0
 30
0.0
 70
   128
 71
    20
 72
    19
 73
     4
  0
VERTEX
  5
1B3
  8
0
 62
     9
 10
0.0
 20
0.0
 30
0.0
 70
   128
 71
    22
 72
    21
 73
    19
  0
VERTEX
  5
1B4
  8
0
 62
     9
 10
0.0
 20
0.0
 30
0.0
 70
   128
 71
    24
 72
    23
 73
    21
  0
VERTEX
  5
1B5
  8
0
 62
     9
 10
0.0
 20
0.0
 30
0.0
 70
   128
 71
    17
 72
    13
 73
    14
  0
VERTEX
  5
1B6
  8
0
 62
     9
 10
0.0
 20
0.0
 30
0.0
 70
   128
 71
    18
 72
    26
 73
    25
  0
VERTEX
  5
1B7
  8
0
 62
     9
 10
0.0
 20
0.0
 30
0.0
 70
   128
 71
    29
 72
    28
 73
    27
  0
VERTEX
  5
1B8
  8
0
 62
     9
 10
0.0
 20
0.0
 30
0.0
 70
   128
 71
     4
 72
     5
 73
    20
  0
VERTEX
  5
1B9
  8
0
 62
     9
 10
0.0
 20
0.0
 30
0.0
 70
   128
 71
    21
 72
    22
 73
    24
  0
VERTEX
  5
1BA
  8
0
 62
     9
 10
0.0
 20
0.0
 30
0.0
 70
   128
 71
    25
 72
    17
 73
    18
  0
VERTEX
  5
1BB
  8
0
 62
     9
 10
0.0
 20
0.0
 30
0.0
 70
   128
 71
    26
 72
    31
 73
    30
  0
VERTEX
  5
1BC
  8
0
 62
     9
 10
0.0
 20
0.0
 30
0.0
 70
   128
 71
    31
 72
    33
 73
    32
  0
VERTEX
  5
1BD
  8
0
 62
     9
 10
0.0
 20
0.0
 30
0.0
 70
   128
 71
    27
 72
    32
 73
    33
  0
VERTEX
  5
1BE
  8
0
 62
     9
 10
0.0
 20
0.0
 30
0.0
 70
   128
 71
    19
 72
    20
 73
    22
  0
VERTEX
  5
1BF
  8
0
 62
     9
 10
0.0
 20
0.0
 30
0.0
 70
   128
 71
    24
 72
     8
 73
    34
  0
VERTEX
  5
1C0
  8
0
 62
     9
 10
0.0
 20
0.0
 30
0.0
 70
   128
 71
    30
 72
    25
 73
    26
  0
VERTEX
  5
1C1
  8
0
 62
     9
 10
0.0
 20
0.0
 30
0.0
 70
   128
 71
    27
 72
    33
 73
    29
  0
VERTEX
  5
1C2
  8
0
 62
     9
 10
0.0
 20
0.0
 30
0.0
 70
   128
 71
    34
 72
    23
 73
    24
  0
VERTEX
  5
1C3
  8
0
 62
     9
 10
0.0
 20
0.0
 30
0.0
 70
   128
 71
    32
 72
    30
 73
    31
  0
VERTEX
  5
1C4
  8
0
 62
     9
 10
0.0
 20
0.0
 30
0.0
 70
   128
 71
    35
 72
    15
 73
    28
  0
VERTEX
  5
1C5
  8
0
 62
     9
 10
0.0
 20
0.0
 30
0.0
 70
   128
 71
     6
 72
    34
 73
     8
  0
VERTEX
  5
1C6
  8
0
 62
     9
 10
0.0
 20
0.0
 30
0.0
 70
   128
 71
    15
 72
    35
 73
    16
  0
VERTEX
  5
1C7
  8
0
 62
     9
 10
0.0
 20
0.0
 30
0.0
 70
   128
 71
    28
 72
    29
 73
    35
  0
SEQEND
  5
1C8
  8
0
 62
     9
  0
ENDBLK
  5
1CB
  8
0
  0
BLOCK
  8
0
  2
E3_NODE_8_
 70
     0
 10
0.0
 20
0.0
 30
0.0
  3
E3_NODE_8_
  1

  0
POLYLINE
  5
1CD
  8
0
 62
     9
 66
     1
 10
0.0
 20
0.0
 30
0.0
 70
    64
 71
    34
 72
    34
  0
VERTEX
  5
1CE
  8
0
 10
36.29999923706055
 20
-45.0
 30
0.0020000000949949
 70
   192
  0
VERTEX
  5
1CF
  8
0
 10
36.29999923706055
 20
-41.95999908447266
 30
16.25799942016602
 70
   192
  0
VERTEX
  5
1D0
  8
0
 10
30.29999923706055
 20
-41.95999908447266
 30
16.25799942016602
 70
   192
  0
VERTEX
  5
1D1
  8
0
 10
36.29999923706055
 20
-33.25400161743164
 30
30.31800079345703
 70
   192
  0
VERTEX
  5
1D2
  8
0
 10
30.29999923706055
 20
-33.25400161743164
 30
30.31800079345703
 70
   192
  0
VERTEX
  5
1D3
  8
0
 10
36.29999923706055
 20
-20.05599975585938
 30
40.28300094604492
 70
   192
  0
VERTEX
  5
1D4
  8
0
 10
30.29999923706055
 20
-20.05599975585938
 30
40.28300094604492
 70
   192
  0
VERTEX
  5
1D5
  8
0
 10
36.29999923706055
 20
-4.150000095367432
 30
44.80799865722656
 70
   192
  0
VERTEX
  5
1D6
  8
0
 10
30.29999923706055
 20
-4.150000095367432
 30
44.80799865722656
 70
   192
  0
VERTEX
  5
1D7
  8
0
 10
36.29999923706055
 20
12.31700038909912
 30
43.28200149536133
 70
   192
  0
VERTEX
  5
1D8
  8
0
 10
30.29999923706055
 20
12.31700038909912
 30
43.28200149536133
 70
   192
  0
VERTEX
  5
1D9
  8
0
 10
36.29999923706055
 20
27.1200008392334
 30
35.90999984741211
 70
   192
  0
VERTEX
  5
1DA
  8
0
 10
30.29999923706055
 20
27.1200008392334
 30
35.90999984741211
 70
   192
  0
VERTEX
  5
1DB
  8
0
 10
36.29999923706055
 20
38.26100158691406
 30
23.6879997253418
 70
   192
  0
VERTEX
  5
1DC
  8
0
 10
30.29999923706055
 20
38.26100158691406
 30
23.6879997253418
 70
   192
  0
VERTEX
  5
1DD
  8
0
 10
36.29999923706055
 20
44.23400115966797
 30
8.267000198364258
 70
   192
  0
VERTEX
  5
1DE
  8
0
 10
30.29999923706055
 20
44.23400115966797
 30
8.267000198364258
 70
   192
  0
VERTEX
  5
1DF
  8
0
 10
36.29999923706055
 20
44.23300170898438
 30
-8.270999908447266
 70
   192
  0
VERTEX
  5
1E0
  8
0
 10
30.29999923706055
 20
44.23300170898438
 30
-8.270999908447266
 70
   192
  0
VERTEX
  5
1E1
  8
0
 10
30.29999923706055
 20
38.25899887084961
 30
-23.69099998474121
 70
   192
  0
VERTEX
  5
1E2
  8
0
 10
36.29999923706055
 20
27.11700057983398
 30
-35.9119987487793
 70
   192
  0
VERTEX
  5
1E3
  8
0
 10
30.29999923706055
 20
27.11700057983398
 30
-35.9119987487793
 70
   192
  0
VERTEX
  5
1E4
  8
0
 10
36.29999923706055
 20
12.3129997253418
 30
-43.28300094604492
 70
   192
  0
VERTEX
  5
1E5
  8
0
 10
30.29999923706055
 20
12.3129997253418
 30
-43.28300094604492
 70
   192
  0
VERTEX
  5
1E6
  8
0
 10
36.29999923706055
 20
-4.153999805450439
 30
-44.80799865722656
 70
   192
  0
VERTEX
  5
1E7
  8
0
 10
30.29999923706055
 20
-4.153999805450439
 30
-44.80799865722656
 70
   192
  0
VERTEX
  5
1E8
  8
0
 10
36.29999923706055
 20
-20.05999946594238
 30
-40.28099822998047
 70
   192
  0
VERTEX
  5
1E9
  8
0
 10
30.29999923706055
 20
-20.05999946594238
 30
-40.28099822998047
 70
   192
  0
VERTEX
  5
1EA
  8
0
 10
36.29999923706055
 20
-33.25699996948242
 30
-30.31500053405762
 70
   192
  0
VERTEX
  5
1EB
  8
0
 10
30.29999923706055
 20
-33.25699996948242
 30
-30.31500053405762
 70
   192
  0
VERTEX
  5
1EC
  8
0
 10
30.29999923706055
 20
-41.96200180053711
 30
-16.25399971008301
 70
   192
  0
VERTEX
  5
1ED
  8
0
 10
36.29999923706055
 20
-41.96200180053711
 30
-16.25399971008301
 70
   192
  0
VERTEX
  5
1EE
  8
0
 10
30.29999923706055
 20
-45.0
 30
0.0020000000949949
 70
   192
  0
VERTEX
  5
1EF
  8
0
 10
36.29999923706055
 20
38.25899887084961
 30
-23.69099998474121
 70
   192
  0
VERTEX
  5
1F0
  8
0
 62
     9
 10
0.0
 20
0.0
 30
0.0
 70
   128
 71
     3
 72
     2
 73
     1
  0
VERTEX
  5
1F1
  8
0
 62
     9
 10
0.0
 20
0.0
 30
0.0
 70
   128
 71
     3
 72
     5
 73
     4
  0
VERTEX
  5
1F2
  8
0
 62
     9
 10
0.0
 20
0.0
 30
0.0
 70
   128
 71
     5
 72
     7
 73
     6
  0
VERTEX
  5
1F3
  8
0
 62
     9
 10
0.0
 20
0.0
 30
0.0
 70
   128
 71
     7
 72
     9
 73
     8
  0
VERTEX
  5
1F4
  8
0
 62
     9
 10
0.0
 20
0.0
 30
0.0
 70
   128
 71
     9
 72
    11
 73
    10
  0
VERTEX
  5
1F5
  8
0
 62
     9
 10
0.0
 20
0.0
 30
0.0
 70
   128
 71
    11
 72
    13
 73
    12
  0
VERTEX
  5
1F6
  8
0
 62
     9
 10
0.0
 20
0.0
 30
0.0
 70
   128
 71
    13
 72
    15
 73
    14
  0
VERTEX
  5
1F7
  8
0
 62
     9
 10
0.0
 20
0.0
 30
0.0
 70
   128
 71
    17
 72
    16
 73
    14
  0
VERTEX
  5
1F8
  8
0
 62
     9
 10
0.0
 20
0.0
 30
0.0
 70
   128
 71
    17
 72
    19
 73
    18
  0
VERTEX
  5
1F9
  8
0
 62
     9
 10
0.0
 20
0.0
 30
0.0
 70
   128
 71
    18
 72
    19
 73
    20
  0
VERTEX
  5
1FA
  8
0
 62
     9
 10
0.0
 20
0.0
 30
0.0
 70
   128
 71
    20
 72
    22
 73
    21
  0
VERTEX
  5
1FB
  8
0
 62
     9
 10
0.0
 20
0.0
 30
0.0
 70
   128
 71
    22
 72
    24
 73
    23
  0
VERTEX
  5
1FC
  8
0
 62
     9
 10
0.0
 20
0.0
 30
0.0
 70
   128
 71
    24
 72
    26
 73
    25
  0
VERTEX
  5
1FD
  8
0
 62
     9
 10
0.0
 20
0.0
 30
0.0
 70
   128
 71
    26
 72
    28
 73
    27
  0
VERTEX
  5
1FE
  8
0
 62
     9
 10
0.0
 20
0.0
 30
0.0
 70
   128
 71
    28
 72
    30
 73
    29
  0
VERTEX
  5
1FF
  8
0
 62
     9
 10
0.0
 20
0.0
 30
0.0
 70
   128
 71
    29
 72
    30
 73
    31
  0
VERTEX
  5
200
  8
0
 62
     9
 10
0.0
 20
0.0
 30
0.0
 70
   128
 71
     1
 72
    32
 73
    31
  0
VERTEX
  5
201
  8
0
 62
     9
 10
0.0
 20
0.0
 30
0.0
 70
   128
 71
    31
 72
    33
 73
     1
  0
VERTEX
  5
202
  8
0
 62
     9
 10
0.0
 20
0.0
 30
0.0
 70
   128
 71
    31
 72
    32
 73
    29
  0
VERTEX
  5
203
  8
0
 62
     9
 10
0.0
 20
0.0
 30
0.0
 70
   128
 71
    29
 72
    27
 73
    28
  0
VERTEX
  5
204
  8
0
 62
     9
 10
0.0
 20
0.0
 30
0.0
 70
   128
 71
    27
 72
    25
 73
    26
  0
VERTEX
  5
205
  8
0
 62
     9
 10
0.0
 20
0.0
 30
0.0
 70
   128
 71
    25
 72
    23
 73
    24
  0
VERTEX
  5
206
  8
0
 62
     9
 10
0.0
 20
0.0
 30
0.0
 70
   128
 71
    23
 72
    21
 73
    22
  0
VERTEX
  5
207
  8
0
 62
     9
 10
0.0
 20
0.0
 30
0.0
 70
   128
 71
    21
 72
    34
 73
    20
  0
VERTEX
  5
208
  8
0
 62
     9
 10
0.0
 20
0.0
 30
0.0
 70
   128
 71
    20
 72
    34
 73
    18
  0
VERTEX
  5
209
  8
0
 62
     9
 10
0.0
 20
0.0
 30
0.0
 70
   128
 71
    18
 72
    16
 73
    17
  0
VERTEX
  5
20A
  8
0
 62
     9
 10
0.0
 20
0.0
 30
0.0
 70
   128
 71
    14
 72
    15
 73
    17
  0
VERTEX
  5
20B
  8
0
 62
     9
 10
0.0
 20
0.0
 30
0.0
 70
   128
 71
    14
 72
    12
 73
    13
  0
VERTEX
  5
20C
  8
0
 62
     9
 10
0.0
 20
0.0
 30
0.0
 70
   128
 71
    12
 72
    10
 73
    11
  0
VERTEX
  5
20D
  8
0
 62
     9
 10
0.0
 20
0.0
 30
0.0
 70
   128
 71
    10
 72
     8
 73
     9
  0
VERTEX
  5
20E
  8
0
 62
     9
 10
0.0
 20
0.0
 30
0.0
 70
   128
 71
     8
 72
     6
 73
     7
  0
VERTEX
  5
20F
  8
0
 62
     9
 10
0.0
 20
0.0
 30
0.0
 70
   128
 71
     6
 72
     4
 73
     5
  0
VERTEX
  5
210
  8
0
 62
     9
 10
0.0
 20
0.0
 30
0.0
 70
   128
 71
     4
 72
     2
 73
     3
  0
VERTEX
  5
211
  8
0
 62
     9
 10
0.0
 20
0.0
 30
0.0
 70
   128
 71
     1
 72
    33
 73
     3
  0
SEQEND
  5
212
  8
0
 62
     9
  0
ENDBLK
  5
215
  8
0
  0
BLOCK
  8
0
  2
E3_NODE_9_
 70
     0
 10
0.0
 20
0.0
 30
0.0
  3
E3_NODE_9_
  1

  0
POLYLINE
  5
217
  8
0
 62
     9
 66
     1
 10
0.0
 20
0.0
 30
0.0
 70
    64
 71
    17
 72
    15
  0
VERTEX
  5
218
  8
0
 10
36.29999923706055
 20
-4.150000095367432
 30
44.80799865722656
 70
   192
  0
VERTEX
  5
219
  8
0
 10
36.29999923706055
 20
-33.25400161743164
 30
30.31800079345703
 70
   192
  0
VERTEX
  5
21A
  8
0
 10
36.29999923706055
 20
-41.95999908447266
 30
16.25799942016602
 70
   192
  0
VERTEX
  5
21B
  8
0
 10
36.29999923706055
 20
-20.05599975585938
 30
40.28300094604492
 70
   192
  0
VERTEX
  5
21C
  8
0
 10
36.29999923706055
 20
12.3129997253418
 30
-43.28300094604492
 70
   192
  0
VERTEX
  5
21D
  8
0
 10
36.29999923706055
 20
38.25899887084961
 30
-23.69099998474121
 70
   192
  0
VERTEX
  5
21E
  8
0
 10
36.29999923706055
 20
44.23300170898438
 30
-8.270999908447266
 70
   192
  0
VERTEX
  5
21F
  8
0
 10
36.29999923706055
 20
44.23400115966797
 30
8.267000198364258
 70
   192
  0
VERTEX
  5
220
  8
0
 10
36.29999923706055
 20
-33.25699996948242
 30
-30.31500053405762
 70
   192
  0
VERTEX
  5
221
  8
0
 10
36.29999923706055
 20
-20.05999946594238
 30
-40.28099822998047
 70
   192
  0
VERTEX
  5
222
  8
0
 10
36.29999923706055
 20
-45.0
 30
0.0020000000949949
 70
   192
  0
VERTEX
  5
223
  8
0
 10
36.29999923706055
 20
12.31700038909912
 30
43.28200149536133
 70
   192
  0
VERTEX
  5
224
  8
0
 10
36.29999923706055
 20
27.11700057983398
 30
-35.9119987487793
 70
   192
  0
VERTEX
  5
225
  8
0
 10
36.29999923706055
 20
-4.153999805450439
 30
-44.80799865722656
 70
   192
  0
VERTEX
  5
226
  8
0
 10
36.29999923706055
 20
27.1200008392334
 30
35.90999984741211
 70
   192
  0
VERTEX
  5
227
  8
0
 10
36.29999923706055
 20
38.26100158691406
 30
23.6879997253418
 70
   192
  0
VERTEX
  5
228
  8
0
 10
36.29999923706055
 20
-41.96200180053711
 30
-16.25399971008301
 70
   192
  0
VERTEX
  5
229
  8
0
 62
     9
 10
0.0
 20
0.0
 30
0.0
 70
   128
 71
     3
 72
     2
 73
     1
  0
VERTEX
  5
22A
  8
0
 62
     9
 10
0.0
 20
0.0
 30
0.0
 70
   128
 71
     2
 72
     4
 73
     1
  0
VERTEX
  5
22B
  8
0
 62
     9
 10
0.0
 20
0.0
 30
0.0
 70
   128
 71
     7
 72
     6
 73
     5
  0
VERTEX
  5
22C
  8
0
 62
     9
 10
0.0
 20
0.0
 30
0.0
 70
   128
 71
    10
 72
     9
 73
     8
  0
VERTEX
  5
22D
  8
0
 62
     9
 10
0.0
 20
0.0
 30
0.0
 70
   128
 71
     1
 72
    12
 73
    11
  0
VERTEX
  5
22E
  8
0
 62
     9
 10
0.0
 20
0.0
 30
0.0
 70
   128
 71
     6
 72
    13
 73
     5
  0
VERTEX
  5
22F
  8
0
 62
     9
 10
0.0
 20
0.0
 30
0.0
 70
   128
 71
     8
 72
    14
 73
    10
  0
VERTEX
  5
230
  8
0
 62
     9
 10
0.0
 20
0.0
 30
0.0
 70
   128
 71
    12
 72
    15
 73
    11
  0
VERTEX
  5
231
  8
0
 62
     9
 10
0.0
 20
0.0
 30
0.0
 70
   128
 71
    16
 72
     8
 73
    11
  0
VERTEX
  5
232
  8
0
 62
     9
 10
0.0
 20
0.0
 30
0.0
 70
   128
 71
     8
 72
     5
 73
    14
  0
VERTEX
  5
233
  8
0
 62
     9
 10
0.0
 20
0.0
 30
0.0
 70
   128
 71
    17
 72
    11
 73
     8
  0
VERTEX
  5
234
  8
0
 62
     9
 10
0.0
 20
0.0
 30
0.0
 70
   128
 71
    11
 72
    15
 73
    16
  0
VERTEX
  5
235
  8
0
 62
     9
 10
0.0
 20
0.0
 30
0.0
 70
   128
 71
     8
 72
     9
 73
    17
  0
VERTEX
  5
236
  8
0
 62
     9
 10
0.0
 20
0.0
 30
0.0
 70
   128
 71
     5
 72
     8
 73
     7
  0
VERTEX
  5
237
  8
0
 62
     9
 10
0.0
 20
0.0
 30
0.0
 70
   128
 71
     1
 72
    11
 73
     3
  0
SEQEND
  5
238
  8
0
 62
     9
  0
ENDBLK
  5
23B
  8
0
  0
BLOCK
  8
0
  2
E3_NODE_10_
 70
     0
 10
0.0
 20
0.0
 30
0.0
  3
E3_NODE_10_
  1

  0
POLYLINE
  5
23D
  8
0
 62
     9
 66
     1
 10
0.0
 20
0.0
 30
0.0
 70
    64
 71
     6
 72
     4
  0
VERTEX
  5
23E
  8
0
 10
120.5
 20
-5.198999881744385
 30
-60.0
 70
   192
  0
VERTEX
  5
23F
  8
0
 10
114.5
 20
5.192999839782715
 30
-60.0
 70
   192
  0
VERTEX
  5
240
  8
0
 10
120.5
 20
5.192999839782715
 30
-60.0
 70
   192
  0
VERTEX
  5
241
  8
0
 10
114.5
 20
-5.198999881744385
 30
-60.0
 70
   192
  0
VERTEX
  5
242
  8
0
 10
111.5
 20
-0.003000000026077
 30
-60.0
 70
   192
  0
VERTEX
  5
243
  8
0
 10
123.5
 20
-0.003000000026077
 30
-60.0
 70
   192
  0
VERTEX
  5
244
  8
0
 62
     9
 10
0.0
 20
0.0
 30
0.0
 70
   128
 71
     3
 72
     2
 73
     1
  0
VERTEX
  5
245
  8
0
 62
     9
 10
0.0
 20
0.0
 30
0.0
 70
   128
 71
     4
 72
     1
 73
     2
  0
VERTEX
  5
246
  8
0
 62
     9
 10
0.0
 20
0.0
 30
0.0
 70
   128
 71
     2
 72
     5
 73
     4
  0
VERTEX
  5
247
  8
0
 62
     9
 10
0.0
 20
0.0
 30
0.0
 70
   128
 71
     1
 72
     6
 73
     3
  0
SEQEND
  5
248
  8
0
 62
     9
  0
ENDBLK
  5
24B
  8
0
  0
BLOCK
  8
0
  2
E3_NODE_11_
 70
     0
 10
0.0
 20
0.0
 30
0.0
  3
E3_NODE_11_
  1

  0
POLYLINE
  5
24D
  8
0
 62
     9
 66
     1
 10
0.0
 20
0.0
 30
0.0
 70
    64
 71
    40
 72
    42
  0
VERTEX
  5
24E
  8
0
 10
120.5
 20
-5.195000171661377
 30
16.0
 70
   192
  0
VERTEX
  5
24F
  8
0
 10
120.5
 20
-5.198999881744385
 30
-60.0
 70
   192
  0
VERTEX
  5
250
  8
0
 10
123.5
 20
-0.003000000026077
 30
-60.0
 70
   192
  0
VERTEX
  5
251
  8
0
 10
120.5
 20
5.192999839782715
 30
-60.0
 70
   192
  0
VERTEX
  5
252
  8
0
 10
120.5
 20
5.197000026702881
 30
16.0
 70
   192
  0
VERTEX
  5
253
  8
0
 10
114.5
 20
-5.198999881744385
 30
-60.0
 70
   192
  0
VERTEX
  5
254
  8
0
 10
111.7880020141602
 20
-1.835999965667725
 30
-10.8459997177124
 70
   192
  0
VERTEX
  5
255
  8
0
 10
111.5
 20
-0.0010000000474975
 30
-11.0
 70
   192
  0
VERTEX
  5
256
  8
0
 10
114.536003112793
 20
-5.123000144958496
 30
-9.720999717712402
 70
   192
  0
VERTEX
  5
257
  8
0
 10
113.9309997558594
 20
-4.823999881744385
 30
-9.88599967956543
 70
   192
  0
VERTEX
  5
258
  8
0
 10
112.5979995727539
 20
-3.460000038146973
 30
-10.44200038909912
 70
   192
  0
VERTEX
  5
259
  8
0
 10
114.5
 20
5.192999839782715
 30
-60.0
 70
   192
  0
VERTEX
  5
25A
  8
0
 10
112.3560028076172
 20
3.088000059127808
 30
-10.55799961090088
 70
   192
  0
VERTEX
  5
25B
  8
0
 10
113.6709976196289
 20
4.61899995803833
 30
-9.982999801635742
 70
   192
  0
VERTEX
  5
25C
  8
0
 10
111.6019973754883
 20
1.101999998092651
 30
-10.94499969482422
 70
   192
  0
VERTEX
  5
25D
  8
0
 10
111.5
 20
-0.003000000026077
 30
-60.0
 70
   192
  0
VERTEX
  5
25E
  8
0
 10
114.5
 20
5.197000026702881
 30
16.0
 70
   192
  0
VERTEX
  5
25F
  8
0
 10
117.5
 20
6.0
 30
9.218999862670898
 70
   192
  0
VERTEX
  5
260
  8
0
 10
115.6890029907227
 20
5.721000194549561
 30
9.395000457763672
 70
   192
  0
VERTEX
  5
261
  8
0
 10
117.5
 20
6.0
 30
-9.220000267028809
 70
   192
  0
VERTEX
  5
262
  8
0
 10
114.5329971313477
 20
5.142000198364258
 30
-9.711000442504883
 70
   192
  0
VERTEX
  5
263
  8
0
 10
115.1719970703125
 20
5.528999805450439
 30
-9.508999824523926
 70
   192
  0
VERTEX
  5
264
  8
0
 10
111.5
 20
0.0010000000474975
 30
16.0
 70
   192
  0
VERTEX
  5
265
  8
0
 10
111.7429962158203
 20
1.690000057220459
 30
10.86900043487549
 70
   192
  0
VERTEX
  5
266
  8
0
 10
111.5419998168945
 20
-0.0010000000474975
 30
10.97700023651123
 70
   192
  0
VERTEX
  5
267
  8
0
 10
112.6959991455078
 20
3.595000028610229
 30
10.39599990844727
 70
   192
  0
VERTEX
  5
268
  8
0
 10
114.5230026245117
 20
5.14900016784668
 30
9.711999893188477
 70
   192
  0
VERTEX
  5
269
  8
0
 10
114.0899963378906
 20
4.936999797821045
 30
9.829999923706055
 70
   192
  0
VERTEX
  5
26A
  8
0
 10
114.5
 20
-5.195000171661377
 30
16.0
 70
   192
  0
VERTEX
  5
26B
  8
0
 10
112.7009963989258
 20
-3.601000070571899
 30
10.39400005340576
 70
   192
  0
VERTEX
  5
26C
  8
0
 10
114.0940017700195
 20
-4.939000129699707
 30
9.829000473022461
 70
   192
  0
VERTEX
  5
26D
  8
0
 10
111.859001159668
 20
-2.043999910354614
 30
10.80799961090088
 70
   192
  0
VERTEX
  5
26E
  8
0
 10
111.5070037841797
 20
-0.2930000126361847
 30
10.99600028991699
 70
   192
  0
VERTEX
  5
26F
  8
0
 10
111.5410003662109
 20
-0.0040000001899898
 30
10.97799968719482
 70
   192
  0
VERTEX
  5
270
  8
0
 10
115.8259963989258
 20
-5.76200008392334
 30
-9.369999885559082
 70
   192
  0
VERTEX
  5
271
  8
0
 10
117.5
 20
-6.0
 30
-9.218999862670898
 70
   192
  0
VERTEX
  5
272
  8
0
 10
117.5
 20
-6.0
 30
9.220000267028809
 70
   192
  0
VERTEX
  5
273
  8
0
 10
116.0299987792969
 20
-5.816999912261963
 30
9.336000442504883
 70
   192
  0
VERTEX
  5
274
  8
0
 10
114.5270004272461
 20
-5.136000156402588
 30
9.718999862670898
 70
   192
  0
VERTEX
  5
275
  8
0
 10
123.5
 20
0.0010000000474975
 30
16.0
 70
   192
  0
VERTEX
  5
276
  8
0
 62
     9
 10
0.0
 20
0.0
 30
0.0
 70
   128
 71
     3
 72
     2
 73
     1
  0
VERTEX
  5
277
  8
0
 62
     9
 10
0.0
 20
0.0
 30
0.0
 70
   128
 71
     5
 72
     4
 73
     3
  0
VERTEX
  5
278
  8
0
 62
     9
 10
0.0
 20
0.0
 30
0.0
 70
   128
 71
     8
 72
     7
 73
     6
  0
VERTEX
  5
279
  8
0
 62
     9
 10
0.0
 20
0.0
 30
0.0
 70
   128
 71
    10
 72
     9
 73
     6
  0
VERTEX
  5
27A
  8
0
 62
     9
 10
0.0
 20
0.0
 30
0.0
 70
   128
 71
     6
 72
    11
 73
    10
  0
VERTEX
  5
27B
  8
0
 62
     9
 10
0.0
 20
0.0
 30
0.0
 70
   128
 71
     6
 72
     7
 73
    11
  0
VERTEX
  5
27C
  8
0
 62
     9
 10
0.0
 20
0.0
 30
0.0
 70
   128
 71
    14
 72
    13
 73
    12
  0
VERTEX
  5
27D
  8
0
 62
     9
 10
0.0
 20
0.0
 30
0.0
 70
   128
 71
    13
 72
    15
 73
    12
  0
VERTEX
  5
27E
  8
0
 62
     9
 10
0.0
 20
0.0
 30
0.0
 70
   128
 71
     8
 72
    16
 73
    12
  0
VERTEX
  5
27F
  8
0
 62
     9
 10
0.0
 20
0.0
 30
0.0
 70
   128
 71
    12
 72
    15
 73
     8
  0
VERTEX
  5
280
  8
0
 62
     9
 10
0.0
 20
0.0
 30
0.0
 70
   128
 71
    18
 72
     5
 73
    17
  0
VERTEX
  5
281
  8
0
 62
     9
 10
0.0
 20
0.0
 30
0.0
 70
   128
 71
    17
 72
    19
 73
    18
  0
VERTEX
  5
282
  8
0
 62
     9
 10
0.0
 20
0.0
 30
0.0
 70
   128
 71
    20
 72
     4
 73
     5
  0
VERTEX
  5
283
  8
0
 62
     9
 10
0.0
 20
0.0
 30
0.0
 70
   128
 71
    21
 72
    12
 73
     4
  0
VERTEX
  5
284
  8
0
 62
     9
 10
0.0
 20
0.0
 30
0.0
 70
   128
 71
     4
 72
    22
 73
    21
  0
VERTEX
  5
285
  8
0
 62
     9
 10
0.0
 20
0.0
 30
0.0
 70
   128
 71
     4
 72
    20
 73
    22
  0
VERTEX
  5
286
  8
0
 62
     9
 10
0.0
 20
0.0
 30
0.0
 70
   128
 71
     5
 72
    18
 73
    20
  0
VERTEX
  5
287
  8
0
 62
     9
 10
0.0
 20
0.0
 30
0.0
 70
   128
 71
    25
 72
    24
 73
    23
  0
VERTEX
  5
288
  8
0
 62
     9
 10
0.0
 20
0.0
 30
0.0
 70
   128
 71
    24
 72
    26
 73
    17
  0
VERTEX
  5
289
  8
0
 62
     9
 10
0.0
 20
0.0
 30
0.0
 70
   128
 71
    28
 72
    27
 73
    17
  0
VERTEX
  5
28A
  8
0
 62
     9
 10
0.0
 20
0.0
 30
0.0
 70
   128
 71
    17
 72
    26
 73
    28
  0
VERTEX
  5
28B
  8
0
 62
     9
 10
0.0
 20
0.0
 30
0.0
 70
   128
 71
    17
 72
    23
 73
    24
  0
VERTEX
  5
28C
  8
0
 62
     9
 10
0.0
 20
0.0
 30
0.0
 70
   128
 71
    31
 72
    30
 73
    29
  0
VERTEX
  5
28D
  8
0
 62
     9
 10
0.0
 20
0.0
 30
0.0
 70
   128
 71
    30
 72
    32
 73
    29
  0
VERTEX
  5
28E
  8
0
 62
     9
 10
0.0
 20
0.0
 30
0.0
 70
   128
 71
    32
 72
    33
 73
    23
  0
VERTEX
  5
28F
  8
0
 62
     9
 10
0.0
 20
0.0
 30
0.0
 70
   128
 71
    23
 72
    29
 73
    32
  0
VERTEX
  5
290
  8
0
 62
     9
 10
0.0
 20
0.0
 30
0.0
 70
   128
 71
    33
 72
    34
 73
    23
  0
VERTEX
  5
291
  8
0
 62
     9
 10
0.0
 20
0.0
 30
0.0
 70
   128
 71
     9
 72
    35
 73
     2
  0
VERTEX
  5
292
  8
0
 62
     9
 10
0.0
 20
0.0
 30
0.0
 70
   128
 71
    35
 72
    36
 73
     2
  0
VERTEX
  5
293
  8
0
 62
     9
 10
0.0
 20
0.0
 30
0.0
 70
   128
 71
    36
 72
    37
 73
     1
  0
VERTEX
  5
294
  8
0
 62
     9
 10
0.0
 20
0.0
 30
0.0
 70
   128
 71
     1
 72
     2
 73
    36
  0
VERTEX
  5
295
  8
0
 62
     9
 10
0.0
 20
0.0
 30
0.0
 70
   128
 71
    37
 72
    38
 73
    29
  0
VERTEX
  5
296
  8
0
 62
     9
 10
0.0
 20
0.0
 30
0.0
 70
   128
 71
    38
 72
    39
 73
    29
  0
VERTEX
  5
297
  8
0
 62
     9
 10
0.0
 20
0.0
 30
0.0
 70
   128
 71
    29
 72
     1
 73
    37
  0
VERTEX
  5
298
  8
0
 62
     9
 10
0.0
 20
0.0
 30
0.0
 70
   128
 71
     2
 72
     6
 73
     9
  0
VERTEX
  5
299
  8
0
 62
     9
 10
0.0
 20
0.0
 30
0.0
 70
   128
 71
    29
 72
    39
 73
    31
  0
VERTEX
  5
29A
  8
0
 62
     9
 10
0.0
 20
0.0
 30
0.0
 70
   128
 71
    23
 72
    34
 73
    25
  0
VERTEX
  5
29B
  8
0
 62
     9
 10
0.0
 20
0.0
 30
0.0
 70
   128
 71
    17
 72
    27
 73
    19
  0
VERTEX
  5
29C
  8
0
 62
     9
 10
0.0
 20
0.0
 30
0.0
 70
   128
 71
    12
 72
    21
 73
    14
  0
VERTEX
  5
29D
  8
0
 62
     9
 10
0.0
 20
0.0
 30
0.0
 70
   128
 71
     6
 72
    16
 73
     8
  0
VERTEX
  5
29E
  8
0
 62
     9
 10
0.0
 20
0.0
 30
0.0
 70
   128
 71
     3
 72
    40
 73
     5
  0
VERTEX
  5
29F
  8
0
 62
     9
 10
0.0
 20
0.0
 30
0.0
 70
   128
 71
     1
 72
    40
 73
     3
  0
SEQEND
  5
2A0
  8
0
 62
     9
  0
ENDBLK
  5
2A3
  8
0
  0
BLOCK
  8
0
  2
E3_NODE_12_
 70
     0
 10
0.0
 20
0.0
 30
0.0
  3
E3_NODE_12_
  1

  0
POLYLINE
  5
2A5
  8
0
 62
     9
 66
     1
 10
0.0
 20
0.0
 30
0.0
 70
    64
 71
    42
 72
    42
  0
VERTEX
  5
2A6
  8
0
 10
97.0
 20
-11.0
 30
0.0010000000474975
 70
   192
  0
VERTEX
  5
2A7
  8
0
 10
117.5
 20
-11.0
 30
0.0010000000474975
 70
   192
  0
VERTEX
  5
2A8
  8
0
 10
117.5
 20
-7.777999877929688
 30
7.778999805450439
 70
   192
  0
VERTEX
  5
2A9
  8
0
 10
97.0
 20
-7.778999805450439
 30
-7.777999877929688
 70
   192
  0
VERTEX
  5
2AA
  8
0
 10
117.5
 20
-7.778999805450439
 30
-7.777999877929688
 70
   192
  0
VERTEX
  5
2AB
  8
0
 10
117.5
 20
11.0
 30
-0.0010000000474975
 70
   192
  0
VERTEX
  5
2AC
  8
0
 10
117.5
 20
7.777999877929688
 30
-7.778999805450439
 70
   192
  0
VERTEX
  5
2AD
  8
0
 10
97.0
 20
7.777999877929688
 30
-7.778999805450439
 70
   192
  0
VERTEX
  5
2AE
  8
0
 10
117.5
 20
7.778999805450439
 30
7.777999877929688
 70
   192
  0
VERTEX
  5
2AF
  8
0
 10
97.0
 20
11.0
 30
-0.0010000000474975
 70
   192
  0
VERTEX
  5
2B0
  8
0
 10
97.0
 20
-0.0010000000474975
 30
-11.0
 70
   192
  0
VERTEX
  5
2B1
  8
0
 10
111.6019973754883
 20
1.101999998092651
 30
-10.94499969482422
 70
   192
  0
VERTEX
  5
2B2
  8
0
 10
112.3560028076172
 20
3.088000059127808
 30
-10.55799961090088
 70
   192
  0
VERTEX
  5
2B3
  8
0
 10
115.1719970703125
 20
5.528999805450439
 30
-9.508999824523926
 70
   192
  0
VERTEX
  5
2B4
  8
0
 10
114.5329971313477
 20
5.142000198364258
 30
-9.711000442504883
 70
   192
  0
VERTEX
  5
2B5
  8
0
 10
113.6709976196289
 20
4.61899995803833
 30
-9.982999801635742
 70
   192
  0
VERTEX
  5
2B6
  8
0
 10
117.5
 20
6.0
 30
-9.220000267028809
 70
   192
  0
VERTEX
  5
2B7
  8
0
 10
114.536003112793
 20
-5.123000144958496
 30
-9.720999717712402
 70
   192
  0
VERTEX
  5
2B8
  8
0
 10
115.8259963989258
 20
-5.76200008392334
 30
-9.369999885559082
 70
   192
  0
VERTEX
  5
2B9
  8
0
 10
113.9309997558594
 20
-4.823999881744385
 30
-9.88599967956543
 70
   192
  0
VERTEX
  5
2BA
  8
0
 10
111.7880020141602
 20
-1.835999965667725
 30
-10.8459997177124
 70
   192
  0
VERTEX
  5
2BB
  8
0
 10
112.5979995727539
 20
-3.460000038146973
 30
-10.44200038909912
 70
   192
  0
VERTEX
  5
2BC
  8
0
 10
111.5
 20
-0.0010000000474975
 30
-11.0
 70
   192
  0
VERTEX
  5
2BD
  8
0
 10
97.0
 20
0.0010000000474975
 30
11.0
 70
   192
  0
VERTEX
  5
2BE
  8
0
 10
111.5070037841797
 20
-0.2930000126361847
 30
10.99600028991699
 70
   192
  0
VERTEX
  5
2BF
  8
0
 10
111.5410003662109
 20
-0.0040000001899898
 30
10.97799968719482
 70
   192
  0
VERTEX
  5
2C0
  8
0
 10
97.0
 20
-7.777999877929688
 30
7.778999805450439
 70
   192
  0
VERTEX
  5
2C1
  8
0
 10
111.859001159668
 20
-2.043999910354614
 30
10.80799961090088
 70
   192
  0
VERTEX
  5
2C2
  8
0
 10
114.0940017700195
 20
-4.939000129699707
 30
9.829000473022461
 70
   192
  0
VERTEX
  5
2C3
  8
0
 10
112.7009963989258
 20
-3.601000070571899
 30
10.39400005340576
 70
   192
  0
VERTEX
  5
2C4
  8
0
 10
116.0299987792969
 20
-5.816999912261963
 30
9.336000442504883
 70
   192
  0
VERTEX
  5
2C5
  8
0
 10
114.5270004272461
 20
-5.136000156402588
 30
9.718999862670898
 70
   192
  0
VERTEX
  5
2C6
  8
0
 10
117.5
 20
-6.0
 30
9.220000267028809
 70
   192
  0
VERTEX
  5
2C7
  8
0
 10
97.0
 20
7.778999805450439
 30
7.777999877929688
 70
   192
  0
VERTEX
  5
2C8
  8
0
 10
114.5230026245117
 20
5.14900016784668
 30
9.711999893188477
 70
   192
  0
VERTEX
  5
2C9
  8
0
 10
115.6890029907227
 20
5.721000194549561
 30
9.395000457763672
 70
   192
  0
VERTEX
  5
2CA
  8
0
 10
114.0899963378906
 20
4.936999797821045
 30
9.829999923706055
 70
   192
  0
VERTEX
  5
2CB
  8
0
 10
112.6959991455078
 20
3.595000028610229
 30
10.39599990844727
 70
   192
  0
VERTEX
  5
2CC
  8
0
 10
111.7429962158203
 20
1.690000057220459
 30
10.86900043487549
 70
   192
  0
VERTEX
  5
2CD
  8
0
 10
111.5419998168945
 20
-0.0010000000474975
 30
10.97700023651123
 70
   192
  0
VERTEX
  5
2CE
  8
0
 10
117.5
 20
6.0
 30
9.218999862670898
 70
   192
  0
VERTEX
  5
2CF
  8
0
 10
117.5
 20
-6.0
 30
-9.218999862670898
 70
   192
  0
VERTEX
  5
2D0
  8
0
 62
     9
 10
0.0
 20
0.0
 30
0.0
 70
   128
 71
     3
 72
     2
 73
     1
  0
VERTEX
  5
2D1
  8
0
 62
     9
 10
0.0
 20
0.0
 30
0.0
 70
   128
 71
     2
 72
     5
 73
     4
  0
VERTEX
  5
2D2
  8
0
 62
     9
 10
0.0
 20
0.0
 30
0.0
 70
   128
 71
     8
 72
     7
 73
     6
  0
VERTEX
  5
2D3
  8
0
 62
     9
 10
0.0
 20
0.0
 30
0.0
 70
   128
 71
    10
 72
     6
 73
     9
  0
VERTEX
  5
2D4
  8
0
 62
     9
 10
0.0
 20
0.0
 30
0.0
 70
   128
 71
    12
 72
     8
 73
    11
  0
VERTEX
  5
2D5
  8
0
 62
     9
 10
0.0
 20
0.0
 30
0.0
 70
   128
 71
    12
 72
    13
 73
     8
  0
VERTEX
  5
2D6
  8
0
 62
     9
 10
0.0
 20
0.0
 30
0.0
 70
   128
 71
    15
 72
    14
 73
     8
  0
VERTEX
  5
2D7
  8
0
 62
     9
 10
0.0
 20
0.0
 30
0.0
 70
   128
 71
     8
 72
    16
 73
    15
  0
VERTEX
  5
2D8
  8
0
 62
     9
 10
0.0
 20
0.0
 30
0.0
 70
   128
 71
     8
 72
    13
 73
    16
  0
VERTEX
  5
2D9
  8
0
 62
     9
 10
0.0
 20
0.0
 30
0.0
 70
   128
 71
    14
 72
    17
 73
     7
  0
VERTEX
  5
2DA
  8
0
 62
     9
 10
0.0
 20
0.0
 30
0.0
 70
   128
 71
     7
 72
     8
 73
    14
  0
VERTEX
  5
2DB
  8
0
 62
     9
 10
0.0
 20
0.0
 30
0.0
 70
   128
 71
    19
 72
    18
 73
     4
  0
VERTEX
  5
2DC
  8
0
 62
     9
 10
0.0
 20
0.0
 30
0.0
 70
   128
 71
    18
 72
    20
 73
     4
  0
VERTEX
  5
2DD
  8
0
 62
     9
 10
0.0
 20
0.0
 30
0.0
 70
   128
 71
    22
 72
    21
 73
     4
  0
VERTEX
  5
2DE
  8
0
 62
     9
 10
0.0
 20
0.0
 30
0.0
 70
   128
 71
    21
 72
    23
 73
    11
  0
VERTEX
  5
2DF
  8
0
 62
     9
 10
0.0
 20
0.0
 30
0.0
 70
   128
 71
    11
 72
     4
 73
    21
  0
VERTEX
  5
2E0
  8
0
 62
     9
 10
0.0
 20
0.0
 30
0.0
 70
   128
 71
     4
 72
    20
 73
    22
  0
VERTEX
  5
2E1
  8
0
 62
     9
 10
0.0
 20
0.0
 30
0.0
 70
   128
 71
     4
 72
     5
 73
    19
  0
VERTEX
  5
2E2
  8
0
 62
     9
 10
0.0
 20
0.0
 30
0.0
 70
   128
 71
    26
 72
    25
 73
    24
  0
VERTEX
  5
2E3
  8
0
 62
     9
 10
0.0
 20
0.0
 30
0.0
 70
   128
 71
    25
 72
    28
 73
    27
  0
VERTEX
  5
2E4
  8
0
 62
     9
 10
0.0
 20
0.0
 30
0.0
 70
   128
 71
    30
 72
    29
 73
    27
  0
VERTEX
  5
2E5
  8
0
 62
     9
 10
0.0
 20
0.0
 30
0.0
 70
   128
 71
    27
 72
    28
 73
    30
  0
VERTEX
  5
2E6
  8
0
 62
     9
 10
0.0
 20
0.0
 30
0.0
 70
   128
 71
    31
 72
     3
 73
    27
  0
VERTEX
  5
2E7
  8
0
 62
     9
 10
0.0
 20
0.0
 30
0.0
 70
   128
 71
    27
 72
    32
 73
    31
  0
VERTEX
  5
2E8
  8
0
 62
     9
 10
0.0
 20
0.0
 30
0.0
 70
   128
 71
    27
 72
    29
 73
    32
  0
VERTEX
  5
2E9
  8
0
 62
     9
 10
0.0
 20
0.0
 30
0.0
 70
   128
 71
    31
 72
    33
 73
     3
  0
VERTEX
  5
2EA
  8
0
 62
     9
 10
0.0
 20
0.0
 30
0.0
 70
   128
 71
    27
 72
    24
 73
    25
  0
VERTEX
  5
2EB
  8
0
 62
     9
 10
0.0
 20
0.0
 30
0.0
 70
   128
 71
    36
 72
    35
 73
    34
  0
VERTEX
  5
2EC
  8
0
 62
     9
 10
0.0
 20
0.0
 30
0.0
 70
   128
 71
    35
 72
    37
 73
    34
  0
VERTEX
  5
2ED
  8
0
 62
     9
 10
0.0
 20
0.0
 30
0.0
 70
   128
 71
    37
 72
    38
 73
    34
  0
VERTEX
  5
2EE
  8
0
 62
     9
 10
0.0
 20
0.0
 30
0.0
 70
   128
 71
    38
 72
    39
 73
    34
  0
VERTEX
  5
2EF
  8
0
 62
     9
 10
0.0
 20
0.0
 30
0.0
 70
   128
 71
    34
 72
     9
 73
    36
  0
VERTEX
  5
2F0
  8
0
 62
     9
 10
0.0
 20
0.0
 30
0.0
 70
   128
 71
    39
 72
    40
 73
    24
  0
VERTEX
  5
2F1
  8
0
 62
     9
 10
0.0
 20
0.0
 30
0.0
 70
   128
 71
    24
 72
    34
 73
    39
  0
VERTEX
  5
2F2
  8
0
 62
     9
 10
0.0
 20
0.0
 30
0.0
 70
   128
 71
     9
 72
    41
 73
    36
  0
VERTEX
  5
2F3
  8
0
 62
     9
 10
0.0
 20
0.0
 30
0.0
 70
   128
 71
    24
 72
    40
 73
    26
  0
VERTEX
  5
2F4
  8
0
 62
     9
 10
0.0
 20
0.0
 30
0.0
 70
   128
 71
     5
 72
    42
 73
    19
  0
VERTEX
  5
2F5
  8
0
 62
     9
 10
0.0
 20
0.0
 30
0.0
 70
   128
 71
    11
 72
    23
 73
    12
  0
VERTEX
  5
2F6
  8
0
 62
     9
 10
0.0
 20
0.0
 30
0.0
 70
   128
 71
     9
 72
    34
 73
    10
  0
VERTEX
  5
2F7
  8
0
 62
     9
 10
0.0
 20
0.0
 30
0.0
 70
   128
 71
     6
 72
    10
 73
     8
  0
VERTEX
  5
2F8
  8
0
 62
     9
 10
0.0
 20
0.0
 30
0.0
 70
   128
 71
     4
 72
     1
 73
     2
  0
VERTEX
  5
2F9
  8
0
 62
     9
 10
0.0
 20
0.0
 30
0.0
 70
   128
 71
     1
 72
    27
 73
     3
  0
SEQEND
  5
2FA
  8
0
 62
     9
  0
ENDBLK
  5
2FD
  8
0
  0
BLOCK
  8
0
  2
E3_NODE_13_
 70
     0
 10
0.0
 20
0.0
 30
0.0
  3
E3_NODE_13_
  1

  0
POLYLINE
  5
2FF
  8
0
 62
     9
 66
     1
 10
0.0
 20
0.0
 30
0.0
 70
    64
 71
     5
 72
     3
  0
VERTEX
  5
300
  8
0
 10
117.5
 20
-7.777999877929688
 30
7.778999805450439
 70
   192
  0
VERTEX
  5
301
  8
0
 10
117.5
 20
-11.0
 30
0.0010000000474975
 70
   192
  0
VERTEX
  5
302
  8
0
 10
117.5
 20
-7.778999805450439
 30
-7.777999877929688
 70
   192
  0
VERTEX
  5
303
  8
0
 10
117.5
 20
-6.0
 30
-9.218999862670898
 70
   192
  0
VERTEX
  5
304
  8
0
 10
117.5
 20
-6.0
 30
9.220000267028809
 70
   192
  0
VERTEX
  5
305
  8
0
 62
     9
 10
0.0
 20
0.0
 30
0.0
 70
   128
 71
     3
 72
     2
 73
     1
  0
VERTEX
  5
306
  8
0
 62
     9
 10
0.0
 20
0.0
 30
0.0
 70
   128
 71
     1
 72
     5
 73
     4
  0
VERTEX
  5
307
  8
0
 62
     9
 10
0.0
 20
0.0
 30
0.0
 70
   128
 71
     1
 72
     4
 73
     3
  0
SEQEND
  5
308
  8
0
 62
     9
  0
ENDBLK
  5
30B
  8
0
  0
BLOCK
  8
0
  2
E3_NODE_14_
 70
     0
 10
0.0
 20
0.0
 30
0.0
  3
E3_NODE_14_
  1

  0
POLYLINE
  5
30D
  8
0
 62
     9
 66
     1
 10
0.0
 20
0.0
 30
0.0
 70
    64
 71
     5
 72
     3
  0
VERTEX
  5
30E
  8
0
 10
117.5
 20
7.777999877929688
 30
-7.778999805450439
 70
   192
  0
VERTEX
  5
30F
  8
0
 10
117.5
 20
11.0
 30
-0.0010000000474975
 70
   192
  0
VERTEX
  5
310
  8
0
 10
117.5
 20
7.778999805450439
 30
7.777999877929688
 70
   192
  0
VERTEX
  5
311
  8
0
 10
117.5
 20
6.0
 30
9.218999862670898
 70
   192
  0
VERTEX
  5
312
  8
0
 10
117.5
 20
6.0
 30
-9.220000267028809
 70
   192
  0
VERTEX
  5
313
  8
0
 62
     9
 10
0.0
 20
0.0
 30
0.0
 70
   128
 71
     3
 72
     2
 73
     1
  0
VERTEX
  5
314
  8
0
 62
     9
 10
0.0
 20
0.0
 30
0.0
 70
   128
 71
     1
 72
     5
 73
     4
  0
VERTEX
  5
315
  8
0
 62
     9
 10
0.0
 20
0.0
 30
0.0
 70
   128
 71
     1
 72
     4
 73
     3
  0
SEQEND
  5
316
  8
0
 62
     9
  0
ENDBLK
  5
319
  8
0
  0
BLOCK
  8
0
  2
E3_NODE_15_
 70
     0
 10
0.0
 20
0.0
 30
0.0
  3
E3_NODE_15_
  1

  0
POLYLINE
  5
31B
  8
0
 62
     9
 66
     1
 10
0.0
 20
0.0
 30
0.0
 70
    64
 71
     6
 72
     4
  0
VERTEX
  5
31C
  8
0
 10
114.5
 20
5.197000026702881
 30
16.0
 70
   192
  0
VERTEX
  5
31D
  8
0
 10
111.5
 20
0.0010000000474975
 30
16.0
 70
   192
  0
VERTEX
  5
31E
  8
0
 10
114.5
 20
-5.195000171661377
 30
16.0
 70
   192
  0
VERTEX
  5
31F
  8
0
 10
120.5
 20
-5.195000171661377
 30
16.0
 70
   192
  0
VERTEX
  5
320
  8
0
 10
123.5
 20
0.0010000000474975
 30
16.0
 70
   192
  0
VERTEX
  5
321
  8
0
 10
120.5
 20
5.197000026702881
 30
16.0
 70
   192
  0
VERTEX
  5
322
  8
0
 62
     9
 10
0.0
 20
0.0
 30
0.0
 70
   128
 71
     3
 72
     2
 73
     1
  0
VERTEX
  5
323
  8
0
 62
     9
 10
0.0
 20
0.0
 30
0.0
 70
   128
 71
     6
 72
     5
 73
     4
  0
VERTEX
  5
324
  8
0
 62
     9
 10
0.0
 20
0.0
 30
0.0
 70
   128
 71
     4
 72
     1
 73
     6
  0
VERTEX
  5
325
  8
0
 62
     9
 10
0.0
 20
0.0
 30
0.0
 70
   128
 71
     1
 72
     4
 73
     3
  0
SEQEND
  5
326
  8
0
 62
     9
  0
ENDBLK
  5
329
  8
0
  0
ENDSEC
  0
SECTION
  2
ENTITIES
  0
INSERT
  5
6E
  8
LAYER_1
  2
E3_NODE
 10
0.0
 20
0.0
 30
0.0
  0
INSERT
  5
8B
  8
LAYER_1
  2
E3_NODE_1_
 10
0.0
 20
0.0
 30
0.0
  0
INSERT
  5
AD
  8
LAYER_1
  2
E3_NODE_2_
 10
0.0
 20
0.0
 30
0.0
  0
INSERT
  5
D9
  8
LAYER_1
  2
E3_NODE_3_
 10
0.0
 20
0.0
 30
0.0
  0
INSERT
  5
107
  8
LAYER_1
  2
E3_NODE_4_
 10
0.0
 20
0.0
 30
0.0
  0
INSERT
  5
12F
  8
LAYER_1
  2
E3_NODE_5_
 10
0.0
 20
0.0
 30
0.0
  0
INSERT
  5
17D
  8
LAYER_1
  2
E3_NODE_6_
 10
0.0
 20
0.0
 30
0.0
  0
INSERT
  5
1C9
  8
LAYER_1
  2
E3_NODE_7_
 10
0.0
 20
0.0
 30
0.0
  0
INSERT
  5
213
  8
LAYER_1
  2
E3_NODE_8_
 10
0.0
 20
0.0
 30
0.0
  0
INSERT
  5
239
  8
LAYER_1
  2
E3_NODE_9_
 10
0.0
 20
0.0
 30
0.0
  0
INSERT
  5
249
  8
LAYER_1
  2
E3_NODE_10_
 10
0.0
 20
0.0
 30
0.0
  0
INSERT
  5
2A1
  8
LAYER_1
  2
E3_NODE_11_
 10
0.0
 20
0.0
 30
0.0
  0
INSERT
  5
2FB
  8
LAYER_1
  2
E3_NODE_12_
 10
0.0
 20
0.0
 30
0.0
  0
INSERT
  5
309
  8
LAYER_1
  2
E3_NODE_13_
 10
0.0
 20
0.0
 30
0.0
  0
INSERT
  5
317
  8
LAYER_1
  2
E3_NODE_14_
 10
0.0
 20
0.0
 30
0.0
  0
INSERT
  5
327
  8
LAYER_1
  2
E3_NODE_15_
 10
0.0
 20
0.0
 30
0.0
  0
ENDSEC
  0
EOF
