  0
SECTION
  2
HEADER
  9
$ACADVER
  1
AC1015
  9
$ACADMAINTVER
 70
     6
  9
$DWGCODEPAGE
  3
ANSI_1252
  9
$INSBASE
 10
0.0
 20
0.0
 30
0.0
  9
$EXTMIN
 10
0.0
 20
0.0
 30
0.0
  9
$EXTMAX
 10
1682.0
 20
2378.0
 30
0.0
  9
$LIMMIN
 10
0.0
 20
0.0
  9
$LIMMAX
 10
1682.0
 20
2378.0
  9
$ORTHOMODE
 70
     0
  9
$REGENMODE
 70
     1
  9
$FILLMODE
 70
     1
  9
$QTEXTMODE
 70
     0
  9
$MIRRTEXT
 70
     1
  9
$LTSCALE
 40
1.0
  9
$ATTMODE
 70
     1
  9
$TEXTSIZE
 40
2.5
  9
$TRACEWID
 40
1.0
  9
$TEXTSTYLE
  7
Standard
  9
$CLAYER
  8
0
  9
$CELTYPE
  6
ByLayer
  9
$CECOLOR
 62
   256
  9
$CELTSCALE
 40
1.0
  9
$DISPSILH
 70
     0
  9
$DIMSCALE
 40
1.0
  9
$DIMASZ
 40
2.5
  9
$DIMEXO
 40
0.625
  9
$DIMDLI
 40
3.75
  9
$DIMRND
 40
0.0
  9
$DIMDLE
 40
0.0
  9
$DIMEXE
 40
1.25
  9
$DIMTP
 40
0.0
  9
$DIMTM
 40
0.0
  9
$DIMTXT
 40
2.5
  9
$DIMCEN
 40
2.5
  9
$DIMTSZ
 40
0.0
  9
$DIMTOL
 70
     0
  9
$DIMLIM
 70
     0
  9
$DIMTIH
 70
     0
  9
$DIMTOH
 70
     0
  9
$DIMSE1
 70
     0
  9
$DIMSE2
 70
     0
  9
$DIMTAD
 70
     1
  9
$DIMZIN
 70
     8
  9
$DIMBLK
  1

  9
$DIMASO
 70
     1
  9
$DIMSHO
 70
     1
  9
$DIMPOST
  1

  9
$DIMAPOST
  1

  9
$DIMALT
 70
     0
  9
$DIMALTD
 70
     3
  9
$DIMALTF
 40
0.0393700787
  9
$DIMLFAC
 40
1.0
  9
$DIMTOFL
 70
     1
  9
$DIMTVP
 40
0.0
  9
$DIMTIX
 70
     0
  9
$DIMSOXD
 70
     0
  9
$DIMSAH
 70
     0
  9
$DIMBLK1
  1

  9
$DIMBLK2
  1

  9
$DIMSTYLE
  2
ISO-25
  9
$DIMCLRD
 70
     0
  9
$DIMCLRE
 70
     0
  9
$DIMCLRT
 70
     0
  9
$DIMTFAC
 40
1.0
  9
$DIMGAP
 40
0.625
  9
$DIMJUST
 70
     0
  9
$DIMSD1
 70
     0
  9
$DIMSD2
 70
     0
  9
$DIMTOLJ
 70
     0
  9
$DIMTZIN
 70
     8
  9
$DIMALTZ
 70
     0
  9
$DIMALTTZ
 70
     0
  9
$DIMUPT
 70
     0
  9
$DIMDEC
 70
     2
  9
$DIMTDEC
 70
     2
  9
$DIMALTU
 70
     2
  9
$DIMALTTD
 70
     3
  9
$DIMTXSTY
  7
Standard
  9
$DIMAUNIT
 70
     0
  9
$DIMADEC
 70
     0
  9
$DIMALTRND
 40
0.0
  9
$DIMAZIN
 70
     0
  9
$DIMDSEP
 70
    44
  9
$DIMATFIT
 70
     3
  9
$DIMFRAC
 70
     0
  9
$DIMLDRBLK
  1

  9
$DIMLUNIT
 70
     2
  9
$DIMLWD
 70
    -2
  9
$DIMLWE
 70
    -2
  9
$DIMTMOVE
 70
     0
  9
$LUNITS
 70
     2
  9
$LUPREC
 70
     4
  9
$SKETCHINC
 40
1.0
  9
$FILLETRAD
 40
10.0
  9
$AUNITS
 70
     0
  9
$AUPREC
 70
     0
  9
$MENU
  1
.
  9
$ELEVATION
 40
0.0
  9
$PELEVATION
 40
0.0
  9
$THICKNESS
 40
0.0
  9
$LIMCHECK
 70
     0
  9
$CHAMFERA
 40
10.0
  9
$CHAMFERB
 40
10.0
  9
$CHAMFERC
 40
20.0
  9
$CHAMFERD
 40
0.0
  9
$SKPOLY
 70
     0
  9
$TDCREATE
 40
2455544.570193958
  9
$TDUCREATE
 40
2455544.528527291
  9
$TDUPDATE
 40
2455544.57019397
  9
$TDUUPDATE
 40
2455544.528527303
  9
$TDINDWG
 40
0.0000000116
  9
$TDUSRTIMER
 40
0.0000000116
  9
$USRTIMER
 70
     1
  9
$ANGBASE
 50
0.0
  9
$ANGDIR
 70
     0
  9
$PDMODE
 70
     0
  9
$PDSIZE
 40
0.0
  9
$PLINEWID
 40
0.0
  9
$SPLFRAME
 70
     0
  9
$SPLINETYPE
 70
     6
  9
$SPLINESEGS
 70
     8
  9
$HANDSEED
  5
19F
  9
$SURFTAB1
 70
     6
  9
$SURFTAB2
 70
     6
  9
$SURFTYPE
 70
     6
  9
$SURFU
 70
     6
  9
$SURFV
 70
     6
  9
$UCSBASE
  2

  9
$UCSNAME
  2

  9
$UCSORG
 10
0.0
 20
0.0
 30
0.0
  9
$UCSXDIR
 10
1.0
 20
0.0
 30
0.0
  9
$UCSYDIR
 10
0.0
 20
1.0
 30
0.0
  9
$UCSORTHOREF
  2

  9
$UCSORTHOVIEW
 70
     0
  9
$UCSORGTOP
 10
0.0
 20
0.0
 30
0.0
  9
$UCSORGBOTTOM
 10
0.0
 20
0.0
 30
0.0
  9
$UCSORGLEFT
 10
0.0
 20
0.0
 30
0.0
  9
$UCSORGRIGHT
 10
0.0
 20
0.0
 30
0.0
  9
$UCSORGFRONT
 10
0.0
 20
0.0
 30
0.0
  9
$UCSORGBACK
 10
0.0
 20
0.0
 30
0.0
  9
$PUCSBASE
  2

  9
$PUCSNAME
  2

  9
$PUCSORG
 10
0.0
 20
0.0
 30
0.0
  9
$PUCSXDIR
 10
1.0
 20
0.0
 30
0.0
  9
$PUCSYDIR
 10
0.0
 20
1.0
 30
0.0
  9
$PUCSORTHOREF
  2

  9
$PUCSORTHOVIEW
 70
     0
  9
$PUCSORGTOP
 10
0.0
 20
0.0
 30
0.0
  9
$PUCSORGBOTTOM
 10
0.0
 20
0.0
 30
0.0
  9
$PUCSORGLEFT
 10
0.0
 20
0.0
 30
0.0
  9
$PUCSORGRIGHT
 10
0.0
 20
0.0
 30
0.0
  9
$PUCSORGFRONT
 10
0.0
 20
0.0
 30
0.0
  9
$PUCSORGBACK
 10
0.0
 20
0.0
 30
0.0
  9
$USERI1
 70
     0
  9
$USERI2
 70
     0
  9
$USERI3
 70
     0
  9
$USERI4
 70
     0
  9
$USERI5
 70
     0
  9
$USERR1
 40
0.0
  9
$USERR2
 40
0.0
  9
$USERR3
 40
0.0
  9
$USERR4
 40
0.0
  9
$USERR5
 40
0.0
  9
$WORLDVIEW
 70
     1
  9
$SHADEDGE
 70
     3
  9
$SHADEDIF
 70
    70
  9
$TILEMODE
 70
     1
  9
$MAXACTVP
 70
    64
  9
$PINSBASE
 10
0.0
 20
0.0
 30
0.0
  9
$PLIMCHECK
 70
     0
  9
$PEXTMIN
 10
0.0
 20
0.0
 30
0.0
  9
$PEXTMAX
 10
1682.0
 20
2378.0
 30
0.0
  9
$PLIMMIN
 10
0.0
 20
0.0
  9
$PLIMMAX
 10
1682.0
 20
2378.0
  9
$UNITMODE
 70
     0
  9
$VISRETAIN
 70
     1
  9
$PLINEGEN
 70
     0
  9
$PSLTSCALE
 70
     1
  9
$TREEDEPTH
 70
  3020
  9
$CMLSTYLE
  2
Standard
  9
$CMLJUST
 70
     0
  9
$CMLSCALE
 40
20.0
  9
$PROXYGRAPHICS
 70
     1
  9
$MEASUREMENT
 70
     1
  9
$CELWEIGHT
370
    -1
  9
$ENDCAPS
280
     0
  9
$JOINSTYLE
280
     0
  9
$LWDISPLAY
290
     0
  9
$INSUNITS
 70
     4
  9
$HYPERLINKBASE
  1

  9
$STYLESHEET
  1

  9
$XEDIT
290
     1
  9
$CEPSNTYPE
380
     0
  9
$PSTYLEMODE
290
     1
  9
$FINGERPRINTGUID
  2
{E853D29F-5366-46C1-B8A8-838C27C6C474}
  9
$VERSIONGUID
  2
{FAEB1C32-E019-11D5-929B-00C0DF256EC4}
  9
$EXTNAMES
290
     1
  9
$PSVPSCALE
 40
0.0
  9
$OLESTARTUP
290
     0
  0
ENDSEC
  0
SECTION
  2
CLASSES
  0
CLASS
  1
ACDBDICTIONARYWDFLT
  2
AcDbDictionaryWithDefault
  3
ObjectDBX Classes
 90
        0
280
     0
281
     0
  0
CLASS
  1
VISUALSTYLE
  2
AcDbVisualStyle
  3
ObjectDBX Classes
 90
     4095
280
     0
281
     0
  0
CLASS
  1
SCALE
  2
AcDbScale
  3
ObjectDBX Classes
 90
     1153
280
     0
281
     0
  0
CLASS
  1
DICTIONARYVAR
  2
AcDbDictionaryVar
  3
ObjectDBX Classes
 90
        0
280
     0
281
     0
  0
CLASS
  1
ACDBPLACEHOLDER
  2
AcDbPlaceHolder
  3
ObjectDBX Classes
 90
        0
280
     0
281
     0
  0
CLASS
  1
LAYOUT
  2
AcDbLayout
  3
ObjectDBX Classes
 90
        0
280
     0
281
     0
  0
ENDSEC
  0
SECTION
  2
TABLES
  0
TABLE
  2
VPORT
  5
8
330
0
100
AcDbSymbolTable
 70
     1
  0
VPORT
  5
29
330
8
100
AcDbSymbolTableRecord
100
AcDbViewportTableRecord
  2
*Active
 70
     0
 10
0.0
 20
0.0
 11
1.0
 21
1.0
 12
344.1869158879
 22
148.5
 13
0.0
 23
0.0
 14
10.0
 24
10.0
 15
10.0
 25
10.0
 16
0.0
 26
0.0
 36
1.0
 17
0.0
 27
0.0
 37
0.0
 40
297.0
 41
1.9729729729
 42
50.0
 43
0.0
 44
0.0
 50
0.0
 51
0.0
 71
     0
 72
   100
 73
     1
 74
     3
 75
     0
 76
     0
 77
     0
 78
     0
281
     0
 65
     1
110
0.0
120
0.0
130
0.0
111
1.0
121
0.0
131
0.0
112
0.0
122
1.0
132
0.0
 79
     0
146
0.0
  0
ENDTAB
  0
TABLE
  2
LTYPE
  5
5
330
0
100
AcDbSymbolTable
 70
     2
  0
LTYPE
  5
14
330
5
100
AcDbSymbolTableRecord
100
AcDbLinetypeTableRecord
  2
ByBlock
 70
     0
  3

 72
    65
 73
     0
 40
0.0
  0
LTYPE
  5
15
330
5
100
AcDbSymbolTableRecord
100
AcDbLinetypeTableRecord
  2
ByLayer
 70
     0
  3

 72
    65
 73
     0
 40
0.0
  0
LTYPE
  5
16
330
5
100
AcDbSymbolTableRecord
100
AcDbLinetypeTableRecord
  2
Continuous
 70
     0
  3
Solid line
 72
    65
 73
     0
 40
0.0
  0
LTYPE
  5
60
330
5
100
AcDbSymbolTableRecord
100
AcDbLinetypeTableRecord
  2
CENTER2
 70
     0
  3
Center (.5x) ___ _ ___ _ ___ _ ___ _ ___ _ ___
 72
    65
 73
     4
 40
28.575
 49
19.05
 74
     4
 75
     0
340
0
 46
0.0
 50
0.0
 44
0.0
 45
0.0
 49
-3.175
 74
     4
 75
     0
340
0
 46
0.0
 50
0.0
 44
0.0
 45
0.0
 49
3.175
 74
     4
 75
     0
340
0
 46
0.0
 50
0.0
 44
0.0
 45
0.0
 49
-3.175
 74
     4
 75
     0
340
0
 46
0.0
 50
0.0
 44
0.0
 45
0.0
  0
ENDTAB
  0
TABLE
  2
LAYER
  5
2
330
0
100
AcDbSymbolTable
 70
    12
  0
LAYER
  5
10
330
2
100
AcDbSymbolTableRecord
100
AcDbLayerTableRecord
  2
0
 70
     0
 62
     7
  6
Continuous
370
    -3
390
F
  0
LAYER
  5
5D
330
2
100
AcDbSymbolTableRecord
100
AcDbLayerTableRecord
  2
Default
 70
     0
 62
     7
  6
Continuous
370
    -3
390
F
  0
LAYER
  5
9B
330
2
100
AcDbSymbolTableRecord
100
AcDbLayerTableRecord
  2
$DDT_AUDIT_GENERATED_(9B)
 70
     0
 62
     7
  6
Continuous
370
    -3
390
F
  0
LAYER
  5
9D
330
2
100
AcDbSymbolTableRecord
100
AcDbLayerTableRecord
  2
$DDT_AUDIT_GENERATED_(9D)
 70
     0
 62
     7
  6
Continuous
370
    -3
390
F
  0
LAYER
  5
A2
330
2
100
AcDbSymbolTableRecord
100
AcDbLayerTableRecord
  2
$DDT_AUDIT_GENERATED_(A2)
 70
     0
 62
     7
  6
Continuous
370
    -3
390
F
  0
LAYER
  5
AB
330
2
100
AcDbSymbolTableRecord
100
AcDbLayerTableRecord
  2
$DDT_AUDIT_GENERATED_(AB)
 70
     0
 62
     7
  6
Continuous
370
    -3
390
F
  0
LAYER
  5
AE
330
2
100
AcDbSymbolTableRecord
100
AcDbLayerTableRecord
  2
$DDT_AUDIT_GENERATED_(AE)
 70
     0
 62
     7
  6
Continuous
370
    -3
390
F
  0
LAYER
  5
B9
330
2
100
AcDbSymbolTableRecord
100
AcDbLayerTableRecord
  2
$DDT_AUDIT_GENERATED_(B9)
 70
     0
 62
     7
  6
Continuous
370
    -3
390
F
  0
LAYER
  5
C2
330
2
100
AcDbSymbolTableRecord
100
AcDbLayerTableRecord
  2
$DDT_AUDIT_GENERATED_(C2)
 70
     0
 62
     7
  6
Continuous
370
    -3
390
F
  0
LAYER
  5
CA
330
2
100
AcDbSymbolTableRecord
100
AcDbLayerTableRecord
  2
$DDT_AUDIT_GENERATED_(CA)
 70
     0
 62
     7
  6
Continuous
370
    -3
390
F
  0
LAYER
  5
E5
330
2
100
AcDbSymbolTableRecord
100
AcDbLayerTableRecord
  2
$DDT_AUDIT_GENERATED_(E5)
 70
     0
 62
     7
  6
Continuous
370
    -3
390
F
  0
LAYER
  5
F5
330
2
100
AcDbSymbolTableRecord
100
AcDbLayerTableRecord
  2
$DDT_AUDIT_GENERATED_(F5)
 70
     0
 62
     7
  6
Continuous
370
    -3
390
F
  0
ENDTAB
  0
TABLE
  2
STYLE
  5
3
330
0
100
AcDbSymbolTable
 70
     2
  0
STYLE
  5
11
330
3
100
AcDbSymbolTableRecord
100
AcDbTextStyleTableRecord
  2
Standard
 70
     0
 40
0.0
 41
1.0
 50
0.0
 71
     0
 42
2.5
  3
txt
  4

  0
STYLE
  5
18E
330
3
100
AcDbSymbolTableRecord
100
AcDbTextStyleTableRecord
  2
SEACAD_seiso_ttf
 70
     0
 40
0.0
 41
1.0
 50
0.0
 71
     0
 42
0.2
  3
seiso.ttf
  4

  0
ENDTAB
  0
TABLE
  2
VIEW
  5
6
330
0
100
AcDbSymbolTable
 70
     0
  0
ENDTAB
  0
TABLE
  2
UCS
  5
7
330
0
100
AcDbSymbolTable
 70
     0
  0
ENDTAB
  0
TABLE
  2
APPID
  5
9
330
0
100
AcDbSymbolTable
 70
     1
  0
APPID
  5
12
330
9
100
AcDbSymbolTableRecord
100
AcDbRegAppTableRecord
  2
ACAD
 70
     0
  0
ENDTAB
  0
TABLE
  2
DIMSTYLE
  5
A
330
0
100
AcDbSymbolTable
 70
     1
100
AcDbDimStyleTable
  0
DIMSTYLE
105
27
330
A
100
AcDbSymbolTableRecord
100
AcDbDimStyleTableRecord
  2
ISO-25
 70
     0
 41
2.5
 42
0.625
 43
3.75
 44
1.25
 73
     0
 74
     0
 77
     1
 78
     8
140
2.5
141
2.5
143
0.0393700787
147
0.625
171
     3
172
     1
271
     2
272
     2
274
     3
278
    44
283
     0
284
     8
340
11
  0
ENDTAB
  0
TABLE
  2
BLOCK_RECORD
  5
1
330
0
100
AcDbSymbolTable
 70
    11
  0
BLOCK_RECORD
  5
1F
330
1
100
AcDbSymbolTableRecord
100
AcDbBlockTableRecord
  2
*Model_Space
340
22
  0
BLOCK_RECORD
  5
1B
330
1
100
AcDbSymbolTableRecord
100
AcDbBlockTableRecord
  2
*Paper_Space
340
1E
  0
BLOCK_RECORD
  5
5E
330
1
100
AcDbSymbolTableRecord
100
AcDbBlockTableRecord
  2
SEANNOT_GROUP
340
0
102
{BLKREFS
331
5F
102
}
  0
BLOCK_RECORD
  5
69
330
1
100
AcDbSymbolTableRecord
100
AcDbBlockTableRecord
  2
SEANNOT_GROUP1
340
0
102
{BLKREFS
331
6A
102
}
  0
BLOCK_RECORD
  5
6F
330
1
100
AcDbSymbolTableRecord
100
AcDbBlockTableRecord
  2
SEANNOT_GROUP2
340
0
102
{BLKREFS
331
70
102
}
  0
BLOCK_RECORD
  5
75
330
1
100
AcDbSymbolTableRecord
100
AcDbBlockTableRecord
  2
SEANNOT_GROUP3
340
0
102
{BLKREFS
331
76
102
}
  0
BLOCK_RECORD
  5
7F
330
1
100
AcDbSymbolTableRecord
100
AcDbBlockTableRecord
  2
SEANNOT_GROUP4
340
0
102
{BLKREFS
331
80
102
}
  0
BLOCK_RECORD
  5
89
330
1
100
AcDbSymbolTableRecord
100
AcDbBlockTableRecord
  2
SEANNOT_GROUP5
340
0
102
{BLKREFS
331
8A
102
}
  0
BLOCK_RECORD
  5
93
330
1
100
AcDbSymbolTableRecord
100
AcDbBlockTableRecord
  2
SEANNOT_GROUP6
340
0
102
{BLKREFS
331
94
102
}
  0
BLOCK_RECORD
  5
99
330
1
100
AcDbSymbolTableRecord
100
AcDbBlockTableRecord
  2
SE
340
0
102
{BLKREFS
331
9A
102
}
  0
BLOCK_RECORD
  5
C0
330
1
100
AcDbSymbolTableRecord
100
AcDbBlockTableRecord
  2
SE1
340
0
102
{BLKREFS
331
C1
102
}
  0
BLOCK_RECORD
  5
121
330
1
100
AcDbSymbolTableRecord
100
AcDbBlockTableRecord
  2
SE2
340
0
102
{BLKREFS
331
122
102
}
  0
ENDTAB
  0
ENDSEC
  0
SECTION
  2
BLOCKS
  0
BLOCK
  5
20
330
1F
100
AcDbEntity
  8
0
100
AcDbBlockBegin
  2
*Model_Space
 70
     0
 10
0.0
 20
0.0
 30
0.0
  3
*Model_Space
  1

  0
ENDBLK
  5
21
330
1F
100
AcDbEntity
  8
0
100
AcDbBlockEnd
  0
BLOCK
  5
1C
330
1B
100
AcDbEntity
 67
     1
  8
0
100
AcDbBlockBegin
  2
*Paper_Space
 70
     0
 10
0.0
 20
0.0
 30
0.0
  3
*Paper_Space
  1

  0
ENDBLK
  5
1D
330
1B
100
AcDbEntity
 67
     1
  8
0
100
AcDbBlockEnd
  0
BLOCK
  5
67
330
5E
100
AcDbEntity
  8
0
100
AcDbBlockBegin
  2
SEANNOT_GROUP
 70
     0
 10
0.0
 20
0.0
 30
0.0
  3
SEANNOT_GROUP
  1

  0
LINE
  5
61
330
5E
100
AcDbEntity
  8
Default
  6
CENTER2
 62
     7
100
AcDbLine
 10
167.8877664145
 20
429.8672891528
 30
0.0
 11
127.8877673086
 21
429.8672891528
 31
0.0
  0
LINE
  5
62
330
5E
100
AcDbEntity
  8
Default
  6
CENTER2
 62
     7
100
AcDbLine
 10
147.8877668616
 20
449.8672887058
 30
0.0
 11
147.8877668616
 21
409.8672895998
 31
0.0
  0
LINE
  5
63
330
5E
100
AcDbEntity
  8
Default
  6
CENTER2
 62
     7
100
AcDbLine
 10
172.8877663028
 20
429.8672891528
 30
0.0
 11
236.3877668616
 21
429.8672891528
 31
0.0
  0
LINE
  5
64
330
5E
100
AcDbEntity
  8
Default
  6
CENTER2
 62
     7
100
AcDbLine
 10
147.8877668616
 20
454.867288594
 30
0.0
 11
147.8877668616
 21
518.3672891528
 31
0.0
  0
LINE
  5
65
330
5E
100
AcDbEntity
  8
Default
  6
CENTER2
 62
     7
100
AcDbLine
 10
122.8877674204
 20
429.8672891528
 30
0.0
 11
59.3877668616
 21
429.8672891528
 31
0.0
  0
LINE
  5
66
330
5E
100
AcDbEntity
  8
Default
  6
CENTER2
 62
     7
100
AcDbLine
 10
147.8877668616
 20
404.8672897116
 30
0.0
 11
147.8877668616
 21
341.3672891528
 31
0.0
  0
ENDBLK
  5
68
330
5E
100
AcDbEntity
  8
0
100
AcDbBlockEnd
  0
BLOCK
  5
6D
330
69
100
AcDbEntity
  8
0
100
AcDbBlockBegin
  2
SEANNOT_GROUP1
 70
     0
 10
0.0
 20
0.0
 30
0.0
  3
SEANNOT_GROUP1
  1

  0
LINE
  5
6B
330
69
100
AcDbEntity
  8
Default
  6
CENTER2
 62
     7
100
AcDbLine
 10
339.9351940447
 20
431.0146887025
 30
0.0
 11
299.9351949388
 21
431.0146887025
 31
0.0
  0
LINE
  5
6C
330
69
100
AcDbEntity
  8
Default
  6
CENTER2
 62
     7
100
AcDbLine
 10
319.9351944918
 20
451.0146882554
 30
0.0
 11
319.9351944918
 21
411.0146891495
 31
0.0
  0
ENDBLK
  5
6E
330
69
100
AcDbEntity
  8
0
100
AcDbBlockEnd
  0
BLOCK
  5
73
330
6F
100
AcDbEntity
  8
0
100
AcDbBlockBegin
  2
SEANNOT_GROUP2
 70
     0
 10
0.0
 20
0.0
 30
0.0
  3
SEANNOT_GROUP2
  1

  0
LINE
  5
71
330
6F
100
AcDbEntity
  8
Default
  6
CENTER2
 62
     7
100
AcDbLine
 10
381.3824870212
 20
484.8672891528
 30
0.0
 11
341.3824879153
 21
484.8672891528
 31
0.0
  0
LINE
  5
72
330
6F
100
AcDbEntity
  8
Default
  6
CENTER2
 62
     7
100
AcDbLine
 10
361.3824874683
 20
504.8672887058
 30
0.0
 11
361.3824874683
 21
464.8672895998
 31
0.0
  0
ENDBLK
  5
74
330
6F
100
AcDbEntity
  8
0
100
AcDbBlockEnd
  0
BLOCK
  5
7D
330
75
100
AcDbEntity
  8
0
100
AcDbBlockBegin
  2
SEANNOT_GROUP3
 70
     0
 10
0.0
 20
0.0
 30
0.0
  3
SEANNOT_GROUP3
  1

  0
LINE
  5
77
330
75
100
AcDbEntity
  8
Default
  6
CENTER2
 62
     7
100
AcDbLine
 10
167.8877664145
 20
484.8672891528
 30
0.0
 11
127.8877673086
 21
484.8672891528
 31
0.0
  0
LINE
  5
78
330
75
100
AcDbEntity
  8
Default
  6
CENTER2
 62
     7
100
AcDbLine
 10
147.8877668616
 20
504.8672887058
 30
0.0
 11
147.8877668616
 21
464.8672895998
 31
0.0
  0
LINE
  5
79
330
75
100
AcDbEntity
  8
Default
  6
CENTER2
 62
     7
100
AcDbLine
 10
172.8877663028
 20
484.8672891528
 30
0.0
 11
157.3877668616
 21
484.8672891528
 31
0.0
  0
LINE
  5
7A
330
75
100
AcDbEntity
  8
Default
  6
CENTER2
 62
     7
100
AcDbLine
 10
147.8877668616
 20
509.867288594
 30
0.0
 11
147.8877668616
 21
494.3672891528
 31
0.0
  0
LINE
  5
7B
330
75
100
AcDbEntity
  8
Default
  6
CENTER2
 62
     7
100
AcDbLine
 10
122.8877674204
 20
484.8672891528
 30
0.0
 11
138.3877668616
 21
484.8672891528
 31
0.0
  0
LINE
  5
7C
330
75
100
AcDbEntity
  8
Default
  6
CENTER2
 62
     7
100
AcDbLine
 10
147.8877668616
 20
459.8672897116
 30
0.0
 11
147.8877668616
 21
475.3672891528
 31
0.0
  0
ENDBLK
  5
7E
330
75
100
AcDbEntity
  8
0
100
AcDbBlockEnd
  0
BLOCK
  5
87
330
7F
100
AcDbEntity
  8
0
100
AcDbBlockBegin
  2
SEANNOT_GROUP4
 70
     0
 10
0.0
 20
0.0
 30
0.0
  3
SEANNOT_GROUP4
  1

  0
LINE
  5
81
330
7F
100
AcDbEntity
  8
Default
  6
CENTER2
 62
     7
100
AcDbLine
 10
203.8877664145
 20
439.8672891528
 30
0.0
 11
163.8877673086
 21
439.8672891528
 31
0.0
  0
LINE
  5
82
330
7F
100
AcDbEntity
  8
Default
  6
CENTER2
 62
     7
100
AcDbLine
 10
183.8877668616
 20
459.8672887058
 30
0.0
 11
183.8877668616
 21
419.8672895998
 31
0.0
  0
LINE
  5
83
330
7F
100
AcDbEntity
  8
Default
  6
CENTER2
 62
     7
100
AcDbLine
 10
208.8877663028
 20
439.8672891528
 30
0.0
 11
193.3877668616
 21
439.8672891528
 31
0.0
  0
LINE
  5
84
330
7F
100
AcDbEntity
  8
Default
  6
CENTER2
 62
     7
100
AcDbLine
 10
183.8877668616
 20
464.867288594
 30
0.0
 11
183.8877668616
 21
449.3672891528
 31
0.0
  0
LINE
  5
85
330
7F
100
AcDbEntity
  8
Default
  6
CENTER2
 62
     7
100
AcDbLine
 10
158.8877674204
 20
439.8672891528
 30
0.0
 11
174.3877668616
 21
439.8672891528
 31
0.0
  0
LINE
  5
86
330
7F
100
AcDbEntity
  8
Default
  6
CENTER2
 62
     7
100
AcDbLine
 10
183.8877668616
 20
414.8672897116
 30
0.0
 11
183.8877668616
 21
430.3672891528
 31
0.0
  0
ENDBLK
  5
88
330
7F
100
AcDbEntity
  8
0
100
AcDbBlockEnd
  0
BLOCK
  5
91
330
89
100
AcDbEntity
  8
0
100
AcDbBlockBegin
  2
SEANNOT_GROUP5
 70
     0
 10
0.0
 20
0.0
 30
0.0
  3
SEANNOT_GROUP5
  1

  0
LINE
  5
8B
330
89
100
AcDbEntity
  8
Default
  6
CENTER2
 62
     7
100
AcDbLine
 10
131.8877664145
 20
439.8672891528
 30
0.0
 11
91.8877673086
 21
439.8672891528
 31
0.0
  0
LINE
  5
8C
330
89
100
AcDbEntity
  8
Default
  6
CENTER2
 62
     7
100
AcDbLine
 10
111.8877668616
 20
459.8672887058
 30
0.0
 11
111.8877668616
 21
419.8672895998
 31
0.0
  0
LINE
  5
8D
330
89
100
AcDbEntity
  8
Default
  6
CENTER2
 62
     7
100
AcDbLine
 10
136.8877663028
 20
439.8672891528
 30
0.0
 11
121.3877668616
 21
439.8672891528
 31
0.0
  0
LINE
  5
8E
330
89
100
AcDbEntity
  8
Default
  6
CENTER2
 62
     7
100
AcDbLine
 10
111.8877668616
 20
464.867288594
 30
0.0
 11
111.8877668616
 21
449.3672891528
 31
0.0
  0
LINE
  5
8F
330
89
100
AcDbEntity
  8
Default
  6
CENTER2
 62
     7
100
AcDbLine
 10
86.8877674204
 20
439.8672891528
 30
0.0
 11
102.3877668616
 21
439.8672891528
 31
0.0
  0
LINE
  5
90
330
89
100
AcDbEntity
  8
Default
  6
CENTER2
 62
     7
100
AcDbLine
 10
111.8877668616
 20
414.8672897116
 30
0.0
 11
111.8877668616
 21
430.3672891528
 31
0.0
  0
ENDBLK
  5
92
330
89
100
AcDbEntity
  8
0
100
AcDbBlockEnd
  0
BLOCK
  5
97
330
93
100
AcDbEntity
  8
0
100
AcDbBlockBegin
  2
SEANNOT_GROUP6
 70
     0
 10
0.0
 20
0.0
 30
0.0
  3
SEANNOT_GROUP6
  1

  0
LINE
  5
95
330
93
100
AcDbEntity
  8
Default
  6
CENTER2
 62
     7
100
AcDbLine
 10
167.8877664145
 20
256.6237556809
 30
0.0
 11
127.8877673086
 21
256.6237556809
 31
0.0
  0
LINE
  5
96
330
93
100
AcDbEntity
  8
Default
  6
CENTER2
 62
     7
100
AcDbLine
 10
147.8877668616
 20
276.6237552339
 30
0.0
 11
147.8877668616
 21
236.623756128
 31
0.0
  0
ENDBLK
  5
98
330
93
100
AcDbEntity
  8
0
100
AcDbBlockEnd
  0
BLOCK
  5
BE
330
99
100
AcDbEntity
  8
0
100
AcDbBlockBegin
  2
SE
 70
     0
 10
0.0
 20
0.0
 30
0.0
  3
SE
  1

  0
CIRCLE
  5
9C
330
99
100
AcDbEntity
  8
$DDT_AUDIT_GENERATED_(9B)
  6
Continuous
 62
     7
100
AcDbCircle
 10
147.8877668616
 20
484.8672891528
 30
0.0
 40
6.0
  0
ARC
  5
9E
330
99
100
AcDbEntity
  8
$DDT_AUDIT_GENERATED_(9D)
  6
Continuous
 62
     7
100
AcDbCircle
 10
147.8877668616
 20
429.8672891528
 30
0.0
 40
27.85484353333042
100
AcDbArc
 50
0.0
 51
227.453217784
  0
ARC
  5
9F
330
99
100
AcDbEntity
  8
$DDT_AUDIT_GENERATED_(9D)
  6
Continuous
 62
     7
100
AcDbCircle
 10
147.8877668616
 20
429.8672891528
 30
0.0
 40
27.85484353333042
100
AcDbArc
 50
312.1931019124
 51
0.0
  0
ARC
  5
A0
330
99
100
AcDbEntity
  8
$DDT_AUDIT_GENERATED_(9D)
  6
Continuous
 62
     7
100
AcDbCircle
 10
147.8877668616
 20
429.8672891528
 30
0.0
 40
30.00000000000001
100
AcDbArc
 50
0.0
 51
234.6025633435
  0
ARC
  5
A1
330
99
100
AcDbEntity
  8
$DDT_AUDIT_GENERATED_(9D)
  6
Continuous
 62
     7
100
AcDbCircle
 10
147.8877668616
 20
429.8672891528
 30
0.0
 40
30.00000000000001
100
AcDbArc
 50
305.3918787503
 51
0.0
  0
ARC
  5
A3
330
99
100
AcDbEntity
  8
$DDT_AUDIT_GENERATED_(A2)
  6
Continuous
 62
     7
100
AcDbCircle
 10
147.8878044459
 20
485.5045491415
 30
0.0
 40
6.263656418201943
100
AcDbArc
 50
332.8739935181
 51
207.1192480935
  0
ARC
  5
A4
330
99
100
AcDbEntity
  8
$DDT_AUDIT_GENERATED_(A2)
  6
Continuous
 62
     7
100
AcDbCircle
 10
147.8877668616
 20
484.8672891528
 30
0.0
 40
5.999999999999992
100
AcDbArc
 50
188.4374962708
 51
201.6949568492
  0
ARC
  5
A5
330
99
100
AcDbEntity
  8
$DDT_AUDIT_GENERATED_(A2)
  6
Continuous
 62
     7
100
AcDbCircle
 10
147.8877668616
 20
484.8672891528
 30
0.0
 40
5.999999999999992
100
AcDbArc
 50
84.8646420683
 51
100.3994333507
  0
ARC
  5
A6
330
99
100
AcDbEntity
  8
$DDT_AUDIT_GENERATED_(A2)
  6
Continuous
 62
     7
100
AcDbCircle
 10
147.8877668616
 20
484.8672891528
 30
0.0
 40
5.999999999999992
100
AcDbArc
 50
359.7181257186
 51
1.8091526214
  0
ARC
  5
A7
330
99
100
AcDbEntity
  8
$DDT_AUDIT_GENERATED_(A2)
  6
Continuous
 62
     7
100
AcDbCircle
 10
147.8877668616
 20
484.8672891528
 30
0.0
 40
5.999999999999992
100
AcDbArc
 50
338.2982847623
 51
341.5115036807
  0
CIRCLE
  5
A8
330
99
100
AcDbEntity
  8
$DDT_AUDIT_GENERATED_(A2)
  6
Continuous
 62
     7
100
AcDbCircle
 10
147.8877671071
 20
485.2276881443
 30
0.0
 40
9.639071870647275
  0
CIRCLE
  5
A9
330
99
100
AcDbEntity
  8
$DDT_AUDIT_GENERATED_(A2)
  6
Continuous
 62
     7
100
AcDbCircle
 10
147.8879167021
 20
485.3044944948
 30
0.0
 40
9.568081045293722
  0
CIRCLE
  5
AA
330
99
100
AcDbEntity
  8
$DDT_AUDIT_GENERATED_(A2)
  6
Continuous
 62
     7
100
AcDbCircle
 10
147.8876325595
 20
485.4578702319
 30
0.0
 40
6.854737398089511
  0
CIRCLE
  5
AC
330
99
100
AcDbEntity
  8
$DDT_AUDIT_GENERATED_(AB)
  6
Continuous
 62
     7
100
AcDbCircle
 10
111.8877668616
 20
439.8672891528
 30
0.0
 40
6.0
  0
CIRCLE
  5
AD
330
99
100
AcDbEntity
  8
$DDT_AUDIT_GENERATED_(AB)
  6
Continuous
 62
     7
100
AcDbCircle
 10
183.8877668616
 20
439.8672891528
 30
0.0
 40
6.0
  0
ARC
  5
AF
330
99
100
AcDbEntity
  8
$DDT_AUDIT_GENERATED_(AE)
  6
Continuous
 62
     7
100
AcDbCircle
 10
111.584269454
 20
400.7111353586
 30
0.0
 40
19.56205916516901
100
AcDbArc
 50
27.2330044071
 51
38.7525257884
  0
ARC
  5
B0
330
99
100
AcDbEntity
  8
$DDT_AUDIT_GENERATED_(AE)
  6
Continuous
 62
     7
100
AcDbCircle
 10
147.8877668614
 20
429.8672891528
 30
0.0
 40
27.0000000001295
100
AcDbArc
 50
321.2171963804
 51
218.7804695161
  0
ARC
  5
B1
330
99
100
AcDbEntity
  8
$DDT_AUDIT_GENERATED_(AE)
  6
Continuous
 62
     7
100
AcDbCircle
 10
184.1665865038
 20
400.7247731132
 30
0.0
 40
19.53427829195612
100
AcDbArc
 50
141.2365871019
 51
152.605951737
  0
ARC
  5
B2
330
99
100
AcDbEntity
  8
$DDT_AUDIT_GENERATED_(AE)
  6
Continuous
 62
     7
100
AcDbCircle
 10
184.8266980707
 20
400.3808291537
 30
0.0
 40
20.26187114750991
100
AcDbArc
 50
152.9761406864
 51
176.947463772
  0
ARC
  5
B3
330
99
100
AcDbEntity
  8
$DDT_AUDIT_GENERATED_(AE)
  6
Continuous
 62
     7
100
AcDbCircle
 10
-1336.9377623116
 20
478.2840314782
 30
0.0
 40
1503.489575512827
100
AcDbArc
 50
354.6251093269
 51
357.0710795721
  0
ARC
  5
B4
330
99
100
AcDbEntity
  8
$DDT_AUDIT_GENERATED_(AE)
  6
Continuous
 62
     7
100
AcDbCircle
 10
110.8471139041
 20
400.3461625019
 30
0.0
 40
20.3675606020354
100
AcDbArc
 50
3.1260606881
 51
26.8251825187
  0
SPLINE
  5
B5
330
99
100
AcDbEntity
  8
$DDT_AUDIT_GENERATED_(AE)
  6
Continuous
 62
     7
100
AcDbSpline
210
0.0
220
0.0
230
1.0
 70
     8
 71
     3
 72
    15
 73
    11
 74
     0
 42
0.0000000015690227
 43
0.0000000001
 40
0.0
 40
0.0
 40
0.0
 40
0.0
 40
0.126780367586599
 40
0.2926962324278082
 40
0.4568264187120971
 40
0.5950693853847793
 40
0.7037011843462095
 40
0.8118204280815864
 40
0.9265752351919789
 40
1.0
 40
1.0
 40
1.0
 40
1.0
 10
156.0452099389403
 20
332.7525683701945
 30
0.0
 10
156.3082190545448
 20
332.8872783020152
 30
0.0
 10
156.8205668876885
 20
333.1544021931257
 30
0.0
 10
157.6306822860479
 20
333.729450045067
 30
0.0
 10
158.3671915557572
 20
334.3913318233755
 30
0.0
 10
158.9462950946689
 20
335.0471681574091
 30
0.0
 10
159.381424782173
 20
335.6659759203494
 30
0.0
 10
159.6893887838889
 20
336.295150340991
 30
0.0
 10
159.8841627690146
 20
336.9109361476185
 30
0.0
 10
159.9262185585389
 20
337.2777273745836
 30
0.0
 10
159.9440763367033
 20
337.4462453273707
 30
0.0
  0
ARC
  5
B6
330
99
100
AcDbEntity
  8
$DDT_AUDIT_GENERATED_(AE)
  6
Continuous
 62
     7
100
AcDbCircle
 10
1636.509197469
 20
478.5065641668
 30
0.0
 40
1507.292327511534
100
AcDbArc
 50
182.9301138412
 51
185.3698539886
  0
ARC
  5
B7
330
99
100
AcDbEntity
  8
$DDT_AUDIT_GENERATED_(AE)
  6
Continuous
 62
     7
100
AcDbCircle
 10
147.8818276518
 20
348.3569696633
 30
0.0
 40
17.59991266600298
100
AcDbArc
 50
242.3899153256
 51
297.6162668466
  0
SPLINE
  5
B8
330
99
100
AcDbEntity
  8
$DDT_AUDIT_GENERATED_(AE)
  6
Continuous
 62
     7
100
AcDbSpline
210
0.0
220
0.0
230
1.0
 70
     8
 71
     3
 72
    15
 73
    11
 74
     0
 42
0.0000000015712474
 43
0.0000000001
 40
0.0
 40
0.0
 40
0.0
 40
0.0
 40
0.0904620499244226
 40
0.1952431247171514
 40
0.306916844746437
 40
0.4096787107462328
 40
0.5394030704170902
 40
0.6798731121653622
 40
0.8387933540781868
 40
1.0
 40
1.0
 40
1.0
 40
1.0
 10
135.8261580114303
 20
337.4452299192059
 30
0.0
 10
135.8513649219493
 20
337.2377649425927
 30
0.0
 10
135.9014007031134
 20
336.8587620049752
 30
0.0
 10
136.1115657232883
 20
336.227493058611
 30
0.0
 10
136.4209476938946
 20
335.6283084504966
 30
0.0
 10
136.8436708395914
 20
335.0311944471538
 30
0.0
 10
137.3669412977241
 20
334.4355586254484
 30
0.0
 10
138.0341066832915
 20
333.8217390574073
 30
0.0
 10
138.8349965072899
 20
333.226468902892
 30
0.0
 10
139.3877719897366
 20
332.9259116820066
 30
0.0
 10
139.7189752406728
 20
332.7493928996028
 30
0.0
  0
ARC
  5
BA
330
99
100
AcDbEntity
  8
$DDT_AUDIT_GENERATED_(B9)
  6
Continuous
 62
     7
100
AcDbCircle
 10
147.8877668616
 20
429.8672891528
 30
0.0
 40
75.00000000000001
100
AcDbArc
 50
280.5239135147
 51
0.0
  0
ARC
  5
BB
330
99
100
AcDbEntity
  8
$DDT_AUDIT_GENERATED_(B9)
  6
Continuous
 62
     7
100
AcDbCircle
 10
147.8877668616
 20
429.8672891528
 30
0.0
 40
75.00000000000001
100
AcDbArc
 50
0.0
 51
259.4852922456
  0
ARC
  5
BC
330
99
100
AcDbEntity
  8
$DDT_AUDIT_GENERATED_(B9)
  6
Continuous
 62
     7
100
AcDbCircle
 10
147.8877668616
 20
429.8672891528
 30
0.0
 40
85.0
100
AcDbArc
 50
278.6768939883
 51
0.0
  0
ARC
  5
BD
330
99
100
AcDbEntity
  8
$DDT_AUDIT_GENERATED_(B9)
  6
Continuous
 62
     7
100
AcDbCircle
 10
147.8877668616
 20
429.8672891528
 30
0.0
 40
85.0
100
AcDbArc
 50
0.0
 51
261.3242546136
  0
ENDBLK
  5
BF
330
99
100
AcDbEntity
  8
0
100
AcDbBlockEnd
  0
BLOCK
  5
11F
330
C0
100
AcDbEntity
  8
0
100
AcDbBlockBegin
  2
SE1
 70
     0
 10
0.0
 20
0.0
 30
0.0
  3
SE1
  1

  0
LINE
  5
C3
330
C0
100
AcDbEntity
  8
$DDT_AUDIT_GENERATED_(C2)
  6
Continuous
 62
     7
100
AcDbLine
 10
357.0379537709
 20
455.2904537472
 30
0.0
 11
357.0379537709
 21
404.4441245585
 31
0.0
  0
ARC
  5
C4
330
C0
100
AcDbEntity
  8
$DDT_AUDIT_GENERATED_(C2)
  6
Continuous
 62
     7
100
AcDbCircle
 10
348.9379537709
 20
429.8672891528
 30
0.0
 40
26.3
100
AcDbArc
 50
38.3502342647
 51
72.0621734783
  0
ARC
  5
C5
330
C0
100
AcDbEntity
  8
$DDT_AUDIT_GENERATED_(C2)
  6
Continuous
 62
     7
100
AcDbCircle
 10
348.9379537709
 20
429.8672891528
 30
0.0
 40
26.3
100
AcDbArc
 50
287.9378265217
 51
292.6371846547
  0
LINE
  5
C6
330
C0
100
AcDbEntity
  8
$DDT_AUDIT_GENERATED_(C2)
  6
Continuous
 62
     7
100
AcDbLine
 10
337.7351944918
 20
403.7800247448
 30
0.0
 11
356.5423168148
 21
403.944143595
 31
0.0
  0
LINE
  5
C7
330
C0
100
AcDbEntity
  8
$DDT_AUDIT_GENERATED_(C2)
  6
Continuous
 62
     7
100
AcDbLine
 10
356.5423168148
 20
455.7904347106
 30
0.0
 11
337.7351944918
 21
455.9545535609
 31
0.0
  0
ARC
  5
C8
330
C0
100
AcDbEntity
  8
$DDT_AUDIT_GENERATED_(C2)
  6
Continuous
 62
     7
100
AcDbCircle
 10
356.5379537709
 20
455.2904537472
 30
0.0
 40
0.5000000000000004
100
AcDbArc
 50
0.0
 51
89.500025649
  0
ARC
  5
C9
330
C0
100
AcDbEntity
  8
$DDT_AUDIT_GENERATED_(C2)
  6
Continuous
 62
     7
100
AcDbCircle
 10
356.5379537709
 20
404.4441245585
 30
0.0
 40
0.4999999999999991
100
AcDbArc
 50
270.499974351
 51
0.0
  0
LINE
  5
CB
330
C0
100
AcDbEntity
  8
$DDT_AUDIT_GENERATED_(CA)
  6
Continuous
 62
     7
100
AcDbLine
 10
339.9351944918
 20
490.5672891528
 30
0.0
 11
339.9351944918
 21
479.1672891528
 31
0.0
  0
LINE
  5
CC
330
C0
100
AcDbEntity
  8
$DDT_AUDIT_GENERATED_(CA)
  6
Continuous
 62
     7
100
AcDbLine
 10
335.9756174629
 20
478.8672891528
 30
0.0
 11
339.6351944918
 21
478.8672891528
 31
0.0
  0
LINE
  5
CD
330
C0
100
AcDbEntity
  8
$DDT_AUDIT_GENERATED_(CA)
  6
Continuous
 62
     7
100
AcDbLine
 10
339.6351944918
 20
490.8672891528
 30
0.0
 11
334.6915092202
 21
490.8672891528
 31
0.0
  0
LINE
  5
CE
330
C0
100
AcDbEntity
  8
$DDT_AUDIT_GENERATED_(CA)
  6
Continuous
 62
     7
100
AcDbLine
 10
334.3739808225
 20
490.8672891528
 30
0.0
 11
334.2811621626
 21
490.8672891528
 31
0.0
  0
ARC
  5
CF
330
C0
100
AcDbEntity
  8
$DDT_AUDIT_GENERATED_(CA)
  6
Continuous
 62
     7
100
AcDbCircle
 10
339.6351944918
 20
479.1672891528
 30
0.0
 40
0.3000000000000017
100
AcDbArc
 50
270.0
 51
0.0
  0
ARC
  5
D0
330
C0
100
AcDbEntity
  8
$DDT_AUDIT_GENERATED_(CA)
  6
Continuous
 62
     7
100
AcDbCircle
 10
339.6351944918
 20
490.5672891528
 30
0.0
 40
0.3000000000000017
100
AcDbArc
 50
0.0
 51
90.0
  0
ARC
  5
D1
330
C0
100
AcDbEntity
  8
$DDT_AUDIT_GENERATED_(9B)
  6
Continuous
 62
     7
100
AcDbCircle
 10
311.3824874683
 20
484.8672891528
 30
0.0
 40
49.99999999999999
100
AcDbArc
 50
354.1432980901
 51
5.8567019099
  0
LINE
  5
D2
330
C0
100
AcDbEntity
  8
$DDT_AUDIT_GENERATED_(9B)
  6
Continuous
 62
     7
100
AcDbLine
 10
357.3507333048
 20
478.8672891528
 30
0.0
 11
360.1267178961
 21
478.8672891528
 31
0.0
  0
LINE
  5
D3
330
C0
100
AcDbEntity
  8
$DDT_AUDIT_GENERATED_(9B)
  6
Continuous
 62
     7
100
AcDbLine
 10
360.1267178961
 20
490.8672891528
 30
0.0
 11
357.3507333048
 21
490.8672891528
 31
0.0
  0
ARC
  5
D4
330
C0
100
AcDbEntity
  8
$DDT_AUDIT_GENERATED_(9B)
  6
Continuous
 62
     7
100
AcDbCircle
 10
357.3507333048
 20
479.8672891528
 30
0.0
 40
1.000000000000003
100
AcDbArc
 50
194.4775121859
 51
270.0
  0
ARC
  5
D5
330
C0
100
AcDbEntity
  8
$DDT_AUDIT_GENERATED_(9B)
  6
Continuous
 62
     7
100
AcDbCircle
 10
357.3507333048
 20
489.8672891528
 30
0.0
 40
1.000000000000001
100
AcDbArc
 50
90.0
 51
165.5224878141
  0
ARC
  5
D6
330
C0
100
AcDbEntity
  8
$DDT_AUDIT_GENERATED_(9B)
  6
Continuous
 62
     7
100
AcDbCircle
 10
355.4142416317
 20
479.3672891528
 30
0.0
 40
1.000000000000001
100
AcDbArc
 50
14.4775121859
 51
90.0
  0
ARC
  5
D7
330
C0
100
AcDbEntity
  8
$DDT_AUDIT_GENERATED_(9B)
  6
Continuous
 62
     7
100
AcDbCircle
 10
355.4142416317
 20
490.3672891528
 30
0.0
 40
1.000000000000008
100
AcDbArc
 50
270.0
 51
345.5224878141
  0
LINE
  5
D8
330
C0
100
AcDbEntity
  8
$DDT_AUDIT_GENERATED_(9B)
  6
Continuous
 62
     7
100
AcDbLine
 10
339.9351944918
 20
480.3672891528
 30
0.0
 11
355.4142416317
 21
480.3672891528
 31
0.0
  0
LINE
  5
D9
330
C0
100
AcDbEntity
  8
$DDT_AUDIT_GENERATED_(9B)
  6
Continuous
 62
     7
100
AcDbLine
 10
355.4142416317
 20
489.3672891528
 30
0.0
 11
339.9351944918
 21
489.3672891528
 31
0.0
  0
ARC
  5
DA
330
C0
100
AcDbEntity
  8
$DDT_AUDIT_GENERATED_(9B)
  6
Continuous
 62
     7
100
AcDbCircle
 10
360.1267178961
 20
479.8672891528
 30
0.0
 40
0.999999999999994
100
AcDbArc
 50
270.0
 51
354.1432980901
  0
ARC
  5
DB
330
C0
100
AcDbEntity
  8
$DDT_AUDIT_GENERATED_(9B)
  6
Continuous
 62
     7
100
AcDbCircle
 10
360.1267178961
 20
489.8672891528
 30
0.0
 40
0.9999999999999938
100
AcDbArc
 50
5.8567019099
 51
90.0
  0
LINE
  5
DC
330
C0
100
AcDbEntity
  8
$DDT_AUDIT_GENERATED_(9D)
  6
Continuous
 62
     7
100
AcDbLine
 10
337.7351944918
 20
402.0124456195
 30
0.0
 11
337.7351944918
 21
457.7221326861
 31
0.0
  0
LINE
  5
DD
330
C0
100
AcDbEntity
  8
$DDT_AUDIT_GENERATED_(9D)
  6
Continuous
 62
     7
100
AcDbLine
 10
335.9351944918
 20
399.8672891528
 30
0.0
 11
335.9351944918
 21
459.8672891528
 31
0.0
  0
LINE
  5
DE
330
C0
100
AcDbEntity
  8
$DDT_AUDIT_GENERATED_(9D)
  6
Continuous
 62
     7
100
AcDbLine
 10
335.6351944918
 20
399.8672891528
 30
0.0
 11
335.6351944918
 21
459.8672891528
 31
0.0
  0
LINE
  5
DF
330
C0
100
AcDbEntity
  8
$DDT_AUDIT_GENERATED_(9D)
  6
Continuous
 62
     7
100
AcDbLine
 10
335.9351944918
 20
399.8672891528
 30
0.0
 11
337.7351944918
 21
402.0124456195
 31
0.0
  0
LINE
  5
E0
330
C0
100
AcDbEntity
  8
$DDT_AUDIT_GENERATED_(9D)
  6
Continuous
 62
     7
100
AcDbLine
 10
337.7351944918
 20
457.7221326861
 30
0.0
 11
335.9351944918
 21
459.8672891528
 31
0.0
  0
LINE
  5
E1
330
C0
100
AcDbEntity
  8
$DDT_AUDIT_GENERATED_(9D)
  6
Continuous
 62
     7
100
AcDbLine
 10
335.9351944918
 20
459.8672891528
 30
0.0
 11
335.6351944918
 21
459.8672891528
 31
0.0
  0
LINE
  5
E2
330
C0
100
AcDbEntity
  8
$DDT_AUDIT_GENERATED_(9D)
  6
Continuous
 62
     7
100
AcDbLine
 10
335.6351944918
 20
399.8672891528
 30
0.0
 11
335.9351944918
 21
399.8672891528
 31
0.0
  0
LINE
  5
E3
330
C0
100
AcDbEntity
  8
$DDT_AUDIT_GENERATED_(9D)
  6
Continuous
 62
     7
100
AcDbLine
 10
335.6351944918
 20
457.1172891528
 30
0.0
 11
335.5458877659
 21
457.1172891528
 31
0.0
  0
LINE
  5
E4
330
C0
100
AcDbEntity
  8
$DDT_AUDIT_GENERATED_(9D)
  6
Continuous
 62
     7
100
AcDbLine
 10
335.5458877659
 20
402.6172891528
 30
0.0
 11
335.6351944918
 21
402.6172891528
 31
0.0
  0
LINE
  5
E6
330
C0
100
AcDbEntity
  8
$DDT_AUDIT_GENERATED_(E5)
  6
Continuous
 62
     7
100
AcDbLine
 10
319.9351944918
 20
352.4620882522
 30
0.0
 11
319.9351944918
 21
509.5672891528
 31
0.0
  0
LINE
  5
E7
330
C0
100
AcDbEntity
  8
$DDT_AUDIT_GENERATED_(E5)
  6
Continuous
 62
     7
100
AcDbLine
 10
319.9351944918
 20
352.4620882522
 30
0.0
 11
323.4351944918
 21
349.6098001173
 31
0.0
  0
LINE
  5
E8
330
C0
100
AcDbEntity
  8
$DDT_AUDIT_GENERATED_(E5)
  6
Continuous
 62
     7
100
AcDbLine
 10
323.4351944918
 20
512.5041378619
 30
0.0
 11
319.9351944918
 21
509.5672891528
 31
0.0
  0
SPLINE
  5
E9
330
C0
100
AcDbEntity
  8
$DDT_AUDIT_GENERATED_(A2)
  6
Continuous
 62
     7
100
AcDbSpline
210
0.0
220
0.0
230
1.0
 70
     8
 71
     3
 72
    36
 73
    32
 74
     0
 42
0.0000000005442481
 43
0.0000000001
 40
0.0
 40
0.0
 40
0.0
 40
0.0
 40
0.0194037586078364
 40
0.0194037586078364
 40
0.0434316242436858
 40
0.0434316242436858
 40
0.0674594898795352
 40
0.0674594898795352
 40
0.115515221151234
 40
0.115515221151234
 40
0.1395430867870834
 40
0.1395430867870834
 40
0.1635709524229328
 40
0.1635709524229328
 40
0.2116266836946315
 40
0.2116266836946315
 40
0.2356545493304809
 40
0.2356545493304809
 40
0.2596824149663303
 40
0.2596824149663303
 40
0.3077381462380291
 40
0.3077381462380291
 40
0.3557938775097279
 40
0.3557938775097279
 40
0.3798217431455773
 40
0.3798217431455773
 40
0.4038496087814266
 40
0.4038496087814266
 40
0.4519053400531254
 40
0.4519053400531254
 40
0.4999610713248241
 40
0.4999610713248241
 40
0.4999610713248241
 40
0.4999610713248241
 10
335.6987983792309
 20
482.6492993089405
 30
0.0
 10
335.6808017995889
 20
482.7966018959095
 30
0.0
 10
335.6625015686026
 20
482.946361738095
 30
0.0
 10
335.6208697039966
 20
483.2869888101675
 30
0.0
 10
335.597378454366
 20
483.4791462903271
 30
0.0
 10
335.549468487695
 20
483.8709505281456
 30
0.0
 10
335.5249404278732
 20
484.0714910060031
 30
0.0
 10
335.4506925668243
 20
484.6783864738546
 30
0.0
 10
335.4009385738007
 20
485.0848720149688
 30
0.0
 10
335.3259558391825
 20
485.6971805475978
 30
0.0
 10
335.300902529119
 20
485.9017170262024
 30
0.0
 10
335.2506785420247
 20
486.3116515076948
 30
0.0
 10
335.2255498649328
 20
486.5167060753496
 30
0.0
 10
335.1516251433217
 20
487.1198092237948
 30
0.0
 10
335.1037314741917
 20
487.5103600149779
 30
0.0
 10
335.0339974564223
 20
488.0787799108697
 30
0.0
 10
335.010988609497
 20
488.266291081535
 30
0.0
 10
334.9663404527615
 20
488.6300818736652
 30
0.0
 10
334.9447503853193
 20
488.8059608027161
 30
0.0
 10
334.8821299901555
 20
489.315994938072
 30
0.0
 10
334.843228626409
 20
489.6327175464343
 30
0.0
 10
334.7713306039217
 20
490.2179226955917
 30
0.0
 10
334.7392037670605
 20
490.4793255650357
 30
0.0
 10
334.6972577667825
 20
490.8205534942202
 30
0.0
 10
334.6842814239769
 20
490.9261017620369
 30
0.0
 10
334.6603795482272
 20
491.1204992747515
 30
0.0
 10
334.6494114033096
 20
491.2096949712421
 30
0.0
 10
334.6202796730204
 20
491.4465842491243
 30
0.0
 10
334.6056617067892
 20
491.5654283922497
 30
0.0
 10
334.5858942184815
 20
491.7261313602939
 30
0.0
 10
334.5808309250068
 20
491.767289150387
 30
0.0
 10
334.580830924954
 20
491.7672891507452
 30
0.0
  0
ARC
  5
EA
330
C0
100
AcDbEntity
  8
$DDT_AUDIT_GENERATED_(A2)
  6
Continuous
 62
     7
100
AcDbCircle
 10
976.5103779032
 20
528.1720712476
 30
0.0
 40
642.4264963535035
100
AcDbArc
 50
184.0634227397
 51
184.4016499538
  0
ARC
  5
EB
330
C0
100
AcDbEntity
  8
$DDT_AUDIT_GENERATED_(A2)
  6
Continuous
 62
     7
100
AcDbCircle
 10
-8937.3698135192
 20
-648.5995887945
 30
0.0
 40
9341.499810254936
100
AcDbArc
 50
6.9304950346
 51
7.0152910583
  0
ARC
  5
EC
330
C0
100
AcDbEntity
  8
$DDT_AUDIT_GENERATED_(A2)
  6
Continuous
 62
     7
100
AcDbCircle
 10
-3897.9195774844
 20
11.0350034876
 30
0.0
 40
4257.688828724024
100
AcDbArc
 50
6.2639578391
 51
6.5250331542
  0
SPLINE
  5
ED
330
C0
100
AcDbEntity
  8
$DDT_AUDIT_GENERATED_(A2)
  6
Continuous
 62
     7
100
AcDbSpline
210
0.0
220
0.0
230
1.0
 70
     8
 71
     3
 72
    50
 73
    46
 74
     0
 42
0.0000000002594044
 43
0.0000000001
 40
0.0
 40
0.0
 40
0.0
 40
0.0
 40
0.03125
 40
0.03125
 40
0.0625
 40
0.0625
 40
0.078125
 40
0.078125
 40
0.09375
 40
0.09375
 40
0.125
 40
0.125
 40
0.15625
 40
0.15625
 40
0.171875
 40
0.171875
 40
0.1875
 40
0.1875
 40
0.21875
 40
0.21875
 40
0.234375
 40
0.234375
 40
0.25
 40
0.25
 40
0.28125
 40
0.28125
 40
0.3125
 40
0.3125
 40
0.328125
 40
0.328125
 40
0.34375
 40
0.34375
 40
0.375
 40
0.375
 40
0.40625
 40
0.40625
 40
0.421875
 40
0.421875
 40
0.4375
 40
0.4375
 40
0.46875
 40
0.46875
 40
0.484375
 40
0.484375
 40
0.4998321353555575
 40
0.4998321353555575
 40
0.4998321353555575
 40
0.4998321353555575
 10
332.6273553800767
 20
494.8672891507452
 30
0.0
 10
332.6273586151397
 20
494.867283078192
 30
0.0
 10
332.6351108514686
 20
494.8042470010406
 30
0.0
 10
332.6654764753379
 20
494.5573893021803
 30
0.0
 10
332.6878719475712
 20
494.3753189669957
 30
0.0
 10
332.7325373838063
 20
494.0121410413962
 30
0.0
 10
332.7493195053049
 20
493.8756765967489
 30
0.0
 10
332.7859601014954
 20
493.5777065121021
 30
0.0
 10
332.8058125746492
 20
493.4162497399894
 30
0.0
 10
332.8699844196518
 20
492.8942992828361
 30
0.0
 10
332.9191591444155
 20
492.4942659273108
 30
0.0
 10
333.0288818317592
 20
491.601439165549
 30
0.0
 10
333.0883526975059
 20
491.1174096272115
 30
0.0
 10
333.1837293114647
 20
490.34090820936
 30
0.0
 10
333.2166425455511
 20
490.0729105919885
 30
0.0
 10
333.2847040349398
 20
489.5186278865417
 30
0.0
 10
333.3197194358665
 20
489.2334241219718
 30
0.0
 10
333.425893225625
 20
488.3684841845596
 30
0.0
 10
333.4987508318107
 20
487.7747648931671
 30
0.0
 10
333.6112199876251
 20
486.8579138624238
 30
0.0
 10
333.649409688152
 20
486.5465354128912
 30
0.0
 10
333.7258530821313
 20
485.9231401262837
 30
0.0
 10
333.7639693963143
 20
485.6122442088484
 30
0.0
 10
333.8779141072402
 20
484.6826803439203
 30
0.0
 10
333.9536978913908
 20
484.0642020926614
 30
0.0
 10
334.1043659278942
 20
482.8341151133354
 30
0.0
 10
334.1777451737677
 20
482.2347916421036
 30
0.0
 10
334.2830422763956
 20
481.3744690189702
 30
0.0
 10
334.3174638757158
 20
481.0931762815198
 30
0.0
 10
334.3849713214799
 20
480.5414074509825
 30
0.0
 10
334.4181125392569
 20
480.2704783553184
 30
0.0
 10
334.5141961042236
 20
479.4848601348258
 30
0.0
 10
334.5738397429548
 20
478.9970030903119
 30
0.0
 10
334.6827977732736
 20
478.1055204226515
 30
0.0
 10
334.731311726811
 20
477.7084459117018
 30
0.0
 10
334.794961655505
 20
477.1873732526306
 30
0.0
 10
334.8147123454937
 20
477.0256615583941
 30
0.0
 10
334.8511364726772
 20
476.7274033076351
 30
0.0
 10
334.8677132700264
 20
476.5916481166127
 30
0.0
 10
334.9117630104823
 20
476.2308751901369
 30
0.0
 10
334.9339504112996
 20
476.0491167760715
 30
0.0
 10
334.9564466994974
 20
475.8648187482081
 30
0.0
 10
334.9621420330184
 20
475.8181577279724
 30
0.0
 10
334.9696127767228
 20
475.7569502663358
 30
0.0
 10
334.9714410178595
 20
475.7419710524144
 30
0.0
 10
334.9714389984337
 20
475.7419875944029
 30
0.0
  0
SPLINE
  5
EE
330
C0
100
AcDbEntity
  8
$DDT_AUDIT_GENERATED_(A2)
  6
Continuous
 62
     7
100
AcDbSpline
210
0.0
220
0.0
230
1.0
 70
     8
 71
     3
 72
    50
 73
    46
 74
     0
 42
0.0000000003616754
 43
0.0000000001
 40
0.0
 40
0.0
 40
0.0
 40
0.0
 40
0.03125
 40
0.03125
 40
0.0625
 40
0.0625
 40
0.078125
 40
0.078125
 40
0.09375
 40
0.09375
 40
0.125
 40
0.125
 40
0.15625
 40
0.15625
 40
0.171875
 40
0.171875
 40
0.1875
 40
0.1875
 40
0.21875
 40
0.21875
 40
0.234375
 40
0.234375
 40
0.25
 40
0.25
 40
0.28125
 40
0.28125
 40
0.3125
 40
0.3125
 40
0.328125
 40
0.328125
 40
0.34375
 40
0.34375
 40
0.375
 40
0.375
 40
0.40625
 40
0.40625
 40
0.421875
 40
0.421875
 40
0.4375
 40
0.4375
 40
0.46875
 40
0.46875
 40
0.484375
 40
0.484375
 40
0.4999097010380733
 40
0.4999097010380733
 40
0.4999097010380733
 40
0.4999097010380733
 10
334.207585056089
 20
492.3172891507452
 30
0.0
 10
334.2075842405597
 20
492.3172809770952
 30
0.0
 10
334.2131449204268
 20
492.2720945193149
 30
0.0
 10
334.2347707079229
 20
492.0962874242066
 30
0.0
 10
334.2508025373862
 20
491.9659521940807
 30
0.0
 10
334.2826918893138
 20
491.7066575441891
 30
0.0
 10
334.2947186240003
 20
491.6088617389307
 30
0.0
 10
334.3208627699108
 20
491.3962512968584
 30
0.0
 10
334.3350787217425
 20
491.2806354631835
 30
0.0
 10
334.3810057608792
 20
490.907081624841
 30
0.0
 10
334.4161297172565
 20
490.6213507238981
 30
0.0
 10
334.4948688288068
 20
489.9806410624494
 30
0.0
 10
334.5373508369181
 20
489.6348830563783
 30
0.0
 10
334.6059200033937
 20
489.0766324257771
 30
0.0
 10
334.629528246579
 20
488.8844011225463
 30
0.0
 10
334.6783307054799
 20
488.4869611142807
 30
0.0
 10
334.7035131144254
 20
488.2818480973696
 30
0.0
 10
334.7797732913053
 20
487.6605980436946
 30
0.0
 10
334.8321603948468
 20
487.233693750093
 30
0.0
 10
334.9129979869266
 20
486.5747039233348
 30
0.0
 10
334.9405034736313
 20
486.3504388358891
 30
0.0
 10
334.9953968692236
 20
485.9027836193894
 30
0.0
 10
335.0227922280815
 20
485.6793333853106
 30
0.0
 10
335.1048971962165
 20
485.0095189559747
 30
0.0
 10
335.1592673624019
 20
484.5657988570173
 30
0.0
 10
335.2676296694487
 20
483.6811051555874
 30
0.0
 10
335.3203080287655
 20
483.2508556739036
 30
0.0
 10
335.3960081981213
 20
482.6323527264137
 30
0.0
 10
335.4207382179727
 20
482.4302592855529
 30
0.0
 10
335.4691454927463
 20
482.0346047749849
 30
0.0
 10
335.4929906897767
 20
481.8396704832346
 30
0.0
 10
335.5618396431042
 20
481.2767334988085
 30
0.0
 10
335.6045838177433
 20
480.9271062660451
 30
0.0
 10
335.6827950165168
 20
480.2871908040399
 30
0.0
 10
335.7173854109315
 20
480.0040767901962
 30
0.0
 10
335.7630118545994
 20
479.6305541031854
 30
0.0
 10
335.7771226695935
 20
479.5150195992065
 30
0.0
 10
335.8031274428159
 20
479.3020800233459
 30
0.0
 10
335.8149937180245
 20
479.2049014638431
 30
0.0
 10
335.8464607807981
 20
478.9471822525902
 30
0.0
 10
335.8623112396274
 20
478.8173357364076
 30
0.0
 10
335.8783642257515
 20
478.6858236544888
 30
0.0
 10
335.8824359145841
 20
478.6524648890969
 30
0.0
 10
335.8877727720304
 20
478.6087402598502
 30
0.0
 10
335.8890815376093
 20
478.5980172221321
 30
0.0
 10
335.8890669008757
 20
478.5981371416916
 30
0.0
  0
LINE
  5
EF
330
C0
100
AcDbEntity
  8
$DDT_AUDIT_GENERATED_(A2)
  6
Continuous
 62
     7
100
AcDbLine
 10
335.8726144107
 20
478.5905716029
 30
0.0
 11
335.9806122636
 21
478.8723005737
 31
0.0
  0
LINE
  5
F0
330
C0
100
AcDbEntity
  8
$DDT_AUDIT_GENERATED_(A2)
  6
Continuous
 62
     7
100
AcDbLine
 10
334.580830925
 20
491.7672891507
 30
0.0
 11
334.1902776233
 21
492.32505707
 31
0.0
  0
LINE
  5
F1
330
C0
100
AcDbEntity
  8
$DDT_AUDIT_GENERATED_(A2)
  6
Continuous
 62
     7
100
AcDbLine
 10
334.3462098538
 20
475.5863884237
 30
0.0
 11
334.9714390001
 21
475.7419875807
 31
0.0
  0
LINE
  5
F2
330
C0
100
AcDbEntity
  8
$DDT_AUDIT_GENERATED_(A2)
  6
Continuous
 62
     7
100
AcDbLine
 10
332.6273553797
 20
494.8672891512
 30
0.0
 11
332.1892243699
 21
494.8672891511
 31
0.0
  0
LINE
  5
F3
330
C0
100
AcDbEntity
  8
$DDT_AUDIT_GENERATED_(A2)
  6
Continuous
 62
     7
100
AcDbLine
 10
334.9714389999
 20
475.7419875825
 30
0.0
 11
335.8890670213
 21
478.5981361548
 31
0.0
  0
LINE
  5
F4
330
C0
100
AcDbEntity
  8
$DDT_AUDIT_GENERATED_(A2)
  6
Continuous
 62
     7
100
AcDbLine
 10
334.2075850568
 20
492.3172891516
 30
0.0
 11
332.62735538
 21
494.8672891509
 31
0.0
  0
LINE
  5
F6
330
C0
100
AcDbEntity
  8
$DDT_AUDIT_GENERATED_(F5)
  6
Continuous
 62
     7
100
AcDbLine
 10
374.865068293
 20
402.8360557582
 30
0.0
 11
374.1776874851
 21
402.9696690521
 31
0.0
  0
LINE
  5
F7
330
C0
100
AcDbEntity
  8
$DDT_AUDIT_GENERATED_(F5)
  6
Continuous
 62
     7
100
AcDbLine
 10
374.865068293
 20
402.8360557582
 30
0.0
 11
374.8783260824
 21
402.8672891528
 31
0.0
  0
ARC
  5
F8
330
C0
100
AcDbEntity
  8
$DDT_AUDIT_GENERATED_(AE)
  6
Continuous
 62
     7
100
AcDbCircle
 10
371.239018346
 20
371.3253054875
 30
0.0
 40
31.73897251322084
100
AcDbArc
 50
83.8395121337
 51
96.3868495223
  0
LINE
  5
F9
330
C0
100
AcDbEntity
  8
$DDT_AUDIT_GENERATED_(AE)
  6
Continuous
 62
     7
100
AcDbLine
 10
375.9442147225
 20
456.397208417
 30
0.0
 11
360.00681263
 21
430.8920335452
 31
0.0
  0
SPLINE
  5
FA
330
C0
100
AcDbEntity
  8
$DDT_AUDIT_GENERATED_(AE)
  6
Continuous
 62
     7
100
AcDbSpline
210
0.0
220
0.0
230
1.0
 70
     8
 71
     3
 72
    18
 73
    14
 74
     0
 42
0.000000000080039
 43
0.0000000001
 40
0.0
 40
0.0
 40
0.0
 40
0.0
 40
0.0883534736048674
 40
0.1837475689249556
 40
0.2789149046614034
 40
0.3739306046754028
 40
0.4688377171510522
 40
0.563607304571825
 40
0.6527828147353402
 40
0.7417118264912377
 40
0.830390888174726
 40
0.9189273642787175
 40
1.0
 40
1.0
 40
1.0
 40
1.0
 10
388.4663243774411
 20
331.7460561050952
 30
0.0
 10
389.2947066364376
 20
335.7071635491807
 30
0.0
 10
390.7313014163203
 20
342.6587587482707
 30
0.0
 10
392.8535341811459
 20
354.3182097277896
 30
0.0
 10
394.5868440608372
 20
366.02004520038
 30
0.0
 10
395.7997449420332
 20
377.8504288247877
 30
0.0
 10
396.472632981939
 20
389.684291967399
 30
0.0
 10
396.6447931970351
 20
401.2997097348488
 30
0.0
 10
396.3752413002294
 20
412.6563632562279
 30
0.0
 10
395.7132607708878
 20
423.7637309259509
 30
0.0
 10
394.7023385162782
 20
434.7400145056098
 30
0.0
 10
393.4264432594455
 20
445.6406663089236
 30
0.0
 10
392.5413218314469
 20
452.133813373574
 30
0.0
 10
392.0333214179163
 20
455.8122208792234
 30
0.0
  0
ARC
  5
FB
330
C0
100
AcDbEntity
  8
$DDT_AUDIT_GENERATED_(AE)
  6
Continuous
 62
     7
100
AcDbCircle
 10
134.184499392
 20
392.2575505554
 30
0.0
 40
252.8341848403488
100
AcDbArc
 50
347.7476911476
 51
0.1377762362
  0
LINE
  5
FC
330
C0
100
AcDbEntity
  8
$DDT_AUDIT_GENERATED_(AE)
  6
Continuous
 62
     7
100
AcDbLine
 10
381.6662975982
 20
336.9009262968
 30
0.0
 11
386.3343168272
 21
331.2232644642
 31
0.0
  0
ARC
  5
FD
330
C0
100
AcDbEntity
  8
$DDT_AUDIT_GENERATED_(AE)
  6
Continuous
 62
     7
100
AcDbCircle
 10
377.0282946281
 20
392.8672900668
 30
0.0
 40
9.999999503653422
100
AcDbArc
 50
359.9844185265
 51
89.9999957852
  0
ARC
  5
FE
330
C0
100
AcDbEntity
  8
$DDT_AUDIT_GENERATED_(AE)
  6
Continuous
 62
     7
100
AcDbCircle
 10
383.2180365721
 20
338.1612428326
 30
0.0
 40
2.002789996740499
100
AcDbArc
 50
168.8349740253
 51
219.3797073375
  0
ARC
  5
FF
330
C0
100
AcDbEntity
  8
$DDT_AUDIT_GENERATED_(AE)
  6
Continuous
 62
     7
100
AcDbCircle
 10
390.8754851408
 20
455.6922854951
 30
0.0
 40
1.163104449001836
100
AcDbArc
 50
5.9009045767
 51
91.3860070889
  0
SPLINE
  5
100
330
C0
100
AcDbEntity
  8
$DDT_AUDIT_GENERATED_(AE)
  6
Continuous
 62
     7
100
AcDbSpline
210
0.0
220
0.0
230
1.0
 70
     8
 71
     3
 72
    17
 73
    13
 74
     0
 42
0.0000000035601241
 43
0.0000000001
 40
0.0
 40
0.0
 40
0.0
 40
0.0
 40
0.0587945023370388
 40
0.1749690295257507
 40
0.294746774502773
 40
0.4268069659650793
 40
0.5616791335806685
 40
0.685887024382782
 40
0.7916011052940316
 40
0.8836963349933121
 40
0.963039307275823
 40
1.0
 40
1.0
 40
1.0
 40
1.0
 10
386.3444172639317
 20
331.2324834919362
 30
0.0
 10
386.3778344221623
 20
331.1828528919567
 30
0.0
 10
386.4643344698874
 20
331.0572672809818
 30
0.0
 10
386.6974791792367
 20
330.8922077893511
 30
0.0
 10
387.013659095934
 20
330.7648279757241
 30
0.0
 10
387.3771692397981
 20
330.7344831146222
 30
0.0
 10
387.7353745199031
 20
330.8169428276494
 30
0.0
 10
388.031057712741
 20
330.9888972579383
 30
0.0
 10
388.2426488067182
 20
331.2039105116946
 30
0.0
 10
388.3754236457547
 20
331.4228737739891
 30
0.0
 10
388.4465856852647
 20
331.6091205836432
 30
0.0
 10
388.4628266648309
 20
331.7087102290795
 30
0.0
 10
388.4686104246456
 20
331.745875927274
 30
0.0
  0
LINE
  5
101
330
C0
100
AcDbEntity
  8
$DDT_AUDIT_GENERATED_(AE)
  6
Continuous
 62
     7
100
AcDbLine
 10
374.8783260824
 20
402.8672891528
 30
0.0
 11
377.0284724205
 21
402.8672891528
 31
0.0
  0
LINE
  5
102
330
C0
100
AcDbEntity
  8
$DDT_AUDIT_GENERATED_(AE)
  6
Continuous
 62
     7
100
AcDbLine
 10
359.9261189278
 20
402.8672891528
 30
0.0
 11
367.7389338251
 21
402.8672891528
 31
0.0
  0
LINE
  5
103
330
C0
100
AcDbEntity
  8
$DDT_AUDIT_GENERATED_(AE)
  6
Continuous
 62
     7
100
AcDbLine
 10
390.8467619219
 20
456.8672891528
 30
0.0
 11
376.7922628186
 21
456.8672891528
 31
0.0
  0
ARC
  5
104
330
C0
100
AcDbEntity
  8
$DDT_AUDIT_GENERATED_(AE)
  6
Continuous
 62
     7
100
AcDbCircle
 10
359.9261189278
 20
403.8672891528
 30
0.0
 40
0.9999999999997597
100
AcDbArc
 50
219.1280654847
 51
270.0
  0
ARC
  5
105
330
C0
100
AcDbEntity
  8
$DDT_AUDIT_GENERATED_(AE)
  6
Continuous
 62
     7
100
AcDbCircle
 10
376.7922628186
 20
455.8672891528
 30
0.0
 40
0.999999999999997
100
AcDbArc
 50
91.3184781481
 51
148.0
  0
ARC
  5
106
330
C0
100
AcDbEntity
  8
$DDT_AUDIT_GENERATED_(AE)
  6
Continuous
 62
     7
100
AcDbCircle
 10
359.4606764957
 20
403.4886556329
 30
0.0
 40
0.4000000000000045
100
AcDbArc
 50
180.0
 51
219.1280654846
  0
LINE
  5
107
330
C0
100
AcDbEntity
  8
$DDT_AUDIT_GENERATED_(AE)
  6
Continuous
 62
     7
100
AcDbLine
 10
359.0606764958
 20
428.3079508848
 30
0.0
 11
359.0606764957
 21
403.4886556329
 31
0.0
  0
ARC
  5
108
330
C0
100
AcDbEntity
  8
$DDT_AUDIT_GENERATED_(AE)
  6
Continuous
 62
     7
100
AcDbCircle
 10
362.36618533
 20
428.3382805752
 30
0.0
 40
3.303029174700458
100
AcDbArc
 50
154.5403069539
 51
180.5239085768
  0
ARC
  5
109
330
C0
100
AcDbEntity
  8
$DDT_AUDIT_GENERATED_(AE)
  6
Continuous
 62
     7
100
AcDbCircle
 10
360.0859063416
 20
429.4789913213
 30
0.0
 40
0.75873033211842
100
AcDbArc
 50
151.0780484143
 51
158.2790960786
  0
ARC
  5
10A
330
C0
100
AcDbEntity
  8
$DDT_AUDIT_GENERATED_(AE)
  6
Continuous
 62
     7
100
AcDbCircle
 10
369.6672766921
 20
424.8335521343
 30
0.0
 40
11.39999529511978
100
AcDbArc
 50
148.3075566568
 51
153.9366884133
  0
LINE
  5
10B
330
C0
100
AcDbEntity
  8
$DDT_AUDIT_GENERATED_(B9)
  6
Continuous
 62
     7
100
AcDbLine
 10
330.7351944918
 20
346.4672891528
 30
0.0
 11
330.7351944918
 21
513.2672891528
 31
0.0
  0
LINE
  5
10C
330
C0
100
AcDbEntity
  8
$DDT_AUDIT_GENERATED_(B9)
  6
Continuous
 62
     7
100
AcDbLine
 10
323.4351944918
 20
344.9202468264
 30
0.0
 11
323.4351944918
 21
514.8672891528
 31
0.0
  0
SPLINE
  5
10D
330
C0
100
AcDbEntity
  8
$DDT_AUDIT_GENERATED_(B9)
  6
Continuous
 62
     7
100
AcDbSpline
210
0.0
220
0.0
230
1.0
 70
     8
 71
     3
 72
    18
 73
    14
 74
     0
 42
0.000000000209839
 43
0.0000000001
 40
0.0
 40
0.0
 40
0.0
 40
0.0
 40
0.0625
 40
0.0625
 40
0.125
 40
0.125
 40
0.1875
 40
0.1875
 40
0.25
 40
0.25
 40
0.3125
 40
0.3125
 40
0.3506269854305644
 40
0.3506269854305644
 40
0.3506269854305644
 40
0.3506269854305644
 10
334.0826159606974
 20
477.9656795767702
 30
0.0
 10
333.9838010903628
 20
478.866710916802
 30
0.0
 10
333.8666687223386
 20
479.9308418108545
 30
0.0
 10
333.6069588164135
 20
482.2782247758206
 30
0.0
 10
333.4657769411965
 20
483.5487420651052
 30
0.0
 10
333.1824577508096
 20
486.0876592317393
 30
0.0
 10
333.0386788530017
 20
487.3707942063107
 30
0.0
 10
332.7737102736663
 20
489.7282496706047
 30
0.0
 10
332.6497447330759
 20
490.8273767083388
 30
0.0
 10
332.4432891110987
 20
492.6544862485788
 30
0.0
 10
332.3589415222474
 20
493.3990272116334
 30
0.0
 10
332.2661783971459
 20
494.2172910130084
 30
0.0
 10
332.2408647742992
 20
494.4404182927712
 30
0.0
 10
332.2259859019003
 20
494.5715318834327
 30
0.0
  0
SPLINE
  5
10E
330
C0
100
AcDbEntity
  8
$DDT_AUDIT_GENERATED_(B9)
  6
Continuous
 62
     7
100
AcDbSpline
210
0.0
220
0.0
230
1.0
 70
     8
 71
     3
 72
     8
 73
     4
 74
     0
 42
0.0000000004392783
 43
0.0000000001
 40
0.8773216354794235
 40
0.8773216354794235
 40
0.8773216354794235
 40
0.8773216354794235
 40
1.0
 40
1.0
 40
1.0
 40
1.0
 10
334.3856904261805
 20
475.18944915422
 30
0.0
 10
334.3855492925605
 20
475.1908686733146
 30
0.0
 10
334.2765751076248
 20
476.1970867579399
 30
0.0
 10
334.0826159606974
 20
477.9656795767702
 30
0.0
  0
ARC
  5
10F
330
C0
100
AcDbEntity
  8
$DDT_AUDIT_GENERATED_(B9)
  6
Continuous
 62
     7
100
AcDbCircle
 10
323.4340650248
 20
259.8562636464
 30
0.0
 40
85.06398318757171
100
AcDbArc
 50
87.9781371789
 51
89.9992392351
  0
SPLINE
  5
110
330
C0
100
AcDbEntity
  8
$DDT_AUDIT_GENERATED_(B9)
  6
Continuous
 62
     7
100
AcDbSpline
210
0.0
220
0.0
230
1.0
 70
     8
 71
     3
 72
    12
 73
     8
 74
     0
 42
0.0000000002221721
 43
0.0000000001
 40
0.0068097613069684
 40
0.0068097613069684
 40
0.0068097613069684
 40
0.0068097613069684
 40
0.0624999999999998
 40
0.0624999999999998
 40
0.1249999999999997
 40
0.1249999999999997
 40
0.2023625378278514
 40
0.2023625378278514
 40
0.2023625378278514
 40
0.2023625378278514
 10
334.6235989640899
 20
435.809136754751
 30
0.0
 10
334.5764378309444
 20
436.5776267245412
 30
0.0
 10
334.537558345943
 20
437.4175157656862
 30
0.0
 10
334.475892770757
 20
439.2809450404905
 30
0.0
 10
334.4562911821088
 20
440.3044122050418
 30
0.0
 10
334.4449034648027
 20
442.4967626163232
 30
0.0
 10
334.4617980304859
 20
443.6460530364412
 30
0.0
 10
334.4981109370609
 20
444.6066030104709
 30
0.0
  0
SPLINE
  5
111
330
C0
100
AcDbEntity
  8
$DDT_AUDIT_GENERATED_(B9)
  6
Continuous
 62
     7
100
AcDbSpline
210
0.0
220
0.0
230
1.0
 70
     8
 71
     3
 72
    16
 73
    12
 74
     0
 42
0.000000000241936
 43
0.0000000001
 40
0.4525925476424579
 40
0.4525925476424579
 40
0.4525925476424579
 40
0.4525925476424579
 40
0.4999999999999992
 40
0.4999999999999992
 40
0.6249999999999992
 40
0.6249999999999992
 40
0.6874999999999992
 40
0.6874999999999992
 40
0.7499999999999993
 40
0.7499999999999993
 40
0.7507411058424419
 40
0.7507411058424419
 40
0.7507411058424419
 40
0.7507411058424419
 10
335.2184451954467
 20
445.6611518613067
 30
0.0
 10
335.2669019706204
 20
445.1787848316991
 30
0.0
 10
335.3118408874332
 20
444.6095949618062
 30
0.0
 10
335.4553316636536
 20
442.3151070556424
 30
0.0
 10
335.5206107985932
 20
440.1896638438638
 30
0.0
 10
335.5349656175205
 20
437.2509290586621
 30
0.0
 10
335.5263821180504
 20
436.3058112244789
 30
0.0
 10
335.483301439865
 20
434.6418191248719
 30
0.0
 10
335.449214454313
 20
433.9273328248528
 30
0.0
 10
335.4032042688568
 20
433.3638838468509
 30
0.0
 10
335.4026637029555
 20
433.3573057060525
 30
0.0
 10
335.4021217568076
 20
433.3507523584997
 30
0.0
  0
ARC
  5
112
330
C0
100
AcDbEntity
  8
$DDT_AUDIT_GENERATED_(B9)
  6
Continuous
 62
     7
100
AcDbCircle
 10
329.1351944918
 20
346.4672891528
 30
0.0
 40
1.59999999999999
100
AcDbArc
 50
270.0
 51
0.0
  0
ARC
  5
113
330
C0
100
AcDbEntity
  8
$DDT_AUDIT_GENERATED_(B9)
  6
Continuous
 62
     7
100
AcDbCircle
 10
329.1351944918
 20
513.2672891528
 30
0.0
 40
1.6
100
AcDbArc
 50
0.0
 51
90.0
  0
LINE
  5
114
330
C0
100
AcDbEntity
  8
$DDT_AUDIT_GENERATED_(B9)
  6
Continuous
 62
     7
100
AcDbLine
 10
326.3967712041
 20
344.8672891528
 30
0.0
 11
329.1351944918
 21
344.8672891528
 31
0.0
  0
LINE
  5
115
330
C0
100
AcDbEntity
  8
$DDT_AUDIT_GENERATED_(B9)
  6
Continuous
 62
     7
100
AcDbLine
 10
329.1351944918
 20
514.8672891528
 30
0.0
 11
323.4351944918
 21
514.8672891528
 31
0.0
  0
ARC
  5
116
330
C0
100
AcDbEntity
  8
$DDT_AUDIT_GENERATED_(B9)
  6
Continuous
 62
     7
100
AcDbCircle
 10
-113.8268823809
 20
424.613685523
 30
0.0
 40
450.0000000000001
100
AcDbArc
 50
351.0836681881
 51
356.9691194101
  0
ARC
  5
117
330
C0
100
AcDbEntity
  8
$DDT_AUDIT_GENERATED_(B9)
  6
Continuous
 62
     7
100
AcDbCircle
 10
-113.8268823809
 20
435.1208927826
 30
0.0
 40
450.0000000000001
100
AcDbArc
 50
7.6224540042
 51
8.9163318119
  0
ARC
  5
118
330
C0
100
AcDbEntity
  8
$DDT_AUDIT_GENERATED_(B9)
  6
Continuous
 62
     7
100
AcDbCircle
 10
-113.8268823809
 20
435.1208927826
 30
0.0
 40
450.0000000000001
100
AcDbArc
 50
3.0308805899
 51
5.1124618226
  0
ARC
  5
119
330
C0
100
AcDbEntity
  8
$DDT_AUDIT_GENERATED_(B9)
  6
Continuous
 62
     7
100
AcDbCircle
 10
333.9458877659
 20
458.8296741738
 30
0.0
 40
1.600000000000001
100
AcDbArc
 50
0.0
 51
3.0308805898
  0
ARC
  5
11A
330
C0
100
AcDbEntity
  8
$DDT_AUDIT_GENERATED_(B9)
  6
Continuous
 62
     7
100
AcDbCircle
 10
333.9458877659
 20
400.9049041318
 30
0.0
 40
1.600000000000003
100
AcDbArc
 50
356.9691194101
 51
0.0
  0
LINE
  5
11B
330
C0
100
AcDbEntity
  8
$DDT_AUDIT_GENERATED_(B9)
  6
Continuous
 62
     7
100
AcDbLine
 10
335.5458877659
 20
400.9049041318
 30
0.0
 11
335.5458877659
 21
458.8296741738
 31
0.0
  0
ARC
  5
11C
330
C0
100
AcDbEntity
  8
$DDT_AUDIT_GENERATED_(B9)
  6
Continuous
 62
     7
100
AcDbCircle
 10
430.9437480445
 20
442.0450475404
 30
0.0
 40
96.5142060360667
100
AcDbArc
 50
183.660048422
 51
184.1374693275
  0
SPLINE
  5
11D
330
C0
100
AcDbEntity
  8
$DDT_AUDIT_GENERATED_(B9)
  6
Continuous
 62
     7
100
AcDbSpline
210
0.0
220
0.0
230
1.0
 70
     8
 71
     3
 72
    14
 73
    10
 74
     0
 42
0.0000000033299472
 43
0.0000000001
 40
0.2254135152190997
 40
0.2254135152190997
 40
0.2254135152190997
 40
0.2254135152190997
 40
0.2602596827084551
 40
0.3475456052654878
 40
0.4545944365891651
 40
0.5769402524218346
 40
0.7135658779709945
 40
0.8582949963490878
 40
1.0
 40
1.0
 40
1.0
 40
1.0
 10
334.9548153038658
 20
432.773748632564
 30
0.0
 10
334.9548280068678
 20
432.7737372787998
 30
0.0
 10
334.9515873387196
 20
432.7842410886276
 30
0.0
 10
334.9326846125115
 20
432.8597686237834
 30
0.0
 10
334.8953165676466
 20
433.0562429528126
 30
0.0
 10
334.8465144645984
 20
433.3803854374882
 30
0.0
 10
334.7917235213071
 20
433.8302863983141
 30
0.0
 10
334.7338159626285
 20
434.4111516398085
 30
0.0
 10
334.700506247951
 20
434.832642737679
 30
0.0
 10
334.6810760819209
 20
435.0815747438727
 30
0.0
  0
SPLINE
  5
11E
330
C0
100
AcDbEntity
  8
$DDT_AUDIT_GENERATED_(B9)
  6
Continuous
 62
     7
100
AcDbSpline
210
0.0
220
0.0
230
1.0
 70
     8
 71
     3
 72
    13
 73
     9
 74
     0
 42
0.000000003428957
 43
0.0000000001
 40
0.0
 40
0.0
 40
0.0
 40
0.0
 40
0.152293995835227
 40
0.3019209431816727
 40
0.4510321010109549
 40
0.5750870371215202
 40
0.6843210811535968
 40
0.7629421906208803
 40
0.7629421906208803
 40
0.7629421906208803
 40
0.7629421906208803
 10
334.5024566482654
 20
444.5054757736178
 30
0.0
 10
334.5133559912775
 20
444.7655745034602
 30
0.0
 10
334.5318938246598
 20
445.1972641206995
 30
0.0
 10
334.5709393210794
 20
445.7887703453534
 30
0.0
 10
334.6111825827131
 20
446.2317109840288
 30
0.0
 10
334.6488460342733
 20
446.5307016449373
 30
0.0
 10
334.676141235802
 20
446.684980732061
 30
0.0
 10
334.6852126666274
 20
446.7206948445832
 30
0.0
 10
334.6851872722266
 20
446.7205489420339
 30
0.0
  0
ENDBLK
  5
120
330
C0
100
AcDbEntity
  8
0
100
AcDbBlockEnd
  0
BLOCK
  5
18C
330
121
100
AcDbEntity
  8
0
100
AcDbBlockBegin
  2
SE2
 70
     0
 10
0.0
 20
0.0
 30
0.0
  3
SE2
  1

  0
LINE
  5
123
330
121
100
AcDbEntity
  8
$DDT_AUDIT_GENERATED_(C2)
  6
Continuous
 62
     7
100
AcDbLine
 10
122.4646022672
 20
219.5209964018
 30
0.0
 11
141.9379411075
 21
219.5209964018
 31
0.0
  0
LINE
  5
124
330
121
100
AcDbEntity
  8
$DDT_AUDIT_GENERATED_(C2)
  6
Continuous
 62
     7
100
AcDbLine
 10
153.8375926157
 20
219.5209964018
 30
0.0
 11
173.3109314559
 21
219.5209964018
 31
0.0
  0
ARC
  5
125
330
121
100
AcDbEntity
  8
$DDT_AUDIT_GENERATED_(C2)
  6
Continuous
 62
     7
100
AcDbCircle
 10
147.8877668616
 20
227.6209964018
 30
0.0
 40
26.3
100
AcDbArc
 50
320.6446882002
 51
342.0621734783
  0
ARC
  5
126
330
121
100
AcDbEntity
  8
$DDT_AUDIT_GENERATED_(C2)
  6
Continuous
 62
     7
100
AcDbCircle
 10
147.8877668616
 20
227.6209964018
 30
0.0
 40
26.3
100
AcDbArc
 50
197.9378265217
 51
219.4954192918
  0
LINE
  5
127
330
121
100
AcDbEntity
  8
$DDT_AUDIT_GENERATED_(C2)
  6
Continuous
 62
     7
100
AcDbLine
 10
121.8005024535
 20
238.8237556809
 30
0.0
 11
121.9646213037
 21
220.0166333579
 31
0.0
  0
LINE
  5
128
330
121
100
AcDbEntity
  8
$DDT_AUDIT_GENERATED_(C2)
  6
Continuous
 62
     7
100
AcDbLine
 10
173.8109124194
 20
220.0166333579
 30
0.0
 11
173.9750312696
 21
238.8237556809
 31
0.0
  0
ARC
  5
129
330
121
100
AcDbEntity
  8
$DDT_AUDIT_GENERATED_(C2)
  6
Continuous
 62
     7
100
AcDbCircle
 10
173.3109314559
 20
220.0209964018
 30
0.0
 40
0.5000000000000004
100
AcDbArc
 50
270.0
 51
359.500025649
  0
ARC
  5
12A
330
121
100
AcDbEntity
  8
$DDT_AUDIT_GENERATED_(C2)
  6
Continuous
 62
     7
100
AcDbCircle
 10
122.4646022672
 20
220.0209964018
 30
0.0
 40
0.4999999999999991
100
AcDbArc
 50
180.499974351
 51
270.0
  0
LINE
  5
12B
330
121
100
AcDbEntity
  8
$DDT_AUDIT_GENERATED_(CA)
  6
Continuous
 62
     7
100
AcDbLine
 10
142.1877668616
 20
236.6237556809
 30
0.0
 11
153.5877668616
 21
236.6237556809
 31
0.0
  0
LINE
  5
12C
330
121
100
AcDbEntity
  8
$DDT_AUDIT_GENERATED_(CA)
  6
Continuous
 62
     7
100
AcDbLine
 10
141.8877668616
 20
241.1898079686
 30
0.0
 11
141.8877668616
 21
236.9237556809
 31
0.0
  0
LINE
  5
12D
330
121
100
AcDbEntity
  8
$DDT_AUDIT_GENERATED_(CA)
  6
Continuous
 62
     7
100
AcDbLine
 10
153.8877668616
 20
236.9237556809
 30
0.0
 11
153.8877668616
 21
241.2120751717
 31
0.0
  0
ARC
  5
12E
330
121
100
AcDbEntity
  8
$DDT_AUDIT_GENERATED_(CA)
  6
Continuous
 62
     7
100
AcDbCircle
 10
142.1877668616
 20
236.9237556809
 30
0.0
 40
0.2999999999999999
100
AcDbArc
 50
180.0
 51
270.0
  0
ARC
  5
12F
330
121
100
AcDbEntity
  8
$DDT_AUDIT_GENERATED_(CA)
  6
Continuous
 62
     7
100
AcDbCircle
 10
153.5877668616
 20
236.9237556809
 30
0.0
 40
0.3000000000000017
100
AcDbArc
 50
270.0
 51
0.0
  0
ARC
  5
130
330
121
100
AcDbEntity
  8
$DDT_AUDIT_GENERATED_(9B)
  6
Continuous
 62
     7
100
AcDbCircle
 10
147.8877668616
 20
265.1764627044
 30
0.0
 40
49.99999999999999
100
AcDbArc
 50
264.1432980901
 51
275.8567019099
  0
LINE
  5
131
330
121
100
AcDbEntity
  8
$DDT_AUDIT_GENERATED_(9B)
  6
Continuous
 62
     7
100
AcDbLine
 10
141.8877668616
 20
219.2082168679
 30
0.0
 11
141.8877668616
 21
216.4322322766
 31
0.0
  0
LINE
  5
132
330
121
100
AcDbEntity
  8
$DDT_AUDIT_GENERATED_(9B)
  6
Continuous
 62
     7
100
AcDbLine
 10
153.8877668616
 20
216.4322322766
 30
0.0
 11
153.8877668616
 21
219.2082168679
 31
0.0
  0
ARC
  5
133
330
121
100
AcDbEntity
  8
$DDT_AUDIT_GENERATED_(9B)
  6
Continuous
 62
     7
100
AcDbCircle
 10
142.8877668616
 20
219.2082168679
 30
0.0
 40
1.000000000000002
100
AcDbArc
 50
104.4775121859
 51
180.0
  0
ARC
  5
134
330
121
100
AcDbEntity
  8
$DDT_AUDIT_GENERATED_(9B)
  6
Continuous
 62
     7
100
AcDbCircle
 10
152.8877668616
 20
219.2082168679
 30
0.0
 40
1.0
100
AcDbArc
 50
0.0
 51
75.5224878141
  0
ARC
  5
135
330
121
100
AcDbEntity
  8
$DDT_AUDIT_GENERATED_(9B)
  6
Continuous
 62
     7
100
AcDbCircle
 10
142.3877668616
 20
221.144708541
 30
0.0
 40
1.000000000000001
100
AcDbArc
 50
284.4775121859
 51
0.0
  0
ARC
  5
136
330
121
100
AcDbEntity
  8
$DDT_AUDIT_GENERATED_(9B)
  6
Continuous
 62
     7
100
AcDbCircle
 10
153.3877668616
 20
221.144708541
 30
0.0
 40
1.000000000000007
100
AcDbArc
 50
180.0
 51
255.5224878141
  0
LINE
  5
137
330
121
100
AcDbEntity
  8
$DDT_AUDIT_GENERATED_(9B)
  6
Continuous
 62
     7
100
AcDbLine
 10
143.3877668616
 20
236.6237556809
 30
0.0
 11
143.3877668616
 21
221.144708541
 31
0.0
  0
LINE
  5
138
330
121
100
AcDbEntity
  8
$DDT_AUDIT_GENERATED_(9B)
  6
Continuous
 62
     7
100
AcDbLine
 10
152.3877668616
 20
221.144708541
 30
0.0
 11
152.3877668616
 21
236.6237556809
 31
0.0
  0
ARC
  5
139
330
121
100
AcDbEntity
  8
$DDT_AUDIT_GENERATED_(9B)
  6
Continuous
 62
     7
100
AcDbCircle
 10
142.8877668616
 20
216.4322322766
 30
0.0
 40
1.000000000000001
100
AcDbArc
 50
180.0
 51
264.1432980901
  0
ARC
  5
13A
330
121
100
AcDbEntity
  8
$DDT_AUDIT_GENERATED_(9B)
  6
Continuous
 62
     7
100
AcDbCircle
 10
152.8877668616
 20
216.4322322766
 30
0.0
 40
0.9999999999999931
100
AcDbArc
 50
275.8567019099
 51
0.0
  0
LINE
  5
13B
330
121
100
AcDbEntity
  8
$DDT_AUDIT_GENERATED_(9D)
  6
Continuous
 62
     7
100
AcDbLine
 10
120.0329233282
 20
238.8237556809
 30
0.0
 11
141.8877668616
 21
238.8237556809
 31
0.0
  0
LINE
  5
13C
330
121
100
AcDbEntity
  8
$DDT_AUDIT_GENERATED_(9D)
  6
Continuous
 62
     7
100
AcDbLine
 10
153.8877668616
 20
238.8237556809
 30
0.0
 11
175.7426103949
 21
238.8237556809
 31
0.0
  0
LINE
  5
13D
330
121
100
AcDbEntity
  8
$DDT_AUDIT_GENERATED_(9D)
  6
Continuous
 62
     7
100
AcDbLine
 10
117.8877668616
 20
240.6237556809
 30
0.0
 11
141.8877668616
 21
240.6237556809
 31
0.0
  0
LINE
  5
13E
330
121
100
AcDbEntity
  8
$DDT_AUDIT_GENERATED_(9D)
  6
Continuous
 62
     7
100
AcDbLine
 10
153.8877668616
 20
240.6237556809
 30
0.0
 11
177.8877668616
 21
240.6237556809
 31
0.0
  0
LINE
  5
13F
330
121
100
AcDbEntity
  8
$DDT_AUDIT_GENERATED_(9D)
  6
Continuous
 62
     7
100
AcDbLine
 10
117.8877668616
 20
240.9237556809
 30
0.0
 11
141.8877668616
 21
240.9237556809
 31
0.0
  0
LINE
  5
140
330
121
100
AcDbEntity
  8
$DDT_AUDIT_GENERATED_(9D)
  6
Continuous
 62
     7
100
AcDbLine
 10
153.8877668616
 20
240.9237556809
 30
0.0
 11
177.8877668616
 21
240.9237556809
 31
0.0
  0
LINE
  5
141
330
121
100
AcDbEntity
  8
$DDT_AUDIT_GENERATED_(9D)
  6
Continuous
 62
     7
100
AcDbLine
 10
117.8877668616
 20
240.6237556809
 30
0.0
 11
120.0329233282
 21
238.8237556809
 31
0.0
  0
LINE
  5
142
330
121
100
AcDbEntity
  8
$DDT_AUDIT_GENERATED_(9D)
  6
Continuous
 62
     7
100
AcDbLine
 10
175.7426103949
 20
238.8237556809
 30
0.0
 11
177.8877668616
 21
240.6237556809
 31
0.0
  0
LINE
  5
143
330
121
100
AcDbEntity
  8
$DDT_AUDIT_GENERATED_(9D)
  6
Continuous
 62
     7
100
AcDbLine
 10
177.8877668616
 20
240.6237556809
 30
0.0
 11
177.8877668616
 21
240.9237556809
 31
0.0
  0
LINE
  5
144
330
121
100
AcDbEntity
  8
$DDT_AUDIT_GENERATED_(9D)
  6
Continuous
 62
     7
100
AcDbLine
 10
117.8877668616
 20
240.9237556809
 30
0.0
 11
117.8877668616
 21
240.6237556809
 31
0.0
  0
LINE
  5
145
330
121
100
AcDbEntity
  8
$DDT_AUDIT_GENERATED_(9D)
  6
Continuous
 62
     7
100
AcDbLine
 10
175.1377668616
 20
240.9237556809
 30
0.0
 11
175.1377668616
 21
241.0130624068
 31
0.0
  0
LINE
  5
146
330
121
100
AcDbEntity
  8
$DDT_AUDIT_GENERATED_(9D)
  6
Continuous
 62
     7
100
AcDbLine
 10
120.6377668616
 20
241.0130624068
 30
0.0
 11
120.6377668616
 21
240.9237556809
 31
0.0
  0
LINE
  5
147
330
121
100
AcDbEntity
  8
$DDT_AUDIT_GENERATED_(E5)
  6
Continuous
 62
     7
100
AcDbLine
 10
227.5877668616
 20
256.6237556809
 30
0.0
 11
68.1877668616
 21
256.6237556809
 31
0.0
  0
LINE
  5
148
330
121
100
AcDbEntity
  8
$DDT_AUDIT_GENERATED_(E5)
  6
Continuous
 62
     7
100
AcDbLine
 10
230.5246155707
 20
253.1237556809
 30
0.0
 11
227.5877668616
 21
256.6237556809
 31
0.0
  0
LINE
  5
149
330
121
100
AcDbEntity
  8
$DDT_AUDIT_GENERATED_(E5)
  6
Continuous
 62
     7
100
AcDbLine
 10
68.1877668616
 20
256.6237556809
 30
0.0
 11
65.2509181524
 21
253.1237556809
 31
0.0
  0
SPLINE
  5
14A
330
121
100
AcDbEntity
  8
$DDT_AUDIT_GENERATED_(A2)
  6
Continuous
 62
     7
100
AcDbSpline
210
0.0
220
0.0
230
1.0
 70
     8
 71
     3
 72
    63
 73
    59
 74
     0
 42
0.000000000670333
 43
0.0000000001
 40
0.048362765174661
 40
0.048362765174661
 40
0.048362765174661
 40
0.048362765174661
 40
0.0674594898795352
 40
0.0674594898795352
 40
0.115515221151234
 40
0.115515221151234
 40
0.1395430867870834
 40
0.1395430867870834
 40
0.1635709524229328
 40
0.1635709524229328
 40
0.2116266836946315
 40
0.2116266836946315
 40
0.2356545493304809
 40
0.2356545493304809
 40
0.2596824149663303
 40
0.2596824149663303
 40
0.3077381462380291
 40
0.3077381462380291
 40
0.3557938775097279
 40
0.3557938775097279
 40
0.3798217431455773
 40
0.3798217431455773
 40
0.4038496087814266
 40
0.4038496087814266
 40
0.4519053400531254
 40
0.4519053400531254
 40
0.4999610713248241
 40
0.4999610713248241
 40
0.4999610713248241
 40
0.548016802596523
 40
0.548016802596523
 40
0.5720446682323723
 40
0.5720446682323723
 40
0.5960725338682217
 40
0.5960725338682217
 40
0.6201003995040711
 40
0.6201003995040711
 40
0.6441282651399205
 40
0.6441282651399205
 40
0.6921839964116192
 40
0.6921839964116192
 40
0.7162118620474687
 40
0.7162118620474687
 40
0.740239727683318
 40
0.740239727683318
 40
0.7882954589550168
 40
0.7882954589550168
 40
0.8123233245908662
 40
0.8123233245908662
 40
0.8363511902267156
 40
0.8363511902267156
 40
0.8844069214984144
 40
0.8844069214984144
 40
0.9084347871342637
 40
0.9084347871342637
 40
0.9324626527701131
 40
0.9324626527701131
 40
0.9518337583122926
 40
0.9518337583122926
 40
0.9518337583122926
 40
0.9518337583122926
 10
141.8648781655253
 20
241.0003446211363
 30
0.0
 10
141.8207111160398
 20
241.0195585900599
 30
0.0
 10
141.7824344236131
 20
241.0390889401159
 30
0.0
 10
141.6702309939879
 20
241.1082576058644
 30
0.0
 10
141.630587250849
 20
241.158011598888
 30
0.0
 10
141.6302218875653
 20
241.2329943335061
 30
0.0
 10
141.6400202152287
 20
241.2580476435697
 30
0.0
 10
141.6799973378361
 20
241.308271630664
 30
0.0
 10
141.7102803148927
 20
241.3334003077559
 30
0.0
 10
141.8297543759304
 20
241.4073250293669
 30
0.0
 10
141.9476334791628
 20
241.4552186984969
 30
0.0
 10
142.1817783900861
 20
241.5249527162664
 30
0.0
 10
142.2699832856322
 20
241.5479615631917
 30
0.0
 10
142.4636508792982
 20
241.5926097199272
 30
0.0
 10
142.5687527342045
 20
241.6141997873694
 30
0.0
 10
142.9082016196409
 20
241.6768201825331
 30
0.0
 10
143.1664597393838
 20
241.7157215462796
 30
0.0
 10
143.7490329692813
 20
241.787619568767
 30
0.0
 10
144.0668452399241
 20
241.8197464056281
 30
0.0
 10
144.5752931151048
 20
241.8616924059062
 30
0.0
 10
144.7504452262567
 20
241.8746687487117
 30
0.0
 10
145.1123261363448
 20
241.8985706244614
 30
0.0
 10
145.3000549101639
 20
241.909538769379
 30
0.0
 10
145.8698773193072
 20
241.9386704996683
 30
0.0
 10
146.2605311036863
 20
241.9532884658994
 30
0.0
 10
147.0632472151916
 20
241.9730559542072
 30
0.0
 10
147.4786856109681
 20
241.9781192476819
 30
0.0
 10
147.8877668613601
 20
241.9781192477347
 30
0.0
 10
148.2968481117523
 20
241.9781192477874
 30
0.0
 10
148.7032796224697
 20
241.9732222959335
 30
0.0
 10
149.3090403778765
 20
241.9583875041895
 30
0.0
 10
149.5105303732615
 20
241.9521594351421
 30
0.0
 10
149.9032186935803
 20
241.9374539496465
 30
0.0
 10
150.0955711986357
 20
241.9289540541007
 30
0.0
 10
150.4724577879329
 20
241.9097003573961
 30
0.0
 10
150.6569904720748
 20
241.898946569399
 30
0.0
 10
151.0181627036402
 20
241.8751596396159
 30
0.0
 10
151.1955983542657
 20
241.862059300179
 30
0.0
 10
151.7098221563218
 20
241.8196846661506
 30
0.0
 10
152.0249785364771
 20
241.7877361571119
 30
0.0
 10
152.4575846243052
 20
241.7344523668685
 30
0.0
 10
152.5950493103774
 20
241.7157910746506
 30
0.0
 10
152.8561292270112
 20
241.6766216790508
 30
0.0
 10
152.9793222956133
 20
241.6561510327859
 30
0.0
 10
153.3200548365298
 20
241.593322461615
 30
0.0
 10
153.5119107911199
 20
241.549144343403
 30
0.0
 10
153.7467958332566
 20
241.4794625023091
 30
0.0
 10
153.8165086627829
 20
241.4555329249479
 30
0.0
 10
153.9358152537589
 20
241.4071631610803
 30
0.0
 10
153.9853650931006
 20
241.3827953884804
 30
0.0
 10
154.1045373525564
 20
241.3091646837761
 30
0.0
 10
154.1449592232048
 20
241.2593789728889
 30
0.0
 10
154.1453056585595
 20
241.1836459112934
 30
0.0
 10
154.1351889666876
 20
241.1583418209156
 30
0.0
 10
154.0952250092889
 20
241.1084507856739
 30
0.0
 10
154.0653917011298
 20
241.0837413987256
 30
0.0
 10
153.9939343962461
 20
241.0395350171274
 30
0.0
 10
153.9557164020536
 20
241.0199560378047
 30
0.0
 10
153.9110942181224
 20
241.0005320080194
 30
0.0
  0
SPLINE
  5
14B
330
121
100
AcDbEntity
  8
$DDT_AUDIT_GENERATED_(A2)
  6
Continuous
 62
     7
100
AcDbSpline
210
0.0
220
0.0
230
1.0
 70
     8
 71
     3
 72
    10
 73
     6
 74
     0
 42
0.0000000007022061
 43
0.0000000001
 40
0.097199982830265
 40
0.097199982830265
 40
0.097199982830265
 40
0.097199982830265
 40
0.2499999999999998
 40
0.2499999999999998
 40
0.446987372257902
 40
0.446987372257902
 40
0.446987372257902
 40
0.446987372257902
 10
141.8956155941005
 20
241.1593736608985
 30
0.0
 10
141.8987871987084
 20
241.3196343299908
 30
0.0
 10
142.2459377858416
 20
241.4800123116382
 30
0.0
 10
143.7779559409157
 20
241.7898471217267
 30
0.0
 10
145.1404879028746
 20
241.9145872981988
 30
0.0
 10
146.6471150651611
 20
241.959641614002
 30
0.0
  0
SPLINE
  5
14C
330
121
100
AcDbEntity
  8
$DDT_AUDIT_GENERATED_(A2)
  6
Continuous
 62
     7
100
AcDbSpline
210
0.0
220
0.0
230
1.0
 70
     8
 71
     3
 72
    12
 73
     8
 74
     0
 42
0.0000000007023992
 43
0.0000000001
 40
0.5528635036373242
 40
0.5528635036373242
 40
0.5528635036373242
 40
0.5528635036373242
 40
0.6249999999999996
 40
0.6249999999999996
 40
0.7499999999999996
 40
0.7499999999999996
 40
0.9027027317084948
 40
0.9027027317084948
 40
0.9027027317084948
 40
0.9027027317084948
 10
149.1272095483735
 20
241.9601764999503
 30
0.0
 10
149.6805722426903
 20
241.9440303928182
 30
0.0
 10
150.215153729005
 20
241.9172280047534
 30
0.0
 10
151.5728607943577
 20
241.8175386926342
 30
0.0
 10
152.3193636152847
 20
241.7251091138251
 30
0.0
 10
153.5319907832291
 20
241.479126536684
 30
0.0
 10
153.8777563519957
 20
241.3191872405492
 30
0.0
 10
153.880550770114
 20
241.1592853486046
 30
0.0
  0
SPLINE
  5
14D
330
121
100
AcDbEntity
  8
$DDT_AUDIT_GENERATED_(A2)
  6
Continuous
 62
     7
100
AcDbSpline
210
0.0
220
0.0
230
1.0
 70
     8
 71
     3
 72
     8
 73
     4
 74
     0
 42
0.0000000018912594
 43
0.0000000001
 40
0.2509032091847896
 40
0.2509032091847896
 40
0.2509032091847896
 40
0.2509032091847896
 40
0.2540707140875049
 40
0.2540707140875049
 40
0.2540707140875049
 40
0.2540707140875049
 10
141.0364149971816
 20
241.5170488201275
 30
0.0
 10
141.0366573753824
 20
241.5115213661548
 30
0.0
 10
141.0373512238884
 20
241.5059935681384
 30
0.0
 10
141.0384951544683
 20
241.5004665207747
 30
0.0
  0
SPLINE
  5
14E
330
121
100
AcDbEntity
  8
$DDT_AUDIT_GENERATED_(A2)
  6
Continuous
 62
     7
100
AcDbSpline
210
0.0
220
0.0
230
1.0
 70
     8
 71
     3
 72
     8
 73
     4
 74
     0
 42
0.0000000011034495
 43
0.0000000001
 40
0.2673042353296324
 40
0.2673042353296324
 40
0.2673042353296324
 40
0.2673042353296324
 40
0.2877918201413014
 40
0.2877918201413014
 40
0.2877918201413014
 40
0.2877918201413014
 10
141.0762999556854
 20
241.4313112920391
 30
0.0
 10
141.1078672532739
 20
241.3957262246846
 30
0.0
 10
141.1580214025579
 20
241.3603638982855
 30
0.0
 10
141.2263867545968
 20
241.3255205326169
 30
0.0
  0
SPLINE
  5
14F
330
121
100
AcDbEntity
  8
$DDT_AUDIT_GENERATED_(A2)
  6
Continuous
 62
     7
100
AcDbSpline
210
0.0
220
0.0
230
1.0
 70
     8
 71
     3
 72
     8
 73
     4
 74
     0
 42
0.0000000012473189
 43
0.0000000001
 40
0.7125294509299901
 40
0.7125294509299901
 40
0.7125294509299901
 40
0.7125294509299901
 40
0.747672327880719
 40
0.747672327880719
 40
0.747672327880719
 40
0.747672327880719
 10
154.5504975570931
 20
241.3258901092422
 30
0.0
 10
154.6674232130043
 20
241.3855025946178
 30
0.0
 10
154.7307379193387
 20
241.446729759734
 30
0.0
 10
154.7384211291734
 20
241.5086806757407
 30
0.0
  0
SPLINE
  5
150
330
121
100
AcDbEntity
  8
$DDT_AUDIT_GENERATED_(A2)
  6
Continuous
 62
     7
100
AcDbSpline
210
0.0
220
0.0
230
1.0
 70
     8
 71
     3
 72
    12
 73
     8
 74
     0
 42
0.0000000002085527
 43
0.0000000001
 40
0.0
 40
0.0
 40
0.0
 40
0.0
 40
0.0625000000000002
 40
0.0625000000000002
 40
0.1250000000000004
 40
0.1250000000000004
 40
0.1859750696583516
 40
0.1859750696583516
 40
0.1859750696583516
 40
0.1859750696583516
 10
147.8877668613601
 20
244.3697250857748
 30
0.0
 10
146.6102687051609
 20
244.369723626232
 30
0.0
 10
145.3489949247927
 20
244.3406134846136
 30
0.0
 10
143.0179739018251
 20
244.2300115152736
 30
0.0
 10
141.9452286632996
 20
244.147858296059
 30
0.0
 10
140.1944421720714
 20
243.9481448346318
 30
0.0
 10
139.4922327687894
 20
243.8296302337978
 30
0.0
 10
139.0144069307635
 20
243.7023136349315
 30
0.0
  0
SPLINE
  5
151
330
121
100
AcDbEntity
  8
$DDT_AUDIT_GENERATED_(A2)
  6
Continuous
 62
     7
100
AcDbSpline
210
0.0
220
0.0
230
1.0
 70
     8
 71
     3
 72
    12
 73
     8
 74
     0
 42
0.0000000002063077
 43
0.0000000001
 40
0.8181164233235674
 40
0.8181164233235674
 40
0.8181164233235674
 40
0.8181164233235674
 40
0.8750000000000001
 40
0.8750000000000001
 40
0.9375000000000001
 40
0.9375000000000001
 40
1.0
 40
1.0
 40
1.0
 40
1.0
 10
156.6634580486488
 20
243.7274508711731
 30
0.0
 10
156.18922636817
 20
243.8454156343013
 30
0.0
 10
155.5256931869471
 20
243.9543944466115
 30
0.0
 10
153.8328813242588
 20
244.1476407947407
 30
0.0
 10
152.7576405543218
 20
244.2299356331941
 30
0.0
 10
150.4349197822134
 20
244.3402876321017
 30
0.0
 10
149.1652650175594
 20
244.3697265453176
 30
0.0
 10
147.8877668613601
 20
244.3697250857748
 30
0.0
  0
SPLINE
  5
152
330
121
100
AcDbEntity
  8
$DDT_AUDIT_GENERATED_(A2)
  6
Continuous
 62
     7
100
AcDbSpline
210
0.0
220
0.0
230
1.0
 70
     8
 71
     3
 72
    32
 73
    28
 74
     0
 42
0.0000000002847489
 43
0.0000000001
 40
0.0
 40
0.0
 40
0.0
 40
0.0
 40
0.03125
 40
0.03125
 40
0.0625
 40
0.0625
 40
0.078125
 40
0.078125
 40
0.09375
 40
0.09375
 40
0.125
 40
0.125
 40
0.15625
 40
0.15625
 40
0.171875
 40
0.171875
 40
0.1875
 40
0.1875
 40
0.21875
 40
0.21875
 40
0.234375
 40
0.234375
 40
0.25
 40
0.25
 40
0.28125
 40
0.28125
 40
0.2932375638180924
 40
0.2932375638180924
 40
0.2932375638180924
 40
0.2932375638180924
 10
147.8877668613601
 20
243.9315947926119
 30
0.0
 10
147.2591119544456
 20
243.931591557549
 30
0.0
 10
146.6229111697187
 20
243.9238393212201
 30
0.0
 10
145.3898331967392
 20
243.8934736973507
 30
0.0
 10
144.7916325668071
 20
243.8710782251175
 30
0.0
 10
143.9180074245433
 20
243.8264127888824
 30
0.0
 10
143.6307750757702
 20
243.8096306673837
 30
0.0
 10
143.076061504499
 20
243.7729900711932
 30
0.0
 10
142.8081650906248
 20
243.7531375980394
 30
0.0
 10
142.0303756147863
 20
243.6889657530368
 30
0.0
 10
141.5441249346495
 20
243.6397910282732
 30
0.0
 10
140.6551836739027
 20
243.5300683409295
 30
0.0
 10
140.2605111055236
 20
243.4705974751828
 30
0.0
 10
139.7435726870029
 20
243.375220861224
 30
0.0
 10
139.5833480478243
 20
243.3423076271376
 30
0.0
 10
139.2881546914651
 20
243.2742461377488
 30
0.0
 10
139.1539484274531
 20
243.2392307368222
 30
0.0
 10
138.7974578542504
 20
243.1330569470636
 30
0.0
 10
138.6181323328035
 20
243.060199340878
 30
0.0
 10
138.4362429431468
 20
242.9477301850636
 30
0.0
 10
138.3901569483746
 20
242.9095404845367
 30
0.0
 10
138.3291647189545
 20
242.8330970905573
 30
0.0
 10
138.3141934372866
 20
242.7949807763744
 30
0.0
 10
138.3144213368238
 20
242.6810360654485
 30
0.0
 10
138.3744377384063
 20
242.6052522812978
 30
0.0
 10
138.5429536055028
 20
242.5010199797992
 30
0.0
 10
138.5984955260455
 20
242.4724093423375
 30
0.0
 10
138.662572633999
 20
242.4441555778458
 30
0.0
  0
SPLINE
  5
153
330
121
100
AcDbEntity
  8
$DDT_AUDIT_GENERATED_(A2)
  6
Continuous
 62
     7
100
AcDbSpline
210
0.0
220
0.0
230
1.0
 70
     8
 71
     3
 72
    36
 73
    32
 74
     0
 42
0.0000000002849218
 43
0.0000000001
 40
0.7066671797962477
 40
0.7066671797962477
 40
0.7066671797962477
 40
0.7066671797962477
 40
0.71875
 40
0.71875
 40
0.734375
 40
0.734375
 40
0.75
 40
0.75
 40
0.78125
 40
0.78125
 40
0.796875
 40
0.796875
 40
0.8125
 40
0.8125
 40
0.84375
 40
0.84375
 40
0.859375
 40
0.859375
 40
0.875
 40
0.875
 40
0.90625
 40
0.90625
 40
0.921875
 40
0.921875
 40
0.9375
 40
0.9375
 40
0.953125
 40
0.953125
 40
0.96875
 40
0.96875
 40
1.0
 40
1.0
 40
1.0
 40
1.0
 10
157.1146685447403
 20
242.444896665261
 30
0.0
 10
157.17892072143
 20
242.4732995824046
 30
0.0
 10
157.2341516130013
 20
242.5018915017537
 30
0.0
 10
157.3405451342932
 20
242.5679327869605
 30
0.0
 10
157.385774037242
 20
242.6055307023932
 30
0.0
 10
157.4463045955056
 20
242.6814800917082
 30
0.0
 10
157.4615458177762
 20
242.7199571932526
 30
0.0
 10
157.46069033143
 20
242.8351454010315
 30
0.0
 10
157.3989627448204
 20
242.9109414183924
 30
0.0
 10
157.2177348374825
 20
243.0228381906742
 30
0.0
 10
157.1423246094774
 20
243.0599242204782
 30
0.0
 10
156.9606318772834
 20
243.133573775804
 30
0.0
 10
156.854592221637
 20
243.1699693875802
 30
0.0
 10
156.4969774098649
 20
243.276063579307
 30
0.0
 10
156.2048435892544
 20
243.3433527336333
 30
0.0
 10
155.6853778062674
 20
243.4391517981937
 30
0.0
 10
155.4976617777624
 20
243.4703518521058
 30
0.0
 10
155.099062825739
 20
243.5301616877408
 30
0.0
 10
154.8891503553131
 20
243.5586586129415
 30
0.0
 10
154.2291574364625
 20
243.6399602257568
 30
0.0
 10
153.7469232324265
 20
243.6888688365956
 30
0.0
 10
152.9602504990535
 20
243.7537002494153
 30
0.0
 10
152.6887321642924
 20
243.77375071036
 30
0.0
 10
152.1353716968769
 20
243.8101976027668
 30
0.0
 10
151.8526746948746
 20
243.8266718204119
 30
0.0
 10
151.2752912864727
 20
243.8561693988681
 30
0.0
 10
150.9805471650697
 20
243.8691976223806
 30
0.0
 10
150.3777778085347
 20
243.8917707863622
 30
0.0
 10
150.069057759516
 20
243.9013127712753
 30
0.0
 10
149.1393373045261
 20
243.9240815362845
 30
0.0
 10
148.5164217682748
 20
243.9315980276748
 30
0.0
 10
147.8877668613601
 20
243.9315947926119
 30
0.0
  0
SPLINE
  5
154
330
121
100
AcDbEntity
  8
$DDT_AUDIT_GENERATED_(A2)
  6
Continuous
 62
     7
100
AcDbSpline
210
0.0
220
0.0
230
1.0
 70
     8
 71
     3
 72
    30
 73
    26
 74
     0
 42
0.0000000003626672
 43
0.0000000001
 40
0.0
 40
0.0
 40
0.0
 40
0.0
 40
0.03125
 40
0.03125
 40
0.0625
 40
0.0625
 40
0.078125
 40
0.078125
 40
0.09375
 40
0.09375
 40
0.125
 40
0.125
 40
0.15625
 40
0.15625
 40
0.171875
 40
0.171875
 40
0.1875
 40
0.1875
 40
0.21875
 40
0.21875
 40
0.234375
 40
0.234375
 40
0.25
 40
0.25
 40
0.2551941717398631
 40
0.2551941717398631
 40
0.2551941717398631
 40
0.2551941717398631
 10
147.8877668613601
 20
242.3513651165997
 30
0.0
 10
147.4401866673164
 20
242.351365932129
 30
0.0
 10
146.9840299642484
 20
242.3458052522619
 30
0.0
 10
146.1058582075801
 20
242.3241794647658
 30
0.0
 10
145.6773240723244
 20
242.3081476353025
 30
0.0
 10
145.0535898995715
 20
242.2762582833748
 30
0.0
 10
144.8477711440428
 20
242.2642315486883
 30
0.0
 10
144.451966817541
 20
242.2380874027778
 30
0.0
 10
144.260074120482
 20
242.2238714509461
 30
0.0
 10
143.703419258253
 20
242.1779444118094
 30
0.0
 10
143.3559683368661
 20
242.1428204554322
 30
0.0
 10
142.7180471104984
 20
242.0640813438819
 30
0.0
 10
142.436061147812
 20
242.0215993357706
 30
0.0
 10
142.0644182409805
 20
241.9530301692949
 30
0.0
 10
141.9495290161799
 20
241.9294219261097
 30
0.0
 10
141.737865030003
 20
241.8806194672088
 30
0.0
 10
141.6413289712779
 20
241.8554370582632
 30
0.0
 10
141.3852769025968
 20
241.7791768813833
 30
0.0
 10
141.2563226102629
 20
241.7267897778418
 30
0.0
 10
141.1255888438008
 20
241.6459521857621
 30
0.0
 10
141.0924077787137
 20
241.6184466990574
 30
0.0
 10
141.0486098041205
 20
241.5635533034651
 30
0.0
 10
141.0378121740067
 20
241.5361579446072
 30
0.0
 10
141.0378851313337
 20
241.4996916527182
 30
0.0
 10
141.03909193609
 20
241.4906038082356
 30
0.0
 10
141.0414939569505
 20
241.4815252735271
 30
0.0
  0
SPLINE
  5
155
330
121
100
AcDbEntity
  8
$DDT_AUDIT_GENERATED_(A2)
  6
Continuous
 62
     7
100
AcDbSpline
210
0.0
220
0.0
230
1.0
 70
     8
 71
     3
 72
     8
 73
     4
 74
     0
 42
0.0000000008858658
 43
0.0000000001
 40
0.2818017635463453
 40
0.2818017635463453
 40
0.2818017635463453
 40
0.2818017635463453
 40
0.2931416711786787
 40
0.2931416711786787
 40
0.2931416711786787
 40
0.2931416711786787
 10
141.1733857064285
 20
241.3426331283518
 30
0.0
 10
141.2057214773557
 20
241.3229913688394
 30
0.0
 10
141.2436954862286
 20
241.303549144814
 30
0.0
 10
141.287153206121
 20
241.2843403245705
 30
0.0
  0
SPLINE
  5
156
330
121
100
AcDbEntity
  8
$DDT_AUDIT_GENERATED_(A2)
  6
Continuous
 62
     7
100
AcDbSpline
210
0.0
220
0.0
230
1.0
 70
     8
 71
     3
 72
     8
 73
     4
 74
     0
 42
0.000000000888175
 43
0.0000000001
 40
0.7067640647730971
 40
0.7067640647730971
 40
0.7067640647730971
 40
0.7067640647730971
 40
0.7175170436180666
 40
0.7175170436180666
 40
0.7175170436180666
 40
0.7175170436180666
 10
154.4895457295657
 20
241.2848550620869
 30
0.0
 10
154.5305285139389
 20
241.3030138383571
 30
0.0
 10
154.5664409662662
 20
241.3213055356687
 30
0.0
 10
154.5973061951936
 20
241.3397184814933
 30
0.0
  0
SPLINE
  5
157
330
121
100
AcDbEntity
  8
$DDT_AUDIT_GENERATED_(A2)
  6
Continuous
 62
     7
100
AcDbSpline
210
0.0
220
0.0
230
1.0
 70
     8
 71
     3
 72
    32
 73
    28
 74
     0
 42
0.0000000003593668
 43
0.0000000001
 40
0.7474540176939559
 40
0.7474540176939559
 40
0.7474540176939559
 40
0.7474540176939559
 40
0.75
 40
0.75
 40
0.78125
 40
0.78125
 40
0.796875
 40
0.796875
 40
0.8125
 40
0.8125
 40
0.84375
 40
0.84375
 40
0.859375
 40
0.859375
 40
0.875
 40
0.875
 40
0.90625
 40
0.90625
 40
0.921875
 40
0.921875
 40
0.9375
 40
0.9375
 40
0.953125
 40
0.953125
 40
0.96875
 40
0.96875
 40
1.0
 40
1.0
 40
1.0
 40
1.0
 10
154.7368751256822
 20
241.4962594559342
 30
0.0
 10
154.7374339591383
 20
241.5007613956567
 30
0.0
 10
154.7376975946507
 20
241.505263412268
 30
0.0
 10
154.7372538718637
 20
241.5649970096314
 30
0.0
 10
154.6930290506621
 20
241.6193898404672
 30
0.0
 10
154.5624785493383
 20
241.6999965493576
 30
0.0
 10
154.5082721091429
 20
241.7266358570529
 30
0.0
 10
154.3778550093813
 20
241.779500744723
 30
0.0
 10
154.3015644154419
 20
241.8056893636129
 30
0.0
 10
154.0447012713012
 20
241.8818933440714
 30
0.0
 10
153.834857619583
 20
241.9302203064006
 30
0.0
 10
153.4622227934291
 20
241.9989410671592
 30
0.0
 10
153.3273652060913
 20
242.0213521339539
 30
0.0
 10
153.0419627704175
 20
242.0641768027239
 30
0.0
 10
152.8916409850159
 20
242.0845899329284
 30
0.0
 10
152.4178381134301
 20
242.1429556075471
 30
0.0
 10
152.0733318988432
 20
242.1778788047503
 30
0.0
 10
151.5103900240505
 20
242.224272088779
 30
0.0
 10
151.3160846364236
 20
242.2386182156981
 30
0.0
 10
150.9208558475499
 20
242.2646498139763
 30
0.0
 10
150.7187979474404
 20
242.2764269597851
 30
0.0
 10
150.3059303738078
 20
242.2975196920469
 30
0.0
 10
150.0951677482325
 20
242.3068316093948
 30
0.0
 10
149.6654968074466
 20
242.3229224048401
 30
0.0
 10
149.444541911059
 20
242.3297531776209
 30
0.0
 10
148.781245964587
 20
242.3459972114775
 30
0.0
 10
148.3353470554039
 20
242.3513643010704
 30
0.0
 10
147.8877668613601
 20
242.3513651165997
 30
0.0
  0
LINE
  5
158
330
121
100
AcDbEntity
  8
$DDT_AUDIT_GENERATED_(A2)
  6
Continuous
 62
     7
100
AcDbLine
 10
141.2194936962
 20
241.3288450776
 30
0.0
 11
141.8042087935
 21
241.0288180868
 31
0.0
  0
LINE
  5
159
330
121
100
AcDbEntity
  8
$DDT_AUDIT_GENERATED_(A2)
  6
Continuous
 62
     7
100
AcDbLine
 10
153.9719792394
 20
241.02914248
 30
0.0
 11
154.5567594922
 21
241.3292018138
 31
0.0
  0
LINE
  5
15A
330
121
100
AcDbEntity
  8
$DDT_AUDIT_GENERATED_(A2)
  6
Continuous
 62
     7
100
AcDbLine
 10
138.2510424014
 20
243.2593324151
 30
0.0
 11
138.3153631869
 21
242.7395117501
 31
0.0
  0
LINE
  5
15B
330
121
100
AcDbEntity
  8
$DDT_AUDIT_GENERATED_(A2)
  6
Continuous
 62
     7
100
AcDbLine
 10
157.4601330272
 20
242.7393199597
 30
0.0
 11
157.5248518063
 21
243.2623570629
 31
0.0
  0
LINE
  5
15C
330
121
100
AcDbEntity
  8
$DDT_AUDIT_GENERATED_(A2)
  6
Continuous
 62
     7
100
AcDbLine
 10
138.6626180167
 20
242.4441355678
 30
0.0
 11
141.2882894229
 21
241.2838387076
 31
0.0
  0
LINE
  5
15D
330
121
100
AcDbEntity
  8
$DDT_AUDIT_GENERATED_(A2)
  6
Continuous
 62
     7
100
AcDbLine
 10
154.4884047419
 20
241.2843501232
 30
0.0
 11
157.114623752
 21
242.4448768652
 31
0.0
  0
ARC
  5
15E
330
121
100
AcDbEntity
  8
$DDT_AUDIT_GENERATED_(AE)
  6
Continuous
 62
     7
100
AcDbCircle
 10
152.0964339667
 20
248.368830338
 30
0.0
 40
68.05709877908865
100
AcDbArc
 50
279.7229100674
 51
283.7110391939
  0
SPLINE
  5
15F
330
121
100
AcDbEntity
  8
$DDT_AUDIT_GENERATED_(AE)
  6
Continuous
 62
     7
100
AcDbSpline
210
0.0
220
0.0
230
1.0
 70
     8
 71
     3
 72
    10
 73
     6
 74
     0
 42
0.0000000001656256
 43
0.0000000001
 40
0.0
 40
0.0
 40
0.0
 40
0.0
 40
0.0625
 40
0.0625
 40
0.0674882348481383
 40
0.0674882348481383
 40
0.0674882348481383
 40
0.0674882348481383
 10
168.2276902847281
 20
182.2511226960619
 30
0.0
 10
169.7570152943392
 20
182.6010030312363
 30
0.0
 10
171.0107395581396
 20
182.9415607566109
 30
0.0
 10
172.0158425706859
 20
183.2665383566923
 30
0.0
 10
172.0881974613323
 20
183.2903531951152
 30
0.0
 10
172.1585936799141
 20
183.3139514291272
 30
0.0
  0
SPLINE
  5
160
330
121
100
AcDbEntity
  8
$DDT_AUDIT_GENERATED_(AE)
  6
Continuous
 62
     7
100
AcDbSpline
210
0.0
220
0.0
230
1.0
 70
     8
 71
     3
 72
    10
 73
     6
 74
     0
 42
0.0000000001713543
 43
0.0000000001
 40
0.9243660496634513
 40
0.9243660496634513
 40
0.9243660496634513
 40
0.9243660496634513
 40
0.9375
 40
0.9375
 40
1.0
 40
1.0
 40
1.0
 40
1.0
 10
123.2957816080415
 20
183.4232198181317
 30
0.0
 10
123.4658730639878
 20
183.3625430372876
 30
0.0
 10
123.6501033223671
 20
183.3001503484187
 30
0.0
 10
124.7865961619965
 20
182.9335120202064
 30
0.0
 10
126.0180936629892
 20
182.5995679171072
 30
0.0
 10
127.5472614257574
 20
182.2498294589629
 30
0.0
  0
ARC
  5
161
330
121
100
AcDbEntity
  8
$DDT_AUDIT_GENERATED_(AE)
  6
Continuous
 62
     7
100
AcDbCircle
 10
143.6380734131
 20
248.2060148919
 30
0.0
 40
67.89059306905669
100
AcDbArc
 50
256.2898106166
 51
260.2877659784
  0
SPLINE
  5
162
330
121
100
AcDbEntity
  8
$DDT_AUDIT_GENERATED_(AE)
  6
Continuous
 62
     7
100
AcDbSpline
210
0.0
220
0.0
230
1.0
 70
     8
 71
     3
 72
     8
 73
     4
 74
     0
 42
0.0000000012060009
 43
0.0000000001
 40
0.1512728996205905
 40
0.1512728996205905
 40
0.1512728996205905
 40
0.1512728996205905
 40
0.1518679584495457
 40
0.1518679584495457
 40
0.1518679584495457
 40
0.1518679584495457
 10
120.8895006371153
 20
185.4326864704109
 30
0.0
 10
120.8895078962373
 20
185.4343350015922
 30
0.0
 10
120.88954712276
 20
185.4359790428225
 30
0.0
 10
120.8896183145783
 20
185.4376185907234
 30
0.0
  0
ELLIPSE
  5
163
330
121
100
AcDbEntity
  8
$DDT_AUDIT_GENERATED_(AE)
  6
Continuous
 62
     7
100
AcDbEllipse
 10
147.8877668616
 20
216.0132905037
 30
0.0
 11
0.0
 21
26.99698848856123
 31
0.0
210
0.0
220
0.0
230
1.0
 40
1.0
 41
1.559542904713472
 42
1.570796326794897
  0
ELLIPSE
  5
164
330
121
100
AcDbEntity
  8
$DDT_AUDIT_GENERATED_(AE)
  6
Continuous
 62
     7
100
AcDbEllipse
 10
173.883220775
 20
216.3170925979
 30
0.0
 11
-0.9995523813739436
 21
-0.02991716713983406
 31
0.0
210
0.0
220
0.0
230
0.9999999999999998
 40
0.8479414469
 41
3.106309387959671
 42
4.250959873327344
  0
LINE
  5
165
330
121
100
AcDbEntity
  8
$DDT_AUDIT_GENERATED_(AE)
  6
Continuous
 62
     7
100
AcDbLine
 10
173.5169268871
 20
216.3735954606
 30
0.0
 11
173.717289526
 21
216.8220632147
 31
0.0
  0
ELLIPSE
  5
166
330
121
100
AcDbEntity
  8
$DDT_AUDIT_GENERATED_(AE)
  6
Continuous
 62
     7
100
AcDbEllipse
 10
147.8877668616
 20
219.8921428323
 30
0.0
 11
-26.47528135923027
 21
4.163336342344337E-14
 31
0.0
210
0.0
220
0.0
230
1.0
 40
0.5299192642
 41
0.2534979767174543
 42
0.5365349844276754
  0
ELLIPSE
  5
167
330
121
100
AcDbEntity
  8
$DDT_AUDIT_GENERATED_(AE)
  6
Continuous
 62
     7
100
AcDbEllipse
 10
147.8877668616
 20
219.8921428323
 30
0.0
 11
-26.47528135923027
 21
4.163336342344337E-14
 31
0.0
210
0.0
220
0.0
230
1.0
 40
0.5299192642
 41
2.664793755078567
 42
2.888094676873543
  0
LINE
  5
168
330
121
100
AcDbEntity
  8
$DDT_AUDIT_GENERATED_(AE)
  6
Continuous
 62
     7
100
AcDbLine
 10
122.0586240493
 20
216.8212129991
 30
0.0
 11
122.2586068361
 21
216.3735954606
 31
0.0
  0
ELLIPSE
  5
169
330
121
100
AcDbEntity
  8
$DDT_AUDIT_GENERATED_(AE)
  6
Continuous
 62
     7
100
AcDbEllipse
 10
174.2202709306
 20
217.098273677
 30
0.0
 11
2.629840789580840E-12
 21
-0.3999999999875006
 31
0.0
210
0.0
220
0.0
230
1.0
 40
0.998251257
 41
2.458679080942282
 42
3.141592653589793
  0
ARC
  5
16A
330
121
100
AcDbEntity
  8
$DDT_AUDIT_GENERATED_(AE)
  6
Continuous
 62
     7
100
AcDbCircle
 10
147.8387712922
 20
277.7265582498
 30
0.0
 40
97.6832308382165
100
AcDbArc
 50
260.1976413632
 51
279.9908180228
  0
SPLINE
  5
16B
330
121
100
AcDbEntity
  8
$DDT_AUDIT_GENERATED_(AE)
  6
Continuous
 62
     7
100
AcDbSpline
210
0.0
220
0.0
230
1.0
 70
     8
 71
     3
 72
    16
 73
    12
 74
     0
 42
0.0000000031278548
 43
0.0000000001
 40
0.0
 40
0.0
 40
0.0
 40
0.0
 40
0.0019069601794509
 40
0.0750747259988054
 40
0.1472397790279552
 40
0.2241273451811526
 40
0.3135214496937524
 40
0.4275956715700845
 40
0.5897407827532544
 40
0.8119985456963693
 40
1.0
 40
1.0
 40
1.0
 40
1.0
 10
120.8935522812105
 20
185.4373777895237
 30
0.0
 10
120.8929737203371
 20
185.4336580794699
 30
0.0
 10
120.8733402946236
 20
185.3073812813093
 30
0.0
 10
120.9419586986134
 20
185.043890311382
 30
0.0
 10
121.0672345514259
 20
184.7434636926705
 30
0.0
 10
121.2424969507485
 20
184.5046575249857
 30
0.0
 10
121.442687651262
 20
184.3064701120348
 30
0.0
 10
121.6976077572998
 20
184.1160039264972
 30
0.0
 10
122.052700659667
 20
183.9104155160758
 30
0.0
 10
122.5279101684489
 20
183.6917611280408
 30
0.0
 10
122.914857784876
 20
183.5474312430095
 30
0.0
 10
123.1262658868329
 20
183.4698175676817
 30
0.0
  0
SPLINE
  5
16C
330
121
100
AcDbEntity
  8
$DDT_AUDIT_GENERATED_(AE)
  6
Continuous
 62
     7
100
AcDbSpline
210
0.0
220
0.0
230
1.0
 70
     8
 71
     3
 72
    16
 73
    12
 74
     0
 42
0.0000000027795539
 43
0.0000000001
 40
0.0
 40
0.0
 40
0.0
 40
0.0
 40
0.0430379176875462
 40
0.2286994689890422
 40
0.420824519345526
 40
0.6285037076594636
 40
0.7440864454528722
 40
0.8236978183152894
 40
0.8946569174624128
 40
0.9607988018082937
 40
1.0
 40
1.0
 40
1.0
 40
1.0
 10
172.2676710864768
 20
183.338822218561
 30
0.0
 10
172.3318943317373
 20
183.3593486234452
 30
0.0
 10
172.6234334324585
 20
183.4527640805157
 30
0.0
 10
173.1016706872467
 20
183.6330053461371
 30
0.0
 10
173.6619365166257
 20
183.875051694931
 30
0.0
 10
174.0730156612987
 20
184.1029296292786
 30
0.0
 10
174.3847450701952
 20
184.3452903996767
 30
0.0
 10
174.6007901428006
 20
184.5791972132177
 30
0.0
 10
174.7655768669561
 20
184.8487404806746
 30
0.0
 10
174.8764678573285
 20
185.153449926475
 30
0.0
 10
174.8747980724049
 20
185.3471659000319
 30
0.0
 10
174.8737312808623
 20
185.4327083147257
 30
0.0
  0
LINE
  5
16D
330
121
100
AcDbEntity
  8
$DDT_AUDIT_GENERATED_(AE)
  6
Continuous
 62
     7
100
AcDbLine
 10
120.8877668616
 20
216.0132905037
 30
0.0
 11
120.8877668616
 21
185.4329623829
 31
0.0
  0
LINE
  5
16E
330
121
100
AcDbEntity
  8
$DDT_AUDIT_GENERATED_(AE)
  6
Continuous
 62
     7
100
AcDbLine
 10
174.8877668616
 20
185.4317731627
 30
0.0
 11
174.8877668616
 21
216.0132905037
 31
0.0
  0
SPLINE
  5
16F
330
121
100
AcDbEntity
  8
$DDT_AUDIT_GENERATED_(AE)
  6
Continuous
 62
     7
100
AcDbSpline
210
0.0
220
0.0
230
1.0
 70
     8
 71
     3
 72
    14
 73
    10
 74
     0
 42
0.0000000087489795
 43
0.0000000001
 40
0.0
 40
0.0
 40
0.0
 40
0.0
 40
0.1261408804702302
 40
0.2745370927596469
 40
0.4078461646008159
 40
0.5292655920457409
 40
0.6594616454233737
 40
0.8736657996917315
 40
1.0
 40
1.0
 40
1.0
 40
1.0
 10
121.3015130960707
 20
217.401810192072
 30
0.0
 10
121.24750389544
 20
217.3569437363165
 30
0.0
 10
121.148545346476
 20
217.2728626314218
 30
0.0
 10
121.0352041210578
 20
217.0970538917836
 30
0.0
 10
120.9633946201338
 20
216.9224726110807
 30
0.0
 10
120.9281264581715
 20
216.7747279732777
 30
0.0
 10
120.909008619503
 20
216.6396941669857
 30
0.0
 10
120.8992265024635
 20
216.5171321156058
 30
0.0
 10
120.895908466525
 20
216.4238837940715
 30
0.0
 10
120.8946521622451
 20
216.3834672848142
 30
0.0
  0
SPLINE
  5
170
330
121
100
AcDbEntity
  8
$DDT_AUDIT_GENERATED_(AE)
  6
Continuous
 62
     7
100
AcDbSpline
210
0.0
220
0.0
230
1.0
 70
     8
 71
     3
 72
    13
 73
     9
 74
     0
 42
0.0000000088062169
 43
0.0000000001
 40
0.0
 40
0.0
 40
0.0
 40
0.0
 40
0.0972903794753058
 40
0.3425450942699558
 40
0.5382876163141522
 40
0.6972407491251001
 40
0.8602673908942545
 40
1.0
 40
1.0
 40
1.0
 40
1.0
 10
174.8807028781556
 20
216.3917155127545
 30
0.0
 10
174.8797358408966
 20
216.4225978856479
 30
0.0
 10
174.876461859442
 20
216.5162269230555
 30
0.0
 10
174.8657420164668
 20
216.6516184169249
 30
0.0
 10
174.8386490833394
 20
216.8365784966226
 30
0.0
 10
174.7616473197791
 20
217.0589572064892
 30
0.0
 10
174.6406061790125
 20
217.259108359704
 30
0.0
 10
174.5326405779488
 20
217.3513197039989
 30
0.0
 10
174.473488572406
 20
217.4006257152032
 30
0.0
  0
LINE
  5
171
330
121
100
AcDbEntity
  8
$DDT_AUDIT_GENERATED_(AE)
  6
Continuous
 62
     7
100
AcDbLine
 10
174.8825873292
 20
216.3458603613
 30
0.0
 11
174.8813209289
 21
216.3849261403
 31
0.0
  0
LINE
  5
172
330
121
100
AcDbEntity
  8
$DDT_AUDIT_GENERATED_(AE)
  6
Continuous
 62
     7
100
AcDbLine
 10
174.8855422337
 20
216.1423712648
 30
0.0
 11
174.8827731564
 21
216.347009765
 31
0.0
  0
LINE
  5
173
330
121
100
AcDbEntity
  8
$DDT_AUDIT_GENERATED_(AE)
  6
Continuous
 62
     7
100
AcDbLine
 10
174.2202709306
 20
217.498273677
 30
0.0
 11
172.1616310912
 21
217.498273677
 31
0.0
  0
LINE
  5
174
330
121
100
AcDbEntity
  8
$DDT_AUDIT_GENERATED_(AE)
  6
Continuous
 62
     7
100
AcDbLine
 10
123.613902632
 20
217.4982736769
 30
0.0
 11
121.5552627926
 21
217.4982736769
 31
0.0
  0
ARC
  5
175
330
121
100
AcDbEntity
  8
$DDT_AUDIT_GENERATED_(AE)
  6
Continuous
 62
     7
100
AcDbCircle
 10
121.5273620257
 20
217.1843498315
 30
0.0
 40
0.3116525100015381
100
AcDbArc
 50
86.0262202005
 51
136.0882557341
  0
SPLINE
  5
176
330
121
100
AcDbEntity
  8
$DDT_AUDIT_GENERATED_(AE)
  6
Continuous
 62
     7
100
AcDbSpline
210
0.0
220
0.0
230
1.0
 70
     8
 71
     3
 72
    40
 73
    36
 74
     0
 42
0.0000000002015909
 43
0.0000000001
 40
0.0
 40
0.0
 40
0.0
 40
0.0
 40
0.0079239736437611
 40
0.0397628681131938
 40
0.0715689870232959
 40
0.1033603211993252
 40
0.135148381579636
 40
0.1669391623096897
 40
0.1987378437246541
 40
0.230547044401062
 40
0.2623676958077451
 40
0.2941996641049319
 40
0.3260421711762507
 40
0.3578940692891319
 40
0.3897540139592502
 40
0.4216205682074695
 40
0.4534922616246966
 40
0.485367620232721
 40
0.5172451778516919
 40
0.5491234761106747
 40
0.581000773698439
 40
0.612875403088043
 40
0.6447458760889109
 40
0.6766106781362913
 40
0.7084682699708471
 40
0.7403171021377689
 40
0.7721556502092489
 40
0.8039824827283492
 40
0.8357963797387816
 40
0.867596527910403
 40
0.8993828287454309
 40
0.9311563679814228
 40
0.9629201028547196
 40
0.9946798184625535
 40
1.0
 40
1.0
 40
1.0
 40
1.0
 10
171.448419098056
 20
213.5314704323526
 30
0.0
 10
171.3777327611281
 20
213.4545179173194
 30
0.0
 10
171.0733313804274
 20
213.1242594618542
 30
0.0
 10
170.3658355255826
 20
212.4999098370101
 30
0.0
 10
169.3799056005999
 20
211.7236787578922
 30
0.0
 10
168.2779112586165
 20
210.9772195065764
 30
0.0
 10
167.0857887904926
 20
210.272397641594
 30
0.0
 10
165.803220352006
 20
209.6104129026048
 30
0.0
 10
164.4375311607621
 20
208.9951118313963
 30
0.0
 10
162.9945451441959
 20
208.4293670469307
 30
0.0
 10
161.4810145393585
 20
207.9160238346596
 30
0.0
 10
159.9039225890815
 20
207.4576180511577
 30
0.0
 10
158.2706139365633
 20
207.0564268687598
 30
0.0
 10
156.5887041073736
 20
206.7144371052961
 30
0.0
 10
154.8660496371421
 20
206.4333405064699
 30
0.0
 10
153.1107032734732
 20
206.2145252751781
 30
0.0
 10
151.3308742384253
 20
206.0590711627631
 30
0.0
 10
149.5348879068319
 20
205.9677455838803
 30
0.0
 10
147.7311461855788
 20
205.9410010840206
 30
0.0
 10
145.9280934430698
 20
205.9789737499704
 30
0.0
 10
144.1341756553868
 20
206.0814817705628
 30
0.0
 10
142.3577971620426
 20
206.2480255313444
 30
0.0
 10
140.6072763374588
 20
206.4777899687969
 30
0.0
 10
138.8908082446333
 20
206.7696476420372
 30
0.0
 10
137.2164306654527
 20
207.1221613390848
 30
0.0
 10
135.5919813525971
 20
207.5335894120767
 30
0.0
 10
134.0250734040788
 20
208.0018862036041
 30
0.0
 10
132.5230013963949
 20
208.5247259057967
 30
0.0
 10
131.0929027090609
 20
209.0994454928219
 30
0.0
 10
129.7409620863895
 20
209.7232985194048
 30
0.0
 10
128.4751776474035
 20
210.39256295128
 30
0.0
 10
127.2948351107503
 20
211.1059439091465
 30
0.0
 10
126.229552417586
 20
211.8519883185535
 30
0.0
 10
125.4809558812094
 20
212.4330038352446
 30
0.0
 10
125.1622591576428
 20
212.7334156051308
 30
0.0
 10
125.109051282813
 20
212.7836746739044
 30
0.0
  0
LINE
  5
177
330
121
100
AcDbEntity
  8
$DDT_AUDIT_GENERATED_(B9)
  6
Continuous
 62
     7
100
AcDbLine
 10
231.2877668616
 20
245.8237556809
 30
0.0
 11
64.4877668616
 21
245.8237556809
 31
0.0
  0
LINE
  5
178
330
121
100
AcDbEntity
  8
$DDT_AUDIT_GENERATED_(B9)
  6
Continuous
 62
     7
100
AcDbLine
 10
62.8877668616
 20
253.1237556809
 30
0.0
 11
232.8877668616
 21
253.1237556809
 31
0.0
  0
SPLINE
  5
179
330
121
100
AcDbEntity
  8
$DDT_AUDIT_GENERATED_(B9)
  6
Continuous
 62
     7
100
AcDbSpline
210
0.0
220
0.0
230
1.0
 70
     8
 71
     3
 72
    18
 73
    14
 74
     0
 42
0.0000000002827399
 43
0.0000000001
 40
0.1370808032501803
 40
0.1370808032501803
 40
0.1370808032501803
 40
0.1370808032501803
 40
0.2499999999999992
 40
0.2499999999999992
 40
0.3124999999999992
 40
0.3124999999999992
 40
0.3749999999999992
 40
0.3749999999999992
 40
0.4374999999999992
 40
0.4374999999999992
 40
0.4999999999999992
 40
0.4999999999999992
 40
0.557318125976037
 40
0.557318125976037
 40
0.557318125976037
 40
0.557318125976037
 10
104.9301573450829
 20
242.1090163021422
 30
0.0
 10
105.430033790143
 20
242.107771642708
 30
0.0
 10
106.5670147715659
 20
242.0583700577261
 30
0.0
 10
108.9081165665862
 20
241.925050606037
 30
0.0
 10
109.8537220081541
 20
241.8667430309383
 30
0.0
 10
111.8232718609969
 20
241.737805548667
 30
0.0
 10
112.8342182437819
 20
241.6681082294214
 30
0.0
 10
114.8131684823006
 20
241.5250773658789
 30
0.0
 10
115.7450248262138
 20
241.4543648208802
 30
0.0
 10
117.4084296296253
 20
241.3212172307407
 30
0.0
 10
118.1278859869091
 20
241.2596704671925
 30
0.0
 10
119.1874753409537
 20
241.1599485835588
 30
0.0
 10
119.5497269848196
 20
241.1203928881283
 30
0.0
 10
119.7551424133212
 20
241.0906206624024
 30
0.0
  0
SPLINE
  5
17A
330
121
100
AcDbEntity
  8
$DDT_AUDIT_GENERATED_(B9)
  6
Continuous
 62
     7
100
AcDbSpline
210
0.0
220
0.0
230
1.0
 70
     8
 71
     3
 72
    16
 73
    12
 74
     0
 42
0.0000000002676622
 43
0.0000000001
 40
0.6282233661988424
 40
0.6282233661988424
 40
0.6282233661988424
 40
0.6282233661988424
 40
0.6874999999999992
 40
0.6874999999999992
 40
0.7499999999999993
 40
0.7499999999999993
 40
0.8124999999999994
 40
0.8124999999999994
 40
0.8749999999999997
 40
0.8749999999999997
 40
1.0
 40
1.0
 40
1.0
 40
1.0
 10
119.7744110848011
 20
241.0281357795854
 30
0.0
 10
119.5670354361426
 20
241.0249043869717
 30
0.0
 10
119.1841321526743
 20
241.0336789730533
 30
0.0
 10
118.089999421846
 20
241.0756487328237
 30
0.0
 10
117.3699095942018
 20
241.1097357183757
 30
0.0
 10
115.6826379835744
 20
241.2006777268274
 30
0.0
 10
114.7442092744644
 20
241.2559966885609
 30
0.0
 10
112.7741721050935
 20
241.381023101081
 30
0.0
 10
111.7539444206668
 20
241.4500871889304
 30
0.0
 10
108.8209062202622
 20
241.6610589481376
 30
0.0
 10
107.034496633606
 20
241.8073318553922
 30
0.0
 10
105.9157420769813
 20
241.9176820543266
 30
0.0
  0
SPLINE
  5
17B
330
121
100
AcDbEntity
  8
$DDT_AUDIT_GENERATED_(B9)
  6
Continuous
 62
     7
100
AcDbSpline
210
0.0
220
0.0
230
1.0
 70
     8
 71
     3
 72
    18
 73
    14
 74
     0
 42
0.0000000002705924
 43
0.0000000001
 40
0.0
 40
0.0
 40
0.0
 40
0.0
 40
0.0625000000000001
 40
0.0625000000000001
 40
0.1250000000000001
 40
0.1250000000000001
 40
0.2500000000000002
 40
0.2500000000000002
 40
0.3125000000000001
 40
0.3125000000000001
 40
0.3749999999999999
 40
0.3749999999999999
 40
0.3773436878912838
 40
0.3773436878912838
 40
0.3773436878912838
 40
0.3773436878912838
 10
189.8652652788645
 20
241.9182221851427
 30
0.0
 10
189.3069644692376
 20
241.8631062934531
 30
0.0
 10
188.5939541739906
 20
241.799871092661
 30
0.0
 10
186.93207899863
 20
241.6638368040012
 30
0.0
 10
185.9914287893427
 20
241.5918201522438
 30
0.0
 10
183.0597483679605
 20
241.3808164384632
 30
0.0
 10
180.9364704879246
 20
241.246279636993
 30
0.0
 10
178.4327010778565
 20
241.1111291187855
 30
0.0
 10
177.7016319471499
 20
241.076374202764
 30
0.0
 10
176.5740865518461
 20
241.0329094366641
 30
0.0
 10
176.1769331322099
 20
241.0240265150295
 30
0.0
 10
175.9657308442547
 20
241.0288376480154
 30
0.0
 10
175.9583767548619
 20
241.0290303033655
 30
0.0
 10
175.9513020541766
 20
241.0292416763018
 30
0.0
  0
SPLINE
  5
17C
330
121
100
AcDbEntity
  8
$DDT_AUDIT_GENERATED_(B9)
  6
Continuous
 62
     7
100
AcDbSpline
210
0.0
220
0.0
230
1.0
 70
     8
 71
     3
 72
    16
 73
    12
 74
     0
 42
0.0000000002834501
 43
0.0000000001
 40
0.4420488735935522
 40
0.4420488735935522
 40
0.4420488735935522
 40
0.4420488735935522
 40
0.4999999999999997
 40
0.4999999999999997
 40
0.6249999999999996
 40
0.6249999999999996
 40
0.6874999999999997
 40
0.6874999999999997
 40
0.7499999999999999
 40
0.7499999999999999
 40
0.8642828481287336
 40
0.8642828481287336
 40
0.8642828481287336
 40
0.8642828481287336
 10
176.0011556064982
 20
241.088580367657
 30
0.0
 10
176.2048339496356
 20
241.1184579412054
 30
0.0
 10
176.5752144686227
 20
241.1586812234097
 30
0.0
 10
178.1891525172537
 20
241.3107583070787
 30
0.0
 10
179.9799783113198
 20
241.4539851462744
 30
0.0
 10
182.9083891183633
 20
241.6657723199139
 30
0.0
 10
183.9309069539023
 20
241.7363519076335
 30
0.0
 10
185.8972155813963
 20
241.8651871804508
 30
0.0
 10
186.8394413722365
 20
241.923390733917
 30
0.0
 10
189.2251474271462
 20
242.0594369508187
 30
0.0
 10
190.3662945917468
 20
242.1088017559772
 30
0.0
 10
190.8591307375794
 20
242.1090583613132
 30
0.0
  0
ARC
  5
17D
330
121
100
AcDbEntity
  8
$DDT_AUDIT_GENERATED_(B9)
  6
Continuous
 62
     7
100
AcDbCircle
 10
64.4877668616
 20
247.4237556809
 30
0.0
 40
1.600000000000004
100
AcDbArc
 50
180.0
 51
270.0
  0
ARC
  5
17E
330
121
100
AcDbEntity
  8
$DDT_AUDIT_GENERATED_(B9)
  6
Continuous
 62
     7
100
AcDbCircle
 10
231.2877668616
 20
247.4237556809
 30
0.0
 40
1.6
100
AcDbArc
 50
270.0
 51
0.0
  0
LINE
  5
17F
330
121
100
AcDbEntity
  8
$DDT_AUDIT_GENERATED_(B9)
  6
Continuous
 62
     7
100
AcDbLine
 10
62.8877668616
 20
253.1237556809
 30
0.0
 11
62.8877668616
 21
247.4237556809
 31
0.0
  0
LINE
  5
180
330
121
100
AcDbEntity
  8
$DDT_AUDIT_GENERATED_(B9)
  6
Continuous
 62
     7
100
AcDbLine
 10
232.8877668616
 20
247.4237556809
 30
0.0
 11
232.8877668616
 21
253.1237556809
 31
0.0
  0
ARC
  5
181
330
121
100
AcDbEntity
  8
$DDT_AUDIT_GENERATED_(B9)
  6
Continuous
 62
     7
100
AcDbCircle
 10
142.6341632318
 20
690.3858325536
 30
0.0
 40
450.0000000000001
100
AcDbArc
 50
261.0836681881
 51
266.9691194101
  0
ARC
  5
182
330
121
100
AcDbEntity
  8
$DDT_AUDIT_GENERATED_(B9)
  6
Continuous
 62
     7
100
AcDbCircle
 10
153.1413704914
 20
690.3858325536
 30
0.0
 40
450.0000000000001
100
AcDbArc
 50
273.0308805899
 51
278.9163318119
  0
ARC
  5
183
330
121
100
AcDbEntity
  8
$DDT_AUDIT_GENERATED_(B9)
  6
Continuous
 62
     7
100
AcDbCircle
 10
176.8501518826
 20
242.6130624068
 30
0.0
 40
1.600000000000001
100
AcDbArc
 50
270.0
 51
273.0308805899
  0
ARC
  5
184
330
121
100
AcDbEntity
  8
$DDT_AUDIT_GENERATED_(B9)
  6
Continuous
 62
     7
100
AcDbCircle
 10
118.9253818406
 20
242.6130624068
 30
0.0
 40
1.600000000000003
100
AcDbArc
 50
266.9691194101
 51
270.0
  0
LINE
  5
185
330
121
100
AcDbEntity
  8
$DDT_AUDIT_GENERATED_(B9)
  6
Continuous
 62
     7
100
AcDbLine
 10
118.9253818406
 20
241.0130624068
 30
0.0
 11
141.8877668616
 21
241.0130624068
 31
0.0
  0
LINE
  5
186
330
121
100
AcDbEntity
  8
$DDT_AUDIT_GENERATED_(B9)
  6
Continuous
 62
     7
100
AcDbLine
 10
153.9674190423
 20
241.0130624068
 30
0.0
 11
176.8501518826
 21
241.0130624068
 31
0.0
  0
SPLINE
  5
187
330
121
100
AcDbEntity
  8
$DDT_AUDIT_GENERATED_(B9)
  6
Continuous
 62
     7
100
AcDbSpline
210
0.0
220
0.0
230
1.0
 70
     8
 71
     3
 72
    34
 73
    30
 74
     0
 42
0.0000000004653395
 43
0.0000000001
 40
0.0895114464162541
 40
0.0895114464162541
 40
0.0895114464162541
 40
0.0895114464162541
 40
0.1054347772877198
 40
0.1271420701713791
 40
0.1524670122879107
 40
0.1812261190685663
 40
0.212346696834923
 40
0.2447957182911998
 40
0.2782333327974743
 40
0.3123866308673959
 40
0.3466641017047798
 40
0.3812639335842074
 40
0.4160666667918003
 40
0.4506925925688003
 40
0.4855618056345179
 40
0.5204544332081096
 40
0.5551204772422449
 40
0.5900250597471985
 40
0.6248391735636106
 40
0.6593884101348031
 40
0.694157924218556
 40
0.7286983761353844
 40
0.7629950898034482
 40
0.7966762865297952
 40
0.8294554481275017
 40
0.8577556882814611
 40
0.8826051651871986
 40
0.9048381502362073
 40
0.9111485150634077
 40
0.9111485150634077
 40
0.9111485150634077
 40
0.9111485150634077
 10
139.1073043469228
 20
243.6435408815354
 30
0.0
 10
139.1075045978026
 20
243.6435926617021
 30
0.0
 10
139.1327277786689
 20
243.6546530320507
 30
0.0
 10
139.2566425086023
 20
243.6957768690329
 30
0.0
 10
139.4951650903193
 20
243.7580465227409
 30
0.0
 10
139.8567974748625
 20
243.8335487489227
 30
0.0
 10
140.3461928080106
 20
243.9152406346203
 30
0.0
 10
140.9576506430072
 20
243.9974772549841
 30
0.0
 10
141.674683000882
 20
244.0757641421592
 30
0.0
 10
142.4855697125559
 20
244.14678087767
 30
0.0
 10
143.3778675730731
 20
244.2082541559012
 30
0.0
 10
144.3334082249751
 20
244.2589886746345
 30
0.0
 10
145.3390812491582
 20
244.2975934410275
 30
0.0
 10
146.3813575556884
 20
244.3231154579977
 30
0.0
 10
147.4437559079502
 20
244.3356156897986
 30
0.0
 10
148.5127050762937
 20
244.3345432282532
 30
0.0
 10
149.5734442177292
 20
244.319678043845
 30
0.0
 10
150.6116779239443
 20
244.2918170969718
 30
0.0
 10
151.6129960606008
 20
244.2510902241948
 30
0.0
 10
152.5628985108654
 20
244.1980059284131
 30
0.0
 10
153.4500544880495
 20
244.1340004720887
 30
0.0
 10
154.2602434734144
 20
244.0600074844168
 30
0.0
 10
154.9767534640268
 20
243.978115427907
 30
0.0
 10
155.5854219067039
 20
243.8914554382565
 30
0.0
 10
156.056785977586
 20
243.8067986403086
 30
0.0
 10
156.3890486337448
 20
243.7317283933175
 30
0.0
 10
156.5908711077192
 20
243.6737827862418
 30
0.0
 10
156.6590365469057
 20
243.6475806646727
 30
0.0
 10
156.6660711318013
 20
243.644258540756
 30
0.0
 10
156.6660554278155
 20
243.6442518605962
 30
0.0
  0
ARC
  5
188
330
121
100
AcDbEntity
  8
$DDT_AUDIT_GENERATED_(B9)
  6
Continuous
 62
     7
100
AcDbCircle
 10
119.9607996172
 20
242.5069759706
 30
0.0
 40
1.441020929602131
100
AcDbArc
 50
256.1154945852
 51
258.1229585506
  0
SPLINE
  5
189
330
121
100
AcDbEntity
  8
$DDT_AUDIT_GENERATED_(B9)
  6
Continuous
 62
     7
100
AcDbSpline
210
0.0
220
0.0
230
1.0
 70
     8
 71
     3
 72
    10
 73
     6
 74
     0
 42
0.0000000282757698
 43
0.0000000001
 40
0.6668350050591403
 40
0.6668350050591403
 40
0.6668350050591403
 40
0.6668350050591403
 40
0.6961207727911856
 40
0.8779290594998524
 40
1.0
 40
1.0
 40
1.0
 40
1.0
 10
104.9513820839847
 20
242.101548067672
 30
0.0
 10
104.9513681438562
 20
242.1015558851173
 30
0.0
 10
104.9539760968764
 20
242.1017725884235
 30
0.0
 10
104.9830738257114
 20
242.1029409208194
 30
0.0
 10
105.0408325068627
 20
242.1026343117931
 30
0.0
 10
105.0691457256581
 20
242.1025233807412
 30
0.0
  0
SPLINE
  5
18A
330
121
100
AcDbEntity
  8
$DDT_AUDIT_GENERATED_(B9)
  6
Continuous
 62
     7
100
AcDbSpline
210
0.0
220
0.0
230
1.0
 70
     8
 71
     3
 72
     9
 73
     5
 74
     0
 42
0.0000000290769013
 43
0.0000000001
 40
0.0
 40
0.0
 40
0.0
 40
0.0
 40
0.1862839712059994
 40
0.3246746275008
 40
0.3246746275008
 40
0.3246746275008
 40
0.3246746275008
 10
190.7138627041569
 20
242.1026204219536
 30
0.0
 10
190.7526772932213
 20
242.1025006377071
 30
0.0
 10
190.8059774584709
 20
242.1025718869089
 30
0.0
 10
190.8250181802968
 20
242.1015777187994
 30
0.0
 10
190.8245391617056
 20
242.101580165491
 30
0.0
  0
ARC
  5
18B
330
121
100
AcDbEntity
  8
$DDT_AUDIT_GENERATED_(B9)
  6
Continuous
 62
     7
100
AcDbCircle
 10
175.8092637848
 20
242.5199915063
 30
0.0
 40
1.454834216795684
100
AcDbArc
 50
281.9606758506
 51
283.8725505209
  0
ENDBLK
  5
18D
330
121
100
AcDbEntity
  8
0
100
AcDbBlockEnd
  0
ENDSEC
  0
SECTION
  2
ENTITIES
  0
INSERT
  5
5F
330
1F
100
AcDbEntity
  8
Default
100
AcDbBlockReference
  2
SEANNOT_GROUP
 10
0.0
 20
0.0
 30
0.0
  0
INSERT
  5
6A
330
1F
100
AcDbEntity
  8
Default
100
AcDbBlockReference
  2
SEANNOT_GROUP1
 10
0.0
 20
0.0
 30
0.0
  0
INSERT
  5
70
330
1F
100
AcDbEntity
  8
Default
100
AcDbBlockReference
  2
SEANNOT_GROUP2
 10
0.0
 20
0.0
 30
0.0
  0
INSERT
  5
76
330
1F
100
AcDbEntity
  8
Default
100
AcDbBlockReference
  2
SEANNOT_GROUP3
 10
0.0
 20
0.0
 30
0.0
  0
INSERT
  5
80
330
1F
100
AcDbEntity
  8
Default
100
AcDbBlockReference
  2
SEANNOT_GROUP4
 10
0.0
 20
0.0
 30
0.0
  0
INSERT
  5
8A
330
1F
100
AcDbEntity
  8
Default
100
AcDbBlockReference
  2
SEANNOT_GROUP5
 10
0.0
 20
0.0
 30
0.0
  0
INSERT
  5
94
330
1F
100
AcDbEntity
  8
Default
100
AcDbBlockReference
  2
SEANNOT_GROUP6
 10
0.0
 20
0.0
 30
0.0
  0
INSERT
  5
9A
330
1F
100
AcDbEntity
  8
Default
100
AcDbBlockReference
  2
SE
 10
0.0
 20
0.0
 30
0.0
  0
INSERT
  5
C1
330
1F
100
AcDbEntity
  8
Default
100
AcDbBlockReference
  2
SE1
 10
0.0
 20
0.0
 30
0.0
  0
INSERT
  5
122
330
1F
100
AcDbEntity
  8
Default
100
AcDbBlockReference
  2
SE2
 10
0.0
 20
0.0
 30
0.0
  0
TEXT
  5
18F
330
1F
100
AcDbEntity
  8
Default
  6
Continuous
 62
     7
100
AcDbText
 10
5.9362635081
 20
53.4225120485
 30
0.0
 40
10.0
  1
Grohe AG^J
  7
SEACAD_seiso_ttf
 11
5.9362635081
 21
63.4225120485
 31
0.0
100
AcDbText
 73
     3
  0
TEXT
  5
190
330
1F
100
AcDbEntity
  8
Default
  6
Continuous
 62
     7
100
AcDbText
 10
5.9362635081
 20
37.0588756849
 30
0.0
 40
10.0
  1
 
  7
SEACAD_seiso_ttf
 11
5.9362635081
 21
47.0588756849
 31
0.0
100
AcDbText
 73
     3
  0
TEXT
  5
191
330
1F
100
AcDbEntity
  8
Default
  6
Continuous
 62
     7
100
AcDbText
 10
5.9362635081
 20
20.6952393213
 30
0.0
 40
10.0
  1
ecn: 
  7
SEACAD_seiso_ttf
 11
5.9362635081
 21
30.6952393213
 31
0.0
100
AcDbText
 73
     3
  0
TEXT
  5
192
330
1F
100
AcDbEntity
  8
Default
  6
Continuous
 62
     7
100
AcDbText
 10
5.9362635081
 20
4.3316029576
 30
0.0
 40
10.0
  1
unit: mm
  7
SEACAD_seiso_ttf
 11
5.9362635081
 21
14.3316029576
 31
0.0
100
AcDbText
 73
     3
  0
LINE
  5
193
330
1F
100
AcDbEntity
  8
Default
  6
Continuous
 62
     7
100
AcDbLine
 10
0.0
 20
0.0
 30
0.0
 11
100.0
 21
0.0
 31
0.0
  0
LINE
  5
194
330
1F
100
AcDbEntity
  8
Default
  6
Continuous
 62
     7
100
AcDbLine
 10
0.0
 20
0.0
 30
0.0
 11
0.0
 21
100.0
 31
0.0
  0
TEXT
  5
195
330
1F
100
AcDbEntity
  8
Default
  6
Continuous
 62
     7
100
AcDbText
 10
24.3923665681
 20
-18.2375342018
 30
0.0
 40
10.0
  1
100 mm
  7
SEACAD_seiso_ttf
 11
24.3923665681
 21
-8.2375342018
 31
0.0
100
AcDbText
 73
     3
  0
TEXT
  5
196
330
1F
100
AcDbEntity
  8
Default
  6
Continuous
 62
     7
100
AcDbText
 10
-7.6150308803
 20
24.6231930421
 30
0.0
 40
10.0
  1
100 mm
 50
90.0
  7
SEACAD_seiso_ttf
 11
-17.6150308803
 21
24.6231930421
 31
0.0
100
AcDbText
 73
     3
  0
TEXT
  5
197
330
1F
100
AcDbEntity
  8
Default
  6
Continuous
 62
     7
100
AcDbText
 10
28.4878128572
 20
20.0907663715
 30
0.0
 40
10.0
  1
205842
  7
SEACAD_seiso_ttf
 11
28.4878128572
 21
30.0907663715
 31
0.0
100
AcDbText
 73
     3
  0
TEXT
  5
198
330
1F
100
AcDbEntity
  8
Default
  6
Continuous
 62
     7
100
AcDbText
 10
5.9012241913
 20
36.7242780188
 30
0.0
 40
10.0
  1
33637001
  7
SEACAD_seiso_ttf
 11
5.9012241913
 21
46.7242780188
 31
0.0
100
AcDbText
 73
     3
  0
ENDSEC
  0
SECTION
  2
OBJECTS
  0
DICTIONARY
  5
C
330
0
100
AcDbDictionary
281
     1
  3
ACAD_GROUP
350
D
  3
ACAD_LAYOUT
350
1A
  3
ACAD_MLEADERSTYLE
350
19C
  3
ACAD_MLINESTYLE
350
17
  3
ACAD_PLOTSETTINGS
350
19
  3
ACAD_PLOTSTYLENAME
350
E
  3
ACAD_SCALELIST
350
3B
  3
ACAD_TABLESTYLE
350
19B
  3
ACAD_VISUALSTYLE
350
2A
  3
AcDbVariableDictionary
350
199
  0
DICTIONARY
  5
D
102
{ACAD_REACTORS
330
C
102
}
330
C
100
AcDbDictionary
281
     1
  0
DICTIONARY
  5
1A
102
{ACAD_REACTORS
330
C
102
}
330
C
100
AcDbDictionary
281
     1
  3
Layout1
350
1E
  3
Model
350
22
  0
DICTIONARY
  5
19C
102
{ACAD_REACTORS
330
C
102
}
330
C
100
AcDbDictionary
281
     1
  0
DICTIONARY
  5
17
102
{ACAD_REACTORS
330
C
102
}
330
C
100
AcDbDictionary
281
     1
  3
Standard
350
18
  0
DICTIONARY
  5
19
102
{ACAD_REACTORS
330
C
102
}
330
C
100
AcDbDictionary
281
     1
  0
ACDBDICTIONARYWDFLT
  5
E
102
{ACAD_REACTORS
330
C
102
}
330
C
100
AcDbDictionary
281
     1
  3
Normal
350
F
100
AcDbDictionaryWithDefault
340
F
  0
DICTIONARY
  5
3B
102
{ACAD_REACTORS
330
C
102
}
330
C
100
AcDbDictionary
281
     1
  3
A0
350
3C
  3
A1
350
3D
  3
A2
350
3E
  3
A3
350
3F
  3
A4
350
40
  3
A5
350
41
  3
A6
350
42
  3
A7
350
43
  3
A8
350
44
  3
A9
350
45
  3
B0
350
46
  3
B1
350
47
  3
B2
350
48
  3
B3
350
49
  3
B4
350
4A
  3
B5
350
4B
  3
B6
350
4C
  3
B7
350
4D
  3
B8
350
4E
  3
B9
350
4F
  3
C0
350
50
  3
C1
350
51
  3
C2
350
52
  3
C3
350
53
  3
C4
350
54
  3
C5
350
55
  3
C6
350
56
  3
C7
350
57
  3
C8
350
58
  3
C9
350
59
  3
D0
350
5A
  3
D1
350
5B
  3
D2
350
5C
  0
DICTIONARY
  5
19B
102
{ACAD_REACTORS
330
C
102
}
330
C
100
AcDbDictionary
281
     1
  0
DICTIONARY
  5
2A
102
{ACAD_REACTORS
330
C
102
}
330
C
100
AcDbDictionary
281
     1
  3
2dWireframe
350
2F
  3
3D Hidden
350
31
  3
3dWireframe
350
30
  3
Basic
350
32
  3
Brighten
350
36
  3
ColorChange
350
3A
  3
Conceptual
350
34
  3
Dim
350
35
  3
Facepattern
350
39
  3
Flat
350
2B
  3
FlatWithEdges
350
2C
  3
Gouraud
350
2D
  3
GouraudWithEdges
350
2E
  3
Linepattern
350
38
  3
Realistic
350
33
  3
Thicken
350
37
  0
DICTIONARY
  5
199
102
{ACAD_REACTORS
330
C
102
}
330
C
100
AcDbDictionary
281
     1
  3
CANNOSCALE
350
19A
  3
PSOLHEIGHT
350
19E
  3
PSOLWIDTH
350
19D
  0
LAYOUT
  5
1E
102
{ACAD_REACTORS
330
1A
102
}
330
1A
100
AcDbPlotSettings
  1

  2
none_device
  4

  6

 40
0.0
 41
0.0
 42
0.0
 43
0.0
 44
0.0
 45
0.0
 46
0.0
 47
0.0
 48
0.0
 49
0.0
140
0.0
141
0.0
142
1.0
143
1.0
 70
   688
 72
     0
 73
     0
 74
     5
  7

 75
    16
147
1.0
148
0.0
149
0.0
100
AcDbLayout
  1
Layout1
 70
     1
 71
     1
 10
0.0
 20
0.0
 11
1682.0
 21
2378.0
 12
0.0
 22
0.0
 32
0.0
 14
0.0
 24
0.0
 34
0.0
 15
1682.0
 25
2378.0
 35
0.0
146
0.0
 13
0.0
 23
0.0
 33
0.0
 16
1.0
 26
0.0
 36
0.0
 17
0.0
 27
1.0
 37
0.0
 76
     0
330
1B
  0
LAYOUT
  5
22
102
{ACAD_REACTORS
330
1A
102
}
330
1A
100
AcDbPlotSettings
  1

  2
none_device
  4

  6

 40
0.0
 41
0.0
 42
0.0
 43
0.0
 44
0.0
 45
0.0
 46
0.0
 47
0.0
 48
0.0
 49
0.0
140
0.0
141
0.0
142
1.0
143
1.0
 70
  1712
 72
     0
 73
     0
 74
     0
  7

 75
     0
147
1.0
148
0.0
149
0.0
100
AcDbLayout
  1
Model
 70
     1
 71
     0
 10
0.0
 20
0.0
 11
1682.0
 21
2378.0
 12
0.0
 22
0.0
 32
0.0
 14
0.0
 24
0.0
 34
0.0
 15
1682.0
 25
2378.0
 35
0.0
146
0.0
 13
0.0
 23
0.0
 33
0.0
 16
1.0
 26
0.0
 36
0.0
 17
0.0
 27
1.0
 37
0.0
 76
     0
330
1F
331
29
  0
MLINESTYLE
  5
18
102
{ACAD_REACTORS
330
17
102
}
330
17
100
AcDbMlineStyle
  2
Standard
 70
     0
  3

 62
   256
 51
90.0
 52
90.0
 71
     2
 49
0.5
 62
   256
  6
BYLAYER
 49
-0.5
 62
   256
  6
BYLAYER
  0
ACDBPLACEHOLDER
  5
F
102
{ACAD_REACTORS
330
E
102
}
330
E
  0
SCALE
  5
3C
102
{ACAD_REACTORS
330
3B
102
}
330
3B
100
AcDbScale
 70
     0
300
1:1
140
1.0
141
1.0
290
     1
  0
SCALE
  5
3D
102
{ACAD_REACTORS
330
3B
102
}
330
3B
100
AcDbScale
 70
     0
300
1:2
140
1.0
141
2.0
290
     0
  0
SCALE
  5
3E
102
{ACAD_REACTORS
330
3B
102
}
330
3B
100
AcDbScale
 70
     0
300
1:4
140
1.0
141
4.0
290
     0
  0
SCALE
  5
3F
102
{ACAD_REACTORS
330
3B
102
}
330
3B
100
AcDbScale
 70
     0
300
1:5
140
1.0
141
5.0
290
     0
  0
SCALE
  5
40
102
{ACAD_REACTORS
330
3B
102
}
330
3B
100
AcDbScale
 70
     0
300
1:8
140
1.0
141
8.0
290
     0
  0
SCALE
  5
41
102
{ACAD_REACTORS
330
3B
102
}
330
3B
100
AcDbScale
 70
     0
300
1:10
140
1.0
141
10.0
290
     0
  0
SCALE
  5
42
102
{ACAD_REACTORS
330
3B
102
}
330
3B
100
AcDbScale
 70
     0
300
1:16
140
1.0
141
16.0
290
     0
  0
SCALE
  5
43
102
{ACAD_REACTORS
330
3B
102
}
330
3B
100
AcDbScale
 70
     0
300
1:20
140
1.0
141
20.0
290
     0
  0
SCALE
  5
44
102
{ACAD_REACTORS
330
3B
102
}
330
3B
100
AcDbScale
 70
     0
300
1:30
140
1.0
141
30.0
290
     0
  0
SCALE
  5
45
102
{ACAD_REACTORS
330
3B
102
}
330
3B
100
AcDbScale
 70
     0
300
1:40
140
1.0
141
40.0
290
     0
  0
SCALE
  5
46
102
{ACAD_REACTORS
330
3B
102
}
330
3B
100
AcDbScale
 70
     0
300
1:50
140
1.0
141
50.0
290
     0
  0
SCALE
  5
47
102
{ACAD_REACTORS
330
3B
102
}
330
3B
100
AcDbScale
 70
     0
300
1:100
140
1.0
141
100.0
290
     0
  0
SCALE
  5
48
102
{ACAD_REACTORS
330
3B
102
}
330
3B
100
AcDbScale
 70
     0
300
2:1
140
2.0
141
1.0
290
     0
  0
SCALE
  5
49
102
{ACAD_REACTORS
330
3B
102
}
330
3B
100
AcDbScale
 70
     0
300
4:1
140
4.0
141
1.0
290
     0
  0
SCALE
  5
4A
102
{ACAD_REACTORS
330
3B
102
}
330
3B
100
AcDbScale
 70
     0
300
8:1
140
8.0
141
1.0
290
     0
  0
SCALE
  5
4B
102
{ACAD_REACTORS
330
3B
102
}
330
3B
100
AcDbScale
 70
     0
300
10:1
140
10.0
141
1.0
290
     0
  0
SCALE
  5
4C
102
{ACAD_REACTORS
330
3B
102
}
330
3B
100
AcDbScale
 70
     0
300
100:1
140
100.0
141
1.0
290
     0
  0
SCALE
  5
4D
102
{ACAD_REACTORS
330
3B
102
}
330
3B
100
AcDbScale
 70
     0
300
1/128" = 1'-0"
140
0.0078125
141
12.0
290
     0
  0
SCALE
  5
4E
102
{ACAD_REACTORS
330
3B
102
}
330
3B
100
AcDbScale
 70
     0
300
1/64" = 1'-0"
140
0.015625
141
12.0
290
     0
  0
SCALE
  5
4F
102
{ACAD_REACTORS
330
3B
102
}
330
3B
100
AcDbScale
 70
     0
300
1/32" = 1'-0"
140
0.03125
141
12.0
290
     0
  0
SCALE
  5
50
102
{ACAD_REACTORS
330
3B
102
}
330
3B
100
AcDbScale
 70
     0
300
1/16" = 1'-0"
140
0.0625
141
12.0
290
     0
  0
SCALE
  5
51
102
{ACAD_REACTORS
330
3B
102
}
330
3B
100
AcDbScale
 70
     0
300
3/32" = 1'-0"
140
0.09375
141
12.0
290
     0
  0
SCALE
  5
52
102
{ACAD_REACTORS
330
3B
102
}
330
3B
100
AcDbScale
 70
     0
300
1/8" = 1'-0"
140
0.125
141
12.0
290
     0
  0
SCALE
  5
53
102
{ACAD_REACTORS
330
3B
102
}
330
3B
100
AcDbScale
 70
     0
300
3/16" = 1'-0"
140
0.1875
141
12.0
290
     0
  0
SCALE
  5
54
102
{ACAD_REACTORS
330
3B
102
}
330
3B
100
AcDbScale
 70
     0
300
1/4" = 1'-0"
140
0.25
141
12.0
290
     0
  0
SCALE
  5
55
102
{ACAD_REACTORS
330
3B
102
}
330
3B
100
AcDbScale
 70
     0
300
3/8" = 1'-0"
140
0.375
141
12.0
290
     0
  0
SCALE
  5
56
102
{ACAD_REACTORS
330
3B
102
}
330
3B
100
AcDbScale
 70
     0
300
1/2" = 1'-0"
140
0.5
141
12.0
290
     0
  0
SCALE
  5
57
102
{ACAD_REACTORS
330
3B
102
}
330
3B
100
AcDbScale
 70
     0
300
3/4" = 1'-0"
140
0.75
141
12.0
290
     0
  0
SCALE
  5
58
102
{ACAD_REACTORS
330
3B
102
}
330
3B
100
AcDbScale
 70
     0
300
1" = 1'-0"
140
1.0
141
12.0
290
     0
  0
SCALE
  5
59
102
{ACAD_REACTORS
330
3B
102
}
330
3B
100
AcDbScale
 70
     0
300
1-1/2" = 1'-0"
140
1.5
141
12.0
290
     0
  0
SCALE
  5
5A
102
{ACAD_REACTORS
330
3B
102
}
330
3B
100
AcDbScale
 70
     0
300
3" = 1'-0"
140
3.0
141
12.0
290
     0
  0
SCALE
  5
5B
102
{ACAD_REACTORS
330
3B
102
}
330
3B
100
AcDbScale
 70
     0
300
6" = 1'-0"
140
6.0
141
12.0
290
     0
  0
SCALE
  5
5C
102
{ACAD_REACTORS
330
3B
102
}
330
3B
100
AcDbScale
 70
     0
300
1'-0" = 1'-0"
140
12.0
141
12.0
290
     0
  0
VISUALSTYLE
  5
2F
102
{ACAD_REACTORS
330
2A
102
}
330
2A
100
AcDbVisualStyle
  2
2dWireframe
 70
     4
 71
     0
 72
     2
 73
     0
 90
        0
 40
-0.6
 41
-30.0
 62
     5
 63
     7
 74
     1
 91
        4
 64
     7
 65
   257
 75
     1
175
     1
 42
1.0
 92
        0
 66
   257
 43
1.0
 76
     1
 77
     6
 78
     2
 67
     7
 79
     5
170
     0
171
     0
290
     0
174
     0
 93
        1
 44
0.0
173
     0
291
     0
 45
0.0
1001
ACAD
1000
AcDbSavedByObjectVersion
1070
     0
  0
VISUALSTYLE
  5
31
102
{ACAD_REACTORS
330
2A
102
}
330
2A
100
AcDbVisualStyle
  2
3D Hidden
 70
     6
 71
     1
 72
     2
 73
     2
 90
        0
 40
-0.6
 41
-30.0
 62
     5
 63
     7
 74
     2
 91
        2
 64
     7
 65
   257
 75
     2
175
     1
 42
40.0
 92
        0
 66
   257
 43
1.0
 76
     1
 77
     6
 78
     2
 67
     7
 79
     3
170
     0
171
     0
290
     0
174
     0
 93
        1
 44
0.0
173
     0
291
     0
 45
0.0
1001
ACAD
1000
AcDbSavedByObjectVersion
1070
     0
  0
VISUALSTYLE
  5
30
102
{ACAD_REACTORS
330
2A
102
}
330
2A
100
AcDbVisualStyle
  2
3dWireframe
 70
     5
 71
     0
 72
     2
 73
     0
 90
        0
 40
-0.6
 41
-30.0
 62
     5
 63
     7
 74
     1
 91
        4
 64
     7
 65
   257
 75
     1
175
     1
 42
1.0
 92
        0
 66
   257
 43
1.0
 76
     1
 77
     6
 78
     2
 67
     7
 79
     5
170
     0
171
     0
290
     0
174
     0
 93
        1
 44
0.0
173
     0
291
     0
 45
0.0
1001
ACAD
1000
AcDbSavedByObjectVersion
1070
     0
  0
VISUALSTYLE
  5
32
102
{ACAD_REACTORS
330
2A
102
}
330
2A
100
AcDbVisualStyle
  2
Basic
 70
     7
 71
     1
 72
     0
 73
     1
 90
        0
 40
-0.6
 41
-30.0
 62
     5
 63
     7
 74
     0
 91
        4
 64
     7
 65
   257
 75
     1
175
     1
 42
1.0
 92
        8
 66
     7
 43
1.0
 76
     1
 77
     6
 78
     2
 67
     7
 79
     5
170
     0
171
     0
290
     0
174
     0
 93
        1
 44
0.0
173
     0
291
     1
 45
0.0
1001
ACAD
1000
AcDbSavedByObjectVersion
1070
     0
  0
VISUALSTYLE
  5
36
102
{ACAD_REACTORS
330
2A
102
}
330
2A
100
AcDbVisualStyle
  2
Brighten
 70
    12
 71
     2
 72
     2
 73
     0
 90
        0
 40
-0.6
 41
-30.0
 62
     5
 63
     7
 74
     1
 91
        4
 64
     7
 65
   257
 75
     1
175
     1
 42
1.0
 92
        8
 66
     7
 43
1.0
 76
     1
 77
     6
 78
     2
 67
     7
 79
     5
170
     0
171
     0
290
     0
174
     0
 93
        1
 44
50.0
173
     0
291
     1
 45
0.0
1001
ACAD
1000
AcDbSavedByObjectVersion
1070
     0
  0
VISUALSTYLE
  5
3A
102
{ACAD_REACTORS
330
2A
102
}
330
2A
100
AcDbVisualStyle
  2
ColorChange
 70
    16
 71
     2
 72
     2
 73
     3
 90
        0
 40
-0.6
 41
-30.0
 62
     5
 63
     8
 74
     1
 91
        4
 64
     7
 65
   257
 75
     1
175
     1
 42
1.0
 92
        8
 66
     8
 43
1.0
 76
     1
 77
     6
 78
     2
 67
     7
 79
     5
170
     0
171
     0
290
     0
174
     0
 93
        1
 44
0.0
173
     0
291
     1
 45
0.0
1001
ACAD
1000
AcDbSavedByObjectVersion
1070
     0
  0
VISUALSTYLE
  5
34
102
{ACAD_REACTORS
330
2A
102
}
330
2A
100
AcDbVisualStyle
  2
Conceptual
 70
     9
 71
     3
 72
     2
 73
     0
 90
        0
 40
-0.6
 41
-30.0
 62
     5
 63
     7
 74
     2
 91
        2
 64
     7
 65
   257
 75
     1
175
     1
 42
40.0
 92
        8
 66
     7
 43
1.0
 76
     1
 77
     6
 78
     2
 67
     7
 79
     3
170
     0
171
     0
290
     0
174
     0
 93
        1
 44
0.0
173
     0
291
     0
 45
0.0
1001
ACAD
1000
AcDbSavedByObjectVersion
1070
     0
  0
VISUALSTYLE
  5
35
102
{ACAD_REACTORS
330
2A
102
}
330
2A
100
AcDbVisualStyle
  2
Dim
 70
    11
 71
     2
 72
     2
 73
     0
 90
        0
 40
-0.6
 41
-30.0
 62
     5
 63
     7
 74
     1
 91
        4
 64
     7
 65
   257
 75
     1
175
     1
 42
1.0
 92
        8
 66
     7
 43
1.0
 76
     1
 77
     6
 78
     2
 67
     7
 79
     5
170
     0
171
     0
290
     0
174
     0
 93
        1
 44
-50.0
173
     0
291
     1
 45
0.0
1001
ACAD
1000
AcDbSavedByObjectVersion
1070
     0
  0
VISUALSTYLE
  5
39
102
{ACAD_REACTORS
330
2A
102
}
330
2A
100
AcDbVisualStyle
  2
Facepattern
 70
    15
 71
     2
 72
     2
 73
     0
 90
        0
 40
-0.6
 41
-30.0
 62
     5
 63
     7
 74
     1
 91
        4
 64
     7
 65
   257
 75
     1
175
     1
 42
1.0
 92
        8
 66
     7
 43
1.0
 76
     1
 77
     6
 78
     2
 67
     7
 79
     5
170
     0
171
     0
290
     0
174
     0
 93
        1
 44
0.0
173
     0
291
     1
 45
0.0
1001
ACAD
1000
AcDbSavedByObjectVersion
1070
     0
  0
VISUALSTYLE
  5
2B
102
{ACAD_REACTORS
330
2A
102
}
330
2A
100
AcDbVisualStyle
  2
Flat
 70
     0
 71
     2
 72
     1
 73
     1
 90
        2
 40
-0.6
 41
30.0
 62
     5
 63
     7
 74
     0
 91
        4
 64
     7
 65
   257
 75
     1
175
     1
 42
1.0
 92
        8
 66
     7
 43
1.0
 76
     1
 77
     6
 78
     2
 67
     7
 79
     5
170
     0
171
     0
290
     0
174
     0
 93
       13
 44
0.0
173
     0
291
     1
 45
0.0
1001
ACAD
1000
AcDbSavedByObjectVersion
1070
     0
  0
VISUALSTYLE
  5
2C
102
{ACAD_REACTORS
330
2A
102
}
330
2A
100
AcDbVisualStyle
  2
FlatWithEdges
 70
     1
 71
     2
 72
     1
 73
     1
 90
        2
 40
-0.6
 41
30.0
 62
     5
 63
     7
 74
     1
 91
        4
 64
     7
 65
   257
 75
     1
175
     1
 42
1.0
 92
        0
 66
   257
 43
1.0
 76
     1
 77
     6
 78
     2
 67
     7
 79
     5
170
     0
171
     0
290
     0
174
     0
 93
       13
 44
0.0
173
     0
291
     1
 45
0.0
1001
ACAD
1000
AcDbSavedByObjectVersion
1070
     0
  0
VISUALSTYLE
  5
2D
102
{ACAD_REACTORS
330
2A
102
}
330
2A
100
AcDbVisualStyle
  2
Gouraud
 70
     2
 71
     2
 72
     2
 73
     1
 90
        2
 40
-0.6
 41
30.0
 62
     5
 63
     7
 74
     0
 91
        4
 64
     7
 65
   257
 75
     1
175
     1
 42
1.0
 92
        0
 66
     7
 43
1.0
 76
     1
 77
     6
 78
     2
 67
     7
 79
     5
170
     0
171
     0
290
     0
174
     0
 93
       13
 44
0.0
173
     0
291
     1
 45
0.0
1001
ACAD
1000
AcDbSavedByObjectVersion
1070
     0
  0
VISUALSTYLE
  5
2E
102
{ACAD_REACTORS
330
2A
102
}
330
2A
100
AcDbVisualStyle
  2
GouraudWithEdges
 70
     3
 71
     2
 72
     2
 73
     1
 90
        2
 40
-0.6
 41
30.0
 62
     5
 63
     7
 74
     1
 91
        4
 64
     7
 65
   257
 75
     1
175
     1
 42
1.0
 92
        0
 66
   257
 43
1.0
 76
     1
 77
     6
 78
     2
 67
     7
 79
     5
170
     0
171
     0
290
     0
174
     0
 93
       13
 44
0.0
173
     0
291
     1
 45
0.0
1001
ACAD
1000
AcDbSavedByObjectVersion
1070
     0
  0
VISUALSTYLE
  5
38
102
{ACAD_REACTORS
330
2A
102
}
330
2A
100
AcDbVisualStyle
  2
Linepattern
 70
    14
 71
     2
 72
     2
 73
     0
 90
        0
 40
-0.6
 41
-30.0
 62
     5
 63
     7
 74
     1
 91
        4
 64
     7
 65
   257
 75
     7
175
     7
 42
1.0
 92
        8
 66
     7
 43
1.0
 76
     1
 77
     6
 78
     2
 67
     7
 79
     5
170
     0
171
     0
290
     0
174
     0
 93
        1
 44
0.0
173
     0
291
     1
 45
0.0
1001
ACAD
1000
AcDbSavedByObjectVersion
1070
     0
  0
VISUALSTYLE
  5
33
102
{ACAD_REACTORS
330
2A
102
}
330
2A
100
AcDbVisualStyle
  2
Realistic
 70
     8
 71
     2
 72
     2
 73
     0
 90
        0
 40
-0.6
 41
-30.0
 62
     5
 63
     7
 74
     1
 91
        0
 64
     7
 65
   257
 75
     1
175
     1
 42
1.0
 92
        8
 66
     8
 43
1.0
 76
     1
 77
     6
 78
     2
 67
     7
 79
     5
170
     0
171
     0
290
     0
174
     0
 93
       13
 44
0.0
173
     0
291
     0
 45
0.0
1001
ACAD
1000
AcDbSavedByObjectVersion
1070
     0
  0
VISUALSTYLE
  5
37
102
{ACAD_REACTORS
330
2A
102
}
330
2A
100
AcDbVisualStyle
  2
Thicken
 70
    13
 71
     2
 72
     2
 73
     0
 90
        0
 40
-0.6
 41
-30.0
 62
     5
 63
     7
 74
     1
 91
        4
 64
     7
 65
   257
 75
     1
175
     1
 42
1.0
 92
       12
 66
     7
 43
1.0
 76
     1
 77
     6
 78
     2
 67
     7
 79
     5
170
     0
171
     0
290
     0
174
     0
 93
        1
 44
0.0
173
     0
291
     1
 45
0.0
1001
ACAD
1000
AcDbSavedByObjectVersion
1070
     0
  0
DICTIONARYVAR
  5
19A
102
{ACAD_REACTORS
330
199
102
}
330
199
100
DictionaryVariables
280
     0
  1
1:1
  0
DICTIONARYVAR
  5
19E
102
{ACAD_REACTORS
330
199
102
}
330
199
100
DictionaryVariables
280
     0
  1
80.000000
  0
DICTIONARYVAR
  5
19D
102
{ACAD_REACTORS
330
199
102
}
330
199
100
DictionaryVariables
280
     0
  1
5.000000
  0
ENDSEC
  0
EOF
