  0
SECTION
  2
HEADER
  9
$ACADVER
  1
AC1015
  9
$ACADMAINTVER
 70
     6
  9
$DWGCODEPAGE
  3
ANSI_1252
  9
$INSBASE
 10
0.0
 20
0.0
 30
0.0
  9
$EXTMIN
 10
0.0
 20
0.0
 30
0.0
  9
$EXTMAX
 10
1682.0
 20
2378.0
 30
0.0
  9
$LIMMIN
 10
0.0
 20
0.0
  9
$LIMMAX
 10
1682.0
 20
2378.0
  9
$ORTHOMODE
 70
     0
  9
$REGENMODE
 70
     1
  9
$FILLMODE
 70
     1
  9
$QTEXTMODE
 70
     0
  9
$MIRRTEXT
 70
     1
  9
$LTSCALE
 40
1.0
  9
$ATTMODE
 70
     1
  9
$TEXTSIZE
 40
2.5
  9
$TRACEWID
 40
1.0
  9
$TEXTSTYLE
  7
Standard
  9
$CLAYER
  8
0
  9
$CELTYPE
  6
ByLayer
  9
$CECOLOR
 62
   256
  9
$CELTSCALE
 40
1.0
  9
$DISPSILH
 70
     0
  9
$DIMSCALE
 40
1.0
  9
$DIMASZ
 40
2.5
  9
$DIMEXO
 40
0.625
  9
$DIMDLI
 40
3.75
  9
$DIMRND
 40
0.0
  9
$DIMDLE
 40
0.0
  9
$DIMEXE
 40
1.25
  9
$DIMTP
 40
0.0
  9
$DIMTM
 40
0.0
  9
$DIMTXT
 40
2.5
  9
$DIMCEN
 40
2.5
  9
$DIMTSZ
 40
0.0
  9
$DIMTOL
 70
     0
  9
$DIMLIM
 70
     0
  9
$DIMTIH
 70
     0
  9
$DIMTOH
 70
     0
  9
$DIMSE1
 70
     0
  9
$DIMSE2
 70
     0
  9
$DIMTAD
 70
     1
  9
$DIMZIN
 70
     8
  9
$DIMBLK
  1

  9
$DIMASO
 70
     1
  9
$DIMSHO
 70
     1
  9
$DIMPOST
  1

  9
$DIMAPOST
  1

  9
$DIMALT
 70
     0
  9
$DIMALTD
 70
     3
  9
$DIMALTF
 40
0.0393700787
  9
$DIMLFAC
 40
1.0
  9
$DIMTOFL
 70
     1
  9
$DIMTVP
 40
0.0
  9
$DIMTIX
 70
     0
  9
$DIMSOXD
 70
     0
  9
$DIMSAH
 70
     0
  9
$DIMBLK1
  1

  9
$DIMBLK2
  1

  9
$DIMSTYLE
  2
ISO-25
  9
$DIMCLRD
 70
     0
  9
$DIMCLRE
 70
     0
  9
$DIMCLRT
 70
     0
  9
$DIMTFAC
 40
1.0
  9
$DIMGAP
 40
0.625
  9
$DIMJUST
 70
     0
  9
$DIMSD1
 70
     0
  9
$DIMSD2
 70
     0
  9
$DIMTOLJ
 70
     0
  9
$DIMTZIN
 70
     8
  9
$DIMALTZ
 70
     0
  9
$DIMALTTZ
 70
     0
  9
$DIMUPT
 70
     0
  9
$DIMDEC
 70
     2
  9
$DIMTDEC
 70
     2
  9
$DIMALTU
 70
     2
  9
$DIMALTTD
 70
     3
  9
$DIMTXSTY
  7
Standard
  9
$DIMAUNIT
 70
     0
  9
$DIMADEC
 70
     0
  9
$DIMALTRND
 40
0.0
  9
$DIMAZIN
 70
     0
  9
$DIMDSEP
 70
    44
  9
$DIMATFIT
 70
     3
  9
$DIMFRAC
 70
     0
  9
$DIMLDRBLK
  1

  9
$DIMLUNIT
 70
     2
  9
$DIMLWD
 70
    -2
  9
$DIMLWE
 70
    -2
  9
$DIMTMOVE
 70
     0
  9
$LUNITS
 70
     2
  9
$LUPREC
 70
     4
  9
$SKETCHINC
 40
1.0
  9
$FILLETRAD
 40
10.0
  9
$AUNITS
 70
     0
  9
$AUPREC
 70
     0
  9
$MENU
  1
.
  9
$ELEVATION
 40
0.0
  9
$PELEVATION
 40
0.0
  9
$THICKNESS
 40
0.0
  9
$LIMCHECK
 70
     0
  9
$CHAMFERA
 40
10.0
  9
$CHAMFERB
 40
10.0
  9
$CHAMFERC
 40
20.0
  9
$CHAMFERD
 40
0.0
  9
$SKPOLY
 70
     0
  9
$TDCREATE
 40
2455544.565707291
  9
$TDUCREATE
 40
2455544.524040625
  9
$TDUPDATE
 40
2455544.565707303
  9
$TDUUPDATE
 40
2455544.524040637
  9
$TDINDWG
 40
0.0000000116
  9
$TDUSRTIMER
 40
0.0000000116
  9
$USRTIMER
 70
     1
  9
$ANGBASE
 50
0.0
  9
$ANGDIR
 70
     0
  9
$PDMODE
 70
     0
  9
$PDSIZE
 40
0.0
  9
$PLINEWID
 40
0.0
  9
$SPLFRAME
 70
     0
  9
$SPLINETYPE
 70
     6
  9
$SPLINESEGS
 70
     8
  9
$HANDSEED
  5
124
  9
$SURFTAB1
 70
     6
  9
$SURFTAB2
 70
     6
  9
$SURFTYPE
 70
     6
  9
$SURFU
 70
     6
  9
$SURFV
 70
     6
  9
$UCSBASE
  2

  9
$UCSNAME
  2

  9
$UCSORG
 10
0.0
 20
0.0
 30
0.0
  9
$UCSXDIR
 10
1.0
 20
0.0
 30
0.0
  9
$UCSYDIR
 10
0.0
 20
1.0
 30
0.0
  9
$UCSORTHOREF
  2

  9
$UCSORTHOVIEW
 70
     0
  9
$UCSORGTOP
 10
0.0
 20
0.0
 30
0.0
  9
$UCSORGBOTTOM
 10
0.0
 20
0.0
 30
0.0
  9
$UCSORGLEFT
 10
0.0
 20
0.0
 30
0.0
  9
$UCSORGRIGHT
 10
0.0
 20
0.0
 30
0.0
  9
$UCSORGFRONT
 10
0.0
 20
0.0
 30
0.0
  9
$UCSORGBACK
 10
0.0
 20
0.0
 30
0.0
  9
$PUCSBASE
  2

  9
$PUCSNAME
  2

  9
$PUCSORG
 10
0.0
 20
0.0
 30
0.0
  9
$PUCSXDIR
 10
1.0
 20
0.0
 30
0.0
  9
$PUCSYDIR
 10
0.0
 20
1.0
 30
0.0
  9
$PUCSORTHOREF
  2

  9
$PUCSORTHOVIEW
 70
     0
  9
$PUCSORGTOP
 10
0.0
 20
0.0
 30
0.0
  9
$PUCSORGBOTTOM
 10
0.0
 20
0.0
 30
0.0
  9
$PUCSORGLEFT
 10
0.0
 20
0.0
 30
0.0
  9
$PUCSORGRIGHT
 10
0.0
 20
0.0
 30
0.0
  9
$PUCSORGFRONT
 10
0.0
 20
0.0
 30
0.0
  9
$PUCSORGBACK
 10
0.0
 20
0.0
 30
0.0
  9
$USERI1
 70
     0
  9
$USERI2
 70
     0
  9
$USERI3
 70
     0
  9
$USERI4
 70
     0
  9
$USERI5
 70
     0
  9
$USERR1
 40
0.0
  9
$USERR2
 40
0.0
  9
$USERR3
 40
0.0
  9
$USERR4
 40
0.0
  9
$USERR5
 40
0.0
  9
$WORLDVIEW
 70
     1
  9
$SHADEDGE
 70
     3
  9
$SHADEDIF
 70
    70
  9
$TILEMODE
 70
     1
  9
$MAXACTVP
 70
    64
  9
$PINSBASE
 10
0.0
 20
0.0
 30
0.0
  9
$PLIMCHECK
 70
     0
  9
$PEXTMIN
 10
0.0
 20
0.0
 30
0.0
  9
$PEXTMAX
 10
1682.0
 20
2378.0
 30
0.0
  9
$PLIMMIN
 10
0.0
 20
0.0
  9
$PLIMMAX
 10
1682.0
 20
2378.0
  9
$UNITMODE
 70
     0
  9
$VISRETAIN
 70
     1
  9
$PLINEGEN
 70
     0
  9
$PSLTSCALE
 70
     1
  9
$TREEDEPTH
 70
  3020
  9
$CMLSTYLE
  2
Standard
  9
$CMLJUST
 70
     0
  9
$CMLSCALE
 40
20.0
  9
$PROXYGRAPHICS
 70
     1
  9
$MEASUREMENT
 70
     1
  9
$CELWEIGHT
370
    -1
  9
$ENDCAPS
280
     0
  9
$JOINSTYLE
280
     0
  9
$LWDISPLAY
290
     0
  9
$INSUNITS
 70
     4
  9
$HYPERLINKBASE
  1

  9
$STYLESHEET
  1

  9
$XEDIT
290
     1
  9
$CEPSNTYPE
380
     0
  9
$PSTYLEMODE
290
     1
  9
$FINGERPRINTGUID
  2
{EB52DD00-FC0E-45A5-BD00-88F9E416ECDA}
  9
$VERSIONGUID
  2
{FAEB1C32-E019-11D5-929B-00C0DF256EC4}
  9
$EXTNAMES
290
     1
  9
$PSVPSCALE
 40
0.0
  9
$OLESTARTUP
290
     0
  0
ENDSEC
  0
SECTION
  2
CLASSES
  0
CLASS
  1
ACDBDICTIONARYWDFLT
  2
AcDbDictionaryWithDefault
  3
ObjectDBX Classes
 90
        0
280
     0
281
     0
  0
CLASS
  1
VISUALSTYLE
  2
AcDbVisualStyle
  3
ObjectDBX Classes
 90
     4095
280
     0
281
     0
  0
CLASS
  1
SCALE
  2
AcDbScale
  3
ObjectDBX Classes
 90
     1153
280
     0
281
     0
  0
CLASS
  1
DICTIONARYVAR
  2
AcDbDictionaryVar
  3
ObjectDBX Classes
 90
        0
280
     0
281
     0
  0
CLASS
  1
ACDBPLACEHOLDER
  2
AcDbPlaceHolder
  3
ObjectDBX Classes
 90
        0
280
     0
281
     0
  0
CLASS
  1
LAYOUT
  2
AcDbLayout
  3
ObjectDBX Classes
 90
        0
280
     0
281
     0
  0
ENDSEC
  0
SECTION
  2
TABLES
  0
TABLE
  2
VPORT
  5
8
330
0
100
AcDbSymbolTable
 70
     1
  0
VPORT
  5
29
330
8
100
AcDbSymbolTableRecord
100
AcDbViewportTableRecord
  2
*Active
 70
     0
 10
0.0
 20
0.0
 11
1.0
 21
1.0
 12
344.1869158879
 22
148.5
 13
0.0
 23
0.0
 14
10.0
 24
10.0
 15
10.0
 25
10.0
 16
0.0
 26
0.0
 36
1.0
 17
0.0
 27
0.0
 37
0.0
 40
297.0
 41
1.9729729729
 42
50.0
 43
0.0
 44
0.0
 50
0.0
 51
0.0
 71
     0
 72
   100
 73
     1
 74
     3
 75
     0
 76
     0
 77
     0
 78
     0
281
     0
 65
     1
110
0.0
120
0.0
130
0.0
111
1.0
121
0.0
131
0.0
112
0.0
122
1.0
132
0.0
 79
     0
146
0.0
  0
ENDTAB
  0
TABLE
  2
LTYPE
  5
5
330
0
100
AcDbSymbolTable
 70
     2
  0
LTYPE
  5
14
330
5
100
AcDbSymbolTableRecord
100
AcDbLinetypeTableRecord
  2
ByBlock
 70
     0
  3

 72
    65
 73
     0
 40
0.0
  0
LTYPE
  5
15
330
5
100
AcDbSymbolTableRecord
100
AcDbLinetypeTableRecord
  2
ByLayer
 70
     0
  3

 72
    65
 73
     0
 40
0.0
  0
LTYPE
  5
16
330
5
100
AcDbSymbolTableRecord
100
AcDbLinetypeTableRecord
  2
Continuous
 70
     0
  3
Solid line
 72
    65
 73
     0
 40
0.0
  0
LTYPE
  5
60
330
5
100
AcDbSymbolTableRecord
100
AcDbLinetypeTableRecord
  2
CENTER2
 70
     0
  3
Center (.5x) ___ _ ___ _ ___ _ ___ _ ___ _ ___
 72
    65
 73
     4
 40
28.575
 49
19.05
 74
     4
 75
     0
340
0
 46
0.0
 50
0.0
 44
0.0
 45
0.0
 49
-3.175
 74
     4
 75
     0
340
0
 46
0.0
 50
0.0
 44
0.0
 45
0.0
 49
3.175
 74
     4
 75
     0
340
0
 46
0.0
 50
0.0
 44
0.0
 45
0.0
 49
-3.175
 74
     4
 75
     0
340
0
 46
0.0
 50
0.0
 44
0.0
 45
0.0
  0
ENDTAB
  0
TABLE
  2
LAYER
  5
2
330
0
100
AcDbSymbolTable
 70
     8
  0
LAYER
  5
10
330
2
100
AcDbSymbolTableRecord
100
AcDbLayerTableRecord
  2
0
 70
     0
 62
     7
  6
Continuous
370
    -3
390
F
  0
LAYER
  5
5D
330
2
100
AcDbSymbolTableRecord
100
AcDbLayerTableRecord
  2
Default
 70
     0
 62
     7
  6
Continuous
370
    -3
390
F
  0
LAYER
  5
77
330
2
100
AcDbSymbolTableRecord
100
AcDbLayerTableRecord
  2
$DDT_AUDIT_GENERATED_(77)
 70
     0
 62
     7
  6
Continuous
370
    -3
390
F
  0
LAYER
  5
7C
330
2
100
AcDbSymbolTableRecord
100
AcDbLayerTableRecord
  2
$DDT_AUDIT_GENERATED_(7C)
 70
     0
 62
     7
  6
Continuous
370
    -3
390
F
  0
LAYER
  5
81
330
2
100
AcDbSymbolTableRecord
100
AcDbLayerTableRecord
  2
$DDT_AUDIT_GENERATED_(81)
 70
     0
 62
     7
  6
Continuous
370
    -3
390
F
  0
LAYER
  5
8C
330
2
100
AcDbSymbolTableRecord
100
AcDbLayerTableRecord
  2
$DDT_AUDIT_GENERATED_(8C)
 70
     0
 62
     7
  6
Continuous
370
    -3
390
F
  0
LAYER
  5
A3
330
2
100
AcDbSymbolTableRecord
100
AcDbLayerTableRecord
  2
$DDT_AUDIT_GENERATED_(A3)
 70
     0
 62
     7
  6
Continuous
370
    -3
390
F
  0
LAYER
  5
B2
330
2
100
AcDbSymbolTableRecord
100
AcDbLayerTableRecord
  2
$DDT_AUDIT_GENERATED_(B2)
 70
     0
 62
     7
  6
Continuous
370
    -3
390
F
  0
ENDTAB
  0
TABLE
  2
STYLE
  5
3
330
0
100
AcDbSymbolTable
 70
     2
  0
STYLE
  5
11
330
3
100
AcDbSymbolTableRecord
100
AcDbTextStyleTableRecord
  2
Standard
 70
     0
 40
0.0
 41
1.0
 50
0.0
 71
     0
 42
2.5
  3
txt
  4

  0
STYLE
  5
113
330
3
100
AcDbSymbolTableRecord
100
AcDbTextStyleTableRecord
  2
SEACAD_seiso_ttf
 70
     0
 40
0.0
 41
1.0
 50
0.0
 71
     0
 42
0.2
  3
seiso.ttf
  4

  0
ENDTAB
  0
TABLE
  2
VIEW
  5
6
330
0
100
AcDbSymbolTable
 70
     0
  0
ENDTAB
  0
TABLE
  2
UCS
  5
7
330
0
100
AcDbSymbolTable
 70
     0
  0
ENDTAB
  0
TABLE
  2
APPID
  5
9
330
0
100
AcDbSymbolTable
 70
     1
  0
APPID
  5
12
330
9
100
AcDbSymbolTableRecord
100
AcDbRegAppTableRecord
  2
ACAD
 70
     0
  0
ENDTAB
  0
TABLE
  2
DIMSTYLE
  5
A
330
0
100
AcDbSymbolTable
 70
     1
100
AcDbDimStyleTable
  0
DIMSTYLE
105
27
330
A
100
AcDbSymbolTableRecord
100
AcDbDimStyleTableRecord
  2
ISO-25
 70
     0
 41
2.5
 42
0.625
 43
3.75
 44
1.25
 73
     0
 74
     0
 77
     1
 78
     8
140
2.5
141
2.5
143
0.0393700787
147
0.625
171
     3
172
     1
271
     2
272
     2
274
     3
278
    44
283
     0
284
     8
340
11
  0
ENDTAB
  0
TABLE
  2
BLOCK_RECORD
  5
1
330
0
100
AcDbSymbolTable
 70
     7
  0
BLOCK_RECORD
  5
1F
330
1
100
AcDbSymbolTableRecord
100
AcDbBlockTableRecord
  2
*Model_Space
340
22
  0
BLOCK_RECORD
  5
1B
330
1
100
AcDbSymbolTableRecord
100
AcDbBlockTableRecord
  2
*Paper_Space
340
1E
  0
BLOCK_RECORD
  5
5E
330
1
100
AcDbSymbolTableRecord
100
AcDbBlockTableRecord
  2
SEANNOT_GROUP
340
0
102
{BLKREFS
331
5F
102
}
  0
BLOCK_RECORD
  5
69
330
1
100
AcDbSymbolTableRecord
100
AcDbBlockTableRecord
  2
SEANNOT_GROUP1
340
0
102
{BLKREFS
331
6A
102
}
  0
BLOCK_RECORD
  5
6F
330
1
100
AcDbSymbolTableRecord
100
AcDbBlockTableRecord
  2
SEANNOT_GROUP2
340
0
102
{BLKREFS
331
70
102
}
  0
BLOCK_RECORD
  5
75
330
1
100
AcDbSymbolTableRecord
100
AcDbBlockTableRecord
  2
SE
340
0
102
{BLKREFS
331
76
102
}
  0
BLOCK_RECORD
  5
91
330
1
100
AcDbSymbolTableRecord
100
AcDbBlockTableRecord
  2
SE1
340
0
102
{BLKREFS
331
92
102
}
  0
BLOCK_RECORD
  5
CB
330
1
100
AcDbSymbolTableRecord
100
AcDbBlockTableRecord
  2
SE2
340
0
102
{BLKREFS
331
CC
102
}
  0
ENDTAB
  0
ENDSEC
  0
SECTION
  2
BLOCKS
  0
BLOCK
  5
20
330
1F
100
AcDbEntity
  8
0
100
AcDbBlockBegin
  2
*Model_Space
 70
     0
 10
0.0
 20
0.0
 30
0.0
  3
*Model_Space
  1

  0
ENDBLK
  5
21
330
1F
100
AcDbEntity
  8
0
100
AcDbBlockEnd
  0
BLOCK
  5
1C
330
1B
100
AcDbEntity
 67
     1
  8
0
100
AcDbBlockBegin
  2
*Paper_Space
 70
     0
 10
0.0
 20
0.0
 30
0.0
  3
*Paper_Space
  1

  0
ENDBLK
  5
1D
330
1B
100
AcDbEntity
 67
     1
  8
0
100
AcDbBlockEnd
  0
BLOCK
  5
67
330
5E
100
AcDbEntity
  8
0
100
AcDbBlockBegin
  2
SEANNOT_GROUP
 70
     0
 10
0.0
 20
0.0
 30
0.0
  3
SEANNOT_GROUP
  1

  0
LINE
  5
61
330
5E
100
AcDbEntity
  8
Default
  6
CENTER2
 62
     7
100
AcDbLine
 10
111.3499995527
 20
415.4936719152
 30
0.0
 11
71.3500004468
 21
415.4936719152
 31
0.0
  0
LINE
  5
62
330
5E
100
AcDbEntity
  8
Default
  6
CENTER2
 62
     7
100
AcDbLine
 10
91.3499999998
 20
435.4936714681
 30
0.0
 11
91.3499999998
 21
395.4936723622
 31
0.0
  0
LINE
  5
63
330
5E
100
AcDbEntity
  8
Default
  6
CENTER2
 62
     7
100
AcDbLine
 10
116.349999441
 20
415.4936719152
 30
0.0
 11
121.8499999999
 21
415.4936719152
 31
0.0
  0
LINE
  5
64
330
5E
100
AcDbEntity
  8
Default
  6
CENTER2
 62
     7
100
AcDbLine
 10
91.3499999998
 20
440.4936713564
 30
0.0
 11
91.3499999998
 21
445.9936719153
 31
0.0
  0
LINE
  5
65
330
5E
100
AcDbEntity
  8
Default
  6
CENTER2
 62
     7
100
AcDbLine
 10
66.3500005586
 20
415.4936719152
 30
0.0
 11
60.8499999997
 21
415.4936719152
 31
0.0
  0
LINE
  5
66
330
5E
100
AcDbEntity
  8
Default
  6
CENTER2
 62
     7
100
AcDbLine
 10
91.3499999998
 20
390.493672474
 30
0.0
 11
91.3499999998
 21
384.993671915
 31
0.0
  0
ENDBLK
  5
68
330
5E
100
AcDbEntity
  8
0
100
AcDbBlockEnd
  0
BLOCK
  5
6D
330
69
100
AcDbEntity
  8
0
100
AcDbBlockBegin
  2
SEANNOT_GROUP1
 70
     0
 10
0.0
 20
0.0
 30
0.0
  3
SEANNOT_GROUP1
  1

  0
LINE
  5
6B
330
69
100
AcDbEntity
  8
Default
  6
CENTER2
 62
     7
100
AcDbLine
 10
331.7362561739
 20
416.6410714649
 30
0.0
 11
291.736257068
 21
416.6410714649
 31
0.0
  0
LINE
  5
6C
330
69
100
AcDbEntity
  8
Default
  6
CENTER2
 62
     7
100
AcDbLine
 10
311.7362566209
 20
436.6410710178
 30
0.0
 11
311.7362566209
 21
396.6410719119
 31
0.0
  0
ENDBLK
  5
6E
330
69
100
AcDbEntity
  8
0
100
AcDbBlockEnd
  0
BLOCK
  5
73
330
6F
100
AcDbEntity
  8
0
100
AcDbBlockBegin
  2
SEANNOT_GROUP2
 70
     0
 10
0.0
 20
0.0
 30
0.0
  3
SEANNOT_GROUP2
  1

  0
LINE
  5
71
330
6F
100
AcDbEntity
  8
Default
  6
CENTER2
 62
     7
100
AcDbLine
 10
111.349999553
 20
180.815255599
 30
0.0
 11
71.350000447
 21
180.815255599
 31
0.0
  0
LINE
  5
72
330
6F
100
AcDbEntity
  8
Default
  6
CENTER2
 62
     7
100
AcDbLine
 10
91.35
 20
200.8152551519
 30
0.0
 11
91.35
 21
160.815256046
 31
0.0
  0
ENDBLK
  5
74
330
6F
100
AcDbEntity
  8
0
100
AcDbBlockEnd
  0
BLOCK
  5
8F
330
75
100
AcDbEntity
  8
0
100
AcDbBlockBegin
  2
SE
 70
     0
 10
0.0
 20
0.0
 30
0.0
  3
SE
  1

  0
ARC
  5
78
330
75
100
AcDbEntity
  8
$DDT_AUDIT_GENERATED_(77)
  6
Continuous
 62
     7
100
AcDbCircle
 10
91.35
 20
415.4936719152
 30
0.0
 40
75.00000000000001
100
AcDbArc
 50
280.5239135146
 51
0.0
  0
ARC
  5
79
330
75
100
AcDbEntity
  8
$DDT_AUDIT_GENERATED_(77)
  6
Continuous
 62
     7
100
AcDbCircle
 10
91.35
 20
415.4936719152
 30
0.0
 40
75.00000000000001
100
AcDbArc
 50
0.0
 51
259.4852922456
  0
ARC
  5
7A
330
75
100
AcDbEntity
  8
$DDT_AUDIT_GENERATED_(77)
  6
Continuous
 62
     7
100
AcDbCircle
 10
91.35
 20
415.4936719152
 30
0.0
 40
85.0
100
AcDbArc
 50
278.6768939882
 51
0.0
  0
ARC
  5
7B
330
75
100
AcDbEntity
  8
$DDT_AUDIT_GENERATED_(77)
  6
Continuous
 62
     7
100
AcDbCircle
 10
91.35
 20
415.4936719152
 30
0.0
 40
85.0
100
AcDbArc
 50
0.0
 51
261.3242546136
  0
ARC
  5
7D
330
75
100
AcDbEntity
  8
$DDT_AUDIT_GENERATED_(7C)
  6
Continuous
 62
     7
100
AcDbCircle
 10
91.35
 20
415.4936719152
 30
0.0
 40
27.85484353333042
100
AcDbArc
 50
0.0
 51
227.4532177835
  0
ARC
  5
7E
330
75
100
AcDbEntity
  8
$DDT_AUDIT_GENERATED_(7C)
  6
Continuous
 62
     7
100
AcDbCircle
 10
91.35
 20
415.4936719152
 30
0.0
 40
27.85484353333042
100
AcDbArc
 50
312.193101912
 51
0.0
  0
ARC
  5
7F
330
75
100
AcDbEntity
  8
$DDT_AUDIT_GENERATED_(7C)
  6
Continuous
 62
     7
100
AcDbCircle
 10
91.35
 20
415.4936719152
 30
0.0
 40
30.00000000000001
100
AcDbArc
 50
0.0
 51
234.6025633433
  0
ARC
  5
80
330
75
100
AcDbEntity
  8
$DDT_AUDIT_GENERATED_(7C)
  6
Continuous
 62
     7
100
AcDbCircle
 10
91.35
 20
415.4936719152
 30
0.0
 40
30.00000000000001
100
AcDbArc
 50
305.39187875
 51
0.0
  0
ARC
  5
82
330
75
100
AcDbEntity
  8
$DDT_AUDIT_GENERATED_(81)
  6
Continuous
 62
     7
100
AcDbCircle
 10
55.0465025924
 20
386.3375181209
 30
0.0
 40
19.56205916517284
100
AcDbArc
 50
27.2330044071
 51
38.7525257884
  0
ARC
  5
83
330
75
100
AcDbEntity
  8
$DDT_AUDIT_GENERATED_(81)
  6
Continuous
 62
     7
100
AcDbCircle
 10
91.3499999998
 20
415.4936719152
 30
0.0
 40
27.00000000012956
100
AcDbArc
 50
321.2171963804
 51
218.7804695161
  0
ARC
  5
84
330
75
100
AcDbEntity
  8
$DDT_AUDIT_GENERATED_(81)
  6
Continuous
 62
     7
100
AcDbCircle
 10
127.6288196421
 20
386.3511558756
 30
0.0
 40
19.53427829195284
100
AcDbArc
 50
141.2365871019
 51
152.605951737
  0
ARC
  5
85
330
75
100
AcDbEntity
  8
$DDT_AUDIT_GENERATED_(81)
  6
Continuous
 62
     7
100
AcDbCircle
 10
128.288931209
 20
386.0072119161
 30
0.0
 40
20.26187114750183
100
AcDbArc
 50
152.9761406864
 51
176.947463772
  0
ARC
  5
86
330
75
100
AcDbEntity
  8
$DDT_AUDIT_GENERATED_(81)
  6
Continuous
 62
     7
100
AcDbCircle
 10
-1393.4755291877
 20
463.9104142413
 30
0.0
 40
1503.489575527254
100
AcDbArc
 50
354.6251093269
 51
357.0710795721
  0
ARC
  5
87
330
75
100
AcDbEntity
  8
$DDT_AUDIT_GENERATED_(81)
  6
Continuous
 62
     7
100
AcDbCircle
 10
54.3093470425
 20
385.9725452643
 30
0.0
 40
20.36756060204385
100
AcDbArc
 50
3.1260606881
 51
26.8251825187
  0
SPLINE
  5
88
330
75
100
AcDbEntity
  8
$DDT_AUDIT_GENERATED_(81)
  6
Continuous
 62
     7
100
AcDbSpline
210
0.0
220
0.0
230
1.0
 70
     8
 71
     3
 72
    15
 73
    11
 74
     0
 42
0.0000000015690227
 43
0.0000000001
 40
0.0
 40
0.0
 40
0.0
 40
0.0
 40
0.1267803675862601
 40
0.2926962324276812
 40
0.4568264187119618
 40
0.5950693853847151
 40
0.7037011843461164
 40
0.8118204280814806
 40
0.9265752351918058
 40
1.0
 40
1.0
 40
1.0
 40
1.0
 10
99.50744307729616
 20
318.3789511325818
 30
0.0
 10
99.77045219289995
 20
318.5136610644022
 30
0.0
 10
100.2828000260436
 20
318.7807849555127
 30
0.0
 10
101.092915424403
 20
319.3558328074536
 30
0.0
 10
101.8294246941129
 20
320.0177145857626
 30
0.0
 10
102.4085282330247
 20
320.6735509197962
 30
0.0
 10
102.8436579205289
 20
321.2923586827366
 30
0.0
 10
103.1516219222447
 20
321.9215331033778
 30
0.0
 10
103.3463959073705
 20
322.5373189100057
 30
0.0
 10
103.3884516968947
 20
322.904110136971
 30
0.0
 10
103.406309475059
 20
323.0726280897584
 30
0.0
  0
ARC
  5
89
330
75
100
AcDbEntity
  8
$DDT_AUDIT_GENERATED_(81)
  6
Continuous
 62
     7
100
AcDbCircle
 10
1579.9714305928
 20
464.1329469284
 30
0.0
 40
1507.292327497031
100
AcDbArc
 50
182.9301138412
 51
185.3698539887
  0
ARC
  5
8A
330
75
100
AcDbEntity
  8
$DDT_AUDIT_GENERATED_(81)
  6
Continuous
 62
     7
100
AcDbCircle
 10
91.3440607902
 20
333.9833524256
 30
0.0
 40
17.59991266600264
100
AcDbArc
 50
242.3899153256
 51
297.6162668466
  0
SPLINE
  5
8B
330
75
100
AcDbEntity
  8
$DDT_AUDIT_GENERATED_(81)
  6
Continuous
 62
     7
100
AcDbSpline
210
0.0
220
0.0
230
1.0
 70
     8
 71
     3
 72
    15
 73
    11
 74
     0
 42
0.0000000015712474
 43
0.0000000001
 40
0.0
 40
0.0
 40
0.0
 40
0.0
 40
0.0904620499244325
 40
0.1952431247171542
 40
0.3069168447465001
 40
0.4096787107462999
 40
0.5394030704171375
 40
0.6798731121654399
 40
0.8387933540782568
 40
1.0
 40
1.0
 40
1.0
 40
1.0
 10
79.28839114978611
 20
323.0716126815929
 30
0.0
 10
79.3135980603051
 20
322.8641477049797
 30
0.0
 10
79.36363384146937
 20
322.4851447673621
 30
0.0
 10
79.57379886164445
 20
321.8538758209979
 30
0.0
 10
79.88318083225091
 20
321.2546912128834
 30
0.0
 10
80.30590397794786
 20
320.6575772095409
 30
0.0
 10
80.82917443608058
 20
320.0619413878355
 30
0.0
 10
81.496339821648
 20
319.4481218197943
 30
0.0
 10
82.29722964564614
 20
318.8528516652793
 30
0.0
 10
82.85000512809265
 20
318.5522944443939
 30
0.0
 10
83.18120837902867
 20
318.3757756619902
 30
0.0
  0
CIRCLE
  5
8D
330
75
100
AcDbEntity
  8
$DDT_AUDIT_GENERATED_(8C)
  6
Continuous
 62
     7
100
AcDbCircle
 10
127.35
 20
425.4936719152
 30
0.0
 40
6.0
  0
CIRCLE
  5
8E
330
75
100
AcDbEntity
  8
$DDT_AUDIT_GENERATED_(8C)
  6
Continuous
 62
     7
100
AcDbCircle
 10
55.35
 20
425.4936719152
 30
0.0
 40
6.0
  0
ENDBLK
  5
90
330
75
100
AcDbEntity
  8
0
100
AcDbBlockEnd
  0
BLOCK
  5
C9
330
91
100
AcDbEntity
  8
0
100
AcDbBlockBegin
  2
SE1
 70
     0
 10
0.0
 20
0.0
 30
0.0
  3
SE1
  1

  0
LINE
  5
93
330
91
100
AcDbEntity
  8
$DDT_AUDIT_GENERATED_(77)
  6
Continuous
 62
     7
100
AcDbLine
 10
322.5362566209
 20
332.0936719152
 30
0.0
 11
322.5362566209
 21
498.8936719152
 31
0.0
  0
LINE
  5
94
330
91
100
AcDbEntity
  8
$DDT_AUDIT_GENERATED_(77)
  6
Continuous
 62
     7
100
AcDbLine
 10
315.2362566209
 20
330.5466295888
 30
0.0
 11
315.2362566209
 21
500.4936719152
 31
0.0
  0
ARC
  5
95
330
91
100
AcDbEntity
  8
$DDT_AUDIT_GENERATED_(77)
  6
Continuous
 62
     7
100
AcDbCircle
 10
315.235127154
 20
245.4826464088
 30
0.0
 40
85.06398318753341
100
AcDbArc
 50
87.9781371789
 51
89.9992392351
  0
SPLINE
  5
96
330
91
100
AcDbEntity
  8
$DDT_AUDIT_GENERATED_(77)
  6
Continuous
 62
     7
100
AcDbSpline
210
0.0
220
0.0
230
1.0
 70
     8
 71
     3
 72
    14
 73
    10
 74
     0
 42
0.0000000002347277
 43
0.0000000001
 40
0.4557092564220415
 40
0.4557092564220415
 40
0.4557092564220415
 40
0.4557092564220415
 40
0.4999999999999992
 40
0.4999999999999992
 40
0.6249999999999992
 40
0.6249999999999992
 40
0.6874999999999992
 40
0.6874999999999992
 40
0.7241236473961781
 40
0.7241236473961781
 40
0.7241236473961781
 40
0.7241236473961781
 10
327.0290182354805
 20
431.1912791841526
 30
0.0
 10
327.0738492420534
 20
430.7300602600613
 30
0.0
 10
327.1154969819755
 20
430.1944989452662
 30
0.0
 10
327.2563937928196
 20
427.9414898180299
 30
0.0
 10
327.3216729277592
 20
425.8160466062513
 30
0.0
 10
327.3360277466865
 20
422.8773118210495
 30
0.0
 10
327.3274442472164
 20
421.9321939868664
 30
0.0
 10
327.2932817355841
 20
420.6126662576546
 30
0.0
 10
327.2763514130645
 20
420.1654839758179
 30
0.0
 10
327.2553468702996
 20
419.7667256560624
 30
0.0
  0
ARC
  5
97
330
91
100
AcDbEntity
  8
$DDT_AUDIT_GENERATED_(77)
  6
Continuous
 62
     7
100
AcDbCircle
 10
320.9362566209
 20
332.0936719152
 30
0.0
 40
1.600000000000004
100
AcDbArc
 50
270.0
 51
0.0
  0
ARC
  5
98
330
91
100
AcDbEntity
  8
$DDT_AUDIT_GENERATED_(77)
  6
Continuous
 62
     7
100
AcDbCircle
 10
320.9362566209
 20
498.8936719152
 30
0.0
 40
1.6
100
AcDbArc
 50
0.0
 51
90.0
  0
LINE
  5
99
330
91
100
AcDbEntity
  8
$DDT_AUDIT_GENERATED_(77)
  6
Continuous
 62
     7
100
AcDbLine
 10
318.1978333333
 20
330.4936719152
 30
0.0
 11
320.9362566209
 21
330.4936719152
 31
0.0
  0
LINE
  5
9A
330
91
100
AcDbEntity
  8
$DDT_AUDIT_GENERATED_(77)
  6
Continuous
 62
     7
100
AcDbLine
 10
320.9362566209
 20
500.4936719152
 30
0.0
 11
315.2362566209
 21
500.4936719152
 31
0.0
  0
ARC
  5
9B
330
91
100
AcDbEntity
  8
$DDT_AUDIT_GENERATED_(77)
  6
Continuous
 62
     7
100
AcDbCircle
 10
-122.0258202518
 20
410.2400682854
 30
0.0
 40
450.0000000000001
100
AcDbArc
 50
351.0836681881
 51
356.9691194101
  0
ARC
  5
9C
330
91
100
AcDbEntity
  8
$DDT_AUDIT_GENERATED_(77)
  6
Continuous
 62
     7
100
AcDbCircle
 10
-122.0258202518
 20
420.747275545
 30
0.0
 40
450.0000000000001
100
AcDbArc
 50
3.0308805899
 51
8.9163318119
  0
ARC
  5
9D
330
91
100
AcDbEntity
  8
$DDT_AUDIT_GENERATED_(77)
  6
Continuous
 62
     7
100
AcDbCircle
 10
325.746949895
 20
444.4560569362
 30
0.0
 40
1.600000000000001
100
AcDbArc
 50
0.0
 51
3.0308805899
  0
ARC
  5
9E
330
91
100
AcDbEntity
  8
$DDT_AUDIT_GENERATED_(77)
  6
Continuous
 62
     7
100
AcDbCircle
 10
325.746949895
 20
386.5312868942
 30
0.0
 40
1.600000000000003
100
AcDbArc
 50
356.9691194102
 51
0.0
  0
LINE
  5
9F
330
91
100
AcDbEntity
  8
$DDT_AUDIT_GENERATED_(77)
  6
Continuous
 62
     7
100
AcDbLine
 10
327.346949895
 20
386.5312868942
 30
0.0
 11
327.346949895
 21
444.4560569362
 31
0.0
  0
SPLINE
  5
A0
330
91
100
AcDbEntity
  8
$DDT_AUDIT_GENERATED_(77)
  6
Continuous
 62
     7
100
AcDbSpline
210
0.0
220
0.0
230
1.0
 70
     8
 71
     3
 72
    16
 73
    12
 74
     0
 42
0.0000000025704897
 43
0.0000000001
 40
0.1953687826153
 40
0.1953687826153
 40
0.1953687826153
 40
0.1953687826153
 40
0.2146054769189595
 40
0.2816735696976655
 40
0.363057615468378
 40
0.4570548417848806
 40
0.561417750383635
 40
0.6733689757623956
 40
0.7892450937518604
 40
0.9065574226941489
 40
1.0
 40
1.0
 40
1.0
 40
1.0
 10
326.7558793067886
 20
418.4001606942874
 30
0.0
 10
326.7558750149849
 20
418.4001653535043
 30
0.0
 10
326.7541496850794
 20
418.4056481989344
 30
0.0
 10
326.7404219241773
 20
418.4575574792378
 30
0.0
 10
326.709627874616
 20
418.6086609072278
 30
0.0
 10
326.6677336937265
 20
418.86597050023
 30
0.0
 10
326.6190503859116
 20
419.2316853141211
 30
0.0
 10
326.5668444694224
 20
419.7062783471035
 30
0.0
 10
326.5146917606149
 20
420.2769329758233
 30
0.0
 10
326.4666752280261
 20
420.8985877026371
 30
0.0
 10
326.440892150765
 20
421.2992972405686
 30
0.0
 10
326.4274571004658
 20
421.5103051023426
 30
0.0
  0
SPLINE
  5
A1
330
91
100
AcDbEntity
  8
$DDT_AUDIT_GENERATED_(77)
  6
Continuous
 62
     7
100
AcDbSpline
210
0.0
220
0.0
230
1.0
 70
     8
 71
     3
 72
    20
 73
    16
 74
     0
 42
0.0000000013815976
 43
0.0000000001
 40
0.0
 40
0.0
 40
0.0
 40
0.0
 40
0.0062457450138116
 40
0.0888209099321257
 40
0.1713165447506035
 40
0.2543219728035251
 40
0.3362356589389858
 40
0.4183211195340313
 40
0.5001796793802162
 40
0.5802670082035348
 40
0.6603250913999456
 40
0.72809557380024
 40
0.7905711877296967
 40
0.8427251075833594
 40
0.8608044074746264
 40
0.8608044074746264
 40
0.8608044074746264
 40
0.8608044074746264
 10
326.2653484539491
 20
426.1267352689896
 30
0.0
 10
326.2649464890546
 20
426.1512228405867
 30
0.0
 10
326.2600380478635
 20
426.4510630999461
 30
0.0
 10
326.2567678382521
 20
427.0743608804833
 30
0.0
 10
326.2571780478413
 20
427.91712520551
 30
0.0
 10
326.2656687985898
 20
428.7314195662993
 30
0.0
 10
326.2815269226572
 20
429.4920242474269
 30
0.0
 10
326.3042586152028
 20
430.1911460394111
 30
0.0
 10
326.333183113689
 20
430.8153957684369
 30
0.0
 10
326.3675895423892
 20
431.3526664526441
 30
0.0
 10
326.4041142266685
 20
431.775604769442
 30
0.0
 10
326.4393942677527
 20
432.0809558821619
 30
0.0
 10
326.4682514110378
 20
432.2658449046498
 30
0.0
 10
326.4837926285417
 20
432.3378506465856
 30
0.0
 10
326.4862966724173
 20
432.3469924068331
 30
0.0
 10
326.4862949197502
 20
432.3469944773216
 30
0.0
  0
ARC
  5
A2
330
91
100
AcDbEntity
  8
$DDT_AUDIT_GENERATED_(77)
  6
Continuous
 62
     7
100
AcDbCircle
 10
423.5795909956
 20
427.2329204841
 30
0.0
 40
97.32052942308151
100
AcDbArc
 50
180.6512614488
 51
183.3710354368
  0
LINE
  5
A4
330
91
100
AcDbEntity
  8
$DDT_AUDIT_GENERATED_(A3)
  6
Continuous
 62
     7
100
AcDbLine
 10
348.8362566209
 20
414.7146665044
 30
0.0
 11
348.8362566209
 21
440.9168365095
 31
0.0
  0
ARC
  5
A5
330
91
100
AcDbEntity
  8
$DDT_AUDIT_GENERATED_(A3)
  6
Continuous
 62
     7
100
AcDbCircle
 10
340.7362566209
 20
415.4936719152
 30
0.0
 40
26.3
100
AcDbArc
 50
42.4455461326
 51
72.0621734783
  0
LINE
  5
A6
330
91
100
AcDbEntity
  8
$DDT_AUDIT_GENERATED_(A3)
  6
Continuous
 62
     7
100
AcDbLine
 10
329.5362566209
 20
389.4064315858
 30
0.0
 11
348.3406196649
 21
389.5705263574
 31
0.0
  0
LINE
  5
A7
330
91
100
AcDbEntity
  8
$DDT_AUDIT_GENERATED_(A3)
  6
Continuous
 62
     7
100
AcDbLine
 10
348.3406196649
 20
441.416817473
 30
0.0
 11
329.5362566209
 21
441.5809122446
 31
0.0
  0
ARC
  5
A8
330
91
100
AcDbEntity
  8
$DDT_AUDIT_GENERATED_(A3)
  6
Continuous
 62
     7
100
AcDbCircle
 10
348.3362566209
 20
440.9168365095
 30
0.0
 40
0.5000000000000004
100
AcDbArc
 50
0.0
 51
89.500025649
  0
ARC
  5
A9
330
91
100
AcDbEntity
  8
$DDT_AUDIT_GENERATED_(A3)
  6
Continuous
 62
     7
100
AcDbCircle
 10
348.3362566209
 20
390.0705073208
 30
0.0
 40
0.4999999999999991
100
AcDbArc
 50
270.499974351
 51
325.1438896201
  0
LINE
  5
AA
330
91
100
AcDbEntity
  8
$DDT_AUDIT_GENERATED_(7C)
  6
Continuous
 62
     7
100
AcDbLine
 10
329.5362566209
 20
443.3485154485
 30
0.0
 11
329.5362566209
 21
387.6388283819
 31
0.0
  0
LINE
  5
AB
330
91
100
AcDbEntity
  8
$DDT_AUDIT_GENERATED_(7C)
  6
Continuous
 62
     7
100
AcDbLine
 10
327.7362566209
 20
445.4936719152
 30
0.0
 11
327.7362566209
 21
385.4936719152
 31
0.0
  0
LINE
  5
AC
330
91
100
AcDbEntity
  8
$DDT_AUDIT_GENERATED_(7C)
  6
Continuous
 62
     7
100
AcDbLine
 10
327.7362566209
 20
385.4936719152
 30
0.0
 11
329.5362566209
 21
387.6388283819
 31
0.0
  0
LINE
  5
AD
330
91
100
AcDbEntity
  8
$DDT_AUDIT_GENERATED_(7C)
  6
Continuous
 62
     7
100
AcDbLine
 10
329.5362566209
 20
443.3485154485
 30
0.0
 11
327.7362566209
 21
445.4936719152
 31
0.0
  0
LINE
  5
AE
330
91
100
AcDbEntity
  8
$DDT_AUDIT_GENERATED_(7C)
  6
Continuous
 62
     7
100
AcDbLine
 10
327.7362566209
 20
445.4936719152
 30
0.0
 11
327.4362566209
 21
445.4936719152
 31
0.0
  0
LINE
  5
AF
330
91
100
AcDbEntity
  8
$DDT_AUDIT_GENERATED_(7C)
  6
Continuous
 62
     7
100
AcDbLine
 10
327.4362566209
 20
385.4936719152
 30
0.0
 11
327.7362566209
 21
385.4936719152
 31
0.0
  0
LINE
  5
B0
330
91
100
AcDbEntity
  8
$DDT_AUDIT_GENERATED_(7C)
  6
Continuous
 62
     7
100
AcDbLine
 10
327.4362566209
 20
442.7436719152
 30
0.0
 11
327.346949895
 21
442.7436719152
 31
0.0
  0
LINE
  5
B1
330
91
100
AcDbEntity
  8
$DDT_AUDIT_GENERATED_(7C)
  6
Continuous
 62
     7
100
AcDbLine
 10
327.346949895
 20
388.2436719152
 30
0.0
 11
327.4362566209
 21
388.2436719152
 31
0.0
  0
LINE
  5
B3
330
91
100
AcDbEntity
  8
$DDT_AUDIT_GENERATED_(B2)
  6
Continuous
 62
     7
100
AcDbLine
 10
311.7362566209
 20
338.0884710145
 30
0.0
 11
311.7362566209
 21
495.1936719152
 31
0.0
  0
LINE
  5
B4
330
91
100
AcDbEntity
  8
$DDT_AUDIT_GENERATED_(B2)
  6
Continuous
 62
     7
100
AcDbLine
 10
311.7362566209
 20
338.0884710145
 30
0.0
 11
315.2362566209
 21
335.2361828797
 31
0.0
  0
LINE
  5
B5
330
91
100
AcDbEntity
  8
$DDT_AUDIT_GENERATED_(B2)
  6
Continuous
 62
     7
100
AcDbLine
 10
315.2362566209
 20
498.1305206243
 30
0.0
 11
311.7362566209
 21
495.1936719152
 31
0.0
  0
ARC
  5
B6
330
91
100
AcDbEntity
  8
$DDT_AUDIT_GENERATED_(81)
  6
Continuous
 62
     7
100
AcDbCircle
 10
360.924893426
 20
356.9516882499
 30
0.0
 40
31.73897251322125
100
AcDbArc
 50
83.6131474231
 51
96.3868495223
  0
LINE
  5
B7
330
91
100
AcDbEntity
  8
$DDT_AUDIT_GENERATED_(81)
  6
Continuous
 62
     7
100
AcDbLine
 10
349.6926877099
 20
416.5184163076
 30
0.0
 11
365.6300898024
 21
442.0235911794
 31
0.0
  0
SPLINE
  5
B8
330
91
100
AcDbEntity
  8
$DDT_AUDIT_GENERATED_(81)
  6
Continuous
 62
     7
100
AcDbSpline
210
0.0
220
0.0
230
1.0
 70
     8
 71
     3
 72
    19
 73
    15
 74
     0
 42
0.0000000000800237
 43
0.0000000001
 40
0.0
 40
0.0
 40
0.0
 40
0.0
 40
0.0749069852318445
 40
0.1566984120794051
 40
0.2383185425050985
 40
0.3197971079719096
 40
0.4011903823218055
 40
0.4825008046844714
 40
0.5637055815389858
 40
0.6528610090981297
 40
0.741769993758942
 40
0.8304290846331198
 40
0.9189456220359942
 40
1.0
 40
1.0
 40
1.0
 40
1.0
 10
378.1479279418766
 20
317.3456949813284
 30
0.0
 10
378.8510495472756
 20
320.7045826463989
 30
0.0
 10
380.0809658491644
 20
326.6340625630189
 30
0.0
 10
381.947859240951
 20
336.589483782462
 30
0.0
 10
383.561293331705
 20
346.6052754101968
 30
0.0
 10
384.8400951409253
 20
356.7247456484617
 30
0.0
 10
385.7061204217971
 20
366.8562470230208
 30
0.0
 10
386.1921727081647
 20
377.0059237930133
 30
0.0
 10
386.317125704917
 20
387.489604633342
 30
0.0
 10
386.061161070735
 20
398.2828225777371
 30
0.0
 10
385.3991239184099
 20
409.3900932490642
 30
0.0
 10
384.3882168072529
 20
420.3664027696483
 30
0.0
 10
383.1123175041584
 20
431.2670476441551
 30
0.0
 10
382.2271969105788
 20
437.7601961408632
 30
0.0
 10
381.7191964967868
 20
441.4386036494726
 30
0.0
  0
ARC
  5
B9
330
91
100
AcDbEntity
  8
$DDT_AUDIT_GENERATED_(81)
  6
Continuous
 62
     7
100
AcDbCircle
 10
123.8685497087
 20
377.8915174578
 30
0.0
 40
252.8390252083365
100
AcDbArc
 50
347.7341787501
 51
0.1360505104
  0
LINE
  5
BA
330
91
100
AcDbEntity
  8
$DDT_AUDIT_GENERATED_(81)
  6
Continuous
 62
     7
100
AcDbLine
 10
371.3587317853
 20
322.5193312874
 30
0.0
 11
376.0390546235
 21
316.8267047066
 31
0.0
  0
ARC
  5
BB
330
91
100
AcDbEntity
  8
$DDT_AUDIT_GENERATED_(81)
  6
Continuous
 62
     7
100
AcDbCircle
 10
366.7141699328
 20
378.4936735611
 30
0.0
 40
9.999998771760506
100
AcDbArc
 50
359.9844188195
 51
89.9999970732
  0
ARC
  5
BC
330
91
100
AcDbEntity
  8
$DDT_AUDIT_GENERATED_(81)
  6
Continuous
 62
     7
100
AcDbCircle
 10
372.9039116521
 20
323.787625595
 30
0.0
 40
2.00278999674038
100
AcDbArc
 50
168.8349740253
 51
219.3797073375
  0
ARC
  5
BD
330
91
100
AcDbEntity
  8
$DDT_AUDIT_GENERATED_(81)
  6
Continuous
 62
     7
100
AcDbCircle
 10
380.5454193774
 20
441.3025540004
 30
0.0
 40
1.183726783989833
100
AcDbArc
 50
3.2199793385
 51
90.6882866944
  0
ARC
  5
BE
330
91
100
AcDbEntity
  8
$DDT_AUDIT_GENERATED_(81)
  6
Continuous
 62
     7
100
AcDbCircle
 10
376.9784616885
 20
317.5748520713
 30
0.0
 40
1.196395632735608
100
AcDbArc
 50
218.5196255162
 51
348.9303459371
  0
LINE
  5
BF
330
91
100
AcDbEntity
  8
$DDT_AUDIT_GENERATED_(81)
  6
Continuous
 62
     7
100
AcDbLine
 10
364.455616114
 20
388.4936719152
 30
0.0
 11
366.7143475004
 21
388.4936719152
 31
0.0
  0
LINE
  5
C0
330
91
100
AcDbEntity
  8
$DDT_AUDIT_GENERATED_(81)
  6
Continuous
 62
     7
100
AcDbLine
 10
349.6119940078
 20
388.4936719152
 30
0.0
 11
357.4248089051
 21
388.4936719152
 31
0.0
  0
LINE
  5
C1
330
91
100
AcDbEntity
  8
$DDT_AUDIT_GENERATED_(81)
  6
Continuous
 62
     7
100
AcDbLine
 10
380.5326370018
 20
442.4936719152
 30
0.0
 11
366.4781378986
 21
442.4936719152
 31
0.0
  0
ARC
  5
C2
330
91
100
AcDbEntity
  8
$DDT_AUDIT_GENERATED_(81)
  6
Continuous
 62
     7
100
AcDbCircle
 10
349.6119940078
 20
389.4936719152
 30
0.0
 40
0.9999999999997597
100
AcDbArc
 50
219.1280654847
 51
270.0
  0
ARC
  5
C3
330
91
100
AcDbEntity
  8
$DDT_AUDIT_GENERATED_(81)
  6
Continuous
 62
     7
100
AcDbCircle
 10
366.4781378986
 20
441.4936719152
 30
0.0
 40
1.000000000000001
100
AcDbArc
 50
90.2900226672
 51
148.0
  0
ARC
  5
C4
330
91
100
AcDbEntity
  8
$DDT_AUDIT_GENERATED_(81)
  6
Continuous
 62
     7
100
AcDbCircle
 10
349.1465515757
 20
389.1150383953
 30
0.0
 40
0.3999999999999976
100
AcDbArc
 50
180.0
 51
219.1280654846
  0
LINE
  5
C5
330
91
100
AcDbEntity
  8
$DDT_AUDIT_GENERATED_(81)
  6
Continuous
 62
     7
100
AcDbLine
 10
348.7465515757
 20
413.9343336472
 30
0.0
 11
348.7465515757
 21
389.1150383953
 31
0.0
  0
ARC
  5
C6
330
91
100
AcDbEntity
  8
$DDT_AUDIT_GENERATED_(81)
  6
Continuous
 62
     7
100
AcDbCircle
 10
351.9047750562
 20
414.014275644
 30
0.0
 40
3.149612111291274
100
AcDbArc
 50
154.202781905
 51
181.4469967008
  0
ARC
  5
C7
330
91
100
AcDbEntity
  8
$DDT_AUDIT_GENERATED_(81)
  6
Continuous
 62
     7
100
AcDbCircle
 10
349.7717814215
 20
415.1053740837
 30
0.0
 40
0.7587303321267248
100
AcDbArc
 50
151.0780484143
 51
158.2790960786
  0
ARC
  5
C8
330
91
100
AcDbEntity
  8
$DDT_AUDIT_GENERATED_(81)
  6
Continuous
 62
     7
100
AcDbCircle
 10
361.2209014083
 20
409.3769715685
 30
0.0
 40
13.55884433603826
100
AcDbArc
 50
148.5094408326
 51
153.2898271993
  0
ENDBLK
  5
CA
330
91
100
AcDbEntity
  8
0
100
AcDbBlockEnd
  0
BLOCK
  5
111
330
CB
100
AcDbEntity
  8
0
100
AcDbBlockBegin
  2
SE2
 70
     0
 10
0.0
 20
0.0
 30
0.0
  3
SE2
  1

  0
LINE
  5
CD
330
CB
100
AcDbEntity
  8
$DDT_AUDIT_GENERATED_(77)
  6
Continuous
 62
     7
100
AcDbLine
 10
174.75
 20
170.015255599
 30
0.0
 11
7.95
 21
170.015255599
 31
0.0
  0
LINE
  5
CE
330
CB
100
AcDbEntity
  8
$DDT_AUDIT_GENERATED_(77)
  6
Continuous
 62
     7
100
AcDbLine
 10
6.35
 20
177.315255599
 30
0.0
 11
176.35
 21
177.315255599
 31
0.0
  0
SPLINE
  5
CF
330
CB
100
AcDbEntity
  8
$DDT_AUDIT_GENERATED_(77)
  6
Continuous
 62
     7
100
AcDbSpline
210
0.0
220
0.0
230
1.0
 70
     8
 71
     3
 72
    18
 73
    14
 74
     0
 42
0.0000000002795709
 43
0.0000000001
 40
0.1387582905496794
 40
0.1387582905496794
 40
0.1387582905496794
 40
0.1387582905496794
 40
0.2499999999999992
 40
0.2499999999999992
 40
0.3124999999999992
 40
0.3124999999999992
 40
0.3749999999999992
 40
0.3749999999999992
 40
0.4374999999999992
 40
0.4374999999999992
 40
0.4999999999999992
 40
0.4999999999999992
 40
0.5518791419725515
 40
0.5518791419725515
 40
0.5518791419725515
 40
0.5518791419725515
 10
48.41508937427335
 20
166.300428904745
 30
0.0
 10
48.92612975397995
 20
166.2977957391101
 30
0.0
 10
50.05163524616532
 20
166.248595077174
 30
0.0
 10
52.3703497050175
 20
166.1165505240772
 30
0.0
 10
53.31595514658537
 20
166.0582429489785
 30
0.0
 10
55.28550499942811
 20
165.9293054667071
 30
0.0
 10
56.29645138221318
 20
165.8596081474615
 30
0.0
 10
58.27540162073184
 20
165.7165772839191
 30
0.0
 10
59.20725796464507
 20
165.6458647389204
 30
0.0
 10
60.87066276805651
 20
165.5127171487808
 30
0.0
 10
61.5901191253404
 20
165.4511703852327
 30
0.0
 10
62.60160983404258
 20
165.3559752434877
 30
0.0
 10
62.94190885712289
 20
165.3194731536994
 30
0.0
 10
63.15467303294444
 20
165.2908588286225
 30
0.0
  0
SPLINE
  5
D0
330
CB
100
AcDbEntity
  8
$DDT_AUDIT_GENERATED_(77)
  6
Continuous
 62
     7
100
AcDbSpline
210
0.0
220
0.0
230
1.0
 70
     8
 71
     3
 72
    16
 73
    12
 74
     0
 42
0.0000000002653991
 43
0.0000000001
 40
0.6326916072766747
 40
0.6326916072766747
 40
0.6326916072766747
 40
0.6326916072766747
 40
0.6874999999999992
 40
0.6874999999999992
 40
0.7499999999999993
 40
0.7499999999999993
 40
0.8124999999999994
 40
0.8124999999999994
 40
0.8749999999999997
 40
0.8749999999999997
 40
1.0
 40
1.0
 40
1.0
 40
1.0
 10
63.18676761740692
 20
165.2191094614865
 30
0.0
 10
62.97069197790381
 20
165.2177933757778
 30
0.0
 10
62.60621925766799
 20
165.2267188499409
 30
0.0
 10
61.55223256027728
 20
165.2671486508638
 30
0.0
 10
60.83214273263307
 20
165.3012356364158
 30
0.0
 10
59.14487112200566
 20
165.3921776448676
 30
0.0
 10
58.20644241289565
 20
165.447496606601
 30
0.0
 10
56.23640524352476
 20
165.5725230191212
 30
0.0
 10
55.21617755909809
 20
165.6415871069706
 30
0.0
 10
52.28313935869349
 20
165.8525588661777
 30
0.0
 10
50.49672977203722
 20
165.9988317734324
 30
0.0
 10
49.37797521541252
 20
166.1091819723667
 30
0.0
  0
SPLINE
  5
D1
330
CB
100
AcDbEntity
  8
$DDT_AUDIT_GENERATED_(77)
  6
Continuous
 62
     7
100
AcDbSpline
210
0.0
220
0.0
230
1.0
 70
     8
 71
     3
 72
    18
 73
    14
 74
     0
 42
0.0000000002704268
 43
0.0000000001
 40
0.0
 40
0.0
 40
0.0
 40
0.0
 40
0.0625000000000001
 40
0.0625000000000001
 40
0.1250000000000001
 40
0.1250000000000001
 40
0.2500000000000002
 40
0.2500000000000002
 40
0.3125000000000001
 40
0.3125000000000001
 40
0.3749999999999999
 40
0.3749999999999999
 40
0.3770374026540034
 40
0.3770374026540034
 40
0.3770374026540034
 40
0.3770374026540034
 10
133.3274984172958
 20
166.1097221031828
 30
0.0
 10
132.7691976076689
 20
166.0546062114933
 30
0.0
 10
132.0561873124219
 20
165.9913710107011
 30
0.0
 10
130.3943121370613
 20
165.8553367220413
 30
0.0
 10
129.453661927774
 20
165.783320070284
 30
0.0
 10
126.5219815063918
 20
165.5723163565034
 30
0.0
 10
124.3987036263559
 20
165.4377795550332
 30
0.0
 10
121.8949342162878
 20
165.3026290368256
 30
0.0
 10
121.1638650855811
 20
165.2678741208042
 30
0.0
 10
120.0363196902774
 20
165.2244093547042
 30
0.0
 10
119.6391662706412
 20
165.2155264330697
 30
0.0
 10
119.4289615839172
 20
165.22031484096
 30
0.0
 10
119.4225368080953
 20
165.2204801874666
 30
0.0
 10
119.4163231829102
 20
165.2206596835347
 30
0.0
  0
SPLINE
  5
D2
330
CB
100
AcDbEntity
  8
$DDT_AUDIT_GENERATED_(77)
  6
Continuous
 62
     7
100
AcDbSpline
210
0.0
220
0.0
230
1.0
 70
     8
 71
     3
 72
    16
 73
    12
 74
     0
 42
0.0000000002770248
 43
0.0000000001
 40
0.44927828840255
 40
0.44927828840255
 40
0.44927828840255
 40
0.44927828840255
 40
0.4999999999999997
 40
0.4999999999999997
 40
0.6249999999999996
 40
0.6249999999999996
 40
0.6874999999999997
 40
0.6874999999999997
 40
0.7499999999999999
 40
0.7499999999999999
 40
0.8565880255293743
 40
0.8565880255293743
 40
0.8565880255293743
 40
0.8565880255293743
 10
119.5473482560846
 20
165.2917403501244
 30
0.0
 10
119.7616691152198
 20
165.3201172802517
 30
0.0
 10
120.1012232604689
 20
165.3561905514074
 30
0.0
 10
121.6513856556849
 20
165.5022582251189
 30
0.0
 10
123.442211449751
 20
165.6454850643145
 30
0.0
 10
126.3706222567946
 20
165.8572722379541
 30
0.0
 10
127.3931400923335
 20
165.9278518256736
 30
0.0
 10
129.3594487198276
 20
166.056687098491
 30
0.0
 10
130.3016745106678
 20
166.1148906519571
 30
0.0
 10
132.5835379979241
 20
166.2450151885858
 30
0.0
 10
133.6730392333736
 20
166.2934791536533
 30
0.0
 10
134.2130719253084
 20
166.2998417608535
 30
0.0
  0
ARC
  5
D3
330
CB
100
AcDbEntity
  8
$DDT_AUDIT_GENERATED_(77)
  6
Continuous
 62
     7
100
AcDbCircle
 10
7.95
 20
171.615255599
 30
0.0
 40
1.600000000000004
100
AcDbArc
 50
180.0
 51
270.0
  0
ARC
  5
D4
330
CB
100
AcDbEntity
  8
$DDT_AUDIT_GENERATED_(77)
  6
Continuous
 62
     7
100
AcDbCircle
 10
174.75
 20
171.615255599
 30
0.0
 40
1.6
100
AcDbArc
 50
270.0
 51
0.0
  0
LINE
  5
D5
330
CB
100
AcDbEntity
  8
$DDT_AUDIT_GENERATED_(77)
  6
Continuous
 62
     7
100
AcDbLine
 10
6.35
 20
177.315255599
 30
0.0
 11
6.35
 21
171.615255599
 31
0.0
  0
LINE
  5
D6
330
CB
100
AcDbEntity
  8
$DDT_AUDIT_GENERATED_(77)
  6
Continuous
 62
     7
100
AcDbLine
 10
176.35
 20
171.615255599
 30
0.0
 11
176.35
 21
177.315255599
 31
0.0
  0
ARC
  5
D7
330
CB
100
AcDbEntity
  8
$DDT_AUDIT_GENERATED_(77)
  6
Continuous
 62
     7
100
AcDbCircle
 10
86.0963963702
 20
614.5773324717
 30
0.0
 40
450.0000000000001
100
AcDbArc
 50
261.0836681881
 51
266.9691194101
  0
ARC
  5
D8
330
CB
100
AcDbEntity
  8
$DDT_AUDIT_GENERATED_(77)
  6
Continuous
 62
     7
100
AcDbCircle
 10
96.6036036298
 20
614.5773324717
 30
0.0
 40
450.0000000000001
100
AcDbArc
 50
273.0308805899
 51
278.9163318119
  0
ARC
  5
D9
330
CB
100
AcDbEntity
  8
$DDT_AUDIT_GENERATED_(77)
  6
Continuous
 62
     7
100
AcDbCircle
 10
120.312385021
 20
166.8045623249
 30
0.0
 40
1.600000000000001
100
AcDbArc
 50
270.0
 51
273.0308805899
  0
ARC
  5
DA
330
CB
100
AcDbEntity
  8
$DDT_AUDIT_GENERATED_(77)
  6
Continuous
 62
     7
100
AcDbCircle
 10
62.387614979
 20
166.8045623249
 30
0.0
 40
1.600000000000003
100
AcDbArc
 50
266.9691194101
 51
270.0
  0
LINE
  5
DB
330
CB
100
AcDbEntity
  8
$DDT_AUDIT_GENERATED_(77)
  6
Continuous
 62
     7
100
AcDbLine
 10
62.387614979
 20
165.2045623249
 30
0.0
 11
120.312385021
 21
165.2045623249
 31
0.0
  0
SPLINE
  5
DC
330
CB
100
AcDbEntity
  8
$DDT_AUDIT_GENERATED_(77)
  6
Continuous
 62
     7
100
AcDbSpline
210
0.0
220
0.0
230
1.0
 70
     8
 71
     3
 72
    10
 73
     6
 74
     0
 42
0.0000000331899016
 43
0.0000000001
 40
0.0
 40
0.0
 40
0.0
 40
0.0
 40
0.1359052359319487
 40
0.3378047453905111
 40
0.3455401745631707
 40
0.3455401745631707
 40
0.3455401745631707
 40
0.3455401745631707
 10
63.0230954190916
 20
165.3029604194256
 30
0.0
 10
63.0499018487366
 20
165.2994471278693
 30
0.0
 10
63.10434822619055
 20
165.2924161863753
 30
0.0
 10
63.12591965488944
 20
165.2884480767812
 30
0.0
 10
63.12612279107595
 20
165.2883375047884
 30
0.0
 10
63.12611156703021
 20
165.2883369059383
 30
0.0
  0
SPLINE
  5
DD
330
CB
100
AcDbEntity
  8
$DDT_AUDIT_GENERATED_(77)
  6
Continuous
 62
     7
100
AcDbSpline
210
0.0
220
0.0
230
1.0
 70
     8
 71
     3
 72
     9
 73
     5
 74
     0
 42
0.0000000275334508
 43
0.0000000001
 40
0.6462465980923384
 40
0.6462465980923384
 40
0.6462465980923384
 40
0.6462465980923384
 40
0.7972205028649291
 40
1.0
 40
1.0
 40
1.0
 40
1.0
 10
48.41347764591352
 20
166.2930764727456
 30
0.0
 10
48.41338110779665
 20
166.2930934183654
 30
0.0
 10
48.43854517862223
 20
166.2942271944547
 30
0.0
 10
48.49824216326089
 20
166.2942147536783
 30
0.0
 10
48.54173871059177
 20
166.2943365086851
 30
0.0
  0
SPLINE
  5
DE
330
CB
100
AcDbEntity
  8
$DDT_AUDIT_GENERATED_(77)
  6
Continuous
 62
     7
100
AcDbSpline
210
0.0
220
0.0
230
1.0
 70
     8
 71
     3
 72
    10
 73
     6
 74
     0
 42
0.0000000208318213
 43
0.0000000001
 40
0.0
 40
0.0
 40
0.0
 40
0.0
 40
0.054071621580093
 40
0.2725686235811116
 40
0.4053720200215777
 40
0.4053720200215777
 40
0.4053720200215777
 40
0.4053720200215777
 10
134.0919522056458
 20
166.2934758974247
 30
0.0
 10
134.1103733069304
 20
166.2938001546952
 30
0.0
 10
134.1891776106756
 20
166.2951991425014
 30
0.0
 10
134.2589234282947
 20
166.294085319237
 30
0.0
 10
134.2864187992342
 20
166.2930227660949
 30
0.0
 10
134.2864890679429
 20
166.2930638774312
 30
0.0
  0
SPLINE
  5
DF
330
CB
100
AcDbEntity
  8
$DDT_AUDIT_GENERATED_(77)
  6
Continuous
 62
     7
100
AcDbSpline
210
0.0
220
0.0
230
1.0
 70
     8
 71
     3
 72
    10
 73
     6
 74
     0
 42
0.0000000321849482
 43
0.0000000001
 40
0.6417930822597463
 40
0.6417930822597463
 40
0.6417930822597463
 40
0.6417930822597463
 40
0.6775879316444038
 40
0.8679643807967369
 40
1.0
 40
1.0
 40
1.0
 40
1.0
 10
119.5738892234224
 20
165.2883182630719
 30
0.0
 10
119.5739055996592
 20
165.2883269549349
 30
0.0
 10
119.5769086975979
 20
165.2889368806935
 30
0.0
 10
119.6042801755508
 20
165.2936368698251
 30
0.0
 10
119.6574815106006
 20
165.3005125859013
 30
0.0
 10
119.6840537919537
 20
165.3039802555749
 30
0.0
  0
LINE
  5
E0
330
CB
100
AcDbEntity
  8
$DDT_AUDIT_GENERATED_(A3)
  6
Continuous
 62
     7
100
AcDbLine
 10
65.9268354056
 20
143.715255599
 30
0.0
 11
116.7731645944
 21
143.715255599
 31
0.0
  0
ARC
  5
E1
330
CB
100
AcDbEntity
  8
$DDT_AUDIT_GENERATED_(A3)
  6
Continuous
 62
     7
100
AcDbCircle
 10
91.35
 20
151.815255599
 30
0.0
 40
26.3
100
AcDbArc
 50
331.8769157254
 51
342.0621734783
  0
ARC
  5
E2
330
CB
100
AcDbEntity
  8
$DDT_AUDIT_GENERATED_(A3)
  6
Continuous
 62
     7
100
AcDbCircle
 10
91.35
 20
151.815255599
 30
0.0
 40
26.3
100
AcDbArc
 50
197.9378265217
 51
208.2219464495
  0
LINE
  5
E3
330
CB
100
AcDbEntity
  8
$DDT_AUDIT_GENERATED_(A3)
  6
Continuous
 62
     7
100
AcDbLine
 10
65.2627596706
 20
163.015255599
 30
0.0
 11
65.4268544422
 21
144.210892555
 31
0.0
  0
LINE
  5
E4
330
CB
100
AcDbEntity
  8
$DDT_AUDIT_GENERATED_(A3)
  6
Continuous
 62
     7
100
AcDbLine
 10
117.2731455578
 20
144.210892555
 30
0.0
 11
117.4372403294
 21
163.015255599
 31
0.0
  0
ARC
  5
E5
330
CB
100
AcDbEntity
  8
$DDT_AUDIT_GENERATED_(A3)
  6
Continuous
 62
     7
100
AcDbCircle
 10
116.7731645944
 20
144.215255599
 30
0.0
 40
0.5000000000000004
100
AcDbArc
 50
270.0
 51
359.500025649
  0
ARC
  5
E6
330
CB
100
AcDbEntity
  8
$DDT_AUDIT_GENERATED_(A3)
  6
Continuous
 62
     7
100
AcDbCircle
 10
65.9268354056
 20
144.215255599
 30
0.0
 40
0.4999999999999991
100
AcDbArc
 50
180.499974351
 51
270.0
  0
LINE
  5
E7
330
CB
100
AcDbEntity
  8
$DDT_AUDIT_GENERATED_(7C)
  6
Continuous
 62
     7
100
AcDbLine
 10
63.4951564667
 20
163.015255599
 30
0.0
 11
119.2048435333
 21
163.015255599
 31
0.0
  0
LINE
  5
E8
330
CB
100
AcDbEntity
  8
$DDT_AUDIT_GENERATED_(7C)
  6
Continuous
 62
     7
100
AcDbLine
 10
61.35
 20
164.815255599
 30
0.0
 11
121.35
 21
164.815255599
 31
0.0
  0
LINE
  5
E9
330
CB
100
AcDbEntity
  8
$DDT_AUDIT_GENERATED_(7C)
  6
Continuous
 62
     7
100
AcDbLine
 10
61.35
 20
165.115255599
 30
0.0
 11
121.35
 21
165.115255599
 31
0.0
  0
LINE
  5
EA
330
CB
100
AcDbEntity
  8
$DDT_AUDIT_GENERATED_(7C)
  6
Continuous
 62
     7
100
AcDbLine
 10
61.35
 20
164.815255599
 30
0.0
 11
63.4951564667
 21
163.015255599
 31
0.0
  0
LINE
  5
EB
330
CB
100
AcDbEntity
  8
$DDT_AUDIT_GENERATED_(7C)
  6
Continuous
 62
     7
100
AcDbLine
 10
119.2048435333
 20
163.015255599
 30
0.0
 11
121.35
 21
164.815255599
 31
0.0
  0
LINE
  5
EC
330
CB
100
AcDbEntity
  8
$DDT_AUDIT_GENERATED_(7C)
  6
Continuous
 62
     7
100
AcDbLine
 10
121.35
 20
164.815255599
 30
0.0
 11
121.35
 21
165.115255599
 31
0.0
  0
LINE
  5
ED
330
CB
100
AcDbEntity
  8
$DDT_AUDIT_GENERATED_(7C)
  6
Continuous
 62
     7
100
AcDbLine
 10
61.35
 20
165.115255599
 30
0.0
 11
61.35
 21
164.815255599
 31
0.0
  0
LINE
  5
EE
330
CB
100
AcDbEntity
  8
$DDT_AUDIT_GENERATED_(7C)
  6
Continuous
 62
     7
100
AcDbLine
 10
118.6
 20
165.115255599
 30
0.0
 11
118.6
 21
165.2045623249
 31
0.0
  0
LINE
  5
EF
330
CB
100
AcDbEntity
  8
$DDT_AUDIT_GENERATED_(7C)
  6
Continuous
 62
     7
100
AcDbLine
 10
64.1
 20
165.2045623249
 30
0.0
 11
64.1
 21
165.115255599
 31
0.0
  0
LINE
  5
F0
330
CB
100
AcDbEntity
  8
$DDT_AUDIT_GENERATED_(B2)
  6
Continuous
 62
     7
100
AcDbLine
 10
171.05
 20
180.815255599
 30
0.0
 11
11.65
 21
180.815255599
 31
0.0
  0
LINE
  5
F1
330
CB
100
AcDbEntity
  8
$DDT_AUDIT_GENERATED_(B2)
  6
Continuous
 62
     7
100
AcDbLine
 10
173.9868487091
 20
177.315255599
 30
0.0
 11
171.05
 21
180.815255599
 31
0.0
  0
LINE
  5
F2
330
CB
100
AcDbEntity
  8
$DDT_AUDIT_GENERATED_(B2)
  6
Continuous
 62
     7
100
AcDbLine
 10
11.65
 20
180.815255599
 30
0.0
 11
8.7131512909
 21
177.315255599
 31
0.0
  0
ARC
  5
F3
330
CB
100
AcDbEntity
  8
$DDT_AUDIT_GENERATED_(81)
  6
Continuous
 62
     7
100
AcDbCircle
 10
95.5586671051
 20
174.6755173053
 30
0.0
 40
68.05709877909355
100
AcDbArc
 50
279.7365828684
 51
283.7110391938
  0
SPLINE
  5
F4
330
CB
100
AcDbEntity
  8
$DDT_AUDIT_GENERATED_(81)
  6
Continuous
 62
     7
100
AcDbSpline
210
0.0
220
0.0
230
1.0
 70
     8
 71
     3
 72
    10
 73
     6
 74
     0
 42
0.0000000001638692
 43
0.0000000001
 40
0.0
 40
0.0
 40
0.0
 40
0.0
 40
0.0625
 40
0.0625
 40
0.0647112790315088
 40
0.0647112790315088
 40
0.0647112790315088
 40
0.0647112790315088
 10
111.6899234230694
 20
108.5578096632661
 30
0.0
 10
113.2192484326812
 20
108.9076899984375
 30
0.0
 10
114.4729726964822
 20
109.2482477238096
 30
0.0
 10
115.4367184759754
 20
109.5598533867084
 30
0.0
 10
115.4692708349265
 20
109.5704610989506
 30
0.0
 10
115.5014408832911
 20
109.5810275018096
 30
0.0
  0
SPLINE
  5
F5
330
CB
100
AcDbEntity
  8
$DDT_AUDIT_GENERATED_(81)
  6
Continuous
 62
     7
100
AcDbSpline
210
0.0
220
0.0
230
1.0
 70
     8
 71
     3
 72
     8
 73
     4
 74
     0
 42
0.0000000001617116
 43
0.0000000001
 40
0.9399127521917006
 40
0.9399127521917006
 40
0.9399127521917006
 40
0.9399127521917006
 40
1.0
 40
1.0
 40
1.0
 40
1.0
 10
67.41976123385103
 20
109.5079446992749
 30
0.0
 10
68.34435445528062
 20
109.214392269886
 30
0.0
 10
69.53935884726867
 20
108.8927535686925
 30
0.0
 10
71.00949456409872
 20
108.5565164262478
 30
0.0
  0
ARC
  5
F6
330
CB
100
AcDbEntity
  8
$DDT_AUDIT_GENERATED_(81)
  6
Continuous
 62
     7
100
AcDbCircle
 10
87.1003065515
 20
174.5127018591
 30
0.0
 40
67.89059306904281
100
AcDbArc
 50
256.2898106165
 51
260.2800778245
  0
SPLINE
  5
F7
330
CB
100
AcDbEntity
  8
$DDT_AUDIT_GENERATED_(81)
  6
Continuous
 62
     7
100
AcDbSpline
210
0.0
220
0.0
230
1.0
 70
     8
 71
     3
 72
     8
 73
     4
 74
     0
 42
0.0000000012059073
 43
0.0000000001
 40
0.1512728996205908
 40
0.1512728996205908
 40
0.1512728996205908
 40
0.1512728996205908
 40
0.151845140588323
 40
0.151845140588323
 40
0.151845140588323
 40
0.151845140588323
 10
64.35173377546289
 20
111.739373437709
 30
0.0
 10
64.35174075622987
 20
111.7409587550467
 30
0.0
 10
64.3517772997863
 20
111.7425399201709
 30
0.0
 10
64.35184340426012
 20
111.7441169300769
 30
0.0
  0
ELLIPSE
  5
F8
330
CB
100
AcDbEntity
  8
$DDT_AUDIT_GENERATED_(81)
  6
Continuous
 62
     7
100
AcDbEllipse
 10
91.35
 20
142.319977471
 30
0.0
 11
0.0
 21
27.0
 31
0.0
210
0.0
220
0.0
230
1.0
 40
1.0
 41
-1.570796326794897
 42
-1.568395291385952
  0
ELLIPSE
  5
F9
330
CB
100
AcDbEntity
  8
$DDT_AUDIT_GENERATED_(81)
  6
Continuous
 62
     7
100
AcDbEllipse
 10
91.35
 20
142.319977471
 30
0.0
 11
0.0
 21
26.99983080357372
 31
0.0
210
0.0
220
0.0
230
1.0
 40
1.0
 41
1.568129191785264
 42
1.570796326794897
  0
ELLIPSE
  5
FA
330
CB
100
AcDbEntity
  8
$DDT_AUDIT_GENERATED_(81)
  6
Continuous
 62
     7
100
AcDbEllipse
 10
117.3443712927
 20
142.656813433
 30
0.0
 11
-0.999359607839305
 21
-0.03578231713113889
 31
0.0
210
0.0
220
0.0
230
1.0
 40
0.8644251152
 41
3.100195440500783
 42
3.1401780631475
  0
ELLIPSE
  5
FB
330
CB
100
AcDbEntity
  8
$DDT_AUDIT_GENERATED_(81)
  6
Continuous
 62
     7
100
AcDbEllipse
 10
117.3454539134
 20
142.6237795651
 30
0.0
 11
-0.9995523813739922
 21
-0.02991716713786341
 31
0.0
210
0.0
220
0.0
230
0.9999999999999997
 40
0.8479414469
 41
3.106309387958988
 42
4.250959873327357
  0
LINE
  5
FC
330
CB
100
AcDbEntity
  8
$DDT_AUDIT_GENERATED_(81)
  6
Continuous
 62
     7
100
AcDbLine
 10
116.9791600255
 20
142.6802824278
 30
0.0
 11
117.2291402903
 21
143.2398083383
 31
0.0
  0
ELLIPSE
  5
FD
330
CB
100
AcDbEntity
  8
$DDT_AUDIT_GENERATED_(81)
  6
Continuous
 62
     7
100
AcDbEllipse
 10
91.35
 20
146.1988297996
 30
0.0
 11
-26.47528135923025
 21
5.256559076904921E-11
 31
0.0
210
0.0
220
0.0
230
1.0
 40
0.5299192642
 41
0.2534979767174548
 42
0.3814703770436074
  0
LINE
  5
FE
330
CB
100
AcDbEntity
  8
$DDT_AUDIT_GENERATED_(81)
  6
Continuous
 62
     7
100
AcDbLine
 10
65.4708597097
 20
143.2398083383
 30
0.0
 11
65.7208399745
 21
142.6802824279
 31
0.0
  0
ARC
  5
FF
330
CB
100
AcDbEntity
  8
$DDT_AUDIT_GENERATED_(81)
  6
Continuous
 62
     7
100
AcDbCircle
 10
91.3003711434
 20
204.0395422913
 30
0.0
 40
97.68954229130775
100
AcDbArc
 50
260.2292446097
 51
279.9905430687
  0
SPLINE
  5
100
330
CB
100
AcDbEntity
  8
$DDT_AUDIT_GENERATED_(81)
  6
Continuous
 62
     7
100
AcDbSpline
210
0.0
220
0.0
230
1.0
 70
     8
 71
     3
 72
    18
 73
    14
 74
     0
 42
0.0000000025183116
 43
0.0000000001
 40
0.0
 40
0.0
 40
0.0
 40
0.0
 40
0.0292197288730187
 40
0.0847320653384139
 40
0.1413025222133706
 40
0.2032296144061374
 40
0.2766636684868136
 40
0.3715788318114867
 40
0.5077111222435953
 40
0.6762992607068468
 40
0.8331998050411811
 40
0.999317426686172
 40
1.0
 40
1.0
 40
1.0
 40
1.0
 10
64.36707517658638
 20
111.745244632495
 30
0.0
 10
64.36428755766853
 20
111.6750091836254
 30
0.0
 10
64.35807815715445
 20
111.5029261011529
 30
0.0
 10
64.44720317470649
 20
111.2252933936242
 30
0.0
 10
64.58466688417472
 20
110.9671357304157
 30
0.0
 10
64.75514752462838
 20
110.7565463664217
 30
0.0
 10
64.95371027167681
 20
110.573517993557
 30
0.0
 10
65.21088725051179
 20
110.3903468353121
 30
0.0
 10
65.56300761794549
 20
110.1938358812229
 30
0.0
 10
66.02956635344762
 20
109.9833477296489
 30
0.0
 10
66.62042171151325
 20
109.7608430808413
 30
0.0
 10
67.06789126893563
 20
109.6055767839361
 30
0.0
 10
67.32288853251156
 20
109.5288865343845
 30
0.0
 10
67.32409704693416
 20
109.5285230858475
 30
0.0
  0
SPLINE
  5
101
330
CB
100
AcDbEntity
  8
$DDT_AUDIT_GENERATED_(81)
  6
Continuous
 62
     7
100
AcDbSpline
210
0.0
220
0.0
230
1.0
 70
     8
 71
     3
 72
    17
 73
    13
 74
     0
 42
0.0000000026806661
 43
0.0000000001
 40
0.0
 40
0.0
 40
0.0
 40
0.0
 40
0.0676274256541165
 40
0.2355536256326674
 40
0.4088057154075203
 40
0.5939458540074543
 40
0.7012790180261187
 40
0.7818506013672198
 40
0.8519084337570928
 40
0.9146359639504598
 40
0.9739696229956807
 40
1.0
 40
1.0
 40
1.0
 40
1.0
 10
115.6031714150255
 20
109.6041438886678
 30
0.0
 10
115.7078706934068
 20
109.6374695123711
 30
0.0
 10
116.0174391140186
 20
109.7363935012873
 30
0.0
 10
116.5063723755394
 20
109.9173525885312
 30
0.0
 10
117.0373022354273
 20
110.1416869404552
 30
0.0
 10
117.4336983204006
 20
110.3503267530368
 30
0.0
 10
117.7318345995392
 20
110.5573353894227
 30
0.0
 10
117.9418001654469
 20
110.7478236267996
 30
0.0
 10
118.1212078903751
 20
110.9678285300701
 30
0.0
 10
118.2628939726485
 20
111.2400648976755
 30
0.0
 10
118.3473324827083
 20
111.5181951658544
 30
0.0
 10
118.3398951077242
 20
111.6812343731168
 30
0.0
 10
118.3370225899445
 20
111.739926733116
 30
0.0
  0
LINE
  5
102
330
CB
100
AcDbEntity
  8
$DDT_AUDIT_GENERATED_(81)
  6
Continuous
 62
     7
100
AcDbLine
 10
64.35
 20
142.319977471
 30
0.0
 11
64.35
 21
111.7396493502
 31
0.0
  0
LINE
  5
103
330
CB
100
AcDbEntity
  8
$DDT_AUDIT_GENERATED_(81)
  6
Continuous
 62
     7
100
AcDbLine
 10
118.35
 20
111.7384601299
 30
0.0
 11
118.35
 21
142.3199774709
 31
0.0
  0
SPLINE
  5
104
330
CB
100
AcDbEntity
  8
$DDT_AUDIT_GENERATED_(81)
  6
Continuous
 62
     7
100
AcDbSpline
210
0.0
220
0.0
230
1.0
 70
     8
 71
     3
 72
    14
 73
    10
 74
     0
 42
0.0000000087608569
 43
0.0000000001
 40
0.0
 40
0.0
 40
0.0
 40
0.0
 40
0.0590414863281782
 40
0.2076591839281272
 40
0.3409317923147061
 40
0.4634952694154457
 40
0.5830504600224575
 40
0.737722271542868
 40
1.0
 40
1.0
 40
1.0
 40
1.0
 10
64.76464499885124
 20
143.7075010106926
 30
0.0
 10
64.73768726974308
 20
143.6886009929099
 30
0.0
 10
64.6569169968547
 20
143.6313030016207
 30
0.0
 10
64.54904957857308
 20
143.4889978833918
 30
0.0
 10
64.45696436583489
 20
143.3166892850172
 30
0.0
 10
64.40633307831013
 20
143.1572809976932
 30
0.0
 10
64.38095477368284
 20
143.0235959616038
 30
0.0
 10
64.36485286319034
 20
142.8791427494618
 30
0.0
 10
64.35934996053857
 20
142.7711996689007
 30
0.0
 10
64.35634169851113
 20
142.6924668648611
 30
0.0
  0
SPLINE
  5
105
330
CB
100
AcDbEntity
  8
$DDT_AUDIT_GENERATED_(81)
  6
Continuous
 62
     7
100
AcDbSpline
210
0.0
220
0.0
230
1.0
 70
     8
 71
     3
 72
    14
 73
    10
 74
     0
 42
0.0000000087768008
 43
0.0000000001
 40
0.0
 40
0.0
 40
0.0
 40
0.0
 40
0.084379405169069
 40
0.3103460438534084
 40
0.5064312345035952
 40
0.6553691243565183
 40
0.8013308205761533
 40
0.9686689500985795
 40
1.0
 40
1.0
 40
1.0
 40
1.0
 10
118.3430434118264
 20
142.6978644589275
 30
0.0
 10
118.3421980562025
 20
142.7248228827535
 30
0.0
 10
118.3393298170076
 20
142.8098137693088
 30
0.0
 10
118.3293297838942
 20
142.9411939229809
 30
0.0
 10
118.3080322480296
 20
143.104249924193
 30
0.0
 10
118.247671057854
 20
143.310792375306
 30
0.0
 10
118.1404744535647
 20
143.5052027933383
 30
0.0
 10
118.0297418784885
 20
143.6496997519638
 30
0.0
 10
117.9499749749239
 20
143.7004960279459
 30
0.0
 10
117.9353142392369
 20
143.709780108435
 30
0.0
  0
LINE
  5
106
330
CB
100
AcDbEntity
  8
$DDT_AUDIT_GENERATED_(81)
  6
Continuous
 62
     7
100
AcDbLine
 10
118.3426942692
 20
142.3913526192
 30
0.0
 11
118.3450062948
 21
142.6536967322
 31
0.0
  0
LINE
  5
107
330
CB
100
AcDbEntity
  8
$DDT_AUDIT_GENERATED_(81)
  6
Continuous
 62
     7
100
AcDbLine
 10
64.3549937052
 20
142.6536967322
 30
0.0
 11
64.3542485449
 21
142.399183006
 31
0.0
  0
LINE
  5
108
330
CB
100
AcDbEntity
  8
$DDT_AUDIT_GENERATED_(81)
  6
Continuous
 62
     7
100
AcDbLine
 10
117.682504069
 20
143.8049606442
 30
0.0
 11
117.0589233215
 21
143.8049606442
 31
0.0
  0
LINE
  5
109
330
CB
100
AcDbEntity
  8
$DDT_AUDIT_GENERATED_(81)
  6
Continuous
 62
     7
100
AcDbLine
 10
65.6410766785
 20
143.8049606442
 30
0.0
 11
65.017495931
 21
143.8049606442
 31
0.0
  0
ARC
  5
10A
330
CB
100
AcDbEntity
  8
$DDT_AUDIT_GENERATED_(81)
  6
Continuous
 62
     7
100
AcDbCircle
 10
64.9883398676
 20
143.4934971845
 30
0.0
 40
0.3090481301613991
100
AcDbArc
 50
85.8211355372
 51
136.2548461526
  0
ARC
  5
10B
330
CB
100
AcDbEntity
  8
$DDT_AUDIT_GENERATED_(81)
  6
Continuous
 62
     7
100
AcDbCircle
 10
117.7198109494
 20
143.5018925232
 30
0.0
 40
0.299394346667122
100
AcDbArc
 50
43.6957690458
 51
96.2132516187
  0
SPLINE
  5
10C
330
CB
100
AcDbEntity
  8
$DDT_AUDIT_GENERATED_(81)
  6
Continuous
 62
     7
100
AcDbSpline
210
0.0
220
0.0
230
1.0
 70
     8
 71
     3
 72
    44
 73
    40
 74
     0
 42
0.0000000001917001
 43
0.0000000001
 40
0.0
 40
0.0
 40
0.0
 40
0.0
 40
0.025322200653382
 40
0.0530575417661317
 40
0.080776949672051
 40
0.1084910414915838
 40
0.1362053208038375
 40
0.1639243708305559
 40
0.1916510892239123
 40
0.2193868593724965
 40
0.2471320569495317
 40
0.274886410789149
 40
0.3026492506281956
 40
0.3304196719381409
 40
0.3581966421669828
 40
0.3859790666143573
 40
0.4137658270246297
 40
0.4415558020428764
 40
0.4693478758220674
 40
0.4971409390819201
 40
0.5249338116584507
 40
0.5527250898184117
 40
0.5805136522366083
 40
0.6082983608494795
 40
0.6360780588283189
 40
0.6638515744184108
 40
0.6916177341146009
 40
0.7193753903852161
 40
0.7471234715658261
 40
0.7748610649443771
 40
0.8025875486407487
 40
0.8303027936377326
 40
0.8580074636583763
 40
0.8857034455580097
 40
0.9133944417368962
 40
0.9410851376090711
 40
0.9687832726857775
 40
0.996501494274778
 40
1.0
 40
1.0
 40
1.0
 40
1.0
 10
114.8383021602164
 20
139.7564671886055
 30
0.0
 10
114.5755364175305
 20
139.4981490331973
 30
0.0
 10
114.1070409729667
 20
139.0422841455772
 30
0.0
 10
113.2117343602423
 20
138.3103175205908
 30
0.0
 10
112.2290765287706
 20
137.6047498300087
 30
0.0
 10
111.1546583806864
 20
136.9277314867585
 30
0.0
 10
110.0020680897943
 20
136.288247195743
 30
0.0
 10
108.7733073605082
 20
135.6873850010213
 30
0.0
 10
107.4739142646048
 20
135.128161831886
 30
0.0
 10
106.1088948520783
 20
134.6128707998092
 30
0.0
 10
104.6837885680704
 20
134.1437721439501
 30
0.0
 10
103.2043445121783
 20
133.7228875514006
 30
0.0
 10
101.6765683162667
 20
133.3520393521715
 30
0.0
 10
100.1066704927289
 20
133.0328281761306
 30
0.0
 10
98.50104216057751
 20
132.7666300813447
 30
0.0
 10
96.86622429338115
 20
132.5545906354814
 30
0.0
 10
95.208879383167
 20
132.3976214499182
 30
0.0
 10
93.53576295592879
 20
132.2963973468642
 30
0.0
 10
91.85369548112229
 20
132.2513544318757
 30
0.0
 10
90.16953592154387
 20
132.2626888566763
 30
0.0
 10
88.4901583613739
 20
132.3303558124062
 30
0.0
 10
86.82241819190483
 20
132.4540689513232
 30
0.0
 10
85.17312272093497
 20
132.6333013214557
 30
0.0
 10
83.54899934971586
 20
132.867287769502
 30
0.0
 10
81.95667401632198
 20
133.1550265636796
 30
0.0
 10
80.4026436895139
 20
133.4952818571992
 30
0.0
 10
78.8932488414527
 20
133.8865867436807
 30
0.0
 10
77.43464539067365
 20
134.3272471662868
 30
0.0
 10
76.03277733916603
 20
134.8153461992839
 30
0.0
 10
74.69334458782639
 20
135.3487514551267
 30
0.0
 10
73.42178532285381
 20
135.9251170492378
 30
0.0
 10
72.22319937751288
 20
136.5419149222839
 30
0.0
 10
71.10248611253891
 20
137.1963702258244
 30
0.0
 10
70.06367664325835
 20
137.8857748766841
 30
0.0
 10
69.11228717694215
 20
138.6064062374075
 30
0.0
 10
68.24645007005037
 20
139.3576472568427
 30
0.0
 10
67.4898517557278
 20
140.1267824107712
 30
0.0
 10
66.9789222419746
 20
140.7071193226984
 30
0.0
 10
66.77675682548504
 20
140.9963350792254
 30
0.0
 10
66.75043303327433
 20
141.0340650036617
 30
0.0
  0
LINE
  5
10D
330
CB
100
AcDbEntity
  8
$DDT_AUDIT_GENERATED_(8C)
  6
Continuous
 62
     7
100
AcDbLine
 10
132.3697387079
 20
166.2267296128
 30
0.0
 11
133.05
 21
166.2267296128
 31
0.0
  0
ARC
  5
10E
330
CB
100
AcDbEntity
  8
$DDT_AUDIT_GENERATED_(8C)
  6
Continuous
 62
     7
100
AcDbCircle
 10
133.05
 20
166.5267296128
 30
0.0
 40
0.2999999999999999
100
AcDbArc
 50
270.0
 51
298.6923264779
  0
LINE
  5
10F
330
CB
100
AcDbEntity
  8
$DDT_AUDIT_GENERATED_(8C)
  6
Continuous
 62
     7
100
AcDbLine
 10
49.65
 20
166.2267296128
 30
0.0
 11
50.340727268
 21
166.2267296128
 31
0.0
  0
ARC
  5
110
330
CB
100
AcDbEntity
  8
$DDT_AUDIT_GENERATED_(8C)
  6
Continuous
 62
     7
100
AcDbCircle
 10
49.65
 20
166.5267296128
 30
0.0
 40
0.3000000000000017
100
AcDbArc
 50
241.8546535916
 51
270.0
  0
ENDBLK
  5
112
330
CB
100
AcDbEntity
  8
0
100
AcDbBlockEnd
  0
ENDSEC
  0
SECTION
  2
ENTITIES
  0
INSERT
  5
5F
330
1F
100
AcDbEntity
  8
Default
100
AcDbBlockReference
  2
SEANNOT_GROUP
 10
0.0
 20
0.0
 30
0.0
  0
INSERT
  5
6A
330
1F
100
AcDbEntity
  8
Default
100
AcDbBlockReference
  2
SEANNOT_GROUP1
 10
0.0
 20
0.0
 30
0.0
  0
INSERT
  5
70
330
1F
100
AcDbEntity
  8
Default
100
AcDbBlockReference
  2
SEANNOT_GROUP2
 10
0.0
 20
0.0
 30
0.0
  0
INSERT
  5
76
330
1F
100
AcDbEntity
  8
Default
100
AcDbBlockReference
  2
SE
 10
0.0
 20
0.0
 30
0.0
  0
INSERT
  5
92
330
1F
100
AcDbEntity
  8
Default
100
AcDbBlockReference
  2
SE1
 10
0.0
 20
0.0
 30
0.0
  0
INSERT
  5
CC
330
1F
100
AcDbEntity
  8
Default
100
AcDbBlockReference
  2
SE2
 10
0.0
 20
0.0
 30
0.0
  0
TEXT
  5
114
330
1F
100
AcDbEntity
  8
Default
  6
Continuous
 62
     7
100
AcDbText
 10
5.9362635081
 20
53.4225120485
 30
0.0
 40
10.0
  1
Grohe AG^J
  7
SEACAD_seiso_ttf
 11
5.9362635081
 21
63.4225120485
 31
0.0
100
AcDbText
 73
     3
  0
TEXT
  5
115
330
1F
100
AcDbEntity
  8
Default
  6
Continuous
 62
     7
100
AcDbText
 10
5.9362635081
 20
37.0588756849
 30
0.0
 40
10.0
  1
 
  7
SEACAD_seiso_ttf
 11
5.9362635081
 21
47.0588756849
 31
0.0
100
AcDbText
 73
     3
  0
TEXT
  5
116
330
1F
100
AcDbEntity
  8
Default
  6
Continuous
 62
     7
100
AcDbText
 10
5.9362635081
 20
20.6952393213
 30
0.0
 40
10.0
  1
ecn: 
  7
SEACAD_seiso_ttf
 11
5.9362635081
 21
30.6952393213
 31
0.0
100
AcDbText
 73
     3
  0
TEXT
  5
117
330
1F
100
AcDbEntity
  8
Default
  6
Continuous
 62
     7
100
AcDbText
 10
5.9362635081
 20
4.3316029576
 30
0.0
 40
10.0
  1
unit: mm
  7
SEACAD_seiso_ttf
 11
5.9362635081
 21
14.3316029576
 31
0.0
100
AcDbText
 73
     3
  0
LINE
  5
118
330
1F
100
AcDbEntity
  8
Default
  6
Continuous
 62
     7
100
AcDbLine
 10
0.0
 20
0.0
 30
0.0
 11
100.0
 21
0.0
 31
0.0
  0
LINE
  5
119
330
1F
100
AcDbEntity
  8
Default
  6
Continuous
 62
     7
100
AcDbLine
 10
0.0
 20
0.0
 30
0.0
 11
0.0
 21
100.0
 31
0.0
  0
TEXT
  5
11A
330
1F
100
AcDbEntity
  8
Default
  6
Continuous
 62
     7
100
AcDbText
 10
24.3923665681
 20
-18.2375342018
 30
0.0
 40
10.0
  1
100 mm
  7
SEACAD_seiso_ttf
 11
24.3923665681
 21
-8.2375342018
 31
0.0
100
AcDbText
 73
     3
  0
TEXT
  5
11B
330
1F
100
AcDbEntity
  8
Default
  6
Continuous
 62
     7
100
AcDbText
 10
-7.6150308803
 20
24.6231930421
 30
0.0
 40
10.0
  1
100 mm
 50
90.0
  7
SEACAD_seiso_ttf
 11
-17.6150308803
 21
24.6231930421
 31
0.0
100
AcDbText
 73
     3
  0
TEXT
  5
11C
330
1F
100
AcDbEntity
  8
Default
  6
Continuous
 62
     7
100
AcDbText
 10
28.4878128572
 20
20.0907663715
 30
0.0
 40
10.0
  1
205842
  7
SEACAD_seiso_ttf
 11
28.4878128572
 21
30.0907663715
 31
0.0
100
AcDbText
 73
     3
  0
TEXT
  5
11D
330
1F
100
AcDbEntity
  8
Default
  6
Continuous
 62
     7
100
AcDbText
 10
5.9012241913
 20
36.7242780188
 30
0.0
 40
10.0
  1
33635001
  7
SEACAD_seiso_ttf
 11
5.9012241913
 21
46.7242780188
 31
0.0
100
AcDbText
 73
     3
  0
ENDSEC
  0
SECTION
  2
OBJECTS
  0
DICTIONARY
  5
C
330
0
100
AcDbDictionary
281
     1
  3
ACAD_GROUP
350
D
  3
ACAD_LAYOUT
350
1A
  3
ACAD_MLEADERSTYLE
350
121
  3
ACAD_MLINESTYLE
350
17
  3
ACAD_PLOTSETTINGS
350
19
  3
ACAD_PLOTSTYLENAME
350
E
  3
ACAD_SCALELIST
350
3B
  3
ACAD_TABLESTYLE
350
120
  3
ACAD_VISUALSTYLE
350
2A
  3
AcDbVariableDictionary
350
11E
  0
DICTIONARY
  5
D
102
{ACAD_REACTORS
330
C
102
}
330
C
100
AcDbDictionary
281
     1
  0
DICTIONARY
  5
1A
102
{ACAD_REACTORS
330
C
102
}
330
C
100
AcDbDictionary
281
     1
  3
Layout1
350
1E
  3
Model
350
22
  0
DICTIONARY
  5
121
102
{ACAD_REACTORS
330
C
102
}
330
C
100
AcDbDictionary
281
     1
  0
DICTIONARY
  5
17
102
{ACAD_REACTORS
330
C
102
}
330
C
100
AcDbDictionary
281
     1
  3
Standard
350
18
  0
DICTIONARY
  5
19
102
{ACAD_REACTORS
330
C
102
}
330
C
100
AcDbDictionary
281
     1
  0
ACDBDICTIONARYWDFLT
  5
E
102
{ACAD_REACTORS
330
C
102
}
330
C
100
AcDbDictionary
281
     1
  3
Normal
350
F
100
AcDbDictionaryWithDefault
340
F
  0
DICTIONARY
  5
3B
102
{ACAD_REACTORS
330
C
102
}
330
C
100
AcDbDictionary
281
     1
  3
A0
350
3C
  3
A1
350
3D
  3
A2
350
3E
  3
A3
350
3F
  3
A4
350
40
  3
A5
350
41
  3
A6
350
42
  3
A7
350
43
  3
A8
350
44
  3
A9
350
45
  3
B0
350
46
  3
B1
350
47
  3
B2
350
48
  3
B3
350
49
  3
B4
350
4A
  3
B5
350
4B
  3
B6
350
4C
  3
B7
350
4D
  3
B8
350
4E
  3
B9
350
4F
  3
C0
350
50
  3
C1
350
51
  3
C2
350
52
  3
C3
350
53
  3
C4
350
54
  3
C5
350
55
  3
C6
350
56
  3
C7
350
57
  3
C8
350
58
  3
C9
350
59
  3
D0
350
5A
  3
D1
350
5B
  3
D2
350
5C
  0
DICTIONARY
  5
120
102
{ACAD_REACTORS
330
C
102
}
330
C
100
AcDbDictionary
281
     1
  0
DICTIONARY
  5
2A
102
{ACAD_REACTORS
330
C
102
}
330
C
100
AcDbDictionary
281
     1
  3
2dWireframe
350
2F
  3
3D Hidden
350
31
  3
3dWireframe
350
30
  3
Basic
350
32
  3
Brighten
350
36
  3
ColorChange
350
3A
  3
Conceptual
350
34
  3
Dim
350
35
  3
Facepattern
350
39
  3
Flat
350
2B
  3
FlatWithEdges
350
2C
  3
Gouraud
350
2D
  3
GouraudWithEdges
350
2E
  3
Linepattern
350
38
  3
Realistic
350
33
  3
Thicken
350
37
  0
DICTIONARY
  5
11E
102
{ACAD_REACTORS
330
C
102
}
330
C
100
AcDbDictionary
281
     1
  3
CANNOSCALE
350
11F
  3
PSOLHEIGHT
350
123
  3
PSOLWIDTH
350
122
  0
LAYOUT
  5
1E
102
{ACAD_REACTORS
330
1A
102
}
330
1A
100
AcDbPlotSettings
  1

  2
none_device
  4

  6

 40
0.0
 41
0.0
 42
0.0
 43
0.0
 44
0.0
 45
0.0
 46
0.0
 47
0.0
 48
0.0
 49
0.0
140
0.0
141
0.0
142
1.0
143
1.0
 70
   688
 72
     0
 73
     0
 74
     5
  7

 75
    16
147
1.0
148
0.0
149
0.0
100
AcDbLayout
  1
Layout1
 70
     1
 71
     1
 10
0.0
 20
0.0
 11
1682.0
 21
2378.0
 12
0.0
 22
0.0
 32
0.0
 14
0.0
 24
0.0
 34
0.0
 15
1682.0
 25
2378.0
 35
0.0
146
0.0
 13
0.0
 23
0.0
 33
0.0
 16
1.0
 26
0.0
 36
0.0
 17
0.0
 27
1.0
 37
0.0
 76
     0
330
1B
  0
LAYOUT
  5
22
102
{ACAD_REACTORS
330
1A
102
}
330
1A
100
AcDbPlotSettings
  1

  2
none_device
  4

  6

 40
0.0
 41
0.0
 42
0.0
 43
0.0
 44
0.0
 45
0.0
 46
0.0
 47
0.0
 48
0.0
 49
0.0
140
0.0
141
0.0
142
1.0
143
1.0
 70
  1712
 72
     0
 73
     0
 74
     0
  7

 75
     0
147
1.0
148
0.0
149
0.0
100
AcDbLayout
  1
Model
 70
     1
 71
     0
 10
0.0
 20
0.0
 11
1682.0
 21
2378.0
 12
0.0
 22
0.0
 32
0.0
 14
0.0
 24
0.0
 34
0.0
 15
1682.0
 25
2378.0
 35
0.0
146
0.0
 13
0.0
 23
0.0
 33
0.0
 16
1.0
 26
0.0
 36
0.0
 17
0.0
 27
1.0
 37
0.0
 76
     0
330
1F
331
29
  0
MLINESTYLE
  5
18
102
{ACAD_REACTORS
330
17
102
}
330
17
100
AcDbMlineStyle
  2
Standard
 70
     0
  3

 62
   256
 51
90.0
 52
90.0
 71
     2
 49
0.5
 62
   256
  6
BYLAYER
 49
-0.5
 62
   256
  6
BYLAYER
  0
ACDBPLACEHOLDER
  5
F
102
{ACAD_REACTORS
330
E
102
}
330
E
  0
SCALE
  5
3C
102
{ACAD_REACTORS
330
3B
102
}
330
3B
100
AcDbScale
 70
     0
300
1:1
140
1.0
141
1.0
290
     1
  0
SCALE
  5
3D
102
{ACAD_REACTORS
330
3B
102
}
330
3B
100
AcDbScale
 70
     0
300
1:2
140
1.0
141
2.0
290
     0
  0
SCALE
  5
3E
102
{ACAD_REACTORS
330
3B
102
}
330
3B
100
AcDbScale
 70
     0
300
1:4
140
1.0
141
4.0
290
     0
  0
SCALE
  5
3F
102
{ACAD_REACTORS
330
3B
102
}
330
3B
100
AcDbScale
 70
     0
300
1:5
140
1.0
141
5.0
290
     0
  0
SCALE
  5
40
102
{ACAD_REACTORS
330
3B
102
}
330
3B
100
AcDbScale
 70
     0
300
1:8
140
1.0
141
8.0
290
     0
  0
SCALE
  5
41
102
{ACAD_REACTORS
330
3B
102
}
330
3B
100
AcDbScale
 70
     0
300
1:10
140
1.0
141
10.0
290
     0
  0
SCALE
  5
42
102
{ACAD_REACTORS
330
3B
102
}
330
3B
100
AcDbScale
 70
     0
300
1:16
140
1.0
141
16.0
290
     0
  0
SCALE
  5
43
102
{ACAD_REACTORS
330
3B
102
}
330
3B
100
AcDbScale
 70
     0
300
1:20
140
1.0
141
20.0
290
     0
  0
SCALE
  5
44
102
{ACAD_REACTORS
330
3B
102
}
330
3B
100
AcDbScale
 70
     0
300
1:30
140
1.0
141
30.0
290
     0
  0
SCALE
  5
45
102
{ACAD_REACTORS
330
3B
102
}
330
3B
100
AcDbScale
 70
     0
300
1:40
140
1.0
141
40.0
290
     0
  0
SCALE
  5
46
102
{ACAD_REACTORS
330
3B
102
}
330
3B
100
AcDbScale
 70
     0
300
1:50
140
1.0
141
50.0
290
     0
  0
SCALE
  5
47
102
{ACAD_REACTORS
330
3B
102
}
330
3B
100
AcDbScale
 70
     0
300
1:100
140
1.0
141
100.0
290
     0
  0
SCALE
  5
48
102
{ACAD_REACTORS
330
3B
102
}
330
3B
100
AcDbScale
 70
     0
300
2:1
140
2.0
141
1.0
290
     0
  0
SCALE
  5
49
102
{ACAD_REACTORS
330
3B
102
}
330
3B
100
AcDbScale
 70
     0
300
4:1
140
4.0
141
1.0
290
     0
  0
SCALE
  5
4A
102
{ACAD_REACTORS
330
3B
102
}
330
3B
100
AcDbScale
 70
     0
300
8:1
140
8.0
141
1.0
290
     0
  0
SCALE
  5
4B
102
{ACAD_REACTORS
330
3B
102
}
330
3B
100
AcDbScale
 70
     0
300
10:1
140
10.0
141
1.0
290
     0
  0
SCALE
  5
4C
102
{ACAD_REACTORS
330
3B
102
}
330
3B
100
AcDbScale
 70
     0
300
100:1
140
100.0
141
1.0
290
     0
  0
SCALE
  5
4D
102
{ACAD_REACTORS
330
3B
102
}
330
3B
100
AcDbScale
 70
     0
300
1/128" = 1'-0"
140
0.0078125
141
12.0
290
     0
  0
SCALE
  5
4E
102
{ACAD_REACTORS
330
3B
102
}
330
3B
100
AcDbScale
 70
     0
300
1/64" = 1'-0"
140
0.015625
141
12.0
290
     0
  0
SCALE
  5
4F
102
{ACAD_REACTORS
330
3B
102
}
330
3B
100
AcDbScale
 70
     0
300
1/32" = 1'-0"
140
0.03125
141
12.0
290
     0
  0
SCALE
  5
50
102
{ACAD_REACTORS
330
3B
102
}
330
3B
100
AcDbScale
 70
     0
300
1/16" = 1'-0"
140
0.0625
141
12.0
290
     0
  0
SCALE
  5
51
102
{ACAD_REACTORS
330
3B
102
}
330
3B
100
AcDbScale
 70
     0
300
3/32" = 1'-0"
140
0.09375
141
12.0
290
     0
  0
SCALE
  5
52
102
{ACAD_REACTORS
330
3B
102
}
330
3B
100
AcDbScale
 70
     0
300
1/8" = 1'-0"
140
0.125
141
12.0
290
     0
  0
SCALE
  5
53
102
{ACAD_REACTORS
330
3B
102
}
330
3B
100
AcDbScale
 70
     0
300
3/16" = 1'-0"
140
0.1875
141
12.0
290
     0
  0
SCALE
  5
54
102
{ACAD_REACTORS
330
3B
102
}
330
3B
100
AcDbScale
 70
     0
300
1/4" = 1'-0"
140
0.25
141
12.0
290
     0
  0
SCALE
  5
55
102
{ACAD_REACTORS
330
3B
102
}
330
3B
100
AcDbScale
 70
     0
300
3/8" = 1'-0"
140
0.375
141
12.0
290
     0
  0
SCALE
  5
56
102
{ACAD_REACTORS
330
3B
102
}
330
3B
100
AcDbScale
 70
     0
300
1/2" = 1'-0"
140
0.5
141
12.0
290
     0
  0
SCALE
  5
57
102
{ACAD_REACTORS
330
3B
102
}
330
3B
100
AcDbScale
 70
     0
300
3/4" = 1'-0"
140
0.75
141
12.0
290
     0
  0
SCALE
  5
58
102
{ACAD_REACTORS
330
3B
102
}
330
3B
100
AcDbScale
 70
     0
300
1" = 1'-0"
140
1.0
141
12.0
290
     0
  0
SCALE
  5
59
102
{ACAD_REACTORS
330
3B
102
}
330
3B
100
AcDbScale
 70
     0
300
1-1/2" = 1'-0"
140
1.5
141
12.0
290
     0
  0
SCALE
  5
5A
102
{ACAD_REACTORS
330
3B
102
}
330
3B
100
AcDbScale
 70
     0
300
3" = 1'-0"
140
3.0
141
12.0
290
     0
  0
SCALE
  5
5B
102
{ACAD_REACTORS
330
3B
102
}
330
3B
100
AcDbScale
 70
     0
300
6" = 1'-0"
140
6.0
141
12.0
290
     0
  0
SCALE
  5
5C
102
{ACAD_REACTORS
330
3B
102
}
330
3B
100
AcDbScale
 70
     0
300
1'-0" = 1'-0"
140
12.0
141
12.0
290
     0
  0
VISUALSTYLE
  5
2F
102
{ACAD_REACTORS
330
2A
102
}
330
2A
100
AcDbVisualStyle
  2
2dWireframe
 70
     4
 71
     0
 72
     2
 73
     0
 90
        0
 40
-0.6
 41
-30.0
 62
     5
 63
     7
 74
     1
 91
        4
 64
     7
 65
   257
 75
     1
175
     1
 42
1.0
 92
        0
 66
   257
 43
1.0
 76
     1
 77
     6
 78
     2
 67
     7
 79
     5
170
     0
171
     0
290
     0
174
     0
 93
        1
 44
0.0
173
     0
291
     0
 45
0.0
1001
ACAD
1000
AcDbSavedByObjectVersion
1070
     0
  0
VISUALSTYLE
  5
31
102
{ACAD_REACTORS
330
2A
102
}
330
2A
100
AcDbVisualStyle
  2
3D Hidden
 70
     6
 71
     1
 72
     2
 73
     2
 90
        0
 40
-0.6
 41
-30.0
 62
     5
 63
     7
 74
     2
 91
        2
 64
     7
 65
   257
 75
     2
175
     1
 42
40.0
 92
        0
 66
   257
 43
1.0
 76
     1
 77
     6
 78
     2
 67
     7
 79
     3
170
     0
171
     0
290
     0
174
     0
 93
        1
 44
0.0
173
     0
291
     0
 45
0.0
1001
ACAD
1000
AcDbSavedByObjectVersion
1070
     0
  0
VISUALSTYLE
  5
30
102
{ACAD_REACTORS
330
2A
102
}
330
2A
100
AcDbVisualStyle
  2
3dWireframe
 70
     5
 71
     0
 72
     2
 73
     0
 90
        0
 40
-0.6
 41
-30.0
 62
     5
 63
     7
 74
     1
 91
        4
 64
     7
 65
   257
 75
     1
175
     1
 42
1.0
 92
        0
 66
   257
 43
1.0
 76
     1
 77
     6
 78
     2
 67
     7
 79
     5
170
     0
171
     0
290
     0
174
     0
 93
        1
 44
0.0
173
     0
291
     0
 45
0.0
1001
ACAD
1000
AcDbSavedByObjectVersion
1070
     0
  0
VISUALSTYLE
  5
32
102
{ACAD_REACTORS
330
2A
102
}
330
2A
100
AcDbVisualStyle
  2
Basic
 70
     7
 71
     1
 72
     0
 73
     1
 90
        0
 40
-0.6
 41
-30.0
 62
     5
 63
     7
 74
     0
 91
        4
 64
     7
 65
   257
 75
     1
175
     1
 42
1.0
 92
        8
 66
     7
 43
1.0
 76
     1
 77
     6
 78
     2
 67
     7
 79
     5
170
     0
171
     0
290
     0
174
     0
 93
        1
 44
0.0
173
     0
291
     1
 45
0.0
1001
ACAD
1000
AcDbSavedByObjectVersion
1070
     0
  0
VISUALSTYLE
  5
36
102
{ACAD_REACTORS
330
2A
102
}
330
2A
100
AcDbVisualStyle
  2
Brighten
 70
    12
 71
     2
 72
     2
 73
     0
 90
        0
 40
-0.6
 41
-30.0
 62
     5
 63
     7
 74
     1
 91
        4
 64
     7
 65
   257
 75
     1
175
     1
 42
1.0
 92
        8
 66
     7
 43
1.0
 76
     1
 77
     6
 78
     2
 67
     7
 79
     5
170
     0
171
     0
290
     0
174
     0
 93
        1
 44
50.0
173
     0
291
     1
 45
0.0
1001
ACAD
1000
AcDbSavedByObjectVersion
1070
     0
  0
VISUALSTYLE
  5
3A
102
{ACAD_REACTORS
330
2A
102
}
330
2A
100
AcDbVisualStyle
  2
ColorChange
 70
    16
 71
     2
 72
     2
 73
     3
 90
        0
 40
-0.6
 41
-30.0
 62
     5
 63
     8
 74
     1
 91
        4
 64
     7
 65
   257
 75
     1
175
     1
 42
1.0
 92
        8
 66
     8
 43
1.0
 76
     1
 77
     6
 78
     2
 67
     7
 79
     5
170
     0
171
     0
290
     0
174
     0
 93
        1
 44
0.0
173
     0
291
     1
 45
0.0
1001
ACAD
1000
AcDbSavedByObjectVersion
1070
     0
  0
VISUALSTYLE
  5
34
102
{ACAD_REACTORS
330
2A
102
}
330
2A
100
AcDbVisualStyle
  2
Conceptual
 70
     9
 71
     3
 72
     2
 73
     0
 90
        0
 40
-0.6
 41
-30.0
 62
     5
 63
     7
 74
     2
 91
        2
 64
     7
 65
   257
 75
     1
175
     1
 42
40.0
 92
        8
 66
     7
 43
1.0
 76
     1
 77
     6
 78
     2
 67
     7
 79
     3
170
     0
171
     0
290
     0
174
     0
 93
        1
 44
0.0
173
     0
291
     0
 45
0.0
1001
ACAD
1000
AcDbSavedByObjectVersion
1070
     0
  0
VISUALSTYLE
  5
35
102
{ACAD_REACTORS
330
2A
102
}
330
2A
100
AcDbVisualStyle
  2
Dim
 70
    11
 71
     2
 72
     2
 73
     0
 90
        0
 40
-0.6
 41
-30.0
 62
     5
 63
     7
 74
     1
 91
        4
 64
     7
 65
   257
 75
     1
175
     1
 42
1.0
 92
        8
 66
     7
 43
1.0
 76
     1
 77
     6
 78
     2
 67
     7
 79
     5
170
     0
171
     0
290
     0
174
     0
 93
        1
 44
-50.0
173
     0
291
     1
 45
0.0
1001
ACAD
1000
AcDbSavedByObjectVersion
1070
     0
  0
VISUALSTYLE
  5
39
102
{ACAD_REACTORS
330
2A
102
}
330
2A
100
AcDbVisualStyle
  2
Facepattern
 70
    15
 71
     2
 72
     2
 73
     0
 90
        0
 40
-0.6
 41
-30.0
 62
     5
 63
     7
 74
     1
 91
        4
 64
     7
 65
   257
 75
     1
175
     1
 42
1.0
 92
        8
 66
     7
 43
1.0
 76
     1
 77
     6
 78
     2
 67
     7
 79
     5
170
     0
171
     0
290
     0
174
     0
 93
        1
 44
0.0
173
     0
291
     1
 45
0.0
1001
ACAD
1000
AcDbSavedByObjectVersion
1070
     0
  0
VISUALSTYLE
  5
2B
102
{ACAD_REACTORS
330
2A
102
}
330
2A
100
AcDbVisualStyle
  2
Flat
 70
     0
 71
     2
 72
     1
 73
     1
 90
        2
 40
-0.6
 41
30.0
 62
     5
 63
     7
 74
     0
 91
        4
 64
     7
 65
   257
 75
     1
175
     1
 42
1.0
 92
        8
 66
     7
 43
1.0
 76
     1
 77
     6
 78
     2
 67
     7
 79
     5
170
     0
171
     0
290
     0
174
     0
 93
       13
 44
0.0
173
     0
291
     1
 45
0.0
1001
ACAD
1000
AcDbSavedByObjectVersion
1070
     0
  0
VISUALSTYLE
  5
2C
102
{ACAD_REACTORS
330
2A
102
}
330
2A
100
AcDbVisualStyle
  2
FlatWithEdges
 70
     1
 71
     2
 72
     1
 73
     1
 90
        2
 40
-0.6
 41
30.0
 62
     5
 63
     7
 74
     1
 91
        4
 64
     7
 65
   257
 75
     1
175
     1
 42
1.0
 92
        0
 66
   257
 43
1.0
 76
     1
 77
     6
 78
     2
 67
     7
 79
     5
170
     0
171
     0
290
     0
174
     0
 93
       13
 44
0.0
173
     0
291
     1
 45
0.0
1001
ACAD
1000
AcDbSavedByObjectVersion
1070
     0
  0
VISUALSTYLE
  5
2D
102
{ACAD_REACTORS
330
2A
102
}
330
2A
100
AcDbVisualStyle
  2
Gouraud
 70
     2
 71
     2
 72
     2
 73
     1
 90
        2
 40
-0.6
 41
30.0
 62
     5
 63
     7
 74
     0
 91
        4
 64
     7
 65
   257
 75
     1
175
     1
 42
1.0
 92
        0
 66
     7
 43
1.0
 76
     1
 77
     6
 78
     2
 67
     7
 79
     5
170
     0
171
     0
290
     0
174
     0
 93
       13
 44
0.0
173
     0
291
     1
 45
0.0
1001
ACAD
1000
AcDbSavedByObjectVersion
1070
     0
  0
VISUALSTYLE
  5
2E
102
{ACAD_REACTORS
330
2A
102
}
330
2A
100
AcDbVisualStyle
  2
GouraudWithEdges
 70
     3
 71
     2
 72
     2
 73
     1
 90
        2
 40
-0.6
 41
30.0
 62
     5
 63
     7
 74
     1
 91
        4
 64
     7
 65
   257
 75
     1
175
     1
 42
1.0
 92
        0
 66
   257
 43
1.0
 76
     1
 77
     6
 78
     2
 67
     7
 79
     5
170
     0
171
     0
290
     0
174
     0
 93
       13
 44
0.0
173
     0
291
     1
 45
0.0
1001
ACAD
1000
AcDbSavedByObjectVersion
1070
     0
  0
VISUALSTYLE
  5
38
102
{ACAD_REACTORS
330
2A
102
}
330
2A
100
AcDbVisualStyle
  2
Linepattern
 70
    14
 71
     2
 72
     2
 73
     0
 90
        0
 40
-0.6
 41
-30.0
 62
     5
 63
     7
 74
     1
 91
        4
 64
     7
 65
   257
 75
     7
175
     7
 42
1.0
 92
        8
 66
     7
 43
1.0
 76
     1
 77
     6
 78
     2
 67
     7
 79
     5
170
     0
171
     0
290
     0
174
     0
 93
        1
 44
0.0
173
     0
291
     1
 45
0.0
1001
ACAD
1000
AcDbSavedByObjectVersion
1070
     0
  0
VISUALSTYLE
  5
33
102
{ACAD_REACTORS
330
2A
102
}
330
2A
100
AcDbVisualStyle
  2
Realistic
 70
     8
 71
     2
 72
     2
 73
     0
 90
        0
 40
-0.6
 41
-30.0
 62
     5
 63
     7
 74
     1
 91
        0
 64
     7
 65
   257
 75
     1
175
     1
 42
1.0
 92
        8
 66
     8
 43
1.0
 76
     1
 77
     6
 78
     2
 67
     7
 79
     5
170
     0
171
     0
290
     0
174
     0
 93
       13
 44
0.0
173
     0
291
     0
 45
0.0
1001
ACAD
1000
AcDbSavedByObjectVersion
1070
     0
  0
VISUALSTYLE
  5
37
102
{ACAD_REACTORS
330
2A
102
}
330
2A
100
AcDbVisualStyle
  2
Thicken
 70
    13
 71
     2
 72
     2
 73
     0
 90
        0
 40
-0.6
 41
-30.0
 62
     5
 63
     7
 74
     1
 91
        4
 64
     7
 65
   257
 75
     1
175
     1
 42
1.0
 92
       12
 66
     7
 43
1.0
 76
     1
 77
     6
 78
     2
 67
     7
 79
     5
170
     0
171
     0
290
     0
174
     0
 93
        1
 44
0.0
173
     0
291
     1
 45
0.0
1001
ACAD
1000
AcDbSavedByObjectVersion
1070
     0
  0
DICTIONARYVAR
  5
11F
102
{ACAD_REACTORS
330
11E
102
}
330
11E
100
DictionaryVariables
280
     0
  1
1:1
  0
DICTIONARYVAR
  5
123
102
{ACAD_REACTORS
330
11E
102
}
330
11E
100
DictionaryVariables
280
     0
  1
80.000000
  0
DICTIONARYVAR
  5
122
102
{ACAD_REACTORS
330
11E
102
}
330
11E
100
DictionaryVariables
280
     0
  1
5.000000
  0
ENDSEC
  0
EOF
