  0
SECTION
  2
HEADER
  9
$ACADVER
  1
AC1015
  9
$ACADMAINTVER
 70
     6
  9
$DWGCODEPAGE
  3
ANSI_1252
  9
$INSBASE
 10
0.0
 20
0.0
 30
0.0
  9
$EXTMIN
 10
0.0
 20
0.0
 30
0.0
  9
$EXTMAX
 10
1682.0
 20
2378.0
 30
0.0
  9
$LIMMIN
 10
0.0
 20
0.0
  9
$LIMMAX
 10
1682.0
 20
2378.0
  9
$ORTHOMODE
 70
     0
  9
$REGENMODE
 70
     1
  9
$FILLMODE
 70
     1
  9
$QTEXTMODE
 70
     0
  9
$MIRRTEXT
 70
     1
  9
$LTSCALE
 40
1.0
  9
$ATTMODE
 70
     1
  9
$TEXTSIZE
 40
2.5
  9
$TRACEWID
 40
1.0
  9
$TEXTSTYLE
  7
Standard
  9
$CLAYER
  8
0
  9
$CELTYPE
  6
ByLayer
  9
$CECOLOR
 62
   256
  9
$CELTSCALE
 40
1.0
  9
$DISPSILH
 70
     0
  9
$DIMSCALE
 40
1.0
  9
$DIMASZ
 40
2.5
  9
$DIMEXO
 40
0.625
  9
$DIMDLI
 40
3.75
  9
$DIMRND
 40
0.0
  9
$DIMDLE
 40
0.0
  9
$DIMEXE
 40
1.25
  9
$DIMTP
 40
0.0
  9
$DIMTM
 40
0.0
  9
$DIMTXT
 40
2.5
  9
$DIMCEN
 40
2.5
  9
$DIMTSZ
 40
0.0
  9
$DIMTOL
 70
     0
  9
$DIMLIM
 70
     0
  9
$DIMTIH
 70
     0
  9
$DIMTOH
 70
     0
  9
$DIMSE1
 70
     0
  9
$DIMSE2
 70
     0
  9
$DIMTAD
 70
     1
  9
$DIMZIN
 70
     8
  9
$DIMBLK
  1

  9
$DIMASO
 70
     1
  9
$DIMSHO
 70
     1
  9
$DIMPOST
  1

  9
$DIMAPOST
  1

  9
$DIMALT
 70
     0
  9
$DIMALTD
 70
     3
  9
$DIMALTF
 40
0.0393700787
  9
$DIMLFAC
 40
1.0
  9
$DIMTOFL
 70
     1
  9
$DIMTVP
 40
0.0
  9
$DIMTIX
 70
     0
  9
$DIMSOXD
 70
     0
  9
$DIMSAH
 70
     0
  9
$DIMBLK1
  1

  9
$DIMBLK2
  1

  9
$DIMSTYLE
  2
ISO-25
  9
$DIMCLRD
 70
     0
  9
$DIMCLRE
 70
     0
  9
$DIMCLRT
 70
     0
  9
$DIMTFAC
 40
1.0
  9
$DIMGAP
 40
0.625
  9
$DIMJUST
 70
     0
  9
$DIMSD1
 70
     0
  9
$DIMSD2
 70
     0
  9
$DIMTOLJ
 70
     0
  9
$DIMTZIN
 70
     8
  9
$DIMALTZ
 70
     0
  9
$DIMALTTZ
 70
     0
  9
$DIMUPT
 70
     0
  9
$DIMDEC
 70
     2
  9
$DIMTDEC
 70
     2
  9
$DIMALTU
 70
     2
  9
$DIMALTTD
 70
     3
  9
$DIMTXSTY
  7
Standard
  9
$DIMAUNIT
 70
     0
  9
$DIMADEC
 70
     0
  9
$DIMALTRND
 40
0.0
  9
$DIMAZIN
 70
     0
  9
$DIMDSEP
 70
    44
  9
$DIMATFIT
 70
     3
  9
$DIMFRAC
 70
     0
  9
$DIMLDRBLK
  1

  9
$DIMLUNIT
 70
     2
  9
$DIMLWD
 70
    -2
  9
$DIMLWE
 70
    -2
  9
$DIMTMOVE
 70
     0
  9
$LUNITS
 70
     2
  9
$LUPREC
 70
     4
  9
$SKETCHINC
 40
1.0
  9
$FILLETRAD
 40
10.0
  9
$AUNITS
 70
     0
  9
$AUPREC
 70
     0
  9
$MENU
  1
.
  9
$ELEVATION
 40
0.0
  9
$PELEVATION
 40
0.0
  9
$THICKNESS
 40
0.0
  9
$LIMCHECK
 70
     0
  9
$CHAMFERA
 40
10.0
  9
$CHAMFERB
 40
10.0
  9
$CHAMFERC
 40
20.0
  9
$CHAMFERD
 40
0.0
  9
$SKPOLY
 70
     0
  9
$TDCREATE
 40
2455547.62585316
  9
$TDUCREATE
 40
2455547.584186493
  9
$TDUPDATE
 40
2455547.625853171
  9
$TDUUPDATE
 40
2455547.584186505
  9
$TDINDWG
 40
0.0000000116
  9
$TDUSRTIMER
 40
0.0000000116
  9
$USRTIMER
 70
     1
  9
$ANGBASE
 50
0.0
  9
$ANGDIR
 70
     0
  9
$PDMODE
 70
     0
  9
$PDSIZE
 40
0.0
  9
$PLINEWID
 40
0.0
  9
$SPLFRAME
 70
     0
  9
$SPLINETYPE
 70
     6
  9
$SPLINESEGS
 70
     8
  9
$HANDSEED
  5
258
  9
$SURFTAB1
 70
     6
  9
$SURFTAB2
 70
     6
  9
$SURFTYPE
 70
     6
  9
$SURFU
 70
     6
  9
$SURFV
 70
     6
  9
$UCSBASE
  2

  9
$UCSNAME
  2

  9
$UCSORG
 10
0.0
 20
0.0
 30
0.0
  9
$UCSXDIR
 10
1.0
 20
0.0
 30
0.0
  9
$UCSYDIR
 10
0.0
 20
1.0
 30
0.0
  9
$UCSORTHOREF
  2

  9
$UCSORTHOVIEW
 70
     0
  9
$UCSORGTOP
 10
0.0
 20
0.0
 30
0.0
  9
$UCSORGBOTTOM
 10
0.0
 20
0.0
 30
0.0
  9
$UCSORGLEFT
 10
0.0
 20
0.0
 30
0.0
  9
$UCSORGRIGHT
 10
0.0
 20
0.0
 30
0.0
  9
$UCSORGFRONT
 10
0.0
 20
0.0
 30
0.0
  9
$UCSORGBACK
 10
0.0
 20
0.0
 30
0.0
  9
$PUCSBASE
  2

  9
$PUCSNAME
  2

  9
$PUCSORG
 10
0.0
 20
0.0
 30
0.0
  9
$PUCSXDIR
 10
1.0
 20
0.0
 30
0.0
  9
$PUCSYDIR
 10
0.0
 20
1.0
 30
0.0
  9
$PUCSORTHOREF
  2

  9
$PUCSORTHOVIEW
 70
     0
  9
$PUCSORGTOP
 10
0.0
 20
0.0
 30
0.0
  9
$PUCSORGBOTTOM
 10
0.0
 20
0.0
 30
0.0
  9
$PUCSORGLEFT
 10
0.0
 20
0.0
 30
0.0
  9
$PUCSORGRIGHT
 10
0.0
 20
0.0
 30
0.0
  9
$PUCSORGFRONT
 10
0.0
 20
0.0
 30
0.0
  9
$PUCSORGBACK
 10
0.0
 20
0.0
 30
0.0
  9
$USERI1
 70
     0
  9
$USERI2
 70
     0
  9
$USERI3
 70
     0
  9
$USERI4
 70
     0
  9
$USERI5
 70
     0
  9
$USERR1
 40
0.0
  9
$USERR2
 40
0.0
  9
$USERR3
 40
0.0
  9
$USERR4
 40
0.0
  9
$USERR5
 40
0.0
  9
$WORLDVIEW
 70
     1
  9
$SHADEDGE
 70
     3
  9
$SHADEDIF
 70
    70
  9
$TILEMODE
 70
     1
  9
$MAXACTVP
 70
    64
  9
$PINSBASE
 10
0.0
 20
0.0
 30
0.0
  9
$PLIMCHECK
 70
     0
  9
$PEXTMIN
 10
0.0
 20
0.0
 30
0.0
  9
$PEXTMAX
 10
1682.0
 20
2378.0
 30
0.0
  9
$PLIMMIN
 10
0.0
 20
0.0
  9
$PLIMMAX
 10
1682.0
 20
2378.0
  9
$UNITMODE
 70
     0
  9
$VISRETAIN
 70
     1
  9
$PLINEGEN
 70
     0
  9
$PSLTSCALE
 70
     1
  9
$TREEDEPTH
 70
  3020
  9
$CMLSTYLE
  2
Standard
  9
$CMLJUST
 70
     0
  9
$CMLSCALE
 40
20.0
  9
$PROXYGRAPHICS
 70
     1
  9
$MEASUREMENT
 70
     1
  9
$CELWEIGHT
370
    -1
  9
$ENDCAPS
280
     0
  9
$JOINSTYLE
280
     0
  9
$LWDISPLAY
290
     0
  9
$INSUNITS
 70
     4
  9
$HYPERLINKBASE
  1

  9
$STYLESHEET
  1

  9
$XEDIT
290
     1
  9
$CEPSNTYPE
380
     0
  9
$PSTYLEMODE
290
     1
  9
$FINGERPRINTGUID
  2
{8C876794-6235-4DBE-BBF9-FB0AF54818C9}
  9
$VERSIONGUID
  2
{FAEB1C32-E019-11D5-929B-00C0DF256EC4}
  9
$EXTNAMES
290
     1
  9
$PSVPSCALE
 40
0.0
  9
$OLESTARTUP
290
     0
  0
ENDSEC
  0
SECTION
  2
CLASSES
  0
CLASS
  1
ACDBDICTIONARYWDFLT
  2
AcDbDictionaryWithDefault
  3
ObjectDBX Classes
 90
        0
280
     0
281
     0
  0
CLASS
  1
VISUALSTYLE
  2
AcDbVisualStyle
  3
ObjectDBX Classes
 90
     4095
280
     0
281
     0
  0
CLASS
  1
SCALE
  2
AcDbScale
  3
ObjectDBX Classes
 90
     1153
280
     0
281
     0
  0
CLASS
  1
DICTIONARYVAR
  2
AcDbDictionaryVar
  3
ObjectDBX Classes
 90
        0
280
     0
281
     0
  0
CLASS
  1
ACDBPLACEHOLDER
  2
AcDbPlaceHolder
  3
ObjectDBX Classes
 90
        0
280
     0
281
     0
  0
CLASS
  1
LAYOUT
  2
AcDbLayout
  3
ObjectDBX Classes
 90
        0
280
     0
281
     0
  0
ENDSEC
  0
SECTION
  2
TABLES
  0
TABLE
  2
VPORT
  5
8
330
0
100
AcDbSymbolTable
 70
     1
  0
VPORT
  5
29
330
8
100
AcDbSymbolTableRecord
100
AcDbViewportTableRecord
  2
*Active
 70
     0
 10
0.0
 20
0.0
 11
1.0
 21
1.0
 12
344.1869158879
 22
148.5
 13
0.0
 23
0.0
 14
10.0
 24
10.0
 15
10.0
 25
10.0
 16
0.0
 26
0.0
 36
1.0
 17
0.0
 27
0.0
 37
0.0
 40
297.0
 41
1.9729729729
 42
50.0
 43
0.0
 44
0.0
 50
0.0
 51
0.0
 71
     0
 72
   100
 73
     1
 74
     3
 75
     0
 76
     0
 77
     0
 78
     0
281
     0
 65
     1
110
0.0
120
0.0
130
0.0
111
1.0
121
0.0
131
0.0
112
0.0
122
1.0
132
0.0
 79
     0
146
0.0
  0
ENDTAB
  0
TABLE
  2
LTYPE
  5
5
330
0
100
AcDbSymbolTable
 70
     2
  0
LTYPE
  5
14
330
5
100
AcDbSymbolTableRecord
100
AcDbLinetypeTableRecord
  2
ByBlock
 70
     0
  3

 72
    65
 73
     0
 40
0.0
  0
LTYPE
  5
15
330
5
100
AcDbSymbolTableRecord
100
AcDbLinetypeTableRecord
  2
ByLayer
 70
     0
  3

 72
    65
 73
     0
 40
0.0
  0
LTYPE
  5
16
330
5
100
AcDbSymbolTableRecord
100
AcDbLinetypeTableRecord
  2
Continuous
 70
     0
  3
Solid line
 72
    65
 73
     0
 40
0.0
  0
LTYPE
  5
60
330
5
100
AcDbSymbolTableRecord
100
AcDbLinetypeTableRecord
  2
CENTER2
 70
     0
  3
Center (.5x) ___ _ ___ _ ___ _ ___ _ ___ _ ___
 72
    65
 73
     4
 40
28.575
 49
19.05
 74
     4
 75
     0
340
0
 46
0.0
 50
0.0
 44
0.0
 45
0.0
 49
-3.175
 74
     4
 75
     0
340
0
 46
0.0
 50
0.0
 44
0.0
 45
0.0
 49
3.175
 74
     4
 75
     0
340
0
 46
0.0
 50
0.0
 44
0.0
 45
0.0
 49
-3.175
 74
     4
 75
     0
340
0
 46
0.0
 50
0.0
 44
0.0
 45
0.0
  0
ENDTAB
  0
TABLE
  2
LAYER
  5
2
330
0
100
AcDbSymbolTable
 70
     8
  0
LAYER
  5
10
330
2
100
AcDbSymbolTableRecord
100
AcDbLayerTableRecord
  2
0
 70
     0
 62
     7
  6
Continuous
370
    -3
390
F
  0
LAYER
  5
5D
330
2
100
AcDbSymbolTableRecord
100
AcDbLayerTableRecord
  2
Default
 70
     0
 62
     7
  6
Continuous
370
    -3
390
F
  0
LAYER
  5
77
330
2
100
AcDbSymbolTableRecord
100
AcDbLayerTableRecord
  2
00572038_GEHÄUSE
 70
     0
 62
     7
  6
Continuous
370
    -3
390
F
  0
LAYER
  5
80
330
2
100
AcDbSymbolTableRecord
100
AcDbLayerTableRecord
  2
09729038_GEH._KO
 70
     0
 62
     7
  6
Continuous
370
    -3
390
F
  0
LAYER
  5
8D
330
2
100
AcDbSymbolTableRecord
100
AcDbLayerTableRecord
  2
4240226_STRAHLBI
 70
     0
 62
     7
  6
Continuous
370
    -3
390
F
  0
LAYER
  5
10D
330
2
100
AcDbSymbolTableRecord
100
AcDbLayerTableRecord
  2
4240225_STRAHLBI
 70
     0
 62
     7
  6
Continuous
370
    -3
390
F
  0
LAYER
  5
177
330
2
100
AcDbSymbolTableRecord
100
AcDbLayerTableRecord
  2
03916XX2_SCHRAUB
 70
     0
 62
     7
  6
Continuous
370
    -3
390
F
  0
LAYER
  5
18F
330
2
100
AcDbSymbolTableRecord
100
AcDbLayerTableRecord
  2
03915XX1_SCHRAUB
 70
     0
 62
     7
  6
Continuous
370
    -3
390
F
  0
ENDTAB
  0
TABLE
  2
STYLE
  5
3
330
0
100
AcDbSymbolTable
 70
     2
  0
STYLE
  5
11
330
3
100
AcDbSymbolTableRecord
100
AcDbTextStyleTableRecord
  2
Standard
 70
     0
 40
0.0
 41
1.0
 50
0.0
 71
     0
 42
2.5
  3
txt
  4

  0
STYLE
  5
247
330
3
100
AcDbSymbolTableRecord
100
AcDbTextStyleTableRecord
  2
SEACAD_seiso_ttf
 70
     0
 40
0.0
 41
1.0
 50
0.0
 71
     0
 42
0.2
  3
seiso.ttf
  4

  0
ENDTAB
  0
TABLE
  2
VIEW
  5
6
330
0
100
AcDbSymbolTable
 70
     0
  0
ENDTAB
  0
TABLE
  2
UCS
  5
7
330
0
100
AcDbSymbolTable
 70
     0
  0
ENDTAB
  0
TABLE
  2
APPID
  5
9
330
0
100
AcDbSymbolTable
 70
     1
  0
APPID
  5
12
330
9
100
AcDbSymbolTableRecord
100
AcDbRegAppTableRecord
  2
ACAD
 70
     0
  0
ENDTAB
  0
TABLE
  2
DIMSTYLE
  5
A
330
0
100
AcDbSymbolTable
 70
     1
100
AcDbDimStyleTable
  0
DIMSTYLE
105
27
330
A
100
AcDbSymbolTableRecord
100
AcDbDimStyleTableRecord
  2
ISO-25
 70
     0
 41
2.5
 42
0.625
 43
3.75
 44
1.25
 73
     0
 74
     0
 77
     1
 78
     8
140
2.5
141
2.5
143
0.0393700787
147
0.625
171
     3
172
     1
271
     2
272
     2
274
     3
278
    44
283
     0
284
     8
340
11
  0
ENDTAB
  0
TABLE
  2
BLOCK_RECORD
  5
1
330
0
100
AcDbSymbolTable
 70
     7
  0
BLOCK_RECORD
  5
1F
330
1
100
AcDbSymbolTableRecord
100
AcDbBlockTableRecord
  2
*Model_Space
340
22
  0
BLOCK_RECORD
  5
1B
330
1
100
AcDbSymbolTableRecord
100
AcDbBlockTableRecord
  2
*Paper_Space
340
1E
  0
BLOCK_RECORD
  5
5E
330
1
100
AcDbSymbolTableRecord
100
AcDbBlockTableRecord
  2
SEANNOT_GROUP
340
0
102
{BLKREFS
331
5F
102
}
  0
BLOCK_RECORD
  5
69
330
1
100
AcDbSymbolTableRecord
100
AcDbBlockTableRecord
  2
SEANNOT_GROUP1
340
0
102
{BLKREFS
331
6A
102
}
  0
BLOCK_RECORD
  5
6F
330
1
100
AcDbSymbolTableRecord
100
AcDbBlockTableRecord
  2
SEANNOT_GROUP2
340
0
102
{BLKREFS
331
70
102
}
  0
BLOCK_RECORD
  5
75
330
1
100
AcDbSymbolTableRecord
100
AcDbBlockTableRecord
  2
SE
340
0
102
{BLKREFS
331
76
102
}
  0
BLOCK_RECORD
  5
196
330
1
100
AcDbSymbolTableRecord
100
AcDbBlockTableRecord
  2
SE1
340
0
102
{BLKREFS
331
197
102
}
  0
BLOCK_RECORD
  5
239
330
1
100
AcDbSymbolTableRecord
100
AcDbBlockTableRecord
  2
SE2
340
0
102
{BLKREFS
331
23A
102
}
  0
ENDTAB
  0
ENDSEC
  0
SECTION
  2
BLOCKS
  0
BLOCK
  5
20
330
1F
100
AcDbEntity
  8
0
100
AcDbBlockBegin
  2
*Model_Space
 70
     0
 10
0.0
 20
0.0
 30
0.0
  3
*Model_Space
  1

  0
ENDBLK
  5
21
330
1F
100
AcDbEntity
  8
0
100
AcDbBlockEnd
  0
BLOCK
  5
1C
330
1B
100
AcDbEntity
 67
     1
  8
0
100
AcDbBlockBegin
  2
*Paper_Space
 70
     0
 10
0.0
 20
0.0
 30
0.0
  3
*Paper_Space
  1

  0
ENDBLK
  5
1D
330
1B
100
AcDbEntity
 67
     1
  8
0
100
AcDbBlockEnd
  0
BLOCK
  5
67
330
5E
100
AcDbEntity
  8
0
100
AcDbBlockBegin
  2
SEANNOT_GROUP
 70
     0
 10
0.0
 20
0.0
 30
0.0
  3
SEANNOT_GROUP
  1

  0
LINE
  5
61
330
5E
100
AcDbEntity
  8
Default
  6
CENTER2
 62
     7
100
AcDbLine
 10
127.1863734807
 20
292.4198071149
 30
0.0
 11
87.1863743748
 21
292.4198071149
 31
0.0
  0
LINE
  5
62
330
5E
100
AcDbEntity
  8
Default
  6
CENTER2
 62
     7
100
AcDbLine
 10
107.1863739278
 20
312.4198066679
 30
0.0
 11
107.1863739278
 21
272.419807562
 31
0.0
  0
LINE
  5
63
330
5E
100
AcDbEntity
  8
Default
  6
CENTER2
 62
     7
100
AcDbLine
 10
132.186373369
 20
292.4198071149
 30
0.0
 11
140.5473495375
 21
292.4198071149
 31
0.0
  0
LINE
  5
64
330
5E
100
AcDbEntity
  8
Default
  6
CENTER2
 62
     7
100
AcDbLine
 10
107.1863739278
 20
317.4198065561
 30
0.0
 11
107.1863739278
 21
325.7807827247
 31
0.0
  0
LINE
  5
65
330
5E
100
AcDbEntity
  8
Default
  6
CENTER2
 62
     7
100
AcDbLine
 10
82.1863744866
 20
292.4198071149
 30
0.0
 11
73.825398318
 21
292.4198071149
 31
0.0
  0
LINE
  5
66
330
5E
100
AcDbEntity
  8
Default
  6
CENTER2
 62
     7
100
AcDbLine
 10
107.1863739278
 20
267.4198076737
 30
0.0
 11
107.1863739278
 21
259.0588315052
 31
0.0
  0
ENDBLK
  5
68
330
5E
100
AcDbEntity
  8
0
100
AcDbBlockEnd
  0
BLOCK
  5
6D
330
69
100
AcDbEntity
  8
0
100
AcDbBlockBegin
  2
SEANNOT_GROUP1
 70
     0
 10
0.0
 20
0.0
 30
0.0
  3
SEANNOT_GROUP1
  1

  0
LINE
  5
6B
330
69
100
AcDbEntity
  8
Default
  6
CENTER2
 62
     7
100
AcDbLine
 10
127.1863734807
 20
208.4882865007
 30
0.0
 11
87.1863743748
 21
208.4882865007
 31
0.0
  0
LINE
  5
6C
330
69
100
AcDbEntity
  8
Default
  6
CENTER2
 62
     7
100
AcDbLine
 10
107.1863739278
 20
228.4882860536
 30
0.0
 11
107.1863739278
 21
188.4882869477
 31
0.0
  0
ENDBLK
  5
6E
330
69
100
AcDbEntity
  8
0
100
AcDbBlockEnd
  0
BLOCK
  5
73
330
6F
100
AcDbEntity
  8
0
100
AcDbBlockBegin
  2
SEANNOT_GROUP2
 70
     0
 10
0.0
 20
0.0
 30
0.0
  3
SEANNOT_GROUP2
  1

  0
LINE
  5
71
330
6F
100
AcDbEntity
  8
Default
  6
CENTER2
 62
     7
100
AcDbLine
 10
183.5617849859
 20
292.4198071149
 30
0.0
 11
143.56178588
 21
292.4198071149
 31
0.0
  0
LINE
  5
72
330
6F
100
AcDbEntity
  8
Default
  6
CENTER2
 62
     7
100
AcDbLine
 10
163.5617854329
 20
312.4198066679
 30
0.0
 11
163.5617854329
 21
272.419807562
 31
0.0
  0
ENDBLK
  5
74
330
6F
100
AcDbEntity
  8
0
100
AcDbBlockEnd
  0
BLOCK
  5
194
330
75
100
AcDbEntity
  8
0
100
AcDbBlockBegin
  2
SE
 70
     0
 10
0.0
 20
0.0
 30
0.0
  3
SE
  1

  0
ARC
  5
78
330
75
100
AcDbEntity
  8
00572038_GEHÄUSE
  6
Continuous
 62
     7
100
AcDbCircle
 10
107.1863739278
 20
292.4198071149
 30
0.0
 40
29.86097560975632
100
AcDbArc
 50
318.1722894627
 51
0.0
  0
ARC
  5
79
330
75
100
AcDbEntity
  8
00572038_GEHÄUSE
  6
Continuous
 62
     7
100
AcDbCircle
 10
107.1863739278
 20
292.4198071149
 30
0.0
 40
29.86097560975632
100
AcDbArc
 50
0.0
 51
221.8275885344
  0
SPLINE
  5
7A
330
75
100
AcDbEntity
  8
00572038_GEHÄUSE
  6
Continuous
 62
     7
100
AcDbSpline
210
0.0
220
0.0
230
1.0
 70
     8
 71
     3
 72
    14
 73
    10
 74
     0
 42
0.0000000001711047
 43
0.0000000001
 40
0.0
 40
0.0
 40
0.0
 40
0.0
 40
0.25
 40
0.25
 40
0.5
 40
0.5
 40
0.75
 40
0.75
 40
0.8062581013922184
 40
0.8062581013922184
 40
0.8062581013922184
 40
0.8062581013922184
 10
107.186373927762
 20
316.7629970403095
 30
0.0
 10
111.991844935876
 20
316.7629970403095
 30
0.0
 10
116.7876277477531
 20
315.2999157780679
 30
0.0
 10
124.7618845265416
 20
309.9350825779356
 30
0.0
 10
127.9242817833062
 20
306.0441465531434
 30
0.0
 10
131.5459180235458
 20
297.1416773797804
 30
0.0
 10
131.9978555120092
 20
292.1480922883716
 30
0.0
 10
130.7945859611789
 20
286.3855202867736
 30
0.0
 10
130.5011259525283
 20
285.3425884131649
 30
0.0
 10
130.1398205515941
 20
284.3236254112587
 30
0.0
  0
ELLIPSE
  5
7B
330
75
100
AcDbEntity
  8
00572038_GEHÄUSE
  6
Continuous
 62
     7
100
AcDbEllipse
 10
107.1863739278
 20
268.1472137253
 30
0.0
 11
22.00000000000063
 21
3.469446951953614E-15
 31
0.0
210
0.0
220
0.0
230
1.0
 40
0.2588190451
 41
1.570796326794899
 42
3.065051179834471
  0
ELLIPSE
  5
7C
330
75
100
AcDbEntity
  8
00572038_GEHÄUSE
  6
Continuous
 62
     7
100
AcDbEllipse
 10
107.1863739278
 20
268.1472137253
 30
0.0
 11
-22.00000000000063
 21
0.0
 31
0.0
210
0.0
220
0.0
230
1.0
 40
0.2588190451
 41
3.231730209135959
 42
4.712388980384693
  0
SPLINE
  5
7D
330
75
100
AcDbEntity
  8
00572038_GEHÄUSE
  6
Continuous
 62
     7
100
AcDbSpline
210
0.0
220
0.0
230
1.0
 70
     8
 71
     3
 72
    14
 73
    10
 74
     0
 42
0.0000000001711047
 43
0.0000000001
 40
0.1937418986077765
 40
0.1937418986077765
 40
0.1937418986077765
 40
0.1937418986077765
 40
0.25
 40
0.25
 40
0.5
 40
0.5
 40
0.75
 40
0.75
 40
1.0
 40
1.0
 40
1.0
 40
1.0
 10
84.23292730393007
 20
284.3236254112584
 30
0.0
 10
83.87162190299581
 20
285.3425884131648
 30
0.0
 10
83.57816189434519
 20
286.3855202867734
 30
0.0
 10
82.3748923435149
 20
292.1480922883717
 30
0.0
 10
82.82682983197829
 20
297.1416773797804
 30
0.0
 10
86.44846607221788
 20
306.0441465531434
 30
0.0
 10
89.61086332898246
 20
309.9350825779356
 30
0.0
 10
97.58512010777099
 20
315.2999157780679
 30
0.0
 10
102.3809029196481
 20
316.7629970403095
 30
0.0
 10
107.186373927762
 20
316.7629970403095
 30
0.0
  0
SPLINE
  5
7E
330
75
100
AcDbEntity
  8
00572038_GEHÄUSE
  6
Continuous
 62
     7
100
AcDbSpline
210
0.0
220
0.0
230
1.0
 70
     8
 71
     3
 72
    44
 73
    40
 74
     0
 42
0.0000000002944073
 43
0.0000000001
 40
0.4388533903139482
 40
0.4388533903139482
 40
0.4388533903139482
 40
0.4388533903139482
 40
0.4478245914430696
 40
0.4661507360199554
 40
0.4756377762320543
 40
0.486490057014649
 40
0.49894005026309
 40
0.51006262983343
 40
0.5182443704058838
 40
0.5263064788715474
 40
0.5365603788714701
 40
0.5637723222010852
 40
0.5917356604397306
 40
0.6205362826587962
 40
0.6396707019231661
 40
0.6563136863563909
 40
0.6703036622710501
 40
0.6826980681225409
 40
0.6956895228301974
 40
0.7090964718484806
 40
0.7237091965589468
 40
0.7412439921046197
 40
0.7618265102345377
 40
0.7748829823857722
 40
0.7889278873748736
 40
0.8037861897814571
 40
0.8171170212619099
 40
0.8281886200126064
 40
0.8369978105664523
 40
0.8435420888110601
 40
0.8480927148270927
 40
0.8547397310481244
 40
0.8648689268960361
 40
0.878498321496695
 40
0.8956503719654092
 40
0.9163505465590001
 40
0.9406255472547257
 40
0.9685011956457726
 40
0.9925717194878056
 40
0.9925717194878056
 40
0.9925717194878056
 40
0.9925717194878056
 10
83.98121422992111
 20
287.2030423533542
 30
0.0
 10
83.98114868654794
 20
287.2031229191571
 30
0.0
 10
83.98252095093265
 20
287.1924545220454
 30
0.0
 10
83.98949962991666
 20
287.1382474173919
 30
0.0
 10
84.00245550849208
 20
287.0302515888757
 30
0.0
 10
84.01607241747567
 20
286.9114976428435
 30
0.0
 10
84.0323986727182
 20
286.7619476080957
 30
0.0
 10
84.04858503399828
 20
286.6067630461645
 30
0.0
 10
84.06370972864954
 20
286.4566593224126
 30
0.0
 10
84.0797292899296
 20
286.2929444269046
 30
0.0
 10
84.10809913426554
 20
285.9935602999667
 30
0.0
 10
84.1515697038836
 20
285.5068602330859
 30
0.0
 10
84.21145646389238
 20
284.7795984538575
 30
0.0
 10
84.26762034049672
 20
284.045806671586
 30
0.0
 10
84.31664451682319
 20
283.369503750794
 30
0.0
 10
84.35480395827047
 20
282.8232332831793
 30
0.0
 10
84.38819298303262
 20
282.3310192294945
 30
0.0
 10
84.41911741184148
 20
281.8640735294056
 30
0.0
 10
84.44975313613234
 20
281.3912296241039
 30
0.0
 10
84.48232270873287
 20
280.8776396368604
 30
0.0
 10
84.51868828886849
 20
280.291804256647
 30
0.0
 10
84.56102569305182
 20
279.5939828741599
 30
0.0
 10
84.60227795355262
 20
278.8968607583873
 30
0.0
 10
84.64081554259148
 20
278.2324727604459
 30
0.0
 10
84.67478906710944
 20
277.6379074045234
 30
0.0
 10
84.70904303622099
 20
277.0294320317774
 30
0.0
 10
84.74092673990063
 20
276.455420942176
 30
0.0
 10
84.7679303416629
 20
275.9640324953131
 30
0.0
 10
84.78944046223305
 20
275.5694611235844
 30
0.0
 10
84.80566065548433
 20
275.2700385368354
 30
0.0
 10
84.82014363922771
 20
275.0019125425682
 30
0.0
 10
84.83756599274008
 20
274.6790166459325
 30
0.0
 10
84.86238137808681
 20
274.2180962617549
 30
0.0
 10
84.89573593106032
 20
273.5968225246884
 30
0.0
 10
84.93762975444088
 20
272.8137369551223
 30
0.0
 10
84.98817281930022
 20
271.8651227748342
 30
0.0
 10
85.04698521398309
 20
270.7563631404239
 30
0.0
 10
85.10986633646166
 20
269.5653958445902
 30
0.0
 10
85.14921284358624
 20
268.8165529950647
 30
0.0
 10
85.1692518332001
 20
268.4348486475793
 30
0.0
  0
SPLINE
  5
7F
330
75
100
AcDbEntity
  8
00572038_GEHÄUSE
  6
Continuous
 62
     7
100
AcDbSpline
210
0.0
220
0.0
230
1.0
 70
     8
 71
     3
 72
    47
 73
    43
 74
     0
 42
0.0000000002944069
 43
0.0000000001
 40
0.0073756026693037
 40
0.0073756026693037
 40
0.0073756026693037
 40
0.0073756026693037
 40
0.0314998864459372
 40
0.0593764924608894
 40
0.0836523270859521
 40
0.1043532128013694
 40
0.1215058525017073
 40
0.1351357153187076
 40
0.1435184396595201
 40
0.1496705512162667
 40
0.1536238032348869
 40
0.1575909091377032
 40
0.1630078284785843
 40
0.1698743734849548
 40
0.1781893049735147
 40
0.1890067551148321
 40
0.2015710531557398
 40
0.2145409595704601
 40
0.2267443039918595
 40
0.2381823271155654
 40
0.2591114889896087
 40
0.276881155525695
 40
0.2916619225237953
 40
0.3052714570409959
 40
0.3182159057104087
 40
0.3303903026852433
 40
0.3442474289373088
 40
0.3606635319109041
 40
0.379477394961946
 40
0.408279006580934
 40
0.4362433054559201
 40
0.4634561836088978
 40
0.4725487693747982
 40
0.4799624372981066
 40
0.4865436403930772
 40
0.4951487223853747
 40
0.5059042747470033
 40
0.5163971525615203
 40
0.5256225915119086
 40
0.5338695271902378
 40
0.5521963013328958
 40
0.5611678387785985
 40
0.5611678387785985
 40
0.5611678387785985
 40
0.5611678387785985
 10
129.2033637987064
 20
268.4323300350327
 30
0.0
 10
129.2234548307867
 20
268.815026977962
 30
0.0
 10
129.2628378533045
 20
269.5645687985701
 30
0.0
 10
129.3257626346506
 20
270.7563630867847
 30
0.0
 10
129.3845750569044
 20
271.8651229358202
 30
0.0
 10
129.4351180408004
 20
272.8137364858511
 30
0.0
 10
129.4770120922703
 20
273.5968238309721
 30
0.0
 10
129.5089419295965
 20
274.1915665762232
 30
0.0
 10
129.5319270869258
 20
274.6185676969415
 30
0.0
 10
129.5470245129574
 20
274.8985428073304
 30
0.0
 10
129.5585201988027
 20
275.1114335755148
 30
0.0
 10
129.5694001633814
 20
275.3127924321787
 30
0.0
 10
129.5826423005412
 20
275.5570777568411
 30
0.0
 10
129.5994108818317
 20
275.8649268097481
 30
0.0
 10
129.6205568582245
 20
276.2507759439422
 30
0.0
 10
129.646311466195
 20
276.7169050632687
 30
0.0
 10
129.6758163416709
 20
277.2452682870863
 30
0.0
 10
129.7064069001214
 20
277.7862530095309
 30
0.0
 10
129.7360389823548
 20
278.3034120047213
 30
0.0
 10
129.7720542554643
 20
278.9237253189889
 30
0.0
 10
129.8124685211581
 20
279.6065442974008
 30
0.0
 10
129.8554016454557
 20
280.313738546005
 30
0.0
 10
129.8922392383718
 20
280.9065974207171
 30
0.0
 10
129.9250547068872
 20
281.4233738157755
 30
0.0
 10
129.9556259478538
 20
281.8944876578486
 30
0.0
 10
129.9862195769632
 20
282.3557887662964
 30
0.0
 10
130.0191378985495
 20
282.8405070632875
 30
0.0
 10
130.0567647725036
 20
283.3786880563819
 30
0.0
 10
130.1053656779889
 20
284.0489178206098
 30
0.0
 10
130.161291038619
 20
284.7795952041481
 30
0.0
 10
130.221178957888
 20
285.5068662457778
 30
0.0
 10
130.2638749370582
 20
285.9849049091728
 30
0.0
 10
130.291176736518
 20
286.2735836920945
 30
0.0
 10
130.3052029543123
 20
286.4177126926888
 30
0.0
 10
130.3181414964244
 20
286.5473553045245
 30
0.0
 10
130.3317721661613
 20
286.6802748083279
 30
0.0
 10
130.3466184354921
 20
286.819979593894
 30
0.0
 10
130.3604992266854
 20
286.9451603443085
 30
0.0
 10
130.371735783421
 20
287.0423359868309
 30
0.0
 10
130.3834741509669
 20
287.1399882738061
 30
0.0
 10
130.3902274109993
 20
287.1924593609213
 30
0.0
 10
130.391600383202
 20
287.2031339953228
 30
0.0
 10
130.3915347409699
 20
287.2030524658622
 30
0.0
  0
ELLIPSE
  5
81
330
75
100
AcDbEntity
  8
09729038_GEH._KO
  6
Continuous
 62
     7
100
AcDbEllipse
 10
107.1863739278
 20
243.4195125635
 30
0.0
 11
25.00000000233458
 21
0.0
 31
0.0
210
0.0
220
0.0
230
1.0
 40
0.2588190451
 41
0.0
 42
3.523060153810916
  0
ELLIPSE
  5
82
330
75
100
AcDbEntity
  8
09729038_GEH._KO
  6
Continuous
 62
     7
100
AcDbEllipse
 10
107.1863739278
 20
243.4195125635
 30
0.0
 11
25.00000000233458
 21
0.0
 31
0.0
210
0.0
220
0.0
230
1.0
 40
0.2588190451
 41
5.904638660486286
 42
6.283185307179586
  0
ELLIPSE
  5
83
330
75
100
AcDbEntity
  8
09729038_GEH._KO
  6
Continuous
 62
     7
100
AcDbEllipse
 10
107.1863739278
 20
246.4450409144
 30
0.0
 11
30.17758952816766
 21
0.0
 31
0.0
210
0.0
220
0.0
230
1.0
 40
0.2588190451
 41
0.0976807937417083
 42
0.0987221078825126
  0
ELLIPSE
  5
84
330
75
100
AcDbEntity
  8
09729038_GEH._KO
  6
Continuous
 62
     7
100
AcDbEllipse
 10
107.1863739278
 20
246.4450409144
 30
0.0
 11
30.17758952816766
 21
0.0
 31
0.0
210
0.0
220
0.0
230
1.0
 40
0.2588190451
 41
-3.241110624895562
 42
-3.239273447331501
  0
ELLIPSE
  5
85
330
75
100
AcDbEntity
  8
09729038_GEH._KO
  6
Continuous
 62
     7
100
AcDbEllipse
 10
107.1863739278
 20
267.8294338569
 30
0.0
 11
22.11974254128807
 21
3.469446951953614E-15
 31
0.0
210
0.0
220
0.0
230
1.0
 40
0.2588190451
 41
0.0976807937417197
 42
0.1020824692899212
  0
ELLIPSE
  5
86
330
75
100
AcDbEntity
  8
09729038_GEH._KO
  6
Continuous
 62
     7
100
AcDbEllipse
 10
107.1863739278
 20
267.8294338569
 30
0.0
 11
22.11974254128807
 21
3.469446951953614E-15
 31
0.0
210
0.0
220
0.0
230
1.0
 40
0.2588190451
 41
-3.244468004516558
 42
-3.239273447331505
  0
ARC
  5
87
330
75
100
AcDbEntity
  8
09729038_GEH._KO
  6
Continuous
 62
     7
100
AcDbCircle
 10
107.1863739278
 20
336.9448785352
 30
0.0
 40
100.0000000000412
100
AcDbArc
 50
275.063184358
 51
277.2018309735
  0
SPLINE
  5
88
330
75
100
AcDbEntity
  8
09729038_GEH._KO
  6
Continuous
 62
     7
100
AcDbSpline
210
0.0
220
0.0
230
1.0
 70
     8
 71
     3
 72
    33
 73
    29
 74
     0
 42
0.0000000006366645
 43
0.0000000001
 40
0.0
 40
0.0
 40
0.0
 40
0.0
 40
0.0092910867035613
 40
0.0415507293939566
 40
0.0726916620800903
 40
0.1031055450656316
 40
0.1331785076984394
 40
0.1632193235483616
 40
0.1935384373042513
 40
0.2244941190795366
 40
0.2564295727281285
 40
0.2896549754632162
 40
0.324407685297863
 40
0.3607905729484081
 40
0.3987093902282984
 40
0.4378596289452207
 40
0.4778057968581108
 40
0.5181193284310984
 40
0.5584462727329536
 40
0.5985992614618258
 40
0.638518055799606
 40
0.6781918572612049
 40
0.7176337560745303
 40
0.7568664252113438
 40
0.7959148988126558
 40
0.8348032440906517
 40
0.8735532244397408
 40
0.9053658781404776
 40
0.9053658781404776
 40
0.9053658781404776
 40
0.9053658781404776
 10
77.16556184918598
 20
247.2272613040262
 30
0.0
 10
77.14842041591415
 20
247.1872993701073
 30
0.0
 10
77.08333859545219
 20
247.0344522333924
 30
0.0
 10
77.00016160937615
 20
246.7245530901464
 30
0.0
 10
76.9316795239341
 20
246.3314008830774
 30
0.0
 10
76.91099648921521
 20
245.9367756393251
 30
0.0
 10
76.9345571848083
 20
245.5483512701258
 30
0.0
 10
77.00124249859496
 20
245.1659908455693
 30
0.0
 10
77.1095852437109
 20
244.7909631065757
 30
0.0
 10
77.2589479990681
 20
244.4230268445885
 30
0.0
 10
77.44966901283301
 20
244.061295461969
 30
0.0
 10
77.68311902342415
 20
243.7045818127474
 30
0.0
 10
77.96143568257372
 20
243.3518911866002
 30
0.0
 10
78.28688197896106
 20
243.00291228995
 30
0.0
 10
78.66090552576534
 20
242.6583671344873
 30
0.0
 10
79.08331884245345
 20
242.319942860428
 30
0.0
 10
79.55212393807
 20
241.9897679222557
 30
0.0
 10
80.0639870505299
 20
241.66981340495
 30
0.0
 10
80.61532618291459
 20
241.361326816311
 30
0.0
 10
81.20316769122333
 20
241.0647258521861
 30
0.0
 10
81.82554646171627
 20
240.7797902289645
 30
0.0
 10
82.48121130685723
 20
240.5060496824959
 30
0.0
 10
83.16921611560656
 20
240.2430450442272
 30
0.0
 10
83.88877548860258
 20
239.9903916255826
 30
0.0
 10
84.63908399991442
 20
239.747826325673
 30
0.0
 10
85.41954761139357
 20
239.5151010408221
 30
0.0
 10
86.1812323986318
 20
239.305410125197
 30
0.0
 10
86.6904791794889
 20
239.1748709526649
 30
0.0
 10
86.92281245616427
 20
239.1172828238275
 30
0.0
  0
SPLINE
  5
89
330
75
100
AcDbEntity
  8
09729038_GEH._KO
  6
Continuous
 62
     7
100
AcDbSpline
210
0.0
220
0.0
230
1.0
 70
     8
 71
     3
 72
    32
 73
    28
 74
     0
 42
0.0000000006319885
 43
0.0000000001
 40
0.1018243605175473
 40
0.1018243605175473
 40
0.1018243605175473
 40
0.1018243605175473
 40
0.1386969517709974
 40
0.1770128411686552
 40
0.2154385133817564
 40
0.2539913952933024
 40
0.2926916545186121
 40
0.3315622750135598
 40
0.3706286852929395
 40
0.4099174154504266
 40
0.4494527679687391
 40
0.4892496127700539
 40
0.52929905115882
 40
0.5695422647242416
 40
0.609780395707196
 40
0.6496363036532583
 40
0.6886189088758666
 40
0.7224293555426562
 40
0.7547322607983973
 40
0.7891028458001105
 40
0.82190780358457
 40
0.8533938268217355
 40
0.8839417803909557
 40
0.9139406548782791
 40
0.9437680490417542
 40
0.9736731152414084
 40
1.0
 40
1.0
 40
1.0
 40
1.0
 10
127.4482375707232
 20
239.1168870585728
 30
0.0
 10
127.7192714782808
 20
239.1840657540139
 30
0.0
 10
128.2644719534711
 20
239.3244998337461
 30
0.0
 10
129.0567346392895
 20
239.544952045152
 30
0.0
 10
129.829248839627
 20
239.7776821674262
 30
0.0
 10
130.5712289497776
 20
240.0199703034399
 30
0.0
 10
131.2821074916176
 20
240.2720121175851
 30
0.0
 10
131.9611908257686
 20
240.5340550790561
 30
0.0
 10
132.6078974700598
 20
240.8065020578721
 30
0.0
 10
133.2216601228491
 20
241.08992510044
 30
0.0
 10
133.8018854584682
 20
241.3851016240752
 30
0.0
 10
134.3478431680201
 20
241.6930256752295
 30
0.0
 10
134.8584895391939
 20
242.014869414809
 30
0.0
 10
135.3320118672497
 20
242.3516965412222
 30
0.0
 10
135.7654750330154
 20
242.7039802732274
 30
0.0
 10
136.1549662904812
 20
243.0711132786814
 30
0.0
 10
136.4852104439571
 20
243.4387809437619
 30
0.0
 10
136.7579364141958
 20
243.8020509229917
 30
0.0
 10
136.9850231050205
 20
244.1686781363765
 30
0.0
 10
137.1723518402765
 20
244.5517017817984
 30
0.0
 10
137.3155927636903
 20
244.9507128996504
 30
0.0
 10
137.4094196520612
 20
245.3490341396307
 30
0.0
 10
137.4558268281897
 20
245.7445375807217
 30
0.0
 10
137.4566564894248
 20
246.1368459777559
 30
0.0
 10
137.4136699488021
 20
246.5205940295897
 30
0.0
 10
137.3317645789212
 20
246.8910837306677
 30
0.0
 10
137.2560161428976
 20
247.1018870855389
 30
0.0
 10
137.2131179197347
 20
247.2186020010003
 30
0.0
  0
LINE
  5
8A
330
75
100
AcDbEntity
  8
09729038_GEH._KO
  6
Continuous
 62
     7
100
AcDbLine
 10
137.2201075938
 20
247.2067674733
 30
0.0
 11
129.2006721747
 21
268.387768556
 31
0.0
  0
LINE
  5
8B
330
75
100
AcDbEntity
  8
09729038_GEH._KO
  6
Continuous
 62
     7
100
AcDbLine
 10
85.1720756808
 20
268.387768556
 30
0.0
 11
77.1526402617
 21
247.2067674733
 31
0.0
  0
SPLINE
  5
8C
330
75
100
AcDbEntity
  8
09729038_GEH._KO
  6
Continuous
 62
     7
100
AcDbSpline
210
0.0
220
0.0
230
1.0
 70
     8
 71
     3
 72
    73
 73
    69
 74
     0
 42
0.0000000002144458
 43
0.0000000001
 40
0.0
 40
0.0
 40
0.0
 40
0.0
 40
0.0113025210871918
 40
0.0254579594021167
 40
0.0401008639683287
 40
0.0551987694555233
 40
0.0706362240767571
 40
0.0862692521663441
 40
0.1019778100654778
 40
0.1176754195122326
 40
0.1333287551227607
 40
0.1489291069778274
 40
0.1644773081310634
 40
0.1799781547066912
 40
0.195437630830902
 40
0.2108616532107352
 40
0.2262555723068289
 40
0.2416240286489497
 40
0.2569709650597989
 40
0.2722996994996075
 40
0.2876130146446594
 40
0.302913245163403
 40
0.318202355416585
 40
0.3334820057008727
 40
0.3487536074823561
 40
0.3640183689423905
 40
0.3792773323696551
 40
0.3945314048587572
 40
0.4097813835975813
 40
0.4250279768255759
 40
0.4402718213586603
 40
0.4555134974164417
 40
0.47075354135643
 40
0.4859924568162463
 40
0.5012307246853074
 40
0.5164688122689489
 40
0.5317070939915902
 40
0.5469459683481933
 40
0.5621859089923047
 40
0.5774274077111248
 40
0.5926709838474993
 40
0.6079171946648939
 40
0.6231666470236007
 40
0.6384200108116123
 40
0.6536780346598576
 40
0.668941564583247
 40
0.684211566328954
 40
0.6994891523835738
 40
0.7147756147872969
 40
0.7300724651116633
 40
0.7453814831378118
 40
0.7607047758335566
 40
0.7760448479732638
 40
0.7914046847645453
 40
0.8067878442976758
 40
0.8221985518028619
 40
0.8376417751105926
 40
0.8531232343570034
 40
0.8686492449349752
 40
0.8842261841709237
 40
0.8998591615959453
 40
0.9155490920202193
 40
0.9312867929903019
 40
0.9470346472965318
 40
0.9627000865868944
 40
0.978147637404501
 40
0.9932121702891074
 40
1.0
 40
1.0
 40
1.0
 40
1.0
 10
129.1855754482863
 20
268.418573968726
 30
0.0
 10
129.150393449926
 20
268.5039872548424
 30
0.0
 10
129.0821527316562
 20
268.666273117181
 30
0.0
 10
128.917248027853
 20
268.9342127836848
 30
0.0
 10
128.7054699959349
 20
269.2086719559099
 30
0.0
 10
128.4461399909962
 20
269.4819847020236
 30
0.0
 10
128.1419879296845
 20
269.750453557794
 30
0.0
 10
127.7935227405121
 20
270.0133237435323
 30
0.0
 10
127.4030162395807
 20
270.2691274555351
 30
0.0
 10
126.9725466282755
 20
270.5171486243916
 30
0.0
 10
126.5039456628293
 20
270.7570434070331
 30
0.0
 10
125.998541895491
 20
270.9887787876861
 30
0.0
 10
125.4574416846779
 20
271.2123725148173
 30
0.0
 10
124.8816755907087
 20
271.4278116750754
 30
0.0
 10
124.2722706804634
 20
271.635032090423
 30
0.0
 10
123.6302909153618
 20
271.8339197355981
 30
0.0
 10
122.9568586564964
 20
272.0243191943886
 30
0.0
 10
122.2531644322252
 20
272.2060440095399
 30
0.0
 10
121.5204701667146
 20
272.3788863668577
 30
0.0
 10
120.7601087500345
 20
272.5426254013144
 30
0.0
 10
119.9734816277748
 20
272.6970340260796
 30
0.0
 10
119.16205533416
 20
272.841884448597
 30
0.0
 10
118.3273574811148
 20
272.9769525959906
 30
0.0
 10
117.470972481372
 20
273.102021664108
 30
0.0
 10
116.594537154285
 20
273.2168849717686
 30
0.0
 10
115.699736291055
 20
273.3213482660341
 30
0.0
 10
114.7882982167258
 20
273.4152315922469
 30
0.0
 10
113.8619903651142
 20
273.4983708162533
 30
0.0
 10
112.9226148718437
 20
273.570618865432
 30
0.0
 10
111.9720041853166
 20
273.6318467390598
 30
0.0
 10
111.0120166932132
 20
273.6819443262162
 30
0.0
 10
110.0445323614919
 20
273.7208210599799
 30
0.0
 10
109.0714483830945
 20
273.7484064294122
 30
0.0
 10
108.0946748340206
 20
273.7646503651773
 30
0.0
 10
107.1161303353724
 20
273.7695235101941
 30
0.0
 10
106.1377396022702
 20
273.7630173955861
 30
0.0
 10
105.1614286569818
 20
273.7451446139535
 30
0.0
 10
104.1891190782165
 20
273.7159388306154
 30
0.0
 10
103.222721819298
 20
273.6754545380417
 30
0.0
 10
102.2641334059755
 20
273.6237667328197
 30
0.0
 10
101.3152330266251
 20
273.5609705953071
 30
0.0
 10
100.3778782175737
 20
273.4871810246354
 30
0.0
 10
99.45390054666333
 20
273.40253204163
 30
0.0
 10
98.54510129171547
 20
273.307176041412
 30
0.0
 10
97.65324710891439
 20
273.2012828708611
 30
0.0
 10
96.78006568494953
 20
273.0850386974641
 30
0.0
 10
95.92724136576992
 20
272.9586446245433
 30
0.0
 10
95.09641075459538
 20
272.8223149923306
 30
0.0
 10
94.28915827325436
 20
272.6762752833524
 30
0.0
 10
93.50701168563239
 20
272.52075952205
 30
0.0
 10
92.75143759283075
 20
272.3560070197575
 30
0.0
 10
92.02383693198288
 20
272.1822582638045
 30
0.0
 10
91.32554055287419
 20
271.9997496790593
 30
0.0
 10
90.65780502848794
 20
271.8087069001616
 30
0.0
 10
90.02180899438302
 20
271.6093360748899
 30
0.0
 10
89.41865060748741
 20
271.4018126122833
 30
0.0
 10
88.8493470852112
 20
271.1862666249805
 30
0.0
 10
88.3148385522017
 20
270.9627646047309
 30
0.0
 10
87.81599838025387
 20
270.7312863928652
 30
0.0
 10
87.35366047348685
 20
270.4917015394224
 30
0.0
 10
86.92865614702048
 20
270.2437400401025
 30
0.0
 10
86.54193867297742
 20
269.9870108546813
 30
0.0
 10
86.19462607170809
 20
269.7209977151639
 30
0.0
 10
85.8888242070848
 20
269.4456637001916
 30
0.0
 10
85.62552456135509
 20
269.1604914319532
 30
0.0
 10
85.41201836436895
 20
268.8695272978004
 30
0.0
 10
85.2641256820001
 20
268.6171245933869
 30
0.0
 10
85.21121856943662
 20
268.475395039306
 30
0.0
 10
85.19215940537191
 20
268.4235974657684
 30
0.0
  0
ELLIPSE
  5
8E
330
75
100
AcDbEntity
  8
4240226_STRAHLBI
  6
Continuous
 62
     7
100
AcDbEllipse
 10
109.625002953
 20
243.0964296917
 30
0.0
 11
-1.023028128631108
 21
-0.01471900461082199
 31
0.0
210
0.0
220
0.0
230
1.0
 40
0.3242734747
 41
0.0
 42
6.283185307179586
  0
ELLIPSE
  5
8F
330
75
100
AcDbEntity
  8
4240226_STRAHLBI
  6
Continuous
 62
     7
100
AcDbEllipse
 10
109.625002953
 20
243.0964296917
 30
0.0
 11
-0.4499534310086866
 21
-0.006473787416319544
 31
0.0
210
0.0
220
0.0
230
1.0
 40
0.3242734747
 41
0.0
 42
6.283185307179586
  0
ELLIPSE
  5
90
330
75
100
AcDbEntity
  8
4240226_STRAHLBI
  6
Continuous
 62
     7
100
AcDbEllipse
 10
100.241746015
 20
242.6133579588
 30
0.0
 11
1.02228115388537
 21
-0.04176653538419395
 31
0.0
210
0.0
220
0.0
230
0.9999999999999997
 40
0.3142126478
 41
0.0
 42
6.283185307179586
  0
ELLIPSE
  5
91
330
75
100
AcDbEntity
  8
4240226_STRAHLBI
  6
Continuous
 62
     7
100
AcDbEllipse
 10
100.241746015
 20
242.6133579588
 30
0.0
 11
0.4496248927795656
 21
-0.01836996986838424
 31
0.0
210
0.0
220
0.0
230
1.0
 40
0.3142126478
 41
0.0
 42
6.283185307179586
  0
ELLIPSE
  5
92
330
75
100
AcDbEntity
  8
4240226_STRAHLBI
  6
Continuous
 62
     7
100
AcDbEllipse
 10
94.9265579227
 20
240.5545194558
 30
0.0
 11
1.020545910662012
 21
-0.07272719778903676
 31
0.0
210
0.0
220
0.0
230
0.9999999999999999
 40
0.2713336788
 41
0.0
 42
6.283185307179586
  0
ELLIPSE
  5
93
330
75
100
AcDbEntity
  8
4240226_STRAHLBI
  6
Continuous
 62
     7
100
AcDbEllipse
 10
94.9265579227
 20
240.5545194558
 30
0.0
 11
0.4488616892858073
 21
-0.03198724576284478
 31
0.0
210
0.0
220
0.0
230
1.0
 40
0.2713336788
 41
0.0
 42
6.283185307179586
  0
ELLIPSE
  5
94
330
75
100
AcDbEntity
  8
4240226_STRAHLBI
  6
Continuous
 62
     7
100
AcDbEllipse
 10
96.793003774
 20
238.1259538552
 30
0.0
 11
1.021323310788596
 21
-0.06084320756685052
 31
0.0
210
0.0
220
0.0
230
1.0
 40
0.2207544862
 41
0.0
 42
6.283185307179586
  0
ELLIPSE
  5
95
330
75
100
AcDbEntity
  8
4240226_STRAHLBI
  6
Continuous
 62
     7
100
AcDbEllipse
 10
96.793003774
 20
238.1259538552
 30
0.0
 11
0.4492036093605659
 21
-0.02676036878371257
 31
0.0
210
0.0
220
0.0
230
1.0
 40
0.2207544862
 41
0.0
 42
6.283185307179586
  0
ELLIPSE
  5
96
330
75
100
AcDbEntity
  8
4240226_STRAHLBI
  6
Continuous
 62
     7
100
AcDbEllipse
 10
114.1310018405
 20
237.2333536816
 30
0.0
 11
-1.022332622212725
 21
-0.0404871661993586
 31
0.0
210
0.0
220
0.0
230
1.0
 40
0.202164502
 41
1.161692977133848
 42
4.440115973340218
  0
ELLIPSE
  5
97
330
75
100
AcDbEntity
  8
4240226_STRAHLBI
  6
Continuous
 62
     7
100
AcDbEllipse
 10
114.1310018405
 20
237.2333536816
 30
0.0
 11
-0.4496475298408874
 21
-0.01780727121120096
 31
0.0
210
0.0
220
0.0
230
1.0
 40
0.202164502
 41
1.094957123922822
 42
4.507657486947412
  0
ELLIPSE
  5
98
330
75
100
AcDbEntity
  8
4240226_STRAHLBI
  6
Continuous
 62
     7
100
AcDbEllipse
 10
119.4461899328
 20
239.2921921845
 30
0.0
 11
-1.020583337038
 21
-0.07220009160367746
 31
0.0
210
0.0
220
0.0
230
1.0
 40
0.245043471
 41
0.0
 42
6.283185307179586
  0
ELLIPSE
  5
99
330
75
100
AcDbEntity
  8
4240226_STRAHLBI
  6
Continuous
 62
     7
100
AcDbEllipse
 10
119.4461899328
 20
239.2921921845
 30
0.0
 11
-0.4488781503447104
 21
-0.03175541124142423
 31
0.0
210
0.0
220
0.0
230
1.0
 40
0.245043471
 41
0.0
 42
6.283185307179586
  0
ELLIPSE
  5
9A
330
75
100
AcDbEntity
  8
4240226_STRAHLBI
  6
Continuous
 62
     7
100
AcDbEllipse
 10
117.5797440815
 20
241.7207577851
 30
0.0
 11
-1.021246534404696
 21
-0.06211857237251039
 31
0.0
210
0.0
220
0.0
230
0.9999999999999999
 40
0.2956226636
 41
0.0
 42
6.283185307179586
  0
ELLIPSE
  5
9B
330
75
100
AcDbEntity
  8
4240226_STRAHLBI
  6
Continuous
 62
     7
100
AcDbEllipse
 10
117.5797440815
 20
241.7207577851
 30
0.0
 11
-0.4491698411811882
 21
-0.02732130621449502
 31
0.0
210
0.0
220
0.0
230
0.9999999999999997
 40
0.2956226636
 41
0.0
 42
6.283185307179586
  0
ELLIPSE
  5
9C
330
75
100
AcDbEntity
  8
4240226_STRAHLBI
  6
Continuous
 62
     7
100
AcDbEllipse
 10
107.1863739278
 20
245.8293459587
 30
0.0
 11
1.023134009339333
 21
0.0
 31
0.0
210
0.0
220
0.0
230
1.0
 40
0.3907311285
 41
0.0
 42
6.283185307179586
  0
ELLIPSE
  5
9D
330
75
100
AcDbEntity
  8
4240226_STRAHLBI
  6
Continuous
 62
     7
100
AcDbEllipse
 10
107.1863739278
 20
245.8293459587
 30
0.0
 11
0.4499999999999962
 21
0.0
 31
0.0
210
0.0
220
0.0
230
1.0
 40
0.3907311285
 41
0.0
 42
6.283185307179586
  0
ELLIPSE
  5
9E
330
75
100
AcDbEntity
  8
4240226_STRAHLBI
  6
Continuous
 62
     7
100
AcDbEllipse
 10
99.7240469966
 20
245.4451681379
 30
0.0
 11
1.021435865041638
 21
-0.05892346454017261
 31
0.0
210
0.0
220
0.0
230
1.0
 40
0.3804981861
 41
0.0
 42
6.283185307179586
  0
ELLIPSE
  5
9F
330
75
100
AcDbEntity
  8
4240226_STRAHLBI
  6
Continuous
 62
     7
100
AcDbEllipse
 10
99.7240469966
 20
245.4451681379
 30
0.0
 11
0.4492531135442757
 21
-0.02591601764875134
 31
0.0
210
0.0
220
0.0
230
1.0
 40
0.3804981861
 41
0.0
 42
6.283185307179586
  0
ELLIPSE
  5
A0
330
75
100
AcDbEntity
  8
4240226_STRAHLBI
  6
Continuous
 62
     7
100
AcDbEllipse
 10
93.3977916946
 20
244.3511222661
 30
0.0
 11
1.017466242605963
 21
-0.1075436944877883
 31
0.0
210
0.0
220
0.0
230
1.0
 40
0.3513572317
 41
0.0
 42
6.283185307179586
  0
ELLIPSE
  5
A1
330
75
100
AcDbEntity
  8
4240226_STRAHLBI
  6
Continuous
 62
     7
100
AcDbEllipse
 10
93.3977916946
 20
244.3511222661
 30
0.0
 11
0.4475071740292664
 21
-0.04730041429348159
 31
0.0
210
0.0
220
0.0
230
1.0
 40
0.3513572317
 41
0.0
 42
6.283185307179586
  0
ELLIPSE
  5
A2
330
75
100
AcDbEntity
  8
4240226_STRAHLBI
  6
Continuous
 62
     7
100
AcDbEllipse
 10
89.1707230438
 20
242.7137669098
 30
0.0
 11
1.013748646286481
 21
-0.1382638174617784
 31
0.0
210
0.0
220
0.0
230
1.0
 40
0.3077447113
 41
0.0
 42
6.283185307179586
  0
ELLIPSE
  5
A3
330
75
100
AcDbEntity
  8
4240226_STRAHLBI
  6
Continuous
 62
     7
100
AcDbEllipse
 10
89.1707230438
 20
242.7137669098
 30
0.0
 11
0.4458720819215911
 21
-0.06081189491294326
 31
0.0
210
0.0
220
0.0
230
1.0
 40
0.3077447113
 41
0.0
 42
6.283185307179586
  0
ELLIPSE
  5
A4
330
75
100
AcDbEntity
  8
4240226_STRAHLBI
  6
Continuous
 62
     7
100
AcDbEllipse
 10
87.6863739278
 20
240.7823745792
 30
0.0
 11
1.012473189924933
 21
-0.1473134099463161
 31
0.0
210
0.0
220
0.0
230
1.0
 40
0.2563002359
 41
0.0
 42
6.283185307179586
  0
ELLIPSE
  5
A5
330
75
100
AcDbEntity
  8
4240226_STRAHLBI
  6
Continuous
 62
     7
100
AcDbEllipse
 10
87.6863739278
 20
240.7823745792
 30
0.0
 11
0.4453111042222284
 21
-0.06479213267345657
 31
0.0
210
0.0
220
0.0
230
0.9999999999999999
 40
0.2563002359
 41
0.0
 42
6.283185307179586
  0
ELLIPSE
  5
A6
330
75
100
AcDbEntity
  8
4240226_STRAHLBI
  6
Continuous
 62
     7
100
AcDbEllipse
 10
89.1707230438
 20
238.8509822486
 30
0.0
 11
1.014267580644958
 21
-0.1344041514217548
 31
0.0
210
0.0
220
0.0
230
0.9999999999999998
 40
0.2048557606
 41
0.0
 42
6.283185307179586
  0
ELLIPSE
  5
A7
330
75
100
AcDbEntity
  8
4240226_STRAHLBI
  6
Continuous
 62
     7
100
AcDbEllipse
 10
89.1707230438
 20
238.8509822486
 30
0.0
 11
0.4461003222685847
 21
-0.05911431697872006
 31
0.0
210
0.0
220
0.0
230
1.0
 40
0.2048557606
 41
0.0
 42
6.283185307179586
  0
ELLIPSE
  5
A8
330
75
100
AcDbEntity
  8
4240226_STRAHLBI
  6
Continuous
 62
     7
100
AcDbEllipse
 10
89.3455279706
 20
240.1701302685
 30
0.0
 11
1.520397294298825
 21
-0.201473173414686
 31
0.0
210
0.0
220
0.0
230
1.0
 40
0.2048557606
 41
6.144425828935687
 42
6.283185307179586
  0
ELLIPSE
  5
A9
330
75
100
AcDbEntity
  8
4240226_STRAHLBI
  6
Continuous
 62
     7
100
AcDbEllipse
 10
89.3455279706
 20
240.1701302685
 30
0.0
 11
1.520397294298825
 21
-0.201473173414686
 31
0.0
210
0.0
220
0.0
230
1.0
 40
0.2048557606
 41
2.995643050290029
 42
3.279825858756271
  0
ELLIPSE
  5
AA
330
75
100
AcDbEntity
  8
4240226_STRAHLBI
  6
Continuous
 62
     7
100
AcDbEllipse
 10
89.3455279706
 20
240.1701302685
 30
0.0
 11
1.520397294298825
 21
-0.201473173414686
 31
0.0
210
0.0
220
0.0
230
1.0
 40
0.2048557606
 41
0.0000000000000107
 42
0.0123686025177544
  0
ELLIPSE
  5
AB
330
75
100
AcDbEntity
  8
4240226_STRAHLBI
  6
Continuous
 62
     7
100
AcDbEllipse
 10
93.3977916946
 20
237.2136268923
 30
0.0
 11
1.018034745180339
 21
-0.102021853896031
 31
0.0
210
0.0
220
0.0
230
1.0
 40
0.1612432402
 41
0.0
 42
6.283185307179586
  0
ELLIPSE
  5
AC
330
75
100
AcDbEntity
  8
4240226_STRAHLBI
  6
Continuous
 62
     7
100
AcDbEllipse
 10
93.3977916946
 20
237.2136268923
 30
0.0
 11
0.4477572157209064
 21
-0.0448717703000201
 31
0.0
210
0.0
220
0.0
230
1.0
 40
0.1612432402
 41
0.0
 42
6.283185307179586
  0
ELLIPSE
  5
AD
330
75
100
AcDbEntity
  8
4240226_STRAHLBI
  6
Continuous
 62
     7
100
AcDbEllipse
 10
99.7240469966
 20
236.1195810205
 30
0.0
 11
1.021656085594841
 21
-0.05497311919297476
 31
0.0
210
0.0
220
0.0
230
0.9999999999999999
 40
0.1321022858
 41
0.0
 42
6.283185307179586
  0
ELLIPSE
  5
AE
330
75
100
AcDbEntity
  8
4240226_STRAHLBI
  6
Continuous
 62
     7
100
AcDbEllipse
 10
99.7240469966
 20
236.1195810205
 30
0.0
 11
0.4493499720672426
 21
-0.02417855668077062
 31
0.0
210
0.0
220
0.0
230
1.0
 40
0.1321022858
 41
0.0
 42
6.283185307179586
  0
ELLIPSE
  5
AF
330
75
100
AcDbEntity
  8
4240226_STRAHLBI
  6
Continuous
 62
     7
100
AcDbEllipse
 10
107.1863739278
 20
235.7354031997
 30
0.0
 11
1.023134009339333
 21
0.0
 31
0.0
210
0.0
220
0.0
230
1.0
 40
0.1218693434
 41
3.354649709189944
 42
6.070128251577005
  0
ELLIPSE
  5
B0
330
75
100
AcDbEntity
  8
4240226_STRAHLBI
  6
Continuous
 62
     7
100
AcDbEllipse
 10
107.1863739278
 20
235.7354031997
 30
0.0
 11
1.023134009339333
 21
0.0
 31
0.0
210
0.0
220
0.0
230
1.0
 40
0.1218693434
 41
0.2130570556025817
 42
2.928535597989642
  0
ELLIPSE
  5
B1
330
75
100
AcDbEntity
  8
4240226_STRAHLBI
  6
Continuous
 62
     7
100
AcDbEllipse
 10
107.1863739278
 20
235.7354031997
 30
0.0
 11
0.4499999999999966
 21
0.0
 31
0.0
210
0.0
220
0.0
230
1.0
 40
0.1218693434
 41
0.0
 42
6.283185307179586
  0
ELLIPSE
  5
B2
330
75
100
AcDbEntity
  8
4240226_STRAHLBI
  6
Continuous
 62
     7
100
AcDbEllipse
 10
114.6487008589
 20
236.1195810205
 30
0.0
 11
-1.02165608559484
 21
-0.05497311919297476
 31
0.0
210
0.0
220
0.0
230
0.9999999999999999
 40
0.1321022858
 41
0.0
 42
6.283185307179586
  0
ELLIPSE
  5
B3
330
75
100
AcDbEntity
  8
4240226_STRAHLBI
  6
Continuous
 62
     7
100
AcDbEllipse
 10
114.6487008589
 20
236.1195810205
 30
0.0
 11
-0.4493499720672418
 21
-0.02417855668077062
 31
0.0
210
0.0
220
0.0
230
1.0
 40
0.1321022858
 41
0.0
 42
6.283185307179586
  0
ELLIPSE
  5
B4
330
75
100
AcDbEntity
  8
4240226_STRAHLBI
  6
Continuous
 62
     7
100
AcDbEllipse
 10
120.9749561609
 20
237.2136268923
 30
0.0
 11
-1.018034745180339
 21
-0.102021853896031
 31
0.0
210
0.0
220
0.0
230
1.0
 40
0.1612432402
 41
0.0
 42
6.283185307179586
  0
ELLIPSE
  5
B5
330
75
100
AcDbEntity
  8
4240226_STRAHLBI
  6
Continuous
 62
     7
100
AcDbEllipse
 10
120.9749561609
 20
237.2136268923
 30
0.0
 11
-0.4477572157209064
 21
-0.0448717703000201
 31
0.0
210
0.0
220
0.0
230
1.0
 40
0.1612432402
 41
0.0
 42
6.283185307179586
  0
ELLIPSE
  5
B6
330
75
100
AcDbEntity
  8
4240226_STRAHLBI
  6
Continuous
 62
     7
100
AcDbEllipse
 10
125.2020248117
 20
238.8509822486
 30
0.0
 11
-1.014267580644958
 21
-0.1344041514217548
 31
0.0
210
0.0
220
0.0
230
0.9999999999999998
 40
0.2048557606
 41
0.0
 42
6.283185307179586
  0
ELLIPSE
  5
B7
330
75
100
AcDbEntity
  8
4240226_STRAHLBI
  6
Continuous
 62
     7
100
AcDbEllipse
 10
125.2020248117
 20
238.8509822486
 30
0.0
 11
-0.4461003222685847
 21
-0.05911431697872006
 31
0.0
210
0.0
220
0.0
230
1.0
 40
0.2048557606
 41
0.0
 42
6.283185307179586
  0
ELLIPSE
  5
B8
330
75
100
AcDbEntity
  8
4240226_STRAHLBI
  6
Continuous
 62
     7
100
AcDbEllipse
 10
126.6863739278
 20
240.7823745792
 30
0.0
 11
-1.012473189924933
 21
-0.1473134099463161
 31
0.0
210
0.0
220
0.0
230
1.0
 40
0.2563002359
 41
0.0
 42
6.283185307179586
  0
ELLIPSE
  5
B9
330
75
100
AcDbEntity
  8
4240226_STRAHLBI
  6
Continuous
 62
     7
100
AcDbEllipse
 10
126.6863739278
 20
240.7823745792
 30
0.0
 11
-0.4453111042222284
 21
-0.06479213267345657
 31
0.0
210
0.0
220
0.0
230
0.9999999999999999
 40
0.2563002359
 41
0.0
 42
6.283185307179586
  0
ELLIPSE
  5
BA
330
75
100
AcDbEntity
  8
4240226_STRAHLBI
  6
Continuous
 62
     7
100
AcDbEllipse
 10
125.2020248117
 20
242.7137669098
 30
0.0
 11
-1.013748646286481
 21
-0.1382638174617784
 31
0.0
210
0.0
220
0.0
230
1.0
 40
0.3077447113
 41
0.0
 42
6.283185307179586
  0
ELLIPSE
  5
BB
330
75
100
AcDbEntity
  8
4240226_STRAHLBI
  6
Continuous
 62
     7
100
AcDbEllipse
 10
125.2020248117
 20
242.7137669098
 30
0.0
 11
-0.4458720819215911
 21
-0.06081189491294326
 31
0.0
210
0.0
220
0.0
230
1.0
 40
0.3077447113
 41
0.0
 42
6.283185307179586
  0
ELLIPSE
  5
BC
330
75
100
AcDbEntity
  8
4240226_STRAHLBI
  6
Continuous
 62
     7
100
AcDbEllipse
 10
120.9749561609
 20
244.3511222661
 30
0.0
 11
-1.017466242605963
 21
-0.1075436944877883
 31
0.0
210
0.0
220
0.0
230
1.0
 40
0.3513572317
 41
0.0
 42
6.283185307179586
  0
ELLIPSE
  5
BD
330
75
100
AcDbEntity
  8
4240226_STRAHLBI
  6
Continuous
 62
     7
100
AcDbEllipse
 10
120.9749561609
 20
244.3511222661
 30
0.0
 11
-0.4475071740292682
 21
-0.04730041429348159
 31
0.0
210
0.0
220
0.0
230
1.0
 40
0.3513572317
 41
0.0
 42
6.283185307179586
  0
ELLIPSE
  5
BE
330
75
100
AcDbEntity
  8
4240226_STRAHLBI
  6
Continuous
 62
     7
100
AcDbEllipse
 10
114.6487008589
 20
245.4451681379
 30
0.0
 11
-1.021435865041639
 21
-0.05892346454017261
 31
0.0
210
0.0
220
0.0
230
1.0
 40
0.3804981861
 41
0.0
 42
6.283185307179586
  0
ELLIPSE
  5
BF
330
75
100
AcDbEntity
  8
4240226_STRAHLBI
  6
Continuous
 62
     7
100
AcDbEllipse
 10
114.6487008589
 20
245.4451681379
 30
0.0
 11
-0.4492531135442757
 21
-0.02591601764875134
 31
0.0
210
0.0
220
0.0
230
1.0
 40
0.3804981861
 41
0.0
 42
6.283185307179586
  0
ARC
  5
C0
330
75
100
AcDbEntity
  8
4240226_STRAHLBI
  6
Continuous
 62
     7
100
AcDbCircle
 10
105.8782485165
 20
242.6329497149
 30
0.0
 40
2.757995177728956
100
AcDbArc
 50
8.9874363006
 51
35.6767737766
  0
ARC
  5
C1
330
75
100
AcDbEntity
  8
4240226_STRAHLBI
  6
Continuous
 62
     7
100
AcDbCircle
 10
113.3855463834
 20
242.7369102805
 30
0.0
 40
2.761286969608543
100
AcDbArc
 50
145.7631682515
 51
172.5545260732
  0
ARC
  5
C2
330
75
100
AcDbEntity
  8
4240226_STRAHLBI
  6
Continuous
 62
     7
100
AcDbCircle
 10
109.5792771844
 20
245.3775781726
 30
0.0
 40
1.86576675188579
100
AcDbArc
 50
324.4927112165
 51
342.9784002564
  0
ARC
  5
C3
330
75
100
AcDbEntity
  8
4240226_STRAHLBI
  6
Continuous
 62
     7
100
AcDbCircle
 10
109.6305495326
 20
245.3861218482
 30
0.0
 40
1.891948712515494
100
AcDbArc
 50
199.1497098359
 51
217.2466283648
  0
ARC
  5
C4
330
75
100
AcDbEntity
  8
4240226_STRAHLBI
  6
Continuous
 62
     7
100
AcDbCircle
 10
100.2913729311
 20
244.9004974149
 30
0.0
 40
1.893162789017845
100
AcDbArc
 50
321.7818938906
 51
337.878123322
  0
ARC
  5
C5
330
75
100
AcDbEntity
  8
4240226_STRAHLBI
  6
Continuous
 62
     7
100
AcDbCircle
 10
100.3249841346
 20
244.8867374438
 30
0.0
 40
1.83959342385697
100
AcDbArc
 50
196.1326243027
 51
214.0236296187
  0
ARC
  5
C6
330
75
100
AcDbEntity
  8
4240226_STRAHLBI
  6
Continuous
 62
     7
100
AcDbCircle
 10
96.5788438055
 20
242.4064090427
 30
0.0
 40
2.64593521753388
100
AcDbArc
 50
4.9853619344
 51
33.1427194879
  0
ARC
  5
C7
330
75
100
AcDbEntity
  8
4240226_STRAHLBI
  6
Continuous
 62
     7
100
AcDbCircle
 10
104.01409783
 20
242.0438485144
 30
0.0
 40
2.798076585416458
100
AcDbArc
 50
142.935774765
 51
169.4496944611
  0
ARC
  5
C8
330
75
100
AcDbEntity
  8
4240226_STRAHLBI
  6
Continuous
 62
     7
100
AcDbCircle
 10
95.0417566516
 20
242.884858568
 30
0.0
 40
1.904459672329965
100
AcDbArc
 50
320.2819132605
 51
329.8192898909
  0
ARC
  5
C9
330
75
100
AcDbEntity
  8
4240226_STRAHLBI
  6
Continuous
 62
     7
100
AcDbCircle
 10
95.1086572849
 20
242.8553032244
 30
0.0
 40
1.865717616334432
100
AcDbArc
 50
199.2335393091
 51
211.2459026012
  0
ARC
  5
CA
330
75
100
AcDbEntity
  8
4240226_STRAHLBI
  6
Continuous
 62
     7
100
AcDbCircle
 10
91.0748067201
 20
240.4396799951
 30
0.0
 40
2.83257452006116
100
AcDbArc
 50
3.5570232869
 51
30.7025337361
  0
ARC
  5
CB
330
75
100
AcDbEntity
  8
4240226_STRAHLBI
  6
Continuous
 62
     7
100
AcDbCircle
 10
98.7229281442
 20
239.891481859
 30
0.0
 40
2.833778948554354
100
AcDbArc
 50
141.2566267322
 51
168.2251162881
  0
ARC
  5
CC
330
75
100
AcDbEntity
  8
4240226_STRAHLBI
  6
Continuous
 62
     7
100
AcDbCircle
 10
96.9942911752
 20
240.4823251489
 30
0.0
 40
1.913990822161918
100
AcDbArc
 50
206.9849480637
 51
211.4131206243
  0
ARC
  5
CD
330
75
100
AcDbEntity
  8
4240226_STRAHLBI
  6
Continuous
 62
     7
100
AcDbCircle
 10
96.8885924207
 20
240.4890258264
 30
0.0
 40
1.8999924761928
100
AcDbArc
 50
321.3022911088
 51
323.5268741387
  0
ARC
  5
CE
330
75
100
AcDbEntity
  8
4240226_STRAHLBI
  6
Continuous
 62
     7
100
AcDbCircle
 10
100.7434712585
 20
237.4794890981
 30
0.0
 40
2.983851393402494
100
AcDbArc
 50
142.4581940208
 51
168.8545890131
  0
ARC
  5
CF
330
75
100
AcDbEntity
  8
4240226_STRAHLBI
  6
Continuous
 62
     7
100
AcDbCircle
 10
92.8884879881
 20
237.9870351874
 30
0.0
 40
2.883805800879007
100
AcDbArc
 50
3.7953486718
 51
31.2128170934
  0
ARC
  5
D0
330
75
100
AcDbEntity
  8
4240226_STRAHLBI
  6
Continuous
 62
     7
100
AcDbCircle
 10
118.230086081
 20
236.9554713887
 30
0.0
 40
3.09201908749976
100
AcDbArc
 50
148.4248326573
 51
174.2522418321
  0
ARC
  5
D1
330
75
100
AcDbEntity
  8
4240226_STRAHLBI
  6
Continuous
 62
     7
100
AcDbCircle
 10
119.2328657475
 20
241.6370982903
 30
0.0
 40
1.903519048864076
100
AcDbArc
 50
328.507466584
 51
336.7525293262
  0
ARC
  5
D2
330
75
100
AcDbEntity
  8
4240226_STRAHLBI
  6
Continuous
 62
     7
100
AcDbCircle
 10
119.2902917821
 20
241.619792813
 30
0.0
 40
1.860002012481142
100
AcDbArc
 50
213.9761337279
 51
219.6904674979
  0
ARC
  5
D3
330
75
100
AcDbEntity
  8
4240226_STRAHLBI
  6
Continuous
 62
     7
100
AcDbCircle
 10
115.5280110561
 20
238.599624931
 30
0.0
 40
2.959652887213637
100
AcDbArc
 50
11.8782641371
 51
38.2139110719
  0
ARC
  5
D4
330
75
100
AcDbEntity
  8
4240226_STRAHLBI
  6
Continuous
 62
     7
100
AcDbCircle
 10
123.3357702635
 20
239.1838563347
 30
0.0
 40
2.869379821617011
100
AcDbArc
 50
149.4950959595
 51
176.5736863221
  0
ARC
  5
D5
330
75
100
AcDbEntity
  8
4240226_STRAHLBI
  6
Continuous
 62
     7
100
AcDbCircle
 10
117.4243856399
 20
244.0063180176
 30
0.0
 40
1.864026121734456
100
AcDbArc
 50
327.6618276907
 51
343.2197863284
  0
ARC
  5
D6
330
75
100
AcDbEntity
  8
4240226_STRAHLBI
  6
Continuous
 62
     7
100
AcDbCircle
 10
117.4616614232
 20
244.0236836682
 30
0.0
 40
1.874875364323153
100
AcDbArc
 50
206.3277996945
 51
219.6745629818
  0
ARC
  5
D7
330
75
100
AcDbEntity
  8
4240226_STRAHLBI
  6
Continuous
 62
     7
100
AcDbCircle
 10
113.8670850944
 20
241.121019092
 30
0.0
 40
2.738816480352142
100
AcDbArc
 50
10.9715035915
 51
38.4601122784
  0
ARC
  5
D8
330
75
100
AcDbEntity
  8
4240226_STRAHLBI
  6
Continuous
 62
     7
100
AcDbCircle
 10
121.3132466386
 20
241.5822167334
 30
0.0
 40
2.713697118966226
100
AcDbArc
 50
148.3170027744
 51
176.061631051
  0
ARC
  5
D9
330
75
100
AcDbEntity
  8
4240226_STRAHLBI
  6
Continuous
 62
     7
100
AcDbCircle
 10
103.7321202123
 20
245.4593583064
 30
0.0
 40
2.455331777199394
100
AcDbArc
 50
8.0519785098
 51
36.0658866531
  0
ARC
  5
DA
330
75
100
AcDbEntity
  8
4240226_STRAHLBI
  6
Continuous
 62
     7
100
AcDbCircle
 10
110.6716427672
 20
245.4531815441
 30
0.0
 40
2.486208032678118
100
AcDbArc
 50
144.1382584047
 51
171.8832108088
  0
ARC
  5
DB
330
75
100
AcDbEntity
  8
4240226_STRAHLBI
  6
Continuous
 62
     7
100
AcDbCircle
 10
107.1584366177
 20
248.0579008009
 30
0.0
 40
1.882673638743766
100
AcDbArc
 50
322.4431448905
 51
347.3857946253
  0
ARC
  5
DC
330
75
100
AcDbEntity
  8
4240226_STRAHLBI
  6
Continuous
 62
     7
100
AcDbCircle
 10
107.1973884038
 20
248.0353551659
 30
0.0
 40
1.858039364622468
100
AcDbArc
 50
192.0339463071
 51
217.5213885974
  0
ARC
  5
DD
330
75
100
AcDbEntity
  8
4240226_STRAHLBI
  6
Continuous
 62
     7
100
AcDbCircle
 10
99.8517425501
 20
247.6541004066
 30
0.0
 40
1.846818124657955
100
AcDbArc
 50
319.3628901616
 51
343.3357773554
  0
ARC
  5
DE
330
75
100
AcDbEntity
  8
4240226_STRAHLBI
  6
Continuous
 62
     7
100
AcDbCircle
 10
99.8553567385
 20
247.6610387228
 30
0.0
 40
1.852996179576993
100
AcDbArc
 50
189.7639160916
 51
214.1733273796
  0
ARC
  5
DF
330
75
100
AcDbEntity
  8
4240226_STRAHLBI
  6
Continuous
 62
     7
100
AcDbCircle
 10
96.2278102577
 20
245.2810761541
 30
0.0
 40
2.48008571132422
100
AcDbArc
 50
4.58147914
 51
32.6535255393
  0
ARC
  5
E0
330
75
100
AcDbEntity
  8
4240226_STRAHLBI
  6
Continuous
 62
     7
100
AcDbCircle
 10
103.1335326657
 20
244.9031105374
 30
0.0
 40
2.430309559908553
100
AcDbArc
 50
140.5130148908
 51
169.1354273683
  0
ARC
  5
E1
330
75
100
AcDbEntity
  8
4240226_STRAHLBI
  6
Continuous
 62
     7
100
AcDbCircle
 10
93.6265334278
 20
246.5807057462
 30
0.0
 40
1.853818425511758
100
AcDbArc
 50
317.2036452175
 51
337.2540872995
  0
ARC
  5
E2
330
75
100
AcDbEntity
  8
4240226_STRAHLBI
  6
Continuous
 62
     7
100
AcDbCircle
 10
93.6639045982
 20
246.5944107103
 30
0.0
 40
1.880028693328233
100
AcDbArc
 50
190.0303203458
 51
210.6023657433
  0
ARC
  5
E3
330
75
100
AcDbEntity
  8
4240226_STRAHLBI
  6
Continuous
 62
     7
100
AcDbCircle
 10
89.8706206413
 20
244.3813169083
 30
0.0
 40
2.504089872707522
100
AcDbArc
 50
1.261130484
 51
30.0009973356
  0
ARC
  5
E4
330
75
100
AcDbEntity
  8
4240226_STRAHLBI
  6
Continuous
 62
     7
100
AcDbCircle
 10
97.0020914934
 20
243.5582297472
 30
0.0
 40
2.6746283729893
100
AcDbArc
 50
138.7937524583
 51
165.5985436519
  0
ARC
  5
E5
330
75
100
AcDbEntity
  8
4240226_STRAHLBI
  6
Continuous
 62
     7
100
AcDbCircle
 10
89.5024334812
 20
244.9596483856
 30
0.0
 40
1.821519727440049
100
AcDbArc
 50
315.6844121982
 51
330.6050883086
  0
ARC
  5
E6
330
75
100
AcDbEntity
  8
4240226_STRAHLBI
  6
Continuous
 62
     7
100
AcDbCircle
 10
89.4843327914
 20
244.9681110965
 30
0.0
 40
1.852485223305929
100
AcDbArc
 50
192.4565688256
 51
208.0424863315
  0
ARC
  5
E7
330
75
100
AcDbEntity
  8
4240226_STRAHLBI
  6
Continuous
 62
     7
100
AcDbCircle
 10
85.4677894388
 20
242.8526532546
 30
0.0
 40
2.682864383477269
100
AcDbArc
 50
359.6271025228
 51
27.5941451904
  0
ARC
  5
E8
330
75
100
AcDbEntity
  8
4240226_STRAHLBI
  6
Continuous
 62
     7
100
AcDbCircle
 10
92.7673293384
 20
241.8577104437
 30
0.0
 40
2.674887110549081
100
AcDbArc
 50
136.9745454526
 51
164.8044760702
  0
ARC
  5
E9
330
75
100
AcDbEntity
  8
4240226_STRAHLBI
  6
Continuous
 62
     7
100
AcDbCircle
 10
88.0456402391
 20
243.0632497385
 30
0.0
 40
1.820602227844981
100
AcDbArc
 50
315.6858584093
 51
324.0661127689
  0
ARC
  5
EA
330
75
100
AcDbEntity
  8
4240226_STRAHLBI
  6
Continuous
 62
     7
100
AcDbCircle
 10
88.0872666383
 20
243.1003831156
 30
0.0
 40
1.91934843125175
100
AcDbArc
 50
197.9038551229
 51
206.9853801587
  0
ARC
  5
EB
330
75
100
AcDbEntity
  8
4240226_STRAHLBI
  6
Continuous
 62
     7
100
AcDbCircle
 10
83.7536535606
 20
240.9304306978
 30
0.0
 40
2.91958009006753
100
AcDbArc
 50
359.7214654287
 51
26.3466777644
  0
ARC
  5
EC
330
75
100
AcDbEntity
  8
4240226_STRAHLBI
  6
Continuous
 62
     7
100
AcDbCircle
 10
91.4654697686
 20
239.8362201668
 30
0.0
 40
2.8748474402762
100
AcDbArc
 50
137.2419109328
 51
164.0976425952
  0
ARC
  5
ED
330
75
100
AcDbEntity
  8
4240226_STRAHLBI
  6
Continuous
 62
     7
100
AcDbCircle
 10
89.5354807666
 20
241.1852702545
 30
0.0
 40
1.904843095348848
100
AcDbArc
 50
203.9332607891
 51
207.0316351255
  0
ARC
  5
EE
330
75
100
AcDbEntity
  8
4240226_STRAHLBI
  6
Continuous
 62
     7
100
AcDbCircle
 10
89.5125157667
 20
241.1599134153
 30
0.0
 40
1.811292650985816
100
AcDbArc
 50
316.8605444216
 51
318.8847329778
  0
ARC
  5
EF
330
75
100
AcDbEntity
  8
4240226_STRAHLBI
  6
Continuous
 62
     7
100
AcDbCircle
 10
93.0421673267
 20
237.947864026
 30
0.0
 40
2.953415341295988
100
AcDbArc
 50
138.1904225604
 51
165.0666755104
  0
ARC
  5
F0
330
75
100
AcDbEntity
  8
4240226_STRAHLBI
  6
Continuous
 62
     7
100
AcDbCircle
 10
85.0628907159
 20
238.9497690918
 30
0.0
 40
3.09275345580296
100
AcDbArc
 50
0.5385855966
 51
26.2736711848
  0
ARC
  5
F1
330
75
100
AcDbEntity
  8
4240226_STRAHLBI
  6
Continuous
 62
     7
100
AcDbCircle
 10
97.426563885
 20
236.3949919488
 30
0.0
 40
3.090699455333319
100
AcDbArc
 50
142.5931736753
 51
166.6929932167
  0
ARC
  5
F2
330
75
100
AcDbEntity
  8
4240226_STRAHLBI
  6
Continuous
 62
     7
100
AcDbCircle
 10
89.3721023502
 20
237.2339907435
 30
0.0
 40
3.00271857578059
100
AcDbArc
 50
1.470454638
 51
26.9213503261
  0
ARC
  5
F3
330
75
100
AcDbEntity
  8
4240226_STRAHLBI
  6
Continuous
 62
     7
100
AcDbCircle
 10
103.7869324185
 20
235.500392791
 30
0.0
 40
3.088168698380735
100
AcDbArc
 50
154.1298452253
 51
169.5581878938
  0
ARC
  5
F4
330
75
100
AcDbEntity
  8
4240226_STRAHLBI
  6
Continuous
 62
     7
100
AcDbCircle
 10
95.6602741304
 20
235.9536075855
 30
0.0
 40
3.044167418973738
100
AcDbArc
 50
4.0886240087
 51
26.9745066419
  0
ARC
  5
F5
330
75
100
AcDbEntity
  8
4240226_STRAHLBI
  6
Continuous
 62
     7
100
AcDbCircle
 10
118.7294304403
 20
235.946636696
 30
0.0
 40
3.062409767098044
100
AcDbArc
 50
153.0192307452
 51
175.828880162
  0
ARC
  5
F6
330
75
100
AcDbEntity
  8
4240226_STRAHLBI
  6
Continuous
 62
     7
100
AcDbCircle
 10
110.4644395396
 20
235.4466878034
 30
0.0
 40
3.220444466351651
100
AcDbArc
 50
10.9915096526
 51
25.4732591236
  0
ARC
  5
F7
330
75
100
AcDbEntity
  8
4240226_STRAHLBI
  6
Continuous
 62
     7
100
AcDbCircle
 10
125.0236397257
 20
237.2271151233
 30
0.0
 40
3.026602133635484
100
AcDbArc
 50
153.1901845428
 51
178.4377675146
  0
ARC
  5
F8
330
75
100
AcDbEntity
  8
4240226_STRAHLBI
  6
Continuous
 62
     7
100
AcDbCircle
 10
116.9712757413
 20
236.4073112848
 30
0.0
 40
3.062849384559763
100
AcDbArc
 50
13.1711333068
 51
37.5300423367
  0
ARC
  5
F9
330
75
100
AcDbEntity
  8
4240226_STRAHLBI
  6
Continuous
 62
     7
100
AcDbCircle
 10
124.9534251332
 20
241.2145332524
 30
0.0
 40
1.918168404678953
100
AcDbArc
 50
220.3925092294
 51
222.3642472804
  0
ARC
  5
FA
330
75
100
AcDbEntity
  8
4240226_STRAHLBI
  6
Continuous
 62
     7
100
AcDbCircle
 10
124.9127810119
 20
241.1763340254
 30
0.0
 40
1.830108959253465
100
AcDbArc
 50
332.2096044047
 51
335.4203179698
  0
ARC
  5
FB
330
75
100
AcDbEntity
  8
4240226_STRAHLBI
  6
Continuous
 62
     7
100
AcDbCircle
 10
129.2563311311
 20
238.9636847387
 30
0.0
 40
3.037556983828977
100
AcDbArc
 50
153.4780507342
 51
179.7654785034
  0
ARC
  5
FC
330
75
100
AcDbEntity
  8
4240226_STRAHLBI
  6
Continuous
 62
     7
100
AcDbCircle
 10
121.354688988
 20
237.9611227556
 30
0.0
 40
2.92605532209523
100
AcDbArc
 50
14.7537541677
 51
41.9735641018
  0
ARC
  5
FD
330
75
100
AcDbEntity
  8
4240226_STRAHLBI
  6
Continuous
 62
     7
100
AcDbCircle
 10
126.2399326765
 20
243.1051010513
 30
0.0
 40
1.964882769498042
100
AcDbArc
 50
333.3220076477
 51
342.3723379818
  0
ARC
  5
FE
330
75
100
AcDbEntity
  8
4240226_STRAHLBI
  6
Continuous
 62
     7
100
AcDbCircle
 10
126.393427462
 20
243.0908324243
 30
0.0
 40
1.891124103445985
100
AcDbArc
 50
215.3801312006
 51
223.4344501875
  0
ARC
  5
FF
330
75
100
AcDbEntity
  8
4240226_STRAHLBI
  6
Continuous
 62
     7
100
AcDbCircle
 10
122.8759491608
 20
239.8164888227
 30
0.0
 40
2.911789325193385
100
AcDbArc
 50
16.0445084332
 51
42.6694288328
  0
ARC
  5
100
330
75
100
AcDbEntity
  8
4240226_STRAHLBI
  6
Continuous
 62
     7
100
AcDbCircle
 10
130.6831851824
 20
240.9216918287
 30
0.0
 40
2.98364146405838
100
AcDbArc
 50
154.1733849856
 51
180.1047380007
  0
ARC
  5
101
330
75
100
AcDbEntity
  8
4240226_STRAHLBI
  6
Continuous
 62
     7
100
AcDbCircle
 10
124.9178448214
 20
244.9664309627
 30
0.0
 40
1.823765353347847
100
AcDbArc
 50
331.2566226371
 51
347.3849408386
  0
ARC
  5
102
330
75
100
AcDbEntity
  8
4240226_STRAHLBI
  6
Continuous
 62
     7
100
AcDbCircle
 10
124.9021125451
 20
244.9703250424
 30
0.0
 40
1.854183026744357
100
AcDbArc
 50
209.2633651771
 51
223.7428047161
  0
ARC
  5
103
330
75
100
AcDbEntity
  8
4240226_STRAHLBI
  6
Continuous
 62
     7
100
AcDbCircle
 10
121.5995189589
 20
241.856898704
 30
0.0
 40
2.680335960157696
100
AcDbArc
 50
15.1508000277
 51
43.038421958
  0
ARC
  5
104
330
75
100
AcDbEntity
  8
4240226_STRAHLBI
  6
Continuous
 62
     7
100
AcDbCircle
 10
128.9149443383
 20
242.8467951838
 30
0.0
 40
2.693909812850583
100
AcDbArc
 50
152.5829762188
 51
180.2008460882
  0
ARC
  5
105
330
75
100
AcDbEntity
  8
4240226_STRAHLBI
  6
Continuous
 62
     7
100
AcDbCircle
 10
120.7524900968
 20
246.5832211504
 30
0.0
 40
1.835897386305219
100
AcDbArc
 50
328.96619394
 51
350.0859087728
  0
ARC
  5
106
330
75
100
AcDbEntity
  8
4240226_STRAHLBI
  6
Continuous
 62
     7
100
AcDbCircle
 10
120.7517579033
 20
246.5955764891
 30
0.0
 40
1.865705435531241
100
AcDbArc
 50
203.0164846475
 51
222.9591053385
  0
ARC
  5
107
330
75
100
AcDbEntity
  8
4240226_STRAHLBI
  6
Continuous
 62
     7
100
AcDbCircle
 10
117.4173135613
 20
243.5857725822
 30
0.0
 40
2.620548075812394
100
AcDbArc
 50
14.0217182588
 51
41.4763211473
  0
ARC
  5
108
330
75
100
AcDbEntity
  8
4240226_STRAHLBI
  6
Continuous
 62
     7
100
AcDbCircle
 10
124.5323972302
 20
244.3725228882
 30
0.0
 40
2.535464016609486
100
AcDbArc
 50
150.1659348648
 51
178.5047059743
  0
ARC
  5
109
330
75
100
AcDbEntity
  8
4240226_STRAHLBI
  6
Continuous
 62
     7
100
AcDbCircle
 10
114.4923403422
 20
247.6754760547
 30
0.0
 40
1.880753059946272
100
AcDbArc
 50
326.2409726986
 51
349.9475128143
  0
ARC
  5
10A
330
75
100
AcDbEntity
  8
4240226_STRAHLBI
  6
Continuous
 62
     7
100
AcDbCircle
 10
114.5328792863
 20
247.6624296847
 30
0.0
 40
1.860385579991628
100
AcDbArc
 50
196.845844134
 51
220.6468482707
  0
ARC
  5
10B
330
75
100
AcDbEntity
  8
4240226_STRAHLBI
  6
Continuous
 62
     7
100
AcDbCircle
 10
111.1179756877
 20
244.8417279821
 30
0.0
 40
2.565932454340454
100
AcDbArc
 50
11.6592409365
 51
38.8855114913
  0
ARC
  5
10C
330
75
100
AcDbEntity
  8
4240226_STRAHLBI
  6
Continuous
 62
     7
100
AcDbCircle
 10
118.1398634458
 20
245.2819211691
 30
0.0
 40
2.475158243561172
100
AcDbArc
 50
147.1288271325
 51
175.4072974341
  0
ELLIPSE
  5
10E
330
75
100
AcDbEntity
  8
4240225_STRAHLBI
  6
Continuous
 62
     7
100
AcDbEllipse
 10
107.1863739278
 20
242.9016387944
 30
0.0
 11
-6.149999999999998
 21
0.0
 31
0.0
210
0.0
220
0.0
230
1.0
 40
0.2588190451
 41
-3.790494398305208
 42
-3.77076583866565
  0
ELLIPSE
  5
10F
330
75
100
AcDbEntity
  8
4240225_STRAHLBI
  6
Continuous
 62
     7
100
AcDbEllipse
 10
107.1863739278
 20
242.9016387944
 30
0.0
 11
-6.149999999999998
 21
0.0
 31
0.0
210
0.0
220
0.0
230
1.0
 40
0.2588190451
 41
0.6291731850758571
 42
0.6489017447154036
  0
ELLIPSE
  5
110
330
75
100
AcDbEntity
  8
4240225_STRAHLBI
  6
Continuous
 62
     7
100
AcDbEllipse
 10
107.1863739278
 20
242.225490716
 30
0.0
 11
6.554145188432742
 21
0.0
 31
0.0
210
0.0
220
0.0
230
1.0
 40
0.2588190451
 41
-0.3622129384075627
 42
-0.3358640310556611
  0
ELLIPSE
  5
111
330
75
100
AcDbEntity
  8
4240225_STRAHLBI
  6
Continuous
 62
     7
100
AcDbEllipse
 10
107.1863739278
 20
242.225490716
 30
0.0
 11
6.554145188432742
 21
0.0
 31
0.0
210
0.0
220
0.0
230
1.0
 40
0.2588190451
 41
3.477456684645454
 42
3.503805591997344
  0
ELLIPSE
  5
112
330
75
100
AcDbEntity
  8
4240225_STRAHLBI
  6
Continuous
 62
     7
100
AcDbEllipse
 10
107.1863739278
 20
242.225490716
 30
0.0
 11
8.150000000000002
 21
0.0
 31
0.0
210
0.0
220
0.0
230
1.0
 40
0.2588190451
 41
-0.4981846154590261
 42
-0.4756544473768525
  0
ELLIPSE
  5
113
330
75
100
AcDbEntity
  8
4240225_STRAHLBI
  6
Continuous
 62
     7
100
AcDbEllipse
 10
107.1863739278
 20
242.225490716
 30
0.0
 11
8.150000000000002
 21
0.0
 31
0.0
210
0.0
220
0.0
230
1.0
 40
0.2588190451
 41
3.617247100966645
 42
3.639777269048812
  0
ELLIPSE
  5
114
330
75
100
AcDbEntity
  8
4240225_STRAHLBI
  6
Continuous
 62
     7
100
AcDbEllipse
 10
107.1863739278
 20
240.2936390634
 30
0.0
 11
8.150000000000082
 21
0.0
 31
0.0
210
0.0
220
0.0
230
1.0
 40
0.2588190451
 41
6.091030976045061
 42
6.283185307179586
  0
ELLIPSE
  5
115
330
75
100
AcDbEntity
  8
4240225_STRAHLBI
  6
Continuous
 62
     7
100
AcDbEllipse
 10
107.1863739278
 20
240.2936390634
 30
0.0
 11
8.150000000000082
 21
0.0
 31
0.0
210
0.0
220
0.0
230
1.0
 40
0.2588190451
 41
0.0
 42
3.333746984724292
  0
ELLIPSE
  5
116
330
75
100
AcDbEntity
  8
4240225_STRAHLBI
  6
Continuous
 62
     7
100
AcDbEllipse
 10
107.1863739278
 20
243.4195125635
 30
0.0
 11
-24.1
 21
-6.938893903907228E-15
 31
0.0
210
0.0
220
0.0
230
1.0
 40
0.2588190451
 41
3.141592653589796
 42
6.283185307179586
  0
ELLIPSE
  5
117
330
75
100
AcDbEntity
  8
4240225_STRAHLBI
  6
Continuous
 62
     7
100
AcDbEllipse
 10
109.594368569
 20
245.225638649
 30
0.0
 11
-2.349756806378805
 21
-0.03380755650743417
 31
0.0
210
0.0
220
0.0
230
1.0
 40
0.3242734747
 41
-3.887099977632878
 42
-3.775240952564132
  0
ELLIPSE
  5
118
330
75
100
AcDbEntity
  8
4240225_STRAHLBI
  6
Continuous
 62
     7
100
AcDbEllipse
 10
109.594368569
 20
245.225638649
 30
0.0
 11
-2.349756806378805
 21
-0.03380755650743417
 31
0.0
210
0.0
220
0.0
230
1.0
 40
0.3242734747
 41
0.652277382247282
 42
0.7393208288236908
  0
SPLINE
  5
119
330
75
100
AcDbEntity
  8
4240225_STRAHLBI
  6
Continuous
 62
     7
100
AcDbSpline
210
0.0
220
0.0
230
1.0
 70
     8
 71
     3
 72
     8
 73
     4
 74
     0
 42
0.0000000020052109
 43
0.0000000001
 40
0.8809265567636215
 40
0.8809265567636215
 40
0.8809265567636215
 40
0.8809265567636215
 40
0.8830178841291222
 40
0.8830178841291222
 40
0.8830178841291222
 40
0.8830178841291222
 10
106.4936793272553
 20
244.0256353846903
 30
0.0
 10
106.4926104626064
 20
244.0223145730103
 30
0.0
 10
106.4915845927662
 20
244.0189930267594
 30
0.0
 10
106.4906016964676
 20
244.0156708637237
 30
0.0
  0
ELLIPSE
  5
11A
330
75
100
AcDbEntity
  8
4240225_STRAHLBI
  6
Continuous
 62
     7
100
AcDbEllipse
 10
100.3289853595
 20
244.7486353277
 30
0.0
 11
2.348041106737837
 21
-0.09593206486822881
 31
0.0
210
0.0
220
0.0
230
0.9999999999999999
 40
0.3142126478
 41
3.81827538766208
 42
3.871888974111618
  0
SPLINE
  5
11B
330
75
100
AcDbEntity
  8
4240225_STRAHLBI
  6
Continuous
 62
     7
100
AcDbSpline
210
0.0
220
0.0
230
1.0
 70
     8
 71
     3
 72
     8
 73
     4
 74
     0
 42
0.0000000007273255
 43
0.0000000001
 40
0.0
 40
0.0
 40
0.0
 40
0.0
 40
0.0426644411101938
 40
0.0426644411101938
 40
0.0426644411101938
 40
0.0426644411101938
 10
96.30056356376403
 20
240.3301987056087
 30
0.0
 10
96.11053984140197
 20
240.3254319525015
 30
0.0
 10
95.91404361153123
 20
240.3264098745725
 30
0.0
 10
95.71413714152668
 20
240.3328851359769
 30
0.0
  0
SPLINE
  5
11C
330
75
100
AcDbEntity
  8
4240225_STRAHLBI
  6
Continuous
 62
     7
100
AcDbSpline
210
0.0
220
0.0
230
1.0
 70
     8
 71
     3
 72
     8
 73
     4
 74
     0
 42
0.0000000007322385
 43
0.0000000001
 40
0.1650428232847304
 40
0.1650428232847304
 40
0.1650428232847304
 40
0.1650428232847304
 40
0.194408690287921
 40
0.194408690287921
 40
0.194408690287921
 40
0.194408690287921
 10
93.98132698044267
 20
240.5185186172278
 30
0.0
 10
93.8473875653014
 20
240.543208481219
 30
0.0
 10
93.71603346016474
 20
240.5700275056262
 30
0.0
 10
93.58843973087617
 20
240.5987303903236
 30
0.0
  0
ELLIPSE
  5
11D
330
75
100
AcDbEntity
  8
4240225_STRAHLBI
  6
Continuous
 62
     7
100
AcDbEllipse
 10
96.901272119
 20
239.763779634
 30
0.0
 11
0.0163679532625069
 21
0.1993290999979525
 31
0.0
210
0.0
220
0.0
230
0.9999999999999999
 40
0.0092326041
 41
2.909059490620288
 42
3.17120401964125
  0
SPLINE
  5
11E
330
75
100
AcDbEntity
  8
4240225_STRAHLBI
  6
Continuous
 62
     7
100
AcDbSpline
210
0.0
220
0.0
230
1.0
 70
     8
 71
     3
 72
    10
 73
     6
 74
     0
 42
0.0000000007961634
 43
0.0000000001
 40
0.1126603341415277
 40
0.1126603341415277
 40
0.1126603341415277
 40
0.1126603341415277
 40
0.125
 40
0.125
 40
0.2048942483718751
 40
0.2048942483718751
 40
0.2048942483718751
 40
0.2048942483718751
 10
99.00061781860596
 20
238.1936078128032
 30
0.0
 10
98.95559073429594
 20
238.1893880955024
 30
0.0
 10
98.90954149406372
 20
238.1854991860443
 30
0.0
 10
98.55807530712293
 20
238.1589584819646
 30
0.0
 10
98.21056686883279
 20
238.1503676802896
 30
0.0
 10
97.84365432986192
 20
238.1563094639277
 30
0.0
  0
SPLINE
  5
11F
330
75
100
AcDbEntity
  8
4240225_STRAHLBI
  6
Continuous
 62
     7
100
AcDbSpline
210
0.0
220
0.0
230
1.0
 70
     8
 71
     3
 72
    10
 73
     6
 74
     0
 42
0.0000000008213372
 43
0.0000000001
 40
0.3528648464568893
 40
0.3528648464568893
 40
0.3528648464568893
 40
0.3528648464568893
 40
0.375
 40
0.375
 40
0.4664215689237386
 40
0.4664215689237386
 40
0.4664215689237386
 40
0.4664215689237386
 10
95.7512376666055
 20
238.3330457920947
 30
0.0
 10
95.65112506956041
 20
238.3483899562939
 30
0.0
 10
95.55264715658623
 20
238.3645996651069
 30
0.0
 10
95.0581236418426
 20
238.4519381335396
 30
0.0
 10
94.69743704023576
 20
238.5361241689
 30
0.0
 10
94.4020816448098
 20
238.6267315525892
 30
0.0
  0
SPLINE
  5
120
330
75
100
AcDbEntity
  8
4240225_STRAHLBI
  6
Continuous
 62
     7
100
AcDbSpline
210
0.0
220
0.0
230
1.0
 70
     8
 71
     3
 72
    10
 73
     6
 74
     0
 42
0.0000000007498383
 43
0.0000000001
 40
0.8401502204791236
 40
0.8401502204791236
 40
0.8401502204791236
 40
0.8401502204791236
 40
0.875
 40
0.875
 40
1.0
 40
1.0
 40
1.0
 40
1.0
 10
94.75670955475051
 20
239.5863113119983
 30
0.0
 10
94.88615651994111
 20
239.5978161285989
 30
0.0
 10
95.02347038324193
 20
239.6066594083009
 30
0.0
 10
95.68261858545286
 20
239.63407263305
 30
0.0
 10
96.27922343311127
 20
239.6195871057409
 30
0.0
 10
96.88492060579873
 20
239.5698501480469
 30
0.0
  0
ELLIPSE
  5
121
330
75
100
AcDbEntity
  8
4240225_STRAHLBI
  6
Continuous
 62
     7
100
AcDbEllipse
 10
115.3222327296
 20
238.815426048
 30
0.0
 11
0.003698091102736362
 21
0.1999658073826363
 31
0.0
210
0.0
220
0.0
230
0.9999999999999998
 40
0.3785223844
 41
3.114147020024354
 42
3.361933013806665
  0
SPLINE
  5
122
330
75
100
AcDbEntity
  8
4240225_STRAHLBI
  6
Continuous
 62
     7
100
AcDbSpline
210
0.0
220
0.0
230
1.0
 70
     8
 71
     3
 72
     8
 73
     4
 74
     0
 42
0.0000000016412693
 43
0.0000000001
 40
0.975913256235073
 40
0.975913256235073
 40
0.975913256235073
 40
0.975913256235073
 40
1.0
 40
1.0
 40
1.0
 40
1.0
 10
115.1884249414379
 20
238.6219556904605
 30
0.0
 10
115.2377182898494
 20
238.6215404169578
 30
0.0
 10
115.286649743784
 20
238.6208861112772
 30
0.0
 10
115.3351673223288
 20
238.6199888457502
 30
0.0
  0
SPLINE
  5
123
330
75
100
AcDbEntity
  8
4240225_STRAHLBI
  6
Continuous
 62
     7
100
AcDbSpline
210
0.0
220
0.0
230
1.0
 70
     8
 71
     3
 72
    10
 73
     6
 74
     0
 42
0.0000000008498327
 43
0.0000000001
 40
0.4276049939262989
 40
0.4276049939262989
 40
0.4276049939262989
 40
0.4276049939262989
 40
0.5
 40
0.5
 40
0.557202185324762
 40
0.557202185324762
 40
0.557202185324762
 40
0.557202185324762
 10
116.6926962927015
 20
237.7729246032217
 30
0.0
 10
116.4759356363826
 20
237.7123172667372
 30
0.0
 10
116.2169659351009
 20
237.6554771553837
 30
0.0
 10
115.7004262725912
 20
237.5661152484765
 30
0.0
 10
115.4532226197832
 20
237.5307546449996
 30
0.0
 10
115.1941619760671
 20
237.5004070015099
 30
0.0
  0
SPLINE
  5
124
330
75
100
AcDbEntity
  8
4240225_STRAHLBI
  6
Continuous
 62
     7
100
AcDbSpline
210
0.0
220
0.0
230
1.0
 70
     8
 71
     3
 72
    10
 73
     6
 74
     0
 42
0.000000000706769
 43
0.0000000001
 40
0.0095799439016796
 40
0.0095799439016796
 40
0.0095799439016796
 40
0.0095799439016796
 40
0.125
 40
0.125
 40
0.1742927449766647
 40
0.1742927449766647
 40
0.1742927449766647
 40
0.1742927449766647
 10
118.2011333536032
 20
240.6852301432428
 30
0.0
 10
118.7226500683491
 20
240.7817069189207
 30
0.0
 10
119.286504395957
 20
240.8495650415674
 30
0.0
 10
120.0650606610079
 20
240.8964587041727
 30
0.0
 10
120.2952854200423
 20
240.904000014689
 30
0.0
 10
120.5171829043424
 20
240.905079782256
 30
0.0
  0
SPLINE
  5
125
330
75
100
AcDbEntity
  8
4240225_STRAHLBI
  6
Continuous
 62
     7
100
AcDbSpline
210
0.0
220
0.0
230
1.0
 70
     8
 71
     3
 72
     8
 73
     4
 74
     0
 42
0.0000000007801571
 43
0.0000000001
 40
0.6607262783121829
 40
0.6607262783121829
 40
0.6607262783121829
 40
0.6607262783121829
 40
0.7389937933274137
 40
0.7389937933274137
 40
0.7389937933274137
 40
0.7389937933274137
 10
121.4409855560172
 20
239.6189010187539
 30
0.0
 10
121.1478227527544
 20
239.5346358226462
 30
0.0
 10
120.8164038380728
 20
239.4590429018936
 30
0.0
 10
120.4637421292077
 20
239.3959323813216
 30
0.0
  0
SPLINE
  5
126
330
75
100
AcDbEntity
  8
4240225_STRAHLBI
  6
Continuous
 62
     7
100
AcDbSpline
210
0.0
220
0.0
230
1.0
 70
     8
 71
     3
 72
     8
 73
     4
 74
     0
 42
0.0000000007558614
 43
0.0000000001
 40
0.8812075974029455
 40
0.8812075974029455
 40
0.8812075974029455
 40
0.8812075974029455
 40
0.9332648234519771
 40
0.9332648234519771
 40
0.9332648234519771
 40
0.9332648234519771
 10
118.4508932417024
 20
239.1923593570704
 30
0.0
 10
118.2115513694712
 20
239.186431039121
 30
0.0
 10
117.9804158727435
 20
239.1878136540659
 30
0.0
 10
117.7624254782281
 20
239.1963889664783
 30
0.0
  0
ELLIPSE
  5
127
330
75
100
AcDbEntity
  8
4240225_STRAHLBI
  6
Continuous
 62
     7
100
AcDbEllipse
 10
107.1863739278
 20
247.9032456284
 30
0.0
 11
2.349999999998604
 21
0.0
 31
0.0
210
0.0
220
0.0
230
1.0
 40
0.3907311285
 41
-0.7690752111463279
 42
-0.4089916981705439
  0
ELLIPSE
  5
128
330
75
100
AcDbEntity
  8
4240225_STRAHLBI
  6
Continuous
 62
     7
100
AcDbEllipse
 10
107.1863739278
 20
247.9032456284
 30
0.0
 11
2.349999999998604
 21
0.0
 31
0.0
210
0.0
220
0.0
230
1.0
 40
0.3907311285
 41
3.551861008194677
 42
3.909448509417863
  0
ELLIPSE
  5
129
330
75
100
AcDbEntity
  8
4240225_STRAHLBI
  6
Continuous
 62
     7
100
AcDbEllipse
 10
99.8440401936
 20
247.5252453344
 30
0.0
 11
2.34609959295211
 21
-0.1353392032759984
 31
0.0
210
0.0
220
0.0
230
0.9999999999999998
 40
0.3804981861
 41
-0.7580735969230581
 42
-0.4527144685322222
  0
ELLIPSE
  5
12A
330
75
100
AcDbEntity
  8
4240225_STRAHLBI
  6
Continuous
 62
     7
100
AcDbEllipse
 10
99.8440401936
 20
247.5252453344
 30
0.0
 11
2.34609959295211
 21
-0.1353392032759984
 31
0.0
210
0.0
220
0.0
230
0.9999999999999998
 40
0.3804981861
 41
3.577542549768162
 42
3.903262542646224
  0
SPLINE
  5
12B
330
75
100
AcDbEntity
  8
4240225_STRAHLBI
  6
Continuous
 62
     7
100
AcDbSpline
210
0.0
220
0.0
230
1.0
 70
     8
 71
     3
 72
     8
 73
     4
 74
     0
 42
0.000000001231869
 43
0.0000000001
 40
0.6612824728902569
 40
0.6612824728902569
 40
0.6612824728902569
 40
0.6612824728902569
 40
0.6625713565154495
 40
0.6625713565154495
 40
0.6625713565154495
 40
0.6625713565154495
 10
96.69824636515233
 20
246.6676287975949
 30
0.0
 10
96.69684624640463
 20
246.6644245314722
 30
0.0
 10
96.69547923379423
 20
246.6612160649563
 30
0.0
 10
96.69414533333683
 20
246.6580035089843
 30
0.0
  0
ELLIPSE
  5
12C
330
75
100
AcDbEntity
  8
4240225_STRAHLBI
  6
Continuous
 62
     7
100
AcDbEllipse
 10
93.619510212
 20
246.4487915707
 30
0.0
 11
2.336981908818283
 21
-0.2470132746422576
 31
0.0
210
0.0
220
0.0
230
0.9999999999999999
 40
0.3513572317
 41
-0.7544278902363306
 42
-0.5777905272371653
  0
ELLIPSE
  5
12D
330
75
100
AcDbEntity
  8
4240225_STRAHLBI
  6
Continuous
 62
     7
100
AcDbEllipse
 10
93.619510212
 20
246.4487915707
 30
0.0
 11
2.336981908818283
 21
-0.2470132746422576
 31
0.0
210
0.0
220
0.0
230
0.9999999999999999
 40
0.3513572317
 41
3.686707464622508
 42
3.888006211586799
  0
SPLINE
  5
12E
330
75
100
AcDbEntity
  8
4240225_STRAHLBI
  6
Continuous
 62
     7
100
AcDbSpline
210
0.0
220
0.0
230
1.0
 70
     8
 71
     3
 72
     8
 73
     4
 74
     0
 42
0.0000000005277441
 43
0.0000000001
 40
0.1611346568907671
 40
0.1611346568907671
 40
0.1611346568907671
 40
0.1611346568907671
 40
0.2096460433647584
 40
0.2096460433647584
 40
0.2096460433647584
 40
0.2096460433647584
 10
89.5506846219693
 20
240.5375285275101
 30
0.0
 10
89.26673166058707
 20
240.5341715154362
 30
0.0
 10
88.95583681083113
 20
240.5459622577185
 30
0.0
 10
88.63277617167591
 20
240.5722773407438
 30
0.0
  0
SPLINE
  5
12F
330
75
100
AcDbEntity
  8
4240225_STRAHLBI
  6
Continuous
 62
     7
100
AcDbSpline
210
0.0
220
0.0
230
1.0
 70
     8
 71
     3
 72
     8
 73
     4
 74
     0
 42
0.0000000005263328
 43
0.0000000001
 40
0.3057756438820403
 40
0.3057756438820403
 40
0.3057756438820403
 40
0.3057756438820403
 40
0.34922744909325
 40
0.34922744909325
 40
0.34922744909325
 40
0.34922744909325
 10
86.68430295278439
 20
240.8895637608127
 30
0.0
 10
86.40352661085888
 20
240.9586137599521
 30
0.0
 10
86.13594545545794
 20
241.0355451706535
 30
0.0
 10
85.89146076657627
 20
241.1179372469079
 30
0.0
  0
SPLINE
  5
130
330
75
100
AcDbEntity
  8
4240225_STRAHLBI
  6
Continuous
 62
     7
100
AcDbSpline
210
0.0
220
0.0
230
1.0
 70
     8
 71
     3
 72
    10
 73
     6
 74
     0
 42
0.0000000005720687
 43
0.0000000001
 40
0.1856600908191267
 40
0.1856600908191267
 40
0.1856600908191267
 40
0.1856600908191267
 40
0.25
 40
0.25
 40
0.2672714929135822
 40
0.2672714929135822
 40
0.2672714929135822
 40
0.2672714929135822
 10
91.64793046242936
 20
238.8129534763953
 30
0.0
 10
91.33877075455764
 20
238.7916966408418
 30
0.0
 10
90.96700617405709
 20
238.791544397745
 30
0.0
 10
90.44943579129719
 20
238.8202471126082
 30
0.0
 10
90.33738869652383
 20
238.8279322254939
 30
0.0
 10
90.22348936552135
 20
238.837142086411
 30
0.0
  0
SPLINE
  5
131
330
75
100
AcDbEntity
  8
4240225_STRAHLBI
  6
Continuous
 62
     7
100
AcDbSpline
210
0.0
220
0.0
230
1.0
 70
     8
 71
     3
 72
    10
 73
     6
 74
     0
 42
0.000000000578332
 43
0.0000000001
 40
0.3695745980031074
 40
0.3695745980031074
 40
0.3695745980031074
 40
0.3695745980031074
 40
0.375
 40
0.375
 40
0.4563256958041891
 40
0.4563256958041891
 40
0.4563256958041891
 40
0.4563256958041891
 10
88.14193853177473
 20
239.1434158422934
 30
0.0
 10
88.106551944556
 20
239.1510352556628
 30
0.0
 10
88.07136891438296
 20
239.1587548673132
 30
0.0
 10
87.51238169948738
 20
239.2837494558499
 30
0.0
 10
87.05243974424171
 20
239.4197532892676
 30
0.0
 10
86.70333111953333
 20
239.5577270536887
 30
0.0
  0
SPLINE
  5
132
330
75
100
AcDbEntity
  8
4240225_STRAHLBI
  6
Continuous
 62
     7
100
AcDbSpline
210
0.0
220
0.0
230
1.0
 70
     8
 71
     3
 72
    12
 73
     8
 74
     0
 42
0.0000000005069065
 43
0.0000000001
 40
0.714669652383531
 40
0.714669652383531
 40
0.714669652383531
 40
0.714669652383531
 40
0.75
 40
0.75
 40
0.875
 40
0.875
 40
0.9060081645934208
 40
0.9060081645934208
 40
0.9060081645934208
 40
0.9060081645934208
 10
87.3669420260585
 20
240.423815322621
 30
0.0
 10
87.5651106466208
 20
240.4248909609377
 30
0.0
 10
87.77936154111885
 20
240.4193219747667
 30
0.0
 10
88.80719358376699
 20
240.3624420914061
 30
0.0
 10
89.73221009535116
 20
240.2326237913194
 30
0.0
 10
90.72669492299325
 20
240.0103156431988
 30
0.0
 10
90.91594962193116
 20
239.9632762633497
 30
0.0
 10
91.09394383266921
 20
239.9143064317395
 30
0.0
  0
SPLINE
  5
133
330
75
100
AcDbEntity
  8
4240225_STRAHLBI
  6
Continuous
 62
     7
100
AcDbSpline
210
0.0
220
0.0
230
1.0
 70
     8
 71
     3
 72
    10
 73
     6
 74
     0
 42
0.0000000006245469
 43
0.0000000001
 40
0.2142678663374365
 40
0.2142678663374365
 40
0.2142678663374365
 40
0.2142678663374365
 40
0.2499999999999998
 40
0.2499999999999998
 40
0.326187662401958
 40
0.326187662401958
 40
0.326187662401958
 40
0.326187662401958
 10
96.29499848727603
 20
237.4135720598053
 30
0.0
 10
96.16552304231777
 20
237.3954257458743
 30
0.0
 10
96.01287817918536
 20
237.3820175873154
 30
0.0
 10
95.46980493000932
 20
237.3568798350507
 30
0.0
 10
95.00826118657152
 20
237.363863568164
 30
0.0
 10
94.5063227433152
 20
237.3931329006984
 30
0.0
  0
SPLINE
  5
134
330
75
100
AcDbEntity
  8
4240225_STRAHLBI
  6
Continuous
 62
     7
100
AcDbSpline
210
0.0
220
0.0
230
1.0
 70
     8
 71
     3
 72
    10
 73
     6
 74
     0
 42
0.0000000006177745
 43
0.0000000001
 40
0.4318310904090553
 40
0.4318310904090553
 40
0.4318310904090553
 40
0.4318310904090553
 40
0.4999999999999996
 40
0.4999999999999996
 40
0.5386439128359117
 40
0.5386439128359117
 40
0.5386439128359117
 40
0.5386439128359117
 10
92.34451117781599
 20
237.6331734550206
 30
0.0
 10
91.90132288110563
 20
237.7059697787425
 30
0.0
 10
91.49356554464096
 20
237.7890412504648
 30
0.0
 10
90.9682076135419
 20
237.9249579515794
 30
0.0
 10
90.80216315383491
 20
237.9752471408282
 30
0.0
 10
90.66327756025441
 20
238.02516998554
 30
0.0
  0
SPLINE
  5
135
330
75
100
AcDbEntity
  8
4240225_STRAHLBI
  6
Continuous
 62
     7
100
AcDbSpline
210
0.0
220
0.0
230
1.0
 70
     8
 71
     3
 72
    12
 73
     8
 74
     0
 42
0.00000000053794
 43
0.0000000001
 40
0.7330753283943741
 40
0.7330753283943741
 40
0.7330753283943741
 40
0.7330753283943741
 40
0.7499999999999998
 40
0.7499999999999998
 40
0.8749999999999999
 40
0.8749999999999999
 40
1.0
 40
1.0
 40
1.0
 40
1.0
 10
90.89297042634075
 20
238.5774598556813
 30
0.0
 10
90.96596574555237
 20
238.5836497665461
 30
0.0
 10
91.04406489086733
 20
238.5887056817277
 30
0.0
 10
91.74000357296616
 20
238.6210246387674
 30
0.0
 10
92.59705575653254
 20
238.5829513498757
 30
0.0
 10
94.32571408226299
 20
238.3977466430561
 30
0.0
 10
95.18806511938985
 20
238.2516374359061
 30
0.0
 10
95.8102436921878
 20
238.0906057718112
 30
0.0
  0
SPLINE
  5
136
330
75
100
AcDbEntity
  8
4240225_STRAHLBI
  6
Continuous
 62
     7
100
AcDbSpline
210
0.0
220
0.0
230
1.0
 70
     8
 71
     3
 72
    10
 73
     6
 74
     0
 42
0.0000000005411656
 43
0.0000000001
 40
0.3371733367935481
 40
0.3371733367935481
 40
0.3371733367935481
 40
0.3371733367935481
 40
0.375
 40
0.375
 40
0.3851403683631158
 40
0.3851403683631158
 40
0.3851403683631158
 40
0.3851403683631158
 10
101.7441434915551
 20
236.4629018867552
 30
0.0
 10
101.5325369118001
 20
236.4566118353301
 30
0.0
 10
101.3019637736185
 20
236.4543560530562
 30
0.0
 10
100.9914807903676
 20
236.4570479439281
 30
0.0
 10
100.9250335876743
 20
236.4579296717278
 30
0.0
 10
100.8579108226467
 20
236.4591155267465
 30
0.0
  0
SPLINE
  5
137
330
75
100
AcDbEntity
  8
4240225_STRAHLBI
  6
Continuous
 62
     7
100
AcDbSpline
210
0.0
220
0.0
230
1.0
 70
     8
 71
     3
 72
    16
 73
    12
 74
     0
 42
0.0000000007366117
 43
0.0000000001
 40
0.4939858907711063
 40
0.4939858907711063
 40
0.4939858907711063
 40
0.4939858907711063
 40
0.5
 40
0.5
 40
0.625
 40
0.625
 40
0.75
 40
0.75
 40
0.875
 40
0.875
 40
0.9631036624073483
 40
0.9631036624073483
 40
0.9631036624073483
 40
0.9631036624073483
 10
98.62945799563852
 20
236.5918775610171
 30
0.0
 10
98.59024774234895
 20
236.5958704078368
 30
0.0
 10
98.55130823275898
 20
236.5999380362546
 30
0.0
 10
97.70954204446386
 20
236.6901394401471
 30
0.0
 10
97.04226077912656
 20
236.8078094856848
 30
0.0
 10
96.37052827854046
 20
237.0371031910863
 30
0.0
 10
96.36190436158978
 20
237.1484994901781
 30
0.0
 10
97.02438342698703
 20
237.3026470926198
 30
0.0
 10
97.68299285678506
 20
237.3426035632229
 30
0.0
 10
99.04728404898393
 20
237.3308301349178
 30
0.0
 10
99.67739444252838
 20
237.3027321174274
 30
0.0
 10
100.2848731256324
 20
237.2560534689583
 30
0.0
  0
SPLINE
  5
138
330
75
100
AcDbEntity
  8
4240225_STRAHLBI
  6
Continuous
 62
     7
100
AcDbSpline
210
0.0
220
0.0
230
1.0
 70
     8
 71
     3
 72
    16
 73
    12
 74
     0
 42
0.0000000007879929
 43
0.0000000001
 40
0.0879050524592942
 40
0.0879050524592942
 40
0.0879050524592942
 40
0.0879050524592942
 40
0.125
 40
0.125
 40
0.25
 40
0.25
 40
0.375
 40
0.375
 40
0.5
 40
0.5
 40
0.5061727085333094
 40
0.5061727085333094
 40
0.5061727085333094
 40
0.5061727085333094
 10
115.1469860779464
 20
237.3174936818948
 30
0.0
 10
115.4009951051898
 20
237.3274316985339
 30
0.0
 10
115.6499550774598
 20
237.3336067627165
 30
0.0
 10
116.6872238121039
 20
237.3426608948288
 30
0.0
 10
117.3487905132198
 20
237.3021234974595
 30
0.0
 10
118.0065127131054
 20
237.1499291245308
 30
0.0
 10
118.00706136882
 20
237.0391564047103
 30
0.0
 10
117.329460156928
 20
236.8070607107572
 30
0.0
 10
116.6651482545061
 20
236.6904264602417
 30
0.0
 10
115.8226068940911
 20
236.60005933496
 30
0.0
 10
115.7826257601974
 20
236.5958837523415
 30
0.0
 10
115.7423449542952
 20
236.5917869915713
 30
0.0
  0
SPLINE
  5
139
330
75
100
AcDbEntity
  8
4240225_STRAHLBI
  6
Continuous
 62
     7
100
AcDbSpline
210
0.0
220
0.0
230
1.0
 70
     8
 71
     3
 72
    10
 73
     6
 74
     0
 42
0.0000000005477882
 43
0.0000000001
 40
0.6147584640978746
 40
0.6147584640978746
 40
0.6147584640978746
 40
0.6147584640978746
 40
0.625
 40
0.625
 40
0.6655917844075235
 40
0.6655917844075235
 40
0.6655917844075235
 40
0.6655917844075235
 10
113.5194183182475
 20
236.4592112639615
 30
0.0
 10
113.4521688508941
 20
236.4580008931208
 30
0.0
 10
113.3857049974856
 20
236.4571004750269
 30
0.0
 10
113.060468505714
 20
236.4542132545412
 30
0.0
 10
112.8154654348363
 20
236.4568411729771
 30
0.0
 10
112.5916050234419
 20
236.4640747750492
 30
0.0
  0
SPLINE
  5
13A
330
75
100
AcDbEntity
  8
4240225_STRAHLBI
  6
Continuous
 62
     7
100
AcDbSpline
210
0.0
220
0.0
230
1.0
 70
     8
 71
     3
 72
    12
 73
     8
 74
     0
 42
0.0000000005327707
 43
0.0000000001
 40
0.0131004817639623
 40
0.0131004817639623
 40
0.0131004817639623
 40
0.0131004817639623
 40
0.1250000000000003
 40
0.1250000000000003
 40
0.2500000000000007
 40
0.2500000000000007
 40
0.263841841961875
 40
0.263841841961875
 40
0.263841841961875
 40
0.263841841961875
 10
118.7657111021453
 20
238.1406914122525
 30
0.0
 10
119.365113811975
 20
238.2816207178903
 30
0.0
 10
120.1358447573615
 20
238.4071779483861
 30
0.0
 10
121.7727054669783
 20
238.582724611437
 30
0.0
 10
122.6348878056549
 20
238.6206333329488
 30
0.0
 10
123.3093203604513
 20
238.5896362162168
 30
0.0
 10
123.3734562859434
 20
238.5857538209956
 30
0.0
 10
123.4343465126125
 20
238.5811110229472
 30
0.0
  0
SPLINE
  5
13B
330
75
100
AcDbEntity
  8
4240225_STRAHLBI
  6
Continuous
 62
     7
100
AcDbSpline
210
0.0
220
0.0
230
1.0
 70
     8
 71
     3
 72
    10
 73
     6
 74
     0
 42
0.0000000006258559
 43
0.0000000001
 40
0.4563256958041901
 40
0.4563256958041901
 40
0.4563256958041901
 40
0.4563256958041901
 40
0.500000000000001
 40
0.500000000000001
 40
0.5680939420449739
 40
0.5680939420449739
 40
0.5680939420449739
 40
0.5680939420449739
 10
123.7636264855498
 20
238.0448189096364
 30
0.0
 10
123.6148256751083
 20
237.9886558631868
 30
0.0
 10
123.4307966888416
 20
237.9317967294203
 30
0.0
 10
122.881449438217
 20
237.7895566665219
 30
0.0
 10
122.4720112112518
 20
237.7063221770926
 30
0.0
 10
122.0290451850604
 20
237.6335100766644
 30
0.0
  0
SPLINE
  5
13C
330
75
100
AcDbEntity
  8
4240225_STRAHLBI
  6
Continuous
 62
     7
100
AcDbSpline
210
0.0
220
0.0
230
1.0
 70
     8
 71
     3
 72
    10
 73
     6
 74
     0
 42
0.000000000611297
 43
0.0000000001
 40
0.6743539624763047
 40
0.6743539624763047
 40
0.6743539624763047
 40
0.6743539624763047
 40
0.7500000000000006
 40
0.7500000000000006
 40
0.7799214883996635
 40
0.7799214883996635
 40
0.7799214883996635
 40
0.7799214883996635
 10
119.8669669507074
 20
237.3931918315529
 30
0.0
 10
119.3695710842727
 20
237.3641691899043
 30
0.0
 10
118.9085681708813
 20
237.3567982195199
 30
0.0
 10
118.3898389752158
 20
237.3805608663413
 30
0.0
 10
118.2580625552484
 20
237.3910503749931
 30
0.0
 10
118.1427208482586
 20
237.4049250228468
 30
0.0
  0
SPLINE
  5
13D
330
75
100
AcDbEntity
  8
4240225_STRAHLBI
  6
Continuous
 62
     7
100
AcDbSpline
210
0.0
220
0.0
230
1.0
 70
     8
 71
     3
 72
    12
 73
     8
 74
     0
 42
0.0000000005084068
 43
0.0000000001
 40
0.0902270850883643
 40
0.0902270850883643
 40
0.0902270850883643
 40
0.0902270850883643
 40
0.125
 40
0.125
 40
0.25
 40
0.25
 40
0.2841424794693604
 40
0.2841424794693604
 40
0.2841424794693604
 40
0.2841424794693604
 10
123.2130796600854
 20
239.8960159136153
 30
0.0
 10
123.4093019620677
 20
239.9513859418163
 30
0.0
 10
123.6201203537528
 20
240.0044812759987
 30
0.0
 10
124.6375503704317
 20
240.232089496447
 30
0.0
 10
125.5690889013079
 20
240.3623431099966
 30
0.0
 10
126.5788020078335
 20
240.4185942353536
 30
0.0
 10
126.7850509792982
 20
240.4243372021389
 30
0.0
 10
126.9771551847466
 20
240.4239258816905
 30
0.0
  0
SPLINE
  5
13E
330
75
100
AcDbEntity
  8
4240225_STRAHLBI
  6
Continuous
 62
     7
100
AcDbSpline
210
0.0
220
0.0
230
1.0
 70
     8
 71
     3
 72
    10
 73
     6
 74
     0
 42
0.0000000005891353
 43
0.0000000001
 40
0.5370555001576957
 40
0.5370555001576957
 40
0.5370555001576957
 40
0.5370555001576957
 40
0.625
 40
0.625
 40
0.6306580081397761
 40
0.6306580081397761
 40
0.6306580081397761
 40
0.6306580081397761
 10
127.7524351192457
 20
239.5917419643418
 30
0.0
 10
127.3934709180892
 20
239.4419790686252
 30
0.0
 10
126.9003084683837
 20
239.2928784351807
 30
0.0
 10
126.304870629245
 20
239.159523779336
 30
0.0
 10
126.2686117254953
 20
239.1515607955453
 30
0.0
 10
126.2321099367212
 20
239.1436992393062
 30
0.0
  0
SPLINE
  5
13F
330
75
100
AcDbEntity
  8
4240225_STRAHLBI
  6
Continuous
 62
     7
100
AcDbSpline
210
0.0
220
0.0
230
1.0
 70
     8
 71
     3
 72
    10
 73
     6
 74
     0
 42
0.0000000005933709
 43
0.0000000001
 40
0.7334819583934828
 40
0.7334819583934828
 40
0.7334819583934828
 40
0.7334819583934828
 40
0.75
 40
0.75
 40
0.8322731112635761
 40
0.8322731112635761
 40
0.8322731112635761
 40
0.8322731112635761
 10
124.1423113842882
 20
238.8365780202676
 30
0.0
 10
124.0326115399997
 20
238.8277618359367
 30
0.0
 10
123.9244779841682
 20
238.8203518778021
 30
0.0
 10
123.2906139162803
 20
238.7849652557495
 30
0.0
 10
122.828781425461
 20
238.7932159067044
 30
0.0
 10
122.4816045307946
 20
238.8352827230644
 30
0.0
  0
SPLINE
  5
140
330
75
100
AcDbEntity
  8
4240225_STRAHLBI
  6
Continuous
 62
     7
100
AcDbSpline
210
0.0
220
0.0
230
1.0
 70
     8
 71
     3
 72
    10
 73
     6
 74
     0
 42
0.0000000008295778
 43
0.0000000001
 40
0.0
 40
0.0
 40
0.0
 40
0.0
 40
0.125
 40
0.125
 40
0.2022953119574781
 40
0.2022953119574781
 40
0.2022953119574781
 40
0.2022953119574781
 10
123.446679040458
 20
241.1965114746715
 30
0.0
 10
123.446679040458
 20
240.9821115704201
 30
0.0
 10
123.7768892820131
 20
240.8240920621093
 30
0.0
 10
124.7059680129788
 20
240.719914964369
 30
0.0
 10
125.1499927111722
 20
240.7177896125958
 30
0.0
 10
125.627998034588
 20
240.7506000933891
 30
0.0
  0
SPLINE
  5
141
330
75
100
AcDbEntity
  8
4240225_STRAHLBI
  6
Continuous
 62
     7
100
AcDbSpline
210
0.0
220
0.0
230
1.0
 70
     8
 71
     3
 72
    12
 73
     8
 74
     0
 42
0.0000000009101289
 43
0.0000000001
 40
0.3119472603890678
 40
0.3119472603890678
 40
0.3119472603890678
 40
0.3119472603890678
 40
0.375
 40
0.375
 40
0.5
 40
0.5
 40
0.5547876968080931
 40
0.5547876968080931
 40
0.5547876968080931
 40
0.5547876968080931
 10
127.7112779746587
 20
241.087893950886
 30
0.0
 10
128.0899933030416
 20
241.1853356184205
 30
0.0
 10
128.4393875963274
 20
241.2975059858022
 30
0.0
 10
129.3034869887624
 20
241.6530777928139
 30
0.0
 10
129.6389373608498
 20
241.9141877105475
 30
0.0
 10
129.6402040917044
 20
242.2208256969908
 30
0.0
 10
129.5760181798667
 20
242.304159453883
 30
0.0
 10
129.455800471433
 20
242.3736753603816
 30
0.0
  0
SPLINE
  5
142
330
75
100
AcDbEntity
  8
4240225_STRAHLBI
  6
Continuous
 62
     7
100
AcDbSpline
210
0.0
220
0.0
230
1.0
 70
     8
 71
     3
 72
     8
 73
     4
 74
     0
 42
0.0000000005326187
 43
0.0000000001
 40
0.6445589207302307
 40
0.6445589207302307
 40
0.6445589207302307
 40
0.6445589207302307
 40
0.6953717901344912
 40
0.6953717901344912
 40
0.6953717901344912
 40
0.6953717901344912
 10
128.5916700797105
 20
241.1560969459223
 30
0.0
 10
128.3163543016768
 20
241.0586234710819
 30
0.0
 10
128.0064197580055
 20
240.9674722580598
 30
0.0
 10
127.6772526948832
 20
240.8868443841348
 30
0.0
  0
SPLINE
  5
143
330
75
100
AcDbEntity
  8
4240225_STRAHLBI
  6
Continuous
 62
     7
100
AcDbSpline
210
0.0
220
0.0
230
1.0
 70
     8
 71
     3
 72
     8
 73
     4
 74
     0
 42
0.0000000005245188
 43
0.0000000001
 40
0.7912219949473792
 40
0.7912219949473792
 40
0.7912219949473792
 40
0.7912219949473792
 40
0.8333893848293138
 40
0.8333893848293138
 40
0.8333893848293138
 40
0.8333893848293138
 10
125.7228415243469
 20
240.5706417357898
 30
0.0
 10
125.4419724065168
 20
240.5480880278848
 30
0.0
 10
125.1714539553942
 20
240.5366845720009
 30
0.0
 10
124.9200606834221
 20
240.5366943427365
 30
0.0
  0
ELLIPSE
  5
144
330
75
100
AcDbEntity
  8
4240225_STRAHLBI
  6
Continuous
 62
     7
100
AcDbEllipse
 10
120.7532376435
 20
246.4487915707
 30
0.0
 11
-2.336981908818281
 21
-0.2470132746422576
 31
0.0
210
0.0
220
0.0
230
1.0
 40
0.3513572317
 41
-3.88962940901614
 42
-3.685913088515397
  0
ELLIPSE
  5
145
330
75
100
AcDbEntity
  8
4240225_STRAHLBI
  6
Continuous
 62
     7
100
AcDbEllipse
 10
120.7532376435
 20
246.4487915707
 30
0.0
 11
-2.336981908818281
 21
-0.2470132746422576
 31
0.0
210
0.0
220
0.0
230
1.0
 40
0.3513572317
 41
0.5785464641456296
 42
0.7547238910862796
  0
ELLIPSE
  5
146
330
75
100
AcDbEntity
  8
4240225_STRAHLBI
  6
Continuous
 62
     7
100
AcDbEllipse
 10
114.5287076619
 20
247.5252453344
 30
0.0
 11
-2.346099592952108
 21
-0.1353392032759984
 31
0.0
210
0.0
220
0.0
230
0.9999999999999998
 40
0.3804981861
 41
-3.901047528843086
 42
-3.576701902579448
  0
ELLIPSE
  5
147
330
75
100
AcDbEntity
  8
4240225_STRAHLBI
  6
Continuous
 62
     7
100
AcDbEllipse
 10
114.5287076619
 20
247.5252453344
 30
0.0
 11
-2.346099592952108
 21
-0.1353392032759984
 31
0.0
210
0.0
220
0.0
230
0.9999999999999998
 40
0.3804981861
 41
0.4535361489025506
 42
0.7605507002481067
  0
SPLINE
  5
148
330
75
100
AcDbEntity
  8
4240225_STRAHLBI
  6
Continuous
 62
     7
100
AcDbSpline
210
0.0
220
0.0
230
1.0
 70
     8
 71
     3
 72
    29
 73
    25
 74
     0
 42
0.0000000002462549
 43
0.0000000001
 40
0.0
 40
0.0
 40
0.0
 40
0.0
 40
0.0094410847032514
 40
0.020597355464927
 40
0.0318620643581184
 40
0.0434055207219075
 40
0.0553797650510022
 40
0.0679015491604977
 40
0.0810237121206397
 40
0.0947067034041931
 40
0.1088184872466673
 40
0.1231812281099858
 40
0.1376362110358147
 40
0.1520603047931129
 40
0.1664120637316266
 40
0.1806806496258164
 40
0.1948686363384916
 40
0.2089839588936586
 40
0.2230359806571737
 40
0.2370337681494267
 40
0.2509854402776064
 40
0.2648980076512627
 40
0.2787774192817735
 40
0.2838342865562478
 40
0.2838342865562478
 40
0.2838342865562478
 40
0.2838342865562478
 10
83.08926844476791
 20
243.0790670068762
 30
0.0
 10
83.0911001706583
 20
242.9754168846493
 30
0.0
 10
83.09592443493332
 20
242.7847470940777
 30
0.0
 10
83.15526727831403
 20
242.4650902910483
 30
0.0
 10
83.25522061697089
 20
242.1439653170857
 30
0.0
 10
83.39741068734651
 20
241.8269476925716
 30
0.0
 10
83.58111610368546
 20
241.5158481087334
 30
0.0
 10
83.80863525233825
 20
241.2085543701993
 30
0.0
 10
84.08209851445945
 20
240.9047976064129
 30
0.0
 10
84.4030484600113
 20
240.6051196674948
 30
0.0
 10
84.7712911240712
 20
240.3111721295186
 30
0.0
 10
85.18481093908375
 20
240.0249660539361
 30
0.0
 10
85.64032376910278
 20
239.7482869013089
 30
0.0
 10
86.13458000620355
 20
239.4820864380639
 30
0.0
 10
86.66500771347356
 20
239.2265872057548
 30
0.0
 10
87.2300416251866
 20
238.9814964999366
 30
0.0
 10
87.8285366213737
 20
238.7464560414582
 30
0.0
 10
88.45953104244789
 20
238.5211685549151
 30
0.0
 10
89.12211660121051
 20
238.3054321848
 30
0.0
 10
89.81536620828889
 20
238.0991394446878
 30
0.0
 10
90.53829758203412
 20
237.9022630475405
 30
0.0
 10
91.28985694210168
 20
237.7148389038544
 30
0.0
 10
91.90438898108933
 20
237.5745175917964
 30
0.0
 10
92.26732266637329
 20
237.496517201403
 30
0.0
 10
92.3648504266028
 20
237.4758955724594
 30
0.0
  0
SPLINE
  5
149
330
75
100
AcDbEntity
  8
4240225_STRAHLBI
  6
Continuous
 62
     7
100
AcDbSpline
210
0.0
220
0.0
230
1.0
 70
     8
 71
     3
 72
    13
 73
     9
 74
     0
 42
0.0000000001502675
 43
0.0000000001
 40
0.3176661379799117
 40
0.3176661379799117
 40
0.3176661379799117
 40
0.3176661379799117
 40
0.320262954157107
 40
0.334052492584103
 40
0.3478271699384903
 40
0.3615891538046343
 40
0.3753403075824161
 40
0.3820208448376038
 40
0.3820208448376038
 40
0.3820208448376038
 40
0.3820208448376038
 10
94.4004820992024
 20
237.0905399451673
 30
0.0
 10
94.45447436843459
 20
237.0814256363808
 30
0.0
 10
94.79605469529061
 20
237.0242809382745
 30
0.0
 10
95.43487096178545
 20
236.9233943969677
 30
0.0
 10
96.33188267268275
 20
236.7952858411301
 30
0.0
 10
97.24812617960119
 20
236.6776145385985
 30
0.0
 10
98.02217105062
 20
236.5888648153664
 30
0.0
 10
98.49081901478773
 20
236.5397638536254
 30
0.0
 10
98.64467512914769
 20
236.5241326453537
 30
0.0
  0
SPLINE
  5
14A
330
75
100
AcDbEntity
  8
4240225_STRAHLBI
  6
Continuous
 62
     7
100
AcDbSpline
210
0.0
220
0.0
230
1.0
 70
     8
 71
     3
 72
    10
 73
     6
 74
     0
 42
0.0000000001387082
 43
0.0000000001
 40
0.4129175676987971
 40
0.4129175676987971
 40
0.4129175676987971
 40
0.4129175676987971
 40
0.4165439521999785
 40
0.430266075093552
 40
0.4333003953123301
 40
0.4333003953123301
 40
0.4333003953123301
 40
0.4333003953123301
 10
100.8160072907639
 20
236.3347182185484
 30
0.0
 10
100.9022596099525
 20
236.3283930245614
 30
0.0
 10
101.315544309955
 20
236.2987486715626
 30
0.0
 10
101.8046549578444
 20
236.2673879534503
 30
0.0
 10
102.2091053520154
 20
236.2443887684544
 30
0.0
 10
102.2824188051598
 20
236.2403153827866
 30
0.0
  0
SPLINE
  5
14B
330
75
100
AcDbEntity
  8
4240225_STRAHLBI
  6
Continuous
 62
     7
100
AcDbSpline
210
0.0
220
0.0
230
1.0
 70
     8
 71
     3
 72
    10
 73
     6
 74
     0
 42
0.0000000001387183
 43
0.0000000001
 40
0.5668289704700472
 40
0.5668289704700472
 40
0.5668289704700472
 40
0.5668289704700472
 40
0.5673762895440618
 40
0.5810923913506645
 40
0.5870300571067469
 40
0.5870300571067469
 40
0.5870300571067469
 40
0.5870300571067469
 10
112.1046146693187
 20
236.2411102962639
 30
0.0
 10
112.1178369296763
 20
236.2418471807707
 30
0.0
 10
112.4623529668968
 20
236.2611282674087
 30
0.0
 10
112.947943258192
 20
236.2912950428606
 30
0.0
 10
113.4166128063634
 20
236.3244402625836
 30
0.0
 10
113.5578362706716
 20
236.3347985973744
 30
0.0
  0
SPLINE
  5
14C
330
75
100
AcDbEntity
  8
4240225_STRAHLBI
  6
Continuous
 62
     7
100
AcDbSpline
210
0.0
220
0.0
230
1.0
 70
     8
 71
     3
 72
    13
 73
     9
 74
     0
 42
0.000000000150299
 43
0.0000000001
 40
0.6179049849220206
 40
0.6179049849220206
 40
0.6179049849220206
 40
0.6179049849220206
 40
0.6222684602256416
 40
0.636006491484707
 40
0.649752865911441
 40
0.6635090232462312
 40
0.6772766106564785
 40
0.6825437645080179
 40
0.6825437645080179
 40
0.6825437645080179
 40
0.6825437645080179
 10
115.727627700623
 20
236.5240874206793
 30
0.0
 10
115.8281215156058
 20
236.5342965918961
 30
0.0
 10
116.243909729847
 20
236.5773976562842
 30
0.0
 10
116.9671262660085
 20
236.6586714382341
 30
0.0
 10
117.885569627433
 20
236.7744327961613
 30
0.0
 10
118.7849190713046
 20
236.9006131997484
 30
0.0
 10
119.4825029921836
 20
237.0089205944486
 30
0.0
 10
119.8801248359377
 20
237.0749531790582
 30
0.0
 10
119.9895775056092
 20
237.0934651317474
 30
0.0
  0
SPLINE
  5
14D
330
75
100
AcDbEntity
  8
4240225_STRAHLBI
  6
Continuous
 62
     7
100
AcDbSpline
210
0.0
220
0.0
230
1.0
 70
     8
 71
     3
 72
    29
 73
    25
 74
     0
 42
0.0000000002462516
 43
0.0000000001
 40
0.7160828891921566
 40
0.7160828891921566
 40
0.7160828891921566
 40
0.7160828891921566
 40
0.7186685649190828
 40
0.7325043107049293
 40
0.7463648212723833
 40
0.7602543696483121
 40
0.7741780381743331
 40
0.7881418653775308
 40
0.8021529852571221
 40
0.8162197120991339
 40
0.83035146545003
 40
0.8445583088100017
 40
0.8588496314961238
 40
0.8732310369053067
 40
0.8876977195893255
 40
0.9022217520537452
 40
0.9166974839139518
 40
0.9309596954566005
 40
0.9447974290657891
 40
0.9566510777922571
 40
0.9692579465861674
 40
0.9812791969777923
 40
0.9928321651649235
 40
1.0
 40
1.0
 40
1.0
 40
1.0
 10
122.007022884111
 20
237.4757106448989
 30
0.0
 10
122.0568925971385
 20
237.4862542483183
 30
0.0
 10
122.3726022715015
 20
237.5535613858937
 30
0.0
 10
122.9428590528798
 20
237.6817062228425
 30
0.0
 10
123.697051701815
 20
237.8667705475725
 30
0.0
 10
124.4225614531888
 20
238.0611125059489
 30
0.0
 10
125.1183115324008
 20
238.264646168648
 30
0.0
 10
125.7833132413497
 20
238.4773401149721
 30
0.0
 10
126.4166678723112
 20
238.6992385223626
 30
0.0
 10
127.0175639956272
 20
238.9304882585978
 30
0.0
 10
127.585265655215
 20
239.1713727026542
 30
0.0
 10
128.1190832512013
 20
239.4223512420743
 30
0.0
 10
128.6183126781604
 20
239.6840985484266
 30
0.0
 10
129.0821189629977
 20
239.9575251697141
 30
0.0
 10
129.5093345927955
 20
240.2437378810738
 30
0.0
 10
129.8978504499665
 20
240.5436180305197
 30
0.0
 10
130.2445228549813
 20
240.8573880063766
 30
0.0
 10
130.5453655489625
 20
241.1839440434843
 30
0.0
 10
130.7883335265101
 20
241.5096784966819
 30
0.0
 10
130.9829283292559
 20
241.840535392757
 30
0.0
 10
131.13012209979
 20
242.1740991159542
 30
0.0
 10
131.2302907252684
 20
242.5177985754175
 30
0.0
 10
131.2816675628511
 20
242.8283871487013
 30
0.0
 10
131.2816947574819
 20
243.0024110226953
 30
0.0
 10
131.2812242985852
 20
243.0810923502112
 30
0.0
  0
LINE
  5
14E
330
75
100
AcDbEntity
  8
4240225_STRAHLBI
  6
Continuous
 62
     7
100
AcDbLine
 10
83.0863739278
 20
243.4195125635
 30
0.0
 11
83.0863739278
 21
243.0843182527
 31
0.0
  0
LINE
  5
14F
330
75
100
AcDbEntity
  8
4240225_STRAHLBI
  6
Continuous
 62
     7
100
AcDbLine
 10
131.2863739278
 20
243.0843182527
 30
0.0
 11
131.2863739278
 21
243.4195125635
 31
0.0
  0
SPLINE
  5
150
330
75
100
AcDbEntity
  8
4240225_STRAHLBI
  6
Continuous
 62
     7
100
AcDbSpline
210
0.0
220
0.0
230
1.0
 70
     8
 71
     3
 72
    34
 73
    30
 74
     0
 42
0.0000000014933493
 43
0.0000000001
 40
0.0
 40
0.0
 40
0.0
 40
0.0
 40
0.003513150687821
 40
0.0415190816481711
 40
0.0768880784820238
 40
0.1145650428526377
 40
0.1523168847164859
 40
0.1905680429947488
 40
0.2289485298502498
 40
0.2678080920844577
 40
0.3070815691602411
 40
0.3463624784002045
 40
0.3859771524815335
 40
0.4256383165029667
 40
0.4652669247403628
 40
0.5051582098716524
 40
0.5448715628791139
 40
0.5845164749358337
 40
0.6244181117171654
 40
0.6639433191871463
 40
0.7033815567389253
 40
0.7430269849284283
 40
0.7820072506342709
 40
0.8208654912403199
 40
0.859676745013113
 40
0.8974365646095546
 40
0.9350929882980239
 40
0.9730098457529147
 40
1.0
 40
1.0
 40
1.0
 40
1.0
 10
106.4933722591969
 20
244.0199921611081
 30
0.0
 10
106.4936617430382
 20
244.0223618307734
 30
0.0
 10
106.4967084904808
 20
244.0464908713753
 30
0.0
 10
106.5298141587921
 20
244.1072133474927
 30
0.0
 10
106.6017161877903
 20
244.1990296557049
 30
0.0
 10
106.7168487677857
 20
244.3004355391413
 30
0.0
 10
106.8729692615225
 20
244.4046854941591
 30
0.0
 10
107.067878851724
 20
244.506540619553
 30
0.0
 10
107.3001115197593
 20
244.6034758078516
 30
0.0
 10
107.5650280988773
 20
244.6931447002054
 30
0.0
 10
107.8601103393864
 20
244.7732510947979
 30
0.0
 10
108.1812804119758
 20
244.8421532061624
 30
0.0
 10
108.5224869729798
 20
244.8987807359523
 30
0.0
 10
108.8797585514851
 20
244.9416739016685
 30
0.0
 10
109.2478089910736
 20
244.9701385407677
 30
0.0
 10
109.6208533935726
 20
244.984103161261
 30
0.0
 10
109.9938397876406
 20
244.9827768743359
 30
0.0
 10
110.361478297735
 20
244.9663723849468
 30
0.0
 10
110.718531642198
 20
244.9355557251981
 30
0.0
 10
111.0594825167392
 20
244.8902918148895
 30
0.0
 10
111.3797786558813
 20
244.8316550001805
 30
0.0
 10
111.6748092861321
 20
244.7610881333704
 30
0.0
 10
111.9391022330816
 20
244.6796471738448
 30
0.0
 10
112.1695532448015
 20
244.5894462878084
 30
0.0
 10
112.3625359709399
 20
244.4933914567769
 30
0.0
 10
112.5139811466616
 20
244.3946311290132
 30
0.0
 10
112.6234560897381
 20
244.2978507009291
 30
0.0
 10
112.6895764009507
 20
244.2130774079785
 30
0.0
 10
112.7047029891713
 20
244.1735635430759
 30
0.0
 10
112.7114954205337
 20
244.1542929528719
 30
0.0
  0
SPLINE
  5
151
330
75
100
AcDbEntity
  8
4240225_STRAHLBI
  6
Continuous
 62
     7
100
AcDbSpline
210
0.0
220
0.0
230
1.0
 70
     8
 71
     3
 72
    33
 73
    29
 74
     0
 42
0.0000000015009268
 43
0.0000000001
 40
0.0
 40
0.0
 40
0.0
 40
0.0
 40
0.036392269151673
 40
0.0759255262117785
 40
0.1139312354626881
 40
0.1517774769934437
 40
0.1895560599934853
 40
0.2279918083746268
 40
0.2669199256078002
 40
0.3059000118260379
 40
0.3453426712126914
 40
0.3848359456379002
 40
0.4243103497960271
 40
0.46414092140073
 40
0.5037730731879814
 40
0.5433762207470542
 40
0.5832824494947523
 40
0.6228080275441719
 40
0.662327185248859
 40
0.7020626511874152
 40
0.7411892251219269
 40
0.7803421060117148
 40
0.8194218569325096
 40
0.8575511714922495
 40
0.895740463855349
 40
0.9334676651497975
 40
0.9702648170065714
 40
1.0
 40
1.0
 40
1.0
 40
1.0
 10
97.19207787764162
 20
243.7781836167691
 30
0.0
 10
97.20332713570622
 20
243.8023037245603
 30
0.0
 10
97.22512702011737
 20
243.8450496021616
 30
0.0
 10
97.3078124784686
 20
243.9332705801601
 30
0.0
 10
97.43193812071483
 20
244.0235385763085
 30
0.0
 10
97.59571205078946
 20
244.1111976869549
 30
0.0
 10
97.79778696939238
 20
244.1935825375849
 30
0.0
 10
98.03490133865675
 20
244.2685390229535
 30
0.0
 10
98.30576828839074
 20
244.3337030270317
 30
0.0
 10
98.60625498265259
 20
244.3875973698856
 30
0.0
 10
98.93058432092491
 20
244.4290887901422
 30
0.0
 10
99.27517598006429
 20
244.4567384591799
 30
0.0
 10
99.63463800262751
 20
244.4702138548087
 30
0.0
 10
100.0032878883122
 20
244.4694664477801
 30
0.0
 10
100.3763446545633
 20
244.4538186163436
 30
0.0
 10
100.7483431805601
 20
244.4238410941072
 30
0.0
 10
101.1139585574922
 20
244.3801831177169
 30
0.0
 10
101.467805376316
 20
244.3229192553385
 30
0.0
 10
101.8051269841706
 20
244.2533757109167
 30
0.0
 10
102.1210216179803
 20
244.1728675643319
 30
0.0
 10
102.4101508655096
 20
244.0823553485272
 30
0.0
 10
102.6689595622825
 20
243.9839780546595
 30
0.0
 10
102.8932725806835
 20
243.8800781594448
 30
0.0
 10
103.0785742541405
 20
243.7732537400331
 30
0.0
 10
103.2242479843394
 20
243.6664609598167
 30
0.0
 10
103.3269393103342
 20
243.5660325684991
 30
0.0
 10
103.3863952410884
 20
243.4800233840963
 30
0.0
 10
103.3993178736684
 20
243.4408694705189
 30
0.0
 10
103.4053658300942
 20
243.4204072248118
 30
0.0
  0
SPLINE
  5
152
330
75
100
AcDbEntity
  8
4240225_STRAHLBI
  6
Continuous
 62
     7
100
AcDbSpline
210
0.0
220
0.0
230
1.0
 70
     8
 71
     3
 72
    14
 73
    10
 74
     0
 42
0.0000000100281172
 43
0.0000000001
 40
0.0
 40
0.0
 40
0.0
 40
0.0
 40
0.0776359225569408
 40
0.2381802980086386
 40
0.3964590302248344
 40
0.5511870347155812
 40
0.7011735698500581
 40
0.8524262027565149
 40
1.0
 40
1.0
 40
1.0
 40
1.0
 10
97.3139130258312
 20
241.7290147909929
 30
0.0
 10
97.3594724759046
 20
241.7123094905583
 30
0.0
 10
97.47789819999882
 20
241.6686248065057
 30
0.0
 10
97.65969548967335
 20
241.584953388065
 30
0.0
 10
97.83837488817923
 20
241.4877650106331
 30
0.0
 10
97.97284108329978
 20
241.3943173769531
 30
0.0
 10
98.06442047641536
 20
241.3099830657416
 30
0.0
 10
98.11622207085409
 20
241.2377262040826
 30
0.0
 10
98.12479245792518
 20
241.2123575504426
 30
0.0
 10
98.12871003357311
 20
241.1978908529193
 30
0.0
  0
SPLINE
  5
153
330
75
100
AcDbEntity
  8
4240225_STRAHLBI
  6
Continuous
 62
     7
100
AcDbSpline
210
0.0
220
0.0
230
1.0
 70
     8
 71
     3
 72
    28
 73
    24
 74
     0
 42
0.0000000018021647
 43
0.0000000001
 40
0.0
 40
0.0
 40
0.0
 40
0.0
 40
0.0418180697661582
 40
0.0865912084801958
 40
0.1337872405991633
 40
0.1806644646539674
 40
0.2283559023614347
 40
0.2775035536920957
 40
0.3272013533089593
 40
0.3773639088660116
 40
0.4282074193597141
 40
0.4789448561862442
 40
0.5300330431084654
 40
0.5813880954085062
 40
0.6324372926638305
 40
0.6838317677286878
 40
0.7352248657935402
 40
0.7862924512106778
 40
0.8376907443384982
 40
0.8889033110424821
 40
0.9398665446316514
 40
0.9908748460275089
 40
1.0
 40
1.0
 40
1.0
 40
1.0
 10
91.92211796655187
 20
241.827826393363
 30
0.0
 10
91.92755666498176
 20
241.83915392453
 30
0.0
 10
91.93873664562788
 20
241.8592046018239
 30
0.0
 10
91.9967048091919
 20
241.9153152722481
 30
0.0
 10
92.09514158942736
 20
241.9770329410239
 30
0.0
 10
92.23834141376788
 20
242.0407320118564
 30
0.0
 10
92.41980405307022
 20
242.1002160546994
 30
0.0
 10
92.63924506236089
 20
242.1533125772067
 30
0.0
 10
92.8953056700643
 20
242.1976924354359
 30
0.0
 10
93.18221909196075
 20
242.2321105170338
 30
0.0
 10
93.49568424104142
 20
242.255263861216
 30
0.0
 10
93.83199977815845
 20
242.2661906613324
 30
0.0
 10
94.18495586258561
 20
242.2650201349293
 30
0.0
 10
94.54984463237945
 20
242.2513737197113
 30
0.0
 10
94.92172525306381
 20
242.225104517345
 30
0.0
 10
95.29480966328451
 20
242.1870789415752
 30
0.0
 10
95.66411964190408
 20
242.1374982847372
 30
0.0
 10
96.02443194189364
 20
242.0768971681727
 30
0.0
 10
96.37046509235418
 20
242.006673894113
 30
0.0
 10
96.69913033826316
 20
241.9273013245268
 30
0.0
 10
96.998129550991
 20
241.8409983103807
 30
0.0
 10
97.21052700794372
 20
241.7719886621449
 30
0.0
 10
97.30013197214384
 20
241.7357665416943
 30
0.0
 10
97.3159507593824
 20
241.7293561959902
 30
0.0
  0
SPLINE
  5
154
330
75
100
AcDbEntity
  8
4240225_STRAHLBI
  6
Continuous
 62
     7
100
AcDbSpline
210
0.0
220
0.0
230
1.0
 70
     8
 71
     3
 72
    13
 73
     9
 74
     0
 42
0.0000000027804084
 43
0.0000000001
 40
0.0
 40
0.0
 40
0.0
 40
0.0
 40
0.0371397918075366
 40
0.1273671199026998
 40
0.2166677804595728
 40
0.30745039883456
 40
0.3987738550728893
 40
0.434836302819406
 40
0.434836302819406
 40
0.434836302819406
 40
0.434836302819406
 10
97.65779782835843
 20
239.4807529053699
 30
0.0
 10
97.71271821329205
 20
239.4738174168374
 30
0.0
 10
97.87316991369353
 20
239.4534256890443
 30
0.0
 10
98.15975579396414
 20
239.4074531259497
 30
0.0
 10
98.4896515473026
 20
239.3467905516415
 30
0.0
 10
98.80199973415134
 20
239.2793997569843
 30
0.0
 10
99.03170416032204
 20
239.2216816302244
 30
0.0
 10
99.15593891149578
 20
239.1867903681542
 30
0.0
 10
99.19025610993803
 20
239.1768336515898
 30
0.0
  0
ARC
  5
155
330
75
100
AcDbEntity
  8
4240225_STRAHLBI
  6
Continuous
 62
     7
100
AcDbCircle
 10
95.9878290985
 20
227.4899471762
 30
0.0
 40
12.10653615173512
100
AcDbArc
 50
82.0713724022
 51
85.7507889588
  0
SPLINE
  5
156
330
75
100
AcDbEntity
  8
4240225_STRAHLBI
  6
Continuous
 62
     7
100
AcDbSpline
210
0.0
220
0.0
230
1.0
 70
     8
 71
     3
 72
    15
 73
    11
 74
     0
 42
0.000000008773931
 43
0.0000000001
 40
0.0493875105243613
 40
0.0493875105243613
 40
0.0493875105243613
 40
0.0493875105243613
 40
0.0904602736895568
 40
0.2166312680134168
 40
0.3371896707699733
 40
0.4595802763480638
 40
0.5902155165555361
 40
0.726436804740563
 40
0.865364835624007
 40
1.0
 40
1.0
 40
1.0
 40
1.0
 10
93.75720679527079
 20
239.327012670075
 30
0.0
 10
93.757022943162
 20
239.326369198374
 30
0.0
 10
93.75811474804945
 20
239.3258949159386
 30
0.0
 10
93.77888681875342
 20
239.3495687715093
 30
0.0
 10
93.84916518842381
 20
239.3896686448719
 30
0.0
 10
93.95963439606379
 20
239.4343431028497
 30
0.0
 10
94.1108063663593
 20
239.4785850658676
 30
0.0
 10
94.30321755086393
 20
239.5195195335551
 30
0.0
 10
94.53628671410091
 20
239.5555153077163
 30
0.0
 10
94.69927992724868
 20
239.5717320570286
 30
0.0
 10
94.79499422124643
 20
239.5809954530473
 30
0.0
  0
SPLINE
  5
157
330
75
100
AcDbEntity
  8
4240225_STRAHLBI
  6
Continuous
 62
     7
100
AcDbSpline
210
0.0
220
0.0
230
1.0
 70
     8
 71
     3
 72
    16
 73
    12
 74
     0
 42
0.000000006894984
 43
0.0000000001
 40
0.0
 40
0.0
 40
0.0
 40
0.0
 40
0.0774950519539799
 40
0.2035123068624332
 40
0.3287891272464857
 40
0.454032135292154
 40
0.5758843630215965
 40
0.6949575401016649
 40
0.7951938925921215
 40
0.8867240477729971
 40
0.9149973179166171
 40
0.9149973179166171
 40
0.9149973179166171
 40
0.9149973179166171
 10
115.9198082584355
 20
238.5894900625611
 30
0.0
 10
115.9893194554019
 20
238.5850044208987
 30
0.0
 10
116.1437227194743
 20
238.5748257934824
 30
0.0
 10
116.3880871332676
 20
238.5487329503852
 30
0.0
 10
116.6310336296591
 20
238.5138882417464
 30
0.0
 10
116.8387911655901
 20
238.4733510432164
 30
0.0
 10
117.0036913661516
 20
238.42937585576
 30
0.0
 10
117.1183657216275
 20
238.3867840542892
 30
0.0
 10
117.1858094377491
 20
238.3503784795481
 30
0.0
 10
117.2068727024225
 20
238.3339953694959
 30
0.0
 10
117.2077140626294
 20
238.3309226819652
 30
0.0
 10
117.207537765592
 20
238.3306950284062
 30
0.0
  0
ARC
  5
158
330
75
100
AcDbEntity
  8
4240225_STRAHLBI
  6
Continuous
 62
     7
100
AcDbCircle
 10
115.2502577969
 20
229.7113179026
 30
0.0
 40
8.903383554733617
100
AcDbArc
 50
85.6871827125
 51
89.5738721291
  0
SPLINE
  5
159
330
75
100
AcDbEntity
  8
4240225_STRAHLBI
  6
Continuous
 62
     7
100
AcDbSpline
210
0.0
220
0.0
230
1.0
 70
     8
 71
     3
 72
    18
 73
    14
 74
     0
 42
0.0000000049448982
 43
0.0000000001
 40
0.0
 40
0.0
 40
0.0
 40
0.0
 40
0.0744091916004575
 40
0.1578763810181764
 40
0.246001364413412
 40
0.336620903971499
 40
0.4324416977470618
 40
0.5321548089065627
 40
0.6341030685897286
 40
0.7367039230692293
 40
0.8384728641671546
 40
0.9408328952325095
 40
1.0
 40
1.0
 40
1.0
 40
1.0
 10
116.2430237700171
 20
239.9344137767367
 30
0.0
 10
116.2432299641606
 20
239.9375105257895
 30
0.0
 10
116.2450856880524
 20
239.9437336132224
 30
0.0
 10
116.2747967010851
 20
239.9876730301816
 30
0.0
 10
116.3437338438471
 20
240.0503499445677
 30
0.0
 10
116.4534090988475
 20
240.1254853950577
 30
0.0
 10
116.6039960164399
 20
240.2076022884731
 30
0.0
 10
116.7961353009064
 20
240.293921298885
 30
0.0
 10
117.026567454471
 20
240.3807566154106
 30
0.0
 10
117.2908897029882
 20
240.4651545274248
 30
0.0
 10
117.5821339441454
 20
240.5439981445299
 30
0.0
 10
117.858650420401
 20
240.6093862876323
 30
0.0
 10
118.0243956586101
 20
240.6416131236988
 30
0.0
 10
118.0960080963381
 20
240.6554355580078
 30
0.0
  0
SPLINE
  5
15A
330
75
100
AcDbEntity
  8
4240225_STRAHLBI
  6
Continuous
 62
     7
100
AcDbSpline
210
0.0
220
0.0
230
1.0
 70
     8
 71
     3
 72
    18
 73
    14
 74
     0
 42
0.000000004938297
 43
0.0000000001
 40
0.0
 40
0.0
 40
0.0
 40
0.0
 40
0.0840245084380205
 40
0.1880214264687792
 40
0.2908802286639533
 40
0.3932738255755069
 40
0.4958676231203935
 40
0.5960454834894465
 40
0.6950886223203063
 40
0.7923462496165936
 40
0.884575592054445
 40
0.9747640049320629
 40
1.0
 40
1.0
 40
1.0
 40
1.0
 10
120.4960175769238
 20
240.8962765155444
 30
0.0
 10
120.5991802873549
 20
240.8964954133476
 30
0.0
 10
120.794000226836
 20
240.8965284567268
 30
0.0
 10
121.104175182088
 20
240.8840332207628
 30
0.0
 10
121.4021128209707
 20
240.8610340991127
 30
0.0
 10
121.672864960753
 20
240.8276987123874
 30
0.0
 10
121.9097545416912
 20
240.785662806986
 30
0.0
 10
122.1079522076418
 20
240.7360803310219
 30
0.0
 10
122.2642865900979
 20
240.6816933163078
 30
0.0
 10
122.3762830428041
 20
240.6260586724746
 30
0.0
 10
122.4384780543596
 20
240.579846738395
 30
0.0
 10
122.4559700015884
 20
240.5538806125829
 30
0.0
 10
122.4562819806378
 20
240.5533772677203
 30
0.0
 10
122.4562446820876
 20
240.5532832887183
 30
0.0
  0
LINE
  5
15B
330
75
100
AcDbEntity
  8
4240225_STRAHLBI
  6
Continuous
 62
     7
100
AcDbLine
 10
118.0956298081
 20
240.6556191564
 30
0.0
 11
118.2185212401
 21
240.680160406
 31
0.0
  0
SPLINE
  5
15C
330
75
100
AcDbEntity
  8
4240225_STRAHLBI
  6
Continuous
 62
     7
100
AcDbSpline
210
0.0
220
0.0
230
1.0
 70
     8
 71
     3
 72
    11
 73
     7
 74
     0
 42
0.0000000357073767
 43
0.0000000001
 40
0.0
 40
0.0
 40
0.0
 40
0.0
 40
0.0731779257638558
 40
0.420351043195165
 40
0.7915535332785703
 40
1.0
 40
1.0
 40
1.0
 40
1.0
 10
114.3904030899272
 20
242.425922379488
 30
0.0
 10
114.3905721798111
 20
242.4291811754098
 30
0.0
 10
114.3916371563272
 20
242.4453593921581
 30
0.0
 10
114.4191547817742
 20
242.4989612916766
 30
0.0
 10
114.4744017299813
 20
242.5730994178627
 30
0.0
 10
114.5322452983104
 20
242.6218190948484
 30
0.0
 10
114.5569591396786
 20
242.6425208040231
 30
0.0
  0
SPLINE
  5
15D
330
75
100
AcDbEntity
  8
4240225_STRAHLBI
  6
Continuous
 62
     7
100
AcDbSpline
210
0.0
220
0.0
230
1.0
 70
     8
 71
     3
 72
    31
 73
    27
 74
     0
 42
0.0000000015789098
 43
0.0000000001
 40
0.0
 40
0.0
 40
0.0
 40
0.0
 40
0.0175915604414623
 40
0.0585066675473114
 40
0.1000534517847969
 40
0.1425066245128379
 40
0.1851997693097842
 40
0.2283402925079069
 40
0.2718966087334822
 40
0.315340755205451
 40
0.3591249377489318
 40
0.4029700451530452
 40
0.446663491050636
 40
0.4906489817244636
 40
0.5344734173051428
 40
0.5781695507585013
 40
0.6220966685117402
 40
0.6656295242091584
 40
0.708987800781921
 40
0.752513693805008
 40
0.7952371962970041
 40
0.8376345919301221
 40
0.8798505369393812
 40
0.9206839715654046
 40
0.9611080835918474
 40
1.0
 40
1.0
 40
1.0
 40
1.0
 10
114.5562586453122
 20
242.6426946641185
 30
0.0
 10
114.5724810998703
 20
242.657640647958
 30
0.0
 10
114.6190481366283
 20
242.7000272259739
 30
0.0
 10
114.7487477057509
 20
242.7854815607159
 30
0.0
 10
114.9342651912952
 20
242.8871967859862
 30
0.0
 10
115.1602977717698
 20
242.9886364290558
 30
0.0
 10
115.4207308217067
 20
243.0857783726437
 30
0.0
 10
115.7112098379493
 20
243.1769154577914
 30
0.0
 10
116.0277855570049
 20
243.2598567724085
 30
0.0
 10
116.3663887393065
 20
243.3330465700145
 30
0.0
 10
116.7208539872987
 20
243.3955218544707
 30
0.0
 10
117.0868664949682
 20
243.4459809731336
 30
0.0
 10
117.4591870433948
 20
243.4835379941193
 30
0.0
 10
117.832127548348
 20
243.5080781465917
 30
0.0
 10
118.2007233847096
 20
243.5188350196247
 30
0.0
 10
118.5595678294243
 20
243.5156776069484
 30
0.0
 10
118.9036587619125
 20
243.4991817394823
 30
0.0
 10
119.2275224919831
 20
243.4692622155737
 30
0.0
 10
119.5266668337069
 20
243.4266497519994
 30
0.0
 10
119.7968317057094
 20
243.3727551822645
 30
0.0
 10
120.032514443606
 20
243.3087033476867
 30
0.0
 10
120.2306262632104
 20
243.2366830476785
 30
0.0
 10
120.3885425740864
 20
243.1596628856044
 30
0.0
 10
120.5008523855315
 20
243.0837447720039
 30
0.0
 10
120.5721977576919
 20
243.0115994267456
 30
0.0
 10
120.5895433783709
 20
242.9791074041474
 30
0.0
 10
120.5985472073647
 20
242.9603660576498
 30
0.0
  0
SPLINE
  5
15E
330
75
100
AcDbEntity
  8
4240225_STRAHLBI
  6
Continuous
 62
     7
100
AcDbSpline
210
0.0
220
0.0
230
1.0
 70
     8
 71
     3
 72
    33
 73
    29
 74
     0
 42
0.0000000014730025
 43
0.0000000001
 40
0.0
 40
0.0
 40
0.0
 40
0.0
 40
0.0221814629596437
 40
0.0599179937863222
 40
0.1000304139614431
 40
0.1397254238870704
 40
0.1794713723987177
 40
0.2193709048740079
 40
0.2592536238576802
 40
0.2985867639475501
 40
0.3382431286880436
 40
0.378359167145582
 40
0.4188371051639612
 40
0.4595450221442887
 40
0.5003187209078571
 40
0.5410227965578718
 40
0.5812243102757181
 40
0.6213072432672041
 40
0.6617104402902119
 40
0.7022840968240217
 40
0.7427726896579809
 40
0.7829686657376488
 40
0.8226881952018806
 40
0.8614572613561129
 40
0.9002933996529231
 40
0.9393934019194987
 40
0.9788460745359335
 40
1.0
 40
1.0
 40
1.0
 40
1.0
 10
104.0871037347516
 20
246.8493041210096
 30
0.0
 10
104.0935678070972
 20
246.870207343001
 30
0.0
 10
104.1093061084273
 20
246.9183194406812
 30
0.0
 10
104.1766662414848
 20
247.0178792477373
 30
0.0
 10
104.2895936600164
 20
247.135616085757
 30
0.0
 10
104.4473668846654
 20
247.2567528796835
 30
0.0
 10
104.6427460947001
 20
247.3729797276488
 30
0.0
 10
104.8742323141155
 20
247.4818636354472
 30
0.0
 10
105.1374735148351
 20
247.5800147908624
 30
0.0
 10
105.4289121480491
 20
247.6657488034728
 30
0.0
 10
105.7444877373441
 20
247.7381819775344
 30
0.0
 10
106.0825673999396
 20
247.7965149392824
 30
0.0
 10
106.4385967465386
 20
247.8394758449159
 30
0.0
 10
106.806852487868
 20
247.8659444701996
 30
0.0
 10
107.1811104306645
 20
247.8751566460998
 30
0.0
 10
107.5539686999183
 20
247.8668069663909
 30
0.0
 10
107.9195413797889
 20
247.8410753050957
 30
0.0
 10
108.2741148873081
 20
247.7987973871382
 30
0.0
 10
108.6149633753978
 20
247.740510618012
 30
0.0
 10
108.9373703463006
 20
247.6669733068969
 30
0.0
 10
109.2350250932861
 20
247.579666230613
 30
0.0
 10
109.5019906334591
 20
247.4806418669971
 30
0.0
 10
109.7325308251649
 20
247.3728210972109
 30
0.0
 10
109.9241172776588
 20
247.2587719861363
 30
0.0
 10
110.0776843746906
 20
247.1407307366129
 30
0.0
 10
110.1908282504759
 20
247.0231538051472
 30
0.0
 10
110.2592156969388
 20
246.9232262738716
 30
0.0
 10
110.2758223799615
 20
246.873485081393
 30
0.0
 10
110.2822855832405
 20
246.8531170910839
 30
0.0
  0
SPLINE
  5
15F
330
75
100
AcDbEntity
  8
4240225_STRAHLBI
  6
Continuous
 62
     7
100
AcDbSpline
210
0.0
220
0.0
230
1.0
 70
     8
 71
     3
 72
    33
 73
    29
 74
     0
 42
0.0000000014796821
 43
0.0000000001
 40
0.0
 40
0.0
 40
0.0
 40
0.0
 40
0.0375610311063091
 40
0.0748961633178064
 40
0.1146714196414542
 40
0.1530322644787584
 40
0.1917267436323744
 40
0.2309924187958295
 40
0.2708003143873188
 40
0.3110162201079307
 40
0.3514787961605216
 40
0.3920210933501985
 40
0.4321884305718134
 40
0.4722298568434852
 40
0.5126931777188662
 40
0.5534388127671156
 40
0.5942750593178493
 40
0.6349810087274138
 40
0.6753999012107499
 40
0.7150545321234513
 40
0.7547366217724258
 40
0.7947244812040881
 40
0.834726975454694
 40
0.874365491208487
 40
0.9133624571900302
 40
0.9516617338909921
 40
0.9897592127322821
 40
1.0
 40
1.0
 40
1.0
 40
1.0
 10
96.69793325685566
 20
246.6652544098536
 30
0.0
 10
96.71529257670758
 20
246.6998486061598
 30
0.0
 10
96.74630877088782
 20
246.7581776378491
 30
0.0
 10
96.84243708837934
 20
246.8637688658836
 30
0.0
 10
96.97611741799334
 20
246.9678388646151
 30
0.0
 10
97.15327062955787
 20
247.0701905852667
 30
0.0
 10
97.36513426628534
 20
247.1642711152637
 30
0.0
 10
97.61255020372138
 20
247.2493621373586
 30
0.0
 10
97.89263975906373
 20
247.3231728064437
 30
0.0
 10
98.20143783092328
 20
247.3836760520761
 30
0.0
 10
98.53397109779633
 20
247.429142891451
 30
0.0
 10
98.8836977332468
 20
247.4582363958306
 30
0.0
 10
99.24459637385789
 20
247.4702623056706
 30
0.0
 10
99.61234738325452
 20
247.4654777672098
 30
0.0
 10
99.98398501403838
 20
247.4439894178332
 30
0.0
 10
100.3552004744131
 20
247.4058118965778
 30
0.0
 10
100.7192421502402
 20
247.351405355958
 30
0.0
 10
101.0693145364448
 20
247.2816757400386
 30
0.0
 10
101.3980425796126
 20
247.1982183467202
 30
0.0
 10
101.7011555926423
 20
247.1024131899766
 30
0.0
 10
101.9769484437378
 20
246.9959177964303
 30
0.0
 10
102.2235741062216
 20
246.8800063135232
 30
0.0
 10
102.4365841662634
 20
246.757251779195
 30
0.0
 10
102.6108092931125
 20
246.6317814718818
 30
0.0
 10
102.743914948058
 20
246.5075635242515
 30
0.0
 10
102.8312539172463
 20
246.3925697342146
 30
0.0
 10
102.8743079875414
 20
246.3094970649622
 30
0.0
 10
102.8807593989693
 20
246.2722064343983
 30
0.0
 10
102.8822671297295
 20
246.2629987782765
 30
0.0
  0
SPLINE
  5
160
330
75
100
AcDbEntity
  8
4240225_STRAHLBI
  6
Continuous
 62
     7
100
AcDbSpline
210
0.0
220
0.0
230
1.0
 70
     8
 71
     3
 72
    34
 73
    30
 74
     0
 42
0.0000000014906858
 43
0.0000000001
 40
0.0
 40
0.0
 40
0.0
 40
0.0
 40
0.0142508361194142
 40
0.0512316280484755
 40
0.0904497329582019
 40
0.128836416358779
 40
0.1673249865393915
 40
0.2061865097002891
 40
0.2454010580476901
 40
0.2846046804492951
 40
0.3236626858897336
 40
0.3632445502949143
 40
0.4032600240597409
 40
0.4435285103583534
 40
0.4838318129288062
 40
0.5239987975313315
 40
0.5636167776129412
 40
0.6030238426150727
 40
0.6429076357699459
 40
0.6830690410036946
 40
0.7231871678809283
 40
0.7629109259077805
 40
0.8019519815100448
 40
0.8400500947790281
 40
0.8783722679241309
 40
0.9169811758840705
 40
0.9556427496502086
 40
0.9944426426151673
 40
1.0
 40
1.0
 40
1.0
 40
1.0
 10
90.43180904860642
 20
245.7101332884679
 30
0.0
 10
90.4357568381744
 20
245.7202427747118
 30
0.0
 10
90.44842277777445
 20
245.7513056743491
 30
0.0
 10
90.5074675343167
 20
245.8214200259293
 30
0.0
 10
90.61486288992721
 20
245.9101372501588
 30
0.0
 10
90.76803481163203
 20
245.9992741353918
 30
0.0
 10
90.95854872293896
 20
246.0811246139718
 30
0.0
 10
91.18604383862981
 20
246.1538352754716
 30
0.0
 10
91.44710963601956
 20
246.2148655475982
 30
0.0
 10
91.73719776556058
 20
246.2622078856059
 30
0.0
 10
92.05211670303582
 20
246.2950769148755
 30
0.0
 10
92.38849910609817
 20
246.3129894064472
 30
0.0
 10
92.74322676792585
 20
246.3153418002039
 30
0.0
 10
93.11034872049467
 20
246.3016587173476
 30
0.0
 10
93.48326562992314
 20
246.2718606258877
 30
0.0
 10
93.85438628751301
 20
246.2264509198575
 30
0.0
 10
94.21760875401446
 20
246.1661259843751
 30
0.0
 10
94.56995646299995
 20
246.0920373386245
 30
0.0
 10
94.90936375393798
 20
246.0048987086346
 30
0.0
 10
95.23159378173236
 20
245.9056899348961
 30
0.0
 10
95.52968393483542
 20
245.7964990604573
 30
0.0
 10
95.79700409853629
 20
245.6799570845329
 30
0.0
 10
96.02764760514104
 20
245.5592955637094
 30
0.0
 10
96.21961074887793
 20
245.4365091964916
 30
0.0
 10
96.37376135122113
 20
245.3138449456851
 30
0.0
 10
96.4904639756498
 20
245.1933871020114
 30
0.0
 10
96.56491415249945
 20
245.0835657030941
 30
0.0
 10
96.59822500000185
 20
245.0095726623472
 30
0.0
 10
96.60088566196828
 20
244.9814893154881
 30
0.0
 10
96.60124811681048
 20
244.9774024401053
 30
0.0
  0
SPLINE
  5
161
330
75
100
AcDbEntity
  8
4240225_STRAHLBI
  6
Continuous
 62
     7
100
AcDbSpline
210
0.0
220
0.0
230
1.0
 70
     8
 71
     3
 72
    34
 73
    30
 74
     0
 42
0.0000000015124747
 43
0.0000000001
 40
0.0
 40
0.0
 40
0.0
 40
0.0
 40
0.0320889374466079
 40
0.067184009482853
 40
0.1045946476606432
 40
0.1416074794288629
 40
0.1785159128801324
 40
0.2160816603842459
 40
0.2544809459953462
 40
0.2934713037257073
 40
0.3328049420735449
 40
0.3722461665682117
 40
0.411497037265263
 40
0.4502887774601038
 40
0.4894290705920441
 40
0.5290253392631376
 40
0.568856317456967
 40
0.6085933332621859
 40
0.6479565210475098
 40
0.6867440225230977
 40
0.7251803816508967
 40
0.7641654748192575
 40
0.8034370207973999
 40
0.842437883470504
 40
0.8806277315030071
 40
0.9175502243546907
 40
0.9530439868516827
 40
0.9895092543163387
 40
1.0
 40
1.0
 40
1.0
 40
1.0
 10
86.23921451384736
 20
244.1475808312269
 30
0.0
 10
86.24814517997677
 20
244.1642387662772
 30
0.0
 10
86.26558044162228
 20
244.193846576749
 30
0.0
 10
86.33569369636842
 20
244.2587741255025
 30
0.0
 10
86.44759379933845
 20
244.3274349438018
 30
0.0
 10
86.60351166045014
 20
244.3941976886463
 30
0.0
 10
86.79715259494047
 20
244.4532219843277
 30
0.0
 10
87.02679775072711
 20
244.5029027569551
 30
0.0
 10
87.29110475552984
 20
244.5416062168628
 30
0.0
 10
87.5866129179245
 20
244.5677222619152
 30
0.0
 10
87.90816371156733
 20
244.5799711992046
 30
0.0
 10
88.24958499951177
 20
244.5776165384516
 30
0.0
 10
88.60393327386916
 20
244.5603900593014
 30
0.0
 10
88.96664736496052
 20
244.5286730038699
 30
0.0
 10
89.33456828903708
 20
244.4831270320675
 30
0.0
 10
89.7050731186462
 20
244.4239525529925
 30
0.0
 10
90.07188525046733
 20
244.351913859631
 30
0.0
 10
90.42744854188713
 20
244.2683137189612
 30
0.0
 10
90.76447874236365
 20
244.1748833511753
 30
0.0
 10
91.07709212913448
 20
244.0731904967724
 30
0.0
 10
91.36412177402649
 20
243.9643648104918
 30
0.0
 10
91.62453688018763
 20
243.8495241029324
 30
0.0
 10
91.85461731481772
 20
243.730496381525
 30
0.0
 10
92.04812482464529
 20
243.6110283480391
 30
0.0
 10
92.19971490980794
 20
243.495977075879
 30
0.0
 10
92.30648657516805
 20
243.3907942180803
 30
0.0
 10
92.36919979879232
 20
243.3018156008487
 30
0.0
 10
92.39401620313306
 20
243.2440371186726
 30
0.0
 10
92.39535378724884
 20
243.2240146564676
 30
0.0
 10
92.39560108498003
 20
243.2188342370607
 30
0.0
  0
SPLINE
  5
162
330
75
100
AcDbEntity
  8
4240225_STRAHLBI
  6
Continuous
 62
     7
100
AcDbSpline
210
0.0
220
0.0
230
1.0
 70
     8
 71
     3
 72
    21
 73
    17
 74
     0
 42
0.0000000032824755
 43
0.0000000001
 40
0.0
 40
0.0
 40
0.0
 40
0.0
 40
0.0025499875251251
 40
0.0822629964772214
 40
0.1618449011486032
 40
0.2428372304928523
 40
0.3246265924796921
 40
0.406334019113564
 40
0.4869790875672009
 40
0.5658222100908471
 40
0.6431442867411354
 40
0.720713498897168
 40
0.797646005327303
 40
0.8729505822859065
 40
0.9461191754300179
 40
1.0
 40
1.0
 40
1.0
 40
1.0
 10
88.14370465850288
 20
242.3281790457547
 30
0.0
 10
88.14797827752265
 20
242.3274839654597
 30
0.0
 10
88.26688705166386
 20
242.308136281376
 30
0.0
 10
88.51889197529614
 20
242.2566994677007
 30
0.0
 10
88.86818888060014
 20
242.1785403571738
 30
0.0
 10
89.21052041826738
 20
242.0896232195149
 30
0.0
 10
89.53604126040003
 20
241.9935359642122
 30
0.0
 10
89.83818096202269
 20
241.8918130793831
 30
0.0
 10
90.10915071094439
 20
241.7872579048976
 30
0.0
 10
90.34313422026537
 20
241.6824019442641
 30
0.0
 10
90.53910043590012
 20
241.5787297062002
 30
0.0
 10
90.6966933203078
 20
241.4783780819447
 30
0.0
 10
90.81378723066193
 20
241.3844959893473
 30
0.0
 10
90.88766897361286
 20
241.3049665104865
 30
0.0
 10
90.91874380606757
 20
241.2488452967057
 30
0.0
 10
90.9208786382766
 20
241.2378010636383
 30
0.0
 10
90.92128733651094
 20
241.2325842205692
 30
0.0
  0
SPLINE
  5
163
330
75
100
AcDbEntity
  8
4240225_STRAHLBI
  6
Continuous
 62
     7
100
AcDbSpline
210
0.0
220
0.0
230
1.0
 70
     8
 71
     3
 72
    22
 73
    18
 74
     0
 42
0.0000000028928642
 43
0.0000000001
 40
0.0
 40
0.0
 40
0.0
 40
0.0
 40
0.0064135313820665
 40
0.0698547205251182
 40
0.1377259256764669
 40
0.2037584349528148
 40
0.2713358867435018
 40
0.341181003448386
 40
0.4127432763357605
 40
0.4853434402926108
 40
0.5580210013647428
 40
0.630303042673252
 40
0.7037836326264731
 40
0.7782475662433631
 40
0.8532237730503266
 40
0.9280917239244896
 40
1.0
 40
1.0
 40
1.0
 40
1.0
 10
84.75737848884576
 20
242.2259008425985
 30
0.0
 10
84.75744959738526
 20
242.2261891988779
 30
0.0
 10
84.75826165618952
 20
242.2289382282967
 30
0.0
 10
84.77477328852726
 20
242.2527271388057
 30
0.0
 10
84.83458377784004
 20
242.2981892066612
 30
0.0
 10
84.94001907942238
 20
242.3500845286459
 30
0.0
 10
85.0849919470845
 20
242.3988957526564
 30
0.0
 10
85.27059608203523
 20
242.4421233028641
 30
0.0
 10
85.49512781695502
 20
242.4768580451894
 30
0.0
 10
85.75440665055619
 20
242.5009849964563
 30
0.0
 10
86.04300814559996
 20
242.513035873556
 30
0.0
 10
86.35662644209373
 20
242.5128022241664
 30
0.0
 10
86.69172730797847
 20
242.5002983736814
 30
0.0
 10
87.04647950119248
 20
242.4752319741085
 30
0.0
 10
87.41121525608804
 20
242.4380053681179
 30
0.0
 10
87.78682504891354
 20
242.3885959034014
 30
0.0
 10
88.01276127624507
 20
242.3505217113403
 30
0.0
 10
88.14370465850288
 20
242.3281790457547
 30
0.0
  0
ARC
  5
164
330
75
100
AcDbEntity
  8
4240225_STRAHLBI
  6
Continuous
 62
     7
100
AcDbCircle
 10
90.1775864992
 20
235.8962877227
 30
0.0
 40
4.114794152885067
100
AcDbArc
 50
58.4338685632
 51
77.5319146013
  0
SPLINE
  5
165
330
75
100
AcDbEntity
  8
4240225_STRAHLBI
  6
Continuous
 62
     7
100
AcDbSpline
210
0.0
220
0.0
230
1.0
 70
     8
 71
     3
 72
    15
 73
    11
 74
     0
 42
0.000000007744671
 43
0.0000000001
 40
0.0551278545688483
 40
0.0551278545688483
 40
0.0551278545688483
 40
0.0551278545688483
 40
0.1551697214444159
 40
0.2660183673761206
 40
0.3796908341028882
 40
0.4996785394446108
 40
0.6238183123877347
 40
0.7509419014448524
 40
0.8823189294637713
 40
1.0
 40
1.0
 40
1.0
 40
1.0
 10
86.21343827232957
 20
240.2337089404574
 30
0.0
 10
86.21336549872366
 20
240.2321553256837
 30
0.0
 10
86.221707763243
 20
240.2447361348211
 30
0.0
 10
86.27231701283836
 20
240.2742187823816
 30
0.0
 10
86.36598465046535
 20
240.3105814145761
 30
0.0
 10
86.50094498716581
 20
240.3452003816823
 30
0.0
 10
86.67834408617341
 20
240.3752174076253
 30
0.0
 10
86.89358484166014
 20
240.3980195801421
 30
0.0
 10
87.13993727000752
 20
240.4127334035361
 30
0.0
 10
87.30753033229745
 20
240.4147570923237
 30
0.0
 10
87.40176266399463
 20
240.4156855393624
 30
0.0
  0
SPLINE
  5
166
330
75
100
AcDbEntity
  8
4240225_STRAHLBI
  6
Continuous
 62
     7
100
AcDbSpline
210
0.0
220
0.0
230
1.0
 70
     8
 71
     3
 72
    10
 73
     6
 74
     0
 42
0.000000076987047
 43
0.0000000001
 40
0.0
 40
0.0
 40
0.0
 40
0.0
 40
0.2269149615217764
 40
0.6048047319382761
 40
0.803550735533203
 40
0.803550735533203
 40
0.803550735533203
 40
0.803550735533203
 10
92.33160858491915
 20
239.4022426247155
 30
0.0
 10
92.3462772287598
 20
239.3897581277885
 30
0.0
 10
92.37851793108001
 20
239.3623062459275
 30
0.0
 10
92.40036211501052
 20
239.3348436654106
 30
0.0
 10
92.40141521418496
 20
239.3274766588748
 30
0.0
 10
92.40134922924969
 20
239.3272507894874
 30
0.0
  0
LINE
  5
167
330
75
100
AcDbEntity
  8
4240225_STRAHLBI
  6
Continuous
 62
     7
100
AcDbLine
 10
95.8858794009
 20
238.064561406
 30
0.0
 11
95.9917853535
 21
238.0346572897
 31
0.0
  0
SPLINE
  5
168
330
75
100
AcDbEntity
  8
4240225_STRAHLBI
  6
Continuous
 62
     7
100
AcDbSpline
210
0.0
220
0.0
230
1.0
 70
     8
 71
     3
 72
    13
 73
     9
 74
     0
 42
0.0000000143875461
 43
0.0000000001
 40
0.1619455627544277
 40
0.1619455627544277
 40
0.1619455627544277
 40
0.1619455627544277
 40
0.2305256113685515
 40
0.3583337529060126
 40
0.5040387540452731
 40
0.6668009307665241
 40
0.84219926616604
 40
1.0
 40
1.0
 40
1.0
 40
1.0
 10
90.37101161232655
 20
238.4580125986348
 30
0.0
 10
90.37101188005869
 20
238.4580929404708
 30
0.0
 10
90.37502244323866
 20
238.4627373501443
 30
0.0
 10
90.40662432874463
 20
238.4785054582789
 30
0.0
 10
90.48031727101638
 20
238.5039937949396
 30
0.0
 10
90.59656953407904
 20
238.5308894656677
 30
0.0
 10
90.75173428253679
 20
238.5558062724779
 30
0.0
 10
90.87029254093643
 20
238.5668996825891
 30
0.0
 10
90.9374381338261
 20
238.5730202486112
 30
0.0
  0
SPLINE
  5
169
330
75
100
AcDbEntity
  8
4240225_STRAHLBI
  6
Continuous
 62
     7
100
AcDbSpline
210
0.0
220
0.0
230
1.0
 70
     8
 71
     3
 72
    13
 73
     9
 74
     0
 42
0.000000013433437
 43
0.0000000001
 40
0.0964190665092595
 40
0.0964190665092595
 40
0.0964190665092595
 40
0.0964190665092595
 40
0.2570013732643988
 40
0.4237981256788698
 40
0.5874994730295166
 40
0.7221770670372935
 40
0.8412979267864579
 40
0.8531740671979866
 40
0.8531740671979866
 40
0.8531740671979866
 40
0.8531740671979866
 10
96.11590390718271
 20
237.9968809147227
 30
0.0
 10
96.18010636390494
 20
237.9765354069173
 30
0.0
 10
96.30622877501189
 20
237.9330132759039
 30
0.0
 10
96.45346430644875
 20
237.8721300102437
 30
0.0
 10
96.55596054476628
 20
237.8189807592155
 30
0.0
 10
96.61115285675909
 20
237.7799048973833
 30
0.0
 10
96.6247217601723
 20
237.76689665164
 30
0.0
 10
96.6244338768009
 20
237.765664848321
 30
0.0
 10
96.62435921499771
 20
237.7656038052081
 30
0.0
  0
SPLINE
  5
16A
330
75
100
AcDbEntity
  8
4240225_STRAHLBI
  6
Continuous
 62
     7
100
AcDbSpline
210
0.0
220
0.0
230
1.0
 70
     8
 71
     3
 72
    12
 73
     8
 74
     0
 42
0.0000000273048681
 43
0.0000000001
 40
0.2657850212247889
 40
0.2657850212247889
 40
0.2657850212247889
 40
0.2657850212247889
 40
0.2794261715500894
 40
0.4373534978892908
 40
0.6240211673750369
 40
0.838572875183171
 40
1.0
 40
1.0
 40
1.0
 40
1.0
 10
96.62167138619841
 20
237.1835782891548
 30
0.0
 10
96.6216384262985
 20
237.183618701419
 30
0.0
 10
96.62171486148662
 20
237.1844055008897
 30
0.0
 10
96.63545935068899
 20
237.1917472273695
 30
0.0
 10
96.68772928430292
 20
237.2114465076544
 30
0.0
 10
96.77042664202865
 20
237.233412266327
 30
0.0
 10
96.84272516873659
 20
237.2457139208076
 30
0.0
 10
96.87991084041852
 20
237.2519736968831
 30
0.0
  0
SPLINE
  5
16B
330
75
100
AcDbEntity
  8
4240225_STRAHLBI
  6
Continuous
 62
     7
100
AcDbSpline
210
0.0
220
0.0
230
1.0
 70
     8
 71
     3
 72
    12
 73
     8
 74
     0
 42
0.0000000234218501
 43
0.0000000001
 40
0.0
 40
0.0
 40
0.0
 40
0.0
 40
0.1733421129572783
 40
0.377505360566427
 40
0.5644630003456511
 40
0.725369439700355
 40
0.745319303594116
 40
0.745319303594116
 40
0.745319303594116
 40
0.745319303594116
 10
117.4444402551834
 20
237.2589653619284
 30
0.0
 10
117.4904682877832
 20
237.2520213706983
 30
0.0
 10
117.5740048671992
 20
237.2392734301116
 30
0.0
 10
117.6719267286917
 20
237.2157223468793
 30
0.0
 10
117.7341859153004
 20
237.1947620400007
 30
0.0
 10
117.7506939593116
 20
237.1848623618617
 30
0.0
 10
117.7520775778558
 20
237.1844599761847
 30
0.0
 10
117.7521411371021
 20
237.1844779979176
 30
0.0
  0
ARC
  5
16C
330
75
100
AcDbEntity
  8
4240225_STRAHLBI
  6
Continuous
 62
     7
100
AcDbCircle
 10
120.7447435528
 20
229.8556703215
 30
0.0
 40
8.5133375384296
100
AcDbArc
 50
102.9871137942
 51
105.4368937566
  0
SPLINE
  5
16D
330
75
100
AcDbEntity
  8
4240225_STRAHLBI
  6
Continuous
 62
     7
100
AcDbSpline
210
0.0
220
0.0
230
1.0
 70
     8
 71
     3
 72
    14
 73
    10
 74
     0
 42
0.0000000108944811
 43
0.0000000001
 40
0.1342511436534131
 40
0.1342511436534131
 40
0.1342511436534131
 40
0.1342511436534131
 40
0.1738830555318668
 40
0.2805833838560121
 40
0.4029283883930808
 40
0.540713014133955
 40
0.6904964419534927
 40
0.8479662922549471
 40
1.0
 40
1.0
 40
1.0
 40
1.0
 10
117.7481341285602
 20
237.766056315751
 30
0.0
 10
117.7479161217884
 20
237.7662525333582
 30
0.0
 10
117.7489128974697
 20
237.7699209284896
 30
0.0
 10
117.7700425398309
 20
237.7876743141789
 30
0.0
 10
117.8288448278513
 20
237.8260655541251
 30
0.0
 10
117.9291876486459
 20
237.8761932447481
 30
0.0
 10
118.0724894476751
 20
237.9346911210605
 30
0.0
 10
118.2586861209865
 20
237.9989351627603
 30
0.0
 10
118.3972864180162
 20
238.0387207726551
 30
0.0
 10
118.4786900959608
 20
238.0618824668455
 30
0.0
  0
SPLINE
  5
16E
330
75
100
AcDbEntity
  8
4240225_STRAHLBI
  6
Continuous
 62
     7
100
AcDbSpline
210
0.0
220
0.0
230
1.0
 70
     8
 71
     3
 72
    13
 73
     9
 74
     0
 42
0.0000000135402012
 43
0.0000000001
 40
0.0
 40
0.0
 40
0.0
 40
0.0
 40
0.154204017966957
 40
0.3295087241106871
 40
0.5035433187440554
 40
0.6515286543322327
 40
0.7836606090979259
 40
0.8441118327553456
 40
0.8441118327553456
 40
0.8441118327553456
 40
0.8441118327553456
 10
123.3936500888383
 20
238.5767339338108
 30
0.0
 10
123.4642069408099
 20
238.5709488398166
 30
0.0
 10
123.5903670958172
 20
238.5603004939129
 30
0.0
 10
123.7595376961401
 20
238.5346637468041
 30
0.0
 10
123.8861838969967
 20
238.5059809728199
 30
0.0
 10
123.9655730885098
 20
238.4781499574046
 30
0.0
 10
123.996725475956
 20
238.4621491254619
 30
0.0
 10
124.0002283238245
 20
238.4575730807396
 30
0.0
 10
124.0002086660212
 20
238.4574313028714
 30
0.0
  0
SPLINE
  5
16F
330
75
100
AcDbEntity
  8
4240225_STRAHLBI
  6
Continuous
 62
     7
100
AcDbSpline
210
0.0
220
0.0
230
1.0
 70
     8
 71
     3
 72
    12
 73
     8
 74
     0
 42
0.0000000246428493
 43
0.0000000001
 40
0.1080218478881365
 40
0.1080218478881365
 40
0.1080218478881365
 40
0.1080218478881365
 40
0.2531720926226489
 40
0.460707294628875
 40
0.6710451517339395
 40
0.8928468330577436
 40
1.0
 40
1.0
 40
1.0
 40
1.0
 10
121.9712514547625
 20
239.3251671054601
 30
0.0
 10
121.9714828860785
 20
239.3248796257094
 30
0.0
 10
121.9736026256945
 20
239.3353322162871
 30
0.0
 10
122.0045480103605
 20
239.3713869639272
 30
0.0
 10
122.0751708181249
 20
239.4302366198092
 30
0.0
 10
122.1677728125623
 20
239.4889651533475
 30
0.0
 10
122.232582405503
 20
239.5234728427208
 30
0.0
 10
122.2576940616245
 20
239.5367526090752
 30
0.0
  0
SPLINE
  5
170
330
75
100
AcDbEntity
  8
4240225_STRAHLBI
  6
Continuous
 62
     7
100
AcDbSpline
210
0.0
220
0.0
230
1.0
 70
     8
 71
     3
 72
    15
 73
    11
 74
     0
 42
0.0000000075462572
 43
0.0000000001
 40
0.0
 40
0.0
 40
0.0
 40
0.0
 40
0.0871877605720414
 40
0.2194959568550152
 40
0.3523394662341785
 40
0.4840033222527035
 40
0.6126803146838515
 40
0.7222921163121369
 40
0.8385153585900132
 40
0.9412844227524974
 40
0.9412844227524974
 40
0.9412844227524974
 40
0.9412844227524974
 10
126.9437746562482
 20
240.4156355641943
 30
0.0
 10
127.0159895805375
 20
240.4155511747627
 30
0.0
 10
127.1695725320907
 20
240.4151146987945
 30
0.0
 10
127.4101466561065
 20
240.4031003260499
 30
0.0
 10
127.6442885390288
 20
240.3813779345651
 30
0.0
 10
127.8423945049016
 20
240.3506774479432
 30
0.0
 10
127.9910094079808
 20
240.3151292940236
 30
0.0
 10
128.0947731980144
 20
240.2774526806623
 30
0.0
 10
128.1507312889632
 20
240.2464096779272
 30
0.0
 10
128.1601043105042
 20
240.2328131103068
 30
0.0
 10
128.1601545575115
 20
240.2341685786431
 30
0.0
  0
ARC
  5
171
330
75
100
AcDbEntity
  8
4240225_STRAHLBI
  6
Continuous
 62
     7
100
AcDbCircle
 10
124.616612668
 20
234.5978362045
 30
0.0
 40
5.473334654767245
100
AcDbArc
 50
104.5241922859
 51
115.5300112168
  0
SPLINE
  5
172
330
75
100
AcDbEntity
  8
4240225_STRAHLBI
  6
Continuous
 62
     7
100
AcDbSpline
210
0.0
220
0.0
230
1.0
 70
     8
 71
     3
 72
    20
 73
    16
 74
     0
 42
0.0000000033154534
 43
0.0000000001
 40
0.0
 40
0.0
 40
0.0
 40
0.0
 40
0.0801644275322748
 40
0.1604208612661802
 40
0.2416389101448745
 40
0.3237374475108529
 40
0.4061986630697381
 40
0.4882042740708235
 40
0.5691390051106888
 40
0.6483493887357183
 40
0.7261085749086728
 40
0.8029260208865638
 40
0.878168355228913
 40
0.9516829157044281
 40
1.0
 40
1.0
 40
1.0
 40
1.0
 10
126.6599277099855
 20
242.3971676604993
 30
0.0
 10
126.7926595398688
 20
242.4152010021405
 30
0.0
 10
127.0168477520478
 20
242.4451827714124
 30
0.0
 10
127.3812663264985
 20
242.4801961482192
 30
0.0
 10
127.728634778494
 20
242.5028619129832
 30
0.0
 10
128.0658274791829
 20
242.51338078885
 30
0.0
 10
128.3830203926706
 20
242.5112681518716
 30
0.0
 10
128.673891084024
 20
242.4966410517813
 30
0.0
 10
128.9315295768729
 20
242.470155874607
 30
0.0
 10
129.1509017733394
 20
242.4329265752225
 30
0.0
 10
129.33043191448
 20
242.3871346752276
 30
0.0
 10
129.4681315941242
 20
242.3353467812306
 30
0.0
 10
129.5604672330331
 20
242.2839192200164
 30
0.0
 10
129.6049488346295
 20
242.2423539623848
 30
0.0
 10
129.6102151021605
 20
242.2328861961705
 30
0.0
 10
129.6120919424995
 20
242.2285328996223
 30
0.0
  0
SPLINE
  5
173
330
75
100
AcDbEntity
  8
4240225_STRAHLBI
  6
Continuous
 62
     7
100
AcDbSpline
210
0.0
220
0.0
230
1.0
 70
     8
 71
     3
 72
    22
 73
    18
 74
     0
 42
0.0000000028824886
 43
0.0000000001
 40
0.0
 40
0.0
 40
0.0
 40
0.0
 40
0.0387527018720712
 40
0.1060763277826681
 40
0.1732483576036247
 40
0.2426302737701476
 40
0.314713066690734
 40
0.388787495784069
 40
0.463961957550696
 40
0.5393850457642864
 40
0.614185713168765
 40
0.689308405569185
 40
0.766063138333976
 40
0.8438129451504557
 40
0.9218112087267168
 40
0.9991347826686423
 40
1.0
 40
1.0
 40
1.0
 40
1.0
 10
123.4533702877703
 20
241.246267725085
 30
0.0
 10
123.456361150876
 20
241.2540507527419
 30
0.0
 10
123.4643147666189
 20
241.272558371974
 30
0.0
 10
123.5037798915609
 20
241.3292429119777
 30
0.0
 10
123.5872654243272
 20
241.4094622460954
 30
0.0
 10
123.7102232089241
 20
241.5011972361912
 30
0.0
 10
123.8735072653968
 20
241.6003983478604
 30
0.0
 10
124.0763940180931
 20
241.7040536982766
 30
0.0
 10
124.3156643202395
 20
241.8086788868593
 30
0.0
 10
124.5863108990645
 20
241.9110652346082
 30
0.0
 10
124.8842197142831
 20
242.0090170753959
 30
0.0
 10
125.2059536011485
 20
242.1018433513904
 30
0.0
 10
125.5491727283925
 20
242.1887017742352
 30
0.0
 10
125.9114405508634
 20
242.2688745324063
 30
0.0
 10
126.2785018379707
 20
242.337666203539
 30
0.0
 10
126.5396032046363
 20
242.3817576937315
 30
0.0
 10
126.6584048037341
 20
242.3969726563634
 30
0.0
 10
126.6599277099855
 20
242.3971676604993
 30
0.0
  0
SPLINE
  5
174
330
75
100
AcDbEntity
  8
4240225_STRAHLBI
  6
Continuous
 62
     7
100
AcDbSpline
210
0.0
220
0.0
230
1.0
 70
     8
 71
     3
 72
    34
 73
    30
 74
     0
 42
0.0000000015142838
 43
0.0000000001
 40
0.0
 40
0.0
 40
0.0
 40
0.0
 40
0.0156498096176296
 40
0.051709266475947
 40
0.0900674655105288
 40
0.127387949335862
 40
0.1646661395332189
 40
0.2018523712488012
 40
0.2396715657601136
 40
0.2785962190755976
 40
0.3182078673760269
 40
0.3580734532557263
 40
0.3976610864967957
 40
0.4366849367853075
 40
0.4754494441003768
 40
0.5148632040649296
 40
0.5547462880054314
 40
0.5948529596679548
 40
0.6348398566036654
 40
0.6744582101424553
 40
0.7134241980702962
 40
0.7521055420286143
 40
0.7909668211473747
 40
0.8297315474587129
 40
0.8681679578110637
 40
0.9060229076677663
 40
0.9431457087428192
 40
0.9796959453239885
 40
1.0
 40
1.0
 40
1.0
 40
1.0
 10
121.978648991391
 20
243.219680466103
 30
0.0
 10
121.9794250161026
 20
243.2277893815285
 30
0.0
 10
121.9822225197578
 20
243.2508927850165
 30
0.0
 10
122.0141882353006
 20
243.3177179901662
 30
0.0
 10
122.0866233915291
 20
243.4127492862464
 30
0.0
 10
122.2025675155542
 20
243.5215124385461
 30
0.0
 10
122.3563433890618
 20
243.6337869929429
 30
0.0
 10
122.548598529072
 20
243.7483239171877
 30
0.0
 10
122.7767078193989
 20
243.8629788529456
 30
0.0
 10
123.039886879804
 20
243.9763063461143
 30
0.0
 10
123.3349497539652
 20
244.0858187935802
 30
0.0
 10
123.6554966218185
 20
244.1883097419665
 30
0.0
 10
123.994246322437
 20
244.2810195114369
 30
0.0
 10
124.3452011983964
 20
244.3619335996235
 30
0.0
 10
124.7054614955298
 20
244.4309764572479
 30
0.0
 10
125.073239916008
 20
244.4880362025432
 30
0.0
 10
125.445258000545
 20
244.5323596950677
 30
0.0
 10
125.8141807992856
 20
244.5628007625821
 30
0.0
 10
126.1723739322665
 20
244.578576553804
 30
0.0
 10
126.5121815075054
 20
244.5793728064389
 30
0.0
 10
126.8282418994993
 20
244.5653722367731
 30
0.0
 10
127.1185687653502
 20
244.5376116045709
 30
0.0
 10
127.380605309184
 20
244.4967811295377
 30
0.0
 10
127.6103102508079
 20
244.4440005894941
 30
0.0
 10
127.8023764138644
 20
244.3815250956161
 30
0.0
 10
127.9530432026203
 20
244.3124055729696
 30
0.0
 10
128.0579114005799
 20
244.2429066680851
 30
0.0
 10
128.113674074639
 20
244.1862791177261
 30
0.0
 10
128.1254441386872
 20
244.1628098465007
 30
0.0
 10
128.1299696470687
 20
244.1529987082042
 30
0.0
  0
SPLINE
  5
175
330
75
100
AcDbEntity
  8
4240225_STRAHLBI
  6
Continuous
 62
     7
100
AcDbSpline
210
0.0
220
0.0
230
1.0
 70
     8
 71
     3
 72
    33
 73
    29
 74
     0
 42
0.0000000014904871
 43
0.0000000001
 40
0.0
 40
0.0
 40
0.0
 40
0.0
 40
0.0324589660945813
 40
0.0684546114757753
 40
0.1066878158722099
 40
0.1450121663923978
 40
0.1838760531017832
 40
0.2231447213551772
 40
0.2624081524198129
 40
0.3012911837086739
 40
0.3399947729269094
 40
0.3795209761337144
 40
0.4196270893411606
 40
0.4600465207855451
 40
0.5004512601489661
 40
0.540571785223636
 40
0.5801068018920023
 40
0.6194880221572997
 40
0.6592106677426137
 40
0.6990914224112371
 40
0.7389480628569365
 40
0.7786044943784711
 40
0.817902493291542
 40
0.8564798952839882
 40
0.8945286895388345
 40
0.9326102145010147
 40
0.9707751949849811
 40
1.0
 40
1.0
 40
1.0
 40
1.0
 10
117.7700252301737
 20
244.9799323179657
 30
0.0
 10
117.776269802645
 20
245.0057245162744
 30
0.0
 10
117.7888992374809
 20
245.0521792718391
 30
0.0
 10
117.849566641814
 20
245.1529175110086
 30
0.0
 10
117.9495535230965
 20
245.2668253794376
 30
0.0
 10
118.0923419817455
 20
245.3899588886643
 30
0.0
 10
118.2736839388688
 20
245.5147278344841
 30
0.0
 10
118.4920944373919
 20
245.6380360732134
 30
0.0
 10
118.7435604109447
 20
245.7560500342122
 30
0.0
 10
119.0240694566248
 20
245.8657766529677
 30
0.0
 10
119.3302749271784
 20
245.9664408783047
 30
0.0
 10
119.6602051617642
 20
246.0573561786738
 30
0.0
 10
120.01130452304
 20
246.1372859659086
 30
0.0
 10
120.3768741777601
 20
246.2041818288084
 30
0.0
 10
120.7495845430524
 20
246.2563599755354
 30
0.0
 10
121.1215856859327
 20
246.2925598510864
 30
0.0
 10
121.4870715684376
 20
246.312303167468
 30
0.0
 10
121.8431115477052
 20
246.3161933615304
 30
0.0
 10
122.1871790024211
 20
246.3042976290828
 30
0.0
 10
122.5147890532283
 20
246.2767312357483
 30
0.0
 10
122.819718453998
 20
246.2340437917744
 30
0.0
 10
123.0961334888976
 20
246.1773022758451
 30
0.0
 10
123.338412496811
 20
246.1082659825446
 30
0.0
 10
123.5420744551351
 20
246.0294070716768
 30
0.0
 10
123.706472286274
 20
245.9432298209913
 30
0.0
 10
123.8293215191406
 20
245.8543720274537
 30
0.0
 10
123.9091262109091
 20
245.7710413683938
 30
0.0
 10
123.9313732122234
 20
245.7283794437605
 30
0.0
 10
123.9420503667174
 20
245.7065766383144
 30
0.0
  0
SPLINE
  5
176
330
75
100
AcDbEntity
  8
4240225_STRAHLBI
  6
Continuous
 62
     7
100
AcDbSpline
210
0.0
220
0.0
230
1.0
 70
     8
 71
     3
 72
    34
 73
    30
 74
     0
 42
0.0000000014774147
 43
0.0000000001
 40
0.0
 40
0.0
 40
0.0
 40
0.0
 40
0.0054908739531894
 40
0.0445417823525308
 40
0.0818816209709172
 40
0.121425770706101
 40
0.1599719904611066
 40
0.1980342517411822
 40
0.2371529299175497
 40
0.2770380195792764
 40
0.317409314043312
 40
0.3579536722738137
 40
0.3983250225655884
 40
0.438184422627774
 40
0.4779474663850692
 40
0.5181627948666204
 40
0.558634881398075
 40
0.5992381187979097
 40
0.6397933029760038
 40
0.6801853863794265
 40
0.7200068780462038
 40
0.7595721528894434
 40
0.7993200953530859
 40
0.8390212160903832
 40
0.8784428106288177
 40
0.9174329455438616
 40
0.9560854605570595
 40
0.9945786821156337
 40
1.0
 40
1.0
 40
1.0
 40
1.0
 10
111.4914221670842
 20
246.2627496145461
 30
0.0
 10
111.4921844028276
 20
246.2677350803106
 30
0.0
 10
111.4976551680629
 20
246.3025166286694
 30
0.0
 10
111.5388390003269
 20
246.3829209830871
 30
0.0
 10
111.621755025703
 20
246.4985473469261
 30
0.0
 10
111.7469406042977
 20
246.6206945964903
 30
0.0
 10
111.9136006373224
 20
246.7437407472816
 30
0.0
 10
112.1166017665646
 20
246.8633167519225
 30
0.0
 10
112.3548693701433
 20
246.9779913986251
 30
0.0
 10
112.628069169074
 20
247.0862212428125
 30
0.0
 10
112.9314477992474
 20
247.1848869110818
 30
0.0
 10
113.2591843882458
 20
247.2712696058131
 30
0.0
 10
113.6043622967448
 20
247.3430358659673
 30
0.0
 10
113.9611820613348
 20
247.3989233742932
 30
0.0
 10
114.3259991307806
 20
247.4390455034901
 30
0.0
 10
114.6963113824373
 20
247.4630655550368
 30
0.0
 10
115.0678469887338
 20
247.4704717785666
 30
0.0
 10
115.4340143111983
 20
247.460906964545
 30
0.0
 10
115.7884213519119
 20
247.4344224750321
 30
0.0
 10
116.124037167655
 20
247.3916251676991
 30
0.0
 10
116.4354511985359
 20
247.3334624107164
 30
0.0
 10
116.7198502963612
 20
247.2613355244929
 30
0.0
 10
116.9747588904439
 20
247.1765772059622
 30
0.0
 10
117.1963714662335
 20
247.0810670076416
 30
0.0
 10
117.3797764401742
 20
246.9780816857107
 30
0.0
 10
117.5229030457946
 20
246.8710584965449
 30
0.0
 10
117.6200659744317
 20
246.7670357670145
 30
0.0
 10
117.6688536042649
 20
246.6938978369762
 30
0.0
 10
117.6779232686353
 20
246.6611306825176
 30
0.0
 10
117.6792008531173
 20
246.6564265250625
 30
0.0
  0
ELLIPSE
  5
178
330
75
100
AcDbEntity
  8
03916XX2_SCHRAUB
  6
Continuous
 62
     7
100
AcDbEllipse
 10
107.1863739278
 20
238.3617874109
 30
0.0
 11
8.000000000000009
 21
0.0
 31
0.0
210
0.0
220
0.0
230
1.0
 40
0.2588190451
 41
5.932855316704885
 42
6.283185307179586
  0
ELLIPSE
  5
179
330
75
100
AcDbEntity
  8
03916XX2_SCHRAUB
  6
Continuous
 62
     7
100
AcDbEllipse
 10
107.1863739278
 20
238.3617874109
 30
0.0
 11
8.000000000000009
 21
0.0
 31
0.0
210
0.0
220
0.0
230
1.0
 40
0.2588190451
 41
0.0
 42
3.491922644064494
  0
ELLIPSE
  5
17A
330
75
100
AcDbEntity
  8
03916XX2_SCHRAUB
  6
Continuous
 62
     7
100
AcDbEllipse
 10
107.1863739278
 20
240.2936390634
 30
0.0
 11
8.000000000000009
 21
0.0
 31
0.0
210
0.0
220
0.0
230
1.0
 40
0.2588190451
 41
0.0
 42
3.141592653589793
  0
ELLIPSE
  5
17B
330
75
100
AcDbEntity
  8
03916XX2_SCHRAUB
  6
Continuous
 62
     7
100
AcDbEllipse
 10
107.1863739278
 20
236.1396181089
 30
0.0
 11
-3.400000000000003
 21
0.0
 31
0.0
210
0.0
220
0.0
230
1.0
 40
0.2588190451
 41
1.869328527979764
 42
4.413856779199883
  0
ELLIPSE
  5
17C
330
75
100
AcDbEntity
  8
03916XX2_SCHRAUB
  6
Continuous
 62
     7
100
AcDbEllipse
 10
107.1863739278
 20
240.9697871418
 30
0.0
 11
6.000000000000001
 21
0.0
 31
0.0
210
0.0
220
0.0
230
1.0
 40
0.2588190451
 41
-3.995543829355813
 42
-3.883182364989722
  0
ELLIPSE
  5
17D
330
75
100
AcDbEntity
  8
03916XX2_SCHRAUB
  6
Continuous
 62
     7
100
AcDbEllipse
 10
107.1863739278
 20
240.9697871418
 30
0.0
 11
6.000000000000001
 21
0.0
 31
0.0
210
0.0
220
0.0
230
1.0
 40
0.2588190451
 41
0.7415897113999256
 42
0.8539511757660194
  0
ELLIPSE
  5
17E
330
75
100
AcDbEntity
  8
03916XX2_SCHRAUB
  6
Continuous
 62
     7
100
AcDbEllipse
 10
107.1863739278
 20
236.1396181089
 30
0.0
 11
3.399999999999932
 21
0.0
 31
0.0
210
0.0
220
0.0
230
1.0
 40
0.2588190451
 41
1.869328527979779
 42
4.413856779199807
  0
ELLIPSE
  5
17F
330
75
100
AcDbEntity
  8
03916XX2_SCHRAUB
  6
Continuous
 62
     7
100
AcDbEllipse
 10
107.1863739278
 20
237.8782845963
 30
0.0
 11
-3.39999999999986
 21
0.0
 31
0.0
210
0.0
220
0.0
230
1.0
 40
0.2588190451
 41
4.413856779199805
 42
5.010921181569574
  0
LINE
  5
180
330
75
100
AcDbEntity
  8
03916XX2_SCHRAUB
  6
Continuous
 62
     7
100
AcDbLine
 10
106.1863739278
 20
236.9806804538
 30
0.0
 11
106.1863739278
 21
235.298555764
 31
0.0
  0
ELLIPSE
  5
181
330
75
100
AcDbEntity
  8
03916XX2_SCHRAUB
  6
Continuous
 62
     7
100
AcDbEllipse
 10
107.1863739278
 20
237.8782845963
 30
0.0
 11
3.399999999999937
 21
0.0
 31
0.0
210
0.0
220
0.0
230
1.0
 40
0.2588190451
 41
4.413856779199808
 42
5.010921181569572
  0
LINE
  5
182
330
75
100
AcDbEntity
  8
03916XX2_SCHRAUB
  6
Continuous
 62
     7
100
AcDbLine
 10
108.1863739278
 20
235.298555764
 30
0.0
 11
108.1863739278
 21
236.9806804538
 31
0.0
  0
LINE
  5
183
330
75
100
AcDbEntity
  8
03916XX2_SCHRAUB
  6
Continuous
 62
     7
100
AcDbLine
 10
108.1863739278
 20
239.7534466179
 30
0.0
 11
108.1863739278
 21
236.9806804538
 31
0.0
  0
LINE
  5
184
330
75
100
AcDbEntity
  8
03916XX2_SCHRAUB
  6
Continuous
 62
     7
100
AcDbLine
 10
108.1863739278
 20
235.2981003996
 30
0.0
 11
108.1863739278
 21
235.298555764
 31
0.0
  0
ELLIPSE
  5
185
330
75
100
AcDbEntity
  8
03916XX2_SCHRAUB
  6
Continuous
 62
     7
100
AcDbEllipse
 10
107.1863739278
 20
237.8782845963
 30
0.0
 11
7.313756556457484
 21
2.081668171172169E-14
 31
0.0
210
0.0
220
0.0
230
1.0
 40
0.2588190451
 41
4.575230697010237
 42
4.849547263759145
  0
ELLIPSE
  5
186
330
75
100
AcDbEntity
  8
03916XX2_SCHRAUB
  6
Continuous
 62
     7
100
AcDbEllipse
 10
107.1863739278
 20
237.8782845963
 30
0.0
 11
-7.313756556457725
 21
1.318389841742373E-13
 31
0.0
210
0.0
220
0.0
230
1.0
 40
0.2588190451
 41
4.575230697010243
 42
4.84954726375913
  0
LINE
  5
187
330
75
100
AcDbEntity
  8
03916XX2_SCHRAUB
  6
Continuous
 62
     7
100
AcDbLine
 10
106.1863739278
 20
235.298555764
 30
0.0
 11
106.1863739278
 21
235.2981003996
 31
0.0
  0
LINE
  5
188
330
75
100
AcDbEntity
  8
03916XX2_SCHRAUB
  6
Continuous
 62
     7
100
AcDbLine
 10
106.1863739278
 20
236.9806804538
 30
0.0
 11
106.1863739278
 21
239.7534466179
 31
0.0
  0
LINE
  5
189
330
75
100
AcDbEntity
  8
03916XX2_SCHRAUB
  6
Continuous
 62
     7
100
AcDbLine
 10
99.1863739278
 20
240.2936390634
 30
0.0
 11
99.1863739278
 21
238.3617874109
 31
0.0
  0
LINE
  5
18A
330
75
100
AcDbEntity
  8
03916XX2_SCHRAUB
  6
Continuous
 62
     7
100
AcDbLine
 10
115.1863739278
 20
238.3617874109
 30
0.0
 11
115.1863739278
 21
240.2936390634
 31
0.0
  0
LINE
  5
18B
330
75
100
AcDbEntity
  8
03916XX2_SCHRAUB
  6
Continuous
 62
     7
100
AcDbLine
 10
102.2863739278
 20
241.9791949898
 30
0.0
 11
102.2863739278
 21
241.9303498049
 31
0.0
  0
LINE
  5
18C
330
75
100
AcDbEntity
  8
03916XX2_SCHRAUB
  6
Continuous
 62
     7
100
AcDbLine
 10
112.0863739278
 20
241.9303498049
 30
0.0
 11
112.0863739278
 21
241.9791949898
 31
0.0
  0
ARC
  5
18D
330
75
100
AcDbEntity
  8
03916XX2_SCHRAUB
  6
Continuous
 62
     7
100
AcDbCircle
 10
107.1863739278
 20
248.2595817964
 30
0.0
 40
13.0
100
AcDbArc
 50
234.6895932565
 51
265.5882742142
  0
ARC
  5
18E
330
75
100
AcDbEntity
  8
03916XX2_SCHRAUB
  6
Continuous
 62
     7
100
AcDbCircle
 10
107.1863739278
 20
248.2595817964
 30
0.0
 40
13.0
100
AcDbArc
 50
274.4117257858
 51
305.3104067435
  0
ELLIPSE
  5
190
330
75
100
AcDbEntity
  8
03915XX1_SCHRAUB
  6
Continuous
 62
     7
100
AcDbEllipse
 10
107.1863739278
 20
244.1926017143
 30
0.0
 11
5.986651818838309
 21
-2.706168622523819E-13
 31
0.0
210
0.0
220
0.0
230
1.0
 40
0.9659258263
 41
4.544564008301819
 42
4.880213952467636
  0
ELLIPSE
  5
191
330
75
100
AcDbEntity
  8
03915XX1_SCHRAUB
  6
Continuous
 62
     7
100
AcDbEllipse
 10
107.1863739278
 20
244.3996569504
 30
0.0
 11
-5.986651818838315
 21
6.245004513516506E-14
 31
0.0
210
0.0
220
0.0
230
1.0
 40
0.9659258263
 41
1.402971354711995
 42
1.738621298877814
  0
ARC
  5
192
330
75
100
AcDbEntity
  8
03915XX1_SCHRAUB
  6
Continuous
 62
     7
100
AcDbCircle
 10
107.1863739278
 20
244.2961293324
 30
0.0
 40
6.000000000000001
100
AcDbArc
 50
260.4059317731
 51
270.0
  0
ARC
  5
193
330
75
100
AcDbEntity
  8
03915XX1_SCHRAUB
  6
Continuous
 62
     7
100
AcDbCircle
 10
107.1863739278
 20
244.2961293324
 30
0.0
 40
5.999999999999998
100
AcDbArc
 50
270.0
 51
279.5940682269
  0
ENDBLK
  5
195
330
75
100
AcDbEntity
  8
0
100
AcDbBlockEnd
  0
BLOCK
  5
237
330
196
100
AcDbEntity
  8
0
100
AcDbBlockBegin
  2
SE1
 70
     0
 10
0.0
 20
0.0
 30
0.0
  3
SE1
  1

  0
LINE
  5
198
330
196
100
AcDbEntity
  8
00572038_GEHÄUSE
  6
Continuous
 62
     7
100
AcDbLine
 10
163.5617854329
 20
262.5588315052
 30
0.0
 11
163.5617854329
 21
322.2807827247
 31
0.0
  0
LINE
  5
199
330
196
100
AcDbEntity
  8
00572038_GEHÄUSE
  6
Continuous
 62
     7
100
AcDbLine
 10
324.9395191565
 20
273.8412327175
 30
0.0
 11
282.4387827998
 21
262.453194733
 31
0.0
  0
ARC
  5
19A
330
196
100
AcDbEntity
  8
00572038_GEHÄUSE
  6
Continuous
 62
     7
100
AcDbCircle
 10
270.0244148201
 20
262.4198071149
 30
0.0
 40
11.999999999999
100
AcDbArc
 50
15.0
 51
90.0
  0
LINE
  5
19B
330
196
100
AcDbEntity
  8
00572038_GEHÄUSE
  6
Continuous
 62
     7
100
AcDbLine
 10
270.0244148201
 20
274.9899162872
 30
0.0
 11
270.0244148201
 21
316.7629970403
 31
0.0
  0
LINE
  5
19C
330
196
100
AcDbEntity
  8
00572038_GEHÄUSE
  6
Continuous
 62
     7
100
AcDbLine
 10
282.4387827998
 20
262.453194733
 30
0.0
 11
281.6155247356
 21
265.5256356562
 31
0.0
  0
LINE
  5
19D
330
196
100
AcDbEntity
  8
00572038_GEHÄUSE
  6
Continuous
 62
     7
100
AcDbLine
 10
269.9208969993
 20
274.4198071149
 30
0.0
 11
185.5617854329
 21
274.4198071149
 31
0.0
  0
LINE
  5
19E
330
196
100
AcDbEntity
  8
00572038_GEHÄUSE
  6
Continuous
 62
     7
100
AcDbLine
 10
270.0244148201
 20
274.4198071149
 30
0.0
 11
269.9208924083
 21
274.4198071149
 31
0.0
  0
ARC
  5
19F
330
196
100
AcDbEntity
  8
00572038_GEHÄUSE
  6
Continuous
 62
     7
100
AcDbCircle
 10
185.5617854329
 20
262.4198071149
 30
0.0
 40
11.99999999999982
100
AcDbArc
 50
90.0
 51
169.4277403779
  0
SPLINE
  5
1A0
330
196
100
AcDbEntity
  8
00572038_GEHÄUSE
  6
Continuous
 62
     7
100
AcDbSpline
210
0.0
220
0.0
230
1.0
 70
     8
 71
     3
 72
    10
 73
     6
 74
     0
 42
0.0000000167414503
 43
0.0000000001
 40
0.0
 40
0.0
 40
0.0
 40
0.0
 40
0.5
 40
0.5
 40
1.0
 40
1.0
 40
1.0
 40
1.0
 10
269.9208969993401
 20
274.41980711494
 30
0.0
 10
269.9400015825867
 20
274.41980711494
 30
0.0
 10
269.9590990710885
 20
274.4703560341727
 30
0.0
 10
269.9944818342994
 20
274.6651456532601
 30
0.0
 10
270.010753969142
 20
274.8093140153612
 30
0.0
 10
270.0244148201443
 20
274.9899162871808
 30
0.0
  0
LINE
  5
1A1
330
196
100
AcDbEntity
  8
00572038_GEHÄUSE
  6
Continuous
 62
     7
100
AcDbLine
 10
163.5617854329
 20
262.5588315052
 30
0.0
 11
171.904721895
 21
262.9912323922
 31
0.0
  0
LINE
  5
1A2
330
196
100
AcDbEntity
  8
00572038_GEHÄUSE
  6
Continuous
 62
     7
100
AcDbLine
 10
270.0310017138
 20
316.7626556523
 30
0.0
 11
163.5617854329
 21
322.2807827247
 31
0.0
  0
SPLINE
  5
1A3
330
196
100
AcDbEntity
  8
00572038_GEHÄUSE
  6
Continuous
 62
     7
100
AcDbSpline
210
0.0
220
0.0
230
1.0
 70
     8
 71
     3
 72
    40
 73
    36
 74
     0
 42
0.0000000001277879
 43
0.0000000001
 40
0.0
 40
0.0
 40
0.0
 40
0.0
 40
0.0423414050579525
 40
0.0827657284662255
 40
0.1212729702247601
 40
0.1578631303335563
 40
0.1925308724944112
 40
0.2252811346743772
 40
0.2561152119260131
 40
0.2850331608618371
 40
0.3120346360812892
 40
0.3371196755471277
 40
0.3602881352967404
 40
0.3815400316636038
 40
0.4008752936031769
 40
0.4182937641479764
 40
0.4344112553772523
 40
0.4521091043979011
 40
0.4717534042297237
 40
0.4933439570454144
 40
0.5168808471317538
 40
0.5423639278270065
 40
0.5697929435204032
 40
0.5991679437670417
 40
0.6304887688402294
 40
0.6637554844465523
 40
0.6898654872665545
 40
0.7170604421501003
 40
0.7453404429160049
 40
0.7747053097321085
 40
0.8051548756350766
 40
0.8366944222884047
 40
0.8884494783378419
 40
0.9428847055294903
 40
1.0
 40
1.0
 40
1.0
 40
1.0
 10
324.9395191564893
 20
273.8412327175088
 30
0.0
 10
324.6251698253949
 20
275.0144003924782
 30
0.0
 10
324.1076566381563
 20
276.9451966368063
 30
0.0
 10
323.2739713080912
 20
280.0590647279463
 30
0.0
 10
322.4960631889081
 20
282.9536995255208
 30
0.0
 10
321.7617321603787
 20
285.7238030235832
 30
0.0
 10
321.0342602808882
 20
288.3370837433013
 30
0.0
 10
320.1548777711757
 20
290.7463839293976
 30
0.0
 10
319.194974697621
 20
292.9606040018804
 30
0.0
 10
318.1735368027266
 20
294.9806095028775
 30
0.0
 10
317.1188606569692
 20
296.8119291893139
 30
0.0
 10
316.0535445583566
 20
298.4609803274515
 30
0.0
 10
314.9986368603256
 20
299.9356199879072
 30
0.0
 10
313.9732513406205
 20
301.2449217069534
 30
0.0
 10
312.9939605232663
 20
302.3982124668188
 30
0.0
 10
312.0642901923085
 20
303.4167061015102
 30
0.0
 10
311.1316118362664
 20
304.3736041591433
 30
0.0
 10
310.1258910635814
 20
305.3393874143467
 30
0.0
 10
308.9788591022794
 20
306.362722833975
 30
0.0
 10
307.6736856800334
 20
307.43562978169
 30
0.0
 10
306.2006261779663
 20
308.5414857013656
 30
0.0
 10
304.5502602390765
 20
309.6612451738663
 30
0.0
 10
302.7139037496202
 20
310.7733088666642
 30
0.0
 10
300.6838460569679
 20
311.8529952291612
 30
0.0
 10
298.454525629273
 20
312.8734507553606
 30
0.0
 10
296.2446494914
 20
313.7211105283282
 30
0.0
 10
294.0927000410221
 20
314.4064251410105
 30
0.0
 10
292.0336175589035
 20
314.945879695704
 30
0.0
 10
289.8650081778634
 20
315.3885133754219
 30
0.0
 10
287.5908690331813
 20
315.7255744941563
 30
0.0
 10
285.2158203840665
 20
315.9169539497535
 30
0.0
 10
282.2505261620995
 20
316.0662114742959
 30
0.0
 10
278.6841692338224
 20
316.2756081818004
 30
0.0
 10
274.3498188192055
 20
316.5179458957965
 30
0.0
 10
271.6601427888673
 20
316.6705582925044
 30
0.0
 10
270.0244148201443
 20
316.7629970403095
 30
0.0
  0
ARC
  5
1A4
330
196
100
AcDbEntity
  8
00572038_GEHÄUSE
  6
Continuous
 62
     7
100
AcDbCircle
 10
171.8138815914
 20
264.9807735838
 30
0.0
 40
1.984094562503087
100
AcDbArc
 50
272.6129813292
 51
348.0591954068
  0
LINE
  5
1A5
330
196
100
AcDbEntity
  8
09729038_GEH._KO
  6
Continuous
 62
     7
100
AcDbLine
 10
334.4630641946
 20
249.8899886917
 30
0.0
 11
286.1667728756
 21
236.9490364354
 31
0.0
  0
ARC
  5
1A6
330
196
100
AcDbEntity
  8
09729038_GEH._KO
  6
Continuous
 62
     7
100
AcDbCircle
 10
285.2548722483
 20
336.9448785352
 30
0.0
 40
100.0000000000412
100
AcDbArc
 50
268.0185888986
 51
270.5224878143
  0
ARC
  5
1A7
330
196
100
AcDbEntity
  8
09729038_GEH._KO
  6
Continuous
 62
     7
100
AcDbCircle
 10
285.2548722483
 20
336.9448785352
 30
0.0
 40
100.0000000007207
100
AcDbArc
 50
299.4775121872
 51
301.9814111029
  0
ARC
  5
1A8
330
196
100
AcDbEntity
  8
09729038_GEH._KO
  6
Continuous
 62
     7
100
AcDbCircle
 10
337.4248156389
 20
253.3952108762
 30
0.0
 40
1.500000208212851
100
AcDbArc
 50
301.9814171159
 51
35.0000079023
  0
ARC
  5
1A9
330
196
100
AcDbEntity
  8
09729038_GEH._KO
  6
Continuous
 62
     7
100
AcDbCircle
 10
281.8492097929
 20
238.5037721709
 30
0.0
 40
1.500000208212862
100
AcDbArc
 50
174.9999920977
 51
268.0185828841
  0
LINE
  5
1AA
330
196
100
AcDbEntity
  8
09729038_GEH._KO
  6
Continuous
 62
     7
100
AcDbLine
 10
338.6535437572
 20
254.2555758196
 30
0.0
 11
325.1403304287
 21
273.5544444993
 31
0.0
  0
LINE
  5
1AB
330
196
100
AcDbEntity
  8
09729038_GEH._KO
  6
Continuous
 62
     7
100
AcDbLine
 10
282.4082692457
 20
262.1044232144
 30
0.0
 11
280.3549175564
 21
238.6345060092
 31
0.0
  0
ARC
  5
1AC
330
196
100
AcDbEntity
  8
09729038_GEH._KO
  6
Continuous
 62
     7
100
AcDbCircle
 10
324.7307544066
 20
273.2676562812
 30
0.0
 40
0.500000000000311
100
AcDbArc
 50
35.0
 51
105.0
  0
ARC
  5
1AD
330
196
100
AcDbEntity
  8
09729038_GEH._KO
  6
Continuous
 62
     7
100
AcDbCircle
 10
282.9063665948
 20
262.0608453431
 30
0.0
 40
0.5000000000003222
100
AcDbArc
 50
105.0
 51
175.0
  0
ELLIPSE
  5
1AE
330
196
100
AcDbEntity
  8
4240226_STRAHLBI
  6
Continuous
 62
     7
100
AcDbEllipse
 10
323.0937838159
 20
243.0964296917
 30
0.0
 11
-0.9678367706600632
 21
-0.3318059469411341
 31
0.0
210
0.0
220
0.0
230
1.0
 40
0.0136088129
 41
0.003376301567577
 42
3.141592653589793
  0
ELLIPSE
  5
1AF
330
196
100
AcDbEntity
  8
4240226_STRAHLBI
  6
Continuous
 62
     7
100
AcDbEllipse
 10
321.2909355648
 20
242.6133579588
 30
0.0
 11
-0.9712349327634928
 21
-0.3217233383624868
 31
0.0
210
0.0
220
0.0
230
1.0
 40
0.0387546204
 41
0.0
 42
6.283185307179586
  0
ELLIPSE
  5
1B0
330
196
100
AcDbEntity
  8
4240226_STRAHLBI
  6
Continuous
 62
     7
100
AcDbEllipse
 10
321.2909355648
 20
242.6133579588
 30
0.0
 11
-0.427173484366633
 21
-0.1415019938166076
 31
0.0
210
0.0
220
0.0
230
1.0
 40
0.0387546204
 41
0.0
 42
6.283185307179586
  0
ELLIPSE
  5
1B1
330
196
100
AcDbEntity
  8
4240226_STRAHLBI
  6
Continuous
 62
     7
100
AcDbEllipse
 10
313.6072456673
 20
240.5545194558
 30
0.0
 11
-0.984567448081064
 21
-0.2782627198284343
 31
0.0
210
0.0
220
0.0
230
0.9999999999999998
 40
0.0684161227
 41
0.0
 42
6.283185307179586
  0
ELLIPSE
  5
1B2
330
196
100
AcDbEntity
  8
4240226_STRAHLBI
  6
Continuous
 62
     7
100
AcDbEllipse
 10
313.6072456673
 20
240.5545194558
 30
0.0
 11
-0.4330374590152675
 21
-0.1223869236871844
 31
0.0
210
0.0
220
0.0
230
0.9999999999999998
 40
0.0684161227
 41
0.0
 42
6.283185307179586
  0
ELLIPSE
  5
1B3
330
196
100
AcDbEntity
  8
4240226_STRAHLBI
  6
Continuous
 62
     7
100
AcDbEllipse
 10
304.5437154562
 20
238.1259538552
 30
0.0
 11
-0.9978064082256933
 21
-0.2262422877601436
 31
0.0
210
0.0
220
0.0
230
1.0
 40
0.0580003882
 41
0.0
 42
6.283185307179586
  0
ELLIPSE
  5
1B4
330
196
100
AcDbEntity
  8
4240226_STRAHLBI
  6
Continuous
 62
     7
100
AcDbEllipse
 10
304.5437154562
 20
238.1259538552
 30
0.0
 11
-0.4388602857522128
 21
-0.09950703286443208
 31
0.0
210
0.0
220
0.0
230
1.0
 40
0.0580003882
 41
0.0
 42
6.283185307179586
  0
ELLIPSE
  5
1B5
330
196
100
AcDbEntity
  8
4240226_STRAHLBI
  6
Continuous
 62
     7
100
AcDbEllipse
 10
299.4096380063
 20
236.7502819486
 30
0.0
 11
-1.00407420357887
 21
-0.1965660061522684
 31
0.0
210
0.0
220
0.0
230
0.9999999999999998
 40
0.0136088129
 41
0.0
 42
6.283185307179586
  0
ELLIPSE
  5
1B6
330
196
100
AcDbEntity
  8
4240226_STRAHLBI
  6
Continuous
 62
     7
100
AcDbEllipse
 10
299.4096380063
 20
236.7502819486
 30
0.0
 11
-0.4416170193601299
 21
-0.08645465985987477
 31
0.0
210
0.0
220
0.0
230
1.0
 40
0.0136088129
 41
0.0
 42
6.283185307179586
  0
ELLIPSE
  5
1B7
330
196
100
AcDbEntity
  8
4240226_STRAHLBI
  6
Continuous
 62
     7
100
AcDbEllipse
 10
301.2124862574
 20
237.2333536816
 30
0.0
 11
-1.001975793997273
 21
-0.2069968823695049
 31
0.0
210
0.0
220
0.0
230
0.9999999999999999
 40
0.0387546204
 41
0.6159804163921303
 42
3.137234106963631
  0
LINE
  5
1B8
330
196
100
AcDbEntity
  8
4240226_STRAHLBI
  6
Continuous
 62
     7
100
AcDbLine
 10
328.9152913196
 20
245.4295756526
 30
0.0
 11
330.7988909623
 21
246.2291162648
 31
0.0
  0
ELLIPSE
  5
1B9
330
196
100
AcDbEntity
  8
4240226_STRAHLBI
  6
Continuous
 62
     7
100
AcDbEllipse
 10
328.4233199946
 20
245.4451681379
 30
0.0
 11
-0.9459477264795181
 21
-0.3898539467993637
 31
0.0
210
0.0
220
0.0
230
1.0
 40
0.05325924
 41
0.0
 42
6.283185307179586
  0
ELLIPSE
  5
1BA
330
196
100
AcDbEntity
  8
4240226_STRAHLBI
  6
Continuous
 62
     7
100
AcDbEllipse
 10
328.4233199946
 20
245.4451681379
 30
0.0
 11
-0.4160515367783169
 21
-0.1714675442887406
 31
0.0
210
0.0
220
0.0
230
0.9999999999999999
 40
0.05325924
 41
0.0
 42
6.283185307179586
  0
ELLIPSE
  5
1BB
330
196
100
AcDbEntity
  8
4240226_STRAHLBI
  6
Continuous
 62
     7
100
AcDbEllipse
 10
324.3402852152
 20
244.3511222661
 30
0.0
 11
-0.9572406056507499
 21
-0.3612390122345599
 31
0.0
210
0.0
220
0.0
230
0.9999999999999998
 40
0.0984102434
 41
0.0
 42
6.283185307179586
  0
ELLIPSE
  5
1BC
330
196
100
AcDbEntity
  8
4240226_STRAHLBI
  6
Continuous
 62
     7
100
AcDbEllipse
 10
324.3402852152
 20
244.3511222661
 30
0.0
 11
-0.4210184282907314
 21
-0.1588819783348988
 31
0.0
210
0.0
220
0.0
230
1.0
 40
0.0984102434
 41
0.0
 42
6.283185307179586
  0
ELLIPSE
  5
1BD
330
196
100
AcDbEntity
  8
4240226_STRAHLBI
  6
Continuous
 62
     7
100
AcDbEllipse
 10
318.2295918353
 20
242.7137669098
 30
0.0
 11
-0.9726238875212567
 21
-0.3174995661253885
 31
0.0
210
0.0
220
0.0
230
0.9999999999999999
 40
0.1285791795
 41
0.0
 42
6.283185307179586
  0
ELLIPSE
  5
1BE
330
196
100
AcDbEntity
  8
4240226_STRAHLBI
  6
Continuous
 62
     7
100
AcDbEllipse
 10
318.2295918353
 20
242.7137669098
 30
0.0
 11
-0.4277843815075622
 21
-0.1396442728442623
 31
0.0
210
0.0
220
0.0
230
1.0
 40
0.1285791795
 41
0.0
 42
6.283185307179586
  0
ELLIPSE
  5
1BF
330
196
100
AcDbEntity
  8
4240226_STRAHLBI
  6
Continuous
 62
     7
100
AcDbEllipse
 10
311.0215375283
 20
240.7823745792
 30
0.0
 11
-0.9882715633755255
 21
-0.2648065673091295
 31
0.0
210
0.0
220
0.0
230
1.0
 40
0.139173101
 41
0.0
 42
6.283185307179586
  0
ELLIPSE
  5
1C0
330
196
100
AcDbEntity
  8
4240226_STRAHLBI
  6
Continuous
 62
     7
100
AcDbEllipse
 10
311.0215375283
 20
240.7823745792
 30
0.0
 11
-0.4346666218300599
 21
-0.1164685702961313
 31
0.0
210
0.0
220
0.0
230
1.0
 40
0.139173101
 41
0.0
 42
6.283185307179586
  0
ELLIPSE
  5
1C1
330
196
100
AcDbEntity
  8
4240226_STRAHLBI
  6
Continuous
 62
     7
100
AcDbEllipse
 10
303.8134832213
 20
238.8509822486
 30
0.0
 11
-1.0010667779837
 21
-0.2113492538055179
 31
0.0
210
0.0
220
0.0
230
1.0
 40
0.1285791795
 41
0.0
 42
6.283185307179586
  0
ELLIPSE
  5
1C2
330
196
100
AcDbEntity
  8
4240226_STRAHLBI
  6
Continuous
 62
     7
100
AcDbEllipse
 10
303.8134832213
 20
238.8509822486
 30
0.0
 11
-0.440294278149872
 21
-0.09295670297763958
 31
0.0
210
0.0
220
0.0
230
0.9999999999999999
 40
0.1285791795
 41
0.0
 42
6.283185307179586
  0
ELLIPSE
  5
1C3
330
196
100
AcDbEntity
  8
4240226_STRAHLBI
  6
Continuous
 62
     7
100
AcDbEllipse
 10
297.7027898414
 20
237.2136268923
 30
0.0
 11
-1.009614188144798
 21
-0.1657781413922505
 31
0.0
210
0.0
220
0.0
230
0.9999999999999996
 40
0.0984102434
 41
0.0
 42
6.283185307179586
  0
ELLIPSE
  5
1C4
330
196
100
AcDbEntity
  8
4240226_STRAHLBI
  6
Continuous
 62
     7
100
AcDbEllipse
 10
297.7027898414
 20
237.2136268923
 30
0.0
 11
-0.4440536435286191
 21
-0.07291338470381131
 31
0.0
210
0.0
220
0.0
230
0.9999999999999999
 40
0.0984102434
 41
0.0
 42
6.283185307179586
  0
ELLIPSE
  5
1C5
330
196
100
AcDbEntity
  8
4240226_STRAHLBI
  6
Continuous
 62
     7
100
AcDbEllipse
 10
293.6197550621
 20
236.1195810205
 30
0.0
 11
-1.01414173518305
 21
-0.1353504415458895
 31
0.0
210
0.0
220
0.0
230
1.0
 40
0.05325924
 41
0.0
 42
6.283185307179586
  0
ELLIPSE
  5
1C6
330
196
100
AcDbEntity
  8
4240226_STRAHLBI
  6
Continuous
 62
     7
100
AcDbEllipse
 10
293.6197550621
 20
236.1195810205
 30
0.0
 11
-0.4460449722779314
 21
-0.05953051911056911
 31
0.0
210
0.0
220
0.0
230
0.9999999999999999
 40
0.05325924
 41
0.0
 42
6.283185307179586
  0
LINE
  5
1C7
330
196
100
AcDbEntity
  8
4240226_STRAHLBI
  6
Continuous
 62
     7
100
AcDbLine
 10
291.1704761921
 20
235.6107145298
 30
0.0
 11
293.2014916393
 21
235.8600918696
 31
0.0
  0
ARC
  5
1C8
330
196
100
AcDbEntity
  8
4240226_STRAHLBI
  6
Continuous
 62
     7
100
AcDbCircle
 10
319.3140510311
 20
241.3977973511
 30
0.0
 40
3.119382643413014
100
AcDbArc
 50
25.8946292143
 51
27.7338634798
  0
ARC
  5
1C9
330
196
100
AcDbEntity
  8
4240226_STRAHLBI
  6
Continuous
 62
     7
100
AcDbCircle
 10
327.2179823393
 20
244.050386675
 30
0.0
 40
3.216837941909763
100
AcDbArc
 50
178.6168187953
 51
191.125671937
  0
ARC
  5
1CA
330
196
100
AcDbEntity
  8
4240226_STRAHLBI
  6
Continuous
 62
     7
100
AcDbCircle
 10
317.4427067791
 20
240.9101956162
 30
0.0
 40
3.185318169460946
100
AcDbArc
 50
25.6224925103
 51
42.8965693122
  0
ARC
  5
1CB
330
196
100
AcDbEntity
  8
4240226_STRAHLBI
  6
Continuous
 62
     7
100
AcDbCircle
 10
325.3768481761
 20
243.5519207292
 30
0.0
 40
3.167754529446352
100
AcDbArc
 50
172.6384288351
 51
191.2107431351
  0
ARC
  5
1CC
330
196
100
AcDbEntity
  8
4240226_STRAHLBI
  6
Continuous
 62
     7
100
AcDbCircle
 10
309.8057235763
 20
239.0977232069
 30
0.0
 40
3.046939542043661
100
AcDbArc
 50
22.6381239088
 51
43.793982238
  0
ARC
  5
1CD
330
196
100
AcDbEntity
  8
4240226_STRAHLBI
  6
Continuous
 62
     7
100
AcDbCircle
 10
317.7265063787
 20
241.2933444724
 30
0.0
 40
3.163302286934804
100
AcDbArc
 50
167.9626363484
 51
188.3750094397
  0
ARC
  5
1CE
330
196
100
AcDbEntity
  8
4240226_STRAHLBI
  6
Continuous
 62
     7
100
AcDbCircle
 10
300.6634379544
 20
236.8683902598
 30
0.0
 40
3.054713122898844
100
AcDbArc
 50
19.6231012276
 51
34.935568989
  0
ARC
  5
1CF
330
196
100
AcDbEntity
  8
4240226_STRAHLBI
  6
Continuous
 62
     7
100
AcDbCircle
 10
308.7031516273
 20
238.6480430159
 30
0.0
 40
3.170553028232534
100
AcDbArc
 50
166.1852842837
 51
185.3637115898
  0
ARC
  5
1D0
330
196
100
AcDbEntity
  8
4240226_STRAHLBI
  6
Continuous
 62
     7
100
AcDbCircle
 10
295.3702881826
 20
235.5189480908
 30
0.0
 40
3.206450510543573
100
AcDbArc
 50
18.8230893844
 51
31.3967153938
  0
ARC
  5
1D1
330
196
100
AcDbEntity
  8
4240226_STRAHLBI
  6
Continuous
 62
     7
100
AcDbCircle
 10
303.5674100923
 20
237.1688532026
 30
0.0
 40
3.153883210678178
100
AcDbArc
 50
169.0262594571
 51
184.0539976091
  0
ARC
  5
1D2
330
196
100
AcDbEntity
  8
4240226_STRAHLBI
  6
Continuous
 62
     7
100
AcDbCircle
 10
305.3882321037
 20
237.6838921217
 30
0.0
 40
3.176816963221132
100
AcDbArc
 50
173.5665126873
 51
184.4177956963
  0
ARC
  5
1D3
330
196
100
AcDbEntity
  8
4240226_STRAHLBI
  6
Continuous
 62
     7
100
AcDbCircle
 10
322.0577597378
 20
242.5776010007
 30
0.0
 40
3.162375017992942
100
AcDbArc
 50
183.7419096115
 51
186.0724469154
  0
ARC
  5
1D4
330
196
100
AcDbEntity
  8
4240226_STRAHLBI
  6
Continuous
 62
     7
100
AcDbCircle
 10
326.0457437074
 20
243.7009355799
 30
0.0
 40
3.350000000000041
100
AcDbArc
 50
31.0651199499
 51
33.7092021668
  0
ARC
  5
1D5
330
196
100
AcDbEntity
  8
4240226_STRAHLBI
  6
Continuous
 62
     7
100
AcDbCircle
 10
334.0357258353
 20
247.0924817752
 30
0.0
 40
3.349999999999996
100
AcDbArc
 50
180.5169360396
 51
194.9348800501
  0
ARC
  5
1D6
330
196
100
AcDbEntity
  8
4240226_STRAHLBI
  6
Continuous
 62
     7
100
AcDbCircle
 10
324.7803482392
 20
243.538037796
 30
0.0
 40
3.087411890244286
100
AcDbArc
 50
29.3148483266
 51
47.7413289102
  0
ARC
  5
1D7
330
196
100
AcDbEntity
  8
4240226_STRAHLBI
  6
Continuous
 62
     7
100
AcDbCircle
 10
332.3425774568
 20
246.6541452998
 30
0.0
 40
3.077821956826674
100
AcDbArc
 50
176.2233674213
 51
195.4168485069
  0
ARC
  5
1D8
330
196
100
AcDbEntity
  8
4240226_STRAHLBI
  6
Continuous
 62
     7
100
AcDbCircle
 10
320.6990487694
 20
242.5802771736
 30
0.0
 40
3.025972686813536
100
AcDbArc
 50
27.6266790462
 51
49.5976338902
  0
ARC
  5
1D9
330
196
100
AcDbEntity
  8
4240226_STRAHLBI
  6
Continuous
 62
     7
100
AcDbCircle
 10
328.3448119695
 20
245.4204700191
 30
0.0
 40
3.126508895657401
100
AcDbArc
 50
171.2974276511
 51
193.1143158974
  0
ARC
  5
1DA
330
196
100
AcDbEntity
  8
4240226_STRAHLBI
  6
Continuous
 62
     7
100
AcDbCircle
 10
314.4543728262
 20
241.0739133833
 30
0.0
 40
3.091246477870398
100
AcDbArc
 50
25.1805891965
 51
48.8832453774
  0
ARC
  5
1DB
330
196
100
AcDbEntity
  8
4240226_STRAHLBI
  6
Continuous
 62
     7
100
AcDbCircle
 10
322.245541491
 20
243.6160692088
 30
0.0
 40
3.091558097403917
100
AcDbArc
 50
166.9046560519
 51
190.925057057
  0
ARC
  5
1DC
330
196
100
AcDbEntity
  8
4240226_STRAHLBI
  6
Continuous
 62
     7
100
AcDbCircle
 10
307.2690468228
 20
239.3996778673
 30
0.0
 40
2.975334937301279
100
AcDbArc
 50
21.9057452495
 51
47.463142765
  0
ARC
  5
1DD
330
196
100
AcDbEntity
  8
4240226_STRAHLBI
  6
Continuous
 62
     7
100
AcDbCircle
 10
315.065760703
 20
241.4648611996
 30
0.0
 40
3.076913572449262
100
AcDbArc
 50
163.1659795137
 51
187.8397871804
  0
ARC
  5
1DE
330
196
100
AcDbEntity
  8
4240226_STRAHLBI
  6
Continuous
 62
     7
100
AcDbCircle
 10
299.936047389
 20
237.630742633
 30
0.0
 40
3.044839762473063
100
AcDbArc
 50
19.2186044325
 51
43.6217539069
  0
ARC
  5
1DF
330
196
100
AcDbEntity
  8
4240226_STRAHLBI
  6
Continuous
 62
     7
100
AcDbCircle
 10
307.8426874805
 20
239.3088270877
 30
0.0
 40
3.033561909102452
100
AcDbArc
 50
160.6073812155
 51
184.7148141316
  0
ARC
  5
1E0
330
196
100
AcDbEntity
  8
4240226_STRAHLBI
  6
Continuous
 62
     7
100
AcDbCircle
 10
293.6693165266
 20
236.131869248
 30
0.0
 40
3.154889274014349
100
AcDbArc
 50
16.8009650952
 51
38.4688531131
  0
ARC
  5
1E1
330
196
100
AcDbEntity
  8
4240226_STRAHLBI
  6
Continuous
 62
     7
100
AcDbCircle
 10
301.8518828071
 20
237.4971519756
 30
0.0
 40
3.134096023425557
100
AcDbArc
 50
160.9681574165
 51
182.1857634224
  0
ARC
  5
1E2
330
196
100
AcDbEntity
  8
4240226_STRAHLBI
  6
Continuous
 62
     7
100
AcDbCircle
 10
289.5270992156
 20
235.163235898
 30
0.0
 40
3.179964691907456
100
AcDbArc
 50
14.8959441795
 51
33.4601701905
  0
ARC
  5
1E3
330
196
100
AcDbEntity
  8
4240226_STRAHLBI
  6
Continuous
 62
     7
100
AcDbCircle
 10
297.81239947
 20
236.2523927395
 30
0.0
 40
3.177247188663956
100
AcDbArc
 50
162.0689642079
 51
179.9914915861
  0
ARC
  5
1E4
330
196
100
AcDbEntity
  8
4240226_STRAHLBI
  6
Continuous
 62
     7
100
AcDbCircle
 10
287.935612209
 20
234.7399935581
 30
0.0
 40
3.350000000000019
100
AcDbArc
 50
15.0651199499
 51
29.3584990157
  0
ARC
  5
1E5
330
196
100
AcDbEntity
  8
4240226_STRAHLBI
  6
Continuous
 62
     7
100
AcDbCircle
 10
296.5509128052
 20
235.7978194588
 30
0.0
 40
3.350000000000008
100
AcDbArc
 50
176.2907978354
 51
178.9348800501
  0
LINE
  5
1E6
330
196
100
AcDbEntity
  8
4240225_STRAHLBI
  6
Continuous
 62
     7
100
AcDbLine
 10
305.5365603304
 20
238.7888542215
 30
0.0
 11
312.4333540666
 21
240.6368445335
 31
0.0
  0
LINE
  5
1E7
330
196
100
AcDbEntity
  8
4240225_STRAHLBI
  6
Continuous
 62
     7
100
AcDbLine
 10
314.5808108122
 20
241.2122538342
 30
0.0
 11
319.0247892993
 21
242.403014281
 31
0.0
  0
SPLINE
  5
1E8
330
196
100
AcDbEntity
  8
4240225_STRAHLBI
  6
Continuous
 62
     7
100
AcDbSpline
210
0.0
220
0.0
230
1.0
 70
     8
 71
     3
 72
    10
 73
     6
 74
     0
 42
0.0000000006986336
 43
0.0000000001
 40
0.0458815593642121
 40
0.0458815593642121
 40
0.0458815593642121
 40
0.0458815593642121
 40
0.125
 40
0.125
 40
0.1345841301746055
 40
0.1345841301746055
 40
0.1345841301746055
 40
0.1345841301746055
 10
322.2085981413093
 20
243.5319589668022
 30
0.0
 10
322.558606692252
 20
243.6615967912707
 30
0.0
 10
322.91857992892
 20
243.7962896670865
 30
0.0
 10
323.3127278553962
 20
243.9452633739512
 30
0.0
 10
323.3552113124011
 20
243.9613410683142
 30
0.0
 10
323.3975530084742
 20
243.9773854312135
 30
0.0
  0
SPLINE
  5
1E9
330
196
100
AcDbEntity
  8
4240225_STRAHLBI
  6
Continuous
 62
     7
100
AcDbSpline
210
0.0
220
0.0
230
1.0
 70
     8
 71
     3
 72
    10
 73
     6
 74
     0
 42
0.0000000025418479
 43
0.0000000001
 40
0.1742050391265233
 40
0.1742050391265233
 40
0.1742050391265233
 40
0.1742050391265233
 40
0.5
 40
0.5
 40
0.7194179402921468
 40
0.7194179402921468
 40
0.7194179402921468
 40
0.7194179402921468
 10
320.0056773999774
 20
242.7999493884792
 30
0.0
 10
319.3827031610677
 20
242.5909408439893
 30
0.0
 10
318.8295356235272
 20
242.4187445279601
 30
0.0
 10
318.1958999238989
 20
242.2488683703249
 30
0.0
 10
318.0261706212433
 20
242.2142674698781
 30
0.0
 10
317.9469165777893
 20
242.2130060390055
 30
0.0
  0
SPLINE
  5
1EA
330
196
100
AcDbEntity
  8
4240225_STRAHLBI
  6
Continuous
 62
     7
100
AcDbSpline
210
0.0
220
0.0
230
1.0
 70
     8
 71
     3
 72
    14
 73
    10
 74
     0
 42
0.0000000008347564
 43
0.0000000001
 40
0.0
 40
0.0
 40
0.0
 40
0.0
 40
0.125
 40
0.125
 40
0.25
 40
0.25
 40
0.375
 40
0.375
 40
0.4561882507487845
 40
0.4561882507487845
 40
0.4561882507487845
 40
0.4561882507487845
 10
318.0975932139804
 20
242.3708292635177
 30
0.0
 10
318.3020244005074
 20
242.4768469175802
 30
0.0
 10
318.6507480930184
 20
242.6302984574866
 30
0.0
 10
319.5403833617393
 20
242.9908875485633
 30
0.0
 10
320.0866365868383
 20
243.1999099646387
 30
0.0
 10
321.211897847798
 20
243.6100884088433
 30
0.0
 10
321.7903212390047
 20
243.8112033298484
 30
0.0
 10
322.6445344577306
 20
244.0925356024771
 30
0.0
 10
322.9539158940153
 20
244.1898829667372
 30
0.0
 10
323.2176204284436
 20
244.2681380758005
 30
0.0
  0
SPLINE
  5
1EB
330
196
100
AcDbEntity
  8
4240225_STRAHLBI
  6
Continuous
 62
     7
100
AcDbSpline
210
0.0
220
0.0
230
1.0
 70
     8
 71
     3
 72
    10
 73
     6
 74
     0
 42
0.0000000008435928
 43
0.0000000001
 40
0.8075401543068297
 40
0.8075401543068297
 40
0.8075401543068297
 40
0.8075401543068297
 40
0.875
 40
0.875
 40
0.9121258547613112
 40
0.9121258547613112
 40
0.9121258547613112
 40
0.9121258547613112
 10
323.3665806511884
 20
244.0540717500591
 30
0.0
 10
323.1625688952995
 20
243.9670856935999
 30
0.0
 10
322.9253737362184
 20
243.8700526316152
 30
0.0
 10
322.521622157668
 20
243.7105973838088
 30
0.0
 10
322.3713553781505
 20
243.6522432313616
 30
0.0
 10
322.2159200452539
 20
243.5928116712412
 30
0.0
  0
ARC
  5
1EC
330
196
100
AcDbEntity
  8
4240225_STRAHLBI
  6
Continuous
 62
     7
100
AcDbCircle
 10
306.6035201163
 20
265.2245171653
 30
0.0
 40
25.19461416782474
100
AcDbArc
 50
288.4294275439
 51
291.1449575556
  0
ARC
  5
1ED
330
196
100
AcDbEntity
  8
4240225_STRAHLBI
  6
Continuous
 62
     7
100
AcDbCircle
 10
306.6035201163
 20
265.2245171653
 30
0.0
 40
25.19461416782474
100
AcDbArc
 50
278.8550424444
 51
283.2676785288
  0
SPLINE
  5
1EE
330
196
100
AcDbEntity
  8
4240225_STRAHLBI
  6
Continuous
 62
     7
100
AcDbSpline
210
0.0
220
0.0
230
1.0
 70
     8
 71
     3
 72
    16
 73
    12
 74
     0
 42
0.0000000008683569
 43
0.0000000001
 40
0.3569198225498442
 40
0.3569198225498442
 40
0.3569198225498442
 40
0.3569198225498442
 40
0.375
 40
0.375
 40
0.5
 40
0.5
 40
0.625
 40
0.625
 40
0.75
 40
0.75
 40
0.7571175638496
 40
0.7571175638496
 40
0.7571175638496
 40
0.7571175638496
 10
311.9929563481596
 20
241.2031249043417
 30
0.0
 10
312.0681710670424
 20
241.2284586722897
 30
0.0
 10
312.1448739868823
 20
241.2539099066291
 30
0.0
 10
312.7621528219344
 20
241.4557034838986
 30
0.0
 10
313.3619354232664
 20
241.6335075215466
 30
0.0
 10
314.4974927279481
 20
241.9378093917606
 30
0.0
 10
315.039257860677
 20
242.0661618571266
 30
0.0
 10
315.9221766909864
 20
242.2388459161399
 30
0.0
 10
316.2517310963779
 20
242.2809994411921
 30
0.0
 10
316.4418057043085
 20
242.2747159519954
 30
0.0
 10
316.4515532541089
 20
242.2742178276426
 30
0.0
 10
316.4608074715788
 20
242.2735616554344
 30
0.0
  0
SPLINE
  5
1EF
330
196
100
AcDbEntity
  8
4240225_STRAHLBI
  6
Continuous
 62
     7
100
AcDbSpline
210
0.0
220
0.0
230
1.0
 70
     8
 71
     3
 72
    10
 73
     6
 74
     0
 42
0.0000000024899649
 43
0.0000000001
 40
0.0864355734379643
 40
0.0864355734379643
 40
0.0864355734379643
 40
0.0864355734379643
 40
0.5
 40
0.5
 40
0.6267133447063947
 40
0.6267133447063947
 40
0.6267133447063947
 40
0.6267133447063947
 10
307.6015958275312
 20
239.5141263676938
 30
0.0
 10
307.4591514910857
 20
239.4106888506106
 30
0.0
 10
306.9686392666209
 20
239.2406420572899
 30
0.0
 10
306.0304872104583
 20
238.9891718385554
 30
0.0
 10
305.7917677268328
 20
238.9288257448805
 30
0.0
 10
305.5417546708417
 20
238.8687436440625
 30
0.0
  0
SPLINE
  5
1F0
330
196
100
AcDbEntity
  8
4240225_STRAHLBI
  6
Continuous
 62
     7
100
AcDbSpline
210
0.0
220
0.0
230
1.0
 70
     8
 71
     3
 72
     8
 73
     4
 74
     0
 42
0.000000001642118
 43
0.0000000001
 40
0.9885658367666642
 40
0.9885658367666642
 40
0.9885658367666642
 40
0.9885658367666642
 40
1.0
 40
1.0
 40
1.0
 40
1.0
 10
303.2958651034149
 20
238.3984787973749
 30
0.0
 10
303.2729281066611
 20
238.3943940806805
 30
0.0
 10
303.2500711656838
 20
238.3903494583881
 30
0.0
 10
303.2272997159791
 20
238.3863461295144
 30
0.0
  0
SPLINE
  5
1F1
330
196
100
AcDbEntity
  8
4240225_STRAHLBI
  6
Continuous
 62
     7
100
AcDbSpline
210
0.0
220
0.0
230
1.0
 70
     8
 71
     3
 72
    10
 73
     6
 74
     0
 42
0.0000000011328988
 43
0.0000000001
 40
0.0
 40
0.0
 40
0.0
 40
0.0
 40
0.125
 40
0.125
 40
0.2331993724844763
 40
0.2331993724844763
 40
0.2331993724844763
 40
0.2331993724844763
 10
303.2272997159791
 20
238.3863461295144
 30
0.0
 10
302.6712110605908
 20
238.2885831061078
 30
0.0
 10
302.1835188490576
 20
238.217917679989
 30
0.0
 10
301.5076324968355
 20
238.1508135612021
 30
0.0
 10
301.2882669331011
 20
238.1460878598372
 30
0.0
 10
301.1882585814577
 20
238.1681028229686
 30
0.0
  0
SPLINE
  5
1F2
330
196
100
AcDbEntity
  8
4240225_STRAHLBI
  6
Continuous
 62
     7
100
AcDbSpline
210
0.0
220
0.0
230
1.0
 70
     8
 71
     3
 72
    12
 73
     8
 74
     0
 42
0.0000000011844804
 43
0.0000000001
 40
0.3250715092863459
 40
0.3250715092863459
 40
0.3250715092863459
 40
0.3250715092863459
 40
0.375
 40
0.375
 40
0.5
 40
0.5
 40
0.5185336057094292
 40
0.5185336057094292
 40
0.5185336057094292
 40
0.5185336057094292
 10
301.1931737733663
 20
238.2794406878358
 30
0.0
 10
301.2403651397565
 20
238.3089681332031
 30
0.0
 10
301.3122771559309
 20
238.3432233216516
 30
0.0
 10
301.6483309715313
 20
238.4777638942597
 30
0.0
 10
302.0401240858737
 20
238.5998373168347
 30
0.0
 10
302.592712850079
 20
238.7479203730956
 30
0.0
 10
302.6661057066563
 20
238.7672182245895
 30
0.0
 10
302.7412960638935
 20
238.7866332937937
 30
0.0
  0
SPLINE
  5
1F3
330
196
100
AcDbEntity
  8
4240225_STRAHLBI
  6
Continuous
 62
     7
100
AcDbSpline
210
0.0
220
0.0
230
1.0
 70
     8
 71
     3
 72
    12
 73
     8
 74
     0
 42
0.0000000010022159
 43
0.0000000001
 40
0.6707122763542122
 40
0.6707122763542122
 40
0.6707122763542122
 40
0.6707122763542122
 40
0.75
 40
0.75
 40
0.875
 40
0.875
 40
0.9481776116685329
 40
0.9481776116685329
 40
0.9481776116685329
 40
0.9481776116685329
 10
304.816006142141
 20
239.2544603724971
 30
0.0
 10
305.186365445754
 20
239.3273724178317
 30
0.0
 10
305.5465988683019
 20
239.3927720952461
 30
0.0
 10
306.399655843749
 20
239.5328807357765
 30
0.0
 10
306.8512034969283
 20
239.5911992164721
 30
0.0
 10
307.3406152024998
 20
239.6251854216781
 30
0.0
 10
307.4737957285608
 20
239.6254237354207
 30
0.0
 10
307.5542884453139
 20
239.6134854523601
 30
0.0
  0
SPLINE
  5
1F4
330
196
100
AcDbEntity
  8
4240225_STRAHLBI
  6
Continuous
 62
     7
100
AcDbSpline
210
0.0
220
0.0
230
1.0
 70
     8
 71
     3
 72
    10
 73
     6
 74
     0
 42
0.0000000028380576
 43
0.0000000001
 40
0.4271805780469317
 40
0.4271805780469317
 40
0.4271805780469317
 40
0.4271805780469317
 40
0.5
 40
0.5
 40
1.0
 40
1.0
 40
1.0
 40
1.0
 10
302.5632307442501
 20
238.0637027689755
 30
0.0
 10
302.5561955300178
 20
238.0594801017977
 30
0.0
 10
302.5380843144234
 20
238.0534196983128
 30
0.0
 10
302.3055141785579
 20
237.9910039757966
 30
0.0
 10
301.5694418988425
 20
237.8503703674867
 30
0.0
 10
300.5835443382141
 20
237.6779540110568
 30
0.0
  0
SPLINE
  5
1F5
330
196
100
AcDbEntity
  8
4240225_STRAHLBI
  6
Continuous
 62
     7
100
AcDbSpline
210
0.0
220
0.0
230
1.0
 70
     8
 71
     3
 72
     8
 73
     4
 74
     0
 42
0.0000000007400739
 43
0.0000000001
 40
0.0
 40
0.0
 40
0.0
 40
0.0
 40
0.0093990471297276
 40
0.0093990471297276
 40
0.0093990471297276
 40
0.0093990471297276
 10
300.5835443382141
 20
237.6779540110568
 30
0.0
 10
300.5421450051248
 20
237.670713986885
 30
0.0
 10
300.5004298493486
 20
237.6634389275925
 30
0.0
 10
300.4584313124244
 20
237.6561342625195
 30
0.0
  0
SPLINE
  5
1F6
330
196
100
AcDbEntity
  8
4240225_STRAHLBI
  6
Continuous
 62
     7
100
AcDbSpline
210
0.0
220
0.0
230
1.0
 70
     8
 71
     3
 72
    10
 73
     6
 74
     0
 42
0.0000000020142334
 43
0.0000000001
 40
0.304407760868768
 40
0.304407760868768
 40
0.304407760868768
 40
0.304407760868768
 40
0.375
 40
0.375
 40
0.4417992166383378
 40
0.4417992166383378
 40
0.4417992166383378
 40
0.4417992166383378
 10
296.6830350328079
 20
237.0490445907209
 30
0.0
 10
296.4787480620543
 20
237.0203002717131
 30
0.0
 10
296.3146231216302
 20
236.9988498792523
 30
0.0
 10
296.090038690843
 20
236.9736198776184
 30
0.0
 10
296.0254314638927
 20
236.9691009329152
 30
0.0
 10
296.0061530275345
 20
236.972166631711
 30
0.0
  0
SPLINE
  5
1F7
330
196
100
AcDbEntity
  8
4240225_STRAHLBI
  6
Continuous
 62
     7
100
AcDbSpline
210
0.0
220
0.0
230
1.0
 70
     8
 71
     3
 72
    10
 73
     6
 74
     0
 42
0.0000000020555253
 43
0.0000000001
 40
0.4664215689237373
 40
0.4664215689237373
 40
0.4664215689237373
 40
0.4664215689237373
 40
0.5
 40
0.5
 40
0.6043634465070725
 40
0.6043634465070725
 40
0.6043634465070725
 40
0.6043634465070725
 10
296.0033482091707
 20
236.9786400581612
 30
0.0
 10
296.0105059471627
 20
236.9829806583324
 30
0.0
 10
296.0291868404784
 20
236.9892225826322
 30
0.0
 10
296.1536547515917
 20
237.0225903263966
 30
0.0
 10
296.3591764511008
 20
237.0659418878389
 30
0.0
 10
296.6577855171862
 20
237.1234919328807
 30
0.0
  0
SPLINE
  5
1F8
330
196
100
AcDbEntity
  8
4240225_STRAHLBI
  6
Continuous
 62
     7
100
AcDbSpline
210
0.0
220
0.0
230
1.0
 70
     8
 71
     3
 72
    10
 73
     6
 74
     0
 42
0.0000000007553988
 43
0.0000000001
 40
0.7778768261848681
 40
0.7778768261848681
 40
0.7778768261848681
 40
0.7778768261848681
 40
0.875
 40
0.875
 40
1.0
 40
1.0
 40
1.0
 40
1.0
 10
298.7164481345863
 20
237.4909223339947
 30
0.0
 10
299.1711704208066
 20
237.5681291628438
 30
0.0
 10
299.6449391456532
 20
237.6466206357273
 30
0.0
 10
300.6663891342929
 20
237.811427398747
 30
0.0
 10
301.1984761656818
 20
237.8939649780962
 30
0.0
 10
301.6198947595504
 20
237.9556432695295
 30
0.0
  0
LINE
  5
1F9
330
196
100
AcDbEntity
  8
4240225_STRAHLBI
  6
Continuous
 62
     7
100
AcDbLine
 10
326.4939390447
 20
245.1989175993
 30
0.0
 11
327.16212535
 21
245.4943209808
 31
0.0
  0
LINE
  5
1FA
330
196
100
AcDbEntity
  8
4240225_STRAHLBI
  6
Continuous
 62
     7
100
AcDbLine
 10
329.2794039665
 20
246.430364204
 30
0.0
 11
332.5846103529
 21
247.8915871224
 31
0.0
  0
SPLINE
  5
1FB
330
196
100
AcDbEntity
  8
4240225_STRAHLBI
  6
Continuous
 62
     7
100
AcDbSpline
210
0.0
220
0.0
230
1.0
 70
     8
 71
     3
 72
    16
 73
    12
 74
     0
 42
0.0000000006464818
 43
0.0000000001
 40
0.121766217635794
 40
0.121766217635794
 40
0.121766217635794
 40
0.121766217635794
 40
0.125
 40
0.125
 40
0.25
 40
0.25
 40
0.375
 40
0.375
 40
0.5
 40
0.5
 40
0.5348878177208449
 40
0.5348878177208449
 40
0.5348878177208449
 40
0.5348878177208449
 10
325.2400183885599
 20
245.010783354989
 30
0.0
 10
325.2471197071629
 20
245.0151636266913
 30
0.0
 10
325.2544248275353
 20
245.0196258180999
 30
0.0
 10
325.5521821386479
 20
245.1998069132568
 30
0.0
 10
326.1510431520555
 20
245.498750925988
 30
0.0
 10
327.6133188490174
 20
246.1672572688993
 30
0.0
 10
328.4717739043522
 20
246.5349772069696
 30
0.0
 10
329.9782516081651
 20
247.1367414920311
 30
0.0
 10
330.5959049346777
 20
247.3586661744953
 30
0.0
 10
331.0071906119911
 20
247.4689324351423
 30
0.0
 10
331.0733228502544
 20
247.4821975192421
 30
0.0
 10
331.1157435184343
 20
247.4850096036115
 30
0.0
  0
SPLINE
  5
1FC
330
196
100
AcDbEntity
  8
4240225_STRAHLBI
  6
Continuous
 62
     7
100
AcDbSpline
210
0.0
220
0.0
230
1.0
 70
     8
 71
     3
 72
    12
 73
     8
 74
     0
 42
0.0000000007903035
 43
0.0000000001
 40
0.5874326753023008
 40
0.5874326753023008
 40
0.5874326753023008
 40
0.5874326753023008
 40
0.625
 40
0.625
 40
0.75
 40
0.75
 40
0.7539193697467775
 40
0.7539193697467775
 40
0.7539193697467775
 40
0.7539193697467775
 10
331.1457111358556
 20
247.4277510382605
 30
0.0
 10
331.1142342840823
 20
247.3977099920821
 30
0.0
 10
331.0550882000425
 20
247.3561462622807
 30
0.0
 10
330.6788640387284
 20
247.1282712538673
 30
0.0
 10
330.0871607770467
 20
246.8324742280011
 30
0.0
 10
329.3249219843122
 20
246.4839716524905
 30
0.0
 10
329.3016305535274
 20
246.4733474106076
 30
0.0
 10
329.2782282731177
 20
246.4626970715395
 30
0.0
  0
SPLINE
  5
1FD
330
196
100
AcDbEntity
  8
4240225_STRAHLBI
  6
Continuous
 62
     7
100
AcDbSpline
210
0.0
220
0.0
230
1.0
 70
     8
 71
     3
 72
    10
 73
     6
 74
     0
 42
0.0000000006820628
 43
0.0000000001
 40
0.8684787031483565
 40
0.8684787031483565
 40
0.8684787031483565
 40
0.8684787031483565
 40
0.875
 40
0.875
 40
1.0
 40
1.0
 40
1.0
 40
1.0
 10
327.122230043487
 20
245.5385559703284
 30
0.0
 10
327.0827670848987
 20
245.5226597944544
 30
0.0
 10
327.0435811353918
 20
245.5069397289594
 30
0.0
 10
326.2595372680599
 20
245.193734893548
 30
0.0
 10
325.6362678100029
 20
244.9691052846263
 30
0.0
 10
325.3110206696124
 20
244.8819555760181
 30
0.0
  0
SPLINE
  5
1FE
330
196
100
AcDbEntity
  8
4240225_STRAHLBI
  6
Continuous
 62
     7
100
AcDbSpline
210
0.0
220
0.0
230
1.0
 70
     8
 71
     3
 72
    14
 73
    10
 74
     0
 42
0.0000000006347128
 43
0.0000000001
 40
0.1701638889438888
 40
0.1701638889438888
 40
0.1701638889438888
 40
0.1701638889438888
 40
0.2500000000000002
 40
0.2500000000000002
 40
0.3750000000000003
 40
0.3750000000000003
 40
0.5000000000000004
 40
0.5000000000000004
 40
0.5772917969338921
 40
0.5772917969338921
 40
0.5772917969338921
 40
0.5772917969338921
 10
321.0488626822783
 20
244.0153443053776
 30
0.0
 10
321.1774020909519
 20
244.1276390983624
 30
0.0
 10
321.4294843313758
 20
244.2835987743343
 30
0.0
 10
322.3328756454256
 20
244.7523667768185
 30
0.0
 10
323.1231614920343
 20
245.101820830462
 30
0.0
 10
324.7616665452982
 20
245.7389617371876
 30
0.0
 10
325.5767888210786
 20
246.0137980651383
 30
0.0
 10
326.5378366571728
 20
246.2713892532777
 30
0.0
 10
326.8176816169631
 20
246.3244708493184
 30
0.0
 10
326.9849519954732
 20
246.3294693282932
 30
0.0
  0
SPLINE
  5
1FF
330
196
100
AcDbEntity
  8
4240225_STRAHLBI
  6
Continuous
 62
     7
100
AcDbSpline
210
0.0
220
0.0
230
1.0
 70
     8
 71
     3
 72
    10
 73
     6
 74
     0
 42
0.0000000007161598
 43
0.0000000001
 40
0.6696646764910383
 40
0.6696646764910383
 40
0.6696646764910383
 40
0.6696646764910383
 40
0.7500000000000002
 40
0.7500000000000002
 40
0.8187940275685353
 40
0.8187940275685353
 40
0.8187940275685353
 40
0.8187940275685353
 10
327.0693481248676
 20
246.1406109638325
 30
0.0
 10
326.9431137418001
 20
246.0288607736458
 30
0.0
 10
326.6912794671962
 20
245.872570616193
 30
0.0
 10
326.0266484999195
 20
245.5276069262105
 30
0.0
 10
325.6484440967242
 20
245.3500472514524
 30
0.0
 10
325.2352298498921
 20
245.1700092431493
 30
0.0
  0
SPLINE
  5
200
330
196
100
AcDbEntity
  8
4240225_STRAHLBI
  6
Continuous
 62
     7
100
AcDbSpline
210
0.0
220
0.0
230
1.0
 70
     8
 71
     3
 72
     8
 73
     4
 74
     0
 42
0.0000000005675414
 43
0.0000000001
 40
0.9287710151202747
 40
0.9287710151202747
 40
0.9287710151202747
 40
0.9287710151202747
 40
1.0
 40
1.0
 40
1.0
 40
1.0
 10
323.139903039061
 20
244.3531500483297
 30
0.0
 10
322.6979182568288
 20
244.2004882344123
 30
0.0
 10
322.2848107674761
 20
244.0710850766136
 30
0.0
 10
321.9423541438782
 20
243.9793241008778
 30
0.0
  0
SPLINE
  5
201
330
196
100
AcDbEntity
  8
4240225_STRAHLBI
  6
Continuous
 62
     7
100
AcDbSpline
210
0.0
220
0.0
230
1.0
 70
     8
 71
     3
 72
    14
 73
    10
 74
     0
 42
0.0000000006040402
 43
0.0000000001
 40
0.25
 40
0.25
 40
0.25
 40
0.25
 40
0.375
 40
0.375
 40
0.5
 40
0.5
 40
0.625
 40
0.625
 40
0.6250772186755374
 40
0.6250772186755374
 40
0.6250772186755374
 40
0.6250772186755374
 10
315.012394192395
 20
242.6525043078725
 30
0.0
 10
315.2946403090418
 20
242.8664773022942
 30
0.0
 10
315.8912022879236
 20
243.1640232020256
 30
0.0
 10
317.4047472343358
 20
243.7676811490342
 30
0.0
 10
318.291095934359
 20
244.0616025398405
 30
0.0
 10
319.8425908131527
 20
244.4774222138485
 30
0.0
 10
320.5014641080547
 20
244.5966504318764
 30
0.0
 10
320.8505271525644
 20
244.5924186017747
 30
0.0
 10
320.8507425360748
 20
244.5924159427756
 30
0.0
 10
320.8509578027281
 20
244.5924132373814
 30
0.0
  0
SPLINE
  5
202
330
196
100
AcDbEntity
  8
4240225_STRAHLBI
  6
Continuous
 62
     7
100
AcDbSpline
210
0.0
220
0.0
230
1.0
 70
     8
 71
     3
 72
    12
 73
     8
 74
     0
 42
0.0000000006745312
 43
0.0000000001
 40
0.7466403659643636
 40
0.7466403659643636
 40
0.7466403659643636
 40
0.7466403659643636
 40
0.75
 40
0.75
 40
0.875
 40
0.875
 40
0.8833588016290577
 40
0.8833588016290577
 40
0.8833588016290577
 40
0.8833588016290577
 10
320.9790869816404
 20
244.2633696219305
 30
0.0
 10
320.9719003716954
 20
244.2576890404663
 30
0.0
 10
320.9644775076961
 20
244.2519425418754
 30
0.0
 10
320.6718340333189
 20
244.0298939992577
 30
0.0
 10
320.0700071893205
 20
243.7312709277009
 30
0.0
 10
319.2714748857308
 20
243.4127432089398
 30
0.0
 10
319.2208040577266
 20
243.3927927563585
 30
0.0
 10
319.1695855196572
 20
243.3728812787315
 30
0.0
  0
SPLINE
  5
203
330
196
100
AcDbEntity
  8
4240225_STRAHLBI
  6
Continuous
 62
     7
100
AcDbSpline
210
0.0
220
0.0
230
1.0
 70
     8
 71
     3
 72
     8
 73
     4
 74
     0
 42
0.0000000005070437
 43
0.0000000001
 40
0.9903070946130599
 40
0.9903070946130599
 40
0.9903070946130599
 40
0.9903070946130599
 40
1.0
 40
1.0
 40
1.0
 40
1.0
 10
317.0851777243003
 20
242.6788790529048
 30
0.0
 10
317.023177074514
 20
242.6615810745885
 30
0.0
 10
316.9616766085916
 20
242.6447555775379
 30
0.0
 10
316.900788408966
 20
242.6284406336196
 30
0.0
  0
SPLINE
  5
204
330
196
100
AcDbEntity
  8
4240225_STRAHLBI
  6
Continuous
 62
     7
100
AcDbSpline
210
0.0
220
0.0
230
1.0
 70
     8
 71
     3
 72
    10
 73
     6
 74
     0
 42
0.0000000006718325
 43
0.0000000001
 40
0.0523746751949524
 40
0.0523746751949524
 40
0.0523746751949524
 40
0.0523746751949524
 40
0.125
 40
0.125
 40
0.1890981437909804
 40
0.1890981437909804
 40
0.1890981437909804
 40
0.1890981437909804
 10
309.9042779574028
 20
240.7827553413079
 30
0.0
 10
309.4354022831966
 20
240.6833685896104
 30
0.0
 10
308.9995911976875
 20
240.6098279924818
 30
0.0
 10
308.3237902041094
 20
240.5357917024536
 30
0.0
 10
308.0688291691837
 20
240.52833850826
 30
0.0
 10
307.8908717101328
 20
240.5467034389025
 30
0.0
  0
SPLINE
  5
205
330
196
100
AcDbEntity
  8
4240225_STRAHLBI
  6
Continuous
 62
     7
100
AcDbSpline
210
0.0
220
0.0
230
1.0
 70
     8
 71
     3
 72
    14
 73
    10
 74
     0
 42
0.0000000005910429
 43
0.0000000001
 40
0.3259043267812027
 40
0.3259043267812027
 40
0.3259043267812027
 40
0.3259043267812027
 40
0.375
 40
0.375
 40
0.5
 40
0.5
 40
0.625
 40
0.625
 40
0.6831539643488047
 40
0.6831539643488047
 40
0.6831539643488047
 40
0.6831539643488047
 10
307.9030366184852
 20
240.9903574923024
 30
0.0
 10
308.041708357023
 20
241.076039746155
 30
0.0
 10
308.2262451020855
 20
241.1703521602417
 30
0.0
 10
309.0275179497323
 20
241.5230093274143
 30
0.0
 10
309.8480069715512
 20
241.7992836706321
 30
0.0
 10
311.5270920135745
 20
242.2492910258395
 30
0.0
 10
312.3813333191272
 20
242.4208679445481
 30
0.0
 10
313.2869657461205
 20
242.5203744222269
 30
0.0
 10
313.5238507554069
 20
242.5298334182589
 30
0.0
 10
313.69858329094
 20
242.5177968924447
 30
0.0
  0
SPLINE
  5
206
330
196
100
AcDbEntity
  8
4240225_STRAHLBI
  6
Continuous
 62
     7
100
AcDbSpline
210
0.0
220
0.0
230
1.0
 70
     8
 71
     3
 72
    10
 73
     6
 74
     0
 42
0.0000000006841947
 43
0.0000000001
 40
0.8054105736912196
 40
0.8054105736912196
 40
0.8054105736912196
 40
0.8054105736912196
 40
0.875
 40
0.875
 40
0.9472379585981456
 40
0.9472379585981456
 40
0.9472379585981456
 40
0.9472379585981456
 10
313.8873122052856
 20
242.1705383043647
 30
0.0
 10
313.7451735570119
 20
242.059851731521
 30
0.0
 10
313.5076766981151
 20
241.9294544202278
 30
0.0
 10
312.8621844546057
 20
241.6452937635584
 30
0.0
 10
312.4501262882187
 20
241.4917307713621
 30
0.0
 10
311.9968094044872
 20
241.3439271084333
 30
0.0
  0
SPLINE
  5
207
330
196
100
AcDbEntity
  8
4240225_STRAHLBI
  6
Continuous
 62
     7
100
AcDbSpline
210
0.0
220
0.0
230
1.0
 70
     8
 71
     3
 72
    10
 73
     6
 74
     0
 42
0.0000000006663366
 43
0.0000000001
 40
0.1165820059751377
 40
0.1165820059751377
 40
0.1165820059751377
 40
0.1165820059751377
 40
0.125
 40
0.125
 40
0.2495998381967406
 40
0.2495998381967406
 40
0.2495998381967406
 40
0.2495998381967406
 10
302.6730919505094
 20
238.9522901863066
 30
0.0
 10
302.6184260003981
 20
238.9438617830488
 30
0.0
 10
302.5642154352104
 20
238.9357436932896
 30
0.0
 10
301.7159835551576
 20
238.8126034560331
 30
0.0
 10
301.0441018402945
 20
238.7704800648067
 30
0.0
 10
300.6909384979762
 20
238.8137531644848
 30
0.0
  0
SPLINE
  5
208
330
196
100
AcDbEntity
  8
4240225_STRAHLBI
  6
Continuous
 62
     7
100
AcDbSpline
210
0.0
220
0.0
230
1.0
 70
     8
 71
     3
 72
    12
 73
     8
 74
     0
 42
0.0000000005955574
 43
0.0000000001
 40
0.3813349066174802
 40
0.3813349066174802
 40
0.3813349066174802
 40
0.3813349066174802
 40
0.5
 40
0.5
 40
0.625
 40
0.625
 40
0.7449941477175631
 40
0.7449941477175631
 40
0.7449941477175631
 40
0.7449941477175631
 10
300.6513148488722
 20
239.1942895346885
 30
0.0
 10
300.9693254466312
 20
239.3693975091948
 30
0.0
 10
301.5722086168157
 20
239.5817926648528
 30
0.0
 10
303.0839516938856
 20
239.9869583955962
 30
0.0
 10
304.0056919886854
 20
240.1766216139635
 30
0.0
 10
305.5676502116781
 20
240.4036544676208
 30
0.0
 10
306.2176421910665
 20
240.4475854750376
 30
0.0
 10
306.5838568302308
 20
240.4116971079867
 30
0.0
  0
SPLINE
  5
209
330
196
100
AcDbEntity
  8
4240225_STRAHLBI
  6
Continuous
 62
     7
100
AcDbSpline
210
0.0
220
0.0
230
1.0
 70
     8
 71
     3
 72
     8
 73
     4
 74
     0
 42
0.0000000005507632
 43
0.0000000001
 40
0.0155597466483953
 40
0.0155597466483953
 40
0.0155597466483953
 40
0.0155597466483953
 40
0.0712388263625391
 40
0.0712388263625391
 40
0.0712388263625391
 40
0.0712388263625391
 10
299.7300038871939
 20
238.0301826459174
 30
0.0
 10
299.4367703195061
 20
237.9578691769884
 30
0.0
 10
299.1007047617787
 20
237.8850645238821
 30
0.0
 10
298.7422829653166
 20
237.8157405773825
 30
0.0
  0
SPLINE
  5
20A
330
196
100
AcDbEntity
  8
4240225_STRAHLBI
  6
Continuous
 62
     7
100
AcDbSpline
210
0.0
220
0.0
230
1.0
 70
     8
 71
     3
 72
    10
 73
     6
 74
     0
 42
0.0000000007138873
 43
0.0000000001
 40
0.1811741942920709
 40
0.1811741942920709
 40
0.1811741942920709
 40
0.1811741942920709
 40
0.2499999999999998
 40
0.2499999999999998
 40
0.3291749666200519
 40
0.3291749666200519
 40
0.3291749666200519
 40
0.3291749666200519
 10
296.520117929044
 20
237.4756720823335
 30
0.0
 10
296.071352078784
 20
237.424878939729
 30
0.0
 10
295.6546950258082
 20
237.3894505934382
 30
0.0
 10
294.9193186677264
 20
237.3562088714141
 30
0.0
 10
294.6240065801117
 20
237.364448275163
 30
0.0
 10
294.4552353033483
 20
237.3966785132827
 30
0.0
  0
SPLINE
  5
20B
330
196
100
AcDbEntity
  8
4240225_STRAHLBI
  6
Continuous
 62
     7
100
AcDbSpline
210
0.0
220
0.0
230
1.0
 70
     8
 71
     3
 72
    14
 73
    10
 74
     0
 42
0.0000000006247114
 43
0.0000000001
 40
0.4299655292141815
 40
0.4299655292141815
 40
0.4299655292141815
 40
0.4299655292141815
 40
0.4999999999999996
 40
0.4999999999999996
 40
0.6249999999999997
 40
0.6249999999999997
 40
0.7499999999999998
 40
0.7499999999999998
 40
0.8259960145258245
 40
0.8259960145258245
 40
0.8259960145258245
 40
0.8259960145258245
 10
294.4668914145573
 20
237.6272200813545
 30
0.0
 10
294.620660861848
 20
237.7014257370554
 30
0.0
 10
294.8726387551981
 20
237.7866673695246
 30
0.0
 10
295.798561430501
 20
238.0348439579766
 30
0.0
 10
296.6496555839113
 20
238.2055775998103
 30
0.0
 10
298.3660232855975
 20
238.4700716689102
 30
0.0
 10
299.2291489029802
 20
238.5640948663149
 30
0.0
 10
300.2393628036809
 20
238.6098654957981
 30
0.0
 10
300.52607055109
 20
238.6025770507518
 30
0.0
 10
300.6966981990995
 20
238.5733931089993
 30
0.0
  0
SPLINE
  5
20C
330
196
100
AcDbEntity
  8
4240225_STRAHLBI
  6
Continuous
 62
     7
100
AcDbSpline
210
0.0
220
0.0
230
1.0
 70
     8
 71
     3
 72
    10
 73
     6
 74
     0
 42
0.0000000006495025
 43
0.0000000001
 40
0.0155577366699935
 40
0.0155577366699935
 40
0.0155577366699935
 40
0.0155577366699935
 40
0.125
 40
0.125
 40
0.1315707675261419
 40
0.1315707675261419
 40
0.1315707675261419
 40
0.1315707675261419
 10
296.4604744640248
 20
237.1541141996385
 30
0.0
 10
296.107246697423
 20
237.0717666599944
 30
0.0
 10
295.5219461396017
 20
236.9696790304947
 30
0.0
 10
294.7856435719117
 20
236.8632167005233
 30
0.0
 10
294.7435509077832
 20
236.8571946398191
 30
0.0
 10
294.701108341751
 20
236.8511851296273
 30
0.0
  0
SPLINE
  5
20D
330
196
100
AcDbEntity
  8
4240225_STRAHLBI
  6
Continuous
 62
     7
100
AcDbSpline
210
0.0
220
0.0
230
1.0
 70
     8
 71
     3
 72
    12
 73
     8
 74
     0
 42
0.00000000078234
 43
0.0000000001
 40
0.2463160491688977
 40
0.2463160491688977
 40
0.2463160491688977
 40
0.2463160491688977
 40
0.25
 40
0.25
 40
0.375
 40
0.375
 40
0.410584087381179
 40
0.410584087381179
 40
0.410584087381179
 40
0.410584087381179
 10
292.3700685460408
 20
236.5732803478256
 30
0.0
 10
292.3462467266764
 20
236.5709737612769
 30
0.0
 10
292.3225340573699
 20
236.5686973478318
 30
0.0
 10
291.4982861524372
 20
236.4902634232269
 30
0.0
 10
290.8321258962837
 20
236.4494639198158
 30
0.0
 10
290.3908556763981
 20
236.4584758353929
 30
0.0
 10
290.3203347910961
 20
236.4643228705418
 30
0.0
 10
290.2768833389104
 20
236.4736515006971
 30
0.0
  0
SPLINE
  5
20E
330
196
100
AcDbEntity
  8
4240225_STRAHLBI
  6
Continuous
 62
     7
100
AcDbSpline
210
0.0
220
0.0
230
1.0
 70
     8
 71
     3
 72
    16
 73
    12
 74
     0
 42
0.0000000006485157
 43
0.0000000001
 40
0.4631866194368646
 40
0.4631866194368646
 40
0.4631866194368646
 40
0.4631866194368646
 40
0.5
 40
0.5
 40
0.625
 40
0.625
 40
0.75
 40
0.75
 40
0.875
 40
0.875
 40
0.8778938163145553
 40
0.8778938163145553
 40
0.8778938163145553
 40
0.8778938163145553
 10
290.2610278591537
 20
236.5366561036976
 30
0.0
 10
290.2984385714528
 20
236.5561229763442
 30
0.0
 10
290.3645183873172
 20
236.5787331635156
 30
0.0
 10
290.7800558487937
 20
236.6901394401471
 30
0.0
 10
291.4331139647955
 20
236.8078094856848
 30
0.0
 10
293.0181121207141
 20
237.0371031910863
 30
0.0
 10
293.9460750362784
 20
237.1484994901781
 30
0.0
 10
295.5654067826861
 20
237.3026470926198
 30
0.0
 10
296.2271759924317
 20
237.3426035632229
 30
0.0
 10
296.5750439529555
 20
237.3355377593788
 30
0.0
 10
296.5827407555984
 20
237.3353528216475
 30
0.0
 10
296.5902630698765
 20
237.335142986849
 30
0.0
  0
LINE
  5
20F
330
196
100
AcDbEntity
  8
4240225_STRAHLBI
  6
Continuous
 62
     7
100
AcDbLine
 10
288.7927624069
 20
236.1575968302
 30
0.0
 11
292.3893214646
 21
236.5451268971
 31
0.0
  0
LINE
  5
210
330
196
100
AcDbEntity
  8
4240225_STRAHLBI
  6
Continuous
 62
     7
100
AcDbLine
 10
294.6948582294
 20
236.7935490146
 30
0.0
 11
295.4137732476
 21
236.8710122734
 31
0.0
  0
ARC
  5
211
330
196
100
AcDbEntity
  8
4240225_STRAHLBI
  6
Continuous
 62
     7
100
AcDbCircle
 10
278.60958551
 20
361.7454262839
 30
0.0
 40
126.0
100
AcDbArc
 50
295.3595140858
 51
295.6494721888
  0
ARC
  5
212
330
196
100
AcDbEntity
  8
4240225_STRAHLBI
  6
Continuous
 62
     7
100
AcDbCircle
 10
278.60958551
 20
361.7454262839
 30
0.0
 40
126.0
100
AcDbArc
 50
291.752830378
 51
292.335869889
  0
ARC
  5
213
330
196
100
AcDbEntity
  8
4240225_STRAHLBI
  6
Continuous
 62
     7
100
AcDbCircle
 10
278.60958551
 20
361.7454262839
 30
0.0
 40
126.0
100
AcDbArc
 50
288.7086256479
 51
289.1931269969
  0
ARC
  5
214
330
196
100
AcDbEntity
  8
4240225_STRAHLBI
  6
Continuous
 62
     7
100
AcDbCircle
 10
278.60958551
 20
361.7454262839
 30
0.0
 40
126.0
100
AcDbArc
 50
280.4792079551
 51
281.2913743521
  0
ARC
  5
215
330
196
100
AcDbEntity
  8
4240225_STRAHLBI
  6
Continuous
 62
     7
100
AcDbCircle
 10
278.60958551
 20
361.7454262839
 30
0.0
 40
126.0
100
AcDbArc
 50
277.664163532
 51
278.2476375745
  0
ARC
  5
216
330
196
100
AcDbEntity
  8
4240225_STRAHLBI
  6
Continuous
 62
     7
100
AcDbCircle
 10
278.60958551
 20
361.7454262839
 30
0.0
 40
126.0
100
AcDbArc
 50
274.3505278112
 51
274.6404585819
  0
ARC
  5
217
330
196
100
AcDbEntity
  8
4240225_STRAHLBI
  6
Continuous
 62
     7
100
AcDbCircle
 10
288.0918469927
 20
237.1055983108
 30
0.0
 40
1.000000000000018
100
AcDbArc
 50
195.0
 51
274.3505278112
  0
ARC
  5
218
330
196
100
AcDbEntity
  8
4240225_STRAHLBI
  6
Continuous
 62
     7
100
AcDbCircle
 10
332.7176201673
 20
249.0630381945
 30
0.0
 40
1.000000000000025
100
AcDbArc
 50
295.6494721888
 51
15.0
  0
LINE
  5
219
330
196
100
AcDbEntity
  8
4240225_STRAHLBI
  6
Continuous
 62
     7
100
AcDbLine
 10
287.0361061215
 20
237.1819735765
 30
0.0
 11
287.1259211664
 21
236.8467792657
 31
0.0
  0
LINE
  5
21A
330
196
100
AcDbEntity
  8
4240225_STRAHLBI
  6
Continuous
 62
     7
100
AcDbLine
 10
333.6835459936
 20
249.3218572396
 30
0.0
 11
333.5937309487
 21
249.6570515505
 31
0.0
  0
SPLINE
  5
21B
330
196
100
AcDbEntity
  8
4240225_STRAHLBI
  6
Continuous
 62
     7
100
AcDbSpline
210
0.0
220
0.0
230
1.0
 70
     8
 71
     3
 72
    11
 73
     7
 74
     0
 42
0.0000000375756587
 43
0.0000000001
 40
0.3517738549645007
 40
0.3517738549645007
 40
0.3517738549645007
 40
0.3517738549645007
 40
0.434718342443902
 40
0.6474302570240692
 40
0.9239468335748704
 40
1.0
 40
1.0
 40
1.0
 40
1.0
 10
317.9824734127894
 20
242.297925692625
 30
0.0
 10
317.9824419465975
 20
242.2979011460432
 30
0.0
 10
317.9862338427068
 20
242.3014634826297
 30
0.0
 10
318.0177586137302
 20
242.3226397408497
 30
0.0
 10
318.0693315495331
 20
242.3533643918082
 30
0.0
 10
318.1187599564957
 20
242.3780385143115
 30
0.0
 10
318.131301676012
 20
242.3842969791915
 30
0.0
  0
SPLINE
  5
21C
330
196
100
AcDbEntity
  8
4240225_STRAHLBI
  6
Continuous
 62
     7
100
AcDbSpline
210
0.0
220
0.0
230
1.0
 70
     8
 71
     3
 72
     9
 73
     5
 74
     0
 42
0.0000001060122005
 43
0.0000000001
 40
0.0
 40
0.0
 40
0.0
 40
0.0
 40
0.2829620307952372
 40
0.454276107893853
 40
0.454276107893853
 40
0.454276107893853
 40
0.454276107893853
 10
316.3819928192455
 20
242.2632590316347
 30
0.0
 10
316.3981395778127
 20
242.2618057174505
 30
0.0
 10
316.4182880042902
 20
242.2603328528707
 30
0.0
 10
316.4245523046289
 20
242.2593809571958
 30
0.0
 10
316.4244900324283
 20
242.2594603165716
 30
0.0
  0
SPLINE
  5
21D
330
196
100
AcDbEntity
  8
4240225_STRAHLBI
  6
Continuous
 62
     7
100
AcDbSpline
210
0.0
220
0.0
230
1.0
 70
     8
 71
     3
 72
     8
 73
     4
 74
     0
 42
0.0000001863920832
 43
0.0000000001
 40
0.0
 40
0.0
 40
0.0
 40
0.0
 40
0.3437746790949339
 40
0.3437746790949339
 40
0.3437746790949339
 40
0.3437746790949339
 10
307.4772647668833
 20
239.6097673561561
 30
0.0
 10
307.487336145758
 20
239.6072317833317
 30
0.0
 10
307.4942822157225
 20
239.6059529558685
 30
0.0
 10
307.4951982141081
 20
239.606341934654
 30
0.0
  0
SPLINE
  5
21E
330
196
100
AcDbEntity
  8
4240225_STRAHLBI
  6
Continuous
 62
     7
100
AcDbSpline
210
0.0
220
0.0
230
1.0
 70
     8
 71
     3
 72
     9
 73
     5
 74
     0
 42
0.0000001517819638
 43
0.0000000001
 40
0.6597759193240595
 40
0.6597759193240595
 40
0.6597759193240595
 40
0.6597759193240595
 40
0.784667779014491
 40
1.0
 40
1.0
 40
1.0
 40
1.0
 10
301.2474957711678
 20
238.2956335377183
 30
0.0
 10
301.2475582659958
 20
238.2955919877781
 30
0.0
 10
301.2501482461141
 20
238.2972428379322
 30
0.0
 10
301.2592507568029
 20
238.3027762609126
 30
0.0
 10
301.2665406912379
 20
238.3073697646749
 30
0.0
  0
SPLINE
  5
21F
330
196
100
AcDbEntity
  8
4240225_STRAHLBI
  6
Continuous
 62
     7
100
AcDbSpline
210
0.0
220
0.0
230
1.0
 70
     8
 71
     3
 72
    13
 73
     9
 74
     0
 42
0.0000000093312981
 43
0.0000000001
 40
0.0
 40
0.0
 40
0.0
 40
0.0
 40
0.146591201817284
 40
0.3194858552070373
 40
0.493632021443705
 40
0.6644426131230233
 40
0.7922954109207545
 40
0.8459317004285286
 40
0.8459317004285286
 40
0.8459317004285286
 40
0.8459317004285286
 10
301.6094108859749
 20
237.953700885985
 30
0.0
 10
301.7057796987161
 20
237.9677368828395
 30
0.0
 10
301.8819788400499
 20
237.993335614227
 30
0.0
 10
302.1240572680908
 20
238.0264278453334
 30
0.0
 10
302.3206436376116
 20
238.0512278597549
 30
0.0
 10
302.4449358817758
 20
238.0645396649322
 30
0.0
 10
302.498711152237
 20
238.067779126931
 30
0.0
 10
302.5083997293556
 20
238.0681022314387
 30
0.0
 10
302.5083320052169
 20
238.0680714227105
 30
0.0
  0
LINE
  5
220
330
196
100
AcDbEntity
  8
4240225_STRAHLBI
  6
Continuous
 62
     7
100
AcDbLine
 10
301.5627950948
 20
237.9469689444
 30
0.0
 11
301.609410886
 21
237.953700886
 31
0.0
  0
SPLINE
  5
221
330
196
100
AcDbEntity
  8
4240225_STRAHLBI
  6
Continuous
 62
     7
100
AcDbSpline
210
0.0
220
0.0
230
1.0
 70
     8
 71
     3
 72
     8
 73
     4
 74
     0
 42
0.0000005214068239
 43
0.0000000001
 40
0.0
 40
0.0
 40
0.0
 40
0.0
 40
0.1562136195412118
 40
0.1562136195412118
 40
0.1562136195412118
 40
0.1562136195412118
 10
331.0483420331379
 20
247.4678740843065
 30
0.0
 10
331.04991379661
 20
247.4675948735491
 30
0.0
 10
331.0510203872823
 20
247.4674741167792
 30
0.0
 10
331.0513054710893
 20
247.4675022850076
 30
0.0
  0
SPLINE
  5
222
330
196
100
AcDbEntity
  8
4240225_STRAHLBI
  6
Continuous
 62
     7
100
AcDbSpline
210
0.0
220
0.0
230
1.0
 70
     8
 71
     3
 72
     9
 73
     5
 74
     0
 42
0.0000000790519603
 43
0.0000000001
 40
0.0
 40
0.0
 40
0.0
 40
0.0
 40
0.2700066719357874
 40
0.5380127561277057
 40
0.5380127561277057
 40
0.5380127561277057
 40
0.5380127561277057
 10
326.911460655711
 20
246.3129043872678
 30
0.0
 10
326.932643873098
 20
246.3132339676316
 30
0.0
 10
326.966320412831
 20
246.3140052454692
 30
0.0
 10
326.978555952365
 20
246.3121939796378
 30
0.0
 10
326.9778669244596
 20
246.3117529476966
 30
0.0
  0
SPLINE
  5
223
330
196
100
AcDbEntity
  8
4240225_STRAHLBI
  6
Continuous
 62
     7
100
AcDbSpline
210
0.0
220
0.0
230
1.0
 70
     8
 71
     3
 72
    10
 73
     6
 74
     0
 42
0.0000000875272689
 43
0.0000000001
 40
0.4679770678706253
 40
0.4679770678706253
 40
0.4679770678706253
 40
0.4679770678706253
 40
0.6082658629533472
 40
0.9462545876328702
 40
1.0
 40
1.0
 40
1.0
 40
1.0
 10
321.0698045738584
 20
244.0098880883968
 30
0.0
 10
321.0700343686394
 20
244.0099183296864
 30
0.0
 10
321.0745211772039
 20
244.0148373724204
 30
0.0
 10
321.0855833265817
 20
244.0303526834917
 30
0.0
 10
321.1090624178911
 20
244.0490530168907
 30
0.0
 10
321.1128273438986
 20
244.052066941543
 30
0.0
  0
SPLINE
  5
224
330
196
100
AcDbEntity
  8
4240225_STRAHLBI
  6
Continuous
 62
     7
100
AcDbSpline
210
0.0
220
0.0
230
1.0
 70
     8
 71
     3
 72
    10
 73
     6
 74
     0
 42
0.0000000440017083
 43
0.0000000001
 40
0.0
 40
0.0
 40
0.0
 40
0.0
 40
0.2861893668335366
 40
0.5827733668032609
 40
0.702259543401125
 40
0.702259543401125
 40
0.702259543401125
 40
0.702259543401125
 10
320.7776776359772
 20
244.5776557528979
 30
0.0
 10
320.817830136072
 20
244.5763501241556
 30
0.0
 10
320.8844098275147
 20
244.5740413027767
 30
0.0
 10
320.9279586514672
 20
244.564858866341
 30
0.0
 10
320.9334625324638
 20
244.5591490861416
 30
0.0
 10
320.9334552085178
 20
244.5587813122875
 30
0.0
  0
SPLINE
  5
225
330
196
100
AcDbEntity
  8
4240225_STRAHLBI
  6
Continuous
 62
     7
100
AcDbSpline
210
0.0
220
0.0
230
1.0
 70
     8
 71
     3
 72
    10
 73
     6
 74
     0
 42
0.0000000416759573
 43
0.0000000001
 40
0.3026593100932016
 40
0.3026593100932016
 40
0.3026593100932016
 40
0.3026593100932016
 40
0.4805907117252488
 40
0.7555486577866878
 40
1.0
 40
1.0
 40
1.0
 40
1.0
 10
314.9580330979477
 20
242.5704965188822
 30
0.0
 10
314.9583137573455
 20
242.5703694760167
 30
0.0
 10
314.9623565934784
 20
242.5820801693725
 30
0.0
 10
314.9981774000743
 20
242.6206994395051
 30
0.0
 10
315.0493714280969
 20
242.6604716098473
 30
0.0
 10
315.0787317551544
 20
242.6831930048573
 30
0.0
  0
SPLINE
  5
226
330
196
100
AcDbEntity
  8
4240225_STRAHLBI
  6
Continuous
 62
     7
100
AcDbSpline
210
0.0
220
0.0
230
1.0
 70
     8
 71
     3
 72
    10
 73
     6
 74
     0
 42
0.0000000363797407
 43
0.0000000001
 40
0.0
 40
0.0
 40
0.0
 40
0.0
 40
0.2400609000222617
 40
0.528267747356948
 40
0.7410788288894411
 40
0.7410788288894411
 40
0.7410788288894411
 40
0.7410788288894411
 10
313.6269918037864
 20
242.5073670828809
 30
0.0
 10
313.6684828474028
 20
242.5041784259703
 30
0.0
 10
313.7437884794852
 20
242.4982249344642
 30
0.0
 10
313.809214520358
 20
242.4816898396603
 30
0.0
 10
313.8236951145738
 20
242.4708459446561
 30
0.0
 10
313.8238927812278
 20
242.4718042716244
 30
0.0
  0
SPLINE
  5
227
330
196
100
AcDbEntity
  8
4240225_STRAHLBI
  6
Continuous
 62
     7
100
AcDbSpline
210
0.0
220
0.0
230
1.0
 70
     8
 71
     3
 72
    11
 73
     7
 74
     0
 42
0.000000028414202
 43
0.0000000001
 40
0.2244340306772592
 40
0.2244340306772592
 40
0.2244340306772592
 40
0.2244340306772592
 40
0.2980508125780877
 40
0.529798816389708
 40
0.784309780206798
 40
1.0
 40
1.0
 40
1.0
 40
1.0
 10
307.7511191573918
 20
240.8450083864455
 30
0.0
 10
307.7507135482359
 20
240.845279231884
 30
0.0
 10
307.7505396233844
 20
240.8503694397234
 30
0.0
 10
307.7769635215456
 20
240.879217143858
 30
0.0
 10
307.8486030939823
 20
240.9405289016743
 30
0.0
 10
307.9217375466982
 20
240.9862575214012
 30
0.0
 10
307.9621748644557
 20
241.0115593074458
 30
0.0
  0
SPLINE
  5
228
330
196
100
AcDbEntity
  8
4240225_STRAHLBI
  6
Continuous
 62
     7
100
AcDbSpline
210
0.0
220
0.0
230
1.0
 70
     8
 71
     3
 72
    10
 73
     6
 74
     0
 42
0.0000000342668372
 43
0.0000000001
 40
0.0
 40
0.0
 40
0.0
 40
0.0
 40
0.2106089642105809
 40
0.4969508762761
 40
0.733930667607625
 40
0.733930667607625
 40
0.733930667607625
 40
0.733930667607625
 10
306.5136138677632
 20
240.4038345220932
 30
0.0
 10
306.5528150642278
 20
240.400159986152
 30
0.0
 10
306.6298460375461
 20
240.3930914886222
 30
0.0
 10
306.6994459332191
 20
240.3729622950674
 30
0.0
 10
306.7211325026989
 20
240.363911711425
 30
0.0
 10
306.7197680187907
 20
240.3632844245036
 30
0.0
  0
SPLINE
  5
229
330
196
100
AcDbEntity
  8
4240225_STRAHLBI
  6
Continuous
 62
     7
100
AcDbSpline
210
0.0
220
0.0
230
1.0
 70
     8
 71
     3
 72
    11
 73
     7
 74
     0
 42
0.0000000346771186
 43
0.0000000001
 40
0.277020263041711
 40
0.277020263041711
 40
0.277020263041711
 40
0.277020263041711
 40
0.3039040281373406
 40
0.5455942353620208
 40
0.8115014440301745
 40
1.0
 40
1.0
 40
1.0
 40
1.0
 10
300.5482371759055
 20
239.09775227426
 30
0.0
 10
300.5480668793297
 20
239.0978326999296
 30
0.0
 10
300.5472304643918
 20
239.0995772822801
 30
0.0
 10
300.5675956690633
 20
239.1191680841735
 30
0.0
 10
300.6258063669818
 20
239.1643101674272
 30
0.0
 10
300.687017677802
 20
239.1977121341565
 30
0.0
 10
300.7174715749205
 20
239.214370672289
 30
0.0
  0
SPLINE
  5
22A
330
196
100
AcDbEntity
  8
4240225_STRAHLBI
  6
Continuous
 62
     7
100
AcDbSpline
210
0.0
220
0.0
230
1.0
 70
     8
 71
     3
 72
    10
 73
     6
 74
     0
 42
0.0000000660912838
 43
0.0000000001
 40
0.0
 40
0.0
 40
0.0
 40
0.0
 40
0.2581484512021296
 40
0.5618599963815327
 40
0.5637566719241263
 40
0.5637566719241263
 40
0.5637566719241263
 40
0.5637566719241263
 10
300.6249696340986
 20
238.5719148146669
 30
0.0
 10
300.6486216027467
 20
238.567633869895
 30
0.0
 10
300.6899826114771
 20
238.5603677565052
 30
0.0
 10
300.7067604829276
 20
238.5538061883112
 30
0.0
 10
300.7057941981771
 20
238.5530199150831
 30
0.0
 10
300.7057878154681
 20
238.5530151462541
 30
0.0
  0
SPLINE
  5
22B
330
196
100
AcDbEntity
  8
4240225_STRAHLBI
  6
Continuous
 62
     7
100
AcDbSpline
210
0.0
220
0.0
230
1.0
 70
     8
 71
     3
 72
    10
 73
     6
 74
     0
 42
0.0000000575538784
 43
0.0000000001
 40
0.399445914951248
 40
0.399445914951248
 40
0.399445914951248
 40
0.399445914951248
 40
0.4548299471077215
 40
0.7118724980153341
 40
1.0
 40
1.0
 40
1.0
 40
1.0
 10
294.4385562953949
 20
237.5914870512865
 30
0.0
 10
294.4383819312661
 20
237.5916261176436
 30
0.0
 10
294.4389045227243
 20
237.5940162281848
 30
0.0
 10
294.4598280502137
 20
237.6090805053486
 30
0.0
 10
294.5005050575365
 20
237.6300032738751
 30
0.0
 10
294.5273133339292
 20
237.6438039049338
 30
0.0
  0
SPLINE
  5
22C
330
196
100
AcDbEntity
  8
4240225_STRAHLBI
  6
Continuous
 62
     7
100
AcDbSpline
210
0.0
220
0.0
230
1.0
 70
     8
 71
     3
 72
     8
 73
     4
 74
     0
 42
0.0000004772320209
 43
0.0000000001
 40
0.8908891506572483
 40
0.8908891506572483
 40
0.8908891506572483
 40
0.8908891506572483
 40
1.0
 40
1.0
 40
1.0
 40
1.0
 10
290.3323963033804
 20
236.5570428148771
 30
0.0
 10
290.3327843844891
 20
236.5572533039569
 30
0.0
 10
290.3334704931451
 20
236.5576941996787
 30
0.0
 10
290.3343096684268
 20
236.5582901888587
 30
0.0
  0
LINE
  5
22D
330
196
100
AcDbEntity
  8
03916XX2_SCHRAUB
  6
Continuous
 62
     7
100
AcDbLine
 10
303.942725295
 20
236.29123505
 30
0.0
 11
319.3975385156
 21
240.4323397717
 31
0.0
  0
LINE
  5
22E
330
196
100
AcDbEntity
  8
03916XX2_SCHRAUB
  6
Continuous
 62
     7
100
AcDbLine
 10
309.1266729717
 20
235.298555764
 30
0.0
 11
315.4044477787
 21
236.9806804538
 31
0.0
  0
LINE
  5
22F
330
196
100
AcDbEntity
  8
03916XX2_SCHRAUB
  6
Continuous
 62
     7
100
AcDbLine
 10
304.8014861569
 20
236.0031225746
 30
0.0
 11
304.7351397489
 21
235.9853451082
 31
0.0
  0
LINE
  5
230
330
196
100
AcDbEntity
  8
03916XX2_SCHRAUB
  6
Continuous
 62
     7
100
AcDbLine
 10
318.7978860311
 20
239.7534466179
 30
0.0
 11
318.8642324391
 21
239.7712240843
 31
0.0
  0
ARC
  5
231
330
196
100
AcDbEntity
  8
03916XX2_SCHRAUB
  6
Continuous
 62
     7
100
AcDbCircle
 10
309.0180258928
 20
248.2595817964
 30
0.0
 40
12.96148139681572
100
AcDbArc
 50
251.0154546717
 51
270.4802762727
  0
ARC
  5
232
330
196
100
AcDbEntity
  8
03916XX2_SCHRAUB
  6
Continuous
 62
     7
100
AcDbCircle
 10
309.0180258928
 20
248.2595817964
 30
0.0
 40
12.9614813968157
100
AcDbArc
 50
299.5197237273
 51
318.9845453283
  0
LINE
  5
233
330
196
100
AcDbEntity
  8
03916XX2_SCHRAUB
  6
Continuous
 62
     7
100
AcDbLine
 10
303.4563561802
 20
238.1063892976
 30
0.0
 11
303.942725295
 21
236.29123505
 31
0.0
  0
LINE
  5
234
330
196
100
AcDbEntity
  8
03916XX2_SCHRAUB
  6
Continuous
 62
     7
100
AcDbLine
 10
319.3975385156
 20
240.4323397717
 30
0.0
 11
318.8799004254
 21
242.3641914243
 31
0.0
  0
ARC
  5
235
330
196
100
AcDbEntity
  8
03916XX2_SCHRAUB
  6
Continuous
 62
     7
100
AcDbCircle
 10
309.0180258928
 20
248.2595817964
 30
0.0
 40
12.99999999999999
100
AcDbArc
 50
319.235564858
 51
322.9798724449
  0
ARC
  5
236
330
196
100
AcDbEntity
  8
03916XX2_SCHRAUB
  6
Continuous
 62
     7
100
AcDbCircle
 10
309.0180258928
 20
248.2595817964
 30
0.0
 40
13.00000000000001
100
AcDbArc
 50
247.0201275551
 51
250.764435142
  0
ENDBLK
  5
238
330
196
100
AcDbEntity
  8
0
100
AcDbBlockEnd
  0
BLOCK
  5
245
330
239
100
AcDbEntity
  8
0
100
AcDbBlockBegin
  2
SE2
 70
     0
 10
0.0
 20
0.0
 30
0.0
  3
SE2
  1

  0
LINE
  5
23B
330
239
100
AcDbEntity
  8
00572038_GEHÄUSE
  6
Continuous
 62
     7
100
AcDbLine
 10
137.0473495375
 20
208.4882865007
 30
0.0
 11
77.325398318
 21
208.4882865007
 31
0.0
  0
LINE
  5
23C
330
239
100
AcDbEntity
  8
00572038_GEHÄUSE
  6
Continuous
 62
     7
100
AcDbLine
 10
107.1863739278
 20
102.0256571135
 30
0.0
 11
131.5232022129
 21
102.0256571135
 31
0.0
  0
ELLIPSE
  5
23D
330
239
100
AcDbEntity
  8
00572038_GEHÄUSE
  6
Continuous
 62
     7
100
AcDbEllipse
 10
107.1863739278
 20
68.3609209555
 30
0.0
 11
22.00000000000064
 21
2.775557561562891E-14
 31
0.0
210
0.0
220
0.0
230
1.0
 40
0.9659258263
 41
3.305354206809219
 42
4.712388980384686
  0
ELLIPSE
  5
23E
330
239
100
AcDbEntity
  8
00572038_GEHÄUSE
  6
Continuous
 62
     7
100
AcDbEllipse
 10
107.1863739278
 20
68.3609209555
 30
0.0
 11
-22.00000000000067
 21
1.942890293094024E-13
 31
0.0
210
0.0
220
0.0
230
1.0
 40
0.9659258263
 41
1.570796326794901
 42
2.977817505060272
  0
LINE
  5
23F
330
239
100
AcDbEntity
  8
00572038_GEHÄUSE
  6
Continuous
 62
     7
100
AcDbLine
 10
82.8495456427
 20
102.0256571135
 30
0.0
 11
107.1863739278
 21
102.0256571135
 31
0.0
  0
LINE
  5
240
330
239
100
AcDbEntity
  8
00572038_GEHÄUSE
  6
Continuous
 62
     7
100
AcDbLine
 10
77.325398318
 20
208.4882865007
 30
0.0
 11
82.8435253904
 21
102.0190702198
 31
0.0
  0
LINE
  5
241
330
239
100
AcDbEntity
  8
00572038_GEHÄUSE
  6
Continuous
 62
     7
100
AcDbLine
 10
131.5292224651
 20
102.0190702198
 30
0.0
 11
137.0473495375
 21
208.4882865007
 31
0.0
  0
SPLINE
  5
242
330
239
100
AcDbEntity
  8
00572038_GEHÄUSE
  6
Continuous
 62
     7
100
AcDbSpline
210
0.0
220
0.0
230
1.0
 70
     8
 71
     3
 72
    65
 73
    61
 74
     0
 42
0.0000000002684862
 43
0.0000000001
 40
0.0
 40
0.0
 40
0.0
 40
0.0
 40
0.0171317839754358
 40
0.0315657226303082
 40
0.0432906944682651
 40
0.0522977113031274
 40
0.059911172996902
 40
0.0679366027195908
 40
0.0763850355050536
 40
0.085257369977505
 40
0.1052257970338696
 40
0.1259468123820758
 40
0.1460541315864596
 40
0.1720009384621608
 40
0.196896410363316
 40
0.2232266312055075
 40
0.2521080369452801
 40
0.2718139048948625
 40
0.292280191202031
 40
0.3105035724889727
 40
0.3256434127574467
 40
0.3353732106641892
 40
0.3440147379863004
 40
0.3539002942069154
 40
0.3651740602562772
 40
0.3848953231825032
 40
0.4062748624624587
 40
0.4281623776564507
 40
0.4505589708816017
 40
0.4734659141519246
 40
0.4961579530623542
 40
0.5122828414122068
 40
0.5275731344923819
 40
0.5420274292065573
 40
0.5556729583405237
 40
0.5702306731166655
 40
0.586404884000157
 40
0.6044438060148779
 40
0.6225783881143919
 40
0.638659033621553
 40
0.6551104921685887
 40
0.6690291686452479
 40
0.6831179128630247
 40
0.6978850925001806
 40
0.7132329480571205
 40
0.7275462895379358
 40
0.7420806098109518
 40
0.7603585975618061
 40
0.7813975560132581
 40
0.8004720841852878
 40
0.8175348481013667
 40
0.8329730150982783
 40
0.8489125111996538
 40
0.8627982301623762
 40
0.877893435183053
 40
0.8954038739453966
 40
0.9163217843578547
 40
0.9406928365465678
 40
0.9685675542628029
 40
1.0
 40
1.0
 40
1.0
 40
1.0
 10
82.843184002393
 20
102.0256571134616
 30
0.0
 10
82.8584338211909
 20
101.722237886752
 30
0.0
 10
82.8820466612377
 20
101.2523996604492
 30
0.0
 10
82.9176978788242
 20
100.542422511664
 30
0.0
 10
82.94598599341255
 20
99.97876396180489
 30
0.0
 10
82.96890339919008
 20
99.52190943724135
 30
0.0
 10
82.98879691799743
 20
99.12518876075168
 30
0.0
 10
83.00823891211932
 20
98.73733807844152
 30
0.0
 10
83.02868775408052
 20
98.32925236506895
 30
0.0
 10
83.05876108639998
 20
97.72886529094862
 30
0.0
 10
83.09870636283732
 20
96.93088257637588
 30
0.0
 10
83.14766188691472
 20
95.95201598961238
 30
0.0
 10
83.20137913274422
 20
94.8769358393325
 30
0.0
 10
83.25840016883815
 20
93.73477327179162
 30
0.0
 10
83.32034937957002
 20
92.4924561225034
 30
0.0
 10
83.38469444589111
 20
91.20402636035942
 30
0.0
 10
83.44498119768606
 20
90.00158458226144
 30
0.0
 10
83.50069720610925
 20
88.8969630130117
 30
0.0
 10
83.54797537413569
 20
87.96576241779302
 30
0.0
 10
83.59160829441512
 20
87.11305326188348
 30
0.0
 10
83.6265549547919
 20
86.43546158605709
 30
0.0
 10
83.65371891799415
 20
85.91222109848897
 30
0.0
 10
83.67659738975426
 20
85.4738111352781
 30
0.0
 10
83.70075524342576
 20
85.01345946406573
 30
0.0
 10
83.73391905021043
 20
84.3857891112123
 30
0.0
 10
83.77645457268464
 20
83.58937217194591
 30
0.0
 10
83.82769775019813
 20
82.64523723747087
 30
0.0
 10
83.88124128071024
 20
81.67744137965515
 30
0.0
 10
83.93616643139725
 20
80.70610981955305
 30
0.0
 10
83.99190002518912
 20
79.74457975512993
 30
0.0
 10
84.04264627142194
 20
78.89289692834215
 30
0.0
 10
84.08728763748952
 20
78.16278946732729
 30
0.0
 10
84.1252566429594
 20
77.55557769479842
 30
0.0
 10
84.16131573218027
 20
76.9918392747359
 30
0.0
 10
84.19689120356352
 20
76.4481068075323
 30
0.0
 10
84.23420695586591
 20
75.8912680953535
 30
0.0
 10
84.27556686858996
 20
75.29093491175294
 30
0.0
 10
84.32031811007471
 20
74.6623544218829
 30
0.0
 10
84.36533121164055
 20
74.05312491832254
 30
0.0
 10
84.40937343671267
 20
73.47901203547531
 30
0.0
 10
84.45020327520453
 20
72.9666184237978
 30
0.0
 10
84.48998825047059
 20
72.48595889182911
 30
0.0
 10
84.52899973869981
 20
72.03183848397317
 30
0.0
 10
84.57007337948419
 20
71.57270570446352
 30
0.0
 10
84.61209364061054
 20
71.12349136441475
 30
0.0
 10
84.65497374421174
 20
70.6859767397825
 30
0.0
 10
84.70244837996292
 20
70.22425075050467
 30
0.0
 10
84.76049606705419
 20
69.69248440397037
 30
0.0
 10
84.82623348411245
 20
69.13558412257788
 30
0.0
 10
84.8945368164551
 20
68.60443186515903
 30
0.0
 10
84.95918098390932
 20
68.14142177930009
 30
0.0
 10
85.01623349380566
 20
67.76551799592153
 30
0.0
 10
85.06441699536241
 20
67.45274909456002
 30
0.0
 10
85.10844212438775
 20
67.17068400217909
 30
0.0
 10
85.1503105461785
 20
66.90480909195306
 30
0.0
 10
85.19776382294766
 20
66.60642782147545
 30
0.0
 10
85.25462854357097
 20
66.25316594895665
 30
0.0
 10
85.32081604876842
 20
65.84792917638015
 30
0.0
 10
85.39882083660206
 20
65.37808488443233
 30
0.0
 10
85.44928559210261
 20
65.08122964275144
 30
0.0
 10
85.48110343861687
 20
64.89432466418828
 30
0.0
  0
SPLINE
  5
243
330
239
100
AcDbEntity
  8
00572038_GEHÄUSE
  6
Continuous
 62
     7
100
AcDbSpline
210
0.0
220
0.0
230
1.0
 70
     8
 71
     3
 72
    63
 73
    59
 74
     0
 42
0.0000000002684863
 43
0.0000000001
 40
0.0
 40
0.0
 40
0.0
 40
0.0
 40
0.0245848973891601
 40
0.0469218545141657
 40
0.0670412533865651
 40
0.0849778123535455
 40
0.101900647102191
 40
0.1238200813005611
 40
0.145461011996082
 40
0.1669466341685308
 40
0.1834559916469094
 40
0.1998881844863875
 40
0.2142694115374231
 40
0.2261967924564616
 40
0.2379691614553689
 40
0.2515810352968869
 40
0.2657632536256236
 40
0.2848085179647127
 40
0.3051658702493849
 40
0.3286219934656995
 40
0.3526947976556319
 40
0.3755780602563354
 40
0.3969667893920035
 40
0.4151340748318697
 40
0.4325163957554868
 40
0.4518062202321358
 40
0.4730966314795745
 40
0.4960281589536785
 40
0.5219393971065652
 40
0.5494831832136408
 40
0.5786549852698029
 40
0.5962345858103794
 40
0.6117365026597077
 40
0.624780525058956
 40
0.6353693272611433
 40
0.6424299857432862
 40
0.6477256050925158
 40
0.6519766643822562
 40
0.6584424102011016
 40
0.6675198086756134
 40
0.6792070735678973
 40
0.7003365961169262
 40
0.7196470479978837
 40
0.736923775040811
 40
0.7534636909903429
 40
0.7700612127975754
 40
0.7886739728293858
 40
0.8092998869125958
 40
0.8319174915562275
 40
0.8558034619595083
 40
0.8782687900135835
 40
0.8947395816948451
 40
0.9101763219515693
 40
0.9245831527143311
 40
0.9385823043768206
 40
0.9555698921671376
 40
0.976048671428925
 40
1.0
 40
1.0
 40
1.0
 40
1.0
 10
128.8916444169075
 20
64.894324664189
 30
0.0
 10
128.9168745830384
 20
65.0423748264448
 30
0.0
 10
128.9573642587626
 20
65.28023094723949
 30
0.0
 10
129.0205237571775
 20
65.65834624060072
 30
0.0
 10
129.0756720277964
 20
65.99298379574927
 30
0.0
 10
129.125540007736
 20
66.29933232661979
 30
0.0
 10
129.176804581804
 20
66.61774885273742
 30
0.0
 10
129.2321590617938
 20
66.96588182839706
 30
0.0
 10
129.2908995877937
 20
67.3403520411734
 30
0.0
 10
129.3490625556051
 20
67.71639197591321
 30
0.0
 10
129.4128418974903
 20
68.13590575856456
 30
0.0
 10
129.4736230777714
 20
68.57191395513863
 30
0.0
 10
129.5260193633254
 20
68.97551557002095
 30
0.0
 10
129.5709460065881
 20
69.34236817206056
 30
0.0
 10
129.6125360220755
 20
69.69940015667355
 30
0.0
 10
129.6546490106791
 20
70.07935586112811
 30
0.0
 10
129.7028834990158
 20
70.5375139206709
 30
0.0
 10
129.7556585571368
 20
71.06874214386836
 30
0.0
 10
129.8148456608217
 20
71.70289276676479
 30
0.0
 10
129.8769753925941
 20
72.41230591767987
 30
0.0
 10
129.9400355744384
 20
73.17958862508924
 30
0.0
 10
130.0000253354424
 20
73.9526284199646
 30
0.0
 10
130.0538802453529
 20
74.68156829684307
 30
0.0
 10
130.1024729318621
 20
75.36638466570702
 30
0.0
 10
130.1487095840774
 20
76.04037492727707
 30
0.0
 10
130.1972094371933
 20
76.7706758077986
 30
0.0
 10
130.250006812315
 20
77.59273318381939
 30
0.0
 10
130.3080053005274
 20
78.52661325287012
 30
0.0
 10
130.3708835550018
 20
79.57369931251603
 30
0.0
 10
130.4386220469527
 20
80.7395162456236
 30
0.0
 10
130.4993243188637
 20
81.81707598488451
 30
0.0
 10
130.5500601835562
 20
82.73806731365994
 30
0.0
 10
130.5876156421966
 20
83.42971684760843
 30
0.0
 10
130.6194477757081
 20
84.02268957375513
 30
0.0
 10
130.6443924944807
 20
84.49144586605286
 30
0.0
 10
130.663024891476
 20
84.84373010316311
 30
0.0
 10
130.6765019231131
 20
85.09958512470365
 30
0.0
 10
130.6894785138947
 20
85.34669040503029
 30
0.0
 10
130.7055095962664
 20
85.65297357079945
 30
0.0
 10
130.7275552447048
 20
86.07610708996502
 30
0.0
 10
130.7614586611874
 20
86.73057581795658
 30
0.0
 10
130.8036197651386
 20
87.55121789564146
 30
0.0
 10
130.8502681758179
 20
88.4668906875913
 30
0.0
 10
130.8931445058877
 20
89.31394780623246
 30
0.0
 10
130.9337598481609
 20
90.12039666910398
 30
0.0
 10
130.975403440251
 20
90.95058040675217
 30
0.0
 10
131.0202946803984
 20
91.84836426476271
 30
0.0
 10
131.0699697730414
 20
92.8444564598592
 30
0.0
 10
131.1238704283717
 20
93.92555188462302
 30
0.0
 10
131.179323398467
 20
95.03624316652962
 30
0.0
 10
131.2298820831892
 20
96.04795942844115
 30
0.0
 10
131.2736786349162
 20
96.92357874944713
 30
0.0
 10
131.3110141977878
 20
97.66949949689048
 30
0.0
 10
131.3463677312286
 20
98.37535338354797
 30
0.0
 10
131.383044363419
 20
99.10716366652576
 30
0.0
 10
131.424422782255
 20
99.93222300358146
 30
0.0
 10
131.4749937928364
 20
100.9397701901623
 30
0.0
 10
131.5082409144294
 20
101.6013712418811
 30
0.0
 10
131.5295638531311
 20
102.0256571134615
 30
0.0
  0
SPLINE
  5
244
330
239
100
AcDbEntity
  8
09729038_GEH._KO
  6
Continuous
 62
     7
100
AcDbSpline
210
0.0
220
0.0
230
1.0
 70
     8
 71
     3
 72
    32
 73
    28
 74
     0
 42
0.0000000000533884
 43
0.0000000001
 40
0.1397024447470647
 40
0.1397024447470647
 40
0.1397024447470647
 40
0.1397024447470647
 40
0.1494983179660579
 40
0.1799232083731027
 40
0.210334852179472
 40
0.240736899241985
 40
0.2711350067319894
 40
0.3015354220017291
 40
0.3319440662549452
 40
0.3623650649062425
 40
0.3928000979624163
 40
0.4232485396157029
 40
0.4537080524906195
 40
0.4841752675212044
 40
0.5146462864824183
 40
0.5451168100538403
 40
0.5755826119677871
 40
0.6060397270313456
 40
0.6364848196919148
 40
0.6669158612866711
 40
0.6973328797454423
 40
0.727738438645283
 40
0.7581374765504455
 40
0.788536125085896
 40
0.8189406056932721
 40
0.8493559583230279
 40
0.8603031530172759
 40
0.8603031530172759
 40
0.8603031530172759
 40
0.8603031530172759
 10
83.9077363144633
 20
81.13362780937437
 30
0.0
 10
83.51204216235472
 20
80.6715522036841
 30
0.0
 10
81.94739054569514
 20
78.72571571424504
 30
0.0
 10
79.63805011035396
 20
74.98223850401426
 30
0.0
 10
77.67835464707728
 20
69.68813981781656
 30
0.0
 10
76.78368824895091
 20
64.12888357094839
 30
0.0
 10
77.00265289109346
 20
58.50785199207946
 30
0.0
 10
78.31834746553957
 20
53.02912076760067
 30
0.0
 10
80.68759791477626
 20
47.89229782098338
 30
0.0
 10
84.02184533685524
 20
43.28426057719241
 30
0.0
 10
88.20127494677998
 20
39.37305186449321
 30
0.0
 10
93.07310748666721
 20
36.30140744140541
 30
0.0
 10
98.46027219760106
 20
34.18163336741707
 30
0.0
 10
104.166114176233
 20
33.09132411688061
 30
0.0
 10
109.982567822446
 20
33.0705061652329
 30
0.0
 10
115.6971608142169
 20
34.12010474726294
 30
0.0
 10
121.1013524981462
 20
36.20186393935561
 30
0.0
 10
125.9975702977711
 20
39.23975536620881
 30
0.0
 10
130.2075205628219
 20
43.12269331599018
 30
0.0
 10
133.5769599269513
 20
47.70878277957229
 30
0.0
 10
135.9846903264453
 20
52.83037408318768
 30
0.0
 10
137.3407108957927
 20
58.30078474168938
 30
0.0
 10
137.600911631945
 20
63.92030055225496
 30
0.0
 10
136.7469067184512
 20
69.48504886323593
 30
0.0
 10
134.8269673211147
 20
74.79126693477843
 30
0.0
 10
132.508270616535
 20
78.6112726945085
 30
0.0
 10
130.9069947974752
 20
80.61801735073395
 30
0.0
 10
130.4648520096282
 20
81.13435501672745
 30
0.0
  0
ENDBLK
  5
246
330
239
100
AcDbEntity
  8
0
100
AcDbBlockEnd
  0
ENDSEC
  0
SECTION
  2
ENTITIES
  0
INSERT
  5
5F
330
1F
100
AcDbEntity
  8
Default
100
AcDbBlockReference
  2
SEANNOT_GROUP
 10
0.0
 20
0.0
 30
0.0
  0
INSERT
  5
6A
330
1F
100
AcDbEntity
  8
Default
100
AcDbBlockReference
  2
SEANNOT_GROUP1
 10
0.0
 20
0.0
 30
0.0
  0
INSERT
  5
70
330
1F
100
AcDbEntity
  8
Default
100
AcDbBlockReference
  2
SEANNOT_GROUP2
 10
0.0
 20
0.0
 30
0.0
  0
INSERT
  5
76
330
1F
100
AcDbEntity
  8
Default
100
AcDbBlockReference
  2
SE
 10
0.0
 20
0.0
 30
0.0
  0
INSERT
  5
197
330
1F
100
AcDbEntity
  8
Default
100
AcDbBlockReference
  2
SE1
 10
0.0
 20
0.0
 30
0.0
  0
INSERT
  5
23A
330
1F
100
AcDbEntity
  8
Default
100
AcDbBlockReference
  2
SE2
 10
0.0
 20
0.0
 30
0.0
  0
TEXT
  5
248
330
1F
100
AcDbEntity
  8
Default
  6
Continuous
 62
     7
100
AcDbText
 10
5.9362635081
 20
53.4225120485
 30
0.0
 40
10.0
  1
Grohe AG^J
  7
SEACAD_seiso_ttf
 11
5.9362635081
 21
63.4225120485
 31
0.0
100
AcDbText
 73
     3
  0
TEXT
  5
249
330
1F
100
AcDbEntity
  8
Default
  6
Continuous
 62
     7
100
AcDbText
 10
5.9362635081
 20
37.0588756849
 30
0.0
 40
10.0
  1
 
  7
SEACAD_seiso_ttf
 11
5.9362635081
 21
47.0588756849
 31
0.0
100
AcDbText
 73
     3
  0
TEXT
  5
24A
330
1F
100
AcDbEntity
  8
Default
  6
Continuous
 62
     7
100
AcDbText
 10
5.9362635081
 20
20.6952393213
 30
0.0
 40
10.0
  1
ecn: 
  7
SEACAD_seiso_ttf
 11
5.9362635081
 21
30.6952393213
 31
0.0
100
AcDbText
 73
     3
  0
TEXT
  5
24B
330
1F
100
AcDbEntity
  8
Default
  6
Continuous
 62
     7
100
AcDbText
 10
5.9362635081
 20
4.3316029576
 30
0.0
 40
10.0
  1
unit: mm
  7
SEACAD_seiso_ttf
 11
5.9362635081
 21
14.3316029576
 31
0.0
100
AcDbText
 73
     3
  0
LINE
  5
24C
330
1F
100
AcDbEntity
  8
Default
  6
Continuous
 62
     7
100
AcDbLine
 10
0.0
 20
0.0
 30
0.0
 11
100.0
 21
0.0
 31
0.0
  0
LINE
  5
24D
330
1F
100
AcDbEntity
  8
Default
  6
Continuous
 62
     7
100
AcDbLine
 10
0.0
 20
0.0
 30
0.0
 11
0.0
 21
100.0
 31
0.0
  0
TEXT
  5
24E
330
1F
100
AcDbEntity
  8
Default
  6
Continuous
 62
     7
100
AcDbText
 10
24.3923665681
 20
-18.2375342018
 30
0.0
 40
10.0
  1
100 mm
  7
SEACAD_seiso_ttf
 11
24.3923665681
 21
-8.2375342018
 31
0.0
100
AcDbText
 73
     3
  0
TEXT
  5
24F
330
1F
100
AcDbEntity
  8
Default
  6
Continuous
 62
     7
100
AcDbText
 10
-7.6150308803
 20
24.6231930421
 30
0.0
 40
10.0
  1
100 mm
 50
90.0
  7
SEACAD_seiso_ttf
 11
-17.6150308803
 21
24.6231930421
 31
0.0
100
AcDbText
 73
     3
  0
TEXT
  5
250
330
1F
100
AcDbEntity
  8
Default
  6
Continuous
 62
     7
100
AcDbText
 10
28.4878128572
 20
20.0907663715
 30
0.0
 40
10.0
  1
99991
  7
SEACAD_seiso_ttf
 11
28.4878128572
 21
30.0907663715
 31
0.0
100
AcDbText
 73
     3
  0
TEXT
  5
251
330
1F
100
AcDbEntity
  8
Default
  6
Continuous
 62
     7
100
AcDbText
 10
5.9012241913
 20
36.7242780188
 30
0.0
 40
10.0
  1
28948000
  7
SEACAD_seiso_ttf
 11
5.9012241913
 21
46.7242780188
 31
0.0
100
AcDbText
 73
     3
  0
ENDSEC
  0
SECTION
  2
OBJECTS
  0
DICTIONARY
  5
C
330
0
100
AcDbDictionary
281
     1
  3
ACAD_GROUP
350
D
  3
ACAD_LAYOUT
350
1A
  3
ACAD_MLEADERSTYLE
350
255
  3
ACAD_MLINESTYLE
350
17
  3
ACAD_PLOTSETTINGS
350
19
  3
ACAD_PLOTSTYLENAME
350
E
  3
ACAD_SCALELIST
350
3B
  3
ACAD_TABLESTYLE
350
254
  3
ACAD_VISUALSTYLE
350
2A
  3
AcDbVariableDictionary
350
252
  0
DICTIONARY
  5
D
102
{ACAD_REACTORS
330
C
102
}
330
C
100
AcDbDictionary
281
     1
  0
DICTIONARY
  5
1A
102
{ACAD_REACTORS
330
C
102
}
330
C
100
AcDbDictionary
281
     1
  3
Layout1
350
1E
  3
Model
350
22
  0
DICTIONARY
  5
255
102
{ACAD_REACTORS
330
C
102
}
330
C
100
AcDbDictionary
281
     1
  0
DICTIONARY
  5
17
102
{ACAD_REACTORS
330
C
102
}
330
C
100
AcDbDictionary
281
     1
  3
Standard
350
18
  0
DICTIONARY
  5
19
102
{ACAD_REACTORS
330
C
102
}
330
C
100
AcDbDictionary
281
     1
  0
ACDBDICTIONARYWDFLT
  5
E
102
{ACAD_REACTORS
330
C
102
}
330
C
100
AcDbDictionary
281
     1
  3
Normal
350
F
100
AcDbDictionaryWithDefault
340
F
  0
DICTIONARY
  5
3B
102
{ACAD_REACTORS
330
C
102
}
330
C
100
AcDbDictionary
281
     1
  3
A0
350
3C
  3
A1
350
3D
  3
A2
350
3E
  3
A3
350
3F
  3
A4
350
40
  3
A5
350
41
  3
A6
350
42
  3
A7
350
43
  3
A8
350
44
  3
A9
350
45
  3
B0
350
46
  3
B1
350
47
  3
B2
350
48
  3
B3
350
49
  3
B4
350
4A
  3
B5
350
4B
  3
B6
350
4C
  3
B7
350
4D
  3
B8
350
4E
  3
B9
350
4F
  3
C0
350
50
  3
C1
350
51
  3
C2
350
52
  3
C3
350
53
  3
C4
350
54
  3
C5
350
55
  3
C6
350
56
  3
C7
350
57
  3
C8
350
58
  3
C9
350
59
  3
D0
350
5A
  3
D1
350
5B
  3
D2
350
5C
  0
DICTIONARY
  5
254
102
{ACAD_REACTORS
330
C
102
}
330
C
100
AcDbDictionary
281
     1
  0
DICTIONARY
  5
2A
102
{ACAD_REACTORS
330
C
102
}
330
C
100
AcDbDictionary
281
     1
  3
2dWireframe
350
2F
  3
3D Hidden
350
31
  3
3dWireframe
350
30
  3
Basic
350
32
  3
Brighten
350
36
  3
ColorChange
350
3A
  3
Conceptual
350
34
  3
Dim
350
35
  3
Facepattern
350
39
  3
Flat
350
2B
  3
FlatWithEdges
350
2C
  3
Gouraud
350
2D
  3
GouraudWithEdges
350
2E
  3
Linepattern
350
38
  3
Realistic
350
33
  3
Thicken
350
37
  0
DICTIONARY
  5
252
102
{ACAD_REACTORS
330
C
102
}
330
C
100
AcDbDictionary
281
     1
  3
CANNOSCALE
350
253
  3
PSOLHEIGHT
350
257
  3
PSOLWIDTH
350
256
  0
LAYOUT
  5
1E
102
{ACAD_REACTORS
330
1A
102
}
330
1A
100
AcDbPlotSettings
  1

  2
none_device
  4

  6

 40
0.0
 41
0.0
 42
0.0
 43
0.0
 44
0.0
 45
0.0
 46
0.0
 47
0.0
 48
0.0
 49
0.0
140
0.0
141
0.0
142
1.0
143
1.0
 70
   688
 72
     0
 73
     0
 74
     5
  7

 75
    16
147
1.0
148
0.0
149
0.0
100
AcDbLayout
  1
Layout1
 70
     1
 71
     1
 10
0.0
 20
0.0
 11
1682.0
 21
2378.0
 12
0.0
 22
0.0
 32
0.0
 14
0.0
 24
0.0
 34
0.0
 15
1682.0
 25
2378.0
 35
0.0
146
0.0
 13
0.0
 23
0.0
 33
0.0
 16
1.0
 26
0.0
 36
0.0
 17
0.0
 27
1.0
 37
0.0
 76
     0
330
1B
  0
LAYOUT
  5
22
102
{ACAD_REACTORS
330
1A
102
}
330
1A
100
AcDbPlotSettings
  1

  2
none_device
  4

  6

 40
0.0
 41
0.0
 42
0.0
 43
0.0
 44
0.0
 45
0.0
 46
0.0
 47
0.0
 48
0.0
 49
0.0
140
0.0
141
0.0
142
1.0
143
1.0
 70
  1712
 72
     0
 73
     0
 74
     0
  7

 75
     0
147
1.0
148
0.0
149
0.0
100
AcDbLayout
  1
Model
 70
     1
 71
     0
 10
0.0
 20
0.0
 11
1682.0
 21
2378.0
 12
0.0
 22
0.0
 32
0.0
 14
0.0
 24
0.0
 34
0.0
 15
1682.0
 25
2378.0
 35
0.0
146
0.0
 13
0.0
 23
0.0
 33
0.0
 16
1.0
 26
0.0
 36
0.0
 17
0.0
 27
1.0
 37
0.0
 76
     0
330
1F
331
29
  0
MLINESTYLE
  5
18
102
{ACAD_REACTORS
330
17
102
}
330
17
100
AcDbMlineStyle
  2
Standard
 70
     0
  3

 62
   256
 51
90.0
 52
90.0
 71
     2
 49
0.5
 62
   256
  6
BYLAYER
 49
-0.5
 62
   256
  6
BYLAYER
  0
ACDBPLACEHOLDER
  5
F
102
{ACAD_REACTORS
330
E
102
}
330
E
  0
SCALE
  5
3C
102
{ACAD_REACTORS
330
3B
102
}
330
3B
100
AcDbScale
 70
     0
300
1:1
140
1.0
141
1.0
290
     1
  0
SCALE
  5
3D
102
{ACAD_REACTORS
330
3B
102
}
330
3B
100
AcDbScale
 70
     0
300
1:2
140
1.0
141
2.0
290
     0
  0
SCALE
  5
3E
102
{ACAD_REACTORS
330
3B
102
}
330
3B
100
AcDbScale
 70
     0
300
1:4
140
1.0
141
4.0
290
     0
  0
SCALE
  5
3F
102
{ACAD_REACTORS
330
3B
102
}
330
3B
100
AcDbScale
 70
     0
300
1:5
140
1.0
141
5.0
290
     0
  0
SCALE
  5
40
102
{ACAD_REACTORS
330
3B
102
}
330
3B
100
AcDbScale
 70
     0
300
1:8
140
1.0
141
8.0
290
     0
  0
SCALE
  5
41
102
{ACAD_REACTORS
330
3B
102
}
330
3B
100
AcDbScale
 70
     0
300
1:10
140
1.0
141
10.0
290
     0
  0
SCALE
  5
42
102
{ACAD_REACTORS
330
3B
102
}
330
3B
100
AcDbScale
 70
     0
300
1:16
140
1.0
141
16.0
290
     0
  0
SCALE
  5
43
102
{ACAD_REACTORS
330
3B
102
}
330
3B
100
AcDbScale
 70
     0
300
1:20
140
1.0
141
20.0
290
     0
  0
SCALE
  5
44
102
{ACAD_REACTORS
330
3B
102
}
330
3B
100
AcDbScale
 70
     0
300
1:30
140
1.0
141
30.0
290
     0
  0
SCALE
  5
45
102
{ACAD_REACTORS
330
3B
102
}
330
3B
100
AcDbScale
 70
     0
300
1:40
140
1.0
141
40.0
290
     0
  0
SCALE
  5
46
102
{ACAD_REACTORS
330
3B
102
}
330
3B
100
AcDbScale
 70
     0
300
1:50
140
1.0
141
50.0
290
     0
  0
SCALE
  5
47
102
{ACAD_REACTORS
330
3B
102
}
330
3B
100
AcDbScale
 70
     0
300
1:100
140
1.0
141
100.0
290
     0
  0
SCALE
  5
48
102
{ACAD_REACTORS
330
3B
102
}
330
3B
100
AcDbScale
 70
     0
300
2:1
140
2.0
141
1.0
290
     0
  0
SCALE
  5
49
102
{ACAD_REACTORS
330
3B
102
}
330
3B
100
AcDbScale
 70
     0
300
4:1
140
4.0
141
1.0
290
     0
  0
SCALE
  5
4A
102
{ACAD_REACTORS
330
3B
102
}
330
3B
100
AcDbScale
 70
     0
300
8:1
140
8.0
141
1.0
290
     0
  0
SCALE
  5
4B
102
{ACAD_REACTORS
330
3B
102
}
330
3B
100
AcDbScale
 70
     0
300
10:1
140
10.0
141
1.0
290
     0
  0
SCALE
  5
4C
102
{ACAD_REACTORS
330
3B
102
}
330
3B
100
AcDbScale
 70
     0
300
100:1
140
100.0
141
1.0
290
     0
  0
SCALE
  5
4D
102
{ACAD_REACTORS
330
3B
102
}
330
3B
100
AcDbScale
 70
     0
300
1/128" = 1'-0"
140
0.0078125
141
12.0
290
     0
  0
SCALE
  5
4E
102
{ACAD_REACTORS
330
3B
102
}
330
3B
100
AcDbScale
 70
     0
300
1/64" = 1'-0"
140
0.015625
141
12.0
290
     0
  0
SCALE
  5
4F
102
{ACAD_REACTORS
330
3B
102
}
330
3B
100
AcDbScale
 70
     0
300
1/32" = 1'-0"
140
0.03125
141
12.0
290
     0
  0
SCALE
  5
50
102
{ACAD_REACTORS
330
3B
102
}
330
3B
100
AcDbScale
 70
     0
300
1/16" = 1'-0"
140
0.0625
141
12.0
290
     0
  0
SCALE
  5
51
102
{ACAD_REACTORS
330
3B
102
}
330
3B
100
AcDbScale
 70
     0
300
3/32" = 1'-0"
140
0.09375
141
12.0
290
     0
  0
SCALE
  5
52
102
{ACAD_REACTORS
330
3B
102
}
330
3B
100
AcDbScale
 70
     0
300
1/8" = 1'-0"
140
0.125
141
12.0
290
     0
  0
SCALE
  5
53
102
{ACAD_REACTORS
330
3B
102
}
330
3B
100
AcDbScale
 70
     0
300
3/16" = 1'-0"
140
0.1875
141
12.0
290
     0
  0
SCALE
  5
54
102
{ACAD_REACTORS
330
3B
102
}
330
3B
100
AcDbScale
 70
     0
300
1/4" = 1'-0"
140
0.25
141
12.0
290
     0
  0
SCALE
  5
55
102
{ACAD_REACTORS
330
3B
102
}
330
3B
100
AcDbScale
 70
     0
300
3/8" = 1'-0"
140
0.375
141
12.0
290
     0
  0
SCALE
  5
56
102
{ACAD_REACTORS
330
3B
102
}
330
3B
100
AcDbScale
 70
     0
300
1/2" = 1'-0"
140
0.5
141
12.0
290
     0
  0
SCALE
  5
57
102
{ACAD_REACTORS
330
3B
102
}
330
3B
100
AcDbScale
 70
     0
300
3/4" = 1'-0"
140
0.75
141
12.0
290
     0
  0
SCALE
  5
58
102
{ACAD_REACTORS
330
3B
102
}
330
3B
100
AcDbScale
 70
     0
300
1" = 1'-0"
140
1.0
141
12.0
290
     0
  0
SCALE
  5
59
102
{ACAD_REACTORS
330
3B
102
}
330
3B
100
AcDbScale
 70
     0
300
1-1/2" = 1'-0"
140
1.5
141
12.0
290
     0
  0
SCALE
  5
5A
102
{ACAD_REACTORS
330
3B
102
}
330
3B
100
AcDbScale
 70
     0
300
3" = 1'-0"
140
3.0
141
12.0
290
     0
  0
SCALE
  5
5B
102
{ACAD_REACTORS
330
3B
102
}
330
3B
100
AcDbScale
 70
     0
300
6" = 1'-0"
140
6.0
141
12.0
290
     0
  0
SCALE
  5
5C
102
{ACAD_REACTORS
330
3B
102
}
330
3B
100
AcDbScale
 70
     0
300
1'-0" = 1'-0"
140
12.0
141
12.0
290
     0
  0
VISUALSTYLE
  5
2F
102
{ACAD_REACTORS
330
2A
102
}
330
2A
100
AcDbVisualStyle
  2
2dWireframe
 70
     4
 71
     0
 72
     2
 73
     0
 90
        0
 40
-0.6
 41
-30.0
 62
     5
 63
     7
 74
     1
 91
        4
 64
     7
 65
   257
 75
     1
175
     1
 42
1.0
 92
        0
 66
   257
 43
1.0
 76
     1
 77
     6
 78
     2
 67
     7
 79
     5
170
     0
171
     0
290
     0
174
     0
 93
        1
 44
0.0
173
     0
291
     0
 45
0.0
1001
ACAD
1000
AcDbSavedByObjectVersion
1070
     0
  0
VISUALSTYLE
  5
31
102
{ACAD_REACTORS
330
2A
102
}
330
2A
100
AcDbVisualStyle
  2
3D Hidden
 70
     6
 71
     1
 72
     2
 73
     2
 90
        0
 40
-0.6
 41
-30.0
 62
     5
 63
     7
 74
     2
 91
        2
 64
     7
 65
   257
 75
     2
175
     1
 42
40.0
 92
        0
 66
   257
 43
1.0
 76
     1
 77
     6
 78
     2
 67
     7
 79
     3
170
     0
171
     0
290
     0
174
     0
 93
        1
 44
0.0
173
     0
291
     0
 45
0.0
1001
ACAD
1000
AcDbSavedByObjectVersion
1070
     0
  0
VISUALSTYLE
  5
30
102
{ACAD_REACTORS
330
2A
102
}
330
2A
100
AcDbVisualStyle
  2
3dWireframe
 70
     5
 71
     0
 72
     2
 73
     0
 90
        0
 40
-0.6
 41
-30.0
 62
     5
 63
     7
 74
     1
 91
        4
 64
     7
 65
   257
 75
     1
175
     1
 42
1.0
 92
        0
 66
   257
 43
1.0
 76
     1
 77
     6
 78
     2
 67
     7
 79
     5
170
     0
171
     0
290
     0
174
     0
 93
        1
 44
0.0
173
     0
291
     0
 45
0.0
1001
ACAD
1000
AcDbSavedByObjectVersion
1070
     0
  0
VISUALSTYLE
  5
32
102
{ACAD_REACTORS
330
2A
102
}
330
2A
100
AcDbVisualStyle
  2
Basic
 70
     7
 71
     1
 72
     0
 73
     1
 90
        0
 40
-0.6
 41
-30.0
 62
     5
 63
     7
 74
     0
 91
        4
 64
     7
 65
   257
 75
     1
175
     1
 42
1.0
 92
        8
 66
     7
 43
1.0
 76
     1
 77
     6
 78
     2
 67
     7
 79
     5
170
     0
171
     0
290
     0
174
     0
 93
        1
 44
0.0
173
     0
291
     1
 45
0.0
1001
ACAD
1000
AcDbSavedByObjectVersion
1070
     0
  0
VISUALSTYLE
  5
36
102
{ACAD_REACTORS
330
2A
102
}
330
2A
100
AcDbVisualStyle
  2
Brighten
 70
    12
 71
     2
 72
     2
 73
     0
 90
        0
 40
-0.6
 41
-30.0
 62
     5
 63
     7
 74
     1
 91
        4
 64
     7
 65
   257
 75
     1
175
     1
 42
1.0
 92
        8
 66
     7
 43
1.0
 76
     1
 77
     6
 78
     2
 67
     7
 79
     5
170
     0
171
     0
290
     0
174
     0
 93
        1
 44
50.0
173
     0
291
     1
 45
0.0
1001
ACAD
1000
AcDbSavedByObjectVersion
1070
     0
  0
VISUALSTYLE
  5
3A
102
{ACAD_REACTORS
330
2A
102
}
330
2A
100
AcDbVisualStyle
  2
ColorChange
 70
    16
 71
     2
 72
     2
 73
     3
 90
        0
 40
-0.6
 41
-30.0
 62
     5
 63
     8
 74
     1
 91
        4
 64
     7
 65
   257
 75
     1
175
     1
 42
1.0
 92
        8
 66
     8
 43
1.0
 76
     1
 77
     6
 78
     2
 67
     7
 79
     5
170
     0
171
     0
290
     0
174
     0
 93
        1
 44
0.0
173
     0
291
     1
 45
0.0
1001
ACAD
1000
AcDbSavedByObjectVersion
1070
     0
  0
VISUALSTYLE
  5
34
102
{ACAD_REACTORS
330
2A
102
}
330
2A
100
AcDbVisualStyle
  2
Conceptual
 70
     9
 71
     3
 72
     2
 73
     0
 90
        0
 40
-0.6
 41
-30.0
 62
     5
 63
     7
 74
     2
 91
        2
 64
     7
 65
   257
 75
     1
175
     1
 42
40.0
 92
        8
 66
     7
 43
1.0
 76
     1
 77
     6
 78
     2
 67
     7
 79
     3
170
     0
171
     0
290
     0
174
     0
 93
        1
 44
0.0
173
     0
291
     0
 45
0.0
1001
ACAD
1000
AcDbSavedByObjectVersion
1070
     0
  0
VISUALSTYLE
  5
35
102
{ACAD_REACTORS
330
2A
102
}
330
2A
100
AcDbVisualStyle
  2
Dim
 70
    11
 71
     2
 72
     2
 73
     0
 90
        0
 40
-0.6
 41
-30.0
 62
     5
 63
     7
 74
     1
 91
        4
 64
     7
 65
   257
 75
     1
175
     1
 42
1.0
 92
        8
 66
     7
 43
1.0
 76
     1
 77
     6
 78
     2
 67
     7
 79
     5
170
     0
171
     0
290
     0
174
     0
 93
        1
 44
-50.0
173
     0
291
     1
 45
0.0
1001
ACAD
1000
AcDbSavedByObjectVersion
1070
     0
  0
VISUALSTYLE
  5
39
102
{ACAD_REACTORS
330
2A
102
}
330
2A
100
AcDbVisualStyle
  2
Facepattern
 70
    15
 71
     2
 72
     2
 73
     0
 90
        0
 40
-0.6
 41
-30.0
 62
     5
 63
     7
 74
     1
 91
        4
 64
     7
 65
   257
 75
     1
175
     1
 42
1.0
 92
        8
 66
     7
 43
1.0
 76
     1
 77
     6
 78
     2
 67
     7
 79
     5
170
     0
171
     0
290
     0
174
     0
 93
        1
 44
0.0
173
     0
291
     1
 45
0.0
1001
ACAD
1000
AcDbSavedByObjectVersion
1070
     0
  0
VISUALSTYLE
  5
2B
102
{ACAD_REACTORS
330
2A
102
}
330
2A
100
AcDbVisualStyle
  2
Flat
 70
     0
 71
     2
 72
     1
 73
     1
 90
        2
 40
-0.6
 41
30.0
 62
     5
 63
     7
 74
     0
 91
        4
 64
     7
 65
   257
 75
     1
175
     1
 42
1.0
 92
        8
 66
     7
 43
1.0
 76
     1
 77
     6
 78
     2
 67
     7
 79
     5
170
     0
171
     0
290
     0
174
     0
 93
       13
 44
0.0
173
     0
291
     1
 45
0.0
1001
ACAD
1000
AcDbSavedByObjectVersion
1070
     0
  0
VISUALSTYLE
  5
2C
102
{ACAD_REACTORS
330
2A
102
}
330
2A
100
AcDbVisualStyle
  2
FlatWithEdges
 70
     1
 71
     2
 72
     1
 73
     1
 90
        2
 40
-0.6
 41
30.0
 62
     5
 63
     7
 74
     1
 91
        4
 64
     7
 65
   257
 75
     1
175
     1
 42
1.0
 92
        0
 66
   257
 43
1.0
 76
     1
 77
     6
 78
     2
 67
     7
 79
     5
170
     0
171
     0
290
     0
174
     0
 93
       13
 44
0.0
173
     0
291
     1
 45
0.0
1001
ACAD
1000
AcDbSavedByObjectVersion
1070
     0
  0
VISUALSTYLE
  5
2D
102
{ACAD_REACTORS
330
2A
102
}
330
2A
100
AcDbVisualStyle
  2
Gouraud
 70
     2
 71
     2
 72
     2
 73
     1
 90
        2
 40
-0.6
 41
30.0
 62
     5
 63
     7
 74
     0
 91
        4
 64
     7
 65
   257
 75
     1
175
     1
 42
1.0
 92
        0
 66
     7
 43
1.0
 76
     1
 77
     6
 78
     2
 67
     7
 79
     5
170
     0
171
     0
290
     0
174
     0
 93
       13
 44
0.0
173
     0
291
     1
 45
0.0
1001
ACAD
1000
AcDbSavedByObjectVersion
1070
     0
  0
VISUALSTYLE
  5
2E
102
{ACAD_REACTORS
330
2A
102
}
330
2A
100
AcDbVisualStyle
  2
GouraudWithEdges
 70
     3
 71
     2
 72
     2
 73
     1
 90
        2
 40
-0.6
 41
30.0
 62
     5
 63
     7
 74
     1
 91
        4
 64
     7
 65
   257
 75
     1
175
     1
 42
1.0
 92
        0
 66
   257
 43
1.0
 76
     1
 77
     6
 78
     2
 67
     7
 79
     5
170
     0
171
     0
290
     0
174
     0
 93
       13
 44
0.0
173
     0
291
     1
 45
0.0
1001
ACAD
1000
AcDbSavedByObjectVersion
1070
     0
  0
VISUALSTYLE
  5
38
102
{ACAD_REACTORS
330
2A
102
}
330
2A
100
AcDbVisualStyle
  2
Linepattern
 70
    14
 71
     2
 72
     2
 73
     0
 90
        0
 40
-0.6
 41
-30.0
 62
     5
 63
     7
 74
     1
 91
        4
 64
     7
 65
   257
 75
     7
175
     7
 42
1.0
 92
        8
 66
     7
 43
1.0
 76
     1
 77
     6
 78
     2
 67
     7
 79
     5
170
     0
171
     0
290
     0
174
     0
 93
        1
 44
0.0
173
     0
291
     1
 45
0.0
1001
ACAD
1000
AcDbSavedByObjectVersion
1070
     0
  0
VISUALSTYLE
  5
33
102
{ACAD_REACTORS
330
2A
102
}
330
2A
100
AcDbVisualStyle
  2
Realistic
 70
     8
 71
     2
 72
     2
 73
     0
 90
        0
 40
-0.6
 41
-30.0
 62
     5
 63
     7
 74
     1
 91
        0
 64
     7
 65
   257
 75
     1
175
     1
 42
1.0
 92
        8
 66
     8
 43
1.0
 76
     1
 77
     6
 78
     2
 67
     7
 79
     5
170
     0
171
     0
290
     0
174
     0
 93
       13
 44
0.0
173
     0
291
     0
 45
0.0
1001
ACAD
1000
AcDbSavedByObjectVersion
1070
     0
  0
VISUALSTYLE
  5
37
102
{ACAD_REACTORS
330
2A
102
}
330
2A
100
AcDbVisualStyle
  2
Thicken
 70
    13
 71
     2
 72
     2
 73
     0
 90
        0
 40
-0.6
 41
-30.0
 62
     5
 63
     7
 74
     1
 91
        4
 64
     7
 65
   257
 75
     1
175
     1
 42
1.0
 92
       12
 66
     7
 43
1.0
 76
     1
 77
     6
 78
     2
 67
     7
 79
     5
170
     0
171
     0
290
     0
174
     0
 93
        1
 44
0.0
173
     0
291
     1
 45
0.0
1001
ACAD
1000
AcDbSavedByObjectVersion
1070
     0
  0
DICTIONARYVAR
  5
253
102
{ACAD_REACTORS
330
252
102
}
330
252
100
DictionaryVariables
280
     0
  1
1:1
  0
DICTIONARYVAR
  5
257
102
{ACAD_REACTORS
330
252
102
}
330
252
100
DictionaryVariables
280
     0
  1
80.000000
  0
DICTIONARYVAR
  5
256
102
{ACAD_REACTORS
330
252
102
}
330
252
100
DictionaryVariables
280
     0
  1
5.000000
  0
ENDSEC
  0
EOF
