  0
SECTION
  2
HEADER
  9
$ACADVER
  1
AC1009
  9
$DWGCODEPAGE
  3
ansi_1252
  9
$INSBASE
 10
0.0
 20
0.0
 30
0.0
  9
$EXTMIN
 10
1.000000000000000E+20
 20
1.000000000000000E+20
 30
1.000000000000000E+20
  9
$EXTMAX
 10
-1.000000000000000E+20
 20
-1.000000000000000E+20
 30
-1.000000000000000E+20
  9
$LIMMIN
 10
0.0
 20
0.0
  9
$LIMMAX
 10
12.0
 20
9.0
  9
$ORTHOMODE
 70
     0
  9
$REGENMODE
 70
     1
  9
$FILLMODE
 70
     1
  9
$QTEXTMODE
 70
     0
  9
$MIRRTEXT
 70
     1
  9
$DRAGMODE
 70
     2
  9
$LTSCALE
 40
1.0
  9
$OSMODE
 70
    37
  9
$ATTMODE
 70
     1
  9
$TEXTSIZE
 40
0.2
  9
$TRACEWID
 40
0.05
  9
$TEXTSTYLE
  7
STANDARD
  9
$CLAYER
  8
0
  9
$CELTYPE
  6
BYLAYER
  9
$CECOLOR
 62
   256
  9
$DIMSCALE
 40
1.0
  9
$DIMASZ
 40
0.18
  9
$DIMEXO
 40
0.0625
  9
$DIMDLI
 40
0.38
  9
$DIMRND
 40
0.0
  9
$DIMDLE
 40
0.0
  9
$DIMEXE
 40
0.18
  9
$DIMTP
 40
0.0
  9
$DIMTM
 40
0.0
  9
$DIMTXT
 40
0.18
  9
$DIMCEN
 40
0.09
  9
$DIMTSZ
 40
0.0
  9
$DIMTOL
 70
     0
  9
$DIMLIM
 70
     0
  9
$DIMTIH
 70
     1
  9
$DIMTOH
 70
     1
  9
$DIMSE1
 70
     0
  9
$DIMSE2
 70
     0
  9
$DIMTAD
 70
     0
  9
$DIMZIN
 70
     0
  9
$DIMBLK
  1

  9
$DIMASO
 70
     1
  9
$DIMSHO
 70
     1
  9
$DIMPOST
  1

  9
$DIMAPOST
  1

  9
$DIMALT
 70
     0
  9
$DIMALTD
 70
     2
  9
$DIMALTF
 40
25.4
  9
$DIMLFAC
 40
1.0
  9
$DIMTOFL
 70
     0
  9
$DIMTVP
 40
0.0
  9
$DIMTIX
 70
     0
  9
$DIMSOXD
 70
     0
  9
$DIMSAH
 70
     0
  9
$DIMBLK1
  1

  9
$DIMBLK2
  1

  9
$DIMSTYLE
  2
STANDARD
  9
$DIMCLRD
 70
     0
  9
$DIMCLRE
 70
     0
  9
$DIMCLRT
 70
     0
  9
$DIMTFAC
 40
1.0
  9
$DIMGAP
 40
0.09
  9
$LUNITS
 70
     2
  9
$LUPREC
 70
     4
  9
$SKETCHINC
 40
0.1
  9
$FILLETRAD
 40
0.5
  9
$AUNITS
 70
     0
  9
$AUPREC
 70
     0
  9
$MENU
  1
.
  9
$ELEVATION
 40
0.0
  9
$PELEVATION
 40
0.0
  9
$THICKNESS
 40
0.0
  9
$LIMCHECK
 70
     0
  9
$CHAMFERA
 40
0.5
  9
$CHAMFERB
 40
0.5
  9
$SKPOLY
 70
     0
  9
$TDCREATE
 40
2455537.678730278
  9
$TDUPDATE
 40
2455537.678730278
  9
$TDINDWG
 40
0.0000000116
  9
$TDUSRTIMER
 40
0.0000000116
  9
$USRTIMER
 70
     1
  9
$ANGBASE
 50
0.0
  9
$ANGDIR
 70
     0
  9
$PDMODE
 70
     0
  9
$PDSIZE
 40
0.0
  9
$PLINEWID
 40
0.0
  9
$COORDS
 70
     1
  9
$SPLFRAME
 70
     0
  9
$SPLINETYPE
 70
     6
  9
$SPLINESEGS
 70
     8
  9
$ATTDIA
 70
     0
  9
$ATTREQ
 70
     1
  9
$HANDLING
 70
     1
  9
$HANDSEED
  5
9B5
  9
$SURFTAB1
 70
     6
  9
$SURFTAB2
 70
     6
  9
$SURFTYPE
 70
     6
  9
$SURFU
 70
     6
  9
$SURFV
 70
     6
  9
$UCSNAME
  2

  9
$UCSORG
 10
0.0
 20
0.0
 30
0.0
  9
$UCSXDIR
 10
1.0
 20
0.0
 30
0.0
  9
$UCSYDIR
 10
0.0
 20
1.0
 30
0.0
  9
$PUCSNAME
  2

  9
$PUCSORG
 10
0.0
 20
0.0
 30
0.0
  9
$PUCSXDIR
 10
1.0
 20
0.0
 30
0.0
  9
$PUCSYDIR
 10
0.0
 20
1.0
 30
0.0
  9
$USERI1
 70
     0
  9
$USERI2
 70
     0
  9
$USERI3
 70
     0
  9
$USERI4
 70
     0
  9
$USERI5
 70
     0
  9
$USERR1
 40
0.0
  9
$USERR2
 40
0.0
  9
$USERR3
 40
0.0
  9
$USERR4
 40
0.0
  9
$USERR5
 40
0.0
  9
$WORLDVIEW
 70
     1
  9
$SHADEDGE
 70
     3
  9
$SHADEDIF
 70
    70
  9
$TILEMODE
 70
     1
  9
$MAXACTVP
 70
    64
  9
$PLIMCHECK
 70
     0
  9
$PEXTMIN
 10
1.000000000000000E+20
 20
1.000000000000000E+20
 30
1.000000000000000E+20
  9
$PEXTMAX
 10
-1.000000000000000E+20
 20
-1.000000000000000E+20
 30
-1.000000000000000E+20
  9
$PLIMMIN
 10
0.0
 20
0.0
  9
$PLIMMAX
 10
12.0
 20
9.0
  9
$UNITMODE
 70
     0
  9
$VISRETAIN
 70
     1
  9
$PLINEGEN
 70
     0
  9
$PSLTSCALE
 70
     1
  0
ENDSEC
  0
SECTION
  2
TABLES
  0
TABLE
  2
VPORT
 70
     1
  0
VPORT
  2
*ACTIVE
 70
     0
 10
0.0
 20
0.0
 11
1.0
 21
1.0
 12
0.0
 22
0.0
 13
0.0
 23
0.0
 14
0.5
 24
0.5
 15
0.5
 25
0.5
 16
634.2725830078125
 26
362.4102783203125
 36
634.2726440429688
 17
63.24700927734375
 27
0.0
 37
139.3544921875
 40
347.0964681762745
 41
1.972972972850329
 42
50.0
 43
0.0
 44
0.0
 50
0.0
 51
0.0
 71
     0
 72
   100
 73
     1
 74
     3
 75
     0
 76
     0
 77
     0
 78
     0
  0
ENDTAB
  0
TABLE
  2
LTYPE
 70
     1
  0
LTYPE
  2
CONTINUOUS
 70
     0
  3
Solid line
 72
    65
 73
     0
 40
0.0
  0
ENDTAB
  0
TABLE
  2
LAYER
 70
     2
  0
LAYER
  2
0
 70
     0
 62
     7
  6
CONTINUOUS
  0
LAYER
  2
LAYER_1
 70
     0
 62
     7
  6
CONTINUOUS
  0
ENDTAB
  0
TABLE
  2
STYLE
 70
     1
  0
STYLE
  2
STANDARD
 70
     0
 40
0.0
 41
1.0
 50
0.0
 71
     0
 42
0.2
  3
txt
  4

  0
ENDTAB
  0
TABLE
  2
VIEW
 70
     0
  0
ENDTAB
  0
TABLE
  2
UCS
 70
     0
  0
ENDTAB
  0
TABLE
  2
APPID
 70
     1
  0
APPID
  2
ACAD
 70
     0
  0
ENDTAB
  0
TABLE
  2
DIMSTYLE
 70
     1
  0
DIMSTYLE
  2
STANDARD
 70
     0
  3

  4

  5

  6

  7

 40
1.0
 41
0.18
 42
0.0625
 43
0.38
 44
0.18
 45
0.0
 46
0.0
 47
0.0
 48
0.0
140
0.18
141
0.09
142
0.0
143
25.4
144
1.0
145
0.0
146
1.0
147
0.09
 71
     0
 72
     0
 73
     1
 74
     1
 75
     0
 76
     0
 77
     0
 78
     0
170
     0
171
     2
172
     0
173
     0
174
     0
175
     0
176
     0
177
     0
178
     0
  0
ENDTAB
  0
ENDSEC
  0
SECTION
  2
BLOCKS
  0
BLOCK
  8
0
  2
$MODEL_SPACE
 70
     0
 10
0.0
 20
0.0
 30
0.0
  3
$MODEL_SPACE
  1

  0
ENDBLK
  5
21
  8
0
  0
BLOCK
 67
     1
  8
0
  2
$PAPER_SPACE
 70
     0
 10
0.0
 20
0.0
 30
0.0
  3
$PAPER_SPACE
  1

  0
ENDBLK
  5
1D
 67
     1
  8
0
  0
BLOCK
  8
0
  2
E3_NODE
 70
     0
 10
0.0
 20
0.0
 30
0.0
  3
E3_NODE
  1

  0
POLYLINE
  5
3C
  8
0
 62
     9
 66
     1
 10
0.0
 20
0.0
 30
0.0
 70
    64
 71
    18
 72
    18
  0
VERTEX
  5
3D
  8
0
 10
-10.60599994659424
 20
137.3600006103516
 30
7.0
 70
   192
  0
VERTEX
  5
3E
  8
0
 10
0.0
 20
133.5
 30
7.0
 70
   192
  0
VERTEX
  5
3F
  8
0
 10
0.0
 20
133.5
 30
32.0
 70
   192
  0
VERTEX
  5
40
  8
0
 10
-16.24900054931641
 20
147.1349945068359
 30
32.0
 70
   192
  0
VERTEX
  5
41
  8
0
 10
-16.24900054931641
 20
147.1349945068359
 30
7.0
 70
   192
  0
VERTEX
  5
42
  8
0
 10
-14.28899955749512
 20
158.25
 30
7.0
 70
   192
  0
VERTEX
  5
43
  8
0
 10
-5.64300012588501
 20
165.5050048828125
 30
7.0
 70
   192
  0
VERTEX
  5
44
  8
0
 10
-14.28899955749512
 20
158.25
 30
32.0
 70
   192
  0
VERTEX
  5
45
  8
0
 10
5.64300012588501
 20
165.5050048828125
 30
7.0
 70
   192
  0
VERTEX
  5
46
  8
0
 10
-5.64300012588501
 20
165.5050048828125
 30
32.0
 70
   192
  0
VERTEX
  5
47
  8
0
 10
14.28899955749512
 20
158.25
 30
32.0
 70
   192
  0
VERTEX
  5
48
  8
0
 10
14.28899955749512
 20
158.25
 30
7.0
 70
   192
  0
VERTEX
  5
49
  8
0
 10
16.24900054931641
 20
147.1349945068359
 30
32.0
 70
   192
  0
VERTEX
  5
4A
  8
0
 10
16.24900054931641
 20
147.1349945068359
 30
7.0
 70
   192
  0
VERTEX
  5
4B
  8
0
 10
10.60599994659424
 20
137.3600006103516
 30
32.0
 70
   192
  0
VERTEX
  5
4C
  8
0
 10
10.60599994659424
 20
137.3600006103516
 30
7.0
 70
   192
  0
VERTEX
  5
4D
  8
0
 10
5.64300012588501
 20
165.5050048828125
 30
32.0
 70
   192
  0
VERTEX
  5
4E
  8
0
 10
-10.60599994659424
 20
137.3600006103516
 30
32.0
 70
   192
  0
VERTEX
  5
4F
  8
0
 62
     9
 10
0.0
 20
0.0
 30
0.0
 70
   128
 71
     3
 72
     2
 73
     1
  0
VERTEX
  5
50
  8
0
 62
     9
 10
0.0
 20
0.0
 30
0.0
 70
   128
 71
     1
 72
     5
 73
     4
  0
VERTEX
  5
51
  8
0
 62
     9
 10
0.0
 20
0.0
 30
0.0
 70
   128
 71
     4
 72
     5
 73
     6
  0
VERTEX
  5
52
  8
0
 62
     9
 10
0.0
 20
0.0
 30
0.0
 70
   128
 71
     8
 72
     6
 73
     7
  0
VERTEX
  5
53
  8
0
 62
     9
 10
0.0
 20
0.0
 30
0.0
 70
   128
 71
    10
 72
     7
 73
     9
  0
VERTEX
  5
54
  8
0
 62
     9
 10
0.0
 20
0.0
 30
0.0
 70
   128
 71
     9
 72
    12
 73
    11
  0
VERTEX
  5
55
  8
0
 62
     9
 10
0.0
 20
0.0
 30
0.0
 70
   128
 71
    12
 72
    14
 73
    13
  0
VERTEX
  5
56
  8
0
 62
     9
 10
0.0
 20
0.0
 30
0.0
 70
   128
 71
    14
 72
    16
 73
    15
  0
VERTEX
  5
57
  8
0
 62
     9
 10
0.0
 20
0.0
 30
0.0
 70
   128
 71
    16
 72
     2
 73
     3
  0
VERTEX
  5
58
  8
0
 62
     9
 10
0.0
 20
0.0
 30
0.0
 70
   128
 71
     3
 72
    15
 73
    16
  0
VERTEX
  5
59
  8
0
 62
     9
 10
0.0
 20
0.0
 30
0.0
 70
   128
 71
    15
 72
    13
 73
    14
  0
VERTEX
  5
5A
  8
0
 62
     9
 10
0.0
 20
0.0
 30
0.0
 70
   128
 71
    13
 72
    11
 73
    12
  0
VERTEX
  5
5B
  8
0
 62
     9
 10
0.0
 20
0.0
 30
0.0
 70
   128
 71
    11
 72
    17
 73
     9
  0
VERTEX
  5
5C
  8
0
 62
     9
 10
0.0
 20
0.0
 30
0.0
 70
   128
 71
     9
 72
    17
 73
    10
  0
VERTEX
  5
5D
  8
0
 62
     9
 10
0.0
 20
0.0
 30
0.0
 70
   128
 71
     7
 72
    10
 73
     8
  0
VERTEX
  5
5E
  8
0
 62
     9
 10
0.0
 20
0.0
 30
0.0
 70
   128
 71
     6
 72
     8
 73
     4
  0
VERTEX
  5
5F
  8
0
 62
     9
 10
0.0
 20
0.0
 30
0.0
 70
   128
 71
     4
 72
    18
 73
     1
  0
VERTEX
  5
60
  8
0
 62
     9
 10
0.0
 20
0.0
 30
0.0
 70
   128
 71
     1
 72
    18
 73
     3
  0
SEQEND
  5
61
  8
0
 62
     9
  0
ENDBLK
  5
65
  8
0
  0
BLOCK
  8
0
  2
E3_NODE_1_
 70
     0
 10
0.0
 20
0.0
 30
0.0
  3
E3_NODE_1_
  1

  0
POLYLINE
  5
67
  8
0
 62
     9
 66
     1
 10
0.0
 20
0.0
 30
0.0
 70
    64
 71
    20
 72
    20
  0
VERTEX
  5
68
  8
0
 10
22.27099990844727
 20
153.2019958496094
 30
7.0
 70
   192
  0
VERTEX
  5
69
  8
0
 10
17.00399971008301
 20
164.7339935302734
 30
7.0
 70
   192
  0
VERTEX
  5
6A
  8
0
 10
14.28899955749512
 20
158.25
 30
7.0
 70
   192
  0
VERTEX
  5
6B
  8
0
 10
6.339000225067139
 20
171.5890045166016
 30
7.0
 70
   192
  0
VERTEX
  5
6C
  8
0
 10
5.64300012588501
 20
165.5050048828125
 30
7.0
 70
   192
  0
VERTEX
  5
6D
  8
0
 10
-6.339000225067139
 20
171.5890045166016
 30
7.0
 70
   192
  0
VERTEX
  5
6E
  8
0
 10
-5.64300012588501
 20
165.5050048828125
 30
7.0
 70
   192
  0
VERTEX
  5
6F
  8
0
 10
20.46699905395508
 20
140.6529998779297
 30
7.0
 70
   192
  0
VERTEX
  5
70
  8
0
 10
16.24900054931641
 20
147.1349945068359
 30
7.0
 70
   192
  0
VERTEX
  5
71
  8
0
 10
10.60599994659424
 20
137.3600006103516
 30
7.0
 70
   192
  0
VERTEX
  5
72
  8
0
 10
-17.00399971008301
 20
164.7339935302734
 30
7.0
 70
   192
  0
VERTEX
  5
73
  8
0
 10
-14.28899955749512
 20
158.25
 30
7.0
 70
   192
  0
VERTEX
  5
74
  8
0
 10
-22.27099990844727
 20
153.2019958496094
 30
7.0
 70
   192
  0
VERTEX
  5
75
  8
0
 10
-16.24900054931641
 20
147.1349945068359
 30
7.0
 70
   192
  0
VERTEX
  5
76
  8
0
 10
-20.46699905395508
 20
140.6529998779297
 30
7.0
 70
   192
  0
VERTEX
  5
77
  8
0
 10
-12.16399955749512
 20
131.0720062255859
 30
7.0
 70
   192
  0
VERTEX
  5
78
  8
0
 10
-10.60599994659424
 20
137.3600006103516
 30
7.0
 70
   192
  0
VERTEX
  5
79
  8
0
 10
0.0
 20
127.5
 30
7.0
 70
   192
  0
VERTEX
  5
7A
  8
0
 10
0.0
 20
133.5
 30
7.0
 70
   192
  0
VERTEX
  5
7B
  8
0
 10
12.16399955749512
 20
131.0720062255859
 30
7.0
 70
   192
  0
VERTEX
  5
7C
  8
0
 62
     9
 10
0.0
 20
0.0
 30
0.0
 70
   128
 71
     3
 72
     2
 73
     1
  0
VERTEX
  5
7D
  8
0
 62
     9
 10
0.0
 20
0.0
 30
0.0
 70
   128
 71
     5
 72
     4
 73
     2
  0
VERTEX
  5
7E
  8
0
 62
     9
 10
0.0
 20
0.0
 30
0.0
 70
   128
 71
     7
 72
     6
 73
     4
  0
VERTEX
  5
7F
  8
0
 62
     9
 10
0.0
 20
0.0
 30
0.0
 70
   128
 71
    10
 72
     9
 73
     8
  0
VERTEX
  5
80
  8
0
 62
     9
 10
0.0
 20
0.0
 30
0.0
 70
   128
 71
     1
 72
     9
 73
     3
  0
VERTEX
  5
81
  8
0
 62
     9
 10
0.0
 20
0.0
 30
0.0
 70
   128
 71
     4
 72
     5
 73
     7
  0
VERTEX
  5
82
  8
0
 62
     9
 10
0.0
 20
0.0
 30
0.0
 70
   128
 71
     7
 72
    12
 73
    11
  0
VERTEX
  5
83
  8
0
 62
     9
 10
0.0
 20
0.0
 30
0.0
 70
   128
 71
    12
 72
    14
 73
    13
  0
VERTEX
  5
84
  8
0
 62
     9
 10
0.0
 20
0.0
 30
0.0
 70
   128
 71
     1
 72
     8
 73
     9
  0
VERTEX
  5
85
  8
0
 62
     9
 10
0.0
 20
0.0
 30
0.0
 70
   128
 71
    11
 72
     6
 73
     7
  0
VERTEX
  5
86
  8
0
 62
     9
 10
0.0
 20
0.0
 30
0.0
 70
   128
 71
    14
 72
    15
 73
    13
  0
VERTEX
  5
87
  8
0
 62
     9
 10
0.0
 20
0.0
 30
0.0
 70
   128
 71
    17
 72
    16
 73
    15
  0
VERTEX
  5
88
  8
0
 62
     9
 10
0.0
 20
0.0
 30
0.0
 70
   128
 71
     2
 72
     3
 73
     5
  0
VERTEX
  5
89
  8
0
 62
     9
 10
0.0
 20
0.0
 30
0.0
 70
   128
 71
    15
 72
    14
 73
    17
  0
VERTEX
  5
8A
  8
0
 62
     9
 10
0.0
 20
0.0
 30
0.0
 70
   128
 71
    13
 72
    11
 73
    12
  0
VERTEX
  5
8B
  8
0
 62
     9
 10
0.0
 20
0.0
 30
0.0
 70
   128
 71
    19
 72
    18
 73
    16
  0
VERTEX
  5
8C
  8
0
 62
     9
 10
0.0
 20
0.0
 30
0.0
 70
   128
 71
    19
 72
    10
 73
    20
  0
VERTEX
  5
8D
  8
0
 62
     9
 10
0.0
 20
0.0
 30
0.0
 70
   128
 71
    16
 72
    17
 73
    19
  0
VERTEX
  5
8E
  8
0
 62
     9
 10
0.0
 20
0.0
 30
0.0
 70
   128
 71
     8
 72
    20
 73
    10
  0
VERTEX
  5
8F
  8
0
 62
     9
 10
0.0
 20
0.0
 30
0.0
 70
   128
 71
    20
 72
    18
 73
    19
  0
SEQEND
  5
90
  8
0
 62
     9
  0
ENDBLK
  5
93
  8
0
  0
BLOCK
  8
0
  2
E3_NODE_2_
 70
     0
 10
0.0
 20
0.0
 30
0.0
  3
E3_NODE_2_
  1

  0
POLYLINE
  5
95
  8
0
 62
     9
 66
     1
 10
0.0
 20
0.0
 30
0.0
 70
    64
 71
    22
 72
    22
  0
VERTEX
  5
96
  8
0
 10
-12.16399955749512
 20
131.0720062255859
 30
7.0
 70
   192
  0
VERTEX
  5
97
  8
0
 10
-12.16399955749512
 20
131.0720062255859
 30
3.0
 70
   192
  0
VERTEX
  5
98
  8
0
 10
0.0
 20
127.5
 30
3.0
 70
   192
  0
VERTEX
  5
99
  8
0
 10
-20.46699905395508
 20
140.6529998779297
 30
7.0
 70
   192
  0
VERTEX
  5
9A
  8
0
 10
-20.46699905395508
 20
140.6529998779297
 30
3.0
 70
   192
  0
VERTEX
  5
9B
  8
0
 10
-22.27099990844727
 20
153.2019958496094
 30
7.0
 70
   192
  0
VERTEX
  5
9C
  8
0
 10
-22.27099990844727
 20
153.2019958496094
 30
3.0
 70
   192
  0
VERTEX
  5
9D
  8
0
 10
-17.00399971008301
 20
164.7339935302734
 30
7.0
 70
   192
  0
VERTEX
  5
9E
  8
0
 10
-17.00399971008301
 20
164.7339935302734
 30
3.0
 70
   192
  0
VERTEX
  5
9F
  8
0
 10
-6.339000225067139
 20
171.5890045166016
 30
7.0
 70
   192
  0
VERTEX
  5
A0
  8
0
 10
-6.339000225067139
 20
171.5890045166016
 30
3.0
 70
   192
  0
VERTEX
  5
A1
  8
0
 10
6.339000225067139
 20
171.5890045166016
 30
7.0
 70
   192
  0
VERTEX
  5
A2
  8
0
 10
6.339000225067139
 20
171.5890045166016
 30
3.0
 70
   192
  0
VERTEX
  5
A3
  8
0
 10
17.00399971008301
 20
164.7339935302734
 30
3.0
 70
   192
  0
VERTEX
  5
A4
  8
0
 10
22.27099990844727
 20
153.2019958496094
 30
3.0
 70
   192
  0
VERTEX
  5
A5
  8
0
 10
17.00399971008301
 20
164.7339935302734
 30
7.0
 70
   192
  0
VERTEX
  5
A6
  8
0
 10
20.46699905395508
 20
140.6529998779297
 30
3.0
 70
   192
  0
VERTEX
  5
A7
  8
0
 10
22.27099990844727
 20
153.2019958496094
 30
7.0
 70
   192
  0
VERTEX
  5
A8
  8
0
 10
12.16399955749512
 20
131.0720062255859
 30
3.0
 70
   192
  0
VERTEX
  5
A9
  8
0
 10
20.46699905395508
 20
140.6529998779297
 30
7.0
 70
   192
  0
VERTEX
  5
AA
  8
0
 10
12.16399955749512
 20
131.0720062255859
 30
7.0
 70
   192
  0
VERTEX
  5
AB
  8
0
 10
0.0
 20
127.5
 30
7.0
 70
   192
  0
VERTEX
  5
AC
  8
0
 62
     9
 10
0.0
 20
0.0
 30
0.0
 70
   128
 71
     3
 72
     2
 73
     1
  0
VERTEX
  5
AD
  8
0
 62
     9
 10
0.0
 20
0.0
 30
0.0
 70
   128
 71
     2
 72
     5
 73
     4
  0
VERTEX
  5
AE
  8
0
 62
     9
 10
0.0
 20
0.0
 30
0.0
 70
   128
 71
     5
 72
     7
 73
     6
  0
VERTEX
  5
AF
  8
0
 62
     9
 10
0.0
 20
0.0
 30
0.0
 70
   128
 71
     7
 72
     9
 73
     8
  0
VERTEX
  5
B0
  8
0
 62
     9
 10
0.0
 20
0.0
 30
0.0
 70
   128
 71
     9
 72
    11
 73
    10
  0
VERTEX
  5
B1
  8
0
 62
     9
 10
0.0
 20
0.0
 30
0.0
 70
   128
 71
    11
 72
    13
 73
    12
  0
VERTEX
  5
B2
  8
0
 62
     9
 10
0.0
 20
0.0
 30
0.0
 70
   128
 71
    12
 72
    13
 73
    14
  0
VERTEX
  5
B3
  8
0
 62
     9
 10
0.0
 20
0.0
 30
0.0
 70
   128
 71
    16
 72
    14
 73
    15
  0
VERTEX
  5
B4
  8
0
 62
     9
 10
0.0
 20
0.0
 30
0.0
 70
   128
 71
    18
 72
    15
 73
    17
  0
VERTEX
  5
B5
  8
0
 62
     9
 10
0.0
 20
0.0
 30
0.0
 70
   128
 71
    20
 72
    17
 73
    19
  0
VERTEX
  5
B6
  8
0
 62
     9
 10
0.0
 20
0.0
 30
0.0
 70
   128
 71
    21
 72
    19
 73
     3
  0
VERTEX
  5
B7
  8
0
 62
     9
 10
0.0
 20
0.0
 30
0.0
 70
   128
 71
     3
 72
    22
 73
    21
  0
VERTEX
  5
B8
  8
0
 62
     9
 10
0.0
 20
0.0
 30
0.0
 70
   128
 71
    19
 72
    21
 73
    20
  0
VERTEX
  5
B9
  8
0
 62
     9
 10
0.0
 20
0.0
 30
0.0
 70
   128
 71
    17
 72
    20
 73
    18
  0
VERTEX
  5
BA
  8
0
 62
     9
 10
0.0
 20
0.0
 30
0.0
 70
   128
 71
    15
 72
    18
 73
    16
  0
VERTEX
  5
BB
  8
0
 62
     9
 10
0.0
 20
0.0
 30
0.0
 70
   128
 71
    14
 72
    16
 73
    12
  0
VERTEX
  5
BC
  8
0
 62
     9
 10
0.0
 20
0.0
 30
0.0
 70
   128
 71
    12
 72
    10
 73
    11
  0
VERTEX
  5
BD
  8
0
 62
     9
 10
0.0
 20
0.0
 30
0.0
 70
   128
 71
    10
 72
     8
 73
     9
  0
VERTEX
  5
BE
  8
0
 62
     9
 10
0.0
 20
0.0
 30
0.0
 70
   128
 71
     8
 72
     6
 73
     7
  0
VERTEX
  5
BF
  8
0
 62
     9
 10
0.0
 20
0.0
 30
0.0
 70
   128
 71
     6
 72
     4
 73
     5
  0
VERTEX
  5
C0
  8
0
 62
     9
 10
0.0
 20
0.0
 30
0.0
 70
   128
 71
     4
 72
     1
 73
     2
  0
VERTEX
  5
C1
  8
0
 62
     9
 10
0.0
 20
0.0
 30
0.0
 70
   128
 71
     1
 72
    22
 73
     3
  0
SEQEND
  5
C2
  8
0
 62
     9
  0
ENDBLK
  5
C5
  8
0
  0
BLOCK
  8
0
  2
E3_NODE_3_
 70
     0
 10
0.0
 20
0.0
 30
0.0
  3
E3_NODE_3_
  1

  0
POLYLINE
  5
C7
  8
0
 62
     9
 66
     1
 10
0.0
 20
0.0
 30
0.0
 70
    64
 71
    23
 72
    23
  0
VERTEX
  5
C8
  8
0
 10
27.5
 20
150.0
 30
3.0
 70
   192
  0
VERTEX
  5
C9
  8
0
 10
22.27099990844727
 20
153.2019958496094
 30
3.0
 70
   192
  0
VERTEX
  5
CA
  8
0
 10
20.46699905395508
 20
140.6529998779297
 30
3.0
 70
   192
  0
VERTEX
  5
CB
  8
0
 10
23.81599998474121
 20
163.75
 30
3.0
 70
   192
  0
VERTEX
  5
CC
  8
0
 10
17.00399971008301
 20
164.7339935302734
 30
3.0
 70
   192
  0
VERTEX
  5
CD
  8
0
 10
23.81599998474121
 20
136.25
 30
3.0
 70
   192
  0
VERTEX
  5
CE
  8
0
 10
12.16399955749512
 20
131.0720062255859
 30
3.0
 70
   192
  0
VERTEX
  5
CF
  8
0
 10
13.75
 20
173.8159942626953
 30
3.0
 70
   192
  0
VERTEX
  5
D0
  8
0
 10
6.339000225067139
 20
171.5890045166016
 30
3.0
 70
   192
  0
VERTEX
  5
D1
  8
0
 10
0.0
 20
177.5
 30
3.0
 70
   192
  0
VERTEX
  5
D2
  8
0
 10
-6.339000225067139
 20
171.5890045166016
 30
3.0
 70
   192
  0
VERTEX
  5
D3
  8
0
 10
-13.75
 20
173.8159942626953
 30
3.0
 70
   192
  0
VERTEX
  5
D4
  8
0
 10
-23.81599998474121
 20
163.75
 30
3.0
 70
   192
  0
VERTEX
  5
D5
  8
0
 10
-17.00399971008301
 20
164.7339935302734
 30
3.0
 70
   192
  0
VERTEX
  5
D6
  8
0
 10
-27.5
 20
150.0
 30
3.0
 70
   192
  0
VERTEX
  5
D7
  8
0
 10
-22.27099990844727
 20
153.2019958496094
 30
3.0
 70
   192
  0
VERTEX
  5
D8
  8
0
 10
-23.81599998474121
 20
136.25
 30
3.0
 70
   192
  0
VERTEX
  5
D9
  8
0
 10
-20.46699905395508
 20
140.6529998779297
 30
3.0
 70
   192
  0
VERTEX
  5
DA
  8
0
 10
-13.75
 20
126.1839981079102
 30
3.0
 70
   192
  0
VERTEX
  5
DB
  8
0
 10
-12.16399955749512
 20
131.0720062255859
 30
3.0
 70
   192
  0
VERTEX
  5
DC
  8
0
 10
0.0
 20
122.5
 30
3.0
 70
   192
  0
VERTEX
  5
DD
  8
0
 10
0.0
 20
127.5
 30
3.0
 70
   192
  0
VERTEX
  5
DE
  8
0
 10
13.75
 20
126.1839981079102
 30
3.0
 70
   192
  0
VERTEX
  5
DF
  8
0
 62
     9
 10
0.0
 20
0.0
 30
0.0
 70
   128
 71
     3
 72
     2
 73
     1
  0
VERTEX
  5
E0
  8
0
 62
     9
 10
0.0
 20
0.0
 30
0.0
 70
   128
 71
     2
 72
     5
 73
     4
  0
VERTEX
  5
E1
  8
0
 62
     9
 10
0.0
 20
0.0
 30
0.0
 70
   128
 71
     7
 72
     3
 73
     6
  0
VERTEX
  5
E2
  8
0
 62
     9
 10
0.0
 20
0.0
 30
0.0
 70
   128
 71
     4
 72
     1
 73
     2
  0
VERTEX
  5
E3
  8
0
 62
     9
 10
0.0
 20
0.0
 30
0.0
 70
   128
 71
     1
 72
     6
 73
     3
  0
VERTEX
  5
E4
  8
0
 62
     9
 10
0.0
 20
0.0
 30
0.0
 70
   128
 71
     5
 72
     9
 73
     8
  0
VERTEX
  5
E5
  8
0
 62
     9
 10
0.0
 20
0.0
 30
0.0
 70
   128
 71
     9
 72
    11
 73
    10
  0
VERTEX
  5
E6
  8
0
 62
     9
 10
0.0
 20
0.0
 30
0.0
 70
   128
 71
     8
 72
     4
 73
     5
  0
VERTEX
  5
E7
  8
0
 62
     9
 10
0.0
 20
0.0
 30
0.0
 70
   128
 71
    11
 72
    12
 73
    10
  0
VERTEX
  5
E8
  8
0
 62
     9
 10
0.0
 20
0.0
 30
0.0
 70
   128
 71
    10
 72
     8
 73
     9
  0
VERTEX
  5
E9
  8
0
 62
     9
 10
0.0
 20
0.0
 30
0.0
 70
   128
 71
    14
 72
    13
 73
    12
  0
VERTEX
  5
EA
  8
0
 62
     9
 10
0.0
 20
0.0
 30
0.0
 70
   128
 71
    16
 72
    15
 73
    13
  0
VERTEX
  5
EB
  8
0
 62
     9
 10
0.0
 20
0.0
 30
0.0
 70
   128
 71
    18
 72
    17
 73
    15
  0
VERTEX
  5
EC
  8
0
 62
     9
 10
0.0
 20
0.0
 30
0.0
 70
   128
 71
    20
 72
    19
 73
    17
  0
VERTEX
  5
ED
  8
0
 62
     9
 10
0.0
 20
0.0
 30
0.0
 70
   128
 71
    22
 72
    21
 73
    19
  0
VERTEX
  5
EE
  8
0
 62
     9
 10
0.0
 20
0.0
 30
0.0
 70
   128
 71
    22
 72
     7
 73
    23
  0
VERTEX
  5
EF
  8
0
 62
     9
 10
0.0
 20
0.0
 30
0.0
 70
   128
 71
    12
 72
    11
 73
    14
  0
VERTEX
  5
F0
  8
0
 62
     9
 10
0.0
 20
0.0
 30
0.0
 70
   128
 71
    15
 72
    16
 73
    18
  0
VERTEX
  5
F1
  8
0
 62
     9
 10
0.0
 20
0.0
 30
0.0
 70
   128
 71
    19
 72
    20
 73
    22
  0
VERTEX
  5
F2
  8
0
 62
     9
 10
0.0
 20
0.0
 30
0.0
 70
   128
 71
     6
 72
    23
 73
     7
  0
VERTEX
  5
F3
  8
0
 62
     9
 10
0.0
 20
0.0
 30
0.0
 70
   128
 71
    17
 72
    18
 73
    20
  0
VERTEX
  5
F4
  8
0
 62
     9
 10
0.0
 20
0.0
 30
0.0
 70
   128
 71
    13
 72
    14
 73
    16
  0
VERTEX
  5
F5
  8
0
 62
     9
 10
0.0
 20
0.0
 30
0.0
 70
   128
 71
    23
 72
    21
 73
    22
  0
SEQEND
  5
F6
  8
0
 62
     9
  0
ENDBLK
  5
F9
  8
0
  0
BLOCK
  8
0
  2
E3_NODE_4_
 70
     0
 10
0.0
 20
0.0
 30
0.0
  3
E3_NODE_4_
  1

  0
POLYLINE
  5
FB
  8
0
 62
     9
 66
     1
 10
0.0
 20
0.0
 30
0.0
 70
    64
 71
    24
 72
    24
  0
VERTEX
  5
FC
  8
0
 10
-13.75
 20
126.1839981079102
 30
-3.0
 70
   192
  0
VERTEX
  5
FD
  8
0
 10
0.0
 20
122.5
 30
-3.0
 70
   192
  0
VERTEX
  5
FE
  8
0
 10
0.0
 20
122.5
 30
3.0
 70
   192
  0
VERTEX
  5
FF
  8
0
 10
-13.75
 20
126.1839981079102
 30
3.0
 70
   192
  0
VERTEX
  5
100
  8
0
 10
-23.81599998474121
 20
136.25
 30
3.0
 70
   192
  0
VERTEX
  5
101
  8
0
 10
-23.81599998474121
 20
136.25
 30
-3.0
 70
   192
  0
VERTEX
  5
102
  8
0
 10
-27.5
 20
150.0
 30
-3.0
 70
   192
  0
VERTEX
  5
103
  8
0
 10
-23.81599998474121
 20
163.75
 30
-3.0
 70
   192
  0
VERTEX
  5
104
  8
0
 10
-27.5
 20
150.0
 30
3.0
 70
   192
  0
VERTEX
  5
105
  8
0
 10
-23.81599998474121
 20
163.75
 30
3.0
 70
   192
  0
VERTEX
  5
106
  8
0
 10
-13.75
 20
173.8159942626953
 30
3.0
 70
   192
  0
VERTEX
  5
107
  8
0
 10
-13.75
 20
173.8159942626953
 30
-3.0
 70
   192
  0
VERTEX
  5
108
  8
0
 10
0.0
 20
177.5
 30
-3.0
 70
   192
  0
VERTEX
  5
109
  8
0
 10
13.75
 20
173.8159942626953
 30
3.0
 70
   192
  0
VERTEX
  5
10A
  8
0
 10
13.75
 20
173.8159942626953
 30
-3.0
 70
   192
  0
VERTEX
  5
10B
  8
0
 10
23.81599998474121
 20
163.75
 30
3.0
 70
   192
  0
VERTEX
  5
10C
  8
0
 10
27.5
 20
150.0
 30
3.0
 70
   192
  0
VERTEX
  5
10D
  8
0
 10
27.5
 20
150.0
 30
-3.0
 70
   192
  0
VERTEX
  5
10E
  8
0
 10
23.81599998474121
 20
163.75
 30
-3.0
 70
   192
  0
VERTEX
  5
10F
  8
0
 10
23.81599998474121
 20
136.25
 30
3.0
 70
   192
  0
VERTEX
  5
110
  8
0
 10
23.81599998474121
 20
136.25
 30
-3.0
 70
   192
  0
VERTEX
  5
111
  8
0
 10
13.75
 20
126.1839981079102
 30
3.0
 70
   192
  0
VERTEX
  5
112
  8
0
 10
13.75
 20
126.1839981079102
 30
-3.0
 70
   192
  0
VERTEX
  5
113
  8
0
 10
0.0
 20
177.5
 30
3.0
 70
   192
  0
VERTEX
  5
114
  8
0
 62
     9
 10
0.0
 20
0.0
 30
0.0
 70
   128
 71
     3
 72
     2
 73
     1
  0
VERTEX
  5
115
  8
0
 62
     9
 10
0.0
 20
0.0
 30
0.0
 70
   128
 71
     6
 72
     5
 73
     4
  0
VERTEX
  5
116
  8
0
 62
     9
 10
0.0
 20
0.0
 30
0.0
 70
   128
 71
     5
 72
     6
 73
     7
  0
VERTEX
  5
117
  8
0
 62
     9
 10
0.0
 20
0.0
 30
0.0
 70
   128
 71
     9
 72
     7
 73
     8
  0
VERTEX
  5
118
  8
0
 62
     9
 10
0.0
 20
0.0
 30
0.0
 70
   128
 71
    12
 72
    11
 73
    10
  0
VERTEX
  5
119
  8
0
 62
     9
 10
0.0
 20
0.0
 30
0.0
 70
   128
 71
    11
 72
    12
 73
    13
  0
VERTEX
  5
11A
  8
0
 62
     9
 10
0.0
 20
0.0
 30
0.0
 70
   128
 71
    13
 72
    15
 73
    14
  0
VERTEX
  5
11B
  8
0
 62
     9
 10
0.0
 20
0.0
 30
0.0
 70
   128
 71
    16
 72
    14
 73
    15
  0
VERTEX
  5
11C
  8
0
 62
     9
 10
0.0
 20
0.0
 30
0.0
 70
   128
 71
    19
 72
    18
 73
    17
  0
VERTEX
  5
11D
  8
0
 62
     9
 10
0.0
 20
0.0
 30
0.0
 70
   128
 71
    18
 72
    21
 73
    20
  0
VERTEX
  5
11E
  8
0
 62
     9
 10
0.0
 20
0.0
 30
0.0
 70
   128
 71
    22
 72
    20
 73
    21
  0
VERTEX
  5
11F
  8
0
 62
     9
 10
0.0
 20
0.0
 30
0.0
 70
   128
 71
    23
 72
     2
 73
     3
  0
VERTEX
  5
120
  8
0
 62
     9
 10
0.0
 20
0.0
 30
0.0
 70
   128
 71
     3
 72
    22
 73
    23
  0
VERTEX
  5
121
  8
0
 62
     9
 10
0.0
 20
0.0
 30
0.0
 70
   128
 71
    21
 72
    23
 73
    22
  0
VERTEX
  5
122
  8
0
 62
     9
 10
0.0
 20
0.0
 30
0.0
 70
   128
 71
    20
 72
    17
 73
    18
  0
VERTEX
  5
123
  8
0
 62
     9
 10
0.0
 20
0.0
 30
0.0
 70
   128
 71
    17
 72
    16
 73
    19
  0
VERTEX
  5
124
  8
0
 62
     9
 10
0.0
 20
0.0
 30
0.0
 70
   128
 71
    15
 72
    19
 73
    16
  0
VERTEX
  5
125
  8
0
 62
     9
 10
0.0
 20
0.0
 30
0.0
 70
   128
 71
    14
 72
    24
 73
    13
  0
VERTEX
  5
126
  8
0
 62
     9
 10
0.0
 20
0.0
 30
0.0
 70
   128
 71
    13
 72
    24
 73
    11
  0
VERTEX
  5
127
  8
0
 62
     9
 10
0.0
 20
0.0
 30
0.0
 70
   128
 71
    10
 72
     8
 73
    12
  0
VERTEX
  5
128
  8
0
 62
     9
 10
0.0
 20
0.0
 30
0.0
 70
   128
 71
     8
 72
    10
 73
     9
  0
VERTEX
  5
129
  8
0
 62
     9
 10
0.0
 20
0.0
 30
0.0
 70
   128
 71
     7
 72
     9
 73
     5
  0
VERTEX
  5
12A
  8
0
 62
     9
 10
0.0
 20
0.0
 30
0.0
 70
   128
 71
     4
 72
     1
 73
     6
  0
VERTEX
  5
12B
  8
0
 62
     9
 10
0.0
 20
0.0
 30
0.0
 70
   128
 71
     1
 72
     4
 73
     3
  0
SEQEND
  5
12C
  8
0
 62
     9
  0
ENDBLK
  5
12F
  8
0
  0
BLOCK
  8
0
  2
E3_NODE_5_
 70
     0
 10
0.0
 20
0.0
 30
0.0
  3
E3_NODE_5_
  1

  0
POLYLINE
  5
131
  8
0
 62
     9
 66
     1
 10
0.0
 20
0.0
 30
0.0
 70
    64
 71
    12
 72
    10
  0
VERTEX
  5
132
  8
0
 10
-13.75
 20
126.1839981079102
 30
-3.0
 70
   192
  0
VERTEX
  5
133
  8
0
 10
23.81599998474121
 20
136.25
 30
-3.0
 70
   192
  0
VERTEX
  5
134
  8
0
 10
13.75
 20
126.1839981079102
 30
-3.0
 70
   192
  0
VERTEX
  5
135
  8
0
 10
-23.81599998474121
 20
163.75
 30
-3.0
 70
   192
  0
VERTEX
  5
136
  8
0
 10
-13.75
 20
173.8159942626953
 30
-3.0
 70
   192
  0
VERTEX
  5
137
  8
0
 10
27.5
 20
150.0
 30
-3.0
 70
   192
  0
VERTEX
  5
138
  8
0
 10
13.75
 20
173.8159942626953
 30
-3.0
 70
   192
  0
VERTEX
  5
139
  8
0
 10
23.81599998474121
 20
163.75
 30
-3.0
 70
   192
  0
VERTEX
  5
13A
  8
0
 10
0.0
 20
177.5
 30
-3.0
 70
   192
  0
VERTEX
  5
13B
  8
0
 10
-23.81599998474121
 20
136.25
 30
-3.0
 70
   192
  0
VERTEX
  5
13C
  8
0
 10
-27.5
 20
150.0
 30
-3.0
 70
   192
  0
VERTEX
  5
13D
  8
0
 10
0.0
 20
122.5
 30
-3.0
 70
   192
  0
VERTEX
  5
13E
  8
0
 62
     9
 10
0.0
 20
0.0
 30
0.0
 70
   128
 71
     3
 72
     2
 73
     1
  0
VERTEX
  5
13F
  8
0
 62
     9
 10
0.0
 20
0.0
 30
0.0
 70
   128
 71
     5
 72
     4
 73
     1
  0
VERTEX
  5
140
  8
0
 62
     9
 10
0.0
 20
0.0
 30
0.0
 70
   128
 71
     2
 72
     6
 73
     1
  0
VERTEX
  5
141
  8
0
 62
     9
 10
0.0
 20
0.0
 30
0.0
 70
   128
 71
     8
 72
     7
 73
     1
  0
VERTEX
  5
142
  8
0
 62
     9
 10
0.0
 20
0.0
 30
0.0
 70
   128
 71
     1
 72
     9
 73
     5
  0
VERTEX
  5
143
  8
0
 62
     9
 10
0.0
 20
0.0
 30
0.0
 70
   128
 71
    11
 72
    10
 73
     1
  0
VERTEX
  5
144
  8
0
 62
     9
 10
0.0
 20
0.0
 30
0.0
 70
   128
 71
     1
 72
     6
 73
     8
  0
VERTEX
  5
145
  8
0
 62
     9
 10
0.0
 20
0.0
 30
0.0
 70
   128
 71
     1
 72
     4
 73
    11
  0
VERTEX
  5
146
  8
0
 62
     9
 10
0.0
 20
0.0
 30
0.0
 70
   128
 71
     1
 72
     7
 73
     9
  0
VERTEX
  5
147
  8
0
 62
     9
 10
0.0
 20
0.0
 30
0.0
 70
   128
 71
     1
 72
    12
 73
     3
  0
SEQEND
  5
148
  8
0
 62
     9
  0
ENDBLK
  5
14B
  8
0
  0
BLOCK
  8
0
  2
E3_NODE_6_
 70
     0
 10
0.0
 20
0.0
 30
0.0
  3
E3_NODE_6_
  1

  0
POLYLINE
  5
14D
  8
0
 62
     9
 66
     1
 10
0.0
 20
0.0
 30
0.0
 70
    64
 71
    12
 72
    12
  0
VERTEX
  5
14E
  8
0
 10
144.1529998779297
 20
-9.958999633789062
 30
202.6089935302734
 70
   192
  0
VERTEX
  5
14F
  8
0
 10
138.4900054931641
 20
0.0
 30
201.6100006103516
 70
   192
  0
VERTEX
  5
150
  8
0
 10
139.156005859375
 20
0.0
 30
200.7120056152344
 70
   192
  0
VERTEX
  5
151
  8
0
 10
155.4779968261719
 20
-9.958999633789062
 30
204.6060028076172
 70
   192
  0
VERTEX
  5
152
  8
0
 10
144.572998046875
 20
-9.526000022888184
 30
201.6670074462891
 70
   192
  0
VERTEX
  5
153
  8
0
 10
161.1410064697266
 20
0.0
 30
205.60400390625
 70
   192
  0
VERTEX
  5
154
  8
0
 10
155.406005859375
 20
-9.526000022888184
 30
203.5769958496094
 70
   192
  0
VERTEX
  5
155
  8
0
 10
160.8220062255859
 20
0.0
 30
204.5319976806641
 70
   192
  0
VERTEX
  5
156
  8
0
 10
155.406005859375
 20
9.526000022888184
 30
203.5769958496094
 70
   192
  0
VERTEX
  5
157
  8
0
 10
155.4779968261719
 20
9.958999633789062
 30
204.6060028076172
 70
   192
  0
VERTEX
  5
158
  8
0
 10
144.572998046875
 20
9.526000022888184
 30
201.6670074462891
 70
   192
  0
VERTEX
  5
159
  8
0
 10
144.1529998779297
 20
9.958999633789062
 30
202.6089935302734
 70
   192
  0
VERTEX
  5
15A
  8
0
 62
     9
 10
0.0
 20
0.0
 30
0.0
 70
   128
 71
     3
 72
     2
 73
     1
  0
VERTEX
  5
15B
  8
0
 62
     9
 10
0.0
 20
0.0
 30
0.0
 70
   128
 71
     5
 72
     1
 73
     4
  0
VERTEX
  5
15C
  8
0
 62
     9
 10
0.0
 20
0.0
 30
0.0
 70
   128
 71
     7
 72
     4
 73
     6
  0
VERTEX
  5
15D
  8
0
 62
     9
 10
0.0
 20
0.0
 30
0.0
 70
   128
 71
     9
 72
     8
 73
     6
  0
VERTEX
  5
15E
  8
0
 62
     9
 10
0.0
 20
0.0
 30
0.0
 70
   128
 71
    11
 72
     9
 73
    10
  0
VERTEX
  5
15F
  8
0
 62
     9
 10
0.0
 20
0.0
 30
0.0
 70
   128
 71
     3
 72
    11
 73
    12
  0
VERTEX
  5
160
  8
0
 62
     9
 10
0.0
 20
0.0
 30
0.0
 70
   128
 71
    12
 72
     2
 73
     3
  0
VERTEX
  5
161
  8
0
 62
     9
 10
0.0
 20
0.0
 30
0.0
 70
   128
 71
    10
 72
    12
 73
    11
  0
VERTEX
  5
162
  8
0
 62
     9
 10
0.0
 20
0.0
 30
0.0
 70
   128
 71
     6
 72
    10
 73
     9
  0
VERTEX
  5
163
  8
0
 62
     9
 10
0.0
 20
0.0
 30
0.0
 70
   128
 71
     6
 72
     8
 73
     7
  0
VERTEX
  5
164
  8
0
 62
     9
 10
0.0
 20
0.0
 30
0.0
 70
   128
 71
     4
 72
     7
 73
     5
  0
VERTEX
  5
165
  8
0
 62
     9
 10
0.0
 20
0.0
 30
0.0
 70
   128
 71
     1
 72
     5
 73
     3
  0
SEQEND
  5
166
  8
0
 62
     9
  0
ENDBLK
  5
169
  8
0
  0
BLOCK
  8
0
  2
E3_NODE_7_
 70
     0
 10
0.0
 20
0.0
 30
0.0
  3
E3_NODE_7_
  1

  0
POLYLINE
  5
16B
  8
0
 62
     9
 66
     1
 10
0.0
 20
0.0
 30
0.0
 70
    64
 71
    19
 72
    19
  0
VERTEX
  5
16C
  8
0
 10
155.4779968261719
 20
-9.958999633789062
 30
204.6060028076172
 70
   192
  0
VERTEX
  5
16D
  8
0
 10
161.1410064697266
 20
0.0
 30
205.60400390625
 70
   192
  0
VERTEX
  5
16E
  8
0
 10
159.5030059814453
 20
-3.933000087738037
 30
210.8999938964844
 70
   192
  0
VERTEX
  5
16F
  8
0
 10
159.5030059814453
 20
0.0
 30
210.8999938964844
 70
   192
  0
VERTEX
  5
170
  8
0
 10
144.1529998779297
 20
-9.958999633789062
 30
202.6089935302734
 70
   192
  0
VERTEX
  5
171
  8
0
 10
148.8609924316406
 20
-11.5
 30
209.0240020751953
 70
   192
  0
VERTEX
  5
172
  8
0
 10
146.8939971923828
 20
-11.32499980926514
 30
208.677001953125
 70
   192
  0
VERTEX
  5
173
  8
0
 10
154.5229949951172
 20
-9.958999633789062
 30
210.0220031738281
 70
   192
  0
VERTEX
  5
174
  8
0
 10
138.4900054931641
 20
0.0
 30
201.6100006103516
 70
   192
  0
VERTEX
  5
175
  8
0
 10
140.1849975585938
 20
-7.392000198364258
 30
207.4940032958984
 70
   192
  0
VERTEX
  5
176
  8
0
 10
143.5390014648438
 20
-9.359000205993652
 30
208.0850067138672
 70
   192
  0
VERTEX
  5
177
  8
0
 10
137.5350036621094
 20
0.0
 30
207.0269927978516
 70
   192
  0
VERTEX
  5
178
  8
0
 10
140.1849975585938
 20
7.392000198364258
 30
207.4940032958984
 70
   192
  0
VERTEX
  5
179
  8
0
 10
144.1529998779297
 20
9.958999633789062
 30
202.6089935302734
 70
   192
  0
VERTEX
  5
17A
  8
0
 10
155.4779968261719
 20
9.958999633789062
 30
204.6060028076172
 70
   192
  0
VERTEX
  5
17B
  8
0
 10
146.8939971923828
 20
11.32499980926514
 30
208.677001953125
 70
   192
  0
VERTEX
  5
17C
  8
0
 10
143.5390014648438
 20
9.359000205993652
 30
208.0850067138672
 70
   192
  0
VERTEX
  5
17D
  8
0
 10
154.5229949951172
 20
9.958999633789062
 30
210.0220031738281
 70
   192
  0
VERTEX
  5
17E
  8
0
 10
159.5030059814453
 20
3.933000087738037
 30
210.8999938964844
 70
   192
  0
VERTEX
  5
17F
  8
0
 62
     9
 10
0.0
 20
0.0
 30
0.0
 70
   128
 71
     3
 72
     2
 73
     1
  0
VERTEX
  5
180
  8
0
 62
     9
 10
0.0
 20
0.0
 30
0.0
 70
   128
 71
     3
 72
     4
 73
     2
  0
VERTEX
  5
181
  8
0
 62
     9
 10
0.0
 20
0.0
 30
0.0
 70
   128
 71
     6
 72
     1
 73
     5
  0
VERTEX
  5
182
  8
0
 62
     9
 10
0.0
 20
0.0
 30
0.0
 70
   128
 71
     5
 72
     7
 73
     6
  0
VERTEX
  5
183
  8
0
 62
     9
 10
0.0
 20
0.0
 30
0.0
 70
   128
 71
     6
 72
     8
 73
     1
  0
VERTEX
  5
184
  8
0
 62
     9
 10
0.0
 20
0.0
 30
0.0
 70
   128
 71
    10
 72
     5
 73
     9
  0
VERTEX
  5
185
  8
0
 62
     9
 10
0.0
 20
0.0
 30
0.0
 70
   128
 71
    10
 72
    11
 73
     5
  0
VERTEX
  5
186
  8
0
 62
     9
 10
0.0
 20
0.0
 30
0.0
 70
   128
 71
    13
 72
    12
 73
     9
  0
VERTEX
  5
187
  8
0
 62
     9
 10
0.0
 20
0.0
 30
0.0
 70
   128
 71
     9
 72
    14
 73
    13
  0
VERTEX
  5
188
  8
0
 62
     9
 10
0.0
 20
0.0
 30
0.0
 70
   128
 71
    16
 72
    14
 73
    15
  0
VERTEX
  5
189
  8
0
 62
     9
 10
0.0
 20
0.0
 30
0.0
 70
   128
 71
    16
 72
    17
 73
    14
  0
VERTEX
  5
18A
  8
0
 62
     9
 10
0.0
 20
0.0
 30
0.0
 70
   128
 71
    19
 72
    18
 73
    15
  0
VERTEX
  5
18B
  8
0
 62
     9
 10
0.0
 20
0.0
 30
0.0
 70
   128
 71
    15
 72
     2
 73
    19
  0
VERTEX
  5
18C
  8
0
 62
     9
 10
0.0
 20
0.0
 30
0.0
 70
   128
 71
     2
 72
     4
 73
    19
  0
VERTEX
  5
18D
  8
0
 62
     9
 10
0.0
 20
0.0
 30
0.0
 70
   128
 71
    15
 72
    18
 73
    16
  0
VERTEX
  5
18E
  8
0
 62
     9
 10
0.0
 20
0.0
 30
0.0
 70
   128
 71
    14
 72
    17
 73
    13
  0
VERTEX
  5
18F
  8
0
 62
     9
 10
0.0
 20
0.0
 30
0.0
 70
   128
 71
     9
 72
    12
 73
    10
  0
VERTEX
  5
190
  8
0
 62
     9
 10
0.0
 20
0.0
 30
0.0
 70
   128
 71
     5
 72
    11
 73
     7
  0
VERTEX
  5
191
  8
0
 62
     9
 10
0.0
 20
0.0
 30
0.0
 70
   128
 71
     1
 72
     8
 73
     3
  0
SEQEND
  5
192
  8
0
 62
     9
  0
ENDBLK
  5
195
  8
0
  0
BLOCK
  8
0
  2
E3_NODE_8_
 70
     0
 10
0.0
 20
0.0
 30
0.0
  3
E3_NODE_8_
  1

  0
POLYLINE
  5
197
  8
0
 62
     9
 66
     1
 10
0.0
 20
0.0
 30
0.0
 70
    64
 71
   118
 72
   208
  0
VERTEX
  5
198
  8
0
 10
13.79599952697754
 20
0.0
 30
212.9210052490234
 70
   192
  0
VERTEX
  5
199
  8
0
 10
11.20300006866455
 20
-7.392000198364258
 30
213.6380004882812
 70
   192
  0
VERTEX
  5
19A
  8
0
 10
9.472000122070312
 20
-5.572999954223633
 30
196.0
 70
   192
  0
VERTEX
  5
19B
  8
0
 10
8.8100004196167
 20
-7.392000198364258
 30
196.0
 70
   192
  0
VERTEX
  5
19C
  8
0
 10
20.51799964904785
 20
0.0
 30
228.6190032958984
 70
   192
  0
VERTEX
  5
19D
  8
0
 10
18.20999908447266
 20
-7.392000198364258
 30
230.0010070800781
 70
   192
  0
VERTEX
  5
19E
  8
0
 10
31.18000030517578
 20
0.0
 30
241.9570007324219
 70
   192
  0
VERTEX
  5
19F
  8
0
 10
29.32299995422363
 20
-7.392000198364258
 30
243.9040069580078
 70
   192
  0
VERTEX
  5
1A0
  8
0
 10
45.01100158691406
 20
0.0
 30
251.9720001220703
 70
   192
  0
VERTEX
  5
1A1
  8
0
 10
43.7400016784668
 20
-7.392000198364258
 30
254.343994140625
 70
   192
  0
VERTEX
  5
1A2
  8
0
 10
61.0099983215332
 20
0.0
 30
257.9400024414062
 70
   192
  0
VERTEX
  5
1A3
  8
0
 10
60.41799926757812
 20
-7.392000198364258
 30
260.5639953613281
 70
   192
  0
VERTEX
  5
1A4
  8
0
 10
78.02100372314453
 20
0.0
 30
259.4280090332031
 70
   192
  0
VERTEX
  5
1A5
  8
0
 10
78.14900207519531
 20
-7.392000198364258
 30
262.1159973144531
 70
   192
  0
VERTEX
  5
1A6
  8
0
 10
94.81400299072266
 20
0.0
 30
256.3299865722656
 70
   192
  0
VERTEX
  5
1A7
  8
0
 10
95.65399932861328
 20
-7.392000198364258
 30
258.885986328125
 70
   192
  0
VERTEX
  5
1A8
  8
0
 10
110.1740036010742
 20
0.0
 30
248.8679962158203
 70
   192
  0
VERTEX
  5
1A9
  8
0
 10
111.6640014648438
 20
-7.392000198364258
 30
251.1080017089844
 70
   192
  0
VERTEX
  5
1AA
  8
0
 10
122.9899978637695
 20
0.0
 30
237.5839996337891
 70
   192
  0
VERTEX
  5
1AB
  8
0
 10
125.0230026245117
 20
-7.392000198364258
 30
239.3459930419922
 70
   192
  0
VERTEX
  5
1AC
  8
0
 10
132.3359985351562
 20
0.0
 30
223.2920074462891
 70
   192
  0
VERTEX
  5
1AD
  8
0
 10
134.7649993896484
 20
-7.392000198364258
 30
224.447998046875
 70
   192
  0
VERTEX
  5
1AE
  8
0
 10
140.1849975585938
 20
-7.392000198364258
 30
207.4940032958984
 70
   192
  0
VERTEX
  5
1AF
  8
0
 10
4.63700008392334
 20
-11.32499980926514
 30
215.4530029296875
 70
   192
  0
VERTEX
  5
1B0
  8
0
 10
1.996999979019165
 20
-11.32499980926514
 30
196.0
 70
   192
  0
VERTEX
  5
1B1
  8
0
 10
12.36499977111816
 20
-11.32499980926514
 30
233.5
 70
   192
  0
VERTEX
  5
1B2
  8
0
 10
24.62199974060059
 20
-11.32499980926514
 30
248.8350067138672
 70
   192
  0
VERTEX
  5
1B3
  8
0
 10
40.52299880981445
 20
-11.32499980926514
 30
260.3489990234375
 70
   192
  0
VERTEX
  5
1B4
  8
0
 10
58.91699981689453
 20
-11.32499980926514
 30
267.2090148925781
 70
   192
  0
VERTEX
  5
1B5
  8
0
 10
78.4739990234375
 20
-11.32499980926514
 30
268.9200134277344
 70
   192
  0
VERTEX
  5
1B6
  8
0
 10
97.77899932861328
 20
-11.32499980926514
 30
265.3580017089844
 70
   192
  0
VERTEX
  5
1B7
  8
0
 10
115.4380035400391
 20
-11.32499980926514
 30
256.7799987792969
 70
   192
  0
VERTEX
  5
1B8
  8
0
 10
130.1719970703125
 20
-11.32499980926514
 30
243.8070068359375
 70
   192
  0
VERTEX
  5
1B9
  8
0
 10
140.9160003662109
 20
-11.32499980926514
 30
227.3760070800781
 70
   192
  0
VERTEX
  5
1BA
  8
0
 10
143.5390014648438
 20
-9.359000205993652
 30
208.0850067138672
 70
   192
  0
VERTEX
  5
1BB
  8
0
 10
-2.829999923706055
 20
-9.958999633789062
 30
217.5180053710938
 70
   192
  0
VERTEX
  5
1BC
  8
0
 10
0.0
 20
-11.5
 30
196.0
 70
   192
  0
VERTEX
  5
1BD
  8
0
 10
-5.75
 20
-9.958999633789062
 30
196.0
 70
   192
  0
VERTEX
  5
1BE
  8
0
 10
5.717999935150146
 20
-9.958999633789062
 30
237.47900390625
 70
   192
  0
VERTEX
  5
1BF
  8
0
 10
19.27599906921387
 20
-9.958999633789062
 30
254.4420013427734
 70
   192
  0
VERTEX
  5
1C0
  8
0
 10
36.86399841308594
 20
-9.958999633789062
 30
267.177001953125
 70
   192
  0
VERTEX
  5
1C1
  8
0
 10
57.20999908447266
 20
-9.958999633789062
 30
274.7659912109375
 70
   192
  0
VERTEX
  5
1C2
  8
0
 10
78.84200286865234
 20
-9.958999633789062
 30
276.6589965820312
 70
   192
  0
VERTEX
  5
1C3
  8
0
 10
100.1969985961914
 20
-9.958999633789062
 30
272.7179870605469
 70
   192
  0
VERTEX
  5
1C4
  8
0
 10
119.7289962768555
 20
-9.958999633789062
 30
263.2300109863281
 70
   192
  0
VERTEX
  5
1C5
  8
0
 10
136.0269927978516
 20
-9.958999633789062
 30
248.8800048828125
 70
   192
  0
VERTEX
  5
1C6
  8
0
 10
147.9109954833984
 20
-9.958999633789062
 30
230.7059936523438
 70
   192
  0
VERTEX
  5
1C7
  8
0
 10
146.8939971923828
 20
-11.32499980926514
 30
208.677001953125
 70
   192
  0
VERTEX
  5
1C8
  8
0
 10
148.8609924316406
 20
-11.5
 30
209.0240020751953
 70
   192
  0
VERTEX
  5
1C9
  8
0
 10
-9.562000274658203
 20
-5.416999816894531
 30
196.0
 70
   192
  0
VERTEX
  5
1CA
  8
0
 10
-7.703999996185303
 20
-3.933000087738037
 30
218.8650054931641
 70
   192
  0
VERTEX
  5
1CB
  8
0
 10
-10.80599975585938
 20
-3.933000087738037
 30
196.0
 70
   192
  0
VERTEX
  5
1CC
  8
0
 10
1.378999948501587
 20
-3.933000087738037
 30
240.0769958496094
 70
   192
  0
VERTEX
  5
1CD
  8
0
 10
15.78699970245361
 20
-3.933000087738037
 30
258.1010131835938
 70
   192
  0
VERTEX
  5
1CE
  8
0
 10
34.47600173950195
 20
-3.933000087738037
 30
271.6340026855469
 70
   192
  0
VERTEX
  5
1CF
  8
0
 10
56.09600067138672
 20
-3.933000087738037
 30
279.697998046875
 70
   192
  0
VERTEX
  5
1D0
  8
0
 10
79.08300018310547
 20
-3.933000087738037
 30
281.7090148925781
 70
   192
  0
VERTEX
  5
1D1
  8
0
 10
101.7740020751953
 20
-3.933000087738037
 30
277.5220031738281
 70
   192
  0
VERTEX
  5
1D2
  8
0
 10
122.5299987792969
 20
-3.933000087738037
 30
267.4400024414062
 70
   192
  0
VERTEX
  5
1D3
  8
0
 10
139.8480072021484
 20
-3.933000087738037
 30
252.1909942626953
 70
   192
  0
VERTEX
  5
1D4
  8
0
 10
152.4770050048828
 20
-3.933000087738037
 30
232.8789978027344
 70
   192
  0
VERTEX
  5
1D5
  8
0
 10
154.5229949951172
 20
-9.958999633789062
 30
210.0220031738281
 70
   192
  0
VERTEX
  5
1D6
  8
0
 10
-7.703999996185303
 20
3.933000087738037
 30
218.8650054931641
 70
   192
  0
VERTEX
  5
1D7
  8
0
 10
1.378999948501587
 20
3.933000087738037
 30
240.0769958496094
 70
   192
  0
VERTEX
  5
1D8
  8
0
 10
15.78699970245361
 20
3.933000087738037
 30
258.1010131835938
 70
   192
  0
VERTEX
  5
1D9
  8
0
 10
34.47600173950195
 20
3.933000087738037
 30
271.6340026855469
 70
   192
  0
VERTEX
  5
1DA
  8
0
 10
56.09600067138672
 20
3.933000087738037
 30
279.697998046875
 70
   192
  0
VERTEX
  5
1DB
  8
0
 10
79.08300018310547
 20
3.933000087738037
 30
281.7090148925781
 70
   192
  0
VERTEX
  5
1DC
  8
0
 10
101.7740020751953
 20
3.933000087738037
 30
277.5220031738281
 70
   192
  0
VERTEX
  5
1DD
  8
0
 10
122.5299987792969
 20
3.933000087738037
 30
267.4400024414062
 70
   192
  0
VERTEX
  5
1DE
  8
0
 10
139.8480072021484
 20
3.933000087738037
 30
252.1909942626953
 70
   192
  0
VERTEX
  5
1DF
  8
0
 10
152.4770050048828
 20
3.933000087738037
 30
232.8789978027344
 70
   192
  0
VERTEX
  5
1E0
  8
0
 10
159.5030059814453
 20
-3.933000087738037
 30
210.8999938964844
 70
   192
  0
VERTEX
  5
1E1
  8
0
 10
159.5030059814453
 20
0.0
 30
210.8999938964844
 70
   192
  0
VERTEX
  5
1E2
  8
0
 10
-9.562000274658203
 20
5.416999816894531
 30
196.0
 70
   192
  0
VERTEX
  5
1E3
  8
0
 10
-2.829999923706055
 20
9.958999633789062
 30
217.5180053710938
 70
   192
  0
VERTEX
  5
1E4
  8
0
 10
-5.75
 20
9.958999633789062
 30
196.0
 70
   192
  0
VERTEX
  5
1E5
  8
0
 10
5.717999935150146
 20
9.958999633789062
 30
237.47900390625
 70
   192
  0
VERTEX
  5
1E6
  8
0
 10
19.27599906921387
 20
9.958999633789062
 30
254.4420013427734
 70
   192
  0
VERTEX
  5
1E7
  8
0
 10
36.86399841308594
 20
9.958999633789062
 30
267.177001953125
 70
   192
  0
VERTEX
  5
1E8
  8
0
 10
57.20999908447266
 20
9.958999633789062
 30
274.7659912109375
 70
   192
  0
VERTEX
  5
1E9
  8
0
 10
78.84200286865234
 20
9.958999633789062
 30
276.6589965820312
 70
   192
  0
VERTEX
  5
1EA
  8
0
 10
100.1969985961914
 20
9.958999633789062
 30
272.7179870605469
 70
   192
  0
VERTEX
  5
1EB
  8
0
 10
119.7289962768555
 20
9.958999633789062
 30
263.2300109863281
 70
   192
  0
VERTEX
  5
1EC
  8
0
 10
136.0269927978516
 20
9.958999633789062
 30
248.8800048828125
 70
   192
  0
VERTEX
  5
1ED
  8
0
 10
147.9109954833984
 20
9.958999633789062
 30
230.7059936523438
 70
   192
  0
VERTEX
  5
1EE
  8
0
 10
159.5030059814453
 20
3.933000087738037
 30
210.8999938964844
 70
   192
  0
VERTEX
  5
1EF
  8
0
 10
154.5229949951172
 20
9.958999633789062
 30
210.0220031738281
 70
   192
  0
VERTEX
  5
1F0
  8
0
 10
4.63700008392334
 20
11.32499980926514
 30
215.4530029296875
 70
   192
  0
VERTEX
  5
1F1
  8
0
 10
1.996999979019165
 20
11.32499980926514
 30
196.0
 70
   192
  0
VERTEX
  5
1F2
  8
0
 10
0.0900000035762787
 20
10.98900032043457
 30
196.0
 70
   192
  0
VERTEX
  5
1F3
  8
0
 10
12.36499977111816
 20
11.32499980926514
 30
233.5
 70
   192
  0
VERTEX
  5
1F4
  8
0
 10
24.62199974060059
 20
11.32499980926514
 30
248.8350067138672
 70
   192
  0
VERTEX
  5
1F5
  8
0
 10
40.52299880981445
 20
11.32499980926514
 30
260.3489990234375
 70
   192
  0
VERTEX
  5
1F6
  8
0
 10
58.91699981689453
 20
11.32499980926514
 30
267.2090148925781
 70
   192
  0
VERTEX
  5
1F7
  8
0
 10
78.4739990234375
 20
11.32499980926514
 30
268.9200134277344
 70
   192
  0
VERTEX
  5
1F8
  8
0
 10
97.77899932861328
 20
11.32499980926514
 30
265.3580017089844
 70
   192
  0
VERTEX
  5
1F9
  8
0
 10
115.4380035400391
 20
11.32499980926514
 30
256.7799987792969
 70
   192
  0
VERTEX
  5
1FA
  8
0
 10
130.1719970703125
 20
11.32499980926514
 30
243.8070068359375
 70
   192
  0
VERTEX
  5
1FB
  8
0
 10
140.9160003662109
 20
11.32499980926514
 30
227.3760070800781
 70
   192
  0
VERTEX
  5
1FC
  8
0
 10
146.8939971923828
 20
11.32499980926514
 30
208.677001953125
 70
   192
  0
VERTEX
  5
1FD
  8
0
 10
11.20300006866455
 20
7.392000198364258
 30
213.6380004882812
 70
   192
  0
VERTEX
  5
1FE
  8
0
 10
8.8100004196167
 20
7.392000198364258
 30
196.0
 70
   192
  0
VERTEX
  5
1FF
  8
0
 10
18.20999908447266
 20
7.392000198364258
 30
230.0010070800781
 70
   192
  0
VERTEX
  5
200
  8
0
 10
29.32299995422363
 20
7.392000198364258
 30
243.9040069580078
 70
   192
  0
VERTEX
  5
201
  8
0
 10
43.7400016784668
 20
7.392000198364258
 30
254.343994140625
 70
   192
  0
VERTEX
  5
202
  8
0
 10
60.41799926757812
 20
7.392000198364258
 30
260.5639953613281
 70
   192
  0
VERTEX
  5
203
  8
0
 10
78.14900207519531
 20
7.392000198364258
 30
262.1159973144531
 70
   192
  0
VERTEX
  5
204
  8
0
 10
95.65399932861328
 20
7.392000198364258
 30
258.885986328125
 70
   192
  0
VERTEX
  5
205
  8
0
 10
111.6640014648438
 20
7.392000198364258
 30
251.1080017089844
 70
   192
  0
VERTEX
  5
206
  8
0
 10
125.0230026245117
 20
7.392000198364258
 30
239.3459930419922
 70
   192
  0
VERTEX
  5
207
  8
0
 10
134.7649993896484
 20
7.392000198364258
 30
224.447998046875
 70
   192
  0
VERTEX
  5
208
  8
0
 10
143.5390014648438
 20
9.359000205993652
 30
208.0850067138672
 70
   192
  0
VERTEX
  5
209
  8
0
 10
140.1849975585938
 20
7.392000198364258
 30
207.4940032958984
 70
   192
  0
VERTEX
  5
20A
  8
0
 10
11.5
 20
0.0
 30
196.0
 70
   192
  0
VERTEX
  5
20B
  8
0
 10
9.472000122070312
 20
5.572999954223633
 30
196.0
 70
   192
  0
VERTEX
  5
20C
  8
0
 10
137.5350036621094
 20
0.0
 30
207.0269927978516
 70
   192
  0
VERTEX
  5
20D
  8
0
 10
-10.80599975585938
 20
3.933000087738037
 30
196.0
 70
   192
  0
VERTEX
  5
20E
  8
0
 62
     9
 10
0.0
 20
0.0
 30
0.0
 70
   128
 71
     3
 72
     2
 73
     1
  0
VERTEX
  5
20F
  8
0
 62
     9
 10
0.0
 20
0.0
 30
0.0
 70
   128
 71
     3
 72
     4
 73
     2
  0
VERTEX
  5
210
  8
0
 62
     9
 10
0.0
 20
0.0
 30
0.0
 70
   128
 71
     6
 72
     5
 73
     1
  0
VERTEX
  5
211
  8
0
 62
     9
 10
0.0
 20
0.0
 30
0.0
 70
   128
 71
     8
 72
     7
 73
     5
  0
VERTEX
  5
212
  8
0
 62
     9
 10
0.0
 20
0.0
 30
0.0
 70
   128
 71
    10
 72
     9
 73
     7
  0
VERTEX
  5
213
  8
0
 62
     9
 10
0.0
 20
0.0
 30
0.0
 70
   128
 71
    12
 72
    11
 73
     9
  0
VERTEX
  5
214
  8
0
 62
     9
 10
0.0
 20
0.0
 30
0.0
 70
   128
 71
    14
 72
    13
 73
    11
  0
VERTEX
  5
215
  8
0
 62
     9
 10
0.0
 20
0.0
 30
0.0
 70
   128
 71
    16
 72
    15
 73
    13
  0
VERTEX
  5
216
  8
0
 62
     9
 10
0.0
 20
0.0
 30
0.0
 70
   128
 71
    18
 72
    17
 73
    15
  0
VERTEX
  5
217
  8
0
 62
     9
 10
0.0
 20
0.0
 30
0.0
 70
   128
 71
    20
 72
    19
 73
    17
  0
VERTEX
  5
218
  8
0
 62
     9
 10
0.0
 20
0.0
 30
0.0
 70
   128
 71
    22
 72
    21
 73
    19
  0
VERTEX
  5
219
  8
0
 62
     9
 10
0.0
 20
0.0
 30
0.0
 70
   128
 71
    21
 72
    22
 73
    23
  0
VERTEX
  5
21A
  8
0
 62
     9
 10
0.0
 20
0.0
 30
0.0
 70
   128
 71
     4
 72
    25
 73
    24
  0
VERTEX
  5
21B
  8
0
 62
     9
 10
0.0
 20
0.0
 30
0.0
 70
   128
 71
    26
 72
     6
 73
     2
  0
VERTEX
  5
21C
  8
0
 62
     9
 10
0.0
 20
0.0
 30
0.0
 70
   128
 71
    27
 72
     8
 73
     6
  0
VERTEX
  5
21D
  8
0
 62
     9
 10
0.0
 20
0.0
 30
0.0
 70
   128
 71
    28
 72
    10
 73
     8
  0
VERTEX
  5
21E
  8
0
 62
     9
 10
0.0
 20
0.0
 30
0.0
 70
   128
 71
    29
 72
    12
 73
    10
  0
VERTEX
  5
21F
  8
0
 62
     9
 10
0.0
 20
0.0
 30
0.0
 70
   128
 71
    30
 72
    14
 73
    12
  0
VERTEX
  5
220
  8
0
 62
     9
 10
0.0
 20
0.0
 30
0.0
 70
   128
 71
    31
 72
    16
 73
    14
  0
VERTEX
  5
221
  8
0
 62
     9
 10
0.0
 20
0.0
 30
0.0
 70
   128
 71
    32
 72
    18
 73
    16
  0
VERTEX
  5
222
  8
0
 62
     9
 10
0.0
 20
0.0
 30
0.0
 70
   128
 71
    33
 72
    20
 73
    18
  0
VERTEX
  5
223
  8
0
 62
     9
 10
0.0
 20
0.0
 30
0.0
 70
   128
 71
    34
 72
    22
 73
    20
  0
VERTEX
  5
224
  8
0
 62
     9
 10
0.0
 20
0.0
 30
0.0
 70
   128
 71
    22
 72
    34
 73
    35
  0
VERTEX
  5
225
  8
0
 62
     9
 10
0.0
 20
0.0
 30
0.0
 70
   128
 71
    35
 72
    23
 73
    22
  0
VERTEX
  5
226
  8
0
 62
     9
 10
0.0
 20
0.0
 30
0.0
 70
   128
 71
    25
 72
    37
 73
    36
  0
VERTEX
  5
227
  8
0
 62
     9
 10
0.0
 20
0.0
 30
0.0
 70
   128
 71
    37
 72
    38
 73
    36
  0
VERTEX
  5
228
  8
0
 62
     9
 10
0.0
 20
0.0
 30
0.0
 70
   128
 71
    39
 72
    26
 73
    24
  0
VERTEX
  5
229
  8
0
 62
     9
 10
0.0
 20
0.0
 30
0.0
 70
   128
 71
    40
 72
    27
 73
    26
  0
VERTEX
  5
22A
  8
0
 62
     9
 10
0.0
 20
0.0
 30
0.0
 70
   128
 71
    41
 72
    28
 73
    27
  0
VERTEX
  5
22B
  8
0
 62
     9
 10
0.0
 20
0.0
 30
0.0
 70
   128
 71
    42
 72
    29
 73
    28
  0
VERTEX
  5
22C
  8
0
 62
     9
 10
0.0
 20
0.0
 30
0.0
 70
   128
 71
    43
 72
    30
 73
    29
  0
VERTEX
  5
22D
  8
0
 62
     9
 10
0.0
 20
0.0
 30
0.0
 70
   128
 71
    44
 72
    31
 73
    30
  0
VERTEX
  5
22E
  8
0
 62
     9
 10
0.0
 20
0.0
 30
0.0
 70
   128
 71
    45
 72
    32
 73
    31
  0
VERTEX
  5
22F
  8
0
 62
     9
 10
0.0
 20
0.0
 30
0.0
 70
   128
 71
    46
 72
    33
 73
    32
  0
VERTEX
  5
230
  8
0
 62
     9
 10
0.0
 20
0.0
 30
0.0
 70
   128
 71
    47
 72
    34
 73
    33
  0
VERTEX
  5
231
  8
0
 62
     9
 10
0.0
 20
0.0
 30
0.0
 70
   128
 71
    48
 72
    34
 73
    47
  0
VERTEX
  5
232
  8
0
 62
     9
 10
0.0
 20
0.0
 30
0.0
 70
   128
 71
    47
 72
    49
 73
    48
  0
VERTEX
  5
233
  8
0
 62
     9
 10
0.0
 20
0.0
 30
0.0
 70
   128
 71
    36
 72
    38
 73
    50
  0
VERTEX
  5
234
  8
0
 62
     9
 10
0.0
 20
0.0
 30
0.0
 70
   128
 71
    50
 72
    52
 73
    51
  0
VERTEX
  5
235
  8
0
 62
     9
 10
0.0
 20
0.0
 30
0.0
 70
   128
 71
    53
 72
    39
 73
    36
  0
VERTEX
  5
236
  8
0
 62
     9
 10
0.0
 20
0.0
 30
0.0
 70
   128
 71
    54
 72
    40
 73
    39
  0
VERTEX
  5
237
  8
0
 62
     9
 10
0.0
 20
0.0
 30
0.0
 70
   128
 71
    55
 72
    41
 73
    40
  0
VERTEX
  5
238
  8
0
 62
     9
 10
0.0
 20
0.0
 30
0.0
 70
   128
 71
    56
 72
    42
 73
    41
  0
VERTEX
  5
239
  8
0
 62
     9
 10
0.0
 20
0.0
 30
0.0
 70
   128
 71
    57
 72
    43
 73
    42
  0
VERTEX
  5
23A
  8
0
 62
     9
 10
0.0
 20
0.0
 30
0.0
 70
   128
 71
    58
 72
    44
 73
    43
  0
VERTEX
  5
23B
  8
0
 62
     9
 10
0.0
 20
0.0
 30
0.0
 70
   128
 71
    59
 72
    45
 73
    44
  0
VERTEX
  5
23C
  8
0
 62
     9
 10
0.0
 20
0.0
 30
0.0
 70
   128
 71
    60
 72
    46
 73
    45
  0
VERTEX
  5
23D
  8
0
 62
     9
 10
0.0
 20
0.0
 30
0.0
 70
   128
 71
    61
 72
    47
 73
    46
  0
VERTEX
  5
23E
  8
0
 62
     9
 10
0.0
 20
0.0
 30
0.0
 70
   128
 71
    62
 72
    47
 73
    61
  0
VERTEX
  5
23F
  8
0
 62
     9
 10
0.0
 20
0.0
 30
0.0
 70
   128
 71
    63
 72
    51
 73
    52
  0
VERTEX
  5
240
  8
0
 62
     9
 10
0.0
 20
0.0
 30
0.0
 70
   128
 71
    64
 72
    53
 73
    51
  0
VERTEX
  5
241
  8
0
 62
     9
 10
0.0
 20
0.0
 30
0.0
 70
   128
 71
    65
 72
    54
 73
    53
  0
VERTEX
  5
242
  8
0
 62
     9
 10
0.0
 20
0.0
 30
0.0
 70
   128
 71
    66
 72
    55
 73
    54
  0
VERTEX
  5
243
  8
0
 62
     9
 10
0.0
 20
0.0
 30
0.0
 70
   128
 71
    67
 72
    56
 73
    55
  0
VERTEX
  5
244
  8
0
 62
     9
 10
0.0
 20
0.0
 30
0.0
 70
   128
 71
    68
 72
    57
 73
    56
  0
VERTEX
  5
245
  8
0
 62
     9
 10
0.0
 20
0.0
 30
0.0
 70
   128
 71
    69
 72
    58
 73
    57
  0
VERTEX
  5
246
  8
0
 62
     9
 10
0.0
 20
0.0
 30
0.0
 70
   128
 71
    70
 72
    59
 73
    58
  0
VERTEX
  5
247
  8
0
 62
     9
 10
0.0
 20
0.0
 30
0.0
 70
   128
 71
    71
 72
    60
 73
    59
  0
VERTEX
  5
248
  8
0
 62
     9
 10
0.0
 20
0.0
 30
0.0
 70
   128
 71
    72
 72
    61
 73
    60
  0
VERTEX
  5
249
  8
0
 62
     9
 10
0.0
 20
0.0
 30
0.0
 70
   128
 71
    74
 72
    73
 73
    61
  0
VERTEX
  5
24A
  8
0
 62
     9
 10
0.0
 20
0.0
 30
0.0
 70
   128
 71
    61
 72
    72
 73
    74
  0
VERTEX
  5
24B
  8
0
 62
     9
 10
0.0
 20
0.0
 30
0.0
 70
   128
 71
    76
 72
    63
 73
    75
  0
VERTEX
  5
24C
  8
0
 62
     9
 10
0.0
 20
0.0
 30
0.0
 70
   128
 71
    75
 72
    77
 73
    76
  0
VERTEX
  5
24D
  8
0
 62
     9
 10
0.0
 20
0.0
 30
0.0
 70
   128
 71
    78
 72
    64
 73
    63
  0
VERTEX
  5
24E
  8
0
 62
     9
 10
0.0
 20
0.0
 30
0.0
 70
   128
 71
    79
 72
    65
 73
    64
  0
VERTEX
  5
24F
  8
0
 62
     9
 10
0.0
 20
0.0
 30
0.0
 70
   128
 71
    80
 72
    66
 73
    65
  0
VERTEX
  5
250
  8
0
 62
     9
 10
0.0
 20
0.0
 30
0.0
 70
   128
 71
    81
 72
    67
 73
    66
  0
VERTEX
  5
251
  8
0
 62
     9
 10
0.0
 20
0.0
 30
0.0
 70
   128
 71
    82
 72
    68
 73
    67
  0
VERTEX
  5
252
  8
0
 62
     9
 10
0.0
 20
0.0
 30
0.0
 70
   128
 71
    83
 72
    69
 73
    68
  0
VERTEX
  5
253
  8
0
 62
     9
 10
0.0
 20
0.0
 30
0.0
 70
   128
 71
    84
 72
    70
 73
    69
  0
VERTEX
  5
254
  8
0
 62
     9
 10
0.0
 20
0.0
 30
0.0
 70
   128
 71
    85
 72
    71
 73
    70
  0
VERTEX
  5
255
  8
0
 62
     9
 10
0.0
 20
0.0
 30
0.0
 70
   128
 71
    86
 72
    72
 73
    71
  0
VERTEX
  5
256
  8
0
 62
     9
 10
0.0
 20
0.0
 30
0.0
 70
   128
 71
    88
 72
    87
 73
    72
  0
VERTEX
  5
257
  8
0
 62
     9
 10
0.0
 20
0.0
 30
0.0
 70
   128
 71
    91
 72
    90
 73
    89
  0
VERTEX
  5
258
  8
0
 62
     9
 10
0.0
 20
0.0
 30
0.0
 70
   128
 71
    89
 72
    76
 73
    91
  0
VERTEX
  5
259
  8
0
 62
     9
 10
0.0
 20
0.0
 30
0.0
 70
   128
 71
    92
 72
    78
 73
    76
  0
VERTEX
  5
25A
  8
0
 62
     9
 10
0.0
 20
0.0
 30
0.0
 70
   128
 71
    93
 72
    79
 73
    78
  0
VERTEX
  5
25B
  8
0
 62
     9
 10
0.0
 20
0.0
 30
0.0
 70
   128
 71
    94
 72
    80
 73
    79
  0
VERTEX
  5
25C
  8
0
 62
     9
 10
0.0
 20
0.0
 30
0.0
 70
   128
 71
    95
 72
    81
 73
    80
  0
VERTEX
  5
25D
  8
0
 62
     9
 10
0.0
 20
0.0
 30
0.0
 70
   128
 71
    96
 72
    82
 73
    81
  0
VERTEX
  5
25E
  8
0
 62
     9
 10
0.0
 20
0.0
 30
0.0
 70
   128
 71
    97
 72
    83
 73
    82
  0
VERTEX
  5
25F
  8
0
 62
     9
 10
0.0
 20
0.0
 30
0.0
 70
   128
 71
    98
 72
    84
 73
    83
  0
VERTEX
  5
260
  8
0
 62
     9
 10
0.0
 20
0.0
 30
0.0
 70
   128
 71
    99
 72
    85
 73
    84
  0
VERTEX
  5
261
  8
0
 62
     9
 10
0.0
 20
0.0
 30
0.0
 70
   128
 71
   100
 72
    86
 73
    85
  0
VERTEX
  5
262
  8
0
 62
     9
 10
0.0
 20
0.0
 30
0.0
 70
   128
 71
   100
 72
   101
 73
    88
  0
VERTEX
  5
263
  8
0
 62
     9
 10
0.0
 20
0.0
 30
0.0
 70
   128
 71
   103
 72
   102
 73
    89
  0
VERTEX
  5
264
  8
0
 62
     9
 10
0.0
 20
0.0
 30
0.0
 70
   128
 71
   104
 72
    92
 73
    89
  0
VERTEX
  5
265
  8
0
 62
     9
 10
0.0
 20
0.0
 30
0.0
 70
   128
 71
   105
 72
    93
 73
    92
  0
VERTEX
  5
266
  8
0
 62
     9
 10
0.0
 20
0.0
 30
0.0
 70
   128
 71
   106
 72
    94
 73
    93
  0
VERTEX
  5
267
  8
0
 62
     9
 10
0.0
 20
0.0
 30
0.0
 70
   128
 71
   107
 72
    95
 73
    94
  0
VERTEX
  5
268
  8
0
 62
     9
 10
0.0
 20
0.0
 30
0.0
 70
   128
 71
   108
 72
    96
 73
    95
  0
VERTEX
  5
269
  8
0
 62
     9
 10
0.0
 20
0.0
 30
0.0
 70
   128
 71
   109
 72
    97
 73
    96
  0
VERTEX
  5
26A
  8
0
 62
     9
 10
0.0
 20
0.0
 30
0.0
 70
   128
 71
   110
 72
    98
 73
    97
  0
VERTEX
  5
26B
  8
0
 62
     9
 10
0.0
 20
0.0
 30
0.0
 70
   128
 71
   111
 72
    99
 73
    98
  0
VERTEX
  5
26C
  8
0
 62
     9
 10
0.0
 20
0.0
 30
0.0
 70
   128
 71
   112
 72
   100
 73
    99
  0
VERTEX
  5
26D
  8
0
 62
     9
 10
0.0
 20
0.0
 30
0.0
 70
   128
 71
   114
 72
   113
 73
   100
  0
VERTEX
  5
26E
  8
0
 62
     9
 10
0.0
 20
0.0
 30
0.0
 70
   128
 71
   113
 72
   101
 73
   100
  0
VERTEX
  5
26F
  8
0
 62
     9
 10
0.0
 20
0.0
 30
0.0
 70
   128
 71
   116
 72
   115
 73
     1
  0
VERTEX
  5
270
  8
0
 62
     9
 10
0.0
 20
0.0
 30
0.0
 70
   128
 71
     1
 72
   102
 73
   116
  0
VERTEX
  5
271
  8
0
 62
     9
 10
0.0
 20
0.0
 30
0.0
 70
   128
 71
     5
 72
   104
 73
   102
  0
VERTEX
  5
272
  8
0
 62
     9
 10
0.0
 20
0.0
 30
0.0
 70
   128
 71
     7
 72
   105
 73
   104
  0
VERTEX
  5
273
  8
0
 62
     9
 10
0.0
 20
0.0
 30
0.0
 70
   128
 71
     9
 72
   106
 73
   105
  0
VERTEX
  5
274
  8
0
 62
     9
 10
0.0
 20
0.0
 30
0.0
 70
   128
 71
    11
 72
   107
 73
   106
  0
VERTEX
  5
275
  8
0
 62
     9
 10
0.0
 20
0.0
 30
0.0
 70
   128
 71
    13
 72
   108
 73
   107
  0
VERTEX
  5
276
  8
0
 62
     9
 10
0.0
 20
0.0
 30
0.0
 70
   128
 71
    15
 72
   109
 73
   108
  0
VERTEX
  5
277
  8
0
 62
     9
 10
0.0
 20
0.0
 30
0.0
 70
   128
 71
    17
 72
   110
 73
   109
  0
VERTEX
  5
278
  8
0
 62
     9
 10
0.0
 20
0.0
 30
0.0
 70
   128
 71
    19
 72
   111
 73
   110
  0
VERTEX
  5
279
  8
0
 62
     9
 10
0.0
 20
0.0
 30
0.0
 70
   128
 71
    21
 72
   112
 73
   111
  0
VERTEX
  5
27A
  8
0
 62
     9
 10
0.0
 20
0.0
 30
0.0
 70
   128
 71
    21
 72
   117
 73
   114
  0
VERTEX
  5
27B
  8
0
 62
     9
 10
0.0
 20
0.0
 30
0.0
 70
   128
 71
   114
 72
   112
 73
    21
  0
VERTEX
  5
27C
  8
0
 62
     9
 10
0.0
 20
0.0
 30
0.0
 70
   128
 71
   111
 72
    19
 73
    21
  0
VERTEX
  5
27D
  8
0
 62
     9
 10
0.0
 20
0.0
 30
0.0
 70
   128
 71
   110
 72
    17
 73
    19
  0
VERTEX
  5
27E
  8
0
 62
     9
 10
0.0
 20
0.0
 30
0.0
 70
   128
 71
   109
 72
    15
 73
    17
  0
VERTEX
  5
27F
  8
0
 62
     9
 10
0.0
 20
0.0
 30
0.0
 70
   128
 71
   108
 72
    13
 73
    15
  0
VERTEX
  5
280
  8
0
 62
     9
 10
0.0
 20
0.0
 30
0.0
 70
   128
 71
   107
 72
    11
 73
    13
  0
VERTEX
  5
281
  8
0
 62
     9
 10
0.0
 20
0.0
 30
0.0
 70
   128
 71
   106
 72
     9
 73
    11
  0
VERTEX
  5
282
  8
0
 62
     9
 10
0.0
 20
0.0
 30
0.0
 70
   128
 71
   105
 72
     7
 73
     9
  0
VERTEX
  5
283
  8
0
 62
     9
 10
0.0
 20
0.0
 30
0.0
 70
   128
 71
   104
 72
     5
 73
     7
  0
VERTEX
  5
284
  8
0
 62
     9
 10
0.0
 20
0.0
 30
0.0
 70
   128
 71
   102
 72
     1
 73
     5
  0
VERTEX
  5
285
  8
0
 62
     9
 10
0.0
 20
0.0
 30
0.0
 70
   128
 71
   102
 72
   103
 73
   116
  0
VERTEX
  5
286
  8
0
 62
     9
 10
0.0
 20
0.0
 30
0.0
 70
   128
 71
   100
 72
   112
 73
   114
  0
VERTEX
  5
287
  8
0
 62
     9
 10
0.0
 20
0.0
 30
0.0
 70
   128
 71
    99
 72
   111
 73
   112
  0
VERTEX
  5
288
  8
0
 62
     9
 10
0.0
 20
0.0
 30
0.0
 70
   128
 71
    98
 72
   110
 73
   111
  0
VERTEX
  5
289
  8
0
 62
     9
 10
0.0
 20
0.0
 30
0.0
 70
   128
 71
    97
 72
   109
 73
   110
  0
VERTEX
  5
28A
  8
0
 62
     9
 10
0.0
 20
0.0
 30
0.0
 70
   128
 71
    96
 72
   108
 73
   109
  0
VERTEX
  5
28B
  8
0
 62
     9
 10
0.0
 20
0.0
 30
0.0
 70
   128
 71
    95
 72
   107
 73
   108
  0
VERTEX
  5
28C
  8
0
 62
     9
 10
0.0
 20
0.0
 30
0.0
 70
   128
 71
    94
 72
   106
 73
   107
  0
VERTEX
  5
28D
  8
0
 62
     9
 10
0.0
 20
0.0
 30
0.0
 70
   128
 71
    93
 72
   105
 73
   106
  0
VERTEX
  5
28E
  8
0
 62
     9
 10
0.0
 20
0.0
 30
0.0
 70
   128
 71
    92
 72
   104
 73
   105
  0
VERTEX
  5
28F
  8
0
 62
     9
 10
0.0
 20
0.0
 30
0.0
 70
   128
 71
    89
 72
   102
 73
   104
  0
VERTEX
  5
290
  8
0
 62
     9
 10
0.0
 20
0.0
 30
0.0
 70
   128
 71
    89
 72
    90
 73
   103
  0
VERTEX
  5
291
  8
0
 62
     9
 10
0.0
 20
0.0
 30
0.0
 70
   128
 71
    88
 72
    86
 73
   100
  0
VERTEX
  5
292
  8
0
 62
     9
 10
0.0
 20
0.0
 30
0.0
 70
   128
 71
    85
 72
    99
 73
   100
  0
VERTEX
  5
293
  8
0
 62
     9
 10
0.0
 20
0.0
 30
0.0
 70
   128
 71
    84
 72
    98
 73
    99
  0
VERTEX
  5
294
  8
0
 62
     9
 10
0.0
 20
0.0
 30
0.0
 70
   128
 71
    83
 72
    97
 73
    98
  0
VERTEX
  5
295
  8
0
 62
     9
 10
0.0
 20
0.0
 30
0.0
 70
   128
 71
    82
 72
    96
 73
    97
  0
VERTEX
  5
296
  8
0
 62
     9
 10
0.0
 20
0.0
 30
0.0
 70
   128
 71
    81
 72
    95
 73
    96
  0
VERTEX
  5
297
  8
0
 62
     9
 10
0.0
 20
0.0
 30
0.0
 70
   128
 71
    80
 72
    94
 73
    95
  0
VERTEX
  5
298
  8
0
 62
     9
 10
0.0
 20
0.0
 30
0.0
 70
   128
 71
    79
 72
    93
 73
    94
  0
VERTEX
  5
299
  8
0
 62
     9
 10
0.0
 20
0.0
 30
0.0
 70
   128
 71
    78
 72
    92
 73
    93
  0
VERTEX
  5
29A
  8
0
 62
     9
 10
0.0
 20
0.0
 30
0.0
 70
   128
 71
    76
 72
    89
 73
    92
  0
VERTEX
  5
29B
  8
0
 62
     9
 10
0.0
 20
0.0
 30
0.0
 70
   128
 71
    76
 72
    77
 73
    91
  0
VERTEX
  5
29C
  8
0
 62
     9
 10
0.0
 20
0.0
 30
0.0
 70
   128
 71
    72
 72
    86
 73
    88
  0
VERTEX
  5
29D
  8
0
 62
     9
 10
0.0
 20
0.0
 30
0.0
 70
   128
 71
    71
 72
    85
 73
    86
  0
VERTEX
  5
29E
  8
0
 62
     9
 10
0.0
 20
0.0
 30
0.0
 70
   128
 71
    70
 72
    84
 73
    85
  0
VERTEX
  5
29F
  8
0
 62
     9
 10
0.0
 20
0.0
 30
0.0
 70
   128
 71
    69
 72
    83
 73
    84
  0
VERTEX
  5
2A0
  8
0
 62
     9
 10
0.0
 20
0.0
 30
0.0
 70
   128
 71
    68
 72
    82
 73
    83
  0
VERTEX
  5
2A1
  8
0
 62
     9
 10
0.0
 20
0.0
 30
0.0
 70
   128
 71
    67
 72
    81
 73
    82
  0
VERTEX
  5
2A2
  8
0
 62
     9
 10
0.0
 20
0.0
 30
0.0
 70
   128
 71
    66
 72
    80
 73
    81
  0
VERTEX
  5
2A3
  8
0
 62
     9
 10
0.0
 20
0.0
 30
0.0
 70
   128
 71
    65
 72
    79
 73
    80
  0
VERTEX
  5
2A4
  8
0
 62
     9
 10
0.0
 20
0.0
 30
0.0
 70
   128
 71
    64
 72
    78
 73
    79
  0
VERTEX
  5
2A5
  8
0
 62
     9
 10
0.0
 20
0.0
 30
0.0
 70
   128
 71
    63
 72
    76
 73
    78
  0
VERTEX
  5
2A6
  8
0
 62
     9
 10
0.0
 20
0.0
 30
0.0
 70
   128
 71
    63
 72
   118
 73
    75
  0
VERTEX
  5
2A7
  8
0
 62
     9
 10
0.0
 20
0.0
 30
0.0
 70
   128
 71
    72
 72
    87
 73
    74
  0
VERTEX
  5
2A8
  8
0
 62
     9
 10
0.0
 20
0.0
 30
0.0
 70
   128
 71
    60
 72
    71
 73
    72
  0
VERTEX
  5
2A9
  8
0
 62
     9
 10
0.0
 20
0.0
 30
0.0
 70
   128
 71
    59
 72
    70
 73
    71
  0
VERTEX
  5
2AA
  8
0
 62
     9
 10
0.0
 20
0.0
 30
0.0
 70
   128
 71
    58
 72
    69
 73
    70
  0
VERTEX
  5
2AB
  8
0
 62
     9
 10
0.0
 20
0.0
 30
0.0
 70
   128
 71
    57
 72
    68
 73
    69
  0
VERTEX
  5
2AC
  8
0
 62
     9
 10
0.0
 20
0.0
 30
0.0
 70
   128
 71
    56
 72
    67
 73
    68
  0
VERTEX
  5
2AD
  8
0
 62
     9
 10
0.0
 20
0.0
 30
0.0
 70
   128
 71
    55
 72
    66
 73
    67
  0
VERTEX
  5
2AE
  8
0
 62
     9
 10
0.0
 20
0.0
 30
0.0
 70
   128
 71
    54
 72
    65
 73
    66
  0
VERTEX
  5
2AF
  8
0
 62
     9
 10
0.0
 20
0.0
 30
0.0
 70
   128
 71
    53
 72
    64
 73
    65
  0
VERTEX
  5
2B0
  8
0
 62
     9
 10
0.0
 20
0.0
 30
0.0
 70
   128
 71
    51
 72
    63
 73
    64
  0
VERTEX
  5
2B1
  8
0
 62
     9
 10
0.0
 20
0.0
 30
0.0
 70
   128
 71
    52
 72
   118
 73
    63
  0
VERTEX
  5
2B2
  8
0
 62
     9
 10
0.0
 20
0.0
 30
0.0
 70
   128
 71
    61
 72
    73
 73
    62
  0
VERTEX
  5
2B3
  8
0
 62
     9
 10
0.0
 20
0.0
 30
0.0
 70
   128
 71
    46
 72
    60
 73
    61
  0
VERTEX
  5
2B4
  8
0
 62
     9
 10
0.0
 20
0.0
 30
0.0
 70
   128
 71
    45
 72
    59
 73
    60
  0
VERTEX
  5
2B5
  8
0
 62
     9
 10
0.0
 20
0.0
 30
0.0
 70
   128
 71
    44
 72
    58
 73
    59
  0
VERTEX
  5
2B6
  8
0
 62
     9
 10
0.0
 20
0.0
 30
0.0
 70
   128
 71
    43
 72
    57
 73
    58
  0
VERTEX
  5
2B7
  8
0
 62
     9
 10
0.0
 20
0.0
 30
0.0
 70
   128
 71
    42
 72
    56
 73
    57
  0
VERTEX
  5
2B8
  8
0
 62
     9
 10
0.0
 20
0.0
 30
0.0
 70
   128
 71
    41
 72
    55
 73
    56
  0
VERTEX
  5
2B9
  8
0
 62
     9
 10
0.0
 20
0.0
 30
0.0
 70
   128
 71
    40
 72
    54
 73
    55
  0
VERTEX
  5
2BA
  8
0
 62
     9
 10
0.0
 20
0.0
 30
0.0
 70
   128
 71
    39
 72
    53
 73
    54
  0
VERTEX
  5
2BB
  8
0
 62
     9
 10
0.0
 20
0.0
 30
0.0
 70
   128
 71
    36
 72
    51
 73
    53
  0
VERTEX
  5
2BC
  8
0
 62
     9
 10
0.0
 20
0.0
 30
0.0
 70
   128
 71
    50
 72
    51
 73
    36
  0
VERTEX
  5
2BD
  8
0
 62
     9
 10
0.0
 20
0.0
 30
0.0
 70
   128
 71
    47
 72
    62
 73
    49
  0
VERTEX
  5
2BE
  8
0
 62
     9
 10
0.0
 20
0.0
 30
0.0
 70
   128
 71
    33
 72
    46
 73
    47
  0
VERTEX
  5
2BF
  8
0
 62
     9
 10
0.0
 20
0.0
 30
0.0
 70
   128
 71
    32
 72
    45
 73
    46
  0
VERTEX
  5
2C0
  8
0
 62
     9
 10
0.0
 20
0.0
 30
0.0
 70
   128
 71
    31
 72
    44
 73
    45
  0
VERTEX
  5
2C1
  8
0
 62
     9
 10
0.0
 20
0.0
 30
0.0
 70
   128
 71
    30
 72
    43
 73
    44
  0
VERTEX
  5
2C2
  8
0
 62
     9
 10
0.0
 20
0.0
 30
0.0
 70
   128
 71
    29
 72
    42
 73
    43
  0
VERTEX
  5
2C3
  8
0
 62
     9
 10
0.0
 20
0.0
 30
0.0
 70
   128
 71
    28
 72
    41
 73
    42
  0
VERTEX
  5
2C4
  8
0
 62
     9
 10
0.0
 20
0.0
 30
0.0
 70
   128
 71
    27
 72
    40
 73
    41
  0
VERTEX
  5
2C5
  8
0
 62
     9
 10
0.0
 20
0.0
 30
0.0
 70
   128
 71
    26
 72
    39
 73
    40
  0
VERTEX
  5
2C6
  8
0
 62
     9
 10
0.0
 20
0.0
 30
0.0
 70
   128
 71
    24
 72
    36
 73
    39
  0
VERTEX
  5
2C7
  8
0
 62
     9
 10
0.0
 20
0.0
 30
0.0
 70
   128
 71
    36
 72
    24
 73
    25
  0
VERTEX
  5
2C8
  8
0
 62
     9
 10
0.0
 20
0.0
 30
0.0
 70
   128
 71
    34
 72
    48
 73
    35
  0
VERTEX
  5
2C9
  8
0
 62
     9
 10
0.0
 20
0.0
 30
0.0
 70
   128
 71
    20
 72
    33
 73
    34
  0
VERTEX
  5
2CA
  8
0
 62
     9
 10
0.0
 20
0.0
 30
0.0
 70
   128
 71
    18
 72
    32
 73
    33
  0
VERTEX
  5
2CB
  8
0
 62
     9
 10
0.0
 20
0.0
 30
0.0
 70
   128
 71
    16
 72
    31
 73
    32
  0
VERTEX
  5
2CC
  8
0
 62
     9
 10
0.0
 20
0.0
 30
0.0
 70
   128
 71
    14
 72
    30
 73
    31
  0
VERTEX
  5
2CD
  8
0
 62
     9
 10
0.0
 20
0.0
 30
0.0
 70
   128
 71
    12
 72
    29
 73
    30
  0
VERTEX
  5
2CE
  8
0
 62
     9
 10
0.0
 20
0.0
 30
0.0
 70
   128
 71
    10
 72
    28
 73
    29
  0
VERTEX
  5
2CF
  8
0
 62
     9
 10
0.0
 20
0.0
 30
0.0
 70
   128
 71
     8
 72
    27
 73
    28
  0
VERTEX
  5
2D0
  8
0
 62
     9
 10
0.0
 20
0.0
 30
0.0
 70
   128
 71
     6
 72
    26
 73
    27
  0
VERTEX
  5
2D1
  8
0
 62
     9
 10
0.0
 20
0.0
 30
0.0
 70
   128
 71
     2
 72
    24
 73
    26
  0
VERTEX
  5
2D2
  8
0
 62
     9
 10
0.0
 20
0.0
 30
0.0
 70
   128
 71
    24
 72
     2
 73
     4
  0
VERTEX
  5
2D3
  8
0
 62
     9
 10
0.0
 20
0.0
 30
0.0
 70
   128
 71
    23
 72
   117
 73
    21
  0
VERTEX
  5
2D4
  8
0
 62
     9
 10
0.0
 20
0.0
 30
0.0
 70
   128
 71
    19
 72
    20
 73
    22
  0
VERTEX
  5
2D5
  8
0
 62
     9
 10
0.0
 20
0.0
 30
0.0
 70
   128
 71
    17
 72
    18
 73
    20
  0
VERTEX
  5
2D6
  8
0
 62
     9
 10
0.0
 20
0.0
 30
0.0
 70
   128
 71
    15
 72
    16
 73
    18
  0
VERTEX
  5
2D7
  8
0
 62
     9
 10
0.0
 20
0.0
 30
0.0
 70
   128
 71
    13
 72
    14
 73
    16
  0
VERTEX
  5
2D8
  8
0
 62
     9
 10
0.0
 20
0.0
 30
0.0
 70
   128
 71
    11
 72
    12
 73
    14
  0
VERTEX
  5
2D9
  8
0
 62
     9
 10
0.0
 20
0.0
 30
0.0
 70
   128
 71
     9
 72
    10
 73
    12
  0
VERTEX
  5
2DA
  8
0
 62
     9
 10
0.0
 20
0.0
 30
0.0
 70
   128
 71
     7
 72
     8
 73
    10
  0
VERTEX
  5
2DB
  8
0
 62
     9
 10
0.0
 20
0.0
 30
0.0
 70
   128
 71
     5
 72
     6
 73
     8
  0
VERTEX
  5
2DC
  8
0
 62
     9
 10
0.0
 20
0.0
 30
0.0
 70
   128
 71
     1
 72
     2
 73
     6
  0
VERTEX
  5
2DD
  8
0
 62
     9
 10
0.0
 20
0.0
 30
0.0
 70
   128
 71
     1
 72
   115
 73
     3
  0
SEQEND
  5
2DE
  8
0
 62
     9
  0
ENDBLK
  5
2E1
  8
0
  0
BLOCK
  8
0
  2
E3_NODE_9_
 70
     0
 10
0.0
 20
0.0
 30
0.0
  3
E3_NODE_9_
  1

  0
POLYLINE
  5
2E3
  8
0
 62
     9
 66
     1
 10
0.0
 20
0.0
 30
0.0
 70
    64
 71
    21
 72
    21
  0
VERTEX
  5
2E4
  8
0
 10
0.0
 20
-11.5
 30
100.0
 70
   192
  0
VERTEX
  5
2E5
  8
0
 10
9.958999633789062
 20
-5.75
 30
100.0
 70
   192
  0
VERTEX
  5
2E6
  8
0
 10
8.8100004196167
 20
-7.392000198364258
 30
196.0
 70
   192
  0
VERTEX
  5
2E7
  8
0
 10
1.996999979019165
 20
-11.32499980926514
 30
196.0
 70
   192
  0
VERTEX
  5
2E8
  8
0
 10
9.472000122070312
 20
-5.572999954223633
 30
196.0
 70
   192
  0
VERTEX
  5
2E9
  8
0
 10
9.958999633789062
 20
5.75
 30
100.0
 70
   192
  0
VERTEX
  5
2EA
  8
0
 10
11.5
 20
0.0
 30
196.0
 70
   192
  0
VERTEX
  5
2EB
  8
0
 10
9.472000122070312
 20
5.572999954223633
 30
196.0
 70
   192
  0
VERTEX
  5
2EC
  8
0
 10
0.0
 20
11.5
 30
100.0
 70
   192
  0
VERTEX
  5
2ED
  8
0
 10
1.996999979019165
 20
11.32499980926514
 30
196.0
 70
   192
  0
VERTEX
  5
2EE
  8
0
 10
8.8100004196167
 20
7.392000198364258
 30
196.0
 70
   192
  0
VERTEX
  5
2EF
  8
0
 10
0.0900000035762787
 20
10.98900032043457
 30
196.0
 70
   192
  0
VERTEX
  5
2F0
  8
0
 10
-9.958999633789062
 20
5.75
 30
100.0
 70
   192
  0
VERTEX
  5
2F1
  8
0
 10
-5.75
 20
9.958999633789062
 30
196.0
 70
   192
  0
VERTEX
  5
2F2
  8
0
 10
-9.562000274658203
 20
5.416999816894531
 30
196.0
 70
   192
  0
VERTEX
  5
2F3
  8
0
 10
-9.958999633789062
 20
-5.75
 30
100.0
 70
   192
  0
VERTEX
  5
2F4
  8
0
 10
-10.80599975585938
 20
-3.933000087738037
 30
196.0
 70
   192
  0
VERTEX
  5
2F5
  8
0
 10
-10.80599975585938
 20
3.933000087738037
 30
196.0
 70
   192
  0
VERTEX
  5
2F6
  8
0
 10
-9.562000274658203
 20
-5.416999816894531
 30
196.0
 70
   192
  0
VERTEX
  5
2F7
  8
0
 10
0.0
 20
-11.5
 30
196.0
 70
   192
  0
VERTEX
  5
2F8
  8
0
 10
-5.75
 20
-9.958999633789062
 30
196.0
 70
   192
  0
VERTEX
  5
2F9
  8
0
 62
     9
 10
0.0
 20
0.0
 30
0.0
 70
   128
 71
     3
 72
     2
 73
     1
  0
VERTEX
  5
2FA
  8
0
 62
     9
 10
0.0
 20
0.0
 30
0.0
 70
   128
 71
     1
 72
     4
 73
     3
  0
VERTEX
  5
2FB
  8
0
 62
     9
 10
0.0
 20
0.0
 30
0.0
 70
   128
 71
     3
 72
     5
 73
     2
  0
VERTEX
  5
2FC
  8
0
 62
     9
 10
0.0
 20
0.0
 30
0.0
 70
   128
 71
     7
 72
     6
 73
     2
  0
VERTEX
  5
2FD
  8
0
 62
     9
 10
0.0
 20
0.0
 30
0.0
 70
   128
 71
     7
 72
     8
 73
     6
  0
VERTEX
  5
2FE
  8
0
 62
     9
 10
0.0
 20
0.0
 30
0.0
 70
   128
 71
    11
 72
    10
 73
     9
  0
VERTEX
  5
2FF
  8
0
 62
     9
 10
0.0
 20
0.0
 30
0.0
 70
   128
 71
     9
 72
     6
 73
    11
  0
VERTEX
  5
300
  8
0
 62
     9
 10
0.0
 20
0.0
 30
0.0
 70
   128
 71
    10
 72
    12
 73
     9
  0
VERTEX
  5
301
  8
0
 62
     9
 10
0.0
 20
0.0
 30
0.0
 70
   128
 71
    14
 72
    13
 73
     9
  0
VERTEX
  5
302
  8
0
 62
     9
 10
0.0
 20
0.0
 30
0.0
 70
   128
 71
    14
 72
    15
 73
    13
  0
VERTEX
  5
303
  8
0
 62
     9
 10
0.0
 20
0.0
 30
0.0
 70
   128
 71
    17
 72
    16
 73
    13
  0
VERTEX
  5
304
  8
0
 62
     9
 10
0.0
 20
0.0
 30
0.0
 70
   128
 71
    13
 72
    18
 73
    17
  0
VERTEX
  5
305
  8
0
 62
     9
 10
0.0
 20
0.0
 30
0.0
 70
   128
 71
    17
 72
    19
 73
    16
  0
VERTEX
  5
306
  8
0
 62
     9
 10
0.0
 20
0.0
 30
0.0
 70
   128
 71
    21
 72
    20
 73
     1
  0
VERTEX
  5
307
  8
0
 62
     9
 10
0.0
 20
0.0
 30
0.0
 70
   128
 71
     1
 72
    16
 73
    21
  0
VERTEX
  5
308
  8
0
 62
     9
 10
0.0
 20
0.0
 30
0.0
 70
   128
 71
    16
 72
    19
 73
    21
  0
VERTEX
  5
309
  8
0
 62
     9
 10
0.0
 20
0.0
 30
0.0
 70
   128
 71
    13
 72
    15
 73
    18
  0
VERTEX
  5
30A
  8
0
 62
     9
 10
0.0
 20
0.0
 30
0.0
 70
   128
 71
     9
 72
    12
 73
    14
  0
VERTEX
  5
30B
  8
0
 62
     9
 10
0.0
 20
0.0
 30
0.0
 70
   128
 71
     6
 72
     8
 73
    11
  0
VERTEX
  5
30C
  8
0
 62
     9
 10
0.0
 20
0.0
 30
0.0
 70
   128
 71
     2
 72
     5
 73
     7
  0
VERTEX
  5
30D
  8
0
 62
     9
 10
0.0
 20
0.0
 30
0.0
 70
   128
 71
     1
 72
    20
 73
     4
  0
SEQEND
  5
30E
  8
0
 62
     9
  0
ENDBLK
  5
311
  8
0
  0
BLOCK
  8
0
  2
E3_NODE_10_
 70
     0
 10
0.0
 20
0.0
 30
0.0
  3
E3_NODE_10_
  1

  0
POLYLINE
  5
313
  8
0
 62
     9
 66
     1
 10
0.0
 20
0.0
 30
0.0
 70
    64
 71
     6
 72
     4
  0
VERTEX
  5
314
  8
0
 10
17.14399909973145
 20
183.4029998779297
 30
61.49399948120117
 70
   192
  0
VERTEX
  5
315
  8
0
 10
18.75
 20
182.4759979248047
 30
73.19999694824219
 70
   192
  0
VERTEX
  5
316
  8
0
 10
22.95400047302246
 20
180.0489959716797
 30
70.72699737548828
 70
   192
  0
VERTEX
  5
317
  8
0
 10
13.55399990081787
 20
185.4759979248047
 30
67.19999694824219
 70
   192
  0
VERTEX
  5
318
  8
0
 10
17.14399909973145
 20
183.4029998779297
 30
72.90599822998047
 70
   192
  0
VERTEX
  5
319
  8
0
 10
22.95400047302246
 20
180.0489959716797
 30
63.67300033569336
 70
   192
  0
VERTEX
  5
31A
  8
0
 62
     9
 10
0.0
 20
0.0
 30
0.0
 70
   128
 71
     3
 72
     2
 73
     1
  0
VERTEX
  5
31B
  8
0
 62
     9
 10
0.0
 20
0.0
 30
0.0
 70
   128
 71
     5
 72
     4
 73
     1
  0
VERTEX
  5
31C
  8
0
 62
     9
 10
0.0
 20
0.0
 30
0.0
 70
   128
 71
     1
 72
     2
 73
     5
  0
VERTEX
  5
31D
  8
0
 62
     9
 10
0.0
 20
0.0
 30
0.0
 70
   128
 71
     1
 72
     6
 73
     3
  0
SEQEND
  5
31E
  8
0
 62
     9
  0
ENDBLK
  5
321
  8
0
  0
BLOCK
  8
0
  2
E3_NODE_11_
 70
     0
 10
0.0
 20
0.0
 30
0.0
  3
E3_NODE_11_
  1

  0
POLYLINE
  5
323
  8
0
 62
     9
 66
     1
 10
0.0
 20
0.0
 30
0.0
 70
    64
 71
    20
 72
    20
  0
VERTEX
  5
324
  8
0
 10
17.14399909973145
 20
183.4029998779297
 30
72.90599822998047
 70
   192
  0
VERTEX
  5
325
  8
0
 10
13.55399990081787
 20
185.4759979248047
 30
67.19999694824219
 70
   192
  0
VERTEX
  5
326
  8
0
 10
1.894999980926514
 20
159.5639953613281
 30
72.31199645996094
 70
   192
  0
VERTEX
  5
327
  8
0
 10
-1.353999972343445
 20
159.656005859375
 30
67.19999694824219
 70
   192
  0
VERTEX
  5
328
  8
0
 10
-1.327999949455261
 20
159.6589965820312
 30
67.69400024414062
 70
   192
  0
VERTEX
  5
329
  8
0
 10
3.078999996185303
 20
158.9570007324219
 30
72.4280014038086
 70
   192
  0
VERTEX
  5
32A
  8
0
 10
4.709000110626221
 20
158.1210021972656
 30
72.58699798583984
 70
   192
  0
VERTEX
  5
32B
  8
0
 10
18.75
 20
182.4759979248047
 30
73.19999694824219
 70
   192
  0
VERTEX
  5
32C
  8
0
 10
6.662000179290771
 20
157.1190032958984
 30
72.77799987792969
 70
   192
  0
VERTEX
  5
32D
  8
0
 10
22.95400047302246
 20
180.0489959716797
 30
70.72699737548828
 70
   192
  0
VERTEX
  5
32E
  8
0
 10
22.95400047302246
 20
180.0489959716797
 30
63.67300033569336
 70
   192
  0
VERTEX
  5
32F
  8
0
 10
8.050000190734863
 20
155.1519927978516
 30
70.32099914550781
 70
   192
  0
VERTEX
  5
330
  8
0
 10
8.9399995803833
 20
153.8899993896484
 30
68.74500274658203
 70
   192
  0
VERTEX
  5
331
  8
0
 10
17.14399909973145
 20
183.4029998779297
 30
61.49399948120117
 70
   192
  0
VERTEX
  5
332
  8
0
 10
5.040999889373779
 20
158.3459930419922
 30
61.20299911499023
 70
   192
  0
VERTEX
  5
333
  8
0
 10
4.861999988555908
 20
158.4089965820312
 30
61.26399993896484
 70
   192
  0
VERTEX
  5
334
  8
0
 10
8.392999649047852
 20
154.9620056152344
 30
63.58300018310547
 70
   192
  0
VERTEX
  5
335
  8
0
 10
8.402999877929688
 20
154.9409942626953
 30
63.68299865722656
 70
   192
  0
VERTEX
  5
336
  8
0
 10
3.184999942779541
 20
158.9980010986328
 30
61.8390007019043
 70
   192
  0
VERTEX
  5
337
  8
0
 10
1.289999961853027
 20
159.6640014648438
 30
62.48799896240234
 70
   192
  0
VERTEX
  5
338
  8
0
 62
     9
 10
0.0
 20
0.0
 30
0.0
 70
   128
 71
     3
 72
     2
 73
     1
  0
VERTEX
  5
339
  8
0
 62
     9
 10
0.0
 20
0.0
 30
0.0
 70
   128
 71
     5
 72
     4
 73
     2
  0
VERTEX
  5
33A
  8
0
 62
     9
 10
0.0
 20
0.0
 30
0.0
 70
   128
 71
     2
 72
     3
 73
     5
  0
VERTEX
  5
33B
  8
0
 62
     9
 10
0.0
 20
0.0
 30
0.0
 70
   128
 71
     7
 72
     6
 73
     1
  0
VERTEX
  5
33C
  8
0
 62
     9
 10
0.0
 20
0.0
 30
0.0
 70
   128
 71
     9
 72
     7
 73
     8
  0
VERTEX
  5
33D
  8
0
 62
     9
 10
0.0
 20
0.0
 30
0.0
 70
   128
 71
     8
 72
    10
 73
     9
  0
VERTEX
  5
33E
  8
0
 62
     9
 10
0.0
 20
0.0
 30
0.0
 70
   128
 71
     1
 72
     8
 73
     7
  0
VERTEX
  5
33F
  8
0
 62
     9
 10
0.0
 20
0.0
 30
0.0
 70
   128
 71
    12
 72
    10
 73
    11
  0
VERTEX
  5
340
  8
0
 62
     9
 10
0.0
 20
0.0
 30
0.0
 70
   128
 71
    11
 72
    13
 73
    12
  0
VERTEX
  5
341
  8
0
 62
     9
 10
0.0
 20
0.0
 30
0.0
 70
   128
 71
    16
 72
    15
 73
    14
  0
VERTEX
  5
342
  8
0
 62
     9
 10
0.0
 20
0.0
 30
0.0
 70
   128
 71
    15
 72
    17
 73
    11
  0
VERTEX
  5
343
  8
0
 62
     9
 10
0.0
 20
0.0
 30
0.0
 70
   128
 71
    17
 72
    18
 73
    11
  0
VERTEX
  5
344
  8
0
 62
     9
 10
0.0
 20
0.0
 30
0.0
 70
   128
 71
    11
 72
    14
 73
    15
  0
VERTEX
  5
345
  8
0
 62
     9
 10
0.0
 20
0.0
 30
0.0
 70
   128
 71
    19
 72
    14
 73
     2
  0
VERTEX
  5
346
  8
0
 62
     9
 10
0.0
 20
0.0
 30
0.0
 70
   128
 71
     2
 72
    20
 73
    19
  0
VERTEX
  5
347
  8
0
 62
     9
 10
0.0
 20
0.0
 30
0.0
 70
   128
 71
     2
 72
     4
 73
    20
  0
VERTEX
  5
348
  8
0
 62
     9
 10
0.0
 20
0.0
 30
0.0
 70
   128
 71
    14
 72
    19
 73
    16
  0
VERTEX
  5
349
  8
0
 62
     9
 10
0.0
 20
0.0
 30
0.0
 70
   128
 71
    11
 72
    18
 73
    13
  0
VERTEX
  5
34A
  8
0
 62
     9
 10
0.0
 20
0.0
 30
0.0
 70
   128
 71
    10
 72
    12
 73
     9
  0
VERTEX
  5
34B
  8
0
 62
     9
 10
0.0
 20
0.0
 30
0.0
 70
   128
 71
     1
 72
     6
 73
     3
  0
SEQEND
  5
34C
  8
0
 62
     9
  0
ENDBLK
  5
34F
  8
0
  0
BLOCK
  8
0
  2
E3_NODE_12_
 70
     0
 10
0.0
 20
0.0
 30
0.0
  3
E3_NODE_12_
  1

  0
POLYLINE
  5
351
  8
0
 62
     9
 66
     1
 10
0.0
 20
0.0
 30
0.0
 70
    64
 71
    54
 72
    60
  0
VERTEX
  5
352
  8
0
 10
-9.75
 20
150.0
 30
74.69999694824219
 70
   192
  0
VERTEX
  5
353
  8
0
 10
-4.875
 20
158.4440002441406
 30
74.69999694824219
 70
   192
  0
VERTEX
  5
354
  8
0
 10
-9.496000289916992
 20
152.2100067138672
 30
72.77799987792969
 70
   192
  0
VERTEX
  5
355
  8
0
 10
-7.839000225067139
 20
155.7980041503906
 30
68.74500274658203
 70
   192
  0
VERTEX
  5
356
  8
0
 10
-8.487000465393066
 20
154.39599609375
 30
70.32099914550781
 70
   192
  0
VERTEX
  5
357
  8
0
 10
-4.875
 20
158.4440002441406
 30
51.70000076293945
 70
   192
  0
VERTEX
  5
358
  8
0
 10
-8.494000434875488
 20
154.7870025634766
 30
63.58300018310547
 70
   192
  0
VERTEX
  5
359
  8
0
 10
-8.480999946594238
 20
154.8070068359375
 30
63.68299865722656
 70
   192
  0
VERTEX
  5
35A
  8
0
 10
-9.75
 20
150.0
 30
51.70000076293945
 70
   192
  0
VERTEX
  5
35B
  8
0
 10
-9.748000144958496
 20
150.1920013427734
 30
61.20299911499023
 70
   192
  0
VERTEX
  5
35C
  8
0
 10
-9.713000297546387
 20
150.0070037841797
 30
61.26399993896484
 70
   192
  0
VERTEX
  5
35D
  8
0
 10
-4.875
 20
141.5559997558594
 30
51.70000076293945
 70
   192
  0
VERTEX
  5
35E
  8
0
 10
-9.385000228881836
 20
148.2590026855469
 30
61.8390007019043
 70
   192
  0
VERTEX
  5
35F
  8
0
 10
-9.015000343322754
 20
146.2850036621094
 30
62.48799896240234
 70
   192
  0
VERTEX
  5
360
  8
0
 10
-4.875
 20
141.5559997558594
 30
74.69999694824219
 70
   192
  0
VERTEX
  5
361
  8
0
 10
-7.701000213623047
 20
144.0200042724609
 30
67.69400024414062
 70
   192
  0
VERTEX
  5
362
  8
0
 10
-7.684999942779541
 20
144.0
 30
67.19999694824219
 70
   192
  0
VERTEX
  5
363
  8
0
 10
-9.229999542236328
 20
146.8589935302734
 30
72.31199645996094
 70
   192
  0
VERTEX
  5
364
  8
0
 10
-9.295999526977539
 20
148.1880035400391
 30
72.4280014038086
 70
   192
  0
VERTEX
  5
365
  8
0
 10
-9.38700008392334
 20
150.0180053710938
 30
72.58699798583984
 70
   192
  0
VERTEX
  5
366
  8
0
 10
0.101000003516674
 20
140.2510070800781
 30
70.81700134277344
 70
   192
  0
VERTEX
  5
367
  8
0
 10
4.706999778747559
 20
141.4620056152344
 30
73.1969985961914
 70
   192
  0
VERTEX
  5
368
  8
0
 10
4.875
 20
141.5559997558594
 30
74.69999694824219
 70
   192
  0
VERTEX
  5
369
  8
0
 10
-1.10099995136261
 20
140.3119964599609
 30
65.65499877929688
 70
   192
  0
VERTEX
  5
36A
  8
0
 10
0.0780000016093254
 20
140.2519989013672
 30
70.71700286865234
 70
   192
  0
VERTEX
  5
36B
  8
0
 10
2.834000110626221
 20
140.6710052490234
 30
61.62200164794922
 70
   192
  0
VERTEX
  5
36C
  8
0
 10
0.4370000064373016
 20
140.4530029296875
 30
64.0790023803711
 70
   192
  0
VERTEX
  5
36D
  8
0
 10
4.875
 20
141.5559997558594
 30
51.70000076293945
 70
   192
  0
VERTEX
  5
36E
  8
0
 10
4.677999973297119
 20
141.8609924316406
 30
61.8129997253418
 70
   192
  0
VERTEX
  5
36F
  8
0
 10
9.75
 20
150.0
 30
51.70000076293945
 70
   192
  0
VERTEX
  5
370
  8
0
 10
7.335000038146973
 20
143.5769958496094
 30
62.0880012512207
 70
   192
  0
VERTEX
  5
371
  8
0
 10
6.217999935150146
 20
142.8549957275391
 30
61.97200012207031
 70
   192
  0
VERTEX
  5
372
  8
0
 10
9.75
 20
150.0
 30
74.69999694824219
 70
   192
  0
VERTEX
  5
373
  8
0
 10
9.038999557495117
 20
146.343994140625
 30
67.19999694824219
 70
   192
  0
VERTEX
  5
374
  8
0
 10
9.029000282287598
 20
146.3200073242188
 30
66.70600128173828
 70
   192
  0
VERTEX
  5
375
  8
0
 10
7.723999977111816
 20
144.0509948730469
 30
71.91200256347656
 70
   192
  0
VERTEX
  5
376
  8
0
 10
4.85099983215332
 20
141.5850067138672
 30
73.13600158691406
 70
   192
  0
VERTEX
  5
377
  8
0
 10
6.199999809265137
 20
142.7420043945312
 30
72.56099700927734
 70
   192
  0
VERTEX
  5
378
  8
0
 10
4.875
 20
158.4440002441406
 30
74.69999694824219
 70
   192
  0
VERTEX
  5
379
  8
0
 10
6.662000179290771
 20
157.1190032958984
 30
72.77799987792969
 70
   192
  0
VERTEX
  5
37A
  8
0
 10
8.9399995803833
 20
153.8899993896484
 30
68.74500274658203
 70
   192
  0
VERTEX
  5
37B
  8
0
 10
8.050000190734863
 20
155.1519927978516
 30
70.32099914550781
 70
   192
  0
VERTEX
  5
37C
  8
0
 10
8.402999877929688
 20
154.9409942626953
 30
63.68299865722656
 70
   192
  0
VERTEX
  5
37D
  8
0
 10
8.392999649047852
 20
154.9620056152344
 30
63.58300018310547
 70
   192
  0
VERTEX
  5
37E
  8
0
 10
4.875
 20
158.4440002441406
 30
51.70000076293945
 70
   192
  0
VERTEX
  5
37F
  8
0
 10
5.040999889373779
 20
158.3459930419922
 30
61.20299911499023
 70
   192
  0
VERTEX
  5
380
  8
0
 10
4.861999988555908
 20
158.4089965820312
 30
61.26399993896484
 70
   192
  0
VERTEX
  5
381
  8
0
 10
3.184999942779541
 20
158.9980010986328
 30
61.8390007019043
 70
   192
  0
VERTEX
  5
382
  8
0
 10
1.289999961853027
 20
159.6640014648438
 30
62.48799896240234
 70
   192
  0
VERTEX
  5
383
  8
0
 10
-1.327999949455261
 20
159.6589965820312
 30
67.69400024414062
 70
   192
  0
VERTEX
  5
384
  8
0
 10
-1.353999972343445
 20
159.656005859375
 30
67.19999694824219
 70
   192
  0
VERTEX
  5
385
  8
0
 10
1.894999980926514
 20
159.5639953613281
 30
72.31199645996094
 70
   192
  0
VERTEX
  5
386
  8
0
 10
3.078999996185303
 20
158.9570007324219
 30
72.4280014038086
 70
   192
  0
VERTEX
  5
387
  8
0
 10
4.709000110626221
 20
158.1210021972656
 30
72.58699798583984
 70
   192
  0
VERTEX
  5
388
  8
0
 62
     9
 10
0.0
 20
0.0
 30
0.0
 70
   128
 71
     3
 72
     2
 73
     1
  0
VERTEX
  5
389
  8
0
 62
     9
 10
0.0
 20
0.0
 30
0.0
 70
   128
 71
     5
 72
     4
 73
     2
  0
VERTEX
  5
38A
  8
0
 62
     9
 10
0.0
 20
0.0
 30
0.0
 70
   128
 71
     2
 72
     3
 73
     5
  0
VERTEX
  5
38B
  8
0
 62
     9
 10
0.0
 20
0.0
 30
0.0
 70
   128
 71
     8
 72
     7
 73
     6
  0
VERTEX
  5
38C
  8
0
 62
     9
 10
0.0
 20
0.0
 30
0.0
 70
   128
 71
     6
 72
     2
 73
     8
  0
VERTEX
  5
38D
  8
0
 62
     9
 10
0.0
 20
0.0
 30
0.0
 70
   128
 71
     2
 72
     4
 73
     8
  0
VERTEX
  5
38E
  8
0
 62
     9
 10
0.0
 20
0.0
 30
0.0
 70
   128
 71
    10
 72
     9
 73
     6
  0
VERTEX
  5
38F
  8
0
 62
     9
 10
0.0
 20
0.0
 30
0.0
 70
   128
 71
    10
 72
    11
 73
     9
  0
VERTEX
  5
390
  8
0
 62
     9
 10
0.0
 20
0.0
 30
0.0
 70
   128
 71
     6
 72
     7
 73
    10
  0
VERTEX
  5
391
  8
0
 62
     9
 10
0.0
 20
0.0
 30
0.0
 70
   128
 71
    13
 72
    12
 73
     9
  0
VERTEX
  5
392
  8
0
 62
     9
 10
0.0
 20
0.0
 30
0.0
 70
   128
 71
    13
 72
    14
 73
    12
  0
VERTEX
  5
393
  8
0
 62
     9
 10
0.0
 20
0.0
 30
0.0
 70
   128
 71
    17
 72
    16
 73
    15
  0
VERTEX
  5
394
  8
0
 62
     9
 10
0.0
 20
0.0
 30
0.0
 70
   128
 71
    16
 72
    18
 73
    15
  0
VERTEX
  5
395
  8
0
 62
     9
 10
0.0
 20
0.0
 30
0.0
 70
   128
 71
    15
 72
    12
 73
    17
  0
VERTEX
  5
396
  8
0
 62
     9
 10
0.0
 20
0.0
 30
0.0
 70
   128
 71
    12
 72
    14
 73
    17
  0
VERTEX
  5
397
  8
0
 62
     9
 10
0.0
 20
0.0
 30
0.0
 70
   128
 71
    18
 72
    19
 73
     1
  0
VERTEX
  5
398
  8
0
 62
     9
 10
0.0
 20
0.0
 30
0.0
 70
   128
 71
    19
 72
    20
 73
     1
  0
VERTEX
  5
399
  8
0
 62
     9
 10
0.0
 20
0.0
 30
0.0
 70
   128
 71
     1
 72
    15
 73
    18
  0
VERTEX
  5
39A
  8
0
 62
     9
 10
0.0
 20
0.0
 30
0.0
 70
   128
 71
    22
 72
    21
 73
    15
  0
VERTEX
  5
39B
  8
0
 62
     9
 10
0.0
 20
0.0
 30
0.0
 70
   128
 71
    15
 72
    23
 73
    22
  0
VERTEX
  5
39C
  8
0
 62
     9
 10
0.0
 20
0.0
 30
0.0
 70
   128
 71
    24
 72
    12
 73
    15
  0
VERTEX
  5
39D
  8
0
 62
     9
 10
0.0
 20
0.0
 30
0.0
 70
   128
 71
    15
 72
    25
 73
    24
  0
VERTEX
  5
39E
  8
0
 62
     9
 10
0.0
 20
0.0
 30
0.0
 70
   128
 71
    15
 72
    21
 73
    25
  0
VERTEX
  5
39F
  8
0
 62
     9
 10
0.0
 20
0.0
 30
0.0
 70
   128
 71
    27
 72
    26
 73
    12
  0
VERTEX
  5
3A0
  8
0
 62
     9
 10
0.0
 20
0.0
 30
0.0
 70
   128
 71
    26
 72
    29
 73
    28
  0
VERTEX
  5
3A1
  8
0
 62
     9
 10
0.0
 20
0.0
 30
0.0
 70
   128
 71
    28
 72
    12
 73
    26
  0
VERTEX
  5
3A2
  8
0
 62
     9
 10
0.0
 20
0.0
 30
0.0
 70
   128
 71
    12
 72
    24
 73
    27
  0
VERTEX
  5
3A3
  8
0
 62
     9
 10
0.0
 20
0.0
 30
0.0
 70
   128
 71
    31
 72
    30
 73
    28
  0
VERTEX
  5
3A4
  8
0
 62
     9
 10
0.0
 20
0.0
 30
0.0
 70
   128
 71
    28
 72
    32
 73
    31
  0
VERTEX
  5
3A5
  8
0
 62
     9
 10
0.0
 20
0.0
 30
0.0
 70
   128
 71
    35
 72
    34
 73
    33
  0
VERTEX
  5
3A6
  8
0
 62
     9
 10
0.0
 20
0.0
 30
0.0
 70
   128
 71
    33
 72
    30
 73
    35
  0
VERTEX
  5
3A7
  8
0
 62
     9
 10
0.0
 20
0.0
 30
0.0
 70
   128
 71
    34
 72
    36
 73
    33
  0
VERTEX
  5
3A8
  8
0
 62
     9
 10
0.0
 20
0.0
 30
0.0
 70
   128
 71
    38
 72
    37
 73
    23
  0
VERTEX
  5
3A9
  8
0
 62
     9
 10
0.0
 20
0.0
 30
0.0
 70
   128
 71
    23
 72
    33
 73
    38
  0
VERTEX
  5
3AA
  8
0
 62
     9
 10
0.0
 20
0.0
 30
0.0
 70
   128
 71
    33
 72
    36
 73
    38
  0
VERTEX
  5
3AB
  8
0
 62
     9
 10
0.0
 20
0.0
 30
0.0
 70
   128
 71
    30
 72
    31
 73
    35
  0
VERTEX
  5
3AC
  8
0
 62
     9
 10
0.0
 20
0.0
 30
0.0
 70
   128
 71
    40
 72
    33
 73
    39
  0
VERTEX
  5
3AD
  8
0
 62
     9
 10
0.0
 20
0.0
 30
0.0
 70
   128
 71
    42
 72
    41
 73
    33
  0
VERTEX
  5
3AE
  8
0
 62
     9
 10
0.0
 20
0.0
 30
0.0
 70
   128
 71
    33
 72
    40
 73
    42
  0
VERTEX
  5
3AF
  8
0
 62
     9
 10
0.0
 20
0.0
 30
0.0
 70
   128
 71
    41
 72
    43
 73
    30
  0
VERTEX
  5
3B0
  8
0
 62
     9
 10
0.0
 20
0.0
 30
0.0
 70
   128
 71
    43
 72
    44
 73
    30
  0
VERTEX
  5
3B1
  8
0
 62
     9
 10
0.0
 20
0.0
 30
0.0
 70
   128
 71
    46
 72
    45
 73
    30
  0
VERTEX
  5
3B2
  8
0
 62
     9
 10
0.0
 20
0.0
 30
0.0
 70
   128
 71
    46
 72
    47
 73
    45
  0
VERTEX
  5
3B3
  8
0
 62
     9
 10
0.0
 20
0.0
 30
0.0
 70
   128
 71
    30
 72
    44
 73
    46
  0
VERTEX
  5
3B4
  8
0
 62
     9
 10
0.0
 20
0.0
 30
0.0
 70
   128
 71
    30
 72
    33
 73
    41
  0
VERTEX
  5
3B5
  8
0
 62
     9
 10
0.0
 20
0.0
 30
0.0
 70
   128
 71
    48
 72
     6
 73
    45
  0
VERTEX
  5
3B6
  8
0
 62
     9
 10
0.0
 20
0.0
 30
0.0
 70
   128
 71
    48
 72
    49
 73
     6
  0
VERTEX
  5
3B7
  8
0
 62
     9
 10
0.0
 20
0.0
 30
0.0
 70
   128
 71
    51
 72
    50
 73
     2
  0
VERTEX
  5
3B8
  8
0
 62
     9
 10
0.0
 20
0.0
 30
0.0
 70
   128
 71
    50
 72
    52
 73
     2
  0
VERTEX
  5
3B9
  8
0
 62
     9
 10
0.0
 20
0.0
 30
0.0
 70
   128
 71
     2
 72
     6
 73
    51
  0
VERTEX
  5
3BA
  8
0
 62
     9
 10
0.0
 20
0.0
 30
0.0
 70
   128
 71
     6
 72
    49
 73
    51
  0
VERTEX
  5
3BB
  8
0
 62
     9
 10
0.0
 20
0.0
 30
0.0
 70
   128
 71
    52
 72
    53
 73
    39
  0
VERTEX
  5
3BC
  8
0
 62
     9
 10
0.0
 20
0.0
 30
0.0
 70
   128
 71
    53
 72
    54
 73
    39
  0
VERTEX
  5
3BD
  8
0
 62
     9
 10
0.0
 20
0.0
 30
0.0
 70
   128
 71
    39
 72
     2
 73
    52
  0
VERTEX
  5
3BE
  8
0
 62
     9
 10
0.0
 20
0.0
 30
0.0
 70
   128
 71
    45
 72
    47
 73
    48
  0
VERTEX
  5
3BF
  8
0
 62
     9
 10
0.0
 20
0.0
 30
0.0
 70
   128
 71
    39
 72
    54
 73
    40
  0
VERTEX
  5
3C0
  8
0
 62
     9
 10
0.0
 20
0.0
 30
0.0
 70
   128
 71
    28
 72
    29
 73
    32
  0
VERTEX
  5
3C1
  8
0
 62
     9
 10
0.0
 20
0.0
 30
0.0
 70
   128
 71
    23
 72
    37
 73
    22
  0
VERTEX
  5
3C2
  8
0
 62
     9
 10
0.0
 20
0.0
 30
0.0
 70
   128
 71
     9
 72
    11
 73
    13
  0
VERTEX
  5
3C3
  8
0
 62
     9
 10
0.0
 20
0.0
 30
0.0
 70
   128
 71
     1
 72
    20
 73
     3
  0
SEQEND
  5
3C4
  8
0
 62
     9
  0
ENDBLK
  5
3C7
  8
0
  0
BLOCK
  8
0
  2
E3_NODE_13_
 70
     0
 10
0.0
 20
0.0
 30
0.0
  3
E3_NODE_13_
  1

  0
POLYLINE
  5
3C9
  8
0
 62
     9
 66
     1
 10
0.0
 20
0.0
 30
0.0
 70
    64
 71
     6
 72
     4
  0
VERTEX
  5
3CA
  8
0
 10
-4.875
 20
158.4440002441406
 30
74.69999694824219
 70
   192
  0
VERTEX
  5
3CB
  8
0
 10
4.875
 20
141.5559997558594
 30
74.69999694824219
 70
   192
  0
VERTEX
  5
3CC
  8
0
 10
9.75
 20
150.0
 30
74.69999694824219
 70
   192
  0
VERTEX
  5
3CD
  8
0
 10
-9.75
 20
150.0
 30
74.69999694824219
 70
   192
  0
VERTEX
  5
3CE
  8
0
 10
-4.875
 20
141.5559997558594
 30
74.69999694824219
 70
   192
  0
VERTEX
  5
3CF
  8
0
 10
4.875
 20
158.4440002441406
 30
74.69999694824219
 70
   192
  0
VERTEX
  5
3D0
  8
0
 62
     9
 10
0.0
 20
0.0
 30
0.0
 70
   128
 71
     3
 72
     2
 73
     1
  0
VERTEX
  5
3D1
  8
0
 62
     9
 10
0.0
 20
0.0
 30
0.0
 70
   128
 71
     5
 72
     4
 73
     1
  0
VERTEX
  5
3D2
  8
0
 62
     9
 10
0.0
 20
0.0
 30
0.0
 70
   128
 71
     1
 72
     2
 73
     5
  0
VERTEX
  5
3D3
  8
0
 62
     9
 10
0.0
 20
0.0
 30
0.0
 70
   128
 71
     1
 72
     6
 73
     3
  0
SEQEND
  5
3D4
  8
0
 62
     9
  0
ENDBLK
  5
3D7
  8
0
  0
BLOCK
  8
0
  2
E3_NODE_14_
 70
     0
 10
0.0
 20
0.0
 30
0.0
  3
E3_NODE_14_
  1

  0
POLYLINE
  5
3D9
  8
0
 62
     9
 66
     1
 10
0.0
 20
0.0
 30
0.0
 70
    64
 71
    20
 72
    20
  0
VERTEX
  5
3DA
  8
0
 10
-37.5
 20
148.14599609375
 30
72.90599822998047
 70
   192
  0
VERTEX
  5
3DB
  8
0
 10
-37.5
 20
144.0
 30
67.19999694824219
 70
   192
  0
VERTEX
  5
3DC
  8
0
 10
-9.229999542236328
 20
146.8589935302734
 30
72.31199645996094
 70
   192
  0
VERTEX
  5
3DD
  8
0
 10
-7.684999942779541
 20
144.0
 30
67.19999694824219
 70
   192
  0
VERTEX
  5
3DE
  8
0
 10
-7.701000213623047
 20
144.0200042724609
 30
67.69400024414062
 70
   192
  0
VERTEX
  5
3DF
  8
0
 10
-37.5
 20
150.0
 30
73.19999694824219
 70
   192
  0
VERTEX
  5
3E0
  8
0
 10
-9.38700008392334
 20
150.0180053710938
 30
72.58699798583984
 70
   192
  0
VERTEX
  5
3E1
  8
0
 10
-9.496000289916992
 20
152.2100067138672
 30
72.77799987792969
 70
   192
  0
VERTEX
  5
3E2
  8
0
 10
-37.5
 20
154.85400390625
 30
70.72699737548828
 70
   192
  0
VERTEX
  5
3E3
  8
0
 10
-9.295999526977539
 20
148.1880035400391
 30
72.4280014038086
 70
   192
  0
VERTEX
  5
3E4
  8
0
 10
-37.5
 20
154.85400390625
 30
63.67300033569336
 70
   192
  0
VERTEX
  5
3E5
  8
0
 10
-8.487000465393066
 20
154.39599609375
 30
70.32099914550781
 70
   192
  0
VERTEX
  5
3E6
  8
0
 10
-7.839000225067139
 20
155.7980041503906
 30
68.74500274658203
 70
   192
  0
VERTEX
  5
3E7
  8
0
 10
-37.5
 20
148.14599609375
 30
61.49399948120117
 70
   192
  0
VERTEX
  5
3E8
  8
0
 10
-9.748000144958496
 20
150.1920013427734
 30
61.20299911499023
 70
   192
  0
VERTEX
  5
3E9
  8
0
 10
-9.713000297546387
 20
150.0070037841797
 30
61.26399993896484
 70
   192
  0
VERTEX
  5
3EA
  8
0
 10
-8.494000434875488
 20
154.7870025634766
 30
63.58300018310547
 70
   192
  0
VERTEX
  5
3EB
  8
0
 10
-8.480999946594238
 20
154.8070068359375
 30
63.68299865722656
 70
   192
  0
VERTEX
  5
3EC
  8
0
 10
-9.385000228881836
 20
148.2590026855469
 30
61.8390007019043
 70
   192
  0
VERTEX
  5
3ED
  8
0
 10
-9.015000343322754
 20
146.2850036621094
 30
62.48799896240234
 70
   192
  0
VERTEX
  5
3EE
  8
0
 62
     9
 10
0.0
 20
0.0
 30
0.0
 70
   128
 71
     3
 72
     2
 73
     1
  0
VERTEX
  5
3EF
  8
0
 62
     9
 10
0.0
 20
0.0
 30
0.0
 70
   128
 71
     5
 72
     4
 73
     2
  0
VERTEX
  5
3F0
  8
0
 62
     9
 10
0.0
 20
0.0
 30
0.0
 70
   128
 71
     2
 72
     3
 73
     5
  0
VERTEX
  5
3F1
  8
0
 62
     9
 10
0.0
 20
0.0
 30
0.0
 70
   128
 71
     8
 72
     7
 73
     6
  0
VERTEX
  5
3F2
  8
0
 62
     9
 10
0.0
 20
0.0
 30
0.0
 70
   128
 71
     6
 72
     9
 73
     8
  0
VERTEX
  5
3F3
  8
0
 62
     9
 10
0.0
 20
0.0
 30
0.0
 70
   128
 71
     7
 72
    10
 73
     1
  0
VERTEX
  5
3F4
  8
0
 62
     9
 10
0.0
 20
0.0
 30
0.0
 70
   128
 71
     7
 72
     1
 73
     6
  0
VERTEX
  5
3F5
  8
0
 62
     9
 10
0.0
 20
0.0
 30
0.0
 70
   128
 71
    12
 72
     9
 73
    11
  0
VERTEX
  5
3F6
  8
0
 62
     9
 10
0.0
 20
0.0
 30
0.0
 70
   128
 71
    11
 72
    13
 73
    12
  0
VERTEX
  5
3F7
  8
0
 62
     9
 10
0.0
 20
0.0
 30
0.0
 70
   128
 71
    16
 72
    15
 73
    14
  0
VERTEX
  5
3F8
  8
0
 62
     9
 10
0.0
 20
0.0
 30
0.0
 70
   128
 71
    15
 72
    17
 73
    11
  0
VERTEX
  5
3F9
  8
0
 62
     9
 10
0.0
 20
0.0
 30
0.0
 70
   128
 71
    17
 72
    18
 73
    11
  0
VERTEX
  5
3FA
  8
0
 62
     9
 10
0.0
 20
0.0
 30
0.0
 70
   128
 71
    11
 72
    14
 73
    15
  0
VERTEX
  5
3FB
  8
0
 62
     9
 10
0.0
 20
0.0
 30
0.0
 70
   128
 71
    19
 72
    14
 73
     2
  0
VERTEX
  5
3FC
  8
0
 62
     9
 10
0.0
 20
0.0
 30
0.0
 70
   128
 71
     2
 72
    20
 73
    19
  0
VERTEX
  5
3FD
  8
0
 62
     9
 10
0.0
 20
0.0
 30
0.0
 70
   128
 71
     2
 72
     4
 73
    20
  0
VERTEX
  5
3FE
  8
0
 62
     9
 10
0.0
 20
0.0
 30
0.0
 70
   128
 71
    14
 72
    19
 73
    16
  0
VERTEX
  5
3FF
  8
0
 62
     9
 10
0.0
 20
0.0
 30
0.0
 70
   128
 71
    11
 72
    18
 73
    13
  0
VERTEX
  5
400
  8
0
 62
     9
 10
0.0
 20
0.0
 30
0.0
 70
   128
 71
     9
 72
    12
 73
     8
  0
VERTEX
  5
401
  8
0
 62
     9
 10
0.0
 20
0.0
 30
0.0
 70
   128
 71
     1
 72
    10
 73
     3
  0
SEQEND
  5
402
  8
0
 62
     9
  0
ENDBLK
  5
405
  8
0
  0
BLOCK
  8
0
  2
E3_NODE_15_
 70
     0
 10
0.0
 20
0.0
 30
0.0
  3
E3_NODE_15_
  1

  0
POLYLINE
  5
407
  8
0
 62
     9
 66
     1
 10
0.0
 20
0.0
 30
0.0
 70
    64
 71
     6
 72
     4
  0
VERTEX
  5
408
  8
0
 10
-37.5
 20
148.14599609375
 30
61.49399948120117
 70
   192
  0
VERTEX
  5
409
  8
0
 10
-37.5
 20
150.0
 30
73.19999694824219
 70
   192
  0
VERTEX
  5
40A
  8
0
 10
-37.5
 20
154.85400390625
 30
70.72699737548828
 70
   192
  0
VERTEX
  5
40B
  8
0
 10
-37.5
 20
144.0
 30
67.19999694824219
 70
   192
  0
VERTEX
  5
40C
  8
0
 10
-37.5
 20
148.14599609375
 30
72.90599822998047
 70
   192
  0
VERTEX
  5
40D
  8
0
 10
-37.5
 20
154.85400390625
 30
63.67300033569336
 70
   192
  0
VERTEX
  5
40E
  8
0
 62
     9
 10
0.0
 20
0.0
 30
0.0
 70
   128
 71
     3
 72
     2
 73
     1
  0
VERTEX
  5
40F
  8
0
 62
     9
 10
0.0
 20
0.0
 30
0.0
 70
   128
 71
     5
 72
     4
 73
     1
  0
VERTEX
  5
410
  8
0
 62
     9
 10
0.0
 20
0.0
 30
0.0
 70
   128
 71
     1
 72
     2
 73
     5
  0
VERTEX
  5
411
  8
0
 62
     9
 10
0.0
 20
0.0
 30
0.0
 70
   128
 71
     1
 72
     6
 73
     3
  0
SEQEND
  5
412
  8
0
 62
     9
  0
ENDBLK
  5
415
  8
0
  0
BLOCK
  8
0
  2
E3_NODE_16_
 70
     0
 10
0.0
 20
0.0
 30
0.0
  3
E3_NODE_16_
  1

  0
POLYLINE
  5
417
  8
0
 62
     9
 66
     1
 10
0.0
 20
0.0
 30
0.0
 70
    64
 71
    20
 72
    20
  0
VERTEX
  5
418
  8
0
 10
23.94599914550781
 20
120.5240020751953
 30
67.19999694824219
 70
   192
  0
VERTEX
  5
419
  8
0
 10
7.723999977111816
 20
144.0509948730469
 30
71.91200256347656
 70
   192
  0
VERTEX
  5
41A
  8
0
 10
6.199999809265137
 20
142.7420043945312
 30
72.56099700927734
 70
   192
  0
VERTEX
  5
41B
  8
0
 10
9.038999557495117
 20
146.343994140625
 30
67.19999694824219
 70
   192
  0
VERTEX
  5
41C
  8
0
 10
14.54599952697754
 20
115.0970001220703
 30
70.72699737548828
 70
   192
  0
VERTEX
  5
41D
  8
0
 10
20.35600090026855
 20
118.4509963989258
 30
72.90599822998047
 70
   192
  0
VERTEX
  5
41E
  8
0
 10
4.706999778747559
 20
141.4620056152344
 30
73.1969985961914
 70
   192
  0
VERTEX
  5
41F
  8
0
 10
0.101000003516674
 20
140.2510070800781
 30
70.81700134277344
 70
   192
  0
VERTEX
  5
420
  8
0
 10
4.85099983215332
 20
141.5850067138672
 30
73.13600158691406
 70
   192
  0
VERTEX
  5
421
  8
0
 10
13.55399990081787
 20
114.5240020751953
 30
67.19999694824219
 70
   192
  0
VERTEX
  5
422
  8
0
 10
0.0780000016093254
 20
140.2519989013672
 30
70.71700286865234
 70
   192
  0
VERTEX
  5
423
  8
0
 10
-1.10099995136261
 20
140.3119964599609
 30
65.65499877929688
 70
   192
  0
VERTEX
  5
424
  8
0
 10
0.4370000064373016
 20
140.4530029296875
 30
64.0790023803711
 70
   192
  0
VERTEX
  5
425
  8
0
 10
14.54599952697754
 20
115.0970001220703
 30
63.67300033569336
 70
   192
  0
VERTEX
  5
426
  8
0
 10
20.35600090026855
 20
118.4509963989258
 30
61.49399948120117
 70
   192
  0
VERTEX
  5
427
  8
0
 10
2.834000110626221
 20
140.6710052490234
 30
61.62200164794922
 70
   192
  0
VERTEX
  5
428
  8
0
 10
4.677999973297119
 20
141.8609924316406
 30
61.8129997253418
 70
   192
  0
VERTEX
  5
429
  8
0
 10
7.335000038146973
 20
143.5769958496094
 30
62.0880012512207
 70
   192
  0
VERTEX
  5
42A
  8
0
 10
9.029000282287598
 20
146.3200073242188
 30
66.70600128173828
 70
   192
  0
VERTEX
  5
42B
  8
0
 10
6.217999935150146
 20
142.8549957275391
 30
61.97200012207031
 70
   192
  0
VERTEX
  5
42C
  8
0
 62
     9
 10
0.0
 20
0.0
 30
0.0
 70
   128
 71
     3
 72
     2
 73
     1
  0
VERTEX
  5
42D
  8
0
 62
     9
 10
0.0
 20
0.0
 30
0.0
 70
   128
 71
     2
 72
     4
 73
     1
  0
VERTEX
  5
42E
  8
0
 62
     9
 10
0.0
 20
0.0
 30
0.0
 70
   128
 71
     7
 72
     6
 73
     5
  0
VERTEX
  5
42F
  8
0
 62
     9
 10
0.0
 20
0.0
 30
0.0
 70
   128
 71
     5
 72
     8
 73
     7
  0
VERTEX
  5
430
  8
0
 62
     9
 10
0.0
 20
0.0
 30
0.0
 70
   128
 71
     9
 72
     3
 73
     6
  0
VERTEX
  5
431
  8
0
 62
     9
 10
0.0
 20
0.0
 30
0.0
 70
   128
 71
     6
 72
     7
 73
     9
  0
VERTEX
  5
432
  8
0
 62
     9
 10
0.0
 20
0.0
 30
0.0
 70
   128
 71
    11
 72
     5
 73
    10
  0
VERTEX
  5
433
  8
0
 62
     9
 10
0.0
 20
0.0
 30
0.0
 70
   128
 71
    13
 72
    12
 73
    10
  0
VERTEX
  5
434
  8
0
 62
     9
 10
0.0
 20
0.0
 30
0.0
 70
   128
 71
    10
 72
    14
 73
    13
  0
VERTEX
  5
435
  8
0
 62
     9
 10
0.0
 20
0.0
 30
0.0
 70
   128
 71
    16
 72
    14
 73
    15
  0
VERTEX
  5
436
  8
0
 62
     9
 10
0.0
 20
0.0
 30
0.0
 70
   128
 71
    15
 72
    17
 73
    16
  0
VERTEX
  5
437
  8
0
 62
     9
 10
0.0
 20
0.0
 30
0.0
 70
   128
 71
    16
 72
    13
 73
    14
  0
VERTEX
  5
438
  8
0
 62
     9
 10
0.0
 20
0.0
 30
0.0
 70
   128
 71
    19
 72
    18
 73
     1
  0
VERTEX
  5
439
  8
0
 62
     9
 10
0.0
 20
0.0
 30
0.0
 70
   128
 71
    18
 72
    20
 73
    15
  0
VERTEX
  5
43A
  8
0
 62
     9
 10
0.0
 20
0.0
 30
0.0
 70
   128
 71
    15
 72
     1
 73
    18
  0
VERTEX
  5
43B
  8
0
 62
     9
 10
0.0
 20
0.0
 30
0.0
 70
   128
 71
     1
 72
     4
 73
    19
  0
VERTEX
  5
43C
  8
0
 62
     9
 10
0.0
 20
0.0
 30
0.0
 70
   128
 71
    15
 72
    20
 73
    17
  0
VERTEX
  5
43D
  8
0
 62
     9
 10
0.0
 20
0.0
 30
0.0
 70
   128
 71
    10
 72
    12
 73
    11
  0
VERTEX
  5
43E
  8
0
 62
     9
 10
0.0
 20
0.0
 30
0.0
 70
   128
 71
     5
 72
    11
 73
     8
  0
VERTEX
  5
43F
  8
0
 62
     9
 10
0.0
 20
0.0
 30
0.0
 70
   128
 71
     1
 72
     6
 73
     3
  0
SEQEND
  5
440
  8
0
 62
     9
  0
ENDBLK
  5
443
  8
0
  0
BLOCK
  8
0
  2
E3_NODE_17_
 70
     0
 10
0.0
 20
0.0
 30
0.0
  3
E3_NODE_17_
  1

  0
POLYLINE
  5
445
  8
0
 62
     9
 66
     1
 10
0.0
 20
0.0
 30
0.0
 70
    64
 71
     6
 72
     4
  0
VERTEX
  5
446
  8
0
 10
23.94599914550781
 20
120.5240020751953
 30
67.19999694824219
 70
   192
  0
VERTEX
  5
447
  8
0
 10
13.55399990081787
 20
114.5240020751953
 30
67.19999694824219
 70
   192
  0
VERTEX
  5
448
  8
0
 10
14.54599952697754
 20
115.0970001220703
 30
63.67300033569336
 70
   192
  0
VERTEX
  5
449
  8
0
 10
20.35600090026855
 20
118.4509963989258
 30
72.90599822998047
 70
   192
  0
VERTEX
  5
44A
  8
0
 10
14.54599952697754
 20
115.0970001220703
 30
70.72699737548828
 70
   192
  0
VERTEX
  5
44B
  8
0
 10
20.35600090026855
 20
118.4509963989258
 30
61.49399948120117
 70
   192
  0
VERTEX
  5
44C
  8
0
 62
     9
 10
0.0
 20
0.0
 30
0.0
 70
   128
 71
     3
 72
     2
 73
     1
  0
VERTEX
  5
44D
  8
0
 62
     9
 10
0.0
 20
0.0
 30
0.0
 70
   128
 71
     5
 72
     4
 73
     1
  0
VERTEX
  5
44E
  8
0
 62
     9
 10
0.0
 20
0.0
 30
0.0
 70
   128
 71
     1
 72
     2
 73
     5
  0
VERTEX
  5
44F
  8
0
 62
     9
 10
0.0
 20
0.0
 30
0.0
 70
   128
 71
     1
 72
     6
 73
     3
  0
SEQEND
  5
450
  8
0
 62
     9
  0
ENDBLK
  5
453
  8
0
  0
BLOCK
  8
0
  2
E3_NODE_18_
 70
     0
 10
0.0
 20
0.0
 30
0.0
  3
E3_NODE_18_
  1

  0
POLYLINE
  5
455
  8
0
 62
     9
 66
     1
 10
0.0
 20
0.0
 30
0.0
 70
    64
 71
     6
 72
     4
  0
VERTEX
  5
456
  8
0
 10
17.14399909973145
 20
-116.5970001220703
 30
61.49399948120117
 70
   192
  0
VERTEX
  5
457
  8
0
 10
18.75
 20
-117.5240020751953
 30
73.19999694824219
 70
   192
  0
VERTEX
  5
458
  8
0
 10
22.95400047302246
 20
-119.9509963989258
 30
70.72699737548828
 70
   192
  0
VERTEX
  5
459
  8
0
 10
13.55399990081787
 20
-114.5240020751953
 30
67.19999694824219
 70
   192
  0
VERTEX
  5
45A
  8
0
 10
17.14399909973145
 20
-116.5970001220703
 30
72.90599822998047
 70
   192
  0
VERTEX
  5
45B
  8
0
 10
22.95400047302246
 20
-119.9509963989258
 30
63.67300033569336
 70
   192
  0
VERTEX
  5
45C
  8
0
 62
     9
 10
0.0
 20
0.0
 30
0.0
 70
   128
 71
     3
 72
     2
 73
     1
  0
VERTEX
  5
45D
  8
0
 62
     9
 10
0.0
 20
0.0
 30
0.0
 70
   128
 71
     5
 72
     4
 73
     1
  0
VERTEX
  5
45E
  8
0
 62
     9
 10
0.0
 20
0.0
 30
0.0
 70
   128
 71
     1
 72
     2
 73
     5
  0
VERTEX
  5
45F
  8
0
 62
     9
 10
0.0
 20
0.0
 30
0.0
 70
   128
 71
     1
 72
     6
 73
     3
  0
SEQEND
  5
460
  8
0
 62
     9
  0
ENDBLK
  5
463
  8
0
  0
BLOCK
  8
0
  2
E3_NODE_19_
 70
     0
 10
0.0
 20
0.0
 30
0.0
  3
E3_NODE_19_
  1

  0
POLYLINE
  5
465
  8
0
 62
     9
 66
     1
 10
0.0
 20
0.0
 30
0.0
 70
    64
 71
    20
 72
    20
  0
VERTEX
  5
466
  8
0
 10
17.14399909973145
 20
-116.5970001220703
 30
72.90599822998047
 70
   192
  0
VERTEX
  5
467
  8
0
 10
13.55399990081787
 20
-114.5240020751953
 30
67.19999694824219
 70
   192
  0
VERTEX
  5
468
  8
0
 10
1.894999980926514
 20
-140.4360046386719
 30
72.31199645996094
 70
   192
  0
VERTEX
  5
469
  8
0
 10
-1.353999972343445
 20
-140.343994140625
 30
67.19999694824219
 70
   192
  0
VERTEX
  5
46A
  8
0
 10
-1.327999949455261
 20
-140.3410034179688
 30
67.69400024414062
 70
   192
  0
VERTEX
  5
46B
  8
0
 10
3.078999996185303
 20
-141.0429992675781
 30
72.4280014038086
 70
   192
  0
VERTEX
  5
46C
  8
0
 10
4.709000110626221
 20
-141.8789978027344
 30
72.58699798583984
 70
   192
  0
VERTEX
  5
46D
  8
0
 10
18.75
 20
-117.5240020751953
 30
73.19999694824219
 70
   192
  0
VERTEX
  5
46E
  8
0
 10
6.662000179290771
 20
-142.8809967041016
 30
72.77799987792969
 70
   192
  0
VERTEX
  5
46F
  8
0
 10
22.95400047302246
 20
-119.9509963989258
 30
70.72699737548828
 70
   192
  0
VERTEX
  5
470
  8
0
 10
22.95400047302246
 20
-119.9509963989258
 30
63.67300033569336
 70
   192
  0
VERTEX
  5
471
  8
0
 10
8.050000190734863
 20
-144.8480072021484
 30
70.32099914550781
 70
   192
  0
VERTEX
  5
472
  8
0
 10
8.9399995803833
 20
-146.1100006103516
 30
68.74500274658203
 70
   192
  0
VERTEX
  5
473
  8
0
 10
17.14399909973145
 20
-116.5970001220703
 30
61.49399948120117
 70
   192
  0
VERTEX
  5
474
  8
0
 10
5.040999889373779
 20
-141.6540069580078
 30
61.20299911499023
 70
   192
  0
VERTEX
  5
475
  8
0
 10
4.861999988555908
 20
-141.5910034179688
 30
61.26399993896484
 70
   192
  0
VERTEX
  5
476
  8
0
 10
8.392999649047852
 20
-145.0379943847656
 30
63.58300018310547
 70
   192
  0
VERTEX
  5
477
  8
0
 10
8.402999877929688
 20
-145.0590057373047
 30
63.68299865722656
 70
   192
  0
VERTEX
  5
478
  8
0
 10
3.184999942779541
 20
-141.0019989013672
 30
61.8390007019043
 70
   192
  0
VERTEX
  5
479
  8
0
 10
1.289999961853027
 20
-140.3359985351562
 30
62.48799896240234
 70
   192
  0
VERTEX
  5
47A
  8
0
 62
     9
 10
0.0
 20
0.0
 30
0.0
 70
   128
 71
     3
 72
     2
 73
     1
  0
VERTEX
  5
47B
  8
0
 62
     9
 10
0.0
 20
0.0
 30
0.0
 70
   128
 71
     5
 72
     4
 73
     2
  0
VERTEX
  5
47C
  8
0
 62
     9
 10
0.0
 20
0.0
 30
0.0
 70
   128
 71
     2
 72
     3
 73
     5
  0
VERTEX
  5
47D
  8
0
 62
     9
 10
0.0
 20
0.0
 30
0.0
 70
   128
 71
     7
 72
     6
 73
     1
  0
VERTEX
  5
47E
  8
0
 62
     9
 10
0.0
 20
0.0
 30
0.0
 70
   128
 71
     9
 72
     7
 73
     8
  0
VERTEX
  5
47F
  8
0
 62
     9
 10
0.0
 20
0.0
 30
0.0
 70
   128
 71
     8
 72
    10
 73
     9
  0
VERTEX
  5
480
  8
0
 62
     9
 10
0.0
 20
0.0
 30
0.0
 70
   128
 71
     1
 72
     8
 73
     7
  0
VERTEX
  5
481
  8
0
 62
     9
 10
0.0
 20
0.0
 30
0.0
 70
   128
 71
    12
 72
    10
 73
    11
  0
VERTEX
  5
482
  8
0
 62
     9
 10
0.0
 20
0.0
 30
0.0
 70
   128
 71
    11
 72
    13
 73
    12
  0
VERTEX
  5
483
  8
0
 62
     9
 10
0.0
 20
0.0
 30
0.0
 70
   128
 71
    16
 72
    15
 73
    14
  0
VERTEX
  5
484
  8
0
 62
     9
 10
0.0
 20
0.0
 30
0.0
 70
   128
 71
    15
 72
    17
 73
    11
  0
VERTEX
  5
485
  8
0
 62
     9
 10
0.0
 20
0.0
 30
0.0
 70
   128
 71
    17
 72
    18
 73
    11
  0
VERTEX
  5
486
  8
0
 62
     9
 10
0.0
 20
0.0
 30
0.0
 70
   128
 71
    11
 72
    14
 73
    15
  0
VERTEX
  5
487
  8
0
 62
     9
 10
0.0
 20
0.0
 30
0.0
 70
   128
 71
    19
 72
    14
 73
     2
  0
VERTEX
  5
488
  8
0
 62
     9
 10
0.0
 20
0.0
 30
0.0
 70
   128
 71
     2
 72
    20
 73
    19
  0
VERTEX
  5
489
  8
0
 62
     9
 10
0.0
 20
0.0
 30
0.0
 70
   128
 71
     2
 72
     4
 73
    20
  0
VERTEX
  5
48A
  8
0
 62
     9
 10
0.0
 20
0.0
 30
0.0
 70
   128
 71
    14
 72
    19
 73
    16
  0
VERTEX
  5
48B
  8
0
 62
     9
 10
0.0
 20
0.0
 30
0.0
 70
   128
 71
    11
 72
    18
 73
    13
  0
VERTEX
  5
48C
  8
0
 62
     9
 10
0.0
 20
0.0
 30
0.0
 70
   128
 71
    10
 72
    12
 73
     9
  0
VERTEX
  5
48D
  8
0
 62
     9
 10
0.0
 20
0.0
 30
0.0
 70
   128
 71
     1
 72
     6
 73
     3
  0
SEQEND
  5
48E
  8
0
 62
     9
  0
ENDBLK
  5
491
  8
0
  0
BLOCK
  8
0
  2
E3_NODE_20_
 70
     0
 10
0.0
 20
0.0
 30
0.0
  3
E3_NODE_20_
  1

  0
POLYLINE
  5
493
  8
0
 62
     9
 66
     1
 10
0.0
 20
0.0
 30
0.0
 70
    64
 71
    54
 72
    60
  0
VERTEX
  5
494
  8
0
 10
-9.75
 20
-150.0
 30
74.69999694824219
 70
   192
  0
VERTEX
  5
495
  8
0
 10
-4.875
 20
-141.5559997558594
 30
74.69999694824219
 70
   192
  0
VERTEX
  5
496
  8
0
 10
-9.496000289916992
 20
-147.7899932861328
 30
72.77799987792969
 70
   192
  0
VERTEX
  5
497
  8
0
 10
-7.839000225067139
 20
-144.2019958496094
 30
68.74500274658203
 70
   192
  0
VERTEX
  5
498
  8
0
 10
-8.487000465393066
 20
-145.60400390625
 30
70.32099914550781
 70
   192
  0
VERTEX
  5
499
  8
0
 10
-4.875
 20
-141.5559997558594
 30
51.70000076293945
 70
   192
  0
VERTEX
  5
49A
  8
0
 10
-8.494000434875488
 20
-145.2129974365234
 30
63.58300018310547
 70
   192
  0
VERTEX
  5
49B
  8
0
 10
-8.480999946594238
 20
-145.1929931640625
 30
63.68299865722656
 70
   192
  0
VERTEX
  5
49C
  8
0
 10
-9.75
 20
-150.0
 30
51.70000076293945
 70
   192
  0
VERTEX
  5
49D
  8
0
 10
-9.748000144958496
 20
-149.8079986572266
 30
61.20299911499023
 70
   192
  0
VERTEX
  5
49E
  8
0
 10
-9.713000297546387
 20
-149.9929962158203
 30
61.26399993896484
 70
   192
  0
VERTEX
  5
49F
  8
0
 10
-4.875
 20
-158.4440002441406
 30
51.70000076293945
 70
   192
  0
VERTEX
  5
4A0
  8
0
 10
-9.385000228881836
 20
-151.7409973144531
 30
61.8390007019043
 70
   192
  0
VERTEX
  5
4A1
  8
0
 10
-9.015000343322754
 20
-153.7149963378906
 30
62.48799896240234
 70
   192
  0
VERTEX
  5
4A2
  8
0
 10
-4.875
 20
-158.4440002441406
 30
74.69999694824219
 70
   192
  0
VERTEX
  5
4A3
  8
0
 10
-7.701000213623047
 20
-155.9799957275391
 30
67.69400024414062
 70
   192
  0
VERTEX
  5
4A4
  8
0
 10
-7.684999942779541
 20
-156.0
 30
67.19999694824219
 70
   192
  0
VERTEX
  5
4A5
  8
0
 10
-9.229999542236328
 20
-153.1410064697266
 30
72.31199645996094
 70
   192
  0
VERTEX
  5
4A6
  8
0
 10
-9.295999526977539
 20
-151.8119964599609
 30
72.4280014038086
 70
   192
  0
VERTEX
  5
4A7
  8
0
 10
-9.38700008392334
 20
-149.9819946289062
 30
72.58699798583984
 70
   192
  0
VERTEX
  5
4A8
  8
0
 10
0.101000003516674
 20
-159.7489929199219
 30
70.81700134277344
 70
   192
  0
VERTEX
  5
4A9
  8
0
 10
4.706999778747559
 20
-158.5379943847656
 30
73.1969985961914
 70
   192
  0
VERTEX
  5
4AA
  8
0
 10
4.875
 20
-158.4440002441406
 30
74.69999694824219
 70
   192
  0
VERTEX
  5
4AB
  8
0
 10
-1.10099995136261
 20
-159.6880035400391
 30
65.65499877929688
 70
   192
  0
VERTEX
  5
4AC
  8
0
 10
0.0780000016093254
 20
-159.7480010986328
 30
70.71700286865234
 70
   192
  0
VERTEX
  5
4AD
  8
0
 10
2.834000110626221
 20
-159.3289947509766
 30
61.62200164794922
 70
   192
  0
VERTEX
  5
4AE
  8
0
 10
0.4370000064373016
 20
-159.5469970703125
 30
64.0790023803711
 70
   192
  0
VERTEX
  5
4AF
  8
0
 10
4.875
 20
-158.4440002441406
 30
51.70000076293945
 70
   192
  0
VERTEX
  5
4B0
  8
0
 10
4.677999973297119
 20
-158.1390075683594
 30
61.8129997253418
 70
   192
  0
VERTEX
  5
4B1
  8
0
 10
9.75
 20
-150.0
 30
51.70000076293945
 70
   192
  0
VERTEX
  5
4B2
  8
0
 10
7.335000038146973
 20
-156.4230041503906
 30
62.0880012512207
 70
   192
  0
VERTEX
  5
4B3
  8
0
 10
6.217999935150146
 20
-157.1450042724609
 30
61.97200012207031
 70
   192
  0
VERTEX
  5
4B4
  8
0
 10
9.75
 20
-150.0
 30
74.69999694824219
 70
   192
  0
VERTEX
  5
4B5
  8
0
 10
9.038999557495117
 20
-153.656005859375
 30
67.19999694824219
 70
   192
  0
VERTEX
  5
4B6
  8
0
 10
9.029000282287598
 20
-153.6799926757812
 30
66.70600128173828
 70
   192
  0
VERTEX
  5
4B7
  8
0
 10
7.723999977111816
 20
-155.9490051269531
 30
71.91200256347656
 70
   192
  0
VERTEX
  5
4B8
  8
0
 10
4.85099983215332
 20
-158.4149932861328
 30
73.13600158691406
 70
   192
  0
VERTEX
  5
4B9
  8
0
 10
6.199999809265137
 20
-157.2579956054688
 30
72.56099700927734
 70
   192
  0
VERTEX
  5
4BA
  8
0
 10
4.875
 20
-141.5559997558594
 30
74.69999694824219
 70
   192
  0
VERTEX
  5
4BB
  8
0
 10
6.662000179290771
 20
-142.8809967041016
 30
72.77799987792969
 70
   192
  0
VERTEX
  5
4BC
  8
0
 10
8.9399995803833
 20
-146.1100006103516
 30
68.74500274658203
 70
   192
  0
VERTEX
  5
4BD
  8
0
 10
8.050000190734863
 20
-144.8480072021484
 30
70.32099914550781
 70
   192
  0
VERTEX
  5
4BE
  8
0
 10
8.402999877929688
 20
-145.0590057373047
 30
63.68299865722656
 70
   192
  0
VERTEX
  5
4BF
  8
0
 10
8.392999649047852
 20
-145.0379943847656
 30
63.58300018310547
 70
   192
  0
VERTEX
  5
4C0
  8
0
 10
4.875
 20
-141.5559997558594
 30
51.70000076293945
 70
   192
  0
VERTEX
  5
4C1
  8
0
 10
5.040999889373779
 20
-141.6540069580078
 30
61.20299911499023
 70
   192
  0
VERTEX
  5
4C2
  8
0
 10
4.861999988555908
 20
-141.5910034179688
 30
61.26399993896484
 70
   192
  0
VERTEX
  5
4C3
  8
0
 10
3.184999942779541
 20
-141.0019989013672
 30
61.8390007019043
 70
   192
  0
VERTEX
  5
4C4
  8
0
 10
1.289999961853027
 20
-140.3359985351562
 30
62.48799896240234
 70
   192
  0
VERTEX
  5
4C5
  8
0
 10
-1.327999949455261
 20
-140.3410034179688
 30
67.69400024414062
 70
   192
  0
VERTEX
  5
4C6
  8
0
 10
-1.353999972343445
 20
-140.343994140625
 30
67.19999694824219
 70
   192
  0
VERTEX
  5
4C7
  8
0
 10
1.894999980926514
 20
-140.4360046386719
 30
72.31199645996094
 70
   192
  0
VERTEX
  5
4C8
  8
0
 10
3.078999996185303
 20
-141.0429992675781
 30
72.4280014038086
 70
   192
  0
VERTEX
  5
4C9
  8
0
 10
4.709000110626221
 20
-141.8789978027344
 30
72.58699798583984
 70
   192
  0
VERTEX
  5
4CA
  8
0
 62
     9
 10
0.0
 20
0.0
 30
0.0
 70
   128
 71
     3
 72
     2
 73
     1
  0
VERTEX
  5
4CB
  8
0
 62
     9
 10
0.0
 20
0.0
 30
0.0
 70
   128
 71
     5
 72
     4
 73
     2
  0
VERTEX
  5
4CC
  8
0
 62
     9
 10
0.0
 20
0.0
 30
0.0
 70
   128
 71
     2
 72
     3
 73
     5
  0
VERTEX
  5
4CD
  8
0
 62
     9
 10
0.0
 20
0.0
 30
0.0
 70
   128
 71
     8
 72
     7
 73
     6
  0
VERTEX
  5
4CE
  8
0
 62
     9
 10
0.0
 20
0.0
 30
0.0
 70
   128
 71
     6
 72
     2
 73
     8
  0
VERTEX
  5
4CF
  8
0
 62
     9
 10
0.0
 20
0.0
 30
0.0
 70
   128
 71
     2
 72
     4
 73
     8
  0
VERTEX
  5
4D0
  8
0
 62
     9
 10
0.0
 20
0.0
 30
0.0
 70
   128
 71
    10
 72
     9
 73
     6
  0
VERTEX
  5
4D1
  8
0
 62
     9
 10
0.0
 20
0.0
 30
0.0
 70
   128
 71
    10
 72
    11
 73
     9
  0
VERTEX
  5
4D2
  8
0
 62
     9
 10
0.0
 20
0.0
 30
0.0
 70
   128
 71
     6
 72
     7
 73
    10
  0
VERTEX
  5
4D3
  8
0
 62
     9
 10
0.0
 20
0.0
 30
0.0
 70
   128
 71
    13
 72
    12
 73
     9
  0
VERTEX
  5
4D4
  8
0
 62
     9
 10
0.0
 20
0.0
 30
0.0
 70
   128
 71
    13
 72
    14
 73
    12
  0
VERTEX
  5
4D5
  8
0
 62
     9
 10
0.0
 20
0.0
 30
0.0
 70
   128
 71
    17
 72
    16
 73
    15
  0
VERTEX
  5
4D6
  8
0
 62
     9
 10
0.0
 20
0.0
 30
0.0
 70
   128
 71
    16
 72
    18
 73
    15
  0
VERTEX
  5
4D7
  8
0
 62
     9
 10
0.0
 20
0.0
 30
0.0
 70
   128
 71
    15
 72
    12
 73
    17
  0
VERTEX
  5
4D8
  8
0
 62
     9
 10
0.0
 20
0.0
 30
0.0
 70
   128
 71
    12
 72
    14
 73
    17
  0
VERTEX
  5
4D9
  8
0
 62
     9
 10
0.0
 20
0.0
 30
0.0
 70
   128
 71
    18
 72
    19
 73
     1
  0
VERTEX
  5
4DA
  8
0
 62
     9
 10
0.0
 20
0.0
 30
0.0
 70
   128
 71
    19
 72
    20
 73
     1
  0
VERTEX
  5
4DB
  8
0
 62
     9
 10
0.0
 20
0.0
 30
0.0
 70
   128
 71
     1
 72
    15
 73
    18
  0
VERTEX
  5
4DC
  8
0
 62
     9
 10
0.0
 20
0.0
 30
0.0
 70
   128
 71
    22
 72
    21
 73
    15
  0
VERTEX
  5
4DD
  8
0
 62
     9
 10
0.0
 20
0.0
 30
0.0
 70
   128
 71
    15
 72
    23
 73
    22
  0
VERTEX
  5
4DE
  8
0
 62
     9
 10
0.0
 20
0.0
 30
0.0
 70
   128
 71
    24
 72
    12
 73
    15
  0
VERTEX
  5
4DF
  8
0
 62
     9
 10
0.0
 20
0.0
 30
0.0
 70
   128
 71
    15
 72
    25
 73
    24
  0
VERTEX
  5
4E0
  8
0
 62
     9
 10
0.0
 20
0.0
 30
0.0
 70
   128
 71
    15
 72
    21
 73
    25
  0
VERTEX
  5
4E1
  8
0
 62
     9
 10
0.0
 20
0.0
 30
0.0
 70
   128
 71
    27
 72
    26
 73
    12
  0
VERTEX
  5
4E2
  8
0
 62
     9
 10
0.0
 20
0.0
 30
0.0
 70
   128
 71
    26
 72
    29
 73
    28
  0
VERTEX
  5
4E3
  8
0
 62
     9
 10
0.0
 20
0.0
 30
0.0
 70
   128
 71
    28
 72
    12
 73
    26
  0
VERTEX
  5
4E4
  8
0
 62
     9
 10
0.0
 20
0.0
 30
0.0
 70
   128
 71
    12
 72
    24
 73
    27
  0
VERTEX
  5
4E5
  8
0
 62
     9
 10
0.0
 20
0.0
 30
0.0
 70
   128
 71
    31
 72
    30
 73
    28
  0
VERTEX
  5
4E6
  8
0
 62
     9
 10
0.0
 20
0.0
 30
0.0
 70
   128
 71
    28
 72
    32
 73
    31
  0
VERTEX
  5
4E7
  8
0
 62
     9
 10
0.0
 20
0.0
 30
0.0
 70
   128
 71
    35
 72
    34
 73
    33
  0
VERTEX
  5
4E8
  8
0
 62
     9
 10
0.0
 20
0.0
 30
0.0
 70
   128
 71
    33
 72
    30
 73
    35
  0
VERTEX
  5
4E9
  8
0
 62
     9
 10
0.0
 20
0.0
 30
0.0
 70
   128
 71
    34
 72
    36
 73
    33
  0
VERTEX
  5
4EA
  8
0
 62
     9
 10
0.0
 20
0.0
 30
0.0
 70
   128
 71
    38
 72
    37
 73
    23
  0
VERTEX
  5
4EB
  8
0
 62
     9
 10
0.0
 20
0.0
 30
0.0
 70
   128
 71
    23
 72
    33
 73
    38
  0
VERTEX
  5
4EC
  8
0
 62
     9
 10
0.0
 20
0.0
 30
0.0
 70
   128
 71
    33
 72
    36
 73
    38
  0
VERTEX
  5
4ED
  8
0
 62
     9
 10
0.0
 20
0.0
 30
0.0
 70
   128
 71
    30
 72
    31
 73
    35
  0
VERTEX
  5
4EE
  8
0
 62
     9
 10
0.0
 20
0.0
 30
0.0
 70
   128
 71
    40
 72
    33
 73
    39
  0
VERTEX
  5
4EF
  8
0
 62
     9
 10
0.0
 20
0.0
 30
0.0
 70
   128
 71
    42
 72
    41
 73
    33
  0
VERTEX
  5
4F0
  8
0
 62
     9
 10
0.0
 20
0.0
 30
0.0
 70
   128
 71
    33
 72
    40
 73
    42
  0
VERTEX
  5
4F1
  8
0
 62
     9
 10
0.0
 20
0.0
 30
0.0
 70
   128
 71
    41
 72
    43
 73
    30
  0
VERTEX
  5
4F2
  8
0
 62
     9
 10
0.0
 20
0.0
 30
0.0
 70
   128
 71
    43
 72
    44
 73
    30
  0
VERTEX
  5
4F3
  8
0
 62
     9
 10
0.0
 20
0.0
 30
0.0
 70
   128
 71
    46
 72
    45
 73
    30
  0
VERTEX
  5
4F4
  8
0
 62
     9
 10
0.0
 20
0.0
 30
0.0
 70
   128
 71
    46
 72
    47
 73
    45
  0
VERTEX
  5
4F5
  8
0
 62
     9
 10
0.0
 20
0.0
 30
0.0
 70
   128
 71
    30
 72
    44
 73
    46
  0
VERTEX
  5
4F6
  8
0
 62
     9
 10
0.0
 20
0.0
 30
0.0
 70
   128
 71
    30
 72
    33
 73
    41
  0
VERTEX
  5
4F7
  8
0
 62
     9
 10
0.0
 20
0.0
 30
0.0
 70
   128
 71
    48
 72
     6
 73
    45
  0
VERTEX
  5
4F8
  8
0
 62
     9
 10
0.0
 20
0.0
 30
0.0
 70
   128
 71
    48
 72
    49
 73
     6
  0
VERTEX
  5
4F9
  8
0
 62
     9
 10
0.0
 20
0.0
 30
0.0
 70
   128
 71
    51
 72
    50
 73
     2
  0
VERTEX
  5
4FA
  8
0
 62
     9
 10
0.0
 20
0.0
 30
0.0
 70
   128
 71
    50
 72
    52
 73
     2
  0
VERTEX
  5
4FB
  8
0
 62
     9
 10
0.0
 20
0.0
 30
0.0
 70
   128
 71
     2
 72
     6
 73
    51
  0
VERTEX
  5
4FC
  8
0
 62
     9
 10
0.0
 20
0.0
 30
0.0
 70
   128
 71
     6
 72
    49
 73
    51
  0
VERTEX
  5
4FD
  8
0
 62
     9
 10
0.0
 20
0.0
 30
0.0
 70
   128
 71
    52
 72
    53
 73
    39
  0
VERTEX
  5
4FE
  8
0
 62
     9
 10
0.0
 20
0.0
 30
0.0
 70
   128
 71
    53
 72
    54
 73
    39
  0
VERTEX
  5
4FF
  8
0
 62
     9
 10
0.0
 20
0.0
 30
0.0
 70
   128
 71
    39
 72
     2
 73
    52
  0
VERTEX
  5
500
  8
0
 62
     9
 10
0.0
 20
0.0
 30
0.0
 70
   128
 71
    45
 72
    47
 73
    48
  0
VERTEX
  5
501
  8
0
 62
     9
 10
0.0
 20
0.0
 30
0.0
 70
   128
 71
    39
 72
    54
 73
    40
  0
VERTEX
  5
502
  8
0
 62
     9
 10
0.0
 20
0.0
 30
0.0
 70
   128
 71
    28
 72
    29
 73
    32
  0
VERTEX
  5
503
  8
0
 62
     9
 10
0.0
 20
0.0
 30
0.0
 70
   128
 71
    23
 72
    37
 73
    22
  0
VERTEX
  5
504
  8
0
 62
     9
 10
0.0
 20
0.0
 30
0.0
 70
   128
 71
     9
 72
    11
 73
    13
  0
VERTEX
  5
505
  8
0
 62
     9
 10
0.0
 20
0.0
 30
0.0
 70
   128
 71
     1
 72
    20
 73
     3
  0
SEQEND
  5
506
  8
0
 62
     9
  0
ENDBLK
  5
509
  8
0
  0
BLOCK
  8
0
  2
E3_NODE_21_
 70
     0
 10
0.0
 20
0.0
 30
0.0
  3
E3_NODE_21_
  1

  0
POLYLINE
  5
50B
  8
0
 62
     9
 66
     1
 10
0.0
 20
0.0
 30
0.0
 70
    64
 71
     6
 72
     4
  0
VERTEX
  5
50C
  8
0
 10
-4.875
 20
-141.5559997558594
 30
74.69999694824219
 70
   192
  0
VERTEX
  5
50D
  8
0
 10
4.875
 20
-158.4440002441406
 30
74.69999694824219
 70
   192
  0
VERTEX
  5
50E
  8
0
 10
9.75
 20
-150.0
 30
74.69999694824219
 70
   192
  0
VERTEX
  5
50F
  8
0
 10
-9.75
 20
-150.0
 30
74.69999694824219
 70
   192
  0
VERTEX
  5
510
  8
0
 10
-4.875
 20
-158.4440002441406
 30
74.69999694824219
 70
   192
  0
VERTEX
  5
511
  8
0
 10
4.875
 20
-141.5559997558594
 30
74.69999694824219
 70
   192
  0
VERTEX
  5
512
  8
0
 62
     9
 10
0.0
 20
0.0
 30
0.0
 70
   128
 71
     3
 72
     2
 73
     1
  0
VERTEX
  5
513
  8
0
 62
     9
 10
0.0
 20
0.0
 30
0.0
 70
   128
 71
     5
 72
     4
 73
     1
  0
VERTEX
  5
514
  8
0
 62
     9
 10
0.0
 20
0.0
 30
0.0
 70
   128
 71
     1
 72
     2
 73
     5
  0
VERTEX
  5
515
  8
0
 62
     9
 10
0.0
 20
0.0
 30
0.0
 70
   128
 71
     1
 72
     6
 73
     3
  0
SEQEND
  5
516
  8
0
 62
     9
  0
ENDBLK
  5
519
  8
0
  0
BLOCK
  8
0
  2
E3_NODE_22_
 70
     0
 10
0.0
 20
0.0
 30
0.0
  3
E3_NODE_22_
  1

  0
POLYLINE
  5
51B
  8
0
 62
     9
 66
     1
 10
0.0
 20
0.0
 30
0.0
 70
    64
 71
    20
 72
    20
  0
VERTEX
  5
51C
  8
0
 10
-37.5
 20
-151.85400390625
 30
72.90599822998047
 70
   192
  0
VERTEX
  5
51D
  8
0
 10
-37.5
 20
-156.0
 30
67.19999694824219
 70
   192
  0
VERTEX
  5
51E
  8
0
 10
-9.229999542236328
 20
-153.1410064697266
 30
72.31199645996094
 70
   192
  0
VERTEX
  5
51F
  8
0
 10
-7.684999942779541
 20
-156.0
 30
67.19999694824219
 70
   192
  0
VERTEX
  5
520
  8
0
 10
-7.701000213623047
 20
-155.9799957275391
 30
67.69400024414062
 70
   192
  0
VERTEX
  5
521
  8
0
 10
-37.5
 20
-150.0
 30
73.19999694824219
 70
   192
  0
VERTEX
  5
522
  8
0
 10
-9.38700008392334
 20
-149.9819946289062
 30
72.58699798583984
 70
   192
  0
VERTEX
  5
523
  8
0
 10
-9.496000289916992
 20
-147.7899932861328
 30
72.77799987792969
 70
   192
  0
VERTEX
  5
524
  8
0
 10
-37.5
 20
-145.14599609375
 30
70.72699737548828
 70
   192
  0
VERTEX
  5
525
  8
0
 10
-9.295999526977539
 20
-151.8119964599609
 30
72.4280014038086
 70
   192
  0
VERTEX
  5
526
  8
0
 10
-37.5
 20
-145.14599609375
 30
63.67300033569336
 70
   192
  0
VERTEX
  5
527
  8
0
 10
-8.487000465393066
 20
-145.60400390625
 30
70.32099914550781
 70
   192
  0
VERTEX
  5
528
  8
0
 10
-7.839000225067139
 20
-144.2019958496094
 30
68.74500274658203
 70
   192
  0
VERTEX
  5
529
  8
0
 10
-37.5
 20
-151.85400390625
 30
61.49399948120117
 70
   192
  0
VERTEX
  5
52A
  8
0
 10
-9.748000144958496
 20
-149.8079986572266
 30
61.20299911499023
 70
   192
  0
VERTEX
  5
52B
  8
0
 10
-9.713000297546387
 20
-149.9929962158203
 30
61.26399993896484
 70
   192
  0
VERTEX
  5
52C
  8
0
 10
-8.494000434875488
 20
-145.2129974365234
 30
63.58300018310547
 70
   192
  0
VERTEX
  5
52D
  8
0
 10
-8.480999946594238
 20
-145.1929931640625
 30
63.68299865722656
 70
   192
  0
VERTEX
  5
52E
  8
0
 10
-9.385000228881836
 20
-151.7409973144531
 30
61.8390007019043
 70
   192
  0
VERTEX
  5
52F
  8
0
 10
-9.015000343322754
 20
-153.7149963378906
 30
62.48799896240234
 70
   192
  0
VERTEX
  5
530
  8
0
 62
     9
 10
0.0
 20
0.0
 30
0.0
 70
   128
 71
     3
 72
     2
 73
     1
  0
VERTEX
  5
531
  8
0
 62
     9
 10
0.0
 20
0.0
 30
0.0
 70
   128
 71
     5
 72
     4
 73
     2
  0
VERTEX
  5
532
  8
0
 62
     9
 10
0.0
 20
0.0
 30
0.0
 70
   128
 71
     2
 72
     3
 73
     5
  0
VERTEX
  5
533
  8
0
 62
     9
 10
0.0
 20
0.0
 30
0.0
 70
   128
 71
     8
 72
     7
 73
     6
  0
VERTEX
  5
534
  8
0
 62
     9
 10
0.0
 20
0.0
 30
0.0
 70
   128
 71
     6
 72
     9
 73
     8
  0
VERTEX
  5
535
  8
0
 62
     9
 10
0.0
 20
0.0
 30
0.0
 70
   128
 71
     7
 72
    10
 73
     1
  0
VERTEX
  5
536
  8
0
 62
     9
 10
0.0
 20
0.0
 30
0.0
 70
   128
 71
     7
 72
     1
 73
     6
  0
VERTEX
  5
537
  8
0
 62
     9
 10
0.0
 20
0.0
 30
0.0
 70
   128
 71
    12
 72
     9
 73
    11
  0
VERTEX
  5
538
  8
0
 62
     9
 10
0.0
 20
0.0
 30
0.0
 70
   128
 71
    11
 72
    13
 73
    12
  0
VERTEX
  5
539
  8
0
 62
     9
 10
0.0
 20
0.0
 30
0.0
 70
   128
 71
    16
 72
    15
 73
    14
  0
VERTEX
  5
53A
  8
0
 62
     9
 10
0.0
 20
0.0
 30
0.0
 70
   128
 71
    15
 72
    17
 73
    11
  0
VERTEX
  5
53B
  8
0
 62
     9
 10
0.0
 20
0.0
 30
0.0
 70
   128
 71
    17
 72
    18
 73
    11
  0
VERTEX
  5
53C
  8
0
 62
     9
 10
0.0
 20
0.0
 30
0.0
 70
   128
 71
    11
 72
    14
 73
    15
  0
VERTEX
  5
53D
  8
0
 62
     9
 10
0.0
 20
0.0
 30
0.0
 70
   128
 71
    19
 72
    14
 73
     2
  0
VERTEX
  5
53E
  8
0
 62
     9
 10
0.0
 20
0.0
 30
0.0
 70
   128
 71
     2
 72
    20
 73
    19
  0
VERTEX
  5
53F
  8
0
 62
     9
 10
0.0
 20
0.0
 30
0.0
 70
   128
 71
     2
 72
     4
 73
    20
  0
VERTEX
  5
540
  8
0
 62
     9
 10
0.0
 20
0.0
 30
0.0
 70
   128
 71
    14
 72
    19
 73
    16
  0
VERTEX
  5
541
  8
0
 62
     9
 10
0.0
 20
0.0
 30
0.0
 70
   128
 71
    11
 72
    18
 73
    13
  0
VERTEX
  5
542
  8
0
 62
     9
 10
0.0
 20
0.0
 30
0.0
 70
   128
 71
     9
 72
    12
 73
     8
  0
VERTEX
  5
543
  8
0
 62
     9
 10
0.0
 20
0.0
 30
0.0
 70
   128
 71
     1
 72
    10
 73
     3
  0
SEQEND
  5
544
  8
0
 62
     9
  0
ENDBLK
  5
547
  8
0
  0
BLOCK
  8
0
  2
E3_NODE_23_
 70
     0
 10
0.0
 20
0.0
 30
0.0
  3
E3_NODE_23_
  1

  0
POLYLINE
  5
549
  8
0
 62
     9
 66
     1
 10
0.0
 20
0.0
 30
0.0
 70
    64
 71
     6
 72
     4
  0
VERTEX
  5
54A
  8
0
 10
-37.5
 20
-151.85400390625
 30
61.49399948120117
 70
   192
  0
VERTEX
  5
54B
  8
0
 10
-37.5
 20
-150.0
 30
73.19999694824219
 70
   192
  0
VERTEX
  5
54C
  8
0
 10
-37.5
 20
-145.14599609375
 30
70.72699737548828
 70
   192
  0
VERTEX
  5
54D
  8
0
 10
-37.5
 20
-156.0
 30
67.19999694824219
 70
   192
  0
VERTEX
  5
54E
  8
0
 10
-37.5
 20
-151.85400390625
 30
72.90599822998047
 70
   192
  0
VERTEX
  5
54F
  8
0
 10
-37.5
 20
-145.14599609375
 30
63.67300033569336
 70
   192
  0
VERTEX
  5
550
  8
0
 62
     9
 10
0.0
 20
0.0
 30
0.0
 70
   128
 71
     3
 72
     2
 73
     1
  0
VERTEX
  5
551
  8
0
 62
     9
 10
0.0
 20
0.0
 30
0.0
 70
   128
 71
     5
 72
     4
 73
     1
  0
VERTEX
  5
552
  8
0
 62
     9
 10
0.0
 20
0.0
 30
0.0
 70
   128
 71
     1
 72
     2
 73
     5
  0
VERTEX
  5
553
  8
0
 62
     9
 10
0.0
 20
0.0
 30
0.0
 70
   128
 71
     1
 72
     6
 73
     3
  0
SEQEND
  5
554
  8
0
 62
     9
  0
ENDBLK
  5
557
  8
0
  0
BLOCK
  8
0
  2
E3_NODE_24_
 70
     0
 10
0.0
 20
0.0
 30
0.0
  3
E3_NODE_24_
  1

  0
POLYLINE
  5
559
  8
0
 62
     9
 66
     1
 10
0.0
 20
0.0
 30
0.0
 70
    64
 71
    20
 72
    20
  0
VERTEX
  5
55A
  8
0
 10
23.94599914550781
 20
-179.4759979248047
 30
67.19999694824219
 70
   192
  0
VERTEX
  5
55B
  8
0
 10
7.723999977111816
 20
-155.9490051269531
 30
71.91200256347656
 70
   192
  0
VERTEX
  5
55C
  8
0
 10
6.199999809265137
 20
-157.2579956054688
 30
72.56099700927734
 70
   192
  0
VERTEX
  5
55D
  8
0
 10
9.038999557495117
 20
-153.656005859375
 30
67.19999694824219
 70
   192
  0
VERTEX
  5
55E
  8
0
 10
14.54599952697754
 20
-184.9029998779297
 30
70.72699737548828
 70
   192
  0
VERTEX
  5
55F
  8
0
 10
20.35600090026855
 20
-181.5489959716797
 30
72.90599822998047
 70
   192
  0
VERTEX
  5
560
  8
0
 10
4.706999778747559
 20
-158.5379943847656
 30
73.1969985961914
 70
   192
  0
VERTEX
  5
561
  8
0
 10
0.101000003516674
 20
-159.7489929199219
 30
70.81700134277344
 70
   192
  0
VERTEX
  5
562
  8
0
 10
4.85099983215332
 20
-158.4149932861328
 30
73.13600158691406
 70
   192
  0
VERTEX
  5
563
  8
0
 10
13.55399990081787
 20
-185.4759979248047
 30
67.19999694824219
 70
   192
  0
VERTEX
  5
564
  8
0
 10
0.0780000016093254
 20
-159.7480010986328
 30
70.71700286865234
 70
   192
  0
VERTEX
  5
565
  8
0
 10
-1.10099995136261
 20
-159.6880035400391
 30
65.65499877929688
 70
   192
  0
VERTEX
  5
566
  8
0
 10
0.4370000064373016
 20
-159.5469970703125
 30
64.0790023803711
 70
   192
  0
VERTEX
  5
567
  8
0
 10
14.54599952697754
 20
-184.9029998779297
 30
63.67300033569336
 70
   192
  0
VERTEX
  5
568
  8
0
 10
20.35600090026855
 20
-181.5489959716797
 30
61.49399948120117
 70
   192
  0
VERTEX
  5
569
  8
0
 10
2.834000110626221
 20
-159.3289947509766
 30
61.62200164794922
 70
   192
  0
VERTEX
  5
56A
  8
0
 10
4.677999973297119
 20
-158.1390075683594
 30
61.8129997253418
 70
   192
  0
VERTEX
  5
56B
  8
0
 10
7.335000038146973
 20
-156.4230041503906
 30
62.0880012512207
 70
   192
  0
VERTEX
  5
56C
  8
0
 10
9.029000282287598
 20
-153.6799926757812
 30
66.70600128173828
 70
   192
  0
VERTEX
  5
56D
  8
0
 10
6.217999935150146
 20
-157.1450042724609
 30
61.97200012207031
 70
   192
  0
VERTEX
  5
56E
  8
0
 62
     9
 10
0.0
 20
0.0
 30
0.0
 70
   128
 71
     3
 72
     2
 73
     1
  0
VERTEX
  5
56F
  8
0
 62
     9
 10
0.0
 20
0.0
 30
0.0
 70
   128
 71
     2
 72
     4
 73
     1
  0
VERTEX
  5
570
  8
0
 62
     9
 10
0.0
 20
0.0
 30
0.0
 70
   128
 71
     7
 72
     6
 73
     5
  0
VERTEX
  5
571
  8
0
 62
     9
 10
0.0
 20
0.0
 30
0.0
 70
   128
 71
     5
 72
     8
 73
     7
  0
VERTEX
  5
572
  8
0
 62
     9
 10
0.0
 20
0.0
 30
0.0
 70
   128
 71
     9
 72
     3
 73
     6
  0
VERTEX
  5
573
  8
0
 62
     9
 10
0.0
 20
0.0
 30
0.0
 70
   128
 71
     6
 72
     7
 73
     9
  0
VERTEX
  5
574
  8
0
 62
     9
 10
0.0
 20
0.0
 30
0.0
 70
   128
 71
    11
 72
     5
 73
    10
  0
VERTEX
  5
575
  8
0
 62
     9
 10
0.0
 20
0.0
 30
0.0
 70
   128
 71
    13
 72
    12
 73
    10
  0
VERTEX
  5
576
  8
0
 62
     9
 10
0.0
 20
0.0
 30
0.0
 70
   128
 71
    10
 72
    14
 73
    13
  0
VERTEX
  5
577
  8
0
 62
     9
 10
0.0
 20
0.0
 30
0.0
 70
   128
 71
    16
 72
    14
 73
    15
  0
VERTEX
  5
578
  8
0
 62
     9
 10
0.0
 20
0.0
 30
0.0
 70
   128
 71
    15
 72
    17
 73
    16
  0
VERTEX
  5
579
  8
0
 62
     9
 10
0.0
 20
0.0
 30
0.0
 70
   128
 71
    16
 72
    13
 73
    14
  0
VERTEX
  5
57A
  8
0
 62
     9
 10
0.0
 20
0.0
 30
0.0
 70
   128
 71
    19
 72
    18
 73
     1
  0
VERTEX
  5
57B
  8
0
 62
     9
 10
0.0
 20
0.0
 30
0.0
 70
   128
 71
    18
 72
    20
 73
    15
  0
VERTEX
  5
57C
  8
0
 62
     9
 10
0.0
 20
0.0
 30
0.0
 70
   128
 71
    15
 72
     1
 73
    18
  0
VERTEX
  5
57D
  8
0
 62
     9
 10
0.0
 20
0.0
 30
0.0
 70
   128
 71
     1
 72
     4
 73
    19
  0
VERTEX
  5
57E
  8
0
 62
     9
 10
0.0
 20
0.0
 30
0.0
 70
   128
 71
    15
 72
    20
 73
    17
  0
VERTEX
  5
57F
  8
0
 62
     9
 10
0.0
 20
0.0
 30
0.0
 70
   128
 71
    10
 72
    12
 73
    11
  0
VERTEX
  5
580
  8
0
 62
     9
 10
0.0
 20
0.0
 30
0.0
 70
   128
 71
     5
 72
    11
 73
     8
  0
VERTEX
  5
581
  8
0
 62
     9
 10
0.0
 20
0.0
 30
0.0
 70
   128
 71
     1
 72
     6
 73
     3
  0
SEQEND
  5
582
  8
0
 62
     9
  0
ENDBLK
  5
585
  8
0
  0
BLOCK
  8
0
  2
E3_NODE_25_
 70
     0
 10
0.0
 20
0.0
 30
0.0
  3
E3_NODE_25_
  1

  0
POLYLINE
  5
587
  8
0
 62
     9
 66
     1
 10
0.0
 20
0.0
 30
0.0
 70
    64
 71
     6
 72
     4
  0
VERTEX
  5
588
  8
0
 10
23.94599914550781
 20
-179.4759979248047
 30
67.19999694824219
 70
   192
  0
VERTEX
  5
589
  8
0
 10
13.55399990081787
 20
-185.4759979248047
 30
67.19999694824219
 70
   192
  0
VERTEX
  5
58A
  8
0
 10
14.54599952697754
 20
-184.9029998779297
 30
63.67300033569336
 70
   192
  0
VERTEX
  5
58B
  8
0
 10
20.35600090026855
 20
-181.5489959716797
 30
72.90599822998047
 70
   192
  0
VERTEX
  5
58C
  8
0
 10
14.54599952697754
 20
-184.9029998779297
 30
70.72699737548828
 70
   192
  0
VERTEX
  5
58D
  8
0
 10
20.35600090026855
 20
-181.5489959716797
 30
61.49399948120117
 70
   192
  0
VERTEX
  5
58E
  8
0
 62
     9
 10
0.0
 20
0.0
 30
0.0
 70
   128
 71
     3
 72
     2
 73
     1
  0
VERTEX
  5
58F
  8
0
 62
     9
 10
0.0
 20
0.0
 30
0.0
 70
   128
 71
     5
 72
     4
 73
     1
  0
VERTEX
  5
590
  8
0
 62
     9
 10
0.0
 20
0.0
 30
0.0
 70
   128
 71
     1
 72
     2
 73
     5
  0
VERTEX
  5
591
  8
0
 62
     9
 10
0.0
 20
0.0
 30
0.0
 70
   128
 71
     1
 72
     6
 73
     3
  0
SEQEND
  5
592
  8
0
 62
     9
  0
ENDBLK
  5
595
  8
0
  0
BLOCK
  8
0
  2
E3_NODE_26_
 70
     0
 10
0.0
 20
0.0
 30
0.0
  3
E3_NODE_26_
  1

  0
POLYLINE
  5
597
  8
0
 62
     9
 66
     1
 10
0.0
 20
0.0
 30
0.0
 70
    64
 71
     4
 72
     2
  0
VERTEX
  5
598
  8
0
 10
-23.03899955749512
 20
9.0
 30
34.90599822998047
 70
   192
  0
VERTEX
  5
599
  8
0
 10
-29.3390007019043
 20
9.0
 30
38.11600112915039
 70
   192
  0
VERTEX
  5
59A
  8
0
 10
-26.12899971008301
 20
9.0
 30
44.41600036621094
 70
   192
  0
VERTEX
  5
59B
  8
0
 10
-19.82799911499023
 20
9.0
 30
41.20600128173828
 70
   192
  0
VERTEX
  5
59C
  8
0
 62
     9
 10
0.0
 20
0.0
 30
0.0
 70
   128
 71
     3
 72
     2
 73
     1
  0
VERTEX
  5
59D
  8
0
 62
     9
 10
0.0
 20
0.0
 30
0.0
 70
   128
 71
     1
 72
     4
 73
     3
  0
SEQEND
  5
59E
  8
0
 62
     9
  0
ENDBLK
  5
5A1
  8
0
  0
BLOCK
  8
0
  2
E3_NODE_27_
 70
     0
 10
0.0
 20
0.0
 30
0.0
  3
E3_NODE_27_
  1

  0
POLYLINE
  5
5A3
  8
0
 62
     9
 66
     1
 10
0.0
 20
0.0
 30
0.0
 70
    64
 71
     8
 72
     8
  0
VERTEX
  5
5A4
  8
0
 10
-29.3390007019043
 20
9.0
 30
38.11600112915039
 70
   192
  0
VERTEX
  5
5A5
  8
0
 10
-29.3390007019043
 20
-9.0
 30
38.11600112915039
 70
   192
  0
VERTEX
  5
5A6
  8
0
 10
-26.12899971008301
 20
-9.0
 30
44.41600036621094
 70
   192
  0
VERTEX
  5
5A7
  8
0
 10
-23.03899955749512
 20
9.0
 30
34.90599822998047
 70
   192
  0
VERTEX
  5
5A8
  8
0
 10
-23.03899955749512
 20
-9.0
 30
34.90599822998047
 70
   192
  0
VERTEX
  5
5A9
  8
0
 10
-19.82799911499023
 20
-9.0
 30
41.20600128173828
 70
   192
  0
VERTEX
  5
5AA
  8
0
 10
-19.82799911499023
 20
9.0
 30
41.20600128173828
 70
   192
  0
VERTEX
  5
5AB
  8
0
 10
-26.12899971008301
 20
9.0
 30
44.41600036621094
 70
   192
  0
VERTEX
  5
5AC
  8
0
 62
     9
 10
0.0
 20
0.0
 30
0.0
 70
   128
 71
     3
 72
     2
 73
     1
  0
VERTEX
  5
5AD
  8
0
 62
     9
 10
0.0
 20
0.0
 30
0.0
 70
   128
 71
     2
 72
     5
 73
     4
  0
VERTEX
  5
5AE
  8
0
 62
     9
 10
0.0
 20
0.0
 30
0.0
 70
   128
 71
     4
 72
     5
 73
     6
  0
VERTEX
  5
5AF
  8
0
 62
     9
 10
0.0
 20
0.0
 30
0.0
 70
   128
 71
     7
 72
     6
 73
     3
  0
VERTEX
  5
5B0
  8
0
 62
     9
 10
0.0
 20
0.0
 30
0.0
 70
   128
 71
     3
 72
     8
 73
     7
  0
VERTEX
  5
5B1
  8
0
 62
     9
 10
0.0
 20
0.0
 30
0.0
 70
   128
 71
     6
 72
     7
 73
     4
  0
VERTEX
  5
5B2
  8
0
 62
     9
 10
0.0
 20
0.0
 30
0.0
 70
   128
 71
     4
 72
     1
 73
     2
  0
VERTEX
  5
5B3
  8
0
 62
     9
 10
0.0
 20
0.0
 30
0.0
 70
   128
 71
     1
 72
     8
 73
     3
  0
SEQEND
  5
5B4
  8
0
 62
     9
  0
ENDBLK
  5
5B7
  8
0
  0
BLOCK
  8
0
  2
E3_NODE_28_
 70
     0
 10
0.0
 20
0.0
 30
0.0
  3
E3_NODE_28_
  1

  0
POLYLINE
  5
5B9
  8
0
 62
     9
 66
     1
 10
0.0
 20
0.0
 30
0.0
 70
    64
 71
     4
 72
     2
  0
VERTEX
  5
5BA
  8
0
 10
-19.82799911499023
 20
-9.0
 30
41.20600128173828
 70
   192
  0
VERTEX
  5
5BB
  8
0
 10
-26.12899971008301
 20
-9.0
 30
44.41600036621094
 70
   192
  0
VERTEX
  5
5BC
  8
0
 10
-29.3390007019043
 20
-9.0
 30
38.11600112915039
 70
   192
  0
VERTEX
  5
5BD
  8
0
 10
-23.03899955749512
 20
-9.0
 30
34.90599822998047
 70
   192
  0
VERTEX
  5
5BE
  8
0
 62
     9
 10
0.0
 20
0.0
 30
0.0
 70
   128
 71
     3
 72
     2
 73
     1
  0
VERTEX
  5
5BF
  8
0
 62
     9
 10
0.0
 20
0.0
 30
0.0
 70
   128
 71
     1
 72
     4
 73
     3
  0
SEQEND
  5
5C0
  8
0
 62
     9
  0
ENDBLK
  5
5C3
  8
0
  0
BLOCK
  8
0
  2
E3_NODE_29_
 70
     0
 10
0.0
 20
0.0
 30
0.0
  3
E3_NODE_29_
  1

  0
POLYLINE
  5
5C5
  8
0
 62
     9
 66
     1
 10
0.0
 20
0.0
 30
0.0
 70
    64
 71
    12
 72
    12
  0
VERTEX
  5
5C6
  8
0
 10
-9.958999633789062
 20
5.75
 30
99.0
 70
   192
  0
VERTEX
  5
5C7
  8
0
 10
-9.958999633789062
 20
5.75
 30
100.0
 70
   192
  0
VERTEX
  5
5C8
  8
0
 10
0.0
 20
11.5
 30
100.0
 70
   192
  0
VERTEX
  5
5C9
  8
0
 10
-9.958999633789062
 20
-5.75
 30
99.0
 70
   192
  0
VERTEX
  5
5CA
  8
0
 10
-9.958999633789062
 20
-5.75
 30
100.0
 70
   192
  0
VERTEX
  5
5CB
  8
0
 10
0.0
 20
-11.5
 30
99.0
 70
   192
  0
VERTEX
  5
5CC
  8
0
 10
0.0
 20
-11.5
 30
100.0
 70
   192
  0
VERTEX
  5
5CD
  8
0
 10
9.958999633789062
 20
-5.75
 30
100.0
 70
   192
  0
VERTEX
  5
5CE
  8
0
 10
9.958999633789062
 20
5.75
 30
99.0
 70
   192
  0
VERTEX
  5
5CF
  8
0
 10
9.958999633789062
 20
5.75
 30
100.0
 70
   192
  0
VERTEX
  5
5D0
  8
0
 10
0.0
 20
11.5
 30
99.0
 70
   192
  0
VERTEX
  5
5D1
  8
0
 10
9.958999633789062
 20
-5.75
 30
99.0
 70
   192
  0
VERTEX
  5
5D2
  8
0
 62
     9
 10
0.0
 20
0.0
 30
0.0
 70
   128
 71
     3
 72
     2
 73
     1
  0
VERTEX
  5
5D3
  8
0
 62
     9
 10
0.0
 20
0.0
 30
0.0
 70
   128
 71
     2
 72
     5
 73
     4
  0
VERTEX
  5
5D4
  8
0
 62
     9
 10
0.0
 20
0.0
 30
0.0
 70
   128
 71
     7
 72
     6
 73
     4
  0
VERTEX
  5
5D5
  8
0
 62
     9
 10
0.0
 20
0.0
 30
0.0
 70
   128
 71
     6
 72
     7
 73
     8
  0
VERTEX
  5
5D6
  8
0
 62
     9
 10
0.0
 20
0.0
 30
0.0
 70
   128
 71
     8
 72
    10
 73
     9
  0
VERTEX
  5
5D7
  8
0
 62
     9
 10
0.0
 20
0.0
 30
0.0
 70
   128
 71
    11
 72
     9
 73
    10
  0
VERTEX
  5
5D8
  8
0
 62
     9
 10
0.0
 20
0.0
 30
0.0
 70
   128
 71
    10
 72
     3
 73
    11
  0
VERTEX
  5
5D9
  8
0
 62
     9
 10
0.0
 20
0.0
 30
0.0
 70
   128
 71
     9
 72
    12
 73
     8
  0
VERTEX
  5
5DA
  8
0
 62
     9
 10
0.0
 20
0.0
 30
0.0
 70
   128
 71
     8
 72
    12
 73
     6
  0
VERTEX
  5
5DB
  8
0
 62
     9
 10
0.0
 20
0.0
 30
0.0
 70
   128
 71
     4
 72
     5
 73
     7
  0
VERTEX
  5
5DC
  8
0
 62
     9
 10
0.0
 20
0.0
 30
0.0
 70
   128
 71
     4
 72
     1
 73
     2
  0
VERTEX
  5
5DD
  8
0
 62
     9
 10
0.0
 20
0.0
 30
0.0
 70
   128
 71
     1
 72
    11
 73
     3
  0
SEQEND
  5
5DE
  8
0
 62
     9
  0
ENDBLK
  5
5E1
  8
0
  0
BLOCK
  8
0
  2
E3_NODE_30_
 70
     0
 10
0.0
 20
0.0
 30
0.0
  3
E3_NODE_30_
  1

  0
POLYLINE
  5
5E3
  8
0
 62
     9
 66
     1
 10
0.0
 20
0.0
 30
0.0
 70
    64
 71
    13
 72
    13
  0
VERTEX
  5
5E4
  8
0
 10
-14.62399959564209
 20
-3.338000059127808
 30
99.0
 70
   192
  0
VERTEX
  5
5E5
  8
0
 10
-9.958999633789062
 20
-5.75
 30
99.0
 70
   192
  0
VERTEX
  5
5E6
  8
0
 10
-9.958999633789062
 20
5.75
 30
99.0
 70
   192
  0
VERTEX
  5
5E7
  8
0
 10
-6.507999897003174
 20
-13.51500034332275
 30
99.0
 70
   192
  0
VERTEX
  5
5E8
  8
0
 10
0.0
 20
-11.5
 30
99.0
 70
   192
  0
VERTEX
  5
5E9
  8
0
 10
6.507999897003174
 20
-13.51500034332275
 30
99.0
 70
   192
  0
VERTEX
  5
5EA
  8
0
 10
14.62399959564209
 20
-3.338000059127808
 30
99.0
 70
   192
  0
VERTEX
  5
5EB
  8
0
 10
9.958999633789062
 20
-5.75
 30
99.0
 70
   192
  0
VERTEX
  5
5EC
  8
0
 10
11.72700023651123
 20
9.35200023651123
 30
99.0
 70
   192
  0
VERTEX
  5
5ED
  8
0
 10
9.958999633789062
 20
5.75
 30
99.0
 70
   192
  0
VERTEX
  5
5EE
  8
0
 10
-11.72700023651123
 20
9.35200023651123
 30
99.0
 70
   192
  0
VERTEX
  5
5EF
  8
0
 10
0.0
 20
11.5
 30
99.0
 70
   192
  0
VERTEX
  5
5F0
  8
0
 10
0.0
 20
15.0
 30
99.0
 70
   192
  0
VERTEX
  5
5F1
  8
0
 62
     9
 10
0.0
 20
0.0
 30
0.0
 70
   128
 71
     3
 72
     2
 73
     1
  0
VERTEX
  5
5F2
  8
0
 62
     9
 10
0.0
 20
0.0
 30
0.0
 70
   128
 71
     2
 72
     5
 73
     4
  0
VERTEX
  5
5F3
  8
0
 62
     9
 10
0.0
 20
0.0
 30
0.0
 70
   128
 71
     8
 72
     7
 73
     6
  0
VERTEX
  5
5F4
  8
0
 62
     9
 10
0.0
 20
0.0
 30
0.0
 70
   128
 71
     4
 72
     1
 73
     2
  0
VERTEX
  5
5F5
  8
0
 62
     9
 10
0.0
 20
0.0
 30
0.0
 70
   128
 71
     6
 72
     5
 73
     8
  0
VERTEX
  5
5F6
  8
0
 62
     9
 10
0.0
 20
0.0
 30
0.0
 70
   128
 71
     6
 72
     4
 73
     5
  0
VERTEX
  5
5F7
  8
0
 62
     9
 10
0.0
 20
0.0
 30
0.0
 70
   128
 71
    10
 72
     9
 73
     7
  0
VERTEX
  5
5F8
  8
0
 62
     9
 10
0.0
 20
0.0
 30
0.0
 70
   128
 71
    12
 72
     3
 73
    11
  0
VERTEX
  5
5F9
  8
0
 62
     9
 10
0.0
 20
0.0
 30
0.0
 70
   128
 71
     7
 72
     8
 73
    10
  0
VERTEX
  5
5FA
  8
0
 62
     9
 10
0.0
 20
0.0
 30
0.0
 70
   128
 71
    12
 72
    13
 73
     9
  0
VERTEX
  5
5FB
  8
0
 62
     9
 10
0.0
 20
0.0
 30
0.0
 70
   128
 71
     1
 72
    11
 73
     3
  0
VERTEX
  5
5FC
  8
0
 62
     9
 10
0.0
 20
0.0
 30
0.0
 70
   128
 71
    11
 72
    13
 73
    12
  0
VERTEX
  5
5FD
  8
0
 62
     9
 10
0.0
 20
0.0
 30
0.0
 70
   128
 71
     9
 72
    10
 73
    12
  0
SEQEND
  5
5FE
  8
0
 62
     9
  0
ENDBLK
  5
601
  8
0
  0
BLOCK
  8
0
  2
E3_NODE_31_
 70
     0
 10
0.0
 20
0.0
 30
0.0
  3
E3_NODE_31_
  1

  0
POLYLINE
  5
603
  8
0
 62
     9
 66
     1
 10
0.0
 20
0.0
 30
0.0
 70
    64
 71
    14
 72
    14
  0
VERTEX
  5
604
  8
0
 10
-11.72700023651123
 20
9.35200023651123
 30
92.0
 70
   192
  0
VERTEX
  5
605
  8
0
 10
-11.72700023651123
 20
9.35200023651123
 30
99.0
 70
   192
  0
VERTEX
  5
606
  8
0
 10
0.0
 20
15.0
 30
99.0
 70
   192
  0
VERTEX
  5
607
  8
0
 10
-14.62399959564209
 20
-3.338000059127808
 30
92.0
 70
   192
  0
VERTEX
  5
608
  8
0
 10
-14.62399959564209
 20
-3.338000059127808
 30
99.0
 70
   192
  0
VERTEX
  5
609
  8
0
 10
-6.507999897003174
 20
-13.51500034332275
 30
92.0
 70
   192
  0
VERTEX
  5
60A
  8
0
 10
-6.507999897003174
 20
-13.51500034332275
 30
99.0
 70
   192
  0
VERTEX
  5
60B
  8
0
 10
6.507999897003174
 20
-13.51500034332275
 30
99.0
 70
   192
  0
VERTEX
  5
60C
  8
0
 10
14.62399959564209
 20
-3.338000059127808
 30
99.0
 70
   192
  0
VERTEX
  5
60D
  8
0
 10
6.507999897003174
 20
-13.51500034332275
 30
92.0
 70
   192
  0
VERTEX
  5
60E
  8
0
 10
11.72700023651123
 20
9.35200023651123
 30
92.0
 70
   192
  0
VERTEX
  5
60F
  8
0
 10
11.72700023651123
 20
9.35200023651123
 30
99.0
 70
   192
  0
VERTEX
  5
610
  8
0
 10
0.0
 20
15.0
 30
92.0
 70
   192
  0
VERTEX
  5
611
  8
0
 10
14.62399959564209
 20
-3.338000059127808
 30
92.0
 70
   192
  0
VERTEX
  5
612
  8
0
 62
     9
 10
0.0
 20
0.0
 30
0.0
 70
   128
 71
     3
 72
     2
 73
     1
  0
VERTEX
  5
613
  8
0
 62
     9
 10
0.0
 20
0.0
 30
0.0
 70
   128
 71
     2
 72
     5
 73
     4
  0
VERTEX
  5
614
  8
0
 62
     9
 10
0.0
 20
0.0
 30
0.0
 70
   128
 71
     7
 72
     6
 73
     4
  0
VERTEX
  5
615
  8
0
 62
     9
 10
0.0
 20
0.0
 30
0.0
 70
   128
 71
     6
 72
     7
 73
     8
  0
VERTEX
  5
616
  8
0
 62
     9
 10
0.0
 20
0.0
 30
0.0
 70
   128
 71
    10
 72
     8
 73
     9
  0
VERTEX
  5
617
  8
0
 62
     9
 10
0.0
 20
0.0
 30
0.0
 70
   128
 71
     9
 72
    12
 73
    11
  0
VERTEX
  5
618
  8
0
 62
     9
 10
0.0
 20
0.0
 30
0.0
 70
   128
 71
    13
 72
    11
 73
    12
  0
VERTEX
  5
619
  8
0
 62
     9
 10
0.0
 20
0.0
 30
0.0
 70
   128
 71
    12
 72
     3
 73
    13
  0
VERTEX
  5
61A
  8
0
 62
     9
 10
0.0
 20
0.0
 30
0.0
 70
   128
 71
    11
 72
    14
 73
     9
  0
VERTEX
  5
61B
  8
0
 62
     9
 10
0.0
 20
0.0
 30
0.0
 70
   128
 71
     9
 72
    14
 73
    10
  0
VERTEX
  5
61C
  8
0
 62
     9
 10
0.0
 20
0.0
 30
0.0
 70
   128
 71
     8
 72
    10
 73
     6
  0
VERTEX
  5
61D
  8
0
 62
     9
 10
0.0
 20
0.0
 30
0.0
 70
   128
 71
     4
 72
     5
 73
     7
  0
VERTEX
  5
61E
  8
0
 62
     9
 10
0.0
 20
0.0
 30
0.0
 70
   128
 71
     4
 72
     1
 73
     2
  0
VERTEX
  5
61F
  8
0
 62
     9
 10
0.0
 20
0.0
 30
0.0
 70
   128
 71
     1
 72
    13
 73
     3
  0
SEQEND
  5
620
  8
0
 62
     9
  0
ENDBLK
  5
623
  8
0
  0
BLOCK
  8
0
  2
E3_NODE_32_
 70
     0
 10
0.0
 20
0.0
 30
0.0
  3
E3_NODE_32_
  1

  0
POLYLINE
  5
625
  8
0
 62
     9
 66
     1
 10
0.0
 20
0.0
 30
0.0
 70
    64
 71
     8
 72
     6
  0
VERTEX
  5
626
  8
0
 10
-12.72799968719482
 20
137.2720031738281
 30
49.0
 70
   192
  0
VERTEX
  5
627
  8
0
 10
0.0
 20
168.0
 30
49.0
 70
   192
  0
VERTEX
  5
628
  8
0
 10
-12.72799968719482
 20
162.7279968261719
 30
49.0
 70
   192
  0
VERTEX
  5
629
  8
0
 10
0.0
 20
132.0
 30
49.0
 70
   192
  0
VERTEX
  5
62A
  8
0
 10
18.0
 20
150.0
 30
49.0
 70
   192
  0
VERTEX
  5
62B
  8
0
 10
12.72799968719482
 20
162.7279968261719
 30
49.0
 70
   192
  0
VERTEX
  5
62C
  8
0
 10
-18.0
 20
150.0
 30
49.0
 70
   192
  0
VERTEX
  5
62D
  8
0
 10
12.72799968719482
 20
137.2720031738281
 30
49.0
 70
   192
  0
VERTEX
  5
62E
  8
0
 62
     9
 10
0.0
 20
0.0
 30
0.0
 70
   128
 71
     3
 72
     2
 73
     1
  0
VERTEX
  5
62F
  8
0
 62
     9
 10
0.0
 20
0.0
 30
0.0
 70
   128
 71
     6
 72
     5
 73
     4
  0
VERTEX
  5
630
  8
0
 62
     9
 10
0.0
 20
0.0
 30
0.0
 70
   128
 71
     1
 72
     7
 73
     3
  0
VERTEX
  5
631
  8
0
 62
     9
 10
0.0
 20
0.0
 30
0.0
 70
   128
 71
     5
 72
     8
 73
     4
  0
VERTEX
  5
632
  8
0
 62
     9
 10
0.0
 20
0.0
 30
0.0
 70
   128
 71
     4
 72
     2
 73
     6
  0
VERTEX
  5
633
  8
0
 62
     9
 10
0.0
 20
0.0
 30
0.0
 70
   128
 71
     2
 72
     4
 73
     1
  0
SEQEND
  5
634
  8
0
 62
     9
  0
ENDBLK
  5
637
  8
0
  0
BLOCK
  8
0
  2
E3_NODE_33_
 70
     0
 10
0.0
 20
0.0
 30
0.0
  3
E3_NODE_33_
  1

  0
POLYLINE
  5
639
  8
0
 62
     9
 66
     1
 10
0.0
 20
0.0
 30
0.0
 70
    64
 71
    16
 72
    16
  0
VERTEX
  5
63A
  8
0
 10
12.72799968719482
 20
162.7279968261719
 30
14.0
 70
   192
  0
VERTEX
  5
63B
  8
0
 10
12.72799968719482
 20
162.7279968261719
 30
49.0
 70
   192
  0
VERTEX
  5
63C
  8
0
 10
18.0
 20
150.0
 30
49.0
 70
   192
  0
VERTEX
  5
63D
  8
0
 10
0.0
 20
168.0
 30
14.0
 70
   192
  0
VERTEX
  5
63E
  8
0
 10
0.0
 20
168.0
 30
49.0
 70
   192
  0
VERTEX
  5
63F
  8
0
 10
-12.72799968719482
 20
162.7279968261719
 30
14.0
 70
   192
  0
VERTEX
  5
640
  8
0
 10
-12.72799968719482
 20
162.7279968261719
 30
49.0
 70
   192
  0
VERTEX
  5
641
  8
0
 10
-18.0
 20
150.0
 30
14.0
 70
   192
  0
VERTEX
  5
642
  8
0
 10
-18.0
 20
150.0
 30
49.0
 70
   192
  0
VERTEX
  5
643
  8
0
 10
-12.72799968719482
 20
137.2720031738281
 30
14.0
 70
   192
  0
VERTEX
  5
644
  8
0
 10
-12.72799968719482
 20
137.2720031738281
 30
49.0
 70
   192
  0
VERTEX
  5
645
  8
0
 10
0.0
 20
132.0
 30
14.0
 70
   192
  0
VERTEX
  5
646
  8
0
 10
0.0
 20
132.0
 30
49.0
 70
   192
  0
VERTEX
  5
647
  8
0
 10
12.72799968719482
 20
137.2720031738281
 30
14.0
 70
   192
  0
VERTEX
  5
648
  8
0
 10
12.72799968719482
 20
137.2720031738281
 30
49.0
 70
   192
  0
VERTEX
  5
649
  8
0
 10
18.0
 20
150.0
 30
14.0
 70
   192
  0
VERTEX
  5
64A
  8
0
 62
     9
 10
0.0
 20
0.0
 30
0.0
 70
   128
 71
     3
 72
     2
 73
     1
  0
VERTEX
  5
64B
  8
0
 62
     9
 10
0.0
 20
0.0
 30
0.0
 70
   128
 71
     2
 72
     5
 73
     4
  0
VERTEX
  5
64C
  8
0
 62
     9
 10
0.0
 20
0.0
 30
0.0
 70
   128
 71
     5
 72
     7
 73
     6
  0
VERTEX
  5
64D
  8
0
 62
     9
 10
0.0
 20
0.0
 30
0.0
 70
   128
 71
     7
 72
     9
 73
     8
  0
VERTEX
  5
64E
  8
0
 62
     9
 10
0.0
 20
0.0
 30
0.0
 70
   128
 71
     9
 72
    11
 73
    10
  0
VERTEX
  5
64F
  8
0
 62
     9
 10
0.0
 20
0.0
 30
0.0
 70
   128
 71
    11
 72
    13
 73
    12
  0
VERTEX
  5
650
  8
0
 62
     9
 10
0.0
 20
0.0
 30
0.0
 70
   128
 71
    13
 72
    15
 73
    14
  0
VERTEX
  5
651
  8
0
 62
     9
 10
0.0
 20
0.0
 30
0.0
 70
   128
 71
    15
 72
     3
 73
    16
  0
VERTEX
  5
652
  8
0
 62
     9
 10
0.0
 20
0.0
 30
0.0
 70
   128
 71
    16
 72
    14
 73
    15
  0
VERTEX
  5
653
  8
0
 62
     9
 10
0.0
 20
0.0
 30
0.0
 70
   128
 71
    14
 72
    12
 73
    13
  0
VERTEX
  5
654
  8
0
 62
     9
 10
0.0
 20
0.0
 30
0.0
 70
   128
 71
    12
 72
    10
 73
    11
  0
VERTEX
  5
655
  8
0
 62
     9
 10
0.0
 20
0.0
 30
0.0
 70
   128
 71
    10
 72
     8
 73
     9
  0
VERTEX
  5
656
  8
0
 62
     9
 10
0.0
 20
0.0
 30
0.0
 70
   128
 71
     8
 72
     6
 73
     7
  0
VERTEX
  5
657
  8
0
 62
     9
 10
0.0
 20
0.0
 30
0.0
 70
   128
 71
     6
 72
     4
 73
     5
  0
VERTEX
  5
658
  8
0
 62
     9
 10
0.0
 20
0.0
 30
0.0
 70
   128
 71
     4
 72
     1
 73
     2
  0
VERTEX
  5
659
  8
0
 62
     9
 10
0.0
 20
0.0
 30
0.0
 70
   128
 71
     1
 72
    16
 73
     3
  0
SEQEND
  5
65A
  8
0
 62
     9
  0
ENDBLK
  5
65D
  8
0
  0
BLOCK
  8
0
  2
E3_NODE_34_
 70
     0
 10
0.0
 20
0.0
 30
0.0
  3
E3_NODE_34_
  1

  0
POLYLINE
  5
65F
  8
0
 62
     9
 66
     1
 10
0.0
 20
0.0
 30
0.0
 70
    64
 71
     8
 72
     6
  0
VERTEX
  5
660
  8
0
 10
0.0
 20
132.0
 30
14.0
 70
   192
  0
VERTEX
  5
661
  8
0
 10
0.0
 20
168.0
 30
14.0
 70
   192
  0
VERTEX
  5
662
  8
0
 10
12.72799968719482
 20
162.7279968261719
 30
14.0
 70
   192
  0
VERTEX
  5
663
  8
0
 10
-12.72799968719482
 20
137.2720031738281
 30
14.0
 70
   192
  0
VERTEX
  5
664
  8
0
 10
-18.0
 20
150.0
 30
14.0
 70
   192
  0
VERTEX
  5
665
  8
0
 10
18.0
 20
150.0
 30
14.0
 70
   192
  0
VERTEX
  5
666
  8
0
 10
-12.72799968719482
 20
162.7279968261719
 30
14.0
 70
   192
  0
VERTEX
  5
667
  8
0
 10
12.72799968719482
 20
137.2720031738281
 30
14.0
 70
   192
  0
VERTEX
  5
668
  8
0
 62
     9
 10
0.0
 20
0.0
 30
0.0
 70
   128
 71
     3
 72
     2
 73
     1
  0
VERTEX
  5
669
  8
0
 62
     9
 10
0.0
 20
0.0
 30
0.0
 70
   128
 71
     5
 72
     4
 73
     2
  0
VERTEX
  5
66A
  8
0
 62
     9
 10
0.0
 20
0.0
 30
0.0
 70
   128
 71
     1
 72
     6
 73
     3
  0
VERTEX
  5
66B
  8
0
 62
     9
 10
0.0
 20
0.0
 30
0.0
 70
   128
 71
     4
 72
     1
 73
     2
  0
VERTEX
  5
66C
  8
0
 62
     9
 10
0.0
 20
0.0
 30
0.0
 70
   128
 71
     2
 72
     7
 73
     5
  0
VERTEX
  5
66D
  8
0
 62
     9
 10
0.0
 20
0.0
 30
0.0
 70
   128
 71
     1
 72
     8
 73
     6
  0
SEQEND
  5
66E
  8
0
 62
     9
  0
ENDBLK
  5
671
  8
0
  0
BLOCK
  8
0
  2
E3_NODE_35_
 70
     0
 10
0.0
 20
0.0
 30
0.0
  3
E3_NODE_35_
  1

  0
POLYLINE
  5
673
  8
0
 62
     9
 66
     1
 10
0.0
 20
0.0
 30
0.0
 70
    64
 71
    10
 72
    10
  0
VERTEX
  5
674
  8
0
 10
2.318000078201294
 20
157.1329956054688
 30
51.5
 70
   192
  0
VERTEX
  5
675
  8
0
 10
2.318000078201294
 20
157.1329956054688
 30
54.96500015258789
 70
   192
  0
VERTEX
  5
676
  8
0
 10
7.5
 20
150.0
 30
54.96500015258789
 70
   192
  0
VERTEX
  5
677
  8
0
 10
-6.067999839782715
 20
154.4080047607422
 30
51.5
 70
   192
  0
VERTEX
  5
678
  8
0
 10
-6.067999839782715
 20
154.4080047607422
 30
54.96500015258789
 70
   192
  0
VERTEX
  5
679
  8
0
 10
-6.067999839782715
 20
145.5919952392578
 30
51.5
 70
   192
  0
VERTEX
  5
67A
  8
0
 10
-6.067999839782715
 20
145.5919952392578
 30
54.96500015258789
 70
   192
  0
VERTEX
  5
67B
  8
0
 10
2.318000078201294
 20
142.8670043945312
 30
51.5
 70
   192
  0
VERTEX
  5
67C
  8
0
 10
2.318000078201294
 20
142.8670043945312
 30
54.96500015258789
 70
   192
  0
VERTEX
  5
67D
  8
0
 10
7.5
 20
150.0
 30
51.5
 70
   192
  0
VERTEX
  5
67E
  8
0
 62
     9
 10
0.0
 20
0.0
 30
0.0
 70
   128
 71
     3
 72
     2
 73
     1
  0
VERTEX
  5
67F
  8
0
 62
     9
 10
0.0
 20
0.0
 30
0.0
 70
   128
 71
     2
 72
     5
 73
     4
  0
VERTEX
  5
680
  8
0
 62
     9
 10
0.0
 20
0.0
 30
0.0
 70
   128
 71
     5
 72
     7
 73
     6
  0
VERTEX
  5
681
  8
0
 62
     9
 10
0.0
 20
0.0
 30
0.0
 70
   128
 71
     7
 72
     9
 73
     8
  0
VERTEX
  5
682
  8
0
 62
     9
 10
0.0
 20
0.0
 30
0.0
 70
   128
 71
     9
 72
     3
 73
    10
  0
VERTEX
  5
683
  8
0
 62
     9
 10
0.0
 20
0.0
 30
0.0
 70
   128
 71
    10
 72
     8
 73
     9
  0
VERTEX
  5
684
  8
0
 62
     9
 10
0.0
 20
0.0
 30
0.0
 70
   128
 71
     8
 72
     6
 73
     7
  0
VERTEX
  5
685
  8
0
 62
     9
 10
0.0
 20
0.0
 30
0.0
 70
   128
 71
     6
 72
     4
 73
     5
  0
VERTEX
  5
686
  8
0
 62
     9
 10
0.0
 20
0.0
 30
0.0
 70
   128
 71
     4
 72
     1
 73
     2
  0
VERTEX
  5
687
  8
0
 62
     9
 10
0.0
 20
0.0
 30
0.0
 70
   128
 71
     1
 72
    10
 73
     3
  0
SEQEND
  5
688
  8
0
 62
     9
  0
ENDBLK
  5
68B
  8
0
  0
BLOCK
  8
0
  2
E3_NODE_36_
 70
     0
 10
0.0
 20
0.0
 30
0.0
  3
E3_NODE_36_
  1

  0
POLYLINE
  5
68D
  8
0
 62
     9
 66
     1
 10
0.0
 20
0.0
 30
0.0
 70
    64
 71
    12
 72
    12
  0
VERTEX
  5
68E
  8
0
 10
13.37899971008301
 20
156.4429931640625
 30
51.5
 70
   192
  0
VERTEX
  5
68F
  8
0
 10
3.303999900817871
 20
164.4779968261719
 30
51.5
 70
   192
  0
VERTEX
  5
690
  8
0
 10
2.318000078201294
 20
157.1329956054688
 30
51.5
 70
   192
  0
VERTEX
  5
691
  8
0
 10
-9.258999824523926
 20
161.6100006103516
 30
51.5
 70
   192
  0
VERTEX
  5
692
  8
0
 10
-6.067999839782715
 20
154.4080047607422
 30
51.5
 70
   192
  0
VERTEX
  5
693
  8
0
 10
-14.85000038146973
 20
150.0
 30
51.5
 70
   192
  0
VERTEX
  5
694
  8
0
 10
-6.067999839782715
 20
145.5919952392578
 30
51.5
 70
   192
  0
VERTEX
  5
695
  8
0
 10
-9.258999824523926
 20
138.3899993896484
 30
51.5
 70
   192
  0
VERTEX
  5
696
  8
0
 10
3.303999900817871
 20
135.5220031738281
 30
51.5
 70
   192
  0
VERTEX
  5
697
  8
0
 10
2.318000078201294
 20
142.8670043945312
 30
51.5
 70
   192
  0
VERTEX
  5
698
  8
0
 10
13.37899971008301
 20
143.5570068359375
 30
51.5
 70
   192
  0
VERTEX
  5
699
  8
0
 10
7.5
 20
150.0
 30
51.5
 70
   192
  0
VERTEX
  5
69A
  8
0
 62
     9
 10
0.0
 20
0.0
 30
0.0
 70
   128
 71
     3
 72
     2
 73
     1
  0
VERTEX
  5
69B
  8
0
 62
     9
 10
0.0
 20
0.0
 30
0.0
 70
   128
 71
     3
 72
     5
 73
     4
  0
VERTEX
  5
69C
  8
0
 62
     9
 10
0.0
 20
0.0
 30
0.0
 70
   128
 71
     5
 72
     7
 73
     6
  0
VERTEX
  5
69D
  8
0
 62
     9
 10
0.0
 20
0.0
 30
0.0
 70
   128
 71
     4
 72
     2
 73
     3
  0
VERTEX
  5
69E
  8
0
 62
     9
 10
0.0
 20
0.0
 30
0.0
 70
   128
 71
     7
 72
     8
 73
     6
  0
VERTEX
  5
69F
  8
0
 62
     9
 10
0.0
 20
0.0
 30
0.0
 70
   128
 71
     6
 72
     4
 73
     5
  0
VERTEX
  5
6A0
  8
0
 62
     9
 10
0.0
 20
0.0
 30
0.0
 70
   128
 71
    10
 72
     9
 73
     8
  0
VERTEX
  5
6A1
  8
0
 62
     9
 10
0.0
 20
0.0
 30
0.0
 70
   128
 71
     8
 72
     7
 73
    10
  0
VERTEX
  5
6A2
  8
0
 62
     9
 10
0.0
 20
0.0
 30
0.0
 70
   128
 71
    10
 72
    12
 73
    11
  0
VERTEX
  5
6A3
  8
0
 62
     9
 10
0.0
 20
0.0
 30
0.0
 70
   128
 71
    11
 72
     9
 73
    10
  0
VERTEX
  5
6A4
  8
0
 62
     9
 10
0.0
 20
0.0
 30
0.0
 70
   128
 71
     1
 72
    12
 73
     3
  0
VERTEX
  5
6A5
  8
0
 62
     9
 10
0.0
 20
0.0
 30
0.0
 70
   128
 71
     1
 72
    11
 73
    12
  0
SEQEND
  5
6A6
  8
0
 62
     9
  0
ENDBLK
  5
6A9
  8
0
  0
BLOCK
  8
0
  2
E3_NODE_37_
 70
     0
 10
0.0
 20
0.0
 30
0.0
  3
E3_NODE_37_
  1

  0
POLYLINE
  5
6AB
  8
0
 62
     9
 66
     1
 10
0.0
 20
0.0
 30
0.0
 70
    64
 71
    15
 72
    15
  0
VERTEX
  5
6AC
  8
0
 10
-9.258999824523926
 20
161.6100006103516
 30
51.5
 70
   192
  0
VERTEX
  5
6AD
  8
0
 10
-9.258999824523926
 20
161.6100006103516
 30
46.35699844360352
 70
   192
  0
VERTEX
  5
6AE
  8
0
 10
-14.85000038146973
 20
150.0
 30
46.35699844360352
 70
   192
  0
VERTEX
  5
6AF
  8
0
 10
3.303999900817871
 20
164.4779968261719
 30
51.5
 70
   192
  0
VERTEX
  5
6B0
  8
0
 10
3.303999900817871
 20
164.4779968261719
 30
46.35699844360352
 70
   192
  0
VERTEX
  5
6B1
  8
0
 10
13.37899971008301
 20
156.4429931640625
 30
51.5
 70
   192
  0
VERTEX
  5
6B2
  8
0
 10
13.37899971008301
 20
156.4429931640625
 30
46.35699844360352
 70
   192
  0
VERTEX
  5
6B3
  8
0
 10
13.37899971008301
 20
143.5570068359375
 30
51.5
 70
   192
  0
VERTEX
  5
6B4
  8
0
 10
14.85000038146973
 20
150.0
 30
46.35699844360352
 70
   192
  0
VERTEX
  5
6B5
  8
0
 10
13.37899971008301
 20
143.5570068359375
 30
46.35699844360352
 70
   192
  0
VERTEX
  5
6B6
  8
0
 10
3.303999900817871
 20
135.5220031738281
 30
51.5
 70
   192
  0
VERTEX
  5
6B7
  8
0
 10
3.303999900817871
 20
135.5220031738281
 30
46.35699844360352
 70
   192
  0
VERTEX
  5
6B8
  8
0
 10
-9.258999824523926
 20
138.3899993896484
 30
51.5
 70
   192
  0
VERTEX
  5
6B9
  8
0
 10
-9.258999824523926
 20
138.3899993896484
 30
46.35699844360352
 70
   192
  0
VERTEX
  5
6BA
  8
0
 10
-14.85000038146973
 20
150.0
 30
51.5
 70
   192
  0
VERTEX
  5
6BB
  8
0
 62
     9
 10
0.0
 20
0.0
 30
0.0
 70
   128
 71
     3
 72
     2
 73
     1
  0
VERTEX
  5
6BC
  8
0
 62
     9
 10
0.0
 20
0.0
 30
0.0
 70
   128
 71
     2
 72
     5
 73
     4
  0
VERTEX
  5
6BD
  8
0
 62
     9
 10
0.0
 20
0.0
 30
0.0
 70
   128
 71
     5
 72
     7
 73
     6
  0
VERTEX
  5
6BE
  8
0
 62
     9
 10
0.0
 20
0.0
 30
0.0
 70
   128
 71
     9
 72
     8
 73
     6
  0
VERTEX
  5
6BF
  8
0
 62
     9
 10
0.0
 20
0.0
 30
0.0
 70
   128
 71
     9
 72
    10
 73
     8
  0
VERTEX
  5
6C0
  8
0
 62
     9
 10
0.0
 20
0.0
 30
0.0
 70
   128
 71
    10
 72
    12
 73
    11
  0
VERTEX
  5
6C1
  8
0
 62
     9
 10
0.0
 20
0.0
 30
0.0
 70
   128
 71
    12
 72
    14
 73
    13
  0
VERTEX
  5
6C2
  8
0
 62
     9
 10
0.0
 20
0.0
 30
0.0
 70
   128
 71
    14
 72
     3
 73
    15
  0
VERTEX
  5
6C3
  8
0
 62
     9
 10
0.0
 20
0.0
 30
0.0
 70
   128
 71
    15
 72
    13
 73
    14
  0
VERTEX
  5
6C4
  8
0
 62
     9
 10
0.0
 20
0.0
 30
0.0
 70
   128
 71
    13
 72
    11
 73
    12
  0
VERTEX
  5
6C5
  8
0
 62
     9
 10
0.0
 20
0.0
 30
0.0
 70
   128
 71
    11
 72
     8
 73
    10
  0
VERTEX
  5
6C6
  8
0
 62
     9
 10
0.0
 20
0.0
 30
0.0
 70
   128
 71
     6
 72
     7
 73
     9
  0
VERTEX
  5
6C7
  8
0
 62
     9
 10
0.0
 20
0.0
 30
0.0
 70
   128
 71
     6
 72
     4
 73
     5
  0
VERTEX
  5
6C8
  8
0
 62
     9
 10
0.0
 20
0.0
 30
0.0
 70
   128
 71
     4
 72
     1
 73
     2
  0
VERTEX
  5
6C9
  8
0
 62
     9
 10
0.0
 20
0.0
 30
0.0
 70
   128
 71
     1
 72
    15
 73
     3
  0
SEQEND
  5
6CA
  8
0
 62
     9
  0
ENDBLK
  5
6CD
  8
0
  0
BLOCK
  8
0
  2
E3_NODE_38_
 70
     0
 10
0.0
 20
0.0
 30
0.0
  3
E3_NODE_38_
  1

  0
POLYLINE
  5
6CF
  8
0
 62
     9
 66
     1
 10
0.0
 20
0.0
 30
0.0
 70
    64
 71
    14
 72
    14
  0
VERTEX
  5
6D0
  8
0
 10
144.2019958496094
 20
9.873000144958496
 30
202.6170043945312
 70
   192
  0
VERTEX
  5
6D1
  8
0
 10
147.1540069580078
 20
9.873000144958496
 30
185.8760070800781
 70
   192
  0
VERTEX
  5
6D2
  8
0
 10
141.5410003662109
 20
0.0
 30
184.8860015869141
 70
   192
  0
VERTEX
  5
6D3
  8
0
 10
149.8159942626953
 20
11.39999961853027
 30
203.6069946289062
 70
   192
  0
VERTEX
  5
6D4
  8
0
 10
152.7680053710938
 20
11.39999961853027
 30
186.8650054931641
 70
   192
  0
VERTEX
  5
6D5
  8
0
 10
158.3809967041016
 20
9.873000144958496
 30
187.8549957275391
 70
   192
  0
VERTEX
  5
6D6
  8
0
 10
155.4290008544922
 20
9.873000144958496
 30
204.5970001220703
 70
   192
  0
VERTEX
  5
6D7
  8
0
 10
161.0420074462891
 20
0.0
 30
205.5870056152344
 70
   192
  0
VERTEX
  5
6D8
  8
0
 10
163.9940032958984
 20
0.0
 30
188.8450012207031
 70
   192
  0
VERTEX
  5
6D9
  8
0
 10
158.3809967041016
 20
-9.873000144958496
 30
187.8549957275391
 70
   192
  0
VERTEX
  5
6DA
  8
0
 10
144.2019958496094
 20
-9.873000144958496
 30
202.6170043945312
 70
   192
  0
VERTEX
  5
6DB
  8
0
 10
147.1540069580078
 20
-9.873000144958496
 30
185.8760070800781
 70
   192
  0
VERTEX
  5
6DC
  8
0
 10
138.5890045166016
 20
0.0
 30
201.6280059814453
 70
   192
  0
VERTEX
  5
6DD
  8
0
 10
155.4290008544922
 20
-9.873000144958496
 30
204.5970001220703
 70
   192
  0
VERTEX
  5
6DE
  8
0
 62
     9
 10
0.0
 20
0.0
 30
0.0
 70
   128
 71
     3
 72
     2
 73
     1
  0
VERTEX
  5
6DF
  8
0
 62
     9
 10
0.0
 20
0.0
 30
0.0
 70
   128
 71
     5
 72
     4
 73
     1
  0
VERTEX
  5
6E0
  8
0
 62
     9
 10
0.0
 20
0.0
 30
0.0
 70
   128
 71
     4
 72
     5
 73
     6
  0
VERTEX
  5
6E1
  8
0
 62
     9
 10
0.0
 20
0.0
 30
0.0
 70
   128
 71
     6
 72
     7
 73
     4
  0
VERTEX
  5
6E2
  8
0
 62
     9
 10
0.0
 20
0.0
 30
0.0
 70
   128
 71
     6
 72
     9
 73
     8
  0
VERTEX
  5
6E3
  8
0
 62
     9
 10
0.0
 20
0.0
 30
0.0
 70
   128
 71
     8
 72
     9
 73
    10
  0
VERTEX
  5
6E4
  8
0
 62
     9
 10
0.0
 20
0.0
 30
0.0
 70
   128
 71
    10
 72
    12
 73
    11
  0
VERTEX
  5
6E5
  8
0
 62
     9
 10
0.0
 20
0.0
 30
0.0
 70
   128
 71
    11
 72
    12
 73
     3
  0
VERTEX
  5
6E6
  8
0
 62
     9
 10
0.0
 20
0.0
 30
0.0
 70
   128
 71
     3
 72
    13
 73
    11
  0
VERTEX
  5
6E7
  8
0
 62
     9
 10
0.0
 20
0.0
 30
0.0
 70
   128
 71
    11
 72
    14
 73
    10
  0
VERTEX
  5
6E8
  8
0
 62
     9
 10
0.0
 20
0.0
 30
0.0
 70
   128
 71
    10
 72
    14
 73
     8
  0
VERTEX
  5
6E9
  8
0
 62
     9
 10
0.0
 20
0.0
 30
0.0
 70
   128
 71
     8
 72
     7
 73
     6
  0
VERTEX
  5
6EA
  8
0
 62
     9
 10
0.0
 20
0.0
 30
0.0
 70
   128
 71
     1
 72
     2
 73
     5
  0
VERTEX
  5
6EB
  8
0
 62
     9
 10
0.0
 20
0.0
 30
0.0
 70
   128
 71
     1
 72
    13
 73
     3
  0
SEQEND
  5
6EC
  8
0
 62
     9
  0
ENDBLK
  5
6EF
  8
0
  0
BLOCK
  8
0
  2
E3_NODE_39_
 70
     0
 10
0.0
 20
0.0
 30
0.0
  3
E3_NODE_39_
  1

  0
POLYLINE
  5
6F1
  8
0
 62
     9
 66
     1
 10
0.0
 20
0.0
 30
0.0
 70
    64
 71
     7
 72
     5
  0
VERTEX
  5
6F2
  8
0
 10
147.1540069580078
 20
-9.873000144958496
 30
185.8760070800781
 70
   192
  0
VERTEX
  5
6F3
  8
0
 10
158.3809967041016
 20
9.873000144958496
 30
187.8549957275391
 70
   192
  0
VERTEX
  5
6F4
  8
0
 10
163.9940032958984
 20
0.0
 30
188.8450012207031
 70
   192
  0
VERTEX
  5
6F5
  8
0
 10
152.7680053710938
 20
11.39999961853027
 30
186.8650054931641
 70
   192
  0
VERTEX
  5
6F6
  8
0
 10
141.5410003662109
 20
0.0
 30
184.8860015869141
 70
   192
  0
VERTEX
  5
6F7
  8
0
 10
147.1540069580078
 20
9.873000144958496
 30
185.8760070800781
 70
   192
  0
VERTEX
  5
6F8
  8
0
 10
158.3809967041016
 20
-9.873000144958496
 30
187.8549957275391
 70
   192
  0
VERTEX
  5
6F9
  8
0
 62
     9
 10
0.0
 20
0.0
 30
0.0
 70
   128
 71
     3
 72
     2
 73
     1
  0
VERTEX
  5
6FA
  8
0
 62
     9
 10
0.0
 20
0.0
 30
0.0
 70
   128
 71
     2
 72
     4
 73
     1
  0
VERTEX
  5
6FB
  8
0
 62
     9
 10
0.0
 20
0.0
 30
0.0
 70
   128
 71
     6
 72
     5
 73
     1
  0
VERTEX
  5
6FC
  8
0
 62
     9
 10
0.0
 20
0.0
 30
0.0
 70
   128
 71
     1
 72
     4
 73
     6
  0
VERTEX
  5
6FD
  8
0
 62
     9
 10
0.0
 20
0.0
 30
0.0
 70
   128
 71
     1
 72
     7
 73
     3
  0
SEQEND
  5
6FE
  8
0
 62
     9
  0
ENDBLK
  5
701
  8
0
  0
BLOCK
  8
0
  2
E3_NODE_40_
 70
     0
 10
0.0
 20
0.0
 30
0.0
  3
E3_NODE_40_
  1

  0
POLYLINE
  5
703
  8
0
 62
     9
 66
     1
 10
0.0
 20
0.0
 30
0.0
 70
    64
 71
    12
 72
    12
  0
VERTEX
  5
704
  8
0
 10
148.1900024414062
 20
-7.794000148773193
 30
186.9149932861328
 70
   192
  0
VERTEX
  5
705
  8
0
 10
143.7579956054688
 20
0.0
 30
186.1329956054688
 70
   192
  0
VERTEX
  5
706
  8
0
 10
143.9830017089844
 20
0.0
 30
184.8589935302734
 70
   192
  0
VERTEX
  5
707
  8
0
 10
157.0529937744141
 20
-7.794000148773193
 30
188.4770050048828
 70
   192
  0
VERTEX
  5
708
  8
0
 10
148.4140014648438
 20
-7.794000148773193
 30
185.6410064697266
 70
   192
  0
VERTEX
  5
709
  8
0
 10
161.4839935302734
 20
0.0
 30
189.2590026855469
 70
   192
  0
VERTEX
  5
70A
  8
0
 10
157.2769927978516
 20
-7.794000148773193
 30
187.2039947509766
 70
   192
  0
VERTEX
  5
70B
  8
0
 10
157.2769927978516
 20
7.794000148773193
 30
187.2039947509766
 70
   192
  0
VERTEX
  5
70C
  8
0
 10
157.0529937744141
 20
7.794000148773193
 30
188.4770050048828
 70
   192
  0
VERTEX
  5
70D
  8
0
 10
148.4140014648438
 20
7.794000148773193
 30
185.6410064697266
 70
   192
  0
VERTEX
  5
70E
  8
0
 10
148.1900024414062
 20
7.794000148773193
 30
186.9149932861328
 70
   192
  0
VERTEX
  5
70F
  8
0
 10
161.7089996337891
 20
0.0
 30
187.9850006103516
 70
   192
  0
VERTEX
  5
710
  8
0
 62
     9
 10
0.0
 20
0.0
 30
0.0
 70
   128
 71
     3
 72
     2
 73
     1
  0
VERTEX
  5
711
  8
0
 62
     9
 10
0.0
 20
0.0
 30
0.0
 70
   128
 71
     5
 72
     1
 73
     4
  0
VERTEX
  5
712
  8
0
 62
     9
 10
0.0
 20
0.0
 30
0.0
 70
   128
 71
     7
 72
     4
 73
     6
  0
VERTEX
  5
713
  8
0
 62
     9
 10
0.0
 20
0.0
 30
0.0
 70
   128
 71
     6
 72
     9
 73
     8
  0
VERTEX
  5
714
  8
0
 62
     9
 10
0.0
 20
0.0
 30
0.0
 70
   128
 71
     9
 72
    11
 73
    10
  0
VERTEX
  5
715
  8
0
 62
     9
 10
0.0
 20
0.0
 30
0.0
 70
   128
 71
    11
 72
     2
 73
     3
  0
VERTEX
  5
716
  8
0
 62
     9
 10
0.0
 20
0.0
 30
0.0
 70
   128
 71
     3
 72
    10
 73
    11
  0
VERTEX
  5
717
  8
0
 62
     9
 10
0.0
 20
0.0
 30
0.0
 70
   128
 71
    10
 72
     8
 73
     9
  0
VERTEX
  5
718
  8
0
 62
     9
 10
0.0
 20
0.0
 30
0.0
 70
   128
 71
     8
 72
    12
 73
     6
  0
VERTEX
  5
719
  8
0
 62
     9
 10
0.0
 20
0.0
 30
0.0
 70
   128
 71
     6
 72
    12
 73
     7
  0
VERTEX
  5
71A
  8
0
 62
     9
 10
0.0
 20
0.0
 30
0.0
 70
   128
 71
     4
 72
     7
 73
     5
  0
VERTEX
  5
71B
  8
0
 62
     9
 10
0.0
 20
0.0
 30
0.0
 70
   128
 71
     1
 72
     5
 73
     3
  0
SEQEND
  5
71C
  8
0
 62
     9
  0
ENDBLK
  5
71F
  8
0
  0
BLOCK
  8
0
  2
E3_NODE_41_
 70
     0
 10
0.0
 20
0.0
 30
0.0
  3
E3_NODE_41_
  1

  0
POLYLINE
  5
721
  8
0
 62
     9
 66
     1
 10
0.0
 20
0.0
 30
0.0
 70
    64
 71
     6
 72
     4
  0
VERTEX
  5
722
  8
0
 10
157.2769927978516
 20
7.794000148773193
 30
187.2039947509766
 70
   192
  0
VERTEX
  5
723
  8
0
 10
161.7089996337891
 20
0.0
 30
187.9850006103516
 70
   192
  0
VERTEX
  5
724
  8
0
 10
157.2769927978516
 20
-7.794000148773193
 30
187.2039947509766
 70
   192
  0
VERTEX
  5
725
  8
0
 10
148.4140014648438
 20
-7.794000148773193
 30
185.6410064697266
 70
   192
  0
VERTEX
  5
726
  8
0
 10
143.9830017089844
 20
0.0
 30
184.8589935302734
 70
   192
  0
VERTEX
  5
727
  8
0
 10
148.4140014648438
 20
7.794000148773193
 30
185.6410064697266
 70
   192
  0
VERTEX
  5
728
  8
0
 62
     9
 10
0.0
 20
0.0
 30
0.0
 70
   128
 71
     3
 72
     2
 73
     1
  0
VERTEX
  5
729
  8
0
 62
     9
 10
0.0
 20
0.0
 30
0.0
 70
   128
 71
     5
 72
     4
 73
     1
  0
VERTEX
  5
72A
  8
0
 62
     9
 10
0.0
 20
0.0
 30
0.0
 70
   128
 71
     1
 72
     6
 73
     5
  0
VERTEX
  5
72B
  8
0
 62
     9
 10
0.0
 20
0.0
 30
0.0
 70
   128
 71
     1
 72
     4
 73
     3
  0
SEQEND
  5
72C
  8
0
 62
     9
  0
ENDBLK
  5
72F
  8
0
  0
BLOCK
  8
0
  2
E3_NODE_42_
 70
     0
 10
0.0
 20
0.0
 30
0.0
  3
E3_NODE_42_
  1

  0
POLYLINE
  5
731
  8
0
 62
     9
 66
     1
 10
0.0
 20
0.0
 30
0.0
 70
    64
 71
    14
 72
    14
  0
VERTEX
  5
732
  8
0
 10
-12.89999961853027
 20
-160.2879943847656
 30
7.0
 70
   192
  0
VERTEX
  5
733
  8
0
 10
0.0
 20
-166.5
 30
7.0
 70
   192
  0
VERTEX
  5
734
  8
0
 10
0.0
 20
-166.5
 30
32.0
 70
   192
  0
VERTEX
  5
735
  8
0
 10
-16.08600044250488
 20
-146.3280029296875
 30
7.0
 70
   192
  0
VERTEX
  5
736
  8
0
 10
-12.89999961853027
 20
-160.2879943847656
 30
32.0
 70
   192
  0
VERTEX
  5
737
  8
0
 10
-7.158999919891357
 20
-135.1340026855469
 30
7.0
 70
   192
  0
VERTEX
  5
738
  8
0
 10
-16.08600044250488
 20
-146.3280029296875
 30
32.0
 70
   192
  0
VERTEX
  5
739
  8
0
 10
7.158999919891357
 20
-135.1340026855469
 30
7.0
 70
   192
  0
VERTEX
  5
73A
  8
0
 10
-7.158999919891357
 20
-135.1340026855469
 30
32.0
 70
   192
  0
VERTEX
  5
73B
  8
0
 10
16.08600044250488
 20
-146.3280029296875
 30
32.0
 70
   192
  0
VERTEX
  5
73C
  8
0
 10
16.08600044250488
 20
-146.3280029296875
 30
7.0
 70
   192
  0
VERTEX
  5
73D
  8
0
 10
12.89999961853027
 20
-160.2879943847656
 30
32.0
 70
   192
  0
VERTEX
  5
73E
  8
0
 10
12.89999961853027
 20
-160.2879943847656
 30
7.0
 70
   192
  0
VERTEX
  5
73F
  8
0
 10
7.158999919891357
 20
-135.1340026855469
 30
32.0
 70
   192
  0
VERTEX
  5
740
  8
0
 62
     9
 10
0.0
 20
0.0
 30
0.0
 70
   128
 71
     3
 72
     2
 73
     1
  0
VERTEX
  5
741
  8
0
 62
     9
 10
0.0
 20
0.0
 30
0.0
 70
   128
 71
     5
 72
     1
 73
     4
  0
VERTEX
  5
742
  8
0
 62
     9
 10
0.0
 20
0.0
 30
0.0
 70
   128
 71
     7
 72
     4
 73
     6
  0
VERTEX
  5
743
  8
0
 62
     9
 10
0.0
 20
0.0
 30
0.0
 70
   128
 71
     9
 72
     6
 73
     8
  0
VERTEX
  5
744
  8
0
 62
     9
 10
0.0
 20
0.0
 30
0.0
 70
   128
 71
     8
 72
    11
 73
    10
  0
VERTEX
  5
745
  8
0
 62
     9
 10
0.0
 20
0.0
 30
0.0
 70
   128
 71
    11
 72
    13
 73
    12
  0
VERTEX
  5
746
  8
0
 62
     9
 10
0.0
 20
0.0
 30
0.0
 70
   128
 71
    13
 72
     2
 73
     3
  0
VERTEX
  5
747
  8
0
 62
     9
 10
0.0
 20
0.0
 30
0.0
 70
   128
 71
     3
 72
    12
 73
    13
  0
VERTEX
  5
748
  8
0
 62
     9
 10
0.0
 20
0.0
 30
0.0
 70
   128
 71
    12
 72
    10
 73
    11
  0
VERTEX
  5
749
  8
0
 62
     9
 10
0.0
 20
0.0
 30
0.0
 70
   128
 71
    10
 72
    14
 73
     8
  0
VERTEX
  5
74A
  8
0
 62
     9
 10
0.0
 20
0.0
 30
0.0
 70
   128
 71
     8
 72
    14
 73
     9
  0
VERTEX
  5
74B
  8
0
 62
     9
 10
0.0
 20
0.0
 30
0.0
 70
   128
 71
     6
 72
     9
 73
     7
  0
VERTEX
  5
74C
  8
0
 62
     9
 10
0.0
 20
0.0
 30
0.0
 70
   128
 71
     4
 72
     7
 73
     5
  0
VERTEX
  5
74D
  8
0
 62
     9
 10
0.0
 20
0.0
 30
0.0
 70
   128
 71
     1
 72
     5
 73
     3
  0
SEQEND
  5
74E
  8
0
 62
     9
  0
ENDBLK
  5
751
  8
0
  0
BLOCK
  8
0
  2
E3_NODE_43_
 70
     0
 10
0.0
 20
0.0
 30
0.0
  3
E3_NODE_43_
  1

  0
POLYLINE
  5
753
  8
0
 62
     9
 66
     1
 10
0.0
 20
0.0
 30
0.0
 70
    64
 71
    16
 72
    16
  0
VERTEX
  5
754
  8
0
 10
22.15800094604492
 20
-153.9069976806641
 30
7.0
 70
   192
  0
VERTEX
  5
755
  8
0
 10
16.08600044250488
 20
-146.3280029296875
 30
7.0
 70
   192
  0
VERTEX
  5
756
  8
0
 10
12.89999961853027
 20
-160.2879943847656
 30
7.0
 70
   192
  0
VERTEX
  5
757
  8
0
 10
-22.15800094604492
 20
-153.9069976806641
 30
7.0
 70
   192
  0
VERTEX
  5
758
  8
0
 10
-14.46300029754639
 20
-167.2359924316406
 30
7.0
 70
   192
  0
VERTEX
  5
759
  8
0
 10
-12.89999961853027
 20
-160.2879943847656
 30
7.0
 70
   192
  0
VERTEX
  5
75A
  8
0
 10
14.46300029754639
 20
-167.2359924316406
 30
7.0
 70
   192
  0
VERTEX
  5
75B
  8
0
 10
0.0
 20
-166.5
 30
7.0
 70
   192
  0
VERTEX
  5
75C
  8
0
 10
19.48600006103516
 20
-138.75
 30
7.0
 70
   192
  0
VERTEX
  5
75D
  8
0
 10
7.695000171661377
 20
-128.8569946289062
 30
7.0
 70
   192
  0
VERTEX
  5
75E
  8
0
 10
7.158999919891357
 20
-135.1340026855469
 30
7.0
 70
   192
  0
VERTEX
  5
75F
  8
0
 10
-7.695000171661377
 20
-128.8569946289062
 30
7.0
 70
   192
  0
VERTEX
  5
760
  8
0
 10
-7.158999919891357
 20
-135.1340026855469
 30
7.0
 70
   192
  0
VERTEX
  5
761
  8
0
 10
-19.48600006103516
 20
-138.75
 30
7.0
 70
   192
  0
VERTEX
  5
762
  8
0
 10
-16.08600044250488
 20
-146.3280029296875
 30
7.0
 70
   192
  0
VERTEX
  5
763
  8
0
 10
0.0
 20
-172.5
 30
7.0
 70
   192
  0
VERTEX
  5
764
  8
0
 62
     9
 10
0.0
 20
0.0
 30
0.0
 70
   128
 71
     3
 72
     2
 73
     1
  0
VERTEX
  5
765
  8
0
 62
     9
 10
0.0
 20
0.0
 30
0.0
 70
   128
 71
     6
 72
     5
 73
     4
  0
VERTEX
  5
766
  8
0
 62
     9
 10
0.0
 20
0.0
 30
0.0
 70
   128
 71
     8
 72
     3
 73
     7
  0
VERTEX
  5
767
  8
0
 62
     9
 10
0.0
 20
0.0
 30
0.0
 70
   128
 71
     2
 72
     9
 73
     1
  0
VERTEX
  5
768
  8
0
 62
     9
 10
0.0
 20
0.0
 30
0.0
 70
   128
 71
    11
 72
    10
 73
     9
  0
VERTEX
  5
769
  8
0
 62
     9
 10
0.0
 20
0.0
 30
0.0
 70
   128
 71
    13
 72
    12
 73
    10
  0
VERTEX
  5
76A
  8
0
 62
     9
 10
0.0
 20
0.0
 30
0.0
 70
   128
 71
    13
 72
    15
 73
    14
  0
VERTEX
  5
76B
  8
0
 62
     9
 10
0.0
 20
0.0
 30
0.0
 70
   128
 71
     4
 72
    15
 73
     6
  0
VERTEX
  5
76C
  8
0
 62
     9
 10
0.0
 20
0.0
 30
0.0
 70
   128
 71
     1
 72
     7
 73
     3
  0
VERTEX
  5
76D
  8
0
 62
     9
 10
0.0
 20
0.0
 30
0.0
 70
   128
 71
    10
 72
    11
 73
    13
  0
VERTEX
  5
76E
  8
0
 62
     9
 10
0.0
 20
0.0
 30
0.0
 70
   128
 71
     4
 72
    14
 73
    15
  0
VERTEX
  5
76F
  8
0
 62
     9
 10
0.0
 20
0.0
 30
0.0
 70
   128
 71
     8
 72
    16
 73
     5
  0
VERTEX
  5
770
  8
0
 62
     9
 10
0.0
 20
0.0
 30
0.0
 70
   128
 71
     9
 72
     2
 73
    11
  0
VERTEX
  5
771
  8
0
 62
     9
 10
0.0
 20
0.0
 30
0.0
 70
   128
 71
     5
 72
     6
 73
     8
  0
VERTEX
  5
772
  8
0
 62
     9
 10
0.0
 20
0.0
 30
0.0
 70
   128
 71
    14
 72
    12
 73
    13
  0
VERTEX
  5
773
  8
0
 62
     9
 10
0.0
 20
0.0
 30
0.0
 70
   128
 71
     7
 72
    16
 73
     8
  0
SEQEND
  5
774
  8
0
 62
     9
  0
ENDBLK
  5
777
  8
0
  0
BLOCK
  8
0
  2
E3_NODE_44_
 70
     0
 10
0.0
 20
0.0
 30
0.0
  3
E3_NODE_44_
  1

  0
POLYLINE
  5
779
  8
0
 62
     9
 66
     1
 10
0.0
 20
0.0
 30
0.0
 70
    64
 71
    18
 72
    18
  0
VERTEX
  5
77A
  8
0
 10
-14.46300029754639
 20
-167.2359924316406
 30
7.0
 70
   192
  0
VERTEX
  5
77B
  8
0
 10
-14.46300029754639
 20
-167.2359924316406
 30
3.0
 70
   192
  0
VERTEX
  5
77C
  8
0
 10
0.0
 20
-172.5
 30
3.0
 70
   192
  0
VERTEX
  5
77D
  8
0
 10
-22.15800094604492
 20
-153.9069976806641
 30
7.0
 70
   192
  0
VERTEX
  5
77E
  8
0
 10
-22.15800094604492
 20
-153.9069976806641
 30
3.0
 70
   192
  0
VERTEX
  5
77F
  8
0
 10
-19.48600006103516
 20
-138.75
 30
7.0
 70
   192
  0
VERTEX
  5
780
  8
0
 10
-19.48600006103516
 20
-138.75
 30
3.0
 70
   192
  0
VERTEX
  5
781
  8
0
 10
-7.695000171661377
 20
-128.8569946289062
 30
7.0
 70
   192
  0
VERTEX
  5
782
  8
0
 10
-7.695000171661377
 20
-128.8569946289062
 30
3.0
 70
   192
  0
VERTEX
  5
783
  8
0
 10
7.695000171661377
 20
-128.8569946289062
 30
7.0
 70
   192
  0
VERTEX
  5
784
  8
0
 10
7.695000171661377
 20
-128.8569946289062
 30
3.0
 70
   192
  0
VERTEX
  5
785
  8
0
 10
19.48600006103516
 20
-138.75
 30
3.0
 70
   192
  0
VERTEX
  5
786
  8
0
 10
22.15800094604492
 20
-153.9069976806641
 30
3.0
 70
   192
  0
VERTEX
  5
787
  8
0
 10
19.48600006103516
 20
-138.75
 30
7.0
 70
   192
  0
VERTEX
  5
788
  8
0
 10
14.46300029754639
 20
-167.2359924316406
 30
3.0
 70
   192
  0
VERTEX
  5
789
  8
0
 10
22.15800094604492
 20
-153.9069976806641
 30
7.0
 70
   192
  0
VERTEX
  5
78A
  8
0
 10
14.46300029754639
 20
-167.2359924316406
 30
7.0
 70
   192
  0
VERTEX
  5
78B
  8
0
 10
0.0
 20
-172.5
 30
7.0
 70
   192
  0
VERTEX
  5
78C
  8
0
 62
     9
 10
0.0
 20
0.0
 30
0.0
 70
   128
 71
     3
 72
     2
 73
     1
  0
VERTEX
  5
78D
  8
0
 62
     9
 10
0.0
 20
0.0
 30
0.0
 70
   128
 71
     2
 72
     5
 73
     4
  0
VERTEX
  5
78E
  8
0
 62
     9
 10
0.0
 20
0.0
 30
0.0
 70
   128
 71
     5
 72
     7
 73
     6
  0
VERTEX
  5
78F
  8
0
 62
     9
 10
0.0
 20
0.0
 30
0.0
 70
   128
 71
     7
 72
     9
 73
     8
  0
VERTEX
  5
790
  8
0
 62
     9
 10
0.0
 20
0.0
 30
0.0
 70
   128
 71
     9
 72
    11
 73
    10
  0
VERTEX
  5
791
  8
0
 62
     9
 10
0.0
 20
0.0
 30
0.0
 70
   128
 71
    10
 72
    11
 73
    12
  0
VERTEX
  5
792
  8
0
 62
     9
 10
0.0
 20
0.0
 30
0.0
 70
   128
 71
    14
 72
    12
 73
    13
  0
VERTEX
  5
793
  8
0
 62
     9
 10
0.0
 20
0.0
 30
0.0
 70
   128
 71
    16
 72
    13
 73
    15
  0
VERTEX
  5
794
  8
0
 62
     9
 10
0.0
 20
0.0
 30
0.0
 70
   128
 71
    17
 72
    15
 73
     3
  0
VERTEX
  5
795
  8
0
 62
     9
 10
0.0
 20
0.0
 30
0.0
 70
   128
 71
     3
 72
    18
 73
    17
  0
VERTEX
  5
796
  8
0
 62
     9
 10
0.0
 20
0.0
 30
0.0
 70
   128
 71
    15
 72
    17
 73
    16
  0
VERTEX
  5
797
  8
0
 62
     9
 10
0.0
 20
0.0
 30
0.0
 70
   128
 71
    13
 72
    16
 73
    14
  0
VERTEX
  5
798
  8
0
 62
     9
 10
0.0
 20
0.0
 30
0.0
 70
   128
 71
    12
 72
    14
 73
    10
  0
VERTEX
  5
799
  8
0
 62
     9
 10
0.0
 20
0.0
 30
0.0
 70
   128
 71
    10
 72
     8
 73
     9
  0
VERTEX
  5
79A
  8
0
 62
     9
 10
0.0
 20
0.0
 30
0.0
 70
   128
 71
     8
 72
     6
 73
     7
  0
VERTEX
  5
79B
  8
0
 62
     9
 10
0.0
 20
0.0
 30
0.0
 70
   128
 71
     6
 72
     4
 73
     5
  0
VERTEX
  5
79C
  8
0
 62
     9
 10
0.0
 20
0.0
 30
0.0
 70
   128
 71
     4
 72
     1
 73
     2
  0
VERTEX
  5
79D
  8
0
 62
     9
 10
0.0
 20
0.0
 30
0.0
 70
   128
 71
     1
 72
    18
 73
     3
  0
SEQEND
  5
79E
  8
0
 62
     9
  0
ENDBLK
  5
7A1
  8
0
  0
BLOCK
  8
0
  2
E3_NODE_45_
 70
     0
 10
0.0
 20
0.0
 30
0.0
  3
E3_NODE_45_
  1

  0
POLYLINE
  5
7A3
  8
0
 62
     9
 66
     1
 10
0.0
 20
0.0
 30
0.0
 70
    64
 71
    18
 72
    18
  0
VERTEX
  5
7A4
  8
0
 10
17.67700004577637
 20
-171.0659942626953
 30
3.0
 70
   192
  0
VERTEX
  5
7A5
  8
0
 10
27.08200073242188
 20
-154.7749938964844
 30
3.0
 70
   192
  0
VERTEX
  5
7A6
  8
0
 10
22.15800094604492
 20
-153.9069976806641
 30
3.0
 70
   192
  0
VERTEX
  5
7A7
  8
0
 10
23.81599998474121
 20
-136.25
 30
3.0
 70
   192
  0
VERTEX
  5
7A8
  8
0
 10
19.48600006103516
 20
-138.75
 30
3.0
 70
   192
  0
VERTEX
  5
7A9
  8
0
 10
9.406000137329102
 20
-124.1579971313477
 30
3.0
 70
   192
  0
VERTEX
  5
7AA
  8
0
 10
7.695000171661377
 20
-128.8569946289062
 30
3.0
 70
   192
  0
VERTEX
  5
7AB
  8
0
 10
-9.406000137329102
 20
-124.1579971313477
 30
3.0
 70
   192
  0
VERTEX
  5
7AC
  8
0
 10
-7.695000171661377
 20
-128.8569946289062
 30
3.0
 70
   192
  0
VERTEX
  5
7AD
  8
0
 10
-23.81599998474121
 20
-136.25
 30
3.0
 70
   192
  0
VERTEX
  5
7AE
  8
0
 10
-19.48600006103516
 20
-138.75
 30
3.0
 70
   192
  0
VERTEX
  5
7AF
  8
0
 10
-27.08200073242188
 20
-154.7749938964844
 30
3.0
 70
   192
  0
VERTEX
  5
7B0
  8
0
 10
-22.15800094604492
 20
-153.9069976806641
 30
3.0
 70
   192
  0
VERTEX
  5
7B1
  8
0
 10
-17.67700004577637
 20
-171.0659942626953
 30
3.0
 70
   192
  0
VERTEX
  5
7B2
  8
0
 10
-14.46300029754639
 20
-167.2359924316406
 30
3.0
 70
   192
  0
VERTEX
  5
7B3
  8
0
 10
0.0
 20
-177.5
 30
3.0
 70
   192
  0
VERTEX
  5
7B4
  8
0
 10
0.0
 20
-172.5
 30
3.0
 70
   192
  0
VERTEX
  5
7B5
  8
0
 10
14.46300029754639
 20
-167.2359924316406
 30
3.0
 70
   192
  0
VERTEX
  5
7B6
  8
0
 62
     9
 10
0.0
 20
0.0
 30
0.0
 70
   128
 71
     3
 72
     2
 73
     1
  0
VERTEX
  5
7B7
  8
0
 62
     9
 10
0.0
 20
0.0
 30
0.0
 70
   128
 71
     5
 72
     4
 73
     2
  0
VERTEX
  5
7B8
  8
0
 62
     9
 10
0.0
 20
0.0
 30
0.0
 70
   128
 71
     2
 72
     3
 73
     5
  0
VERTEX
  5
7B9
  8
0
 62
     9
 10
0.0
 20
0.0
 30
0.0
 70
   128
 71
     7
 72
     6
 73
     4
  0
VERTEX
  5
7BA
  8
0
 62
     9
 10
0.0
 20
0.0
 30
0.0
 70
   128
 71
     4
 72
     5
 73
     7
  0
VERTEX
  5
7BB
  8
0
 62
     9
 10
0.0
 20
0.0
 30
0.0
 70
   128
 71
     7
 72
     9
 73
     8
  0
VERTEX
  5
7BC
  8
0
 62
     9
 10
0.0
 20
0.0
 30
0.0
 70
   128
 71
     9
 72
    11
 73
    10
  0
VERTEX
  5
7BD
  8
0
 62
     9
 10
0.0
 20
0.0
 30
0.0
 70
   128
 71
    11
 72
    13
 73
    12
  0
VERTEX
  5
7BE
  8
0
 62
     9
 10
0.0
 20
0.0
 30
0.0
 70
   128
 71
    13
 72
    15
 73
    14
  0
VERTEX
  5
7BF
  8
0
 62
     9
 10
0.0
 20
0.0
 30
0.0
 70
   128
 71
    15
 72
    17
 73
    16
  0
VERTEX
  5
7C0
  8
0
 62
     9
 10
0.0
 20
0.0
 30
0.0
 70
   128
 71
    18
 72
     1
 73
    16
  0
VERTEX
  5
7C1
  8
0
 62
     9
 10
0.0
 20
0.0
 30
0.0
 70
   128
 71
     8
 72
     6
 73
     7
  0
VERTEX
  5
7C2
  8
0
 62
     9
 10
0.0
 20
0.0
 30
0.0
 70
   128
 71
    12
 72
    10
 73
    11
  0
VERTEX
  5
7C3
  8
0
 62
     9
 10
0.0
 20
0.0
 30
0.0
 70
   128
 71
    16
 72
    14
 73
    15
  0
VERTEX
  5
7C4
  8
0
 62
     9
 10
0.0
 20
0.0
 30
0.0
 70
   128
 71
     1
 72
    18
 73
     3
  0
VERTEX
  5
7C5
  8
0
 62
     9
 10
0.0
 20
0.0
 30
0.0
 70
   128
 71
    14
 72
    12
 73
    13
  0
VERTEX
  5
7C6
  8
0
 62
     9
 10
0.0
 20
0.0
 30
0.0
 70
   128
 71
    10
 72
     8
 73
     9
  0
VERTEX
  5
7C7
  8
0
 62
     9
 10
0.0
 20
0.0
 30
0.0
 70
   128
 71
    16
 72
    17
 73
    18
  0
SEQEND
  5
7C8
  8
0
 62
     9
  0
ENDBLK
  5
7CB
  8
0
  0
BLOCK
  8
0
  2
E3_NODE_46_
 70
     0
 10
0.0
 20
0.0
 30
0.0
  3
E3_NODE_46_
  1

  0
POLYLINE
  5
7CD
  8
0
 62
     9
 66
     1
 10
0.0
 20
0.0
 30
0.0
 70
    64
 71
    18
 72
    18
  0
VERTEX
  5
7CE
  8
0
 10
0.0
 20
-177.5
 30
3.0
 70
   192
  0
VERTEX
  5
7CF
  8
0
 10
-17.67700004577637
 20
-171.0659942626953
 30
3.0
 70
   192
  0
VERTEX
  5
7D0
  8
0
 10
-17.67700004577637
 20
-171.0659942626953
 30
-3.0
 70
   192
  0
VERTEX
  5
7D1
  8
0
 10
-27.08200073242188
 20
-154.7749938964844
 30
-3.0
 70
   192
  0
VERTEX
  5
7D2
  8
0
 10
-23.81599998474121
 20
-136.25
 30
-3.0
 70
   192
  0
VERTEX
  5
7D3
  8
0
 10
-27.08200073242188
 20
-154.7749938964844
 30
3.0
 70
   192
  0
VERTEX
  5
7D4
  8
0
 10
-23.81599998474121
 20
-136.25
 30
3.0
 70
   192
  0
VERTEX
  5
7D5
  8
0
 10
-9.406000137329102
 20
-124.1579971313477
 30
3.0
 70
   192
  0
VERTEX
  5
7D6
  8
0
 10
-9.406000137329102
 20
-124.1579971313477
 30
-3.0
 70
   192
  0
VERTEX
  5
7D7
  8
0
 10
9.406000137329102
 20
-124.1579971313477
 30
-3.0
 70
   192
  0
VERTEX
  5
7D8
  8
0
 10
9.406000137329102
 20
-124.1579971313477
 30
3.0
 70
   192
  0
VERTEX
  5
7D9
  8
0
 10
23.81599998474121
 20
-136.25
 30
3.0
 70
   192
  0
VERTEX
  5
7DA
  8
0
 10
27.08200073242188
 20
-154.7749938964844
 30
3.0
 70
   192
  0
VERTEX
  5
7DB
  8
0
 10
27.08200073242188
 20
-154.7749938964844
 30
-3.0
 70
   192
  0
VERTEX
  5
7DC
  8
0
 10
23.81599998474121
 20
-136.25
 30
-3.0
 70
   192
  0
VERTEX
  5
7DD
  8
0
 10
17.67700004577637
 20
-171.0659942626953
 30
3.0
 70
   192
  0
VERTEX
  5
7DE
  8
0
 10
17.67700004577637
 20
-171.0659942626953
 30
-3.0
 70
   192
  0
VERTEX
  5
7DF
  8
0
 10
0.0
 20
-177.5
 30
-3.0
 70
   192
  0
VERTEX
  5
7E0
  8
0
 62
     9
 10
0.0
 20
0.0
 30
0.0
 70
   128
 71
     3
 72
     2
 73
     1
  0
VERTEX
  5
7E1
  8
0
 62
     9
 10
0.0
 20
0.0
 30
0.0
 70
   128
 71
     2
 72
     3
 73
     4
  0
VERTEX
  5
7E2
  8
0
 62
     9
 10
0.0
 20
0.0
 30
0.0
 70
   128
 71
     6
 72
     4
 73
     5
  0
VERTEX
  5
7E3
  8
0
 62
     9
 10
0.0
 20
0.0
 30
0.0
 70
   128
 71
     9
 72
     8
 73
     7
  0
VERTEX
  5
7E4
  8
0
 62
     9
 10
0.0
 20
0.0
 30
0.0
 70
   128
 71
     8
 72
     9
 73
    10
  0
VERTEX
  5
7E5
  8
0
 62
     9
 10
0.0
 20
0.0
 30
0.0
 70
   128
 71
    12
 72
    11
 73
    10
  0
VERTEX
  5
7E6
  8
0
 62
     9
 10
0.0
 20
0.0
 30
0.0
 70
   128
 71
    15
 72
    14
 73
    13
  0
VERTEX
  5
7E7
  8
0
 62
     9
 10
0.0
 20
0.0
 30
0.0
 70
   128
 71
    14
 72
    17
 73
    16
  0
VERTEX
  5
7E8
  8
0
 62
     9
 10
0.0
 20
0.0
 30
0.0
 70
   128
 71
     1
 72
    16
 73
    17
  0
VERTEX
  5
7E9
  8
0
 62
     9
 10
0.0
 20
0.0
 30
0.0
 70
   128
 71
    17
 72
    18
 73
     1
  0
VERTEX
  5
7EA
  8
0
 62
     9
 10
0.0
 20
0.0
 30
0.0
 70
   128
 71
    16
 72
    13
 73
    14
  0
VERTEX
  5
7EB
  8
0
 62
     9
 10
0.0
 20
0.0
 30
0.0
 70
   128
 71
    13
 72
    12
 73
    15
  0
VERTEX
  5
7EC
  8
0
 62
     9
 10
0.0
 20
0.0
 30
0.0
 70
   128
 71
    10
 72
    15
 73
    12
  0
VERTEX
  5
7ED
  8
0
 62
     9
 10
0.0
 20
0.0
 30
0.0
 70
   128
 71
    10
 72
    11
 73
     8
  0
VERTEX
  5
7EE
  8
0
 62
     9
 10
0.0
 20
0.0
 30
0.0
 70
   128
 71
     7
 72
     5
 73
     9
  0
VERTEX
  5
7EF
  8
0
 62
     9
 10
0.0
 20
0.0
 30
0.0
 70
   128
 71
     5
 72
     7
 73
     6
  0
VERTEX
  5
7F0
  8
0
 62
     9
 10
0.0
 20
0.0
 30
0.0
 70
   128
 71
     4
 72
     6
 73
     2
  0
VERTEX
  5
7F1
  8
0
 62
     9
 10
0.0
 20
0.0
 30
0.0
 70
   128
 71
     1
 72
    18
 73
     3
  0
SEQEND
  5
7F2
  8
0
 62
     9
  0
ENDBLK
  5
7F5
  8
0
  0
BLOCK
  8
0
  2
E3_NODE_47_
 70
     0
 10
0.0
 20
0.0
 30
0.0
  3
E3_NODE_47_
  1

  0
POLYLINE
  5
7F7
  8
0
 62
     9
 66
     1
 10
0.0
 20
0.0
 30
0.0
 70
    64
 71
     9
 72
     7
  0
VERTEX
  5
7F8
  8
0
 10
9.406000137329102
 20
-124.1579971313477
 30
-3.0
 70
   192
  0
VERTEX
  5
7F9
  8
0
 10
23.81599998474121
 20
-136.25
 30
-3.0
 70
   192
  0
VERTEX
  5
7FA
  8
0
 10
27.08200073242188
 20
-154.7749938964844
 30
-3.0
 70
   192
  0
VERTEX
  5
7FB
  8
0
 10
17.67700004577637
 20
-171.0659942626953
 30
-3.0
 70
   192
  0
VERTEX
  5
7FC
  8
0
 10
-23.81599998474121
 20
-136.25
 30
-3.0
 70
   192
  0
VERTEX
  5
7FD
  8
0
 10
-9.406000137329102
 20
-124.1579971313477
 30
-3.0
 70
   192
  0
VERTEX
  5
7FE
  8
0
 10
-17.67700004577637
 20
-171.0659942626953
 30
-3.0
 70
   192
  0
VERTEX
  5
7FF
  8
0
 10
-27.08200073242188
 20
-154.7749938964844
 30
-3.0
 70
   192
  0
VERTEX
  5
800
  8
0
 10
0.0
 20
-177.5
 30
-3.0
 70
   192
  0
VERTEX
  5
801
  8
0
 62
     9
 10
0.0
 20
0.0
 30
0.0
 70
   128
 71
     3
 72
     2
 73
     1
  0
VERTEX
  5
802
  8
0
 62
     9
 10
0.0
 20
0.0
 30
0.0
 70
   128
 71
     6
 72
     5
 73
     4
  0
VERTEX
  5
803
  8
0
 62
     9
 10
0.0
 20
0.0
 30
0.0
 70
   128
 71
     8
 72
     7
 73
     4
  0
VERTEX
  5
804
  8
0
 62
     9
 10
0.0
 20
0.0
 30
0.0
 70
   128
 71
     4
 72
     1
 73
     6
  0
VERTEX
  5
805
  8
0
 62
     9
 10
0.0
 20
0.0
 30
0.0
 70
   128
 71
     7
 72
     9
 73
     4
  0
VERTEX
  5
806
  8
0
 62
     9
 10
0.0
 20
0.0
 30
0.0
 70
   128
 71
     4
 72
     5
 73
     8
  0
VERTEX
  5
807
  8
0
 62
     9
 10
0.0
 20
0.0
 30
0.0
 70
   128
 71
     1
 72
     4
 73
     3
  0
SEQEND
  5
808
  8
0
 62
     9
  0
ENDBLK
  5
80B
  8
0
  0
BLOCK
  8
0
  2
E3_NODE_48_
 70
     0
 10
0.0
 20
0.0
 30
0.0
  3
E3_NODE_48_
  1

  0
POLYLINE
  5
80D
  8
0
 62
     9
 66
     1
 10
0.0
 20
0.0
 30
0.0
 70
    64
 71
     8
 72
     6
  0
VERTEX
  5
80E
  8
0
 10
-12.72799968719482
 20
12.72799968719482
 30
92.0
 70
   192
  0
VERTEX
  5
80F
  8
0
 10
18.0
 20
0.0
 30
92.0
 70
   192
  0
VERTEX
  5
810
  8
0
 10
12.72799968719482
 20
12.72799968719482
 30
92.0
 70
   192
  0
VERTEX
  5
811
  8
0
 10
0.0
 20
-18.0
 30
92.0
 70
   192
  0
VERTEX
  5
812
  8
0
 10
-18.0
 20
0.0
 30
92.0
 70
   192
  0
VERTEX
  5
813
  8
0
 10
12.72799968719482
 20
-12.72799968719482
 30
92.0
 70
   192
  0
VERTEX
  5
814
  8
0
 10
-12.72799968719482
 20
-12.72799968719482
 30
92.0
 70
   192
  0
VERTEX
  5
815
  8
0
 10
0.0
 20
18.0
 30
92.0
 70
   192
  0
VERTEX
  5
816
  8
0
 62
     9
 10
0.0
 20
0.0
 30
0.0
 70
   128
 71
     3
 72
     2
 73
     1
  0
VERTEX
  5
817
  8
0
 62
     9
 10
0.0
 20
0.0
 30
0.0
 70
   128
 71
     5
 72
     1
 73
     4
  0
VERTEX
  5
818
  8
0
 62
     9
 10
0.0
 20
0.0
 30
0.0
 70
   128
 71
     2
 72
     6
 73
     1
  0
VERTEX
  5
819
  8
0
 62
     9
 10
0.0
 20
0.0
 30
0.0
 70
   128
 71
     4
 72
     7
 73
     5
  0
VERTEX
  5
81A
  8
0
 62
     9
 10
0.0
 20
0.0
 30
0.0
 70
   128
 71
     1
 72
     6
 73
     4
  0
VERTEX
  5
81B
  8
0
 62
     9
 10
0.0
 20
0.0
 30
0.0
 70
   128
 71
     1
 72
     8
 73
     3
  0
SEQEND
  5
81C
  8
0
 62
     9
  0
ENDBLK
  5
81F
  8
0
  0
BLOCK
  8
0
  2
E3_NODE_49_
 70
     0
 10
0.0
 20
0.0
 30
0.0
  3
E3_NODE_49_
  1

  0
POLYLINE
  5
821
  8
0
 62
     9
 66
     1
 10
0.0
 20
0.0
 30
0.0
 70
    64
 71
    16
 72
    16
  0
VERTEX
  5
822
  8
0
 10
-12.72799968719482
 20
12.72799968719482
 30
92.0
 70
   192
  0
VERTEX
  5
823
  8
0
 10
-12.72799968719482
 20
12.72799968719482
 30
0.0
 70
   192
  0
VERTEX
  5
824
  8
0
 10
-18.0
 20
0.0
 30
0.0
 70
   192
  0
VERTEX
  5
825
  8
0
 10
0.0
 20
18.0
 30
92.0
 70
   192
  0
VERTEX
  5
826
  8
0
 10
0.0
 20
18.0
 30
0.0
 70
   192
  0
VERTEX
  5
827
  8
0
 10
12.72799968719482
 20
12.72799968719482
 30
92.0
 70
   192
  0
VERTEX
  5
828
  8
0
 10
12.72799968719482
 20
12.72799968719482
 30
0.0
 70
   192
  0
VERTEX
  5
829
  8
0
 10
18.0
 20
0.0
 30
92.0
 70
   192
  0
VERTEX
  5
82A
  8
0
 10
18.0
 20
0.0
 30
0.0
 70
   192
  0
VERTEX
  5
82B
  8
0
 10
12.72799968719482
 20
-12.72799968719482
 30
92.0
 70
   192
  0
VERTEX
  5
82C
  8
0
 10
12.72799968719482
 20
-12.72799968719482
 30
0.0
 70
   192
  0
VERTEX
  5
82D
  8
0
 10
0.0
 20
-18.0
 30
92.0
 70
   192
  0
VERTEX
  5
82E
  8
0
 10
0.0
 20
-18.0
 30
0.0
 70
   192
  0
VERTEX
  5
82F
  8
0
 10
-12.72799968719482
 20
-12.72799968719482
 30
92.0
 70
   192
  0
VERTEX
  5
830
  8
0
 10
-12.72799968719482
 20
-12.72799968719482
 30
0.0
 70
   192
  0
VERTEX
  5
831
  8
0
 10
-18.0
 20
0.0
 30
92.0
 70
   192
  0
VERTEX
  5
832
  8
0
 62
     9
 10
0.0
 20
0.0
 30
0.0
 70
   128
 71
     3
 72
     2
 73
     1
  0
VERTEX
  5
833
  8
0
 62
     9
 10
0.0
 20
0.0
 30
0.0
 70
   128
 71
     2
 72
     5
 73
     4
  0
VERTEX
  5
834
  8
0
 62
     9
 10
0.0
 20
0.0
 30
0.0
 70
   128
 71
     5
 72
     7
 73
     6
  0
VERTEX
  5
835
  8
0
 62
     9
 10
0.0
 20
0.0
 30
0.0
 70
   128
 71
     7
 72
     9
 73
     8
  0
VERTEX
  5
836
  8
0
 62
     9
 10
0.0
 20
0.0
 30
0.0
 70
   128
 71
     9
 72
    11
 73
    10
  0
VERTEX
  5
837
  8
0
 62
     9
 10
0.0
 20
0.0
 30
0.0
 70
   128
 71
    11
 72
    13
 73
    12
  0
VERTEX
  5
838
  8
0
 62
     9
 10
0.0
 20
0.0
 30
0.0
 70
   128
 71
    13
 72
    15
 73
    14
  0
VERTEX
  5
839
  8
0
 62
     9
 10
0.0
 20
0.0
 30
0.0
 70
   128
 71
    15
 72
     3
 73
    16
  0
VERTEX
  5
83A
  8
0
 62
     9
 10
0.0
 20
0.0
 30
0.0
 70
   128
 71
    16
 72
    14
 73
    15
  0
VERTEX
  5
83B
  8
0
 62
     9
 10
0.0
 20
0.0
 30
0.0
 70
   128
 71
    14
 72
    12
 73
    13
  0
VERTEX
  5
83C
  8
0
 62
     9
 10
0.0
 20
0.0
 30
0.0
 70
   128
 71
    12
 72
    10
 73
    11
  0
VERTEX
  5
83D
  8
0
 62
     9
 10
0.0
 20
0.0
 30
0.0
 70
   128
 71
    10
 72
     8
 73
     9
  0
VERTEX
  5
83E
  8
0
 62
     9
 10
0.0
 20
0.0
 30
0.0
 70
   128
 71
     8
 72
     6
 73
     7
  0
VERTEX
  5
83F
  8
0
 62
     9
 10
0.0
 20
0.0
 30
0.0
 70
   128
 71
     6
 72
     4
 73
     5
  0
VERTEX
  5
840
  8
0
 62
     9
 10
0.0
 20
0.0
 30
0.0
 70
   128
 71
     4
 72
     1
 73
     2
  0
VERTEX
  5
841
  8
0
 62
     9
 10
0.0
 20
0.0
 30
0.0
 70
   128
 71
     1
 72
    16
 73
     3
  0
SEQEND
  5
842
  8
0
 62
     9
  0
ENDBLK
  5
845
  8
0
  0
BLOCK
  8
0
  2
E3_NODE_50_
 70
     0
 10
0.0
 20
0.0
 30
0.0
  3
E3_NODE_50_
  1

  0
POLYLINE
  5
847
  8
0
 62
     9
 66
     1
 10
0.0
 20
0.0
 30
0.0
 70
    64
 71
    10
 72
    10
  0
VERTEX
  5
848
  8
0
 10
2.318000078201294
 20
-142.8670043945312
 30
51.5
 70
   192
  0
VERTEX
  5
849
  8
0
 10
2.318000078201294
 20
-142.8670043945312
 30
54.96500015258789
 70
   192
  0
VERTEX
  5
84A
  8
0
 10
7.5
 20
-150.0
 30
54.96500015258789
 70
   192
  0
VERTEX
  5
84B
  8
0
 10
-6.067999839782715
 20
-145.5919952392578
 30
51.5
 70
   192
  0
VERTEX
  5
84C
  8
0
 10
-6.067999839782715
 20
-145.5919952392578
 30
54.96500015258789
 70
   192
  0
VERTEX
  5
84D
  8
0
 10
-6.067999839782715
 20
-154.4080047607422
 30
51.5
 70
   192
  0
VERTEX
  5
84E
  8
0
 10
-6.067999839782715
 20
-154.4080047607422
 30
54.96500015258789
 70
   192
  0
VERTEX
  5
84F
  8
0
 10
2.318000078201294
 20
-157.1329956054688
 30
51.5
 70
   192
  0
VERTEX
  5
850
  8
0
 10
2.318000078201294
 20
-157.1329956054688
 30
54.96500015258789
 70
   192
  0
VERTEX
  5
851
  8
0
 10
7.5
 20
-150.0
 30
51.5
 70
   192
  0
VERTEX
  5
852
  8
0
 62
     9
 10
0.0
 20
0.0
 30
0.0
 70
   128
 71
     3
 72
     2
 73
     1
  0
VERTEX
  5
853
  8
0
 62
     9
 10
0.0
 20
0.0
 30
0.0
 70
   128
 71
     2
 72
     5
 73
     4
  0
VERTEX
  5
854
  8
0
 62
     9
 10
0.0
 20
0.0
 30
0.0
 70
   128
 71
     5
 72
     7
 73
     6
  0
VERTEX
  5
855
  8
0
 62
     9
 10
0.0
 20
0.0
 30
0.0
 70
   128
 71
     7
 72
     9
 73
     8
  0
VERTEX
  5
856
  8
0
 62
     9
 10
0.0
 20
0.0
 30
0.0
 70
   128
 71
     9
 72
     3
 73
    10
  0
VERTEX
  5
857
  8
0
 62
     9
 10
0.0
 20
0.0
 30
0.0
 70
   128
 71
    10
 72
     8
 73
     9
  0
VERTEX
  5
858
  8
0
 62
     9
 10
0.0
 20
0.0
 30
0.0
 70
   128
 71
     8
 72
     6
 73
     7
  0
VERTEX
  5
859
  8
0
 62
     9
 10
0.0
 20
0.0
 30
0.0
 70
   128
 71
     6
 72
     4
 73
     5
  0
VERTEX
  5
85A
  8
0
 62
     9
 10
0.0
 20
0.0
 30
0.0
 70
   128
 71
     4
 72
     1
 73
     2
  0
VERTEX
  5
85B
  8
0
 62
     9
 10
0.0
 20
0.0
 30
0.0
 70
   128
 71
     1
 72
    10
 73
     3
  0
SEQEND
  5
85C
  8
0
 62
     9
  0
ENDBLK
  5
85F
  8
0
  0
BLOCK
  8
0
  2
E3_NODE_51_
 70
     0
 10
0.0
 20
0.0
 30
0.0
  3
E3_NODE_51_
  1

  0
POLYLINE
  5
861
  8
0
 62
     9
 66
     1
 10
0.0
 20
0.0
 30
0.0
 70
    64
 71
    12
 72
    12
  0
VERTEX
  5
862
  8
0
 10
13.37899971008301
 20
-143.5570068359375
 30
51.5
 70
   192
  0
VERTEX
  5
863
  8
0
 10
3.303999900817871
 20
-135.5220031738281
 30
51.5
 70
   192
  0
VERTEX
  5
864
  8
0
 10
2.318000078201294
 20
-142.8670043945312
 30
51.5
 70
   192
  0
VERTEX
  5
865
  8
0
 10
-9.258999824523926
 20
-138.3899993896484
 30
51.5
 70
   192
  0
VERTEX
  5
866
  8
0
 10
-6.067999839782715
 20
-145.5919952392578
 30
51.5
 70
   192
  0
VERTEX
  5
867
  8
0
 10
-14.85000038146973
 20
-150.0
 30
51.5
 70
   192
  0
VERTEX
  5
868
  8
0
 10
-6.067999839782715
 20
-154.4080047607422
 30
51.5
 70
   192
  0
VERTEX
  5
869
  8
0
 10
-9.258999824523926
 20
-161.6100006103516
 30
51.5
 70
   192
  0
VERTEX
  5
86A
  8
0
 10
3.303999900817871
 20
-164.4779968261719
 30
51.5
 70
   192
  0
VERTEX
  5
86B
  8
0
 10
2.318000078201294
 20
-157.1329956054688
 30
51.5
 70
   192
  0
VERTEX
  5
86C
  8
0
 10
13.37899971008301
 20
-156.4429931640625
 30
51.5
 70
   192
  0
VERTEX
  5
86D
  8
0
 10
7.5
 20
-150.0
 30
51.5
 70
   192
  0
VERTEX
  5
86E
  8
0
 62
     9
 10
0.0
 20
0.0
 30
0.0
 70
   128
 71
     3
 72
     2
 73
     1
  0
VERTEX
  5
86F
  8
0
 62
     9
 10
0.0
 20
0.0
 30
0.0
 70
   128
 71
     3
 72
     5
 73
     4
  0
VERTEX
  5
870
  8
0
 62
     9
 10
0.0
 20
0.0
 30
0.0
 70
   128
 71
     5
 72
     7
 73
     6
  0
VERTEX
  5
871
  8
0
 62
     9
 10
0.0
 20
0.0
 30
0.0
 70
   128
 71
     4
 72
     2
 73
     3
  0
VERTEX
  5
872
  8
0
 62
     9
 10
0.0
 20
0.0
 30
0.0
 70
   128
 71
     7
 72
     8
 73
     6
  0
VERTEX
  5
873
  8
0
 62
     9
 10
0.0
 20
0.0
 30
0.0
 70
   128
 71
     6
 72
     4
 73
     5
  0
VERTEX
  5
874
  8
0
 62
     9
 10
0.0
 20
0.0
 30
0.0
 70
   128
 71
    10
 72
     9
 73
     8
  0
VERTEX
  5
875
  8
0
 62
     9
 10
0.0
 20
0.0
 30
0.0
 70
   128
 71
     8
 72
     7
 73
    10
  0
VERTEX
  5
876
  8
0
 62
     9
 10
0.0
 20
0.0
 30
0.0
 70
   128
 71
    10
 72
    12
 73
    11
  0
VERTEX
  5
877
  8
0
 62
     9
 10
0.0
 20
0.0
 30
0.0
 70
   128
 71
    11
 72
     9
 73
    10
  0
VERTEX
  5
878
  8
0
 62
     9
 10
0.0
 20
0.0
 30
0.0
 70
   128
 71
     1
 72
    12
 73
     3
  0
VERTEX
  5
879
  8
0
 62
     9
 10
0.0
 20
0.0
 30
0.0
 70
   128
 71
     1
 72
    11
 73
    12
  0
SEQEND
  5
87A
  8
0
 62
     9
  0
ENDBLK
  5
87D
  8
0
  0
BLOCK
  8
0
  2
E3_NODE_52_
 70
     0
 10
0.0
 20
0.0
 30
0.0
  3
E3_NODE_52_
  1

  0
POLYLINE
  5
87F
  8
0
 62
     9
 66
     1
 10
0.0
 20
0.0
 30
0.0
 70
    64
 71
    15
 72
    15
  0
VERTEX
  5
880
  8
0
 10
-9.258999824523926
 20
-138.3899993896484
 30
51.5
 70
   192
  0
VERTEX
  5
881
  8
0
 10
-9.258999824523926
 20
-138.3899993896484
 30
46.35699844360352
 70
   192
  0
VERTEX
  5
882
  8
0
 10
-14.85000038146973
 20
-150.0
 30
46.35699844360352
 70
   192
  0
VERTEX
  5
883
  8
0
 10
3.303999900817871
 20
-135.5220031738281
 30
51.5
 70
   192
  0
VERTEX
  5
884
  8
0
 10
3.303999900817871
 20
-135.5220031738281
 30
46.35699844360352
 70
   192
  0
VERTEX
  5
885
  8
0
 10
13.37899971008301
 20
-143.5570068359375
 30
51.5
 70
   192
  0
VERTEX
  5
886
  8
0
 10
13.37899971008301
 20
-143.5570068359375
 30
46.35699844360352
 70
   192
  0
VERTEX
  5
887
  8
0
 10
13.37899971008301
 20
-156.4429931640625
 30
51.5
 70
   192
  0
VERTEX
  5
888
  8
0
 10
14.85000038146973
 20
-150.0
 30
46.35699844360352
 70
   192
  0
VERTEX
  5
889
  8
0
 10
13.37899971008301
 20
-156.4429931640625
 30
46.35699844360352
 70
   192
  0
VERTEX
  5
88A
  8
0
 10
3.303999900817871
 20
-164.4779968261719
 30
51.5
 70
   192
  0
VERTEX
  5
88B
  8
0
 10
3.303999900817871
 20
-164.4779968261719
 30
46.35699844360352
 70
   192
  0
VERTEX
  5
88C
  8
0
 10
-9.258999824523926
 20
-161.6100006103516
 30
51.5
 70
   192
  0
VERTEX
  5
88D
  8
0
 10
-9.258999824523926
 20
-161.6100006103516
 30
46.35699844360352
 70
   192
  0
VERTEX
  5
88E
  8
0
 10
-14.85000038146973
 20
-150.0
 30
51.5
 70
   192
  0
VERTEX
  5
88F
  8
0
 62
     9
 10
0.0
 20
0.0
 30
0.0
 70
   128
 71
     3
 72
     2
 73
     1
  0
VERTEX
  5
890
  8
0
 62
     9
 10
0.0
 20
0.0
 30
0.0
 70
   128
 71
     2
 72
     5
 73
     4
  0
VERTEX
  5
891
  8
0
 62
     9
 10
0.0
 20
0.0
 30
0.0
 70
   128
 71
     5
 72
     7
 73
     6
  0
VERTEX
  5
892
  8
0
 62
     9
 10
0.0
 20
0.0
 30
0.0
 70
   128
 71
     9
 72
     8
 73
     6
  0
VERTEX
  5
893
  8
0
 62
     9
 10
0.0
 20
0.0
 30
0.0
 70
   128
 71
     9
 72
    10
 73
     8
  0
VERTEX
  5
894
  8
0
 62
     9
 10
0.0
 20
0.0
 30
0.0
 70
   128
 71
    10
 72
    12
 73
    11
  0
VERTEX
  5
895
  8
0
 62
     9
 10
0.0
 20
0.0
 30
0.0
 70
   128
 71
    12
 72
    14
 73
    13
  0
VERTEX
  5
896
  8
0
 62
     9
 10
0.0
 20
0.0
 30
0.0
 70
   128
 71
    14
 72
     3
 73
    15
  0
VERTEX
  5
897
  8
0
 62
     9
 10
0.0
 20
0.0
 30
0.0
 70
   128
 71
    15
 72
    13
 73
    14
  0
VERTEX
  5
898
  8
0
 62
     9
 10
0.0
 20
0.0
 30
0.0
 70
   128
 71
    13
 72
    11
 73
    12
  0
VERTEX
  5
899
  8
0
 62
     9
 10
0.0
 20
0.0
 30
0.0
 70
   128
 71
    11
 72
     8
 73
    10
  0
VERTEX
  5
89A
  8
0
 62
     9
 10
0.0
 20
0.0
 30
0.0
 70
   128
 71
     6
 72
     7
 73
     9
  0
VERTEX
  5
89B
  8
0
 62
     9
 10
0.0
 20
0.0
 30
0.0
 70
   128
 71
     6
 72
     4
 73
     5
  0
VERTEX
  5
89C
  8
0
 62
     9
 10
0.0
 20
0.0
 30
0.0
 70
   128
 71
     4
 72
     1
 73
     2
  0
VERTEX
  5
89D
  8
0
 62
     9
 10
0.0
 20
0.0
 30
0.0
 70
   128
 71
     1
 72
    15
 73
     3
  0
SEQEND
  5
89E
  8
0
 62
     9
  0
ENDBLK
  5
8A1
  8
0
  0
BLOCK
  8
0
  2
E3_NODE_53_
 70
     0
 10
0.0
 20
0.0
 30
0.0
  3
E3_NODE_53_
  1

  0
POLYLINE
  5
8A3
  8
0
 62
     9
 66
     1
 10
0.0
 20
0.0
 30
0.0
 70
    64
 71
     8
 72
     8
  0
VERTEX
  5
8A4
  8
0
 10
-24.73800086975098
 20
-2.0
 30
40.13600158691406
 70
   192
  0
VERTEX
  5
8A5
  8
0
 10
-26.63999938964844
 20
0.0
 30
39.51800155639648
 70
   192
  0
VERTEX
  5
8A6
  8
0
 10
-14.40900039672852
 20
0.0
 30
1.875
 70
   192
  0
VERTEX
  5
8A7
  8
0
 10
-22.83600044250488
 20
0.0
 30
40.75400161743164
 70
   192
  0
VERTEX
  5
8A8
  8
0
 10
-12.30599975585938
 20
-2.0
 30
1.875
 70
   192
  0
VERTEX
  5
8A9
  8
0
 10
-10.20300006866455
 20
0.0
 30
1.875
 70
   192
  0
VERTEX
  5
8AA
  8
0
 10
-12.30599975585938
 20
2.0
 30
1.875
 70
   192
  0
VERTEX
  5
8AB
  8
0
 10
-24.73800086975098
 20
2.0
 30
40.13600158691406
 70
   192
  0
VERTEX
  5
8AC
  8
0
 62
     9
 10
0.0
 20
0.0
 30
0.0
 70
   128
 71
     3
 72
     2
 73
     1
  0
VERTEX
  5
8AD
  8
0
 62
     9
 10
0.0
 20
0.0
 30
0.0
 70
   128
 71
     5
 72
     1
 73
     4
  0
VERTEX
  5
8AE
  8
0
 62
     9
 10
0.0
 20
0.0
 30
0.0
 70
   128
 71
     7
 72
     6
 73
     4
  0
VERTEX
  5
8AF
  8
0
 62
     9
 10
0.0
 20
0.0
 30
0.0
 70
   128
 71
     3
 72
     7
 73
     8
  0
VERTEX
  5
8B0
  8
0
 62
     9
 10
0.0
 20
0.0
 30
0.0
 70
   128
 71
     8
 72
     2
 73
     3
  0
VERTEX
  5
8B1
  8
0
 62
     9
 10
0.0
 20
0.0
 30
0.0
 70
   128
 71
     4
 72
     8
 73
     7
  0
VERTEX
  5
8B2
  8
0
 62
     9
 10
0.0
 20
0.0
 30
0.0
 70
   128
 71
     4
 72
     6
 73
     5
  0
VERTEX
  5
8B3
  8
0
 62
     9
 10
0.0
 20
0.0
 30
0.0
 70
   128
 71
     1
 72
     5
 73
     3
  0
SEQEND
  5
8B4
  8
0
 62
     9
  0
ENDBLK
  5
8B7
  8
0
  0
BLOCK
  8
0
  2
E3_NODE_54_
 70
     0
 10
0.0
 20
0.0
 30
0.0
  3
E3_NODE_54_
  1

  0
POLYLINE
  5
8B9
  8
0
 62
     9
 66
     1
 10
0.0
 20
0.0
 30
0.0
 70
    64
 71
     8
 72
     6
  0
VERTEX
  5
8BA
  8
0
 10
0.0
 20
-132.0
 30
49.0
 70
   192
  0
VERTEX
  5
8BB
  8
0
 10
-18.0
 20
-150.0
 30
49.0
 70
   192
  0
VERTEX
  5
8BC
  8
0
 10
-12.72799968719482
 20
-162.7279968261719
 30
49.0
 70
   192
  0
VERTEX
  5
8BD
  8
0
 10
0.0
 20
-168.0
 30
49.0
 70
   192
  0
VERTEX
  5
8BE
  8
0
 10
18.0
 20
-150.0
 30
49.0
 70
   192
  0
VERTEX
  5
8BF
  8
0
 10
12.72799968719482
 20
-137.2720031738281
 30
49.0
 70
   192
  0
VERTEX
  5
8C0
  8
0
 10
-12.72799968719482
 20
-137.2720031738281
 30
49.0
 70
   192
  0
VERTEX
  5
8C1
  8
0
 10
12.72799968719482
 20
-162.7279968261719
 30
49.0
 70
   192
  0
VERTEX
  5
8C2
  8
0
 62
     9
 10
0.0
 20
0.0
 30
0.0
 70
   128
 71
     3
 72
     2
 73
     1
  0
VERTEX
  5
8C3
  8
0
 62
     9
 10
0.0
 20
0.0
 30
0.0
 70
   128
 71
     6
 72
     5
 73
     4
  0
VERTEX
  5
8C4
  8
0
 62
     9
 10
0.0
 20
0.0
 30
0.0
 70
   128
 71
     2
 72
     7
 73
     1
  0
VERTEX
  5
8C5
  8
0
 62
     9
 10
0.0
 20
0.0
 30
0.0
 70
   128
 71
     5
 72
     8
 73
     4
  0
VERTEX
  5
8C6
  8
0
 62
     9
 10
0.0
 20
0.0
 30
0.0
 70
   128
 71
     4
 72
     1
 73
     6
  0
VERTEX
  5
8C7
  8
0
 62
     9
 10
0.0
 20
0.0
 30
0.0
 70
   128
 71
     1
 72
     4
 73
     3
  0
SEQEND
  5
8C8
  8
0
 62
     9
  0
ENDBLK
  5
8CB
  8
0
  0
BLOCK
  8
0
  2
E3_NODE_55_
 70
     0
 10
0.0
 20
0.0
 30
0.0
  3
E3_NODE_55_
  1

  0
POLYLINE
  5
8CD
  8
0
 62
     9
 66
     1
 10
0.0
 20
0.0
 30
0.0
 70
    64
 71
    16
 72
    16
  0
VERTEX
  5
8CE
  8
0
 10
12.72799968719482
 20
-137.2720031738281
 30
14.0
 70
   192
  0
VERTEX
  5
8CF
  8
0
 10
12.72799968719482
 20
-137.2720031738281
 30
49.0
 70
   192
  0
VERTEX
  5
8D0
  8
0
 10
18.0
 20
-150.0
 30
49.0
 70
   192
  0
VERTEX
  5
8D1
  8
0
 10
0.0
 20
-132.0
 30
14.0
 70
   192
  0
VERTEX
  5
8D2
  8
0
 10
0.0
 20
-132.0
 30
49.0
 70
   192
  0
VERTEX
  5
8D3
  8
0
 10
-12.72799968719482
 20
-137.2720031738281
 30
14.0
 70
   192
  0
VERTEX
  5
8D4
  8
0
 10
-12.72799968719482
 20
-137.2720031738281
 30
49.0
 70
   192
  0
VERTEX
  5
8D5
  8
0
 10
-18.0
 20
-150.0
 30
14.0
 70
   192
  0
VERTEX
  5
8D6
  8
0
 10
-18.0
 20
-150.0
 30
49.0
 70
   192
  0
VERTEX
  5
8D7
  8
0
 10
-12.72799968719482
 20
-162.7279968261719
 30
14.0
 70
   192
  0
VERTEX
  5
8D8
  8
0
 10
-12.72799968719482
 20
-162.7279968261719
 30
49.0
 70
   192
  0
VERTEX
  5
8D9
  8
0
 10
0.0
 20
-168.0
 30
14.0
 70
   192
  0
VERTEX
  5
8DA
  8
0
 10
0.0
 20
-168.0
 30
49.0
 70
   192
  0
VERTEX
  5
8DB
  8
0
 10
12.72799968719482
 20
-162.7279968261719
 30
14.0
 70
   192
  0
VERTEX
  5
8DC
  8
0
 10
12.72799968719482
 20
-162.7279968261719
 30
49.0
 70
   192
  0
VERTEX
  5
8DD
  8
0
 10
18.0
 20
-150.0
 30
14.0
 70
   192
  0
VERTEX
  5
8DE
  8
0
 62
     9
 10
0.0
 20
0.0
 30
0.0
 70
   128
 71
     3
 72
     2
 73
     1
  0
VERTEX
  5
8DF
  8
0
 62
     9
 10
0.0
 20
0.0
 30
0.0
 70
   128
 71
     2
 72
     5
 73
     4
  0
VERTEX
  5
8E0
  8
0
 62
     9
 10
0.0
 20
0.0
 30
0.0
 70
   128
 71
     5
 72
     7
 73
     6
  0
VERTEX
  5
8E1
  8
0
 62
     9
 10
0.0
 20
0.0
 30
0.0
 70
   128
 71
     7
 72
     9
 73
     8
  0
VERTEX
  5
8E2
  8
0
 62
     9
 10
0.0
 20
0.0
 30
0.0
 70
   128
 71
     9
 72
    11
 73
    10
  0
VERTEX
  5
8E3
  8
0
 62
     9
 10
0.0
 20
0.0
 30
0.0
 70
   128
 71
    11
 72
    13
 73
    12
  0
VERTEX
  5
8E4
  8
0
 62
     9
 10
0.0
 20
0.0
 30
0.0
 70
   128
 71
    13
 72
    15
 73
    14
  0
VERTEX
  5
8E5
  8
0
 62
     9
 10
0.0
 20
0.0
 30
0.0
 70
   128
 71
    15
 72
     3
 73
    16
  0
VERTEX
  5
8E6
  8
0
 62
     9
 10
0.0
 20
0.0
 30
0.0
 70
   128
 71
    16
 72
    14
 73
    15
  0
VERTEX
  5
8E7
  8
0
 62
     9
 10
0.0
 20
0.0
 30
0.0
 70
   128
 71
    14
 72
    12
 73
    13
  0
VERTEX
  5
8E8
  8
0
 62
     9
 10
0.0
 20
0.0
 30
0.0
 70
   128
 71
    12
 72
    10
 73
    11
  0
VERTEX
  5
8E9
  8
0
 62
     9
 10
0.0
 20
0.0
 30
0.0
 70
   128
 71
    10
 72
     8
 73
     9
  0
VERTEX
  5
8EA
  8
0
 62
     9
 10
0.0
 20
0.0
 30
0.0
 70
   128
 71
     8
 72
     6
 73
     7
  0
VERTEX
  5
8EB
  8
0
 62
     9
 10
0.0
 20
0.0
 30
0.0
 70
   128
 71
     6
 72
     4
 73
     5
  0
VERTEX
  5
8EC
  8
0
 62
     9
 10
0.0
 20
0.0
 30
0.0
 70
   128
 71
     4
 72
     1
 73
     2
  0
VERTEX
  5
8ED
  8
0
 62
     9
 10
0.0
 20
0.0
 30
0.0
 70
   128
 71
     1
 72
    16
 73
     3
  0
SEQEND
  5
8EE
  8
0
 62
     9
  0
ENDBLK
  5
8F1
  8
0
  0
BLOCK
  8
0
  2
E3_NODE_56_
 70
     0
 10
0.0
 20
0.0
 30
0.0
  3
E3_NODE_56_
  1

  0
POLYLINE
  5
8F3
  8
0
 62
     9
 66
     1
 10
0.0
 20
0.0
 30
0.0
 70
    64
 71
     8
 72
     6
  0
VERTEX
  5
8F4
  8
0
 10
0.0
 20
-168.0
 30
14.0
 70
   192
  0
VERTEX
  5
8F5
  8
0
 10
0.0
 20
-132.0
 30
14.0
 70
   192
  0
VERTEX
  5
8F6
  8
0
 10
12.72799968719482
 20
-137.2720031738281
 30
14.0
 70
   192
  0
VERTEX
  5
8F7
  8
0
 10
-12.72799968719482
 20
-162.7279968261719
 30
14.0
 70
   192
  0
VERTEX
  5
8F8
  8
0
 10
18.0
 20
-150.0
 30
14.0
 70
   192
  0
VERTEX
  5
8F9
  8
0
 10
-18.0
 20
-150.0
 30
14.0
 70
   192
  0
VERTEX
  5
8FA
  8
0
 10
-12.72799968719482
 20
-137.2720031738281
 30
14.0
 70
   192
  0
VERTEX
  5
8FB
  8
0
 10
12.72799968719482
 20
-162.7279968261719
 30
14.0
 70
   192
  0
VERTEX
  5
8FC
  8
0
 62
     9
 10
0.0
 20
0.0
 30
0.0
 70
   128
 71
     3
 72
     2
 73
     1
  0
VERTEX
  5
8FD
  8
0
 62
     9
 10
0.0
 20
0.0
 30
0.0
 70
   128
 71
     4
 72
     1
 73
     2
  0
VERTEX
  5
8FE
  8
0
 62
     9
 10
0.0
 20
0.0
 30
0.0
 70
   128
 71
     1
 72
     5
 73
     3
  0
VERTEX
  5
8FF
  8
0
 62
     9
 10
0.0
 20
0.0
 30
0.0
 70
   128
 71
     2
 72
     6
 73
     4
  0
VERTEX
  5
900
  8
0
 62
     9
 10
0.0
 20
0.0
 30
0.0
 70
   128
 71
     2
 72
     7
 73
     6
  0
VERTEX
  5
901
  8
0
 62
     9
 10
0.0
 20
0.0
 30
0.0
 70
   128
 71
     1
 72
     8
 73
     5
  0
SEQEND
  5
902
  8
0
 62
     9
  0
ENDBLK
  5
905
  8
0
  0
BLOCK
  8
0
  2
E3_NODE_57_
 70
     0
 10
0.0
 20
0.0
 30
0.0
  3
E3_NODE_57_
  1

  0
POLYLINE
  5
907
  8
0
 62
     9
 66
     1
 10
0.0
 20
0.0
 30
0.0
 70
    64
 71
     9
 72
     7
  0
VERTEX
  5
908
  8
0
 10
-21.06599998474121
 20
17.67700004577637
 30
-3.0
 70
   192
  0
VERTEX
  5
909
  8
0
 10
-4.775000095367432
 20
-27.08200073242188
 30
-3.0
 70
   192
  0
VERTEX
  5
90A
  8
0
 10
-21.06599998474121
 20
-17.67700004577637
 30
-3.0
 70
   192
  0
VERTEX
  5
90B
  8
0
 10
13.75
 20
23.81599998474121
 30
-3.0
 70
   192
  0
VERTEX
  5
90C
  8
0
 10
25.84199905395508
 20
9.406000137329102
 30
-3.0
 70
   192
  0
VERTEX
  5
90D
  8
0
 10
13.75
 20
-23.81599998474121
 30
-3.0
 70
   192
  0
VERTEX
  5
90E
  8
0
 10
-4.775000095367432
 20
27.08200073242188
 30
-3.0
 70
   192
  0
VERTEX
  5
90F
  8
0
 10
25.84199905395508
 20
-9.406000137329102
 30
-3.0
 70
   192
  0
VERTEX
  5
910
  8
0
 10
-27.5
 20
0.0
 30
-3.0
 70
   192
  0
VERTEX
  5
911
  8
0
 62
     9
 10
0.0
 20
0.0
 30
0.0
 70
   128
 71
     3
 72
     2
 73
     1
  0
VERTEX
  5
912
  8
0
 62
     9
 10
0.0
 20
0.0
 30
0.0
 70
   128
 71
     5
 72
     4
 73
     1
  0
VERTEX
  5
913
  8
0
 62
     9
 10
0.0
 20
0.0
 30
0.0
 70
   128
 71
     2
 72
     6
 73
     1
  0
VERTEX
  5
914
  8
0
 62
     9
 10
0.0
 20
0.0
 30
0.0
 70
   128
 71
     4
 72
     7
 73
     1
  0
VERTEX
  5
915
  8
0
 62
     9
 10
0.0
 20
0.0
 30
0.0
 70
   128
 71
     6
 72
     8
 73
     1
  0
VERTEX
  5
916
  8
0
 62
     9
 10
0.0
 20
0.0
 30
0.0
 70
   128
 71
     1
 72
     9
 73
     3
  0
VERTEX
  5
917
  8
0
 62
     9
 10
0.0
 20
0.0
 30
0.0
 70
   128
 71
     1
 72
     8
 73
     5
  0
SEQEND
  5
918
  8
0
 62
     9
  0
ENDBLK
  5
91B
  8
0
  0
BLOCK
  8
0
  2
E3_NODE_58_
 70
     0
 10
0.0
 20
0.0
 30
0.0
  3
E3_NODE_58_
  1

  0
POLYLINE
  5
91D
  8
0
 62
     9
 66
     1
 10
0.0
 20
0.0
 30
0.0
 70
    64
 71
    18
 72
    18
  0
VERTEX
  5
91E
  8
0
 10
-21.06599998474121
 20
17.67700004577637
 30
3.0
 70
   192
  0
VERTEX
  5
91F
  8
0
 10
-21.06599998474121
 20
17.67700004577637
 30
-3.0
 70
   192
  0
VERTEX
  5
920
  8
0
 10
-27.5
 20
0.0
 30
-3.0
 70
   192
  0
VERTEX
  5
921
  8
0
 10
-4.775000095367432
 20
27.08200073242188
 30
3.0
 70
   192
  0
VERTEX
  5
922
  8
0
 10
-4.775000095367432
 20
27.08200073242188
 30
-3.0
 70
   192
  0
VERTEX
  5
923
  8
0
 10
13.75
 20
23.81599998474121
 30
3.0
 70
   192
  0
VERTEX
  5
924
  8
0
 10
13.75
 20
23.81599998474121
 30
-3.0
 70
   192
  0
VERTEX
  5
925
  8
0
 10
25.84199905395508
 20
9.406000137329102
 30
3.0
 70
   192
  0
VERTEX
  5
926
  8
0
 10
25.84199905395508
 20
9.406000137329102
 30
-3.0
 70
   192
  0
VERTEX
  5
927
  8
0
 10
25.84199905395508
 20
-9.406000137329102
 30
3.0
 70
   192
  0
VERTEX
  5
928
  8
0
 10
25.84199905395508
 20
-9.406000137329102
 30
-3.0
 70
   192
  0
VERTEX
  5
929
  8
0
 10
13.75
 20
-23.81599998474121
 30
3.0
 70
   192
  0
VERTEX
  5
92A
  8
0
 10
13.75
 20
-23.81599998474121
 30
-3.0
 70
   192
  0
VERTEX
  5
92B
  8
0
 10
-4.775000095367432
 20
-27.08200073242188
 30
3.0
 70
   192
  0
VERTEX
  5
92C
  8
0
 10
-4.775000095367432
 20
-27.08200073242188
 30
-3.0
 70
   192
  0
VERTEX
  5
92D
  8
0
 10
-21.06599998474121
 20
-17.67700004577637
 30
3.0
 70
   192
  0
VERTEX
  5
92E
  8
0
 10
-21.06599998474121
 20
-17.67700004577637
 30
-3.0
 70
   192
  0
VERTEX
  5
92F
  8
0
 10
-27.5
 20
0.0
 30
3.0
 70
   192
  0
VERTEX
  5
930
  8
0
 62
     9
 10
0.0
 20
0.0
 30
0.0
 70
   128
 71
     3
 72
     2
 73
     1
  0
VERTEX
  5
931
  8
0
 62
     9
 10
0.0
 20
0.0
 30
0.0
 70
   128
 71
     2
 72
     5
 73
     4
  0
VERTEX
  5
932
  8
0
 62
     9
 10
0.0
 20
0.0
 30
0.0
 70
   128
 71
     5
 72
     7
 73
     6
  0
VERTEX
  5
933
  8
0
 62
     9
 10
0.0
 20
0.0
 30
0.0
 70
   128
 71
     7
 72
     9
 73
     8
  0
VERTEX
  5
934
  8
0
 62
     9
 10
0.0
 20
0.0
 30
0.0
 70
   128
 71
     9
 72
    11
 73
    10
  0
VERTEX
  5
935
  8
0
 62
     9
 10
0.0
 20
0.0
 30
0.0
 70
   128
 71
    11
 72
    13
 73
    12
  0
VERTEX
  5
936
  8
0
 62
     9
 10
0.0
 20
0.0
 30
0.0
 70
   128
 71
    13
 72
    15
 73
    14
  0
VERTEX
  5
937
  8
0
 62
     9
 10
0.0
 20
0.0
 30
0.0
 70
   128
 71
    15
 72
    17
 73
    16
  0
VERTEX
  5
938
  8
0
 62
     9
 10
0.0
 20
0.0
 30
0.0
 70
   128
 71
    17
 72
     3
 73
    18
  0
VERTEX
  5
939
  8
0
 62
     9
 10
0.0
 20
0.0
 30
0.0
 70
   128
 71
    18
 72
    16
 73
    17
  0
VERTEX
  5
93A
  8
0
 62
     9
 10
0.0
 20
0.0
 30
0.0
 70
   128
 71
    16
 72
    14
 73
    15
  0
VERTEX
  5
93B
  8
0
 62
     9
 10
0.0
 20
0.0
 30
0.0
 70
   128
 71
    14
 72
    12
 73
    13
  0
VERTEX
  5
93C
  8
0
 62
     9
 10
0.0
 20
0.0
 30
0.0
 70
   128
 71
    12
 72
    10
 73
    11
  0
VERTEX
  5
93D
  8
0
 62
     9
 10
0.0
 20
0.0
 30
0.0
 70
   128
 71
    10
 72
     8
 73
     9
  0
VERTEX
  5
93E
  8
0
 62
     9
 10
0.0
 20
0.0
 30
0.0
 70
   128
 71
     8
 72
     6
 73
     7
  0
VERTEX
  5
93F
  8
0
 62
     9
 10
0.0
 20
0.0
 30
0.0
 70
   128
 71
     6
 72
     4
 73
     5
  0
VERTEX
  5
940
  8
0
 62
     9
 10
0.0
 20
0.0
 30
0.0
 70
   128
 71
     4
 72
     1
 73
     2
  0
VERTEX
  5
941
  8
0
 62
     9
 10
0.0
 20
0.0
 30
0.0
 70
   128
 71
     1
 72
    18
 73
     3
  0
SEQEND
  5
942
  8
0
 62
     9
  0
ENDBLK
  5
945
  8
0
  0
BLOCK
  8
0
  2
E3_NODE_59_
 70
     0
 10
0.0
 20
0.0
 30
0.0
  3
E3_NODE_59_
  1

  0
POLYLINE
  5
947
  8
0
 62
     9
 66
     1
 10
0.0
 20
0.0
 30
0.0
 70
    64
 71
    18
 72
    18
  0
VERTEX
  5
948
  8
0
 10
25.84199905395508
 20
-9.406000137329102
 30
3.0
 70
   192
  0
VERTEX
  5
949
  8
0
 10
25.84199905395508
 20
9.406000137329102
 30
3.0
 70
   192
  0
VERTEX
  5
94A
  8
0
 10
21.14299964904785
 20
7.695000171661377
 30
3.0
 70
   192
  0
VERTEX
  5
94B
  8
0
 10
13.75
 20
23.81599998474121
 30
3.0
 70
   192
  0
VERTEX
  5
94C
  8
0
 10
11.25
 20
19.48600006103516
 30
3.0
 70
   192
  0
VERTEX
  5
94D
  8
0
 10
-4.775000095367432
 20
27.08200073242188
 30
3.0
 70
   192
  0
VERTEX
  5
94E
  8
0
 10
-3.907000064849854
 20
22.15800094604492
 30
3.0
 70
   192
  0
VERTEX
  5
94F
  8
0
 10
-4.775000095367432
 20
-27.08200073242188
 30
3.0
 70
   192
  0
VERTEX
  5
950
  8
0
 10
-3.907000064849854
 20
-22.15800094604492
 30
3.0
 70
   192
  0
VERTEX
  5
951
  8
0
 10
-17.23600006103516
 20
-14.46300029754639
 30
3.0
 70
   192
  0
VERTEX
  5
952
  8
0
 10
13.75
 20
-23.81599998474121
 30
3.0
 70
   192
  0
VERTEX
  5
953
  8
0
 10
11.25
 20
-19.48600006103516
 30
3.0
 70
   192
  0
VERTEX
  5
954
  8
0
 10
-21.06599998474121
 20
17.67700004577637
 30
3.0
 70
   192
  0
VERTEX
  5
955
  8
0
 10
-17.23600006103516
 20
14.46300029754639
 30
3.0
 70
   192
  0
VERTEX
  5
956
  8
0
 10
-21.06599998474121
 20
-17.67700004577637
 30
3.0
 70
   192
  0
VERTEX
  5
957
  8
0
 10
-22.5
 20
0.0
 30
3.0
 70
   192
  0
VERTEX
  5
958
  8
0
 10
-27.5
 20
0.0
 30
3.0
 70
   192
  0
VERTEX
  5
959
  8
0
 10
21.14299964904785
 20
-7.695000171661377
 30
3.0
 70
   192
  0
VERTEX
  5
95A
  8
0
 62
     9
 10
0.0
 20
0.0
 30
0.0
 70
   128
 71
     3
 72
     2
 73
     1
  0
VERTEX
  5
95B
  8
0
 62
     9
 10
0.0
 20
0.0
 30
0.0
 70
   128
 71
     5
 72
     4
 73
     2
  0
VERTEX
  5
95C
  8
0
 62
     9
 10
0.0
 20
0.0
 30
0.0
 70
   128
 71
     2
 72
     3
 73
     5
  0
VERTEX
  5
95D
  8
0
 62
     9
 10
0.0
 20
0.0
 30
0.0
 70
   128
 71
     5
 72
     7
 73
     6
  0
VERTEX
  5
95E
  8
0
 62
     9
 10
0.0
 20
0.0
 30
0.0
 70
   128
 71
    10
 72
     9
 73
     8
  0
VERTEX
  5
95F
  8
0
 62
     9
 10
0.0
 20
0.0
 30
0.0
 70
   128
 71
    12
 72
    11
 73
     8
  0
VERTEX
  5
960
  8
0
 62
     9
 10
0.0
 20
0.0
 30
0.0
 70
   128
 71
     6
 72
     4
 73
     5
  0
VERTEX
  5
961
  8
0
 62
     9
 10
0.0
 20
0.0
 30
0.0
 70
   128
 71
    14
 72
    13
 73
     6
  0
VERTEX
  5
962
  8
0
 62
     9
 10
0.0
 20
0.0
 30
0.0
 70
   128
 71
    16
 72
    10
 73
    15
  0
VERTEX
  5
963
  8
0
 62
     9
 10
0.0
 20
0.0
 30
0.0
 70
   128
 71
     8
 72
     9
 73
    12
  0
VERTEX
  5
964
  8
0
 62
     9
 10
0.0
 20
0.0
 30
0.0
 70
   128
 71
     6
 72
     7
 73
    14
  0
VERTEX
  5
965
  8
0
 62
     9
 10
0.0
 20
0.0
 30
0.0
 70
   128
 71
    14
 72
    16
 73
    17
  0
VERTEX
  5
966
  8
0
 62
     9
 10
0.0
 20
0.0
 30
0.0
 70
   128
 71
     8
 72
    15
 73
    10
  0
VERTEX
  5
967
  8
0
 62
     9
 10
0.0
 20
0.0
 30
0.0
 70
   128
 71
    12
 72
    18
 73
     1
  0
VERTEX
  5
968
  8
0
 62
     9
 10
0.0
 20
0.0
 30
0.0
 70
   128
 71
    17
 72
    13
 73
    14
  0
VERTEX
  5
969
  8
0
 62
     9
 10
0.0
 20
0.0
 30
0.0
 70
   128
 71
     1
 72
    11
 73
    12
  0
VERTEX
  5
96A
  8
0
 62
     9
 10
0.0
 20
0.0
 30
0.0
 70
   128
 71
    15
 72
    17
 73
    16
  0
VERTEX
  5
96B
  8
0
 62
     9
 10
0.0
 20
0.0
 30
0.0
 70
   128
 71
     1
 72
    18
 73
     3
  0
SEQEND
  5
96C
  8
0
 62
     9
  0
ENDBLK
  5
96F
  8
0
  0
BLOCK
  8
0
  2
E3_NODE_60_
 70
     0
 10
0.0
 20
0.0
 30
0.0
  3
E3_NODE_60_
  1

  0
POLYLINE
  5
971
  8
0
 62
     9
 66
     1
 10
0.0
 20
0.0
 30
0.0
 70
    64
 71
    18
 72
    18
  0
VERTEX
  5
972
  8
0
 10
-17.23600006103516
 20
14.46300029754639
 30
7.0
 70
   192
  0
VERTEX
  5
973
  8
0
 10
-17.23600006103516
 20
14.46300029754639
 30
3.0
 70
   192
  0
VERTEX
  5
974
  8
0
 10
-22.5
 20
0.0
 30
3.0
 70
   192
  0
VERTEX
  5
975
  8
0
 10
-3.907000064849854
 20
22.15800094604492
 30
7.0
 70
   192
  0
VERTEX
  5
976
  8
0
 10
-3.907000064849854
 20
22.15800094604492
 30
3.0
 70
   192
  0
VERTEX
  5
977
  8
0
 10
11.25
 20
19.48600006103516
 30
7.0
 70
   192
  0
VERTEX
  5
978
  8
0
 10
11.25
 20
19.48600006103516
 30
3.0
 70
   192
  0
VERTEX
  5
979
  8
0
 10
21.14299964904785
 20
7.695000171661377
 30
7.0
 70
   192
  0
VERTEX
  5
97A
  8
0
 10
21.14299964904785
 20
7.695000171661377
 30
3.0
 70
   192
  0
VERTEX
  5
97B
  8
0
 10
21.14299964904785
 20
-7.695000171661377
 30
7.0
 70
   192
  0
VERTEX
  5
97C
  8
0
 10
21.14299964904785
 20
-7.695000171661377
 30
3.0
 70
   192
  0
VERTEX
  5
97D
  8
0
 10
11.25
 20
-19.48600006103516
 30
7.0
 70
   192
  0
VERTEX
  5
97E
  8
0
 10
11.25
 20
-19.48600006103516
 30
3.0
 70
   192
  0
VERTEX
  5
97F
  8
0
 10
-3.907000064849854
 20
-22.15800094604492
 30
7.0
 70
   192
  0
VERTEX
  5
980
  8
0
 10
-3.907000064849854
 20
-22.15800094604492
 30
3.0
 70
   192
  0
VERTEX
  5
981
  8
0
 10
-17.23600006103516
 20
-14.46300029754639
 30
7.0
 70
   192
  0
VERTEX
  5
982
  8
0
 10
-17.23600006103516
 20
-14.46300029754639
 30
3.0
 70
   192
  0
VERTEX
  5
983
  8
0
 10
-22.5
 20
0.0
 30
7.0
 70
   192
  0
VERTEX
  5
984
  8
0
 62
     9
 10
0.0
 20
0.0
 30
0.0
 70
   128
 71
     3
 72
     2
 73
     1
  0
VERTEX
  5
985
  8
0
 62
     9
 10
0.0
 20
0.0
 30
0.0
 70
   128
 71
     2
 72
     5
 73
     4
  0
VERTEX
  5
986
  8
0
 62
     9
 10
0.0
 20
0.0
 30
0.0
 70
   128
 71
     5
 72
     7
 73
     6
  0
VERTEX
  5
987
  8
0
 62
     9
 10
0.0
 20
0.0
 30
0.0
 70
   128
 71
     7
 72
     9
 73
     8
  0
VERTEX
  5
988
  8
0
 62
     9
 10
0.0
 20
0.0
 30
0.0
 70
   128
 71
     9
 72
    11
 73
    10
  0
VERTEX
  5
989
  8
0
 62
     9
 10
0.0
 20
0.0
 30
0.0
 70
   128
 71
    11
 72
    13
 73
    12
  0
VERTEX
  5
98A
  8
0
 62
     9
 10
0.0
 20
0.0
 30
0.0
 70
   128
 71
    13
 72
    15
 73
    14
  0
VERTEX
  5
98B
  8
0
 62
     9
 10
0.0
 20
0.0
 30
0.0
 70
   128
 71
    15
 72
    17
 73
    16
  0
VERTEX
  5
98C
  8
0
 62
     9
 10
0.0
 20
0.0
 30
0.0
 70
   128
 71
    17
 72
     3
 73
    18
  0
VERTEX
  5
98D
  8
0
 62
     9
 10
0.0
 20
0.0
 30
0.0
 70
   128
 71
    18
 72
    16
 73
    17
  0
VERTEX
  5
98E
  8
0
 62
     9
 10
0.0
 20
0.0
 30
0.0
 70
   128
 71
    16
 72
    14
 73
    15
  0
VERTEX
  5
98F
  8
0
 62
     9
 10
0.0
 20
0.0
 30
0.0
 70
   128
 71
    14
 72
    12
 73
    13
  0
VERTEX
  5
990
  8
0
 62
     9
 10
0.0
 20
0.0
 30
0.0
 70
   128
 71
    12
 72
    10
 73
    11
  0
VERTEX
  5
991
  8
0
 62
     9
 10
0.0
 20
0.0
 30
0.0
 70
   128
 71
    10
 72
     8
 73
     9
  0
VERTEX
  5
992
  8
0
 62
     9
 10
0.0
 20
0.0
 30
0.0
 70
   128
 71
     8
 72
     6
 73
     7
  0
VERTEX
  5
993
  8
0
 62
     9
 10
0.0
 20
0.0
 30
0.0
 70
   128
 71
     6
 72
     4
 73
     5
  0
VERTEX
  5
994
  8
0
 62
     9
 10
0.0
 20
0.0
 30
0.0
 70
   128
 71
     4
 72
     1
 73
     2
  0
VERTEX
  5
995
  8
0
 62
     9
 10
0.0
 20
0.0
 30
0.0
 70
   128
 71
     1
 72
    18
 73
     3
  0
SEQEND
  5
996
  8
0
 62
     9
  0
ENDBLK
  5
999
  8
0
  0
BLOCK
  8
0
  2
E3_NODE_61_
 70
     0
 10
0.0
 20
0.0
 30
0.0
  3
E3_NODE_61_
  1

  0
POLYLINE
  5
99B
  8
0
 62
     9
 66
     1
 10
0.0
 20
0.0
 30
0.0
 70
    64
 71
     9
 72
     7
  0
VERTEX
  5
99C
  8
0
 10
-17.23600006103516
 20
14.46300029754639
 30
7.0
 70
   192
  0
VERTEX
  5
99D
  8
0
 10
21.14299964904785
 20
-7.695000171661377
 30
7.0
 70
   192
  0
VERTEX
  5
99E
  8
0
 10
21.14299964904785
 20
7.695000171661377
 30
7.0
 70
   192
  0
VERTEX
  5
99F
  8
0
 10
-22.5
 20
0.0
 30
7.0
 70
   192
  0
VERTEX
  5
9A0
  8
0
 10
-17.23600006103516
 20
-14.46300029754639
 30
7.0
 70
   192
  0
VERTEX
  5
9A1
  8
0
 10
11.25
 20
19.48600006103516
 30
7.0
 70
   192
  0
VERTEX
  5
9A2
  8
0
 10
-3.907000064849854
 20
-22.15800094604492
 30
7.0
 70
   192
  0
VERTEX
  5
9A3
  8
0
 10
11.25
 20
-19.48600006103516
 30
7.0
 70
   192
  0
VERTEX
  5
9A4
  8
0
 10
-3.907000064849854
 20
22.15800094604492
 30
7.0
 70
   192
  0
VERTEX
  5
9A5
  8
0
 62
     9
 10
0.0
 20
0.0
 30
0.0
 70
   128
 71
     3
 72
     2
 73
     1
  0
VERTEX
  5
9A6
  8
0
 62
     9
 10
0.0
 20
0.0
 30
0.0
 70
   128
 71
     5
 72
     4
 73
     1
  0
VERTEX
  5
9A7
  8
0
 62
     9
 10
0.0
 20
0.0
 30
0.0
 70
   128
 71
     1
 72
     6
 73
     3
  0
VERTEX
  5
9A8
  8
0
 62
     9
 10
0.0
 20
0.0
 30
0.0
 70
   128
 71
     1
 72
     7
 73
     5
  0
VERTEX
  5
9A9
  8
0
 62
     9
 10
0.0
 20
0.0
 30
0.0
 70
   128
 71
     2
 72
     8
 73
     1
  0
VERTEX
  5
9AA
  8
0
 62
     9
 10
0.0
 20
0.0
 30
0.0
 70
   128
 71
     1
 72
     9
 73
     6
  0
VERTEX
  5
9AB
  8
0
 62
     9
 10
0.0
 20
0.0
 30
0.0
 70
   128
 71
     1
 72
     8
 73
     7
  0
SEQEND
  5
9AC
  8
0
 62
     9
  0
ENDBLK
  5
9AF
  8
0
  0
ENDSEC
  0
SECTION
  2
ENTITIES
  0
INSERT
  5
62
  8
LAYER_1
  2
E3_NODE
 10
0.0
 20
0.0
 30
0.0
  0
INSERT
  5
91
  8
LAYER_1
  2
E3_NODE_1_
 10
0.0
 20
0.0
 30
0.0
  0
INSERT
  5
C3
  8
LAYER_1
  2
E3_NODE_2_
 10
0.0
 20
0.0
 30
0.0
  0
INSERT
  5
F7
  8
LAYER_1
  2
E3_NODE_3_
 10
0.0
 20
0.0
 30
0.0
  0
INSERT
  5
12D
  8
LAYER_1
  2
E3_NODE_4_
 10
0.0
 20
0.0
 30
0.0
  0
INSERT
  5
149
  8
LAYER_1
  2
E3_NODE_5_
 10
0.0
 20
0.0
 30
0.0
  0
INSERT
  5
167
  8
LAYER_1
  2
E3_NODE_6_
 10
0.0
 20
0.0
 30
0.0
  0
INSERT
  5
193
  8
LAYER_1
  2
E3_NODE_7_
 10
0.0
 20
0.0
 30
0.0
  0
INSERT
  5
2DF
  8
LAYER_1
  2
E3_NODE_8_
 10
0.0
 20
0.0
 30
0.0
  0
INSERT
  5
30F
  8
LAYER_1
  2
E3_NODE_9_
 10
0.0
 20
0.0
 30
0.0
  0
INSERT
  5
31F
  8
LAYER_1
  2
E3_NODE_10_
 10
0.0
 20
0.0
 30
0.0
  0
INSERT
  5
34D
  8
LAYER_1
  2
E3_NODE_11_
 10
0.0
 20
0.0
 30
0.0
  0
INSERT
  5
3C5
  8
LAYER_1
  2
E3_NODE_12_
 10
0.0
 20
0.0
 30
0.0
  0
INSERT
  5
3D5
  8
LAYER_1
  2
E3_NODE_13_
 10
0.0
 20
0.0
 30
0.0
  0
INSERT
  5
403
  8
LAYER_1
  2
E3_NODE_14_
 10
0.0
 20
0.0
 30
0.0
  0
INSERT
  5
413
  8
LAYER_1
  2
E3_NODE_15_
 10
0.0
 20
0.0
 30
0.0
  0
INSERT
  5
441
  8
LAYER_1
  2
E3_NODE_16_
 10
0.0
 20
0.0
 30
0.0
  0
INSERT
  5
451
  8
LAYER_1
  2
E3_NODE_17_
 10
0.0
 20
0.0
 30
0.0
  0
INSERT
  5
461
  8
LAYER_1
  2
E3_NODE_18_
 10
0.0
 20
0.0
 30
0.0
  0
INSERT
  5
48F
  8
LAYER_1
  2
E3_NODE_19_
 10
0.0
 20
0.0
 30
0.0
  0
INSERT
  5
507
  8
LAYER_1
  2
E3_NODE_20_
 10
0.0
 20
0.0
 30
0.0
  0
INSERT
  5
517
  8
LAYER_1
  2
E3_NODE_21_
 10
0.0
 20
0.0
 30
0.0
  0
INSERT
  5
545
  8
LAYER_1
  2
E3_NODE_22_
 10
0.0
 20
0.0
 30
0.0
  0
INSERT
  5
555
  8
LAYER_1
  2
E3_NODE_23_
 10
0.0
 20
0.0
 30
0.0
  0
INSERT
  5
583
  8
LAYER_1
  2
E3_NODE_24_
 10
0.0
 20
0.0
 30
0.0
  0
INSERT
  5
593
  8
LAYER_1
  2
E3_NODE_25_
 10
0.0
 20
0.0
 30
0.0
  0
INSERT
  5
59F
  8
LAYER_1
  2
E3_NODE_26_
 10
0.0
 20
0.0
 30
0.0
  0
INSERT
  5
5B5
  8
LAYER_1
  2
E3_NODE_27_
 10
0.0
 20
0.0
 30
0.0
  0
INSERT
  5
5C1
  8
LAYER_1
  2
E3_NODE_28_
 10
0.0
 20
0.0
 30
0.0
  0
INSERT
  5
5DF
  8
LAYER_1
  2
E3_NODE_29_
 10
0.0
 20
0.0
 30
0.0
  0
INSERT
  5
5FF
  8
LAYER_1
  2
E3_NODE_30_
 10
0.0
 20
0.0
 30
0.0
  0
INSERT
  5
621
  8
LAYER_1
  2
E3_NODE_31_
 10
0.0
 20
0.0
 30
0.0
  0
INSERT
  5
635
  8
LAYER_1
  2
E3_NODE_32_
 10
0.0
 20
0.0
 30
0.0
  0
INSERT
  5
65B
  8
LAYER_1
  2
E3_NODE_33_
 10
0.0
 20
0.0
 30
0.0
  0
INSERT
  5
66F
  8
LAYER_1
  2
E3_NODE_34_
 10
0.0
 20
0.0
 30
0.0
  0
INSERT
  5
689
  8
LAYER_1
  2
E3_NODE_35_
 10
0.0
 20
0.0
 30
0.0
  0
INSERT
  5
6A7
  8
LAYER_1
  2
E3_NODE_36_
 10
0.0
 20
0.0
 30
0.0
  0
INSERT
  5
6CB
  8
LAYER_1
  2
E3_NODE_37_
 10
0.0
 20
0.0
 30
0.0
  0
INSERT
  5
6ED
  8
LAYER_1
  2
E3_NODE_38_
 10
0.0
 20
0.0
 30
0.0
  0
INSERT
  5
6FF
  8
LAYER_1
  2
E3_NODE_39_
 10
0.0
 20
0.0
 30
0.0
  0
INSERT
  5
71D
  8
LAYER_1
  2
E3_NODE_40_
 10
0.0
 20
0.0
 30
0.0
  0
INSERT
  5
72D
  8
LAYER_1
  2
E3_NODE_41_
 10
0.0
 20
0.0
 30
0.0
  0
INSERT
  5
74F
  8
LAYER_1
  2
E3_NODE_42_
 10
0.0
 20
0.0
 30
0.0
  0
INSERT
  5
775
  8
LAYER_1
  2
E3_NODE_43_
 10
0.0
 20
0.0
 30
0.0
  0
INSERT
  5
79F
  8
LAYER_1
  2
E3_NODE_44_
 10
0.0
 20
0.0
 30
0.0
  0
INSERT
  5
7C9
  8
LAYER_1
  2
E3_NODE_45_
 10
0.0
 20
0.0
 30
0.0
  0
INSERT
  5
7F3
  8
LAYER_1
  2
E3_NODE_46_
 10
0.0
 20
0.0
 30
0.0
  0
INSERT
  5
809
  8
LAYER_1
  2
E3_NODE_47_
 10
0.0
 20
0.0
 30
0.0
  0
INSERT
  5
81D
  8
LAYER_1
  2
E3_NODE_48_
 10
0.0
 20
0.0
 30
0.0
  0
INSERT
  5
843
  8
LAYER_1
  2
E3_NODE_49_
 10
0.0
 20
0.0
 30
0.0
  0
INSERT
  5
85D
  8
LAYER_1
  2
E3_NODE_50_
 10
0.0
 20
0.0
 30
0.0
  0
INSERT
  5
87B
  8
LAYER_1
  2
E3_NODE_51_
 10
0.0
 20
0.0
 30
0.0
  0
INSERT
  5
89F
  8
LAYER_1
  2
E3_NODE_52_
 10
0.0
 20
0.0
 30
0.0
  0
INSERT
  5
8B5
  8
LAYER_1
  2
E3_NODE_53_
 10
0.0
 20
0.0
 30
0.0
  0
INSERT
  5
8C9
  8
LAYER_1
  2
E3_NODE_54_
 10
0.0
 20
0.0
 30
0.0
  0
INSERT
  5
8EF
  8
LAYER_1
  2
E3_NODE_55_
 10
0.0
 20
0.0
 30
0.0
  0
INSERT
  5
903
  8
LAYER_1
  2
E3_NODE_56_
 10
0.0
 20
0.0
 30
0.0
  0
INSERT
  5
919
  8
LAYER_1
  2
E3_NODE_57_
 10
0.0
 20
0.0
 30
0.0
  0
INSERT
  5
943
  8
LAYER_1
  2
E3_NODE_58_
 10
0.0
 20
0.0
 30
0.0
  0
INSERT
  5
96D
  8
LAYER_1
  2
E3_NODE_59_
 10
0.0
 20
0.0
 30
0.0
  0
INSERT
  5
997
  8
LAYER_1
  2
E3_NODE_60_
 10
0.0
 20
0.0
 30
0.0
  0
INSERT
  5
9AD
  8
LAYER_1
  2
E3_NODE_61_
 10
0.0
 20
0.0
 30
0.0
  0
ENDSEC
  0
EOF
