  0
SECTION
  2
HEADER
  9
$ACADVER
  1
AC1015
  9
$ACADMAINTVER
 70
     6
  9
$DWGCODEPAGE
  3
ANSI_1252
  9
$INSBASE
 10
0.0
 20
0.0
 30
0.0
  9
$EXTMIN
 10
0.0
 20
0.0
 30
0.0
  9
$EXTMAX
 10
1682.0
 20
2378.0
 30
0.0
  9
$LIMMIN
 10
0.0
 20
0.0
  9
$LIMMAX
 10
1682.0
 20
2378.0
  9
$ORTHOMODE
 70
     0
  9
$REGENMODE
 70
     1
  9
$FILLMODE
 70
     1
  9
$QTEXTMODE
 70
     0
  9
$MIRRTEXT
 70
     1
  9
$LTSCALE
 40
1.0
  9
$ATTMODE
 70
     1
  9
$TEXTSIZE
 40
2.5
  9
$TRACEWID
 40
1.0
  9
$TEXTSTYLE
  7
Standard
  9
$CLAYER
  8
0
  9
$CELTYPE
  6
ByLayer
  9
$CECOLOR
 62
   256
  9
$CELTSCALE
 40
1.0
  9
$DISPSILH
 70
     0
  9
$DIMSCALE
 40
1.0
  9
$DIMASZ
 40
2.5
  9
$DIMEXO
 40
0.625
  9
$DIMDLI
 40
3.75
  9
$DIMRND
 40
0.0
  9
$DIMDLE
 40
0.0
  9
$DIMEXE
 40
1.25
  9
$DIMTP
 40
0.0
  9
$DIMTM
 40
0.0
  9
$DIMTXT
 40
2.5
  9
$DIMCEN
 40
2.5
  9
$DIMTSZ
 40
0.0
  9
$DIMTOL
 70
     0
  9
$DIMLIM
 70
     0
  9
$DIMTIH
 70
     0
  9
$DIMTOH
 70
     0
  9
$DIMSE1
 70
     0
  9
$DIMSE2
 70
     0
  9
$DIMTAD
 70
     1
  9
$DIMZIN
 70
     8
  9
$DIMBLK
  1

  9
$DIMASO
 70
     1
  9
$DIMSHO
 70
     1
  9
$DIMPOST
  1

  9
$DIMAPOST
  1

  9
$DIMALT
 70
     0
  9
$DIMALTD
 70
     3
  9
$DIMALTF
 40
0.0393700787
  9
$DIMLFAC
 40
1.0
  9
$DIMTOFL
 70
     1
  9
$DIMTVP
 40
0.0
  9
$DIMTIX
 70
     0
  9
$DIMSOXD
 70
     0
  9
$DIMSAH
 70
     0
  9
$DIMBLK1
  1

  9
$DIMBLK2
  1

  9
$DIMSTYLE
  2
ISO-25
  9
$DIMCLRD
 70
     0
  9
$DIMCLRE
 70
     0
  9
$DIMCLRT
 70
     0
  9
$DIMTFAC
 40
1.0
  9
$DIMGAP
 40
0.625
  9
$DIMJUST
 70
     0
  9
$DIMSD1
 70
     0
  9
$DIMSD2
 70
     0
  9
$DIMTOLJ
 70
     0
  9
$DIMTZIN
 70
     8
  9
$DIMALTZ
 70
     0
  9
$DIMALTTZ
 70
     0
  9
$DIMUPT
 70
     0
  9
$DIMDEC
 70
     2
  9
$DIMTDEC
 70
     2
  9
$DIMALTU
 70
     2
  9
$DIMALTTD
 70
     3
  9
$DIMTXSTY
  7
Standard
  9
$DIMAUNIT
 70
     0
  9
$DIMADEC
 70
     0
  9
$DIMALTRND
 40
0.0
  9
$DIMAZIN
 70
     0
  9
$DIMDSEP
 70
    44
  9
$DIMATFIT
 70
     3
  9
$DIMFRAC
 70
     0
  9
$DIMLDRBLK
  1

  9
$DIMLUNIT
 70
     2
  9
$DIMLWD
 70
    -2
  9
$DIMLWE
 70
    -2
  9
$DIMTMOVE
 70
     0
  9
$LUNITS
 70
     2
  9
$LUPREC
 70
     4
  9
$SKETCHINC
 40
1.0
  9
$FILLETRAD
 40
10.0
  9
$AUNITS
 70
     0
  9
$AUPREC
 70
     0
  9
$MENU
  1
.
  9
$ELEVATION
 40
0.0
  9
$PELEVATION
 40
0.0
  9
$THICKNESS
 40
0.0
  9
$LIMCHECK
 70
     0
  9
$CHAMFERA
 40
10.0
  9
$CHAMFERB
 40
10.0
  9
$CHAMFERC
 40
20.0
  9
$CHAMFERD
 40
0.0
  9
$SKPOLY
 70
     0
  9
$TDCREATE
 40
2455537.661850984
  9
$TDUCREATE
 40
2455537.620184317
  9
$TDUPDATE
 40
2455537.661850995
  9
$TDUUPDATE
 40
2455537.620184329
  9
$TDINDWG
 40
0.0000000116
  9
$TDUSRTIMER
 40
0.0000000116
  9
$USRTIMER
 70
     1
  9
$ANGBASE
 50
0.0
  9
$ANGDIR
 70
     0
  9
$PDMODE
 70
     0
  9
$PDSIZE
 40
0.0
  9
$PLINEWID
 40
0.0
  9
$SPLFRAME
 70
     0
  9
$SPLINETYPE
 70
     6
  9
$SPLINESEGS
 70
     8
  9
$HANDSEED
  5
1BA
  9
$SURFTAB1
 70
     6
  9
$SURFTAB2
 70
     6
  9
$SURFTYPE
 70
     6
  9
$SURFU
 70
     6
  9
$SURFV
 70
     6
  9
$UCSBASE
  2

  9
$UCSNAME
  2

  9
$UCSORG
 10
0.0
 20
0.0
 30
0.0
  9
$UCSXDIR
 10
1.0
 20
0.0
 30
0.0
  9
$UCSYDIR
 10
0.0
 20
1.0
 30
0.0
  9
$UCSORTHOREF
  2

  9
$UCSORTHOVIEW
 70
     0
  9
$UCSORGTOP
 10
0.0
 20
0.0
 30
0.0
  9
$UCSORGBOTTOM
 10
0.0
 20
0.0
 30
0.0
  9
$UCSORGLEFT
 10
0.0
 20
0.0
 30
0.0
  9
$UCSORGRIGHT
 10
0.0
 20
0.0
 30
0.0
  9
$UCSORGFRONT
 10
0.0
 20
0.0
 30
0.0
  9
$UCSORGBACK
 10
0.0
 20
0.0
 30
0.0
  9
$PUCSBASE
  2

  9
$PUCSNAME
  2

  9
$PUCSORG
 10
0.0
 20
0.0
 30
0.0
  9
$PUCSXDIR
 10
1.0
 20
0.0
 30
0.0
  9
$PUCSYDIR
 10
0.0
 20
1.0
 30
0.0
  9
$PUCSORTHOREF
  2

  9
$PUCSORTHOVIEW
 70
     0
  9
$PUCSORGTOP
 10
0.0
 20
0.0
 30
0.0
  9
$PUCSORGBOTTOM
 10
0.0
 20
0.0
 30
0.0
  9
$PUCSORGLEFT
 10
0.0
 20
0.0
 30
0.0
  9
$PUCSORGRIGHT
 10
0.0
 20
0.0
 30
0.0
  9
$PUCSORGFRONT
 10
0.0
 20
0.0
 30
0.0
  9
$PUCSORGBACK
 10
0.0
 20
0.0
 30
0.0
  9
$USERI1
 70
     0
  9
$USERI2
 70
     0
  9
$USERI3
 70
     0
  9
$USERI4
 70
     0
  9
$USERI5
 70
     0
  9
$USERR1
 40
0.0
  9
$USERR2
 40
0.0
  9
$USERR3
 40
0.0
  9
$USERR4
 40
0.0
  9
$USERR5
 40
0.0
  9
$WORLDVIEW
 70
     1
  9
$SHADEDGE
 70
     3
  9
$SHADEDIF
 70
    70
  9
$TILEMODE
 70
     1
  9
$MAXACTVP
 70
    64
  9
$PINSBASE
 10
0.0
 20
0.0
 30
0.0
  9
$PLIMCHECK
 70
     0
  9
$PEXTMIN
 10
0.0
 20
0.0
 30
0.0
  9
$PEXTMAX
 10
1682.0
 20
2378.0
 30
0.0
  9
$PLIMMIN
 10
0.0
 20
0.0
  9
$PLIMMAX
 10
1682.0
 20
2378.0
  9
$UNITMODE
 70
     0
  9
$VISRETAIN
 70
     1
  9
$PLINEGEN
 70
     0
  9
$PSLTSCALE
 70
     1
  9
$TREEDEPTH
 70
  3020
  9
$CMLSTYLE
  2
Standard
  9
$CMLJUST
 70
     0
  9
$CMLSCALE
 40
20.0
  9
$PROXYGRAPHICS
 70
     1
  9
$MEASUREMENT
 70
     1
  9
$CELWEIGHT
370
    -1
  9
$ENDCAPS
280
     0
  9
$JOINSTYLE
280
     0
  9
$LWDISPLAY
290
     0
  9
$INSUNITS
 70
     4
  9
$HYPERLINKBASE
  1

  9
$STYLESHEET
  1

  9
$XEDIT
290
     1
  9
$CEPSNTYPE
380
     0
  9
$PSTYLEMODE
290
     1
  9
$FINGERPRINTGUID
  2
{E7E125A1-2279-47A5-80FA-12CC41E817E4}
  9
$VERSIONGUID
  2
{FAEB1C32-E019-11D5-929B-00C0DF256EC4}
  9
$EXTNAMES
290
     1
  9
$PSVPSCALE
 40
0.0
  9
$OLESTARTUP
290
     0
  0
ENDSEC
  0
SECTION
  2
CLASSES
  0
CLASS
  1
ACDBDICTIONARYWDFLT
  2
AcDbDictionaryWithDefault
  3
ObjectDBX Classes
 90
        0
280
     0
281
     0
  0
CLASS
  1
VISUALSTYLE
  2
AcDbVisualStyle
  3
ObjectDBX Classes
 90
     4095
280
     0
281
     0
  0
CLASS
  1
SCALE
  2
AcDbScale
  3
ObjectDBX Classes
 90
     1153
280
     0
281
     0
  0
CLASS
  1
DICTIONARYVAR
  2
AcDbDictionaryVar
  3
ObjectDBX Classes
 90
        0
280
     0
281
     0
  0
CLASS
  1
ACDBPLACEHOLDER
  2
AcDbPlaceHolder
  3
ObjectDBX Classes
 90
        0
280
     0
281
     0
  0
CLASS
  1
LAYOUT
  2
AcDbLayout
  3
ObjectDBX Classes
 90
        0
280
     0
281
     0
  0
ENDSEC
  0
SECTION
  2
TABLES
  0
TABLE
  2
VPORT
  5
8
330
0
100
AcDbSymbolTable
 70
     1
  0
VPORT
  5
29
330
8
100
AcDbSymbolTableRecord
100
AcDbViewportTableRecord
  2
*Active
 70
     0
 10
0.0
 20
0.0
 11
1.0
 21
1.0
 12
344.1869158879
 22
148.5
 13
0.0
 23
0.0
 14
10.0
 24
10.0
 15
10.0
 25
10.0
 16
0.0
 26
0.0
 36
1.0
 17
0.0
 27
0.0
 37
0.0
 40
297.0
 41
1.9729729729
 42
50.0
 43
0.0
 44
0.0
 50
0.0
 51
0.0
 71
     0
 72
   100
 73
     1
 74
     3
 75
     0
 76
     0
 77
     0
 78
     0
281
     0
 65
     1
110
0.0
120
0.0
130
0.0
111
1.0
121
0.0
131
0.0
112
0.0
122
1.0
132
0.0
 79
     0
146
0.0
  0
ENDTAB
  0
TABLE
  2
LTYPE
  5
5
330
0
100
AcDbSymbolTable
 70
     2
  0
LTYPE
  5
14
330
5
100
AcDbSymbolTableRecord
100
AcDbLinetypeTableRecord
  2
ByBlock
 70
     0
  3

 72
    65
 73
     0
 40
0.0
  0
LTYPE
  5
15
330
5
100
AcDbSymbolTableRecord
100
AcDbLinetypeTableRecord
  2
ByLayer
 70
     0
  3

 72
    65
 73
     0
 40
0.0
  0
LTYPE
  5
16
330
5
100
AcDbSymbolTableRecord
100
AcDbLinetypeTableRecord
  2
Continuous
 70
     0
  3
Solid line
 72
    65
 73
     0
 40
0.0
  0
LTYPE
  5
60
330
5
100
AcDbSymbolTableRecord
100
AcDbLinetypeTableRecord
  2
CENTER2
 70
     0
  3
Center (.5x) ___ _ ___ _ ___ _ ___ _ ___ _ ___
 72
    65
 73
     4
 40
28.575
 49
19.05
 74
     4
 75
     0
340
0
 46
0.0
 50
0.0
 44
0.0
 45
0.0
 49
-3.175
 74
     4
 75
     0
340
0
 46
0.0
 50
0.0
 44
0.0
 45
0.0
 49
3.175
 74
     4
 75
     0
340
0
 46
0.0
 50
0.0
 44
0.0
 45
0.0
 49
-3.175
 74
     4
 75
     0
340
0
 46
0.0
 50
0.0
 44
0.0
 45
0.0
  0
ENDTAB
  0
TABLE
  2
LAYER
  5
2
330
0
100
AcDbSymbolTable
 70
     9
  0
LAYER
  5
10
330
2
100
AcDbSymbolTableRecord
100
AcDbLayerTableRecord
  2
0
 70
     0
 62
     7
  6
Continuous
370
    -3
390
F
  0
LAYER
  5
5D
330
2
100
AcDbSymbolTableRecord
100
AcDbLayerTableRecord
  2
Default
 70
     0
 62
     7
  6
Continuous
370
    -3
390
F
  0
LAYER
  5
77
330
2
100
AcDbSymbolTableRecord
100
AcDbLayerTableRecord
  2
$DDT_AUDIT_GENERATED_(77)
 70
     0
 62
     7
  6
Continuous
370
    -3
390
F
  0
LAYER
  5
83
330
2
100
AcDbSymbolTableRecord
100
AcDbLayerTableRecord
  2
$DDT_AUDIT_GENERATED_(83)
 70
     0
 62
     7
  6
Continuous
370
    -3
390
F
  0
LAYER
  5
C5
330
2
100
AcDbSymbolTableRecord
100
AcDbLayerTableRecord
  2
$DDT_AUDIT_GENERATED_(C5)
 70
     0
 62
     7
  6
Continuous
370
    -3
390
F
  0
LAYER
  5
101
330
2
100
AcDbSymbolTableRecord
100
AcDbLayerTableRecord
  2
$DDT_AUDIT_GENERATED_(101)
 70
     0
 62
     7
  6
Continuous
370
    -3
390
F
  0
LAYER
  5
12B
330
2
100
AcDbSymbolTableRecord
100
AcDbLayerTableRecord
  2
$DDT_AUDIT_GENERATED_(12B)
 70
     0
 62
     7
  6
Continuous
370
    -3
390
F
  0
LAYER
  5
12E
330
2
100
AcDbSymbolTableRecord
100
AcDbLayerTableRecord
  2
$DDT_AUDIT_GENERATED_(12E)
 70
     0
 62
     7
  6
Continuous
370
    -3
390
F
  0
LAYER
  5
152
330
2
100
AcDbSymbolTableRecord
100
AcDbLayerTableRecord
  2
$DDT_AUDIT_GENERATED_(152)
 70
     0
 62
     7
  6
Continuous
370
    -3
390
F
  0
ENDTAB
  0
TABLE
  2
STYLE
  5
3
330
0
100
AcDbSymbolTable
 70
     2
  0
STYLE
  5
11
330
3
100
AcDbSymbolTableRecord
100
AcDbTextStyleTableRecord
  2
Standard
 70
     0
 40
0.0
 41
1.0
 50
0.0
 71
     0
 42
2.5
  3
txt
  4

  0
STYLE
  5
1A9
330
3
100
AcDbSymbolTableRecord
100
AcDbTextStyleTableRecord
  2
SEACAD_seiso_ttf
 70
     0
 40
0.0
 41
1.0
 50
0.0
 71
     0
 42
0.2
  3
seiso.ttf
  4

  0
ENDTAB
  0
TABLE
  2
VIEW
  5
6
330
0
100
AcDbSymbolTable
 70
     0
  0
ENDTAB
  0
TABLE
  2
UCS
  5
7
330
0
100
AcDbSymbolTable
 70
     0
  0
ENDTAB
  0
TABLE
  2
APPID
  5
9
330
0
100
AcDbSymbolTable
 70
     1
  0
APPID
  5
12
330
9
100
AcDbSymbolTableRecord
100
AcDbRegAppTableRecord
  2
ACAD
 70
     0
  0
ENDTAB
  0
TABLE
  2
DIMSTYLE
  5
A
330
0
100
AcDbSymbolTable
 70
     1
100
AcDbDimStyleTable
  0
DIMSTYLE
105
27
330
A
100
AcDbSymbolTableRecord
100
AcDbDimStyleTableRecord
  2
ISO-25
 70
     0
 41
2.5
 42
0.625
 43
3.75
 44
1.25
 73
     0
 74
     0
 77
     1
 78
     8
140
2.5
141
2.5
143
0.0393700787
147
0.625
171
     3
172
     1
271
     2
272
     2
274
     3
278
    44
283
     0
284
     8
340
11
  0
ENDTAB
  0
TABLE
  2
BLOCK_RECORD
  5
1
330
0
100
AcDbSymbolTable
 70
     8
  0
BLOCK_RECORD
  5
1F
330
1
100
AcDbSymbolTableRecord
100
AcDbBlockTableRecord
  2
*Model_Space
340
22
  0
BLOCK_RECORD
  5
1B
330
1
100
AcDbSymbolTableRecord
100
AcDbBlockTableRecord
  2
*Paper_Space
340
1E
  0
BLOCK_RECORD
  5
5E
330
1
100
AcDbSymbolTableRecord
100
AcDbBlockTableRecord
  2
SEANNOT_GROUP
340
0
102
{BLKREFS
331
5F
102
}
  0
BLOCK_RECORD
  5
65
330
1
100
AcDbSymbolTableRecord
100
AcDbBlockTableRecord
  2
SEANNOT_GROUP1
340
0
102
{BLKREFS
331
66
102
}
  0
BLOCK_RECORD
  5
6B
330
1
100
AcDbSymbolTableRecord
100
AcDbBlockTableRecord
  2
SEANNOT_GROUP2
340
0
102
{BLKREFS
331
6C
102
}
  0
BLOCK_RECORD
  5
70
330
1
100
AcDbSymbolTableRecord
100
AcDbBlockTableRecord
  2
SEANNOT_GROUP3
340
0
102
{BLKREFS
331
71
102
}
  0
BLOCK_RECORD
  5
75
330
1
100
AcDbSymbolTableRecord
100
AcDbBlockTableRecord
  2
SE
340
0
102
{BLKREFS
331
76
102
}
  0
BLOCK_RECORD
  5
169
330
1
100
AcDbSymbolTableRecord
100
AcDbBlockTableRecord
  2
SE1
340
0
102
{BLKREFS
331
16A
102
}
  0
BLOCK_RECORD
  5
189
330
1
100
AcDbSymbolTableRecord
100
AcDbBlockTableRecord
  2
SE2
340
0
102
{BLKREFS
331
18A
102
}
  0
ENDTAB
  0
ENDSEC
  0
SECTION
  2
BLOCKS
  0
BLOCK
  5
20
330
1F
100
AcDbEntity
  8
0
100
AcDbBlockBegin
  2
*Model_Space
 70
     0
 10
0.0
 20
0.0
 30
0.0
  3
*Model_Space
  1

  0
ENDBLK
  5
21
330
1F
100
AcDbEntity
  8
0
100
AcDbBlockEnd
  0
BLOCK
  5
1C
330
1B
100
AcDbEntity
 67
     1
  8
0
100
AcDbBlockBegin
  2
*Paper_Space
 70
     0
 10
0.0
 20
0.0
 30
0.0
  3
*Paper_Space
  1

  0
ENDBLK
  5
1D
330
1B
100
AcDbEntity
 67
     1
  8
0
100
AcDbBlockEnd
  0
BLOCK
  5
63
330
5E
100
AcDbEntity
  8
0
100
AcDbBlockBegin
  2
SEANNOT_GROUP
 70
     0
 10
0.0
 20
0.0
 30
0.0
  3
SEANNOT_GROUP
  1

  0
LINE
  5
61
330
5E
100
AcDbEntity
  8
Default
  6
CENTER2
 62
     7
100
AcDbLine
 10
314.995004777
 20
341.9737435956
 30
0.0
 11
274.995005671
 21
341.9737435956
 31
0.0
  0
LINE
  5
62
330
5E
100
AcDbEntity
  8
Default
  6
CENTER2
 62
     7
100
AcDbLine
 10
294.995005224
 20
361.9737431486
 30
0.0
 11
294.995005224
 21
321.9737440426
 31
0.0
  0
ENDBLK
  5
64
330
5E
100
AcDbEntity
  8
0
100
AcDbBlockEnd
  0
BLOCK
  5
69
330
65
100
AcDbEntity
  8
0
100
AcDbBlockBegin
  2
SEANNOT_GROUP1
 70
     0
 10
0.0
 20
0.0
 30
0.0
  3
SEANNOT_GROUP1
  1

  0
LINE
  5
67
330
65
100
AcDbEntity
  8
Default
  6
CENTER2
 62
     7
100
AcDbLine
 10
126.2467762481
 20
136.6221891878
 30
0.0
 11
86.2467771422
 21
136.6221891878
 31
0.0
  0
LINE
  5
68
330
65
100
AcDbEntity
  8
Default
  6
CENTER2
 62
     7
100
AcDbLine
 10
106.2467766952
 20
156.6221887407
 30
0.0
 11
106.2467766952
 21
116.6221896348
 31
0.0
  0
ENDBLK
  5
6A
330
65
100
AcDbEntity
  8
0
100
AcDbBlockEnd
  0
BLOCK
  5
6E
330
6B
100
AcDbEntity
  8
0
100
AcDbBlockBegin
  2
SEANNOT_GROUP2
 70
     0
 10
0.0
 20
0.0
 30
0.0
  3
SEANNOT_GROUP2
  1

  0
LINE
  5
6D
330
6B
100
AcDbEntity
  8
Default
  6
CENTER2
 62
     7
100
AcDbLine
 10
106.2467766952
 20
279.2549769425
 30
0.0
 11
106.2467766952
 21
403.7822363348
 31
0.0
  0
ENDBLK
  5
6F
330
6B
100
AcDbEntity
  8
0
100
AcDbBlockEnd
  0
BLOCK
  5
73
330
70
100
AcDbEntity
  8
0
100
AcDbBlockBegin
  2
SEANNOT_GROUP3
 70
     0
 10
0.0
 20
0.0
 30
0.0
  3
SEANNOT_GROUP3
  1

  0
LINE
  5
72
330
70
100
AcDbEntity
  8
Default
  6
CENTER2
 62
     7
100
AcDbLine
 10
161.7771791065
 20
341.9737435956
 30
0.0
 11
53.1364116296
 21
341.9737435956
 31
0.0
  0
ENDBLK
  5
74
330
70
100
AcDbEntity
  8
0
100
AcDbBlockEnd
  0
BLOCK
  5
167
330
75
100
AcDbEntity
  8
0
100
AcDbBlockBegin
  2
SE
 70
     0
 10
0.0
 20
0.0
 30
0.0
  3
SE
  1

  0
LINE
  5
78
330
75
100
AcDbEntity
  8
$DDT_AUDIT_GENERATED_(77)
  6
Continuous
 62
     7
100
AcDbLine
 10
28.2467766952
 20
433.4748097295
 30
0.0
 11
28.2467766952
 21
250.4726774617
 31
0.0
  0
ELLIPSE
  5
79
330
75
100
AcDbEntity
  8
$DDT_AUDIT_GENERATED_(77)
  6
Continuous
 62
     7
100
AcDbEllipse
 10
35.2478429915
 20
433.4726772993
 30
0.0
 11
-4.951255324187066
 21
4.951255324187067
 31
0.0
210
0.0
220
0.0
230
1.0
 40
0.9996954599
 41
0.0101146770041104
 42
0.7852458701498678
  0
LINE
  5
7A
330
75
100
AcDbEntity
  8
$DDT_AUDIT_GENERATED_(77)
  6
Continuous
 62
     7
100
AcDbLine
 10
35.2457105613
 20
243.4737435956
 30
0.0
 11
177.2478428291
 21
243.4737435956
 31
0.0
  0
ELLIPSE
  5
7B
330
75
100
AcDbEntity
  8
$DDT_AUDIT_GENERATED_(77)
  6
Continuous
 62
     7
100
AcDbEllipse
 10
35.2478429915
 20
250.4748098919
 30
0.0
 11
4.951255324187067
 21
4.951255324187066
 31
0.0
210
0.0
220
0.0
230
1.0
 40
0.9996954599
 41
2.356346783439921
 42
3.926838523739662
  0
LINE
  5
7C
330
75
100
AcDbEntity
  8
$DDT_AUDIT_GENERATED_(77)
  6
Continuous
 62
     7
100
AcDbLine
 10
184.2467766952
 20
250.4726774617
 30
0.0
 11
184.2467766952
 21
433.4748097295
 31
0.0
  0
ELLIPSE
  5
7D
330
75
100
AcDbEntity
  8
$DDT_AUDIT_GENERATED_(77)
  6
Continuous
 62
     7
100
AcDbEllipse
 10
177.2457103989
 20
250.4748098919
 30
0.0
 11
-4.951255324187066
 21
4.951255324187067
 31
0.0
210
0.0
220
0.0
230
1.0
 40
0.9996954599
 41
2.356346783439934
 42
3.926838523739653
  0
LINE
  5
7E
330
75
100
AcDbEntity
  8
$DDT_AUDIT_GENERATED_(77)
  6
Continuous
 62
     7
100
AcDbLine
 10
177.2478428291
 20
440.4737435956
 30
0.0
 11
35.2457105613
 21
440.4737435956
 31
0.0
  0
ELLIPSE
  5
7F
330
75
100
AcDbEntity
  8
$DDT_AUDIT_GENERATED_(77)
  6
Continuous
 62
     7
100
AcDbEllipse
 10
177.2457103989
 20
433.4726772993
 30
0.0
 11
4.951255324187067
 21
4.951255324187066
 31
0.0
210
0.0
220
0.0
230
1.0
 40
0.9996954599
 41
0.244188587440839
 42
0.7852458701498558
  0
ELLIPSE
  5
80
330
75
100
AcDbEntity
  8
$DDT_AUDIT_GENERATED_(77)
  6
Continuous
 62
     7
100
AcDbEllipse
 10
35.2478429915
 20
433.4726772993
 30
0.0
 11
4.951255324187066
 21
-4.951255324187067
 31
0.0
210
0.0
220
0.0
230
1.0
 40
0.9996954599
 41
2.356346783439933
 42
3.151707330593903
  0
ELLIPSE
  5
81
330
75
100
AcDbEntity
  8
$DDT_AUDIT_GENERATED_(77)
  6
Continuous
 62
     7
100
AcDbEllipse
 10
177.2457103989
 20
433.4726772993
 30
0.0
 11
-4.951255324187067
 21
-4.951255324187066
 31
0.0
210
0.0
220
0.0
230
1.0
 40
0.9996954599
 41
2.356346783439922
 42
3.385781241030632
  0
SPLINE
  5
82
330
75
100
AcDbEntity
  8
$DDT_AUDIT_GENERATED_(77)
  6
Continuous
 62
     7
100
AcDbSpline
210
0.0
220
0.0
230
1.0
 70
    11
 71
     3
 72
    71
 73
    67
 74
     0
 42
0.000000000036674
 43
0.0000000001
 40
0.0
 40
0.0
 40
0.0
 40
0.0
 40
0.0312499999999999
 40
0.0312499999999999
 40
0.0625000000000001
 40
0.0625000000000001
 40
0.09375
 40
0.09375
 40
0.1250000000000001
 40
0.1250000000000001
 40
0.15625
 40
0.15625
 40
0.1874999999999999
 40
0.1874999999999999
 40
0.2187500000000001
 40
0.2187500000000001
 40
0.25
 40
0.25
 40
0.2812500000000001
 40
0.2812500000000001
 40
0.3125000000000001
 40
0.3125000000000001
 40
0.3437499999999999
 40
0.3437499999999999
 40
0.375
 40
0.375
 40
0.4062500000000001
 40
0.4062500000000001
 40
0.4374999999999999
 40
0.4374999999999999
 40
0.4687499999999999
 40
0.4687499999999999
 40
0.5
 40
0.5
 40
0.5
 40
0.53125
 40
0.53125
 40
0.5625000000000001
 40
0.5625000000000001
 40
0.59375
 40
0.59375
 40
0.625
 40
0.625
 40
0.65625
 40
0.65625
 40
0.6874999999999999
 40
0.6874999999999999
 40
0.71875
 40
0.71875
 40
0.75
 40
0.75
 40
0.7812500000000002
 40
0.7812500000000002
 40
0.8125000000000001
 40
0.8125000000000001
 40
0.84375
 40
0.84375
 40
0.8749999999999999
 40
0.8749999999999999
 40
0.90625
 40
0.90625
 40
0.9374999999999999
 40
0.9374999999999999
 40
0.9687500000000001
 40
0.9687500000000001
 40
1.0
 40
1.0
 40
1.0
 40
1.0
 10
106.2467766951656
 20
291.4737435956008
 30
0.0
 10
103.9233071287553
 20
291.4737435956008
 30
0.0
 10
101.5998950138035
 20
291.799271033589
 30
0.0
 10
97.04224551338201
 20
293.0889028368863
 30
0.0
 10
94.8081208230603
 20
294.0529753139591
 30
0.0
 10
90.51490886934837
 20
296.5826790936028
 30
0.0
 10
88.45592776261068
 20
298.1482478450961
 30
0.0
 10
84.59213908332728
 20
301.820808503549
 30
0.0
 10
82.78742704940774
 20
303.9277096002936
 30
0.0
 10
79.50154487667695
 20
308.6019926910675
 30
0.0
 10
78.02045598691826
 20
311.1692591054623
 30
0.0
 10
75.43875492993034
 20
316.6656345507606
 30
0.0
 10
74.3382065997438
 20
319.5946076742366
 30
0.0
 10
72.55989998228407
 20
325.7018528480924
 30
0.0
 10
71.88218566678955
 20
328.8799738861075
 30
0.0
 10
70.97561281491024
 20
335.363390781467
 30
0.0
 10
70.74677669516456
 20
338.6685263248535
 30
0.0
 10
70.74677669516456
 20
345.2789608663501
 30
0.0
 10
70.97561281491025
 20
348.5840964097395
 30
0.0
 10
71.88218566678955
 20
355.0675133050934
 30
0.0
 10
72.5598999822951
 20
358.2456343431057
 30
0.0
 10
74.33820659973276
 20
364.3528795169725
 30
0.0
 10
75.43875492993035
 20
367.2818526404377
 30
0.0
 10
78.02045598691828
 20
372.7782280857465
 30
0.0
 10
79.50154487667888
 20
375.3454945001446
 30
0.0
 10
82.78742704940576
 20
380.0197775909015
 30
0.0
 10
84.59213908333193
 20
382.1266786876546
 30
0.0
 10
88.45592776260608
 20
385.7992393461075
 30
0.0
 10
90.514908869348
 20
387.3648080976042
 30
0.0
 10
94.80812082306079
 20
389.8945118772412
 30
0.0
 10
97.04224551338135
 20
390.8585843543154
 30
0.0
 10
101.5998950138042
 20
392.1482161576165
 30
0.0
 10
103.9233071278335
 20
392.473743595619
 30
0.0
 10
106.2467766951656
 20
392.4737435956029
 30
0.0
 10
108.5702462624977
 20
392.4737435955867
 30
0.0
 10
110.8936583765278
 20
392.1482161576146
 30
0.0
 10
115.4513078769492
 20
390.8585843543173
 30
0.0
 10
117.6854325672709
 20
389.8945118772359
 30
0.0
 10
121.9786445209828
 20
387.3648080976095
 30
0.0
 10
124.0376256277205
 20
385.7992393461075
 30
0.0
 10
127.9014143070039
 20
382.1266786876546
 30
0.0
 10
129.7061263409236
 20
380.0197775909099
 30
0.0
 10
132.9920085136544
 20
375.345494500136
 30
0.0
 10
134.4730974034077
 20
372.7782280857465
 30
0.0
 10
137.0547984604061
 20
367.2818526404377
 30
0.0
 10
138.1553467905903
 20
364.3528795169776
 30
0.0
 10
139.9336534080443
 20
358.2456343431004
 30
0.0
 10
140.611367723548
 20
355.0675133050953
 30
0.0
 10
141.5179405754147
 20
348.5840964097375
 30
0.0
 10
141.7467766951667
 20
345.2789608663502
 30
0.0
 10
141.7467766951667
 20
338.6685263248535
 30
0.0
 10
141.517940575426
 20
335.3633907814688
 30
0.0
 10
140.6113677235366
 20
328.8799738861054
 30
0.0
 10
139.9336534080443
 20
325.701852848092
 30
0.0
 10
138.1553467905903
 20
319.5946076742368
 30
0.0
 10
137.0547984603956
 20
316.6656345507658
 30
0.0
 10
134.4730974034182
 20
311.169259105457
 30
0.0
 10
132.9920085136494
 20
308.6019926910676
 30
0.0
 10
129.7061263409285
 20
303.9277096002936
 30
0.0
 10
127.9014143070039
 20
301.820808503549
 30
0.0
 10
124.0376256277205
 20
298.148247845096
 30
0.0
 10
121.9786445209849
 20
296.5826790936027
 30
0.0
 10
117.6854325672686
 20
294.0529753139591
 30
0.0
 10
115.4513078769502
 20
293.0889028368699
 30
0.0
 10
110.8936583765267
 20
291.7992710336055
 30
0.0
 10
108.5702462615759
 20
291.4737435956008
 30
0.0
 10
106.2467766951656
 20
291.4737435956008
 30
0.0
  0
LINE
  5
84
330
75
100
AcDbEntity
  8
$DDT_AUDIT_GENERATED_(83)
  6
Continuous
 62
     7
100
AcDbLine
 10
134.6916067939
 20
371.5962506578
 30
0.0
 11
134.7715311039
 21
371.7269943545
 31
0.0
  0
LINE
  5
85
330
75
100
AcDbEntity
  8
$DDT_AUDIT_GENERATED_(83)
  6
Continuous
 62
     7
100
AcDbLine
 10
77.8019428689
 20
371.5962567556
 30
0.0
 11
77.7220222864
 21
371.7269943545
 31
0.0
  0
LINE
  5
86
330
75
100
AcDbEntity
  8
$DDT_AUDIT_GENERATED_(83)
  6
Continuous
 62
     7
100
AcDbLine
 10
91.2467766952
 20
325.701908397
 30
0.0
 11
91.2467766952
 21
326.2660703609
 31
0.0
  0
SPLINE
  5
87
330
75
100
AcDbEntity
  8
$DDT_AUDIT_GENERATED_(83)
  6
Continuous
 62
     7
100
AcDbSpline
210
0.0
220
0.0
230
1.0
 70
     8
 71
     3
 72
    10
 73
     6
 74
     0
 42
0.0000000012784439
 43
0.0000000001
 40
0.3916765822421491
 40
0.3916765822421491
 40
0.3916765822421491
 40
0.3916765822421491
 40
0.4245042843200819
 40
0.4245042843200819
 40
0.4509747392809102
 40
0.4509747392809102
 40
0.4509747392809102
 40
0.4509747392809102
 10
141.3463142755456
 20
342.2305214050826
 30
0.0
 10
141.3466225295834
 20
342.1449296023221
 30
0.0
 10
141.3467766951656
 20
342.0593366265848
 30
0.0
 10
141.3467766951656
 20
341.9047260790477
 30
0.0
 10
141.3466764578858
 20
341.835708598414
 30
0.0
 10
141.3464760237623
 20
341.7666917397038
 30
0.0
  0
ARC
  5
88
330
75
100
AcDbEntity
  8
$DDT_AUDIT_GENERATED_(83)
  6
Continuous
 62
     7
100
AcDbCircle
 10
109.6992093098
 20
333.8234515346
 30
0.0
 40
39.10273196564184
100
AcDbArc
 50
286.2600612248
 51
287.5611060862
  0
LINE
  5
89
330
75
100
AcDbEntity
  8
$DDT_AUDIT_GENERATED_(83)
  6
Continuous
 62
     7
100
AcDbLine
 10
137.5467766952
 20
342.2237435956
 30
0.0
 11
137.5467766952
 21
341.7237435956
 31
0.0
  0
LINE
  5
8A
330
75
100
AcDbEntity
  8
$DDT_AUDIT_GENERATED_(83)
  6
Continuous
 62
     7
100
AcDbLine
 10
134.0467766952
 20
341.7237435956
 30
0.0
 11
134.0467766952
 21
342.2237435956
 31
0.0
  0
LINE
  5
8B
330
75
100
AcDbEntity
  8
$DDT_AUDIT_GENERATED_(83)
  6
Continuous
 62
     7
100
AcDbLine
 10
137.6253883641
 20
341.7237435956
 30
0.0
 11
137.6253883641
 21
342.2237435956
 31
0.0
  0
LINE
  5
8C
330
75
100
AcDbEntity
  8
$DDT_AUDIT_GENERATED_(83)
  6
Continuous
 62
     7
100
AcDbLine
 10
133.9681650262
 20
342.2237435956
 30
0.0
 11
133.9681650262
 21
341.7237435956
 31
0.0
  0
SPLINE
  5
8D
330
75
100
AcDbEntity
  8
$DDT_AUDIT_GENERATED_(83)
  6
Continuous
 62
     7
100
AcDbSpline
210
0.0
220
0.0
230
1.0
 70
     8
 71
     3
 72
    10
 73
     6
 74
     0
 42
0.0000000012784446
 43
0.0000000001
 40
0.5424237799161696
 40
0.5424237799161696
 40
0.5424237799161696
 40
0.5424237799161696
 40
0.5754957156800916
 40
0.5754957156800916
 40
0.6117795764903262
 40
0.6117795764903262
 40
0.6117795764903262
 40
0.6117795764903262
 10
71.14724602047843
 20
341.7150554118317
 30
0.0
 10
71.14693316322357
 20
341.8012839884414
 30
0.0
 10
71.14677669516561
 20
341.8875137639863
 30
0.0
 10
71.14677669516561
 20
342.068348012784
 30
0.0
 10
71.14696503121024
 20
342.1629523624754
 30
0.0
 10
71.14734159915795
 20
342.257555135443
 30
0.0
  0
ARC
  5
8E
330
75
100
AcDbEntity
  8
$DDT_AUDIT_GENERATED_(83)
  6
Continuous
 62
     7
100
AcDbCircle
 10
102.6819186734
 20
333.516844201
 30
0.0
 40
38.84353883833776
100
AcDbArc
 50
252.9271499718
 51
254.1060089687
  0
LINE
  5
8F
330
75
100
AcDbEntity
  8
$DDT_AUDIT_GENERATED_(83)
  6
Continuous
 62
     7
100
AcDbLine
 10
74.9467766952
 20
341.7237435956
 30
0.0
 11
74.9467766952
 21
342.2237435956
 31
0.0
  0
LINE
  5
90
330
75
100
AcDbEntity
  8
$DDT_AUDIT_GENERATED_(83)
  6
Continuous
 62
     7
100
AcDbLine
 10
78.4467766952
 20
342.2237435956
 30
0.0
 11
78.4467766952
 21
341.7237435956
 31
0.0
  0
LINE
  5
91
330
75
100
AcDbEntity
  8
$DDT_AUDIT_GENERATED_(83)
  6
Continuous
 62
     7
100
AcDbLine
 10
74.8681650262
 20
342.2237435956
 30
0.0
 11
74.8681650262
 21
341.7237435956
 31
0.0
  0
LINE
  5
92
330
75
100
AcDbEntity
  8
$DDT_AUDIT_GENERATED_(83)
  6
Continuous
 62
     7
100
AcDbLine
 10
78.5253883641
 20
341.7237435956
 30
0.0
 11
78.5253883641
 21
342.2237435956
 31
0.0
  0
LINE
  5
93
330
75
100
AcDbEntity
  8
$DDT_AUDIT_GENERATED_(83)
  6
Continuous
 62
     7
100
AcDbLine
 10
121.2467766952
 20
326.2660703609
 30
0.0
 11
121.2467766952
 21
325.701908397
 31
0.0
  0
LINE
  5
94
330
75
100
AcDbEntity
  8
$DDT_AUDIT_GENERATED_(83)
  6
Continuous
 62
     7
100
AcDbLine
 10
133.1724691396
 20
309.5685058062
 30
0.0
 11
133.2359523224
 21
309.5113452916
 31
0.0
  0
SPLINE
  5
95
330
75
100
AcDbEntity
  8
$DDT_AUDIT_GENERATED_(83)
  6
Continuous
 62
     7
100
AcDbSpline
210
0.0
220
0.0
230
1.0
 70
     8
 71
     3
 72
    12
 73
     8
 74
     0
 42
0.0000000006725194
 43
0.0000000001
 40
0.0
 40
0.0
 40
0.0
 40
0.0
 40
0.2031125631756544
 40
0.2031125631756544
 40
0.7572364065499321
 40
0.7572364065499321
 40
1.0
 40
1.0
 40
1.0
 40
1.0
 10
132.9806621202333
 20
309.0693153287901
 30
0.0
 10
132.4270868414399
 20
308.1563143083497
 30
0.0
 10
131.8504349068098
 20
307.2715691489125
 30
0.0
 10
129.6196307160795
 20
304.0874298339615
 30
0.0
 10
127.8256476260262
 20
301.9857255945207
 30
0.0
 10
125.0619774541921
 20
299.3499440819925
 30
0.0
 10
124.1955439131942
 20
298.598605862258
 30
0.0
 10
123.307870191239
 20
297.9014721098675
 30
0.0
  0
ARC
  5
96
330
75
100
AcDbEntity
  8
$DDT_AUDIT_GENERATED_(83)
  6
Continuous
 62
     7
100
AcDbCircle
 10
126.7906274376
 20
312.9390462009
 30
0.0
 40
7.300092218261804
100
AcDbArc
 50
327.9882327403
 51
331.9954201585
  0
ARC
  5
97
330
75
100
AcDbEntity
  8
$DDT_AUDIT_GENERATED_(83)
  6
Continuous
 62
     7
100
AcDbCircle
 10
139.5243639916
 20
324.0748132494
 30
0.0
 40
62.0692464944671
100
AcDbArc
 50
192.6879807232
 51
193.3806079263
  0
LINE
  5
98
330
75
100
AcDbEntity
  8
$DDT_AUDIT_GENERATED_(83)
  6
Continuous
 62
     7
100
AcDbLine
 10
79.1400331957
 20
309.7108320907
 30
0.0
 11
79.209066669
 21
309.7729901092
 31
0.0
  0
ARC
  5
99
330
75
100
AcDbEntity
  8
$DDT_AUDIT_GENERATED_(83)
  6
Continuous
 62
     7
100
AcDbCircle
 10
85.6225990163
 20
313.1208859999
 30
0.0
 40
7.324761244019782
100
AcDbArc
 50
207.7459228928
 51
211.7435569929
  0
ARC
  5
9A
330
75
100
AcDbEntity
  8
$DDT_AUDIT_GENERATED_(83)
  6
Continuous
 62
     7
100
AcDbCircle
 10
135.1964770723
 20
362.2201471116
 30
0.0
 40
9.516339820296409
100
AcDbArc
 50
89.2044332808
 51
92.5593568327
  0
LINE
  5
9B
330
75
100
AcDbEntity
  8
$DDT_AUDIT_GENERATED_(83)
  6
Continuous
 62
     7
100
AcDbLine
 10
91.8544575565
 20
325.3562156409
 30
0.0
 11
91.8815331729
 21
325.9207920815
 31
0.0
  0
LINE
  5
9C
330
75
100
AcDbEntity
  8
$DDT_AUDIT_GENERATED_(83)
  6
Continuous
 62
     7
100
AcDbLine
 10
120.6125827192
 20
325.9090628847
 30
0.0
 11
120.6390958338
 21
325.3562156409
 31
0.0
  0
ARC
  5
9D
330
75
100
AcDbEntity
  8
$DDT_AUDIT_GENERATED_(83)
  6
Continuous
 62
     7
100
AcDbCircle
 10
133.4623907981
 20
371.3046132931
 30
0.0
 40
1.183477313709518
100
AcDbArc
 50
19.3748975487
 51
30.0473575892
  0
SPLINE
  5
9E
330
75
100
AcDbEntity
  8
$DDT_AUDIT_GENERATED_(83)
  6
Continuous
 62
     7
100
AcDbSpline
210
0.0
220
0.0
230
1.0
 70
     8
 71
     3
 72
    12
 73
     8
 74
     0
 42
0.0000000004858454
 43
0.0000000001
 40
0.0
 40
0.0
 40
0.0
 40
0.0
 40
0.2976972504734591
 40
0.2976972504734591
 40
0.6975076330863031
 40
0.6975076330863031
 40
1.0
 40
1.0
 40
1.0
 40
1.0
 10
78.00673062298402
 20
371.8971988922875
 30
0.0
 10
79.02875434763986
 20
373.8595503179487
 30
0.0
 10
80.15133601334291
 20
375.7155085683521
 30
0.0
 10
82.99014939378668
 20
379.767490060089
 30
0.0
 10
84.7778544465983
 20
381.8616838820842
 30
0.0
 10
88.1402339685792
 20
385.0684695081377
 30
0.0
 10
89.66079499762321
 20
386.2958641233197
 30
0.0
 10
91.23681163959702
 20
387.3564151561239
 30
0.0
  0
ARC
  5
9F
330
75
100
AcDbEntity
  8
$DDT_AUDIT_GENERATED_(83)
  6
Continuous
 62
     7
100
AcDbCircle
 10
79.0296403767
 20
371.3053137923
 30
0.0
 40
1.18180892529854
100
AcDbArc
 50
149.9450872212
 51
160.6326576409
  0
LINE
  5
A0
330
75
100
AcDbEntity
  8
$DDT_AUDIT_GENERATED_(83)
  6
Continuous
 62
     7
100
AcDbLine
 10
121.4973939018
 20
296.5430748263
 30
0.0
 11
121.4986378088
 21
296.5431848289
 31
0.0
  0
LINE
  5
A1
330
75
100
AcDbEntity
  8
$DDT_AUDIT_GENERATED_(83)
  6
Continuous
 62
     7
100
AcDbLine
 10
121.4986378088
 20
296.5431848289
 30
0.0
 11
121.3812711056
 21
296.6488622832
 31
0.0
  0
LINE
  5
A2
330
75
100
AcDbEntity
  8
$DDT_AUDIT_GENERATED_(83)
  6
Continuous
 62
     7
100
AcDbLine
 10
123.0871543934
 20
297.696515688
 30
0.0
 11
123.0872081615
 21
297.6963648016
 31
0.0
  0
ARC
  5
A3
330
75
100
AcDbEntity
  8
$DDT_AUDIT_GENERATED_(83)
  6
Continuous
 62
     7
100
AcDbCircle
 10
16.3488271141
 20
301.7591411802
 30
0.0
 40
106.815673665107
100
AcDbArc
 50
357.47194847
 51
357.8202065768
  0
LINE
  5
A4
330
75
100
AcDbEntity
  8
$DDT_AUDIT_GENERATED_(83)
  6
Continuous
 62
     7
100
AcDbLine
 10
122.9889157553
 20
297.7849701551
 30
0.0
 11
123.0871543934
 21
297.696515688
 31
0.0
  0
ARC
  5
A5
330
75
100
AcDbEntity
  8
$DDT_AUDIT_GENERATED_(83)
  6
Continuous
 62
     7
100
AcDbCircle
 10
126.3702940357
 20
293.8610318824
 30
0.0
 40
5.069871500784964
100
AcDbArc
 50
127.1600572559
 51
130.5943748358
  0
LINE
  5
A6
330
75
100
AcDbEntity
  8
$DDT_AUDIT_GENERATED_(83)
  6
Continuous
 62
     7
100
AcDbLine
 10
90.9961594886
 20
296.5430748263
 30
0.0
 11
91.0675118712
 21
296.5205720784
 31
0.0
  0
LINE
  5
A7
330
75
100
AcDbEntity
  8
$DDT_AUDIT_GENERATED_(83)
  6
Continuous
 62
     7
100
AcDbLine
 10
90.9949155815
 20
296.5431848289
 30
0.0
 11
90.9961594886
 21
296.5430748263
 31
0.0
  0
LINE
  5
A8
330
75
100
AcDbEntity
  8
$DDT_AUDIT_GENERATED_(83)
  6
Continuous
 62
     7
100
AcDbLine
 10
91.1122822848
 20
296.6488622832
 30
0.0
 11
90.9949155815
 21
296.5431848289
 31
0.0
  0
LINE
  5
A9
330
75
100
AcDbEntity
  8
$DDT_AUDIT_GENERATED_(83)
  6
Continuous
 62
     7
100
AcDbLine
 10
89.4063989969
 20
297.696515688
 30
0.0
 11
89.504637635
 21
297.7849701551
 31
0.0
  0
ARC
  5
AA
330
75
100
AcDbEntity
  8
$DDT_AUDIT_GENERATED_(83)
  6
Continuous
 62
     7
100
AcDbCircle
 10
85.3463002939
 20
379.9362799192
 30
0.0
 40
83.58418010245718
100
AcDbArc
 50
273.323970293
 51
273.8749996881
  0
LINE
  5
AB
330
75
100
AcDbEntity
  8
$DDT_AUDIT_GENERATED_(83)
  6
Continuous
 62
     7
100
AcDbLine
 10
89.4063452288
 20
297.6963648016
 30
0.0
 11
89.4063989969
 21
297.696515688
 31
0.0
  0
LINE
  5
AC
330
75
100
AcDbEntity
  8
$DDT_AUDIT_GENERATED_(83)
  6
Continuous
 62
     7
100
AcDbLine
 10
91.377197322
 20
296.4744196246
 30
0.0
 11
91.2779457361
 21
296.3850530952
 31
0.0
  0
ARC
  5
AD
330
75
100
AcDbEntity
  8
$DDT_AUDIT_GENERATED_(83)
  6
Continuous
 62
     7
100
AcDbCircle
 10
88.7138352891
 20
292.6346429601
 30
0.0
 40
4.543152932198769
100
AcDbArc
 50
55.6400519084
 51
58.7970414975
  0
SPLINE
  5
AE
330
75
100
AcDbEntity
  8
$DDT_AUDIT_GENERATED_(83)
  6
Continuous
 62
     7
100
AcDbSpline
210
0.0
220
0.0
230
1.0
 70
     8
 71
     3
 72
    12
 73
     8
 74
     0
 42
0.0000000006622219
 43
0.0000000001
 40
0.0
 40
0.0
 40
0.0
 40
0.0
 40
0.2392605069716243
 40
0.2392605069716243
 40
0.7853883254248362
 40
0.7853883254248362
 40
1.0
 40
1.0
 40
1.0
 40
1.0
 10
89.18568319909132
 20
297.9014721098668
 30
0.0
 10
88.2980094771343
 20
298.5986058622574
 30
0.0
 10
87.43157593613545
 20
299.3499440819922
 30
0.0
 10
84.66790576431424
 20
301.9857255945207
 30
0.0
 10
82.87392267425165
 20
304.0874298339616
 30
0.0
 10
80.59998546957884
 20
307.333135074796
 30
0.0
 10
79.98344382311252
 20
308.2840268293122
 30
0.0
 10
79.39353860144504
 20
309.2671950898467
 30
0.0
  0
ARC
  5
AF
330
75
100
AcDbEntity
  8
$DDT_AUDIT_GENERATED_(83)
  6
Continuous
 62
     7
100
AcDbCircle
 10
86.1269922209
 20
293.8656618405
 30
0.0
 40
5.06392683897865
100
AcDbArc
 50
49.4036087467
 51
52.8419591618
  0
SPLINE
  5
B0
330
75
100
AcDbEntity
  8
$DDT_AUDIT_GENERATED_(83)
  6
Continuous
 62
     7
100
AcDbSpline
210
0.0
220
0.0
230
1.0
 70
     8
 71
     3
 72
     8
 73
     4
 74
     0
 42
0.0000000159744462
 43
0.0000000001
 40
0.0
 40
0.0
 40
0.0
 40
0.0
 40
0.4508615369769141
 40
0.4508615369769141
 40
0.4508615369769141
 40
0.4508615369769141
 10
140.3525022798558
 20
328.1524246390619
 30
0.0
 10
140.261790116017
 20
328.1733671920658
 30
0.0
 10
140.180433709698
 20
328.2265447712371
 30
0.0
 10
140.1245218801673
 20
328.2995383840874
 30
0.0
  0
SPLINE
  5
B1
330
75
100
AcDbEntity
  8
$DDT_AUDIT_GENERATED_(83)
  6
Continuous
 62
     7
100
AcDbSpline
210
0.0
220
0.0
230
1.0
 70
     8
 71
     3
 72
     8
 73
     4
 74
     0
 42
0.0000000159809655
 43
0.0000000001
 40
0.5545729548224284
 40
0.5545729548224284
 40
0.5545729548224284
 40
0.5545729548224284
 40
1.0
 40
1.0
 40
1.0
 40
1.0
 10
139.1845824673188
 20
324.2245085399463
 30
0.0
 10
139.2661541182483
 20
324.2643936032342
 30
0.0
 10
139.3614743913843
 20
324.276005023219
 30
0.0
 10
139.4510170312429
 20
324.2553324759261
 30
0.0
  0
ARC
  5
B2
330
75
100
AcDbEntity
  8
$DDT_AUDIT_GENERATED_(83)
  6
Continuous
 62
     7
100
AcDbCircle
 10
140.7677562736
 20
328.7539234797
 30
0.0
 40
0.4000609484025177
100
AcDbArc
 50
169.2700287261
 51
256.9832216276
  0
ARC
  5
B3
330
75
100
AcDbEntity
  8
$DDT_AUDIT_GENERATED_(83)
  6
Continuous
 62
     7
100
AcDbCircle
 10
139.5601947963
 20
323.5327590252
 30
0.0
 40
0.4000609483245009
100
AcDbArc
 50
77.0167530737
 51
164.6435871248
  0
SPLINE
  5
B4
330
75
100
AcDbEntity
  8
$DDT_AUDIT_GENERATED_(83)
  6
Continuous
 62
     7
100
AcDbSpline
210
0.0
220
0.0
230
1.0
 70
     8
 71
     3
 72
     8
 73
     4
 74
     0
 42
0.0000000159519244
 43
0.0000000001
 40
0.5429839676887303
 40
0.5429839676887303
 40
0.5429839676887303
 40
0.5429839676887303
 40
1.0
 40
1.0
 40
1.0
 40
1.0
 10
72.37145981502596
 20
328.302747310016
 30
0.0
 10
72.31550632173152
 20
328.2281567407678
 30
0.0
 10
72.23300164184357
 20
328.1736530917348
 30
0.0
 10
72.14105111047989
 20
328.152424639063
 30
0.0
  0
SPLINE
  5
B5
330
75
100
AcDbEntity
  8
$DDT_AUDIT_GENERATED_(83)
  6
Continuous
 62
     7
100
AcDbSpline
210
0.0
220
0.0
230
1.0
 70
     8
 71
     3
 72
     8
 73
     4
 74
     0
 42
0.0000000160049833
 43
0.0000000001
 40
0.0
 40
0.0
 40
0.0
 40
0.0
 40
0.4379105163903935
 40
0.4379105163903935
 40
0.4379105163903935
 40
0.4379105163903935
 10
73.04253635908915
 20
324.2553324759263
 30
0.0
 10
73.13056788277123
 20
324.2756561545609
 30
0.0
 10
73.2239848738253
 20
324.2648357586157
 30
0.0
 10
73.30460444732864
 20
324.2266163280719
 30
0.0
  0
SPLINE
  5
B6
330
75
100
AcDbEntity
  8
$DDT_AUDIT_GENERATED_(83)
  6
Continuous
 62
     7
100
AcDbSpline
210
0.0
220
0.0
230
1.0
 70
     8
 71
     3
 72
     8
 73
     4
 74
     0
 42
0.0000000166159634
 43
0.0000000001
 40
0.5289775428511391
 40
0.5289775428511391
 40
0.5289775428511391
 40
0.5289775428511391
 40
1.0
 40
1.0
 40
1.0
 40
1.0
 10
104.1540421328995
 20
291.8716435955778
 30
0.0
 10
104.2132130762126
 20
291.8004937712626
 30
0.0
 10
104.2467766951662
 20
291.7089622397921
 30
0.0
 10
104.2467766951662
 20
291.6155167648237
 30
0.0
  0
SPLINE
  5
B7
330
75
100
AcDbEntity
  8
$DDT_AUDIT_GENERATED_(83)
  6
Continuous
 62
     7
100
AcDbSpline
210
0.0
220
0.0
230
1.0
 70
     8
 71
     3
 72
     8
 73
     4
 74
     0
 42
0.0000000166348705
 43
0.0000000001
 40
0.0
 40
0.0
 40
0.0
 40
0.0
 40
0.4644631145435344
 40
0.4644631145435344
 40
0.4644631145435344
 40
0.4644631145435344
 10
108.2467766951656
 20
291.6155167648257
 30
0.0
 10
108.2467766951656
 20
291.7076613235309
 30
0.0
 10
108.2793397645337
 20
291.7978118343781
 30
0.0
 10
108.3369486931513
 20
291.8685319338308
 30
0.0
  0
LINE
  5
B8
330
75
100
AcDbEntity
  8
$DDT_AUDIT_GENERATED_(83)
  6
Continuous
 62
     7
100
AcDbLine
 10
139.6975298334
 20
325.2338380444
 30
0.0
 11
139.4841784186
 21
325.2830940996
 31
0.0
  0
LINE
  5
B9
330
75
100
AcDbEntity
  8
$DDT_AUDIT_GENERATED_(83)
  6
Continuous
 62
     7
100
AcDbLine
 10
73.0093749717
 20
325.2830940996
 30
0.0
 11
72.796120605
 21
325.2338604497
 31
0.0
  0
LINE
  5
BA
330
75
100
AcDbEntity
  8
$DDT_AUDIT_GENERATED_(83)
  6
Continuous
 62
     7
100
AcDbLine
 10
72.3216272126
 20
327.1586963833
 30
0.0
 11
72.5886021259
 21
327.2203323986
 31
0.0
  0
LINE
  5
BB
330
75
100
AcDbEntity
  8
$DDT_AUDIT_GENERATED_(83)
  6
Continuous
 62
     7
100
AcDbLine
 10
139.9049512644
 20
327.2203323986
 30
0.0
 11
140.1536887477
 21
327.1629068258
 31
0.0
  0
LINE
  5
BC
330
75
100
AcDbEntity
  8
$DDT_AUDIT_GENERATED_(83)
  6
Continuous
 62
     7
100
AcDbLine
 10
107.2378968463
 20
291.7921910675
 30
0.0
 11
107.2378968463
 21
291.5154770025
 31
0.0
  0
LINE
  5
BD
330
75
100
AcDbEntity
  8
$DDT_AUDIT_GENERATED_(83)
  6
Continuous
 62
     7
100
AcDbLine
 10
105.2556565441
 20
291.5339826273
 30
0.0
 11
105.2556565441
 21
291.7921910675
 31
0.0
  0
SPLINE
  5
BE
330
75
100
AcDbEntity
  8
$DDT_AUDIT_GENERATED_(83)
  6
Continuous
 62
     7
100
AcDbSpline
210
0.0
220
0.0
230
1.0
 70
     8
 71
     3
 72
    12
 73
     8
 74
     0
 42
0.0000000004858454
 43
0.0000000001
 40
0.0
 40
0.0
 40
0.0
 40
0.0
 40
0.3024923669136279
 40
0.3024923669136279
 40
0.702302749526511
 40
0.702302749526511
 40
1.0
 40
1.0
 40
1.0
 40
1.0
 10
121.2567417507342
 20
387.3564151561229
 30
0.0
 10
122.8327583927078
 20
386.295864123319
 30
0.0
 10
124.3533194217559
 20
385.0684695081372
 30
0.0
 10
127.7156989437283
 20
381.8616838820842
 30
0.0
 10
129.5034039965446
 20
379.7674900600889
 30
0.0
 10
132.3422173769884
 20
375.715508568352
 30
0.0
 10
133.4647990426885
 20
373.8595503179487
 30
0.0
 10
134.486822767345
 20
371.8971988922875
 30
0.0
  0
ARC
  5
BF
330
75
100
AcDbEntity
  8
$DDT_AUDIT_GENERATED_(83)
  6
Continuous
 62
     7
100
AcDbCircle
 10
93.9798374702
 20
391.7020341313
 30
0.0
 40
2.408813158949543
100
AcDbArc
 50
294.1914840397
 51
296.2831712793
  0
ARC
  5
C0
330
75
100
AcDbEntity
  8
$DDT_AUDIT_GENERATED_(83)
  6
Continuous
 62
     7
100
AcDbCircle
 10
91.1436352745
 20
389.4137476107
 30
0.0
 40
3.824386736727791
100
AcDbArc
 50
0.0329153859
 51
1.363655017
  0
ARC
  5
C1
330
75
100
AcDbEntity
  8
$DDT_AUDIT_GENERATED_(83)
  6
Continuous
 62
     7
100
AcDbCircle
 10
106.2453989997
 20
366.7525753387
 30
0.0
 40
25.39262086509613
100
AcDbArc
 50
63.822262518
 51
116.169649226
  0
ARC
  5
C2
330
75
100
AcDbEntity
  8
$DDT_AUDIT_GENERATED_(83)
  6
Continuous
 62
     7
100
AcDbCircle
 10
114.2717990246
 20
382.4286053997
 30
0.0
 40
7.788888732675708
100
AcDbArc
 50
65.2987055005
 51
65.9378966969
  0
ARC
  5
C3
330
75
100
AcDbEntity
  8
$DDT_AUDIT_GENERATED_(83)
  6
Continuous
 62
     7
100
AcDbCircle
 10
77.6418848171
 20
367.6168843337
 30
0.0
 40
4.118992620312026
100
AcDbArc
 50
87.5991250627
 51
90.6999802627
  0
ARC
  5
C4
330
75
100
AcDbEntity
  8
$DDT_AUDIT_GENERATED_(83)
  6
Continuous
 62
     7
100
AcDbCircle
 10
134.851752683
 20
367.61121816
 30
0.0
 40
4.124657346437727
100
AcDbArc
 50
89.3021495839
 51
92.3987450907
  0
LINE
  5
C6
330
75
100
AcDbEntity
  8
$DDT_AUDIT_GENERATED_(C5)
  6
Continuous
 62
     7
100
AcDbLine
 10
135.042412929
 20
342.2237435956
 30
0.0
 11
131.1616505686
 21
342.2237435956
 31
0.0
  0
LINE
  5
C7
330
75
100
AcDbEntity
  8
$DDT_AUDIT_GENERATED_(C5)
  6
Continuous
 62
     7
100
AcDbLine
 10
130.9967766952
 20
342.048529174
 30
0.0
 11
130.9967766952
 21
341.9737437975
 31
0.0
  0
SPLINE
  5
C8
330
75
100
AcDbEntity
  8
$DDT_AUDIT_GENERATED_(C5)
  6
Continuous
 62
     7
100
AcDbSpline
210
0.0
220
0.0
230
1.0
 70
     8
 71
     3
 72
     8
 73
     4
 74
     0
 42
0.0000000004487434
 43
0.0000000001
 40
0.0
 40
0.0
 40
0.0
 40
0.0
 40
0.0940202472843038
 40
0.0940202472843038
 40
0.0940202472843038
 40
0.0940202472843038
 10
130.9967766951645
 20
341.9737437975133
 30
0.0
 10
130.9967767041331
 20
341.2736993084977
 30
0.0
 10
130.9493834001775
 20
340.5761761314961
 30
0.0
 10
130.8572448278076
 20
339.8862881583776
 30
0.0
  0
SPLINE
  5
C9
330
75
100
AcDbEntity
  8
$DDT_AUDIT_GENERATED_(C5)
  6
Continuous
 62
     7
100
AcDbSpline
210
0.0
220
0.0
230
1.0
 70
     8
 71
     3
 72
     8
 73
     4
 74
     0
 42
0.0000000004495182
 43
0.0000000001
 40
0.8760276769812255
 40
0.8760276769812255
 40
0.8760276769812255
 40
0.8760276769812255
 40
0.9753294710427293
 40
0.9753294710427293
 40
0.9753294710427293
 40
0.9753294710427293
 10
121.1839816765138
 20
326.2263914684548
 30
0.0
 10
120.5547711583697
 20
325.8463433193454
 30
0.0
 10
119.9076907329166
 20
325.4931818572489
 30
0.0
 10
119.2467368376036
 20
325.167559711565
 30
0.0
  0
SPLINE
  5
CA
330
75
100
AcDbEntity
  8
$DDT_AUDIT_GENERATED_(C5)
  6
Continuous
 62
     7
100
AcDbSpline
210
0.0
220
0.0
230
1.0
 70
     8
 71
     3
 72
     8
 73
     4
 74
     0
 42
0.0000000004492062
 43
0.0000000001
 40
0.984979122628381
 40
0.984979122628381
 40
0.984979122628381
 40
0.984979122628381
 40
1.0
 40
1.0
 40
1.0
 40
1.0
 10
119.0536629048264
 20
325.0734134765461
 30
0.0
 10
118.9532816220336
 20
325.0249688128441
 30
0.0
 10
118.8525917852982
 20
324.977155729388
 30
0.0
 10
118.7516072267048
 20
324.929976484996
 30
0.0
  0
SPLINE
  5
CB
330
75
100
AcDbEntity
  8
$DDT_AUDIT_GENERATED_(C5)
  6
Continuous
 62
     7
100
AcDbSpline
210
0.0
220
0.0
230
1.0
 70
     8
 71
     3
 72
    10
 73
     6
 74
     0
 42
0.0000000004418753
 43
0.0000000001
 40
0.0
 40
0.0
 40
0.0
 40
0.0
 40
0.5
 40
0.5
 40
0.9767171048266361
 40
0.9767171048266361
 40
0.9767171048266361
 40
0.9767171048266361
 10
117.2421346698131
 20
324.2797295948751
 30
0.0
 10
113.7456041146349
 20
322.8961500751016
 30
0.0
 10
110.0061077913966
 20
322.2237514305226
 30
0.0
 10
102.6626270081655
 20
322.2237362574303
 30
0.0
 10
99.0962317595415
 20
322.8349998805076
 30
0.0
 10
95.74142843582887
 20
324.0910715351924
 30
0.0
  0
SPLINE
  5
CC
330
75
100
AcDbEntity
  8
$DDT_AUDIT_GENERATED_(C5)
  6
Continuous
 62
     7
100
AcDbSpline
210
0.0
220
0.0
230
1.0
 70
     8
 71
     3
 72
     8
 73
     4
 74
     0
 42
0.0000000004433436
 43
0.0000000001
 40
0.9857140777756572
 40
0.9857140777756572
 40
0.9857140777756572
 40
0.9857140777756572
 40
1.0
 40
1.0
 40
1.0
 40
1.0
 10
95.55171252497513
 20
324.1628774263692
 30
0.0
 10
95.45141954997321
 20
324.2012482173358
 30
0.0
 10
95.35131987689095
 20
324.2401986393242
 30
0.0
 10
95.25141872051809
 20
324.2797295948751
 30
0.0
  0
LINE
  5
CD
330
75
100
AcDbEntity
  8
$DDT_AUDIT_GENERATED_(C5)
  6
Continuous
 62
     7
100
AcDbLine
 10
141.196338886
 20
342.2237435956
 30
0.0
 11
136.5507585752
 21
342.2237435956
 31
0.0
  0
LINE
  5
CE
330
75
100
AcDbEntity
  8
$DDT_AUDIT_GENERATED_(C5)
  6
Continuous
 62
     7
100
AcDbLine
 10
141.2960558169
 20
342.223917606
 30
0.0
 11
141.2211992893
 21
342.2237431065
 31
0.0
  0
SPLINE
  5
CF
330
75
100
AcDbEntity
  8
$DDT_AUDIT_GENERATED_(C5)
  6
Continuous
 62
     7
100
AcDbSpline
210
0.0
220
0.0
230
1.0
 70
     8
 71
     3
 72
    14
 73
    10
 74
     0
 42
0.0000000001512015
 43
0.0000000001
 40
0.0
 40
0.0
 40
0.0
 40
0.0
 40
0.2334189077813994
 40
0.2334189077813994
 40
0.4889459385209329
 40
0.4889459385209329
 40
0.7444729692604665
 40
0.7444729692604665
 40
1.0
 40
1.0
 40
1.0
 40
1.0
 10
141.4700410406701
 20
343.9237740612105
 30
0.0
 10
141.3060403704215
 20
349.9005318672832
 30
0.0
 10
140.3892786077905
 20
355.8322066878643
 30
0.0
 10
137.0015787275042
 20
367.3931510663257
 30
0.0
 10
134.3930542832184
 20
372.9343722705757
 30
0.0
 10
127.8830157553848
 20
382.1880427067339
 30
0.0
 10
123.9835594235919
 20
385.8972494026274
 30
0.0
 10
115.4709337786922
 20
390.9166564524314
 30
0.0
 10
110.8629786775945
 20
392.2237435956018
 30
0.0
 10
106.2467766951656
 20
392.2237435956018
 30
0.0
  0
SPLINE
  5
D0
330
75
100
AcDbEntity
  8
$DDT_AUDIT_GENERATED_(C5)
  6
Continuous
 62
     7
100
AcDbSpline
210
0.0
220
0.0
230
1.0
 70
     8
 71
     3
 72
     8
 73
     4
 74
     0
 42
0.0000000596735839
 43
0.0000000001
 40
0.0
 40
0.0
 40
0.0
 40
0.0
 40
1.0
 40
1.0
 40
1.0
 40
1.0
 10
141.2960558169164
 20
342.2239176059626
 30
0.0
 10
141.3504377754878
 20
342.2241079451969
 30
0.0
 10
141.4043492915148
 20
342.2476272571458
 30
0.0
 10
141.441477271115
 20
342.2873567993727
 30
0.0
  0
SPLINE
  5
D1
330
75
100
AcDbEntity
  8
$DDT_AUDIT_GENERATED_(C5)
  6
Continuous
 62
     7
100
AcDbSpline
210
0.0
220
0.0
230
1.0
 70
     8
 71
     3
 72
    10
 73
     6
 74
     0
 42
0.0000000434193815
 43
0.0000000001
 40
0.0
 40
0.0
 40
0.0
 40
0.0
 40
0.5
 40
0.5
 40
1.0
 40
1.0
 40
1.0
 40
1.0
 10
141.2211992893085
 20
342.2237431064711
 30
0.0
 10
141.1963388859574
 20
342.2237435956018
 30
0.0
 10
141.1963388859574
 20
342.2452982148799
 30
0.0
 10
141.1963388859574
 20
342.3193462638491
 30
0.0
 10
141.1963388859574
 20
342.371383718042
 30
0.0
 10
141.2208483332179
 20
342.4237424931304
 30
0.0
  0
LINE
  5
D2
330
75
100
AcDbEntity
  8
$DDT_AUDIT_GENERATED_(C5)
  6
Continuous
 62
     7
100
AcDbLine
 10
141.1939676823
 20
342.4235615181
 30
0.0
 11
141.2453558728
 21
342.423741379
 31
0.0
  0
LINE
  5
D3
330
75
100
AcDbEntity
  8
$DDT_AUDIT_GENERATED_(C5)
  6
Continuous
 62
     7
100
AcDbLine
 10
141.4438778519
 20
342.4248859824
 30
0.0
 11
141.4414772711
 21
342.2873567994
 31
0.0
  0
LINE
  5
D4
330
75
100
AcDbEntity
  8
$DDT_AUDIT_GENERATED_(C5)
  6
Continuous
 62
     7
100
AcDbLine
 10
141.4438778519
 20
342.4248859824
 30
0.0
 11
141.4700410407
 21
343.9237740612
 31
0.0
  0
SPLINE
  5
D5
330
75
100
AcDbEntity
  8
$DDT_AUDIT_GENERATED_(C5)
  6
Continuous
 62
     7
100
AcDbSpline
210
0.0
220
0.0
230
1.0
 70
     8
 71
     3
 72
    14
 73
    10
 74
     0
 42
0.0000000001512015
 43
0.0000000001
 40
0.0
 40
0.0
 40
0.0
 40
0.0
 40
0.2334189077813994
 40
0.2334189077813994
 40
0.4889459385209329
 40
0.4889459385209329
 40
0.7444729692604665
 40
0.7444729692604665
 40
1.0
 40
1.0
 40
1.0
 40
1.0
 10
71.02351234966117
 20
343.9237740612105
 30
0.0
 10
71.18751301990976
 20
349.9005318672832
 30
0.0
 10
72.10427478254076
 20
355.8322066878643
 30
0.0
 10
75.49197466282705
 20
367.3931510663257
 30
0.0
 10
78.10049910711287
 20
372.9343722705757
 30
0.0
 10
84.61053763494641
 20
382.1880427067339
 30
0.0
 10
88.5099939667393
 20
385.8972494026274
 30
0.0
 10
97.02261961163903
 20
390.9166564524314
 30
0.0
 10
101.6305747127368
 20
392.2237435956018
 30
0.0
 10
106.2467766951656
 20
392.2237435956018
 30
0.0
  0
SPLINE
  5
D6
330
75
100
AcDbEntity
  8
$DDT_AUDIT_GENERATED_(C5)
  6
Continuous
 62
     7
100
AcDbSpline
210
0.0
220
0.0
230
1.0
 70
     8
 71
     3
 72
    14
 73
    10
 74
     0
 42
0.0000000004496958
 43
0.0000000001
 40
0.0
 40
0.0
 40
0.0
 40
0.0
 40
0.25
 40
0.25
 40
0.5
 40
0.5
 40
0.75
 40
0.75
 40
0.9753294710429857
 40
0.9753294710429857
 40
0.9753294710429857
 40
0.9753294710429857
 10
81.49677669516674
 20
341.9737437975133
 30
0.0
 10
81.49677667131907
 20
340.1123242915136
 30
0.0
 10
81.83186112289934
 20
338.2687311931132
 30
0.0
 10
83.07263295968572
 20
334.8094792644701
 30
0.0
 10
83.98825501997247
 20
333.1693290179807
 30
0.0
 10
86.2221042709595
 20
330.2407331335163
 30
0.0
 10
87.55473983137357
 20
328.9279465557968
 30
0.0
 10
90.31865971434941
 20
326.7871224437977
 30
0.0
 10
91.74702097479523
 20
325.9064412850551
 30
0.0
 10
93.24681655273277
 20
325.1675597115625
 30
0.0
  0
SPLINE
  5
D7
330
75
100
AcDbEntity
  8
$DDT_AUDIT_GENERATED_(C5)
  6
Continuous
 62
     7
100
AcDbSpline
210
0.0
220
0.0
230
1.0
 70
     8
 71
     3
 72
     8
 73
     4
 74
     0
 42
0.0000000004492062
 43
0.0000000001
 40
0.9849791226285237
 40
0.9849791226285237
 40
0.9849791226285237
 40
0.9849791226285237
 40
1.0
 40
1.0
 40
1.0
 40
1.0
 10
93.43989048550773
 20
325.0734134765447
 30
0.0
 10
93.54027176829955
 20
325.0249688128432
 30
0.0
 10
93.640961605034
 20
324.9771557293875
 30
0.0
 10
93.74194616362645
 20
324.929976484996
 30
0.0
  0
LINE
  5
D8
330
75
100
AcDbEntity
  8
$DDT_AUDIT_GENERATED_(C5)
  6
Continuous
 62
     7
100
AcDbLine
 10
81.4967766952
 20
342.2237435956
 30
0.0
 11
81.4967766952
 21
341.9737437975
 31
0.0
  0
LINE
  5
D9
330
75
100
AcDbEntity
  8
$DDT_AUDIT_GENERATED_(C5)
  6
Continuous
 62
     7
100
AcDbLine
 10
77.4511404614
 20
342.2237435956
 30
0.0
 11
81.3213556071
 21
342.2237435956
 31
0.0
  0
SPLINE
  5
DA
330
75
100
AcDbEntity
  8
$DDT_AUDIT_GENERATED_(C5)
  6
Continuous
 62
     7
100
AcDbSpline
210
0.0
220
0.0
230
1.0
 70
     8
 71
     3
 72
     8
 73
     4
 74
     0
 42
0.0000000596735839
 43
0.0000000001
 40
0.0
 40
0.0
 40
0.0
 40
0.0
 40
1.0
 40
1.0
 40
1.0
 40
1.0
 10
71.19749757341486
 20
342.2239176059626
 30
0.0
 10
71.1431156148435
 20
342.2241079451969
 30
0.0
 10
71.08920409881638
 20
342.2476272571458
 30
0.0
 10
71.0520761192162
 20
342.2873567993727
 30
0.0
  0
LINE
  5
DB
330
75
100
AcDbEntity
  8
$DDT_AUDIT_GENERATED_(C5)
  6
Continuous
 62
     7
100
AcDbLine
 10
71.0496755384
 20
342.4248859824
 30
0.0
 11
71.0520761192
 21
342.2873567994
 31
0.0
  0
LINE
  5
DC
330
75
100
AcDbEntity
  8
$DDT_AUDIT_GENERATED_(C5)
  6
Continuous
 62
     7
100
AcDbLine
 10
71.1974975734
 20
342.223917606
 30
0.0
 11
71.272354101
 21
342.2237431065
 31
0.0
  0
SPLINE
  5
DD
330
75
100
AcDbEntity
  8
$DDT_AUDIT_GENERATED_(C5)
  6
Continuous
 62
     7
100
AcDbSpline
210
0.0
220
0.0
230
1.0
 70
     8
 71
     3
 72
    10
 73
     6
 74
     0
 42
0.0000000434142838
 43
0.0000000001
 40
0.0
 40
0.0
 40
0.0
 40
0.0
 40
0.5
 40
0.5
 40
1.0
 40
1.0
 40
1.0
 40
1.0
 10
71.27235410102269
 20
342.2237431064711
 30
0.0
 10
71.29709722516648
 20
342.223569002824
 30
0.0
 10
71.29705608720937
 20
342.245148781047
 30
0.0
 10
71.29708217963332
 20
342.3192703327996
 30
0.0
 10
71.29714780902829
 20
342.3713546874461
 30
0.0
 10
71.27270505711336
 20
342.4237424931304
 30
0.0
  0
LINE
  5
DE
330
75
100
AcDbEntity
  8
$DDT_AUDIT_GENERATED_(C5)
  6
Continuous
 62
     7
100
AcDbLine
 10
71.2972145044
 20
342.2237435956
 30
0.0
 11
75.9427948151
 21
342.2237435956
 31
0.0
  0
LINE
  5
DF
330
75
100
AcDbEntity
  8
$DDT_AUDIT_GENERATED_(C5)
  6
Continuous
 62
     7
100
AcDbLine
 10
71.0496755384
 20
342.4248859824
 30
0.0
 11
71.0235123497
 21
343.9237740612
 31
0.0
  0
LINE
  5
E0
330
75
100
AcDbEntity
  8
$DDT_AUDIT_GENERATED_(C5)
  6
Continuous
 62
     7
100
AcDbLine
 10
136.5516482261
 20
342.2795998034
 30
0.0
 11
136.5483440818
 21
342.0721510456
 31
0.0
  0
LINE
  5
E1
330
75
100
AcDbEntity
  8
$DDT_AUDIT_GENERATED_(C5)
  6
Continuous
 62
     7
100
AcDbLine
 10
77.4521154351
 20
342.2795998034
 30
0.0
 11
77.4484917383
 21
342.071998355
 31
0.0
  0
LINE
  5
E2
330
75
100
AcDbEntity
  8
$DDT_AUDIT_GENERATED_(C5)
  6
Continuous
 62
     7
100
AcDbLine
 10
118.7527578428
 20
324.9958952392
 30
0.0
 11
118.7478762672
 21
324.7162299607
 31
0.0
  0
LINE
  5
E3
330
75
100
AcDbEntity
  8
$DDT_AUDIT_GENERATED_(C5)
  6
Continuous
 62
     7
100
AcDbLine
 10
95.2525225417
 20
324.3429674704
 30
0.0
 11
95.2492948895
 21
324.1580553961
 31
0.0
  0
LINE
  5
E4
330
75
100
AcDbEntity
  8
$DDT_AUDIT_GENERATED_(C5)
  6
Continuous
 62
     7
100
AcDbLine
 10
135.3948091364
 20
341.9737435956
 30
0.0
 11
135.1450464215
 21
341.9737435956
 31
0.0
  0
LINE
  5
E5
330
75
100
AcDbEntity
  8
$DDT_AUDIT_GENERATED_(C5)
  6
Continuous
 62
     7
100
AcDbLine
 10
135.0450615361
 20
342.0720049961
 30
0.0
 11
135.0414379552
 21
342.2795998034
 31
0.0
  0
ARC
  5
E6
330
75
100
AcDbEntity
  8
$DDT_AUDIT_GENERATED_(C5)
  6
Continuous
 62
     7
100
AcDbCircle
 10
135.1450464215
 20
342.0737435956
 30
0.0
 40
0.0999999999999978
100
AcDbArc
 50
180.9961943128
 51
270.0
  0
LINE
  5
E7
330
75
100
AcDbEntity
  8
$DDT_AUDIT_GENERATED_(C5)
  6
Continuous
 62
     7
100
AcDbLine
 10
75.9452093085
 20
342.0721510456
 30
0.0
 11
75.9419051642
 21
342.2795998034
 31
0.0
  0
LINE
  5
E8
330
75
100
AcDbEntity
  8
$DDT_AUDIT_GENERATED_(C5)
  6
Continuous
 62
     7
100
AcDbLine
 10
76.2949529752
 20
341.9737435956
 30
0.0
 11
76.0451966266
 21
341.9737435956
 31
0.0
  0
ARC
  5
E9
330
75
100
AcDbEntity
  8
$DDT_AUDIT_GENERATED_(C5)
  6
Continuous
 62
     7
100
AcDbCircle
 10
76.0451966266
 20
342.0737435956
 30
0.0
 40
0.1000000000000006
100
AcDbArc
 50
180.912502519
 51
270.0
  0
LINE
  5
EA
330
75
100
AcDbEntity
  8
$DDT_AUDIT_GENERATED_(C5)
  6
Continuous
 62
     7
100
AcDbLine
 10
136.1986004151
 20
341.9737435956
 30
0.0
 11
135.3948091364
 21
341.9737435956
 31
0.0
  0
LINE
  5
EB
330
75
100
AcDbEntity
  8
$DDT_AUDIT_GENERATED_(C5)
  6
Continuous
 62
     7
100
AcDbLine
 10
136.4483567637
 20
341.9737435956
 30
0.0
 11
136.1986004151
 21
341.9737435956
 31
0.0
  0
ARC
  5
EC
330
75
100
AcDbEntity
  8
$DDT_AUDIT_GENERATED_(C5)
  6
Continuous
 62
     7
100
AcDbCircle
 10
136.4483567637
 20
342.0737435956
 30
0.0
 40
0.0999999999999979
100
AcDbArc
 50
270.0
 51
359.087497481
  0
LINE
  5
ED
330
75
100
AcDbEntity
  8
$DDT_AUDIT_GENERATED_(C5)
  6
Continuous
 62
     7
100
AcDbLine
 10
95.2492948895
 20
324.1580553961
 30
0.0
 11
95.24929238
 21
324.15791163
 31
0.0
  0
ARC
  5
EE
330
75
100
AcDbEntity
  8
$DDT_AUDIT_GENERATED_(C5)
  6
Continuous
 62
     7
100
AcDbCircle
 10
105.4273775828
 20
349.9875243883
 30
0.0
 40
27.89766150151828
100
AcDbArc
 50
247.7488026472
 51
248.3000609252
  0
ELLIPSE
  5
EF
330
75
100
AcDbEntity
  8
$DDT_AUDIT_GENERATED_(C5)
  6
Continuous
 62
     7
100
AcDbEllipse
 10
94.9005442444
 20
324.2606005735
 30
0.0
 11
0.0835104807473952
 21
0.05500908657066899
 31
0.0
210
0.0
220
0.0
230
0.9999999999999999
 40
0.9882054002
 41
3.747059649950464
 42
5.677718310814811
  0
ARC
  5
F0
330
75
100
AcDbEntity
  8
$DDT_AUDIT_GENERATED_(C5)
  6
Continuous
 62
     7
100
AcDbCircle
 10
95.149310111
 20
324.1598007639
 30
0.0
 40
0.1000001147669621
100
AcDbArc
 50
248.2999240609
 51
358.9175428775
  0
LINE
  5
F1
330
75
100
AcDbEntity
  8
$DDT_AUDIT_GENERATED_(C5)
  6
Continuous
 62
     7
100
AcDbLine
 10
93.7456803134
 20
324.7160471879
 30
0.0
 11
93.7456771231
 21
324.7162299607
 31
0.0
  0
LINE
  5
F2
330
75
100
AcDbEntity
  8
$DDT_AUDIT_GENERATED_(C5)
  6
Continuous
 62
     7
100
AcDbLine
 10
93.7456771231
 20
324.7162299607
 30
0.0
 11
93.7407955475
 21
324.9958952392
 31
0.0
  0
ARC
  5
F3
330
75
100
AcDbEntity
  8
$DDT_AUDIT_GENERATED_(C5)
  6
Continuous
 62
     7
100
AcDbCircle
 10
105.1738441063
 20
349.3945740642
 30
0.0
 40
27.25273820224164
100
AcDbArc
 50
245.3419295423
 51
245.9251104047
  0
ARC
  5
F4
330
75
100
AcDbEntity
  8
$DDT_AUDIT_GENERATED_(C5)
  6
Continuous
 62
     7
100
AcDbCircle
 10
93.8456650829
 20
324.7177924285
 30
0.0
 40
0.0999999999999975
100
AcDbArc
 50
181.0
 51
245.3415577002
  0
LINE
  5
F5
330
75
100
AcDbEntity
  8
$DDT_AUDIT_GENERATED_(C5)
  6
Continuous
 62
     7
100
AcDbLine
 10
117.2442610096
 20
324.1579116691
 30
0.0
 11
117.2442585009
 21
324.1580553961
 31
0.0
  0
LINE
  5
F6
330
75
100
AcDbEntity
  8
$DDT_AUDIT_GENERATED_(C5)
  6
Continuous
 62
     7
100
AcDbLine
 10
117.2442585009
 20
324.1580553961
 30
0.0
 11
117.2410308486
 21
324.3429674704
 31
0.0
  0
ARC
  5
F7
330
75
100
AcDbEntity
  8
$DDT_AUDIT_GENERATED_(C5)
  6
Continuous
 62
     7
100
AcDbCircle
 10
107.0715168463
 20
349.9742886068
 30
0.0
 40
27.88338887427319
100
AcDbArc
 50
291.6997979878
 51
292.2513384398
  0
ARC
  5
F8
330
75
100
AcDbEntity
  8
$DDT_AUDIT_GENERATED_(C5)
  6
Continuous
 62
     7
100
AcDbCircle
 10
117.3442432794
 20
324.1598007638
 30
0.0
 40
0.1000001147046295
100
AcDbArc
 50
181.0824347152
 51
291.7000759563
  0
LINE
  5
F9
330
75
100
AcDbEntity
  8
$DDT_AUDIT_GENERATED_(C5)
  6
Continuous
 62
     7
100
AcDbLine
 10
118.7478762672
 20
324.7162299607
 30
0.0
 11
118.7478730769
 21
324.7160471879
 31
0.0
  0
ARC
  5
FA
330
75
100
AcDbEntity
  8
$DDT_AUDIT_GENERATED_(C5)
  6
Continuous
 62
     7
100
AcDbCircle
 10
107.3262022543
 20
349.3802381028
 30
0.0
 40
27.23700060291906
100
AcDbArc
 50
294.0747211122
 51
294.6582389407
  0
ARC
  5
FB
330
75
100
AcDbEntity
  8
$DDT_AUDIT_GENERATED_(C5)
  6
Continuous
 62
     7
100
AcDbCircle
 10
118.6478883074
 20
324.7177924285
 30
0.0
 40
0.0999999999999865
100
AcDbArc
 50
294.6584422998
 51
359.0
  0
ELLIPSE
  5
FC
330
75
100
AcDbEntity
  8
$DDT_AUDIT_GENERATED_(C5)
  6
Continuous
 62
     7
100
AcDbEllipse
 10
118.3961353194
 20
324.6037697577
 30
0.0
 11
0.04079335675777165
 21
-0.09130116124361765
 31
0.0
210
0.0
220
0.0
230
1.0
 40
0.995367368
 41
0.0000000000000115
 42
1.134933210653821
  0
LINE
  5
FD
330
75
100
AcDbEntity
  8
$DDT_AUDIT_GENERATED_(C5)
  6
Continuous
 62
     7
100
AcDbLine
 10
77.098744254
 20
341.9737435956
 30
0.0
 11
76.2949529752
 21
341.9737435956
 31
0.0
  0
LINE
  5
FE
330
75
100
AcDbEntity
  8
$DDT_AUDIT_GENERATED_(C5)
  6
Continuous
 62
     7
100
AcDbLine
 10
77.3485069688
 20
341.9737435956
 30
0.0
 11
77.098744254
 21
341.9737435956
 31
0.0
  0
ARC
  5
FF
330
75
100
AcDbEntity
  8
$DDT_AUDIT_GENERATED_(C5)
  6
Continuous
 62
     7
100
AcDbCircle
 10
77.3485069688
 20
342.0737435956
 30
0.0
 40
0.0999999999999976
100
AcDbArc
 50
270.0
 51
359.0000000011
  0
LINE
  5
100
330
75
100
AcDbEntity
  8
$DDT_AUDIT_GENERATED_(C5)
  6
Continuous
 62
     7
100
AcDbLine
 10
71.6667413666
 20
351.4170953936
 30
0.0
 11
71.4005711542
 21
351.4688336418
 31
0.0
  0
LINE
  5
102
330
75
100
AcDbEntity
  8
$DDT_AUDIT_GENERATED_(101)
  6
Continuous
 62
     7
100
AcDbLine
 10
71.5472160433
 20
341.7237435956
 30
0.0
 11
75.9467766952
 21
341.7237435956
 31
0.0
  0
LINE
  5
103
330
75
100
AcDbEntity
  8
$DDT_AUDIT_GENERATED_(101)
  6
Continuous
 62
     7
100
AcDbLine
 10
71.1974975734
 20
341.7235695852
 30
0.0
 11
71.2474936977
 21
341.7237445739
 31
0.0
  0
LINE
  5
104
330
75
100
AcDbEntity
  8
$DDT_AUDIT_GENERATED_(101)
  6
Continuous
 62
     7
100
AcDbLine
 10
71.2474936977
 20
341.7237445739
 30
0.0
 11
71.5472123604
 21
341.7247936023
 31
0.0
  0
SPLINE
  5
105
330
75
100
AcDbEntity
  8
$DDT_AUDIT_GENERATED_(101)
  6
Continuous
 62
     7
100
AcDbSpline
210
0.0
220
0.0
230
1.0
 70
     8
 71
     3
 72
    14
 73
    10
 74
     0
 42
0.0000000001518962
 43
0.0000000001
 40
0.0
 40
0.0
 40
0.0
 40
0.0
 40
0.2304132386870615
 40
0.2304132386870615
 40
0.4869421591247077
 40
0.4869421591247077
 40
0.7434710795623538
 40
0.7434710795623538
 40
1.0
 40
1.0
 40
1.0
 40
1.0
 10
71.03237650428638
 20
339.7237435956018
 30
0.0
 10
71.21838762494359
 20
333.8485734031934
 30
0.0
 10
72.13133477454643
 20
328.0229349376369
 30
0.0
 10
75.4919746627835
 20
316.5543361248344
 30
0.0
 10
78.10049910711284
 20
311.013114920628
 30
0.0
 10
84.6105376349464
 20
301.7594444844697
 30
0.0
 10
88.50999396673927
 20
298.0502377885763
 30
0.0
 10
97.02261961163902
 20
293.0308307387723
 30
0.0
 10
101.6305747127367
 20
291.7237435956018
 30
0.0
 10
106.2467766951656
 20
291.7237435956018
 30
0.0
  0
SPLINE
  5
106
330
75
100
AcDbEntity
  8
$DDT_AUDIT_GENERATED_(101)
  6
Continuous
 62
     7
100
AcDbSpline
210
0.0
220
0.0
230
1.0
 70
     8
 71
     3
 72
     8
 73
     4
 74
     0
 42
0.0000000684083075
 43
0.0000000001
 40
0.0
 40
0.0
 40
0.0
 40
0.0
 40
1.0
 40
1.0
 40
1.0
 40
1.0
 10
71.19749757341486
 20
341.723569585241
 30
0.0
 10
71.14977465855385
 20
341.723402552951
 30
0.0
 10
71.10231777209277
 20
341.7054624465313
 30
0.0
 10
71.06641866844605
 20
341.674017874137
 30
0.0
  0
LINE
  5
107
330
75
100
AcDbEntity
  8
$DDT_AUDIT_GENERATED_(101)
  6
Continuous
 62
     7
100
AcDbLine
 10
71.2474936977
 20
341.7237445739
 30
0.0
 11
71.2481956099
 21
341.5237458005
 31
0.0
  0
LINE
  5
108
330
75
100
AcDbEntity
  8
$DDT_AUDIT_GENERATED_(101)
  6
Continuous
 62
     7
100
AcDbLine
 10
77.4467766952
 20
341.7237435956
 30
0.0
 11
80.8029361643
 21
341.7237435956
 31
0.0
  0
SPLINE
  5
109
330
75
100
AcDbEntity
  8
$DDT_AUDIT_GENERATED_(101)
  6
Continuous
 62
     7
100
AcDbSpline
210
0.0
220
0.0
230
1.0
 70
     8
 71
     3
 72
    14
 73
    10
 74
     0
 42
0.0000000004425342
 43
0.0000000001
 40
0.0
 40
0.0
 40
0.0
 40
0.0
 40
0.25
 40
0.25
 40
0.5
 40
0.5
 40
0.75
 40
0.75
 40
1.0
 40
1.0
 40
1.0
 40
1.0
 10
81.00286124691158
 20
341.5292172924467
 30
0.0
 10
81.05463050448186
 20
339.6383611877184
 30
0.0
 10
81.44107337650456
 20
337.7747936067918
 30
0.0
 10
82.776046836264
 20
334.2872496530627
 30
0.0
 10
83.73600227118929
 20
332.637381246156
 30
0.0
 10
86.04997125414576
 20
329.6965890021911
 30
0.0
 10
87.42130500823386
 20
328.3788344320813
 30
0.0
 10
90.39962322183413
 20
326.1232088757401
 30
0.0
 10
92.032121865535
 20
325.1627280338107
 30
0.0
 10
93.7467766951656
 20
324.3792320135766
 30
0.0
  0
ARC
  5
10A
330
75
100
AcDbEntity
  8
$DDT_AUDIT_GENERATED_(101)
  6
Continuous
 62
     7
100
AcDbCircle
 10
80.8029361643
 20
341.5237435956
 30
0.0
 40
0.2000000000000008
100
AcDbArc
 50
1.5682944636
 51
90.0
  0
SPLINE
  5
10B
330
75
100
AcDbEntity
  8
$DDT_AUDIT_GENERATED_(101)
  6
Continuous
 62
     7
100
AcDbSpline
210
0.0
220
0.0
230
1.0
 70
     8
 71
     3
 72
    10
 73
     6
 74
     0
 42
0.0000000004419714
 43
0.0000000001
 40
0.0
 40
0.0
 40
0.0
 40
0.0
 40
0.5
 40
0.5
 40
1.0
 40
1.0
 40
1.0
 40
1.0
 10
95.2467766951656
 20
323.7463285512222
 30
0.0
 10
98.75077653597589
 20
322.3862657252276
 30
0.0
 10
102.4889831055038
 20
321.7237505666241
 30
0.0
 10
110.0044534708912
 20
321.7237366246879
 30
0.0
 10
113.7428139716961
 20
322.3862801321677
 30
0.0
 10
117.2467766951656
 20
323.7463285512222
 30
0.0
  0
LINE
  5
10C
330
75
100
AcDbEntity
  8
$DDT_AUDIT_GENERATED_(101)
  6
Continuous
 62
     7
100
AcDbLine
 10
93.7467766952
 20
324.2832583371
 30
0.0
 11
93.7467766952
 21
324.4973886488
 31
0.0
  0
LINE
  5
10D
330
75
100
AcDbEntity
  8
$DDT_AUDIT_GENERATED_(101)
  6
Continuous
 62
     7
100
AcDbLine
 10
75.9467766952
 20
341.7237435956
 30
0.0
 11
75.9467766952
 21
341.8737435956
 31
0.0
  0
LINE
  5
10E
330
75
100
AcDbEntity
  8
$DDT_AUDIT_GENERATED_(101)
  6
Continuous
 62
     7
100
AcDbLine
 10
95.2467766952
 20
323.945667231
 30
0.0
 11
95.2467766952
 21
323.6526267502
 31
0.0
  0
ARC
  5
10F
330
75
100
AcDbEntity
  8
$DDT_AUDIT_GENERATED_(101)
  6
Continuous
 62
     7
100
AcDbCircle
 10
95.1467766952
 20
323.945667231
 30
0.0
 40
0.0999999999999944
100
AcDbArc
 50
0.0
 51
68.4566223606
  0
LINE
  5
110
330
75
100
AcDbEntity
  8
$DDT_AUDIT_GENERATED_(101)
  6
Continuous
 62
     7
100
AcDbLine
 10
77.4467766952
 20
341.8737435956
 30
0.0
 11
77.4467766952
 21
341.7237435956
 31
0.0
  0
ARC
  5
111
330
75
100
AcDbEntity
  8
$DDT_AUDIT_GENERATED_(101)
  6
Continuous
 62
     7
100
AcDbCircle
 10
77.3467766952
 20
341.8737435956
 30
0.0
 40
0.1
100
AcDbArc
 50
0.0
 51
90.0
  0
ARC
  5
112
330
75
100
AcDbEntity
  8
$DDT_AUDIT_GENERATED_(101)
  6
Continuous
 62
     7
100
AcDbCircle
 10
76.0467766952
 20
341.8737435956
 30
0.0
 40
0.0999999999999994
100
AcDbArc
 50
90.0
 51
180.0
  0
SPLINE
  5
113
330
75
100
AcDbEntity
  8
$DDT_AUDIT_GENERATED_(101)
  6
Continuous
 62
     7
100
AcDbSpline
210
0.0
220
0.0
230
1.0
 70
     8
 71
     3
 72
     8
 73
     4
 74
     0
 42
0.0000000071050985
 43
0.0000000001
 40
0.0
 40
0.0
 40
0.0
 40
0.0
 40
1.0
 40
1.0
 40
1.0
 40
1.0
 10
93.88818767861144
 20
324.5884113407169
 30
0.0
 10
94.31522351115396
 20
324.3941304046778
 30
0.0
 10
94.74713197408454
 20
324.2109518060475
 30
0.0
 10
95.18349724762571
 20
324.0386812139425
 30
0.0
  0
ARC
  5
114
330
75
100
AcDbEntity
  8
$DDT_AUDIT_GENERATED_(101)
  6
Continuous
 62
     7
100
AcDbCircle
 10
93.8467766952
 20
324.4973886488
 30
0.0
 40
0.0999999999999994
100
AcDbArc
 50
65.5367289783
 51
180.0
  0
LINE
  5
115
330
75
100
AcDbEntity
  8
$DDT_AUDIT_GENERATED_(101)
  6
Continuous
 62
     7
100
AcDbLine
 10
71.0637770839
 20
341.5226815966
 30
0.0
 11
71.0664186684
 21
341.6740178741
 31
0.0
  0
LINE
  5
116
330
75
100
AcDbEntity
  8
$DDT_AUDIT_GENERATED_(101)
  6
Continuous
 62
     7
100
AcDbLine
 10
71.0637770839
 20
341.5226815966
 30
0.0
 11
71.0323765043
 21
339.7237435956
 31
0.0
  0
SPLINE
  5
117
330
75
100
AcDbEntity
  8
$DDT_AUDIT_GENERATED_(101)
  6
Continuous
 62
     7
100
AcDbSpline
210
0.0
220
0.0
230
1.0
 70
     8
 71
     3
 72
    14
 73
    10
 74
     0
 42
0.0000000001518962
 43
0.0000000001
 40
0.0
 40
0.0
 40
0.0
 40
0.0
 40
0.2304132386870615
 40
0.2304132386870615
 40
0.4869421591247077
 40
0.4869421591247077
 40
0.7434710795623538
 40
0.7434710795623538
 40
1.0
 40
1.0
 40
1.0
 40
1.0
 10
141.4611768860449
 20
339.7237435956018
 30
0.0
 10
141.2751657653876
 20
333.8485734031934
 30
0.0
 10
140.3622186157848
 20
328.0229349376369
 30
0.0
 10
137.0015787275477
 20
316.5543361248344
 30
0.0
 10
134.3930542832184
 20
311.013114920628
 30
0.0
 10
127.8830157553848
 20
301.7594444844697
 30
0.0
 10
123.9835594235919
 20
298.0502377885763
 30
0.0
 10
115.4709337786922
 20
293.0308307387723
 30
0.0
 10
110.8629786775945
 20
291.7237435956018
 30
0.0
 10
106.2467766951656
 20
291.7237435956018
 30
0.0
  0
SPLINE
  5
118
330
75
100
AcDbEntity
  8
$DDT_AUDIT_GENERATED_(101)
  6
Continuous
 62
     7
100
AcDbSpline
210
0.0
220
0.0
230
1.0
 70
     8
 71
     3
 72
     8
 73
     4
 74
     0
 42
0.0000000684083075
 43
0.0000000001
 40
0.0
 40
0.0
 40
0.0
 40
0.0
 40
1.0
 40
1.0
 40
1.0
 40
1.0
 10
141.2960558169164
 20
341.723569585241
 30
0.0
 10
141.3437787317774
 20
341.723402552951
 30
0.0
 10
141.3912356182384
 20
341.7054624465313
 30
0.0
 10
141.4271347218852
 20
341.674017874137
 30
0.0
  0
LINE
  5
119
330
75
100
AcDbEntity
  8
$DDT_AUDIT_GENERATED_(101)
  6
Continuous
 62
     7
100
AcDbLine
 10
141.4297763064
 20
341.5226815966
 30
0.0
 11
141.4271347219
 21
341.6740178741
 31
0.0
  0
LINE
  5
11A
330
75
100
AcDbEntity
  8
$DDT_AUDIT_GENERATED_(101)
  6
Continuous
 62
     7
100
AcDbLine
 10
141.2960558169
 20
341.7235695852
 30
0.0
 11
141.2460596927
 21
341.7237445739
 31
0.0
  0
LINE
  5
11B
330
75
100
AcDbEntity
  8
$DDT_AUDIT_GENERATED_(101)
  6
Continuous
 62
     7
100
AcDbLine
 10
141.2460595434
 20
341.7237369913
 30
0.0
 11
141.2453577805
 21
341.5237458005
 31
0.0
  0
LINE
  5
11C
330
75
100
AcDbEntity
  8
$DDT_AUDIT_GENERATED_(101)
  6
Continuous
 62
     7
100
AcDbLine
 10
141.2460596927
 20
341.7237445739
 30
0.0
 11
140.94634103
 21
341.7247936023
 31
0.0
  0
LINE
  5
11D
330
75
100
AcDbEntity
  8
$DDT_AUDIT_GENERATED_(101)
  6
Continuous
 62
     7
100
AcDbLine
 10
140.946337347
 20
341.7237435956
 30
0.0
 11
136.5467766952
 21
341.7237435956
 31
0.0
  0
ARC
  5
11E
330
75
100
AcDbEntity
  8
$DDT_AUDIT_GENERATED_(101)
  6
Continuous
 62
     7
100
AcDbCircle
 10
131.690617226
 20
341.5237435956
 30
0.0
 40
0.2000000000000008
100
AcDbArc
 50
90.0
 51
178.4317055364
  0
SPLINE
  5
11F
330
75
100
AcDbEntity
  8
$DDT_AUDIT_GENERATED_(101)
  6
Continuous
 62
     7
100
AcDbSpline
210
0.0
220
0.0
230
1.0
 70
     8
 71
     3
 72
    14
 73
    10
 74
     0
 42
0.0000000004425342
 43
0.0000000001
 40
0.0
 40
0.0
 40
0.0
 40
0.0
 40
0.25
 40
0.25
 40
0.5
 40
0.5
 40
0.75
 40
0.75
 40
1.0
 40
1.0
 40
1.0
 40
1.0
 10
131.4906921434196
 20
341.5292172924467
 30
0.0
 10
131.4389228858494
 20
339.6383611877184
 30
0.0
 10
131.0524800138267
 20
337.7747936067918
 30
0.0
 10
129.7175065540672
 20
334.2872496530627
 30
0.0
 10
128.7575511191419
 20
332.637381246156
 30
0.0
 10
126.4435821361855
 20
329.6965890021911
 30
0.0
 10
125.0722483820974
 20
328.3788344320813
 30
0.0
 10
122.0939301684971
 20
326.12320887574
 30
0.0
 10
120.4614315247962
 20
325.1627280338107
 30
0.0
 10
118.7467766951656
 20
324.3792320135766
 30
0.0
  0
LINE
  5
120
330
75
100
AcDbEntity
  8
$DDT_AUDIT_GENERATED_(101)
  6
Continuous
 62
     7
100
AcDbLine
 10
135.0467766952
 20
341.7237435956
 30
0.0
 11
131.690617226
 21
341.7237435956
 31
0.0
  0
LINE
  5
121
330
75
100
AcDbEntity
  8
$DDT_AUDIT_GENERATED_(101)
  6
Continuous
 62
     7
100
AcDbLine
 10
118.7467766952
 20
324.2832583371
 30
0.0
 11
118.7467766952
 21
324.4973886488
 31
0.0
  0
SPLINE
  5
122
330
75
100
AcDbEntity
  8
$DDT_AUDIT_GENERATED_(101)
  6
Continuous
 62
     7
100
AcDbSpline
210
0.0
220
0.0
230
1.0
 70
     8
 71
     3
 72
     8
 73
     4
 74
     0
 42
0.0000000071050985
 43
0.0000000001
 40
0.0
 40
0.0
 40
0.0
 40
0.0
 40
1.0
 40
1.0
 40
1.0
 40
1.0
 10
118.6053657117198
 20
324.5884113407169
 30
0.0
 10
118.1783298791773
 20
324.3941304046778
 30
0.0
 10
117.7464214162467
 20
324.2109518060475
 30
0.0
 10
117.3100561427055
 20
324.0386812139425
 30
0.0
  0
LINE
  5
123
330
75
100
AcDbEntity
  8
$DDT_AUDIT_GENERATED_(101)
  6
Continuous
 62
     7
100
AcDbLine
 10
117.2467766952
 20
323.945667231
 30
0.0
 11
117.2467766952
 21
323.6526267502
 31
0.0
  0
LINE
  5
124
330
75
100
AcDbEntity
  8
$DDT_AUDIT_GENERATED_(101)
  6
Continuous
 62
     7
100
AcDbLine
 10
135.0467766952
 20
341.8737435956
 30
0.0
 11
135.0467766952
 21
341.7237435956
 31
0.0
  0
LINE
  5
125
330
75
100
AcDbEntity
  8
$DDT_AUDIT_GENERATED_(101)
  6
Continuous
 62
     7
100
AcDbLine
 10
136.5467766952
 20
341.7237435956
 30
0.0
 11
136.5467766952
 21
341.8737435956
 31
0.0
  0
ARC
  5
126
330
75
100
AcDbEntity
  8
$DDT_AUDIT_GENERATED_(101)
  6
Continuous
 62
     7
100
AcDbCircle
 10
117.3467766952
 20
323.945667231
 30
0.0
 40
0.0999999999999944
100
AcDbArc
 50
111.5433776394
 51
180.0
  0
ARC
  5
127
330
75
100
AcDbEntity
  8
$DDT_AUDIT_GENERATED_(101)
  6
Continuous
 62
     7
100
AcDbCircle
 10
135.1467766952
 20
341.8737435956
 30
0.0
 40
0.1
100
AcDbArc
 50
90.0
 51
180.0
  0
ARC
  5
128
330
75
100
AcDbEntity
  8
$DDT_AUDIT_GENERATED_(101)
  6
Continuous
 62
     7
100
AcDbCircle
 10
136.4467766952
 20
341.8737435956
 30
0.0
 40
0.0999999999999994
100
AcDbArc
 50
0.0
 51
90.0
  0
ARC
  5
129
330
75
100
AcDbEntity
  8
$DDT_AUDIT_GENERATED_(101)
  6
Continuous
 62
     7
100
AcDbCircle
 10
118.6467766952
 20
324.4973886488
 30
0.0
 40
0.0999999999999994
100
AcDbArc
 50
0.0
 51
114.4632710217
  0
LINE
  5
12A
330
75
100
AcDbEntity
  8
$DDT_AUDIT_GENERATED_(101)
  6
Continuous
 62
     7
100
AcDbLine
 10
141.4297763064
 20
341.5226815966
 30
0.0
 11
141.461176886
 21
339.7237435956
 31
0.0
  0
LINE
  5
12C
330
75
100
AcDbEntity
  8
$DDT_AUDIT_GENERATED_(12B)
  6
Continuous
 62
     7
100
AcDbLine
 10
96.1749237147
 20
323.9411047886
 30
0.0
 11
96.2223197392
 21
323.3993657503
 31
0.0
  0
LINE
  5
12D
330
75
100
AcDbEntity
  8
$DDT_AUDIT_GENERATED_(12B)
  6
Continuous
 62
     7
100
AcDbLine
 10
116.27321815
 20
323.4220486755
 30
0.0
 11
116.3195112293
 21
323.9511809939
 31
0.0
  0
LINE
  5
12F
330
75
100
AcDbEntity
  8
$DDT_AUDIT_GENERATED_(12E)
  6
Continuous
 62
     7
100
AcDbLine
 10
75.8467761957
 20
342.2795998034
 30
0.0
 11
75.6103903438
 21
342.2324379172
 31
0.0
  0
LINE
  5
130
330
75
100
AcDbEntity
  8
$DDT_AUDIT_GENERATED_(12E)
  6
Continuous
 62
     7
100
AcDbLine
 10
75.8467761957
 20
342.2795998034
 30
0.0
 11
77.5467761957
 21
342.2795998034
 31
0.0
  0
LINE
  5
131
330
75
100
AcDbEntity
  8
$DDT_AUDIT_GENERATED_(12E)
  6
Continuous
 62
     7
100
AcDbLine
 10
118.8467771946
 20
325.0365029982
 30
0.0
 11
119.0831630465
 21
325.0973622148
 31
0.0
  0
LINE
  5
132
330
75
100
AcDbEntity
  8
$DDT_AUDIT_GENERATED_(12E)
  6
Continuous
 62
     7
100
AcDbLine
 10
118.8467771946
 20
325.0365029982
 30
0.0
 11
117.1467771946
 21
324.3022585142
 31
0.0
  0
LINE
  5
133
330
75
100
AcDbEntity
  8
$DDT_AUDIT_GENERATED_(12E)
  6
Continuous
 62
     7
100
AcDbLine
 10
136.6467771946
 20
342.2795998034
 30
0.0
 11
136.8831630465
 21
342.2324379172
 31
0.0
  0
LINE
  5
134
330
75
100
AcDbEntity
  8
$DDT_AUDIT_GENERATED_(12E)
  6
Continuous
 62
     7
100
AcDbLine
 10
136.6467771946
 20
342.2795998034
 30
0.0
 11
134.9467771946
 21
342.2795998034
 31
0.0
  0
LINE
  5
135
330
75
100
AcDbEntity
  8
$DDT_AUDIT_GENERATED_(12E)
  6
Continuous
 62
     7
100
AcDbLine
 10
93.6467761957
 20
325.0365029982
 30
0.0
 11
93.4103903438
 21
325.0973622148
 31
0.0
  0
LINE
  5
136
330
75
100
AcDbEntity
  8
$DDT_AUDIT_GENERATED_(12E)
  6
Continuous
 62
     7
100
AcDbLine
 10
93.6467761957
 20
325.0365029982
 30
0.0
 11
95.3467761957
 21
324.3022585142
 31
0.0
  0
LINE
  5
137
330
75
100
AcDbEntity
  8
$DDT_AUDIT_GENERATED_(12E)
  6
Continuous
 62
     7
100
AcDbLine
 10
134.7103913427
 20
342.2324379172
 30
0.0
 11
134.9467771946
 21
342.2795998034
 31
0.0
  0
LINE
  5
138
330
75
100
AcDbEntity
  8
$DDT_AUDIT_GENERATED_(12E)
  6
Continuous
 62
     7
100
AcDbLine
 10
136.8831630465
 20
342.2324379172
 30
0.0
 11
137.2046700258
 21
342.2272955352
 31
0.0
  0
LINE
  5
139
330
75
100
AcDbEntity
  8
$DDT_AUDIT_GENERATED_(12E)
  6
Continuous
 62
     7
100
AcDbLine
 10
95.5831620476
 20
324.1602643354
 30
0.0
 11
95.3467761957
 21
324.3022585142
 31
0.0
  0
LINE
  5
13A
330
75
100
AcDbEntity
  8
$DDT_AUDIT_GENERATED_(12E)
  6
Continuous
 62
     7
100
AcDbLine
 10
116.9103913427
 20
324.1602643354
 30
0.0
 11
117.1467771946
 21
324.3022585142
 31
0.0
  0
LINE
  5
13B
330
75
100
AcDbEntity
  8
$DDT_AUDIT_GENERATED_(12E)
  6
Continuous
 62
     7
100
AcDbLine
 10
95.5831620476
 20
324.1602643354
 30
0.0
 11
95.9046690177
 21
324.0344864922
 31
0.0
  0
LINE
  5
13C
330
75
100
AcDbEntity
  8
$DDT_AUDIT_GENERATED_(12E)
  6
Continuous
 62
     7
100
AcDbLine
 10
119.0831630465
 20
325.0973622148
 30
0.0
 11
119.4046700196
 21
325.2499738524
 31
0.0
  0
LINE
  5
13D
330
75
100
AcDbEntity
  8
$DDT_AUDIT_GENERATED_(12E)
  6
Continuous
 62
     7
100
AcDbLine
 10
77.7831620476
 20
342.2324379172
 30
0.0
 11
77.5467761957
 21
342.2795998034
 31
0.0
  0
LINE
  5
13E
330
75
100
AcDbEntity
  8
$DDT_AUDIT_GENERATED_(12E)
  6
Continuous
 62
     7
100
AcDbLine
 10
77.7831620476
 20
342.2324379172
 30
0.0
 11
78.1046690269
 21
342.2272955352
 31
0.0
  0
SPLINE
  5
13F
330
75
100
AcDbEntity
  8
$DDT_AUDIT_GENERATED_(12E)
  6
Continuous
 62
     7
100
AcDbSpline
210
0.0
220
0.0
230
1.0
 70
     8
 71
     3
 72
    36
 73
    32
 74
     0
 42
0.0000000001425205
 43
0.0000000001
 40
0.0
 40
0.0
 40
0.0
 40
0.0
 40
0.0625
 40
0.0625
 40
0.1250000000000001
 40
0.1250000000000001
 40
0.1875000000000001
 40
0.1875000000000001
 40
0.2500000000000001
 40
0.2500000000000001
 40
0.3125000000000001
 40
0.3125000000000001
 40
0.3750000000000001
 40
0.3750000000000001
 40
0.4375000000000001
 40
0.4375000000000001
 40
0.5
 40
0.5
 40
0.5625
 40
0.5625
 40
0.625
 40
0.625
 40
0.7499999999999999
 40
0.7499999999999999
 40
0.8125
 40
0.8125
 40
0.875
 40
0.875
 40
0.9375000000000001
 40
0.9375000000000001
 40
1.0
 40
1.0
 40
1.0
 40
1.0
 10
130.8593376572978
 20
342.1577648531787
 30
0.0
 10
130.876838141158
 20
340.6802211678705
 30
0.0
 10
130.6864178239143
 20
339.2368678317771
 30
0.0
 10
129.917082033645
 20
336.4139021107288
 30
0.0
 10
129.3376290340919
 20
335.0523505087355
 30
0.0
 10
127.8796002436978
 20
332.5308301487016
 30
0.0
 10
126.9879945184859
 20
331.3477564645862
 30
0.0
 10
125.0010768322871
 20
329.2235449173089
 30
0.0
 10
123.8898351475301
 20
328.2613116562499
 30
0.0
 10
121.5136632334139
 20
326.5624000945587
 30
0.0
 10
120.2586554056772
 20
325.829300300018
 30
0.0
 10
117.62866858229
 20
324.5697910295874
 30
0.0
 10
116.2495716363771
 20
324.0439183525483
 30
0.0
 10
113.4587697394607
 20
323.2154040623038
 30
0.0
 10
112.0372957098479
 20
322.9069917830645
 30
0.0
 10
109.14397678961
 20
322.4943745746451
 30
0.0
 10
107.6716852309982
 20
322.3919017489331
 30
0.0
 10
104.7627059990607
 20
322.3946928644534
 30
0.0
 10
103.3150942218657
 20
322.497916184969
 30
0.0
 10
100.4339101057813
 20
322.9115826962932
 30
0.0
 10
98.98889743024013
 20
323.2266343204556
 30
0.0
 10
94.8073842106569
 20
324.4753070615556
 30
0.0
 10
92.1806381266653
 20
325.704584631593
 30
0.0
 10
88.60293749893754
 20
328.2615227330519
 30
0.0
 10
87.50488957498621
 20
329.2121432068682
 30
0.0
 10
85.51783228117326
 20
331.3327840441119
 30
0.0
 10
84.62264341086376
 20
332.5183356389542
 30
0.0
 10
83.16289275551688
 20
335.0377819527743
 30
0.0
 10
82.58321800202422
 20
336.3940521900035
 30
0.0
 10
81.80783720696896
 20
339.2294139549051
 30
0.0
 10
81.61668001948854
 20
340.6774405050424
 30
0.0
 10
81.63421331627774
 20
342.1577624950471
 30
0.0
  0
ARC
  5
140
330
75
100
AcDbEntity
  8
$DDT_AUDIT_GENERATED_(12E)
  6
Continuous
 62
     7
100
AcDbCircle
 10
131.0577182858
 20
342.1595484994
 30
0.0
 40
0.198388646745033
100
AcDbArc
 50
88.903649699
 51
180.5151342109
  0
ARC
  5
141
330
75
100
AcDbEntity
  8
$DDT_AUDIT_GENERATED_(12E)
  6
Continuous
 62
     7
100
AcDbCircle
 10
71.6240972765
 20
342.4991994793
 30
0.0
 40
0.2000304750369121
100
AcDbArc
 50
179.611062041
 51
269.9824242154
  0
LINE
  5
142
330
75
100
AcDbEntity
  8
$DDT_AUDIT_GENERATED_(12E)
  6
Continuous
 62
     7
100
AcDbLine
 10
75.2888833646
 20
342.2272955352
 30
0.0
 11
75.6103903438
 21
342.2324379172
 31
0.0
  0
LINE
  5
143
330
75
100
AcDbEntity
  8
$DDT_AUDIT_GENERATED_(12E)
  6
Continuous
 62
     7
100
AcDbLine
 10
71.5516860484
 20
342.2272955352
 30
0.0
 11
75.2888833646
 21
342.2272955352
 31
0.0
  0
SPLINE
  5
144
330
75
100
AcDbEntity
  8
$DDT_AUDIT_GENERATED_(12E)
  6
Continuous
 62
     7
100
AcDbSpline
210
0.0
220
0.0
230
1.0
 70
     8
 71
     3
 72
    78
 73
    74
 74
     0
 42
0.0000000000749592
 43
0.0000000001
 40
0.0
 40
0.0
 40
0.0
 40
0.0
 40
0.059531336336242
 40
0.059531336336242
 40
0.0909936185308858
 40
0.0909936185308858
 40
0.1067247596282077
 40
0.1067247596282077
 40
0.1224559007255294
 40
0.1224559007255294
 40
0.1853804651148169
 40
0.1853804651148169
 40
0.2168427473094607
 40
0.2168427473094607
 40
0.2325738884067825
 40
0.2325738884067825
 40
0.2483050295041044
 40
0.2483050295041044
 40
0.311229593893392
 40
0.311229593893392
 40
0.3426918760880358
 40
0.3426918760880358
 40
0.3584230171853576
 40
0.3584230171853576
 40
0.3741541582826795
 40
0.3741541582826795
 40
0.4056164404773233
 40
0.4056164404773233
 40
0.4213475815746452
 40
0.4213475815746452
 40
0.4370787226719671
 40
0.4370787226719671
 40
0.4685410048666108
 40
0.4685410048666108
 40
0.4842721459639327
 40
0.4842721459639327
 40
0.5000032870612545
 40
0.5000032870612545
 40
0.5314655692558983
 40
0.5314655692558983
 40
0.5471967103532202
 40
0.5471967103532202
 40
0.5629278514505419
 40
0.5629278514505419
 40
0.5943901336451857
 40
0.5943901336451857
 40
0.6101212747425077
 40
0.6101212747425077
 40
0.6179868452911685
 40
0.6179868452911685
 40
0.6258524158398295
 40
0.6258524158398295
 40
0.6573146980344733
 40
0.6573146980344733
 40
0.688776980229117
 40
0.688776980229117
 40
0.7045081213264389
 40
0.7045081213264389
 40
0.7202392624237608
 40
0.7202392624237608
 40
0.7517015446184045
 40
0.7517015446184045
 40
0.8146261090076921
 40
0.8146261090076921
 40
0.8303572501050139
 40
0.8303572501050139
 40
0.8460883912023358
 40
0.8460883912023358
 40
0.8775506733969796
 40
0.8775506733969796
 40
0.9404752377862671
 40
0.9404752377862671
 40
1.0
 40
1.0
 40
1.0
 40
1.0
 10
141.14183073019
 20
342.4284904512518
 30
0.0
 10
141.1255390574622
 20
345.0870820643795
 30
0.0
 10
140.9663349133525
 20
347.7316829494393
 30
0.0
 10
140.4953286347774
 20
351.7515254657273
 30
0.0
 10
140.2906358038964
 20
353.1373277453567
 30
0.0
 10
139.9177287726694
 20
355.2095555094716
 30
0.0
 10
139.7822136524915
 20
355.9001718454096
 30
0.0
 10
139.4896623951057
 20
357.2736371233337
 30
0.0
 10
139.3326920588155
 20
357.9563789374335
 30
0.0
 10
138.4938911029748
 20
361.3499554797407
 30
0.0
 10
137.6507898847368
 20
364.0006086915902
 30
0.0
 10
136.106003783968
 20
367.8720498367348
 30
0.0
 10
135.5441488941928
 20
369.1450185808586
 30
0.0
 10
134.6264772586775
 20
371.0265252729637
 30
0.0
 10
134.3080796449151
 20
371.6490268585456
 30
0.0
 10
133.6453032623275
 20
372.8843347535275
 30
0.0
 10
133.3004631939332
 20
373.4979660715375
 30
0.0
 10
131.5138997108075
 20
376.531718842808
 30
0.0
 10
129.9044562252471
 20
378.8134455625324
 30
0.0
 10
127.1546730282982
 20
381.9654612955338
 30
0.0
 10
126.1817697324901
 20
382.9707371118988
 30
0.0
 10
124.6256990396837
 20
384.40068160806
 30
0.0
 10
124.0902217381916
 20
384.8645944483364
 30
0.0
 10
122.9984493765933
 20
385.7535622797842
 30
0.0
 10
122.4407259833935
 20
386.1801995995384
 30
0.0
 10
120.7305547355655
 20
387.4042646710967
 30
0.0
 10
119.5389346064297
 20
388.1426233366068
 30
0.0
 10
117.6670038803812
 20
389.1227197482585
 30
0.0
 10
117.0265466489182
 20
389.429012334331
 30
0.0
 10
115.7322967554946
 20
389.989110296938
 30
0.0
 10
115.0776012035317
 20
390.2435270555521
 30
0.0
 10
113.0903669762757
 20
390.9284018318042
 30
0.0
 10
111.734763220399
 20
391.2807640268688
 30
0.0
 10
109.6506927692036
 20
391.6377757785275
 30
0.0
 10
108.9447492734756
 20
391.7280664646383
 30
0.0
 10
107.5424331146458
 20
391.8452765002264
 30
0.0
 10
106.8433680757043
 20
391.8729234224043
 30
0.0
 10
104.7523780376014
 20
391.8641002629274
 30
0.0
 10
103.3666754492622
 20
391.7354944145015
 30
0.0
 10
101.2999656639005
 20
391.3671577781319
 30
0.0
 10
100.6126866411294
 20
391.2148748792013
 30
0.0
 10
99.2435501687309
 20
390.85210753227
 30
0.0
 10
98.57109672020394
 20
390.6440907271237
 30
0.0
 10
96.58747475442142
 20
389.9458714621214
 30
0.0
 10
95.30991926493027
 20
389.3817734658235
 30
0.0
 10
93.45538927473214
 20
388.3997632505888
 30
0.0
 10
92.84759354190066
 20
388.0496055803025
 30
0.0
 10
91.95124674420376
 20
387.4906333041564
 30
0.0
 10
91.65464951237735
 20
387.2984055626345
 30
0.0
 10
91.06834374148863
 20
386.9038300579907
 30
0.0
 10
90.77947534470138
 20
386.7019820666254
 30
0.0
 10
89.35501439852196
 20
385.6715539509771
 30
0.0
 10
88.27769774890083
 20
384.7809295149595
 30
0.0
 10
86.2320013129865
 20
382.8836867481348
 30
0.0
 10
85.26378900358813
 20
381.8768912939706
 30
0.0
 10
83.88558548929088
 20
380.2877818676566
 30
0.0
 10
83.4382166071406
 20
379.7444188408667
 30
0.0
 10
82.56895169389163
 20
378.6341305776234
 30
0.0
 10
82.14960211183549
 20
378.0705340976647
 30
0.0
 10
80.93401533333905
 20
376.3562615961335
 30
0.0
 10
80.18049884309939
 20
375.1819644014698
 30
0.0
 10
78.07044940244771
 20
371.5758111816858
 30
0.0
 10
76.85653560555437
 20
369.0651028020407
 30
0.0
 10
75.56329025870332
 20
365.8027671119486
 30
0.0
 10
75.31559113362243
 20
365.1430771790396
 30
0.0
 10
74.84590563932021
 20
363.8213656184662
 30
0.0
 10
74.6234788464718
 20
363.1583466611947
 30
0.0
 10
73.99186455659225
 20
361.163076279432
 30
0.0
 10
73.6183864161915
 20
359.8246035949746
 30
0.0
 10
72.63085977625238
 20
355.7860305423712
 30
0.0
 10
72.14919398367
 20
353.0628669736132
 30
0.0
 10
71.52613231135625
 20
347.7089272303032
 30
0.0
 10
71.36794696233606
 20
345.0810228391176
 30
0.0
 10
71.35172025096243
 20
342.428488352287
 30
0.0
  0
LINE
  5
145
330
75
100
AcDbEntity
  8
$DDT_AUDIT_GENERATED_(12E)
  6
Continuous
 62
     7
100
AcDbLine
 10
93.0888833708
 20
325.2499738524
 30
0.0
 11
93.4103903438
 21
325.0973622148
 31
0.0
  0
ARC
  5
146
330
75
100
AcDbEntity
  8
$DDT_AUDIT_GENERATED_(12E)
  6
Continuous
 62
     7
100
AcDbCircle
 10
100.7345527248
 20
342.9219054551
 30
0.0
 40
19.25495848972522
100
AcDbArc
 50
182.664909257
 51
246.6045287521
  0
ARC
  5
147
330
75
100
AcDbEntity
  8
$DDT_AUDIT_GENERATED_(12E)
  6
Continuous
 62
     7
100
AcDbCircle
 10
81.3005485619
 20
342.0274248867
 30
0.0
 40
0.1998706731117256
100
AcDbArc
 50
359.7785724026
 51
90.0284440301
  0
LINE
  5
148
330
75
100
AcDbEntity
  8
$DDT_AUDIT_GENERATED_(12E)
  6
Continuous
 62
     7
100
AcDbLine
 10
78.1046690269
 20
342.2272955352
 30
0.0
 11
81.3004493378
 21
342.2272955352
 31
0.0
  0
LINE
  5
149
330
75
100
AcDbEntity
  8
$DDT_AUDIT_GENERATED_(12E)
  6
Continuous
 62
     7
100
AcDbLine
 10
116.5888843726
 20
324.0344864922
 30
0.0
 11
116.9103913427
 21
324.1602643354
 31
0.0
  0
SPLINE
  5
14A
330
75
100
AcDbEntity
  8
$DDT_AUDIT_GENERATED_(12E)
  6
Continuous
 62
     7
100
AcDbSpline
210
0.0
220
0.0
230
1.0
 70
     8
 71
     3
 72
    18
 73
    14
 74
     0
 42
0.0000000004733485
 43
0.0000000001
 40
0.0
 40
0.0
 40
0.0
 40
0.0
 40
0.0445879300097045
 40
0.0445879300097045
 40
0.2722939650046436
 40
0.2722939650046436
 40
0.4999999999995827
 40
0.4999999999995827
 40
0.7277060349945218
 40
0.7277060349945218
 40
0.9554120699894609
 40
0.9554120699894609
 40
1.0
 40
1.0
 40
1.0
 40
1.0
 10
95.90466901770472
 20
324.0344864921772
 30
0.0
 10
96.19279140673392
 20
323.9287060987143
 30
0.0
 10
96.48346273973054
 20
323.8273463309366
 30
0.0
 10
98.2728678393352
 20
323.235887007644
 30
0.0
 10
99.83027573086223
 20
322.8588933178476
 30
0.0
 10
103.0074203629844
 20
322.354591343481
 30
0.0
 10
104.6270784930847
 20
322.2272955353409
 30
0.0
 10
107.8664748972465
 20
322.2272955353409
 30
0.0
 10
109.4861330273468
 20
322.3545913434782
 30
0.0
 10
112.6632776594689
 20
322.8588933178503
 30
0.0
 10
114.2206855509946
 20
323.235887007644
 30
0.0
 10
116.0100906506064
 20
323.8273463309384
 30
0.0
 10
116.3007619836086
 20
323.9287060987182
 30
0.0
 10
116.5888843726431
 20
324.0344864921835
 30
0.0
  0
LINE
  5
14B
330
75
100
AcDbEntity
  8
$DDT_AUDIT_GENERATED_(12E)
  6
Continuous
 62
     7
100
AcDbLine
 10
134.3888843634
 20
342.2272955352
 30
0.0
 11
134.7103913427
 21
342.2324379172
 31
0.0
  0
LINE
  5
14C
330
75
100
AcDbEntity
  8
$DDT_AUDIT_GENERATED_(12E)
  6
Continuous
 62
     7
100
AcDbLine
 10
131.1931040526
 20
342.2272955352
 30
0.0
 11
134.3888843634
 21
342.2272955352
 31
0.0
  0
ARC
  5
14D
330
75
100
AcDbEntity
  8
$DDT_AUDIT_GENERATED_(12E)
  6
Continuous
 62
     7
100
AcDbCircle
 10
131.1930048284
 20
342.0274248867
 30
0.0
 40
0.1998706731112955
100
AcDbArc
 50
89.9715559698
 51
180.221427598
  0
ARC
  5
14E
330
75
100
AcDbEntity
  8
$DDT_AUDIT_GENERATED_(12E)
  6
Continuous
 62
     7
100
AcDbCircle
 10
111.7589320263
 20
342.9219528676
 30
0.0
 40
19.25502925928376
100
AcDbArc
 50
293.395602681
 51
357.33495931
  0
LINE
  5
14F
330
75
100
AcDbEntity
  8
$DDT_AUDIT_GENERATED_(12E)
  6
Continuous
 62
     7
100
AcDbLine
 10
137.2084792177
 20
342.2272650742
 30
0.0
 11
140.9418649457
 21
342.2272650742
 31
0.0
  0
ARC
  5
150
330
75
100
AcDbEntity
  8
$DDT_AUDIT_GENERATED_(12E)
  6
Continuous
 62
     7
100
AcDbCircle
 10
140.9418649457
 20
342.4272650742
 30
0.0
 40
0.1999999999997658
100
AcDbArc
 50
269.9999999999
 51
0.3511003393
  0
ARC
  5
151
330
75
100
AcDbEntity
  8
$DDT_AUDIT_GENERATED_(12E)
  6
Continuous
 62
     7
100
AcDbCircle
 10
71.5516860484
 20
342.4272650742
 30
0.0
 40
0.2000000000000026
100
AcDbArc
 50
179.6495010727
 51
270.0
  0
LINE
  5
153
330
75
100
AcDbEntity
  8
$DDT_AUDIT_GENERATED_(152)
  6
Continuous
 62
     7
100
AcDbLine
 10
117.1467766952
 20
323.6105846444
 30
0.0
 11
118.8467766952
 21
324.3253004429
 31
0.0
  0
LINE
  5
154
330
75
100
AcDbEntity
  8
$DDT_AUDIT_GENERATED_(152)
  6
Continuous
 62
     7
100
AcDbLine
 10
117.1467766952
 20
323.6105846444
 30
0.0
 11
116.7354135162
 21
323.5442501603
 31
0.0
  0
LINE
  5
155
330
75
100
AcDbEntity
  8
$DDT_AUDIT_GENERATED_(152)
  6
Continuous
 62
     7
100
AcDbLine
 10
119.2581398741
 20
324.6097098175
 30
0.0
 11
118.8467766952
 21
324.3253004429
 31
0.0
  0
LINE
  5
156
330
75
100
AcDbEntity
  8
$DDT_AUDIT_GENERATED_(152)
  6
Continuous
 62
     7
100
AcDbLine
 10
116.7354135162
 20
323.5442501603
 30
0.0
 11
116.4139065403
 21
323.4341481185
 31
0.0
  0
LINE
  5
157
330
75
100
AcDbEntity
  8
$DDT_AUDIT_GENERATED_(152)
  6
Continuous
 62
     7
100
AcDbLine
 10
93.6467766952
 20
324.3253004429
 30
0.0
 11
95.3467766952
 21
323.6105846444
 31
0.0
  0
LINE
  5
158
330
75
100
AcDbEntity
  8
$DDT_AUDIT_GENERATED_(152)
  6
Continuous
 62
     7
100
AcDbLine
 10
93.6467766952
 20
324.3253004429
 30
0.0
 11
93.2354135162
 21
324.6097098175
 31
0.0
  0
LINE
  5
159
330
75
100
AcDbEntity
  8
$DDT_AUDIT_GENERATED_(152)
  6
Continuous
 62
     7
100
AcDbLine
 10
95.7581398741
 20
323.5442501603
 30
0.0
 11
95.3467766952
 21
323.6105846444
 31
0.0
  0
LINE
  5
15A
330
75
100
AcDbEntity
  8
$DDT_AUDIT_GENERATED_(152)
  6
Continuous
 62
     7
100
AcDbLine
 10
93.2354135162
 20
324.6097098175
 30
0.0
 11
92.9139065445
 21
324.7730385704
 31
0.0
  0
LINE
  5
15B
330
75
100
AcDbEntity
  8
$DDT_AUDIT_GENERATED_(152)
  6
Continuous
 62
     7
100
AcDbLine
 10
119.5796468458
 20
324.7730385704
 30
0.0
 11
119.2581398741
 21
324.6097098175
 31
0.0
  0
SPLINE
  5
15C
330
75
100
AcDbEntity
  8
$DDT_AUDIT_GENERATED_(152)
  6
Continuous
 62
     7
100
AcDbSpline
210
0.0
220
0.0
230
1.0
 70
     8
 71
     3
 72
    14
 73
    10
 74
     0
 42
0.000000000461487
 43
0.0000000001
 40
0.0
 40
0.0
 40
0.0
 40
0.0
 40
0.25
 40
0.25
 40
0.5
 40
0.5
 40
0.75
 40
0.75
 40
1.0
 40
1.0
 40
1.0
 40
1.0
 10
92.913906544519
 20
324.7730385704216
 30
0.0
 10
91.29173232912018
 20
325.5817140614422
 30
0.0
 10
89.75496501995086
 20
326.5531715356066
 30
0.0
 10
86.956379526038
 20
328.8062901710376
 30
0.0
 10
85.67148826236841
 20
330.1115761477663
 30
0.0
 10
83.52243235134871
 20
332.9821211578155
 30
0.0
 10
82.6342879464102
 20
334.5796450118943
 30
0.0
 10
81.39816631936183
 20
337.9558690812298
 30
0.0
 10
81.04972090824437
 20
339.7063337656418
 30
0.0
 10
80.99941890388746
 20
341.5257486333496
 30
0.0
  0
ARC
  5
15D
330
75
100
AcDbEntity
  8
$DDT_AUDIT_GENERATED_(152)
  6
Continuous
 62
     7
100
AcDbCircle
 10
111.3726228065
 20
343.2229872902
 30
0.0
 40
20.19296539257764
100
AcDbArc
 50
293.9807604244
 51
355.1785449021
  0
LINE
  5
15E
330
75
100
AcDbEntity
  8
$DDT_AUDIT_GENERATED_(152)
  6
Continuous
 62
     7
100
AcDbLine
 10
140.941805965
 20
341.720191656
 30
0.0
 11
131.6940276436
 21
341.720191656
 31
0.0
  0
LINE
  5
15F
330
75
100
AcDbEntity
  8
$DDT_AUDIT_GENERATED_(152)
  6
Continuous
 62
     7
100
AcDbLine
 10
80.7995257467
 20
341.720191656
 30
0.0
 11
71.551736606
 21
341.720191656
 31
0.0
  0
SPLINE
  5
160
330
75
100
AcDbEntity
  8
$DDT_AUDIT_GENERATED_(152)
  6
Continuous
 62
     7
100
AcDbSpline
210
0.0
220
0.0
230
1.0
 70
     8
 71
     3
 72
    94
 73
    90
 74
     0
 42
0.0000000000749793
 43
0.0000000001
 40
0.0
 40
0.0
 40
0.0
 40
0.0
 40
0.0599012150913296
 40
0.0599012150913296
 40
0.0913687526355604
 40
0.0913687526355604
 40
0.1228362901797912
 40
0.1228362901797912
 40
0.154303827724022
 40
0.154303827724022
 40
0.1857713652682527
 40
0.1857713652682527
 40
0.2015051340403681
 40
0.2015051340403681
 40
0.2172389028124835
 40
0.2172389028124835
 40
0.2487064403567143
 40
0.2487064403567143
 40
0.2644402091288296
 40
0.2644402091288296
 40
0.2801739779009451
 40
0.2801739779009451
 40
0.3116415154451758
 40
0.3116415154451758
 40
0.3273752842172911
 40
0.3273752842172911
 40
0.3431090529894066
 40
0.3431090529894066
 40
0.358842821761522
 40
0.358842821761522
 40
0.3745765905336373
 40
0.3745765905336373
 40
0.4060441280778681
 40
0.4060441280778681
 40
0.4375116656220989
 40
0.4375116656220989
 40
0.4689792031663298
 40
0.4689792031663298
 40
0.4768460875523876
 40
0.4768460875523876
 40
0.4847129719384451
 40
0.4847129719384451
 40
0.5004467407105604
 40
0.5004467407105604
 40
0.5319142782547911
 40
0.5319142782547911
 40
0.5397811626408489
 40
0.5397811626408489
 40
0.5476480470269066
 40
0.5476480470269066
 40
0.563381815799022
 40
0.563381815799022
 40
0.5948493533432528
 40
0.5948493533432528
 40
0.6027162377293106
 40
0.6027162377293106
 40
0.6105831221153681
 40
0.6105831221153681
 40
0.6263168908874835
 40
0.6263168908874835
 40
0.6577844284317141
 40
0.6577844284317141
 40
0.6892519659759451
 40
0.6892519659759451
 40
0.7049857347480604
 40
0.7049857347480604
 40
0.7207195035201759
 40
0.7207195035201759
 40
0.7521870410644066
 40
0.7521870410644066
 40
0.7836545786086373
 40
0.7836545786086373
 40
0.7993883473807528
 40
0.7993883473807528
 40
0.8151221161528681
 40
0.8151221161528681
 40
0.846589653697099
 40
0.846589653697099
 40
0.8623234224692143
 40
0.8623234224692143
 40
0.8780571912413296
 40
0.8780571912413296
 40
0.9095247287855603
 40
0.9095247287855603
 40
0.9409922663297913
 40
0.9409922663297913
 40
0.9724598038740221
 40
0.9724598038740221
 40
1.0
 40
1.0
 40
1.0
 40
1.0
 10
71.35177108756747
 20
341.5189540631652
 30
0.0
 10
71.36869404893572
 20
338.8502908047156
 30
0.0
 10
71.53457383820836
 20
336.1899933578292
 30
0.0
 10
72.01992391096711
 20
332.14523052543
 30
0.0
 10
72.2289694369212
 20
330.7582308704467
 30
0.0
 10
72.73161961767354
 20
328.0033907713417
 30
0.0
 10
73.02533839584696
 20
326.6344824090854
 30
0.0
 10
73.70114142184688
 20
323.914408334286
 30
0.0
 10
74.0837752789136
 20
322.5619556360606
 30
0.0
 10
74.9370328737649
 20
319.8938781931769
 30
0.0
 10
75.40805451007432
 20
318.5761955579801
 30
0.0
 10
76.1852954038928
 20
316.6257242091897
 30
0.0
 10
76.45618088946505
 20
315.9799167281274
 30
0.0
 10
77.02253215999077
 20
314.6973585402325
 30
0.0
 10
77.31831182922323
 20
314.0599966778702
 30
0.0
 10
78.24084542203983
 20
312.1690722943268
 30
0.0
 10
78.90312876022321
 20
310.9353169962943
 30
0.0
 10
79.97334848007851
 20
309.1283316703872
 30
0.0
 10
80.34291447502662
 20
308.5332931607747
 30
0.0
 10
81.10907060673047
 20
307.3585759428061
 30
0.0
 10
81.50608719829232
 20
306.778350175989
 30
0.0
 10
82.73431124371496
 20
305.0700853594355
 30
0.0
 10
83.60377176140982
 20
303.9722018044607
 30
0.0
 10
84.99226973912998
 20
302.3935625012353
 30
0.0
 10
85.46980512538474
 20
301.8781261374327
 30
0.0
 10
86.45204489249586
 20
300.874610908311
 30
0.0
 10
86.95597374993213
 20
300.3872527959337
 30
0.0
 10
87.99077241152246
 20
299.4428229731832
 30
0.0
 10
88.52163952056537
 20
298.9857482345441
 30
0.0
 10
89.61199768674426
 20
298.1037771504714
 30
0.0
 10
90.17248254668792
 20
297.6782183114062
 30
0.0
 10
91.88957673526821
 20
296.4605819071593
 30
0.0
 10
93.0828529215005
 20
295.725834503281
 30
0.0
 10
95.57832977043104
 20
294.4291239487376
 30
0.0
 10
96.85791822147597
 20
293.8791035302963
 30
0.0
 10
99.48237485154951
 20
292.9860506995797
 30
0.0
 10
100.8274526296201
 20
292.6427854857919
 30
0.0
 10
102.553786419951
 20
292.3551024395085
 30
0.0
 10
102.901890544583
 20
292.3045964633963
 30
0.0
 10
103.6001579803722
 20
292.2185358667801
 30
0.0
 10
103.948879847821
 20
292.18313249036
 30
0.0
 10
104.9938265849281
 20
292.0994978018716
 30
0.0
 10
105.6888337084367
 20
292.0738211929412
 30
0.0
 10
107.769074171725
 20
292.0853726013457
 30
0.0
 10
109.1495432045786
 20
292.210875139444
 30
0.0
 10
110.8672263921586
 20
292.5142833576077
 30
0.0
 10
111.2103665579709
 20
292.5823158332423
 30
0.0
 10
111.8958497530539
 20
292.7331623102421
 30
0.0
 10
112.2385628714879
 20
292.8161086249934
 30
0.0
 10
113.2561875488619
 20
293.0846352460332
 30
0.0
 10
113.9236003855172
 20
293.2904623897084
 30
0.0
 10
115.8946977703716
 20
293.9838197309326
 30
0.0
 10
117.16735953003
 20
294.5469377973292
 30
0.0
 10
118.7104906655169
 20
295.3670542034281
 30
0.0
 10
119.016722505047
 20
295.5369117556243
 30
0.0
 10
119.6244629344572
 20
295.8881358175748
 30
0.0
 10
119.925977452154
 20
296.0695403753764
 30
0.0
 10
120.817005535427
 20
296.6265484049893
 30
0.0
 10
121.3953270910279
 20
297.0162204900426
 30
0.0
 10
123.0867793497123
 20
298.2360572512906
 30
0.0
 10
124.156582792834
 20
299.1168262577553
 30
0.0
 10
126.1938500570929
 20
300.9978927758882
 30
0.0
 10
127.1612417517002
 20
301.9982744837362
 30
0.0
 10
128.5415520352452
 20
303.5815109191007
 30
0.0
 10
128.9887277529241
 20
304.1219065317205
 30
0.0
 10
129.8537741932685
 20
305.2206405274383
 30
0.0
 10
130.2724278706
 20
305.779870288204
 30
0.0
 10
131.4890207269034
 20
307.4855544295709
 30
0.0
 10
132.2479875323575
 20
308.6603934824886
 30
0.0
 10
133.6685532774326
 20
311.0765591239253
 30
0.0
 10
134.3260208250712
 20
312.3107658349971
 30
0.0
 10
135.2400092613528
 20
314.1977935048536
 30
0.0
 10
135.5326039264522
 20
314.8327718196489
 30
0.0
 10
136.0944862322476
 20
316.1142563143157
 30
0.0
 10
136.3639783098084
 20
316.7612987796029
 30
0.0
 10
137.136655719796
 20
318.7145779539651
 30
0.0
 10
137.6041561633743
 20
320.0326998216648
 30
0.0
 10
138.2384991505653
 20
322.0322731729622
 30
0.0
 10
138.438772913193
 20
322.7025369523278
 30
0.0
 10
138.8174824805131
 20
324.0503724297231
 30
0.0
 10
138.9959554149595
 20
324.7281585813409
 30
0.0
 10
139.4979580644813
 20
326.7669973203888
 30
0.0
 10
139.7886376057471
 20
328.1351765121771
 30
0.0
 10
140.2854722932781
 20
330.8887378965232
 30
0.0
 10
140.4917442822156
 20
332.2756234652645
 30
0.0
 10
140.8201119717725
 20
335.0552559531455
 30
0.0
 10
140.9424321332998
 20
336.4487171614949
 30
0.0
 10
141.094572128414
 20
339.0684509352361
 30
0.0
 10
141.1339517336881
 20
340.2947297126754
 30
0.0
 10
141.1417714247458
 20
341.518944834902
 30
0.0
  0
LINE
  5
161
330
75
100
AcDbEntity
  8
$DDT_AUDIT_GENERATED_(152)
  6
Continuous
 62
     7
100
AcDbLine
 10
96.07964685
 20
323.4341481185
 30
0.0
 11
95.7581398741
 21
323.5442501603
 31
0.0
  0
SPLINE
  5
162
330
75
100
AcDbEntity
  8
$DDT_AUDIT_GENERATED_(152)
  6
Continuous
 62
     7
100
AcDbSpline
210
0.0
220
0.0
230
1.0
 70
     8
 71
     3
 72
    18
 73
    14
 74
     0
 42
0.0000000004821425
 43
0.0000000001
 40
0.0
 40
0.0
 40
0.0
 40
0.0
 40
0.0261476866244117
 40
0.0261476866244117
 40
0.2630738433119335
 40
0.2630738433119335
 40
0.4999999999994553
 40
0.4999999999994553
 40
0.736926156686977
 40
0.736926156686977
 40
0.9738523133744988
 40
0.9738523133744988
 40
1.0
 40
1.0
 40
1.0
 40
1.0
 10
116.4139065403497
 20
323.4341481184924
 30
0.0
 10
116.2469396588013
 20
323.3752447021227
 30
0.0
 10
116.0791759411367
 20
323.31779402058
 30
0.0
 10
114.3836551371333
 20
322.7545571423944
 30
0.0
 10
112.7944077399924
 20
322.3679286443204
 30
0.0
 10
109.5523260001394
 20
321.850739510824
 30
0.0
 10
107.8995717696916
 20
321.720191655831
 30
0.0
 10
104.5939816206396
 20
321.720191655831
 30
0.0
 10
102.9412273901918
 20
321.850739510824
 30
0.0
 10
99.69914565033886
 20
322.3679286443204
 30
0.0
 10
98.10989825319791
 20
322.7545571423944
 30
0.0
 10
96.41437744918753
 20
323.3177940205823
 30
0.0
 10
96.24661373151598
 20
323.3752447021274
 30
0.0
 10
96.07964684996053
 20
323.4341481184994
 30
0.0
  0
ARC
  5
163
330
75
100
AcDbEntity
  8
$DDT_AUDIT_GENERATED_(152)
  6
Continuous
 62
     7
100
AcDbCircle
 10
80.7995257467
 20
341.520222117
 30
0.0
 40
0.1999999999999952
100
AcDbArc
 50
1.5836731201
 51
90.0
  0
ARC
  5
164
330
75
100
AcDbEntity
  8
$DDT_AUDIT_GENERATED_(152)
  6
Continuous
 62
     7
100
AcDbCircle
 10
71.551736606
 20
341.520222117
 30
0.0
 40
0.2000000000000018
100
AcDbArc
 50
90.0
 51
180.3633284381
  0
ARC
  5
165
330
75
100
AcDbEntity
  8
$DDT_AUDIT_GENERATED_(152)
  6
Continuous
 62
     7
100
AcDbCircle
 10
140.941805965
 20
341.520222117
 30
0.0
 40
0.2000000000000031
100
AcDbArc
 50
359.634027403
 51
90.0
  0
ARC
  5
166
330
75
100
AcDbEntity
  8
$DDT_AUDIT_GENERATED_(152)
  6
Continuous
 62
     7
100
AcDbCircle
 10
131.6940276436
 20
341.520222117
 30
0.0
 40
0.2000000000000041
100
AcDbArc
 50
90.0
 51
178.4163268773
  0
ENDBLK
  5
168
330
75
100
AcDbEntity
  8
0
100
AcDbBlockEnd
  0
BLOCK
  5
187
330
169
100
AcDbEntity
  8
0
100
AcDbBlockBegin
  2
SE1
 70
     0
 10
0.0
 20
0.0
 30
0.0
  3
SE1
  1

  0
LINE
  5
16B
330
169
100
AcDbEntity
  8
$DDT_AUDIT_GENERATED_(77)
  6
Continuous
 62
     7
100
AcDbLine
 10
28.2467766952
 20
136.6221891878
 30
0.0
 11
30.2467766952
 21
136.6221891878
 31
0.0
  0
LINE
  5
16C
330
169
100
AcDbEntity
  8
$DDT_AUDIT_GENERATED_(77)
  6
Continuous
 62
     7
100
AcDbLine
 10
177.2478428291
 20
136.6221891878
 30
0.0
 11
35.2457105613
 21
136.6221891878
 31
0.0
  0
LINE
  5
16D
330
169
100
AcDbEntity
  8
$DDT_AUDIT_GENERATED_(77)
  6
Continuous
 62
     7
100
AcDbLine
 10
177.2478428291
 20
136.6221891878
 30
0.0
 11
180.853385076
 21
136.6221891878
 31
0.0
  0
LINE
  5
16E
330
169
100
AcDbEntity
  8
$DDT_AUDIT_GENERATED_(77)
  6
Continuous
 62
     7
100
AcDbLine
 10
184.2467766952
 20
136.6221891878
 30
0.0
 11
184.1677776566
 21
132.0963372996
 31
0.0
  0
LINE
  5
16F
330
169
100
AcDbEntity
  8
$DDT_AUDIT_GENERATED_(77)
  6
Continuous
 62
     7
100
AcDbLine
 10
184.1677776566
 20
132.0963372996
 30
0.0
 11
184.1647910998
 21
131.9252375778
 31
0.0
  0
LINE
  5
170
330
169
100
AcDbEntity
  8
$DDT_AUDIT_GENERATED_(77)
  6
Continuous
 62
     7
100
AcDbLine
 10
28.3257784983
 20
132.0961789152
 30
0.0
 11
28.2467766952
 21
136.6221891878
 31
0.0
  0
LINE
  5
171
330
169
100
AcDbEntity
  8
$DDT_AUDIT_GENERATED_(77)
  6
Continuous
 62
     7
100
AcDbLine
 10
28.3280127208
 20
131.9681803979
 30
0.0
 11
28.3257784983
 21
132.0961789152
 31
0.0
  0
ELLIPSE
  5
172
330
169
100
AcDbEntity
  8
$DDT_AUDIT_GENERATED_(77)
  6
Continuous
 62
     7
100
AcDbEllipse
 10
33.3250177025
 20
132.1833992202
 30
0.0
 11
4.999238475779767
 21
0.08726203214022107
 31
0.0
210
0.0
220
0.0
230
0.9999999999999998
 40
0.9998848778
 41
3.183946006851586
 42
4.671138116024419
  0
LINE
  5
173
330
169
100
AcDbEntity
  8
$DDT_AUDIT_GENERATED_(77)
  6
Continuous
 62
     7
100
AcDbLine
 10
30.2467766952
 20
136.6221891878
 30
0.0
 11
35.2457105613
 21
136.6221891878
 31
0.0
  0
LINE
  5
174
330
169
100
AcDbEntity
  8
$DDT_AUDIT_GENERATED_(77)
  6
Continuous
 62
     7
100
AcDbLine
 10
180.853385076
 20
136.6221891878
 30
0.0
 11
184.2467766952
 21
136.6221891878
 31
0.0
  0
ARC
  5
175
330
169
100
AcDbEntity
  8
$DDT_AUDIT_GENERATED_(77)
  6
Continuous
 62
     7
100
AcDbCircle
 10
108.2964050471
 20
119974.4759713397
 30
0.0
 40
119848.6525596202
100
AcDbArc
 50
269.9818429567
 51
270.0161971482
  0
ARC
  5
176
330
169
100
AcDbEntity
  8
$DDT_AUDIT_GENERATED_(77)
  6
Continuous
 62
     7
100
AcDbCircle
 10
134.4647469963
 20
948.0976773239
 30
0.0
 40
822.3034934034229
100
AcDbArc
 50
270.5356976872
 51
273.1361318932
  0
ARC
  5
177
330
169
100
AcDbEntity
  8
$DDT_AUDIT_GENERATED_(77)
  6
Continuous
 62
     7
100
AcDbCircle
 10
78.2681047157
 20
956.233814063
 30
0.0
 40
830.4421014431755
100
AcDbArc
 50
266.8780718015
 51
269.4527760217
  0
ARC
  5
178
330
169
100
AcDbEntity
  8
$DDT_AUDIT_GENERATED_(77)
  6
Continuous
 62
     7
100
AcDbCircle
 10
179.1663109126
 20
132.0559394192
 30
0.0
 40
4.999999956216246
100
AcDbArc
 50
272.8948224322
 51
357.9871077452
  0
ARC
  5
179
330
169
100
AcDbEntity
  8
$DDT_AUDIT_GENERATED_(77)
  6
Continuous
 62
     7
100
AcDbCircle
 10
33.3272467731
 20
132.0556936127
 30
0.0
 40
4.999999716340025
100
AcDbArc
 50
182.0077334085
 51
267.1043750901
  0
ARC
  5
17A
330
169
100
AcDbEntity
  8
$DDT_AUDIT_GENERATED_(12E)
  6
Continuous
 62
     7
100
AcDbCircle
 10
95.4412729184
 20
179.7678609413
 30
0.0
 40
58.82751341137335
100
AcDbArc
 50
246.4762083334
 51
256.149592359
  0
ARC
  5
17B
330
169
100
AcDbEntity
  8
$DDT_AUDIT_GENERATED_(12E)
  6
Continuous
 62
     7
100
AcDbCircle
 10
117.0520069304
 20
179.774398987
 30
0.0
 40
58.83406652139549
100
AcDbArc
 50
283.84910038
 51
293.4953439913
  0
SPLINE
  5
17C
330
169
100
AcDbEntity
  8
$DDT_AUDIT_GENERATED_(12E)
  6
Continuous
 62
     7
100
AcDbSpline
210
0.0
220
0.0
230
1.0
 70
     8
 71
     3
 72
    10
 73
     6
 74
     0
 42
0.0000000167967275
 43
0.0000000001
 40
0.0
 40
0.0
 40
0.0
 40
0.0
 40
0.5
 40
0.5
 40
0.8490483094017695
 40
0.8490483094017695
 40
0.8490483094017695
 40
0.8490483094017695
 10
81.3586869037969
 20
122.6508135271275
 30
0.0
 10
81.49013013598594
 20
122.6176716203267
 30
0.0
 10
81.6195134654391
 20
122.585307638408
 30
0.0
 10
81.779616374113
 20
122.5453809544739
 30
0.0
 10
81.82698511865689
 20
122.5335900256046
 30
0.0
 10
81.84903947735322
 20
122.5280597807659
 30
0.0
  0
SPLINE
  5
17D
330
169
100
AcDbEntity
  8
$DDT_AUDIT_GENERATED_(12E)
  6
Continuous
 62
     7
100
AcDbSpline
210
0.0
220
0.0
230
1.0
 70
     8
 71
     3
 72
    10
 73
     6
 74
     0
 42
0.0000000191189874
 43
0.0000000001
 40
0.0
 40
0.0
 40
0.0
 40
0.0
 40
0.5000000000000001
 40
0.5000000000000001
 40
1.0
 40
1.0
 40
1.0
 40
1.0
 10
130.6306513677633
 20
122.5243918706071
 30
0.0
 10
130.6290414491284
 20
122.5241190362008
 30
0.0
 10
130.6855163149476
 20
122.538157502565
 30
0.0
 10
130.8734645923711
 20
122.5850252267191
 30
0.0
 10
131.0034811292975
 20
122.6175450957063
 30
0.0
 10
131.1348583472527
 20
122.6506676714525
 30
0.0
  0
ARC
  5
17E
330
169
100
AcDbEntity
  8
$DDT_AUDIT_GENERATED_(12E)
  6
Continuous
 62
     7
100
AcDbCircle
 10
106.2472125123
 20
276.6015632162
 30
0.0
 40
155.9946269970274
100
AcDbArc
 50
278.9930938481
 51
278.9931544301
  0
ARC
  5
17F
330
169
100
AcDbEntity
  8
$DDT_AUDIT_GENERATED_(12E)
  6
Continuous
 62
     7
100
AcDbCircle
 10
106.247400769
 20
232.46477428
 30
0.0
 40
112.6010577604133
100
AcDbArc
 50
257.5031004979
 51
282.4968991708
  0
ARC
  5
180
330
169
100
AcDbEntity
  8
$DDT_AUDIT_GENERATED_(12E)
  6
Continuous
 62
     7
100
AcDbCircle
 10
81.9146010584
 20
122.77051494
 30
0.0
 40
0.2511720513782739
100
AcDbArc
 50
254.2033106176
 51
256.8760250981
  0
ARC
  5
181
330
169
100
AcDbEntity
  8
$DDT_AUDIT_GENERATED_(12E)
  6
Continuous
 62
     7
100
AcDbCircle
 10
81.9284364376
 20
122.8085969963
 30
0.0
 40
0.2917045393128389
100
AcDbArc
 50
250.4893699695
 51
257.7081864945
  0
SPLINE
  5
182
330
169
100
AcDbEntity
  8
$DDT_AUDIT_GENERATED_(152)
  6
Continuous
 62
     7
100
AcDbSpline
210
0.0
220
0.0
230
1.0
 70
     8
 71
     3
 72
     8
 73
     4
 74
     0
 42
0.0000000002197265
 43
0.0000000001
 40
0.1444224619719324
 40
0.1444224619719324
 40
0.1444224619719324
 40
0.1444224619719324
 40
0.1477428859275761
 40
0.1477428859275761
 40
0.1477428859275761
 40
0.1477428859275761
 10
75.30734055591559
 20
122.4215424437116
 30
0.0
 10
75.354642853325
 20
122.4052440589123
 30
0.0
 10
75.4023714714065
 20
122.3891432306671
 30
0.0
 10
75.45052618044471
 20
122.373237557551
 30
0.0
  0
SPLINE
  5
183
330
169
100
AcDbEntity
  8
$DDT_AUDIT_GENERATED_(152)
  6
Continuous
 62
     7
100
AcDbSpline
210
0.0
220
0.0
230
1.0
 70
     8
 71
     3
 72
     8
 73
     4
 74
     0
 42
0.0000000002187425
 43
0.0000000001
 40
0.8512477142213177
 40
0.8512477142213177
 40
0.8512477142213177
 40
0.8512477142213177
 40
0.8555403496408516
 40
0.8555403496408516
 40
0.8555403496408516
 40
0.8555403496408516
 10
136.9813670807315
 20
122.2617810339305
 30
0.0
 10
137.0441854243663
 20
122.2819368414058
 30
0.0
 10
137.1062985348757
 20
122.3024467280141
 30
0.0
 10
137.1677064651366
 20
122.323315261163
 30
0.0
  0
SPLINE
  5
184
330
169
100
AcDbEntity
  8
$DDT_AUDIT_GENERATED_(152)
  6
Continuous
 62
     7
100
AcDbSpline
210
0.0
220
0.0
230
1.0
 70
     8
 71
     3
 72
    59
 73
    55
 74
     0
 42
0.0000000001610594
 43
0.0000000001
 40
0.0
 40
0.0
 40
0.0
 40
0.0
 40
0.0032304219698081
 40
0.009639430711975
 40
0.0167381096227617
 40
0.0276665285806759
 40
0.0391049980984308
 40
0.0498547775576218
 40
0.0620337674943271
 40
0.0763051915105178
 40
0.0911531514196249
 40
0.1037328156705698
 40
0.1160559649660206
 40
0.1461918633101802
 40
0.1698005339058825
 40
0.1920402623328311
 40
0.2132368421781679
 40
0.2302701758570759
 40
0.249445896975561
 40
0.2707238696460544
 40
0.2940653932797914
 40
0.3194417135774305
 40
0.34667736291301
 40
0.3739121224584545
 40
0.4006258695797001
 40
0.4267686260075118
 40
0.4647189280266412
 40
0.5008686588934255
 40
0.5351393192926769
 40
0.568398012177643
 40
0.6025743055360202
 40
0.6377305867021241
 40
0.666563533193893
 40
0.6960908138942682
 40
0.7263796640560427
 40
0.7545504010307422
 40
0.77894795894037
 40
0.7941216683515684
 40
0.8074458081409374
 40
0.8197514101676788
 40
0.8346342794463474
 40
0.8526630096776691
 40
0.8716392155347232
 40
0.8891383210212961
 40
0.9031921843536074
 40
0.91602686680794
 40
0.928603900674822
 40
0.941762094421279
 40
0.956948410688568
 40
0.9719358684227167
 40
0.9765309892043569
 40
0.9825277068578179
 40
0.9908668116342613
 40
1.0
 40
1.0
 40
1.0
 40
1.0
 10
75.46423268637136
 20
122.3698635183322
 30
0.0
 10
75.53496952442994
 20
122.3461183786605
 30
0.0
 10
75.71423566691958
 20
122.2860154853012
 30
0.0
 10
76.04752544576054
 20
122.1812054865117
 30
0.0
 10
76.5074445624644
 20
122.041422336384
 30
0.0
 10
77.06391246628164
 20
121.8824279064046
 30
0.0
 10
77.68919292428801
 20
121.7163837502642
 30
0.0
 10
78.33413151736733
 20
121.5573169569285
 30
0.0
 10
79.01575022584065
 20
121.4012760850738
 30
0.0
 10
79.76575797558226
 20
121.2431435345658
 30
0.0
 10
80.53360458141245
 20
121.0948912042552
 30
0.0
 10
81.26672743655561
 20
120.9642726503438
 30
0.0
 10
82.26306494016023
 20
120.7983271600678
 30
0.0
 10
83.5040142212676
 20
120.6133464200973
 30
0.0
 10
84.9037906878839
 20
120.4272869396935
 30
0.0
 10
86.16263432328743
 20
120.2730031115336
 30
0.0
 10
87.28548793673299
 20
120.144193578901
 30
0.0
 10
88.35367976237019
 20
120.0272562179814
 30
0.0
 10
89.44870081047057
 20
119.9116992282352
 30
0.0
 10
90.6955457233974
 20
119.784161996104
 30
0.0
 10
92.10681429224954
 20
119.6428854316779
 30
0.0
 10
93.69076188958806
 20
119.4858424428175
 30
0.0
 10
95.4135550994445
 20
119.3132212513905
 30
0.0
 10
97.22967426009352
 20
119.1285952875057
 30
0.0
 10
99.06621067371843
 20
118.9525233597482
 30
0.0
 10
101.1842544454145
 20
118.7745789982191
 30
0.0
 10
103.5559677910517
 20
118.6258833210987
 30
0.0
 10
106.1384077129114
 20
118.5737509243741
 30
0.0
 10
108.6076456984642
 20
118.6390302392103
 30
0.0
 10
111.0100989658443
 20
118.785265027506
 30
0.0
 10
113.3973785290053
 20
118.992672503854
 30
0.0
 10
115.6275966747691
 20
119.2212271175127
 30
0.0
 10
117.6835599285222
 20
119.4310372820041
 30
0.0
 10
119.5601430514971
 20
119.6120550927709
 30
0.0
 10
121.3310455367002
 20
119.7787800743533
 30
0.0
 10
122.9276496740367
 20
119.9289944387574
 30
0.0
 10
124.1934378755806
 20
120.0512929982025
 30
0.0
 10
125.1654076833388
 20
120.1487879746619
 30
0.0
 10
125.9100873754731
 20
120.2261489476685
 30
0.0
 10
126.6585994946314
 20
120.3068876087719
 30
0.0
 10
127.531314184234
 20
120.4056101486866
 30
0.0
 10
128.5255565700994
 20
120.5259385008178
 30
0.0
 10
129.5545255451961
 20
120.6615230118583
 30
0.0
 10
130.5084486524039
 20
120.799808469567
 30
0.0
 10
131.3479371958672
 20
120.9332340314943
 30
0.0
 10
132.0967498644763
 20
121.0627230690934
 30
0.0
 10
132.8270190070816
 20
121.1999070671814
 30
0.0
 10
133.6025994971245
 20
121.3586487456059
 30
0.0
 10
134.4305833348164
 20
121.5454321257439
 30
0.0
 10
135.0924000718374
 20
121.7113704462726
 30
0.0
 10
135.5844577150505
 20
121.8436511558358
 30
0.0
 10
135.9632184332249
 20
121.9494971557167
 30
0.0
 10
136.4471927161735
 20
122.091554954812
 30
0.0
 10
136.7687614202673
 20
122.1945231735817
 30
0.0
 10
136.9686867152067
 20
122.2587917740686
 30
0.0
  0
SPLINE
  5
185
330
169
100
AcDbEntity
  8
$DDT_AUDIT_GENERATED_(152)
  6
Continuous
 62
     7
100
AcDbSpline
210
0.0
220
0.0
230
1.0
 70
     8
 71
     3
 72
    26
 73
    22
 74
     0
 42
0.0000000017126506
 43
0.0000000001
 40
0.053196370325792
 40
0.053196370325792
 40
0.053196370325792
 40
0.053196370325792
 40
0.0774010496878959
 40
0.1433408916054361
 40
0.1980109890910444
 40
0.2414945125028052
 40
0.2727403678027649
 40
0.2937073945004056
 40
0.3074854033933571
 40
0.3212158173422521
 40
0.3351846783102932
 40
0.3493931250429985
 40
0.3638439710273143
 40
0.4055654370169072
 40
0.4566703216976354
 40
0.5195302915880685
 40
0.5937103160223748
 40
0.6789425866029808
 40
0.7751164500131433
 40
0.8822766447249158
 40
1.0
 40
1.0
 40
1.0
 40
1.0
 10
71.45631743770664
 20
125.8299432315331
 30
0.0
 10
71.4606711425106
 20
125.7998687615052
 30
0.0
 10
71.47884120739735
 20
125.6877878989952
 30
0.0
 10
71.52577727753624
 20
125.4904250370133
 30
0.0
 10
71.60283347307626
 20
125.263224195605
 30
0.0
 10
71.68255055326958
 20
125.0777297108933
 30
0.0
 10
71.75293891024893
 20
124.9380850336727
 30
0.0
 10
71.80740796910833
 20
124.8405555497675
 30
0.0
 10
71.8504342336333
 20
124.768401953041
 30
0.0
 10
71.888620519981
 20
124.7074809224026
 30
0.0
 10
71.92868737249472
 20
124.6465399588136
 30
0.0
 10
71.97088422065421
 20
124.5852809526349
 30
0.0
 10
72.04286771937959
 20
124.4853715108995
 30
0.0
 10
72.15930857762667
 20
124.3369179256961
 30
0.0
 10
72.34123426423285
 20
124.13274892204
 30
0.0
 10
72.58413238481296
 20
123.8965306966892
 30
0.0
 10
72.90258923400013
 20
123.6324043566445
 30
0.0
 10
73.32244815930005
 20
123.3388289244912
 30
0.0
 10
73.86563727808642
 20
123.0236995157355
 30
0.0
 10
74.57179510198574
 20
122.6870002687637
 30
0.0
 10
75.09721617027071
 20
122.4980001262394
 30
0.0
 10
75.42667841326505
 20
122.381243751562
 30
0.0
  0
SPLINE
  5
186
330
169
100
AcDbEntity
  8
$DDT_AUDIT_GENERATED_(152)
  6
Continuous
 62
     7
100
AcDbSpline
210
0.0
220
0.0
230
1.0
 70
     8
 71
     3
 72
    26
 73
    22
 74
     0
 42
0.0000000017295823
 43
0.0000000001
 40
0.0
 40
0.0
 40
0.0
 40
0.0
 40
0.1146209921880401
 40
0.2177256123443742
 40
0.3093677919322809
 40
0.3895690937882202
 40
0.4586579462015546
 40
0.5175610171180851
 40
0.5663584264897015
 40
0.6007757104383491
 40
0.629542445786462
 40
0.65745136835001
 40
0.6846988194928275
 40
0.6980777273030642
 40
0.7114399328692685
 40
0.7318837809743083
 40
0.7633296041797067
 40
0.8057924905374696
 40
0.8593124446429855
 40
0.9239843484036058
 40
0.9753897029940727
 40
0.9753897029940727
 40
0.9753897029940727
 40
0.9753897029940727
 10
137.0479360966879
 20
122.283463799228
 30
0.0
 10
137.3705286273501
 20
122.396138096346
 30
0.0
 10
137.8820847804268
 20
122.5775131166544
 30
0.0
 10
138.5719826383159
 20
122.9019541752718
 30
0.0
 10
139.0998247091561
 20
123.2027065056085
 30
0.0
 10
139.5077826687876
 20
123.4805372854842
 30
0.0
 10
139.8172238799603
 20
123.7274321222431
 30
0.0
 10
140.0547290887799
 20
123.9463578019847
 30
0.0
 10
140.2283650105721
 20
124.1285948186088
 30
0.0
 10
140.3556511576262
 20
124.2772063710408
 30
0.0
 10
140.4544167050807
 20
124.403022641844
 30
0.0
 10
140.5399000574414
 20
124.5214109419198
 30
0.0
 10
140.6052350221595
 20
124.6201005724273
 30
0.0
 10
140.6538385459595
 20
124.6987822209211
 30
0.0
 10
140.6947125448915
 20
124.7681852607494
 30
0.0
 10
140.7477496746418
 20
124.8641158701289
 30
0.0
 10
140.8161367814578
 20
125.0010476584059
 30
0.0
 10
140.8935563002456
 20
125.1824190354044
 30
0.0
 10
140.9681397876656
 20
125.4024420720814
 30
0.0
 10
141.0226740394447
 20
125.6297695303174
 30
0.0
 10
141.041542922367
 20
125.7659552999581
 30
0.0
 10
141.0489525453926
 20
125.8299625594011
 30
0.0
  0
ENDBLK
  5
188
330
169
100
AcDbEntity
  8
0
100
AcDbBlockEnd
  0
BLOCK
  5
1A7
330
189
100
AcDbEntity
  8
0
100
AcDbBlockBegin
  2
SE2
 70
     0
 10
0.0
 20
0.0
 30
0.0
  3
SE2
  1

  0
LINE
  5
18B
330
189
100
AcDbEntity
  8
$DDT_AUDIT_GENERATED_(77)
  6
Continuous
 62
     7
100
AcDbLine
 10
294.995005224
 20
433.4748097295
 30
0.0
 11
294.995005224
 21
250.4726774617
 31
0.0
  0
LINE
  5
18C
330
189
100
AcDbEntity
  8
$DDT_AUDIT_GENERATED_(77)
  6
Continuous
 62
     7
100
AcDbLine
 10
294.995005224
 20
433.4748097295
 30
0.0
 11
294.995005224
 21
438.3736151091
 31
0.0
  0
LINE
  5
18D
330
189
100
AcDbEntity
  8
$DDT_AUDIT_GENERATED_(77)
  6
Continuous
 62
     7
100
AcDbLine
 10
294.995005224
 20
440.4737435956
 30
0.0
 11
299.5215481255
 21
440.3947324954
 31
0.0
  0
LINE
  5
18E
330
189
100
AcDbEntity
  8
$DDT_AUDIT_GENERATED_(77)
  6
Continuous
 62
     7
100
AcDbLine
 10
294.995005224
 20
243.4737435956
 30
0.0
 11
294.995005224
 21
250.4726774617
 31
0.0
  0
LINE
  5
18F
330
189
100
AcDbEntity
  8
$DDT_AUDIT_GENERATED_(77)
  6
Continuous
 62
     7
100
AcDbLine
 10
299.521581772
 20
243.5527552831
 30
0.0
 11
294.995005224
 21
243.4737435956
 31
0.0
  0
LINE
  5
190
330
189
100
AcDbEntity
  8
$DDT_AUDIT_GENERATED_(77)
  6
Continuous
 62
     7
100
AcDbLine
 10
299.521581772
 20
243.5527552831
 30
0.0
 11
299.6622274451
 21
243.5552102625
 31
0.0
  0
ARC
  5
191
330
189
100
AcDbEntity
  8
$DDT_AUDIT_GENERATED_(77)
  6
Continuous
 62
     7
100
AcDbCircle
 10
303.8873827904
 20
436.1618628451
 30
0.0
 40
0.8473732042240895
100
AcDbArc
 50
310.0222643789
 51
323.4369578211
  0
ELLIPSE
  5
192
330
189
100
AcDbEntity
  8
$DDT_AUDIT_GENERATED_(77)
  6
Continuous
 62
     7
100
AcDbEllipse
 10
299.4342860933
 20
435.3954940196
 30
0.0
 11
-0.08726203215065827
 21
-4.999238475783486
 31
0.0
210
0.0
220
0.0
230
1.0
 40
0.999882013
 41
1.611740417895641
 42
3.141592653589795
  0
LINE
  5
193
330
189
100
AcDbEntity
  8
$DDT_AUDIT_GENERATED_(77)
  6
Continuous
 62
     7
100
AcDbLine
 10
294.995005224
 20
438.3736151091
 30
0.0
 11
294.995005224
 21
440.4737435956
 31
0.0
  0
SPLINE
  5
194
330
189
100
AcDbEntity
  8
$DDT_AUDIT_GENERATED_(77)
  6
Continuous
 62
     7
100
AcDbSpline
210
0.0
220
0.0
230
1.0
 70
     8
 71
     3
 72
    40
 73
    36
 74
     0
 42
0.0000000000480947
 43
0.0000000001
 40
0.0
 40
0.0
 40
0.0
 40
0.0
 40
0.03125
 40
0.03125
 40
0.0625000000000001
 40
0.0625000000000001
 40
0.0937500000000001
 40
0.0937500000000001
 40
0.1250000000000001
 40
0.1250000000000001
 40
0.1875000000000001
 40
0.1875000000000001
 40
0.21875
 40
0.21875
 40
0.25
 40
0.25
 40
0.2812499999999999
 40
0.2812499999999999
 40
0.3124999999999999
 40
0.3124999999999999
 40
0.3437499999999999
 40
0.3437499999999999
 40
0.3749999999999999
 40
0.3749999999999999
 40
0.4062499999999998
 40
0.4062499999999998
 40
0.4374999999999997
 40
0.4374999999999997
 40
0.4531249999999997
 40
0.4531249999999997
 40
0.4687499999999997
 40
0.4687499999999997
 40
0.4843749999999998
 40
0.4843749999999998
 40
0.4889559319770575
 40
0.4889559319770575
 40
0.4889559319770575
 40
0.4889559319770575
 10
305.7898961606139
 20
291.2403560592883
 30
0.0
 10
305.7896497514553
 20
291.5998371309497
 30
0.0
 10
305.7892025407176
 20
292.4287179843423
 30
0.0
 10
305.7903405267093
 20
294.8929136531907
 30
0.0
 10
305.7912725295255
 20
296.5003423126864
 30
0.0
 10
305.7908837561964
 20
300.2415116324748
 30
0.0
 10
305.79015512326
 20
302.372301908271
 30
0.0
 10
305.7902023495226
 20
306.9120802092727
 30
0.0
 10
305.7908923628495
 20
309.3521073194759
 30
0.0
 10
305.7918785364151
 20
317.0274946145935
 30
0.0
 10
305.7899803098003
 20
322.4245346537234
 30
0.0
 10
305.7881472871416
 20
330.8471287727384
 30
0.0
 10
305.7878477476756
 20
333.706166666573
 30
0.0
 10
305.7877167042429
 20
339.3945084867548
 30
0.0
 10
305.7877753612669
 20
342.2413860805139
 30
0.0
 10
305.787805871082
 20
347.9405375198676
 30
0.0
 10
305.787909214216
 20
350.8118441304497
 30
0.0
 10
305.788663236331
 20
356.4555706426667
 30
0.0
 10
305.7893111482058
 20
359.2226463103103
 30
0.0
 10
305.7904900513113
 20
364.6414759939256
 30
0.0
 10
305.7908905998842
 20
367.2935283959547
 30
0.0
 10
305.7908258790567
 20
372.4648912946518
 30
0.0
 10
305.7905351489054
 20
375.0059023848414
 30
0.0
 10
305.790365980185
 20
379.7413904461746
 30
0.0
 10
305.790715714078
 20
381.9518520732199
 30
0.0
 10
305.7914218826811
 20
385.9768838695566
 30
0.0
 10
305.7911945938481
 20
387.7455452217807
 30
0.0
 10
305.7900071189377
 20
389.888327823979
 30
0.0
 10
305.7896276328306
 20
390.5241215227633
 30
0.0
 10
305.7893631712003
 20
391.5788831059431
 30
0.0
 10
305.7894721036696
 20
391.9988378817427
 30
0.0
 10
305.7897982756767
 20
392.6120538971498
 30
0.0
 10
305.7899424919243
 20
392.8060821456766
 30
0.0
 10
305.790014670948
 20
392.8951210400677
 30
0.0
 10
305.7900235668517
 20
392.904683817398
 30
0.0
 10
305.7900242937716
 20
392.9037457809707
 30
0.0
  0
SPLINE
  5
195
330
189
100
AcDbEntity
  8
$DDT_AUDIT_GENERATED_(77)
  6
Continuous
 62
     7
100
AcDbSpline
210
0.0
220
0.0
230
1.0
 70
     8
 71
     3
 72
    12
 73
     8
 74
     0
 42
0.0000000002289803
 43
0.0000000001
 40
0.9612747663020739
 40
0.9612747663020739
 40
0.9612747663020739
 40
0.9612747663020739
 40
0.96875
 40
0.96875
 40
0.984375
 40
0.984375
 40
0.986114534782753
 40
0.986114534782753
 40
0.986114534782753
 40
0.986114534782753
 10
305.7895501165188
 20
292.1379655141835
 30
0.0
 10
305.7895576426844
 20
291.9401435820311
 30
0.0
 10
305.7895956810625
 20
291.7678390951332
 30
0.0
 10
305.7897927543682
 20
291.3219644766393
 30
0.0
 10
305.7899948766373
 20
291.1365181581147
 30
0.0
 10
305.790043521693
 20
291.0633053603878
 30
0.0
 10
305.7900470707695
 20
291.0574798982933
 30
0.0
 10
305.7900493601945
 20
291.053166216458
 30
0.0
  0
SPLINE
  5
196
330
189
100
AcDbEntity
  8
$DDT_AUDIT_GENERATED_(77)
  6
Continuous
 62
     7
100
AcDbSpline
210
0.0
220
0.0
230
1.0
 70
     8
 71
     3
 72
     8
 73
     4
 74
     0
 42
0.0000000005692673
 43
0.0000000001
 40
0.9888234136136073
 40
0.9888234136136073
 40
0.9888234136136073
 40
0.9888234136136073
 40
1.0
 40
1.0
 40
1.0
 40
1.0
 10
305.7900511350115
 20
291.0440233116262
 30
0.0
 10
305.7900416416954
 20
291.0466058088472
 30
0.0
 10
305.7899842890378
 20
291.1117873792339
 30
0.0
 10
305.7898961606139
 20
291.2403560592883
 30
0.0
  0
ARC
  5
197
330
189
100
AcDbEntity
  8
$DDT_AUDIT_GENERATED_(77)
  6
Continuous
 62
     7
100
AcDbCircle
 10
-715.6808357094
 20
385.0359385418
 30
0.0
 40
1021.500658817023
100
AcDbArc
 50
0.4411476198
 51
2.8399222933
  0
ARC
  5
198
330
189
100
AcDbEntity
  8
$DDT_AUDIT_GENERATED_(77)
  6
Continuous
 62
     7
100
AcDbCircle
 10
-718.2903479329
 20
298.9958021639
 30
0.0
 40
1024.11117652799
100
AcDbArc
 50
357.1626051892
 51
359.556476445
  0
ARC
  5
199
330
189
100
AcDbEntity
  8
$DDT_AUDIT_GENERATED_(77)
  6
Continuous
 62
     7
100
AcDbCircle
 10
299.5749695522
 20
435.393038381
 30
0.0
 40
4.999999999658854
100
AcDbArc
 50
2.9102618613
 51
88.9999719855
  0
ARC
  5
19A
330
189
100
AcDbEntity
  8
$DDT_AUDIT_GENERATED_(77)
  6
Continuous
 62
     7
100
AcDbCircle
 10
299.5749641986
 20
248.5544487168
 30
0.0
 40
4.999999997946031
100
AcDbArc
 50
271.0000228386
 51
357.088990337
  0
ARC
  5
19B
330
189
100
AcDbEntity
  8
$DDT_AUDIT_GENERATED_(12E)
  6
Continuous
 62
     7
100
AcDbCircle
 10
414.175706071
 20
342.6126802918
 30
0.0
 40
105.0839024769222
100
AcDbArc
 50
180.3486905027
 51
181.217186543
  0
LINE
  5
19C
330
189
100
AcDbEntity
  8
$DDT_AUDIT_GENERATED_(12E)
  6
Continuous
 62
     7
100
AcDbLine
 10
308.6807234546
 20
342.3578983063
 30
0.0
 11
305.8042375496
 21
342.3076890581
 31
0.0
  0
ARC
  5
19D
330
189
100
AcDbEntity
  8
$DDT_AUDIT_GENERATED_(12E)
  6
Continuous
 62
     7
100
AcDbCircle
 10
116.241958737
 20
341.958643385
 30
0.0
 40
195.7039342980585
100
AcDbArc
 50
354.6935967981
 51
14.4378698589
  0
ARC
  5
19E
330
189
100
AcDbEntity
  8
$DDT_AUDIT_GENERATED_(152)
  6
Continuous
 62
     7
100
AcDbCircle
 10
95.5614832939
 20
305.195917067
 30
0.0
 40
216.4855364150843
100
AcDbArc
 50
5.8434917861
 51
6.583228339
  0
LINE
  5
19F
330
189
100
AcDbEntity
  8
$DDT_AUDIT_GENERATED_(152)
  6
Continuous
 62
     7
100
AcDbLine
 10
305.798605612
 20
341.6398964389
 30
0.0
 11
308.8077113405
 21
341.5873723031
 31
0.0
  0
LINE
  5
1A0
330
189
100
AcDbEntity
  8
$DDT_AUDIT_GENERATED_(152)
  6
Continuous
 62
     7
100
AcDbLine
 10
305.7894773251
 20
292.1574311164
 30
0.0
 11
306.5579166996
 21
292.1708442752
 31
0.0
  0
SPLINE
  5
1A1
330
189
100
AcDbEntity
  8
$DDT_AUDIT_GENERATED_(152)
  6
Continuous
 62
     7
100
AcDbSpline
210
0.0
220
0.0
230
1.0
 70
     8
 71
     3
 72
    51
 73
    47
 74
     0
 42
0.0000000003127202
 43
0.0000000001
 40
0.0
 40
0.0
 40
0.0
 40
0.0
 40
0.041332699182211
 40
0.0798394401061179
 40
0.1149310229836343
 40
0.1471254830280626
 40
0.1855848490946926
 40
0.2204934357658113
 40
0.2523577554893762
 40
0.2914434467531462
 40
0.3257338666805336
 40
0.3553965727726497
 40
0.3805685095673371
 40
0.4013612206068063
 40
0.4243986579835864
 40
0.4448823228983581
 40
0.4638717466422632
 40
0.4813939428989264
 40
0.4974549185701838
 40
0.5119830972657058
 40
0.5249936343947105
 40
0.5351561828512189
 40
0.5398172674210124
 40
0.5409763817939249
 40
0.5422267268752813
 40
0.5452046383273469
 40
0.5538746522903641
 40
0.5647856358886211
 40
0.5791059310129676
 40
0.5969721729664926
 40
0.6184887657824174
 40
0.6446325873370204
 40
0.6700312225848349
 40
0.6933732578671102
 40
0.7213254519276163
 40
0.7454253070465204
 40
0.7656314598241741
 40
0.782913573507607
 40
0.8214938046250123
 40
0.8614386492877703
 40
0.9026514782164218
 40
0.9326281970153748
 40
0.9608911100358815
 40
0.9743717308455332
 40
0.9885112274018292
 40
1.0
 40
1.0
 40
1.0
 40
1.0
 10
311.2211765788646
 20
295.6124031971264
 30
0.0
 10
311.4260712103712
 20
296.2555302126602
 30
0.0
 10
311.7553364650208
 20
297.3028094251489
 30
0.0
 10
312.1759475946062
 20
298.9911244286677
 30
0.0
 10
312.4820716841157
 20
300.524272359918
 30
0.0
 10
312.7204320971584
 20
302.0783569206749
 30
0.0
 10
312.8863517027805
 20
303.6367793039915
 30
0.0
 10
312.9835345785339
 20
305.1965599437069
 30
0.0
 10
313.0275626130974
 20
306.7676836051338
 30
0.0
 10
313.0262759165966
 20
308.3303563777591
 30
0.0
 10
312.9800784224697
 20
309.8595634690013
 30
0.0
 10
312.9067683196526
 20
311.1808084111328
 30
0.0
 10
312.8206995764418
 20
312.300347484213
 30
0.0
 10
312.7242148257655
 20
313.320247324602
 30
0.0
 10
312.6185584723717
 20
314.2692444089603
 30
0.0
 10
312.5009572494301
 20
315.1898333368366
 30
0.0
 10
312.3816107591801
 20
316.0275662719841
 30
0.0
 10
312.2613734373318
 20
316.7987047140847
 30
0.0
 10
312.1428953408923
 20
317.5031812267001
 30
0.0
 10
312.0288342016486
 20
318.1397232892154
 30
0.0
 10
311.9248097352934
 20
318.6899534417965
 30
0.0
 10
311.8456475665516
 20
319.0915488716215
 30
0.0
 10
311.7981126171814
 20
319.3264050227777
 30
0.0
 10
311.7780234582167
 20
319.4247761726255
 30
0.0
 10
311.7646102816976
 20
319.4902642957895
 30
0.0
 10
311.7399056797424
 20
319.6102239876453
 30
0.0
 10
311.7163084625371
 20
319.7229102701518
 30
0.0
 10
311.6926635667552
 20
319.832240742628
 30
0.0
 10
311.6710512584266
 20
319.9271685641419
 30
0.0
 10
311.6486658571159
 20
320.0207601164605
 30
0.0
 10
311.6232523848795
 20
320.1248934041651
 30
0.0
 10
311.5945130379779
 20
320.2459321475138
 30
0.0
 10
311.5597615144227
 20
320.4063229063169
 30
0.0
 10
311.5201899981756
 20
320.6068168995489
 30
0.0
 10
311.477913064242
 20
320.8431749075831
 30
0.0
 10
311.4353362335045
 20
321.1088276127381
 30
0.0
 10
311.3983576051075
 20
321.3579498985287
 30
0.0
 10
311.3526652783845
 20
321.6807304765377
 30
0.0
 10
311.2801838390731
 20
322.2173434384692
 30
0.0
 10
311.1721647885716
 20
323.066089082461
 30
0.0
 10
311.0581679235182
 20
324.0024380112479
 30
0.0
 10
310.9461688596917
 20
324.9496648953879
 30
0.0
 10
310.8591166889069
 20
325.700582978187
 30
0.0
 10
310.7890264127055
 20
326.3134189189694
 30
0.0
 10
310.7367388274144
 20
326.7739582613689
 30
0.0
 10
310.7035502498814
 20
327.0704415428056
 30
0.0
 10
310.6859294773303
 20
327.2279158284224
 30
0.0
  0
SPLINE
  5
1A2
330
189
100
AcDbEntity
  8
$DDT_AUDIT_GENERATED_(152)
  6
Continuous
 62
     7
100
AcDbSpline
210
0.0
220
0.0
230
1.0
 70
     8
 71
     3
 72
    13
 73
     9
 74
     0
 42
0.0000000075066474
 43
0.0000000001
 40
0.1970929419349821
 40
0.1970929419349821
 40
0.1970929419349821
 40
0.1970929419349821
 40
0.2131482143650983
 40
0.2611602259996135
 40
0.3001333955972535
 40
0.3308641755972392
 40
0.3598722732379591
 40
0.3700274145440146
 40
0.3700274145440146
 40
0.3700274145440146
 40
0.3700274145440146
 10
311.5084824304147
 20
320.6298400373284
 30
0.0
 10
311.5083219971417
 20
320.6297626461098
 30
0.0
 10
311.5072519167405
 20
320.6317566672239
 30
0.0
 10
311.5029661255958
 20
320.6496536013295
 30
0.0
 10
311.4946362037585
 20
320.695996572468
 30
0.0
 10
311.4864867930206
 20
320.74696712053
 30
0.0
 10
311.4778250266653
 20
320.8047575489944
 30
0.0
 10
311.4719477344717
 20
320.8454939589855
 30
0.0
 10
311.4703567686369
 20
320.8566140442006
 30
0.0
  0
SPLINE
  5
1A3
330
189
100
AcDbEntity
  8
$DDT_AUDIT_GENERATED_(152)
  6
Continuous
 62
     7
100
AcDbSpline
210
0.0
220
0.0
230
1.0
 70
     8
 71
     3
 72
    14
 73
    10
 74
     0
 42
0.0000000010249816
 43
0.0000000001
 40
0.426559338365309
 40
0.426559338365309
 40
0.426559338365309
 40
0.426559338365309
 40
0.4377205674937871
 40
0.5166477083094522
 40
0.5968852962356452
 40
0.6376452580798806
 40
0.6788616559192374
 40
0.717207664891945
 40
0.7357481323856632
 40
0.7357481323856632
 40
0.7357481323856632
 40
0.7357481323856632
 10
311.4378850689078
 20
321.0932881322516
 30
0.0
 10
311.4353810037778
 20
321.1121636883598
 30
0.0
 10
311.4146183418427
 20
321.2696910053
 30
0.0
 10
311.3672621645
 20
321.6456751859973
 30
0.0
 10
311.294733277473
 20
322.263290848769
 30
0.0
 10
311.2280250604791
 20
322.8536431500152
 30
0.0
 10
311.1747220198752
 20
323.3341802527491
 30
0.0
 10
311.1289227000861
 20
323.7526030103568
 30
0.0
 10
311.1013571263385
 20
324.0060290189149
 30
0.0
 10
311.0922504749782
 20
324.0898847202072
 30
0.0
  0
ARC
  5
1A4
330
189
100
AcDbEntity
  8
$DDT_AUDIT_GENERATED_(152)
  6
Continuous
 62
     7
100
AcDbCircle
 10
306.4706462672
 20
297.1710987627
 30
0.0
 40
5.001016018438787
100
AcDbArc
 50
271.0014530445
 51
341.7052192151
  0
ARC
  5
1A5
330
189
100
AcDbEntity
  8
$DDT_AUDIT_GENERATED_(152)
  6
Continuous
 62
     7
100
AcDbCircle
 10
667.9913943358
 20
378.6453315357
 30
0.0
 40
360.9195853538476
100
AcDbArc
 50
185.9219394353
 51
185.9642314254
  0
ARC
  5
1A6
330
189
100
AcDbEntity
  8
$DDT_AUDIT_GENERATED_(152)
  6
Continuous
 62
     7
100
AcDbCircle
 10
308.8044164876
 20
341.3873993554
 30
0.0
 40
0.1999999939831311
100
AcDbArc
 50
5.8846274253
 51
89.0001770678
  0
ENDBLK
  5
1A8
330
189
100
AcDbEntity
  8
0
100
AcDbBlockEnd
  0
ENDSEC
  0
SECTION
  2
ENTITIES
  0
INSERT
  5
5F
330
1F
100
AcDbEntity
  8
Default
100
AcDbBlockReference
  2
SEANNOT_GROUP
 10
0.0
 20
0.0
 30
0.0
  0
INSERT
  5
66
330
1F
100
AcDbEntity
  8
Default
100
AcDbBlockReference
  2
SEANNOT_GROUP1
 10
0.0
 20
0.0
 30
0.0
  0
INSERT
  5
6C
330
1F
100
AcDbEntity
  8
Default
100
AcDbBlockReference
  2
SEANNOT_GROUP2
 10
0.0
 20
0.0
 30
0.0
  0
INSERT
  5
71
330
1F
100
AcDbEntity
  8
Default
100
AcDbBlockReference
  2
SEANNOT_GROUP3
 10
0.0
 20
0.0
 30
0.0
  0
INSERT
  5
76
330
1F
100
AcDbEntity
  8
Default
100
AcDbBlockReference
  2
SE
 10
0.0
 20
0.0
 30
0.0
  0
INSERT
  5
16A
330
1F
100
AcDbEntity
  8
Default
100
AcDbBlockReference
  2
SE1
 10
0.0
 20
0.0
 30
0.0
  0
INSERT
  5
18A
330
1F
100
AcDbEntity
  8
Default
100
AcDbBlockReference
  2
SE2
 10
0.0
 20
0.0
 30
0.0
  0
TEXT
  5
1AA
330
1F
100
AcDbEntity
  8
Default
  6
Continuous
 62
     7
100
AcDbText
 10
5.9362635081
 20
53.4225120485
 30
0.0
 40
10.0
  1
Grohe AG^J
  7
SEACAD_seiso_ttf
 11
5.9362635081
 21
63.4225120485
 31
0.0
100
AcDbText
 73
     3
  0
TEXT
  5
1AB
330
1F
100
AcDbEntity
  8
Default
  6
Continuous
 62
     7
100
AcDbText
 10
5.9362635081
 20
37.0588756849
 30
0.0
 40
10.0
  1
 
  7
SEACAD_seiso_ttf
 11
5.9362635081
 21
47.0588756849
 31
0.0
100
AcDbText
 73
     3
  0
TEXT
  5
1AC
330
1F
100
AcDbEntity
  8
Default
  6
Continuous
 62
     7
100
AcDbText
 10
5.9362635081
 20
20.6952393213
 30
0.0
 40
10.0
  1
ecn: 
  7
SEACAD_seiso_ttf
 11
5.9362635081
 21
30.6952393213
 31
0.0
100
AcDbText
 73
     3
  0
TEXT
  5
1AD
330
1F
100
AcDbEntity
  8
Default
  6
Continuous
 62
     7
100
AcDbText
 10
5.9362635081
 20
4.3316029576
 30
0.0
 40
10.0
  1
unit: mm
  7
SEACAD_seiso_ttf
 11
5.9362635081
 21
14.3316029576
 31
0.0
100
AcDbText
 73
     3
  0
LINE
  5
1AE
330
1F
100
AcDbEntity
  8
Default
  6
Continuous
 62
     7
100
AcDbLine
 10
0.0
 20
0.0
 30
0.0
 11
100.0
 21
0.0
 31
0.0
  0
LINE
  5
1AF
330
1F
100
AcDbEntity
  8
Default
  6
Continuous
 62
     7
100
AcDbLine
 10
0.0
 20
0.0
 30
0.0
 11
0.0
 21
100.0
 31
0.0
  0
TEXT
  5
1B0
330
1F
100
AcDbEntity
  8
Default
  6
Continuous
 62
     7
100
AcDbText
 10
24.3923665681
 20
-18.2375342018
 30
0.0
 40
10.0
  1
100 mm
  7
SEACAD_seiso_ttf
 11
24.3923665681
 21
-8.2375342018
 31
0.0
100
AcDbText
 73
     3
  0
TEXT
  5
1B1
330
1F
100
AcDbEntity
  8
Default
  6
Continuous
 62
     7
100
AcDbText
 10
-7.6150308803
 20
24.6231930421
 30
0.0
 40
10.0
  1
100 mm
 50
90.0
  7
SEACAD_seiso_ttf
 11
-17.6150308803
 21
24.6231930421
 31
0.0
100
AcDbText
 73
     3
  0
TEXT
  5
1B2
330
1F
100
AcDbEntity
  8
Default
  6
Continuous
 62
     7
100
AcDbText
 10
28.4878128572
 20
20.0907663715
 30
0.0
 40
10.0
  1
213170
  7
SEACAD_seiso_ttf
 11
28.4878128572
 21
30.0907663715
 31
0.0
100
AcDbText
 73
     3
  0
TEXT
  5
1B3
330
1F
100
AcDbEntity
  8
Default
  6
Continuous
 62
     7
100
AcDbText
 10
5.9012241913
 20
36.7242780188
 30
0.0
 40
10.0
  1
38798000
  7
SEACAD_seiso_ttf
 11
5.9012241913
 21
46.7242780188
 31
0.0
100
AcDbText
 73
     3
  0
ENDSEC
  0
SECTION
  2
OBJECTS
  0
DICTIONARY
  5
C
330
0
100
AcDbDictionary
281
     1
  3
ACAD_GROUP
350
D
  3
ACAD_LAYOUT
350
1A
  3
ACAD_MLEADERSTYLE
350
1B7
  3
ACAD_MLINESTYLE
350
17
  3
ACAD_PLOTSETTINGS
350
19
  3
ACAD_PLOTSTYLENAME
350
E
  3
ACAD_SCALELIST
350
3B
  3
ACAD_TABLESTYLE
350
1B6
  3
ACAD_VISUALSTYLE
350
2A
  3
AcDbVariableDictionary
350
1B4
  0
DICTIONARY
  5
D
102
{ACAD_REACTORS
330
C
102
}
330
C
100
AcDbDictionary
281
     1
  0
DICTIONARY
  5
1A
102
{ACAD_REACTORS
330
C
102
}
330
C
100
AcDbDictionary
281
     1
  3
Layout1
350
1E
  3
Model
350
22
  0
DICTIONARY
  5
1B7
102
{ACAD_REACTORS
330
C
102
}
330
C
100
AcDbDictionary
281
     1
  0
DICTIONARY
  5
17
102
{ACAD_REACTORS
330
C
102
}
330
C
100
AcDbDictionary
281
     1
  3
Standard
350
18
  0
DICTIONARY
  5
19
102
{ACAD_REACTORS
330
C
102
}
330
C
100
AcDbDictionary
281
     1
  0
ACDBDICTIONARYWDFLT
  5
E
102
{ACAD_REACTORS
330
C
102
}
330
C
100
AcDbDictionary
281
     1
  3
Normal
350
F
100
AcDbDictionaryWithDefault
340
F
  0
DICTIONARY
  5
3B
102
{ACAD_REACTORS
330
C
102
}
330
C
100
AcDbDictionary
281
     1
  3
A0
350
3C
  3
A1
350
3D
  3
A2
350
3E
  3
A3
350
3F
  3
A4
350
40
  3
A5
350
41
  3
A6
350
42
  3
A7
350
43
  3
A8
350
44
  3
A9
350
45
  3
B0
350
46
  3
B1
350
47
  3
B2
350
48
  3
B3
350
49
  3
B4
350
4A
  3
B5
350
4B
  3
B6
350
4C
  3
B7
350
4D
  3
B8
350
4E
  3
B9
350
4F
  3
C0
350
50
  3
C1
350
51
  3
C2
350
52
  3
C3
350
53
  3
C4
350
54
  3
C5
350
55
  3
C6
350
56
  3
C7
350
57
  3
C8
350
58
  3
C9
350
59
  3
D0
350
5A
  3
D1
350
5B
  3
D2
350
5C
  0
DICTIONARY
  5
1B6
102
{ACAD_REACTORS
330
C
102
}
330
C
100
AcDbDictionary
281
     1
  0
DICTIONARY
  5
2A
102
{ACAD_REACTORS
330
C
102
}
330
C
100
AcDbDictionary
281
     1
  3
2dWireframe
350
2F
  3
3D Hidden
350
31
  3
3dWireframe
350
30
  3
Basic
350
32
  3
Brighten
350
36
  3
ColorChange
350
3A
  3
Conceptual
350
34
  3
Dim
350
35
  3
Facepattern
350
39
  3
Flat
350
2B
  3
FlatWithEdges
350
2C
  3
Gouraud
350
2D
  3
GouraudWithEdges
350
2E
  3
Linepattern
350
38
  3
Realistic
350
33
  3
Thicken
350
37
  0
DICTIONARY
  5
1B4
102
{ACAD_REACTORS
330
C
102
}
330
C
100
AcDbDictionary
281
     1
  3
CANNOSCALE
350
1B5
  3
PSOLHEIGHT
350
1B9
  3
PSOLWIDTH
350
1B8
  0
LAYOUT
  5
1E
102
{ACAD_REACTORS
330
1A
102
}
330
1A
100
AcDbPlotSettings
  1

  2
none_device
  4

  6

 40
0.0
 41
0.0
 42
0.0
 43
0.0
 44
0.0
 45
0.0
 46
0.0
 47
0.0
 48
0.0
 49
0.0
140
0.0
141
0.0
142
1.0
143
1.0
 70
   688
 72
     0
 73
     0
 74
     5
  7

 75
    16
147
1.0
148
0.0
149
0.0
100
AcDbLayout
  1
Layout1
 70
     1
 71
     1
 10
0.0
 20
0.0
 11
1682.0
 21
2378.0
 12
0.0
 22
0.0
 32
0.0
 14
0.0
 24
0.0
 34
0.0
 15
1682.0
 25
2378.0
 35
0.0
146
0.0
 13
0.0
 23
0.0
 33
0.0
 16
1.0
 26
0.0
 36
0.0
 17
0.0
 27
1.0
 37
0.0
 76
     0
330
1B
  0
LAYOUT
  5
22
102
{ACAD_REACTORS
330
1A
102
}
330
1A
100
AcDbPlotSettings
  1

  2
none_device
  4

  6

 40
0.0
 41
0.0
 42
0.0
 43
0.0
 44
0.0
 45
0.0
 46
0.0
 47
0.0
 48
0.0
 49
0.0
140
0.0
141
0.0
142
1.0
143
1.0
 70
  1712
 72
     0
 73
     0
 74
     0
  7

 75
     0
147
1.0
148
0.0
149
0.0
100
AcDbLayout
  1
Model
 70
     1
 71
     0
 10
0.0
 20
0.0
 11
1682.0
 21
2378.0
 12
0.0
 22
0.0
 32
0.0
 14
0.0
 24
0.0
 34
0.0
 15
1682.0
 25
2378.0
 35
0.0
146
0.0
 13
0.0
 23
0.0
 33
0.0
 16
1.0
 26
0.0
 36
0.0
 17
0.0
 27
1.0
 37
0.0
 76
     0
330
1F
331
29
  0
MLINESTYLE
  5
18
102
{ACAD_REACTORS
330
17
102
}
330
17
100
AcDbMlineStyle
  2
Standard
 70
     0
  3

 62
   256
 51
90.0
 52
90.0
 71
     2
 49
0.5
 62
   256
  6
BYLAYER
 49
-0.5
 62
   256
  6
BYLAYER
  0
ACDBPLACEHOLDER
  5
F
102
{ACAD_REACTORS
330
E
102
}
330
E
  0
SCALE
  5
3C
102
{ACAD_REACTORS
330
3B
102
}
330
3B
100
AcDbScale
 70
     0
300
1:1
140
1.0
141
1.0
290
     1
  0
SCALE
  5
3D
102
{ACAD_REACTORS
330
3B
102
}
330
3B
100
AcDbScale
 70
     0
300
1:2
140
1.0
141
2.0
290
     0
  0
SCALE
  5
3E
102
{ACAD_REACTORS
330
3B
102
}
330
3B
100
AcDbScale
 70
     0
300
1:4
140
1.0
141
4.0
290
     0
  0
SCALE
  5
3F
102
{ACAD_REACTORS
330
3B
102
}
330
3B
100
AcDbScale
 70
     0
300
1:5
140
1.0
141
5.0
290
     0
  0
SCALE
  5
40
102
{ACAD_REACTORS
330
3B
102
}
330
3B
100
AcDbScale
 70
     0
300
1:8
140
1.0
141
8.0
290
     0
  0
SCALE
  5
41
102
{ACAD_REACTORS
330
3B
102
}
330
3B
100
AcDbScale
 70
     0
300
1:10
140
1.0
141
10.0
290
     0
  0
SCALE
  5
42
102
{ACAD_REACTORS
330
3B
102
}
330
3B
100
AcDbScale
 70
     0
300
1:16
140
1.0
141
16.0
290
     0
  0
SCALE
  5
43
102
{ACAD_REACTORS
330
3B
102
}
330
3B
100
AcDbScale
 70
     0
300
1:20
140
1.0
141
20.0
290
     0
  0
SCALE
  5
44
102
{ACAD_REACTORS
330
3B
102
}
330
3B
100
AcDbScale
 70
     0
300
1:30
140
1.0
141
30.0
290
     0
  0
SCALE
  5
45
102
{ACAD_REACTORS
330
3B
102
}
330
3B
100
AcDbScale
 70
     0
300
1:40
140
1.0
141
40.0
290
     0
  0
SCALE
  5
46
102
{ACAD_REACTORS
330
3B
102
}
330
3B
100
AcDbScale
 70
     0
300
1:50
140
1.0
141
50.0
290
     0
  0
SCALE
  5
47
102
{ACAD_REACTORS
330
3B
102
}
330
3B
100
AcDbScale
 70
     0
300
1:100
140
1.0
141
100.0
290
     0
  0
SCALE
  5
48
102
{ACAD_REACTORS
330
3B
102
}
330
3B
100
AcDbScale
 70
     0
300
2:1
140
2.0
141
1.0
290
     0
  0
SCALE
  5
49
102
{ACAD_REACTORS
330
3B
102
}
330
3B
100
AcDbScale
 70
     0
300
4:1
140
4.0
141
1.0
290
     0
  0
SCALE
  5
4A
102
{ACAD_REACTORS
330
3B
102
}
330
3B
100
AcDbScale
 70
     0
300
8:1
140
8.0
141
1.0
290
     0
  0
SCALE
  5
4B
102
{ACAD_REACTORS
330
3B
102
}
330
3B
100
AcDbScale
 70
     0
300
10:1
140
10.0
141
1.0
290
     0
  0
SCALE
  5
4C
102
{ACAD_REACTORS
330
3B
102
}
330
3B
100
AcDbScale
 70
     0
300
100:1
140
100.0
141
1.0
290
     0
  0
SCALE
  5
4D
102
{ACAD_REACTORS
330
3B
102
}
330
3B
100
AcDbScale
 70
     0
300
1/128" = 1'-0"
140
0.0078125
141
12.0
290
     0
  0
SCALE
  5
4E
102
{ACAD_REACTORS
330
3B
102
}
330
3B
100
AcDbScale
 70
     0
300
1/64" = 1'-0"
140
0.015625
141
12.0
290
     0
  0
SCALE
  5
4F
102
{ACAD_REACTORS
330
3B
102
}
330
3B
100
AcDbScale
 70
     0
300
1/32" = 1'-0"
140
0.03125
141
12.0
290
     0
  0
SCALE
  5
50
102
{ACAD_REACTORS
330
3B
102
}
330
3B
100
AcDbScale
 70
     0
300
1/16" = 1'-0"
140
0.0625
141
12.0
290
     0
  0
SCALE
  5
51
102
{ACAD_REACTORS
330
3B
102
}
330
3B
100
AcDbScale
 70
     0
300
3/32" = 1'-0"
140
0.09375
141
12.0
290
     0
  0
SCALE
  5
52
102
{ACAD_REACTORS
330
3B
102
}
330
3B
100
AcDbScale
 70
     0
300
1/8" = 1'-0"
140
0.125
141
12.0
290
     0
  0
SCALE
  5
53
102
{ACAD_REACTORS
330
3B
102
}
330
3B
100
AcDbScale
 70
     0
300
3/16" = 1'-0"
140
0.1875
141
12.0
290
     0
  0
SCALE
  5
54
102
{ACAD_REACTORS
330
3B
102
}
330
3B
100
AcDbScale
 70
     0
300
1/4" = 1'-0"
140
0.25
141
12.0
290
     0
  0
SCALE
  5
55
102
{ACAD_REACTORS
330
3B
102
}
330
3B
100
AcDbScale
 70
     0
300
3/8" = 1'-0"
140
0.375
141
12.0
290
     0
  0
SCALE
  5
56
102
{ACAD_REACTORS
330
3B
102
}
330
3B
100
AcDbScale
 70
     0
300
1/2" = 1'-0"
140
0.5
141
12.0
290
     0
  0
SCALE
  5
57
102
{ACAD_REACTORS
330
3B
102
}
330
3B
100
AcDbScale
 70
     0
300
3/4" = 1'-0"
140
0.75
141
12.0
290
     0
  0
SCALE
  5
58
102
{ACAD_REACTORS
330
3B
102
}
330
3B
100
AcDbScale
 70
     0
300
1" = 1'-0"
140
1.0
141
12.0
290
     0
  0
SCALE
  5
59
102
{ACAD_REACTORS
330
3B
102
}
330
3B
100
AcDbScale
 70
     0
300
1-1/2" = 1'-0"
140
1.5
141
12.0
290
     0
  0
SCALE
  5
5A
102
{ACAD_REACTORS
330
3B
102
}
330
3B
100
AcDbScale
 70
     0
300
3" = 1'-0"
140
3.0
141
12.0
290
     0
  0
SCALE
  5
5B
102
{ACAD_REACTORS
330
3B
102
}
330
3B
100
AcDbScale
 70
     0
300
6" = 1'-0"
140
6.0
141
12.0
290
     0
  0
SCALE
  5
5C
102
{ACAD_REACTORS
330
3B
102
}
330
3B
100
AcDbScale
 70
     0
300
1'-0" = 1'-0"
140
12.0
141
12.0
290
     0
  0
VISUALSTYLE
  5
2F
102
{ACAD_REACTORS
330
2A
102
}
330
2A
100
AcDbVisualStyle
  2
2dWireframe
 70
     4
 71
     0
 72
     2
 73
     0
 90
        0
 40
-0.6
 41
-30.0
 62
     5
 63
     7
 74
     1
 91
        4
 64
     7
 65
   257
 75
     1
175
     1
 42
1.0
 92
        0
 66
   257
 43
1.0
 76
     1
 77
     6
 78
     2
 67
     7
 79
     5
170
     0
171
     0
290
     0
174
     0
 93
        1
 44
0.0
173
     0
291
     0
 45
0.0
1001
ACAD
1000
AcDbSavedByObjectVersion
1070
     0
  0
VISUALSTYLE
  5
31
102
{ACAD_REACTORS
330
2A
102
}
330
2A
100
AcDbVisualStyle
  2
3D Hidden
 70
     6
 71
     1
 72
     2
 73
     2
 90
        0
 40
-0.6
 41
-30.0
 62
     5
 63
     7
 74
     2
 91
        2
 64
     7
 65
   257
 75
     2
175
     1
 42
40.0
 92
        0
 66
   257
 43
1.0
 76
     1
 77
     6
 78
     2
 67
     7
 79
     3
170
     0
171
     0
290
     0
174
     0
 93
        1
 44
0.0
173
     0
291
     0
 45
0.0
1001
ACAD
1000
AcDbSavedByObjectVersion
1070
     0
  0
VISUALSTYLE
  5
30
102
{ACAD_REACTORS
330
2A
102
}
330
2A
100
AcDbVisualStyle
  2
3dWireframe
 70
     5
 71
     0
 72
     2
 73
     0
 90
        0
 40
-0.6
 41
-30.0
 62
     5
 63
     7
 74
     1
 91
        4
 64
     7
 65
   257
 75
     1
175
     1
 42
1.0
 92
        0
 66
   257
 43
1.0
 76
     1
 77
     6
 78
     2
 67
     7
 79
     5
170
     0
171
     0
290
     0
174
     0
 93
        1
 44
0.0
173
     0
291
     0
 45
0.0
1001
ACAD
1000
AcDbSavedByObjectVersion
1070
     0
  0
VISUALSTYLE
  5
32
102
{ACAD_REACTORS
330
2A
102
}
330
2A
100
AcDbVisualStyle
  2
Basic
 70
     7
 71
     1
 72
     0
 73
     1
 90
        0
 40
-0.6
 41
-30.0
 62
     5
 63
     7
 74
     0
 91
        4
 64
     7
 65
   257
 75
     1
175
     1
 42
1.0
 92
        8
 66
     7
 43
1.0
 76
     1
 77
     6
 78
     2
 67
     7
 79
     5
170
     0
171
     0
290
     0
174
     0
 93
        1
 44
0.0
173
     0
291
     1
 45
0.0
1001
ACAD
1000
AcDbSavedByObjectVersion
1070
     0
  0
VISUALSTYLE
  5
36
102
{ACAD_REACTORS
330
2A
102
}
330
2A
100
AcDbVisualStyle
  2
Brighten
 70
    12
 71
     2
 72
     2
 73
     0
 90
        0
 40
-0.6
 41
-30.0
 62
     5
 63
     7
 74
     1
 91
        4
 64
     7
 65
   257
 75
     1
175
     1
 42
1.0
 92
        8
 66
     7
 43
1.0
 76
     1
 77
     6
 78
     2
 67
     7
 79
     5
170
     0
171
     0
290
     0
174
     0
 93
        1
 44
50.0
173
     0
291
     1
 45
0.0
1001
ACAD
1000
AcDbSavedByObjectVersion
1070
     0
  0
VISUALSTYLE
  5
3A
102
{ACAD_REACTORS
330
2A
102
}
330
2A
100
AcDbVisualStyle
  2
ColorChange
 70
    16
 71
     2
 72
     2
 73
     3
 90
        0
 40
-0.6
 41
-30.0
 62
     5
 63
     8
 74
     1
 91
        4
 64
     7
 65
   257
 75
     1
175
     1
 42
1.0
 92
        8
 66
     8
 43
1.0
 76
     1
 77
     6
 78
     2
 67
     7
 79
     5
170
     0
171
     0
290
     0
174
     0
 93
        1
 44
0.0
173
     0
291
     1
 45
0.0
1001
ACAD
1000
AcDbSavedByObjectVersion
1070
     0
  0
VISUALSTYLE
  5
34
102
{ACAD_REACTORS
330
2A
102
}
330
2A
100
AcDbVisualStyle
  2
Conceptual
 70
     9
 71
     3
 72
     2
 73
     0
 90
        0
 40
-0.6
 41
-30.0
 62
     5
 63
     7
 74
     2
 91
        2
 64
     7
 65
   257
 75
     1
175
     1
 42
40.0
 92
        8
 66
     7
 43
1.0
 76
     1
 77
     6
 78
     2
 67
     7
 79
     3
170
     0
171
     0
290
     0
174
     0
 93
        1
 44
0.0
173
     0
291
     0
 45
0.0
1001
ACAD
1000
AcDbSavedByObjectVersion
1070
     0
  0
VISUALSTYLE
  5
35
102
{ACAD_REACTORS
330
2A
102
}
330
2A
100
AcDbVisualStyle
  2
Dim
 70
    11
 71
     2
 72
     2
 73
     0
 90
        0
 40
-0.6
 41
-30.0
 62
     5
 63
     7
 74
     1
 91
        4
 64
     7
 65
   257
 75
     1
175
     1
 42
1.0
 92
        8
 66
     7
 43
1.0
 76
     1
 77
     6
 78
     2
 67
     7
 79
     5
170
     0
171
     0
290
     0
174
     0
 93
        1
 44
-50.0
173
     0
291
     1
 45
0.0
1001
ACAD
1000
AcDbSavedByObjectVersion
1070
     0
  0
VISUALSTYLE
  5
39
102
{ACAD_REACTORS
330
2A
102
}
330
2A
100
AcDbVisualStyle
  2
Facepattern
 70
    15
 71
     2
 72
     2
 73
     0
 90
        0
 40
-0.6
 41
-30.0
 62
     5
 63
     7
 74
     1
 91
        4
 64
     7
 65
   257
 75
     1
175
     1
 42
1.0
 92
        8
 66
     7
 43
1.0
 76
     1
 77
     6
 78
     2
 67
     7
 79
     5
170
     0
171
     0
290
     0
174
     0
 93
        1
 44
0.0
173
     0
291
     1
 45
0.0
1001
ACAD
1000
AcDbSavedByObjectVersion
1070
     0
  0
VISUALSTYLE
  5
2B
102
{ACAD_REACTORS
330
2A
102
}
330
2A
100
AcDbVisualStyle
  2
Flat
 70
     0
 71
     2
 72
     1
 73
     1
 90
        2
 40
-0.6
 41
30.0
 62
     5
 63
     7
 74
     0
 91
        4
 64
     7
 65
   257
 75
     1
175
     1
 42
1.0
 92
        8
 66
     7
 43
1.0
 76
     1
 77
     6
 78
     2
 67
     7
 79
     5
170
     0
171
     0
290
     0
174
     0
 93
       13
 44
0.0
173
     0
291
     1
 45
0.0
1001
ACAD
1000
AcDbSavedByObjectVersion
1070
     0
  0
VISUALSTYLE
  5
2C
102
{ACAD_REACTORS
330
2A
102
}
330
2A
100
AcDbVisualStyle
  2
FlatWithEdges
 70
     1
 71
     2
 72
     1
 73
     1
 90
        2
 40
-0.6
 41
30.0
 62
     5
 63
     7
 74
     1
 91
        4
 64
     7
 65
   257
 75
     1
175
     1
 42
1.0
 92
        0
 66
   257
 43
1.0
 76
     1
 77
     6
 78
     2
 67
     7
 79
     5
170
     0
171
     0
290
     0
174
     0
 93
       13
 44
0.0
173
     0
291
     1
 45
0.0
1001
ACAD
1000
AcDbSavedByObjectVersion
1070
     0
  0
VISUALSTYLE
  5
2D
102
{ACAD_REACTORS
330
2A
102
}
330
2A
100
AcDbVisualStyle
  2
Gouraud
 70
     2
 71
     2
 72
     2
 73
     1
 90
        2
 40
-0.6
 41
30.0
 62
     5
 63
     7
 74
     0
 91
        4
 64
     7
 65
   257
 75
     1
175
     1
 42
1.0
 92
        0
 66
     7
 43
1.0
 76
     1
 77
     6
 78
     2
 67
     7
 79
     5
170
     0
171
     0
290
     0
174
     0
 93
       13
 44
0.0
173
     0
291
     1
 45
0.0
1001
ACAD
1000
AcDbSavedByObjectVersion
1070
     0
  0
VISUALSTYLE
  5
2E
102
{ACAD_REACTORS
330
2A
102
}
330
2A
100
AcDbVisualStyle
  2
GouraudWithEdges
 70
     3
 71
     2
 72
     2
 73
     1
 90
        2
 40
-0.6
 41
30.0
 62
     5
 63
     7
 74
     1
 91
        4
 64
     7
 65
   257
 75
     1
175
     1
 42
1.0
 92
        0
 66
   257
 43
1.0
 76
     1
 77
     6
 78
     2
 67
     7
 79
     5
170
     0
171
     0
290
     0
174
     0
 93
       13
 44
0.0
173
     0
291
     1
 45
0.0
1001
ACAD
1000
AcDbSavedByObjectVersion
1070
     0
  0
VISUALSTYLE
  5
38
102
{ACAD_REACTORS
330
2A
102
}
330
2A
100
AcDbVisualStyle
  2
Linepattern
 70
    14
 71
     2
 72
     2
 73
     0
 90
        0
 40
-0.6
 41
-30.0
 62
     5
 63
     7
 74
     1
 91
        4
 64
     7
 65
   257
 75
     7
175
     7
 42
1.0
 92
        8
 66
     7
 43
1.0
 76
     1
 77
     6
 78
     2
 67
     7
 79
     5
170
     0
171
     0
290
     0
174
     0
 93
        1
 44
0.0
173
     0
291
     1
 45
0.0
1001
ACAD
1000
AcDbSavedByObjectVersion
1070
     0
  0
VISUALSTYLE
  5
33
102
{ACAD_REACTORS
330
2A
102
}
330
2A
100
AcDbVisualStyle
  2
Realistic
 70
     8
 71
     2
 72
     2
 73
     0
 90
        0
 40
-0.6
 41
-30.0
 62
     5
 63
     7
 74
     1
 91
        0
 64
     7
 65
   257
 75
     1
175
     1
 42
1.0
 92
        8
 66
     8
 43
1.0
 76
     1
 77
     6
 78
     2
 67
     7
 79
     5
170
     0
171
     0
290
     0
174
     0
 93
       13
 44
0.0
173
     0
291
     0
 45
0.0
1001
ACAD
1000
AcDbSavedByObjectVersion
1070
     0
  0
VISUALSTYLE
  5
37
102
{ACAD_REACTORS
330
2A
102
}
330
2A
100
AcDbVisualStyle
  2
Thicken
 70
    13
 71
     2
 72
     2
 73
     0
 90
        0
 40
-0.6
 41
-30.0
 62
     5
 63
     7
 74
     1
 91
        4
 64
     7
 65
   257
 75
     1
175
     1
 42
1.0
 92
       12
 66
     7
 43
1.0
 76
     1
 77
     6
 78
     2
 67
     7
 79
     5
170
     0
171
     0
290
     0
174
     0
 93
        1
 44
0.0
173
     0
291
     1
 45
0.0
1001
ACAD
1000
AcDbSavedByObjectVersion
1070
     0
  0
DICTIONARYVAR
  5
1B5
102
{ACAD_REACTORS
330
1B4
102
}
330
1B4
100
DictionaryVariables
280
     0
  1
1:1
  0
DICTIONARYVAR
  5
1B9
102
{ACAD_REACTORS
330
1B4
102
}
330
1B4
100
DictionaryVariables
280
     0
  1
80.000000
  0
DICTIONARYVAR
  5
1B8
102
{ACAD_REACTORS
330
1B4
102
}
330
1B4
100
DictionaryVariables
280
     0
  1
5.000000
  0
ENDSEC
  0
EOF
