  0
SECTION
  2
HEADER
  9
$ACADVER
  1
AC1015
  9
$ACADMAINTVER
 70
     6
  9
$DWGCODEPAGE
  3
ANSI_1252
  9
$INSBASE
 10
0.0
 20
0.0
 30
0.0
  9
$EXTMIN
 10
0.0
 20
0.0
 30
0.0
  9
$EXTMAX
 10
1682.0
 20
2378.0
 30
0.0
  9
$LIMMIN
 10
0.0
 20
0.0
  9
$LIMMAX
 10
1682.0
 20
2378.0
  9
$ORTHOMODE
 70
     0
  9
$REGENMODE
 70
     1
  9
$FILLMODE
 70
     1
  9
$QTEXTMODE
 70
     0
  9
$MIRRTEXT
 70
     1
  9
$LTSCALE
 40
1.0
  9
$ATTMODE
 70
     1
  9
$TEXTSIZE
 40
2.5
  9
$TRACEWID
 40
1.0
  9
$TEXTSTYLE
  7
Standard
  9
$CLAYER
  8
0
  9
$CELTYPE
  6
ByLayer
  9
$CECOLOR
 62
   256
  9
$CELTSCALE
 40
1.0
  9
$DISPSILH
 70
     0
  9
$DIMSCALE
 40
1.0
  9
$DIMASZ
 40
2.5
  9
$DIMEXO
 40
0.625
  9
$DIMDLI
 40
3.75
  9
$DIMRND
 40
0.0
  9
$DIMDLE
 40
0.0
  9
$DIMEXE
 40
1.25
  9
$DIMTP
 40
0.0
  9
$DIMTM
 40
0.0
  9
$DIMTXT
 40
2.5
  9
$DIMCEN
 40
2.5
  9
$DIMTSZ
 40
0.0
  9
$DIMTOL
 70
     0
  9
$DIMLIM
 70
     0
  9
$DIMTIH
 70
     0
  9
$DIMTOH
 70
     0
  9
$DIMSE1
 70
     0
  9
$DIMSE2
 70
     0
  9
$DIMTAD
 70
     1
  9
$DIMZIN
 70
     8
  9
$DIMBLK
  1

  9
$DIMASO
 70
     1
  9
$DIMSHO
 70
     1
  9
$DIMPOST
  1

  9
$DIMAPOST
  1

  9
$DIMALT
 70
     0
  9
$DIMALTD
 70
     3
  9
$DIMALTF
 40
0.0393700787
  9
$DIMLFAC
 40
1.0
  9
$DIMTOFL
 70
     1
  9
$DIMTVP
 40
0.0
  9
$DIMTIX
 70
     0
  9
$DIMSOXD
 70
     0
  9
$DIMSAH
 70
     0
  9
$DIMBLK1
  1

  9
$DIMBLK2
  1

  9
$DIMSTYLE
  2
ISO-25
  9
$DIMCLRD
 70
     0
  9
$DIMCLRE
 70
     0
  9
$DIMCLRT
 70
     0
  9
$DIMTFAC
 40
1.0
  9
$DIMGAP
 40
0.625
  9
$DIMJUST
 70
     0
  9
$DIMSD1
 70
     0
  9
$DIMSD2
 70
     0
  9
$DIMTOLJ
 70
     0
  9
$DIMTZIN
 70
     8
  9
$DIMALTZ
 70
     0
  9
$DIMALTTZ
 70
     0
  9
$DIMUPT
 70
     0
  9
$DIMDEC
 70
     2
  9
$DIMTDEC
 70
     2
  9
$DIMALTU
 70
     2
  9
$DIMALTTD
 70
     3
  9
$DIMTXSTY
  7
Standard
  9
$DIMAUNIT
 70
     0
  9
$DIMADEC
 70
     0
  9
$DIMALTRND
 40
0.0
  9
$DIMAZIN
 70
     0
  9
$DIMDSEP
 70
    44
  9
$DIMATFIT
 70
     3
  9
$DIMFRAC
 70
     0
  9
$DIMLDRBLK
  1

  9
$DIMLUNIT
 70
     2
  9
$DIMLWD
 70
    -2
  9
$DIMLWE
 70
    -2
  9
$DIMTMOVE
 70
     0
  9
$LUNITS
 70
     2
  9
$LUPREC
 70
     4
  9
$SKETCHINC
 40
1.0
  9
$FILLETRAD
 40
10.0
  9
$AUNITS
 70
     0
  9
$AUPREC
 70
     0
  9
$MENU
  1
.
  9
$ELEVATION
 40
0.0
  9
$PELEVATION
 40
0.0
  9
$THICKNESS
 40
0.0
  9
$LIMCHECK
 70
     0
  9
$CHAMFERA
 40
10.0
  9
$CHAMFERB
 40
10.0
  9
$CHAMFERC
 40
20.0
  9
$CHAMFERD
 40
0.0
  9
$SKPOLY
 70
     0
  9
$TDCREATE
 40
2455526.468236771
  9
$TDUCREATE
 40
2455526.426570104
  9
$TDUPDATE
 40
2455526.468236783
  9
$TDUUPDATE
 40
2455526.426570116
  9
$TDINDWG
 40
0.0000000116
  9
$TDUSRTIMER
 40
0.0000000116
  9
$USRTIMER
 70
     1
  9
$ANGBASE
 50
0.0
  9
$ANGDIR
 70
     0
  9
$PDMODE
 70
     0
  9
$PDSIZE
 40
0.0
  9
$PLINEWID
 40
0.0
  9
$SPLFRAME
 70
     0
  9
$SPLINETYPE
 70
     6
  9
$SPLINESEGS
 70
     8
  9
$HANDSEED
  5
2D5
  9
$SURFTAB1
 70
     6
  9
$SURFTAB2
 70
     6
  9
$SURFTYPE
 70
     6
  9
$SURFU
 70
     6
  9
$SURFV
 70
     6
  9
$UCSBASE
  2

  9
$UCSNAME
  2

  9
$UCSORG
 10
0.0
 20
0.0
 30
0.0
  9
$UCSXDIR
 10
1.0
 20
0.0
 30
0.0
  9
$UCSYDIR
 10
0.0
 20
1.0
 30
0.0
  9
$UCSORTHOREF
  2

  9
$UCSORTHOVIEW
 70
     0
  9
$UCSORGTOP
 10
0.0
 20
0.0
 30
0.0
  9
$UCSORGBOTTOM
 10
0.0
 20
0.0
 30
0.0
  9
$UCSORGLEFT
 10
0.0
 20
0.0
 30
0.0
  9
$UCSORGRIGHT
 10
0.0
 20
0.0
 30
0.0
  9
$UCSORGFRONT
 10
0.0
 20
0.0
 30
0.0
  9
$UCSORGBACK
 10
0.0
 20
0.0
 30
0.0
  9
$PUCSBASE
  2

  9
$PUCSNAME
  2

  9
$PUCSORG
 10
0.0
 20
0.0
 30
0.0
  9
$PUCSXDIR
 10
1.0
 20
0.0
 30
0.0
  9
$PUCSYDIR
 10
0.0
 20
1.0
 30
0.0
  9
$PUCSORTHOREF
  2

  9
$PUCSORTHOVIEW
 70
     0
  9
$PUCSORGTOP
 10
0.0
 20
0.0
 30
0.0
  9
$PUCSORGBOTTOM
 10
0.0
 20
0.0
 30
0.0
  9
$PUCSORGLEFT
 10
0.0
 20
0.0
 30
0.0
  9
$PUCSORGRIGHT
 10
0.0
 20
0.0
 30
0.0
  9
$PUCSORGFRONT
 10
0.0
 20
0.0
 30
0.0
  9
$PUCSORGBACK
 10
0.0
 20
0.0
 30
0.0
  9
$USERI1
 70
     0
  9
$USERI2
 70
     0
  9
$USERI3
 70
     0
  9
$USERI4
 70
     0
  9
$USERI5
 70
     0
  9
$USERR1
 40
0.0
  9
$USERR2
 40
0.0
  9
$USERR3
 40
0.0
  9
$USERR4
 40
0.0
  9
$USERR5
 40
0.0
  9
$WORLDVIEW
 70
     1
  9
$SHADEDGE
 70
     3
  9
$SHADEDIF
 70
    70
  9
$TILEMODE
 70
     1
  9
$MAXACTVP
 70
    64
  9
$PINSBASE
 10
0.0
 20
0.0
 30
0.0
  9
$PLIMCHECK
 70
     0
  9
$PEXTMIN
 10
0.0
 20
0.0
 30
0.0
  9
$PEXTMAX
 10
1682.0
 20
2378.0
 30
0.0
  9
$PLIMMIN
 10
0.0
 20
0.0
  9
$PLIMMAX
 10
1682.0
 20
2378.0
  9
$UNITMODE
 70
     0
  9
$VISRETAIN
 70
     1
  9
$PLINEGEN
 70
     0
  9
$PSLTSCALE
 70
     1
  9
$TREEDEPTH
 70
  3020
  9
$CMLSTYLE
  2
Standard
  9
$CMLJUST
 70
     0
  9
$CMLSCALE
 40
20.0
  9
$PROXYGRAPHICS
 70
     1
  9
$MEASUREMENT
 70
     1
  9
$CELWEIGHT
370
    -1
  9
$ENDCAPS
280
     0
  9
$JOINSTYLE
280
     0
  9
$LWDISPLAY
290
     0
  9
$INSUNITS
 70
     4
  9
$HYPERLINKBASE
  1

  9
$STYLESHEET
  1

  9
$XEDIT
290
     1
  9
$CEPSNTYPE
380
     0
  9
$PSTYLEMODE
290
     1
  9
$FINGERPRINTGUID
  2
{16C06442-02EB-46B0-B534-9ABA5CC0727F}
  9
$VERSIONGUID
  2
{FAEB1C32-E019-11D5-929B-00C0DF256EC4}
  9
$EXTNAMES
290
     1
  9
$PSVPSCALE
 40
0.0
  9
$OLESTARTUP
290
     0
  0
ENDSEC
  0
SECTION
  2
CLASSES
  0
CLASS
  1
ACDBDICTIONARYWDFLT
  2
AcDbDictionaryWithDefault
  3
ObjectDBX Classes
 90
        0
280
     0
281
     0
  0
CLASS
  1
VISUALSTYLE
  2
AcDbVisualStyle
  3
ObjectDBX Classes
 90
     4095
280
     0
281
     0
  0
CLASS
  1
SCALE
  2
AcDbScale
  3
ObjectDBX Classes
 90
     1153
280
     0
281
     0
  0
CLASS
  1
DICTIONARYVAR
  2
AcDbDictionaryVar
  3
ObjectDBX Classes
 90
        0
280
     0
281
     0
  0
CLASS
  1
ACDBPLACEHOLDER
  2
AcDbPlaceHolder
  3
ObjectDBX Classes
 90
        0
280
     0
281
     0
  0
CLASS
  1
LAYOUT
  2
AcDbLayout
  3
ObjectDBX Classes
 90
        0
280
     0
281
     0
  0
ENDSEC
  0
SECTION
  2
TABLES
  0
TABLE
  2
VPORT
  5
8
330
0
100
AcDbSymbolTable
 70
     1
  0
VPORT
  5
29
330
8
100
AcDbSymbolTableRecord
100
AcDbViewportTableRecord
  2
*Active
 70
     0
 10
0.0
 20
0.0
 11
1.0
 21
1.0
 12
344.1869158879
 22
148.5
 13
0.0
 23
0.0
 14
10.0
 24
10.0
 15
10.0
 25
10.0
 16
0.0
 26
0.0
 36
1.0
 17
0.0
 27
0.0
 37
0.0
 40
297.0
 41
1.9729729729
 42
50.0
 43
0.0
 44
0.0
 50
0.0
 51
0.0
 71
     0
 72
   100
 73
     1
 74
     3
 75
     0
 76
     0
 77
     0
 78
     0
281
     0
 65
     1
110
0.0
120
0.0
130
0.0
111
1.0
121
0.0
131
0.0
112
0.0
122
1.0
132
0.0
 79
     0
146
0.0
  0
ENDTAB
  0
TABLE
  2
LTYPE
  5
5
330
0
100
AcDbSymbolTable
 70
     2
  0
LTYPE
  5
14
330
5
100
AcDbSymbolTableRecord
100
AcDbLinetypeTableRecord
  2
ByBlock
 70
     0
  3

 72
    65
 73
     0
 40
0.0
  0
LTYPE
  5
15
330
5
100
AcDbSymbolTableRecord
100
AcDbLinetypeTableRecord
  2
ByLayer
 70
     0
  3

 72
    65
 73
     0
 40
0.0
  0
LTYPE
  5
16
330
5
100
AcDbSymbolTableRecord
100
AcDbLinetypeTableRecord
  2
Continuous
 70
     0
  3
Solid line
 72
    65
 73
     0
 40
0.0
  0
LTYPE
  5
60
330
5
100
AcDbSymbolTableRecord
100
AcDbLinetypeTableRecord
  2
CENTER2
 70
     0
  3
Center (.5x) ___ _ ___ _ ___ _ ___ _ ___ _ ___
 72
    65
 73
     4
 40
28.575
 49
19.05
 74
     4
 75
     0
340
0
 46
0.0
 50
0.0
 44
0.0
 45
0.0
 49
-3.175
 74
     4
 75
     0
340
0
 46
0.0
 50
0.0
 44
0.0
 45
0.0
 49
3.175
 74
     4
 75
     0
340
0
 46
0.0
 50
0.0
 44
0.0
 45
0.0
 49
-3.175
 74
     4
 75
     0
340
0
 46
0.0
 50
0.0
 44
0.0
 45
0.0
  0
ENDTAB
  0
TABLE
  2
LAYER
  5
2
330
0
100
AcDbSymbolTable
 70
     7
  0
LAYER
  5
10
330
2
100
AcDbSymbolTableRecord
100
AcDbLayerTableRecord
  2
0
 70
     0
 62
     7
  6
Continuous
370
    -3
390
F
  0
LAYER
  5
5D
330
2
100
AcDbSymbolTableRecord
100
AcDbLayerTableRecord
  2
Default
 70
     0
 62
     7
  6
Continuous
370
    -3
390
F
  0
LAYER
  5
97
330
2
100
AcDbSymbolTableRecord
100
AcDbLayerTableRecord
  2
$DDT_AUDIT_GENERATED_(97)
 70
     0
 62
     7
  6
Continuous
370
    -3
390
F
  0
LAYER
  5
D6
330
2
100
AcDbSymbolTableRecord
100
AcDbLayerTableRecord
  2
$DDT_AUDIT_GENERATED_(D6)
 70
     0
 62
     7
  6
Continuous
370
    -3
390
F
  0
LAYER
  5
DA
330
2
100
AcDbSymbolTableRecord
100
AcDbLayerTableRecord
  2
00300038_KAPPE_S
 70
     0
 62
     7
  6
Continuous
370
    -3
390
F
  0
LAYER
  5
E5
330
2
100
AcDbSymbolTableRecord
100
AcDbLayerTableRecord
  2
00315038_ROSETTE
 70
     0
 62
     7
  6
Continuous
370
    -3
390
F
  0
LAYER
  5
227
330
2
100
AcDbSymbolTableRecord
100
AcDbLayerTableRecord
  2
$DDT_AUDIT_GENERATED_(227)
 70
     0
 62
     7
  6
Continuous
370
    -3
390
F
  0
ENDTAB
  0
TABLE
  2
STYLE
  5
3
330
0
100
AcDbSymbolTable
 70
     2
  0
STYLE
  5
11
330
3
100
AcDbSymbolTableRecord
100
AcDbTextStyleTableRecord
  2
Standard
 70
     0
 40
0.0
 41
1.0
 50
0.0
 71
     0
 42
2.5
  3
txt
  4

  0
STYLE
  5
2C4
330
3
100
AcDbSymbolTableRecord
100
AcDbTextStyleTableRecord
  2
SEACAD_seiso_ttf
 70
     0
 40
0.0
 41
1.0
 50
0.0
 71
     0
 42
0.2
  3
seiso.ttf
  4

  0
ENDTAB
  0
TABLE
  2
VIEW
  5
6
330
0
100
AcDbSymbolTable
 70
     0
  0
ENDTAB
  0
TABLE
  2
UCS
  5
7
330
0
100
AcDbSymbolTable
 70
     0
  0
ENDTAB
  0
TABLE
  2
APPID
  5
9
330
0
100
AcDbSymbolTable
 70
     1
  0
APPID
  5
12
330
9
100
AcDbSymbolTableRecord
100
AcDbRegAppTableRecord
  2
ACAD
 70
     0
  0
ENDTAB
  0
TABLE
  2
DIMSTYLE
  5
A
330
0
100
AcDbSymbolTable
 70
     1
100
AcDbDimStyleTable
  0
DIMSTYLE
105
27
330
A
100
AcDbSymbolTableRecord
100
AcDbDimStyleTableRecord
  2
ISO-25
 70
     0
 41
2.5
 42
0.625
 43
3.75
 44
1.25
 73
     0
 74
     0
 77
     1
 78
     8
140
2.5
141
2.5
143
0.0393700787
147
0.625
171
     3
172
     1
271
     2
272
     2
274
     3
278
    44
283
     0
284
     8
340
11
  0
ENDTAB
  0
TABLE
  2
BLOCK_RECORD
  5
1
330
0
100
AcDbSymbolTable
 70
    11
  0
BLOCK_RECORD
  5
1F
330
1
100
AcDbSymbolTableRecord
100
AcDbBlockTableRecord
  2
*Model_Space
340
22
  0
BLOCK_RECORD
  5
1B
330
1
100
AcDbSymbolTableRecord
100
AcDbBlockTableRecord
  2
*Paper_Space
340
1E
  0
BLOCK_RECORD
  5
5E
330
1
100
AcDbSymbolTableRecord
100
AcDbBlockTableRecord
  2
SEANNOT_GROUP
340
0
102
{BLKREFS
331
5F
102
}
  0
BLOCK_RECORD
  5
65
330
1
100
AcDbSymbolTableRecord
100
AcDbBlockTableRecord
  2
SEANNOT_GROUP1
340
0
102
{BLKREFS
331
66
102
}
  0
BLOCK_RECORD
  5
6B
330
1
100
AcDbSymbolTableRecord
100
AcDbBlockTableRecord
  2
SEANNOT_GROUP2
340
0
102
{BLKREFS
331
6C
102
}
  0
BLOCK_RECORD
  5
71
330
1
100
AcDbSymbolTableRecord
100
AcDbBlockTableRecord
  2
SEANNOT_GROUP3
340
0
102
{BLKREFS
331
72
102
}
  0
BLOCK_RECORD
  5
77
330
1
100
AcDbSymbolTableRecord
100
AcDbBlockTableRecord
  2
SEANNOT_GROUP4
340
0
102
{BLKREFS
331
78
102
}
  0
BLOCK_RECORD
  5
81
330
1
100
AcDbSymbolTableRecord
100
AcDbBlockTableRecord
  2
SEANNOT_GROUP5
340
0
102
{BLKREFS
331
82
102
}
  0
BLOCK_RECORD
  5
8B
330
1
100
AcDbSymbolTableRecord
100
AcDbBlockTableRecord
  2
SEANNOT_GROUP6
340
0
102
{BLKREFS
331
8C
102
}
  0
BLOCK_RECORD
  5
95
330
1
100
AcDbSymbolTableRecord
100
AcDbBlockTableRecord
  2
SE
340
0
102
{BLKREFS
331
96
102
}
  0
BLOCK_RECORD
  5
180
330
1
100
AcDbSymbolTableRecord
100
AcDbBlockTableRecord
  2
SE1
340
0
102
{BLKREFS
331
181
102
}
  0
BLOCK_RECORD
  5
20F
330
1
100
AcDbSymbolTableRecord
100
AcDbBlockTableRecord
  2
SE2
340
0
102
{BLKREFS
331
210
102
}
  0
ENDTAB
  0
ENDSEC
  0
SECTION
  2
BLOCKS
  0
BLOCK
  5
20
330
1F
100
AcDbEntity
  8
0
100
AcDbBlockBegin
  2
*Model_Space
 70
     0
 10
0.0
 20
0.0
 30
0.0
  3
*Model_Space
  1

  0
ENDBLK
  5
21
330
1F
100
AcDbEntity
  8
0
100
AcDbBlockEnd
  0
BLOCK
  5
1C
330
1B
100
AcDbEntity
 67
     1
  8
0
100
AcDbBlockBegin
  2
*Paper_Space
 70
     0
 10
0.0
 20
0.0
 30
0.0
  3
*Paper_Space
  1

  0
ENDBLK
  5
1D
330
1B
100
AcDbEntity
 67
     1
  8
0
100
AcDbBlockEnd
  0
BLOCK
  5
63
330
5E
100
AcDbEntity
  8
0
100
AcDbBlockBegin
  2
SEANNOT_GROUP
 70
     0
 10
0.0
 20
0.0
 30
0.0
  3
SEANNOT_GROUP
  1

  0
LINE
  5
61
330
5E
100
AcDbEntity
  8
Default
  6
CENTER2
 62
     7
100
AcDbLine
 10
101.0694837878
 20
495.2598330428
 30
0.0
 11
61.0694846818
 21
495.2598330428
 31
0.0
  0
LINE
  5
62
330
5E
100
AcDbEntity
  8
Default
  6
CENTER2
 62
     7
100
AcDbLine
 10
81.0694842348
 20
515.2598325957
 30
0.0
 11
81.0694842348
 21
475.2598334898
 31
0.0
  0
ENDBLK
  5
64
330
5E
100
AcDbEntity
  8
0
100
AcDbBlockEnd
  0
BLOCK
  5
69
330
65
100
AcDbEntity
  8
0
100
AcDbBlockBegin
  2
SEANNOT_GROUP1
 70
     0
 10
0.0
 20
0.0
 30
0.0
  3
SEANNOT_GROUP1
  1

  0
LINE
  5
67
330
65
100
AcDbEntity
  8
Default
  6
CENTER2
 62
     7
100
AcDbLine
 10
201.0694837878
 20
495.0598330428
 30
0.0
 11
161.0694846818
 21
495.0598330428
 31
0.0
  0
LINE
  5
68
330
65
100
AcDbEntity
  8
Default
  6
CENTER2
 62
     7
100
AcDbLine
 10
181.0694842348
 20
515.0598325957
 30
0.0
 11
181.0694842348
 21
475.0598334898
 31
0.0
  0
ENDBLK
  5
6A
330
65
100
AcDbEntity
  8
0
100
AcDbBlockEnd
  0
BLOCK
  5
6F
330
6B
100
AcDbEntity
  8
0
100
AcDbBlockBegin
  2
SEANNOT_GROUP2
 70
     0
 10
0.0
 20
0.0
 30
0.0
  3
SEANNOT_GROUP2
  1

  0
LINE
  5
6D
330
6B
100
AcDbEntity
  8
Default
  6
CENTER2
 62
     7
100
AcDbLine
 10
301.0694837878
 20
495.2598330428
 30
0.0
 11
261.0694846818
 21
495.2598330428
 31
0.0
  0
LINE
  5
6E
330
6B
100
AcDbEntity
  8
Default
  6
CENTER2
 62
     7
100
AcDbLine
 10
281.0694842348
 20
515.2598325957
 30
0.0
 11
281.0694842348
 21
475.2598334898
 31
0.0
  0
ENDBLK
  5
70
330
6B
100
AcDbEntity
  8
0
100
AcDbBlockEnd
  0
BLOCK
  5
75
330
71
100
AcDbEntity
  8
0
100
AcDbBlockBegin
  2
SEANNOT_GROUP3
 70
     0
 10
0.0
 20
0.0
 30
0.0
  3
SEANNOT_GROUP3
  1

  0
LINE
  5
73
330
71
100
AcDbEntity
  8
Default
  6
CENTER2
 62
     7
100
AcDbLine
 10
497.7085433829
 20
495.2598330428
 30
0.0
 11
457.708544277
 21
495.2598330428
 31
0.0
  0
LINE
  5
74
330
71
100
AcDbEntity
  8
Default
  6
CENTER2
 62
     7
100
AcDbLine
 10
477.70854383
 20
515.2598325957
 30
0.0
 11
477.70854383
 21
475.2598334898
 31
0.0
  0
ENDBLK
  5
76
330
71
100
AcDbEntity
  8
0
100
AcDbBlockEnd
  0
BLOCK
  5
7F
330
77
100
AcDbEntity
  8
0
100
AcDbBlockBegin
  2
SEANNOT_GROUP4
 70
     0
 10
0.0
 20
0.0
 30
0.0
  3
SEANNOT_GROUP4
  1

  0
LINE
  5
79
330
77
100
AcDbEntity
  8
Default
  6
CENTER2
 62
     7
100
AcDbLine
 10
101.0694837878
 20
253.0592863184
 30
0.0
 11
61.0694846818
 21
253.0592863184
 31
0.0
  0
LINE
  5
7A
330
77
100
AcDbEntity
  8
Default
  6
CENTER2
 62
     7
100
AcDbLine
 10
81.0694842348
 20
273.0592858714
 30
0.0
 11
81.0694842348
 21
233.0592867654
 31
0.0
  0
LINE
  5
7B
330
77
100
AcDbEntity
  8
Default
  6
CENTER2
 62
     7
100
AcDbLine
 10
106.069483676
 20
253.0592863184
 30
0.0
 11
107.0694843198
 21
253.0592863184
 31
0.0
  0
LINE
  5
7C
330
77
100
AcDbEntity
  8
Default
  6
CENTER2
 62
     7
100
AcDbLine
 10
81.0694842348
 20
278.0592857596
 30
0.0
 11
81.0694842348
 21
279.0592864034
 31
0.0
  0
LINE
  5
7D
330
77
100
AcDbEntity
  8
Default
  6
CENTER2
 62
     7
100
AcDbLine
 10
56.0694847936
 20
253.0592863184
 30
0.0
 11
55.0694841498
 21
253.0592863184
 31
0.0
  0
LINE
  5
7E
330
77
100
AcDbEntity
  8
Default
  6
CENTER2
 62
     7
100
AcDbLine
 10
81.0694842348
 20
228.0592868772
 30
0.0
 11
81.0694842348
 21
227.0592862334
 31
0.0
  0
ENDBLK
  5
80
330
77
100
AcDbEntity
  8
0
100
AcDbBlockEnd
  0
BLOCK
  5
89
330
81
100
AcDbEntity
  8
0
100
AcDbBlockBegin
  2
SEANNOT_GROUP5
 70
     0
 10
0.0
 20
0.0
 30
0.0
  3
SEANNOT_GROUP5
  1

  0
LINE
  5
83
330
81
100
AcDbEntity
  8
Default
  6
CENTER2
 62
     7
100
AcDbLine
 10
201.0694837878
 20
253.0592863184
 30
0.0
 11
161.0694846818
 21
253.0592863184
 31
0.0
  0
LINE
  5
84
330
81
100
AcDbEntity
  8
Default
  6
CENTER2
 62
     7
100
AcDbLine
 10
181.0694842348
 20
273.0592858714
 30
0.0
 11
181.0694842348
 21
233.0592867654
 31
0.0
  0
LINE
  5
85
330
81
100
AcDbEntity
  8
Default
  6
CENTER2
 62
     7
100
AcDbLine
 10
206.069483676
 20
253.0592863184
 30
0.0
 11
216.5694843642
 21
253.0592863184
 31
0.0
  0
LINE
  5
86
330
81
100
AcDbEntity
  8
Default
  6
CENTER2
 62
     7
100
AcDbLine
 10
181.0694842348
 20
278.0592857596
 30
0.0
 11
181.0694842348
 21
288.5592864478
 31
0.0
  0
LINE
  5
87
330
81
100
AcDbEntity
  8
Default
  6
CENTER2
 62
     7
100
AcDbLine
 10
156.0694847936
 20
253.0592863184
 30
0.0
 11
145.5694841054
 21
253.0592863184
 31
0.0
  0
LINE
  5
88
330
81
100
AcDbEntity
  8
Default
  6
CENTER2
 62
     7
100
AcDbLine
 10
181.0694842348
 20
228.0592868772
 30
0.0
 11
181.0694842348
 21
217.559286189
 31
0.0
  0
ENDBLK
  5
8A
330
81
100
AcDbEntity
  8
0
100
AcDbBlockEnd
  0
BLOCK
  5
93
330
8B
100
AcDbEntity
  8
0
100
AcDbBlockBegin
  2
SEANNOT_GROUP6
 70
     0
 10
0.0
 20
0.0
 30
0.0
  3
SEANNOT_GROUP6
  1

  0
LINE
  5
8D
330
8B
100
AcDbEntity
  8
Default
  6
CENTER2
 62
     7
100
AcDbLine
 10
301.0694837878
 20
253.0592863184
 30
0.0
 11
261.0694846818
 21
253.0592863184
 31
0.0
  0
LINE
  5
8E
330
8B
100
AcDbEntity
  8
Default
  6
CENTER2
 62
     7
100
AcDbLine
 10
281.0694842348
 20
273.0592858714
 30
0.0
 11
281.0694842348
 21
233.0592867654
 31
0.0
  0
LINE
  5
8F
330
8B
100
AcDbEntity
  8
Default
  6
CENTER2
 62
     7
100
AcDbLine
 10
306.069483676
 20
253.0592863184
 30
0.0
 11
307.0694843198
 21
253.0592863184
 31
0.0
  0
LINE
  5
90
330
8B
100
AcDbEntity
  8
Default
  6
CENTER2
 62
     7
100
AcDbLine
 10
281.0694842348
 20
278.0592857596
 30
0.0
 11
281.0694842348
 21
279.0592864034
 31
0.0
  0
LINE
  5
91
330
8B
100
AcDbEntity
  8
Default
  6
CENTER2
 62
     7
100
AcDbLine
 10
256.0694847936
 20
253.0592863184
 30
0.0
 11
255.0694841498
 21
253.0592863184
 31
0.0
  0
LINE
  5
92
330
8B
100
AcDbEntity
  8
Default
  6
CENTER2
 62
     7
100
AcDbLine
 10
281.0694842348
 20
228.0592868772
 30
0.0
 11
281.0694842348
 21
227.0592862334
 31
0.0
  0
ENDBLK
  5
94
330
8B
100
AcDbEntity
  8
0
100
AcDbBlockEnd
  0
BLOCK
  5
17E
330
95
100
AcDbEntity
  8
0
100
AcDbBlockBegin
  2
SE
 70
     0
 10
0.0
 20
0.0
 30
0.0
  3
SE
  1

  0
LINE
  5
98
330
95
100
AcDbEntity
  8
$DDT_AUDIT_GENERATED_(97)
  6
Continuous
 62
     7
100
AcDbLine
 10
175.7047720405
 20
503.4598330428
 30
0.0
 11
187.1593298235
 21
503.4598330428
 31
0.0
  0
SPLINE
  5
99
330
95
100
AcDbEntity
  8
$DDT_AUDIT_GENERATED_(97)
  6
Continuous
 62
     7
100
AcDbSpline
210
0.0
220
0.0
230
1.0
 70
     8
 71
     3
 72
    10
 73
     6
 74
     0
 42
0.0000000031925851
 43
0.0000000001
 40
0.79144894232867
 40
0.79144894232867
 40
0.79144894232867
 40
0.79144894232867
 40
0.875
 40
0.875
 40
1.0
 40
1.0
 40
1.0
 40
1.0
 10
167.1374298994865
 20
548.96254053249
 30
0.0
 10
167.0506849086833
 20
548.9319696818012
 30
0.0
 10
166.9667129620516
 20
548.9044606693286
 30
0.0
 10
166.7634683100393
 20
548.8337976533373
 30
0.0
 10
166.6474884205974
 20
548.7905335563529
 30
0.0
 10
166.5345149295789
 20
548.718594759885
 30
0.0
  0
SPLINE
  5
9A
330
95
100
AcDbEntity
  8
$DDT_AUDIT_GENERATED_(97)
  6
Continuous
 62
     7
100
AcDbSpline
210
0.0
220
0.0
230
1.0
 70
     8
 71
     3
 72
    24
 73
    20
 74
     0
 42
0.0000000003710186
 43
0.0000000001
 40
0.0
 40
0.0
 40
0.0
 40
0.0
 40
0.1249999999999998
 40
0.1249999999999998
 40
0.1562499999999995
 40
0.1562499999999995
 40
0.1874999999999992
 40
0.1874999999999992
 40
0.203124999999999
 40
0.203124999999999
 40
0.2187499999999989
 40
0.2187499999999989
 40
0.2499999999999989
 40
0.2499999999999989
 40
0.3749999999999992
 40
0.3749999999999992
 40
0.4999999999999994
 40
0.4999999999999994
 40
0.61614965072083
 40
0.61614965072083
 40
0.61614965072083
 40
0.61614965072083
 10
198.0707307169531
 20
543.4553060169707
 30
0.0
 10
198.4019610282284
 20
542.2369717750278
 30
0.0
 10
198.7588304700336
 20
541.0249166266813
 30
0.0
 10
199.2372297542118
 20
539.5374675122105
 30
0.0
 10
199.3340470383204
 20
539.2427351746509
 30
0.0
 10
199.5266113158692
 20
538.6644532127397
 30
0.0
 10
199.6308314008903
 20
538.3612143078312
 30
0.0
 10
199.7389785563173
 20
538.0181767391405
 30
0.0
 10
199.7519966568569
 20
537.9575782488773
 30
0.0
 10
199.6984277363351
 20
538.0521713086197
 30
0.0
 10
199.6519877172464
 20
538.1549578365307
 30
0.0
 10
199.5124758136051
 20
538.4687155289296
 30
0.0
 10
199.4095601826489
 20
538.7093869744654
 30
0.0
 10
198.8885423615148
 20
539.9335595535961
 30
0.0
 10
198.4528532767744
 20
540.9838461524598
 30
0.0
 10
197.5650696266905
 20
543.0622481094881
 30
0.0
 10
197.109606562039
 20
544.1044391715552
 30
0.0
 10
196.1713417869468
 20
546.0458740055251
 30
0.0
 10
195.6912109206381
 20
546.9503348633676
 30
0.0
 10
195.1603667183674
 20
547.7795122729027
 30
0.0
  0
SPLINE
  5
9B
330
95
100
AcDbEntity
  8
$DDT_AUDIT_GENERATED_(97)
  6
Continuous
 62
     7
100
AcDbSpline
210
0.0
220
0.0
230
1.0
 70
     8
 71
     3
 72
     8
 73
     4
 74
     0
 42
0.0000000010373903
 43
0.0000000001
 40
0.7556219478382624
 40
0.7556219478382624
 40
0.7556219478382624
 40
0.7556219478382624
 40
0.7757712317093278
 40
0.7757712317093278
 40
0.7757712317093278
 40
0.7757712317093278
 10
185.4036315049997
 20
574.5098900384686
 30
0.0
 10
185.3675464265117
 20
574.5837359130658
 30
0.0
 10
185.3303464472992
 20
574.642476263461
 30
0.0
 10
185.3004474771574
 20
574.6726956534283
 30
0.0
  0
ELLIPSE
  5
9C
330
95
100
AcDbEntity
  8
$DDT_AUDIT_GENERATED_(97)
  6
Continuous
 62
     7
100
AcDbEllipse
 10
181.0694842348
 20
548.4532418434
 30
0.0
 11
-13.95874728584155
 21
-4.857225732735060E-14
 31
0.0
210
0.0
220
0.0
230
1.0
 40
0.2061286162
 41
0.2049760033908054
 42
0.6026151589995284
  0
ELLIPSE
  5
9D
330
95
100
AcDbEntity
  8
$DDT_AUDIT_GENERATED_(97)
  6
Continuous
 62
     7
100
AcDbEllipse
 10
181.0694842348
 20
548.4532418434
 30
0.0
 11
-13.95874728584143
 21
0.0
 31
0.0
210
0.0
220
0.0
230
1.0
 40
0.2061286162
 41
-3.744207812589331
 42
-3.648942263259825
  0
ELLIPSE
  5
9E
330
95
100
AcDbEntity
  8
$DDT_AUDIT_GENERATED_(97)
  6
Continuous
 62
     7
100
AcDbEllipse
 10
181.0694842348
 20
548.4532418434
 30
0.0
 11
13.95874728584143
 21
1.387778780781446E-14
 31
0.0
210
0.0
220
0.0
230
1.0
 40
0.2061286162
 41
0.0942922154304045
 42
1.184412505266673
  0
ELLIPSE
  5
9F
330
95
100
AcDbEntity
  8
$DDT_AUDIT_GENERATED_(97)
  6
Continuous
 62
     7
100
AcDbEllipse
 10
181.0694842349
 20
548.4532418434
 30
0.0
 11
13.95874728575943
 21
-9.818534874028728E-12
 31
0.0
210
0.0
220
0.0
230
1.0
 40
0.2061286162
 41
1.184412505268087
 42
1.321113750256588
  0
ELLIPSE
  5
A0
330
95
100
AcDbEntity
  8
$DDT_AUDIT_GENERATED_(97)
  6
Continuous
 62
     7
100
AcDbEllipse
 10
181.0694842348
 20
548.4532418434
 30
0.0
 11
13.95874728584165
 21
-1.387778780781446E-14
 31
0.0
210
0.0
220
0.0
230
1.0
 40
0.2061286162
 41
1.321113750254451
 42
2.119747123833114
  0
ELLIPSE
  5
A1
330
95
100
AcDbEntity
  8
$DDT_AUDIT_GENERATED_(97)
  6
Continuous
 62
     7
100
AcDbEllipse
 10
181.0694842348
 20
548.4532418434
 30
0.0
 11
-13.95874728583451
 21
-1.033895191682177E-12
 31
0.0
210
0.0
220
0.0
230
1.0
 40
0.2061286162
 41
-1.021845529756847
 42
-0.8851442847690203
  0
ELLIPSE
  5
A2
330
95
100
AcDbEntity
  8
$DDT_AUDIT_GENERATED_(97)
  6
Continuous
 62
     7
100
AcDbEllipse
 10
181.0694842348
 20
548.4532418434
 30
0.0
 11
13.95874728584152
 21
0.0
 31
0.0
210
0.0
220
0.0
230
1.0
 40
0.2061286162
 41
2.25644836882089
 42
3.346568656980579
  0
SPLINE
  5
A3
330
95
100
AcDbEntity
  8
$DDT_AUDIT_GENERATED_(97)
  6
Continuous
 62
     7
100
AcDbSpline
210
0.0
220
0.0
230
1.0
 70
     8
 71
     3
 72
    11
 73
     7
 74
     0
 42
0.0000000000915508
 43
0.0000000001
 40
0.7803706582610372
 40
0.7803706582610372
 40
0.7803706582610372
 40
0.7803706582610372
 40
0.8023503092788067
 40
0.8566984659334188
 40
0.9129857311914837
 40
1.0
 40
1.0
 40
1.0
 40
1.0
 10
183.8258056820038
 20
575.1620522093539
 30
0.0
 10
183.8087805552668
 20
575.1730257871849
 30
0.0
 10
183.7765665806521
 20
575.0771116445707
 30
0.0
 10
184.028445039016
 20
573.7418583852917
 30
0.0
 10
184.3815616726524
 20
566.411960234019
 30
0.0
 10
184.4668514338832
 20
556.972848973875
 30
0.0
 10
184.5186403156889
 20
551.2413167202004
 30
0.0
  0
SPLINE
  5
A4
330
95
100
AcDbEntity
  8
$DDT_AUDIT_GENERATED_(97)
  6
Continuous
 62
     7
100
AcDbSpline
210
0.0
220
0.0
230
1.0
 70
     8
 71
     3
 72
    11
 73
     7
 74
     0
 42
0.0000000000911547
 43
0.0000000001
 40
0.788622541376014
 40
0.788622541376014
 40
0.788622541376014
 40
0.788622541376014
 40
0.809439691692552
 40
0.8618384657571848
 40
0.916106795660571
 40
1.0
 40
1.0
 40
1.0
 40
1.0
 10
175.2506005138275
 20
573.8893553956854
 30
0.0
 10
175.2854279349857
 20
573.8971493357382
 30
0.0
 10
175.3516065818469
 20
573.7932759109008
 30
0.0
 10
174.8209801792522
 20
572.4721639666434
 30
0.0
 10
174.0754162909615
 20
565.3736306954848
 30
0.0
 10
173.8952897977201
 20
556.3730416363961
 30
0.0
 10
173.7859150083674
 20
550.9077848900262
 30
0.0
  0
LINE
  5
A5
330
95
100
AcDbEntity
  8
$DDT_AUDIT_GENERATED_(97)
  6
Continuous
 62
     7
100
AcDbLine
 10
193.2699221212
 20
547.0552712287
 30
0.0
 11
195.3739518285
 21
547.8354709997
 31
0.0
  0
LINE
  5
A6
330
95
100
AcDbEntity
  8
$DDT_AUDIT_GENERATED_(97)
  6
Continuous
 62
     7
100
AcDbLine
 10
194.96622372
 20
548.724146723
 30
0.0
 11
195.3739518285
 21
547.8354709997
 31
0.0
  0
SPLINE
  5
A7
330
95
100
AcDbEntity
  8
$DDT_AUDIT_GENERATED_(97)
  6
Continuous
 62
     7
100
AcDbSpline
210
0.0
220
0.0
230
1.0
 70
     8
 71
     3
 72
    10
 73
     6
 74
     0
 42
0.0000000000847476
 43
0.0000000001
 40
0.0
 40
0.0
 40
0.0
 40
0.0
 40
0.0625000000000005
 40
0.0625000000000005
 40
0.0629053568682304
 40
0.0629053568682304
 40
0.0629053568682304
 40
0.0629053568682304
 10
195.373951828537
 20
547.8354709996797
 30
0.0
 10
195.1925417544201
 20
550.3797291898982
 30
0.0
 10
195.011561235678
 20
552.9247792500751
 30
0.0
 10
194.6688718215453
 20
555.1899939107744
 30
0.0
 10
194.6666560437503
 20
555.204575806375
 30
0.0
 10
194.6644328003401
 20
555.2191425975001
 30
0.0
  0
SPLINE
  5
A8
330
95
100
AcDbEntity
  8
$DDT_AUDIT_GENERATED_(97)
  6
Continuous
 62
     7
100
AcDbSpline
210
0.0
220
0.0
230
1.0
 70
     8
 71
     3
 72
    28
 73
    24
 74
     0
 42
0.0000000001846657
 43
0.0000000001
 40
0.5834305902256628
 40
0.5834305902256628
 40
0.5834305902256628
 40
0.5834305902256628
 40
0.6250000000000008
 40
0.6250000000000008
 40
0.7500000000000008
 40
0.7500000000000008
 40
0.8125000000000008
 40
0.8125000000000008
 40
0.8750000000000007
 40
0.8750000000000007
 40
0.9062500000000006
 40
0.9062500000000006
 40
0.9375000000000004
 40
0.9375000000000004
 40
0.9531250000000003
 40
0.9531250000000003
 40
0.9687500000000003
 40
0.9687500000000003
 40
0.9843750000000002
 40
0.9843750000000002
 40
0.9921875000000001
 40
0.9921875000000001
 40
1.0
 40
1.0
 40
1.0
 40
1.0
 10
193.9923950521062
 20
547.3167961862807
 30
0.0
 10
194.1665328706833
 20
546.5837316398809
 30
0.0
 10
194.3535426745572
 20
545.8520347034241
 30
0.0
 10
195.1058127396181
 20
542.9505392551711
 30
0.0
 10
195.6703718928056
 20
540.9040481157422
 30
0.0
 10
196.1581097596214
 20
537.542363488084
 30
0.0
 10
196.2567222261006
 20
536.366935484643
 30
0.0
 10
196.304929794573
 20
533.8473217301449
 30
0.0
 10
196.2862055492151
 20
532.5219875753095
 30
0.0
 10
196.5087875165381
 20
530.388319054806
 30
0.0
 10
196.6309817396784
 20
529.6359438179815
 30
0.0
 10
196.9184495002577
 20
528.2839079318069
 30
0.0
 10
197.083746329302
 20
527.6738014398516
 30
0.0
 10
197.2996959488473
 20
527.1916733641524
 30
0.0
 10
197.3617999844664
 20
527.1175453878724
 30
0.0
 10
197.4552726629321
 20
527.2046085585455
 30
0.0
 10
197.4794112075789
 20
527.3968484590946
 30
0.0
 10
197.5449451828749
 20
527.8257730002798
 30
0.0
 10
197.5875899742379
 20
528.0591540335361
 30
0.0
 10
197.7510398889881
 20
528.101482746811
 30
0.0
 10
197.8220000665211
 20
528.0568242601653
 30
0.0
 10
197.9999815958604
 20
527.8346591167077
 30
0.0
 10
198.1043303482178
 20
527.6628489331306
 30
0.0
 10
198.2176228832009
 20
527.4636364750868
 30
0.0
  0
ARC
  5
A9
330
95
100
AcDbEntity
  8
$DDT_AUDIT_GENERATED_(97)
  6
Continuous
 62
     7
100
AcDbCircle
 10
267.3835867924
 20
562.4854745545
 30
0.0
 40
71.87781181076036
100
AcDbArc
 50
195.3525271266
 51
203.7388461215
  0
ARC
  5
AA
330
95
100
AcDbEntity
  8
$DDT_AUDIT_GENERATED_(97)
  6
Continuous
 62
     7
100
AcDbCircle
 10
207.9133956046
 20
524.9815600976
 30
0.0
 40
9.684608788405452
100
AcDbArc
 50
138.3143698556
 51
167.9959083744
  0
LINE
  5
AB
330
95
100
AcDbEntity
  8
$DDT_AUDIT_GENERATED_(97)
  6
Continuous
 62
     7
100
AcDbLine
 10
213.0694843642
 20
503.4598330428
 30
0.0
 11
187.1593298235
 21
503.4598330428
 31
0.0
  0
LINE
  5
AC
330
95
100
AcDbEntity
  8
$DDT_AUDIT_GENERATED_(97)
  6
Continuous
 62
     7
100
AcDbLine
 10
175.7047720405
 20
503.4598330428
 30
0.0
 11
149.0694841054
 21
503.4598330428
 31
0.0
  0
ARC
  5
AD
330
95
100
AcDbEntity
  8
$DDT_AUDIT_GENERATED_(97)
  6
Continuous
 62
     7
100
AcDbCircle
 10
204.2997252691
 20
530.901116141
 30
0.0
 40
41.7573185959106
100
AcDbArc
 50
154.7422447744
 51
190.8662258851
  0
ARC
  5
AE
330
95
100
AcDbEntity
  8
$DDT_AUDIT_GENERATED_(97)
  6
Continuous
 62
     7
100
AcDbCircle
 10
195.6567646604
 20
527.5128512747
 30
0.0
 40
32.67474065676598
100
AcDbArc
 50
187.8871068505
 51
208.860066237
  0
ARC
  5
AF
330
95
100
AcDbEntity
  8
$DDT_AUDIT_GENERATED_(97)
  6
Continuous
 62
     7
100
AcDbCircle
 10
184.4819456036
 20
521.3160780019
 30
0.0
 40
19.89683975397499
100
AcDbArc
 50
208.7639785538
 51
243.8237444579
  0
SPLINE
  5
B0
330
95
100
AcDbEntity
  8
$DDT_AUDIT_GENERATED_(97)
  6
Continuous
 62
     7
100
AcDbSpline
210
0.0
220
0.0
230
1.0
 70
     8
 71
     3
 72
    24
 73
    20
 74
     0
 42
0.0000000003833239
 43
0.0000000001
 40
0.0
 40
0.0
 40
0.0
 40
0.0
 40
0.0312500000000001
 40
0.0312500000000001
 40
0.0625000000000002
 40
0.0625000000000002
 40
0.1250000000000001
 40
0.1250000000000001
 40
0.2500000000000002
 40
0.2500000000000002
 40
0.3750000000000001
 40
0.3750000000000001
 40
0.5
 40
0.5
 40
0.75
 40
0.75
 40
0.875
 40
0.875
 40
1.0
 40
1.0
 40
1.0
 40
1.0
 10
199.7619392346036
 20
525.0214668076553
 30
0.0
 10
199.5978120951021
 20
524.9264292023112
 30
0.0
 10
199.4693313080859
 20
524.7784241338713
 30
0.0
 10
199.299872871645
 20
524.391135360235
 30
0.0
 10
199.2589184321677
 20
524.164434967041
 30
0.0
 10
199.1318684831282
 20
523.4798705507084
 30
0.0
 10
199.0577800659286
 20
523.0053285062008
 30
0.0
 10
198.8106505159866
 20
521.567686399113
 30
0.0
 10
198.6204256846783
 20
520.58928811945
 30
0.0
 10
198.1804944957082
 20
518.5958295916988
 30
0.0
 10
197.9421230128677
 20
517.5743087529734
 30
0.0
 10
197.3001694064793
 20
515.5500534406444
 30
0.0
 10
196.9064650240095
 20
514.5338963996842
 30
0.0
 10
195.4966367765407
 20
511.5363798296411
 30
0.0
 10
194.3159992195148
 20
509.5972640346841
 30
0.0
 10
192.021414010855
 20
506.9395702941989
 30
0.0
 10
191.1752713613601
 20
506.1101317837657
 30
0.0
 10
189.30886992045
 20
504.6327288363006
 30
0.0
 10
188.2690934776292
 20
503.9747145771453
 30
0.0
 10
187.1593299906779
 20
503.4598330427571
 30
0.0
  0
SPLINE
  5
B1
330
95
100
AcDbEntity
  8
$DDT_AUDIT_GENERATED_(97)
  6
Continuous
 62
     7
100
AcDbSpline
210
0.0
220
0.0
230
1.0
 70
     8
 71
     3
 72
    22
 73
    18
 74
     0
 42
0.0000000010419186
 43
0.0000000001
 40
0.0
 40
0.0
 40
0.0
 40
0.0
 40
0.0312499999999998
 40
0.0312499999999998
 40
0.0624999999999997
 40
0.0624999999999997
 40
0.1249999999999996
 40
0.1249999999999996
 40
0.2499999999999997
 40
0.2499999999999997
 40
0.3749999999999999
 40
0.3749999999999999
 40
0.5000000000000001
 40
0.5000000000000001
 40
0.75
 40
0.75
 40
1.0
 40
1.0
 40
1.0
 40
1.0
 10
201.6726942649786
 20
533.3627380476987
 30
0.0
 10
201.6105300955597
 20
533.4943541506703
 30
0.0
 10
201.5516175718078
 20
533.6181266079087
 30
0.0
 10
201.488362281845
 20
533.7338593068607
 30
0.0
 10
201.4975554983379
 20
533.6951907295088
 30
0.0
 10
201.5783360198166
 20
533.4562737131821
 30
0.0
 10
201.6659765723274
 20
533.2154232926946
 30
0.0
 10
201.8523229037464
 20
532.6067796346135
 30
0.0
 10
201.8991480892179
 20
532.2939951327905
 30
0.0
 10
201.8477684522762
 20
531.7719397877697
 30
0.0
 10
201.7574035071019
 20
531.5520513768263
 30
0.0
 10
201.5168061050065
 20
531.0841062337101
 30
0.0
 10
201.3662039288421
 20
530.8365335335016
 30
0.0
 10
200.8739332348694
 20
529.9973047904339
 30
0.0
 10
200.5426320447586
 20
529.2342787225633
 30
0.0
 10
200.0331055263663
 20
527.3360565926545
 30
0.0
 10
199.8443779681483
 20
526.2491286991393
 30
0.0
 10
199.7619392346036
 20
525.0214668076553
 30
0.0
  0
SPLINE
  5
B2
330
95
100
AcDbEntity
  8
$DDT_AUDIT_GENERATED_(97)
  6
Continuous
 62
     7
100
AcDbSpline
210
0.0
220
0.0
230
1.0
 70
     8
 71
     3
 72
    11
 73
     7
 74
     0
 42
0.0000000001381085
 43
0.0000000001
 40
0.0
 40
0.0
 40
0.0
 40
0.0
 40
0.0631652867844675
 40
0.1423660621771884
 40
0.3009463605122755
 40
0.3819926055761012
 40
0.3819926055761012
 40
0.3819926055761012
 40
0.3819926055761012
 10
169.2039842269093
 20
514.7909665352003
 30
0.0
 10
169.2394595034151
 20
516.3706890675926
 30
0.0
 10
169.4622451252027
 20
522.543302968414
 30
0.0
 10
170.5117000457576
 20
529.1894725134817
 30
0.0
 10
171.5080142484387
 20
535.9814724066831
 30
0.0
 10
172.2598246565277
 20
540.6976887043216
 30
0.0
 10
172.4678687016533
 20
542.2166700559364
 30
0.0
  0
ARC
  5
B3
330
95
100
AcDbEntity
  8
$DDT_AUDIT_GENERATED_(97)
  6
Continuous
 62
     7
100
AcDbCircle
 10
176.0123770609
 20
525.0884096677
 30
0.0
 40
20.3891567965347
100
AcDbArc
 50
299.3369015869
 51
349.1082254788
  0
ARC
  5
B4
330
95
100
AcDbEntity
  8
$DDT_AUDIT_GENERATED_(97)
  6
Continuous
 62
     7
100
AcDbCircle
 10
181.5184331815
 20
515.6592806415
 30
0.0
 40
9.473331205330902
100
AcDbArc
 50
240.7676333428
 51
298.2470830546
  0
ARC
  5
B5
330
95
100
AcDbEntity
  8
$DDT_AUDIT_GENERATED_(97)
  6
Continuous
 62
     7
100
AcDbCircle
 10
184.9601216931
 20
523.4751078295
 30
0.0
 40
17.99294171180471
100
AcDbArc
 50
208.8733079501
 51
243.3589942779
  0
SPLINE
  5
B6
330
95
100
AcDbEntity
  8
$DDT_AUDIT_GENERATED_(97)
  6
Continuous
 62
     7
100
AcDbSpline
210
0.0
220
0.0
230
1.0
 70
     8
 71
     3
 72
    12
 73
     8
 74
     0
 42
0.0000000001735021
 43
0.0000000001
 40
0.0
 40
0.0
 40
0.0
 40
0.0
 40
0.0153793646897438
 40
0.0926909499879065
 40
0.169395601585566
 40
0.3229780188501793
 40
0.3823902289104133
 40
0.3823902289104133
 40
0.3823902289104133
 40
0.3823902289104133
 10
165.1915838006942
 20
525.7293040639397
 30
0.0
 10
165.2924102618586
 20
525.7438538834018
 30
0.0
 10
165.747621895894
 20
526.0705761320346
 30
0.0
 10
166.1611198110443
 20
532.0461938493596
 30
0.0
 10
166.4258621005822
 20
537.1963143483048
 30
0.0
 10
167.4499599520186
 20
542.323439507578
 30
0.0
 10
168.3996902619893
 20
546.1279541909254
 30
0.0
 10
168.6439345783501
 20
547.1808167407315
 30
0.0
  0
SPLINE
  5
B7
330
95
100
AcDbEntity
  8
$DDT_AUDIT_GENERATED_(97)
  6
Continuous
 62
     7
100
AcDbSpline
210
0.0
220
0.0
230
1.0
 70
     8
 71
     3
 72
    14
 73
    10
 74
     0
 42
0.0000032013305729
 43
0.0000000001
 40
0.0
 40
0.0
 40
0.0
 40
0.0
 40
0.4729221845874012
 40
0.4729221845874012
 40
0.4729221845874012
 40
0.8344832960457055
 40
0.8344832960457055
 40
0.8344832960457055
 40
1.0
 40
1.0
 40
1.0
 40
1.0
 10
165.1915838006942
 20
525.7293040639397
 30
0.0
 10
165.1913690333286
 20
525.7292730718136
 30
0.0
 10
165.1911620639638
 20
525.7291251675089
 30
0.0
 10
165.1909814246781
 20
525.7287659445275
 30
0.0
 10
165.1908435848079
 20
525.7284918333398
 30
0.0
 10
165.1907192078803
 20
525.7280842511669
 30
0.0
 10
165.1906270491965
 20
525.7275021835183
 30
0.0
 10
165.1905844575963
 20
525.7272331780206
 30
0.0
 10
165.1905484253755
 20
525.7269248865501
 30
0.0
 10
165.1905207871149
 20
525.7265807741796
 30
0.0
  0
SPLINE
  5
B8
330
95
100
AcDbEntity
  8
$DDT_AUDIT_GENERATED_(97)
  6
Continuous
 62
     7
100
AcDbSpline
210
0.0
220
0.0
230
1.0
 70
     8
 71
     3
 72
     8
 73
     4
 74
     0
 42
0.0000000008633517
 43
0.0000000001
 40
0.7638528996683936
 40
0.7638528996683936
 40
0.7638528996683936
 40
0.7638528996683936
 40
0.7875148638289601
 40
0.7875148638289601
 40
0.7875148638289601
 40
0.7875148638289601
 10
173.7844286965977
 20
572.8420841300904
 30
0.0
 10
173.8580383580229
 20
572.9308594543339
 30
0.0
 10
173.9348243232043
 20
572.9963924326507
 30
0.0
 10
173.989243148494
 20
573.0158684890123
 30
0.0
  0
LINE
  5
B9
330
95
100
AcDbEntity
  8
$DDT_AUDIT_GENERATED_(97)
  6
Continuous
 62
     7
100
AcDbLine
 10
201.5873875675
 20
533.5497412425
 30
0.0
 11
201.672694265
 21
533.3627380477
 31
0.0
  0
LINE
  5
BA
330
95
100
AcDbEntity
  8
$DDT_AUDIT_GENERATED_(97)
  6
Continuous
 62
     7
100
AcDbLine
 10
198.2176228832
 20
527.4636364751
 30
0.0
 11
198.4405625701
 21
526.9957799679
 31
0.0
  0
LINE
  5
BB
330
95
100
AcDbEntity
  8
$DDT_AUDIT_GENERATED_(97)
  6
Continuous
 62
     7
100
AcDbLine
 10
169.2039842269
 20
514.7909665352
 30
0.0
 11
169.2037513874
 21
514.7870033491
 31
0.0
  0
SPLINE
  5
BC
330
95
100
AcDbEntity
  8
$DDT_AUDIT_GENERATED_(97)
  6
Continuous
 62
     7
100
AcDbSpline
210
0.0
220
0.0
230
1.0
 70
     8
 71
     3
 72
    14
 73
    10
 74
     0
 42
0.0000000049638432
 43
0.0000000001
 40
0.0
 40
0.0
 40
0.0
 40
0.0
 40
0.0294150685889464
 40
0.0601222783768184
 40
0.092226599670959
 40
0.125827278661268
 40
0.1850000583673411
 40
0.2504905269159414
 40
0.310841129445156
 40
0.310841129445156
 40
0.310841129445156
 40
0.310841129445156
 10
166.5345149295789
 20
548.718594759885
 30
0.0
 10
166.5537008722162
 20
548.7301443981381
 30
0.0
 10
166.592915555013
 20
548.7537510256092
 30
0.0
 10
166.6531023240832
 20
548.7816176589706
 30
0.0
 10
166.7158969939526
 20
548.8051899267225
 30
0.0
 10
166.7969596189115
 20
548.8284453364884
 30
0.0
 10
166.8990185390997
 20
548.8473028682803
 30
0.0
 10
167.0173094945198
 20
548.8580097348832
 30
0.0
 10
167.0969739441489
 20
548.8604127180272
 30
0.0
 10
167.1350227568146
 20
548.8609312986036
 30
0.0
  0
SPLINE
  5
BD
330
95
100
AcDbEntity
  8
$DDT_AUDIT_GENERATED_(97)
  6
Continuous
 62
     7
100
AcDbSpline
210
0.0
220
0.0
230
1.0
 70
     8
 71
     3
 72
    19
 73
    15
 74
     0
 42
0.000000002615127
 43
0.0000000001
 40
0.0
 40
0.0
 40
0.0
 40
0.0
 40
0.2499999999999988
 40
0.2499999999999988
 40
0.374999999999999
 40
0.374999999999999
 40
0.4999999999999992
 40
0.6249999999999994
 40
0.6249999999999994
 40
0.7499999999999996
 40
0.7499999999999996
 40
0.8749999999999998
 40
0.8749999999999998
 40
1.0
 40
1.0
 40
1.0
 40
1.0
 10
169.2038901957131
 20
514.7867753976602
 30
0.0
 10
169.1818162818302
 20
514.5666714909969
 30
0.0
 10
169.1163568031512
 20
514.3320580304405
 30
0.0
 10
168.9546924979487
 20
513.9592984262248
 30
0.0
 10
168.889544029982
 20
513.8306452016903
 30
0.0
 10
168.7402500367508
 20
513.5717696576647
 30
0.0
 10
168.572086403223
 20
513.3109565636825
 30
0.0
 10
168.3670229032231
 20
513.0463549639585
 30
0.0
 10
168.1430960653171
 20
512.7798168654813
 30
0.0
 10
168.0213278872003
 20
512.6453279126293
 30
0.0
 10
167.7650055092963
 20
512.3813479061156
 30
0.0
 10
167.6297665051427
 20
512.2509844125067
 30
0.0
 10
167.345210050962
 20
511.9934928190024
 30
0.0
 10
167.1943710560498
 20
511.8651741111262
 30
0.0
 10
167.0401892046301
 20
511.741665961835
 30
0.0
  0
ARC
  5
BE
330
95
100
AcDbEntity
  8
$DDT_AUDIT_GENERATED_(97)
  6
Continuous
 62
     7
100
AcDbCircle
 10
204.1195485776
 20
529.3672908863
 30
0.0
 40
6.154262434176376
100
AcDbArc
 50
202.6651262608
 51
224.9224161935
  0
ELLIPSE
  5
BF
330
95
100
AcDbEntity
  8
$DDT_AUDIT_GENERATED_(97)
  6
Continuous
 62
     7
100
AcDbEllipse
 10
181.0694842348
 20
548.459834008
 30
0.0
 11
-11.5
 21
-6.938893903907228E-15
 31
0.0
210
0.0
220
0.0
230
1.0
 40
0.2061286162
 41
3.14159265358979
 42
6.283185307179584
  0
ELLIPSE
  5
C0
330
95
100
AcDbEntity
  8
$DDT_AUDIT_GENERATED_(97)
  6
Continuous
 62
     7
100
AcDbEllipse
 10
181.0694842348
 20
544.0564719265
 30
0.0
 11
11.5
 21
0.0
 31
0.0
210
0.0
220
0.0
230
1.0
 40
0.2061286162
 41
6.070943024243711
 42
6.283185307179586
  0
ELLIPSE
  5
C1
330
95
100
AcDbEntity
  8
$DDT_AUDIT_GENERATED_(97)
  6
Continuous
 62
     7
100
AcDbEllipse
 10
181.0694842348
 20
544.0564719265
 30
0.0
 11
11.5
 21
0.0
 31
0.0
210
0.0
220
0.0
230
1.0
 40
0.2061286162
 41
0.0
 42
3.353834936525668
  0
ELLIPSE
  5
C2
330
95
100
AcDbEntity
  8
$DDT_AUDIT_GENERATED_(97)
  6
Continuous
 62
     7
100
AcDbEllipse
 10
181.0694842348
 20
543.5672094731
 30
0.0
 11
11.00000000000009
 21
0.0
 31
0.0
210
0.0
220
0.0
230
1.0
 40
0.2061286162
 41
0.0
 42
6.283185307179586
  0
SPLINE
  5
C3
330
95
100
AcDbEntity
  8
$DDT_AUDIT_GENERATED_(97)
  6
Continuous
 62
     7
100
AcDbSpline
210
0.0
220
0.0
230
1.0
 70
     8
 71
     3
 72
    11
 73
     7
 74
     0
 42
0.0000000006138678
 43
0.0000000001
 40
0.0
 40
0.0
 40
0.0
 40
0.0
 40
0.1043745203487108
 40
0.4105486303168226
 40
0.7159314065307717
 40
1.0
 40
1.0
 40
1.0
 40
1.0
 10
198.0631715062391
 20
543.6057868144301
 30
0.0
 10
197.8902983906549
 20
544.204223033858
 30
0.0
 10
197.3149474044421
 20
546.2165672563411
 30
0.0
 10
196.497955158022
 20
550.1074642369256
 30
0.0
 10
195.8528085987901
 20
554.9913348743764
 30
0.0
 10
195.7244904102642
 20
557.9654782651121
 30
0.0
 10
195.6611734155666
 20
559.6596118519402
 30
0.0
  0
SPLINE
  5
C4
330
95
100
AcDbEntity
  8
$DDT_AUDIT_GENERATED_(97)
  6
Continuous
 62
     7
100
AcDbSpline
210
0.0
220
0.0
230
1.0
 70
     8
 71
     3
 72
    15
 73
    11
 74
     0
 42
0.0000000003111663
 43
0.0000000001
 40
0.0
 40
0.0
 40
0.0
 40
0.0
 40
0.1331611646157222
 40
0.2659529087691668
 40
0.3986318887125261
 40
0.5316796956300845
 40
0.6649283504703719
 40
0.7980303960152582
 40
0.9308334270379536
 40
1.0
 40
1.0
 40
1.0
 40
1.0
 10
213.0694843642201
 20
503.4598330427571
 30
0.0
 10
212.8268989080872
 20
505.0089331179991
 30
0.0
 10
212.4010254287026
 20
507.6127403813926
 30
0.0
 10
211.5492324817868
 20
511.8821052097064
 30
0.0
 10
210.3485923823608
 20
515.9600023122341
 30
0.0
 10
208.7713047410838
 20
519.9385057644712
 30
0.0
 10
206.8902474797144
 20
523.7887611202256
 30
0.0
 10
204.8168837139627
 20
527.4917650781832
 30
0.0
 10
202.9632545003996
 20
530.6720171839792
 30
0.0
 10
202.1290084952158
 20
532.5138280665766
 30
0.0
 10
201.7922293261618
 20
533.2553750420723
 30
0.0
  0
SPLINE
  5
C5
330
95
100
AcDbEntity
  8
$DDT_AUDIT_GENERATED_(97)
  6
Continuous
 62
     7
100
AcDbSpline
210
0.0
220
0.0
230
1.0
 70
     8
 71
     3
 72
    20
 73
    16
 74
     0
 42
0.0000000001681835
 43
0.0000000001
 40
0.0
 40
0.0
 40
0.0
 40
0.0
 40
0.0777822747400824
 40
0.1614475736913033
 40
0.2453296732239546
 40
0.3293875156480218
 40
0.413252332680511
 40
0.4968378420844426
 40
0.568624541411989
 40
0.6405728732523815
 40
0.7126004550455729
 40
0.7845194685739849
 40
0.856239112557399
 40
0.9280197111543357
 40
1.0
 40
1.0
 40
1.0
 40
1.0
 10
166.47765172953
 20
559.6570251581031
 30
0.0
 10
166.4143613640223
 20
557.9638411488799
 30
0.0
 10
166.2850849168313
 20
554.9987093985515
 30
0.0
 10
165.6447348842009
 20
550.076291563668
 30
0.0
 10
164.5791391601174
 20
545.2322810832244
 30
0.0
 10
163.2387934663938
 20
540.419944353402
 30
0.0
 10
161.5934959196649
 20
535.7138015459274
 30
0.0
 10
159.5628267924306
 20
531.4234876173656
 30
0.0
 10
157.3436042148903
 20
527.5067571527085
 30
0.0
 10
155.2429422107592
 20
523.7847350133972
 30
0.0
 10
153.3692106629355
 20
519.9395833661376
 30
0.0
 10
151.7899631625659
 20
515.9597145565789
 30
0.0
 10
150.5898472216474
 20
511.8821826609117
 30
0.0
 10
149.7379112025805
 20
507.612718180369
 30
0.0
 10
149.3120695724496
 20
505.0089331181939
 30
0.0
 10
149.0694841053939
 20
503.4598330427571
 30
0.0
  0
SPLINE
  5
C6
330
95
100
AcDbEntity
  8
$DDT_AUDIT_GENERATED_(97)
  6
Continuous
 62
     7
100
AcDbSpline
210
0.0
220
0.0
230
1.0
 70
     8
 71
     3
 72
    38
 73
    34
 74
     0
 42
0.000000000438359
 43
0.0000000001
 40
0.0
 40
0.0
 40
0.0
 40
0.0
 40
0.0397590694465738
 40
0.0721752866691054
 40
0.0972520159199825
 40
0.1150643915547288
 40
0.1270443077445104
 40
0.1388285490620927
 40
0.1647463061704189
 40
0.2007027985910675
 40
0.2329814676033644
 40
0.2686925420355928
 40
0.3095405459034409
 40
0.3556446630809477
 40
0.40702445802432
 40
0.4618736982394572
 40
0.513527526987135
 40
0.5612117507513399
 40
0.6326413183127909
 40
0.6939718555779696
 40
0.722187006902857
 40
0.7475054087090579
 40
0.7681835063868824
 40
0.7829175842979277
 40
0.7965218906798465
 40
0.8108289795179952
 40
0.8275917780647969
 40
0.841096931737324
 40
0.8596502246054056
 40
0.8846132718409525
 40
0.9162515060846276
 40
0.9546922961897185
 40
1.0
 40
1.0
 40
1.0
 40
1.0
 10
194.6826280131338
 20
555.1001529822013
 30
0.0
 10
194.6088805159845
 20
555.5852794442573
 30
0.0
 10
194.4958761669934
 20
556.3290913283587
 30
0.0
 10
194.3237259977948
 20
557.4864375185404
 30
0.0
 10
194.1897370039724
 20
558.3921374715657
 30
0.0
 10
194.0878904296058
 20
559.0762814580261
 30
0.0
 10
194.0074744688953
 20
559.6106257570267
 30
0.0
 10
193.9052297805705
 20
560.2404028589434
 30
0.0
 10
193.7447808919627
 20
561.1004797088841
 30
0.0
 10
193.5442168236571
 20
562.0641408857134
 30
0.0
 10
193.2952617266632
 20
563.1195138837435
 30
0.0
 10
193.0426327432507
 20
564.0743875921547
 30
0.0
 10
192.7671063424733
 20
564.9952813120962
 30
0.0
 10
192.4683165529147
 20
565.8408507713749
 30
0.0
 10
192.1629431216107
 20
566.5570912725706
 30
0.0
 10
191.8980875308488
 20
567.0958418064895
 30
0.0
 10
191.6941131707588
 20
567.5164508831446
 30
0.0
 10
191.5560916837151
 20
567.8833202256453
 30
0.0
 10
191.5452079515604
 20
568.1785270335828
 30
0.0
 10
191.6005238334504
 20
568.3821116322995
 30
0.0
 10
191.6294438956631
 20
568.5404192599399
 30
0.0
 10
191.6495758665444
 20
568.6270299317035
 30
0.0
 10
191.5987292162596
 20
568.8249128862813
 30
0.0
 10
191.465423040198
 20
569.1362780816428
 30
0.0
 10
191.2556965906453
 20
569.5357611866098
 30
0.0
 10
190.9574495676695
 20
570.0245597884825
 30
0.0
 10
190.6233498737047
 20
570.5032388135719
 30
0.0
 10
190.2544420783805
 20
570.9803835500145
 30
0.0
 10
189.7731114360193
 20
571.5469374491976
 30
0.0
 10
189.0920633718848
 20
572.2391167357737
 30
0.0
 10
188.1594481972058
 20
573.023534083394
 30
0.0
 10
186.9000851403514
 20
573.8571539878521
 30
0.0
 10
185.9898685713333
 20
574.2585822988464
 30
0.0
 10
185.403643355471
 20
574.5098657865891
 30
0.0
  0
SPLINE
  5
C7
330
95
100
AcDbEntity
  8
$DDT_AUDIT_GENERATED_(97)
  6
Continuous
 62
     7
100
AcDbSpline
210
0.0
220
0.0
230
1.0
 70
     8
 71
     3
 72
    24
 73
    20
 74
     0
 42
0.0000000003859065
 43
0.0000000001
 40
0.0
 40
0.0
 40
0.0
 40
0.0
 40
0.0274335006278625
 40
0.0579975125576021
 40
0.0824117494572946
 40
0.096612552565669
 40
0.1027887343474685
 40
0.1087643720993362
 40
0.1149251168489889
 40
0.1216296807891136
 40
0.1376910572603096
 40
0.1807347143502735
 40
0.2160176721111744
 40
0.2438732292519534
 40
0.2753439347519802
 40
0.3108573994996525
 40
0.3584553951197051
 40
0.4118756163518134
 40
0.4119181121429234
 40
0.4119181121429234
 40
0.4119181121429234
 40
0.4119181121429234
 10
196.1842119669319
 20
537.0321463825559
 30
0.0
 10
196.160779326048
 20
537.3041730033385
 30
0.0
 10
196.1189566138334
 20
537.7912918295609
 30
0.0
 10
196.0514799423066
 20
538.6124972406802
 30
0.0
 10
195.9961260951434
 20
539.3124611212648
 30
0.0
 10
195.9554277869838
 20
539.8416469827146
 30
0.0
 10
195.9251978139972
 20
540.2278597006904
 30
0.0
 10
195.9026834244315
 20
540.5093701839075
 30
0.0
 10
195.8791860915953
 20
540.7929223870998
 30
0.0
 10
195.8446254425627
 20
541.1951678953395
 30
0.0
 10
195.7710101241976
 20
541.9304862437843
 30
0.0
 10
195.6587717359069
 20
542.8068581549967
 30
0.0
 10
195.5089428974392
 20
543.7704273389202
 30
0.0
 10
195.3779521042457
 20
544.5068887824006
 30
0.0
 10
195.2527666924219
 20
545.1517104678192
 30
0.0
 10
195.0970155195588
 20
545.8897047373362
 30
0.0
 10
194.9087556447058
 20
546.7076605622221
 30
0.0
 10
194.765387031239
 20
547.2829984844007
 30
0.0
 10
194.6888125431676
 20
547.5811695313915
 30
0.0
 10
194.6887516761135
 20
547.5814065340369
 30
0.0
  0
ARC
  5
C8
330
95
100
AcDbEntity
  8
$DDT_AUDIT_GENERATED_(97)
  6
Continuous
 62
     7
100
AcDbCircle
 10
181.0277612812
 20
563.9736011685
 30
0.0
 40
11.52064497030722
100
AcDbArc
 50
68.2300912713
 51
75.866788813
  0
ARC
  5
C9
330
95
100
AcDbEntity
  8
$DDT_AUDIT_GENERATED_(97)
  6
Continuous
 62
     7
100
AcDbCircle
 10
181.0828333267
 20
564.087428504
 30
0.0
 40
11.40930604002668
100
AcDbArc
 50
76.0895852708
 51
120.9730344548
  0
LINE
  5
CA
330
95
100
AcDbEntity
  8
$DDT_AUDIT_GENERATED_(97)
  6
Continuous
 62
     7
100
AcDbLine
 10
175.2506740746
 20
573.8893718074
 30
0.0
 11
173.9785978943
 21
573.0047399465
 31
0.0
  0
SPLINE
  5
CB
330
95
100
AcDbEntity
  8
$DDT_AUDIT_GENERATED_(97)
  6
Continuous
 62
     7
100
AcDbSpline
210
0.0
220
0.0
230
1.0
 70
     8
 71
     3
 72
    42
 73
    38
 74
     0
 42
0.0000000003755029
 43
0.0000000001
 40
0.0
 40
0.0
 40
0.0
 40
0.0
 40
0.038025710424802
 40
0.0683919213765414
 40
0.0915885379978165
 40
0.108396476907623
 40
0.1206290024338862
 40
0.1299705307714569
 40
0.1354315616732503
 40
0.1399324844004006
 40
0.1419909527179591
 40
0.1440221754463209
 40
0.1483127051049978
 40
0.153381596875019
 40
0.1631499867115278
 40
0.1760415302375704
 40
0.2017371224922994
 40
0.2357762586764541
 40
0.2787598666581499
 40
0.3313376978686104
 40
0.3916168381916105
 40
0.4483130880532629
 40
0.5004393877273297
 40
0.5531840070589461
 40
0.5986333184685081
 40
0.6367650921038852
 40
0.6677265730457883
 40
0.6918256643020447
 40
0.7141088800676881
 40
0.7323990176187648
 40
0.7519822821555021
 40
0.7741846304201909
 40
0.8038789400869814
 40
0.8413940237151539
 40
0.8866922190615423
 40
0.9396891942409554
 40
1.0
 40
1.0
 40
1.0
 40
1.0
 10
173.7846050799885
 20
572.8422968016179
 30
0.0
 10
173.3116656296971
 20
572.44088027057
 30
0.0
 10
172.6022975488986
 20
571.82894622837
 30
0.0
 10
171.6936492473073
 20
570.7736284059432
 30
0.0
 10
171.1006816458459
 20
569.9450625231813
 30
0.0
 10
170.7197485417103
 20
569.3256736177001
 30
0.0
 10
170.5341625527316
 20
568.9998811707209
 30
0.0
 10
170.3783984919326
 20
568.7076463439042
 30
0.0
 10
170.2567686295253
 20
568.4640233375961
 30
0.0
 10
170.1750115635733
 20
568.2916302514844
 30
0.0
 10
170.1187740257187
 20
568.168046385403
 30
0.0
 10
170.0675600960244
 20
568.0523915788863
 30
0.0
 10
170.0100081330314
 20
567.9159587223893
 30
0.0
 10
169.9461809932018
 20
567.7525415395202
 30
0.0
 10
169.8980031346379
 20
567.6079350462227
 30
0.0
 10
169.8666216878235
 20
567.4656373594569
 30
0.0
 10
169.8851967338849
 20
567.3791019401594
 30
0.0
 10
169.9805960997262
 20
567.3546061098938
 30
0.0
 10
170.148176347161
 20
567.3720169153058
 30
0.0
 10
170.3346372785226
 20
567.3793512420158
 30
0.0
 10
170.4117086156931
 20
567.2620867233783
 30
0.0
 10
170.2516922783885
 20
566.9179616807309
 30
0.0
 10
169.9599785762633
 20
566.3645949343108
 30
0.0
 10
169.6114129685606
 20
565.6028747908815
 30
0.0
 10
169.2712640501026
 20
564.6538853768891
 30
0.0
 10
168.979769372443
 20
563.648248596724
 30
0.0
 10
168.7384014487179
 20
562.6868575493689
 30
0.0
 10
168.5285847150882
 20
561.7517812260455
 30
0.0
 10
168.3582382194704
 20
560.9097699724103
 30
0.0
 10
168.2138042576118
 20
560.1223861036069
 30
0.0
 10
168.0791211489355
 20
559.3150926245323
 30
0.0
 10
167.9338183773158
 20
558.3349786731974
 30
0.0
 10
167.7755795224887
 20
557.0977929497025
 30
0.0
 10
167.6045201004553
 20
555.4890582832612
 30
0.0
 10
167.43362250127
 20
553.5047453425468
 30
0.0
 10
167.2660824910506
 20
551.0809058819525
 30
0.0
 10
167.1708205362113
 20
549.4942992462153
 30
0.0
 10
167.1118688968769
 20
548.4885234293541
 30
0.0
  0
SPLINE
  5
CC
330
95
100
AcDbEntity
  8
$DDT_AUDIT_GENERATED_(97)
  6
Continuous
 62
     7
100
AcDbSpline
210
0.0
220
0.0
230
1.0
 70
     8
 71
     3
 72
    20
 73
    16
 74
     0
 42
0.0000000002266369
 43
0.0000000001
 40
0.6186047255034199
 40
0.6186047255034199
 40
0.6186047255034199
 40
0.6186047255034199
 40
0.6276242500728352
 40
0.6588340378892998
 40
0.6811831568142861
 40
0.6998562229179259
 40
0.7172757970676084
 40
0.7368323066453951
 40
0.761678696748071
 40
0.7903813547550272
 40
0.8240888186512829
 40
0.8333196055911336
 40
0.8419713805312649
 40
0.849374539121925
 40
0.852497934079437
 40
0.852497934079437
 40
0.852497934079437
 40
0.852497934079437
 10
167.5134829278852
 20
547.8037318571213
 30
0.0
 10
167.4834211820648
 20
547.6867374097526
 30
0.0
 10
167.3494697882576
 20
547.1600322405002
 30
0.0
 10
167.1431923787451
 20
546.305731483348
 30
0.0
 10
166.9164622264697
 20
545.2609636196423
 30
0.0
 10
166.7354662302495
 20
544.3301432857288
 30
0.0
 10
166.572325081509
 20
543.3747323268944
 30
0.0
 10
166.4238652201576
 20
542.3607362508811
 30
0.0
 10
166.2819649352503
 20
541.1444401519527
 30
0.0
 10
166.1812194180789
 20
539.8415984101379
 30
0.0
 10
166.1277964019019
 20
538.8845306740607
 30
0.0
 10
166.0774205743631
 20
538.1275031418234
 30
0.0
 10
166.0537299664866
 20
537.791353667746
 30
0.0
 10
166.041927167201
 20
537.6320214604273
 30
0.0
 10
166.040927341289
 20
537.6119370489595
 30
0.0
 10
166.0411927253564
 20
537.6119951865957
 30
0.0
  0
ARC
  5
CD
330
95
100
AcDbEntity
  8
$DDT_AUDIT_GENERATED_(97)
  6
Continuous
 62
     7
100
AcDbCircle
 10
192.7558097321
 20
559.5530814653
 30
0.0
 40
2.900000000000002
100
AcDbArc
 50
2.1734868476
 51
75.2396196765
  0
ARC
  5
CE
330
95
100
AcDbEntity
  8
$DDT_AUDIT_GENERATED_(97)
  6
Continuous
 62
     7
100
AcDbCircle
 10
169.3831619566
 20
559.5530815222
 30
0.0
 40
2.899999943550176
100
AcDbArc
 50
104.7590345183
 51
177.9848014009
  0
LINE
  5
CF
330
95
100
AcDbEntity
  8
$DDT_AUDIT_GENERATED_(97)
  6
Continuous
 62
     7
100
AcDbLine
 10
169.5694842348
 20
548.459834008
 30
0.0
 11
169.5694842348
 21
544.0564719265
 31
0.0
  0
LINE
  5
D0
330
95
100
AcDbEntity
  8
$DDT_AUDIT_GENERATED_(97)
  6
Continuous
 62
     7
100
AcDbLine
 10
192.5694842348
 20
544.0564719265
 30
0.0
 11
192.5694842348
 21
548.459834008
 31
0.0
  0
LINE
  5
D1
330
95
100
AcDbEntity
  8
$DDT_AUDIT_GENERATED_(97)
  6
Continuous
 62
     7
100
AcDbLine
 10
169.8275323858
 20
543.5571248274
 30
0.0
 11
170.3163129009
 21
543.0895731173
 31
0.0
  0
LINE
  5
D2
330
95
100
AcDbEntity
  8
$DDT_AUDIT_GENERATED_(97)
  6
Continuous
 62
     7
100
AcDbLine
 10
191.8226555687
 20
543.0895731173
 30
0.0
 11
192.3114360839
 21
543.5571248274
 31
0.0
  0
ARC
  5
D3
330
95
100
AcDbEntity
  8
$DDT_AUDIT_GENERATED_(97)
  6
Continuous
 62
     7
100
AcDbCircle
 10
181.1555077344
 20
581.5076773026
 30
0.0
 40
9.999999999999877
100
AcDbArc
 50
307.4403325369
 51
90.0
  0
ARC
  5
D4
330
95
100
AcDbEntity
  8
$DDT_AUDIT_GENERATED_(97)
  6
Continuous
 62
     7
100
AcDbCircle
 10
180.9834607352
 20
581.5076773026
 30
0.0
 40
9.99999999999987
100
AcDbArc
 50
90.0
 51
232.2753109079
  0
LINE
  5
D5
330
95
100
AcDbEntity
  8
$DDT_AUDIT_GENERATED_(97)
  6
Continuous
 62
     7
100
AcDbLine
 10
181.1555077344
 20
591.5076773026
 30
0.0
 11
180.9834607352
 21
591.5076773026
 31
0.0
  0
LINE
  5
D7
330
95
100
AcDbEntity
  8
$DDT_AUDIT_GENERATED_(D6)
  6
Continuous
 62
     7
100
AcDbLine
 10
72.6194842348
 20
536.7598330428
 30
0.0
 11
89.5194842348
 21
536.7598330428
 31
0.0
  0
LINE
  5
D8
330
95
100
AcDbEntity
  8
$DDT_AUDIT_GENERATED_(D6)
  6
Continuous
 62
     7
100
AcDbLine
 10
89.6194842348
 20
536.6598330428
 30
0.0
 11
89.5194842348
 21
536.7598330428
 31
0.0
  0
LINE
  5
D9
330
95
100
AcDbEntity
  8
$DDT_AUDIT_GENERATED_(D6)
  6
Continuous
 62
     7
100
AcDbLine
 10
72.6194842348
 20
536.7598330428
 30
0.0
 11
72.5194842348
 21
536.6598330428
 31
0.0
  0
LINE
  5
DB
330
95
100
AcDbEntity
  8
00300038_KAPPE_S
  6
Continuous
 62
     7
100
AcDbLine
 10
58.576316068
 20
504.7765256353
 30
0.0
 11
103.5626524016
 21
504.7765256353
 31
0.0
  0
LINE
  5
DC
330
95
100
AcDbEntity
  8
00300038_KAPPE_S
  6
Continuous
 62
     7
100
AcDbLine
 10
69.7928535985
 20
536.6598330428
 30
0.0
 11
92.3461148711
 21
536.6598330428
 31
0.0
  0
ARC
  5
DD
330
95
100
AcDbEntity
  8
00300038_KAPPE_S
  6
Continuous
 62
     7
100
AcDbCircle
 10
59.5694841498
 20
504.6598330428
 30
0.0
 40
0.9999999999999946
100
AcDbArc
 50
173.2987391621
 51
224.9624175916
  0
ARC
  5
DE
330
95
100
AcDbEntity
  8
00300038_KAPPE_S
  6
Continuous
 62
     7
100
AcDbCircle
 10
102.5694843198
 20
504.6598330428
 30
0.0
 40
0.9999999999999981
100
AcDbArc
 50
315.0375824084
 51
6.7012608379
  0
ARC
  5
DF
330
95
100
AcDbEntity
  8
00300038_KAPPE_S
  6
Continuous
 62
     7
100
AcDbCircle
 10
38.8212656652
 20
536.9867621626
 30
0.0
 40
30.0
100
AcDbArc
 50
328.1774305861
 51
357.546752463
  0
ARC
  5
E0
330
95
100
AcDbEntity
  8
00300038_KAPPE_S
  6
Continuous
 62
     7
100
AcDbCircle
 10
123.3177028044
 20
536.9867621626
 30
0.0
 40
30.0
100
AcDbArc
 50
182.453247537
 51
211.8225694139
  0
ARC
  5
E1
330
95
100
AcDbEntity
  8
00300038_KAPPE_S
  6
Continuous
 62
     7
100
AcDbCircle
 10
63.8397490531
 20
500.0764246195
 30
0.0
 40
40.00000000000001
100
AcDbArc
 50
6.7479880362
 51
31.8225694139
  0
ARC
  5
E2
330
95
100
AcDbEntity
  8
00300038_KAPPE_S
  6
Continuous
 62
     7
100
AcDbCircle
 10
98.2992194166
 20
500.0764246195
 30
0.0
 40
40.00000000000001
100
AcDbArc
 50
148.1774305861
 51
173.2520119638
  0
ARC
  5
E3
330
95
100
AcDbEntity
  8
00300038_KAPPE_S
  6
Continuous
 62
     7
100
AcDbCircle
 10
92.3461148711
 20
535.6598330428
 30
0.0
 40
0.9999999999999907
100
AcDbArc
 50
2.453247537
 51
90.0
  0
ARC
  5
E4
330
95
100
AcDbEntity
  8
00300038_KAPPE_S
  6
Continuous
 62
     7
100
AcDbCircle
 10
69.7928535985
 20
535.6598330428
 30
0.0
 40
1.000000000000001
100
AcDbArc
 50
90.0
 51
177.546752463
  0
LINE
  5
E6
330
95
100
AcDbEntity
  8
00315038_ROSETTE
  6
Continuous
 62
     7
100
AcDbLine
 10
57.4721878795
 20
503.7081440724
 30
0.0
 11
104.6667805901
 21
503.7081440724
 31
0.0
  0
LINE
  5
E7
330
95
100
AcDbEntity
  8
00315038_ROSETTE
  6
Continuous
 62
     7
100
AcDbLine
 10
54.5694842348
 20
499.2598330428
 30
0.0
 11
107.5694842348
 21
499.2598330428
 31
0.0
  0
LINE
  5
E8
330
95
100
AcDbEntity
  8
00315038_ROSETTE
  6
Continuous
 62
     7
100
AcDbLine
 10
54.5694842348
 20
495.2598330428
 30
0.0
 11
107.5694842348
 21
495.2598330428
 31
0.0
  0
LINE
  5
E9
330
95
100
AcDbEntity
  8
00315038_ROSETTE
  6
Continuous
 62
     7
100
AcDbLine
 10
104.6667805901
 20
503.7081440724
 30
0.0
 11
103.2770547661
 21
503.953190231
 31
0.0
  0
LINE
  5
EA
330
95
100
AcDbEntity
  8
00315038_ROSETTE
  6
Continuous
 62
     7
100
AcDbLine
 10
58.8619137035
 20
503.953190231
 30
0.0
 11
57.4721878795
 21
503.7081440724
 31
0.0
  0
ARC
  5
EB
330
95
100
AcDbEntity
  8
00315038_ROSETTE
  6
Continuous
 62
     7
100
AcDbCircle
 10
57.8194842348
 20
501.7385285664
 30
0.0
 40
2.000000000000004
100
AcDbArc
 50
100.0
 51
232.3238678277
  0
ARC
  5
EC
330
95
100
AcDbEntity
  8
00315038_ROSETTE
  6
Continuous
 62
     7
100
AcDbCircle
 10
104.3194842348
 20
501.7385285664
 30
0.0
 40
2.000000000000005
100
AcDbArc
 50
307.6761321723
 51
80.0
  0
ARC
  5
ED
330
95
100
AcDbEntity
  8
00315038_ROSETTE
  6
Continuous
 62
     7
100
AcDbCircle
 10
56.2914907712
 20
499.7598330428
 30
0.0
 40
0.5000000000000026
100
AcDbArc
 50
270.0
 51
52.3238678277
  0
ARC
  5
EE
330
95
100
AcDbEntity
  8
00315038_ROSETTE
  6
Continuous
 62
     7
100
AcDbCircle
 10
105.8474776984
 20
499.7598330428
 30
0.0
 40
0.5000000000000004
100
AcDbArc
 50
127.6761321723
 51
270.0
  0
ARC
  5
EF
330
95
100
AcDbEntity
  8
00315038_ROSETTE
  6
Continuous
 62
     7
100
AcDbCircle
 10
54.5694842348
 20
497.2598330428
 30
0.0
 40
1.999999999999999
100
AcDbArc
 50
90.0
 51
270.0
  0
ARC
  5
F0
330
95
100
AcDbEntity
  8
00315038_ROSETTE
  6
Continuous
 62
     7
100
AcDbCircle
 10
107.5694842348
 20
497.2598330428
 30
0.0
 40
1.999999999999998
100
AcDbArc
 50
270.0
 51
90.0
  0
LINE
  5
F1
330
95
100
AcDbEntity
  8
$DDT_AUDIT_GENERATED_(97)
  6
Continuous
 62
     7
100
AcDbLine
 10
74.3194842348
 20
537.1598330428
 30
0.0
 11
87.8194842348
 21
537.1598330428
 31
0.0
  0
LINE
  5
F2
330
95
100
AcDbEntity
  8
$DDT_AUDIT_GENERATED_(97)
  6
Continuous
 62
     7
100
AcDbLine
 10
93.0694842348
 20
541.6598330428
 30
0.0
 11
85.6190327859
 21
541.6598330428
 31
0.0
  0
LINE
  5
F3
330
95
100
AcDbEntity
  8
$DDT_AUDIT_GENERATED_(97)
  6
Continuous
 62
     7
100
AcDbLine
 10
76.5199356837
 20
541.6598330428
 30
0.0
 11
69.0694842348
 21
541.6598330428
 31
0.0
  0
LINE
  5
F4
330
95
100
AcDbEntity
  8
$DDT_AUDIT_GENERATED_(97)
  6
Continuous
 62
     7
100
AcDbLine
 10
69.0694842348
 20
555.6598330428
 30
0.0
 11
93.0694842348
 21
555.6598330428
 31
0.0
  0
ARC
  5
F5
330
95
100
AcDbEntity
  8
$DDT_AUDIT_GENERATED_(97)
  6
Continuous
 62
     7
100
AcDbCircle
 10
103.8688370447
 20
546.8779003118
 30
0.0
 40
10.6684339485309
100
AcDbArc
 50
156.7673815908
 51
203.2402311779
  0
LINE
  5
F6
330
95
100
AcDbEntity
  8
$DDT_AUDIT_GENERATED_(97)
  6
Continuous
 62
     7
100
AcDbLine
 10
94.0993551305
 20
551.0740391157
 30
0.0
 11
94.0993551305
 21
542.6820753765
 31
0.0
  0
LINE
  5
F7
330
95
100
AcDbEntity
  8
$DDT_AUDIT_GENERATED_(97)
  6
Continuous
 62
     7
100
AcDbLine
 10
100.1054930827
 20
551.3065357186
 30
0.0
 11
100.1054930827
 21
542.4495787735
 31
0.0
  0
LINE
  5
F8
330
95
100
AcDbEntity
  8
$DDT_AUDIT_GENERATED_(97)
  6
Continuous
 62
     7
100
AcDbLine
 10
101.3657409631
 20
551.3065357186
 30
0.0
 11
101.3657409631
 21
542.4495787735
 31
0.0
  0
LINE
  5
F9
330
95
100
AcDbEntity
  8
$DDT_AUDIT_GENERATED_(97)
  6
Continuous
 62
     7
100
AcDbLine
 10
102.4587467157
 20
550.6907615527
 30
0.0
 11
102.4587467157
 21
543.0653529394
 31
0.0
  0
LINE
  5
FA
330
95
100
AcDbEntity
  8
$DDT_AUDIT_GENERATED_(97)
  6
Continuous
 62
     7
100
AcDbLine
 10
62.033475387
 20
542.4495787735
 30
0.0
 11
62.033475387
 21
551.3065357186
 31
0.0
  0
LINE
  5
FB
330
95
100
AcDbEntity
  8
$DDT_AUDIT_GENERATED_(97)
  6
Continuous
 62
     7
100
AcDbLine
 10
60.7732275065
 20
542.4495787735
 30
0.0
 11
60.7732275065
 21
551.3065357186
 31
0.0
  0
LINE
  5
FC
330
95
100
AcDbEntity
  8
$DDT_AUDIT_GENERATED_(97)
  6
Continuous
 62
     7
100
AcDbLine
 10
59.6802217539
 20
543.0653529394
 30
0.0
 11
59.6802217539
 21
550.6907615527
 31
0.0
  0
LINE
  5
FD
330
95
100
AcDbEntity
  8
$DDT_AUDIT_GENERATED_(97)
  6
Continuous
 62
     7
100
AcDbLine
 10
89.5694842348
 20
558.1598330428
 30
0.0
 11
72.5694842348
 21
558.1598330428
 31
0.0
  0
LINE
  5
FE
330
95
100
AcDbEntity
  8
$DDT_AUDIT_GENERATED_(97)
  6
Continuous
 62
     7
100
AcDbLine
 10
91.5694842348
 20
557.6239346579
 30
0.0
 11
70.5694842348
 21
557.6239346579
 31
0.0
  0
LINE
  5
FF
330
95
100
AcDbEntity
  8
$DDT_AUDIT_GENERATED_(97)
  6
Continuous
 62
     7
100
AcDbLine
 10
87.8194842348
 20
536.7598330428
 30
0.0
 11
87.8194842348
 21
537.1598330428
 31
0.0
  0
LINE
  5
100
330
95
100
AcDbEntity
  8
$DDT_AUDIT_GENERATED_(97)
  6
Continuous
 62
     7
100
AcDbLine
 10
74.3194842348
 20
537.1598330428
 30
0.0
 11
74.3194842348
 21
536.7598330428
 31
0.0
  0
LINE
  5
101
330
95
100
AcDbEntity
  8
$DDT_AUDIT_GENERATED_(97)
  6
Continuous
 62
     7
100
AcDbLine
 10
89.5694842348
 20
539.1441465261
 30
0.0
 11
89.5694842348
 21
539.6598330428
 31
0.0
  0
LINE
  5
102
330
95
100
AcDbEntity
  8
$DDT_AUDIT_GENERATED_(97)
  6
Continuous
 62
     7
100
AcDbLine
 10
72.5694842348
 20
539.6598330428
 30
0.0
 11
72.5694842348
 21
539.1441465261
 31
0.0
  0
LINE
  5
103
330
95
100
AcDbEntity
  8
$DDT_AUDIT_GENERATED_(97)
  6
Continuous
 62
     7
100
AcDbLine
 10
94.0694842348
 20
551.0864003553
 30
0.0
 11
94.0694842348
 21
554.6598330428
 31
0.0
  0
LINE
  5
104
330
95
100
AcDbEntity
  8
$DDT_AUDIT_GENERATED_(97)
  6
Continuous
 62
     7
100
AcDbLine
 10
68.0694842348
 20
554.6598330428
 30
0.0
 11
68.0694842348
 21
551.0247704204
 31
0.0
  0
ARC
  5
105
330
95
100
AcDbEntity
  8
$DDT_AUDIT_GENERATED_(97)
  6
Continuous
 62
     7
100
AcDbCircle
 10
87.5694842348
 20
539.1441465261
 30
0.0
 40
2.000000000000001
100
AcDbArc
 50
277.1807557815
 51
0.0
  0
ARC
  5
106
330
95
100
AcDbEntity
  8
$DDT_AUDIT_GENERATED_(97)
  6
Continuous
 62
     7
100
AcDbCircle
 10
74.5694842348
 20
539.1441465261
 30
0.0
 40
2.000000000000002
100
AcDbArc
 50
180.0
 51
262.8192442185
  0
ARC
  5
107
330
95
100
AcDbEntity
  8
$DDT_AUDIT_GENERATED_(97)
  6
Continuous
 62
     7
100
AcDbCircle
 10
91.5694842348
 20
539.6598330428
 30
0.0
 40
2.000000000000002
100
AcDbArc
 50
90.0
 51
180.0
  0
ARC
  5
108
330
95
100
AcDbEntity
  8
$DDT_AUDIT_GENERATED_(97)
  6
Continuous
 62
     7
100
AcDbCircle
 10
70.5694842348
 20
539.6598330428
 30
0.0
 40
1.999999999999995
100
AcDbArc
 50
0.0
 51
90.0
  0
ARC
  5
109
330
95
100
AcDbEntity
  8
$DDT_AUDIT_GENERATED_(97)
  6
Continuous
 62
     7
100
AcDbCircle
 10
93.0694842348
 20
542.6598330428
 30
0.0
 40
1.000000000000001
100
AcDbArc
 50
270.0
 51
0.0
  0
ARC
  5
10A
330
95
100
AcDbEntity
  8
$DDT_AUDIT_GENERATED_(97)
  6
Continuous
 62
     7
100
AcDbCircle
 10
69.0694842348
 20
542.6598330428
 30
0.0
 40
1.000000000000001
100
AcDbArc
 50
180.0
 51
270.0
  0
ARC
  5
10B
330
95
100
AcDbEntity
  8
$DDT_AUDIT_GENERATED_(97)
  6
Continuous
 62
     7
100
AcDbCircle
 10
93.0694842348
 20
554.6598330428
 30
0.0
 40
1.000000000000001
100
AcDbArc
 50
0.0
 51
90.0
  0
ARC
  5
10C
330
95
100
AcDbEntity
  8
$DDT_AUDIT_GENERATED_(97)
  6
Continuous
 62
     7
100
AcDbCircle
 10
69.0694842348
 20
554.6598330428
 30
0.0
 40
1.000000000000001
100
AcDbArc
 50
90.0
 51
180.0
  0
ARC
  5
10D
330
95
100
AcDbEntity
  8
$DDT_AUDIT_GENERATED_(97)
  6
Continuous
 62
     7
100
AcDbCircle
 10
96.897032112
 20
556.4962258171
 30
0.0
 40
6.101401897797881
100
AcDbArc
 50
242.7076959454
 51
301.7259106494
  0
ARC
  5
10E
330
95
100
AcDbEntity
  8
$DDT_AUDIT_GENERATED_(97)
  6
Continuous
 62
     7
100
AcDbCircle
 10
96.897032112
 20
537.259888675
 30
0.0
 40
6.101401897797891
100
AcDbArc
 50
58.2740893506
 51
117.2923040546
  0
LINE
  5
10F
330
95
100
AcDbEntity
  8
$DDT_AUDIT_GENERATED_(97)
  6
Continuous
 62
     7
100
AcDbLine
 10
101.3657409631
 20
551.3065357186
 30
0.0
 11
100.1054930827
 21
551.3065357186
 31
0.0
  0
LINE
  5
110
330
95
100
AcDbEntity
  8
$DDT_AUDIT_GENERATED_(97)
  6
Continuous
 62
     7
100
AcDbLine
 10
100.1054930827
 20
542.4495787735
 30
0.0
 11
101.3657409631
 21
542.4495787735
 31
0.0
  0
LINE
  5
111
330
95
100
AcDbEntity
  8
$DDT_AUDIT_GENERATED_(97)
  6
Continuous
 62
     7
100
AcDbLine
 10
102.4587467157
 20
550.6907615527
 30
0.0
 11
101.3657409631
 21
550.6907615527
 31
0.0
  0
LINE
  5
112
330
95
100
AcDbEntity
  8
$DDT_AUDIT_GENERATED_(97)
  6
Continuous
 62
     7
100
AcDbLine
 10
101.3657409631
 20
543.0653529394
 30
0.0
 11
102.4587467157
 21
543.0653529394
 31
0.0
  0
SPLINE
  5
113
330
95
100
AcDbEntity
  8
$DDT_AUDIT_GENERATED_(97)
  6
Continuous
 62
     7
100
AcDbSpline
210
0.0
220
0.0
230
1.0
 70
     8
 71
     3
 72
    22
 73
    18
 74
     0
 42
0.0000000006406317
 43
0.0000000001
 40
0.0
 40
0.0
 40
0.0
 40
0.0
 40
0.0387428946632271
 40
0.0764842388972081
 40
0.1143321871672151
 40
0.189497769604236
 40
0.3015199682265925
 40
0.411403643295854
 40
0.5216525276783495
 40
0.6032992406681157
 40
0.6847364583045066
 40
0.7258433937200116
 40
0.7667245709161282
 40
0.8034647450775144
 40
0.8243945372381425
 40
0.9086978696336192
 40
1.0
 40
1.0
 40
1.0
 40
1.0
 10
112.7259224263212
 20
547.0949178890627
 30
0.0
 10
112.7210443262303
 20
547.3148933557632
 30
0.0
 10
112.7108433846085
 20
547.6810648649208
 30
0.0
 10
112.6311091257001
 20
548.2783205286042
 30
0.0
 10
112.4708896125696
 20
549.0366519850926
 30
0.0
 10
112.1357900428572
 20
550.1537414916464
 30
0.0
 10
111.4103208341216
 20
551.5279399724565
 30
0.0
 10
110.1778000509657
 20
552.7544200630518
 30
0.0
 10
108.7982404953562
 20
553.5249043208113
 30
0.0
 10
107.4077600653466
 20
553.8515978458536
 30
0.0
 10
106.3382790985327
 20
553.772770871089
 30
0.0
 10
105.5287198276055
 20
553.5277679643718
 30
0.0
 10
104.9684273579319
 20
553.2749394269484
 30
0.0
 10
104.5331507731391
 20
553.0083858336595
 30
0.0
 10
103.9478420687707
 20
552.5683338704911
 30
0.0
 10
103.2339200049614
 20
551.8047296575904
 30
0.0
 10
102.749188758686
 20
551.1203098995016
 30
0.0
 10
102.4587467157016
 20
550.6907615527409
 30
0.0
  0
SPLINE
  5
114
330
95
100
AcDbEntity
  8
$DDT_AUDIT_GENERATED_(97)
  6
Continuous
 62
     7
100
AcDbSpline
210
0.0
220
0.0
230
1.0
 70
     8
 71
     3
 72
    21
 73
    17
 74
     0
 42
0.0000000006404439
 43
0.0000000001
 40
0.0
 40
0.0
 40
0.0
 40
0.0
 40
0.0913084166638563
 40
0.1756175534783928
 40
0.2063892599031855
 40
0.2604639145488636
 40
0.3152163964968823
 40
0.3966592212157537
 40
0.478311555712092
 40
0.5885680309063328
 40
0.6984592716420962
 40
0.8104891831717168
 40
0.8856599408791204
 40
0.9235104950408056
 40
0.9612544378266067
 40
1.0
 40
1.0
 40
1.0
 40
1.0
 10
102.4587467157016
 20
543.0653529394026
 30
0.0
 10
102.7491887586861
 20
542.635804592642
 30
0.0
 10
103.2340788382174
 20
541.9512050853799
 30
0.0
 10
103.9832129735835
 20
541.1499713727718
 30
0.0
 10
104.6892508298719
 20
540.6370420649373
 30
0.0
 10
105.3296541291011
 20
540.2967383287184
 30
0.0
 10
106.2671267910061
 20
539.9888924996286
 30
0.0
 10
107.4076678866463
 20
539.9044294254181
 30
0.0
 10
108.7982750254154
 20
540.2312428441934
 30
0.0
 10
110.1777896927677
 20
541.001684628009
 30
0.0
 10
111.410323706643
 20
542.2281772377102
 30
0.0
 10
112.1357895307873
 20
543.6023725159689
 30
0.0
 10
112.4708896650762
 20
544.7194625567336
 30
0.0
 10
112.631109115765
 20
545.4777939541385
 30
0.0
 10
112.7108433875243
 20
546.0750496299819
 30
0.0
 10
112.7210443262303
 20
546.4412211363804
 30
0.0
 10
112.7259224263212
 20
546.6611966030807
 30
0.0
  0
LINE
  5
115
330
95
100
AcDbEntity
  8
$DDT_AUDIT_GENERATED_(97)
  6
Continuous
 62
     7
100
AcDbLine
 10
112.7259224263
 20
546.6611966031
 30
0.0
 11
112.7259224263
 21
547.0949178891
 31
0.0
  0
CIRCLE
  5
116
330
95
100
AcDbEntity
  8
$DDT_AUDIT_GENERATED_(97)
  6
Continuous
 62
     7
100
AcDbCircle
 10
81.0694842348
 20
546.8780572461
 30
0.0
 40
6.923023606403192
  0
LINE
  5
117
330
95
100
AcDbEntity
  8
$DDT_AUDIT_GENERATED_(97)
  6
Continuous
 62
     7
100
AcDbLine
 10
68.0628728113
 20
551.0860402683
 30
0.0
 11
68.0396133391
 21
551.0740391157
 31
0.0
  0
ARC
  5
118
330
95
100
AcDbEntity
  8
$DDT_AUDIT_GENERATED_(97)
  6
Continuous
 62
     7
100
AcDbCircle
 10
65.2419363576
 20
537.259888675
 30
0.0
 40
6.101401897797887
100
AcDbArc
 50
62.7076959454
 51
121.7259106494
  0
ARC
  5
119
330
95
100
AcDbEntity
  8
$DDT_AUDIT_GENERATED_(97)
  6
Continuous
 62
     7
100
AcDbCircle
 10
65.2419363576
 20
556.4962258171
 30
0.0
 40
6.101401897797884
100
AcDbArc
 50
238.2740893506
 51
297.2923040546
  0
LINE
  5
11A
330
95
100
AcDbEntity
  8
$DDT_AUDIT_GENERATED_(97)
  6
Continuous
 62
     7
100
AcDbLine
 10
60.7732275065
 20
542.4495787735
 30
0.0
 11
62.033475387
 21
542.4495787735
 31
0.0
  0
LINE
  5
11B
330
95
100
AcDbEntity
  8
$DDT_AUDIT_GENERATED_(97)
  6
Continuous
 62
     7
100
AcDbLine
 10
62.033475387
 20
551.3065357186
 30
0.0
 11
60.7732275065
 21
551.3065357186
 31
0.0
  0
LINE
  5
11C
330
95
100
AcDbEntity
  8
$DDT_AUDIT_GENERATED_(97)
  6
Continuous
 62
     7
100
AcDbLine
 10
59.6802217539
 20
543.0653529394
 30
0.0
 11
60.7732275065
 21
543.0653529394
 31
0.0
  0
LINE
  5
11D
330
95
100
AcDbEntity
  8
$DDT_AUDIT_GENERATED_(97)
  6
Continuous
 62
     7
100
AcDbLine
 10
60.7732275065
 20
550.6907615527
 30
0.0
 11
59.6802217539
 21
550.6907615527
 31
0.0
  0
SPLINE
  5
11E
330
95
100
AcDbEntity
  8
$DDT_AUDIT_GENERATED_(97)
  6
Continuous
 62
     7
100
AcDbSpline
210
0.0
220
0.0
230
1.0
 70
     8
 71
     3
 72
    22
 73
    18
 74
     0
 42
0.0000000006406317
 43
0.0000000001
 40
0.0
 40
0.0
 40
0.0
 40
0.0
 40
0.0387428946632267
 40
0.0764842388972075
 40
0.1143321871672145
 40
0.1894977696042354
 40
0.3015199682265923
 40
0.4114036432958539
 40
0.5216525276783497
 40
0.6032992406681152
 40
0.6847364583045061
 40
0.7258433937200109
 40
0.7667245709161283
 40
0.8034647450775149
 40
0.8243945372381424
 40
0.9086978696336191
 40
1.0
 40
1.0
 40
1.0
 40
1.0
 10
49.41304604329277
 20
546.6611966030807
 30
0.0
 10
49.41792414338372
 20
546.4412211363804
 30
0.0
 10
49.4281250850056
 20
546.0750496272227
 30
0.0
 10
49.50785934391377
 20
545.4777939635394
 30
0.0
 10
49.66807885704436
 20
544.7194625070509
 30
0.0
 10
50.00317842675686
 20
543.6023730004971
 30
0.0
 10
50.72864763549232
 20
542.2281745196872
 30
0.0
 10
51.96116841864834
 20
541.0016944290917
 30
0.0
 10
53.3407279742577
 20
540.2312101713324
 30
0.0
 10
54.73120840426737
 20
539.90451664629
 30
0.0
 10
55.80068937108123
 20
539.9833436210545
 30
0.0
 10
56.61024864200849
 20
540.2283465277716
 30
0.0
 10
57.17054111168201
 20
540.4811750651951
 30
0.0
 10
57.60581769647501
 20
540.747728658484
 30
0.0
 10
58.1911264008431
 20
541.1877806216526
 30
0.0
 10
58.90504846465265
 20
541.9513848345531
 30
0.0
 10
59.38977971092793
 20
542.635804592642
 30
0.0
 10
59.68022175391238
 20
543.0653529394026
 30
0.0
  0
SPLINE
  5
11F
330
95
100
AcDbEntity
  8
$DDT_AUDIT_GENERATED_(97)
  6
Continuous
 62
     7
100
AcDbSpline
210
0.0
220
0.0
230
1.0
 70
     8
 71
     3
 72
    21
 73
    17
 74
     0
 42
0.0000000006404439
 43
0.0000000001
 40
0.0
 40
0.0
 40
0.0
 40
0.0
 40
0.0913084166638567
 40
0.1756175534783936
 40
0.2063892599031865
 40
0.260463914548864
 40
0.3152163964968827
 40
0.3966592212157551
 40
0.4783115557120933
 40
0.5885680309063341
 40
0.698459271642098
 40
0.8104891831717181
 40
0.8856599408791225
 40
0.9235104950408074
 40
0.9612544378266076
 40
1.0
 40
1.0
 40
1.0
 40
1.0
 10
59.68022175391237
 20
550.6907615527409
 30
0.0
 10
59.38977971092793
 20
551.1203098995016
 30
0.0
 10
58.90488963139661
 20
551.8049094067638
 30
0.0
 10
58.15575549603022
 20
552.6061431193718
 30
0.0
 10
57.44971763974224
 20
553.1190724272061
 30
0.0
 10
56.80931434051276
 20
553.4593761634251
 30
0.0
 10
55.87184167860784
 20
553.767221992515
 30
0.0
 10
54.73130058296777
 20
553.8516850667253
 30
0.0
 10
53.34069344419845
 20
553.5248716479501
 30
0.0
 10
51.96117877684633
 20
552.7544298641346
 30
0.0
 10
50.72864476297092
 20
551.5279372544334
 30
0.0
 10
50.00317893882688
 20
550.1537419761746
 30
0.0
 10
49.66807880453758
 20
549.0366519354101
 30
0.0
 10
49.50785935384894
 20
548.278320538005
 30
0.0
 10
49.42812508208971
 20
547.6810648621617
 30
0.0
 10
49.41792414338369
 20
547.3148933557632
 30
0.0
 10
49.41304604329274
 20
547.0949178890627
 30
0.0
  0
LINE
  5
120
330
95
100
AcDbEntity
  8
$DDT_AUDIT_GENERATED_(97)
  6
Continuous
 62
     7
100
AcDbLine
 10
49.4130460433
 20
547.0949178891
 30
0.0
 11
49.4130460433
 21
546.6611966031
 31
0.0
  0
ARC
  5
121
330
95
100
AcDbEntity
  8
$DDT_AUDIT_GENERATED_(97)
  6
Continuous
 62
     7
100
AcDbCircle
 10
84.3911653181
 20
343.7788690172
 30
0.0
 40
214.7066600740566
100
AcDbArc
 50
90.8864461851
 51
93.1562836956
  0
ARC
  5
122
330
95
100
AcDbEntity
  8
$DDT_AUDIT_GENERATED_(97)
  6
Continuous
 62
     7
100
AcDbCircle
 10
77.7478031516
 20
343.7788690172
 30
0.0
 40
214.7066600740566
100
AcDbArc
 50
86.8437163044
 51
89.1135538149
  0
LINE
  5
123
330
95
100
AcDbEntity
  8
$DDT_AUDIT_GENERATED_(97)
  6
Continuous
 62
     7
100
AcDbLine
 10
91.5694842348
 20
557.6239346579
 30
0.0
 11
89.5694842348
 21
558.1598330428
 31
0.0
  0
LINE
  5
124
330
95
100
AcDbEntity
  8
$DDT_AUDIT_GENERATED_(97)
  6
Continuous
 62
     7
100
AcDbLine
 10
72.5694842348
 20
558.1598330428
 30
0.0
 11
70.5694842348
 21
557.6239346579
 31
0.0
  0
LINE
  5
125
330
95
100
AcDbEntity
  8
$DDT_AUDIT_GENERATED_(97)
  6
Continuous
 62
     7
100
AcDbLine
 10
91.5694842348
 20
555.6598330428
 30
0.0
 11
91.5694842348
 21
557.6239346579
 31
0.0
  0
LINE
  5
126
330
95
100
AcDbEntity
  8
$DDT_AUDIT_GENERATED_(97)
  6
Continuous
 62
     7
100
AcDbLine
 10
70.5694842348
 20
557.6239346579
 30
0.0
 11
70.5694842348
 21
555.6598330428
 31
0.0
  0
LINE
  5
127
330
95
100
AcDbEntity
  8
$DDT_AUDIT_GENERATED_(D6)
  6
Continuous
 62
     7
100
AcDbLine
 10
272.6194842348
 20
536.7598330428
 30
0.0
 11
289.5194842348
 21
536.7598330428
 31
0.0
  0
LINE
  5
128
330
95
100
AcDbEntity
  8
$DDT_AUDIT_GENERATED_(D6)
  6
Continuous
 62
     7
100
AcDbLine
 10
289.6194842348
 20
536.6598330428
 30
0.0
 11
289.5194842348
 21
536.7598330428
 31
0.0
  0
LINE
  5
129
330
95
100
AcDbEntity
  8
$DDT_AUDIT_GENERATED_(D6)
  6
Continuous
 62
     7
100
AcDbLine
 10
272.6194842348
 20
536.7598330428
 30
0.0
 11
272.5194842348
 21
536.6598330428
 31
0.0
  0
LINE
  5
12A
330
95
100
AcDbEntity
  8
00300038_KAPPE_S
  6
Continuous
 62
     7
100
AcDbLine
 10
258.576316068
 20
504.7765256353
 30
0.0
 11
303.5626524016
 21
504.7765256353
 31
0.0
  0
LINE
  5
12B
330
95
100
AcDbEntity
  8
00300038_KAPPE_S
  6
Continuous
 62
     7
100
AcDbLine
 10
269.7928535985
 20
536.6598330428
 30
0.0
 11
292.3461148711
 21
536.6598330428
 31
0.0
  0
ARC
  5
12C
330
95
100
AcDbEntity
  8
00300038_KAPPE_S
  6
Continuous
 62
     7
100
AcDbCircle
 10
259.5694841498
 20
504.6598330428
 30
0.0
 40
1.000000000000008
100
AcDbArc
 50
173.2987391621
 51
224.9624175916
  0
ARC
  5
12D
330
95
100
AcDbEntity
  8
00300038_KAPPE_S
  6
Continuous
 62
     7
100
AcDbCircle
 10
302.5694843198
 20
504.6598330428
 30
0.0
 40
0.9999999999999981
100
AcDbArc
 50
315.0375824084
 51
6.7012608379
  0
ARC
  5
12E
330
95
100
AcDbEntity
  8
00300038_KAPPE_S
  6
Continuous
 62
     7
100
AcDbCircle
 10
238.8212656652
 20
536.9867621626
 30
0.0
 40
30.0
100
AcDbArc
 50
328.1774305861
 51
357.546752463
  0
ARC
  5
12F
330
95
100
AcDbEntity
  8
00300038_KAPPE_S
  6
Continuous
 62
     7
100
AcDbCircle
 10
323.3177028044
 20
536.9867621626
 30
0.0
 40
30.0
100
AcDbArc
 50
182.453247537
 51
211.8225694139
  0
ARC
  5
130
330
95
100
AcDbEntity
  8
00300038_KAPPE_S
  6
Continuous
 62
     7
100
AcDbCircle
 10
263.8397490531
 20
500.0764246195
 30
0.0
 40
39.99999999999999
100
AcDbArc
 50
6.7479880362
 51
31.8225694139
  0
ARC
  5
131
330
95
100
AcDbEntity
  8
00300038_KAPPE_S
  6
Continuous
 62
     7
100
AcDbCircle
 10
298.2992194166
 20
500.0764246195
 30
0.0
 40
40.00000000000001
100
AcDbArc
 50
148.1774305861
 51
173.2520119638
  0
ARC
  5
132
330
95
100
AcDbEntity
  8
00300038_KAPPE_S
  6
Continuous
 62
     7
100
AcDbCircle
 10
292.3461148711
 20
535.6598330428
 30
0.0
 40
0.9999999999999907
100
AcDbArc
 50
2.453247537
 51
90.0
  0
ARC
  5
133
330
95
100
AcDbEntity
  8
00300038_KAPPE_S
  6
Continuous
 62
     7
100
AcDbCircle
 10
269.7928535985
 20
535.6598330428
 30
0.0
 40
1.000000000000001
100
AcDbArc
 50
90.0
 51
177.546752463
  0
LINE
  5
134
330
95
100
AcDbEntity
  8
00315038_ROSETTE
  6
Continuous
 62
     7
100
AcDbLine
 10
257.4721878795
 20
503.7081440724
 30
0.0
 11
304.6667805901
 21
503.7081440724
 31
0.0
  0
LINE
  5
135
330
95
100
AcDbEntity
  8
00315038_ROSETTE
  6
Continuous
 62
     7
100
AcDbLine
 10
254.5694842348
 20
499.2598330428
 30
0.0
 11
307.5694842348
 21
499.2598330428
 31
0.0
  0
LINE
  5
136
330
95
100
AcDbEntity
  8
00315038_ROSETTE
  6
Continuous
 62
     7
100
AcDbLine
 10
254.5694842348
 20
495.2598330428
 30
0.0
 11
307.5694842348
 21
495.2598330428
 31
0.0
  0
LINE
  5
137
330
95
100
AcDbEntity
  8
00315038_ROSETTE
  6
Continuous
 62
     7
100
AcDbLine
 10
304.6667805901
 20
503.7081440724
 30
0.0
 11
303.2770547661
 21
503.953190231
 31
0.0
  0
LINE
  5
138
330
95
100
AcDbEntity
  8
00315038_ROSETTE
  6
Continuous
 62
     7
100
AcDbLine
 10
258.8619137035
 20
503.953190231
 30
0.0
 11
257.4721878795
 21
503.7081440724
 31
0.0
  0
ARC
  5
139
330
95
100
AcDbEntity
  8
00315038_ROSETTE
  6
Continuous
 62
     7
100
AcDbCircle
 10
257.8194842348
 20
501.7385285664
 30
0.0
 40
1.999999999999998
100
AcDbArc
 50
100.0
 51
232.3238678277
  0
ARC
  5
13A
330
95
100
AcDbEntity
  8
00315038_ROSETTE
  6
Continuous
 62
     7
100
AcDbCircle
 10
304.3194842348
 20
501.7385285664
 30
0.0
 40
1.999999999999996
100
AcDbArc
 50
307.6761321723
 51
80.0
  0
ARC
  5
13B
330
95
100
AcDbEntity
  8
00315038_ROSETTE
  6
Continuous
 62
     7
100
AcDbCircle
 10
256.2914907712
 20
499.7598330428
 30
0.0
 40
0.5000000000000026
100
AcDbArc
 50
270.0
 51
52.3238678277
  0
ARC
  5
13C
330
95
100
AcDbEntity
  8
00315038_ROSETTE
  6
Continuous
 62
     7
100
AcDbCircle
 10
305.8474776984
 20
499.7598330428
 30
0.0
 40
0.5000000000000004
100
AcDbArc
 50
127.6761321723
 51
270.0
  0
ARC
  5
13D
330
95
100
AcDbEntity
  8
00315038_ROSETTE
  6
Continuous
 62
     7
100
AcDbCircle
 10
254.5694842348
 20
497.2598330428
 30
0.0
 40
1.999999999999999
100
AcDbArc
 50
90.0
 51
270.0
  0
ARC
  5
13E
330
95
100
AcDbEntity
  8
00315038_ROSETTE
  6
Continuous
 62
     7
100
AcDbCircle
 10
307.5694842348
 20
497.2598330428
 30
0.0
 40
1.999999999999998
100
AcDbArc
 50
270.0
 51
90.0
  0
LINE
  5
13F
330
95
100
AcDbEntity
  8
$DDT_AUDIT_GENERATED_(97)
  6
Continuous
 62
     7
100
AcDbLine
 10
274.3194842348
 20
537.1598330428
 30
0.0
 11
287.8194842348
 21
537.1598330428
 31
0.0
  0
LINE
  5
140
330
95
100
AcDbEntity
  8
$DDT_AUDIT_GENERATED_(97)
  6
Continuous
 62
     7
100
AcDbLine
 10
293.0694842348
 20
541.6598330428
 30
0.0
 11
285.6190327859
 21
541.6598330428
 31
0.0
  0
LINE
  5
141
330
95
100
AcDbEntity
  8
$DDT_AUDIT_GENERATED_(97)
  6
Continuous
 62
     7
100
AcDbLine
 10
276.5199356837
 20
541.6598330428
 30
0.0
 11
269.0694842348
 21
541.6598330428
 31
0.0
  0
LINE
  5
142
330
95
100
AcDbEntity
  8
$DDT_AUDIT_GENERATED_(97)
  6
Continuous
 62
     7
100
AcDbLine
 10
269.0694842348
 20
555.6598330428
 30
0.0
 11
293.0694842348
 21
555.6598330428
 31
0.0
  0
ARC
  5
143
330
95
100
AcDbEntity
  8
$DDT_AUDIT_GENERATED_(97)
  6
Continuous
 62
     7
100
AcDbCircle
 10
303.8688370447
 20
546.8779003118
 30
0.0
 40
10.66843394853093
100
AcDbArc
 50
156.7673815908
 51
203.2402311779
  0
LINE
  5
144
330
95
100
AcDbEntity
  8
$DDT_AUDIT_GENERATED_(97)
  6
Continuous
 62
     7
100
AcDbLine
 10
294.0993551305
 20
551.0740391157
 30
0.0
 11
294.0993551305
 21
542.6820753765
 31
0.0
  0
LINE
  5
145
330
95
100
AcDbEntity
  8
$DDT_AUDIT_GENERATED_(97)
  6
Continuous
 62
     7
100
AcDbLine
 10
300.1054930827
 20
551.3065357186
 30
0.0
 11
300.1054930827
 21
542.4495787735
 31
0.0
  0
LINE
  5
146
330
95
100
AcDbEntity
  8
$DDT_AUDIT_GENERATED_(97)
  6
Continuous
 62
     7
100
AcDbLine
 10
301.3657409631
 20
551.3065357186
 30
0.0
 11
301.3657409631
 21
542.4495787735
 31
0.0
  0
LINE
  5
147
330
95
100
AcDbEntity
  8
$DDT_AUDIT_GENERATED_(97)
  6
Continuous
 62
     7
100
AcDbLine
 10
302.4587467157
 20
550.6907615527
 30
0.0
 11
302.4587467157
 21
543.0653529394
 31
0.0
  0
LINE
  5
148
330
95
100
AcDbEntity
  8
$DDT_AUDIT_GENERATED_(97)
  6
Continuous
 62
     7
100
AcDbLine
 10
262.033475387
 20
542.4495787735
 30
0.0
 11
262.033475387
 21
551.3065357186
 31
0.0
  0
LINE
  5
149
330
95
100
AcDbEntity
  8
$DDT_AUDIT_GENERATED_(97)
  6
Continuous
 62
     7
100
AcDbLine
 10
260.7732275065
 20
542.4495787735
 30
0.0
 11
260.7732275065
 21
551.3065357186
 31
0.0
  0
LINE
  5
14A
330
95
100
AcDbEntity
  8
$DDT_AUDIT_GENERATED_(97)
  6
Continuous
 62
     7
100
AcDbLine
 10
259.6802217539
 20
543.0653529394
 30
0.0
 11
259.6802217539
 21
550.6907615527
 31
0.0
  0
LINE
  5
14B
330
95
100
AcDbEntity
  8
$DDT_AUDIT_GENERATED_(97)
  6
Continuous
 62
     7
100
AcDbLine
 10
289.5694842348
 20
558.1598330428
 30
0.0
 11
272.5694842348
 21
558.1598330428
 31
0.0
  0
LINE
  5
14C
330
95
100
AcDbEntity
  8
$DDT_AUDIT_GENERATED_(97)
  6
Continuous
 62
     7
100
AcDbLine
 10
291.5694842348
 20
557.6239346579
 30
0.0
 11
270.5694842348
 21
557.6239346579
 31
0.0
  0
LINE
  5
14D
330
95
100
AcDbEntity
  8
$DDT_AUDIT_GENERATED_(97)
  6
Continuous
 62
     7
100
AcDbLine
 10
287.8194842348
 20
536.7598330428
 30
0.0
 11
287.8194842348
 21
537.1598330428
 31
0.0
  0
LINE
  5
14E
330
95
100
AcDbEntity
  8
$DDT_AUDIT_GENERATED_(97)
  6
Continuous
 62
     7
100
AcDbLine
 10
274.3194842348
 20
537.1598330428
 30
0.0
 11
274.3194842348
 21
536.7598330428
 31
0.0
  0
LINE
  5
14F
330
95
100
AcDbEntity
  8
$DDT_AUDIT_GENERATED_(97)
  6
Continuous
 62
     7
100
AcDbLine
 10
289.5694842348
 20
539.1441465261
 30
0.0
 11
289.5694842348
 21
539.6598330428
 31
0.0
  0
LINE
  5
150
330
95
100
AcDbEntity
  8
$DDT_AUDIT_GENERATED_(97)
  6
Continuous
 62
     7
100
AcDbLine
 10
272.5694842348
 20
539.6598330428
 30
0.0
 11
272.5694842348
 21
539.1441465261
 31
0.0
  0
LINE
  5
151
330
95
100
AcDbEntity
  8
$DDT_AUDIT_GENERATED_(97)
  6
Continuous
 62
     7
100
AcDbLine
 10
294.0694842348
 20
551.0864003553
 30
0.0
 11
294.0694842348
 21
554.6598330428
 31
0.0
  0
LINE
  5
152
330
95
100
AcDbEntity
  8
$DDT_AUDIT_GENERATED_(97)
  6
Continuous
 62
     7
100
AcDbLine
 10
268.0694842348
 20
554.6598330428
 30
0.0
 11
268.0694842348
 21
551.0247704204
 31
0.0
  0
ARC
  5
153
330
95
100
AcDbEntity
  8
$DDT_AUDIT_GENERATED_(97)
  6
Continuous
 62
     7
100
AcDbCircle
 10
287.5694842348
 20
539.1441465261
 30
0.0
 40
2.000000000000001
100
AcDbArc
 50
277.1807557815
 51
0.0
  0
ARC
  5
154
330
95
100
AcDbEntity
  8
$DDT_AUDIT_GENERATED_(97)
  6
Continuous
 62
     7
100
AcDbCircle
 10
274.5694842348
 20
539.1441465261
 30
0.0
 40
2.000000000000002
100
AcDbArc
 50
180.0
 51
262.8192442185
  0
ARC
  5
155
330
95
100
AcDbEntity
  8
$DDT_AUDIT_GENERATED_(97)
  6
Continuous
 62
     7
100
AcDbCircle
 10
291.5694842348
 20
539.6598330428
 30
0.0
 40
2.000000000000002
100
AcDbArc
 50
90.0
 51
180.0
  0
ARC
  5
156
330
95
100
AcDbEntity
  8
$DDT_AUDIT_GENERATED_(97)
  6
Continuous
 62
     7
100
AcDbCircle
 10
270.5694842348
 20
539.6598330428
 30
0.0
 40
1.999999999999995
100
AcDbArc
 50
0.0
 51
90.0
  0
ARC
  5
157
330
95
100
AcDbEntity
  8
$DDT_AUDIT_GENERATED_(97)
  6
Continuous
 62
     7
100
AcDbCircle
 10
293.0694842348
 20
542.6598330428
 30
0.0
 40
1.000000000000001
100
AcDbArc
 50
270.0
 51
0.0
  0
ARC
  5
158
330
95
100
AcDbEntity
  8
$DDT_AUDIT_GENERATED_(97)
  6
Continuous
 62
     7
100
AcDbCircle
 10
269.0694842348
 20
542.6598330428
 30
0.0
 40
1.000000000000001
100
AcDbArc
 50
180.0
 51
270.0
  0
ARC
  5
159
330
95
100
AcDbEntity
  8
$DDT_AUDIT_GENERATED_(97)
  6
Continuous
 62
     7
100
AcDbCircle
 10
293.0694842348
 20
554.6598330428
 30
0.0
 40
1.000000000000001
100
AcDbArc
 50
0.0
 51
90.0
  0
ARC
  5
15A
330
95
100
AcDbEntity
  8
$DDT_AUDIT_GENERATED_(97)
  6
Continuous
 62
     7
100
AcDbCircle
 10
269.0694842348
 20
554.6598330428
 30
0.0
 40
1.000000000000001
100
AcDbArc
 50
90.0
 51
180.0
  0
ARC
  5
15B
330
95
100
AcDbEntity
  8
$DDT_AUDIT_GENERATED_(97)
  6
Continuous
 62
     7
100
AcDbCircle
 10
296.897032112
 20
556.4962258171
 30
0.0
 40
6.101401897797881
100
AcDbArc
 50
242.7076959454
 51
301.7259106494
  0
ARC
  5
15C
330
95
100
AcDbEntity
  8
$DDT_AUDIT_GENERATED_(97)
  6
Continuous
 62
     7
100
AcDbCircle
 10
296.897032112
 20
537.259888675
 30
0.0
 40
6.101401897797891
100
AcDbArc
 50
58.2740893506
 51
117.2923040546
  0
LINE
  5
15D
330
95
100
AcDbEntity
  8
$DDT_AUDIT_GENERATED_(97)
  6
Continuous
 62
     7
100
AcDbLine
 10
301.3657409631
 20
551.3065357186
 30
0.0
 11
300.1054930827
 21
551.3065357186
 31
0.0
  0
LINE
  5
15E
330
95
100
AcDbEntity
  8
$DDT_AUDIT_GENERATED_(97)
  6
Continuous
 62
     7
100
AcDbLine
 10
300.1054930827
 20
542.4495787735
 30
0.0
 11
301.3657409631
 21
542.4495787735
 31
0.0
  0
LINE
  5
15F
330
95
100
AcDbEntity
  8
$DDT_AUDIT_GENERATED_(97)
  6
Continuous
 62
     7
100
AcDbLine
 10
302.4587467157
 20
550.6907615527
 30
0.0
 11
301.3657409631
 21
550.6907615527
 31
0.0
  0
LINE
  5
160
330
95
100
AcDbEntity
  8
$DDT_AUDIT_GENERATED_(97)
  6
Continuous
 62
     7
100
AcDbLine
 10
301.3657409631
 20
543.0653529394
 30
0.0
 11
302.4587467157
 21
543.0653529394
 31
0.0
  0
SPLINE
  5
161
330
95
100
AcDbEntity
  8
$DDT_AUDIT_GENERATED_(97)
  6
Continuous
 62
     7
100
AcDbSpline
210
0.0
220
0.0
230
1.0
 70
     8
 71
     3
 72
    22
 73
    18
 74
     0
 42
0.0000000006406317
 43
0.0000000001
 40
0.0
 40
0.0
 40
0.0
 40
0.0
 40
0.0387428946632271
 40
0.0764842388972079
 40
0.1143321871672149
 40
0.1894977696042358
 40
0.3015199682265923
 40
0.4114036432958537
 40
0.5216525276783499
 40
0.603299240668117
 40
0.6847364583045061
 40
0.7258433937200119
 40
0.7667245709161286
 40
0.8034647450775146
 40
0.824394537238142
 40
0.9086978696336188
 40
1.0
 40
1.0
 40
1.0
 40
1.0
 10
312.7259224263212
 20
547.0949178890628
 30
0.0
 10
312.7210443262302
 20
547.3148933557633
 30
0.0
 10
312.7108433846086
 20
547.6810648649209
 30
0.0
 10
312.6311091257002
 20
548.2783205286044
 30
0.0
 10
312.4708896125696
 20
549.0366519850927
 30
0.0
 10
312.1357900428573
 20
550.1537414916467
 30
0.0
 10
311.4103208341215
 20
551.5279399724566
 30
0.0
 10
310.1778000509658
 20
552.7544200630518
 30
0.0
 10
308.7982404953563
 20
553.5249043208114
 30
0.0
 10
307.4077600653466
 20
553.8515978458537
 30
0.0
 10
306.3382790985328
 20
553.7727708710892
 30
0.0
 10
305.5287198276055
 20
553.527767964372
 30
0.0
 10
304.9684273579319
 20
553.2749394269485
 30
0.0
 10
304.5331507731391
 20
553.0083858336596
 30
0.0
 10
303.9478420687708
 20
552.5683338704912
 30
0.0
 10
303.2339200049614
 20
551.8047296575905
 30
0.0
 10
302.749188758686
 20
551.1203098995018
 30
0.0
 10
302.4587467157016
 20
550.690761552741
 30
0.0
  0
SPLINE
  5
162
330
95
100
AcDbEntity
  8
$DDT_AUDIT_GENERATED_(97)
  6
Continuous
 62
     7
100
AcDbSpline
210
0.0
220
0.0
230
1.0
 70
     8
 71
     3
 72
    21
 73
    17
 74
     0
 42
0.0000000006404439
 43
0.0000000001
 40
0.0
 40
0.0
 40
0.0
 40
0.0
 40
0.0913084166638567
 40
0.1756175534783932
 40
0.2063892599031859
 40
0.2604639145488639
 40
0.3152163964968825
 40
0.3966592212157548
 40
0.4783115557120912
 40
0.5885680309063334
 40
0.6984592716420968
 40
0.8104891831717173
 40
0.8856599408791205
 40
0.9235104950408057
 40
0.9612544378266067
 40
1.0
 40
1.0
 40
1.0
 40
1.0
 10
302.4587467157016
 20
543.0653529394027
 30
0.0
 10
302.749188758686
 20
542.635804592642
 30
0.0
 10
303.2340788382172
 20
541.95120508538
 30
0.0
 10
303.9832129735839
 20
541.1499713727719
 30
0.0
 10
304.6892508298716
 20
540.6370420649374
 30
0.0
 10
305.3296541291012
 20
540.2967383287186
 30
0.0
 10
306.267126791006
 20
539.9888924996287
 30
0.0
 10
307.4076678866462
 20
539.9044294254182
 30
0.0
 10
308.7982750254156
 20
540.2312428441935
 30
0.0
 10
310.1777896927676
 20
541.0016846280091
 30
0.0
 10
311.4103237066431
 20
542.2281772377104
 30
0.0
 10
312.1357895307873
 20
543.6023725159689
 30
0.0
 10
312.4708896650763
 20
544.7194625567338
 30
0.0
 10
312.631109115765
 20
545.4777939541386
 30
0.0
 10
312.7108433875244
 20
546.075049629982
 30
0.0
 10
312.7210443262303
 20
546.4412211363805
 30
0.0
 10
312.7259224263212
 20
546.6611966030808
 30
0.0
  0
LINE
  5
163
330
95
100
AcDbEntity
  8
$DDT_AUDIT_GENERATED_(97)
  6
Continuous
 62
     7
100
AcDbLine
 10
312.7259224263
 20
546.6611966031
 30
0.0
 11
312.7259224263
 21
547.0949178891
 31
0.0
  0
CIRCLE
  5
164
330
95
100
AcDbEntity
  8
$DDT_AUDIT_GENERATED_(97)
  6
Continuous
 62
     7
100
AcDbCircle
 10
281.0694842348
 20
546.8780572461
 30
0.0
 40
6.923023606403192
  0
LINE
  5
165
330
95
100
AcDbEntity
  8
$DDT_AUDIT_GENERATED_(97)
  6
Continuous
 62
     7
100
AcDbLine
 10
268.0628728113
 20
551.0860402683
 30
0.0
 11
268.0396133391
 21
551.0740391157
 31
0.0
  0
ARC
  5
166
330
95
100
AcDbEntity
  8
$DDT_AUDIT_GENERATED_(97)
  6
Continuous
 62
     7
100
AcDbCircle
 10
265.2419363576
 20
537.259888675
 30
0.0
 40
6.101401897797887
100
AcDbArc
 50
62.7076959454
 51
121.7259106494
  0
ARC
  5
167
330
95
100
AcDbEntity
  8
$DDT_AUDIT_GENERATED_(97)
  6
Continuous
 62
     7
100
AcDbCircle
 10
265.2419363576
 20
556.4962258171
 30
0.0
 40
6.101401897797891
100
AcDbArc
 50
238.2740893506
 51
297.2923040546
  0
LINE
  5
168
330
95
100
AcDbEntity
  8
$DDT_AUDIT_GENERATED_(97)
  6
Continuous
 62
     7
100
AcDbLine
 10
260.7732275065
 20
542.4495787735
 30
0.0
 11
262.033475387
 21
542.4495787735
 31
0.0
  0
LINE
  5
169
330
95
100
AcDbEntity
  8
$DDT_AUDIT_GENERATED_(97)
  6
Continuous
 62
     7
100
AcDbLine
 10
262.033475387
 20
551.3065357186
 30
0.0
 11
260.7732275065
 21
551.3065357186
 31
0.0
  0
LINE
  5
16A
330
95
100
AcDbEntity
  8
$DDT_AUDIT_GENERATED_(97)
  6
Continuous
 62
     7
100
AcDbLine
 10
259.6802217539
 20
543.0653529394
 30
0.0
 11
260.7732275065
 21
543.0653529394
 31
0.0
  0
LINE
  5
16B
330
95
100
AcDbEntity
  8
$DDT_AUDIT_GENERATED_(97)
  6
Continuous
 62
     7
100
AcDbLine
 10
260.7732275065
 20
550.6907615527
 30
0.0
 11
259.6802217539
 21
550.6907615527
 31
0.0
  0
SPLINE
  5
16C
330
95
100
AcDbEntity
  8
$DDT_AUDIT_GENERATED_(97)
  6
Continuous
 62
     7
100
AcDbSpline
210
0.0
220
0.0
230
1.0
 70
     8
 71
     3
 72
    22
 73
    18
 74
     0
 42
0.0000000006406317
 43
0.0000000001
 40
0.0
 40
0.0
 40
0.0
 40
0.0
 40
0.0387428946632267
 40
0.0764842388972078
 40
0.1143321871672146
 40
0.1894977696042359
 40
0.301519968226593
 40
0.4114036432958546
 40
0.5216525276783489
 40
0.6032992406681162
 40
0.6847364583045064
 40
0.725843393720012
 40
0.766724570916128
 40
0.8034647450775146
 40
0.8243945372381427
 40
0.9086978696336195
 40
1.0
 40
1.0
 40
1.0
 40
1.0
 10
249.4130460432928
 20
546.6611966030808
 30
0.0
 10
249.4179241433837
 20
546.4412211363805
 30
0.0
 10
249.4281250850054
 20
546.0750496272227
 30
0.0
 10
249.5078593439139
 20
545.4777939635395
 30
0.0
 10
249.6680788570444
 20
544.719462507051
 30
0.0
 10
250.0031784267568
 20
543.6023730004972
 30
0.0
 10
250.7286476354925
 20
542.2281745196872
 30
0.0
 10
251.9611684186482
 20
541.0016944290917
 30
0.0
 10
253.3407279742578
 20
540.2312101713325
 30
0.0
 10
254.7312084042674
 20
539.9045166462901
 30
0.0
 10
255.8006893710813
 20
539.9833436210546
 30
0.0
 10
256.6102486420085
 20
540.2283465277717
 30
0.0
 10
257.1705411116822
 20
540.4811750651953
 30
0.0
 10
257.6058176964748
 20
540.7477286584841
 30
0.0
 10
258.1911264008434
 20
541.1877806216527
 30
0.0
 10
258.9050484646526
 20
541.9513848345532
 30
0.0
 10
259.3897797109279
 20
542.635804592642
 30
0.0
 10
259.6802217539123
 20
543.0653529394027
 30
0.0
  0
SPLINE
  5
16D
330
95
100
AcDbEntity
  8
$DDT_AUDIT_GENERATED_(97)
  6
Continuous
 62
     7
100
AcDbSpline
210
0.0
220
0.0
230
1.0
 70
     8
 71
     3
 72
    21
 73
    17
 74
     0
 42
0.0000000006404439
 43
0.0000000001
 40
0.0
 40
0.0
 40
0.0
 40
0.0
 40
0.0913084166638568
 40
0.1756175534783943
 40
0.2063892599031865
 40
0.2604639145488649
 40
0.3152163964968836
 40
0.3966592212157551
 40
0.4783115557120926
 40
0.5885680309063342
 40
0.6984592716420974
 40
0.8104891831717181
 40
0.8856599408791223
 40
0.9235104950408073
 40
0.9612544378266076
 40
1.0
 40
1.0
 40
1.0
 40
1.0
 10
259.6802217539123
 20
550.690761552741
 30
0.0
 10
259.3897797109279
 20
551.1203098995018
 30
0.0
 10
258.9048896313968
 20
551.804909406764
 30
0.0
 10
258.1557554960303
 20
552.606143119372
 30
0.0
 10
257.4497176397422
 20
553.1190724272062
 30
0.0
 10
256.8093143405129
 20
553.4593761634252
 30
0.0
 10
255.871841678608
 20
553.7672219925151
 30
0.0
 10
254.7313005829678
 20
553.8516850667254
 30
0.0
 10
253.3406934441985
 20
553.5248716479502
 30
0.0
 10
251.9611787768464
 20
552.7544298641347
 30
0.0
 10
250.7286447629711
 20
551.5279372544336
 30
0.0
 10
250.0031789388266
 20
550.1537419761748
 30
0.0
 10
249.6680788045378
 20
549.0366519354101
 30
0.0
 10
249.5078593538491
 20
548.2783205380052
 30
0.0
 10
249.4281250820897
 20
547.6810648621619
 30
0.0
 10
249.4179241433837
 20
547.3148933557633
 30
0.0
 10
249.4130460432928
 20
547.0949178890628
 30
0.0
  0
LINE
  5
16E
330
95
100
AcDbEntity
  8
$DDT_AUDIT_GENERATED_(97)
  6
Continuous
 62
     7
100
AcDbLine
 10
249.4130460433
 20
547.0949178891
 30
0.0
 11
249.4130460433
 21
546.6611966031
 31
0.0
  0
ARC
  5
16F
330
95
100
AcDbEntity
  8
$DDT_AUDIT_GENERATED_(97)
  6
Continuous
 62
     7
100
AcDbCircle
 10
284.3911653181
 20
343.7788690172
 30
0.0
 40
214.7066600740566
100
AcDbArc
 50
90.8864461851
 51
93.1562836956
  0
ARC
  5
170
330
95
100
AcDbEntity
  8
$DDT_AUDIT_GENERATED_(97)
  6
Continuous
 62
     7
100
AcDbCircle
 10
277.7478031516
 20
343.7788690172
 30
0.0
 40
214.7066600740566
100
AcDbArc
 50
86.8437163044
 51
89.1135538149
  0
LINE
  5
171
330
95
100
AcDbEntity
  8
$DDT_AUDIT_GENERATED_(97)
  6
Continuous
 62
     7
100
AcDbLine
 10
291.5694842348
 20
557.6239346579
 30
0.0
 11
289.5694842348
 21
558.1598330428
 31
0.0
  0
LINE
  5
172
330
95
100
AcDbEntity
  8
$DDT_AUDIT_GENERATED_(97)
  6
Continuous
 62
     7
100
AcDbLine
 10
272.5694842348
 20
558.1598330428
 30
0.0
 11
270.5694842348
 21
557.6239346579
 31
0.0
  0
LINE
  5
173
330
95
100
AcDbEntity
  8
$DDT_AUDIT_GENERATED_(97)
  6
Continuous
 62
     7
100
AcDbLine
 10
291.5694842348
 20
555.6598330428
 30
0.0
 11
291.5694842348
 21
557.6239346579
 31
0.0
  0
LINE
  5
174
330
95
100
AcDbEntity
  8
$DDT_AUDIT_GENERATED_(97)
  6
Continuous
 62
     7
100
AcDbLine
 10
270.5694842348
 20
557.6239346579
 30
0.0
 11
270.5694842348
 21
555.6598330428
 31
0.0
  0
LINE
  5
175
330
95
100
AcDbEntity
  8
$DDT_AUDIT_GENERATED_(97)
  6
Continuous
 62
     7
100
AcDbLine
 10
150.069484189
 20
499.4598330428
 30
0.0
 11
212.0694842806
 21
499.4598330428
 31
0.0
  0
LINE
  5
176
330
95
100
AcDbEntity
  8
$DDT_AUDIT_GENERATED_(97)
  6
Continuous
 62
     7
100
AcDbLine
 10
149.0694842348
 20
499.0598330428
 30
0.0
 11
213.0694842348
 21
499.0598330428
 31
0.0
  0
LINE
  5
177
330
95
100
AcDbEntity
  8
$DDT_AUDIT_GENERATED_(97)
  6
Continuous
 62
     7
100
AcDbLine
 10
149.0694842348
 20
495.0598330428
 30
0.0
 11
213.0694842348
 21
495.0598330428
 31
0.0
  0
ARC
  5
178
330
95
100
AcDbEntity
  8
$DDT_AUDIT_GENERATED_(97)
  6
Continuous
 62
     7
100
AcDbCircle
 10
150.0694842348
 20
501.4598330428
 30
0.0
 40
2.0
100
AcDbArc
 50
90.0
 51
269.9999993443
  0
ARC
  5
179
330
95
100
AcDbEntity
  8
$DDT_AUDIT_GENERATED_(97)
  6
Continuous
 62
     7
100
AcDbCircle
 10
212.0694842348
 20
501.4598330428
 30
0.0
 40
2.0
100
AcDbArc
 50
270.0000006557
 51
90.0
  0
ARC
  5
17A
330
95
100
AcDbEntity
  8
$DDT_AUDIT_GENERATED_(97)
  6
Continuous
 62
     7
100
AcDbCircle
 10
150.0694841845
 20
499.2598330428
 30
0.0
 40
0.1999999999999997
100
AcDbArc
 50
270.0
 51
89.9999993443
  0
ARC
  5
17B
330
95
100
AcDbEntity
  8
$DDT_AUDIT_GENERATED_(97)
  6
Continuous
 62
     7
100
AcDbCircle
 10
212.0694842852
 20
499.2598330428
 30
0.0
 40
0.1999999999999997
100
AcDbArc
 50
90.0000006557
 51
270.0
  0
ARC
  5
17C
330
95
100
AcDbEntity
  8
$DDT_AUDIT_GENERATED_(97)
  6
Continuous
 62
     7
100
AcDbCircle
 10
149.0694842348
 20
497.0598330428
 30
0.0
 40
1.999999999999999
100
AcDbArc
 50
90.0
 51
270.0
  0
ARC
  5
17D
330
95
100
AcDbEntity
  8
$DDT_AUDIT_GENERATED_(97)
  6
Continuous
 62
     7
100
AcDbCircle
 10
213.0694842348
 20
497.0598330428
 30
0.0
 40
1.999999999999893
100
AcDbArc
 50
270.0
 51
90.0
  0
ENDBLK
  5
17F
330
95
100
AcDbEntity
  8
0
100
AcDbBlockEnd
  0
BLOCK
  5
20D
330
180
100
AcDbEntity
  8
0
100
AcDbBlockBegin
  2
SE1
 70
     0
 10
0.0
 20
0.0
 30
0.0
  3
SE1
  1

  0
LINE
  5
182
330
180
100
AcDbEntity
  8
$DDT_AUDIT_GENERATED_(97)
  6
Continuous
 62
     7
100
AcDbLine
 10
509.7085439594
 20
503.4598330428
 30
0.0
 11
509.2556494239
 21
503.4598330428
 31
0.0
  0
SPLINE
  5
183
330
180
100
AcDbEntity
  8
$DDT_AUDIT_GENERATED_(97)
  6
Continuous
 62
     7
100
AcDbSpline
210
0.0
220
0.0
230
1.0
 70
     8
 71
     3
 72
    10
 73
     6
 74
     0
 42
0.0000000015647917
 43
0.0000000001
 40
0.2628868720352465
 40
0.2628868720352465
 40
0.2628868720352465
 40
0.2628868720352465
 40
0.5
 40
0.5
 40
0.6865880897067488
 40
0.6865880897067488
 40
0.6865880897067488
 40
0.6865880897067488
 10
492.4229621323863
 20
556.8469516144135
 30
0.0
 10
492.3998551040075
 20
556.8615573322708
 30
0.0
 10
492.1771009018947
 20
556.6225006894626
 30
0.0
 10
491.5105312601372
 20
555.8303974298178
 30
0.0
 10
491.1255504600084
 20
555.3576805998831
 30
0.0
 10
490.6988228208964
 20
554.7918185036939
 30
0.0
  0
LINE
  5
184
330
180
100
AcDbEntity
  8
$DDT_AUDIT_GENERATED_(97)
  6
Continuous
 62
     7
100
AcDbLine
 10
611.8583666082
 20
547.8675862114
 30
0.0
 11
604.7774497346
 21
546.3759741062
 31
0.0
  0
LINE
  5
185
330
180
100
AcDbEntity
  8
$DDT_AUDIT_GENERATED_(97)
  6
Continuous
 62
     7
100
AcDbLine
 10
600.9795839623
 20
545.5759445816
 30
0.0
 11
604.7774497346
 21
546.3759741062
 31
0.0
  0
LINE
  5
186
330
180
100
AcDbEntity
  8
$DDT_AUDIT_GENERATED_(97)
  6
Continuous
 62
     7
100
AcDbLine
 10
628.2609055319
 20
551.322820336
 30
0.0
 11
626.290667102
 21
550.90778489
 31
0.0
  0
LINE
  5
187
330
180
100
AcDbEntity
  8
$DDT_AUDIT_GENERATED_(97)
  6
Continuous
 62
     7
100
AcDbLine
 10
626.290667102
 20
550.90778489
 30
0.0
 11
625.2107046111
 21
550.6802882038
 31
0.0
  0
LINE
  5
188
330
180
100
AcDbEntity
  8
$DDT_AUDIT_GENERATED_(97)
  6
Continuous
 62
     7
100
AcDbLine
 10
625.2107046111
 20
550.6802882038
 30
0.0
 11
611.8583666082
 21
547.8675862114
 31
0.0
  0
SPLINE
  5
189
330
180
100
AcDbEntity
  8
$DDT_AUDIT_GENERATED_(97)
  6
Continuous
 62
     7
100
AcDbSpline
210
0.0
220
0.0
230
1.0
 70
     8
 71
     3
 72
     9
 73
     5
 74
     0
 42
0.000000000069346
 43
0.0000000001
 40
0.0185959936169517
 40
0.0185959936169517
 40
0.0185959936169517
 40
0.0185959936169517
 40
0.0250352704570913
 40
0.0518738797677002
 40
0.0518738797677002
 40
0.0518738797677002
 40
0.0518738797677002
 10
491.1432014794322
 20
550.9424203020837
 30
0.0
 10
491.4695475764855
 20
550.9204342371476
 30
0.0
 10
493.1464209443453
 20
550.836464667304
 30
0.0
 10
494.714019377894
 20
550.8645484231175
 30
0.0
 10
495.9368938740584
 20
550.9350697301079
 30
0.0
  0
SPLINE
  5
18A
330
180
100
AcDbEntity
  8
$DDT_AUDIT_GENERATED_(97)
  6
Continuous
 62
     7
100
AcDbSpline
210
0.0
220
0.0
230
1.0
 70
     8
 71
     3
 72
     8
 73
     4
 74
     0
 42
0.0000000000755778
 43
0.0000000001
 40
0.0672795883910215
 40
0.0672795883910215
 40
0.0672795883910215
 40
0.0672795883910215
 40
0.0788267818040452
 40
0.0788267818040452
 40
0.0788267818040452
 40
0.0788267818040452
 10
498.0074290955401
 20
551.0990994274067
 30
0.0
 10
498.517327920291
 20
551.1495405449825
 30
0.0
 10
499.0227184393462
 20
551.2061855389246
 30
0.0
 10
499.5259647559438
 20
551.2670423371396
 30
0.0
  0
SPLINE
  5
18B
330
180
100
AcDbEntity
  8
$DDT_AUDIT_GENERATED_(97)
  6
Continuous
 62
     7
100
AcDbSpline
210
0.0
220
0.0
230
1.0
 70
     8
 71
     3
 72
    16
 73
    12
 74
     0
 42
0.0000000000643188
 43
0.0000000001
 40
0.1367054826911917
 40
0.1367054826911917
 40
0.1367054826911917
 40
0.1367054826911917
 40
0.1775411121643759
 40
0.3296173885911413
 40
0.4814133022805451
 40
0.6330855415859984
 40
0.7513675755201888
 40
0.809439691692552
 40
0.8618384657571848
 40
0.916106795660571
 40
1.0
 40
1.0
 40
1.0
 40
1.0
 10
507.147997518239
 20
552.3104633833551
 30
0.0
 10
508.9670319054721
 20
552.569776876424
 30
0.0
 10
517.6136247741931
 20
553.8480119115778
 30
0.0
 10
532.5775777697205
 20
556.9382330029536
 30
0.0
 10
551.1132888686759
 20
563.4636315676624
 30
0.0
 10
569.4681514059913
 20
571.1819628044142
 30
0.0
 10
580.3769765012695
 20
573.4627968272031
 30
0.0
 10
597.0029799511983
 20
574.1793469645478
 30
0.0
 10
608.3140512008205
 20
572.4721639666434
 30
0.0
 10
620.2753541013034
 20
565.3736306954848
 30
0.0
 10
624.0180568170034
 20
556.3730416363961
 30
0.0
 10
626.2906671019914
 20
550.9077848900262
 30
0.0
  0
LINE
  5
18C
330
180
100
AcDbEntity
  8
$DDT_AUDIT_GENERATED_(97)
  6
Continuous
 62
     7
100
AcDbLine
 10
445.7085437006
 20
503.4598330428
 30
0.0
 11
453.4401574103
 21
503.4598330428
 31
0.0
  0
LINE
  5
18D
330
180
100
AcDbEntity
  8
$DDT_AUDIT_GENERATED_(97)
  6
Continuous
 62
     7
100
AcDbLine
 10
501.9769302496
 20
503.4598330428
 30
0.0
 11
509.2556494239
 21
503.4598330428
 31
0.0
  0
SPLINE
  5
18E
330
180
100
AcDbEntity
  8
$DDT_AUDIT_GENERATED_(97)
  6
Continuous
 62
     7
100
AcDbSpline
210
0.0
220
0.0
230
1.0
 70
     8
 71
     3
 72
    17
 73
    13
 74
     0
 42
0.0000000000874089
 43
0.0000000001
 40
0.0
 40
0.0
 40
0.0
 40
0.0
 40
0.0631652867844675
 40
0.1423660621771884
 40
0.3009463605122755
 40
0.4592343055127236
 40
0.61739328680388
 40
0.7407340252128563
 40
0.8012897787067152
 40
0.8559295517127555
 40
0.9125188380132405
 40
1.0
 40
1.0
 40
1.0
 40
1.0
 10
507.5849823642479
 20
514.7909665352003
 30
0.0
 10
509.7066335373462
 20
516.3706890675926
 30
0.0
 10
514.1321538433111
 20
522.543302968414
 30
0.0
 10
525.0015902571495
 20
529.1894725134817
 30
0.0
 10
539.599166463088
 20
537.6269575542815
 30
0.0
 10
557.9980748372755
 20
546.7279264666714
 30
0.0
 10
573.922415356471
 20
552.9009081791866
 30
0.0
 10
591.8795965822208
 20
556.4954692572754
 30
0.0
 10
594.9256404254481
 20
556.745563441968
 30
0.0
 10
600.1103167638419
 20
555.2209994665119
 30
0.0
 10
603.2845346498045
 20
551.2652381797551
 30
0.0
 10
604.2134202026532
 20
548.2231584203271
 30
0.0
 10
604.7774497346074
 20
546.3759741061605
 30
0.0
  0
SPLINE
  5
18F
330
180
100
AcDbEntity
  8
$DDT_AUDIT_GENERATED_(97)
  6
Continuous
 62
     7
100
AcDbSpline
210
0.0
220
0.0
230
1.0
 70
     8
 71
     3
 72
    18
 73
    14
 74
     0
 42
0.0000000000778968
 43
0.0000000001
 40
0.0
 40
0.0
 40
0.0
 40
0.0
 40
0.0153793646897438
 40
0.0926909499879065
 40
0.169395601585566
 40
0.3229780188501793
 40
0.476277296706552
 40
0.6294516753262578
 40
0.7489051569436628
 40
0.8075524107230382
 40
0.8604701344577066
 40
0.9152759298342737
 40
1.0
 40
1.0
 40
1.0
 40
1.0
 10
499.4347706295331
 20
525.7293040639397
 30
0.0
 10
500.1046915656162
 20
525.7438538834018
 30
0.0
 10
503.9831709172453
 20
526.0705761320346
 30
0.0
 10
509.7896317752043
 20
532.0461938493596
 30
0.0
 10
522.0704233381842
 20
537.1963143483048
 30
0.0
 10
537.2872865777478
 20
543.9850616877173
 30
0.0
 10
555.7322078527632
 20
552.2358362875021
 30
0.0
 10
572.4562835125091
 20
558.9180918341868
 30
0.0
 10
588.0935987341127
 20
562.0801281680078
 30
0.0
 10
595.6093806304353
 20
562.4837667030021
 30
0.0
 10
602.8105156702601
 20
560.8990925517231
 30
0.0
 10
608.876937508256
 20
555.9089117663954
 30
0.0
 10
610.7319702867309
 20
550.9056324708483
 30
0.0
 10
611.8583666082093
 20
547.8675862113816
 30
0.0
  0
ARC
  5
190
330
180
100
AcDbEntity
  8
$DDT_AUDIT_GENERATED_(97)
  6
Continuous
 62
     7
100
AcDbCircle
 10
499.4341383092
 20
525.7166520898
 30
0.0
 40
0.0126677653480409
100
AcDbArc
 50
87.1388523673
 51
128.3924296257
  0
LINE
  5
191
330
180
100
AcDbEntity
  8
$DDT_AUDIT_GENERATED_(97)
  6
Continuous
 62
     7
100
AcDbLine
 10
507.5849823642
 20
514.7909665352
 30
0.0
 11
507.5792328866
 21
514.7870033491
 31
0.0
  0
ARC
  5
192
330
180
100
AcDbEntity
  8
$DDT_AUDIT_GENERATED_(97)
  6
Continuous
 62
     7
100
AcDbCircle
 10
511.1274187587
 20
508.6151792044
 30
0.0
 40
7.118805773940341
100
AcDbArc
 50
119.8947261568
 51
153.9479816962
  0
LINE
  5
193
330
180
100
AcDbEntity
  8
$DDT_AUDIT_GENERATED_(97)
  6
Continuous
 62
     7
100
AcDbLine
 10
489.4585438129
 20
562.4523823393
 30
0.0
 11
465.9585438129
 21
562.4523823393
 31
0.0
  0
LINE
  5
194
330
180
100
AcDbEntity
  8
$DDT_AUDIT_GENERATED_(97)
  6
Continuous
 62
     7
100
AcDbLine
 10
486.5585438129
 20
565.4523823393
 30
0.0
 11
468.8585438129
 21
565.4523823393
 31
0.0
  0
LINE
  5
195
330
180
100
AcDbEntity
  8
$DDT_AUDIT_GENERATED_(97)
  6
Continuous
 62
     7
100
AcDbLine
 10
604.3444022348
 20
541.6859928404
 30
0.0
 11
626.8504750954
 21
546.4269510127
 31
0.0
  0
LINE
  5
196
330
180
100
AcDbEntity
  8
$DDT_AUDIT_GENERATED_(97)
  6
Continuous
 62
     7
100
AcDbLine
 10
626.46427695
 20
545.8346242512
 30
0.0
 11
604.9367289964
 21
541.299794695
 31
0.0
  0
LINE
  5
197
330
180
100
AcDbEntity
  8
$DDT_AUDIT_GENERATED_(97)
  6
Continuous
 62
     7
100
AcDbLine
 10
484.7934693303
 20
565.4598340087
 30
0.0
 11
470.8077467596
 21
565.4598340087
 31
0.0
  0
LINE
  5
198
330
180
100
AcDbEntity
  8
$DDT_AUDIT_GENERATED_(97)
  6
Continuous
 62
     7
100
AcDbLine
 10
485.3481826614
 20
566.087473279
 30
0.0
 11
470.2530334285
 21
566.087473279
 31
0.0
  0
LINE
  5
199
330
180
100
AcDbEntity
  8
$DDT_AUDIT_GENERATED_(97)
  6
Continuous
 62
     7
100
AcDbLine
 10
492.4578606441
 20
556.8149184362
 30
0.0
 11
492.3003384596
 21
559.6577087617
 31
0.0
  0
SPLINE
  5
19A
330
180
100
AcDbEntity
  8
$DDT_AUDIT_GENERATED_(97)
  6
Continuous
 62
     7
100
AcDbSpline
210
0.0
220
0.0
230
1.0
 70
     8
 71
     3
 72
     9
 73
     5
 74
     0
 42
0.0000000001682495
 43
0.0000000001
 40
0.0
 40
0.0
 40
0.0
 40
0.0
 40
0.0778223600845642
 40
0.1559922536831905
 40
0.1559922536831905
 40
0.1559922536831905
 40
0.1559922536831905
 10
463.1168541965648
 20
559.6596036190988
 30
0.0
 10
463.0535372888274
 20
557.9654730546066
 30
0.0
 10
462.9286319149551
 20
555.1004289280609
 30
0.0
 10
462.5310673195601
 20
551.9794118688941
 30
0.0
 10
462.2719624322403
 20
550.438878510201
 30
0.0
  0
SPLINE
  5
19B
330
180
100
AcDbEntity
  8
$DDT_AUDIT_GENERATED_(97)
  6
Continuous
 62
     7
100
AcDbSpline
210
0.0
220
0.0
230
1.0
 70
     8
 71
     3
 72
    17
 73
    13
 74
     0
 42
0.0000000001681756
 43
0.0000000001
 40
0.2819002486518604
 40
0.2819002486518604
 40
0.2819002486518604
 40
0.2819002486518604
 40
0.329416664760569
 40
0.4132778365670983
 40
0.4968597129460769
 40
0.5686432921035977
 40
0.6405884966657989
 40
0.7126129475987045
 40
0.7845288349299578
 40
0.8562453614147146
 40
0.9280228399126289
 40
1.0
 40
1.0
 40
1.0
 40
1.0
 10
460.6231613305972
 20
543.1431398521439
 30
0.0
 10
460.3730124566012
 20
542.2357205357632
 30
0.0
 10
459.638822907736
 20
539.7362314577757
 30
0.0
 10
458.2325553366414
 20
535.7138014498626
 30
0.0
 10
456.2018863450025
 20
531.423487637829
 30
0.0
 10
453.9826637148204
 20
527.5067571495607
 30
0.0
 10
451.8820017127315
 20
523.7847350187221
 30
0.0
 10
450.00827017483
 20
519.9395833672821
 30
0.0
 10
448.4290226998407
 20
515.9597145556535
 30
0.0
 10
447.2289067835057
 20
511.8821826593506
 30
0.0
 10
446.3769707827529
 20
507.6127181798483
 30
0.0
 10
445.951129162161
 20
505.0089331180965
 30
0.0
 10
445.7085437005667
 20
503.4598330427571
 30
0.0
  0
SPLINE
  5
19C
330
180
100
AcDbEntity
  8
$DDT_AUDIT_GENERATED_(97)
  6
Continuous
 62
     7
100
AcDbSpline
210
0.0
220
0.0
230
1.0
 70
     8
 71
     3
 72
    47
 73
    43
 74
     0
 42
0.000000000090988
 43
0.0000000001
 40
0.0
 40
0.0
 40
0.0
 40
0.0
 40
0.0026322899560589
 40
0.0224838328393045
 40
0.0444171474838976
 40
0.0676031316630576
 40
0.0909704002209346
 40
0.1137640783645526
 40
0.1360994117067438
 40
0.1707779336056245
 40
0.2056156870702413
 40
0.2410877751049575
 40
0.2899335283233587
 40
0.3406176387468283
 40
0.3934433047395124
 40
0.4483607702788168
 40
0.5029136773845788
 40
0.5572616074129738
 40
0.61081650856677
 40
0.6429939379819708
 40
0.6765779559205193
 40
0.7124098359374184
 40
0.7513797814083796
 40
0.7827838204166536
 40
0.813934656229377
 40
0.8427576801850971
 40
0.8611855804025284
 40
0.8759269629804987
 40
0.8864996655704808
 40
0.8931635900739989
 40
0.8976324455652764
 40
0.9017006808823411
 40
0.9069076331335537
 40
0.913793155643949
 40
0.917615037179461
 40
0.9221048630803053
 40
0.9298397663163446
 40
0.9404945390448998
 40
0.9532329539542045
 40
0.9678074208498352
 40
0.983326658169558
 40
1.0
 40
1.0
 40
1.0
 40
1.0
 10
510.9931425963871
 20
506.1896476477574
 30
0.0
 10
511.0665384806729
 20
506.2660592962555
 30
0.0
 10
511.6048124637675
 20
506.8271604529721
 30
0.0
 10
512.6264187678428
 20
508.1614660604138
 30
0.0
 10
513.9650493330353
 20
510.0932126560454
 30
0.0
 10
515.3440849757278
 20
512.1892017134442
 30
0.0
 10
516.7846850911836
 20
514.2767495458813
 30
0.0
 10
518.335773493008
 20
516.2512216901083
 30
0.0
 10
520.2687768621756
 20
518.4437987164215
 30
0.0
 10
522.6614101960988
 20
520.8064896057714
 30
0.0
 10
525.5562425850344
 20
523.3345570734816
 30
0.0
 10
528.9687403574732
 20
526.0560872212767
 30
0.0
 10
532.9886192281062
 20
528.9376699211441
 30
0.0
 10
537.6784971434249
 20
531.9609925598058
 30
0.0
 10
542.6700095061292
 20
534.9180469066924
 30
0.0
 10
547.8678169842966
 20
537.800784188627
 30
0.0
 10
553.1999271792308
 20
540.5510046294977
 30
0.0
 10
558.5698392332811
 20
543.112461285363
 30
0.0
 10
563.2746648999208
 20
545.1601926282417
 30
0.0
 10
567.3511351552621
 20
546.7344031987726
 30
0.0
 10
570.8670213523473
 20
547.9524007410682
 30
0.0
 10
574.662636435765
 20
549.1150209770799
 30
0.0
 10
578.420105378742
 20
550.1207426254216
 30
0.0
 10
582.0350114658773
 20
550.9891443445503
 30
0.0
 10
585.2993949791485
 20
551.7241760558609
 30
0.0
 10
588.1065181274882
 20
552.3258042928894
 30
0.0
 10
590.3291944105307
 20
552.7873037143443
 30
0.0
 10
591.898202626273
 20
553.1083659788158
 30
0.0
 10
593.0464926248104
 20
553.3399536888099
 30
0.0
 10
593.823359541639
 20
553.5034332275305
 30
0.0
 10
594.3803712177375
 20
553.5666363870117
 30
0.0
 10
594.8818926891358
 20
553.4890291995853
 30
0.0
 10
595.4473614468069
 20
553.3140056257072
 30
0.0
 10
595.9987663963681
 20
553.1247492097166
 30
0.0
 10
596.5154358784904
 20
552.9176876386102
 30
0.0
 10
597.0519505940437
 20
552.6776211041233
 30
0.0
 10
597.7933297704774
 20
552.285414584429
 30
0.0
 10
598.7086549137647
 20
551.5848440566477
 30
0.0
 10
599.5117024288608
 20
550.4223795826529
 30
0.0
 10
600.0950248186632
 20
548.9699615868901
 30
0.0
 10
600.6044549388255
 20
547.2994458943283
 30
0.0
 10
600.8396217715372
 20
546.2327863324196
 30
0.0
 10
600.9796630071725
 20
545.575961232572
 30
0.0
  0
SPLINE
  5
19D
330
180
100
AcDbEntity
  8
$DDT_AUDIT_GENERATED_(97)
  6
Continuous
 62
     7
100
AcDbSpline
210
0.0
220
0.0
230
1.0
 70
     8
 71
     3
 72
    53
 73
    49
 74
     0
 42
0.0000000000665989
 43
0.0000000001
 40
0.0
 40
0.0
 40
0.0
 40
0.0
 40
0.0259861394770564
 40
0.0513753088361921
 40
0.0760482070767415
 40
0.1000523378375568
 40
0.1236592061615645
 40
0.1472522814661412
 40
0.1707777101214497
 40
0.1939680127512047
 40
0.2165359944141809
 40
0.2385645730051017
 40
0.2603407588564056
 40
0.2820451935879203
 40
0.3036312902488486
 40
0.3245840209170877
 40
0.3443385499158845
 40
0.3623794890643264
 40
0.3824616904795076
 40
0.3995955557878746
 40
0.4144423987390879
 40
0.4275901395597894
 40
0.4396241316147655
 40
0.4512052953548906
 40
0.4627472214043903
 40
0.4849105908471625
 40
0.5085803778120082
 40
0.5333334956769312
 40
0.5549542955969323
 40
0.5767680604755562
 40
0.5985025426692497
 40
0.6199216837610748
 40
0.6410158051115209
 40
0.6633638469792643
 40
0.688135530166642
 40
0.715421512123331
 40
0.7454198001517468
 40
0.7783625566723592
 40
0.8143782631962847
 40
0.853579871215541
 40
0.8744139481867115
 40
0.8960774629609385
 40
0.9185455225044078
 40
0.9418918849943853
 40
0.9581169079850663
 40
0.9750755215941971
 40
0.9929106388224533
 40
1.0
 40
1.0
 40
1.0
 40
1.0
 10
628.2608902766394
 20
551.3228171223983
 30
0.0
 10
627.7118099787699
 20
552.64348937157
 30
0.0
 10
626.7860375055466
 20
554.8379005815017
 30
0.0
 10
625.1756390832497
 20
558.3685147600428
 30
0.0
 10
623.4228674046477
 20
561.6168814015143
 30
0.0
 10
621.397028803218
 20
564.6282087898433
 30
0.0
 10
619.0273829703136
 20
567.3048992491525
 30
0.0
 10
616.2872145046179
 20
569.5652942837384
 30
0.0
 10
613.2937363933163
 20
571.4296157432715
 30
0.0
 10
610.1482664010176
 20
572.9051327223136
 30
0.0
 10
606.9288379523782
 20
573.9935695736447
 30
0.0
 10
603.6849336890069
 20
574.7275178634518
 30
0.0
 10
600.4353033054149
 20
575.1787697388954
 30
0.0
 10
597.1863905409027
 20
575.413396150856
 30
0.0
 10
593.9720096553905
 20
575.4927577918091
 30
0.0
 10
590.8547895927774
 20
575.4581819654949
 30
0.0
 10
587.9171902946202
 20
575.3444739301972
 30
0.0
 10
585.0263654392502
 20
575.1701646348241
 30
0.0
 10
582.2697157020865
 20
574.9548623294856
 30
0.0
 10
579.6782781347116
 20
574.6857948618334
 30
0.0
 10
577.440406267509
 20
574.3812847729489
 30
0.0
 10
575.4665994264774
 20
574.0383900282942
 30
0.0
 10
573.6676362079667
 20
573.6522000946723
 30
0.0
 10
571.9629059974217
 20
573.2164609750351
 30
0.0
 10
569.7880966582027
 20
572.5790350161323
 30
0.0
 10
567.0640831610755
 20
571.6703792136362
 30
0.0
 10
563.7458473463945
 20
570.4601087273096
 30
0.0
 10
560.4749213542351
 20
569.2012561587227
 30
0.0
 10
557.3007809473536
 20
567.9501183234808
 30
0.0
 10
554.2695525435569
 20
566.7483336455722
 30
0.0
 10
551.2438165194128
 20
565.5600921222614
 30
0.0
 10
548.241251925606
 20
564.4116265725343
 30
0.0
 10
545.1955306708365
 20
563.2906444107331
 30
0.0
 10
541.9729869992473
 20
562.1656107339305
 30
0.0
 10
538.4308384155174
 20
561.0184708936803
 30
0.0
 10
534.4879136247926
 20
559.8710349161405
 30
0.0
 10
530.105298713732
 20
558.781362117866
 30
0.0
 10
525.2494457912625
 20
557.8050134046491
 30
0.0
 10
519.9034078304436
 20
556.9555110041284
 30
0.0
 10
515.1335589728117
 20
556.3740210560042
 30
0.0
 10
511.0742416043229
 20
555.9633393192865
 30
0.0
 10
507.8472407753001
 20
555.6823225848703
 30
0.0
 10
504.4810545629387
 20
555.5204687300532
 30
0.0
 10
501.3728998367079
 20
555.5716240919735
 30
0.0
 10
498.5529672080803
 20
555.8345532384741
 30
0.0
 10
496.0511785410575
 20
556.189827248333
 30
0.0
 10
493.9373941270736
 20
556.5584539494508
 30
0.0
 10
492.7907926992712
 20
556.7793472883051
 30
0.0
 10
492.4081356116497
 20
556.8535758909169
 30
0.0
  0
ARC
  5
19E
330
180
100
AcDbEntity
  8
$DDT_AUDIT_GENERATED_(97)
  6
Continuous
 62
     7
100
AcDbCircle
 10
514.5000984528
 20
502.848225344
 30
0.0
 40
4.825497129682677
100
AcDbArc
 50
136.3549099131
 51
172.8181651093
  0
LINE
  5
19F
330
180
100
AcDbEntity
  8
$DDT_AUDIT_GENERATED_(97)
  6
Continuous
 62
     7
100
AcDbLine
 10
489.4585438129
 20
562.4523823393
 30
0.0
 11
489.4585438129
 21
562.5523823393
 31
0.0
  0
LINE
  5
1A0
330
180
100
AcDbEntity
  8
$DDT_AUDIT_GENERATED_(97)
  6
Continuous
 62
     7
100
AcDbLine
 10
465.9585438129
 20
562.5523823393
 30
0.0
 11
465.9585438129
 21
562.4523823393
 31
0.0
  0
ARC
  5
1A1
330
180
100
AcDbEntity
  8
$DDT_AUDIT_GENERATED_(97)
  6
Continuous
 62
     7
100
AcDbCircle
 10
489.3948668925
 20
559.5530815089
 30
0.0
 40
2.89999995638276
100
AcDbArc
 50
2.0571001404
 51
89.9951798161
  0
ARC
  5
1A2
330
180
100
AcDbEntity
  8
$DDT_AUDIT_GENERATED_(97)
  6
Continuous
 62
     7
100
AcDbCircle
 10
466.0222186774
 20
559.5530814723
 30
0.0
 40
2.899999993537604
100
AcDbArc
 50
91.2581359356
 51
177.8265954636
  0
ARC
  5
1A3
330
180
100
AcDbEntity
  8
$DDT_AUDIT_GENERATED_(97)
  6
Continuous
 62
     7
100
AcDbCircle
 10
486.5585438129
 20
562.5523823393
 30
0.0
 40
2.9
100
AcDbArc
 50
0.0
 51
90.0
  0
ARC
  5
1A4
330
180
100
AcDbEntity
  8
$DDT_AUDIT_GENERATED_(97)
  6
Continuous
 62
     7
100
AcDbCircle
 10
468.8585438129
 20
562.5523823393
 30
0.0
 40
2.9
100
AcDbArc
 50
90.0
 51
180.0
  0
LINE
  5
1A5
330
180
100
AcDbEntity
  8
$DDT_AUDIT_GENERATED_(97)
  6
Continuous
 62
     7
100
AcDbLine
 10
603.4168234619
 20
546.0893549218
 30
0.0
 11
604.3444022348
 21
541.6859928404
 31
0.0
  0
LINE
  5
1A6
330
180
100
AcDbEntity
  8
$DDT_AUDIT_GENERATED_(97)
  6
Continuous
 62
     7
100
AcDbLine
 10
626.8504750954
 20
546.4269510127
 30
0.0
 11
625.9228963226
 21
550.8303130942
 31
0.0
  0
LINE
  5
1A7
330
180
100
AcDbEntity
  8
$DDT_AUDIT_GENERATED_(97)
  6
Continuous
 62
     7
100
AcDbLine
 10
604.3444022348
 20
541.6859928404
 30
0.0
 11
604.9367289964
 21
541.299794695
 31
0.0
  0
LINE
  5
1A8
330
180
100
AcDbEntity
  8
$DDT_AUDIT_GENERATED_(97)
  6
Continuous
 62
     7
100
AcDbLine
 10
626.46427695
 20
545.8346242512
 30
0.0
 11
626.8504750954
 21
546.4269510127
 31
0.0
  0
ARC
  5
1A9
330
180
100
AcDbEntity
  8
$DDT_AUDIT_GENERATED_(97)
  6
Continuous
 62
     7
100
AcDbCircle
 10
477.8866315445
 20
581.5076773026
 30
0.0
 40
9.999999999999877
100
AcDbArc
 50
297.2796130439
 51
90.0
  0
ARC
  5
1AA
330
180
100
AcDbEntity
  8
$DDT_AUDIT_GENERATED_(97)
  6
Continuous
 62
     7
100
AcDbCircle
 10
477.7145845454
 20
581.5076773026
 30
0.0
 40
9.99999999999987
100
AcDbArc
 50
90.0
 51
242.7203869561
  0
LINE
  5
1AB
330
180
100
AcDbEntity
  8
$DDT_AUDIT_GENERATED_(97)
  6
Continuous
 62
     7
100
AcDbLine
 10
477.8866315445
 20
591.5076773026
 30
0.0
 11
477.7145845454
 21
591.5076773026
 31
0.0
  0
ARC
  5
1AC
330
180
100
AcDbEntity
  8
$DDT_AUDIT_GENERATED_(97)
  6
Continuous
 62
     7
100
AcDbCircle
 10
483.3866315178
 20
570.8423129913
 30
0.0
 40
1.999999816666055
100
AcDbArc
 50
117.2796130439
 51
180.0
  0
ARC
  5
1AD
330
180
100
AcDbEntity
  8
$DDT_AUDIT_GENERATED_(97)
  6
Continuous
 62
     7
100
AcDbCircle
 10
472.2145845721
 20
570.8423129913
 30
0.0
 40
1.999999816666127
100
AcDbArc
 50
0.0
 51
62.7203869561
  0
LINE
  5
1AE
330
180
100
AcDbEntity
  8
$DDT_AUDIT_GENERATED_(97)
  6
Continuous
 62
     7
100
AcDbLine
 10
481.3866316228
 20
570.5076773026
 30
0.0
 11
481.3866316228
 21
570.8423129913
 31
0.0
  0
LINE
  5
1AF
330
180
100
AcDbEntity
  8
$DDT_AUDIT_GENERATED_(97)
  6
Continuous
 62
     7
100
AcDbLine
 10
474.2145844671
 20
570.8423129913
 30
0.0
 11
474.2145844671
 21
570.5076773026
 31
0.0
  0
ARC
  5
1B0
330
180
100
AcDbEntity
  8
$DDT_AUDIT_GENERATED_(97)
  6
Continuous
 62
     7
100
AcDbCircle
 10
483.3866315445
 20
570.5076773026
 30
0.0
 40
2.000000000000048
100
AcDbArc
 50
180.0
 51
258.4630472327
  0
ARC
  5
1B1
330
180
100
AcDbEntity
  8
$DDT_AUDIT_GENERATED_(97)
  6
Continuous
 62
     7
100
AcDbCircle
 10
472.2145845454
 20
570.5076773026
 30
0.0
 40
2.000000000000048
100
AcDbArc
 50
281.5369527673
 51
0.0
  0
ARC
  5
1B2
330
180
100
AcDbEntity
  8
$DDT_AUDIT_GENERATED_(97)
  6
Continuous
 62
     7
100
AcDbCircle
 10
482.3866316731
 20
565.6086957132
 30
0.0
 40
3.000002035667785
100
AcDbArc
 50
9.1832392532
 51
78.4630472327
  0
ARC
  5
1B3
330
180
100
AcDbEntity
  8
$DDT_AUDIT_GENERATED_(97)
  6
Continuous
 62
     7
100
AcDbCircle
 10
473.2145844168
 20
565.6086957132
 30
0.0
 40
3.000002035667801
100
AcDbArc
 50
101.5369527673
 51
170.8167607468
  0
ARC
  5
1B4
330
180
100
AcDbEntity
  8
$DDT_AUDIT_GENERATED_(97)
  6
Continuous
 62
     7
100
AcDbCircle
 10
484.7934693303
 20
566.0187840031
 30
0.0
 40
0.5589499944738743
100
AcDbArc
 50
270.0
 51
7.058913031
  0
ARC
  5
1B5
330
180
100
AcDbEntity
  8
$DDT_AUDIT_GENERATED_(97)
  6
Continuous
 62
     7
100
AcDbCircle
 10
470.8077467596
 20
566.0187840031
 30
0.0
 40
0.5589499944738745
100
AcDbArc
 50
172.941086969
 51
270.0
  0
LINE
  5
1B6
330
180
100
AcDbEntity
  8
$DDT_AUDIT_GENERATED_(D6)
  6
Continuous
 62
     7
100
AcDbLine
 10
486.15854383
 20
536.7598330428
 30
0.0
 11
469.25854383
 21
536.7598330428
 31
0.0
  0
LINE
  5
1B7
330
180
100
AcDbEntity
  8
$DDT_AUDIT_GENERATED_(D6)
  6
Continuous
 62
     7
100
AcDbLine
 10
486.20854383
 20
536.7098330428
 30
0.0
 11
486.15854383
 21
536.7598330428
 31
0.0
  0
LINE
  5
1B8
330
180
100
AcDbEntity
  8
$DDT_AUDIT_GENERATED_(D6)
  6
Continuous
 62
     7
100
AcDbLine
 10
469.25854383
 20
536.7598330428
 30
0.0
 11
469.20854383
 21
536.7098330428
 31
0.0
  0
LINE
  5
1B9
330
180
100
AcDbEntity
  8
00300038_KAPPE_S
  6
Continuous
 62
     7
100
AcDbLine
 10
488.9851744663
 20
536.6598330428
 30
0.0
 11
466.4319131937
 21
536.6598330428
 31
0.0
  0
ARC
  5
1BA
330
180
100
AcDbEntity
  8
00300038_KAPPE_S
  6
Continuous
 62
     7
100
AcDbCircle
 10
456.208543745
 20
504.6598330428
 30
0.0
 40
0.9999999999999981
100
AcDbArc
 50
173.2987391621
 51
224.9624175916
  0
ARC
  5
1BB
330
180
100
AcDbEntity
  8
00300038_KAPPE_S
  6
Continuous
 62
     7
100
AcDbCircle
 10
499.2085439149
 20
504.6598330428
 30
0.0
 40
0.9999999999999981
100
AcDbArc
 50
315.0375824084
 51
6.7012608379
  0
ARC
  5
1BC
330
180
100
AcDbEntity
  8
00300038_KAPPE_S
  6
Continuous
 62
     7
100
AcDbCircle
 10
435.4603252604
 20
536.9867621626
 30
0.0
 40
29.99999999999999
100
AcDbArc
 50
328.1774305861
 51
357.546752463
  0
ARC
  5
1BD
330
180
100
AcDbEntity
  8
00300038_KAPPE_S
  6
Continuous
 62
     7
100
AcDbCircle
 10
519.9567623996
 20
536.9867621626
 30
0.0
 40
30.0
100
AcDbArc
 50
182.453247537
 51
211.8225694139
  0
ARC
  5
1BE
330
180
100
AcDbEntity
  8
00300038_KAPPE_S
  6
Continuous
 62
     7
100
AcDbCircle
 10
460.4788086482
 20
500.0764246195
 30
0.0
 40
40.0
100
AcDbArc
 50
6.7479880362
 51
31.8225694139
  0
ARC
  5
1BF
330
180
100
AcDbEntity
  8
00300038_KAPPE_S
  6
Continuous
 62
     7
100
AcDbCircle
 10
494.9382790117
 20
500.0764246195
 30
0.0
 40
40.0
100
AcDbArc
 50
148.1774305861
 51
173.2520119638
  0
ARC
  5
1C0
330
180
100
AcDbEntity
  8
00300038_KAPPE_S
  6
Continuous
 62
     7
100
AcDbCircle
 10
488.9851744663
 20
535.6598330428
 30
0.0
 40
0.9999999999999993
100
AcDbArc
 50
2.453247537
 51
90.0
  0
ARC
  5
1C1
330
180
100
AcDbEntity
  8
00300038_KAPPE_S
  6
Continuous
 62
     7
100
AcDbCircle
 10
466.4319131937
 20
535.6598330428
 30
0.0
 40
1.000000000000001
100
AcDbArc
 50
90.0
 51
177.546752463
  0
LINE
  5
1C2
330
180
100
AcDbEntity
  8
00315038_ROSETTE
  6
Continuous
 62
     7
100
AcDbLine
 10
504.20854383
 20
499.2598330428
 30
0.0
 11
451.20854383
 21
499.2598330428
 31
0.0
  0
LINE
  5
1C3
330
180
100
AcDbEntity
  8
00315038_ROSETTE
  6
Continuous
 62
     7
100
AcDbLine
 10
504.20854383
 20
495.2598330428
 30
0.0
 11
451.20854383
 21
495.2598330428
 31
0.0
  0
LINE
  5
1C4
330
180
100
AcDbEntity
  8
00315038_ROSETTE
  6
Continuous
 62
     7
100
AcDbLine
 10
501.3058401853
 20
503.7081440724
 30
0.0
 11
499.9161143613
 21
503.953190231
 31
0.0
  0
LINE
  5
1C5
330
180
100
AcDbEntity
  8
00315038_ROSETTE
  6
Continuous
 62
     7
100
AcDbLine
 10
455.5009732986
 20
503.953190231
 30
0.0
 11
454.1112474746
 21
503.7081440724
 31
0.0
  0
ARC
  5
1C6
330
180
100
AcDbEntity
  8
00315038_ROSETTE
  6
Continuous
 62
     7
100
AcDbCircle
 10
454.45854383
 20
501.7385285664
 30
0.0
 40
2.000000000000001
100
AcDbArc
 50
100.0
 51
232.3238678277
  0
ARC
  5
1C7
330
180
100
AcDbEntity
  8
00315038_ROSETTE
  6
Continuous
 62
     7
100
AcDbCircle
 10
500.95854383
 20
501.7385285664
 30
0.0
 40
2.0
100
AcDbArc
 50
307.6761321723
 51
80.0
  0
ARC
  5
1C8
330
180
100
AcDbEntity
  8
00315038_ROSETTE
  6
Continuous
 62
     7
100
AcDbCircle
 10
452.9305503664
 20
499.7598330428
 30
0.0
 40
0.5000000000000004
100
AcDbArc
 50
270.0
 51
52.3238678277
  0
ARC
  5
1C9
330
180
100
AcDbEntity
  8
00315038_ROSETTE
  6
Continuous
 62
     7
100
AcDbCircle
 10
502.4865372935
 20
499.7598330428
 30
0.0
 40
0.5000000000000004
100
AcDbArc
 50
127.6761321723
 51
270.0
  0
ARC
  5
1CA
330
180
100
AcDbEntity
  8
00315038_ROSETTE
  6
Continuous
 62
     7
100
AcDbCircle
 10
451.20854383
 20
497.2598330428
 30
0.0
 40
1.999999999999999
100
AcDbArc
 50
90.0
 51
270.0
  0
ARC
  5
1CB
330
180
100
AcDbEntity
  8
00315038_ROSETTE
  6
Continuous
 62
     7
100
AcDbCircle
 10
504.20854383
 20
497.2598330428
 30
0.0
 40
1.999999999999998
100
AcDbArc
 50
270.0
 51
90.0
  0
LINE
  5
1CC
330
180
100
AcDbEntity
  8
$DDT_AUDIT_GENERATED_(97)
  6
Continuous
 62
     7
100
AcDbLine
 10
484.45854383
 20
537.1598330428
 30
0.0
 11
470.95854383
 21
537.1598330428
 31
0.0
  0
LINE
  5
1CD
330
180
100
AcDbEntity
  8
$DDT_AUDIT_GENERATED_(97)
  6
Continuous
 62
     7
100
AcDbLine
 10
465.70854383
 20
541.6598330428
 30
0.0
 11
473.1589952789
 21
541.6598330428
 31
0.0
  0
LINE
  5
1CE
330
180
100
AcDbEntity
  8
$DDT_AUDIT_GENERATED_(97)
  6
Continuous
 62
     7
100
AcDbLine
 10
482.2580923811
 20
541.6598330428
 30
0.0
 11
489.70854383
 21
541.6598330428
 31
0.0
  0
LINE
  5
1CF
330
180
100
AcDbEntity
  8
$DDT_AUDIT_GENERATED_(97)
  6
Continuous
 62
     7
100
AcDbLine
 10
489.70854383
 20
555.6598330428
 30
0.0
 11
465.70854383
 21
555.6598330428
 31
0.0
  0
LINE
  5
1D0
330
180
100
AcDbEntity
  8
$DDT_AUDIT_GENERATED_(97)
  6
Continuous
 62
     7
100
AcDbLine
 10
490.7384147257
 20
542.6820753765
 30
0.0
 11
490.7384147257
 21
551.0740391157
 31
0.0
  0
LINE
  5
1D1
330
180
100
AcDbEntity
  8
$DDT_AUDIT_GENERATED_(97)
  6
Continuous
 62
     7
100
AcDbLine
 10
496.7445526778
 20
542.4495787735
 30
0.0
 11
496.7445526778
 21
551.3065357186
 31
0.0
  0
LINE
  5
1D2
330
180
100
AcDbEntity
  8
$DDT_AUDIT_GENERATED_(97)
  6
Continuous
 62
     7
100
AcDbLine
 10
498.0048005582
 20
542.4495787735
 30
0.0
 11
498.0048005582
 21
551.3065357186
 31
0.0
  0
LINE
  5
1D3
330
180
100
AcDbEntity
  8
$DDT_AUDIT_GENERATED_(97)
  6
Continuous
 62
     7
100
AcDbLine
 10
499.0978063109
 20
543.0653529394
 30
0.0
 11
499.0978063109
 21
550.6907615527
 31
0.0
  0
LINE
  5
1D4
330
180
100
AcDbEntity
  8
$DDT_AUDIT_GENERATED_(97)
  6
Continuous
 62
     7
100
AcDbLine
 10
458.6725349821
 20
551.3065357186
 30
0.0
 11
458.6725349821
 21
542.4495787735
 31
0.0
  0
LINE
  5
1D5
330
180
100
AcDbEntity
  8
$DDT_AUDIT_GENERATED_(97)
  6
Continuous
 62
     7
100
AcDbLine
 10
457.4122871017
 20
551.3065357186
 30
0.0
 11
457.4122871017
 21
542.4495787735
 31
0.0
  0
LINE
  5
1D6
330
180
100
AcDbEntity
  8
$DDT_AUDIT_GENERATED_(97)
  6
Continuous
 62
     7
100
AcDbLine
 10
456.3192813491
 20
550.6907615527
 30
0.0
 11
456.3192813491
 21
543.0653529394
 31
0.0
  0
LINE
  5
1D7
330
180
100
AcDbEntity
  8
$DDT_AUDIT_GENERATED_(97)
  6
Continuous
 62
     7
100
AcDbLine
 10
469.20854383
 20
558.1598330428
 30
0.0
 11
486.20854383
 21
558.1598330428
 31
0.0
  0
LINE
  5
1D8
330
180
100
AcDbEntity
  8
$DDT_AUDIT_GENERATED_(97)
  6
Continuous
 62
     7
100
AcDbLine
 10
467.20854383
 20
557.6239346579
 30
0.0
 11
488.20854383
 21
557.6239346579
 31
0.0
  0
LINE
  5
1D9
330
180
100
AcDbEntity
  8
$DDT_AUDIT_GENERATED_(97)
  6
Continuous
 62
     7
100
AcDbLine
 10
484.45854383
 20
536.7598330428
 30
0.0
 11
484.45854383
 21
537.1598330428
 31
0.0
  0
LINE
  5
1DA
330
180
100
AcDbEntity
  8
$DDT_AUDIT_GENERATED_(97)
  6
Continuous
 62
     7
100
AcDbLine
 10
470.95854383
 20
537.1598330428
 30
0.0
 11
470.95854383
 21
536.7598330428
 31
0.0
  0
LINE
  5
1DB
330
180
100
AcDbEntity
  8
$DDT_AUDIT_GENERATED_(97)
  6
Continuous
 62
     7
100
AcDbLine
 10
486.20854383
 20
539.1441465261
 30
0.0
 11
486.20854383
 21
539.6598330428
 31
0.0
  0
LINE
  5
1DC
330
180
100
AcDbEntity
  8
$DDT_AUDIT_GENERATED_(97)
  6
Continuous
 62
     7
100
AcDbLine
 10
469.20854383
 20
539.6598330428
 30
0.0
 11
469.20854383
 21
539.1441465261
 31
0.0
  0
LINE
  5
1DD
330
180
100
AcDbEntity
  8
$DDT_AUDIT_GENERATED_(97)
  6
Continuous
 62
     7
100
AcDbLine
 10
490.70854383
 20
551.0825396814
 30
0.0
 11
490.70854383
 21
554.6598330428
 31
0.0
  0
LINE
  5
1DE
330
180
100
AcDbEntity
  8
$DDT_AUDIT_GENERATED_(97)
  6
Continuous
 62
     7
100
AcDbLine
 10
464.70854383
 20
554.6598330428
 30
0.0
 11
464.70854383
 21
551.0247455618
 31
0.0
  0
ARC
  5
1DF
330
180
100
AcDbEntity
  8
$DDT_AUDIT_GENERATED_(97)
  6
Continuous
 62
     7
100
AcDbCircle
 10
484.20854383
 20
539.1441465261
 30
0.0
 40
2.000000000000001
100
AcDbArc
 50
277.1807557815
 51
0.0
  0
ARC
  5
1E0
330
180
100
AcDbEntity
  8
$DDT_AUDIT_GENERATED_(97)
  6
Continuous
 62
     7
100
AcDbCircle
 10
471.20854383
 20
539.1441465261
 30
0.0
 40
1.999999999999998
100
AcDbArc
 50
180.0
 51
262.8192442185
  0
ARC
  5
1E1
330
180
100
AcDbEntity
  8
$DDT_AUDIT_GENERATED_(97)
  6
Continuous
 62
     7
100
AcDbCircle
 10
488.20854383
 20
539.6598330428
 30
0.0
 40
2.0
100
AcDbArc
 50
90.0
 51
180.0
  0
ARC
  5
1E2
330
180
100
AcDbEntity
  8
$DDT_AUDIT_GENERATED_(97)
  6
Continuous
 62
     7
100
AcDbCircle
 10
467.20854383
 20
539.6598330428
 30
0.0
 40
2.000000000000002
100
AcDbArc
 50
0.0
 51
90.0
  0
ARC
  5
1E3
330
180
100
AcDbEntity
  8
$DDT_AUDIT_GENERATED_(97)
  6
Continuous
 62
     7
100
AcDbCircle
 10
489.70854383
 20
542.6598330428
 30
0.0
 40
1.000000000000001
100
AcDbArc
 50
270.0
 51
0.0
  0
ARC
  5
1E4
330
180
100
AcDbEntity
  8
$DDT_AUDIT_GENERATED_(97)
  6
Continuous
 62
     7
100
AcDbCircle
 10
465.70854383
 20
542.6598330428
 30
0.0
 40
1.000000000000001
100
AcDbArc
 50
180.0
 51
270.0
  0
ARC
  5
1E5
330
180
100
AcDbEntity
  8
$DDT_AUDIT_GENERATED_(97)
  6
Continuous
 62
     7
100
AcDbCircle
 10
489.70854383
 20
554.6598330428
 30
0.0
 40
1.000000000000001
100
AcDbArc
 50
0.0
 51
90.0
  0
ARC
  5
1E6
330
180
100
AcDbEntity
  8
$DDT_AUDIT_GENERATED_(97)
  6
Continuous
 62
     7
100
AcDbCircle
 10
465.70854383
 20
554.6598330428
 30
0.0
 40
1.000000000000001
100
AcDbArc
 50
90.0
 51
180.0
  0
ARC
  5
1E7
330
180
100
AcDbEntity
  8
$DDT_AUDIT_GENERATED_(97)
  6
Continuous
 62
     7
100
AcDbCircle
 10
493.5360917072
 20
556.4962258171
 30
0.0
 40
6.101401897797886
100
AcDbArc
 50
242.7076959454
 51
301.7259106494
  0
ARC
  5
1E8
330
180
100
AcDbEntity
  8
$DDT_AUDIT_GENERATED_(97)
  6
Continuous
 62
     7
100
AcDbCircle
 10
493.5360917072
 20
537.259888675
 30
0.0
 40
6.101401897797886
100
AcDbArc
 50
58.2740893506
 51
117.2923040546
  0
LINE
  5
1E9
330
180
100
AcDbEntity
  8
$DDT_AUDIT_GENERATED_(97)
  6
Continuous
 62
     7
100
AcDbLine
 10
498.0048005582
 20
551.3065357186
 30
0.0
 11
496.7445526778
 21
551.3065357186
 31
0.0
  0
LINE
  5
1EA
330
180
100
AcDbEntity
  8
$DDT_AUDIT_GENERATED_(97)
  6
Continuous
 62
     7
100
AcDbLine
 10
496.7445526778
 20
542.4495787735
 30
0.0
 11
498.0048005582
 21
542.4495787735
 31
0.0
  0
LINE
  5
1EB
330
180
100
AcDbEntity
  8
$DDT_AUDIT_GENERATED_(97)
  6
Continuous
 62
     7
100
AcDbLine
 10
499.0978063109
 20
550.6907615527
 30
0.0
 11
498.0048005582
 21
550.6907615527
 31
0.0
  0
LINE
  5
1EC
330
180
100
AcDbEntity
  8
$DDT_AUDIT_GENERATED_(97)
  6
Continuous
 62
     7
100
AcDbLine
 10
498.0048005582
 20
543.0653529394
 30
0.0
 11
499.0978063109
 21
543.0653529394
 31
0.0
  0
SPLINE
  5
1ED
330
180
100
AcDbEntity
  8
$DDT_AUDIT_GENERATED_(97)
  6
Continuous
 62
     7
100
AcDbSpline
210
0.0
220
0.0
230
1.0
 70
     8
 71
     3
 72
    22
 73
    18
 74
     0
 42
0.0000000006406317
 43
0.0000000001
 40
0.0
 40
0.0
 40
0.0
 40
0.0
 40
0.0387428946632267
 40
0.0764842388972076
 40
0.1143321871672149
 40
0.1894977696042359
 40
0.3015199682265925
 40
0.411403643295854
 40
0.5216525276783494
 40
0.603299240668116
 40
0.6847364583045062
 40
0.7258433937200116
 40
0.7667245709161283
 40
0.8034647450775144
 40
0.8243945372381423
 40
0.908697869633619
 40
1.0
 40
1.0
 40
1.0
 40
1.0
 10
509.3649820214939
 20
547.0949178890627
 30
0.0
 10
509.3601039214031
 20
547.3148933557632
 30
0.0
 10
509.3499029797812
 20
547.6810648649208
 30
0.0
 10
509.270168720873
 20
548.2783205286042
 30
0.0
 10
509.1099492077423
 20
549.0366519850926
 30
0.0
 10
508.7748496380299
 20
550.1537414916464
 30
0.0
 10
508.0493804292943
 20
551.5279399724565
 30
0.0
 10
506.8168596461384
 20
552.7544200630517
 30
0.0
 10
505.437300090529
 20
553.5249043208113
 30
0.0
 10
504.0468196605194
 20
553.8515978458536
 30
0.0
 10
502.9773386937055
 20
553.772770871089
 30
0.0
 10
502.1677794227782
 20
553.5277679643718
 30
0.0
 10
501.6074869531046
 20
553.2749394269484
 30
0.0
 10
501.1722103683118
 20
553.0083858336595
 30
0.0
 10
500.5869016639435
 20
552.5683338704911
 30
0.0
 10
499.8729796001341
 20
551.8047296575904
 30
0.0
 10
499.3882483538588
 20
551.1203098995016
 30
0.0
 10
499.0978063108744
 20
550.6907615527409
 30
0.0
  0
SPLINE
  5
1EE
330
180
100
AcDbEntity
  8
$DDT_AUDIT_GENERATED_(97)
  6
Continuous
 62
     7
100
AcDbSpline
210
0.0
220
0.0
230
1.0
 70
     8
 71
     3
 72
    21
 73
    17
 74
     0
 42
0.0000000006404439
 43
0.0000000001
 40
0.0
 40
0.0
 40
0.0
 40
0.0
 40
0.0913084166638564
 40
0.1756175534783931
 40
0.206389259903186
 40
0.2604639145488639
 40
0.3152163964968825
 40
0.3966592212157543
 40
0.4783115557120921
 40
0.5885680309063334
 40
0.6984592716420966
 40
0.8104891831717169
 40
0.8856599408791208
 40
0.9235104950408061
 40
0.9612544378266067
 40
1.0
 40
1.0
 40
1.0
 40
1.0
 10
499.0978063108744
 20
543.0653529394026
 30
0.0
 10
499.3882483538588
 20
542.635804592642
 30
0.0
 10
499.8731384333901
 20
541.9512050853798
 30
0.0
 10
500.6222725687563
 20
541.1499713727718
 30
0.0
 10
501.3283104250445
 20
540.6370420649373
 30
0.0
 10
501.9687137242739
 20
540.2967383287184
 30
0.0
 10
502.9061863861788
 20
539.9888924996285
 30
0.0
 10
504.046727481819
 20
539.9044294254182
 30
0.0
 10
505.4373346205882
 20
540.2312428441933
 30
0.0
 10
506.8168492879403
 20
541.001684628009
 30
0.0
 10
508.0493833018157
 20
542.2281772377102
 30
0.0
 10
508.7748491259599
 20
543.6023725159688
 30
0.0
 10
509.109949260249
 20
544.7194625567337
 30
0.0
 10
509.2701687109378
 20
545.4777939541384
 30
0.0
 10
509.3499029826971
 20
546.0750496299818
 30
0.0
 10
509.3601039214031
 20
546.4412211363804
 30
0.0
 10
509.3649820214939
 20
546.6611966030807
 30
0.0
  0
LINE
  5
1EF
330
180
100
AcDbEntity
  8
$DDT_AUDIT_GENERATED_(97)
  6
Continuous
 62
     7
100
AcDbLine
 10
509.3649820215
 20
546.6611966031
 30
0.0
 11
509.3649820215
 21
547.0949178891
 31
0.0
  0
CIRCLE
  5
1F0
330
180
100
AcDbEntity
  8
$DDT_AUDIT_GENERATED_(97)
  6
Continuous
 62
     7
100
AcDbCircle
 10
477.70854383
 20
546.8780572461
 30
0.0
 40
6.923023606403192
  0
LINE
  5
1F1
330
180
100
AcDbEntity
  8
$DDT_AUDIT_GENERATED_(97)
  6
Continuous
 62
     7
100
AcDbLine
 10
464.7019301818
 20
551.0860391204
 30
0.0
 11
464.6786729343
 21
551.0740391157
 31
0.0
  0
ARC
  5
1F2
330
180
100
AcDbEntity
  8
$DDT_AUDIT_GENERATED_(97)
  6
Continuous
 62
     7
100
AcDbCircle
 10
461.8809959528
 20
537.259888675
 30
0.0
 40
6.101401897797891
100
AcDbArc
 50
62.7076959454
 51
121.7259106494
  0
ARC
  5
1F3
330
180
100
AcDbEntity
  8
$DDT_AUDIT_GENERATED_(97)
  6
Continuous
 62
     7
100
AcDbCircle
 10
461.8809959528
 20
556.4962258171
 30
0.0
 40
6.101401897797886
100
AcDbArc
 50
238.2740893506
 51
297.2923040546
  0
LINE
  5
1F4
330
180
100
AcDbEntity
  8
$DDT_AUDIT_GENERATED_(97)
  6
Continuous
 62
     7
100
AcDbLine
 10
457.4122871017
 20
542.4495787735
 30
0.0
 11
458.6725349821
 21
542.4495787735
 31
0.0
  0
LINE
  5
1F5
330
180
100
AcDbEntity
  8
$DDT_AUDIT_GENERATED_(97)
  6
Continuous
 62
     7
100
AcDbLine
 10
458.6725349821
 20
551.3065357186
 30
0.0
 11
457.4122871017
 21
551.3065357186
 31
0.0
  0
LINE
  5
1F6
330
180
100
AcDbEntity
  8
$DDT_AUDIT_GENERATED_(97)
  6
Continuous
 62
     7
100
AcDbLine
 10
456.3192813491
 20
543.0653529394
 30
0.0
 11
457.4122871017
 21
543.0653529394
 31
0.0
  0
LINE
  5
1F7
330
180
100
AcDbEntity
  8
$DDT_AUDIT_GENERATED_(97)
  6
Continuous
 62
     7
100
AcDbLine
 10
457.4122871017
 20
550.6907615527
 30
0.0
 11
456.3192813491
 21
550.6907615527
 31
0.0
  0
SPLINE
  5
1F8
330
180
100
AcDbEntity
  8
$DDT_AUDIT_GENERATED_(97)
  6
Continuous
 62
     7
100
AcDbSpline
210
0.0
220
0.0
230
1.0
 70
     8
 71
     3
 72
    22
 73
    18
 74
     0
 42
0.0000000006406317
 43
0.0000000001
 40
0.0
 40
0.0
 40
0.0
 40
0.0
 40
0.0387428946632267
 40
0.0764842388972077
 40
0.1143321871672141
 40
0.1894977696042352
 40
0.3015199682265927
 40
0.4114036432958543
 40
0.5216525276783491
 40
0.6032992406681159
 40
0.6847364583045062
 40
0.7258433937200115
 40
0.7667245709161282
 40
0.8034647450775148
 40
0.8243945372381426
 40
0.9086978696336194
 40
1.0
 40
1.0
 40
1.0
 40
1.0
 10
446.0521056384655
 20
546.6611966030807
 30
0.0
 10
446.0569837385564
 20
546.4412211363804
 30
0.0
 10
446.0671846801782
 20
546.0750496272227
 30
0.0
 10
446.1469189390866
 20
545.4777939635394
 30
0.0
 10
446.3071384522171
 20
544.719462507051
 30
0.0
 10
446.6422380219295
 20
543.6023730004971
 30
0.0
 10
447.3677072306651
 20
542.2281745196872
 30
0.0
 10
448.600228013821
 20
541.0016944290917
 30
0.0
 10
449.9797875694305
 20
540.2312101713322
 30
0.0
 10
451.3702679994402
 20
539.90451664629
 30
0.0
 10
452.4397489662539
 20
539.9833436210545
 30
0.0
 10
453.2493082371811
 20
540.2283465277716
 30
0.0
 10
453.8096007068548
 20
540.4811750651952
 30
0.0
 10
454.2448772916475
 20
540.7477286584841
 30
0.0
 10
454.830185996016
 20
541.1877806216525
 30
0.0
 10
455.5441080598253
 20
541.9513848345532
 30
0.0
 10
456.0288393061007
 20
542.635804592642
 30
0.0
 10
456.3192813490851
 20
543.0653529394026
 30
0.0
  0
SPLINE
  5
1F9
330
180
100
AcDbEntity
  8
$DDT_AUDIT_GENERATED_(97)
  6
Continuous
 62
     7
100
AcDbSpline
210
0.0
220
0.0
230
1.0
 70
     8
 71
     3
 72
    21
 73
    17
 74
     0
 42
0.0000000006404439
 43
0.0000000001
 40
0.0
 40
0.0
 40
0.0
 40
0.0
 40
0.0913084166638568
 40
0.1756175534783939
 40
0.2063892599031863
 40
0.2604639145488644
 40
0.3152163964968831
 40
0.3966592212157548
 40
0.4783115557120926
 40
0.5885680309063338
 40
0.6984592716420975
 40
0.8104891831717178
 40
0.8856599408791219
 40
0.923510495040807
 40
0.9612544378266071
 40
1.0
 40
1.0
 40
1.0
 40
1.0
 10
456.3192813490851
 20
550.6907615527409
 30
0.0
 10
456.0288393061007
 20
551.1203098995016
 30
0.0
 10
455.5439492265694
 20
551.8049094067637
 30
0.0
 10
454.7948150912031
 20
552.6061431193718
 30
0.0
 10
454.0887772349149
 20
553.1190724272061
 30
0.0
 10
453.4483739356856
 20
553.4593761634251
 30
0.0
 10
452.5109012737807
 20
553.767221992515
 30
0.0
 10
451.3703601781405
 20
553.8516850667252
 30
0.0
 10
449.9797530393712
 20
553.5248716479501
 30
0.0
 10
448.6002383720191
 20
552.7544298641346
 30
0.0
 10
447.3677043581437
 20
551.5279372544335
 30
0.0
 10
446.6422385339994
 20
550.1537419761746
 30
0.0
 10
446.3071383997105
 20
549.0366519354101
 30
0.0
 10
446.1469189490217
 20
548.2783205380051
 30
0.0
 10
446.0671846772624
 20
547.6810648621617
 30
0.0
 10
446.0569837385564
 20
547.3148933557632
 30
0.0
 10
446.0521056384655
 20
547.0949178890627
 30
0.0
  0
LINE
  5
1FA
330
180
100
AcDbEntity
  8
$DDT_AUDIT_GENERATED_(97)
  6
Continuous
 62
     7
100
AcDbLine
 10
446.0521056385
 20
547.0949178891
 30
0.0
 11
446.0521056385
 21
546.6611966031
 31
0.0
  0
ARC
  5
1FB
330
180
100
AcDbEntity
  8
$DDT_AUDIT_GENERATED_(97)
  6
Continuous
 62
     7
100
AcDbCircle
 10
481.0302249132
 20
343.7788690172
 30
0.0
 40
214.7066600740566
100
AcDbArc
 50
90.8864461851
 51
93.1562836956
  0
ARC
  5
1FC
330
180
100
AcDbEntity
  8
$DDT_AUDIT_GENERATED_(97)
  6
Continuous
 62
     7
100
AcDbCircle
 10
474.3868627467
 20
343.7788690172
 30
0.0
 40
214.7066600740566
100
AcDbArc
 50
86.8437163044
 51
89.1135538149
  0
LINE
  5
1FD
330
180
100
AcDbEntity
  8
$DDT_AUDIT_GENERATED_(97)
  6
Continuous
 62
     7
100
AcDbLine
 10
488.20854383
 20
557.6239346579
 30
0.0
 11
486.20854383
 21
558.1598330428
 31
0.0
  0
LINE
  5
1FE
330
180
100
AcDbEntity
  8
$DDT_AUDIT_GENERATED_(97)
  6
Continuous
 62
     7
100
AcDbLine
 10
469.20854383
 20
558.1598330428
 30
0.0
 11
467.20854383
 21
557.6239346579
 31
0.0
  0
LINE
  5
1FF
330
180
100
AcDbEntity
  8
$DDT_AUDIT_GENERATED_(97)
  6
Continuous
 62
     7
100
AcDbLine
 10
488.20854383
 20
555.6598330428
 30
0.0
 11
488.20854383
 21
557.6239346579
 31
0.0
  0
LINE
  5
200
330
180
100
AcDbEntity
  8
$DDT_AUDIT_GENERATED_(97)
  6
Continuous
 62
     7
100
AcDbLine
 10
467.20854383
 20
557.6239346579
 30
0.0
 11
467.20854383
 21
555.6598330428
 31
0.0
  0
LINE
  5
201
330
180
100
AcDbEntity
  8
$DDT_AUDIT_GENERATED_(97)
  6
Continuous
 62
     7
100
AcDbLine
 10
508.7085438758
 20
499.4598330428
 30
0.0
 11
502.0865372935
 21
499.4598330428
 31
0.0
  0
LINE
  5
202
330
180
100
AcDbEntity
  8
$DDT_AUDIT_GENERATED_(97)
  6
Continuous
 62
     7
100
AcDbLine
 10
453.3305503664
 20
499.4598330428
 30
0.0
 11
446.7085437842
 21
499.4598330428
 31
0.0
  0
LINE
  5
203
330
180
100
AcDbEntity
  8
$DDT_AUDIT_GENERATED_(97)
  6
Continuous
 62
     7
100
AcDbLine
 10
509.70854383
 20
499.0598330428
 30
0.0
 11
505.0803236187
 21
499.0598330428
 31
0.0
  0
LINE
  5
204
330
180
100
AcDbEntity
  8
$DDT_AUDIT_GENERATED_(97)
  6
Continuous
 62
     7
100
AcDbLine
 10
450.3367640413
 20
499.0598330428
 30
0.0
 11
445.70854383
 21
499.0598330428
 31
0.0
  0
LINE
  5
205
330
180
100
AcDbEntity
  8
$DDT_AUDIT_GENERATED_(97)
  6
Continuous
 62
     7
100
AcDbLine
 10
509.70854383
 20
495.0598330428
 30
0.0
 11
501.1951507047
 21
495.0598330428
 31
0.0
  0
LINE
  5
206
330
180
100
AcDbEntity
  8
$DDT_AUDIT_GENERATED_(97)
  6
Continuous
 62
     7
100
AcDbLine
 10
454.2219369552
 20
495.0598330428
 30
0.0
 11
445.70854383
 21
495.0598330428
 31
0.0
  0
ARC
  5
207
330
180
100
AcDbEntity
  8
$DDT_AUDIT_GENERATED_(97)
  6
Continuous
 62
     7
100
AcDbCircle
 10
446.70854383
 20
501.4598330428
 30
0.0
 40
2.0
100
AcDbArc
 50
90.0
 51
269.9999993443
  0
ARC
  5
208
330
180
100
AcDbEntity
  8
$DDT_AUDIT_GENERATED_(97)
  6
Continuous
 62
     7
100
AcDbCircle
 10
508.70854383
 20
501.4598330428
 30
0.0
 40
2.0
100
AcDbArc
 50
270.0000006557
 51
90.0
  0
ARC
  5
209
330
180
100
AcDbEntity
  8
$DDT_AUDIT_GENERATED_(97)
  6
Continuous
 62
     7
100
AcDbCircle
 10
446.7085437796
 20
499.2598330428
 30
0.0
 40
0.1999999999999997
100
AcDbArc
 50
270.0
 51
89.9999993443
  0
ARC
  5
20A
330
180
100
AcDbEntity
  8
$DDT_AUDIT_GENERATED_(97)
  6
Continuous
 62
     7
100
AcDbCircle
 10
508.7085438803
 20
499.2598330428
 30
0.0
 40
0.1999999999999997
100
AcDbArc
 50
90.0000006557
 51
270.0
  0
ARC
  5
20B
330
180
100
AcDbEntity
  8
$DDT_AUDIT_GENERATED_(97)
  6
Continuous
 62
     7
100
AcDbCircle
 10
445.70854383
 20
497.0598330428
 30
0.0
 40
1.999999999999999
100
AcDbArc
 50
90.0
 51
270.0
  0
ARC
  5
20C
330
180
100
AcDbEntity
  8
$DDT_AUDIT_GENERATED_(97)
  6
Continuous
 62
     7
100
AcDbCircle
 10
509.70854383
 20
497.0598330428
 30
0.0
 40
1.999999999999893
100
AcDbArc
 50
270.0
 51
90.0
  0
ENDBLK
  5
20E
330
180
100
AcDbEntity
  8
0
100
AcDbBlockEnd
  0
BLOCK
  5
2C2
330
20F
100
AcDbEntity
  8
0
100
AcDbBlockBegin
  2
SE2
 70
     0
 10
0.0
 20
0.0
 30
0.0
  3
SE2
  1

  0
ARC
  5
211
330
20F
100
AcDbEntity
  8
$DDT_AUDIT_GENERATED_(97)
  6
Continuous
 62
     7
100
AcDbCircle
 10
177.1215395601
 20
251.565402081
 30
0.0
 40
11.53560131220263
100
AcDbArc
 50
203.3978342308
 51
232.2419397367
  0
ARC
  5
212
330
20F
100
AcDbEntity
  8
$DDT_AUDIT_GENERATED_(97)
  6
Continuous
 62
     7
100
AcDbCircle
 10
181.1033861573
 20
255.4174851879
 30
0.0
 40
17.03756342795441
100
AcDbArc
 50
229.5865733155
 51
284.719673195
  0
ARC
  5
213
330
20F
100
AcDbEntity
  8
$DDT_AUDIT_GENERATED_(97)
  6
Continuous
 62
     7
100
AcDbCircle
 10
180.780429727
 20
255.7568819616
 30
0.0
 40
17.44934657220464
100
AcDbArc
 50
285.4621694825
 51
294.0831736399
  0
SPLINE
  5
214
330
20F
100
AcDbEntity
  8
$DDT_AUDIT_GENERATED_(97)
  6
Continuous
 62
     7
100
AcDbSpline
210
0.0
220
0.0
230
1.0
 70
     8
 71
     3
 72
    30
 73
    26
 74
     0
 42
0.0000000005121136
 43
0.0000000001
 40
0.0
 40
0.0
 40
0.0
 40
0.0
 40
0.1249999999999998
 40
0.1249999999999998
 40
0.1562499999999995
 40
0.1562499999999995
 40
0.1874999999999992
 40
0.1874999999999992
 40
0.203124999999999
 40
0.203124999999999
 40
0.2187499999999989
 40
0.2187499999999989
 40
0.2499999999999989
 40
0.2499999999999989
 40
0.3749999999999992
 40
0.3749999999999992
 40
0.4999999999999994
 40
0.4999999999999994
 40
0.6249999999999996
 40
0.6249999999999996
 40
0.7499999999999998
 40
0.7499999999999998
 40
0.8749999999999999
 40
0.8749999999999999
 40
1.0
 40
1.0
 40
1.0
 40
1.0
 10
198.0707307169531
 20
253.0591956534024
 30
0.0
 10
198.4019610282284
 20
253.0463468261987
 30
0.0
 10
198.7588304700336
 20
253.0098968445265
 30
0.0
 10
199.2372297542118
 20
252.7796591829859
 30
0.0
 10
199.3340470383204
 20
252.7237828181718
 30
0.0
 10
199.5266113158692
 20
252.5644610319912
 30
0.0
 10
199.6308314008903
 20
252.4796618608372
 30
0.0
 10
199.7389785563173
 20
252.1589960653427
 30
0.0
 10
199.7519966568569
 20
251.9866701103212
 30
0.0
 10
199.6984277363351
 20
251.6864019462449
 30
0.0
 10
199.6519877172464
 20
251.5638741617027
 30
0.0
 10
199.5124758136051
 20
251.2341674978337
 30
0.0
 10
199.4095601826489
 20
251.0555216852172
 30
0.0
 10
198.8885423615148
 20
250.1929606353463
 30
0.0
 10
198.4528532767744
 20
249.6368817832779
 30
0.0
 10
197.5650696266905
 20
248.4988685346227
 30
0.0
 10
197.109606562039
 20
247.9434190832193
 30
0.0
 10
196.1369068584653
 20
246.7602088820724
 30
0.0
 10
195.6178772526472
 20
246.1269958484107
 30
0.0
 10
194.4583745944516
 20
244.7723321682775
 30
0.0
 10
193.8097613317696
 20
244.0428169196515
 30
0.0
 10
192.3307267794545
 20
242.6128296970284
 30
0.0
 10
191.5130092319408
 20
241.9392258120558
 30
0.0
 10
189.7934950228093
 20
240.7731236540023
 30
0.0
 10
188.8887392803662
 20
240.2668749243047
 30
0.0
 10
187.9008513717365
 20
239.8264302605946
 30
0.0
  0
ELLIPSE
  5
215
330
20F
100
AcDbEntity
  8
$DDT_AUDIT_GENERATED_(97)
  6
Continuous
 62
     7
100
AcDbEllipse
 10
181.0694842348
 20
116.1292642966
 30
0.0
 11
13.95874728584142
 21
3.608224830031759E-13
 31
0.0
210
0.0
220
0.0
230
1.0
 40
0.978524907
 41
5.098772801912888
 42
6.188893091749168
  0
ELLIPSE
  5
216
330
20F
100
AcDbEntity
  8
$DDT_AUDIT_GENERATED_(97)
  6
Continuous
 62
     7
100
AcDbEllipse
 10
181.0694842349
 20
116.1292642965
 30
0.0
 11
13.95874728575565
 21
1.469491195393857E-9
 31
0.0
210
0.0
220
0.0
230
1.0
 40
0.978524907
 41
4.962071556820178
 42
5.098772801808628
  0
ELLIPSE
  5
217
330
20F
100
AcDbEntity
  8
$DDT_AUDIT_GENERATED_(97)
  6
Continuous
 62
     7
100
AcDbEllipse
 10
181.0694842348
 20
116.1292642966
 30
0.0
 11
13.95874728584173
 21
7.494005416219807E-12
 31
0.0
210
0.0
220
0.0
230
1.0
 40
0.978524907
 41
4.163438183345946
 42
4.962071556924607
  0
ELLIPSE
  5
218
330
20F
100
AcDbEntity
  8
$DDT_AUDIT_GENERATED_(97)
  6
Continuous
 62
     7
100
AcDbEllipse
 10
181.0694842348
 20
116.1292642966
 30
0.0
 11
-13.95874728583375
 21
1.298683383055277E-10
 31
0.0
210
0.0
220
0.0
230
1.0
 40
0.978524907
 41
0.8851442847781226
 42
1.021845529765933
  0
ELLIPSE
  5
219
330
20F
100
AcDbEntity
  8
$DDT_AUDIT_GENERATED_(97)
  6
Continuous
 62
     7
100
AcDbEllipse
 10
181.0694842348
 20
116.1292642966
 30
0.0
 11
13.95874728584156
 21
-2.775557561562891E-13
 31
0.0
210
0.0
220
0.0
230
1.0
 40
0.978524907
 41
2.936616650199024
 42
4.026736938358715
  0
SPLINE
  5
21A
330
20F
100
AcDbEntity
  8
$DDT_AUDIT_GENERATED_(97)
  6
Continuous
 62
     7
100
AcDbSpline
210
0.0
220
0.0
230
1.0
 70
     8
 71
     3
 72
    17
 73
    13
 74
     0
 42
0.0000000000734261
 43
0.0000000001
 40
0.0
 40
0.0
 40
0.0
 40
0.0
 40
0.0681652402236771
 40
0.1469433154498407
 40
0.3046772594634382
 40
0.4621204104529194
 40
0.6194352860215899
 40
0.7421177461446496
 40
0.8023503092788067
 40
0.8566984659334188
 40
0.9129857311914837
 40
1.0
 40
1.0
 40
1.0
 40
1.0
 10
185.4324615455357
 20
238.9390849668555
 30
0.0
 10
185.5536289549463
 20
235.5569889339369
 30
0.0
 10
186.1753648692886
 20
228.7830793384776
 30
0.0
 10
184.6446775657485
 20
215.5297456198321
 30
0.0
 10
184.4639347928164
 20
198.6407810232293
 30
0.0
 10
183.8469505306422
 20
180.1791423954561
 30
0.0
 10
184.0608487942481
 20
161.6237708330938
 30
0.0
 10
184.0800782502912
 20
151.2378272583867
 30
0.0
 10
183.7039120601749
 20
133.6118954611579
 30
0.0
 10
184.028445039016
 20
121.8500186841476
 30
0.0
 10
184.3815616726524
 20
109.2419797954471
 30
0.0
 10
184.4668514338832
 20
105.2921905706964
 30
0.0
 10
184.5186403156889
 20
102.8938350780068
 30
0.0
  0
SPLINE
  5
21B
330
20F
100
AcDbEntity
  8
$DDT_AUDIT_GENERATED_(97)
  6
Continuous
 62
     7
100
AcDbSpline
210
0.0
220
0.0
230
1.0
 70
     8
 71
     3
 72
    18
 73
    14
 74
     0
 42
0.0000000000721973
 43
0.0000000001
 40
0.0
 40
0.0
 40
0.0
 40
0.0
 40
0.0250352704570913
 40
0.1015886821444317
 40
0.1775411121643759
 40
0.3296173885911413
 40
0.4814133022805451
 40
0.6330855415859984
 40
0.7513675755201888
 40
0.809439691692552
 40
0.8618384657571848
 40
0.916106795660571
 40
1.0
 40
1.0
 40
1.0
 40
1.0
 10
170.0579620345817
 20
242.4453159972699
 30
0.0
 10
170.1128454185983
 20
241.2065106258472
 30
0.0
 10
170.3024624014377
 20
235.9010428681449
 30
0.0
 10
172.6761487500124
 20
228.4086871791909
 30
0.0
 10
172.6468649816723
 20
214.6786446902398
 30
0.0
 10
174.1977253669282
 20
198.1902523786534
 30
0.0
 10
175.1242818982527
 20
179.654541279698
 30
0.0
 10
174.7693252465487
 20
161.2996787423826
 30
0.0
 10
174.7102145394745
 20
150.3908536471044
 30
0.0
 10
175.506672543693
 20
133.7648501971755
 30
0.0
 10
174.8209801792522
 20
122.4537789475534
 30
0.0
 10
174.0754162909615
 20
110.4924760470705
 30
0.0
 10
173.8952897977201
 20
106.7497733313704
 30
0.0
 10
173.7859150083674
 20
104.4771630463824
 30
0.0
  0
LINE
  5
21C
330
20F
100
AcDbEntity
  8
$DDT_AUDIT_GENERATED_(97)
  6
Continuous
 62
     7
100
AcDbLine
 10
194.96622372
 20
114.8432362962
 30
0.0
 11
195.3739518285
 21
119.0619194928
 31
0.0
  0
SPLINE
  5
21D
330
20F
100
AcDbEntity
  8
$DDT_AUDIT_GENERATED_(97)
  6
Continuous
 62
     7
100
AcDbSpline
210
0.0
220
0.0
230
1.0
 70
     8
 71
     3
 72
    48
 73
    44
 74
     0
 42
0.0000000000857581
 43
0.0000000001
 40
0.0
 40
0.0
 40
0.0
 40
0.0
 40
0.0625000000000001
 40
0.0625000000000001
 40
0.0937499999999999
 40
0.0937499999999999
 40
0.1249999999999998
 40
0.1249999999999998
 40
0.1562499999999996
 40
0.1562499999999996
 40
0.1874999999999995
 40
0.1874999999999995
 40
0.2187499999999994
 40
0.2187499999999994
 40
0.2499999999999992
 40
0.2499999999999992
 40
0.3124999999999992
 40
0.3124999999999992
 40
0.3749999999999992
 40
0.3749999999999992
 40
0.4999999999999996
 40
0.4999999999999996
 40
0.6249999999999999
 40
0.6249999999999999
 40
0.7500000000000002
 40
0.7500000000000002
 40
0.8125000000000003
 40
0.8125000000000003
 40
0.8750000000000004
 40
0.8750000000000004
 40
0.9062500000000003
 40
0.9062500000000003
 40
0.9375000000000002
 40
0.9375000000000002
 40
0.9531250000000002
 40
0.9531250000000002
 40
0.9687500000000001
 40
0.9687500000000001
 40
0.984375
 40
0.984375
 40
0.9921875
 40
0.9921875
 40
1.0
 40
1.0
 40
1.0
 40
1.0
 10
195.373951828537
 20
119.0619194927831
 30
0.0
 10
195.1925417544201
 20
120.0030348215817
 30
0.0
 10
195.011561235678
 20
120.9426212784922
 30
0.0
 10
194.5008395074436
 20
123.2047645957677
 30
0.0
 10
194.2859304432309
 20
124.105775601938
 30
0.0
 10
193.8127796505321
 20
126.1275766419108
 30
0.0
 10
193.5503023158104
 20
127.2763608756665
 30
0.0
 10
193.0393698700114
 20
129.7064350900494
 30
0.0
 10
192.7855665963664
 20
131.0042040472651
 30
0.0
 10
192.4362283125944
 20
133.6615438225028
 30
0.0
 10
192.3589742528313
 20
135.0088538464379
 30
0.0
 10
192.5448201236175
 20
137.7483227904899
 30
0.0
 10
192.7755689051155
 20
139.1127298797707
 30
0.0
 10
193.1251499554876
 20
141.809037656618
 30
0.0
 10
193.2359002551551
 20
143.1537424920209
 30
0.0
 10
193.461123822761
 20
147.1813347893062
 30
0.0
 10
193.4773143872146
 20
149.8569454462429
 30
0.0
 10
193.4246669282655
 20
155.1856568542212
 30
0.0
 10
193.3512969586956
 20
157.8159539621887
 30
0.0
 10
193.1297519218505
 20
165.5954289288387
 30
0.0
 10
192.9764525090567
 20
170.6360635919394
 30
0.0
 10
193.4188020780376
 20
180.603391138829
 30
0.0
 10
193.9767487865188
 20
185.5341375113917
 30
0.0
 10
195.1058127396181
 20
195.4489367364654
 30
0.0
 10
195.6703718928056
 20
200.4622014802408
 30
0.0
 10
196.1581097596214
 20
207.8616351196849
 30
0.0
 10
196.2567222261006
 20
210.3045530032924
 30
0.0
 10
196.304929794573
 20
215.1154089597833
 30
0.0
 10
196.2862055492151
 20
217.4909309670453
 30
0.0
 10
196.5087875165381
 20
220.9695142950543
 30
0.0
 10
196.6309817396784
 20
222.1026659733323
 30
0.0
 10
196.9184495002577
 20
224.443112826422
 30
0.0
 10
197.083746329302
 20
225.6451278111379
 30
0.0
 10
197.2996959488473
 20
227.6762612664168
 30
0.0
 10
197.3617999844664
 20
228.3606908860216
 30
0.0
 10
197.4552726629321
 20
229.7392630501895
 30
0.0
 10
197.4794112075789
 20
230.4245283025702
 30
0.0
 10
197.5449451828749
 20
231.7553815036621
 30
0.0
 10
197.5875899742379
 20
232.4209673140429
 30
0.0
 10
197.7510398889881
 20
233.4618073154247
 30
0.0
 10
197.8220000665211
 20
233.8028043553061
 30
0.0
 10
197.9999815958604
 20
234.4423776332358
 30
0.0
 10
198.1043303482178
 20
234.7324684147878
 30
0.0
 10
198.2176228832009
 20
234.9943909148388
 30
0.0
  0
LINE
  5
21E
330
20F
100
AcDbEntity
  8
$DDT_AUDIT_GENERATED_(97)
  6
Continuous
 62
     7
100
AcDbLine
 10
201.5873663252
 20
253.0592863184
 30
0.0
 11
198.070727371
 21
253.0592863184
 31
0.0
  0
ARC
  5
21F
330
20F
100
AcDbEntity
  8
$DDT_AUDIT_GENERATED_(97)
  6
Continuous
 62
     7
100
AcDbCircle
 10
181.0694842348
 20
253.0592863184
 30
0.0
 40
32.00000012941309
100
AcDbArc
 50
300.0244478473
 51
241.2832787266
  0
SPLINE
  5
220
330
20F
100
AcDbEntity
  8
$DDT_AUDIT_GENERATED_(97)
  6
Continuous
 62
     7
100
AcDbSpline
210
0.0
220
0.0
230
1.0
 70
     8
 71
     3
 72
     8
 73
     4
 74
     0
 42
0.0000000003418803
 43
0.0000000001
 40
0.8858097868957467
 40
0.8858097868957467
 40
0.8858097868957467
 40
0.8858097868957467
 40
0.9042276519136391
 40
0.9042276519136391
 40
0.9042276519136391
 40
0.9042276519136391
 10
164.4879130230127
 20
234.5121954500748
 30
0.0
 10
164.526539564179
 20
234.3358605057002
 30
0.0
 10
164.5649084863758
 20
234.1604453458459
 30
0.0
 10
164.6030824306758
 20
233.9859273530673
 30
0.0
  0
LINE
  5
221
330
20F
100
AcDbEntity
  8
$DDT_AUDIT_GENERATED_(97)
  6
Continuous
 62
     7
100
AcDbLine
 10
198.2176228832
 20
234.9943909148
 30
0.0
 11
198.4405625701
 21
235.4211865615
 31
0.0
  0
ARC
  5
222
330
20F
100
AcDbEntity
  8
$DDT_AUDIT_GENERATED_(97)
  6
Continuous
 62
     7
100
AcDbCircle
 10
96.6617546776
 20
214.092654488
 30
0.0
 40
77.22741522255403
100
AcDbArc
 50
21.7725118591
 51
25.2081783448
  0
ARC
  5
223
330
20F
100
AcDbEntity
  8
$DDT_AUDIT_GENERATED_(97)
  6
Continuous
 62
     7
100
AcDbCircle
 10
200.2449020816
 20
234.1125278144
 30
0.0
 40
2.228952397144647
100
AcDbArc
 50
102.513935207
 51
144.0472202603
  0
CIRCLE
  5
224
330
20F
100
AcDbEntity
  8
$DDT_AUDIT_GENERATED_(97)
  6
Continuous
 62
     7
100
AcDbCircle
 10
181.0694842348
 20
253.0592863355
 30
0.0
 40
11.75000000000001
  0
SPLINE
  5
225
330
20F
100
AcDbEntity
  8
$DDT_AUDIT_GENERATED_(97)
  6
Continuous
 62
     7
100
AcDbSpline
210
0.0
220
0.0
230
1.0
 70
     8
 71
     3
 72
    49
 73
    45
 74
     0
 42
0.0000000000860108
 43
0.0000000001
 40
0.0
 40
0.0
 40
0.0
 40
0.0
 40
0.001651903820944
 40
0.0082886728798662
 40
0.0140468492057467
 40
0.0261908402302659
 40
0.0401847294784471
 40
0.056254561282907
 40
0.0748850992224332
 40
0.0956741162516185
 40
0.115118703611506
 40
0.1321656325940496
 40
0.151198407385048
 40
0.1666769383489681
 40
0.1802092761066784
 40
0.2067581345952225
 40
0.2365474672912882
 40
0.2696035056607681
 40
0.3173329770798063
 40
0.3664347423656977
 40
0.4167556546826359
 40
0.4681188335164981
 40
0.513351705401266
 40
0.558993001409268
 40
0.6035529950496861
 40
0.6470811874068138
 40
0.6894851483149674
 40
0.7300023656593907
 40
0.7587338878800541
 40
0.786141892488383
 40
0.80438052800218
 40
0.8231987196056747
 40
0.8425449629489086
 40
0.8570256330727886
 40
0.8712188234793288
 40
0.8804595759967206
 40
0.889514328742251
 40
0.8987150879319731
 40
0.9100284587410141
 40
0.9236344335883925
 40
0.9393798583868636
 40
0.9573218209059946
 40
0.9775472314654904
 40
1.0
 40
1.0
 40
1.0
 40
1.0
 10
164.5998111374892
 20
233.9952282507095
 30
0.0
 10
164.6089899231259
 20
233.9512895687109
 30
0.0
 10
164.6488507678502
 20
233.7597107326421
 30
0.0
 10
164.7363810034518
 20
233.2597673180461
 30
0.0
 10
164.9064049944935
 20
232.2293366742214
 30
0.0
 10
165.1053186757943
 20
230.8271005981177
 30
0.0
 10
165.325712368621
 20
229.0636472665952
 30
0.0
 10
165.5322972624054
 20
227.1702015032123
 30
0.0
 10
165.7099778217006
 20
225.1569102472857
 30
0.0
 10
165.847682600667
 20
223.0746595214285
 30
0.0
 10
165.9431023596426
 20
220.9726397150259
 30
0.0
 10
166.0109940195399
 20
218.8270710362892
 30
0.0
 10
166.0622543172404
 20
216.7824059492886
 30
0.0
 10
166.1111482491643
 20
214.8615584433911
 30
0.0
 10
166.1786348263776
 20
212.6427127456387
 30
0.0
 10
166.3025298659169
 20
209.8187271528924
 30
0.0
 10
166.5256290238499
 20
206.1942970240063
 30
0.0
 10
166.8771562517061
 20
201.6972752728106
 30
0.0
 10
167.3795773526888
 20
196.4208753628275
 30
0.0
 10
168.0359348392649
 20
190.4723384018959
 30
0.0
 10
168.6940543970364
 20
184.3822334201375
 30
0.0
 10
169.1882352449909
 20
178.432242917504
 30
0.0
 10
169.3784727833681
 20
172.6483722855037
 30
0.0
 10
169.3242767028447
 20
167.1042089645879
 30
0.0
 10
169.1672132808676
 20
161.555196624187
 30
0.0
 10
169.0096216025239
 20
156.0457353925265
 30
0.0
 10
168.9499917236945
 20
150.6155535098922
 30
0.0
 10
169.0789237134006
 20
145.7595289811215
 30
0.0
 10
169.4200004314438
 20
141.5347659091153
 30
0.0
 10
169.8483367151808
 20
138.2822215876223
 30
0.0
 10
170.0421349058833
 20
135.4404576969738
 30
0.0
 10
169.9597174460176
 20
132.9701426202722
 30
0.0
 10
169.6885417140093
 20
130.7257308497895
 30
0.0
 10
169.3688537462135
 20
128.7603387042812
 30
0.0
 10
169.0951701046225
 20
127.2872117588618
 30
0.0
 10
168.8656701443578
 20
126.1073780832648
 30
0.0
 10
168.6760997717733
 20
125.1693585085194
 30
0.0
 10
168.4815011067273
 20
124.2373953279851
 30
0.0
 10
168.2655325056759
 20
123.2182077193728
 30
0.0
 10
168.0316878918354
 20
122.1234578076022
 30
0.0
 10
167.8065352661367
 20
121.0389804003093
 30
0.0
 10
167.6062245952585
 20
120.0330189500603
 30
0.0
 10
167.4317746876769
 20
119.1018352769061
 30
0.0
 10
167.3383669502969
 20
118.5798308965836
 30
0.0
 10
167.2819116606246
 20
118.2613711933367
 30
0.0
  0
CIRCLE
  5
226
330
20F
100
AcDbEntity
  8
$DDT_AUDIT_GENERATED_(97)
  6
Continuous
 62
     7
100
AcDbCircle
 10
181.0694842348
 20
252.9672221034
 30
0.0
 40
10.08602349955724
  0
LINE
  5
228
330
20F
100
AcDbEntity
  8
$DDT_AUDIT_GENERATED_(227)
  6
Continuous
 62
     7
100
AcDbLine
 10
53.0694842348
 20
245.6292863184
 30
0.0
 11
53.0694842348
 21
246.5997054991
 31
0.0
  0
LINE
  5
229
330
20F
100
AcDbEntity
  8
$DDT_AUDIT_GENERATED_(227)
  6
Continuous
 62
     7
100
AcDbLine
 10
53.0694842348
 20
259.5049275604
 30
0.0
 11
53.0694842348
 21
260.4892863184
 31
0.0
  0
LINE
  5
22A
330
20F
100
AcDbEntity
  8
$DDT_AUDIT_GENERATED_(227)
  6
Continuous
 62
     7
100
AcDbLine
 10
53.7469988718
 20
261.1668009554
 30
0.0
 11
53.0694842348
 21
260.4892863184
 31
0.0
  0
LINE
  5
22B
330
20F
100
AcDbEntity
  8
$DDT_AUDIT_GENERATED_(227)
  6
Continuous
 62
     7
100
AcDbLine
 10
53.0694842348
 20
245.6292863184
 30
0.0
 11
53.7469988718
 21
244.9517716814
 31
0.0
  0
ARC
  5
22C
330
20F
100
AcDbEntity
  8
00300038_KAPPE_S
  6
Continuous
 62
     7
100
AcDbCircle
 10
81.0694842348
 20
253.0592863184
 30
0.0
 40
22.50000008496214
100
AcDbArc
 50
11.8280489423
 51
78.2077808285
  0
ARC
  5
22D
330
20F
100
AcDbEntity
  8
00300038_KAPPE_S
  6
Continuous
 62
     7
100
AcDbCircle
 10
81.0694842348
 20
253.0592863184
 30
0.0
 40
22.50000008496214
100
AcDbArc
 50
101.942740161
 51
168.1059376075
  0
ARC
  5
22E
330
20F
100
AcDbEntity
  8
00300038_KAPPE_S
  6
Continuous
 62
     7
100
AcDbCircle
 10
81.0694842348
 20
253.0592863184
 30
0.0
 40
22.50000008496214
100
AcDbArc
 50
191.8027531855
 51
258.1465021279
  0
ARC
  5
22F
330
20F
100
AcDbEntity
  8
00300038_KAPPE_S
  6
Continuous
 62
     7
100
AcDbCircle
 10
81.0694842348
 20
253.0592863184
 30
0.0
 40
22.50000008496214
100
AcDbArc
 50
281.8086980012
 51
348.210491971
  0
ARC
  5
230
330
20F
100
AcDbEntity
  8
00315038_ROSETTE
  6
Continuous
 62
     7
100
AcDbCircle
 10
81.0694842348
 20
253.0592863184
 30
0.0
 40
25.25
100
AcDbArc
 50
15.1417768143
 51
74.8668997817
  0
ARC
  5
231
330
20F
100
AcDbEntity
  8
00315038_ROSETTE
  6
Continuous
 62
     7
100
AcDbCircle
 10
81.0694842348
 20
253.0592863184
 30
0.0
 40
25.25
100
AcDbArc
 50
105.1249891313
 51
164.8693043506
  0
ARC
  5
232
330
20F
100
AcDbEntity
  8
00315038_ROSETTE
  6
Continuous
 62
     7
100
AcDbCircle
 10
81.0694842348
 20
253.0592863184
 30
0.0
 40
25.25
100
AcDbArc
 50
195.1151336027
 51
254.8749052203
  0
ARC
  5
233
330
20F
100
AcDbEntity
  8
00315038_ROSETTE
  6
Continuous
 62
     7
100
AcDbCircle
 10
81.0694842348
 20
253.0592863184
 30
0.0
 40
25.25
100
AcDbArc
 50
285.1179087733
 51
344.8725393958
  0
ARC
  5
234
330
20F
100
AcDbEntity
  8
00315038_ROSETTE
  6
Continuous
 62
     7
100
AcDbCircle
 10
81.0694842348
 20
253.0592863184
 30
0.0
 40
28.5
100
AcDbArc
 50
13.3953682361
 51
76.655447401
  0
ARC
  5
235
330
20F
100
AcDbEntity
  8
00315038_ROSETTE
  6
Continuous
 62
     7
100
AcDbCircle
 10
81.0694842348
 20
253.0592863184
 30
0.0
 40
28.5
100
AcDbArc
 50
103.3951915469
 51
166.6876978148
  0
ARC
  5
236
330
20F
100
AcDbEntity
  8
00315038_ROSETTE
  6
Continuous
 62
     7
100
AcDbCircle
 10
81.0694842348
 20
253.0592863184
 30
0.0
 40
28.5
100
AcDbArc
 50
193.3854789453
 51
256.7267708356
  0
ARC
  5
237
330
20F
100
AcDbEntity
  8
00315038_ROSETTE
  6
Continuous
 62
     7
100
AcDbCircle
 10
81.0694842348
 20
253.0592863184
 30
0.0
 40
28.5
100
AcDbArc
 50
283.3866120629
 51
346.6305065843
  0
CIRCLE
  5
238
330
20F
100
AcDbEntity
  8
$DDT_AUDIT_GENERATED_(97)
  6
Continuous
 62
     7
100
AcDbCircle
 10
81.0694842348
 20
253.0592863184
 30
0.0
 40
13.0
  0
LINE
  5
239
330
20F
100
AcDbEntity
  8
$DDT_AUDIT_GENERATED_(97)
  6
Continuous
 62
     7
100
AcDbLine
 10
100.1054930827
 20
248.6308078458
 30
0.0
 11
100.1054930827
 21
257.487764791
 31
0.0
  0
LINE
  5
23A
330
20F
100
AcDbEntity
  8
$DDT_AUDIT_GENERATED_(97)
  6
Continuous
 62
     7
100
AcDbLine
 10
101.3657409631
 20
248.6308078458
 30
0.0
 11
101.3657409631
 21
257.487764791
 31
0.0
  0
LINE
  5
23B
330
20F
100
AcDbEntity
  8
$DDT_AUDIT_GENERATED_(97)
  6
Continuous
 62
     7
100
AcDbLine
 10
102.4587467157
 20
249.2465820117
 30
0.0
 11
102.4587467157
 21
256.8719743778
 31
0.0
  0
LINE
  5
23C
330
20F
100
AcDbEntity
  8
$DDT_AUDIT_GENERATED_(97)
  6
Continuous
 62
     7
100
AcDbLine
 10
76.6410057622
 20
234.0232774705
 30
0.0
 11
85.4979627074
 21
234.0232774705
 31
0.0
  0
LINE
  5
23D
330
20F
100
AcDbEntity
  8
$DDT_AUDIT_GENERATED_(97)
  6
Continuous
 62
     7
100
AcDbLine
 10
76.6410057622
 20
232.7630295901
 30
0.0
 11
85.4979627074
 21
232.7630295901
 31
0.0
  0
LINE
  5
23E
330
20F
100
AcDbEntity
  8
$DDT_AUDIT_GENERATED_(97)
  6
Continuous
 62
     7
100
AcDbLine
 10
77.2567799281
 20
231.6700238375
 30
0.0
 11
84.8821722942
 21
231.6700238375
 31
0.0
  0
LINE
  5
23F
330
20F
100
AcDbEntity
  8
$DDT_AUDIT_GENERATED_(97)
  6
Continuous
 62
     7
100
AcDbLine
 10
62.033475387
 20
257.487764791
 30
0.0
 11
62.033475387
 21
248.6308078458
 31
0.0
  0
LINE
  5
240
330
20F
100
AcDbEntity
  8
$DDT_AUDIT_GENERATED_(97)
  6
Continuous
 62
     7
100
AcDbLine
 10
60.7732275065
 20
257.487764791
 30
0.0
 11
60.7732275065
 21
248.6308078458
 31
0.0
  0
LINE
  5
241
330
20F
100
AcDbEntity
  8
$DDT_AUDIT_GENERATED_(97)
  6
Continuous
 62
     7
100
AcDbLine
 10
59.6802217539
 20
256.8719906251
 30
0.0
 11
59.6802217539
 21
249.246598259
 31
0.0
  0
LINE
  5
242
330
20F
100
AcDbEntity
  8
$DDT_AUDIT_GENERATED_(97)
  6
Continuous
 62
     7
100
AcDbLine
 10
85.4979627074
 20
272.0952951662
 30
0.0
 11
76.6410057622
 21
272.0952951662
 31
0.0
  0
LINE
  5
243
330
20F
100
AcDbEntity
  8
$DDT_AUDIT_GENERATED_(97)
  6
Continuous
 62
     7
100
AcDbLine
 10
85.4979627074
 20
273.3555430467
 30
0.0
 11
76.6410057622
 21
273.3555430467
 31
0.0
  0
LINE
  5
244
330
20F
100
AcDbEntity
  8
$DDT_AUDIT_GENERATED_(97)
  6
Continuous
 62
     7
100
AcDbLine
 10
84.8821885415
 20
274.4485487993
 30
0.0
 11
77.2567961754
 21
274.4485487993
 31
0.0
  0
CIRCLE
  5
245
330
20F
100
AcDbEntity
  8
$DDT_AUDIT_GENERATED_(97)
  6
Continuous
 62
     7
100
AcDbCircle
 10
81.0694842348
 20
253.0592863184
 30
0.0
 40
8.499999999999176
  0
CIRCLE
  5
246
330
20F
100
AcDbEntity
  8
$DDT_AUDIT_GENERATED_(97)
  6
Continuous
 62
     7
100
AcDbCircle
 10
81.0694842348
 20
253.0592863184
 30
0.0
 40
10.5
  0
LINE
  5
247
330
20F
100
AcDbEntity
  8
$DDT_AUDIT_GENERATED_(97)
  6
Continuous
 62
     7
100
AcDbLine
 10
93.2422366385
 20
248.4210583943
 30
0.0
 11
94.0993551305
 21
248.8633044488
 31
0.0
  0
LINE
  5
248
330
20F
100
AcDbEntity
  8
$DDT_AUDIT_GENERATED_(97)
  6
Continuous
 62
     7
100
AcDbLine
 10
94.0993551305
 20
257.255268188
 30
0.0
 11
93.2416591599
 21
257.6978122032
 31
0.0
  0
ARC
  5
249
330
20F
100
AcDbEntity
  8
$DDT_AUDIT_GENERATED_(97)
  6
Continuous
 62
     7
100
AcDbCircle
 10
96.897032112
 20
262.6774548895
 30
0.0
 40
6.101401897797888
100
AcDbArc
 50
242.7076959454
 51
301.7259106494
  0
ARC
  5
24A
330
20F
100
AcDbEntity
  8
$DDT_AUDIT_GENERATED_(97)
  6
Continuous
 62
     7
100
AcDbCircle
 10
96.897032112
 20
243.4411177473
 30
0.0
 40
6.10140189779789
100
AcDbArc
 50
58.2740893506
 51
117.2923040546
  0
LINE
  5
24B
330
20F
100
AcDbEntity
  8
$DDT_AUDIT_GENERATED_(97)
  6
Continuous
 62
     7
100
AcDbLine
 10
101.3657409631
 20
257.487764791
 30
0.0
 11
100.1054930827
 21
257.487764791
 31
0.0
  0
LINE
  5
24C
330
20F
100
AcDbEntity
  8
$DDT_AUDIT_GENERATED_(97)
  6
Continuous
 62
     7
100
AcDbLine
 10
100.1054930827
 20
248.6308078458
 30
0.0
 11
101.3657409631
 21
248.6308078458
 31
0.0
  0
LINE
  5
24D
330
20F
100
AcDbEntity
  8
$DDT_AUDIT_GENERATED_(97)
  6
Continuous
 62
     7
100
AcDbLine
 10
102.4587467157
 20
256.8719906251
 30
0.0
 11
101.3657409631
 21
256.8719906251
 31
0.0
  0
LINE
  5
24E
330
20F
100
AcDbEntity
  8
$DDT_AUDIT_GENERATED_(97)
  6
Continuous
 62
     7
100
AcDbLine
 10
101.3657409631
 20
249.2465820117
 30
0.0
 11
102.4587467157
 21
249.2465820117
 31
0.0
  0
SPLINE
  5
24F
330
20F
100
AcDbEntity
  8
$DDT_AUDIT_GENERATED_(97)
  6
Continuous
 62
     7
100
AcDbSpline
210
0.0
220
0.0
230
1.0
 70
     8
 71
     3
 72
    22
 73
    18
 74
     0
 42
0.0000000006406317
 43
0.0000000001
 40
0.0
 40
0.0
 40
0.0
 40
0.0
 40
0.0387428946632267
 40
0.0764842388972076
 40
0.1143321871672146
 40
0.1894977696042358
 40
0.3015199682265927
 40
0.4114036432958542
 40
0.5216525276783486
 40
0.6032992406681158
 40
0.6847364583045058
 40
0.7258433937200116
 40
0.7667245709161282
 40
0.8034647450775146
 40
0.8243945372381419
 40
0.9086978696336193
 40
1.0
 40
1.0
 40
1.0
 40
1.0
 10
112.7259224263212
 20
253.2761469613851
 30
0.0
 10
112.7210443262303
 20
253.4961224280855
 30
0.0
 10
112.7108433846085
 20
253.8622939372432
 30
0.0
 10
112.6311091257002
 20
254.4595496009266
 30
0.0
 10
112.4708896125696
 20
255.2178810574149
 30
0.0
 10
112.1357900428571
 20
256.3349705639689
 30
0.0
 10
111.4103208341216
 20
257.7091690447788
 30
0.0
 10
110.1778000509657
 20
258.9356491353742
 30
0.0
 10
108.7982404953562
 20
259.7061333931337
 30
0.0
 10
107.4077600653466
 20
260.032826918176
 30
0.0
 10
106.3382790985327
 20
259.9539999434114
 30
0.0
 10
105.5287198276056
 20
259.7089970366943
 30
0.0
 10
104.9684273579319
 20
259.4561684992708
 30
0.0
 10
104.5331507731392
 20
259.1896149059819
 30
0.0
 10
103.9478420687707
 20
258.7495629428135
 30
0.0
 10
103.2339200049614
 20
257.9859587299128
 30
0.0
 10
102.749188758686
 20
257.301538971824
 30
0.0
 10
102.4587467157016
 20
256.8719906250633
 30
0.0
  0
SPLINE
  5
250
330
20F
100
AcDbEntity
  8
$DDT_AUDIT_GENERATED_(97)
  6
Continuous
 62
     7
100
AcDbSpline
210
0.0
220
0.0
230
1.0
 70
     8
 71
     3
 72
    21
 73
    17
 74
     0
 42
0.0000000006404439
 43
0.0000000001
 40
0.0
 40
0.0
 40
0.0
 40
0.0
 40
0.0913084166638568
 40
0.1756175534783932
 40
0.2063892599031857
 40
0.260463914548864
 40
0.3152163964968826
 40
0.3966592212157541
 40
0.4783115557120925
 40
0.5885680309063333
 40
0.6984592716420968
 40
0.8104891831717173
 40
0.8856599408791216
 40
0.9235104950408063
 40
0.9612544378266072
 40
1.0
 40
1.0
 40
1.0
 40
1.0
 10
102.4587467157016
 20
249.246582011725
 30
0.0
 10
102.7491887586861
 20
248.8170336649643
 30
0.0
 10
103.2340788382172
 20
248.1324341577022
 30
0.0
 10
103.9832129735837
 20
247.3312004450941
 30
0.0
 10
104.6892508298718
 20
246.8182711372597
 30
0.0
 10
105.3296541291011
 20
246.4779674010408
 30
0.0
 10
106.2671267910061
 20
246.1701215719509
 30
0.0
 10
107.4076678866463
 20
246.0856584977406
 30
0.0
 10
108.7982750254155
 20
246.4124719165158
 30
0.0
 10
110.1777896927677
 20
247.1829137003314
 30
0.0
 10
111.410323706643
 20
248.4094063100325
 30
0.0
 10
112.1357895307872
 20
249.7836015882912
 30
0.0
 10
112.4708896650762
 20
250.9006916290559
 30
0.0
 10
112.631109115765
 20
251.6590230264609
 30
0.0
 10
112.7108433875243
 20
252.2562787023042
 30
0.0
 10
112.7210443262303
 20
252.6224502087028
 30
0.0
 10
112.7259224263212
 20
252.8424256754031
 30
0.0
  0
LINE
  5
251
330
20F
100
AcDbEntity
  8
$DDT_AUDIT_GENERATED_(97)
  6
Continuous
 62
     7
100
AcDbLine
 10
112.7259224263
 20
252.8424256754
 30
0.0
 11
112.7259224263
 21
253.2761469614
 31
0.0
  0
LINE
  5
252
330
20F
100
AcDbEntity
  8
$DDT_AUDIT_GENERATED_(97)
  6
Continuous
 62
     7
100
AcDbLine
 10
76.4315685339
 20
240.885928794
 30
0.0
 11
76.8735023652
 21
240.0294154227
 31
0.0
  0
LINE
  5
253
330
20F
100
AcDbEntity
  8
$DDT_AUDIT_GENERATED_(97)
  6
Continuous
 62
     7
100
AcDbLine
 10
85.2654661044
 20
240.0294154227
 30
0.0
 11
85.7083912039
 21
240.887849974
 31
0.0
  0
ARC
  5
254
330
20F
100
AcDbEntity
  8
$DDT_AUDIT_GENERATED_(97)
  6
Continuous
 62
     7
100
AcDbCircle
 10
90.6876528059
 20
237.2317384412
 30
0.0
 40
6.101401897797893
100
AcDbArc
 50
152.7076959454
 51
211.7259106494
  0
ARC
  5
255
330
20F
100
AcDbEntity
  8
$DDT_AUDIT_GENERATED_(97)
  6
Continuous
 62
     7
100
AcDbCircle
 10
71.4513156637
 20
237.2317384412
 30
0.0
 40
6.101401897797888
100
AcDbArc
 50
328.2740893506
 51
27.2923040546
  0
LINE
  5
256
330
20F
100
AcDbEntity
  8
$DDT_AUDIT_GENERATED_(97)
  6
Continuous
 62
     7
100
AcDbLine
 10
85.4979627074
 20
232.7630295901
 30
0.0
 11
85.4979627074
 21
234.0232774705
 31
0.0
  0
LINE
  5
257
330
20F
100
AcDbEntity
  8
$DDT_AUDIT_GENERATED_(97)
  6
Continuous
 62
     7
100
AcDbLine
 10
76.6410057622
 20
234.0232774705
 30
0.0
 11
76.6410057622
 21
232.7630295901
 31
0.0
  0
LINE
  5
258
330
20F
100
AcDbEntity
  8
$DDT_AUDIT_GENERATED_(97)
  6
Continuous
 62
     7
100
AcDbLine
 10
84.8821885415
 20
231.6700238375
 30
0.0
 11
84.8821885415
 21
232.7630295901
 31
0.0
  0
LINE
  5
259
330
20F
100
AcDbEntity
  8
$DDT_AUDIT_GENERATED_(97)
  6
Continuous
 62
     7
100
AcDbLine
 10
77.2567799281
 20
232.7630295901
 30
0.0
 11
77.2567799281
 21
231.6700238375
 31
0.0
  0
SPLINE
  5
25A
330
20F
100
AcDbEntity
  8
$DDT_AUDIT_GENERATED_(97)
  6
Continuous
 62
     7
100
AcDbSpline
210
0.0
220
0.0
230
1.0
 70
     8
 71
     3
 72
    22
 73
    18
 74
     0
 42
0.0000000006406317
 43
0.0000000001
 40
0.0
 40
0.0
 40
0.0
 40
0.0
 40
0.0387428946632267
 40
0.0764842388972075
 40
0.1143321871672148
 40
0.189497769604236
 40
0.3015199682265925
 40
0.411403643295854
 40
0.5216525276783495
 40
0.6032992406681161
 40
0.6847364583045064
 40
0.7258433937200116
 40
0.7667245709161286
 40
0.8034647450775146
 40
0.8243945372381423
 40
0.9086978696336191
 40
1.0
 40
1.0
 40
1.0
 40
1.0
 10
81.28634487779799
 20
221.4028481268799
 30
0.0
 10
81.50632034449836
 20
221.4077262269709
 30
0.0
 10
81.87249185365592
 20
221.4179271685927
 30
0.0
 10
82.4697475173395
 20
221.497661427501
 30
0.0
 10
83.22807897382782
 20
221.6578809406315
 30
0.0
 10
84.34516848038167
 20
221.992980510344
 30
0.0
 10
85.71936696119161
 20
222.7184497190796
 30
0.0
 10
86.9458470517871
 20
223.9509705022354
 30
0.0
 10
87.71633130954649
 20
225.3305300578449
 30
0.0
 10
88.04302483458869
 20
226.7210104878545
 30
0.0
 10
87.96419785982431
 20
227.7904914546684
 30
0.0
 10
87.7191949531071
 20
228.6000507255956
 30
0.0
 10
87.46636641568364
 20
229.1603431952692
 30
0.0
 10
87.1998128223947
 20
229.595619780062
 30
0.0
 10
86.75976085922643
 20
230.1809284844304
 30
0.0
 10
85.99615664632562
 20
230.8948505482397
 30
0.0
 10
85.31173688823687
 20
231.3795817945151
 30
0.0
 10
84.88218854147613
 20
231.6700238374995
 30
0.0
  0
SPLINE
  5
25B
330
20F
100
AcDbEntity
  8
$DDT_AUDIT_GENERATED_(97)
  6
Continuous
 62
     7
100
AcDbSpline
210
0.0
220
0.0
230
1.0
 70
     8
 71
     3
 72
    21
 73
    17
 74
     0
 42
0.0000000006404439
 43
0.0000000001
 40
0.0
 40
0.0
 40
0.0
 40
0.0
 40
0.0913084166638572
 40
0.1756175534783936
 40
0.2063892599031865
 40
0.2604639145488644
 40
0.315216396496883
 40
0.3966592212157548
 40
0.4783115557120926
 40
0.588568030906334
 40
0.6984592716420974
 40
0.8104891831717175
 40
0.8856599408791215
 40
0.9235104950408065
 40
0.9612544378266072
 40
1.0
 40
1.0
 40
1.0
 40
1.0
 10
77.25677992813787
 20
231.6700238374995
 30
0.0
 10
76.82723158137713
 20
231.3795817945151
 30
0.0
 10
76.14263207411506
 20
230.8946917149838
 30
0.0
 10
75.34139836150683
 20
230.1455575796175
 30
0.0
 10
74.82846905367263
 20
229.4395197233294
 30
0.0
 10
74.48816531745351
 20
228.7991164241
 30
0.0
 10
74.18031948836389
 20
227.8616437621951
 30
0.0
 10
74.09585641415335
 20
226.7211026665549
 30
0.0
 10
74.4226698329286
 20
225.3304955277856
 30
0.0
 10
75.19311161674423
 20
223.9509808604336
 30
0.0
 10
76.4196042264454
 20
222.7184468465581
 30
0.0
 10
77.79379950470413
 20
221.9929810224139
 30
0.0
 10
78.91088954546863
 20
221.6578808881249
 30
0.0
 10
79.66922094287375
 20
221.4976614374362
 30
0.0
 10
80.26647661871706
 20
221.4179271656768
 30
0.0
 10
80.63264812511562
 20
221.4077262269709
 30
0.0
 10
80.85262359181601
 20
221.4028481268799
 30
0.0
  0
LINE
  5
25C
330
20F
100
AcDbEntity
  8
$DDT_AUDIT_GENERATED_(97)
  6
Continuous
 62
     7
100
AcDbLine
 10
80.8526235918
 20
221.4028481269
 30
0.0
 11
81.2863448778
 21
221.4028481269
 31
0.0
  0
LINE
  5
25D
330
20F
100
AcDbEntity
  8
$DDT_AUDIT_GENERATED_(97)
  6
Continuous
 62
     7
100
AcDbLine
 10
68.9017748004
 20
257.7001162553
 30
0.0
 11
68.0396133391
 21
257.255268188
 31
0.0
  0
LINE
  5
25E
330
20F
100
AcDbEntity
  8
$DDT_AUDIT_GENERATED_(97)
  6
Continuous
 62
     7
100
AcDbLine
 10
68.0396133391
 20
248.8633044488
 30
0.0
 11
68.8944646236
 21
248.4222282017
 31
0.0
  0
ARC
  5
25F
330
20F
100
AcDbEntity
  8
$DDT_AUDIT_GENERATED_(97)
  6
Continuous
 62
     7
100
AcDbCircle
 10
65.2419363576
 20
243.4411177473
 30
0.0
 40
6.101401897797889
100
AcDbArc
 50
62.7076959454
 51
121.7259106494
  0
ARC
  5
260
330
20F
100
AcDbEntity
  8
$DDT_AUDIT_GENERATED_(97)
  6
Continuous
 62
     7
100
AcDbCircle
 10
65.2419363576
 20
262.6774548895
 30
0.0
 40
6.101401897797889
100
AcDbArc
 50
238.2740893506
 51
297.2923040546
  0
LINE
  5
261
330
20F
100
AcDbEntity
  8
$DDT_AUDIT_GENERATED_(97)
  6
Continuous
 62
     7
100
AcDbLine
 10
60.7732275065
 20
248.6308078458
 30
0.0
 11
62.033475387
 21
248.6308078458
 31
0.0
  0
LINE
  5
262
330
20F
100
AcDbEntity
  8
$DDT_AUDIT_GENERATED_(97)
  6
Continuous
 62
     7
100
AcDbLine
 10
62.033475387
 20
257.487764791
 30
0.0
 11
60.7732275065
 21
257.487764791
 31
0.0
  0
LINE
  5
263
330
20F
100
AcDbEntity
  8
$DDT_AUDIT_GENERATED_(97)
  6
Continuous
 62
     7
100
AcDbLine
 10
59.6802217539
 20
249.2465820117
 30
0.0
 11
60.7732275065
 21
249.2465820117
 31
0.0
  0
LINE
  5
264
330
20F
100
AcDbEntity
  8
$DDT_AUDIT_GENERATED_(97)
  6
Continuous
 62
     7
100
AcDbLine
 10
60.7732275065
 20
256.8719906251
 30
0.0
 11
59.6802217539
 21
256.8719906251
 31
0.0
  0
SPLINE
  5
265
330
20F
100
AcDbEntity
  8
$DDT_AUDIT_GENERATED_(97)
  6
Continuous
 62
     7
100
AcDbSpline
210
0.0
220
0.0
230
1.0
 70
     8
 71
     3
 72
    22
 73
    18
 74
     0
 42
0.0000000006406317
 43
0.0000000001
 40
0.0
 40
0.0
 40
0.0
 40
0.0
 40
0.0387428946632266
 40
0.0764842388972076
 40
0.1143321871672147
 40
0.1894977696042356
 40
0.3015199682265924
 40
0.4114036432958539
 40
0.5216525276783482
 40
0.6032992406681154
 40
0.6847364583045062
 40
0.7258433937200112
 40
0.7667245709161277
 40
0.8034647450775141
 40
0.8243945372381422
 40
0.9086978696336191
 40
1.0
 40
1.0
 40
1.0
 40
1.0
 10
49.41304604329277
 20
252.8424256754031
 30
0.0
 10
49.41792414338369
 20
252.6224502087028
 30
0.0
 10
49.42812508500555
 20
252.2562786995451
 30
0.0
 10
49.5078593439138
 20
251.6590230358617
 30
0.0
 10
49.66807885704441
 20
250.9006915793733
 30
0.0
 10
50.0031784267568
 20
249.7836020728194
 30
0.0
 10
50.72864763549254
 20
248.4094035920095
 30
0.0
 10
51.96116841864826
 20
247.1829235014141
 30
0.0
 10
53.34072797425787
 20
246.4124392436547
 30
0.0
 10
54.73120840426732
 20
246.0857457186123
 30
0.0
 10
55.80068937108135
 20
246.1645726933769
 30
0.0
 10
56.61024864200835
 20
246.409575600094
 30
0.0
 10
57.17054111168206
 20
246.6624041375175
 30
0.0
 10
57.60581769647485
 20
246.9289577308064
 30
0.0
 10
58.1911264008432
 20
247.3690096939748
 30
0.0
 10
58.90504846465261
 20
248.1326139068755
 30
0.0
 10
59.38977971092793
 20
248.8170336649643
 30
0.0
 10
59.68022175391238
 20
249.246582011725
 30
0.0
  0
SPLINE
  5
266
330
20F
100
AcDbEntity
  8
$DDT_AUDIT_GENERATED_(97)
  6
Continuous
 62
     7
100
AcDbSpline
210
0.0
220
0.0
230
1.0
 70
     8
 71
     3
 72
    21
 73
    17
 74
     0
 42
0.0000000006404439
 43
0.0000000001
 40
0.0
 40
0.0
 40
0.0
 40
0.0
 40
0.0913084166638568
 40
0.1756175534783932
 40
0.2063892599031857
 40
0.2604639145488639
 40
0.3152163964968825
 40
0.3966592212157549
 40
0.4783115557120915
 40
0.5885680309063338
 40
0.6984592716420973
 40
0.8104891831717178
 40
0.8856599408791216
 40
0.9235104950408065
 40
0.9612544378266072
 40
1.0
 40
1.0
 40
1.0
 40
1.0
 10
59.68022175391237
 20
256.8719906250633
 30
0.0
 10
59.38977971092793
 20
257.301538971824
 30
0.0
 10
58.90488963139666
 20
257.9861384790862
 30
0.0
 10
58.15575549603018
 20
258.7873721916942
 30
0.0
 10
57.44971763974237
 20
259.3003014995285
 30
0.0
 10
56.80931434051269
 20
259.6406052357475
 30
0.0
 10
55.87184167860798
 20
259.9484510648375
 30
0.0
 10
54.73130058296763
 20
260.0329141390477
 30
0.0
 10
53.34069344419851
 20
259.7061007202725
 30
0.0
 10
51.96117877684633
 20
258.9356589364569
 30
0.0
 10
50.72864476297098
 20
257.7091663267558
 30
0.0
 10
50.00317893882666
 20
256.334971048497
 30
0.0
 10
49.66807880453791
 20
255.2178810077324
 30
0.0
 10
49.50785935384894
 20
254.4595496103274
 30
0.0
 10
49.4281250820896
 20
253.8622939344841
 30
0.0
 10
49.41792414338372
 20
253.4961224280855
 30
0.0
 10
49.41304604329277
 20
253.2761469613851
 30
0.0
  0
LINE
  5
267
330
20F
100
AcDbEntity
  8
$DDT_AUDIT_GENERATED_(97)
  6
Continuous
 62
     7
100
AcDbLine
 10
49.4130460433
 20
253.2761469614
 30
0.0
 11
49.4130460433
 21
252.8424256754
 31
0.0
  0
LINE
  5
268
330
20F
100
AcDbEntity
  8
$DDT_AUDIT_GENERATED_(97)
  6
Continuous
 62
     7
100
AcDbLine
 10
85.709739162
 20
265.2281101809
 30
0.0
 11
85.2654661044
 21
266.0891572141
 31
0.0
  0
LINE
  5
269
330
20F
100
AcDbEntity
  8
$DDT_AUDIT_GENERATED_(97)
  6
Continuous
 62
     7
100
AcDbLine
 10
76.8735023652
 20
266.0891572141
 30
0.0
 11
76.4322420928
 21
265.2339492696
 31
0.0
  0
ARC
  5
26A
330
20F
100
AcDbEntity
  8
$DDT_AUDIT_GENERATED_(97)
  6
Continuous
 62
     7
100
AcDbCircle
 10
71.4513156637
 20
268.8868341956
 30
0.0
 40
6.101401897797893
100
AcDbArc
 50
332.7076959454
 51
31.7259106494
  0
ARC
  5
26B
330
20F
100
AcDbEntity
  8
$DDT_AUDIT_GENERATED_(97)
  6
Continuous
 62
     7
100
AcDbCircle
 10
90.6876528059
 20
268.8868341956
 30
0.0
 40
6.101401897797888
100
AcDbArc
 50
148.2740893506
 51
207.2923040546
  0
LINE
  5
26C
330
20F
100
AcDbEntity
  8
$DDT_AUDIT_GENERATED_(97)
  6
Continuous
 62
     7
100
AcDbLine
 10
76.6410057622
 20
273.3555430467
 30
0.0
 11
76.6410057622
 21
272.0952951662
 31
0.0
  0
LINE
  5
26D
330
20F
100
AcDbEntity
  8
$DDT_AUDIT_GENERATED_(97)
  6
Continuous
 62
     7
100
AcDbLine
 10
85.4979627074
 20
272.0952951662
 30
0.0
 11
85.4979627074
 21
273.3555430467
 31
0.0
  0
LINE
  5
26E
330
20F
100
AcDbEntity
  8
$DDT_AUDIT_GENERATED_(97)
  6
Continuous
 62
     7
100
AcDbLine
 10
77.2567799281
 20
274.4485487993
 30
0.0
 11
77.2567799281
 21
273.3555430467
 31
0.0
  0
LINE
  5
26F
330
20F
100
AcDbEntity
  8
$DDT_AUDIT_GENERATED_(97)
  6
Continuous
 62
     7
100
AcDbLine
 10
84.8821885415
 20
273.3555430467
 30
0.0
 11
84.8821885415
 21
274.4485487993
 31
0.0
  0
SPLINE
  5
270
330
20F
100
AcDbEntity
  8
$DDT_AUDIT_GENERATED_(97)
  6
Continuous
 62
     7
100
AcDbSpline
210
0.0
220
0.0
230
1.0
 70
     8
 71
     3
 72
    22
 73
    18
 74
     0
 42
0.0000000006406317
 43
0.0000000001
 40
0.0
 40
0.0
 40
0.0
 40
0.0
 40
0.0387428946632267
 40
0.0764842388972076
 40
0.114332187167215
 40
0.1894977696042361
 40
0.3015199682265927
 40
0.4114036432958542
 40
0.5216525276783496
 40
0.6032992406681164
 40
0.6847364583045065
 40
0.7258433937200117
 40
0.7667245709161287
 40
0.8034647450775148
 40
0.8243945372381424
 40
0.9086978696336199
 40
1.0
 40
1.0
 40
1.0
 40
1.0
 10
80.852623591816
 20
284.7157245099083
 30
0.0
 10
80.63264812511561
 20
284.7108464098175
 30
0.0
 10
80.26647661595797
 20
284.7006454681956
 30
0.0
 10
79.66922095227456
 20
284.6209112092873
 30
0.0
 10
78.91088949578625
 20
284.4606916961567
 30
0.0
 10
77.79379998923218
 20
284.1255921264443
 30
0.0
 10
76.41960150842246
 20
283.4001229177087
 30
0.0
 10
75.19312141782692
 20
282.1676021345529
 30
0.0
 10
74.42263716006744
 20
280.7880425789434
 30
0.0
 10
74.09594363502525
 20
279.3975621489337
 30
0.0
 10
74.17477060978979
 20
278.3280811821199
 30
0.0
 10
74.41977351650684
 20
277.5185219111927
 30
0.0
 10
74.67260205393039
 20
276.9582294415191
 30
0.0
 10
74.93915564721931
 20
276.5229528567263
 30
0.0
 10
75.37920761038758
 20
275.9376441523579
 30
0.0
 10
76.14281182328838
 20
275.2237220885486
 30
0.0
 10
76.82723158137712
 20
274.7389908422732
 30
0.0
 10
77.25677992813786
 20
274.4485487992887
 30
0.0
  0
SPLINE
  5
271
330
20F
100
AcDbEntity
  8
$DDT_AUDIT_GENERATED_(97)
  6
Continuous
 62
     7
100
AcDbSpline
210
0.0
220
0.0
230
1.0
 70
     8
 71
     3
 72
    21
 73
    17
 74
     0
 42
0.0000000006404439
 43
0.0000000001
 40
0.0
 40
0.0
 40
0.0
 40
0.0
 40
0.0913084166638572
 40
0.1756175534783936
 40
0.2063892599031864
 40
0.2604639145488643
 40
0.3152163964968829
 40
0.3966592212157546
 40
0.4783115557120924
 40
0.5885680309063338
 40
0.6984592716420971
 40
0.8104891831717174
 40
0.8856599408791213
 40
0.9235104950408065
 40
0.9612544378266071
 40
1.0
 40
1.0
 40
1.0
 40
1.0
 10
84.88218854147611
 20
274.4485487992887
 30
0.0
 10
85.31173688823685
 20
274.7389908422732
 30
0.0
 10
85.99633639549909
 20
275.2238809218045
 30
0.0
 10
86.79757010810695
 20
275.9730150571708
 30
0.0
 10
87.31049941594148
 20
276.679052913459
 30
0.0
 10
87.65080315216025
 20
277.3194562126883
 30
0.0
 10
87.95864898125025
 20
278.2569288745932
 30
0.0
 10
88.04311205546053
 20
279.3974699702334
 30
0.0
 10
87.71629863668525
 20
280.7880771090026
 30
0.0
 10
86.9458568528699
 20
282.1675917763547
 30
0.0
 10
85.71936424316866
 20
283.4001257902302
 30
0.0
 10
84.34516896491003
 20
284.1255916143745
 30
0.0
 10
83.2280789241452
 20
284.4606917486634
 30
0.0
 10
82.4697475267403
 20
284.6209111993522
 30
0.0
 10
81.87249185089692
 20
284.7006454711115
 30
0.0
 10
81.50632034449835
 20
284.7108464098174
 30
0.0
 10
81.28634487779797
 20
284.7157245099083
 30
0.0
  0
LINE
  5
272
330
20F
100
AcDbEntity
  8
$DDT_AUDIT_GENERATED_(97)
  6
Continuous
 62
     7
100
AcDbLine
 10
81.2863448778
 20
284.7157245099
 30
0.0
 11
80.8526235918
 21
284.7157245099
 31
0.0
  0
LINE
  5
273
330
20F
100
AcDbEntity
  8
$DDT_AUDIT_GENERATED_(227)
  6
Continuous
 62
     7
100
AcDbLine
 10
253.0694842348
 20
245.6292863184
 30
0.0
 11
253.0694842348
 21
246.5997054991
 31
0.0
  0
LINE
  5
274
330
20F
100
AcDbEntity
  8
$DDT_AUDIT_GENERATED_(227)
  6
Continuous
 62
     7
100
AcDbLine
 10
253.0694842348
 20
259.5049275604
 30
0.0
 11
253.0694842348
 21
260.4892863184
 31
0.0
  0
LINE
  5
275
330
20F
100
AcDbEntity
  8
$DDT_AUDIT_GENERATED_(227)
  6
Continuous
 62
     7
100
AcDbLine
 10
253.7469988718
 20
261.1668009554
 30
0.0
 11
253.0694842348
 21
260.4892863184
 31
0.0
  0
LINE
  5
276
330
20F
100
AcDbEntity
  8
$DDT_AUDIT_GENERATED_(227)
  6
Continuous
 62
     7
100
AcDbLine
 10
253.0694842348
 20
245.6292863184
 30
0.0
 11
253.7469988718
 21
244.9517716814
 31
0.0
  0
ARC
  5
277
330
20F
100
AcDbEntity
  8
00300038_KAPPE_S
  6
Continuous
 62
     7
100
AcDbCircle
 10
281.0694842348
 20
253.0592863184
 30
0.0
 40
22.50000008496214
100
AcDbArc
 50
11.8280489423
 51
78.2077808285
  0
ARC
  5
278
330
20F
100
AcDbEntity
  8
00300038_KAPPE_S
  6
Continuous
 62
     7
100
AcDbCircle
 10
281.0694842348
 20
253.0592863184
 30
0.0
 40
22.50000008496214
100
AcDbArc
 50
101.942740161
 51
168.1059376075
  0
ARC
  5
279
330
20F
100
AcDbEntity
  8
00300038_KAPPE_S
  6
Continuous
 62
     7
100
AcDbCircle
 10
281.0694842348
 20
253.0592863184
 30
0.0
 40
22.50000008496214
100
AcDbArc
 50
191.8027531855
 51
258.1465021279
  0
ARC
  5
27A
330
20F
100
AcDbEntity
  8
00300038_KAPPE_S
  6
Continuous
 62
     7
100
AcDbCircle
 10
281.0694842348
 20
253.0592863184
 30
0.0
 40
22.50000008496214
100
AcDbArc
 50
281.8086980012
 51
348.210491971
  0
ARC
  5
27B
330
20F
100
AcDbEntity
  8
00315038_ROSETTE
  6
Continuous
 62
     7
100
AcDbCircle
 10
281.0694842348
 20
253.0592863184
 30
0.0
 40
25.25
100
AcDbArc
 50
15.1417768143
 51
74.8668997817
  0
ARC
  5
27C
330
20F
100
AcDbEntity
  8
00315038_ROSETTE
  6
Continuous
 62
     7
100
AcDbCircle
 10
281.0694842348
 20
253.0592863184
 30
0.0
 40
25.25
100
AcDbArc
 50
105.1249891313
 51
164.8693043506
  0
ARC
  5
27D
330
20F
100
AcDbEntity
  8
00315038_ROSETTE
  6
Continuous
 62
     7
100
AcDbCircle
 10
281.0694842348
 20
253.0592863184
 30
0.0
 40
25.25
100
AcDbArc
 50
195.1151336027
 51
254.8749052203
  0
ARC
  5
27E
330
20F
100
AcDbEntity
  8
00315038_ROSETTE
  6
Continuous
 62
     7
100
AcDbCircle
 10
281.0694842348
 20
253.0592863184
 30
0.0
 40
25.25
100
AcDbArc
 50
285.1179087733
 51
344.8725393958
  0
ARC
  5
27F
330
20F
100
AcDbEntity
  8
00315038_ROSETTE
  6
Continuous
 62
     7
100
AcDbCircle
 10
281.0694842348
 20
253.0592863184
 30
0.0
 40
28.5
100
AcDbArc
 50
13.3953682361
 51
76.655447401
  0
ARC
  5
280
330
20F
100
AcDbEntity
  8
00315038_ROSETTE
  6
Continuous
 62
     7
100
AcDbCircle
 10
281.0694842348
 20
253.0592863184
 30
0.0
 40
28.5
100
AcDbArc
 50
103.3951915469
 51
166.6876978148
  0
ARC
  5
281
330
20F
100
AcDbEntity
  8
00315038_ROSETTE
  6
Continuous
 62
     7
100
AcDbCircle
 10
281.0694842348
 20
253.0592863184
 30
0.0
 40
28.5
100
AcDbArc
 50
193.3854789453
 51
256.7267708356
  0
ARC
  5
282
330
20F
100
AcDbEntity
  8
00315038_ROSETTE
  6
Continuous
 62
     7
100
AcDbCircle
 10
281.0694842348
 20
253.0592863184
 30
0.0
 40
28.5
100
AcDbArc
 50
283.3866120629
 51
346.6305065843
  0
CIRCLE
  5
283
330
20F
100
AcDbEntity
  8
$DDT_AUDIT_GENERATED_(97)
  6
Continuous
 62
     7
100
AcDbCircle
 10
281.0694842348
 20
253.0592863184
 30
0.0
 40
13.0
  0
LINE
  5
284
330
20F
100
AcDbEntity
  8
$DDT_AUDIT_GENERATED_(97)
  6
Continuous
 62
     7
100
AcDbLine
 10
300.1054930827
 20
248.6308078458
 30
0.0
 11
300.1054930827
 21
257.487764791
 31
0.0
  0
LINE
  5
285
330
20F
100
AcDbEntity
  8
$DDT_AUDIT_GENERATED_(97)
  6
Continuous
 62
     7
100
AcDbLine
 10
301.3657409631
 20
248.6308078458
 30
0.0
 11
301.3657409631
 21
257.487764791
 31
0.0
  0
LINE
  5
286
330
20F
100
AcDbEntity
  8
$DDT_AUDIT_GENERATED_(97)
  6
Continuous
 62
     7
100
AcDbLine
 10
302.4587467157
 20
249.2465820117
 30
0.0
 11
302.4587467157
 21
256.8719743778
 31
0.0
  0
LINE
  5
287
330
20F
100
AcDbEntity
  8
$DDT_AUDIT_GENERATED_(97)
  6
Continuous
 62
     7
100
AcDbLine
 10
276.6410057622
 20
234.0232774705
 30
0.0
 11
285.4979627074
 21
234.0232774705
 31
0.0
  0
LINE
  5
288
330
20F
100
AcDbEntity
  8
$DDT_AUDIT_GENERATED_(97)
  6
Continuous
 62
     7
100
AcDbLine
 10
276.6410057622
 20
232.7630295901
 30
0.0
 11
285.4979627074
 21
232.7630295901
 31
0.0
  0
LINE
  5
289
330
20F
100
AcDbEntity
  8
$DDT_AUDIT_GENERATED_(97)
  6
Continuous
 62
     7
100
AcDbLine
 10
277.2567799281
 20
231.6700238375
 30
0.0
 11
284.8821722942
 21
231.6700238375
 31
0.0
  0
LINE
  5
28A
330
20F
100
AcDbEntity
  8
$DDT_AUDIT_GENERATED_(97)
  6
Continuous
 62
     7
100
AcDbLine
 10
262.033475387
 20
257.487764791
 30
0.0
 11
262.033475387
 21
248.6308078458
 31
0.0
  0
LINE
  5
28B
330
20F
100
AcDbEntity
  8
$DDT_AUDIT_GENERATED_(97)
  6
Continuous
 62
     7
100
AcDbLine
 10
260.7732275065
 20
257.487764791
 30
0.0
 11
260.7732275065
 21
248.6308078458
 31
0.0
  0
LINE
  5
28C
330
20F
100
AcDbEntity
  8
$DDT_AUDIT_GENERATED_(97)
  6
Continuous
 62
     7
100
AcDbLine
 10
259.6802217539
 20
256.8719906251
 30
0.0
 11
259.6802217539
 21
249.246598259
 31
0.0
  0
LINE
  5
28D
330
20F
100
AcDbEntity
  8
$DDT_AUDIT_GENERATED_(97)
  6
Continuous
 62
     7
100
AcDbLine
 10
285.4979627074
 20
272.0952951662
 30
0.0
 11
276.6410057622
 21
272.0952951662
 31
0.0
  0
LINE
  5
28E
330
20F
100
AcDbEntity
  8
$DDT_AUDIT_GENERATED_(97)
  6
Continuous
 62
     7
100
AcDbLine
 10
285.4979627074
 20
273.3555430467
 30
0.0
 11
276.6410057622
 21
273.3555430467
 31
0.0
  0
LINE
  5
28F
330
20F
100
AcDbEntity
  8
$DDT_AUDIT_GENERATED_(97)
  6
Continuous
 62
     7
100
AcDbLine
 10
284.8821885415
 20
274.4485487993
 30
0.0
 11
277.2567961754
 21
274.4485487993
 31
0.0
  0
CIRCLE
  5
290
330
20F
100
AcDbEntity
  8
$DDT_AUDIT_GENERATED_(97)
  6
Continuous
 62
     7
100
AcDbCircle
 10
281.0694842348
 20
253.0592863184
 30
0.0
 40
8.499999999999176
  0
CIRCLE
  5
291
330
20F
100
AcDbEntity
  8
$DDT_AUDIT_GENERATED_(97)
  6
Continuous
 62
     7
100
AcDbCircle
 10
281.0694842348
 20
253.0592863184
 30
0.0
 40
10.5
  0
LINE
  5
292
330
20F
100
AcDbEntity
  8
$DDT_AUDIT_GENERATED_(97)
  6
Continuous
 62
     7
100
AcDbLine
 10
293.2422366385
 20
248.4210583943
 30
0.0
 11
294.0993551305
 21
248.8633044488
 31
0.0
  0
LINE
  5
293
330
20F
100
AcDbEntity
  8
$DDT_AUDIT_GENERATED_(97)
  6
Continuous
 62
     7
100
AcDbLine
 10
294.0993551305
 20
257.255268188
 30
0.0
 11
293.2416591599
 21
257.6978122032
 31
0.0
  0
ARC
  5
294
330
20F
100
AcDbEntity
  8
$DDT_AUDIT_GENERATED_(97)
  6
Continuous
 62
     7
100
AcDbCircle
 10
296.897032112
 20
262.6774548895
 30
0.0
 40
6.101401897797888
100
AcDbArc
 50
242.7076959454
 51
301.7259106494
  0
ARC
  5
295
330
20F
100
AcDbEntity
  8
$DDT_AUDIT_GENERATED_(97)
  6
Continuous
 62
     7
100
AcDbCircle
 10
296.897032112
 20
243.4411177473
 30
0.0
 40
6.101401897797884
100
AcDbArc
 50
58.2740893506
 51
117.2923040546
  0
LINE
  5
296
330
20F
100
AcDbEntity
  8
$DDT_AUDIT_GENERATED_(97)
  6
Continuous
 62
     7
100
AcDbLine
 10
301.3657409631
 20
257.487764791
 30
0.0
 11
300.1054930827
 21
257.487764791
 31
0.0
  0
LINE
  5
297
330
20F
100
AcDbEntity
  8
$DDT_AUDIT_GENERATED_(97)
  6
Continuous
 62
     7
100
AcDbLine
 10
300.1054930827
 20
248.6308078458
 30
0.0
 11
301.3657409631
 21
248.6308078458
 31
0.0
  0
LINE
  5
298
330
20F
100
AcDbEntity
  8
$DDT_AUDIT_GENERATED_(97)
  6
Continuous
 62
     7
100
AcDbLine
 10
302.4587467157
 20
256.8719906251
 30
0.0
 11
301.3657409631
 21
256.8719906251
 31
0.0
  0
LINE
  5
299
330
20F
100
AcDbEntity
  8
$DDT_AUDIT_GENERATED_(97)
  6
Continuous
 62
     7
100
AcDbLine
 10
301.3657409631
 20
249.2465820117
 30
0.0
 11
302.4587467157
 21
249.2465820117
 31
0.0
  0
SPLINE
  5
29A
330
20F
100
AcDbEntity
  8
$DDT_AUDIT_GENERATED_(97)
  6
Continuous
 62
     7
100
AcDbSpline
210
0.0
220
0.0
230
1.0
 70
     8
 71
     3
 72
    22
 73
    18
 74
     0
 42
0.0000000006406317
 43
0.0000000001
 40
0.0
 40
0.0
 40
0.0
 40
0.0
 40
0.0387428946632266
 40
0.0764842388972076
 40
0.1143321871672146
 40
0.1894977696042355
 40
0.3015199682265923
 40
0.4114036432958538
 40
0.5216525276783497
 40
0.6032992406681169
 40
0.684736458304506
 40
0.7258433937200118
 40
0.7667245709161283
 40
0.8034647450775149
 40
0.824394537238142
 40
0.908697869633619
 40
1.0
 40
1.0
 40
1.0
 40
1.0
 10
312.7259224263212
 20
253.2761469613851
 30
0.0
 10
312.7210443262302
 20
253.4961224280854
 30
0.0
 10
312.7108433846085
 20
253.8622939372431
 30
0.0
 10
312.6311091257002
 20
254.4595496009266
 30
0.0
 10
312.4708896125696
 20
255.2178810574148
 30
0.0
 10
312.1357900428573
 20
256.3349705639687
 30
0.0
 10
311.4103208341215
 20
257.7091690447787
 30
0.0
 10
310.1778000509659
 20
258.9356491353741
 30
0.0
 10
308.7982404953564
 20
259.7061333931335
 30
0.0
 10
307.4077600653465
 20
260.0328269181759
 30
0.0
 10
306.3382790985328
 20
259.9539999434113
 30
0.0
 10
305.5287198276055
 20
259.7089970366942
 30
0.0
 10
304.9684273579319
 20
259.4561684992707
 30
0.0
 10
304.5331507731391
 20
259.1896149059818
 30
0.0
 10
303.9478420687709
 20
258.7495629428134
 30
0.0
 10
303.2339200049614
 20
257.9859587299127
 30
0.0
 10
302.749188758686
 20
257.3015389718239
 30
0.0
 10
302.4587467157016
 20
256.8719906250632
 30
0.0
  0
SPLINE
  5
29B
330
20F
100
AcDbEntity
  8
$DDT_AUDIT_GENERATED_(97)
  6
Continuous
 62
     7
100
AcDbSpline
210
0.0
220
0.0
230
1.0
 70
     8
 71
     3
 72
    21
 73
    17
 74
     0
 42
0.0000000006404439
 43
0.0000000001
 40
0.0
 40
0.0
 40
0.0
 40
0.0
 40
0.0913084166638572
 40
0.1756175534783936
 40
0.206389259903186
 40
0.2604639145488642
 40
0.3152163964968828
 40
0.3966592212157551
 40
0.4783115557120917
 40
0.5885680309063339
 40
0.6984592716420974
 40
0.8104891831717178
 40
0.8856599408791216
 40
0.9235104950408065
 40
0.9612544378266072
 40
1.0
 40
1.0
 40
1.0
 40
1.0
 10
302.4587467157016
 20
249.2465820117249
 30
0.0
 10
302.749188758686
 20
248.8170336649642
 30
0.0
 10
303.2340788382176
 20
248.1324341577021
 30
0.0
 10
303.9832129735836
 20
247.331200445094
 30
0.0
 10
304.6892508298719
 20
246.8182711372596
 30
0.0
 10
305.3296541291012
 20
246.4779674010407
 30
0.0
 10
306.267126791006
 20
246.1701215719508
 30
0.0
 10
307.4076678866463
 20
246.0856584977405
 30
0.0
 10
308.7982750254154
 20
246.4124719165157
 30
0.0
 10
310.1777896927677
 20
247.1829137003313
 30
0.0
 10
311.4103237066431
 20
248.4094063100324
 30
0.0
 10
312.1357895307872
 20
249.7836015882911
 30
0.0
 10
312.4708896650764
 20
250.9006916290558
 30
0.0
 10
312.631109115765
 20
251.6590230264608
 30
0.0
 10
312.7108433875244
 20
252.2562787023041
 30
0.0
 10
312.7210443262302
 20
252.6224502087027
 30
0.0
 10
312.7259224263212
 20
252.842425675403
 30
0.0
  0
LINE
  5
29C
330
20F
100
AcDbEntity
  8
$DDT_AUDIT_GENERATED_(97)
  6
Continuous
 62
     7
100
AcDbLine
 10
312.7259224263
 20
252.8424256754
 30
0.0
 11
312.7259224263
 21
253.2761469614
 31
0.0
  0
LINE
  5
29D
330
20F
100
AcDbEntity
  8
$DDT_AUDIT_GENERATED_(97)
  6
Continuous
 62
     7
100
AcDbLine
 10
276.4315685339
 20
240.885928794
 30
0.0
 11
276.8735023652
 21
240.0294154227
 31
0.0
  0
LINE
  5
29E
330
20F
100
AcDbEntity
  8
$DDT_AUDIT_GENERATED_(97)
  6
Continuous
 62
     7
100
AcDbLine
 10
285.2654661044
 20
240.0294154227
 30
0.0
 11
285.7083912039
 21
240.887849974
 31
0.0
  0
ARC
  5
29F
330
20F
100
AcDbEntity
  8
$DDT_AUDIT_GENERATED_(97)
  6
Continuous
 62
     7
100
AcDbCircle
 10
290.6876528059
 20
237.2317384412
 30
0.0
 40
6.101401897797893
100
AcDbArc
 50
152.7076959454
 51
211.7259106494
  0
ARC
  5
2A0
330
20F
100
AcDbEntity
  8
$DDT_AUDIT_GENERATED_(97)
  6
Continuous
 62
     7
100
AcDbCircle
 10
271.4513156637
 20
237.2317384412
 30
0.0
 40
6.101401897797888
100
AcDbArc
 50
328.2740893506
 51
27.2923040546
  0
LINE
  5
2A1
330
20F
100
AcDbEntity
  8
$DDT_AUDIT_GENERATED_(97)
  6
Continuous
 62
     7
100
AcDbLine
 10
285.4979627074
 20
232.7630295901
 30
0.0
 11
285.4979627074
 21
234.0232774705
 31
0.0
  0
LINE
  5
2A2
330
20F
100
AcDbEntity
  8
$DDT_AUDIT_GENERATED_(97)
  6
Continuous
 62
     7
100
AcDbLine
 10
276.6410057622
 20
234.0232774705
 30
0.0
 11
276.6410057622
 21
232.7630295901
 31
0.0
  0
LINE
  5
2A3
330
20F
100
AcDbEntity
  8
$DDT_AUDIT_GENERATED_(97)
  6
Continuous
 62
     7
100
AcDbLine
 10
284.8821885415
 20
231.6700238375
 30
0.0
 11
284.8821885415
 21
232.7630295901
 31
0.0
  0
LINE
  5
2A4
330
20F
100
AcDbEntity
  8
$DDT_AUDIT_GENERATED_(97)
  6
Continuous
 62
     7
100
AcDbLine
 10
277.2567799281
 20
232.7630295901
 30
0.0
 11
277.2567799281
 21
231.6700238375
 31
0.0
  0
SPLINE
  5
2A5
330
20F
100
AcDbEntity
  8
$DDT_AUDIT_GENERATED_(97)
  6
Continuous
 62
     7
100
AcDbSpline
210
0.0
220
0.0
230
1.0
 70
     8
 71
     3
 72
    22
 73
    18
 74
     0
 42
0.0000000006406317
 43
0.0000000001
 40
0.0
 40
0.0
 40
0.0
 40
0.0
 40
0.0387428946632267
 40
0.0764842388972075
 40
0.1143321871672148
 40
0.1894977696042359
 40
0.3015199682265925
 40
0.411403643295854
 40
0.5216525276783495
 40
0.6032992406681161
 40
0.6847364583045064
 40
0.7258433937200116
 40
0.7667245709161286
 40
0.8034647450775146
 40
0.8243945372381423
 40
0.9086978696336191
 40
1.0
 40
1.0
 40
1.0
 40
1.0
 10
281.286344877798
 20
221.4028481268798
 30
0.0
 10
281.5063203444984
 20
221.4077262269707
 30
0.0
 10
281.8724918536561
 20
221.4179271685926
 30
0.0
 10
282.4697475173394
 20
221.4976614275009
 30
0.0
 10
283.2280789738277
 20
221.6578809406314
 30
0.0
 10
284.3451684803817
 20
221.9929805103439
 30
0.0
 10
285.7193669611917
 20
222.7184497190794
 30
0.0
 10
286.9458470517869
 20
223.9509705022354
 30
0.0
 10
287.7163313095465
 20
225.3305300578448
 30
0.0
 10
288.0430248345889
 20
226.7210104878544
 30
0.0
 10
287.9641978598242
 20
227.7904914546683
 30
0.0
 10
287.7191949531071
 20
228.6000507255955
 30
0.0
 10
287.4663664156835
 20
229.1603431952692
 30
0.0
 10
287.1998128223949
 20
229.5956197800619
 30
0.0
 10
286.7597608592262
 20
230.1809284844303
 30
0.0
 10
285.9961566463257
 20
230.8948505482396
 30
0.0
 10
285.3117368882369
 20
231.379581794515
 30
0.0
 10
284.8821885414762
 20
231.6700238374994
 30
0.0
  0
SPLINE
  5
2A6
330
20F
100
AcDbEntity
  8
$DDT_AUDIT_GENERATED_(97)
  6
Continuous
 62
     7
100
AcDbSpline
210
0.0
220
0.0
230
1.0
 70
     8
 71
     3
 72
    21
 73
    17
 74
     0
 42
0.0000000006404439
 43
0.0000000001
 40
0.0
 40
0.0
 40
0.0
 40
0.0
 40
0.0913084166638572
 40
0.1756175534783937
 40
0.2063892599031865
 40
0.2604639145488644
 40
0.3152163964968831
 40
0.3966592212157549
 40
0.4783115557120927
 40
0.5885680309063341
 40
0.6984592716420974
 40
0.8104891831717176
 40
0.8856599408791214
 40
0.9235104950408065
 40
0.9612544378266072
 40
1.0
 40
1.0
 40
1.0
 40
1.0
 10
277.2567799281379
 20
231.6700238374994
 30
0.0
 10
276.8272315813772
 20
231.379581794515
 30
0.0
 10
276.1426320741149
 20
230.8946917149837
 30
0.0
 10
275.3413983615071
 20
230.1455575796174
 30
0.0
 10
274.8284690536724
 20
229.4395197233293
 30
0.0
 10
274.4881653174538
 20
228.7991164240999
 30
0.0
 10
274.1803194883638
 20
227.861643762195
 30
0.0
 10
274.0958564141534
 20
226.7211026665547
 30
0.0
 10
274.4226698329288
 20
225.3304955277856
 30
0.0
 10
275.1931116167442
 20
223.9509808604334
 30
0.0
 10
276.4196042264453
 20
222.718446846558
 30
0.0
 10
277.7937995047042
 20
221.9929810224138
 30
0.0
 10
278.9108895454686
 20
221.6578808881248
 30
0.0
 10
279.6692209428738
 20
221.4976614374361
 30
0.0
 10
280.2664766187171
 20
221.4179271656767
 30
0.0
 10
280.6326481251157
 20
221.4077262269707
 30
0.0
 10
280.852623591816
 20
221.4028481268798
 30
0.0
  0
LINE
  5
2A7
330
20F
100
AcDbEntity
  8
$DDT_AUDIT_GENERATED_(97)
  6
Continuous
 62
     7
100
AcDbLine
 10
280.8526235918
 20
221.4028481269
 30
0.0
 11
281.2863448778
 21
221.4028481269
 31
0.0
  0
LINE
  5
2A8
330
20F
100
AcDbEntity
  8
$DDT_AUDIT_GENERATED_(97)
  6
Continuous
 62
     7
100
AcDbLine
 10
268.9017748004
 20
257.7001162553
 30
0.0
 11
268.0396133391
 21
257.255268188
 31
0.0
  0
LINE
  5
2A9
330
20F
100
AcDbEntity
  8
$DDT_AUDIT_GENERATED_(97)
  6
Continuous
 62
     7
100
AcDbLine
 10
268.0396133391
 20
248.8633044488
 30
0.0
 11
268.8944646236
 21
248.4222282017
 31
0.0
  0
ARC
  5
2AA
330
20F
100
AcDbEntity
  8
$DDT_AUDIT_GENERATED_(97)
  6
Continuous
 62
     7
100
AcDbCircle
 10
265.2419363576
 20
243.4411177473
 30
0.0
 40
6.101401897797882
100
AcDbArc
 50
62.7076959454
 51
121.7259106494
  0
ARC
  5
2AB
330
20F
100
AcDbEntity
  8
$DDT_AUDIT_GENERATED_(97)
  6
Continuous
 62
     7
100
AcDbCircle
 10
265.2419363576
 20
262.6774548895
 30
0.0
 40
6.101401897797889
100
AcDbArc
 50
238.2740893506
 51
297.2923040546
  0
LINE
  5
2AC
330
20F
100
AcDbEntity
  8
$DDT_AUDIT_GENERATED_(97)
  6
Continuous
 62
     7
100
AcDbLine
 10
260.7732275065
 20
248.6308078458
 30
0.0
 11
262.033475387
 21
248.6308078458
 31
0.0
  0
LINE
  5
2AD
330
20F
100
AcDbEntity
  8
$DDT_AUDIT_GENERATED_(97)
  6
Continuous
 62
     7
100
AcDbLine
 10
262.033475387
 20
257.487764791
 30
0.0
 11
260.7732275065
 21
257.487764791
 31
0.0
  0
LINE
  5
2AE
330
20F
100
AcDbEntity
  8
$DDT_AUDIT_GENERATED_(97)
  6
Continuous
 62
     7
100
AcDbLine
 10
259.6802217539
 20
249.2465820117
 30
0.0
 11
260.7732275065
 21
249.2465820117
 31
0.0
  0
LINE
  5
2AF
330
20F
100
AcDbEntity
  8
$DDT_AUDIT_GENERATED_(97)
  6
Continuous
 62
     7
100
AcDbLine
 10
260.7732275065
 20
256.8719906251
 30
0.0
 11
259.6802217539
 21
256.8719906251
 31
0.0
  0
SPLINE
  5
2B0
330
20F
100
AcDbEntity
  8
$DDT_AUDIT_GENERATED_(97)
  6
Continuous
 62
     7
100
AcDbSpline
210
0.0
220
0.0
230
1.0
 70
     8
 71
     3
 72
    22
 73
    18
 74
     0
 42
0.0000000006406317
 43
0.0000000001
 40
0.0
 40
0.0
 40
0.0
 40
0.0
 40
0.0387428946632266
 40
0.0764842388972077
 40
0.1143321871672148
 40
0.1894977696042361
 40
0.301519968226593
 40
0.4114036432958539
 40
0.5216525276783492
 40
0.6032992406681165
 40
0.6847364583045056
 40
0.7258433937200114
 40
0.766724570916128
 40
0.8034647450775145
 40
0.8243945372381425
 40
0.9086978696336194
 40
1.0
 40
1.0
 40
1.0
 40
1.0
 10
249.4130460432928
 20
252.842425675403
 30
0.0
 10
249.4179241433837
 20
252.6224502087027
 30
0.0
 10
249.4281250850055
 20
252.256278699545
 30
0.0
 10
249.5078593439139
 20
251.6590230358616
 30
0.0
 10
249.6680788570444
 20
250.9006915793732
 30
0.0
 10
250.0031784267569
 20
249.7836020728193
 30
0.0
 10
250.7286476354924
 20
248.4094035920094
 30
0.0
 10
251.9611684186483
 20
247.182923501414
 30
0.0
 10
253.3407279742577
 20
246.4124392436546
 30
0.0
 10
254.7312084042674
 20
246.0857457186122
 30
0.0
 10
255.8006893710813
 20
246.1645726933768
 30
0.0
 10
256.6102486420084
 20
246.4095756000939
 30
0.0
 10
257.1705411116823
 20
246.6624041375175
 30
0.0
 10
257.6058176964748
 20
246.9289577308063
 30
0.0
 10
258.1911264008434
 20
247.3690096939747
 30
0.0
 10
258.9050484646526
 20
248.1326139068754
 30
0.0
 10
259.3897797109279
 20
248.8170336649642
 30
0.0
 10
259.6802217539123
 20
249.2465820117249
 30
0.0
  0
SPLINE
  5
2B1
330
20F
100
AcDbEntity
  8
$DDT_AUDIT_GENERATED_(97)
  6
Continuous
 62
     7
100
AcDbSpline
210
0.0
220
0.0
230
1.0
 70
     8
 71
     3
 72
    21
 73
    17
 74
     0
 42
0.0000000006404439
 43
0.0000000001
 40
0.0
 40
0.0
 40
0.0
 40
0.0
 40
0.0913084166638568
 40
0.1756175534783932
 40
0.2063892599031857
 40
0.2604639145488639
 40
0.3152163964968825
 40
0.396659221215754
 40
0.4783115557120923
 40
0.5885680309063338
 40
0.6984592716420968
 40
0.8104891831717177
 40
0.8856599408791215
 40
0.9235104950408064
 40
0.9612544378266072
 40
1.0
 40
1.0
 40
1.0
 40
1.0
 10
259.6802217539123
 20
256.8719906250632
 30
0.0
 10
259.3897797109279
 20
257.3015389718239
 30
0.0
 10
258.9048896313967
 20
257.986138479086
 30
0.0
 10
258.1557554960304
 20
258.7873721916941
 30
0.0
 10
257.4497176397422
 20
259.3003014995284
 30
0.0
 10
256.8093143405129
 20
259.6406052357474
 30
0.0
 10
255.871841678608
 20
259.9484510648373
 30
0.0
 10
254.7313005829677
 20
260.0329141390476
 30
0.0
 10
253.3406934441985
 20
259.7061007202724
 30
0.0
 10
251.9611787768464
 20
258.9356589364568
 30
0.0
 10
250.7286447629711
 20
257.7091663267557
 30
0.0
 10
250.0031789388267
 20
256.3349710484969
 30
0.0
 10
249.6680788045378
 20
255.2178810077322
 30
0.0
 10
249.507859353849
 20
254.4595496103273
 30
0.0
 10
249.4281250820897
 20
253.862293934484
 30
0.0
 10
249.4179241433837
 20
253.4961224280854
 30
0.0
 10
249.4130460432928
 20
253.276146961385
 30
0.0
  0
LINE
  5
2B2
330
20F
100
AcDbEntity
  8
$DDT_AUDIT_GENERATED_(97)
  6
Continuous
 62
     7
100
AcDbLine
 10
249.4130460433
 20
253.2761469614
 30
0.0
 11
249.4130460433
 21
252.8424256754
 31
0.0
  0
LINE
  5
2B3
330
20F
100
AcDbEntity
  8
$DDT_AUDIT_GENERATED_(97)
  6
Continuous
 62
     7
100
AcDbLine
 10
285.709739162
 20
265.2281101809
 30
0.0
 11
285.2654661044
 21
266.0891572141
 31
0.0
  0
LINE
  5
2B4
330
20F
100
AcDbEntity
  8
$DDT_AUDIT_GENERATED_(97)
  6
Continuous
 62
     7
100
AcDbLine
 10
276.8735023652
 20
266.0891572141
 30
0.0
 11
276.4322420928
 21
265.2339492696
 31
0.0
  0
ARC
  5
2B5
330
20F
100
AcDbEntity
  8
$DDT_AUDIT_GENERATED_(97)
  6
Continuous
 62
     7
100
AcDbCircle
 10
271.4513156637
 20
268.8868341956
 30
0.0
 40
6.101401897797893
100
AcDbArc
 50
332.7076959454
 51
31.7259106494
  0
ARC
  5
2B6
330
20F
100
AcDbEntity
  8
$DDT_AUDIT_GENERATED_(97)
  6
Continuous
 62
     7
100
AcDbCircle
 10
290.6876528059
 20
268.8868341956
 30
0.0
 40
6.101401897797888
100
AcDbArc
 50
148.2740893506
 51
207.2923040546
  0
LINE
  5
2B7
330
20F
100
AcDbEntity
  8
$DDT_AUDIT_GENERATED_(97)
  6
Continuous
 62
     7
100
AcDbLine
 10
276.6410057622
 20
273.3555430467
 30
0.0
 11
276.6410057622
 21
272.0952951662
 31
0.0
  0
LINE
  5
2B8
330
20F
100
AcDbEntity
  8
$DDT_AUDIT_GENERATED_(97)
  6
Continuous
 62
     7
100
AcDbLine
 10
285.4979627074
 20
272.0952951662
 30
0.0
 11
285.4979627074
 21
273.3555430467
 31
0.0
  0
LINE
  5
2B9
330
20F
100
AcDbEntity
  8
$DDT_AUDIT_GENERATED_(97)
  6
Continuous
 62
     7
100
AcDbLine
 10
277.2567799281
 20
274.4485487993
 30
0.0
 11
277.2567799281
 21
273.3555430467
 31
0.0
  0
LINE
  5
2BA
330
20F
100
AcDbEntity
  8
$DDT_AUDIT_GENERATED_(97)
  6
Continuous
 62
     7
100
AcDbLine
 10
284.8821885415
 20
273.3555430467
 30
0.0
 11
284.8821885415
 21
274.4485487993
 31
0.0
  0
SPLINE
  5
2BB
330
20F
100
AcDbEntity
  8
$DDT_AUDIT_GENERATED_(97)
  6
Continuous
 62
     7
100
AcDbSpline
210
0.0
220
0.0
230
1.0
 70
     8
 71
     3
 72
    22
 73
    18
 74
     0
 42
0.0000000006406317
 43
0.0000000001
 40
0.0
 40
0.0
 40
0.0
 40
0.0
 40
0.0387428946632267
 40
0.0764842388972076
 40
0.1143321871672149
 40
0.1894977696042361
 40
0.3015199682265926
 40
0.4114036432958542
 40
0.5216525276783496
 40
0.6032992406681162
 40
0.6847364583045065
 40
0.7258433937200117
 40
0.7667245709161286
 40
0.8034647450775148
 40
0.8243945372381423
 40
0.9086978696336191
 40
1.0
 40
1.0
 40
1.0
 40
1.0
 10
280.852623591816
 20
284.7157245099083
 30
0.0
 10
280.6326481251156
 20
284.7108464098173
 30
0.0
 10
280.2664766159579
 20
284.7006454681955
 30
0.0
 10
279.6692209522747
 20
284.6209112092873
 30
0.0
 10
278.9108894957863
 20
284.4606916961566
 30
0.0
 10
277.7937999892322
 20
284.1255921264442
 30
0.0
 10
276.4196015084224
 20
283.4001229177086
 30
0.0
 10
275.1931214178271
 20
282.1676021345528
 30
0.0
 10
274.4226371600675
 20
280.7880425789433
 30
0.0
 10
274.0959436350252
 20
279.3975621489336
 30
0.0
 10
274.1747706097898
 20
278.3280811821198
 30
0.0
 10
274.419773516507
 20
277.5185219111926
 30
0.0
 10
274.6726020539303
 20
276.9582294415189
 30
0.0
 10
274.9391556472192
 20
276.5229528567262
 30
0.0
 10
275.3792076103877
 20
275.9376441523578
 30
0.0
 10
276.1428118232884
 20
275.2237220885485
 30
0.0
 10
276.8272315813771
 20
274.7389908422731
 30
0.0
 10
277.2567799281379
 20
274.4485487992886
 30
0.0
  0
SPLINE
  5
2BC
330
20F
100
AcDbEntity
  8
$DDT_AUDIT_GENERATED_(97)
  6
Continuous
 62
     7
100
AcDbSpline
210
0.0
220
0.0
230
1.0
 70
     8
 71
     3
 72
    21
 73
    17
 74
     0
 42
0.0000000006404439
 43
0.0000000001
 40
0.0
 40
0.0
 40
0.0
 40
0.0
 40
0.0913084166638572
 40
0.1756175534783935
 40
0.2063892599031864
 40
0.2604639145488642
 40
0.3152163964968829
 40
0.3966592212157546
 40
0.4783115557120923
 40
0.5885680309063337
 40
0.698459271642097
 40
0.8104891831717173
 40
0.8856599408791213
 40
0.9235104950408065
 40
0.9612544378266071
 40
1.0
 40
1.0
 40
1.0
 40
1.0
 10
284.8821885414761
 20
274.4485487992886
 30
0.0
 10
285.3117368882369
 20
274.7389908422731
 30
0.0
 10
285.9963363954989
 20
275.2238809218044
 30
0.0
 10
286.7975701081073
 20
275.9730150571708
 30
0.0
 10
287.3104994159413
 20
276.6790529134589
 30
0.0
 10
287.6508031521604
 20
277.3194562126882
 30
0.0
 10
287.9586489812502
 20
278.2569288745931
 30
0.0
 10
288.0431120554606
 20
279.3974699702334
 30
0.0
 10
287.7162986366855
 20
280.7880771090025
 30
0.0
 10
286.9458568528697
 20
282.1675917763546
 30
0.0
 10
285.7193642431687
 20
283.4001257902301
 30
0.0
 10
284.34516896491
 20
284.1255916143743
 30
0.0
 10
283.2280789241452
 20
284.4606917486633
 30
0.0
 10
282.4697475267403
 20
284.6209111993521
 30
0.0
 10
281.872491850897
 20
284.7006454711114
 30
0.0
 10
281.5063203444984
 20
284.7108464098173
 30
0.0
 10
281.286344877798
 20
284.7157245099083
 30
0.0
  0
LINE
  5
2BD
330
20F
100
AcDbEntity
  8
$DDT_AUDIT_GENERATED_(97)
  6
Continuous
 62
     7
100
AcDbLine
 10
281.2863448778
 20
284.7157245099
 30
0.0
 11
280.8526235918
 21
284.7157245099
 31
0.0
  0
ARC
  5
2BE
330
20F
100
AcDbEntity
  8
$DDT_AUDIT_GENERATED_(97)
  6
Continuous
 62
     7
100
AcDbCircle
 10
181.0694842348
 20
253.0592863184
 30
0.0
 40
33.0
100
AcDbArc
 50
0.0
 51
242.3503334936
  0
ARC
  5
2BF
330
20F
100
AcDbEntity
  8
$DDT_AUDIT_GENERATED_(97)
  6
Continuous
 62
     7
100
AcDbCircle
 10
181.0694842348
 20
253.0592863184
 30
0.0
 40
33.0
100
AcDbArc
 50
298.6998789251
 51
0.0
  0
ARC
  5
2C0
330
20F
100
AcDbEntity
  8
$DDT_AUDIT_GENERATED_(97)
  6
Continuous
 62
     7
100
AcDbCircle
 10
181.0694842348
 20
253.0592863184
 30
0.0
 40
34.0
100
AcDbArc
 50
0.0
 51
243.3967648255
  0
ARC
  5
2C1
330
20F
100
AcDbEntity
  8
$DDT_AUDIT_GENERATED_(97)
  6
Continuous
 62
     7
100
AcDbCircle
 10
181.0694842348
 20
253.0592863184
 30
0.0
 40
34.0
100
AcDbArc
 50
297.5124753537
 51
0.0
  0
ENDBLK
  5
2C3
330
20F
100
AcDbEntity
  8
0
100
AcDbBlockEnd
  0
ENDSEC
  0
SECTION
  2
ENTITIES
  0
INSERT
  5
5F
330
1F
100
AcDbEntity
  8
Default
100
AcDbBlockReference
  2
SEANNOT_GROUP
 10
0.0
 20
0.0
 30
0.0
  0
INSERT
  5
66
330
1F
100
AcDbEntity
  8
Default
100
AcDbBlockReference
  2
SEANNOT_GROUP1
 10
0.0
 20
0.0
 30
0.0
  0
INSERT
  5
6C
330
1F
100
AcDbEntity
  8
Default
100
AcDbBlockReference
  2
SEANNOT_GROUP2
 10
0.0
 20
0.0
 30
0.0
  0
INSERT
  5
72
330
1F
100
AcDbEntity
  8
Default
100
AcDbBlockReference
  2
SEANNOT_GROUP3
 10
0.0
 20
0.0
 30
0.0
  0
INSERT
  5
78
330
1F
100
AcDbEntity
  8
Default
100
AcDbBlockReference
  2
SEANNOT_GROUP4
 10
0.0
 20
0.0
 30
0.0
  0
INSERT
  5
82
330
1F
100
AcDbEntity
  8
Default
100
AcDbBlockReference
  2
SEANNOT_GROUP5
 10
0.0
 20
0.0
 30
0.0
  0
INSERT
  5
8C
330
1F
100
AcDbEntity
  8
Default
100
AcDbBlockReference
  2
SEANNOT_GROUP6
 10
0.0
 20
0.0
 30
0.0
  0
INSERT
  5
96
330
1F
100
AcDbEntity
  8
Default
100
AcDbBlockReference
  2
SE
 10
0.0
 20
0.0
 30
0.0
  0
INSERT
  5
181
330
1F
100
AcDbEntity
  8
Default
100
AcDbBlockReference
  2
SE1
 10
0.0
 20
0.0
 30
0.0
  0
INSERT
  5
210
330
1F
100
AcDbEntity
  8
Default
100
AcDbBlockReference
  2
SE2
 10
0.0
 20
0.0
 30
0.0
  0
TEXT
  5
2C5
330
1F
100
AcDbEntity
  8
Default
  6
Continuous
 62
     7
100
AcDbText
 10
5.9362635081
 20
53.4225120485
 30
0.0
 40
10.0
  1
Grohe AG^J
  7
SEACAD_seiso_ttf
 11
5.9362635081
 21
63.4225120485
 31
0.0
100
AcDbText
 73
     3
  0
TEXT
  5
2C6
330
1F
100
AcDbEntity
  8
Default
  6
Continuous
 62
     7
100
AcDbText
 10
5.9362635081
 20
37.0588756849
 30
0.0
 40
10.0
  1
 
  7
SEACAD_seiso_ttf
 11
5.9362635081
 21
47.0588756849
 31
0.0
100
AcDbText
 73
     3
  0
TEXT
  5
2C7
330
1F
100
AcDbEntity
  8
Default
  6
Continuous
 62
     7
100
AcDbText
 10
5.9362635081
 20
20.6952393213
 30
0.0
 40
10.0
  1
ecn: 
  7
SEACAD_seiso_ttf
 11
5.9362635081
 21
30.6952393213
 31
0.0
100
AcDbText
 73
     3
  0
TEXT
  5
2C8
330
1F
100
AcDbEntity
  8
Default
  6
Continuous
 62
     7
100
AcDbText
 10
5.9362635081
 20
4.3316029576
 30
0.0
 40
10.0
  1
unit: mm
  7
SEACAD_seiso_ttf
 11
5.9362635081
 21
14.3316029576
 31
0.0
100
AcDbText
 73
     3
  0
LINE
  5
2C9
330
1F
100
AcDbEntity
  8
Default
  6
Continuous
 62
     7
100
AcDbLine
 10
0.0
 20
0.0
 30
0.0
 11
100.0
 21
0.0
 31
0.0
  0
LINE
  5
2CA
330
1F
100
AcDbEntity
  8
Default
  6
Continuous
 62
     7
100
AcDbLine
 10
0.0
 20
0.0
 30
0.0
 11
0.0
 21
100.0
 31
0.0
  0
TEXT
  5
2CB
330
1F
100
AcDbEntity
  8
Default
  6
Continuous
 62
     7
100
AcDbText
 10
24.3923665681
 20
-18.2375342018
 30
0.0
 40
10.0
  1
100 mm
  7
SEACAD_seiso_ttf
 11
24.3923665681
 21
-8.2375342018
 31
0.0
100
AcDbText
 73
     3
  0
TEXT
  5
2CC
330
1F
100
AcDbEntity
  8
Default
  6
Continuous
 62
     7
100
AcDbText
 10
-7.6150308803
 20
24.6231930421
 30
0.0
 40
10.0
  1
100 mm
 50
90.0
  7
SEACAD_seiso_ttf
 11
-17.6150308803
 21
24.6231930421
 31
0.0
100
AcDbText
 73
     3
  0
TEXT
  5
2CD
330
1F
100
AcDbEntity
  8
Default
  6
Continuous
 62
     7
100
AcDbText
 10
28.4878128572
 20
20.0907663715
 30
0.0
 40
10.0
  1
208760
  7
SEACAD_seiso_ttf
 11
28.4878128572
 21
30.0907663715
 31
0.0
100
AcDbText
 73
     3
  0
TEXT
  5
2CE
330
1F
100
AcDbEntity
  8
Default
  6
Continuous
 62
     7
100
AcDbText
 10
5.9012241913
 20
36.7242780188
 30
0.0
 40
10.0
  1
20014000
  7
SEACAD_seiso_ttf
 11
5.9012241913
 21
46.7242780188
 31
0.0
100
AcDbText
 73
     3
  0
ENDSEC
  0
SECTION
  2
OBJECTS
  0
DICTIONARY
  5
C
330
0
100
AcDbDictionary
281
     1
  3
ACAD_GROUP
350
D
  3
ACAD_LAYOUT
350
1A
  3
ACAD_MLEADERSTYLE
350
2D2
  3
ACAD_MLINESTYLE
350
17
  3
ACAD_PLOTSETTINGS
350
19
  3
ACAD_PLOTSTYLENAME
350
E
  3
ACAD_SCALELIST
350
3B
  3
ACAD_TABLESTYLE
350
2D1
  3
ACAD_VISUALSTYLE
350
2A
  3
AcDbVariableDictionary
350
2CF
  0
DICTIONARY
  5
D
102
{ACAD_REACTORS
330
C
102
}
330
C
100
AcDbDictionary
281
     1
  0
DICTIONARY
  5
1A
102
{ACAD_REACTORS
330
C
102
}
330
C
100
AcDbDictionary
281
     1
  3
Layout1
350
1E
  3
Model
350
22
  0
DICTIONARY
  5
2D2
102
{ACAD_REACTORS
330
C
102
}
330
C
100
AcDbDictionary
281
     1
  0
DICTIONARY
  5
17
102
{ACAD_REACTORS
330
C
102
}
330
C
100
AcDbDictionary
281
     1
  3
Standard
350
18
  0
DICTIONARY
  5
19
102
{ACAD_REACTORS
330
C
102
}
330
C
100
AcDbDictionary
281
     1
  0
ACDBDICTIONARYWDFLT
  5
E
102
{ACAD_REACTORS
330
C
102
}
330
C
100
AcDbDictionary
281
     1
  3
Normal
350
F
100
AcDbDictionaryWithDefault
340
F
  0
DICTIONARY
  5
3B
102
{ACAD_REACTORS
330
C
102
}
330
C
100
AcDbDictionary
281
     1
  3
A0
350
3C
  3
A1
350
3D
  3
A2
350
3E
  3
A3
350
3F
  3
A4
350
40
  3
A5
350
41
  3
A6
350
42
  3
A7
350
43
  3
A8
350
44
  3
A9
350
45
  3
B0
350
46
  3
B1
350
47
  3
B2
350
48
  3
B3
350
49
  3
B4
350
4A
  3
B5
350
4B
  3
B6
350
4C
  3
B7
350
4D
  3
B8
350
4E
  3
B9
350
4F
  3
C0
350
50
  3
C1
350
51
  3
C2
350
52
  3
C3
350
53
  3
C4
350
54
  3
C5
350
55
  3
C6
350
56
  3
C7
350
57
  3
C8
350
58
  3
C9
350
59
  3
D0
350
5A
  3
D1
350
5B
  3
D2
350
5C
  0
DICTIONARY
  5
2D1
102
{ACAD_REACTORS
330
C
102
}
330
C
100
AcDbDictionary
281
     1
  0
DICTIONARY
  5
2A
102
{ACAD_REACTORS
330
C
102
}
330
C
100
AcDbDictionary
281
     1
  3
2dWireframe
350
2F
  3
3D Hidden
350
31
  3
3dWireframe
350
30
  3
Basic
350
32
  3
Brighten
350
36
  3
ColorChange
350
3A
  3
Conceptual
350
34
  3
Dim
350
35
  3
Facepattern
350
39
  3
Flat
350
2B
  3
FlatWithEdges
350
2C
  3
Gouraud
350
2D
  3
GouraudWithEdges
350
2E
  3
Linepattern
350
38
  3
Realistic
350
33
  3
Thicken
350
37
  0
DICTIONARY
  5
2CF
102
{ACAD_REACTORS
330
C
102
}
330
C
100
AcDbDictionary
281
     1
  3
CANNOSCALE
350
2D0
  3
PSOLHEIGHT
350
2D4
  3
PSOLWIDTH
350
2D3
  0
LAYOUT
  5
1E
102
{ACAD_REACTORS
330
1A
102
}
330
1A
100
AcDbPlotSettings
  1

  2
none_device
  4

  6

 40
0.0
 41
0.0
 42
0.0
 43
0.0
 44
0.0
 45
0.0
 46
0.0
 47
0.0
 48
0.0
 49
0.0
140
0.0
141
0.0
142
1.0
143
1.0
 70
   688
 72
     0
 73
     0
 74
     5
  7

 75
    16
147
1.0
148
0.0
149
0.0
100
AcDbLayout
  1
Layout1
 70
     1
 71
     1
 10
0.0
 20
0.0
 11
1682.0
 21
2378.0
 12
0.0
 22
0.0
 32
0.0
 14
0.0
 24
0.0
 34
0.0
 15
1682.0
 25
2378.0
 35
0.0
146
0.0
 13
0.0
 23
0.0
 33
0.0
 16
1.0
 26
0.0
 36
0.0
 17
0.0
 27
1.0
 37
0.0
 76
     0
330
1B
  0
LAYOUT
  5
22
102
{ACAD_REACTORS
330
1A
102
}
330
1A
100
AcDbPlotSettings
  1

  2
none_device
  4

  6

 40
0.0
 41
0.0
 42
0.0
 43
0.0
 44
0.0
 45
0.0
 46
0.0
 47
0.0
 48
0.0
 49
0.0
140
0.0
141
0.0
142
1.0
143
1.0
 70
  1712
 72
     0
 73
     0
 74
     0
  7

 75
     0
147
1.0
148
0.0
149
0.0
100
AcDbLayout
  1
Model
 70
     1
 71
     0
 10
0.0
 20
0.0
 11
1682.0
 21
2378.0
 12
0.0
 22
0.0
 32
0.0
 14
0.0
 24
0.0
 34
0.0
 15
1682.0
 25
2378.0
 35
0.0
146
0.0
 13
0.0
 23
0.0
 33
0.0
 16
1.0
 26
0.0
 36
0.0
 17
0.0
 27
1.0
 37
0.0
 76
     0
330
1F
331
29
  0
MLINESTYLE
  5
18
102
{ACAD_REACTORS
330
17
102
}
330
17
100
AcDbMlineStyle
  2
Standard
 70
     0
  3

 62
   256
 51
90.0
 52
90.0
 71
     2
 49
0.5
 62
   256
  6
BYLAYER
 49
-0.5
 62
   256
  6
BYLAYER
  0
ACDBPLACEHOLDER
  5
F
102
{ACAD_REACTORS
330
E
102
}
330
E
  0
SCALE
  5
3C
102
{ACAD_REACTORS
330
3B
102
}
330
3B
100
AcDbScale
 70
     0
300
1:1
140
1.0
141
1.0
290
     1
  0
SCALE
  5
3D
102
{ACAD_REACTORS
330
3B
102
}
330
3B
100
AcDbScale
 70
     0
300
1:2
140
1.0
141
2.0
290
     0
  0
SCALE
  5
3E
102
{ACAD_REACTORS
330
3B
102
}
330
3B
100
AcDbScale
 70
     0
300
1:4
140
1.0
141
4.0
290
     0
  0
SCALE
  5
3F
102
{ACAD_REACTORS
330
3B
102
}
330
3B
100
AcDbScale
 70
     0
300
1:5
140
1.0
141
5.0
290
     0
  0
SCALE
  5
40
102
{ACAD_REACTORS
330
3B
102
}
330
3B
100
AcDbScale
 70
     0
300
1:8
140
1.0
141
8.0
290
     0
  0
SCALE
  5
41
102
{ACAD_REACTORS
330
3B
102
}
330
3B
100
AcDbScale
 70
     0
300
1:10
140
1.0
141
10.0
290
     0
  0
SCALE
  5
42
102
{ACAD_REACTORS
330
3B
102
}
330
3B
100
AcDbScale
 70
     0
300
1:16
140
1.0
141
16.0
290
     0
  0
SCALE
  5
43
102
{ACAD_REACTORS
330
3B
102
}
330
3B
100
AcDbScale
 70
     0
300
1:20
140
1.0
141
20.0
290
     0
  0
SCALE
  5
44
102
{ACAD_REACTORS
330
3B
102
}
330
3B
100
AcDbScale
 70
     0
300
1:30
140
1.0
141
30.0
290
     0
  0
SCALE
  5
45
102
{ACAD_REACTORS
330
3B
102
}
330
3B
100
AcDbScale
 70
     0
300
1:40
140
1.0
141
40.0
290
     0
  0
SCALE
  5
46
102
{ACAD_REACTORS
330
3B
102
}
330
3B
100
AcDbScale
 70
     0
300
1:50
140
1.0
141
50.0
290
     0
  0
SCALE
  5
47
102
{ACAD_REACTORS
330
3B
102
}
330
3B
100
AcDbScale
 70
     0
300
1:100
140
1.0
141
100.0
290
     0
  0
SCALE
  5
48
102
{ACAD_REACTORS
330
3B
102
}
330
3B
100
AcDbScale
 70
     0
300
2:1
140
2.0
141
1.0
290
     0
  0
SCALE
  5
49
102
{ACAD_REACTORS
330
3B
102
}
330
3B
100
AcDbScale
 70
     0
300
4:1
140
4.0
141
1.0
290
     0
  0
SCALE
  5
4A
102
{ACAD_REACTORS
330
3B
102
}
330
3B
100
AcDbScale
 70
     0
300
8:1
140
8.0
141
1.0
290
     0
  0
SCALE
  5
4B
102
{ACAD_REACTORS
330
3B
102
}
330
3B
100
AcDbScale
 70
     0
300
10:1
140
10.0
141
1.0
290
     0
  0
SCALE
  5
4C
102
{ACAD_REACTORS
330
3B
102
}
330
3B
100
AcDbScale
 70
     0
300
100:1
140
100.0
141
1.0
290
     0
  0
SCALE
  5
4D
102
{ACAD_REACTORS
330
3B
102
}
330
3B
100
AcDbScale
 70
     0
300
1/128" = 1'-0"
140
0.0078125
141
12.0
290
     0
  0
SCALE
  5
4E
102
{ACAD_REACTORS
330
3B
102
}
330
3B
100
AcDbScale
 70
     0
300
1/64" = 1'-0"
140
0.015625
141
12.0
290
     0
  0
SCALE
  5
4F
102
{ACAD_REACTORS
330
3B
102
}
330
3B
100
AcDbScale
 70
     0
300
1/32" = 1'-0"
140
0.03125
141
12.0
290
     0
  0
SCALE
  5
50
102
{ACAD_REACTORS
330
3B
102
}
330
3B
100
AcDbScale
 70
     0
300
1/16" = 1'-0"
140
0.0625
141
12.0
290
     0
  0
SCALE
  5
51
102
{ACAD_REACTORS
330
3B
102
}
330
3B
100
AcDbScale
 70
     0
300
3/32" = 1'-0"
140
0.09375
141
12.0
290
     0
  0
SCALE
  5
52
102
{ACAD_REACTORS
330
3B
102
}
330
3B
100
AcDbScale
 70
     0
300
1/8" = 1'-0"
140
0.125
141
12.0
290
     0
  0
SCALE
  5
53
102
{ACAD_REACTORS
330
3B
102
}
330
3B
100
AcDbScale
 70
     0
300
3/16" = 1'-0"
140
0.1875
141
12.0
290
     0
  0
SCALE
  5
54
102
{ACAD_REACTORS
330
3B
102
}
330
3B
100
AcDbScale
 70
     0
300
1/4" = 1'-0"
140
0.25
141
12.0
290
     0
  0
SCALE
  5
55
102
{ACAD_REACTORS
330
3B
102
}
330
3B
100
AcDbScale
 70
     0
300
3/8" = 1'-0"
140
0.375
141
12.0
290
     0
  0
SCALE
  5
56
102
{ACAD_REACTORS
330
3B
102
}
330
3B
100
AcDbScale
 70
     0
300
1/2" = 1'-0"
140
0.5
141
12.0
290
     0
  0
SCALE
  5
57
102
{ACAD_REACTORS
330
3B
102
}
330
3B
100
AcDbScale
 70
     0
300
3/4" = 1'-0"
140
0.75
141
12.0
290
     0
  0
SCALE
  5
58
102
{ACAD_REACTORS
330
3B
102
}
330
3B
100
AcDbScale
 70
     0
300
1" = 1'-0"
140
1.0
141
12.0
290
     0
  0
SCALE
  5
59
102
{ACAD_REACTORS
330
3B
102
}
330
3B
100
AcDbScale
 70
     0
300
1-1/2" = 1'-0"
140
1.5
141
12.0
290
     0
  0
SCALE
  5
5A
102
{ACAD_REACTORS
330
3B
102
}
330
3B
100
AcDbScale
 70
     0
300
3" = 1'-0"
140
3.0
141
12.0
290
     0
  0
SCALE
  5
5B
102
{ACAD_REACTORS
330
3B
102
}
330
3B
100
AcDbScale
 70
     0
300
6" = 1'-0"
140
6.0
141
12.0
290
     0
  0
SCALE
  5
5C
102
{ACAD_REACTORS
330
3B
102
}
330
3B
100
AcDbScale
 70
     0
300
1'-0" = 1'-0"
140
12.0
141
12.0
290
     0
  0
VISUALSTYLE
  5
2F
102
{ACAD_REACTORS
330
2A
102
}
330
2A
100
AcDbVisualStyle
  2
2dWireframe
 70
     4
 71
     0
 72
     2
 73
     0
 90
        0
 40
-0.6
 41
-30.0
 62
     5
 63
     7
 74
     1
 91
        4
 64
     7
 65
   257
 75
     1
175
     1
 42
1.0
 92
        0
 66
   257
 43
1.0
 76
     1
 77
     6
 78
     2
 67
     7
 79
     5
170
     0
171
     0
290
     0
174
     0
 93
        1
 44
0.0
173
     0
291
     0
 45
0.0
1001
ACAD
1000
AcDbSavedByObjectVersion
1070
     0
  0
VISUALSTYLE
  5
31
102
{ACAD_REACTORS
330
2A
102
}
330
2A
100
AcDbVisualStyle
  2
3D Hidden
 70
     6
 71
     1
 72
     2
 73
     2
 90
        0
 40
-0.6
 41
-30.0
 62
     5
 63
     7
 74
     2
 91
        2
 64
     7
 65
   257
 75
     2
175
     1
 42
40.0
 92
        0
 66
   257
 43
1.0
 76
     1
 77
     6
 78
     2
 67
     7
 79
     3
170
     0
171
     0
290
     0
174
     0
 93
        1
 44
0.0
173
     0
291
     0
 45
0.0
1001
ACAD
1000
AcDbSavedByObjectVersion
1070
     0
  0
VISUALSTYLE
  5
30
102
{ACAD_REACTORS
330
2A
102
}
330
2A
100
AcDbVisualStyle
  2
3dWireframe
 70
     5
 71
     0
 72
     2
 73
     0
 90
        0
 40
-0.6
 41
-30.0
 62
     5
 63
     7
 74
     1
 91
        4
 64
     7
 65
   257
 75
     1
175
     1
 42
1.0
 92
        0
 66
   257
 43
1.0
 76
     1
 77
     6
 78
     2
 67
     7
 79
     5
170
     0
171
     0
290
     0
174
     0
 93
        1
 44
0.0
173
     0
291
     0
 45
0.0
1001
ACAD
1000
AcDbSavedByObjectVersion
1070
     0
  0
VISUALSTYLE
  5
32
102
{ACAD_REACTORS
330
2A
102
}
330
2A
100
AcDbVisualStyle
  2
Basic
 70
     7
 71
     1
 72
     0
 73
     1
 90
        0
 40
-0.6
 41
-30.0
 62
     5
 63
     7
 74
     0
 91
        4
 64
     7
 65
   257
 75
     1
175
     1
 42
1.0
 92
        8
 66
     7
 43
1.0
 76
     1
 77
     6
 78
     2
 67
     7
 79
     5
170
     0
171
     0
290
     0
174
     0
 93
        1
 44
0.0
173
     0
291
     1
 45
0.0
1001
ACAD
1000
AcDbSavedByObjectVersion
1070
     0
  0
VISUALSTYLE
  5
36
102
{ACAD_REACTORS
330
2A
102
}
330
2A
100
AcDbVisualStyle
  2
Brighten
 70
    12
 71
     2
 72
     2
 73
     0
 90
        0
 40
-0.6
 41
-30.0
 62
     5
 63
     7
 74
     1
 91
        4
 64
     7
 65
   257
 75
     1
175
     1
 42
1.0
 92
        8
 66
     7
 43
1.0
 76
     1
 77
     6
 78
     2
 67
     7
 79
     5
170
     0
171
     0
290
     0
174
     0
 93
        1
 44
50.0
173
     0
291
     1
 45
0.0
1001
ACAD
1000
AcDbSavedByObjectVersion
1070
     0
  0
VISUALSTYLE
  5
3A
102
{ACAD_REACTORS
330
2A
102
}
330
2A
100
AcDbVisualStyle
  2
ColorChange
 70
    16
 71
     2
 72
     2
 73
     3
 90
        0
 40
-0.6
 41
-30.0
 62
     5
 63
     8
 74
     1
 91
        4
 64
     7
 65
   257
 75
     1
175
     1
 42
1.0
 92
        8
 66
     8
 43
1.0
 76
     1
 77
     6
 78
     2
 67
     7
 79
     5
170
     0
171
     0
290
     0
174
     0
 93
        1
 44
0.0
173
     0
291
     1
 45
0.0
1001
ACAD
1000
AcDbSavedByObjectVersion
1070
     0
  0
VISUALSTYLE
  5
34
102
{ACAD_REACTORS
330
2A
102
}
330
2A
100
AcDbVisualStyle
  2
Conceptual
 70
     9
 71
     3
 72
     2
 73
     0
 90
        0
 40
-0.6
 41
-30.0
 62
     5
 63
     7
 74
     2
 91
        2
 64
     7
 65
   257
 75
     1
175
     1
 42
40.0
 92
        8
 66
     7
 43
1.0
 76
     1
 77
     6
 78
     2
 67
     7
 79
     3
170
     0
171
     0
290
     0
174
     0
 93
        1
 44
0.0
173
     0
291
     0
 45
0.0
1001
ACAD
1000
AcDbSavedByObjectVersion
1070
     0
  0
VISUALSTYLE
  5
35
102
{ACAD_REACTORS
330
2A
102
}
330
2A
100
AcDbVisualStyle
  2
Dim
 70
    11
 71
     2
 72
     2
 73
     0
 90
        0
 40
-0.6
 41
-30.0
 62
     5
 63
     7
 74
     1
 91
        4
 64
     7
 65
   257
 75
     1
175
     1
 42
1.0
 92
        8
 66
     7
 43
1.0
 76
     1
 77
     6
 78
     2
 67
     7
 79
     5
170
     0
171
     0
290
     0
174
     0
 93
        1
 44
-50.0
173
     0
291
     1
 45
0.0
1001
ACAD
1000
AcDbSavedByObjectVersion
1070
     0
  0
VISUALSTYLE
  5
39
102
{ACAD_REACTORS
330
2A
102
}
330
2A
100
AcDbVisualStyle
  2
Facepattern
 70
    15
 71
     2
 72
     2
 73
     0
 90
        0
 40
-0.6
 41
-30.0
 62
     5
 63
     7
 74
     1
 91
        4
 64
     7
 65
   257
 75
     1
175
     1
 42
1.0
 92
        8
 66
     7
 43
1.0
 76
     1
 77
     6
 78
     2
 67
     7
 79
     5
170
     0
171
     0
290
     0
174
     0
 93
        1
 44
0.0
173
     0
291
     1
 45
0.0
1001
ACAD
1000
AcDbSavedByObjectVersion
1070
     0
  0
VISUALSTYLE
  5
2B
102
{ACAD_REACTORS
330
2A
102
}
330
2A
100
AcDbVisualStyle
  2
Flat
 70
     0
 71
     2
 72
     1
 73
     1
 90
        2
 40
-0.6
 41
30.0
 62
     5
 63
     7
 74
     0
 91
        4
 64
     7
 65
   257
 75
     1
175
     1
 42
1.0
 92
        8
 66
     7
 43
1.0
 76
     1
 77
     6
 78
     2
 67
     7
 79
     5
170
     0
171
     0
290
     0
174
     0
 93
       13
 44
0.0
173
     0
291
     1
 45
0.0
1001
ACAD
1000
AcDbSavedByObjectVersion
1070
     0
  0
VISUALSTYLE
  5
2C
102
{ACAD_REACTORS
330
2A
102
}
330
2A
100
AcDbVisualStyle
  2
FlatWithEdges
 70
     1
 71
     2
 72
     1
 73
     1
 90
        2
 40
-0.6
 41
30.0
 62
     5
 63
     7
 74
     1
 91
        4
 64
     7
 65
   257
 75
     1
175
     1
 42
1.0
 92
        0
 66
   257
 43
1.0
 76
     1
 77
     6
 78
     2
 67
     7
 79
     5
170
     0
171
     0
290
     0
174
     0
 93
       13
 44
0.0
173
     0
291
     1
 45
0.0
1001
ACAD
1000
AcDbSavedByObjectVersion
1070
     0
  0
VISUALSTYLE
  5
2D
102
{ACAD_REACTORS
330
2A
102
}
330
2A
100
AcDbVisualStyle
  2
Gouraud
 70
     2
 71
     2
 72
     2
 73
     1
 90
        2
 40
-0.6
 41
30.0
 62
     5
 63
     7
 74
     0
 91
        4
 64
     7
 65
   257
 75
     1
175
     1
 42
1.0
 92
        0
 66
     7
 43
1.0
 76
     1
 77
     6
 78
     2
 67
     7
 79
     5
170
     0
171
     0
290
     0
174
     0
 93
       13
 44
0.0
173
     0
291
     1
 45
0.0
1001
ACAD
1000
AcDbSavedByObjectVersion
1070
     0
  0
VISUALSTYLE
  5
2E
102
{ACAD_REACTORS
330
2A
102
}
330
2A
100
AcDbVisualStyle
  2
GouraudWithEdges
 70
     3
 71
     2
 72
     2
 73
     1
 90
        2
 40
-0.6
 41
30.0
 62
     5
 63
     7
 74
     1
 91
        4
 64
     7
 65
   257
 75
     1
175
     1
 42
1.0
 92
        0
 66
   257
 43
1.0
 76
     1
 77
     6
 78
     2
 67
     7
 79
     5
170
     0
171
     0
290
     0
174
     0
 93
       13
 44
0.0
173
     0
291
     1
 45
0.0
1001
ACAD
1000
AcDbSavedByObjectVersion
1070
     0
  0
VISUALSTYLE
  5
38
102
{ACAD_REACTORS
330
2A
102
}
330
2A
100
AcDbVisualStyle
  2
Linepattern
 70
    14
 71
     2
 72
     2
 73
     0
 90
        0
 40
-0.6
 41
-30.0
 62
     5
 63
     7
 74
     1
 91
        4
 64
     7
 65
   257
 75
     7
175
     7
 42
1.0
 92
        8
 66
     7
 43
1.0
 76
     1
 77
     6
 78
     2
 67
     7
 79
     5
170
     0
171
     0
290
     0
174
     0
 93
        1
 44
0.0
173
     0
291
     1
 45
0.0
1001
ACAD
1000
AcDbSavedByObjectVersion
1070
     0
  0
VISUALSTYLE
  5
33
102
{ACAD_REACTORS
330
2A
102
}
330
2A
100
AcDbVisualStyle
  2
Realistic
 70
     8
 71
     2
 72
     2
 73
     0
 90
        0
 40
-0.6
 41
-30.0
 62
     5
 63
     7
 74
     1
 91
        0
 64
     7
 65
   257
 75
     1
175
     1
 42
1.0
 92
        8
 66
     8
 43
1.0
 76
     1
 77
     6
 78
     2
 67
     7
 79
     5
170
     0
171
     0
290
     0
174
     0
 93
       13
 44
0.0
173
     0
291
     0
 45
0.0
1001
ACAD
1000
AcDbSavedByObjectVersion
1070
     0
  0
VISUALSTYLE
  5
37
102
{ACAD_REACTORS
330
2A
102
}
330
2A
100
AcDbVisualStyle
  2
Thicken
 70
    13
 71
     2
 72
     2
 73
     0
 90
        0
 40
-0.6
 41
-30.0
 62
     5
 63
     7
 74
     1
 91
        4
 64
     7
 65
   257
 75
     1
175
     1
 42
1.0
 92
       12
 66
     7
 43
1.0
 76
     1
 77
     6
 78
     2
 67
     7
 79
     5
170
     0
171
     0
290
     0
174
     0
 93
        1
 44
0.0
173
     0
291
     1
 45
0.0
1001
ACAD
1000
AcDbSavedByObjectVersion
1070
     0
  0
DICTIONARYVAR
  5
2D0
102
{ACAD_REACTORS
330
2CF
102
}
330
2CF
100
DictionaryVariables
280
     0
  1
1:1
  0
DICTIONARYVAR
  5
2D4
102
{ACAD_REACTORS
330
2CF
102
}
330
2CF
100
DictionaryVariables
280
     0
  1
80.000000
  0
DICTIONARYVAR
  5
2D3
102
{ACAD_REACTORS
330
2CF
102
}
330
2CF
100
DictionaryVariables
280
     0
  1
5.000000
  0
ENDSEC
  0
EOF
